  0
SECTION
  2
HEADER
  9
$ACADVER
  1
AC1015
  9
$ACADMAINTVER
 70
    18
  9
$DWGCODEPAGE
  3
ANSI_1252
  9
$INSBASE
 10
0.0
 20
0.0
 30
0.0
  9
$EXTMIN
 10
-5.04363916470163
 20
-58.87792906453592
 30
-0.0015258207003583
  9
$EXTMAX
 10
16.48956349642196
 20
0.0135959268239958
 30
0.0000000349246037
  9
$LIMMIN
 10
0.0
 20
0.0
  9
$LIMMAX
 10
420.0
 20
297.0
  9
$ORTHOMODE
 70
     0
  9
$REGENMODE
 70
     1
  9
$FILLMODE
 70
     1
  9
$QTEXTMODE
 70
     0
  9
$MIRRTEXT
 70
     0
  9
$LTSCALE
 40
1.0
  9
$ATTMODE
 70
     1
  9
$TEXTSIZE
 40
2.5
  9
$TRACEWID
 40
1.0
  9
$TEXTSTYLE
  7
Standard
  9
$CLAYER
  8
0
  9
$CELTYPE
  6
ByLayer
  9
$CECOLOR
 62
   256
  9
$CELTSCALE
 40
1.0
  9
$DISPSILH
 70
     0
  9
$DIMSCALE
 40
1.0
  9
$DIMASZ
 40
2.5
  9
$DIMEXO
 40
0.625
  9
$DIMDLI
 40
3.75
  9
$DIMRND
 40
0.0
  9
$DIMDLE
 40
0.0
  9
$DIMEXE
 40
1.25
  9
$DIMTP
 40
0.0
  9
$DIMTM
 40
0.0
  9
$DIMTXT
 40
2.5
  9
$DIMCEN
 40
2.5
  9
$DIMTSZ
 40
0.0
  9
$DIMTOL
 70
     0
  9
$DIMLIM
 70
     0
  9
$DIMTIH
 70
     0
  9
$DIMTOH
 70
     0
  9
$DIMSE1
 70
     0
  9
$DIMSE2
 70
     0
  9
$DIMTAD
 70
     1
  9
$DIMZIN
 70
     8
  9
$DIMBLK
  1

  9
$DIMASO
 70
     1
  9
$DIMSHO
 70
     1
  9
$DIMPOST
  1

  9
$DIMAPOST
  1

  9
$DIMALT
 70
     0
  9
$DIMALTD
 70
     3
  9
$DIMALTF
 40
0.03937007874016
  9
$DIMLFAC
 40
1.0
  9
$DIMTOFL
 70
     1
  9
$DIMTVP
 40
0.0
  9
$DIMTIX
 70
     0
  9
$DIMSOXD
 70
     0
  9
$DIMSAH
 70
     0
  9
$DIMBLK1
  1

  9
$DIMBLK2
  1

  9
$DIMSTYLE
  2
ISO-25
  9
$DIMCLRD
 70
     0
  9
$DIMCLRE
 70
     0
  9
$DIMCLRT
 70
     0
  9
$DIMTFAC
 40
1.0
  9
$DIMGAP
 40
0.625
  9
$DIMJUST
 70
     0
  9
$DIMSD1
 70
     0
  9
$DIMSD2
 70
     0
  9
$DIMTOLJ
 70
     0
  9
$DIMTZIN
 70
     8
  9
$DIMALTZ
 70
     0
  9
$DIMALTTZ
 70
     0
  9
$DIMUPT
 70
     0
  9
$DIMDEC
 70
     2
  9
$DIMTDEC
 70
     2
  9
$DIMALTU
 70
     2
  9
$DIMALTTD
 70
     3
  9
$DIMTXSTY
  7
Standard
  9
$DIMAUNIT
 70
     0
  9
$DIMADEC
 70
     0
  9
$DIMALTRND
 40
0.0
  9
$DIMAZIN
 70
     0
  9
$DIMDSEP
 70
    44
  9
$DIMATFIT
 70
     3
  9
$DIMFRAC
 70
     0
  9
$DIMLDRBLK
  1

  9
$DIMLUNIT
 70
     2
  9
$DIMLWD
 70
    -2
  9
$DIMLWE
 70
    -2
  9
$DIMTMOVE
 70
     0
  9
$LUNITS
 70
     2
  9
$LUPREC
 70
     4
  9
$SKETCHINC
 40
1.0
  9
$FILLETRAD
 40
0.0
  9
$AUNITS
 70
     0
  9
$AUPREC
 70
     0
  9
$MENU
  1
.
  9
$ELEVATION
 40
0.0
  9
$PELEVATION
 40
0.0
  9
$THICKNESS
 40
0.0
  9
$LIMCHECK
 70
     0
  9
$CHAMFERA
 40
0.0
  9
$CHAMFERB
 40
0.0
  9
$CHAMFERC
 40
0.0
  9
$CHAMFERD
 40
0.0
  9
$SKPOLY
 70
     0
  9
$TDCREATE
 40
2460476.646099537
  9
$TDUCREATE
 40
2460476.354432870
  9
$TDUPDATE
 40
2460476.695416667
  9
$TDUUPDATE
 40
2460476.403750000
  9
$TDINDWG
 40
0.0232870370
  9
$TDUSRTIMER
 40
0.0232870370
  9
$USRTIMER
 70
     1
  9
$ANGBASE
 50
0.0
  9
$ANGDIR
 70
     0
  9
$PDMODE
 70
     0
  9
$PDSIZE
 40
0.0
  9
$PLINEWID
 40
0.0
  9
$SPLFRAME
 70
     0
  9
$SPLINETYPE
 70
     6
  9
$SPLINESEGS
 70
     8
  9
$HANDSEED
  5
39C77
  9
$SURFTAB1
 70
     6
  9
$SURFTAB2
 70
     6
  9
$SURFTYPE
 70
     6
  9
$SURFU
 70
     6
  9
$SURFV
 70
     6
  9
$UCSBASE
  2

  9
$UCSNAME
  2

  9
$UCSORG
 10
0.0
 20
0.0
 30
0.0
  9
$UCSXDIR
 10
1.0
 20
0.0
 30
0.0
  9
$UCSYDIR
 10
0.0
 20
1.0
 30
0.0
  9
$UCSORTHOREF
  2

  9
$UCSORTHOVIEW
 70
     0
  9
$UCSORGTOP
 10
0.0
 20
0.0
 30
0.0
  9
$UCSORGBOTTOM
 10
0.0
 20
0.0
 30
0.0
  9
$UCSORGLEFT
 10
0.0
 20
0.0
 30
0.0
  9
$UCSORGRIGHT
 10
0.0
 20
0.0
 30
0.0
  9
$UCSORGFRONT
 10
0.0
 20
0.0
 30
0.0
  9
$UCSORGBACK
 10
0.0
 20
0.0
 30
0.0
  9
$PUCSBASE
  2

  9
$PUCSNAME
  2

  9
$PUCSORG
 10
0.0
 20
0.0
 30
0.0
  9
$PUCSXDIR
 10
1.0
 20
0.0
 30
0.0
  9
$PUCSYDIR
 10
0.0
 20
1.0
 30
0.0
  9
$PUCSORTHOREF
  2

  9
$PUCSORTHOVIEW
 70
     0
  9
$PUCSORGTOP
 10
0.0
 20
0.0
 30
0.0
  9
$PUCSORGBOTTOM
 10
0.0
 20
0.0
 30
0.0
  9
$PUCSORGLEFT
 10
0.0
 20
0.0
 30
0.0
  9
$PUCSORGRIGHT
 10
0.0
 20
0.0
 30
0.0
  9
$PUCSORGFRONT
 10
0.0
 20
0.0
 30
0.0
  9
$PUCSORGBACK
 10
0.0
 20
0.0
 30
0.0
  9
$USERI1
 70
     0
  9
$USERI2
 70
     0
  9
$USERI3
 70
     0
  9
$USERI4
 70
     0
  9
$USERI5
 70
     0
  9
$USERR1
 40
0.0
  9
$USERR2
 40
0.0
  9
$USERR3
 40
0.0
  9
$USERR4
 40
0.0
  9
$USERR5
 40
0.0
  9
$WORLDVIEW
 70
     1
  9
$SHADEDGE
 70
     3
  9
$SHADEDIF
 70
    70
  9
$TILEMODE
 70
     1
  9
$MAXACTVP
 70
    48
  9
$PINSBASE
 10
0.0
 20
0.0
 30
0.0
  9
$PLIMCHECK
 70
     0
  9
$PEXTMIN
 10
0.0
 20
0.0
 30
0.0
  9
$PEXTMAX
 10
0.0
 20
0.0
 30
0.0
  9
$PLIMMIN
 10
0.0
 20
0.0
  9
$PLIMMAX
 10
12.0
 20
9.0
  9
$UNITMODE
 70
     0
  9
$VISRETAIN
 70
     1
  9
$PLINEGEN
 70
     0
  9
$PSLTSCALE
 70
     1
  9
$TREEDEPTH
 70
  3020
  9
$CMLSTYLE
  2
Standard
  9
$CMLJUST
 70
     0
  9
$CMLSCALE
 40
20.0
  9
$PROXYGRAPHICS
 70
     1
  9
$MEASUREMENT
 70
     1
  9
$CELWEIGHT
370
    -1
  9
$ENDCAPS
280
     0
  9
$JOINSTYLE
280
     0
  9
$LWDISPLAY
290
     0
  9
$INSUNITS
 70
     4
  9
$HYPERLINKBASE
  1

  9
$STYLESHEET
  1

  9
$XEDIT
290
     1
  9
$CEPSNTYPE
380
     0
  9
$PSTYLEMODE
290
     1
  9
$FINGERPRINTGUID
  2
{F9DBAE76-D248-2544-A6C6-CA8F37DA12E5}
  9
$VERSIONGUID
  2
{40AD5DE1-00F9-1345-AA5A-AF3D32B3A95C}
  9
$EXTNAMES
290
     1
  9
$PSVPSCALE
 40
0.0
  9
$OLESTARTUP
290
     0
  0
ENDSEC
  0
SECTION
  2
CLASSES
  0
CLASS
  1
ACDBDICTIONARYWDFLT
  2
AcDbDictionaryWithDefault
  3
ObjectDBX Classes
 90
        0
280
     0
281
     0
  0
CLASS
  1
ACDBPLACEHOLDER
  2
AcDbPlaceHolder
  3
ObjectDBX Classes
 90
        0
280
     0
281
     0
  0
CLASS
  1
LAYOUT
  2
AcDbLayout
  3
ObjectDBX Classes
 90
        0
280
     0
281
     0
  0
CLASS
  1
DICTIONARYVAR
  2
AcDbDictionaryVar
  3
ObjectDBX Classes
 90
        0
280
     0
281
     0
  0
CLASS
  1
TABLESTYLE
  2
AcDbTableStyle
  3
ObjectDBX Classes
 90
     4095
280
     0
281
     0
  0
CLASS
  1
MATERIAL
  2
AcDbMaterial
  3
ObjectDBX Classes
 90
     1153
280
     0
281
     0
  0
CLASS
  1
VISUALSTYLE
  2
AcDbVisualStyle
  3
ObjectDBX Classes
 90
     4095
280
     0
281
     0
  0
CLASS
  1
SCALE
  2
AcDbScale
  3
ObjectDBX Classes
 90
     1153
280
     0
281
     0
  0
CLASS
  1
MLEADERSTYLE
  2
AcDbMLeaderStyle
  3
ACDB_MLEADERSTYLE_CLASS
 90
     4095
280
     0
281
     0
  0
CLASS
  1
CELLSTYLEMAP
  2
AcDbCellStyleMap
  3
ObjectDBX Classes
 90
     1152
280
     0
281
     0
  0
CLASS
  1
EXACXREFPANELOBJECT
  2
ExAcXREFPanelObject
  3
EXAC_ESW
 90
    33793
280
     0
281
     0
  0
CLASS
  1
NPOCOLLECTION
  2
AcDbImpNonPersistentObjectsCollection
  3
ObjectDBX Classes
 90
    33921
280
     0
281
     0
  0
CLASS
  1
LAYER_INDEX
  2
AcDbLayerIndex
  3
ObjectDBX Classes
 90
    32768
280
     0
281
     0
  0
CLASS
  1
SPATIAL_INDEX
  2
AcDbSpatialIndex
  3
ObjectDBX Classes
 90
    32768
280
     0
281
     0
  0
CLASS
  1
IDBUFFER
  2
AcDbIdBuffer
  3
ObjectDBX Classes
 90
    32768
280
     0
281
     0
  0
CLASS
  1
ACDBSECTIONVIEWSTYLE
  2
AcDbSectionViewStyle
  3
ObjectDBX Classes
 90
     1025
280
     0
281
     0
  0
CLASS
  1
ACDBDETAILVIEWSTYLE
  2
AcDbDetailViewStyle
  3
ObjectDBX Classes
 90
     1025
280
     0
281
     0
  0
CLASS
  1
XRECORD
  2
AcDbXrecord
  3
ObjectDBX Classes
 90
        0
280
     0
281
     0
  0
ENDSEC
  0
SECTION
  2
TABLES
  0
TABLE
  2
VPORT
  5
8
102
{ACAD_XDICTIONARY
360
39B85
102
}
330
0
100
AcDbSymbolTable
 70
     1
  0
VPORT
  5
EA
330
8
100
AcDbSymbolTableRecord
100
AcDbViewportTableRecord
  2
*Active
 70
     0
 10
0.0
 20
0.0
 11
1.0
 21
1.0
 12
5.722962165860163
 22
-29.43216656885596
 13
0.0
 23
0.0
 14
10.0
 24
10.0
 15
10.0
 25
10.0
 16
0.0
 26
0.0
 36
1.0
 17
0.0
 27
0.0
 37
0.0
 40
62.62579988303408
 41
0.9846153846153846
 42
50.0
 43
0.0
 44
0.0
 50
0.0
 51
0.0
 71
     0
 72
  1000
 73
     1
 74
     3
 75
     0
 76
     1
 77
     0
 78
     0
281
     0
 65
     1
110
0.0
120
0.0
130
0.0
111
1.0
121
0.0
131
0.0
112
0.0
122
1.0
132
0.0
 79
     0
146
0.0
1001
ACAD_NAV_VCDISPLAY
1070
     3
  0
ENDTAB
  0
TABLE
  2
LTYPE
  5
5
330
0
100
AcDbSymbolTable
 70
     1
  0
LTYPE
  5
14
330
5
100
AcDbSymbolTableRecord
100
AcDbLinetypeTableRecord
  2
ByBlock
 70
     0
  3

 72
    65
 73
     0
 40
0.0
  0
LTYPE
  5
15
330
5
100
AcDbSymbolTableRecord
100
AcDbLinetypeTableRecord
  2
ByLayer
 70
     0
  3

 72
    65
 73
     0
 40
0.0
  0
LTYPE
  5
16
330
5
100
AcDbSymbolTableRecord
100
AcDbLinetypeTableRecord
  2
Continuous
 70
     0
  3
Solid line
 72
    65
 73
     0
 40
0.0
  0
ENDTAB
  0
TABLE
  2
LAYER
  5
2
102
{ACAD_XDICTIONARY
360
1FF
102
}
330
0
100
AcDbSymbolTable
 70
     1
  0
LAYER
  5
10
102
{ACAD_XDICTIONARY
360
13C
102
}
330
2
100
AcDbSymbolTableRecord
100
AcDbLayerTableRecord
  2
0
 70
     0
 62
     7
  6
Continuous
370
    -3
390
F
  0
ENDTAB
  0
TABLE
  2
STYLE
  5
3
330
0
100
AcDbSymbolTable
 70
     1
  0
STYLE
  5
11
330
3
100
AcDbSymbolTableRecord
100
AcDbTextStyleTableRecord
  2
Standard
 70
     0
 40
0.0
 41
1.0
 50
0.0
 71
     0
 42
2.5
  3
arial_1.ttf
  4

1001
ACAD
1000
Arial
1071
       34
  0
ENDTAB
  0
TABLE
  2
VIEW
  5
6
330
0
100
AcDbSymbolTable
 70
     0
  0
ENDTAB
  0
TABLE
  2
UCS
  5
7
330
0
100
AcDbSymbolTable
 70
     0
  0
ENDTAB
  0
TABLE
  2
APPID
  5
9
330
0
100
AcDbSymbolTable
 70
     8
  0
APPID
  5
12
330
9
100
AcDbSymbolTableRecord
100
AcDbRegAppTableRecord
  2
ACAD
 70
     0
  0
APPID
  5
9E
330
9
100
AcDbSymbolTableRecord
100
AcDbRegAppTableRecord
  2
ACAD_PSEXT
 70
     0
  0
APPID
  5
133
330
9
100
AcDbSymbolTableRecord
100
AcDbRegAppTableRecord
  2
AcadAnnoPO
 70
     0
  0
APPID
  5
134
330
9
100
AcDbSymbolTableRecord
100
AcDbRegAppTableRecord
  2
AcadAnnotative
 70
     0
  0
APPID
  5
135
330
9
100
AcDbSymbolTableRecord
100
AcDbRegAppTableRecord
  2
ACAD_DSTYLE_DIMJAG
 70
     0
  0
APPID
  5
136
330
9
100
AcDbSymbolTableRecord
100
AcDbRegAppTableRecord
  2
ACAD_DSTYLE_DIMTALN
 70
     0
  0
APPID
  5
165
330
9
100
AcDbSymbolTableRecord
100
AcDbRegAppTableRecord
  2
ACAD_MLEADERVER
 70
     0
  0
APPID
  5
217
330
9
100
AcDbSymbolTableRecord
100
AcDbRegAppTableRecord
  2
ACAD_NAV_VCDISPLAY
 70
     0
  0
ENDTAB
  0
TABLE
  2
DIMSTYLE
  5
A
330
0
100
AcDbSymbolTable
 70
     1
100
AcDbDimStyleTable
 71
     0
  0
DIMSTYLE
105
27
330
A
100
AcDbSymbolTableRecord
100
AcDbDimStyleTableRecord
  2
ISO-25
 70
     0
 41
2.5
 42
0.625
 43
3.75
 44
1.25
 73
     0
 74
     0
 77
     1
 78
     8
140
2.5
141
2.5
143
0.03937007874016
147
0.625
171
     3
172
     1
271
     2
272
     2
274
     3
278
    44
283
     0
284
     8
340
11
  0
ENDTAB
  0
TABLE
  2
BLOCK_RECORD
  5
1
330
0
100
AcDbSymbolTable
 70
     4
  0
BLOCK_RECORD
  5
1F
102
{ACAD_XDICTIONARY
360
1CE
102
}
330
1
100
AcDbSymbolTableRecord
100
AcDbBlockTableRecord
  2
*Model_Space
340
22
  0
BLOCK_RECORD
  5
D2
102
{ACAD_XDICTIONARY
360
39B38
102
}
330
1
100
AcDbSymbolTableRecord
100
AcDbBlockTableRecord
  2
*Paper_Space
340
D3
  0
BLOCK_RECORD
  5
D6
102
{ACAD_XDICTIONARY
360
39B3A
102
}
330
1
100
AcDbSymbolTableRecord
100
AcDbBlockTableRecord
  2
*Paper_Space0
340
D7
  0
BLOCK_RECORD
  5
3982F
330
1
100
AcDbSymbolTableRecord
100
AcDbBlockTableRecord
  2
TTF42X28PH2-Front
340
0
102
{BLKREFS
331
39B31
102
}
  0
BLOCK_RECORD
  5
399B0
330
1
100
AcDbSymbolTableRecord
100
AcDbBlockTableRecord
  2
TTF42X28PH2-Top
340
0
102
{BLKREFS
331
39B32
102
}
  0
BLOCK_RECORD
  5
39A82
330
1
100
AcDbSymbolTableRecord
100
AcDbBlockTableRecord
  2
TTF42X28PH2-ISO
340
0
102
{BLKREFS
331
39B33
102
}
  0
ENDTAB
  0
ENDSEC
  0
SECTION
  2
BLOCKS
  0
BLOCK
  5
20
330
1F
100
AcDbEntity
  8
0
100
AcDbBlockBegin
  2
*Model_Space
 70
     0
 10
0.0
 20
0.0
 30
0.0
  3
*Model_Space
  1

  0
ENDBLK
  5
21
330
1F
100
AcDbEntity
  8
0
100
AcDbBlockEnd
  0
BLOCK
  5
D4
330
D2
100
AcDbEntity
 67
     1
  8
0
100
AcDbBlockBegin
  2
*Paper_Space
 70
     0
 10
0.0
 20
0.0
 30
0.0
  3
*Paper_Space
  1

  0
ENDBLK
  5
D5
330
D2
100
AcDbEntity
 67
     1
  8
0
100
AcDbBlockEnd
  0
BLOCK
  5
D8
330
D6
100
AcDbEntity
 67
     1
  8
0
100
AcDbBlockBegin
  2
*Paper_Space0
 70
     0
 10
0.0
 20
0.0
 30
0.0
  3
*Paper_Space0
  1

  0
ENDBLK
  5
D9
330
D6
100
AcDbEntity
 67
     1
  8
0
100
AcDbBlockEnd
  0
BLOCK
  5
39830
330
3982F
100
AcDbEntity
  8
0
100
AcDbBlockBegin
  2
TTF42X28PH2-Front
 70
     0
 10
0.0
 20
0.0
 30
0.0
  3
TTF42X28PH2-Front
  1

  0
LINE
  5
39832
330
3982F
100
AcDbEntity
  8
0
100
AcDbLine
 10
-0.549999999999999
 20
-1.675317213448535
 30
0.0
 11
-0.5499999999999997
 21
-5.245051433436706
 31
0.0
  0
LINE
  5
39833
330
3982F
100
AcDbEntity
  8
0
100
AcDbLine
 10
-0.549999999999999
 20
-1.675317213448535
 30
0.0
 11
-0.5499999999999992
 21
-0.5999999999999993
 31
0.0
  0
LINE
  5
39834
330
3982F
100
AcDbEntity
  8
0
100
AcDbLine
 10
-3.456515586540874
 20
-0.5999999999999999
 30
0.0
 11
-3.456515586540874
 21
-1.675317213448535
 31
0.0
  0
LINE
  5
39835
330
3982F
100
AcDbEntity
  8
0
100
AcDbLine
 10
-3.456515586540874
 20
-1.675317213448535
 30
0.0
 11
-1.395528573695288
 21
-5.245051433436703
 31
0.0
  0
LINE
  5
39836
330
3982F
100
AcDbEntity
  8
0
100
AcDbLine
 10
-1.395528573695288
 20
-4.064101615137754
 30
0.0
 11
-1.395528573695288
 21
-5.245051433436703
 31
0.0
  0
SPLINE
  5
39837
330
3982F
100
AcDbEntity
  8
0
100
AcDbSpline
210
0.0
220
0.0
230
1.0
 70
    12
 71
     2
 72
     6
 73
     3
 74
     0
 42
0.000000001
 43
0.0000000001
 40
0.0
 40
0.0
 40
0.0
 40
0.4030908193014336
 40
0.4030908193014336
 40
0.4030908193014336
 10
-3.456515586540874
 20
-0.5999999999999993
 30
0.0
 41
1.0
 10
-2.013824677549333
 20
-3.067768394238872
 30
0.0
 41
1.097580911423639
 10
-1.395528573695288
 20
-4.064101615137754
 30
0.0
 41
1.0
  0
LINE
  5
39838
330
3982F
100
AcDbEntity
  8
0
100
AcDbLine
 10
-3.5
 20
-1.599999999999996
 30
0.0
 11
-3.456515586540874
 21
-1.675317213448535
 31
0.0
  0
LINE
  5
39839
330
3982F
100
AcDbEntity
  8
0
100
AcDbLine
 10
3.456515586540875
 20
-1.675317213448536
 30
0.0
 11
3.5
 21
-1.599999999999996
 31
0.0
  0
LINE
  5
3983A
330
3982F
100
AcDbEntity
  8
0
100
AcDbLine
 10
3.456515586540874
 20
-1.675317213448536
 30
0.0
 11
1.395528573695288
 21
-5.245051433436706
 31
0.0
  0
ELLIPSE
  5
3983B
330
3982F
100
AcDbEntity
  8
0
100
AcDbEllipse
 10
0.0
 20
-7.662177826491074
 30
0.0
 11
-0.0000000000000016
 21
-6.06217782649108
 31
0.0
210
0.0
220
0.0
230
1.0
 40
0.5773502691896252
 41
2.983795757807776
 42
3.299389549371806
  0
ELLIPSE
  5
3983C
330
3982F
100
AcDbEntity
  8
0
100
AcDbEllipse
 10
0.0
 20
-7.662177826491074
 30
0.0
 11
-0.0000000000000007
 21
-2.598076211353323
 31
0.0
210
0.0
220
0.0
230
1.0
 40
0.5773502691896251
 41
2.766169045608753
 42
3.51701626157083
  0
LINE
  5
3983D
330
3982F
100
AcDbEntity
  8
0
100
AcDbLine
 10
0.5500000000000013
 20
-1.675317213448534
 30
0.0
 11
0.5500000000000007
 21
-5.245051433436703
 31
0.0
  0
LINE
  5
3983E
330
3982F
100
AcDbEntity
  8
0
100
AcDbLine
 10
0.5500000000000012
 20
-0.5999999999999992
 30
0.0
 11
0.5500000000000013
 21
-1.675317213448534
 31
0.0
  0
LINE
  5
3983F
330
3982F
100
AcDbEntity
  8
0
100
AcDbLine
 10
3.456515586540874
 20
-1.675317213448536
 30
0.0
 11
3.456515586540873
 21
-0.6
 31
0.0
  0
SPLINE
  5
39840
330
3982F
100
AcDbEntity
  8
0
100
AcDbSpline
210
0.0
220
0.0
230
1.0
 70
    12
 71
     2
 72
     6
 73
     3
 74
     0
 42
0.000000001
 43
0.0000000001
 40
0.0
 40
0.0
 40
0.0
 40
0.4030908193014335
 40
0.4030908193014335
 40
0.4030908193014335
 10
1.395528573695287
 20
-4.064101615137754
 30
0.0
 41
1.0
 10
2.013824677549333
 20
-3.067768394238872
 30
0.0
 41
1.097580911423693
 10
3.456515586540873
 20
-0.5999999999999996
 30
0.0
 41
1.0
  0
LINE
  5
39841
330
3982F
100
AcDbEntity
  8
0
100
AcDbLine
 10
1.395528573695288
 20
-5.245051433436706
 30
0.0
 11
1.395528573695288
 21
-4.064101615137754
 31
0.0
  0
LINE
  5
39842
330
3982F
100
AcDbEntity
  8
0
100
AcDbLine
 10
-0.5499999999999997
 20
-4.064101615137754
 30
0.0
 11
-1.395528573695288
 21
-4.064101615137754
 31
0.0
  0
LINE
  5
39843
330
3982F
100
AcDbEntity
  8
0
100
AcDbLine
 10
-0.5499999999999991
 20
-0.5999999999999992
 30
0.0
 11
-3.456515586540874
 21
-0.5999999999999999
 31
0.0
  0
LINE
  5
39844
330
3982F
100
AcDbEntity
  8
0
100
AcDbLine
 10
1.395528573695288
 20
-4.064101615137754
 30
0.0
 11
0.5500000000000006
 21
-4.064101615137754
 31
0.0
  0
LINE
  5
39845
330
3982F
100
AcDbEntity
  8
0
100
AcDbLine
 10
3.456515586540874
 20
-0.5999999999999999
 30
0.0
 11
0.55
 21
-0.5999999999999992
 31
0.0
  0
LINE
  5
39846
330
3982F
100
AcDbEntity
  8
0
100
AcDbLine
 10
3.5
 20
0.0
 30
0.0
 11
-3.5
 21
0.0
 31
0.0
  0
LINE
  5
39847
330
3982F
100
AcDbEntity
  8
0
100
AcDbLine
 10
1.500000000000002
 20
-6.799999999999998
 30
0.0
 11
-1.500000000000002
 21
-6.799999999999998
 31
0.0
  0
LINE
  5
39848
330
3982F
100
AcDbEntity
  8
0
100
AcDbLine
 10
1.274653772549289
 20
-23.14833395016047
 30
0.0
 11
-0.5861731548561369
 21
-23.14833395016047
 31
0.0
  0
LINE
  5
39849
330
3982F
100
AcDbEntity
  8
0
100
AcDbLine
 10
1.300000000000001
 20
-7.000000000000001
 30
0.0
 11
-1.300000000000001
 21
-7.000000000000001
 31
0.0
  0
LINE
  5
3984A
330
3982F
100
AcDbEntity
  8
0
100
AcDbLine
 10
-3.5
 20
-1.599999999999996
 30
0.0
 11
-3.5
 21
0.0
 31
0.0
  0
LINE
  5
3984B
330
3982F
100
AcDbEntity
  8
0
100
AcDbLine
 10
3.5
 20
-1.599999999999996
 30
0.0
 11
3.5
 21
0.0
 31
0.0
  0
LINE
  5
3984C
330
3982F
100
AcDbEntity
  8
0
100
AcDbLine
 10
-1.500000000000002
 20
-6.799999999999998
 30
0.0
 11
-1.500000000000002
 21
-5.064101615137753
 31
0.0
  0
LINE
  5
3984D
330
3982F
100
AcDbEntity
  8
0
100
AcDbLine
 10
1.500000000000002
 20
-6.799999999999998
 30
0.0
 11
1.500000000000002
 21
-5.064101615137753
 31
0.0
  0
LINE
  5
3984E
330
3982F
100
AcDbEntity
  8
0
100
AcDbLine
 10
0.0
 20
-28.00000000000001
 30
0.0
 11
-0.4507589934389356
 21
-26.3177445345173
 31
0.0
  0
LINE
  5
3984F
330
3982F
100
AcDbEntity
  8
0
100
AcDbLine
 10
-1.3
 20
-19.86173607331067
 30
0.0
 11
-1.3
 21
-18.08521416551217
 31
0.0
  0
LINE
  5
39850
330
3982F
100
AcDbEntity
  8
0
100
AcDbLine
 10
-1.3
 20
-17.04173607331066
 30
0.0
 11
-1.3
 21
-15.26521416551217
 31
0.0
  0
LINE
  5
39851
330
3982F
100
AcDbEntity
  8
0
100
AcDbLine
 10
-1.3
 20
-14.22173607331067
 30
0.0
 11
-1.3
 21
-12.44521416551217
 31
0.0
  0
LINE
  5
39852
330
3982F
100
AcDbEntity
  8
0
100
AcDbLine
 10
-1.3
 20
-11.40173607331067
 30
0.0
 11
-1.3
 21
-9.625214165512169
 31
0.0
  0
LINE
  5
39853
330
3982F
100
AcDbEntity
  8
0
100
AcDbLine
 10
-1.3
 20
-8.581736073310668
 30
0.0
 11
-1.3
 21
-7.000000000000002
 31
0.0
  0
LINE
  5
39854
330
3982F
100
AcDbEntity
  8
0
100
AcDbLine
 10
1.3
 20
-18.57145373480877
 30
0.0
 11
1.3
 21
-16.79493182701027
 31
0.0
  0
LINE
  5
39855
330
3982F
100
AcDbEntity
  8
0
100
AcDbLine
 10
1.3
 20
-15.75145373480877
 30
0.0
 11
1.3
 21
-13.97493182701027
 31
0.0
  0
LINE
  5
39856
330
3982F
100
AcDbEntity
  8
0
100
AcDbLine
 10
1.3
 20
-12.93145373480877
 30
0.0
 11
1.3
 21
-11.15493182701027
 31
0.0
  0
LINE
  5
39857
330
3982F
100
AcDbEntity
  8
0
100
AcDbLine
 10
1.3
 20
-10.11145373480877
 30
0.0
 11
1.3
 21
-8.181028301035386
 31
0.0
  0
LINE
  5
39858
330
3982F
100
AcDbEntity
  8
0
100
AcDbLine
 10
1.3
 20
-7.500225596778578
 30
0.0
 11
1.3
 21
-7.000000000000002
 31
0.0
  0
LINE
  5
39859
330
3982F
100
AcDbEntity
  8
0
100
AcDbLine
 10
-0.6239871546417799
 20
-25.67124823560654
 30
0.0
 11
-1.156819657835326
 21
-23.68269026176413
 31
0.0
  0
LINE
  5
3985A
330
3982F
100
AcDbEntity
  8
0
100
AcDbLine
 10
-1.300000000000001
 20
-7.000000000000001
 30
0.0
 11
-1.500000000000002
 21
-6.799999999999998
 31
0.0
  0
LINE
  5
3985B
330
3982F
100
AcDbEntity
  8
0
100
AcDbLine
 10
1.300000000000001
 20
-7.000000000000001
 30
0.0
 11
1.500000000000002
 21
-6.799999999999998
 31
0.0
  0
LINE
  5
3985C
330
3982F
100
AcDbEntity
  8
0
100
AcDbLine
 10
-1.3
 20
-22.77731629913798
 30
0.0
 11
-1.3
 21
-20.90521416551217
 31
0.0
  0
LINE
  5
3985D
330
3982F
100
AcDbEntity
  8
0
100
AcDbLine
 10
1.3
 20
-21.40551245225773
 30
0.0
 11
1.3
 21
-19.61493182701027
 31
0.0
  0
SPLINE
  5
3985E
330
3982F
100
AcDbEntity
  8
0
100
AcDbSpline
210
0.0
220
0.0
230
1.0
 70
     8
 71
     3
 72
     8
 73
     4
 74
     0
 42
0.000000001
 43
0.0000000001
 40
2.969958462745998
 40
2.969958462745998
 40
2.969958462745998
 40
2.969958462745998
 40
3.250640535993362
 40
3.250640535993362
 40
3.250640535993362
 40
3.250640535993362
 10
0.6774719838482445
 20
-25.20337001067087
 30
0.0
 10
0.4082958647653438
 20
-26.15689161534728
 30
0.0
 10
0.1603563977988596
 20
-27.09627312158004
 30
0.0
 10
0.0
 20
-28.00000000000001
 30
0.0
  0
SPLINE
  5
3985F
330
3982F
100
AcDbEntity
  8
0
100
AcDbSpline
210
0.0
220
0.0
230
1.0
 70
     8
 71
     3
 72
     8
 73
     4
 74
     0
 42
0.000000001
 43
0.0000000001
 40
-0.1228461488041701
 40
-0.1228461488041701
 40
-0.1228461488041701
 40
-0.1228461488041701
 40
-0.1187114168596576
 40
-0.1187114168596576
 40
-0.1187114168596576
 40
-0.1187114168596576
 10
1.973391942735431
 20
-18.87669068019288
 30
0.0
 10
1.959724729362042
 20
-18.86826612142654
 30
0.0
 10
1.946084957373078
 20
-18.8598544087102
 30
0.0
 10
1.932470044342538
 20
-18.8514543318413
 30
0.0
  0
SPLINE
  5
39860
330
3982F
100
AcDbEntity
  8
0
100
AcDbSpline
210
0.0
220
0.0
230
1.0
 70
     8
 71
     3
 72
     8
 73
     4
 74
     0
 42
0.000000001
 43
0.0000000001
 40
1.058575780461246
 40
1.058575780461246
 40
1.058575780461246
 40
1.058575780461246
 40
1.060767133145174
 40
1.060767133145174
 40
1.060767133145174
 40
1.060767133145174
 10
1.299991688573843
 20
-21.42875039404427
 30
0.0
 10
1.299997211394328
 20
-21.4210011970693
 30
0.0
 10
1.300000025398011
 20
-21.41325522232624
 30
0.0
 10
1.30000007377915
 20
-21.4055125328332
 30
0.0
  0
SPLINE
  5
39861
330
3982F
100
AcDbEntity
  8
0
100
AcDbSpline
210
0.0
220
0.0
230
1.0
 70
     8
 71
     3
 72
    10
 73
     6
 74
     0
 42
0.000000001
 43
0.0000000001
 40
-0.0923671521826609
 40
-0.0923671521826609
 40
-0.0923671521826609
 40
-0.0923671521826609
 40
-0.0462125607461723
 40
-0.0462125607461723
 40
-0.0072513559333136
 40
-0.0072513559333136
 40
-0.0072513559333136
 40
-0.0072513559333136
 10
2.034790424203459
 20
-21.87248768458999
 30
0.0
 10
1.90216317361647
 20
-21.79384450124062
 30
0.0
 10
1.767912483913382
 20
-21.71375595785436
 30
0.0
 10
1.525670264112336
 20
-21.56756950172999
 30
0.0
 10
1.411032732647361
 20
-21.49773012814924
 30
0.0
 10
1.299991688573843
 20
-21.42875039404427
 30
0.0
  0
SPLINE
  5
39862
330
3982F
100
AcDbEntity
  8
0
100
AcDbSpline
210
0.0
220
0.0
230
1.0
 70
     8
 71
     3
 72
     8
 73
     4
 74
     0
 42
0.000000001
 43
0.0000000001
 40
0.8988633324172774
 40
0.8988633324172774
 40
0.8988633324172774
 40
0.8988633324172774
 40
0.9685316131808955
 40
0.9685316131808955
 40
0.9685316131808955
 40
0.9685316131808955
 10
1.27465377254929
 20
-23.14833395016047
 30
0.0
 10
1.279322078763641
 20
-22.89841274899274
 30
0.0
 10
1.284540285685464
 20
-22.64676465447159
 30
0.0
 10
1.289088854771659
 20
-22.39560340962804
 30
0.0
  0
SPLINE
  5
39863
330
3982F
100
AcDbEntity
  8
0
100
AcDbSpline
210
0.0
220
0.0
230
1.0
 70
     8
 71
     3
 72
     8
 73
     4
 74
     0
 42
0.000000001
 43
0.0000000001
 40
2.76933811999444
 40
2.76933811999444
 40
2.76933811999444
 40
2.76933811999444
 40
2.91162507778743
 40
2.91162507778743
 40
2.91162507778743
 40
2.91162507778743
 10
1.27465377254929
 20
-23.14833395016047
 30
0.0
 10
1.132781486224931
 20
-23.63427046994581
 30
0.0
 10
0.9885598147997745
 20
-24.12180704755948
 30
0.0
 10
0.8480211587302656
 20
-24.60737437684772
 30
0.0
  0
SPLINE
  5
39864
330
3982F
100
AcDbEntity
  8
0
100
AcDbSpline
210
0.0
220
0.0
230
1.0
 70
     8
 71
     3
 72
    10
 73
     6
 74
     0
 42
0.000000001
 43
0.0000000001
 40
-0.0523365975099812
 40
-0.0523365975099812
 40
-0.0523365975099812
 40
-0.0523365975099812
 40
-0.0237099625069254
 40
-0.0237099625069254
 40
-0.023483368728621
 40
-0.023483368728621
 40
-0.023483368728621
 40
-0.023483368728621
 10
1.288314918583151
 20
-24.78507204595857
 30
0.0
 10
1.128532938847032
 20
-24.7119454037592
 30
0.0
 10
0.9817222636996445
 20
-24.65100906698385
 30
0.0
 10
0.850083950210516
 20
-24.60804515471656
 30
0.0
 10
0.8490517551971951
 20
-24.60770909275748
 30
0.0
 10
0.8480211587302656
 20
-24.60737437684772
 30
0.0
  0
SPLINE
  5
39865
330
3982F
100
AcDbEntity
  8
0
100
AcDbSpline
210
0.0
220
0.0
230
1.0
 70
     8
 71
     3
 72
     8
 73
     4
 74
     0
 42
0.000000001
 43
0.0000000001
 40
0.0000000000000099
 40
0.0000000000000099
 40
0.0000000000000099
 40
0.0000000000000099
 40
0.5451056166168935
 40
0.5451056166168935
 40
0.5451056166168935
 40
0.5451056166168935
 10
-0.8243902450726048
 20
-26.14833395016047
 30
0.0
 10
-0.7731720990634048
 20
-26.2298848283487
 30
0.0
 10
-0.6822169878245211
 20
-26.31143570653693
 30
0.0
 10
-0.5735010163566187
 20
-26.39298658472516
 30
0.0
  0
SPLINE
  5
39866
330
3982F
100
AcDbEntity
  8
0
100
AcDbSpline
210
0.0
220
0.0
230
1.0
 70
     8
 71
     3
 72
     8
 73
     4
 74
     0
 42
0.000000001
 43
0.0000000001
 40
0.0355993810368168
 40
0.0355993810368168
 40
0.0355993810368168
 40
0.0355993810368168
 40
0.0594153166168172
 40
0.0594153166168172
 40
0.0594153166168172
 40
0.0594153166168172
 10
-0.3920328854472233
 20
-26.53691335327314
 30
0.0
 10
-0.4503503186129809
 20
-26.48760528947143
 30
0.0
 10
-0.5114595117823294
 20
-26.43971936724701
 30
0.0
 10
-0.573890469792487
 20
-26.39298658472516
 30
0.0
  0
SPLINE
  5
39867
330
3982F
100
AcDbEntity
  8
0
100
AcDbSpline
210
0.0
220
0.0
230
1.0
 70
     8
 71
     3
 72
    14
 73
    10
 74
     0
 42
0.000000001
 43
0.0000000001
 40
3.646783246531814
 40
3.646783246531814
 40
3.646783246531814
 40
3.646783246531814
 40
4.895830254592985
 40
4.895830254592985
 40
4.895830254592985
 40
6.202711724872001
 40
6.202711724872001
 40
6.202711724872001
 40
6.684239688488922
 40
6.684239688488922
 40
6.684239688488922
 40
6.684239688488922
 10
1.288314918583149
 20
-24.78507204595857
 30
0.0
 10
1.0860294822796
 20
-24.97193653111642
 30
0.0
 10
0.5540392387691161
 20
-25.15880101627428
 30
0.0
 10
0.081832979484598
 20
-25.34566550143213
 30
0.0
 10
-0.4122377852071366
 20
-25.54118234870043
 30
0.0
 10
-0.7965188154305891
 20
-25.73669919596874
 30
0.0
 10
-0.8605756318026889
 20
-25.93221604323704
 30
0.0
 10
-0.8841777327161365
 20
-26.00425534554485
 30
0.0
 10
-0.8696346322082819
 20
-26.07629464785266
 30
0.0
 10
-0.8243902450726094
 20
-26.14833395016047
 30
0.0
  0
SPLINE
  5
39868
330
3982F
100
AcDbEntity
  8
0
100
AcDbSpline
210
0.0
220
0.0
230
1.0
 70
     8
 71
     3
 72
    20
 73
    16
 74
     0
 42
0.000000001
 43
0.0000000001
 40
0.4342501097068098
 40
0.4342501097068098
 40
0.4342501097068098
 40
0.4342501097068098
 40
0.4417535040386536
 40
0.4417535040386536
 40
0.4780038189061503
 40
0.4780038189061503
 40
0.512948036272989
 40
0.512948036272989
 40
0.5466482363350044
 40
0.5466482363350044
 40
0.5791841973328451
 40
0.5791841973328451
 40
0.6025673845061936
 40
0.6025673845061936
 40
0.615792450380274
 40
0.615792450380274
 40
0.615792450380274
 40
0.615792450380274
 10
0.5530390703852481
 20
-25.29496913259389
 30
0.0
 10
0.5368472765343371
 20
-25.30722291397911
 30
0.0
 10
0.5200295497923801
 20
-25.31955571926204
 30
0.0
 10
0.4185441572855825
 20
-25.39201540393118
 30
0.0
 10
0.3229483975151532
 20
-25.45266862025477
 30
0.0
 10
0.1264607131084622
 20
-25.57661240979741
 30
0.0
 10
0.0284990739564324
 20
-25.63810182956321
 30
0.0
 10
-0.1518969404695203
 20
-25.76401083899507
 30
0.0
 10
-0.2322187938476336
 20
-25.82650951994156
 30
0.0
 10
-0.3609700793495495
 20
-25.954814640098
 30
0.0
 10
-0.4084591135970584
 20
-26.01854690360754
 30
0.0
 10
-0.4561762761227514
 20
-26.13321953551985
 30
0.0
 10
-0.4655082757704728
 20
-26.18175152935433
 30
0.0
 10
-0.462945445212048
 20
-26.26022349008195
 30
0.0
 10
-0.4585188146434775
 20
-26.28877412732258
 30
0.0
 10
-0.4507578212301226
 20
-26.31774029580288
 30
0.0
  0
SPLINE
  5
39869
330
3982F
100
AcDbEntity
  8
0
100
AcDbSpline
210
0.0
220
0.0
230
1.0
 70
     8
 71
     3
 72
    16
 73
    12
 74
     0
 42
0.000000001
 43
0.0000000001
 40
0.0854773374093225
 40
0.0854773374093225
 40
0.0854773374093225
 40
0.0854773374093225
 40
0.1122817172221566
 40
0.1122817172221566
 40
0.1522249242191272
 40
0.1522249242191272
 40
0.1935799361918808
 40
0.1935799361918808
 40
0.2364082228586686
 40
0.2364082228586686
 40
0.2555592649211766
 40
0.2555592649211766
 40
0.2555592649211766
 40
0.2555592649211766
 10
-0.3971524544448691
 20
-25.46685993801796
 30
0.0
 10
-0.3463321229825209
 20
-25.41669857597204
 30
0.0
 10
-0.2864114506986325
 20
-25.36770504748463
 30
0.0
 10
-0.1202581436269692
 20
-25.24661133976281
 30
0.0
 10
-0.0087119603488423
 20
-25.17708739184744
 30
0.0
 10
0.2249450090004919
 20
-25.03704526165269
 30
0.0
 10
0.3439174123703775
 20
-24.96856838328117
 30
0.0
 10
0.5681527208545595
 20
-24.83055417090775
 30
0.0
 10
0.6696928639446134
 20
-24.76294535146946
 30
0.0
 10
0.7881558665271316
 20
-24.66602419157457
 30
0.0
 10
0.8204165944710105
 20
-24.63654983222256
 30
0.0
 10
0.8480211587302651
 20
-24.60737437684778
 30
0.0
  0
LINE
  5
3986A
330
3982F
100
AcDbEntity
  8
0
100
AcDbLine
 10
-1.14690562346819
 20
-23.57523237475469
 30
0.0
 11
-1.862175510055278
 21
-23.14833395016047
 31
0.0
  0
SPLINE
  5
3986B
330
3982F
100
AcDbEntity
  8
0
100
AcDbSpline
210
0.0
220
0.0
230
1.0
 70
     8
 71
     3
 72
     8
 73
     4
 74
     0
 42
0.000000001
 43
0.0000000001
 40
0.0
 40
0.0
 40
0.0
 40
0.0
 40
0.032139075827759
 40
0.032139075827759
 40
0.032139075827759
 40
0.032139075827759
 10
-1.146905623468191
 20
-23.57523237475469
 30
0.0
 10
-1.163177047985562
 20
-23.6108161655503
 30
0.0
 10
-1.16651053072801
 20
-23.6465207065831
 30
0.0
 10
-1.156821851227211
 20
-23.68268211987607
 30
0.0
  0
SPLINE
  5
3986C
330
3982F
100
AcDbEntity
  8
0
100
AcDbSpline
210
0.0
220
0.0
230
1.0
 70
     8
 71
     3
 72
     8
 73
     4
 74
     0
 42
0.000000001
 43
0.0000000001
 40
0.0
 40
0.0
 40
0.0
 40
0.0
 40
0.5799063457001958
 40
0.5799063457001958
 40
0.5799063457001958
 40
0.5799063457001958
 10
-1.862175510055278
 20
-23.14833395016047
 30
0.0
 10
-1.925935172799866
 20
-23.2350912139221
 30
0.0
 10
-1.870427049855536
 20
-23.32184847768374
 30
0.0
 10
-1.728206490174024
 20
-23.40860574144536
 30
0.0
  0
SPLINE
  5
3986D
330
3982F
100
AcDbEntity
  8
0
100
AcDbSpline
210
0.0
220
0.0
230
1.0
 70
     8
 71
     3
 72
     8
 73
     4
 74
     0
 42
0.000000001
 43
0.0000000001
 40
0.0
 40
0.0
 40
0.0
 40
0.0
 40
0.0755740705511689
 40
0.0755740705511689
 40
0.0755740705511689
 40
0.0755740705511689
 10
1.173101957890356
 20
-24.87167586993584
 30
0.0
 10
0.9612004994979185
 20
-25.00701949443143
 30
0.0
 10
0.7500597022106965
 20
-25.14589388001191
 30
0.0
 10
0.5530399673202156
 20
-25.29497294180578
 30
0.0
  0
SPLINE
  5
3986E
330
3982F
100
AcDbEntity
  8
0
100
AcDbSpline
210
0.0
220
0.0
230
1.0
 70
     8
 71
     3
 72
     8
 73
     4
 74
     0
 42
0.000000001
 43
0.0000000001
 40
0.0
 40
0.0
 40
0.0
 40
0.0
 40
0.0434096785504622
 40
0.0434096785504622
 40
0.0434096785504622
 40
0.0434096785504622
 10
-0.708689924008537
 20
-25.74037408077608
 30
0.0
 10
-0.5988600140380282
 20
-25.65254525801295
 30
0.0
 10
-0.4930584588748573
 20
-25.56151422172631
 30
0.0
 10
-0.397144913844672
 20
-25.46687313826688
 30
0.0
  0
SPLINE
  5
3986F
330
3982F
100
AcDbEntity
  8
0
100
AcDbSpline
210
0.0
220
0.0
230
1.0
 70
     8
 71
     3
 72
     8
 73
     4
 74
     0
 42
0.000000001
 43
0.0000000001
 40
0.0202473020452413
 40
0.0202473020452413
 40
0.0202473020452413
 40
0.0202473020452413
 40
0.0916987716457416
 40
0.0916987716457416
 40
0.0916987716457416
 40
0.0916987716457416
 10
-1.129132749737579
 20
-23.78601920948941
 30
0.0
 10
-1.328971423509052
 20
-23.657420783092
 30
0.0
 10
-1.5318983198222
 20
-23.53244056600646
 30
0.0
 10
-1.735248646749862
 20
-23.40860574144537
 30
0.0
  0
SPLINE
  5
39870
330
3982F
100
AcDbEntity
  8
0
100
AcDbSpline
210
0.0
220
0.0
230
1.0
 70
     8
 71
     3
 72
    14
 73
    10
 74
     0
 42
0.000000001
 43
0.0000000001
 40
1.613472377413754
 40
1.613472377413754
 40
1.613472377413754
 40
1.613472377413754
 40
2.744010077150496
 40
2.744010077150496
 40
2.744010077150496
 40
3.888303843102704
 40
3.888303843102704
 40
3.888303843102704
 40
4.456159792325948
 40
4.456159792325948
 40
4.456159792325948
 40
4.456159792325948
 10
2.034790424203459
 20
-21.87248768458999
 30
0.0
 10
1.987262537384334
 20
-22.04162250805894
 30
0.0
 10
1.46932268206729
 20
-22.21075733152789
 30
0.0
 10
0.7713815107797312
 20
-22.37989215499685
 30
0.0
 10
0.0649479867214791
 20
-22.55108496364535
 30
0.0
 10
-0.7877110666024407
 20
-22.72227777229385
 30
0.0
 10
-1.322675839523908
 20
-22.89347058094236
 30
0.0
 10
-1.58815218656625
 20
-22.97842503734839
 30
0.0
 10
-1.77701926069428
 20
-23.06337949375443
 30
0.0
 10
-1.862175510055278
 20
-23.14833395016047
 30
0.0
  0
SPLINE
  5
39871
330
3982F
100
AcDbEntity
  8
0
100
AcDbSpline
210
0.0
220
0.0
230
1.0
 70
     8
 71
     3
 72
    12
 73
     8
 74
     0
 42
0.000000001
 43
0.0000000001
 40
0.0
 40
0.0
 40
0.0
 40
0.0
 40
0.0569818757180803
 40
0.0569818757180803
 40
0.0860300328262818
 40
0.0860300328262818
 40
0.1144960307666455
 40
0.1144960307666455
 40
0.1144960307666455
 40
0.1144960307666455
 10
-0.5861731548561369
 20
-23.14833395016047
 30
0.0
 10
-0.7352435904024841
 20
-23.21668888791609
 30
0.0
 10
-0.8625731054762223
 20
-23.28547997771299
 30
0.0
 10
-1.008710486793919
 20
-23.3925367050793
 30
0.0
 10
-1.049670030518627
 20
-23.42892960265653
 30
0.0
 10
-1.112466917303831
 20
-23.50195248938792
 30
0.0
 10
-1.13448128988701
 20
-23.53834503626947
 30
0.0
 10
-1.14690562346819
 20
-23.57523237475469
 30
0.0
  0
SPLINE
  5
39872
330
3982F
100
AcDbEntity
  8
0
100
AcDbSpline
210
0.0
220
0.0
230
1.0
 70
     8
 71
     3
 72
    14
 73
    10
 74
     0
 42
0.000000001
 43
0.0000000001
 40
0.2865221297139705
 40
0.2865221297139705
 40
0.2865221297139705
 40
0.2865221297139705
 40
0.3375582293134404
 40
0.3375582293134404
 40
0.3938179341990138
 40
0.3938179341990138
 40
0.4446297745106011
 40
0.4446297745106011
 40
0.4954416148221882
 40
0.4954416148221882
 40
0.4954416148221882
 40
0.4954416148221882
 10
1.130491066872366
 20
-22.49966034413381
 30
0.0
 10
1.050815804390787
 20
-22.55255910215614
 30
0.0
 10
0.9456263663528513
 20
-22.60504994449085
 30
0.0
 10
0.6819500754343759
 20
-22.71645727654664
 30
0.0
 10
0.5220405272666162
 20
-22.77426409951138
 30
0.0
 10
0.1954468604340364
 20
-22.88543857876299
 30
0.0
 10
0.0337408423435451
 20
-22.93774787326656
 30
0.0
 10
-0.2866251330360967
 20
-23.04326572819346
 30
0.0
 10
-0.4425169878505562
 20
-23.09557502269702
 30
0.0
 10
-0.5861731548561388
 20
-23.14833395016047
 30
0.0
  0
SPLINE
  5
39873
330
3982F
100
AcDbEntity
  8
0
100
AcDbSpline
210
0.0
220
0.0
230
1.0
 70
     8
 71
     3
 72
    20
 73
    16
 74
     0
 42
0.000000001
 43
0.0000000001
 40
0.0422984105498733
 40
0.0422984105498733
 40
0.0422984105498733
 40
0.0422984105498733
 40
0.0574874449612037
 40
0.0574874449612037
 40
0.1149748899224076
 40
0.1149748899224076
 40
0.1724623348836115
 40
0.1724623348836115
 40
0.2299497798448153
 40
0.2299497798448153
 40
0.2874372248060191
 40
0.2874372248060191
 40
0.3449246697672229
 40
0.3449246697672229
 40
0.3999375881853032
 40
0.3999375881853032
 40
0.3999375881853032
 40
0.3999375881853032
 10
-1.100818839606553
 20
-22.6438355847056
 30
0.0
 10
-1.075605610952951
 20
-22.62664464467737
 30
0.0
 10
-1.048164173047895
 20
-22.60943080789738
 30
0.0
 10
-0.9066576978282444
 20
-22.52683373342087
 30
0.0
 10
-0.7665991640774785
 20
-22.46219457546045
 30
0.0
 10
-0.4480465065229144
 20
-22.33152520859182
 30
0.0
 10
-0.273002458644859
 20
-22.26688605063139
 30
0.0
 10
0.0863536901285391
 20
-22.13621668376276
 30
0.0
 10
0.2667737939921564
 20
-22.07157752580234
 30
0.0
 10
0.6061467864287372
 20
-21.94090815893371
 30
0.0
 10
0.7614241050031925
 20
-21.87626900097328
 30
0.0
 10
1.023407530911941
 20
-21.74559963410465
 30
0.0
 10
1.127276233850961
 20
-21.68096047614423
 30
0.0
 10
1.264535349949324
 20
-21.55310341739703
 30
0.0
 10
1.299375799692065
 20
-21.49121725950013
 30
0.0
 10
1.299991688613261
 20
-21.42875038736656
 30
0.0
  0
SPLINE
  5
39874
330
3982F
100
AcDbEntity
  8
0
100
AcDbSpline
210
0.0
220
0.0
230
1.0
 70
     8
 71
     3
 72
     8
 73
     4
 74
     0
 42
0.000000001
 43
0.0000000001
 40
0.0
 40
0.0
 40
0.0
 40
0.0
 40
0.0915215267607066
 40
0.0915215267607066
 40
0.0915215267607066
 40
0.0915215267607066
 10
1.90212785696066
 20
-22.01023854815945
 30
0.0
 10
1.642349055472292
 20
-22.16987833231824
 30
0.0
 10
1.383562578752213
 20
-22.33164100524238
 30
0.0
 10
1.130491065732533
 20
-22.49966018184056
 30
0.0
  0
SPLINE
  5
39875
330
3982F
100
AcDbEntity
  8
0
100
AcDbSpline
210
0.0
220
0.0
230
1.0
 70
     8
 71
     3
 72
     8
 73
     4
 74
     0
 42
0.000000001
 43
0.0000000001
 40
0.0
 40
0.0
 40
0.0
 40
0.0
 40
0.0809913802523225
 40
0.0809913802523225
 40
0.0809913802523225
 40
0.0809913802523225
 10
-1.778148495526481
 20
-23.08373536816997
 30
0.0
 10
-1.549660818118987
 20
-22.94050234836686
 30
0.0
 10
-1.322429994861688
 20
-22.79493257802244
 30
0.0
 10
-1.100819271338756
 20
-22.64383501053213
 30
0.0
  0
SPLINE
  5
39876
330
3982F
100
AcDbEntity
  8
0
100
AcDbSpline
210
0.0
220
0.0
230
1.0
 70
     8
 71
     3
 72
    14
 73
    10
 74
     0
 42
0.000000001
 43
0.0000000001
 40
2.109729063324077
 40
2.109729063324077
 40
2.109729063324077
 40
2.109729063324077
 40
2.543770828948106
 40
2.543770828948106
 40
2.543770828948106
 40
3.807463682881553
 40
3.807463682881553
 40
3.807463682881553
 40
4.712388980384689
 40
4.712388980384689
 40
4.712388980384689
 40
4.712388980384689
 10
-1.109075874726098
 20
-19.73957159339306
 30
0.0
 10
-1.014797642909251
 20
-19.67463649443611
 30
0.0
 10
-0.8871604430219404
 20
-19.60970139547915
 30
0.0
 10
-0.7316964325579598
 20
-19.5447662965222
 30
0.0
 10
-0.2790700389096096
 20
-19.35571071012399
 30
0.0
 10
0.3724462919002744
 20
-19.16665512372578
 30
0.0
 10
0.8030676239722927
 20
-18.97759953732758
 30
0.0
 10
1.111433803161742
 20
-18.84221760315464
 30
0.0
 10
1.28889184397214
 20
-18.7068356689817
 30
0.0
 10
1.294368303168021
 20
-18.57145373480877
 30
0.0
  0
SPLINE
  5
39877
330
3982F
100
AcDbEntity
  8
0
100
AcDbSpline
210
0.0
220
0.0
230
1.0
 70
     8
 71
     3
 72
    14
 73
    10
 74
     0
 42
0.000000001
 43
0.0000000001
 40
8.392914370503664
 40
8.392914370503664
 40
8.392914370503664
 40
8.392914370503664
 40
8.840818411568145
 40
8.840818411568145
 40
8.840818411568145
 40
10.13194932973001
 40
10.13194932973001
 40
10.13194932973001
 40
10.99557428756428
 40
10.99557428756428
 40
10.99557428756428
 40
10.99557428756428
 10
-1.108644979703963
 20
-16.91957159339306
 30
0.0
 10
-1.011359266329495
 20
-16.85256261975679
 30
0.0
 10
-0.878659205184714
 20
-16.78555364612051
 30
0.0
 10
-0.7167311413504941
 20
-16.71854467248424
 30
0.0
 10
-0.2499563178021799
 20
-16.52538419674826
 30
0.0
 10
0.4192660299282497
 20
-16.33222372101228
 30
0.0
 10
0.8445918523007003
 20
-16.13906324527629
 30
0.0
 10
1.129088172732073
 20
-16.00986007512045
 30
0.0
 10
1.288393189618983
 20
-15.88065690496461
 30
0.0
 10
1.293137310395723
 20
-15.75145373480877
 30
0.0
  0
SPLINE
  5
39878
330
3982F
100
AcDbEntity
  8
0
100
AcDbSpline
210
0.0
220
0.0
230
1.0
 70
     8
 71
     3
 72
    14
 73
    10
 74
     0
 42
0.000000001
 43
0.0000000001
 40
14.67609967768325
 40
14.67609967768325
 40
14.67609967768325
 40
14.67609967768325
 40
15.23953159251874
 40
15.23953159251874
 40
15.23953159251874
 40
16.50463810933543
 40
16.50463810933543
 40
16.50463810933543
 40
17.27875959474387
 40
17.27875959474387
 40
17.27875959474387
 40
17.27875959474387
 10
-1.108343714447918
 20
-14.09957159339306
 30
0.0
 10
-0.9841825041864936
 20
-14.01527899751177
 30
0.0
 10
-0.8047866587668819
 20
-13.93098640163048
 30
0.0
 10
-0.5869336986907188
 20
-13.84669380574919
 30
0.0
 10
-0.0977757503330559
 20
-13.65742672740139
 30
0.0
 10
0.5462970065716928
 20
-13.46815964905359
 30
0.0
 10
0.9295461097887574
 20
-13.2788925707058
 30
0.0
 10
1.164057086627583
 20
-13.16307962540679
 30
0.0
 10
1.289660520608179
 20
-13.04726668010778
 30
0.0
 10
1.292548979936047
 20
-12.93145373480876
 30
0.0
  0
SPLINE
  5
39879
330
3982F
100
AcDbEntity
  8
0
100
AcDbSpline
210
0.0
220
0.0
230
1.0
 70
     8
 71
     3
 72
    14
 73
    10
 74
     0
 42
0.000000001
 43
0.0000000001
 40
20.95928498486284
 40
20.95928498486284
 40
20.95928498486284
 40
20.95928498486284
 40
21.62084268998406
 40
21.62084268998406
 40
21.62084268998406
 40
22.88547264969159
 40
22.88547264969159
 40
22.88547264969159
 40
23.56194490192345
 40
23.56194490192345
 40
23.56194490192345
 40
23.56194490192345
 10
-1.108408150141476
 20
-11.27957159339306
 30
0.0
 10
-0.9610871561101907
 20
-11.18059882521712
 30
0.0
 10
-0.7377140047195036
 20
-11.08162605704118
 30
0.0
 10
-0.4704707801663128
 20
-10.98265328886524
 30
0.0
 10
0.0403898532789339
 20
-10.79345750615186
 30
0.0
 10
0.6706447464655656
 20
-10.60426172343848
 30
0.0
 10
1.013721928562415
 20
-10.41506594072509
 30
0.0
 10
1.197239796600343
 20
-10.31386187208632
 30
0.0
 10
1.2902035683949
 20
-10.21265780344754
 30
0.0
 10
1.290766741686701
 20
-10.11145373480877
 30
0.0
  0
SPLINE
  5
3987A
330
3982F
100
AcDbEntity
  8
0
100
AcDbSpline
210
0.0
220
0.0
230
1.0
 70
     8
 71
     3
 72
     8
 73
     4
 74
     0
 42
0.000000001
 43
0.0000000001
 40
27.24247029204243
 40
27.24247029204243
 40
27.24247029204243
 40
27.24247029204243
 40
27.85099870203718
 40
27.85099870203718
 40
27.85099870203718
 40
27.85099870203718
 10
-1.111678581126221
 20
-8.459571593393066
 30
0.0
 10
-0.9758475660236458
 20
-8.3685323071983
 30
0.0
 10
-0.7744621683929371
 20
-8.277493021003534
 30
0.0
 10
-0.5340445445249323
 20
-8.186453734808768
 30
0.0
  0
SPLINE
  5
3987B
330
3982F
100
AcDbEntity
  8
0
100
AcDbSpline
210
0.0
220
0.0
230
1.0
 70
     8
 71
     3
 72
     8
 73
     4
 74
     0
 42
0.000000001
 43
0.0000000001
 40
-27.85099870203718
 40
-27.85099870203718
 40
-27.85099870203718
 40
-27.85099870203718
 40
-26.70353755551325
 40
-26.70353755551325
 40
-26.70353755551325
 40
-26.70353755551325
 10
-0.5340445445249323
 20
-9.110214165512168
 30
0.0
 10
-0.9873839084677255
 20
-9.281880832178835
 30
0.0
 10
-1.294312480133672
 20
-9.4535474988455
 30
0.0
 10
-1.29920089423917
 20
-9.625214165512169
 30
0.0
  0
SPLINE
  5
3987C
330
3982F
100
AcDbEntity
  8
0
100
AcDbSpline
210
0.0
220
0.0
230
1.0
 70
     8
 71
     3
 72
    14
 73
    10
 74
     0
 42
0.000000001
 43
0.0000000001
 40
-23.02301216539427
 40
-23.02301216539427
 40
-23.02301216539427
 40
-23.02301216539427
 40
-22.71730761286727
 40
-22.71730761286727
 40
-22.71730761286727
 40
-21.43806371746079
 40
-21.43806371746079
 40
-21.43806371746079
 40
-20.42035224833365
 40
-20.42035224833365
 40
-20.42035224833365
 40
-20.42035224833365
 10
1.111190139318857
 20
-11.27709630692787
 30
0.0
 10
1.045316359710327
 20
-11.32283143414862
 30
0.0
 10
0.9622566076020639
 20
-11.36856656136936
 30
0.0
 10
0.8632032969677045
 20
-11.41430168859011
 30
0.0
 10
0.4487072029404036
 20
-11.60568379860174
 30
0.0
 10
-0.2112175138435329
 20
-11.79706590861336
 30
0.0
 10
-0.6829090508939198
 20
-11.98844801862499
 30
0.0
 10
-1.058166567361376
 20
-12.14070340092072
 30
0.0
 10
-1.2898789228495
 20
-12.29295878321644
 30
0.0
 10
-1.296583125186104
 20
-12.44521416551217
 30
0.0
  0
SPLINE
  5
3987D
330
3982F
100
AcDbEntity
  8
0
100
AcDbSpline
210
0.0
220
0.0
230
1.0
 70
     8
 71
     3
 72
    14
 73
    10
 74
     0
 42
0.000000001
 43
0.0000000001
 40
-16.73982685821468
 40
-16.73982685821468
 40
-16.73982685821468
 40
-16.73982685821468
 40
-16.36823991702353
 40
-16.36823991702353
 40
-16.36823991702353
 40
-15.07110154138062
 40
-15.07110154138062
 40
-15.07110154138062
 40
-14.13716694115407
 40
-14.13716694115407
 40
-14.13716694115407
 40
-14.13716694115407
 10
1.11028865415667
 20
-14.09709630692787
 30
0.0
 10
1.029815012815777
 20
-14.1526878114981
 30
0.0
 10
0.9245140212128976
 20
-14.20827931606833
 30
0.0
 10
0.7973359928664554
 20
-14.26387082063856
 30
0.0
 10
0.3533820138112333
 20
-14.45793004593486
 30
0.0
 10
-0.3211740208591068
 20
-14.65198927123115
 30
0.0
 10
-0.7730779015345602
 20
-14.84604849652745
 30
0.0
 10
-1.098446943160729
 20
-14.98577038618902
 30
0.0
 10
-1.288497349442967
 20
-15.1254922758506
 30
0.0
 10
-1.294517637276165
 20
-15.26521416551217
 30
0.0
  0
SPLINE
  5
3987E
330
3982F
100
AcDbEntity
  8
0
100
AcDbSpline
210
0.0
220
0.0
230
1.0
 70
     8
 71
     3
 72
    14
 73
    10
 74
     0
 42
0.000000001
 43
0.0000000001
 40
-10.45664155103509
 40
-10.45664155103509
 40
-10.45664155103509
 40
-10.45664155103509
 40
-9.953208952123913
 40
-9.953208952123913
 40
-9.953208952123913
 40
-8.680956694653554
 40
-8.680956694653554
 40
-8.680956694653554
 40
-7.853981633974484
 40
-7.853981633974484
 40
-7.853981633974484
 40
-7.853981633974484
 10
1.108102156614514
 20
-16.91709630692787
 30
0.0
 10
0.9981165039491431
 20
-16.99241266636037
 30
0.0
 10
0.8438303856998858
 20
-17.06772902579286
 30
0.0
 10
0.6554326580742471
 20
-17.14304538522536
 30
0.0
 10
0.1793223807652262
 20
-17.33338150672341
 30
0.0
 10
-0.4745352249499122
 20
-17.52371762822147
 30
0.0
 10
-0.8802363266403416
 20
-17.71405374971953
 30
0.0
 10
-1.143945580224295
 20
-17.83777388831707
 30
0.0
 10
-1.28834790702513
 20
-17.96149402691462
 30
0.0
 10
-1.292294438203588
 20
-18.08521416551217
 30
0.0
  0
SPLINE
  5
3987F
330
3982F
100
AcDbEntity
  8
0
100
AcDbSpline
210
0.0
220
0.0
230
1.0
 70
     8
 71
     3
 72
    17
 73
    13
 74
     0
 42
0.000000001
 43
0.0000000001
 40
1.216259874703547
 40
1.216259874703547
 40
1.216259874703547
 40
1.216259874703547
 40
2.248206044000299
 40
2.248206044000299
 40
2.248206044000299
 40
3.366769111186974
 40
3.366769111186974
 40
3.366769111186974
 40
4.491706312470183
 40
4.491706312470183
 40
4.491706312470183
 40
5.061402701068704
 40
5.061402701068704
 40
5.061402701068704
 40
5.061402701068704
 10
-1.968479834255548
 20
-20.60245591553608
 30
0.0
 10
-2.213581476430803
 20
-20.44807094171865
 30
0.0
 10
-2.089077536768613
 20
-20.29368596790123
 30
0.0
 10
-1.636317606199843
 20
-20.13930099408381
 30
0.0
 10
-1.145555053167296
 20
-19.97195764325919
 30
0.0
 10
-0.2943426691475504
 20
-19.80461429243456
 30
0.0
 10
0.4688845738148679
 20
-19.63727094160994
 30
0.0
 10
1.236461068898586
 20
-19.46897398433289
 30
0.0
 10
1.876700502460505
 20
-19.30067702705583
 30
0.0
 10
2.049071311516099
 20
-19.13238006977878
 30
0.0
 10
2.136364208672281
 20
-19.04715027325014
 30
0.0
 10
2.10976575591996
 20
-18.96192047672151
 30
0.0
 10
1.973391942735432
 20
-18.87669068019288
 30
0.0
  0
SPLINE
  5
39880
330
3982F
100
AcDbEntity
  8
0
100
AcDbSpline
210
0.0
220
0.0
230
1.0
 70
     8
 71
     3
 72
    14
 73
    10
 74
     0
 42
0.000000001
 43
0.0000000001
 40
-4.173456243855508
 40
-4.173456243855508
 40
-4.173456243855508
 40
-4.173456243855508
 40
-3.866851418982127
 40
-3.866851418982127
 40
-3.866851418982127
 40
-2.591568660449921
 40
-2.591568660449921
 40
-2.591568660449921
 40
-1.570796326794895
 40
-1.570796326794895
 40
-1.570796326794895
 40
-1.570796326794895
 10
1.111028186469318
 20
-19.73709630692787
 30
0.0
 10
1.045040131372969
 20
-19.78296611997503
 30
0.0
 10
0.9617522342175298
 20
-19.82883593302219
 30
0.0
 10
0.862327838068005
 20
-19.87470574606935
 30
0.0
 10
0.4487850367134347
 20
-20.065495247638
 30
0.0
 10
-0.2084026619432144
 20
-20.25628474920666
 30
0.0
 10
-0.6795199885764046
 20
-20.44707425077531
 30
0.0
 10
-1.05661560107114
 20
-20.5997875556876
 30
0.0
 10
-1.28874667711358
 20
-20.75250086059988
 30
0.0
 10
-1.295909667206569
 20
-20.90521416551217
 30
0.0
  0
SPLINE
  5
39881
330
3982F
100
AcDbEntity
  8
0
100
AcDbSpline
210
0.0
220
0.0
230
1.0
 70
     8
 71
     3
 72
    17
 73
    13
 74
     0
 42
0.000000001
 43
0.0000000001
 40
7.499445181883134
 40
7.499445181883134
 40
7.499445181883134
 40
7.499445181883134
 40
8.516727775732988
 40
8.516727775732988
 40
8.516727775732988
 40
9.631627977772446
 40
9.631627977772446
 40
9.631627977772446
 40
10.77345735462424
 40
10.77345735462424
 40
10.77345735462424
 40
11.35011073965562
 40
11.35011073965562
 40
11.35011073965562
 40
11.35011073965562
 10
-1.968531875288497
 20
-17.78245591553609
 30
0.0
 10
-2.210386123002416
 20
-17.63026469540349
 30
0.0
 10
-2.093584022676222
 20
-17.47807347527089
 30
0.0
 10
-1.655441652991036
 20
-17.32588225513829
 30
0.0
 10
-1.175255498782485
 20
-17.15908688962209
 30
0.0
 10
-0.3324994941513922
 20
-16.99229152410588
 30
0.0
 10
0.4312939889566753
 20
-16.82549615858967
 30
0.0
 10
1.213536054448631
 20
-16.65467203646578
 30
0.0
 10
1.872332354179455
 20
-16.48384791434188
 30
0.0
 10
2.048409899556282
 20
-16.31302379221799
 30
0.0
 10
2.137333616731535
 20
-16.22675318974028
 30
0.0
 10
2.10083818142912
 20
-16.14048258726256
 30
0.0
 10
1.960985938262568
 20
-16.05421198478485
 30
0.0
  0
SPLINE
  5
39882
330
3982F
100
AcDbEntity
  8
0
100
AcDbSpline
210
0.0
220
0.0
230
1.0
 70
     8
 71
     3
 72
    20
 73
    16
 74
     0
 42
0.000000001
 43
0.0000000001
 40
13.78263048906272
 40
13.78263048906272
 40
13.78263048906272
 40
13.78263048906272
 40
14.17245269344262
 40
14.17245269344262
 40
14.17245269344262
 40
15.29776119299693
 40
15.29776119299693
 40
15.29776119299693
 40
16.41976629329853
 40
16.41976629329853
 40
16.41976629329853
 40
17.53877811199846
 40
17.53877811199846
 40
17.53877811199846
 40
17.63329604683521
 40
17.63329604683521
 40
17.63329604683521
 40
17.63329604683521
 10
-1.963137886065676
 20
-14.96245591553608
 30
0.0
 10
-2.059755458688255
 20
-14.90413631262729
 30
0.0
 10
-2.108319417978533
 20
-14.84581670971849
 30
0.0
 10
-2.098692797109631
 20
-14.78749710680969
 30
0.0
 10
-2.070903414760326
 20
-14.61914460121474
 30
0.0
 10
-1.559835994153978
 20
-14.45079209561979
 30
0.0
 10
-0.8374687586810573
 20
-14.28243959002484
 30
0.0
 10
-0.1172220682735902
 20
-14.11458129161076
 30
0.0
 10
0.7770240247315046
 20
-13.94672299319668
 30
0.0
 10
1.371720118532803
 20
-13.77886469478261
 30
0.0
 10
1.964829684005769
 20
-13.61145420819772
 30
0.0
 10
2.230796297167818
 20
-13.44404372161284
 30
0.0
 10
2.029408956839879
 20
-13.27663323502795
 30
0.0
 10
2.012398666875135
 20
-13.26249281828025
 30
0.0
 10
1.99212571875642
 20
-13.24835240153255
 30
0.0
 10
1.968799178958114
 20
-13.23421198478485
 30
0.0
  0
SPLINE
  5
39883
330
3982F
100
AcDbEntity
  8
0
100
AcDbSpline
210
0.0
220
0.0
230
1.0
 70
     8
 71
     3
 72
    17
 73
    13
 74
     0
 42
0.000000001
 43
0.0000000001
 40
20.06581579624231
 40
20.06581579624231
 40
20.06581579624231
 40
20.06581579624231
 40
20.93802706223907
 40
20.93802706223907
 40
20.93802706223907
 40
22.06379089554006
 40
22.06379089554006
 40
22.06379089554006
 40
23.18316818089201
 40
23.18316818089201
 40
23.18316818089201
 40
23.9164813540148
 40
23.9164813540148
 40
23.9164813540148
 40
23.9164813540148
 10
-1.964982329826857
 20
-12.14245591553608
 30
0.0
 10
-2.170016723812701
 20
-12.01196818519649
 30
0.0
 10
-2.126977870415145
 20
-11.88148045485689
 30
0.0
 10
-1.824841560143319
 20
-11.75099272451729
 30
0.0
 10
-1.434873963884033
 20
-11.5825720984228
 30
0.0
 10
-0.6335416608063703
 20
-11.4141514723283
 30
0.0
 10
0.1524147438964485
 20
-11.2457308462338
 30
0.0
 10
0.9339123552751107
 20
-11.07826568377417
 30
0.0
 10
1.661397522498113
 20
-10.91080052131453
 30
0.0
 10
1.951147127665014
 20
-10.7433353588549
 30
0.0
 10
2.140964453026599
 20
-10.63362756749822
 30
0.0
 10
2.135206895401112
 20
-10.52391977614153
 30
0.0
 10
1.960986570755232
 20
-10.41421198478485
 30
0.0
  0
SPLINE
  5
39884
330
3982F
100
AcDbEntity
  8
0
100
AcDbSpline
210
0.0
220
0.0
230
1.0
 70
     8
 71
     3
 72
    14
 73
    10
 74
     0
 42
0.000000001
 43
0.0000000001
 40
26.3490011034219
 40
26.3490011034219
 40
26.3490011034219
 40
26.3490011034219
 40
26.59098924598545
 40
26.59098924598545
 40
26.59098924598545
 40
27.70678746864736
 40
27.70678746864736
 40
27.70678746864736
 40
27.85099870203718
 40
27.85099870203718
 40
27.85099870203718
 40
27.85099870203718
 10
-1.966260280365864
 20
-9.322455915536082
 30
0.0
 10
-2.026543071745095
 20
-9.286253123020983
 30
0.0
 10
-2.067689030201723
 20
-9.250050330505885
 30
0.0
 10
-2.086713555894907
 20
-9.213847537990787
 30
0.0
 10
-2.174434928233909
 20
-9.046917823518779
 30
0.0
 10
-1.787492270564063
 20
-8.879988109046774
 30
0.0
 10
-1.128885974496183
 20
-8.713058394574765
 30
0.0
 10
-1.043764467448378
 20
-8.69148357977
 30
0.0
 10
-0.9547239218440662
 20
-8.669908764965235
 30
0.0
 10
-0.8626873411556598
 20
-8.64833395016047
 30
0.0
  0
SPLINE
  5
39885
330
3982F
100
AcDbEntity
  8
0
100
AcDbSpline
210
0.0
220
0.0
230
1.0
 70
     8
 71
     3
 72
     8
 73
     4
 74
     0
 42
0.000000001
 43
0.0000000001
 40
0.0
 40
0.0
 40
0.0
 40
0.0
 40
0.1014492910276296
 40
0.1014492910276296
 40
0.1014492910276296
 40
0.1014492910276296
 10
1.969395777008685
 20
-19.19245591553608
 30
0.0
 10
1.681593322904902
 20
-19.36963814330827
 30
0.0
 10
1.394830599182135
 20
-19.54934773962587
 30
0.0
 10
1.115733984736182
 20
-19.73709630692787
 30
0.0
  0
SPLINE
  5
39886
330
3982F
100
AcDbEntity
  8
0
100
AcDbSpline
210
0.0
220
0.0
230
1.0
 70
     8
 71
     3
 72
     8
 73
     4
 74
     0
 42
0.000000001
 43
0.0000000001
 40
0.0222013476406538
 40
0.0222013476406538
 40
0.0222013476406538
 40
0.0222013476406538
 40
0.1014492910276297
 40
0.1014492910276297
 40
0.1014492910276297
 40
0.1014492910276297
 10
-1.3
 20
-21.02493182701026
 30
0.0
 10
-1.520391747290666
 20
-20.88081282890389
 30
0.0
 10
-1.744576536199623
 20
-20.74086326184119
 30
0.0
 10
-1.969395777008685
 20
-20.60245591553608
 30
0.0
  0
SPLINE
  5
39887
330
3982F
100
AcDbEntity
  8
0
100
AcDbSpline
210
0.0
220
0.0
230
1.0
 70
     8
 71
     3
 72
     8
 73
     4
 74
     0
 42
0.000000001
 43
0.0000000001
 40
0.0222004854079513
 40
0.0222004854079513
 40
0.0222004854079513
 40
0.0222004854079513
 40
0.097111280080678
 40
0.097111280080678
 40
0.097111280080678
 40
0.097111280080678
 10
1.3
 20
-18.45172616866631
 30
0.0
 10
1.50834344076546
 20
-18.58794759116201
 30
0.0
 10
1.72008572908132
 20
-18.7204338585985
 30
0.0
 10
1.93246936903525
 20
-18.85145538421232
 30
0.0
  0
SPLINE
  5
39888
330
3982F
100
AcDbEntity
  8
0
100
AcDbSpline
210
0.0
220
0.0
230
1.0
 70
     8
 71
     3
 72
     8
 73
     4
 74
     0
 42
0.000000001
 43
0.0000000001
 40
0.0
 40
0.0
 40
0.0
 40
0.0
 40
0.1014492910276296
 40
0.1014492910276296
 40
0.1014492910276296
 40
0.1014492910276296
 10
-1.969395777008684
 20
-20.28421198478485
 30
0.0
 10
-1.681593322904901
 20
-20.10702975701267
 30
0.0
 10
-1.394830599182134
 20
-19.92732016069506
 30
0.0
 10
-1.115733984736181
 20
-19.73957159339306
 30
0.0
  0
SPLINE
  5
39889
330
3982F
100
AcDbEntity
  8
0
100
AcDbSpline
210
0.0
220
0.0
230
1.0
 70
     8
 71
     3
 72
     8
 73
     4
 74
     0
 42
0.000000001
 43
0.0000000001
 40
0.0
 40
0.0
 40
0.0
 40
0.0
 40
0.1014492910276297
 40
0.1014492910276297
 40
0.1014492910276297
 40
0.1014492910276297
 10
-1.969395777008684
 20
-17.46421198478485
 30
0.0
 10
-1.681593322904901
 20
-17.28702975701267
 30
0.0
 10
-1.394830599182133
 20
-17.10732016069506
 30
0.0
 10
-1.11573398473618
 20
-16.91957159339306
 30
0.0
  0
SPLINE
  5
3988A
330
3982F
100
AcDbEntity
  8
0
100
AcDbSpline
210
0.0
220
0.0
230
1.0
 70
     8
 71
     3
 72
     8
 73
     4
 74
     0
 42
0.000000001
 43
0.0000000001
 40
0.0
 40
0.0
 40
0.0
 40
0.0
 40
0.1014492910276297
 40
0.1014492910276297
 40
0.1014492910276297
 40
0.1014492910276297
 10
-1.969395777008684
 20
-14.64421198478485
 30
0.0
 10
-1.681593322904901
 20
-14.46702975701266
 30
0.0
 10
-1.394830599182134
 20
-14.28732016069506
 30
0.0
 10
-1.11573398473618
 20
-14.09957159339306
 30
0.0
  0
SPLINE
  5
3988B
330
3982F
100
AcDbEntity
  8
0
100
AcDbSpline
210
0.0
220
0.0
230
1.0
 70
     8
 71
     3
 72
     8
 73
     4
 74
     0
 42
0.000000001
 43
0.0000000001
 40
0.0
 40
0.0
 40
0.0
 40
0.0
 40
0.1014492910276296
 40
0.1014492910276296
 40
0.1014492910276296
 40
0.1014492910276296
 10
-1.969395777008683
 20
-11.82421198478485
 30
0.0
 10
-1.6815933229049
 20
-11.64702975701267
 30
0.0
 10
-1.394830599182133
 20
-11.46732016069506
 30
0.0
 10
-1.115733984736181
 20
-11.27957159339306
 30
0.0
  0
SPLINE
  5
3988C
330
3982F
100
AcDbEntity
  8
0
100
AcDbSpline
210
0.0
220
0.0
230
1.0
 70
     8
 71
     3
 72
     8
 73
     4
 74
     0
 42
0.000000001
 43
0.0000000001
 40
0.0
 40
0.0
 40
0.0
 40
0.0
 40
0.1014492910276296
 40
0.1014492910276296
 40
0.1014492910276296
 40
0.1014492910276296
 10
-1.969395777008683
 20
-9.004211984784852
 30
0.0
 10
-1.6815933229049
 20
-8.827029757012669
 30
0.0
 10
-1.394830599182134
 20
-8.647320160695064
 30
0.0
 10
-1.115733984736181
 20
-8.459571593393064
 30
0.0
  0
SPLINE
  5
3988D
330
3982F
100
AcDbEntity
  8
0
100
AcDbSpline
210
0.0
220
0.0
230
1.0
 70
     8
 71
     3
 72
     8
 73
     4
 74
     0
 42
0.000000001
 43
0.0000000001
 40
0.0222013476406537
 40
0.0222013476406537
 40
0.0222013476406537
 40
0.0222013476406537
 40
0.1014492910276297
 40
0.1014492910276297
 40
0.1014492910276297
 40
0.1014492910276297
 10
1.299999999999999
 20
-15.63173607331067
 30
0.0
 10
1.520391747290666
 20
-15.77585507141704
 30
0.0
 10
1.744576536199623
 20
-15.91580463847975
 30
0.0
 10
1.969395777008685
 20
-16.05421198478485
 30
0.0
  0
SPLINE
  5
3988E
330
3982F
100
AcDbEntity
  8
0
100
AcDbSpline
210
0.0
220
0.0
230
1.0
 70
     8
 71
     3
 72
     8
 73
     4
 74
     0
 42
0.000000001
 43
0.0000000001
 40
0.0222013476406538
 40
0.0222013476406538
 40
0.0222013476406538
 40
0.0222013476406538
 40
0.1014492910276298
 40
0.1014492910276298
 40
0.1014492910276298
 40
0.1014492910276298
 10
1.299999999999999
 20
-12.81173607331067
 30
0.0
 10
1.520391747290666
 20
-12.95585507141705
 30
0.0
 10
1.744576536199623
 20
-13.09580463847975
 30
0.0
 10
1.969395777008686
 20
-13.23421198478485
 30
0.0
  0
SPLINE
  5
3988F
330
3982F
100
AcDbEntity
  8
0
100
AcDbSpline
210
0.0
220
0.0
230
1.0
 70
     8
 71
     3
 72
     8
 73
     4
 74
     0
 42
0.000000001
 43
0.0000000001
 40
0.0222013476406538
 40
0.0222013476406538
 40
0.0222013476406538
 40
0.0222013476406538
 40
0.1014492910276299
 40
0.1014492910276299
 40
0.1014492910276299
 40
0.1014492910276299
 10
1.3
 20
-9.991736073310669
 30
0.0
 10
1.520391747290666
 20
-10.13585507141704
 30
0.0
 10
1.744576536199623
 20
-10.27580463847975
 30
0.0
 10
1.969395777008686
 20
-10.41421198478485
 30
0.0
  0
SPLINE
  5
39890
330
3982F
100
AcDbEntity
  8
0
100
AcDbSpline
210
0.0
220
0.0
230
1.0
 70
     8
 71
     3
 72
     8
 73
     4
 74
     0
 42
0.000000001
 43
0.0000000001
 40
0.0222013476406539
 40
0.0222013476406539
 40
0.0222013476406539
 40
0.0222013476406539
 40
0.1014492910276299
 40
0.1014492910276299
 40
0.1014492910276299
 40
0.1014492910276299
 10
-1.3
 20
-9.744931827010269
 30
0.0
 10
-1.520391747290667
 20
-9.60081282890389
 30
0.0
 10
-1.744576536199623
 20
-9.460863261841186
 30
0.0
 10
-1.969395777008686
 20
-9.322455915536082
 30
0.0
  0
SPLINE
  5
39891
330
3982F
100
AcDbEntity
  8
0
100
AcDbSpline
210
0.0
220
0.0
230
1.0
 70
     8
 71
     3
 72
     8
 73
     4
 74
     0
 42
0.000000001
 43
0.0000000001
 40
0.0222013476406539
 40
0.0222013476406539
 40
0.0222013476406539
 40
0.0222013476406539
 40
0.1014492910276298
 40
0.1014492910276298
 40
0.1014492910276298
 40
0.1014492910276298
 10
-1.3
 20
-12.56493182701027
 30
0.0
 10
-1.520391747290667
 20
-12.42081282890389
 30
0.0
 10
-1.744576536199623
 20
-12.28086326184119
 30
0.0
 10
-1.969395777008686
 20
-12.14245591553608
 30
0.0
  0
SPLINE
  5
39892
330
3982F
100
AcDbEntity
  8
0
100
AcDbSpline
210
0.0
220
0.0
230
1.0
 70
     8
 71
     3
 72
     8
 73
     4
 74
     0
 42
0.000000001
 43
0.0000000001
 40
0.0222013476406537
 40
0.0222013476406537
 40
0.0222013476406537
 40
0.0222013476406537
 40
0.1014492910276296
 40
0.1014492910276296
 40
0.1014492910276296
 40
0.1014492910276296
 10
-1.3
 20
-15.38493182701027
 30
0.0
 10
-1.520391747290666
 20
-15.24081282890389
 30
0.0
 10
-1.744576536199622
 20
-15.10086326184119
 30
0.0
 10
-1.969395777008685
 20
-14.96245591553608
 30
0.0
  0
SPLINE
  5
39893
330
3982F
100
AcDbEntity
  8
0
100
AcDbSpline
210
0.0
220
0.0
230
1.0
 70
     8
 71
     3
 72
     8
 73
     4
 74
     0
 42
0.000000001
 43
0.0000000001
 40
0.0222013476406538
 40
0.0222013476406538
 40
0.0222013476406538
 40
0.0222013476406538
 40
0.1014492910276297
 40
0.1014492910276297
 40
0.1014492910276297
 40
0.1014492910276297
 10
-1.3
 20
-18.20493182701027
 30
0.0
 10
-1.520391747290667
 20
-18.06081282890389
 30
0.0
 10
-1.744576536199623
 20
-17.92086326184119
 30
0.0
 10
-1.969395777008686
 20
-17.78245591553608
 30
0.0
  0
SPLINE
  5
39894
330
3982F
100
AcDbEntity
  8
0
100
AcDbSpline
210
0.0
220
0.0
230
1.0
 70
     8
 71
     3
 72
     8
 73
     4
 74
     0
 42
0.000000001
 43
0.0000000001
 40
0.0
 40
0.0
 40
0.0
 40
0.0
 40
0.1014492910276297
 40
0.1014492910276297
 40
0.1014492910276297
 40
0.1014492910276297
 10
1.969395777008686
 20
-16.37245591553608
 30
0.0
 10
1.681593322904903
 20
-16.54963814330827
 30
0.0
 10
1.394830599182136
 20
-16.72934773962587
 30
0.0
 10
1.115733984736182
 20
-16.91709630692787
 30
0.0
  0
SPLINE
  5
39895
330
3982F
100
AcDbEntity
  8
0
100
AcDbSpline
210
0.0
220
0.0
230
1.0
 70
     8
 71
     3
 72
     8
 73
     4
 74
     0
 42
0.000000001
 43
0.0000000001
 40
0.0
 40
0.0
 40
0.0
 40
0.0
 40
0.1014492910276296
 40
0.1014492910276296
 40
0.1014492910276296
 40
0.1014492910276296
 10
1.969395777008686
 20
-13.55245591553608
 30
0.0
 10
1.681593322904903
 20
-13.72963814330827
 30
0.0
 10
1.394830599182136
 20
-13.90934773962587
 30
0.0
 10
1.115733984736183
 20
-14.09709630692787
 30
0.0
  0
SPLINE
  5
39896
330
3982F
100
AcDbEntity
  8
0
100
AcDbSpline
210
0.0
220
0.0
230
1.0
 70
     8
 71
     3
 72
     8
 73
     4
 74
     0
 42
0.000000001
 43
0.0000000001
 40
0.0
 40
0.0
 40
0.0
 40
0.0
 40
0.1014492910276296
 40
0.1014492910276296
 40
0.1014492910276296
 40
0.1014492910276296
 10
1.969395777008686
 20
-10.73245591553608
 30
0.0
 10
1.681593322904903
 20
-10.90963814330827
 30
0.0
 10
1.394830599182136
 20
-11.08934773962587
 30
0.0
 10
1.115733984736183
 20
-11.27709630692787
 30
0.0
  0
SPLINE
  5
39897
330
3982F
100
AcDbEntity
  8
0
100
AcDbSpline
210
0.0
220
0.0
230
1.0
 70
     8
 71
     3
 72
    16
 73
    12
 74
     0
 42
0.000000001
 43
0.0000000001
 40
0.0
 40
0.0
 40
0.0
 40
0.0
 40
0.0543541958093109
 40
0.0543541958093109
 40
0.1087083916186218
 40
0.1087083916186218
 40
0.1630625874279328
 40
0.1630625874279328
 40
0.2174167832372437
 40
0.2174167832372437
 40
0.2690769755197293
 40
0.2690769755197293
 40
0.2690769755197293
 40
0.2690769755197293
 10
-0.5340445445249323
 20
-8.18645373480877
 30
0.0
 10
-0.3743578534549703
 20
-8.140090177362646
 30
0.0
 10
-0.2017648747244783
 20
-8.094193564754181
 30
0.0
 10
0.1484576488869238
 20
-8.001466449861931
 30
0.0
 10
0.3225020753172126
 20
-7.955569837253468
 30
0.0
 10
0.6475065291516207
 20
-7.862842722361217
 30
0.0
 10
0.7951395875990866
 20
-7.816946109752754
 30
0.0
 10
1.042895927495071
 20
-7.724218994860503
 30
0.0
 10
1.140483004771854
 20
-7.678322382252041
 30
0.0
 10
1.268085268731826
 20
-7.587893224038502
 30
0.0
 10
1.299999914022925
 20
-7.544249428020881
 30
0.0
 10
1.299999995440458
 20
-7.500225639793112
 30
0.0
  0
SPLINE
  5
39898
330
3982F
100
AcDbEntity
  8
0
100
AcDbSpline
210
0.0
220
0.0
230
1.0
 70
     8
 71
     3
 72
    14
 73
    10
 74
     0
 42
0.000000001
 43
0.0000000001
 40
0.3480040041990939
 40
0.3480040041990939
 40
0.3480040041990939
 40
0.3480040041990939
 40
0.3601450010168597
 40
0.3601450010168597
 40
0.420169167853003
 40
0.420169167853003
 40
0.4801933346891464
 40
0.4801933346891464
 40
0.5406745553359561
 40
0.5406745553359561
 40
0.5406745553359561
 40
0.5406745553359561
 10
1.046259741846822
 20
-8.358159601170488
 30
0.0
 10
1.024239282741619
 20
-8.373956718619266
 30
0.0
 10
1.000911236434479
 20
-8.389775050578098
 30
0.0
 10
0.854775343388921
 20
-8.484009778888468
 30
0.0
 10
0.7052335112299595
 20
-8.561519741586115
 30
0.0
 10
0.3700159119417755
 20
-8.718281280463436
 30
0.0
 10
0.1881319604011378
 20
-8.795791243161083
 30
0.0
 10
-0.1814455819857355
 20
-8.953149612136066
 30
0.0
 10
-0.3649283868343176
 20
-9.031236565975845
 30
0.0
 10
-0.5340445445249321
 20
-9.110214165512168
 30
0.0
  0
LINE
  5
39899
330
3982F
100
AcDbEntity
  8
0
100
AcDbLine
 10
-0.5340445445249323
 20
-8.18645373480877
 30
0.0
 11
-0.8626873411556598
 21
-8.64833395016047
 31
0.0
  0
SPLINE
  5
3989A
330
3982F
100
AcDbEntity
  8
0
100
AcDbSpline
210
0.0
220
0.0
230
1.0
 70
     8
 71
     3
 72
    14
 73
    10
 74
     0
 42
0.000000001
 43
0.0000000001
 40
0.0
 40
0.0
 40
0.0
 40
0.0
 40
1.139138886966829
 40
1.139138886966829
 40
1.139138886966829
 40
2.284557310864958
 40
2.284557310864958
 40
2.284557310864958
 40
2.335729883869507
 40
2.335729883869507
 40
2.335729883869507
 40
2.335729883869507
 10
-0.86268734115566
 20
-8.64833395016047
 30
0.0
 10
-0.1073954367725827
 20
-8.477912340515237
 30
0.0
 10
0.745197845518658
 20
-8.307490730870004
 30
0.0
 10
1.24251803208166
 20
-8.13706912122477
 30
0.0
 10
1.74257971093672
 20
-7.965708057397171
 30
0.0
 10
1.865780454263622
 20
-7.79434699356957
 30
0.0
 10
1.615137452185614
 20
-7.622985929741971
 30
0.0
 10
1.603939756169633
 20
-7.615330223874231
 30
0.0
 10
1.592049656664704
 20
-7.60767451800649
 30
0.0
 10
1.579500712853827
 20
-7.60001881213875
 30
0.0
  0
LINE
  5
3989B
330
3982F
100
AcDbEntity
  8
0
100
AcDbLine
 10
-0.8626873411556598
 20
-8.64833395016047
 30
0.0
 11
-0.5340445445249323
 21
-9.110214165512168
 31
0.0
  0
SPLINE
  5
3989C
330
3982F
100
AcDbEntity
  8
0
100
AcDbSpline
210
0.0
220
0.0
230
1.0
 70
     8
 71
     3
 72
     8
 73
     4
 74
     0
 42
0.000000001
 43
0.0000000001
 40
0.0140046272169231
 40
0.0140046272169231
 40
0.0140046272169231
 40
0.0140046272169231
 40
0.0469112634235284
 40
0.0469112634235284
 40
0.0469112634235284
 40
0.0469112634235284
 10
1.3
 20
-7.426911512046578
 30
0.0
 10
1.392839790662885
 20
-7.48510562758166
 30
0.0
 10
1.486105182357182
 20
-7.542736481813911
 30
0.0
 10
1.579588435790679
 20
-7.600018812138749
 30
0.0
  0
SPLINE
  5
3989D
330
3982F
100
AcDbEntity
  8
0
100
AcDbSpline
210
0.0
220
0.0
230
1.0
 70
     8
 71
     3
 72
     8
 73
     4
 74
     0
 42
0.000000001
 43
0.0000000001
 40
0.0
 40
0.0
 40
0.0
 40
0.0
 40
0.0694180879128885
 40
0.0694180879128885
 40
0.0694180879128885
 40
0.0694180879128885
 10
1.616784176849766
 20
-7.970317800657129
 30
0.0
 10
1.42354747126299
 20
-8.096324277590534
 30
0.0
 10
1.232028460206604
 20
-8.224895622192207
 30
0.0
 10
1.046260098338634
 20
-8.358160226349696
 30
0.0
  0
ENDBLK
  5
39831
330
3982F
100
AcDbEntity
  8
0
100
AcDbBlockEnd
  0
BLOCK
  5
399B1
330
399B0
100
AcDbEntity
  8
0
100
AcDbBlockBegin
  2
TTF42X28PH2-Top
 70
     0
 10
0.0
 20
0.0
 30
0.0
  3
TTF42X28PH2-Top
  1

  0
LINE
  5
399B3
330
399B0
100
AcDbEntity
  8
0
100
AcDbLine
 10
1.590711838266203
 20
1.380233087097323
 30
0.0
 11
1.509411024046596
 21
1.380233087097323
 31
0.0
  0
LINE
  5
399B4
330
399B0
100
AcDbEntity
  8
0
100
AcDbLine
 10
1.509411024046596
 20
1.380233087097323
 30
0.0
 11
1.629555560615571
 21
1.594325231208954
 31
0.0
  0
LINE
  5
399B5
330
399B0
100
AcDbEntity
  8
0
100
AcDbLine
 10
1.629555560615571
 20
1.594325231208954
 30
0.0
 11
1.380233063675444
 21
1.594325231208954
 31
0.0
  0
LINE
  5
399B6
330
399B0
100
AcDbEntity
  8
0
100
AcDbLine
 10
1.380233063675444
 20
1.594325231208954
 30
0.0
 11
1.380233063675444
 21
1.664785936865946
 31
0.0
  0
LINE
  5
399B7
330
399B0
100
AcDbEntity
  8
0
100
AcDbLine
 10
1.380233063675444
 20
1.664785936865946
 30
0.0
 11
1.669302625345156
 21
1.664785936865946
 31
0.0
  0
LINE
  5
399B8
330
399B0
100
AcDbEntity
  8
0
100
AcDbLine
 10
1.669302625345156
 20
1.664785936865946
 30
0.0
 11
1.784930450013041
 21
1.869844657175398
 31
0.0
  0
LINE
  5
399B9
330
399B0
100
AcDbEntity
  8
0
100
AcDbLine
 10
1.784930450013041
 20
1.869844657175398
 30
0.0
 11
1.380233063675444
 21
1.869844657175399
 31
0.0
  0
LINE
  5
399BA
330
399B0
100
AcDbEntity
  8
0
100
AcDbLine
 10
1.380233063675444
 20
1.869844657175399
 30
0.0
 11
1.380233063675443
 21
1.940305362832391
 31
0.0
  0
LINE
  5
399BB
330
399B0
100
AcDbEntity
  8
0
100
AcDbLine
 10
1.380233063675443
 20
1.940305362832391
 30
0.0
 11
1.824677514742626
 21
1.940305362832391
 31
0.0
  0
LINE
  5
399BC
330
399B0
100
AcDbEntity
  8
0
100
AcDbLine
 10
1.824677514742626
 20
1.940305362832391
 30
0.0
 11
1.945725393691818
 21
2.15530084932424
 31
0.0
  0
LINE
  5
399BD
330
399B0
100
AcDbEntity
  8
0
100
AcDbLine
 10
1.945725393691818
 20
2.15530084932424
 30
0.0
 11
2.027929550291643
 21
2.15530084932424
 31
0.0
  0
LINE
  5
399BE
330
399B0
100
AcDbEntity
  8
0
100
AcDbLine
 10
2.027929550291643
 20
2.15530084932424
 30
0.0
 11
1.90688167134245
 21
1.940305362832391
 31
0.0
  0
LINE
  5
399BF
330
399B0
100
AcDbEntity
  8
0
100
AcDbLine
 10
1.90688167134245
 20
1.940305362832391
 30
0.0
 11
2.154397483522142
 21
1.940305362832391
 31
0.0
  0
LINE
  5
399C0
330
399B0
100
AcDbEntity
  8
0
100
AcDbLine
 10
2.154397483522142
 20
1.940305362832391
 30
0.0
 11
2.154397483522142
 21
1.869844657175399
 31
0.0
  0
LINE
  5
399C1
330
399B0
100
AcDbEntity
  8
0
100
AcDbLine
 10
2.154397483522142
 20
1.869844657175399
 30
0.0
 11
1.867134606612865
 21
1.869844657175398
 31
0.0
  0
LINE
  5
399C2
330
399B0
100
AcDbEntity
  8
0
100
AcDbLine
 10
1.867134606612865
 20
1.869844657175398
 30
0.0
 11
1.753313466705416
 21
1.664785936865946
 31
0.0
  0
LINE
  5
399C3
330
399B0
100
AcDbEntity
  8
0
100
AcDbLine
 10
1.753313466705416
 20
1.664785936865946
 30
0.0
 11
2.154397483522142
 21
1.664785936865946
 31
0.0
  0
LINE
  5
399C4
330
399B0
100
AcDbEntity
  8
0
100
AcDbLine
 10
2.154397483522142
 20
1.664785936865946
 30
0.0
 11
2.154397483522142
 21
1.594325231208954
 31
0.0
  0
LINE
  5
399C5
330
399B0
100
AcDbEntity
  8
0
100
AcDbLine
 10
2.154397483522142
 20
1.594325231208954
 30
0.0
 11
1.711759717215395
 21
1.594325231208954
 31
0.0
  0
LINE
  5
399C6
330
399B0
100
AcDbEntity
  8
0
100
AcDbLine
 10
1.711759717215395
 20
1.594325231208954
 30
0.0
 11
1.590711838266203
 21
1.380233087097323
 31
0.0
  0
SPLINE
  5
399C7
330
399B0
100
AcDbEntity
  8
0
100
AcDbSpline
210
0.0
220
0.0
230
1.0
 70
     8
 71
     2
 72
     8
 73
     5
 74
     0
 42
0.000000001
 43
0.0000000001
 40
0.0
 40
0.0
 40
0.0
 40
1.0
 40
2.0
 40
3.0
 40
3.0
 40
3.0
 10
-1.446120601883075
 20
1.954885866711874
 30
0.0
 10
-1.468986455882339
 20
2.031105380042755
 30
0.0
 10
-1.535297432480205
 20
2.118757820373268
 30
0.0
 10
-1.659535239209542
 20
2.171349284571577
 30
0.0
 10
-1.734992557407114
 20
2.171349284571577
 30
0.0
  0
LINE
  5
399C8
330
399B0
100
AcDbEntity
  8
0
100
AcDbLine
 10
-1.3272181610869
 20
1.987660257444153
 30
0.0
 11
-1.446120601883075
 21
1.954885866711874
 31
0.0
  0
SPLINE
  5
399C9
330
399B0
100
AcDbEntity
  8
0
100
AcDbSpline
210
0.0
220
0.0
230
1.0
 70
     8
 71
     2
 72
     8
 73
     5
 74
     0
 42
0.000000001
 43
0.0000000001
 40
0.0
 40
0.0
 40
0.0
 40
1.0
 40
2.0
 40
3.0
 40
3.0
 40
3.0
 10
-1.735754752540423
 20
2.28491635943459
 30
0.0
 10
-1.627523043610572
 20
2.28491635943459
 30
0.0
 10
-1.452218162949545
 20
2.214794407170179
 30
0.0
 10
-1.353132795619399
 20
2.089032210174225
 30
0.0
 10
-1.3272181610869
 20
1.987660257444153
 30
0.0
  0
SPLINE
  5
399CA
330
399B0
100
AcDbEntity
  8
0
100
AcDbSpline
210
0.0
220
0.0
230
1.0
 70
     8
 71
     2
 72
     8
 73
     5
 74
     0
 42
0.000000001
 43
0.0000000001
 40
0.0
 40
0.0
 40
0.0
 40
1.0
 40
2.0
 40
3.0
 40
3.0
 40
3.0
 10
-2.236516955124312
 20
1.762812693118053
 30
0.0
 10
-2.236516955124312
 20
1.909154158713345
 30
0.0
 10
-2.114565733794902
 20
2.16220294297187
 30
0.0
 10
-1.88514499866895
 20
2.284916359434589
 30
0.0
 10
-1.735754752540423
 20
2.28491635943459
 30
0.0
  0
SPLINE
  5
399CB
330
399B0
100
AcDbEntity
  8
0
100
AcDbSpline
210
0.0
220
0.0
230
1.0
 70
     8
 71
     2
 72
     8
 73
     5
 74
     0
 42
0.000000001
 43
0.0000000001
 40
0.0
 40
0.0
 40
0.0
 40
1.0
 40
2.0
 40
3.0
 40
3.0
 40
3.0
 10
-1.725846215807408
 20
1.250617563534532
 30
0.0
 10
-1.872949876536009
 20
1.250617563534532
 30
0.0
 10
-2.113803538661593
 20
1.377141955663794
 30
0.0
 10
-2.236516955124312
 20
1.615709032389452
 30
0.0
 10
-2.236516955124312
 20
1.762812693118053
 30
0.0
  0
SPLINE
  5
399CC
330
399B0
100
AcDbEntity
  8
0
100
AcDbSpline
210
0.0
220
0.0
230
1.0
 70
     8
 71
     2
 72
     7
 73
     4
 74
     0
 42
0.000000001
 43
0.0000000001
 40
0.0
 40
0.0
 40
0.0
 40
1.0
 40
2.0
 40
2.0
 40
2.0
 10
-1.311974258420723
 20
1.406867565862838
 30
0.0
 10
-1.409535235484251
 20
1.329123662265339
 30
0.0
 10
-1.616852311744248
 20
1.250617563534532
 30
0.0
 10
-1.725846215807408
 20
1.250617563534532
 30
0.0
  0
LINE
  5
399CD
330
399B0
100
AcDbEntity
  8
0
100
AcDbLine
 10
-1.311974258420723
 20
1.777294400650921
 30
0.0
 11
-1.311974258420723
 21
1.406867565862838
 31
0.0
  0
LINE
  5
399CE
330
399B0
100
AcDbEntity
  8
0
100
AcDbLine
 10
-1.734992557407114
 20
1.777294400650921
 30
0.0
 11
-1.311974258420723
 21
1.777294400650921
 31
0.0
  0
LINE
  5
399CF
330
399B0
100
AcDbEntity
  8
0
100
AcDbLine
 10
-1.734992557407114
 20
1.659154154988055
 30
0.0
 11
-1.734992557407114
 21
1.777294400650921
 31
0.0
  0
LINE
  5
399D0
330
399B0
100
AcDbEntity
  8
0
100
AcDbLine
 10
-1.441547431083221
 20
1.659154154988055
 30
0.0
 11
-1.734992557407114
 21
1.659154154988055
 31
0.0
  0
LINE
  5
399D1
330
399B0
100
AcDbEntity
  8
0
100
AcDbLine
 10
-1.441547431083221
 20
1.473940737594013
 30
0.0
 11
-1.441547431083221
 21
1.659154154988055
 31
0.0
  0
SPLINE
  5
399D2
330
399B0
100
AcDbEntity
  8
0
100
AcDbSpline
210
0.0
220
0.0
230
1.0
 70
     8
 71
     2
 72
     7
 73
     4
 74
     0
 42
0.000000001
 43
0.0000000001
 40
0.0
 40
0.0
 40
0.0
 40
1.0
 40
2.0
 40
2.0
 40
2.0
 10
-1.733468167140496
 20
1.370282199464015
 30
0.0
 10
-1.647340117076601
 20
1.370282199464015
 30
0.0
 10
-1.483468163415206
 20
1.436593176061882
 30
0.0
 10
-1.441547431083221
 20
1.473940737594013
 30
0.0
  0
SPLINE
  5
399D3
330
399B0
100
AcDbEntity
  8
0
100
AcDbSpline
210
0.0
220
0.0
230
1.0
 70
     8
 71
     2
 72
     8
 73
     5
 74
     0
 42
0.000000001
 43
0.0000000001
 40
0.0
 40
0.0
 40
0.0
 40
1.0
 40
2.0
 40
3.0
 40
3.0
 40
3.0
 10
-2.100084026262035
 20
1.77119683958445
 30
0.0
 10
-2.100084026262035
 20
1.637812691255408
 30
0.0
 10
-2.007858415131668
 20
1.457172444661219
 30
0.0
 10
-1.831791339337333
 20
1.370282199464015
 30
0.0
 10
-1.733468167140496
 20
1.370282199464015
 30
0.0
  0
SPLINE
  5
399D4
330
399B0
100
AcDbEntity
  8
0
100
AcDbSpline
210
0.0
220
0.0
230
1.0
 70
     8
 71
     2
 72
     6
 73
     3
 74
     0
 42
0.000000001
 43
0.0000000001
 40
0.0
 40
0.0
 40
0.0
 40
1.0
 40
1.0
 40
1.0
 10
-2.061974269596595
 20
1.972416354777976
 30
0.0
 10
-2.100084026262035
 20
1.879428548514301
 30
0.0
 10
-2.100084026262035
 20
1.77119683958445
 30
0.0
  0
SPLINE
  5
399D5
330
399B0
100
AcDbEntity
  8
0
100
AcDbSpline
210
0.0
220
0.0
230
1.0
 70
     8
 71
     2
 72
     8
 73
     5
 74
     0
 42
0.000000001
 43
0.0000000001
 40
0.0
 40
0.0
 40
0.0
 40
1.0
 40
2.0
 40
3.0
 40
3.0
 40
3.0
 10
-1.734992557407114
 20
2.171349284571577
 30
0.0
 10
-1.825693778270863
 20
2.171349284571577
 30
0.0
 10
-1.958315731466596
 20
2.116471234973341
 30
0.0
 10
-2.03910841559733
 20
2.025770014109593
 30
0.0
 10
-2.061974269596595
 20
1.972416354777976
 30
0.0
  0
LINE
  5
399D6
330
399B0
100
AcDbEntity
  8
0
100
AcDbLine
 10
-1.122335666963188
 20
0.5460436402961512
 30
0.0
 11
-0.9228098518076293
 21
0.3465178251405932
 31
0.0
  0
LINE
  5
399D7
330
399B0
100
AcDbEntity
  8
0
100
AcDbLine
 10
-2.384410713856092
 20
0.5240140384083516
 30
0.0
 11
-1.122335666963188
 21
0.5460436402961512
 31
0.0
  0
LINE
  5
399D8
330
399B0
100
AcDbEntity
  8
0
100
AcDbLine
 10
-2.384410713856092
 20
0.5240140384083516
 30
0.0
 11
-1.090194936697102
 21
0.3499999999999988
 31
0.0
  0
LINE
  5
399D9
330
399B0
100
AcDbEntity
  8
0
100
AcDbLine
 10
-0.7129552696403559
 20
0.7129552696403552
 30
0.0
 11
-0.5025626457607748
 21
0.5025626457607745
 31
0.0
  0
LINE
  5
399DA
330
399B0
100
AcDbEntity
  8
0
100
AcDbLine
 10
-0.5460436402961524
 20
1.122335666963187
 30
0.0
 11
-0.3465178251405948
 21
0.9228098518076293
 31
0.0
  0
LINE
  5
399DB
330
399B0
100
AcDbEntity
  8
0
100
AcDbLine
 10
-0.7129552696403559
 20
0.7129552696403552
 30
0.0
 11
-0.5460436402961524
 21
1.122335666963187
 31
0.0
  0
LINE
  5
399DC
330
399B0
100
AcDbEntity
  8
0
100
AcDbLine
 10
-0.5240140384083541
 20
2.384410713856091
 30
0.0
 11
-0.3500000000000003
 21
1.090194936697101
 31
0.0
  0
LINE
  5
399DD
330
399B0
100
AcDbEntity
  8
0
100
AcDbLine
 10
-0.5460436402961524
 20
1.122335666963187
 30
0.0
 11
-0.5240140384083541
 21
2.384410713856091
 31
0.0
  0
LINE
  5
399DE
330
399B0
100
AcDbEntity
  8
0
100
AcDbLine
 10
0.7129552696403556
 20
0.7129552696403554
 30
0.0
 11
0.5025626457607752
 21
0.5025626457607748
 31
0.0
  0
LINE
  5
399DF
330
399B0
100
AcDbEntity
  8
0
100
AcDbLine
 10
1.122335666963188
 20
0.546043640296152
 30
0.0
 11
0.9228098518076286
 21
0.3465178251405935
 31
0.0
  0
LINE
  5
399E0
330
399B0
100
AcDbEntity
  8
0
100
AcDbLine
 10
0.7129552696403556
 20
0.7129552696403554
 30
0.0
 11
1.122335666963188
 21
0.546043640296152
 31
0.0
  0
LINE
  5
399E1
330
399B0
100
AcDbEntity
  8
0
100
AcDbLine
 10
0.5460436402961517
 20
1.122335666963187
 30
0.0
 11
0.7129552696403556
 21
0.7129552696403554
 31
0.0
  0
LINE
  5
399E2
330
399B0
100
AcDbEntity
  8
0
100
AcDbLine
 10
0.5460436402961517
 20
1.122335666963187
 30
0.0
 11
0.3465178251405942
 21
0.9228098518076283
 31
0.0
  0
LINE
  5
399E3
330
399B0
100
AcDbEntity
  8
0
100
AcDbLine
 10
2.384410713856092
 20
0.5240140384083534
 30
0.0
 11
1.090194936697102
 21
0.3499999999999992
 31
0.0
  0
LINE
  5
399E4
330
399B0
100
AcDbEntity
  8
0
100
AcDbLine
 10
1.122335666963188
 20
0.546043640296152
 30
0.0
 11
2.384410713856092
 21
0.5240140384083534
 31
0.0
  0
LINE
  5
399E5
330
399B0
100
AcDbEntity
  8
0
100
AcDbLine
 10
-0.5460436402961515
 20
-1.122335666963188
 30
0.0
 11
-0.3465178251405943
 21
-0.9228098518076278
 31
0.0
  0
LINE
  5
399E6
330
399B0
100
AcDbEntity
  8
0
100
AcDbLine
 10
-0.5240140384083519
 20
-2.384410713856092
 30
0.0
 11
-0.5460436402961515
 21
-1.122335666963188
 31
0.0
  0
LINE
  5
399E7
330
399B0
100
AcDbEntity
  8
0
100
AcDbLine
 10
-0.5240140384083519
 20
-2.384410713856092
 30
0.0
 11
-0.35
 21
-1.090194936697103
 31
0.0
  0
LINE
  5
399E8
330
399B0
100
AcDbEntity
  8
0
100
AcDbLine
 10
-0.7129552696403554
 20
-0.7129552696403562
 30
0.0
 11
-0.5025626457607752
 21
-0.5025626457607765
 31
0.0
  0
LINE
  5
399E9
330
399B0
100
AcDbEntity
  8
0
100
AcDbLine
 10
-1.122335666963187
 20
-0.5460436402961526
 30
0.0
 11
-0.9228098518076299
 21
-0.3465178251405954
 31
0.0
  0
LINE
  5
399EA
330
399B0
100
AcDbEntity
  8
0
100
AcDbLine
 10
-0.7129552696403554
 20
-0.7129552696403562
 30
0.0
 11
-1.122335666963187
 21
-0.5460436402961526
 31
0.0
  0
LINE
  5
399EB
330
399B0
100
AcDbEntity
  8
0
100
AcDbLine
 10
-0.5460436402961515
 20
-1.122335666963188
 30
0.0
 11
-0.7129552696403554
 21
-0.7129552696403562
 31
0.0
  0
LINE
  5
399EC
330
399B0
100
AcDbEntity
  8
0
100
AcDbLine
 10
-2.384410713856092
 20
-0.5240140384083545
 30
0.0
 11
-1.090194936697102
 21
-0.3500000000000012
 31
0.0
  0
LINE
  5
399ED
330
399B0
100
AcDbEntity
  8
0
100
AcDbLine
 10
-1.122335666963187
 20
-0.5460436402961526
 30
0.0
 11
-2.384410713856092
 21
-0.5240140384083545
 31
0.0
  0
LINE
  5
399EE
330
399B0
100
AcDbEntity
  8
0
100
AcDbLine
 10
0.7129552696403558
 20
-0.7129552696403559
 30
0.0
 11
0.5025626457607741
 21
-0.5025626457607767
 31
0.0
  0
LINE
  5
399EF
330
399B0
100
AcDbEntity
  8
0
100
AcDbLine
 10
0.5460436402961523
 20
-1.122335666963188
 30
0.0
 11
0.3465178251405947
 21
-0.9228098518076304
 31
0.0
  0
LINE
  5
399F0
330
399B0
100
AcDbEntity
  8
0
100
AcDbLine
 10
0.7129552696403558
 20
-0.7129552696403559
 30
0.0
 11
0.5460436402961523
 21
-1.122335666963188
 31
0.0
  0
LINE
  5
399F1
330
399B0
100
AcDbEntity
  8
0
100
AcDbLine
 10
0.5240140384083541
 20
-2.384410713856092
 30
0.0
 11
0.3500000000000003
 21
-1.090194936697103
 31
0.0
  0
LINE
  5
399F2
330
399B0
100
AcDbEntity
  8
0
100
AcDbLine
 10
0.5460436402961523
 20
-1.122335666963188
 30
0.0
 11
0.5240140384083541
 21
-2.384410713856092
 31
0.0
  0
LINE
  5
399F3
330
399B0
100
AcDbEntity
  8
0
100
AcDbLine
 10
1.122335666963188
 20
-0.5460436402961518
 30
0.0
 11
0.7129552696403558
 21
-0.7129552696403559
 31
0.0
  0
LINE
  5
399F4
330
399B0
100
AcDbEntity
  8
0
100
AcDbLine
 10
1.122335666963188
 20
-0.5460436402961518
 30
0.0
 11
0.9228098518076343
 21
-0.3465178251405936
 31
0.0
  0
LINE
  5
399F5
330
399B0
100
AcDbEntity
  8
0
100
AcDbLine
 10
2.384410713856092
 20
-0.5240140384083525
 30
0.0
 11
1.122335666963188
 21
-0.5460436402961518
 31
0.0
  0
LINE
  5
399F6
330
399B0
100
AcDbEntity
  8
0
100
AcDbLine
 10
2.384410713856092
 20
-0.5240140384083525
 30
0.0
 11
1.090194936697103
 21
-0.3499999999999997
 31
0.0
  0
SPLINE
  5
399F7
330
399B0
100
AcDbEntity
  8
0
100
AcDbSpline
210
0.0
220
0.0
230
1.0
 70
     8
 71
     3
 72
     8
 73
     4
 74
     0
 42
0.000000001
 43
0.0000000001
 40
0.0
 40
0.0
 40
0.0
 40
0.0
 40
1.0
 40
1.0
 40
1.0
 40
1.0
 10
-0.5240140384083539
 20
2.384410713856092
 30
0.0
 10
-0.1801379014501018
 20
2.459983232547028
 30
0.0
 10
0.1801379014500999
 20
2.459983232547028
 30
0.0
 10
0.5240140384083519
 20
2.384410713856092
 30
0.0
  0
LINE
  5
399F8
330
399B0
100
AcDbEntity
  8
0
100
AcDbLine
 10
0.5240140384083521
 20
2.384410713856091
 30
0.0
 11
0.3499999999999996
 21
1.090194936697102
 31
0.0
  0
LINE
  5
399F9
330
399B0
100
AcDbEntity
  8
0
100
AcDbLine
 10
0.5240140384083521
 20
2.384410713856091
 30
0.0
 11
0.5460436402961517
 21
1.122335666963187
 31
0.0
  0
SPLINE
  5
399FA
330
399B0
100
AcDbEntity
  8
0
100
AcDbSpline
210
0.0
220
0.0
230
1.0
 70
     8
 71
     3
 72
     8
 73
     4
 74
     0
 42
0.000000001
 43
0.0000000001
 40
0.0
 40
0.0
 40
0.0
 40
0.0
 40
1.0
 40
1.0
 40
1.0
 40
1.0
 10
2.384410713856092
 20
0.5240140384083534
 30
0.0
 10
2.459983232547028
 20
0.1801379014501014
 30
0.0
 10
2.459983232547028
 20
-0.1801379014501003
 30
0.0
 10
2.384410713856092
 20
-0.5240140384083522
 30
0.0
  0
SPLINE
  5
399FB
330
399B0
100
AcDbEntity
  8
0
100
AcDbSpline
210
0.0
220
0.0
230
1.0
 70
     8
 71
     3
 72
     8
 73
     4
 74
     0
 42
0.000000001
 43
0.0000000001
 40
0.0
 40
0.0
 40
0.0
 40
0.0
 40
1.0
 40
1.0
 40
1.0
 40
1.0
 10
0.5240140384083541
 20
-2.384410713856092
 30
0.0
 10
0.1801379014501021
 20
-2.459983232547028
 30
0.0
 10
-0.1801379014500996
 20
-2.459983232547028
 30
0.0
 10
-0.5240140384083516
 20
-2.384410713856092
 30
0.0
  0
SPLINE
  5
399FC
330
399B0
100
AcDbEntity
  8
0
100
AcDbSpline
210
0.0
220
0.0
230
1.0
 70
     8
 71
     3
 72
     8
 73
     4
 74
     0
 42
0.000000001
 43
0.0000000001
 40
0.0
 40
0.0
 40
0.0
 40
0.0
 40
1.0
 40
1.0
 40
1.0
 40
1.0
 10
-2.384410713856092
 20
-0.5240140384083545
 30
0.0
 10
-2.459983232547028
 20
-0.1801379014501024
 30
0.0
 10
-2.459983232547028
 20
0.1801379014500994
 30
0.0
 10
-2.384410713856092
 20
0.5240140384083514
 30
0.0
  0
LINE
  5
399FD
330
399B0
100
AcDbEntity
  8
0
100
AcDbLine
 10
-1.122335666963188
 20
0.5460436402961512
 30
0.0
 11
-0.7129552696403559
 21
0.7129552696403552
 31
0.0
  0
SPLINE
  5
399FE
330
399B0
100
AcDbEntity
  8
0
100
AcDbSpline
210
0.0
220
0.0
230
1.0
 70
    12
 71
     2
 72
     6
 73
     3
 74
     0
 42
0.000000001
 43
0.0000000001
 40
0.2238321850755671
 40
0.2238321850755671
 40
0.2238321850755671
 40
0.2551526433790301
 40
0.2551526433790301
 40
0.2551526433790301
 10
-1.090194936702497
 20
0.3500000000001124
 30
0.0
 41
1.155409479416919
 10
-1.000168473759575
 20
0.3481017032591099
 30
0.0
 41
1.14139260066196
 10
-0.9228098518075276
 20
0.3465178251405909
 30
0.0
 41
1.120410098910363
  0
SPLINE
  5
399FF
330
399B0
100
AcDbEntity
  8
0
100
AcDbSpline
210
0.0
220
0.0
230
1.0
 70
    12
 71
     2
 72
     6
 73
     3
 74
     0
 42
0.000000001
 43
0.0000000001
 40
0.4681852622991891
 40
0.4681852622991891
 40
0.4681852622991891
 40
0.5790398484060074
 40
0.5790398484060074
 40
0.5790398484060074
 10
-0.5025626457607748
 20
0.5025626457607745
 30
0.0
 41
3.147359878752342
 10
-0.4358466618247518
 20
0.6765440037189823
 30
0.0
 41
2.973716383361031
 10
-0.3465178251405957
 20
0.9228098518076242
 30
0.0
 41
2.597457800819943
  0
SPLINE
  5
39A00
330
399B0
100
AcDbEntity
  8
0
100
AcDbSpline
210
0.0
220
0.0
230
1.0
 70
    12
 71
     2
 72
     6
 73
     3
 74
     0
 42
0.000000001
 43
0.0000000001
 40
0.6853846159056918
 40
0.6853846159056918
 40
0.6853846159056918
 40
0.7012981598024489
 40
0.7012981598024489
 40
0.7012981598024489
 10
-0.3465178251405947
 20
0.9228098518076293
 30
0.0
 41
2.939746581964976
 10
-0.3481017032590653
 20
1.000168473757306
 30
0.0
 41
2.783055047750159
 10
-0.3499999999999992
 20
1.090194936697042
 30
0.0
 41
2.618041548436133
  0
SPLINE
  5
39A01
330
399B0
100
AcDbEntity
  8
0
100
AcDbSpline
210
0.0
220
0.0
230
1.0
 70
    12
 71
     2
 72
     6
 73
     3
 74
     0
 42
0.000000001
 43
0.0000000001
 40
0.4681852622991889
 40
0.4681852622991889
 40
0.4681852622991889
 40
0.579039848406008
 40
0.579039848406008
 40
0.579039848406008
 10
0.502562645760775
 20
0.5025626457607748
 30
0.0
 41
3.147359878752332
 10
0.6765440037189848
 20
0.4358466618247507
 30
0.0
 41
2.97371638336102
 10
0.9228098518076301
 20
0.3465178251405929
 30
0.0
 41
2.59745780081993
  0
SPLINE
  5
39A02
330
399B0
100
AcDbEntity
  8
0
100
AcDbSpline
210
0.0
220
0.0
230
1.0
 70
    12
 71
     2
 72
     6
 73
     3
 74
     0
 42
0.000000001
 43
0.0000000001
 40
0.1673233269616036
 40
0.1673233269616036
 40
0.1673233269616036
 40
0.2781779130683801
 40
0.2781779130683801
 40
0.2781779130683801
 10
0.3465178251405931
 20
0.9228098518076276
 30
0.0
 41
2.597457800819935
 10
0.4358466618247203
 20
0.6765440037190653
 30
0.0
 41
2.973716383360882
 10
0.5025626457607256
 20
0.5025626457609
 30
0.0
 41
3.147359878752205
  0
SPLINE
  5
39A03
330
399B0
100
AcDbEntity
  8
0
100
AcDbSpline
210
0.0
220
0.0
230
1.0
 70
    12
 71
     2
 72
     6
 73
     3
 74
     0
 42
0.000000001
 43
0.0000000001
 40
0.6853846159056916
 40
0.6853846159056916
 40
0.6853846159056916
 40
0.7012981598024569
 40
0.7012981598024569
 40
0.7012981598024569
 10
0.9228098518076286
 20
0.3465178251405934
 30
0.0
 41
2.939746581964978
 10
1.000168473757348
 20
0.348101703259065
 30
0.0
 41
2.78305504775008
 10
1.09019493669714
 20
0.3500000000000002
 30
0.0
 41
2.618041548435965
  0
SPLINE
  5
39A04
330
399B0
100
AcDbEntity
  8
0
100
AcDbSpline
210
0.0
220
0.0
230
1.0
 70
    12
 71
     2
 72
     6
 73
     3
 74
     0
 42
0.000000001
 43
0.0000000001
 40
0.0702093403744067
 40
0.0702093403744067
 40
0.0702093403744067
 40
0.0861228842704933
 40
0.0861228842704933
 40
0.0861228842704933
 10
-0.349999999999956
 20
-1.090194936695038
 30
0.0
 41
2.618041548439591
 10
-0.3481017032591035
 20
-1.000168473759132
 30
0.0
 41
2.783055047746577
 10
-0.346517825140689
 20
-0.922809851812268
 30
0.0
 41
2.939746581955055
  0
SPLINE
  5
39A05
330
399B0
100
AcDbEntity
  8
0
100
AcDbSpline
210
0.0
220
0.0
230
1.0
 70
    12
 71
     2
 72
     6
 73
     3
 74
     0
 42
0.000000001
 43
0.0000000001
 40
0.4681852622991891
 40
0.4681852622991891
 40
0.4681852622991891
 40
0.579039848406007
 40
0.579039848406007
 40
0.579039848406007
 10
-0.5025626457607753
 20
-0.5025626457607764
 30
0.0
 41
3.147359878752338
 10
-0.6765440037189824
 20
-0.4358466618247534
 30
0.0
 41
2.973716383361027
 10
-0.9228098518076237
 20
-0.3465178251405975
 30
0.0
 41
2.597457800819941
  0
SPLINE
  5
39A06
330
399B0
100
AcDbEntity
  8
0
100
AcDbSpline
210
0.0
220
0.0
230
1.0
 70
    12
 71
     2
 72
     6
 73
     3
 74
     0
 42
0.000000001
 43
0.0000000001
 40
0.1673233269616039
 40
0.1673233269616039
 40
0.1673233269616039
 40
0.2781779130683798
 40
0.2781779130683798
 40
0.2781779130683798
 10
-0.3465178251405944
 20
-0.9228098518076278
 30
0.0
 41
2.597457800819937
 10
-0.4358466618247211
 20
-0.6765440037190672
 30
0.0
 41
2.973716383360882
 10
-0.502562645760726
 20
-0.5025626457609026
 30
0.0
 41
3.147359878752205
  0
SPLINE
  5
39A07
330
399B0
100
AcDbEntity
  8
0
100
AcDbSpline
210
0.0
220
0.0
230
1.0
 70
    12
 71
     2
 72
     6
 73
     3
 74
     0
 42
0.000000001
 43
0.0000000001
 40
0.6853846159056918
 40
0.6853846159056918
 40
0.6853846159056918
 40
0.7012981598024469
 40
0.7012981598024469
 40
0.7012981598024469
 10
-0.9228098518076299
 20
-0.3465178251405954
 30
0.0
 41
2.939746581964976
 10
-1.000168473757296
 20
-0.3481017032590655
 30
0.0
 41
2.783055047750177
 10
-1.09019493669702
 20
-0.3499999999999992
 30
0.0
 41
2.618041548436171
  0
SPLINE
  5
39A08
330
399B0
100
AcDbEntity
  8
0
100
AcDbSpline
210
0.0
220
0.0
230
1.0
 70
    12
 71
     2
 72
     6
 73
     3
 74
     0
 42
0.000000001
 43
0.0000000001
 40
0.4681852622991898
 40
0.4681852622991898
 40
0.4681852622991898
 40
0.5790398484060075
 40
0.5790398484060075
 40
0.5790398484060075
 10
0.5025626457607741
 20
-0.5025626457607771
 30
0.0
 41
3.147359878752348
 10
0.4358466618247515
 20
-0.6765440037189839
 30
0.0
 41
2.973716383361035
 10
0.3465178251405959
 20
-0.9228098518076244
 30
0.0
 41
2.597457800819948
  0
SPLINE
  5
39A09
330
399B0
100
AcDbEntity
  8
0
100
AcDbSpline
210
0.0
220
0.0
230
1.0
 70
    12
 71
     2
 72
     6
 73
     3
 74
     0
 42
0.000000001
 43
0.0000000001
 40
0.6853846159056914
 40
0.6853846159056914
 40
0.6853846159056914
 40
0.7012981598024526
 40
0.7012981598024526
 40
0.7012981598024526
 10
0.3465178251405946
 20
-0.9228098518076304
 30
0.0
 41
2.939746581964976
 10
0.3481017032590655
 20
-1.000168473757328
 30
0.0
 41
2.783055047750118
 10
0.3500000000000001
 20
-1.090194936697092
 30
0.0
 41
2.618041548436046
  0
SPLINE
  5
39A0A
330
399B0
100
AcDbEntity
  8
0
100
AcDbSpline
210
0.0
220
0.0
230
1.0
 70
    12
 71
     2
 72
     6
 73
     3
 74
     0
 42
0.000000001
 43
0.0000000001
 40
0.1673233269616026
 40
0.1673233269616026
 40
0.1673233269616026
 40
0.278177913068381
 40
0.278177913068381
 40
0.278177913068381
 10
0.9228098518076331
 20
-0.3465178251405932
 30
0.0
 41
2.597457800819929
 10
0.676544003719066
 20
-0.4358466618247225
 30
0.0
 41
2.973716383360884
 10
0.5025626457608981
 20
-0.5025626457607287
 30
0.0
 41
3.147359878752208
  0
SPLINE
  5
39A0B
330
399B0
100
AcDbEntity
  8
0
100
AcDbSpline
210
0.0
220
0.0
230
1.0
 70
    12
 71
     2
 72
     6
 73
     3
 74
     0
 42
0.000000001
 43
0.0000000001
 40
0.6853846159056932
 40
0.6853846159056932
 40
0.6853846159056932
 40
0.701298159802457
 40
0.701298159802457
 40
0.701298159802457
 10
0.9228098518076343
 20
-0.3465178251405936
 30
0.0
 41
2.939746581964976
 10
1.000168473757345
 20
-0.3481017032590647
 30
0.0
 41
2.783055047750091
 10
1.090194936697129
 20
-0.3499999999999999
 30
0.0
 41
2.618041548435991
  0
ARC
  5
39A0C
330
399B0
100
AcDbEntity
  8
0
100
AcDbCircle
 10
0.0
 20
-0.0000000000000009
 30
0.0
 40
1.145
100
AcDbArc
 50
342.2011101962058
 51
17.7988898037943
  0
SPLINE
  5
39A0D
330
399B0
100
AcDbEntity
  8
0
100
AcDbSpline
210
0.0
220
0.0
230
1.0
 70
    12
 71
     2
 72
     6
 73
     3
 74
     0
 42
0.000000001
 43
0.0000000001
 40
0.0702093403744065
 40
0.0702093403744065
 40
0.0702093403744065
 40
0.0861228842709969
 40
0.0861228842709969
 40
0.0861228842709969
 10
0.3499999999999565
 20
1.090194936695037
 30
0.0
 41
2.618041548439594
 10
0.3481017032590472
 20
1.000168473756448
 30
0.0
 41
2.783055047751805
 10
0.3465178251405941
 20
0.9228098518076286
 30
0.0
 41
2.939746581964982
  0
ARC
  5
39A0E
330
399B0
100
AcDbEntity
  8
0
100
AcDbCircle
 10
0.0
 20
-0.0000000000000009
 30
0.0
 40
1.144999999999999
100
AcDbArc
 50
72.20111019620576
 51
107.7988898037943
  0
SPLINE
  5
39A0F
330
399B0
100
AcDbEntity
  8
0
100
AcDbSpline
210
0.0
220
0.0
230
1.0
 70
    12
 71
     2
 72
     6
 73
     3
 74
     0
 42
0.000000001
 43
0.0000000001
 40
0.1673233269616034
 40
0.1673233269616034
 40
0.1673233269616034
 40
0.2781779130683799
 40
0.2781779130683799
 40
0.2781779130683799
 10
-0.9228098518076293
 20
0.3465178251405932
 30
0.0
 41
2.597457800819937
 10
-0.6765440037190672
 20
0.4358466618247208
 30
0.0
 41
2.973716383360886
 10
-0.5025626457609018
 20
0.502562645760726
 30
0.0
 41
3.147359878752209
  0
ARC
  5
39A10
330
399B0
100
AcDbEntity
  8
0
100
AcDbCircle
 10
0.0
 20
-0.0000000000000009
 30
0.0
 40
1.145
100
AcDbArc
 50
162.2011101962057
 51
197.7988898037942
  0
ARC
  5
39A11
330
399B0
100
AcDbEntity
  8
0
100
AcDbCircle
 10
0.0
 20
-0.0000000000000009
 30
0.0
 40
1.145
100
AcDbArc
 50
252.2011101962058
 51
287.7988898037943
  0
CIRCLE
  5
39A12
330
399B0
100
AcDbEntity
  8
0
100
AcDbCircle
 10
0.0
 20
-0.0000000000000003
 30
0.0
 40
3.5
  0
ENDBLK
  5
399B2
330
399B0
100
AcDbEntity
  8
0
100
AcDbBlockEnd
  0
BLOCK
  5
39A83
330
39A82
100
AcDbEntity
  8
0
100
AcDbBlockBegin
  2
TTF42X28PH2-ISO
 70
     0
 10
0.0
 20
0.0
 30
0.0
  3
TTF42X28PH2-ISO
  1

  0
LINE
  5
39A85
330
39A82
100
AcDbEntity
  8
0
100
AcDbLine
 10
2.100775303256312
 20
11.34689885454771
 30
0.0
 11
2.04328694620564
 21
11.38008977296619
 31
0.0
  0
LINE
  5
39A86
330
39A82
100
AcDbEntity
  8
0
100
AcDbLine
 10
2.04328694620564
 20
11.38008977296619
 30
0.0
 11
2.279627969636179
 21
11.41844372313865
 31
0.0
  0
LINE
  5
39A87
330
39A82
100
AcDbEntity
  8
0
100
AcDbLine
 10
2.279627969636179
 20
11.37556690148358
 30
0.0
 11
2.279627969636179
 21
11.41844372313865
 31
0.0
  0
LINE
  5
39A88
330
39A82
100
AcDbEntity
  8
0
100
AcDbLine
 10
2.279627969636179
 20
11.41844372313865
 30
0.0
 11
2.103330341347453
 21
11.52022920628863
 31
0.0
  0
LINE
  5
39A89
330
39A82
100
AcDbEntity
  8
0
100
AcDbLine
 10
2.103330341347453
 20
11.52022920628863
 30
0.0
 11
2.153153584124702
 21
11.54899466891798
 31
0.0
  0
LINE
  5
39A8A
330
39A82
100
AcDbEntity
  8
0
100
AcDbLine
 10
2.153153584124702
 20
11.49146374365928
 30
0.0
 11
2.153153584124702
 21
11.54899466891798
 31
0.0
  0
LINE
  5
39A8B
330
39A82
100
AcDbEntity
  8
0
100
AcDbLine
 10
2.153153584124702
 20
11.54899466891798
 30
0.0
 11
2.357556631415978
 21
11.43098251454118
 31
0.0
  0
LINE
  5
39A8C
330
39A82
100
AcDbEntity
  8
0
100
AcDbLine
 10
2.357556631415978
 20
11.37345158928248
 30
0.0
 11
2.357556631415978
 21
11.43098251454118
 31
0.0
  0
LINE
  5
39A8D
330
39A82
100
AcDbEntity
  8
0
100
AcDbLine
 10
2.357556631415978
 20
11.43098251454118
 30
0.0
 11
2.584316262004738
 21
11.4674925248015
 31
0.0
  0
LINE
  5
39A8E
330
39A82
100
AcDbEntity
  8
0
100
AcDbLine
 10
2.584316262004738
 20
11.42433074943036
 30
0.0
 11
2.584316262004738
 21
11.4674925248015
 31
0.0
  0
LINE
  5
39A8F
330
39A82
100
AcDbEntity
  8
0
100
AcDbLine
 10
2.584316262004738
 20
11.4674925248015
 30
0.0
 11
2.298151995796951
 21
11.63270954092902
 31
0.0
  0
LINE
  5
39A90
330
39A82
100
AcDbEntity
  8
0
100
AcDbLine
 10
2.298151995796951
 20
11.63270954092902
 30
0.0
 11
2.347975238574199
 21
11.66147500355837
 31
0.0
  0
LINE
  5
39A91
330
39A82
100
AcDbEntity
  8
0
100
AcDbLine
 10
2.347975238574199
 20
11.60394407829967
 30
0.0
 11
2.347975238574199
 21
11.66147500355837
 31
0.0
  0
LINE
  5
39A92
330
39A82
100
AcDbEntity
  8
0
100
AcDbLine
 10
2.347975238574199
 20
11.66147500355837
 30
0.0
 11
2.662244923784537
 21
11.48003131620404
 31
0.0
  0
LINE
  5
39A93
330
39A82
100
AcDbEntity
  8
0
100
AcDbLine
 10
2.662244923784537
 20
11.42250039094534
 30
0.0
 11
2.662244923784537
 21
11.48003131620404
 31
0.0
  0
LINE
  5
39A94
330
39A82
100
AcDbEntity
  8
0
100
AcDbLine
 10
2.662244923784537
 20
11.48003131620404
 30
0.0
 11
2.899863466260646
 21
11.5183852663765
 31
0.0
  0
LINE
  5
39A95
330
39A82
100
AcDbEntity
  8
0
100
AcDbLine
 10
2.899863466260646
 20
11.47544327646566
 30
0.0
 11
2.899863466260646
 21
11.5183852663765
 31
0.0
  0
LINE
  5
39A96
330
39A82
100
AcDbEntity
  8
0
100
AcDbLine
 10
2.899863466260646
 20
11.5183852663765
 30
0.0
 11
2.957990582834102
 21
11.48482555997559
 31
0.0
  0
LINE
  5
39A97
330
39A82
100
AcDbEntity
  8
0
100
AcDbLine
 10
2.957990582834102
 20
11.48482555997559
 30
0.0
 11
2.720372040357994
 21
11.44647160980314
 31
0.0
  0
LINE
  5
39A98
330
39A82
100
AcDbEntity
  8
0
100
AcDbLine
 10
2.720372040357994
 20
11.38894068454444
 30
0.0
 11
2.720372040357994
 21
11.44647160980314
 31
0.0
  0
LINE
  5
39A99
330
39A82
100
AcDbEntity
  8
0
100
AcDbLine
 10
2.720372040357994
 20
11.44647160980314
 30
0.0
 11
2.895392149601149
 21
11.345423702618
 31
0.0
  0
LINE
  5
39A9A
330
39A82
100
AcDbEntity
  8
0
100
AcDbLine
 10
2.895392149601149
 20
11.345423702618
 30
0.0
 11
2.845568906823901
 21
11.31665823998866
 31
0.0
  0
LINE
  5
39A9B
330
39A82
100
AcDbEntity
  8
0
100
AcDbLine
 10
2.845568906823901
 20
11.31665823998866
 30
0.0
 11
2.642443378578194
 21
11.4339328184006
 31
0.0
  0
LINE
  5
39A9C
330
39A82
100
AcDbEntity
  8
0
100
AcDbLine
 10
2.642443378578194
 20
11.4339328184006
 30
0.0
 11
2.416961267035005
 21
11.39668523217542
 31
0.0
  0
LINE
  5
39A9D
330
39A82
100
AcDbEntity
  8
0
100
AcDbLine
 10
2.416961267035005
 20
11.33915430691673
 30
0.0
 11
2.416961267035005
 21
11.39668523217542
 31
0.0
  0
LINE
  5
39A9E
330
39A82
100
AcDbEntity
  8
0
100
AcDbLine
 10
2.416961267035005
 20
11.39668523217542
 30
0.0
 11
2.700570495151652
 21
11.23294336797762
 31
0.0
  0
LINE
  5
39A9F
330
39A82
100
AcDbEntity
  8
0
100
AcDbLine
 10
2.700570495151652
 20
11.23294336797762
 30
0.0
 11
2.650747252374403
 21
11.20417790534827
 31
0.0
  0
LINE
  5
39AA0
330
39A82
100
AcDbEntity
  8
0
100
AcDbLine
 10
2.650747252374403
 20
11.20417790534827
 30
0.0
 11
2.337755086209635
 21
11.38488401673774
 31
0.0
  0
LINE
  5
39AA1
330
39A82
100
AcDbEntity
  8
0
100
AcDbLine
 10
2.337755086209635
 20
11.38488401673774
 30
0.0
 11
2.100775303256312
 21
11.34689885454771
 31
0.0
  0
SPLINE
  5
39AA2
330
39A82
100
AcDbEntity
  8
0
100
AcDbSpline
210
0.0
220
0.0
230
1.0
 70
     8
 71
     2
 72
     8
 73
     5
 74
     0
 42
0.000000001
 43
0.0000000001
 40
0.0
 40
0.0
 40
0.0
 40
1.0
 40
2.0
 40
3.0
 40
3.0
 40
3.0
 10
0.3597513687926147
 20
12.82128152155181
 30
0.0
 10
0.3974781031071175
 20
12.86173295337432
 30
0.0
 10
0.4125687968329192
 20
12.92458825512931
 30
0.0
 10
0.3619071821820151
 20
12.99677850268949
 30
0.0
 10
0.3085508007943605
 20
13.02758382384664
 30
0.0
  0
LINE
  5
39AA3
330
39A82
100
AcDbEntity
  8
0
100
AcDbLine
 10
0.4670030849152738
 20
12.78611989235223
 30
0.0
 11
0.3597513687926147
 21
12.82128152155181
 31
0.0
  0
SPLINE
  5
39AA4
330
39A82
100
AcDbEntity
  8
0
100
AcDbSpline
210
0.0
220
0.0
230
1.0
 70
     8
 71
     2
 72
     8
 73
     5
 74
     0
 42
0.000000001
 43
0.0000000001
 40
0.0
 40
0.0
 40
0.0
 40
1.0
 40
2.0
 40
3.0
 40
3.0
 40
3.0
 10
0.3883158962021672
 20
13.07425855287261
 30
0.0
 10
0.4648472715258737
 20
13.03007314272802
 30
0.0
 10
0.5392228334601801
 20
12.92987805775225
 30
0.0
 10
0.5203594663029283
 20
12.83808442400116
 30
0.0
 10
0.4670030849152738
 20
12.78611989235223
 30
0.0
  0
LINE
  5
39AA5
330
39A82
100
AcDbEntity
  8
0
100
AcDbLine
 10
0.3883158962021671
 20
12.95912777564719
 30
0.0
 11
0.3883158962021674
 21
13.07425855287261
 31
0.0
  0
SPLINE
  5
39AA6
330
39A82
100
AcDbEntity
  8
0
100
AcDbSpline
210
0.0
220
0.0
230
1.0
 70
     8
 71
     3
 72
    10
 73
     6
 74
     0
 42
0.000000001
 43
0.0000000001
 40
-0.0395835743777473
 40
-0.0395835743777473
 40
-0.0395835743777473
 40
-0.0395835743777473
 40
-0.0326535033811374
 40
-0.0326535033811374
 40
-0.0322622945392359
 40
-0.0322622945392359
 40
-0.0322622945392359
 40
-0.0322622945392359
 10
0.406755159444468
 20
12.85577912732781
 30
0.0
 10
0.433023022179328
 20
12.83930694337831
 30
0.0
 10
0.4565693204541645
 20
12.82145701478496
 30
0.0
 10
0.4772884113208117
 20
12.80102002296349
 30
0.0
 10
0.4783846678330993
 20
12.79992156403411
 30
0.0
 10
0.4794695082213463
 20
12.7988169600167
 30
0.0
  0
SPLINE
  5
39AA7
330
39A82
100
AcDbEntity
  8
0
100
AcDbSpline
210
0.0
220
0.0
230
1.0
 70
     8
 71
     2
 72
     8
 73
     5
 74
     0
 42
0.000000001
 43
0.0000000001
 40
0.0
 40
0.0
 40
0.0
 40
1.0
 40
2.0
 40
3.0
 40
3.0
 40
3.0
 10
-0.3349594959415941
 20
13.06554593678777
 30
0.0
 10
-0.2314804532503856
 20
13.12528958994102
 30
0.0
 10
0.0336845936458369
 20
13.17880994589081
 30
0.0
 10
0.2826810401215579
 20
13.13524686546656
 30
0.0
 10
0.3883158962021672
 20
13.07425855287261
 30
0.0
  0
LINE
  5
39AA8
330
39A82
100
AcDbEntity
  8
0
100
AcDbLine
 10
-0.3349594959415938
 20
12.93502909322952
 30
0.0
 11
-0.3349594959415938
 21
13.06554593678777
 31
0.0
  0
SPLINE
  5
39AA9
330
39A82
100
AcDbEntity
  8
0
100
AcDbSpline
210
0.0
220
0.0
230
1.0
 70
     8
 71
     2
 72
     8
 73
     5
 74
     0
 42
0.000000001
 43
0.0000000001
 40
0.0
 40
0.0
 40
0.0
 40
1.0
 40
2.0
 40
3.0
 40
3.0
 40
3.0
 10
-0.3360374026362939
 20
12.64796269443533
 30
0.0
 10
-0.4400553986748526
 20
12.70801751244876
 30
0.0
 10
-0.5208984007773597
 20
12.85799897505224
 30
0.0
 10
-0.4389774919801531
 20
13.00549111877434
 30
0.0
 10
-0.3349594959415941
 20
13.06554593678777
 30
0.0
  0
SPLINE
  5
39AAA
330
39A82
100
AcDbEntity
  8
0
100
AcDbSpline
210
0.0
220
0.0
230
1.0
 70
     8
 71
     3
 72
     8
 73
     4
 74
     0
 42
0.000000001
 43
0.0000000001
 40
-0.0225383157721397
 40
-0.0225383157721397
 40
-0.0225383157721397
 40
-0.0225383157721397
 40
-0.0057573763193878
 40
-0.0057573763193878
 40
-0.0057573763193878
 40
-0.0057573763193878
 10
-0.4612877137438355
 20
12.75296547452741
 30
0.0
 10
-0.4390694806009685
 20
12.78251177573652
 30
0.0
 10
-0.4093548345236979
 20
12.80937103651183
 30
0.0
 10
-0.3736970272752651
 20
12.83382461549823
 30
0.0
  0
SPLINE
  5
39AAB
330
39A82
100
AcDbEntity
  8
0
100
AcDbSpline
210
0.0
220
0.0
230
1.0
 70
     8
 71
     2
 72
     7
 73
     4
 74
     0
 42
0.000000001
 43
0.0000000001
 40
0.0
 40
0.0
 40
0.0
 40
1.0
 40
2.0
 40
2.0
 40
2.0
 10
0.06709970118154
 20
12.54278897169679
 30
0.0
 10
-0.0568595687089704
 20
12.5508792580613
 30
0.0
 10
-0.2589670739652375
 20
12.60346611943057
 30
0.0
 10
-0.3360374026362939
 20
12.64796269443533
 30
0.0
  0
LINE
  5
39AAC
330
39A82
100
AcDbEntity
  8
0
100
AcDbLine
 10
0.3290310279936621
 20
12.69401509374097
 30
0.0
 11
0.06709970118154
 21
12.54278897169679
 31
0.0
  0
LINE
  5
39AAD
330
39A82
100
AcDbEntity
  8
0
100
AcDbLine
 10
0.0299119202143869
 20
12.86671159113709
 30
0.0
 11
0.3290310279936621
 21
12.69401509374097
 31
0.0
  0
LINE
  5
39AAE
330
39A82
100
AcDbEntity
  8
0
100
AcDbLine
 10
0.0299119202143866
 20
12.77025048448339
 30
0.0
 11
0.0299119202143869
 21
12.86671159113709
 31
0.0
  0
LINE
  5
39AAF
330
39A82
100
AcDbEntity
  8
0
100
AcDbLine
 10
-0.0536258486248703
 20
12.81848103781024
 30
0.0
 11
0.0299119202143869
 21
12.86671159113709
 31
0.0
  0
LINE
  5
39AB0
330
39A82
100
AcDbEntity
  8
0
100
AcDbLine
 10
0.1538711901048974
 20
12.69868256664356
 30
0.0
 11
-0.0536258486248703
 21
12.81848103781024
 31
0.0
  0
LINE
  5
39AB1
330
39A82
100
AcDbEntity
  8
0
100
AcDbLine
 10
0.1538711901048974
 20
12.59288651418467
 30
0.0
 11
0.1538711901048974
 21
12.69868256664356
 31
0.0
  0
LINE
  5
39AB2
330
39A82
100
AcDbEntity
  8
0
100
AcDbLine
 10
0.0229055266988364
 20
12.62306950562148
 30
0.0
 11
0.1538711901048974
 21
12.69868256664356
 31
0.0
  0
LINE
  5
39AB3
330
39A82
100
AcDbEntity
  8
0
100
AcDbLine
 10
0.0229055266988364
 20
12.54632078804679
 30
0.0
 11
0.0229055266988364
 21
12.62306950562148
 31
0.0
  0
SPLINE
  5
39AB4
330
39A82
100
AcDbEntity
  8
0
100
AcDbSpline
210
0.0
220
0.0
230
1.0
 70
     8
 71
     2
 72
     7
 73
     4
 74
     0
 42
0.000000001
 43
0.0000000001
 40
0.0
 40
0.0
 40
0.0
 40
1.0
 40
2.0
 40
2.0
 40
2.0
 10
-0.2568112605758372
 20
12.69992722608426
 30
0.0
 10
-0.1959095323252823
 20
12.66476559688469
 30
0.0
 10
-0.0331456214255684
 20
12.62493649478252
 30
0.0
 10
0.0229055266988364
 20
12.62306950562148
 30
0.0
  0
LINE
  5
39AB5
330
39A82
100
AcDbEntity
  8
0
100
AcDbLine
 10
-0.2568112605758372
 20
12.60955597906928
 30
0.0
 11
-0.2568112605758372
 21
12.69992722608426
 31
0.0
  0
SPLINE
  5
39AB6
330
39A82
100
AcDbEntity
  8
0
100
AcDbSpline
210
0.0
220
0.0
230
1.0
 70
     8
 71
     2
 72
     8
 73
     5
 74
     0
 42
0.000000001
 43
0.0000000001
 40
0.0
 40
0.0
 40
0.0
 40
1.0
 40
2.0
 40
3.0
 40
3.0
 40
3.0
 10
-0.2325583599450853
 20
13.01327024027867
 30
0.0
 10
-0.3268751957313434
 20
12.95881638974836
 30
0.0
 10
-0.3893937840239489
 20
12.84741936980636
 30
0.0
 10
-0.3263362423839932
 20
12.7400674930466
 30
0.0
 10
-0.2568112605758372
 20
12.69992722608426
 30
0.0
  0
SPLINE
  5
39AB7
330
39A82
100
AcDbEntity
  8
0
100
AcDbSpline
210
0.0
220
0.0
230
1.0
 70
     8
 71
     2
 72
     6
 73
     3
 74
     0
 42
0.000000001
 43
0.0000000001
 40
0.0
 40
0.0
 40
0.0
 40
1.0
 40
1.0
 40
1.0
 10
-0.0633270088771715
 20
13.07985952035573
 30
0.0
 10
-0.1560269846213794
 20
13.05745565042326
 30
0.0
 10
-0.2325583599450853
 20
13.01327024027867
 30
0.0
  0
SPLINE
  5
39AB8
330
39A82
100
AcDbEntity
  8
0
100
AcDbSpline
210
0.0
220
0.0
230
1.0
 70
     8
 71
     2
 72
     8
 73
     5
 74
     0
 42
0.000000001
 43
0.0000000001
 40
0.0
 40
0.0
 40
0.0
 40
1.0
 40
2.0
 40
3.0
 40
3.0
 40
3.0
 10
0.3085508007943605
 20
13.02758382384664
 30
0.0
 10
0.2444153524597051
 20
13.06461244220725
 30
0.0
 10
0.1118328290115933
 20
13.09635125794491
 30
0.0
 10
-0.0094316741421665
 20
13.09230611476266
 30
0.0
 10
-0.0633270088771715
 20
13.07985952035573
 30
0.0
  0
LINE
  5
39AB9
330
39A82
100
AcDbEntity
  8
0
100
AcDbLine
 10
0.4067551689221597
 20
12.8058716964145
 30
0.0
 11
0.4067551689221597
 21
12.90783226573735
 31
0.0
  0
LINE
  5
39ABA
330
39A82
100
AcDbEntity
  8
0
100
AcDbLine
 10
-0.3736970569204402
 20
12.67161626949461
 30
0.0
 11
-0.3736970569204402
 21
12.84815973113468
 31
0.0
  0
LINE
  5
39ABB
330
39A82
100
AcDbEntity
  8
0
100
AcDbLine
 10
-0.4074999999999998
 20
12.11393944492529
 30
0.0
 11
-0.4074999999999999
 21
10.75171344485747
 31
0.0
  0
LINE
  5
39ABC
330
39A82
100
AcDbEntity
  8
0
100
AcDbLine
 10
-1.315499104906005
 20
12.62018587794612
 30
0.0
 11
-0.4074999999999999
 21
12.11393944492529
 31
0.0
  0
LINE
  5
39ABD
330
39A82
100
AcDbEntity
  8
0
100
AcDbLine
 10
-1.315499104906005
 20
12.62018587794612
 30
0.0
 11
-0.7209775696639243
 21
10.57693694935549
 31
0.0
  0
LINE
  5
39ABE
330
39A82
100
AcDbEntity
  8
0
100
AcDbLine
 10
0.0
 20
12.01495198490713
 30
0.0
 11
0.0
 21
10.85070090487562
 31
0.0
  0
LINE
  5
39ABF
330
39A82
100
AcDbEntity
  8
0
100
AcDbLine
 10
0.4075000000000001
 20
12.11393944492529
 30
0.0
 11
0.4075000000000001
 21
10.75171344485747
 31
0.0
  0
LINE
  5
39AC0
330
39A82
100
AcDbEntity
  8
0
100
AcDbLine
 10
0.0
 20
12.01495198490713
 30
0.0
 11
0.4075000000000001
 21
12.11393944492529
 31
0.0
  0
LINE
  5
39AC1
330
39A82
100
AcDbEntity
  8
0
100
AcDbLine
 10
1.315499104906004
 20
12.62018587794612
 30
0.0
 11
0.7209775696639237
 21
10.57693694935549
 31
0.0
  0
LINE
  5
39AC2
330
39A82
100
AcDbEntity
  8
0
100
AcDbLine
 10
0.4075000000000001
 20
12.11393944492529
 30
0.0
 11
1.315499104906004
 21
12.62018587794612
 31
0.0
  0
LINE
  5
39AC3
330
39A82
100
AcDbEntity
  8
0
100
AcDbLine
 10
1.008271011690758
 20
11.43282644489138
 30
0.0
 11
0.8862353528608871
 21
10.48479901351353
 31
0.0
  0
LINE
  5
39AC4
330
39A82
100
AcDbEntity
  8
0
100
AcDbLine
 10
1.179722321754394
 20
11.1975562101966
 30
0.0
 11
1.07446295147684
 21
10.37985447129917
 31
0.0
  0
LINE
  5
39AC5
330
39A82
100
AcDbEntity
  8
0
100
AcDbLine
 10
1.008271011690758
 20
11.43282644489138
 30
0.0
 11
1.179722321754394
 21
11.1975562101966
 31
0.0
  0
LINE
  5
39AC6
330
39A82
100
AcDbEntity
  8
0
100
AcDbLine
 10
1.179722321754394
 20
11.66809667958615
 30
0.0
 11
1.008271011690758
 21
11.43282644489138
 31
0.0
  0
LINE
  5
39AC7
330
39A82
100
AcDbEntity
  8
0
100
AcDbLine
 10
1.179722321754394
 20
11.1975562101966
 30
0.0
 11
2.056566864896995
 21
10.67332268255518
 31
0.0
  0
LINE
  5
39AC8
330
39A82
100
AcDbEntity
  8
0
100
AcDbLine
 10
-1.179722321754393
 20
11.1975562101966
 30
0.0
 11
-1.074462951476839
 21
10.37985447129917
 31
0.0
  0
LINE
  5
39AC9
330
39A82
100
AcDbEntity
  8
0
100
AcDbLine
 10
-2.056566864896992
 20
10.67332268255518
 30
0.0
 11
-1.179722321754393
 21
11.1975562101966
 31
0.0
  0
LINE
  5
39ACA
330
39A82
100
AcDbEntity
  8
0
100
AcDbLine
 10
-1.008271011690757
 20
11.43282644489138
 30
0.0
 11
-0.8862353528608863
 21
10.48479901351353
 31
0.0
  0
LINE
  5
39ACB
330
39A82
100
AcDbEntity
  8
0
100
AcDbLine
 10
-1.008271011690757
 20
11.43282644489138
 30
0.0
 11
-1.179722321754393
 21
11.66809667958615
 31
0.0
  0
LINE
  5
39ACC
330
39A82
100
AcDbEntity
  8
0
100
AcDbLine
 10
-1.179722321754393
 20
11.1975562101966
 30
0.0
 11
-1.008271011690757
 21
11.43282644489138
 31
0.0
  0
LINE
  5
39ACD
330
39A82
100
AcDbEntity
  8
0
100
AcDbLine
 10
-1.179722321754393
 20
11.66809667958615
 30
0.0
 11
-2.056566864896994
 21
12.19233020722757
 31
0.0
  0
LINE
  5
39ACE
330
39A82
100
AcDbEntity
  8
0
100
AcDbLine
 10
0.0
 20
10.85070090487562
 30
0.0
 11
-0.4074999999999991
 21
10.75171344485747
 31
0.0
  0
LINE
  5
39ACF
330
39A82
100
AcDbEntity
  8
0
100
AcDbLine
 10
-0.4074999999999991
 20
10.75171344485747
 30
0.0
 11
-1.315499104906003
 21
10.24546701183663
 31
0.0
  0
LINE
  5
39AD0
330
39A82
100
AcDbEntity
  8
0
100
AcDbLine
 10
0.4075000000000008
 20
10.75171344485747
 30
0.0
 11
0.0
 21
10.85070090487562
 31
0.0
  0
LINE
  5
39AD1
330
39A82
100
AcDbEntity
  8
0
100
AcDbLine
 10
1.315499104906006
 20
10.24546701183663
 30
0.0
 11
0.4075000000000009
 21
10.75171344485747
 31
0.0
  0
SPLINE
  5
39AD2
330
39A82
100
AcDbEntity
  8
0
100
AcDbSpline
210
0.0
220
0.0
230
1.0
 70
     8
 71
     3
 72
     8
 73
     4
 74
     0
 42
0.000000001
 43
0.0000000001
 40
0.0
 40
0.0
 40
0.0
 40
0.0
 40
1.0
 40
1.0
 40
1.0
 40
1.0
 10
1.315499104906005
 20
12.62018587794612
 30
0.0
 10
1.612094093675127
 20
12.51065138446322
 30
0.0
 10
1.866847557003287
 20
12.36356940383372
 30
0.0
 10
2.056566864896994
 20
12.19233020722757
 30
0.0
  0
LINE
  5
39AD3
330
39A82
100
AcDbEntity
  8
0
100
AcDbLine
 10
2.056566864896993
 20
12.19233020722757
 30
0.0
 11
1.179722321754394
 21
11.66809667958615
 31
0.0
  0
SPLINE
  5
39AD4
330
39A82
100
AcDbEntity
  8
0
100
AcDbSpline
210
0.0
220
0.0
230
1.0
 70
     8
 71
     3
 72
     8
 73
     4
 74
     0
 42
0.000000001
 43
0.0000000001
 40
0.0
 40
0.0
 40
0.0
 40
0.0
 40
1.0
 40
1.0
 40
1.0
 40
1.0
 10
2.056566864896995
 20
10.67332268255518
 30
0.0
 10
1.866847557003288
 20
10.50208348594904
 30
0.0
 10
1.612094093675128
 20
10.35500150531953
 30
0.0
 10
1.315499104906006
 20
10.24546701183663
 30
0.0
  0
SPLINE
  5
39AD5
330
39A82
100
AcDbEntity
  8
0
100
AcDbSpline
210
0.0
220
0.0
230
1.0
 70
     8
 71
     3
 72
     8
 73
     4
 74
     0
 42
0.000000001
 43
0.0000000001
 40
0.0
 40
0.0
 40
0.0
 40
0.0
 40
1.0
 40
1.0
 40
1.0
 40
1.0
 10
-1.315499104906003
 20
10.24546701183663
 30
0.0
 10
-1.612094093675125
 20
10.35500150531953
 30
0.0
 10
-1.866847557003286
 20
10.50208348594904
 30
0.0
 10
-2.056566864896992
 20
10.67332268255518
 30
0.0
  0
SPLINE
  5
39AD6
330
39A82
100
AcDbEntity
  8
0
100
AcDbSpline
210
0.0
220
0.0
230
1.0
 70
     8
 71
     3
 72
     8
 73
     4
 74
     0
 42
0.000000001
 43
0.0000000001
 40
0.0
 40
0.0
 40
0.0
 40
0.0
 40
1.0
 40
1.0
 40
1.0
 40
1.0
 10
-2.056566864896994
 20
12.19233020722757
 30
0.0
 10
-1.866847557003288
 20
12.36356940383372
 30
0.0
 10
-1.612094093675127
 20
12.51065138446322
 30
0.0
 10
-1.315499104906005
 20
12.62018587794612
 30
0.0
  0
LINE
  5
39AD7
330
39A82
100
AcDbEntity
  8
0
100
AcDbLine
 10
-0.4074999999999998
 20
12.11393944492529
 30
0.0
 11
0.0
 21
12.01495198490713
 31
0.0
  0
LINE
  5
39AD8
330
39A82
100
AcDbEntity
  8
0
100
AcDbLine
 10
-2.833034340172649
 20
8.878355648729399
 30
0.0
 11
-1.37569644745213
 21
6.805074287950789
 31
0.0
  0
LINE
  5
39AD9
330
39A82
100
AcDbEntity
  8
0
100
AcDbLine
 10
-2.833034340172649
 20
8.878355648729399
 30
0.0
 11
-2.833034340172648
 21
9.756348476922859
 31
0.0
  0
ELLIPSE
  5
39ADA
330
39A82
100
AcDbEntity
  8
0
100
AcDbEllipse
 10
-0.0000000000000004
 20
5.176684447101179
 30
0.0
 11
-3.417721541071284
 21
-3.736585335104496
 31
0.0
210
0.0
220
0.0
230
1.0
 40
0.2019062243651983
 41
3.551934544938802
 42
3.867528336503544
  0
LINE
  5
39ADB
330
39A82
100
AcDbEntity
  8
0
100
AcDbLine
 10
2.055216880867449
 20
8.42928252921915
 30
0.0
 11
0.5978789881469283
 21
6.35600116844054
 31
0.0
  0
ELLIPSE
  5
39ADC
330
39A82
100
AcDbEntity
  8
0
100
AcDbEllipse
 10
-0.0000000000000004
 20
5.176684447101179
 30
0.0
 11
1.464737803316267
 21
1.601393715044786
 31
0.0
210
0.0
220
0.0
230
0.9999999999999998
 40
0.2019062243651983
 41
0.1927151791496753
 42
0.9435623951133175
  0
LINE
  5
39ADD
330
39A82
100
AcDbEntity
  8
0
100
AcDbLine
 10
2.833034340172651
 20
8.878355648729401
 30
0.0
 11
1.37569644745213
 21
6.805074287950791
 31
0.0
  0
LINE
  5
39ADE
330
39A82
100
AcDbEntity
  8
0
100
AcDbLine
 10
2.833034340172651
 20
9.756348476922859
 30
0.0
 11
2.833034340172651
 21
8.878355648729401
 31
0.0
  0
ELLIPSE
  5
39ADF
330
39A82
100
AcDbEntity
  8
0
100
AcDbEllipse
 10
-0.0000000000000004
 20
5.176684447101179
 30
0.0
 11
3.41772154107136
 21
-3.736585335104424
 31
0.0
210
0.0
220
0.0
230
1.0
 40
0.201906224365199
 41
2.415656970672929
 42
2.73125076223696
  0
ELLIPSE
  5
39AE0
330
39A82
100
AcDbEntity
  8
0
100
AcDbEllipse
 10
-0.0000000000000004
 20
5.176684447101179
 30
0.0
 11
1.4647378033163
 21
-1.601393715044756
 31
0.0
210
0.0
220
0.0
230
1.0
 40
0.2019062243651991
 41
2.198030258473905
 42
2.948877474435986
  0
LINE
  5
39AE1
330
39A82
100
AcDbEntity
  8
0
100
AcDbLine
 10
-2.055216880867447
 20
8.429282529219152
 30
0.0
 11
-0.5978789881469277
 21
6.356001168440542
 31
0.0
  0
LINE
  5
39AE2
330
39A82
100
AcDbEntity
  8
0
100
AcDbLine
 10
-2.055216880867446
 20
9.30727535741261
 30
0.0
 11
-2.055216880867447
 21
8.429282529219152
 31
0.0
  0
LINE
  5
39AE3
330
39A82
100
AcDbEntity
  8
0
100
AcDbLine
 10
-0.5978789881469275
 20
7.320242657328853
 30
0.0
 11
-0.5978789881469277
 21
6.356001168440542
 31
0.0
  0
SPLINE
  5
39AE4
330
39A82
100
AcDbEntity
  8
0
100
AcDbSpline
210
0.0
220
0.0
230
1.0
 70
    12
 71
     2
 72
     6
 73
     3
 74
     0
 42
0.000000001
 43
0.0000000001
 40
0.0
 40
0.0
 40
0.0
 40
0.4030908193014336
 40
0.4030908193014336
 40
0.4030908193014336
 10
-2.055216880867446
 20
9.307275357412612
 30
0.0
 41
1.0
 10
-1.035080355963344
 20
7.881326998258621
 30
0.0
 41
1.097580911423696
 10
-0.5978789881469272
 20
7.320242657328853
 30
0.0
 41
1.0
  0
LINE
  5
39AE5
330
39A82
100
AcDbEntity
  8
0
100
AcDbLine
 10
2.055216880867449
 20
8.42928252921915
 30
0.0
 11
2.055216880867448
 21
9.30727535741261
 31
0.0
  0
SPLINE
  5
39AE6
330
39A82
100
AcDbEntity
  8
0
100
AcDbSpline
210
0.0
220
0.0
230
1.0
 70
    12
 71
     2
 72
     6
 73
     3
 74
     0
 42
0.000000001
 43
0.0000000001
 40
0.0
 40
0.0
 40
0.0
 40
0.4030908193014335
 40
0.4030908193014335
 40
0.4030908193014335
 10
0.5978789881469276
 20
7.320242657328853
 30
0.0
 41
1.0
 10
1.035080355963345
 20
7.88132699825862
 30
0.0
 41
1.097580911423693
 10
2.055216880867448
 20
9.30727535741261
 30
0.0
 41
1.0
  0
LINE
  5
39AE7
330
39A82
100
AcDbEntity
  8
0
100
AcDbLine
 10
0.5978789881469281
 20
6.35600116844054
 30
0.0
 11
0.597878988146928
 21
7.320242657328853
 31
0.0
  0
ELLIPSE
  5
39AE8
330
39A82
100
AcDbEntity
  8
0
100
AcDbEllipse
 10
0.0000000000000005
 20
10.94292849633474
 30
0.0
 11
-3.5
 21
0.0000000000000006
 31
0.0
210
0.0
220
0.0
230
1.0
 40
0.5773502691896255
 41
0.0000000000000003
 42
0.6276012676154342
  0
ELLIPSE
  5
39AE9
330
39A82
100
AcDbEntity
  8
0
100
AcDbEllipse
 10
0.0000000000000005
 20
10.94292849633474
 30
0.0
 11
3.5
 21
-0.0000000000000006
 31
0.0
210
0.0
220
0.0
230
1.0
 40
0.5773502691896257
 41
5.655584039564153
 42
6.283185307179585
  0
ELLIPSE
  5
39AEA
330
39A82
100
AcDbEntity
  8
0
100
AcDbEllipse
 10
0.0
 20
8.114501371588552
 30
0.0
 11
1.500000000000001
 21
0.0000000000000893
 31
0.0
210
0.0
220
0.0
230
1.0
 40
0.5773502691896257
 41
4.302414424968227
 42
5.122363535801046
  0
ELLIPSE
  5
39AEB
330
39A82
100
AcDbEntity
  8
0
100
AcDbEllipse
 10
0.0000000000000005
 20
10.94292849633474
 30
0.0
 11
3.5
 21
0.000000000000208
 31
0.0
210
0.0
220
0.0
230
1.0
 40
0.5773502691896257
 41
4.084787712769101
 42
5.339990247999967
  0
ELLIPSE
  5
39AEC
330
39A82
100
AcDbEntity
  8
0
100
AcDbEllipse
 10
0.0000000000000006
 20
11.43282644489138
 30
0.0
 11
-3.5
 21
-0.0000000000002086
 31
0.0
210
0.0
220
0.0
230
1.0
 40
0.5773502691896257
 41
0.0
 42
6.283185307179586
  0
ELLIPSE
  5
39AED
330
39A82
100
AcDbEntity
  8
0
100
AcDbEllipse
 10
-0.0000000000000003
 20
5.880649694582841
 30
0.0
 11
-1.500000000000002
 21
0.0000000000000001
 31
0.0
210
0.0
220
0.0
230
1.0
 40
0.5773502691896257
 41
0.0000000000000003
 42
3.141592653589793
  0
ELLIPSE
  5
39AEE
330
39A82
100
AcDbEntity
  8
0
100
AcDbEllipse
 10
-0.0000000000000024
 20
-7.467709079587852
 30
0.0
 11
1.299999999999999
 21
0.0000000000000778
 31
0.0
210
0.0
220
0.0
230
1.0
 40
0.5773502691896257
 41
3.702360890384813
 42
5.299995406546399
  0
ELLIPSE
  5
39AEF
330
39A82
100
AcDbEntity
  8
0
100
AcDbEllipse
 10
-0.0000000000000003
 20
5.717350378397294
 30
0.0
 11
1.3
 21
0.0000000000000774
 31
0.0
210
0.0
220
0.0
230
1.0
 40
0.5773502691896258
 41
3.926990816986993
 42
5.497787143781901
  0
LINE
  5
39AF0
330
39A82
100
AcDbEntity
  8
0
100
AcDbLine
 10
-2.833034340172648
 20
9.650612634269705
 30
0.0
 11
-3.19504825211347
 21
10.11797058495044
 31
0.0
  0
LINE
  5
39AF1
330
39A82
100
AcDbEntity
  8
0
100
AcDbLine
 10
2.83303434017265
 20
9.650612634269707
 30
0.0
 11
3.19504825211347
 21
10.11797058495044
 31
0.0
  0
LINE
  5
39AF2
330
39A82
100
AcDbEntity
  8
0
100
AcDbLine
 10
-3.5
 20
10.94292849633474
 30
0.0
 11
-3.5
 21
11.43282644489138
 31
0.0
  0
LINE
  5
39AF3
330
39A82
100
AcDbEntity
  8
0
100
AcDbLine
 10
3.500000000000001
 20
10.94292849633474
 30
0.0
 11
3.500000000000001
 21
11.43282644489138
 31
0.0
  0
LINE
  5
39AF4
330
39A82
100
AcDbEntity
  8
0
100
AcDbLine
 10
-1.500000000000002
 20
5.880649694582842
 30
0.0
 11
-1.500000000000002
 21
6.981914703521793
 31
0.0
  0
LINE
  5
39AF5
330
39A82
100
AcDbEntity
  8
0
100
AcDbLine
 10
1.500000000000002
 20
5.880649694582841
 30
0.0
 11
1.500000000000002
 21
6.981914703521794
 31
0.0
  0
LINE
  5
39AF6
330
39A82
100
AcDbEntity
  8
0
100
AcDbLine
 10
0.0
 20
-11.42907782108496
 30
0.0
 11
-0.5502859069633067
 21
-9.782615813565767
 31
0.0
  0
LINE
  5
39AF7
330
39A82
100
AcDbEntity
  8
0
100
AcDbLine
 10
-1.300000000000002
 20
-4.594147166768502
 30
0.0
 11
-1.300000000000001
 21
-3.289931961944709
 31
0.0
  0
LINE
  5
39AF8
330
39A82
100
AcDbEntity
  8
0
100
AcDbLine
 10
-1.300000000000001
 20
-2.291626808552316
 30
0.0
 11
-1.300000000000001
 21
-0.9874116037285229
 31
0.0
  0
LINE
  5
39AF9
330
39A82
100
AcDbEntity
  8
0
100
AcDbLine
 10
-1.300000000000001
 20
0.0108935496638729
 30
0.0
 11
-1.300000000000001
 21
1.315108754487668
 31
0.0
  0
LINE
  5
39AFA
330
39A82
100
AcDbEntity
  8
0
100
AcDbLine
 10
-1.300000000000001
 20
2.313413907880061
 30
0.0
 11
-1.3
 21
3.672538473608369
 31
0.0
  0
LINE
  5
39AFB
330
39A82
100
AcDbEntity
  8
0
100
AcDbLine
 10
-1.3
 20
4.615934266096247
 30
0.0
 11
-1.3
 21
5.44860031468898
 31
0.0
  0
LINE
  5
39AFC
330
39A82
100
AcDbEntity
  8
0
100
AcDbLine
 10
1.299999999999998
 20
-3.442886987660409
 30
0.0
 11
1.299999999999998
 21
-2.800689623595569
 31
0.0
  0
LINE
  5
39AFD
330
39A82
100
AcDbEntity
  8
0
100
AcDbLine
 10
1.299999999999998
 20
-1.14036662944422
 30
0.0
 11
1.299999999999998
 21
-0.4981692653793868
 31
0.0
  0
LINE
  5
39AFE
330
39A82
100
AcDbEntity
  8
0
100
AcDbLine
 10
1.299999999999999
 20
1.162153728771966
 30
0.0
 11
1.299999999999999
 21
1.804351092836806
 31
0.0
  0
LINE
  5
39AFF
330
39A82
100
AcDbEntity
  8
0
100
AcDbLine
 10
1.299999999999999
 20
3.464674086988154
 30
0.0
 11
1.299999999999999
 21
4.471280228528384
 31
0.0
  0
LINE
  5
39B00
330
39A82
100
AcDbEntity
  8
0
100
AcDbLine
 10
-0.6701974295673751
 20
-9.423839105434403
 30
0.0
 11
-1.196925491940652
 21
-7.847862450357845
 31
0.0
  0
LINE
  5
39B01
330
39A82
100
AcDbEntity
  8
0
100
AcDbLine
 10
-0.9192388155425186
 20
5.186627600794276
 30
0.0
 11
-1.060660171779829
 21
5.268277258887049
 31
0.0
  0
LINE
  5
39B02
330
39A82
100
AcDbEntity
  8
0
100
AcDbLine
 10
0.9192388155425177
 20
5.186627600794276
 30
0.0
 11
1.060660171779828
 21
5.268277258887049
 31
0.0
  0
LINE
  5
39B03
330
39A82
100
AcDbEntity
  8
0
100
AcDbLine
 10
-1.300000000000002
 20
-6.969357522010644
 30
0.0
 11
-1.300000000000002
 21
-5.592452320160898
 31
0.0
  0
SPLINE
  5
39B04
330
39A82
100
AcDbEntity
  8
0
100
AcDbSpline
210
0.0
220
0.0
230
1.0
 70
     8
 71
     3
 72
     8
 73
     4
 74
     0
 42
0.000000001
 43
0.0000000001
 40
2.984836160301665
 40
2.984836160301665
 40
2.984836160301665
 40
2.984836160301665
 40
3.250640535993362
 40
3.250640535993362
 40
3.250640535993362
 40
3.250640535993362
 10
0.22615014110536
 20
-9.657131997677275
 30
0.0
 10
0.0724167198630544
 20
-10.27571720870232
 30
0.0
 10
-0.0141243567727725
 20
-10.86244526439542
 30
0.0
 10
-0.0000000000000031
 20
-11.42907782108496
 30
0.0
  0
SPLINE
  5
39B05
330
39A82
100
AcDbEntity
  8
0
100
AcDbSpline
210
0.0
220
0.0
230
1.0
 70
     8
 71
     3
 72
    10
 73
     6
 74
     0
 42
0.000000001
 43
0.0000000001
 40
-0.1228461488041701
 40
-0.1228461488041701
 40
-0.1228461488041701
 40
-0.1228461488041701
 40
-0.0723495194363567
 40
-0.0723495194363567
 40
-0.0010488035310642
 40
-0.0010488035310642
 40
-0.0010488035310642
 40
-0.0010488035310642
 10
1.903200085155043
 20
-4.492381647304199
 30
0.0
 10
1.812163828324186
 20
-4.324648830552931
 30
0.0
 10
1.724320820851751
 20
-4.159978689787644
 30
0.0
 10
1.513510679858709
 20
-3.76040882545364
 30
0.0
 10
1.40708290406816
 20
-3.554352274953858
 30
0.0
 10
1.300000331340596
 20
-3.35642285710975
 30
0.0
  0
SPLINE
  5
39B06
330
39A82
100
AcDbEntity
  8
0
100
AcDbSpline
210
0.0
220
0.0
230
1.0
 70
     8
 71
     3
 72
     8
 73
     4
 74
     0
 42
0.000000001
 43
0.0000000001
 40
1.058575780461246
 40
1.058575780461246
 40
1.058575780461246
 40
1.058575780461246
 40
1.205356265577592
 40
1.205356265577592
 40
1.205356265577592
 40
1.205356265577592
 10
0.9159458794626827
 20
-6.596292154283527
 30
0.0
 10
0.9893586319533822
 20
-6.130403318355758
 30
0.0
 10
1.07069638212341
 20
-5.66181975029851
 30
0.0
 10
1.140600980619734
 20
-5.203242217371471
 30
0.0
  0
SPLINE
  5
39B07
330
39A82
100
AcDbEntity
  8
0
100
AcDbSpline
210
0.0
220
0.0
230
1.0
 70
     8
 71
     3
 72
    10
 73
     6
 74
     0
 42
0.000000001
 43
0.0000000001
 40
-0.0923671521826609
 40
-0.0923671521826609
 40
-0.0923671521826609
 40
-0.0923671521826609
 40
-0.0462125607461723
 40
-0.0462125607461723
 40
-0.0072513559333136
 40
-0.0072513559333136
 40
-0.0072513559333136
 40
-0.0072513559333136
 10
1.377373899816562
 20
-7.292157198392887
 30
0.0
 10
1.293125697137007
 20
-7.168296333928521
 30
0.0
 10
1.208321653076279
 20
-7.042250720619225
 30
0.0
 10
1.056291697516402
 20
-6.812874570559223
 30
0.0
 10
0.9847423263734372
 20
-6.703558857019
 30
0.0
 10
0.9159458794626827
 20
-6.596292154283527
 30
0.0
  0
SPLINE
  5
39B08
330
39A82
100
AcDbEntity
  8
0
100
AcDbSpline
210
0.0
220
0.0
230
1.0
 70
     8
 71
     3
 72
     8
 73
     4
 74
     0
 42
0.000000001
 43
0.0000000001
 40
0.8988633324172774
 40
0.8988633324172774
 40
0.8988633324172774
 40
0.8988633324172774
 40
0.948475257561874
 40
0.948475257561874
 40
0.948475257561874
 40
0.948475257561874
 10
0.7206816671491286
 20
-8.092373772212395
 30
0.0
 10
0.7347616403140356
 20
-7.941644704516487
 30
0.0
 10
0.7511412238751668
 20
-7.789100618345903
 30
0.0
 10
0.7694843212237266
 20
-7.635228704544694
 30
0.0
  0
SPLINE
  5
39B09
330
39A82
100
AcDbEntity
  8
0
100
AcDbSpline
210
0.0
220
0.0
230
1.0
 70
     8
 71
     3
 72
     8
 73
     4
 74
     0
 42
0.000000001
 43
0.0000000001
 40
2.76933811999444
 40
2.76933811999444
 40
2.76933811999444
 40
2.76933811999444
 40
2.91162507778743
 40
2.91162507778743
 40
2.91162507778743
 40
2.91162507778743
 10
0.7206816671491286
 20
-8.092373772212395
 30
0.0
 10
0.5883372367721842
 20
-8.449710134956681
 30
0.0
 10
0.4694187381770597
 20
-8.798683209216642
 30
0.0
 10
0.3680876596483065
 20
-9.138901466687617
 30
0.0
  0
SPLINE
  5
39B0A
330
39A82
100
AcDbEntity
  8
0
100
AcDbSpline
210
0.0
220
0.0
230
1.0
 70
     8
 71
     3
 72
    10
 73
     6
 74
     0
 42
0.000000001
 43
0.0000000001
 40
-0.0523365975099812
 40
-0.0523365975099812
 40
-0.0523365975099812
 40
-0.0523365975099812
 40
-0.0237099625069254
 40
-0.0237099625069254
 40
-0.023483368728621
 40
-0.023483368728621
 40
-0.023483368728621
 40
-0.023483368728621
 10
0.6793733544146514
 20
-9.463768475810924
 30
0.0
 10
0.5661363156481874
 20
-9.338976817146058
 30
0.0
 10
0.4624547521292898
 20
-9.229212670820825
 30
0.0
 10
0.3695435795978745
 20
-9.140292840940082
 30
0.0
 10
0.3688150536177497
 20
-9.139596278471023
 30
0.0
 10
0.3680876596483065
 20
-9.138901466687617
 30
0.0
  0
LINE
  5
39B0B
330
39A82
100
AcDbEntity
  8
0
100
AcDbLine
 10
0.1939196700028839
 20
-10.48144061246048
 30
0.0
 11
0.0
 21
-11.42907782108496
 31
0.0
  0
LINE
  5
39B0C
330
39A82
100
AcDbEntity
  8
0
100
AcDbLine
 10
0.6340774856046206
 20
-8.330498814868548
 30
0.0
 11
0.4517585699727531
 21
-9.221446021224377
 31
0.0
  0
LINE
  5
39B0D
330
39A82
100
AcDbEntity
  8
0
100
AcDbLine
 10
0.3730975583957612
 20
-9.605842825421884
 30
0.0
 11
0.2556726685822447
 21
-10.179669063436
 31
0.0
  0
LINE
  5
39B0E
330
39A82
100
AcDbEntity
  8
0
100
AcDbLine
 10
1.150156612923743
 20
-7.473193045866832
 30
0.0
 11
0.7299767893302566
 21
-7.995903862521088
 31
0.0
  0
LINE
  5
39B0F
330
39A82
100
AcDbEntity
  8
0
100
AcDbLine
 10
1.106974988476217
 20
-7.469336218733975
 30
0.0
 11
1.150156612923744
 21
-7.473193045866832
 31
0.0
  0
LINE
  5
39B10
330
39A82
100
AcDbEntity
  8
0
100
AcDbLine
 10
0.9192388155425092
 20
-6.575424062985959
 30
0.0
 11
0.9192388155425092
 21
-6.601424729242602
 31
0.0
  0
LINE
  5
39B11
330
39A82
100
AcDbEntity
  8
0
100
AcDbLine
 10
1.484924240491747
 20
-4.977394507758285
 30
0.0
 11
1.101354290307834
 21
-5.454562021872623
 31
0.0
  0
LINE
  5
39B12
330
39A82
100
AcDbEntity
  8
0
100
AcDbLine
 10
1.471423091694419
 20
-4.976188633785907
 30
0.0
 11
1.484924240491747
 21
-4.977394507758285
 31
0.0
  0
LINE
  5
39B13
330
39A82
100
AcDbEntity
  8
0
100
AcDbLine
 10
1.484924240491746
 20
-2.674874149542096
 30
0.0
 11
1.299999999999998
 21
-2.904923036564193
 31
0.0
  0
LINE
  5
39B14
330
39A82
100
AcDbEntity
  8
0
100
AcDbLine
 10
1.471423091694421
 20
-2.673668275569718
 30
0.0
 11
1.484924240491746
 21
-2.674874149542096
 31
0.0
  0
LINE
  5
39B15
330
39A82
100
AcDbEntity
  8
0
100
AcDbLine
 10
0.4243849982686226
 20
-10.19473784117434
 30
0.0
 11
0.1939196700028838
 21
-10.48144061246048
 31
0.0
  0
LINE
  5
39B16
330
39A82
100
AcDbEntity
  8
0
100
AcDbLine
 10
0.2556726685822447
 20
-10.179669063436
 30
0.0
 11
0.4243849982686224
 21
-10.19473784117433
 31
0.0
  0
SPLINE
  5
39B17
330
39A82
100
AcDbEntity
  8
0
100
AcDbSpline
210
0.0
220
0.0
230
1.0
 70
     8
 71
     3
 72
    11
 73
     7
 74
     0
 42
0.000000001
 43
0.0000000001
 40
1.109949794058655
 40
1.109949794058655
 40
1.109949794058655
 40
1.109949794058655
 40
1.354148664171867
 40
1.354148664171867
 40
1.354148664171867
 40
1.425971133544304
 40
1.425971133544304
 40
1.425971133544304
 40
1.425971133544304
 10
0.2926797804347921
 20
-9.989398047149371
 30
0.0
 10
0.3350731267205639
 20
-10.03935011401541
 30
0.0
 10
0.3715629983323424
 20
-10.09188943529446
 30
0.0
 10
0.4005161924201107
 20
-10.14634571933026
 30
0.0
 10
0.4090317514586881
 20
-10.16236211117714
 30
0.0
 10
0.4169902799199936
 20
-10.17850198652522
 30
0.0
 10
0.4243849982686243
 20
-10.19473784117434
 30
0.0
  0
SPLINE
  5
39B18
330
39A82
100
AcDbEntity
  8
0
100
AcDbSpline
210
0.0
220
0.0
230
1.0
 70
     8
 71
     3
 72
    11
 73
     7
 74
     0
 42
0.000000001
 43
0.0000000001
 40
3.646783246531814
 40
3.646783246531814
 40
3.646783246531814
 40
3.646783246531814
 40
4.895830254592985
 40
4.895830254592985
 40
4.895830254592985
 40
6.017661898430158
 40
6.017661898430158
 40
6.017661898430158
 40
6.017661898430158
 10
0.6793733544146475
 20
-9.463768475810924
 30
0.0
 10
0.1689017924196514
 20
-9.745898215657271
 30
0.0
 10
-0.4256800884229028
 20
-9.807386222931981
 30
0.0
 10
-0.735707038975529
 20
-9.753399783319308
 30
0.0
 10
-1.014157762869537
 20
-9.704911859402319
 30
0.0
 10
-1.051999039207562
 20
-9.583561999274381
 30
0.0
 10
-0.9075942605074217
 20
-9.531725346847117
 30
0.0
  0
SPLINE
  5
39B19
330
39A82
100
AcDbEntity
  8
0
100
AcDbSpline
210
0.0
220
0.0
230
1.0
 70
     8
 71
     3
 72
    12
 73
     8
 74
     0
 42
0.000000001
 43
0.0000000001
 40
0.5022834907018061
 40
0.5022834907018061
 40
0.5022834907018061
 40
0.5022834907018061
 40
0.512948036272989
 40
0.512948036272989
 40
0.5466482363350044
 40
0.5466482363350044
 40
0.5495066290710732
 40
0.5495066290710732
 40
0.5495066290710732
 40
0.5495066290710732
 10
-0.4303478522328629
 20
-9.772184630862474
 30
0.0
 10
-0.447914516715936
 20
-9.774309318839675
 30
0.0
 10
-0.4637936895797486
 20
-9.775901190860494
 30
0.0
 10
-0.5222092106883367
 20
-9.780874611950435
 30
0.0
 10
-0.546942598623395
 20
-9.780601880781009
 30
0.0
 10
-0.5502399835246765
 20
-9.782304558117143
 30
0.0
 10
-0.5503408049682345
 20
-9.782450790714653
 30
0.0
 10
-0.5502857553737498
 20
-9.782614236528422
 30
0.0
  0
SPLINE
  5
39B1A
330
39A82
100
AcDbEntity
  8
0
100
AcDbSpline
210
0.0
220
0.0
230
1.0
 70
     8
 71
     3
 72
    16
 73
    12
 74
     0
 42
0.000000001
 43
0.0000000001
 40
0.0880169750243461
 40
0.0880169750243461
 40
0.0880169750243461
 40
0.0880169750243461
 40
0.1122817172221566
 40
0.1122817172221566
 40
0.1522249242191272
 40
0.1522249242191272
 40
0.1935799361918808
 40
0.1935799361918808
 40
0.2364082228586686
 40
0.2364082228586686
 40
0.2555592649211766
 40
0.2555592649211766
 40
0.2555592649211766
 40
0.2555592649211766
 10
-0.6701992557314808
 20
-9.423820290892221
 30
0.0
 10
-0.6696640200956401
 20
-9.42541594963499
 30
0.0
 10
-0.6591882008428473
 20
-9.427946345653259
 30
0.0
 10
-0.6056541648059653
 20
-9.432429626022519
 30
0.0
 10
-0.5469501502724934
 20
-9.432847858925741
 30
0.0
 10
-0.3856790630822445
 20
-9.416174149417752
 30
0.0
 10
-0.2839906366541999
 20
-9.398693732559372
 30
0.0
 10
-0.0531158897362871
 20
-9.335797365455505
 30
0.0
 10
0.0737158478588884
 20
-9.29027583736117
 30
0.0
 10
0.2572795182657601
 20
-9.201884143739651
 30
0.0
 10
0.3133654374269223
 20
-9.171777983642678
 30
0.0
 10
0.3680876596551425
 20
-9.138901466683721
 30
0.0
  0
LINE
  5
39B1B
330
39A82
100
AcDbEntity
  8
0
100
AcDbLine
 10
-1.661731322081337
 20
-6.906650168664865
 30
0.0
 11
-1.300000000000003
 21
-6.831243446474656
 31
0.0
  0
SPLINE
  5
39B1C
330
39A82
100
AcDbEntity
  8
0
100
AcDbSpline
210
0.0
220
0.0
230
1.0
 70
     8
 71
     3
 72
     8
 73
     4
 74
     0
 42
0.000000001
 43
0.0000000001
 40
0.0
 40
0.0
 40
0.0
 40
0.0
 40
0.2778890520797899
 40
0.2778890520797899
 40
0.2778890520797899
 40
0.2778890520797899
 10
-1.661731322081337
 20
-6.906650168664865
 30
0.0
 10
-1.558653395387471
 20
-6.856136193031123
 30
0.0
 10
-1.435649345094521
 20
-6.816479557490609
 30
0.0
 10
-1.29912287670204
 20
-6.788452499822099
 30
0.0
  0
SPLINE
  5
39B1D
330
39A82
100
AcDbEntity
  8
0
100
AcDbSpline
210
0.0
220
0.0
230
1.0
 70
     8
 71
     3
 72
     8
 73
     4
 74
     0
 42
0.000000001
 43
0.0000000001
 40
1.81002759276192
 40
1.81002759276192
 40
1.81002759276192
 40
1.81002759276192
 40
1.827025514853635
 40
1.827025514853635
 40
1.827025514853635
 40
1.827025514853635
 10
1.132363889999326
 20
-7.454623759065985
 30
0.0
 10
1.138363074412606
 20
-7.460786448037808
 30
0.0
 10
1.144294332877492
 20
-7.466976392777027
 30
0.0
 10
1.150156612923741
 20
-7.47319304586683
 30
0.0
  0
SPLINE
  5
39B1E
330
39A82
100
AcDbEntity
  8
0
100
AcDbSpline
210
0.0
220
0.0
230
1.0
 70
     8
 71
     3
 72
     8
 73
     4
 74
     0
 42
0.000000001
 43
0.0000000001
 40
0.0003882186469264
 40
0.0003882186469264
 40
0.0003882186469264
 40
0.0003882186469264
 40
0.0101224935473297
 40
0.0101224935473297
 40
0.0101224935473297
 40
0.0101224935473297
 10
-0.5501486818434209
 20
-9.783026392763794
 30
0.0
 10
-0.5626557969548524
 20
-9.778003512808133
 30
0.0
 10
-0.5739889929676052
 20
-9.773796239041796
 30
0.0
 10
-0.5840130849761374
 20
-9.770298175382505
 30
0.0
  0
SPLINE
  5
39B1F
330
39A82
100
AcDbEntity
  8
0
100
AcDbSpline
210
0.0
220
0.0
230
1.0
 70
     8
 71
     3
 72
    10
 73
     6
 74
     0
 42
0.000000001
 43
0.0000000001
 40
0.0
 40
0.0
 40
0.0
 40
0.0
 40
0.0498489930615721
 40
0.0498489930615721
 40
0.0565388190391639
 40
0.0565388190391639
 40
0.0565388190391639
 40
0.0565388190391639
 10
-0.9094518713894084
 20
-9.531194209146541
 30
0.0
 10
-0.8629320806636847
 20
-9.515729508548631
 30
0.0
 10
-0.7919490093969511
 20
-9.488457092482633
 30
0.0
 10
-0.6942530695023063
 20
-9.436758744617891
 30
0.0
 10
-0.6824088218895382
 20
-9.430302549872752
 30
0.0
 10
-0.6703132738598482
 20
-9.42349249792741
 30
0.0
  0
SPLINE
  5
39B20
330
39A82
100
AcDbEntity
  8
0
100
AcDbSpline
210
0.0
220
0.0
230
1.0
 70
     8
 71
     3
 72
    14
 73
    10
 74
     0
 42
0.000000001
 43
0.0000000001
 40
1.613472377413754
 40
1.613472377413754
 40
1.613472377413754
 40
1.613472377413754
 40
2.744010077150496
 40
2.744010077150496
 40
2.744010077150496
 40
3.888303843102704
 40
3.888303843102704
 40
3.888303843102704
 40
4.456159792325948
 40
4.456159792325948
 40
4.456159792325948
 40
4.456159792325948
 10
1.377373899816564
 20
-7.292157198392887
 30
0.0
 10
0.8020018096643832
 20
-7.723640077518125
 30
0.0
 10
-0.0639824413085743
 20
-7.938818202016988
 30
0.0
 10
-0.753404447546515
 20
-7.905087607936945
 30
0.0
 10
-1.451215147739921
 20
-7.870946589431637
 30
0.0
 10
-1.932101162691058
 20
-7.592171400818068
 30
0.0
 10
-1.945863250656548
 20
-7.303098380943316
 30
0.0
 10
-1.95269268882834
 20
-7.159645852423062
 30
0.0
 10
-1.852091466168044
 20
-7.016719412354079
 30
0.0
 10
-1.661731322081337
 20
-6.906650168664865
 30
0.0
  0
SPLINE
  5
39B21
330
39A82
100
AcDbEntity
  8
0
100
AcDbSpline
210
0.0
220
0.0
230
1.0
 70
     8
 71
     3
 72
    18
 73
    14
 74
     0
 42
0.000000001
 43
0.0000000001
 40
0.0734191170840786
 40
0.0734191170840786
 40
0.0734191170840786
 40
0.0734191170840786
 40
0.1149748899224076
 40
0.1149748899224076
 40
0.1724623348836115
 40
0.1724623348836115
 40
0.2299497798448153
 40
0.2299497798448153
 40
0.2874372248060191
 40
0.2874372248060191
 40
0.3449246697672229
 40
0.3449246697672229
 40
0.3999375881853032
 40
0.3999375881853032
 40
0.3999375881853032
 40
0.3999375881853032
 10
-1.29999958524511
 20
-6.969356930681227
 30
0.0
 10
-1.299998939015039
 20
-7.0058211426766
 30
0.0
 10
-1.280599005860004
 20
-7.042164157270429
 30
0.0
 10
-1.189085539827165
 20
-7.121477950661294
 30
0.0
 10
-1.100764619212784
 20
-7.160631058504957
 30
0.0
 10
-0.8649501913476425
 20
-7.211205510626827
 30
0.0
 10
-0.720010665867952
 20
-7.22205938304145
 30
0.0
 10
-0.394504775226015
 20
-7.204534266159967
 30
0.0
 10
-0.2174637927920503
 20
-7.176325355537058
 30
0.0
 10
0.1426728307093636
 20
-7.075617859247468
 30
0.0
 10
0.3218680218346941
 20
-7.004190256760153
 30
0.0
 10
0.6485315111706416
 20
-6.823267750938528
 30
0.0
 10
0.7937221693769028
 20
-6.717359157102686
 30
0.0
 10
0.9159458777778915
 20
-6.596292149836098
 30
0.0
  0
SPLINE
  5
39B22
330
39A82
100
AcDbEntity
  8
0
100
AcDbSpline
210
0.0
220
0.0
230
1.0
 70
     8
 71
     3
 72
    17
 73
    13
 74
     0
 42
0.000000001
 43
0.0000000001
 40
2.356194490192344
 40
2.356194490192344
 40
2.356194490192344
 40
2.356194490192344
 40
2.543770828948106
 40
2.543770828948106
 40
2.543770828948106
 40
3.807463682881553
 40
3.807463682881553
 40
3.807463682881553
 40
5.077970615890381
 40
5.077970615890381
 40
5.077970615890381
 40
5.497787143782137
 40
5.497787143782137
 40
5.497787143782137
 40
5.497787143782137
 10
-1.297925555578097
 20
-4.594601371679423
 30
0.0
 10
-1.299063388524874
 20
-4.618350903589134
 30
0.0
 10
-1.292354334933479
 20
-4.642177979482995
 30
0.0
 10
-1.277196804575629
 20
-4.665370694719737
 30
0.0
 10
-1.17508124499306
 20
-4.821618911858392
 30
0.0
 10
-0.6987087288209589
 20
-4.924182728037315
 30
0.0
 10
-0.1550155471526858
 20
-4.807518928656495
 30
0.0
 10
0.3916093345098557
 20
-4.690226055247332
 30
0.0
 10
0.9627113523443485
 20
-4.348108528465433
 30
0.0
 10
1.18711285889776
 20
-3.902652948084142
 30
0.0
 10
1.261262364805476
 20
-3.755460036162912
 30
0.0
 10
1.299752569843638
 20
-3.599180119697533
 30
0.0
 10
1.299931490951682
 20
-3.442881664644219
 30
0.0
  0
SPLINE
  5
39B23
330
39A82
100
AcDbEntity
  8
0
100
AcDbSpline
210
0.0
220
0.0
230
1.0
 70
     8
 71
     3
 72
    17
 73
    13
 74
     0
 42
0.000000001
 43
0.0000000001
 40
8.639379797371928
 40
8.639379797371928
 40
8.639379797371928
 40
8.639379797371928
 40
8.840818411568145
 40
8.840818411568145
 40
8.840818411568145
 40
10.13194932973001
 40
10.13194932973001
 40
10.13194932973001
 40
11.41687639634949
 40
11.41687639634949
 40
11.41687639634949
 40
11.78097245096172
 40
11.78097245096172
 40
11.78097245096172
 40
11.78097245096172
 10
-1.297599766068358
 20
-2.292144221079384
 30
0.0
 10
-1.298895774533414
 20
-2.317634229305551
 30
0.0
 10
-1.291178596408762
 20
-2.3432068544157
 30
0.0
 10
-1.273713681814833
 20
-2.367978528988656
 30
0.0
 10
-1.161771434270804
 20
-2.526753821716956
 30
0.0
 10
-0.6593702022179729
 20
-2.625395225943574
 30
0.0
 10
-0.1015911454067324
 20
-2.492923549083843
 30
0.0
 10
0.4535077970851673
 20
-2.361088395294894
 30
0.0
 10
1.016500113276731
 20
-1.998421758444748
 30
0.0
 10
1.214779854788291
 20
-1.541068684805693
 30
0.0
 10
1.270964266705012
 20
-1.411473430722629
 30
0.0
 10
1.296559304530373
 20
-1.276292977800206
 30
0.0
 10
1.294295333701159
 20
-1.141103150066775
 30
0.0
  0
SPLINE
  5
39B24
330
39A82
100
AcDbEntity
  8
0
100
AcDbSpline
210
0.0
220
0.0
230
1.0
 70
     8
 71
     3
 72
    17
 73
    13
 74
     0
 42
0.000000001
 43
0.0000000001
 40
14.92256510455152
 40
14.92256510455152
 40
14.92256510455152
 40
14.92256510455152
 40
15.23953159251874
 40
15.23953159251874
 40
15.23953159251874
 40
16.50463810933543
 40
16.50463810933543
 40
16.50463810933543
 40
17.76594409219324
 40
17.76594409219324
 40
17.76594409219324
 40
18.06415775814131
 40
18.06415775814131
 40
18.06415775814131
 40
18.06415775814131
 10
-1.295355136287639
 20
0.0101982172500392
 30
0.0
 10
-1.297399704610219
 20
-0.0300168856125316
 30
0.0
 10
-1.278051563451358
 20
-0.0702572717893069
 30
0.0
 10
-1.235240877707434
 20
-0.1068889997021372
 30
0.0
 10
-1.064370834406108
 20
-0.2530970042201708
 30
0.0
 10
-0.5335185973100263
 20
-0.3179566037610959
 30
0.0
 10
0.0146593706917129
 20
-0.1598515664386646
 30
0.0
 10
0.5611905453561278
 20
-0.0022214958920963
 30
0.0
 10
1.082033445113991
 20
0.3766442890551946
 30
0.0
 10
1.242621721144923
 20
0.8323480366907043
 30
0.0
 10
1.280590000971011
 20
0.9400911910209085
 30
0.0
 10
1.29759112285498
 20
1.050774113229793
 30
0.0
 10
1.295515613297607
 20
1.161409933928907
 30
0.0
  0
SPLINE
  5
39B25
330
39A82
100
AcDbEntity
  8
0
100
AcDbSpline
210
0.0
220
0.0
230
1.0
 70
     8
 71
     3
 72
    17
 73
    13
 74
     0
 42
0.000000001
 43
0.0000000001
 40
21.2057504117311
 40
21.2057504117311
 40
21.2057504117311
 40
21.2057504117311
 40
21.62084268998406
 40
21.62084268998406
 40
21.62084268998406
 40
22.88547264969159
 40
22.88547264969159
 40
22.88547264969159
 40
24.18097505709286
 40
24.18097505709286
 40
24.18097505709286
 40
24.3473430653209
 40
24.3473430653209
 40
24.3473430653209
 40
24.3473430653209
 10
-1.293415777599307
 20
2.31273400325443
 30
0.0
 10
-1.295655259073097
 20
2.259929253724465
 30
0.0
 10
-1.262141144972338
 20
2.207174170430714
 30
0.0
 10
-1.189602844216884
 20
2.16284784611309
 30
0.0
 10
-0.9686059402327583
 20
2.027802217291206
 30
0.0
 10
-0.4034346887546288
 20
1.993980735781909
 30
0.0
 10
0.1413238327435396
 20
2.182853578347245
 30
0.0
 10
0.6993811289793884
 20
2.37633722971725
 30
0.0
 10
1.189084400074049
 20
2.801524982981741
 30
0.0
 10
1.282050554020225
 20
3.279414112363325
 30
0.0
 10
1.293989238021339
 20
3.340784482773155
 30
0.0
 10
1.299275988246257
 20
3.402576715870622
 30
0.0
 10
1.298344422420725
 20
3.464297669591265
 30
0.0
  0
SPLINE
  5
39B26
330
39A82
100
AcDbEntity
  8
0
100
AcDbSpline
210
0.0
220
0.0
230
1.0
 70
     8
 71
     3
 72
     8
 73
     4
 74
     0
 42
0.000000001
 43
0.0000000001
 40
27.48893571891069
 40
27.48893571891069
 40
27.48893571891069
 40
27.48893571891069
 40
27.85099870203718
 40
27.85099870203718
 40
27.85099870203718
 40
27.85099870203718
 10
-1.296198414052665
 20
4.615597064612196
 30
0.0
 10
-1.297487157769748
 20
4.569410029131066
 30
0.0
 10
-1.27129102866291
 20
4.523248305156238
 30
0.0
 10
-1.215718525909718
 20
4.482765086971926
 30
0.0
  0
SPLINE
  5
39B27
330
39A82
100
AcDbEntity
  8
0
100
AcDbSpline
210
0.0
220
0.0
230
1.0
 70
     8
 71
     3
 72
     8
 73
     4
 74
     0
 42
0.000000001
 43
0.0000000001
 40
0.0
 40
0.0
 40
0.0
 40
0.0
 40
0.0050127630033982
 40
0.0050127630033982
 40
0.0050127630033982
 40
0.0050127630033982
 10
1.484924240491747
 20
-4.977394507758285
 30
0.0
 10
1.482443049393218
 20
-4.97534966988258
 30
0.0
 10
1.479955343000993
 20
-4.973308906996532
 30
0.0
 10
1.477461162943205
 20
-4.971272224662966
 30
0.0
  0
SPLINE
  5
39B28
330
39A82
100
AcDbEntity
  8
0
100
AcDbSpline
210
0.0
220
0.0
230
1.0
 70
     8
 71
     3
 72
    17
 73
    13
 74
     0
 42
0.000000001
 43
0.0000000001
 40
1.45292760803328
 40
1.45292760803328
 40
1.45292760803328
 40
1.45292760803328
 40
2.248206044000299
 40
2.248206044000299
 40
2.248206044000299
 40
3.366769111186974
 40
3.366769111186974
 40
3.366769111186974
 40
4.491706312470183
 40
4.491706312470183
 40
4.491706312470183
 40
5.061402701068704
 40
5.061402701068704
 40
5.061402701068704
 40
5.061402701068704
 10
-1.295378297392101
 20
-4.352430706059764
 30
0.0
 10
-1.728167592237174
 20
-4.456236201932977
 30
0.0
 10
-2.027767470604147
 20
-4.657778774049596
 30
0.0
 10
-2.087767314824183
 20
-4.880169249497441
 30
0.0
 10
-2.172157393501319
 20
-5.192962556947762
 30
0.0
 10
-1.779189020840008
 20
-5.524458888614911
 30
0.0
 10
-1.115885455097578
 20
-5.628037556939496
 30
0.0
 10
-0.4488020525280819
 20
-5.732206468533154
 30
0.0
 10
0.4586722403198271
 20
-5.593615359555905
 30
0.0
 10
1.123868560654382
 20
-5.212890370995184
 30
0.0
 10
1.460740646466234
 20
-5.020081696177747
 30
0.0
 10
1.734646376215396
 20
-4.770634766185453
 30
0.0
 10
1.903200085155043
 20
-4.492381647304199
 30
0.0
  0
SPLINE
  5
39B29
330
39A82
100
AcDbEntity
  8
0
100
AcDbSpline
210
0.0
220
0.0
230
1.0
 70
     8
 71
     3
 72
     8
 73
     4
 74
     0
 42
0.000000001
 43
0.0000000001
 40
6.283185307179586
 40
6.283185307179586
 40
6.283185307179586
 40
6.283185307179586
 40
6.288198070182983
 40
6.288198070182983
 40
6.288198070182983
 40
6.288198070182983
 10
1.484924240491747
 20
-2.674874149542099
 30
0.0
 10
1.482443049393219
 20
-2.672829311666393
 30
0.0
 10
1.47995534272179
 20
-2.670788550177494
 30
0.0
 10
1.477461162109354
 20
-2.668751870619416
 30
0.0
  0
SPLINE
  5
39B2A
330
39A82
100
AcDbEntity
  8
0
100
AcDbSpline
210
0.0
220
0.0
230
1.0
 70
     8
 71
     3
 72
    20
 73
    16
 74
     0
 42
0.000000001
 43
0.0000000001
 40
7.736112915212867
 40
7.736112915212867
 40
7.736112915212867
 40
7.736112915212867
 40
8.516727775732988
 40
8.516727775732988
 40
8.516727775732988
 40
9.631627977772446
 40
9.631627977772446
 40
9.631627977772446
 40
10.77345735462424
 40
10.77345735462424
 40
10.77345735462424
 40
11.91063676946191
 40
11.91063676946191
 40
11.91063676946191
 40
12.57138337736555
 40
12.57138337736555
 40
12.57138337736555
 40
12.57138337736555
 10
-1.295604886513599
 20
-2.049819196059663
 30
0.0
 10
-1.720647900666042
 20
-2.151624354464838
 30
0.0
 10
-2.017371215848188
 20
-2.347604392524285
 30
0.0
 10
-2.084224097641811
 20
-2.565362072217882
 30
0.0
 10
-2.179705615081753
 20
-2.876370859476007
 30
0.0
 10
-1.801719696069085
 20
-3.210060138063177
 30
0.0
 10
-1.148298770472691
 20
-3.320254312610007
 30
0.0
 10
-0.4790951889047276
 20
-3.433110104926968
 30
0.0
 10
0.4455252844026913
 20
-3.297707840368608
 30
0.0
 10
1.121323082689647
 20
-2.911825201734066
 30
0.0
 10
1.79436877619198
 20
-2.527514023466486
 30
0.0
 10
2.185298375422107
 20
-1.907841143899258
 30
0.0
 10
2.082371242626714
 20
-1.313204306328024
 30
0.0
 10
2.022566472184655
 20
-0.9676965806048798
 30
0.0
 10
1.79793625600399
 20
-0.6386529565260624
 30
0.0
 10
1.471169534931684
 20
-0.3693849683606154
 30
0.0
  0
SPLINE
  5
39B2B
330
39A82
100
AcDbEntity
  8
0
100
AcDbSpline
210
0.0
220
0.0
230
1.0
 70
     8
 71
     3
 72
    23
 73
    19
 74
     0
 42
0.000000001
 43
0.0000000001
 40
14.01929822239245
 40
14.01929822239245
 40
14.01929822239245
 40
14.01929822239245
 40
14.17245269344262
 40
14.17245269344262
 40
14.17245269344262
 40
15.29776119299693
 40
15.29776119299693
 40
15.29776119299693
 40
16.41976629329853
 40
16.41976629329853
 40
16.41976629329853
 40
17.53877811199846
 40
17.53877811199846
 40
17.53877811199846
 40
18.65509838821191
 40
18.65509838821191
 40
18.65509838821191
 40
18.85456868454358
 40
18.85456868454358
 40
18.85456868454358
 40
18.85456868454358
 10
-1.299365396779288
 20
0.2539121707602976
 30
0.0
 10
-1.383900237934273
 20
0.2348918611385131
 30
0.0
 10
-1.463299670993201
 20
0.2120045495848366
 30
0.0
 10
-1.536385705012609
 20
0.185428409592161
 30
0.0
 10
-2.07338821441906
 20
-0.0098408242345704
 30
0.0
 10
-2.242577578256944
 20
-0.3873479053301354
 30
0.0
 10
-1.953915142646512
 20
-0.6730397031544811
 30
0.0
 10
-1.666100090019909
 20
-0.9578928384504514
 30
0.0
 10
-0.9376878756704771
 20
-1.13043700112599
 30
0.0
 10
-0.1544103144399921
 20
-1.02672309084377
 30
0.0
 10
0.6267776214292482
 20
-0.9232858681981781
 30
0.0
 10
1.423918956090367
 20
-0.5435268444291364
 30
0.0
 10
1.816780550935257
 20
-0.0155859321632801
 30
0.0
 10
2.208697201628385
 20
0.5110851316774157
 30
0.0
 10
2.17924019985642
 20
1.166075504329582
 30
0.0
 10
1.743875661501135
 20
1.677083977913154
 30
0.0
 10
1.666082311932498
 20
1.768393805232122
 30
0.0
 10
1.575981806967162
 20
1.854476215132431
 30
0.0
 10
1.476043773595772
 20
1.934719761837657
 30
0.0
  0
SPLINE
  5
39B2C
330
39A82
100
AcDbEntity
  8
0
100
AcDbSpline
210
0.0
220
0.0
230
1.0
 70
     8
 71
     3
 72
    20
 73
    16
 74
     0
 42
0.000000001
 43
0.0000000001
 40
20.30248352957204
 40
20.30248352957204
 40
20.30248352957204
 40
20.30248352957204
 40
20.93802706223907
 40
20.93802706223907
 40
20.93802706223907
 40
22.06379089554006
 40
22.06379089554006
 40
22.06379089554006
 40
23.18316818089201
 40
23.18316818089201
 40
23.18316818089201
 40
24.3501258111783
 40
24.3501258111783
 40
24.3501258111783
 40
25.25060994747996
 40
25.25060994747996
 40
25.25060994747996
 40
25.25060994747996
 10
-1.294329676913337
 20
2.553758000662837
 30
0.0
 10
-1.642396606610469
 20
2.471841331922972
 30
0.0
 10
-1.907501712255772
 20
2.328983068254966
 30
0.0
 10
-2.025188870091796
 20
2.158914618100926
 30
0.0
 10
-2.233652868426892
 20
1.857665528891366
 30
0.0
 10
-1.969432166668761
 20
1.493443201890906
 30
0.0
 10
-1.373234560746495
 20
1.3334421983261
 30
0.0
 10
-0.7804192313592374
 20
1.174348893206507
 30
0.0
 10
0.110893784485387
 20
1.2316942836962
 30
0.0
 10
0.8305678779947701
 20
1.547353485941507
 30
0.0
 10
1.580832498985446
 20
1.876430124757193
 30
0.0
 10
2.102265008771275
 20
2.47777884817584
 30
0.0
 10
2.099991869147014
 20
3.091944124128148
 30
0.0
 10
2.098237798460879
 20
3.565865433444843
 30
0.0
 10
1.786377666943079
 20
4.031943559481061
 30
0.0
 10
1.297149634973301
 20
4.369540397426455
 30
0.0
  0
SPLINE
  5
39B2D
330
39A82
100
AcDbEntity
  8
0
100
AcDbSpline
210
0.0
220
0.0
230
1.0
 70
     8
 71
     3
 72
    14
 73
    10
 74
     0
 42
0.000000001
 43
0.0000000001
 40
26.58566883675163
 40
26.58566883675163
 40
26.58566883675163
 40
26.58566883675163
 40
26.59098924598545
 40
26.59098924598545
 40
26.59098924598545
 40
27.70678746864736
 40
27.70678746864736
 40
27.70678746864736
 40
27.85099870203718
 40
27.85099870203718
 40
27.85099870203718
 40
27.85099870203718
 10
-1.299999332430381
 20
4.859990513765471
 30
0.0
 10
-1.302924655561973
 20
4.859310437648196
 30
0.0
 10
-1.305843629320052
 20
4.858625322131683
 30
0.0
 10
-1.308756202953166
 20
4.857935170617681
 30
0.0
 10
-1.919582239142595
 20
4.713196335906399
 30
0.0
 10
-2.219176716848933
 20
4.360585567674037
 30
0.0
 10
-2.050364418780124
 20
4.056597145611322
 30
0.0
 10
-2.028546289640437
 20
4.017308191397626
 30
0.0
 10
-1.999609162764768
 20
3.978929510861248
 30
0.0
 10
-1.963853003392623
 20
3.942041548169821
 30
0.0
  0
SPLINE
  5
39B2E
330
39A82
100
AcDbEntity
  8
0
100
AcDbSpline
210
0.0
220
0.0
230
1.0
 70
     8
 71
     3
 72
    20
 73
    16
 74
     0
 42
0.000000001
 43
0.0000000001
 40
0.0
 40
0.0
 40
0.0
 40
0.0
 40
0.0543541958093109
 40
0.0543541958093109
 40
0.1087083916186218
 40
0.1087083916186218
 40
0.1630625874279328
 40
0.1630625874279328
 40
0.2174167832372437
 40
0.2174167832372437
 40
0.2717709790465546
 40
0.2717709790465546
 40
0.3261251748558655
 40
0.3261251748558655
 40
0.3638726272730246
 40
0.3638726272730246
 40
0.3638726272730246
 40
0.3638726272730246
 10
-1.215718525909718
 20
4.482765086971925
 30
0.0
 10
-1.153680337041764
 20
4.426054900870997
 30
0.0
 10
-1.059175662650384
 20
4.377170050315934
 30
0.0
 10
-0.8166094138305339
 20
4.306971618544617
 30
0.0
 10
-0.6710309142345283
 20
4.28638915263571
 30
0.0
 10
-0.3488072856682209
 20
4.282771398254463
 30
0.0
 10
-0.1754606592159385
 20
4.299785659516518
 30
0.0
 10
0.1748354879468835
 20
4.375448402217637
 30
0.0
 10
0.3481991365455301
 20
4.433334863735512
 30
0.0
 10
0.6704888046436657
 20
4.588285888638631
 30
0.0
 10
0.8161156455991008
 20
4.683776782753269
 30
0.0
 10
1.058803401197468
 20
4.905330594083615
 30
0.0
 10
1.153379997181043
 20
5.029138050132466
 30
0.0
 10
1.258635412688346
 20
5.253493431821349
 30
0.0
 10
1.285505533196095
 20
5.348289341739448
 30
0.0
 10
1.295535079126197
 20
5.444152878745801
 30
0.0
  0
LINE
  5
39B2F
330
39A82
100
AcDbEntity
  8
0
100
AcDbLine
 10
-1.215718525909718
 20
4.482765086971925
 30
0.0
 11
-1.963853003392623
 21
3.942041548169821
 31
0.0
  0
SPLINE
  5
39B30
330
39A82
100
AcDbEntity
  8
0
100
AcDbSpline
210
0.0
220
0.0
230
1.0
 70
     8
 71
     3
 72
    14
 73
    10
 74
     0
 42
0.000000001
 43
0.0000000001
 40
0.0
 40
0.0
 40
0.0
 40
0.0
 40
1.139138886966829
 40
1.139138886966829
 40
1.139138886966829
 40
2.284557310864958
 40
2.284557310864958
 40
2.284557310864958
 40
3.065027410629346
 40
3.065027410629346
 40
3.065027410629346
 40
3.065027410629346
 10
-1.963853003392623
 20
3.942041548169821
 30
0.0
 10
-1.617020729397117
 20
3.664740658985135
 30
0.0
 10
-0.8536759591779436
 20
3.548467129234453
 30
0.0
 10
-0.1316662766931959
 20
3.698408043411042
 30
0.0
 10
0.5943235056000931
 20
3.849175511328227
 30
0.0
 10
1.238613323891134
 20
4.260479148379898
 30
0.0
 10
1.483413994411144
 20
4.746379758351956
 30
0.0
 10
1.650217321262585
 20
5.077464792107441
 30
0.0
 10
1.630279567178826
 20
5.432242653808162
 30
0.0
 10
1.475781790644771
 20
5.743627438492163
 30
0.0
  0
ENDBLK
  5
39A84
330
39A82
100
AcDbEntity
  8
0
100
AcDbBlockEnd
  0
ENDSEC
  0
SECTION
  2
ENTITIES
  0
INSERT
  5
39B31
330
1F
100
AcDbEntity
  8
0
100
AcDbBlockReference
  2
TTF42X28PH2-Front
 10
0.0
 20
0.0
 30
0.0
  0
INSERT
  5
39B32
330
1F
100
AcDbEntity
  8
0
100
AcDbBlockReference
  2
TTF42X28PH2-Top
 10
0.0
 20
-37.488263020814
 30
0.0
  0
INSERT
  5
39B33
330
1F
100
AcDbEntity
  8
0
100
AcDbBlockReference
  2
TTF42X28PH2-ISO
 10
12.988263020814
 20
-47.44181540786907
 30
0.0
  0
MTEXT
  5
39B34
330
1F
100
AcDbEntity
  8
0
100
AcDbMText
 10
0.0
 20
-46.976526041628
 30
0.0
 40
0.9987645285067371
 41
0.0
 71
     5
 72
     5
  1
TTF4.2X28 PH2
 73
     1
 44
1.0
1001
ACAD
1000
MTEXTBEGIN
1070
    73
1070
     1
1070
    44
1040
1.0
1070
    74
1070
     0
1000
MTEXTEND
  0
ENDSEC
  0
SECTION
  2
OBJECTS
  0
DICTIONARY
  5
C
330
0
100
AcDbDictionary
281
     1
  3
ACAD_CIP_PREVIOUS_PRODUCT_INFO
350
216
  3
ACAD_COLOR
350
6B
  3
ACAD_DETAILVIEWSTYLE
350
21B
  3
ACAD_GROUP
350
D
  3
ACAD_LAYOUT
350
1A
  3
ACAD_MATERIAL
350
6A
  3
ACAD_MLEADERSTYLE
350
12D
  3
ACAD_MLINESTYLE
350
17
  3
ACAD_PLOTSETTINGS
350
19
  3
ACAD_PLOTSTYLENAME
350
E
  3
ACAD_SCALELIST
350
10C
  3
ACAD_SECTIONVIEWSTYLE
350
219
  3
ACAD_TABLESTYLE
350
7E
  3
ACAD_VISUALSTYLE
350
EF
  3
ACDB_RECOMPOSE_DATA
350
39C35
  3
AcDbVariableDictionary
350
5E
  3
DWGPROPS
350
39C36
  0
DICTIONARY
  5
39B85
330
8
100
AcDbDictionary
280
     1
281
     1
  0
DICTIONARY
  5
1FF
330
2
100
AcDbDictionary
280
     1
281
     1
  3
ACAD_LAYERSTATES
360
200
  0
DICTIONARY
  5
13C
330
10
100
AcDbDictionary
280
     1
281
     1
  0
DICTIONARY
  5
1CE
330
1F
100
AcDbDictionary
280
     1
281
     1
  3
ACAD_LAYOUTSELFREF
360
39B8D
  0
DICTIONARY
  5
39B38
330
D2
100
AcDbDictionary
280
     1
281
     1
  3
ACAD_LAYOUTSELFREF
360
39B96
  0
DICTIONARY
  5
39B3A
330
D6
100
AcDbDictionary
280
     1
281
     1
  3
ACAD_LAYOUTSELFREF
360
39B99
  0
XRECORD
  5
216
102
{ACAD_REACTORS
330
C
102
}
330
C
100
AcDbXrecord
280
     1
300
ACD
300
2021
300
87393ACD_2021_0F
  0
DICTIONARY
  5
6B
102
{ACAD_REACTORS
330
C
102
}
330
C
100
AcDbDictionary
281
     1
  0
DICTIONARY
  5
21B
102
{ACAD_REACTORS
330
C
102
}
330
C
100
AcDbDictionary
281
     1
  3
Metric50
350
21C
  0
DICTIONARY
  5
D
102
{ACAD_REACTORS
330
C
102
}
330
C
100
AcDbDictionary
281
     1
  0
DICTIONARY
  5
1A
102
{ACAD_REACTORS
330
C
102
}
330
C
100
AcDbDictionary
281
     1
  3
Layout1
350
D3
  3
Layout2
350
D7
  3
Model
350
22
  0
DICTIONARY
  5
6A
102
{ACAD_REACTORS
330
C
102
}
330
C
100
AcDbDictionary
281
     1
  3
ByBlock
350
ED
  3
ByLayer
350
EC
  3
Global
350
EE
  0
DICTIONARY
  5
12D
102
{ACAD_REACTORS
330
C
102
}
330
C
100
AcDbDictionary
281
     1
  3
Standard
350
12E
  0
DICTIONARY
  5
17
102
{ACAD_REACTORS
330
C
102
}
330
C
100
AcDbDictionary
281
     1
  3
Standard
350
18
  0
DICTIONARY
  5
19
102
{ACAD_REACTORS
330
C
102
}
330
C
100
AcDbDictionary
281
     1
  0
ACDBDICTIONARYWDFLT
  5
E
102
{ACAD_REACTORS
330
C
102
}
330
C
100
AcDbDictionary
281
     1
  3
Normal
350
F
100
AcDbDictionaryWithDefault
340
F
  0
DICTIONARY
  5
10C
102
{ACAD_REACTORS
330
C
102
}
330
C
100
AcDbDictionary
281
     1
  3
A0
350
10D
  3
A1
350
1BE
  3
A2
350
1BF
  3
A3
350
1C0
  3
A4
350
1C1
  3
A5
350
1C2
  3
A6
350
1C3
  3
A7
350
1C4
  3
A8
350
1C5
  3
A9
350
1C6
  3
B0
350
1C7
  3
B1
350
1C8
  3
B2
350
1C9
  3
B3
350
1CA
  3
B4
350
1CB
  3
B5
350
1CC
  3
B6
350
1CD
  0
DICTIONARY
  5
219
102
{ACAD_REACTORS
330
C
102
}
330
C
100
AcDbDictionary
281
     1
  3
Metric50
350
21A
  0
DICTIONARY
  5
7E
102
{ACAD_REACTORS
330
C
102
}
330
C
100
AcDbDictionary
281
     1
  3
Standard
350
7F
  0
DICTIONARY
  5
EF
102
{ACAD_REACTORS
330
C
102
}
330
C
100
AcDbDictionary
281
     1
  3
2dWireframe
350
F5
  3
Basic
350
F4
  3
Brighten
350
FB
  3
ColorChange
350
FF
  3
Conceptual
350
F8
  3
Dim
350
FA
  3
EdgeColorOff
350
1E6
  3
Facepattern
350
FE
  3
Flat
350
F0
  3
FlatWithEdges
350
F1
  3
Gouraud
350
F2
  3
GouraudWithEdges
350
F3
  3
Hidden
350
F7
  3
JitterOff
350
1E4
  3
Linepattern
350
FD
  3
OverhangOff
350
1E5
  3
Realistic
350
F9
  3
Shaded
350
1F3
  3
Shaded with edges
350
1F2
  3
Shades of Gray
350
1EF
  3
Sketchy
350
1F0
  3
Thicken
350
FC
  3
Wireframe
350
F6
  3
X-Ray
350
1F1
  0
XRECORD
  5
39C35
102
{ACAD_REACTORS
330
C
102
}
330
C
100
AcDbXrecord
280
     1
 90
        1
330
7F
  0
DICTIONARY
  5
5E
102
{ACAD_REACTORS
330
C
102
}
330
C
100
AcDbDictionary
281
     1
  3
CANNOSCALE
350
146
  3
CENTEREXE
350
259
  3
CENTERLTYPEFILE
350
25A
  3
CMLEADERSTYLE
350
145
  3
CTABLESTYLE
350
84
  3
CVIEWDETAILSTYLE
350
227
  3
CVIEWSECTIONSTYLE
350
228
  3
DIMASSOC
350
5F
  3
HIDETEXT
350
63
  3
INDEXCTL
350
39BE2
  3
LAYEREVAL
350
1AE
  3
LAYERNOTIFY
350
1AF
  3
LIGHTINGUNITS
350
39BE0
  3
MSLTSCALE
350
39BDF
  3
PSOLHEIGHT
350
39C32
  3
PSOLWIDTH
350
39C31
  3
SORTENTS
350
39BE1
  3
XCLIPFRAME
350
39C33
  0
XRECORD
  5
39C36
102
{ACAD_REACTORS
330
C
102
}
330
C
100
AcDbXrecord
280
     1
  1
DWGPROPS COOKIE
  2

  3

  4

  6

  7

  8
KhuNguyen
  9

300
=
301
=
302
=
303
=
304
=
305
=
306
=
307
=
308
=
309
=
 40
0.023275462962963
 41
2460476.646099537
 42
2460476.695416667
  1

 90
        0
  0
DICTIONARY
  5
200
102
{ACAD_REACTORS
330
1FF
102
}
330
1FF
100
AcDbDictionary
281
     1
  0
XRECORD
  5
39B8D
102
{ACAD_REACTORS
330
1CE
102
}
330
1CE
100
AcDbXrecord
280
     1
340
1F
  0
XRECORD
  5
39B96
102
{ACAD_REACTORS
330
39B38
102
}
330
39B38
100
AcDbXrecord
280
     1
340
D2
  0
XRECORD
  5
39B99
102
{ACAD_REACTORS
330
39B3A
102
}
330
39B3A
100
AcDbXrecord
280
     1
340
D6
  0
ACDBDETAILVIEWSTYLE
  5
21C
102
{ACAD_XDICTIONARY
360
39C75
102
}
102
{ACAD_REACTORS
330
21B
102
}
330
21B
100
AcDbModelDocViewStyle
 70
     0
  3
Metric50
290
     0
100
AcDbDetailViewStyle
 70
     0
 71
     0
 90
        3
 71
     1
340
11
 40
5.0
340
0
 40
5.0
300

 40
0.0
280
     1
 71
     2
340
16
 90
       25
 71
     3
340
11
 40
5.0
 90
        0
 40
15.0
 90
        1
300
%<\AcVar ViewDetailId>% (%<\AcVar ViewScale \f "%sn">%)
 71
     4
340
16
 90
       25
340
16
 90
       25
280
     0
  0
LAYOUT
  5
D3
102
{ACAD_XDICTIONARY
360
39C3A
102
}
102
{ACAD_REACTORS
330
1A
102
}
330
1A
100
AcDbPlotSettings
  1

  2
C:\Documents and Settings\basas\Application Data\Autodesk\AutoCAD 2005\R16.1\enu\plotters\Default Windows System Printer.pc3
  4

  6

 40
0.0
 41
0.0
 42
0.0
 43
0.0
 44
0.0
 45
0.0
 46
0.0
 47
0.0
 48
0.0
 49
0.0
140
0.0
141
0.0
142
1.0
143
1.0
 70
   688
 72
     0
 73
     0
 74
     5
  7

 75
    16
147
1.0
148
0.0
149
0.0
100
AcDbLayout
  1
Layout1
 70
     1
 71
     1
 10
0.0
 20
0.0
 11
12.0
 21
9.0
 12
0.0
 22
0.0
 32
0.0
 14
0.0
 24
0.0
 34
0.0
 15
0.0
 25
0.0
 35
0.0
146
0.0
 13
0.0
 23
0.0
 33
0.0
 16
1.0
 26
0.0
 36
0.0
 17
0.0
 27
1.0
 37
0.0
 76
     0
330
D2
  0
LAYOUT
  5
D7
102
{ACAD_XDICTIONARY
360
39C3C
102
}
102
{ACAD_REACTORS
330
1A
102
}
330
1A
100
AcDbPlotSettings
  1

  2
C:\Documents and Settings\basas\Application Data\Autodesk\AutoCAD 2005\R16.1\enu\plotters\Default Windows System Printer.pc3
  4

  6

 40
0.0
 41
0.0
 42
0.0
 43
0.0
 44
0.0
 45
0.0
 46
0.0
 47
0.0
 48
0.0
 49
0.0
140
0.0
141
0.0
142
1.0
143
1.0
 70
   688
 72
     0
 73
     0
 74
     5
  7

 75
    16
147
1.0
148
0.0
149
0.0
100
AcDbLayout
  1
Layout2
 70
     1
 71
     2
 10
0.0
 20
0.0
 11
12.0
 21
9.0
 12
0.0
 22
0.0
 32
0.0
 14
0.0
 24
0.0
 34
0.0
 15
0.0
 25
0.0
 35
0.0
146
0.0
 13
0.0
 23
0.0
 33
0.0
 16
1.0
 26
0.0
 36
0.0
 17
0.0
 27
1.0
 37
0.0
 76
     0
330
D6
  0
LAYOUT
  5
22
102
{ACAD_XDICTIONARY
360
39C37
102
}
102
{ACAD_REACTORS
330
1A
102
}
330
1A
100
AcDbPlotSettings
  1

  2
none_device
  4
ISO_A4_(210.00_x_297.00_MM)
  6

 40
7.5
 41
20.0
 42
7.5
 43
20.0
 44
210.0
 45
297.0
 46
11.54999923706054
 47
-13.65000009536743
 48
0.0
 49
0.0
140
0.0
141
0.0
142
1.0
143
8.704084754739808
 70
 11952
 72
     1
 73
     0
 74
     0
  7

 75
     0
147
0.1148885871608098
148
0.0
149
0.0
100
AcDbLayout
  1
Model
 70
     1
 71
     0
 10
0.0
 20
0.0
 11
12.0
 21
9.0
 12
0.0
 22
0.0
 32
0.0
 14
0.0
 24
0.0
 34
0.0
 15
0.0
 25
0.0
 35
0.0
146
0.0
 13
0.0
 23
0.0
 33
0.0
 16
1.0
 26
0.0
 36
0.0
 17
0.0
 27
1.0
 37
0.0
 76
     0
330
1F
331
EA
1001
ACAD_PSEXT
1000
None
1000
None
1000
Not applicable
1000
The layout will not be plotted unless a new plotter configuration name is selected.
1070
     0
  0
MATERIAL
  5
ED
102
{ACAD_XDICTIONARY
360
1F9
102
}
102
{ACAD_REACTORS
330
6A
102
}
330
6A
100
AcDbMaterial
  1
ByBlock
  0
MATERIAL
  5
EC
102
{ACAD_XDICTIONARY
360
1F7
102
}
102
{ACAD_REACTORS
330
6A
102
}
330
6A
100
AcDbMaterial
  1
ByLayer
  0
MATERIAL
  5
EE
102
{ACAD_XDICTIONARY
360
173
102
}
102
{ACAD_REACTORS
330
6A
102
}
330
6A
100
AcDbMaterial
  1
Global
 43
0.0007999999797903
 43
0.0
 43
0.0
 43
0.0
 43
0.0
 43
0.0007999999797903
 43
0.0
 43
0.0
 43
0.0
 43
0.0
 43
1.0
 43
0.0
 43
0.0
 43
0.0
 43
0.0
 43
1.0
 49
0.0007999999797903
 49
0.0
 49
0.0
 49
0.0
 49
0.0
 49
0.0007999999797903
 49
0.0
 49
0.0
 49
0.0
 49
0.0
 49
1.0
 49
0.0
 49
0.0
 49
0.0
 49
0.0
 49
1.0
142
0.0007999999797903
142
0.0
142
0.0
142
0.0
142
0.0
142
0.0007999999797903
142
0.0
142
0.0
142
0.0
142
0.0
142
1.0
142
0.0
142
0.0
142
0.0
142
0.0
142
1.0
144
0.0007999999797903
144
0.0
144
0.0
144
0.0
144
0.0
144
0.0007999999797903
144
0.0
144
0.0
144
0.0
144
0.0
144
1.0
144
0.0
144
0.0
144
0.0
144
0.0
144
1.0
1001
ACAD
1070
    -1
1070
     3
1070
     0
1000

1071
        0
1070
     0
  0
MLEADERSTYLE
  5
12E
102
{ACAD_XDICTIONARY
360
39C61
102
}
102
{ACAD_REACTORS
330
12D
102
}
330
12D
100
AcDbMLeaderStyle
170
     2
171
     1
172
     0
 90
        2
 40
0.0
 41
0.0
173
     1
 91
-1056964608
340
14
 92
       -2
290
     1
 42
2.0
291
     1
 43
8.0
  3
Standard
 44
4.0
300

342
11
174
     1
178
     1
175
     1
176
     0
 93
-1056964608
 45
4.0
292
     0
297
     0
 46
4.0
 94
-1056964608
 47
1.0
 49
1.0
140
1.0
293
     1
141
0.0
294
     1
177
     0
142
1.0
295
     0
296
     0
143
3.75
1001
ACAD_MLEADERVER
1070
     2
  0
MLINESTYLE
  5
18
102
{ACAD_REACTORS
330
17
102
}
330
17
100
AcDbMlineStyle
  2
STANDARD
 70
     0
  3

 62
   256
 51
90.0
 52
90.0
 71
     2
 49
0.5
 62
   256
  6
BYLAYER
 49
-0.5
 62
   256
  6
BYLAYER
  0
ACDBPLACEHOLDER
  5
F
102
{ACAD_REACTORS
330
E
102
}
330
E
  0
SCALE
  5
10D
102
{ACAD_REACTORS
330
10C
102
}
330
10C
100
AcDbScale
 70
     0
300
1:1
140
1.0
141
1.0
290
     1
  0
SCALE
  5
1BE
102
{ACAD_REACTORS
330
10C
102
}
330
10C
100
AcDbScale
 70
     0
300
1:2
140
1.0
141
2.0
290
     0
  0
SCALE
  5
1BF
102
{ACAD_REACTORS
330
10C
102
}
330
10C
100
AcDbScale
 70
     0
300
1:4
140
1.0
141
4.0
290
     0
  0
SCALE
  5
1C0
102
{ACAD_REACTORS
330
10C
102
}
330
10C
100
AcDbScale
 70
     0
300
1:5
140
1.0
141
5.0
290
     0
  0
SCALE
  5
1C1
102
{ACAD_REACTORS
330
10C
102
}
330
10C
100
AcDbScale
 70
     0
300
1:8
140
1.0
141
8.0
290
     0
  0
SCALE
  5
1C2
102
{ACAD_REACTORS
330
10C
102
}
330
10C
100
AcDbScale
 70
     0
300
1:10
140
1.0
141
10.0
290
     0
  0
SCALE
  5
1C3
102
{ACAD_REACTORS
330
10C
102
}
330
10C
100
AcDbScale
 70
     0
300
1:16
140
1.0
141
16.0
290
     0
  0
SCALE
  5
1C4
102
{ACAD_REACTORS
330
10C
102
}
330
10C
100
AcDbScale
 70
     0
300
1:20
140
1.0
141
20.0
290
     0
  0
SCALE
  5
1C5
102
{ACAD_REACTORS
330
10C
102
}
330
10C
100
AcDbScale
 70
     0
300
1:30
140
1.0
141
30.0
290
     0
  0
SCALE
  5
1C6
102
{ACAD_REACTORS
330
10C
102
}
330
10C
100
AcDbScale
 70
     0
300
1:40
140
1.0
141
40.0
290
     0
  0
SCALE
  5
1C7
102
{ACAD_REACTORS
330
10C
102
}
330
10C
100
AcDbScale
 70
     0
300
1:50
140
1.0
141
50.0
290
     0
  0
SCALE
  5
1C8
102
{ACAD_REACTORS
330
10C
102
}
330
10C
100
AcDbScale
 70
     0
300
1:100
140
1.0
141
100.0
290
     0
  0
SCALE
  5
1C9
102
{ACAD_REACTORS
330
10C
102
}
330
10C
100
AcDbScale
 70
     0
300
2:1
140
2.0
141
1.0
290
     0
  0
SCALE
  5
1CA
102
{ACAD_REACTORS
330
10C
102
}
330
10C
100
AcDbScale
 70
     0
300
4:1
140
4.0
141
1.0
290
     0
  0
SCALE
  5
1CB
102
{ACAD_REACTORS
330
10C
102
}
330
10C
100
AcDbScale
 70
     0
300
8:1
140
8.0
141
1.0
290
     0
  0
SCALE
  5
1CC
102
{ACAD_REACTORS
330
10C
102
}
330
10C
100
AcDbScale
 70
     0
300
10:1
140
10.0
141
1.0
290
     0
  0
SCALE
  5
1CD
102
{ACAD_REACTORS
330
10C
102
}
330
10C
100
AcDbScale
 70
     0
300
100:1
140
100.0
141
1.0
290
     0
  0
ACDBSECTIONVIEWSTYLE
  5
21A
102
{ACAD_XDICTIONARY
360
39C73
102
}
102
{ACAD_REACTORS
330
219
102
}
330
219
100
AcDbModelDocViewStyle
 70
     0
  3
Metric50
290
     0
100
AcDbSectionViewStyle
 70
     0
 71
     0
 90
      102
 71
     1
340
11
 40
5.0
340
0
340
0
 40
5.0
300
I, O, Q, S, X, Z
 40
10.0
 90
        0
 40
2.5
 90
        0
 71
     2
340
16
 90
       25
340
16
 90
       50
 40
5.0
 40
2.5
 40
5.0
 71
     3
340
11
 40
5.0
 90
        0
 40
15.0
 90
        1
300
%<\AcVar ViewSectionStartId>%-%<\AcVar ViewSectionEndId>% (%<\AcVar ViewScale \f "%sn">%)
 71
     4
300
ANSI31
 40
1.0
 90
        0
290
     0
290
     0
 90
        6
 40
0.0
 40
1.570796326794896
 40
0.2617993877991494
 40
1.308996938995747
 40
-0.2617993877991494
 40
1.832595714594046
  0
TABLESTYLE
  5
7F
102
{ACAD_XDICTIONARY
360
162
102
}
102
{ACAD_REACTORS
330
7E
102
}
330
7E
100
AcDbTableStyle
  3
Standard
 70
     0
 71
     0
 40
1.5
 41
1.5
280
     0
281
     0
  7
Standard
140
4.5
170
     2
 62
     0
 63
     7
283
     0
274
    -2
284
     1
 64
     0
275
    -2
285
     1
 65
     0
276
    -2
286
     1
 66
     0
277
    -2
287
     1
 67
     0
278
    -2
288
     1
 68
     0
279
    -2
289
     1
 69
     0
  7
Standard
140
6.0
170
     5
 62
     0
 63
     7
283
     0
274
    -2
284
     1
 64
     0
275
    -2
285
     1
 65
     0
276
    -2
286
     1
 66
     0
277
    -2
287
     1
 67
     0
278
    -2
288
     1
 68
     0
279
    -2
289
     1
 69
     0
  7
Standard
140
4.5
170
     5
 62
     0
 63
     7
283
     0
274
    -2
284
     1
 64
     0
275
    -2
285
     1
 65
     0
276
    -2
286
     1
 66
     0
277
    -2
287
     1
 67
     0
278
    -2
288
     1
 68
     0
279
    -2
289
     1
 69
     0
  0
VISUALSTYLE
  5
F5
102
{ACAD_XDICTIONARY
360
39C4B
102
}
102
{ACAD_REACTORS
330
EF
102
}
330
EF
100
AcDbVisualStyle
  2
2dWireframe
 70
     4
 71
     0
 72
     2
 73
     1
 90
        0
 40
-0.6
 41
-30.0
 62
     5
 63
     7
 74
     1
 91
        4
 64
     7
 65
   257
 75
     1
175
     1
 42
1.0
 92
        0
 66
   257
 43
1.0
 76
     1
 77
     6
 78
     2
 67
     7
 79
     5
170
     0
171
     0
290
     0
174
     0
 93
        1
 44
0.0
173
     0
291
     0
 45
0.0
1001
ACAD
1000
AcDbSavedByObjectVersion
1070
     0
  0
VISUALSTYLE
  5
F4
102
{ACAD_XDICTIONARY
360
39C49
102
}
102
{ACAD_REACTORS
330
EF
102
}
330
EF
100
AcDbVisualStyle
  2
Basic
 70
     7
 71
     1
 72
     0
 73
     1
 90
        0
 40
-0.6
 41
-30.0
 62
     5
 63
     7
 74
     0
 91
        4
 64
     7
 65
   257
 75
     1
175
     1
 42
1.0
 92
        8
 66
     7
 43
1.0
 76
     1
 77
     6
 78
     2
 67
     7
 79
     5
170
     0
171
     0
290
     0
174
     0
 93
        1
 44
0.0
173
     0
291
     1
 45
0.0
1001
ACAD
1000
AcDbSavedByObjectVersion
1070
     0
  0
VISUALSTYLE
  5
FB
102
{ACAD_XDICTIONARY
360
39C57
102
}
102
{ACAD_REACTORS
330
EF
102
}
330
EF
100
AcDbVisualStyle
  2
Brighten
 70
    12
 71
     2
 72
     2
 73
     1
 90
        0
 40
-0.6
 41
-30.0
 62
     5
 63
     7
 74
     1
 91
        4
 64
     7
 65
   257
 75
     1
175
     1
 42
1.0
 92
        8
 66
     7
 43
1.0
 76
     1
 77
     6
 78
     2
 67
     7
 79
     5
170
     0
171
     0
290
     0
174
     0
 93
        1
 44
50.0
173
     0
291
     1
 45
0.0
1001
ACAD
1000
AcDbSavedByObjectVersion
1070
     0
  0
VISUALSTYLE
  5
FF
102
{ACAD_XDICTIONARY
360
39C5F
102
}
102
{ACAD_REACTORS
330
EF
102
}
330
EF
100
AcDbVisualStyle
  2
ColorChange
 70
    16
 71
     2
 72
     2
 73
     3
 90
        0
 40
-0.6
 41
-30.0
 62
     5
 63
     8
 74
     1
 91
        4
 64
     7
 65
   257
 75
     1
175
     1
 42
1.0
 92
        8
 66
     8
 43
1.0
 76
     1
 77
     6
 78
     2
 67
     7
 79
     5
170
     0
171
     0
290
     0
174
     0
 93
        1
 44
0.0
173
     0
291
     1
 45
0.0
1001
ACAD
1000
AcDbSavedByObjectVersion
1070
     0
  0
VISUALSTYLE
  5
F8
102
{ACAD_XDICTIONARY
360
39C51
102
}
102
{ACAD_REACTORS
330
EF
102
}
330
EF
100
AcDbVisualStyle
  2
Conceptual
 70
     9
 71
     3
 72
     2
 73
     1
 90
        0
 40
-0.6
 41
-30.0
 62
     5
 63
     7
 74
     2
 91
        2
 64
     7
 65
   257
 75
     1
175
     1
 42
40.0
 92
        8
 66
     7
 43
1.0
 76
     1
 77
     6
 78
     2
 67
     7
 79
     3
170
     0
171
     0
290
     0
174
     0
 93
        1
 44
0.0
173
     0
291
     0
 45
0.0
1001
ACAD
1000
AcDbSavedByObjectVersion
1070
     0
  0
VISUALSTYLE
  5
FA
102
{ACAD_XDICTIONARY
360
39C55
102
}
102
{ACAD_REACTORS
330
EF
102
}
330
EF
100
AcDbVisualStyle
  2
Dim
 70
    11
 71
     2
 72
     2
 73
     1
 90
        0
 40
-0.6
 41
-30.0
 62
     5
 63
     7
 74
     1
 91
        4
 64
     7
 65
   257
 75
     1
175
     1
 42
1.0
 92
        8
 66
     7
 43
1.0
 76
     1
 77
     6
 78
     2
 67
     7
 79
     5
170
     0
171
     0
290
     0
174
     0
 93
        1
 44
-50.0
173
     0
291
     1
 45
0.0
1001
ACAD
1000
AcDbSavedByObjectVersion
1070
     0
  0
VISUALSTYLE
  5
1E6
102
{ACAD_XDICTIONARY
360
39C67
102
}
102
{ACAD_REACTORS
330
EF
102
}
330
EF
100
AcDbVisualStyle
  2
EdgeColorOff
 70
    22
 71
     2
 72
     2
 73
     0
 90
        0
 40
-0.6
 41
-30.0
 62
     5
 63
     7
 74
     1
 91
        4
 64
     7
 65
   257
 75
     1
175
     1
 42
1.0
 92
        8
 66
     7
 43
1.0
 76
     1
 77
     6
 78
     2
 67
     7
 79
     5
170
     0
171
     0
290
     0
174
     0
 93
        1
 44
0.0
173
     0
291
     1
 45
0.0
1001
ACAD
1000
AcDbSavedByObjectVersion
1070
     0
  0
VISUALSTYLE
  5
FE
102
{ACAD_XDICTIONARY
360
39C5D
102
}
102
{ACAD_REACTORS
330
EF
102
}
330
EF
100
AcDbVisualStyle
  2
Facepattern
 70
    15
 71
     2
 72
     2
 73
     1
 90
        0
 40
-0.6
 41
-30.0
 62
     5
 63
     7
 74
     1
 91
        4
 64
     7
 65
   257
 75
     1
175
     1
 42
1.0
 92
        8
 66
     7
 43
1.0
 76
     1
 77
     6
 78
     2
 67
     7
 79
     5
170
     0
171
     0
290
     0
174
     0
 93
        1
 44
0.0
173
     0
291
     1
 45
0.0
1001
ACAD
1000
AcDbSavedByObjectVersion
1070
     0
  0
VISUALSTYLE
  5
F0
102
{ACAD_XDICTIONARY
360
39C41
102
}
102
{ACAD_REACTORS
330
EF
102
}
330
EF
100
AcDbVisualStyle
  2
Flat
 70
     0
 71
     2
 72
     1
 73
     1
 90
        2
 40
-0.6
 41
30.0
 62
     5
 63
     7
 74
     0
 91
        0
 64
     7
 65
   257
 75
     1
175
     1
 42
1.0
 92
        8
 66
     7
 43
1.0
 76
     1
 77
     6
 78
     2
 67
     7
 79
     5
170
     0
171
     0
290
     0
174
     0
 93
       13
 44
0.0
173
     0
291
     1
 45
0.0
1001
ACAD
1000
AcDbSavedByObjectVersion
1070
     0
  0
VISUALSTYLE
  5
F1
102
{ACAD_XDICTIONARY
360
39C43
102
}
102
{ACAD_REACTORS
330
EF
102
}
330
EF
100
AcDbVisualStyle
  2
FlatWithEdges
 70
     1
 71
     2
 72
     1
 73
     1
 90
        2
 40
-0.6
 41
30.0
 62
     5
 63
     7
 74
     1
 91
        0
 64
     7
 65
   257
 75
     1
175
     1
 42
1.0
 92
        0
 66
   257
 43
1.0
 76
     1
 77
     6
 78
     2
 67
     7
 79
     5
170
     0
171
     0
290
     0
174
     0
 93
       13
 44
0.0
173
     0
291
     1
 45
0.0
1001
ACAD
1000
AcDbSavedByObjectVersion
1070
     0
  0
VISUALSTYLE
  5
F2
102
{ACAD_XDICTIONARY
360
39C45
102
}
102
{ACAD_REACTORS
330
EF
102
}
330
EF
100
AcDbVisualStyle
  2
Gouraud
 70
     2
 71
     2
 72
     2
 73
     1
 90
        2
 40
-0.6
 41
30.0
 62
     5
 63
     7
 74
     0
 91
        0
 64
     7
 65
   257
 75
     1
175
     1
 42
1.0
 92
        0
 66
     7
 43
1.0
 76
     1
 77
     6
 78
     2
 67
     7
 79
     5
170
     0
171
     0
290
     0
174
     0
 93
       13
 44
0.0
173
     0
291
     1
 45
0.0
1001
ACAD
1000
AcDbSavedByObjectVersion
1070
     0
  0
VISUALSTYLE
  5
F3
102
{ACAD_XDICTIONARY
360
39C47
102
}
102
{ACAD_REACTORS
330
EF
102
}
330
EF
100
AcDbVisualStyle
  2
GouraudWithEdges
 70
     3
 71
     2
 72
     2
 73
     1
 90
        2
 40
-0.6
 41
30.0
 62
     5
 63
     7
 74
     1
 91
        0
 64
     7
 65
   257
 75
     1
175
     1
 42
1.0
 92
        0
 66
   257
 43
1.0
 76
     1
 77
     6
 78
     2
 67
     7
 79
     5
170
     0
171
     0
290
     0
174
     0
 93
       13
 44
0.0
173
     0
291
     1
 45
0.0
1001
ACAD
1000
AcDbSavedByObjectVersion
1070
     0
  0
VISUALSTYLE
  5
F7
102
{ACAD_XDICTIONARY
360
39C4F
102
}
102
{ACAD_REACTORS
330
EF
102
}
330
EF
100
AcDbVisualStyle
  2
Hidden
 70
     6
 71
     1
 72
     2
 73
     2
 90
        0
 40
-0.6
 41
-30.0
 62
     5
 63
     7
 74
     2
 91
        2
 64
     7
 65
   257
 75
     2
175
     1
 42
40.0
 92
        0
 66
   257
 43
1.0
 76
     1
 77
     6
 78
     2
 67
     7
 79
     3
170
     0
171
     0
290
     0
174
     0
 93
        1
 44
0.0
173
     0
291
     0
 45
0.0
1001
ACAD
1000
AcDbSavedByObjectVersion
1070
     0
  0
VISUALSTYLE
  5
1E4
102
{ACAD_XDICTIONARY
360
39C63
102
}
102
{ACAD_REACTORS
330
EF
102
}
330
EF
100
AcDbVisualStyle
  2
JitterOff
 70
    20
 71
     2
 72
     2
 73
     0
 90
        0
 40
-0.6
 41
-30.0
 62
     5
 63
     7
 74
     1
 91
        4
 64
     7
 65
   257
 75
     1
175
     1
 42
1.0
 92
       10
 66
     7
 43
1.0
 76
     1
 77
     6
 78
     2
 67
     7
 79
     5
170
     0
171
     0
290
     0
174
     0
 93
        1
 44
0.0
173
     0
291
     1
 45
0.0
1001
ACAD
1000
AcDbSavedByObjectVersion
1070
     0
  0
VISUALSTYLE
  5
FD
102
{ACAD_XDICTIONARY
360
39C5B
102
}
102
{ACAD_REACTORS
330
EF
102
}
330
EF
100
AcDbVisualStyle
  2
Linepattern
 70
    14
 71
     2
 72
     2
 73
     1
 90
        0
 40
-0.6
 41
-30.0
 62
     5
 63
     7
 74
     1
 91
        4
 64
     7
 65
   257
 75
     7
175
     7
 42
1.0
 92
        8
 66
     7
 43
1.0
 76
     1
 77
     6
 78
     2
 67
     7
 79
     5
170
     0
171
     0
290
     0
174
     0
 93
        1
 44
0.0
173
     0
291
     1
 45
0.0
1001
ACAD
1000
AcDbSavedByObjectVersion
1070
     0
  0
VISUALSTYLE
  5
1E5
102
{ACAD_XDICTIONARY
360
39C65
102
}
102
{ACAD_REACTORS
330
EF
102
}
330
EF
100
AcDbVisualStyle
  2
OverhangOff
 70
    21
 71
     2
 72
     2
 73
     0
 90
        0
 40
-0.6
 41
-30.0
 62
     5
 63
     7
 74
     1
 91
        4
 64
     7
 65
   257
 75
     1
175
     1
 42
1.0
 92
        9
 66
     7
 43
1.0
 76
     1
 77
     6
 78
     2
 67
     7
 79
     5
170
     0
171
     0
290
     0
174
     0
 93
        1
 44
0.0
173
     0
291
     1
 45
0.0
1001
ACAD
1000
AcDbSavedByObjectVersion
1070
     0
  0
VISUALSTYLE
  5
F9
102
{ACAD_XDICTIONARY
360
39C53
102
}
102
{ACAD_REACTORS
330
EF
102
}
330
EF
100
AcDbVisualStyle
  2
Realistic
 70
     8
 71
     2
 72
     2
 73
     0
 90
        2
 40
-0.6
 41
30.0
 62
     5
 63
     7
 74
     0
 91
        0
 64
     7
 65
   257
 75
     1
175
     1
 42
1.0
 92
        8
 66
   257
 43
1.0
 76
     1
 77
     6
 78
     2
 67
     7
 79
     3
170
     0
171
     0
290
     0
174
     0
 93
       13
 44
0.0
173
     0
291
     0
 45
0.0
1001
ACAD
1000
AcDbSavedByObjectVersion
1070
     0
  0
VISUALSTYLE
  5
1F3
102
{ACAD_XDICTIONARY
360
39C71
102
}
102
{ACAD_REACTORS
330
EF
102
}
330
EF
100
AcDbVisualStyle
  2
Shaded
 70
    27
 71
     2
 72
     2
 73
     1
 90
        2
 40
-0.6
 41
30.0
 62
     5
 63
     7
 74
     0
 91
        4
 64
     7
 65
   257
 75
     1
175
     1
 42
1.0
 92
        8
 66
   257
 43
1.0
 76
     1
 77
     6
 78
     2
 67
     8
 79
     3
170
     0
171
     0
290
     0
174
     0
 93
        5
 44
0.0
173
     0
291
     0
 45
0.0
1001
ACAD
1000
AcDbSavedByObjectVersion
1070
     0
  0
VISUALSTYLE
  5
1F2
102
{ACAD_XDICTIONARY
360
39C6F
102
}
102
{ACAD_REACTORS
330
EF
102
}
330
EF
100
AcDbVisualStyle
  2
Shaded with edges
 70
    26
 71
     2
 72
     2
 73
     1
 90
        2
 40
-0.6
 41
30.0
 62
     5
 63
     7
 74
     1
 91
        2
 64
     7
 65
   257
 75
     2
175
     1
 42
1.0
 92
        8
 66
   257
 43
1.0
 76
     1
 77
     6
 78
     2
 67
     7
 79
     3
170
     0
171
     0
290
     0
174
     0
 93
        5
 44
0.0
173
     0
291
     0
 45
0.0
1001
ACAD
1000
AcDbSavedByObjectVersion
1070
     0
  0
VISUALSTYLE
  5
1EF
102
{ACAD_XDICTIONARY
360
39C69
102
}
102
{ACAD_REACTORS
330
EF
102
}
330
EF
100
AcDbVisualStyle
  2
Shades of Gray
 70
    23
 71
     2
 72
     2
 73
     3
 90
        0
 40
-0.6
 41
-30.0
 62
     5
 63
     7
 74
     2
 91
        2
 64
     7
 65
     7
 75
     1
175
     1
 42
40.0
 92
        8
 66
     7
 43
1.0
 76
     1
 77
     6
 78
     2
 67
     7
 79
     3
170
     0
171
     0
290
     0
174
     0
 93
        1
 44
0.0
173
     0
291
     0
 45
0.0
1001
ACAD
1000
AcDbSavedByObjectVersion
1070
     0
  0
VISUALSTYLE
  5
1F0
102
{ACAD_XDICTIONARY
360
39C6B
102
}
102
{ACAD_REACTORS
330
EF
102
}
330
EF
100
AcDbVisualStyle
  2
Sketchy
 70
    24
 71
     1
 72
     2
 73
     2
 90
        0
 40
-0.6
 41
-30.0
 62
     5
 63
     7
 74
     2
 91
        2
 64
     7
 65
     7
 75
     1
175
     1
 42
40.0
 92
       11
 66
     7
 43
1.0
 76
     1
 77
     6
 78
     2
 67
     7
 79
     6
170
     0
171
     0
290
     0
174
     0
 93
        1
 44
0.0
173
     0
291
     0
 45
0.0
1001
ACAD
1000
AcDbSavedByObjectVersion
1070
     0
  0
VISUALSTYLE
  5
FC
102
{ACAD_XDICTIONARY
360
39C59
102
}
102
{ACAD_REACTORS
330
EF
102
}
330
EF
100
AcDbVisualStyle
  2
Thicken
 70
    13
 71
     2
 72
     2
 73
     1
 90
        0
 40
-0.6
 41
-30.0
 62
     5
 63
     7
 74
     1
 91
        4
 64
     7
 65
   257
 75
     1
175
     1
 42
1.0
 92
       12
 66
     7
 43
1.0
 76
     1
 77
     6
 78
     2
 67
     7
 79
     5
170
     0
171
     0
290
     0
174
     0
 93
        1
 44
0.0
173
     0
291
     1
 45
0.0
1001
ACAD
1000
AcDbSavedByObjectVersion
1070
     0
  0
VISUALSTYLE
  5
F6
102
{ACAD_XDICTIONARY
360
39C4D
102
}
102
{ACAD_REACTORS
330
EF
102
}
330
EF
100
AcDbVisualStyle
  2
Wireframe
 70
     5
 71
     0
 72
     2
 73
     0
 90
        0
 40
-0.6
 41
-30.0
 62
     5
 63
     7
 74
     1
 91
        4
 64
     7
 65
   257
 75
     1
175
     1
 42
1.0
 92
        0
 66
   257
 43
1.0
 76
     1
 77
     6
 78
     2
 67
     7
 79
     3
170
     0
171
     0
290
     0
174
     0
 93
        1
 44
0.0
173
     0
291
     0
 45
0.0
1001
ACAD
1000
AcDbSavedByObjectVersion
1070
     0
  0
VISUALSTYLE
  5
1F1
102
{ACAD_XDICTIONARY
360
39C6D
102
}
102
{ACAD_REACTORS
330
EF
102
}
330
EF
100
AcDbVisualStyle
  2
X-Ray
 70
    25
 71
     2
 72
     2
 73
     1
 90
        1
 40
0.5
 41
-30.0
 62
     5
 63
     7
 74
     1
 91
        0
 64
     7
 65
   257
 75
     1
175
     1
 42
1.0
 92
        8
 66
     7
 43
1.0
 76
     1
 77
     6
 78
     2
 67
     7
 79
     3
170
     0
171
     0
290
     0
174
     0
 93
       13
 44
0.0
173
     0
291
     0
 45
0.0
1001
ACAD
1000
AcDbSavedByObjectVersion
1070
     0
  0
DICTIONARYVAR
  5
146
102
{ACAD_REACTORS
330
5E
102
}
330
5E
100
DictionaryVariables
280
     0
  1
1:1
  0
DICTIONARYVAR
  5
259
102
{ACAD_REACTORS
330
5E
102
}
330
5E
100
DictionaryVariables
280
     0
  1
3.500000
  0
DICTIONARYVAR
  5
25A
102
{ACAD_REACTORS
330
5E
102
}
330
5E
100
DictionaryVariables
280
     0
  1
acadiso.lin
  0
DICTIONARYVAR
  5
145
102
{ACAD_REACTORS
330
5E
102
}
330
5E
100
DictionaryVariables
280
     0
  1
STANDARD
  0
DICTIONARYVAR
  5
84
102
{ACAD_REACTORS
330
5E
102
}
330
5E
100
DictionaryVariables
280
     0
  1
STANDARD
  0
DICTIONARYVAR
  5
227
102
{ACAD_REACTORS
330
5E
102
}
330
5E
100
DictionaryVariables
280
     0
  1
Metric50
  0
DICTIONARYVAR
  5
228
102
{ACAD_REACTORS
330
5E
102
}
330
5E
100
DictionaryVariables
280
     0
  1
Metric50
  0
DICTIONARYVAR
  5
5F
102
{ACAD_REACTORS
330
5E
102
}
330
5E
100
DictionaryVariables
280
     0
  1
2
  0
DICTIONARYVAR
  5
63
102
{ACAD_REACTORS
330
5E
102
}
330
5E
100
DictionaryVariables
280
     0
  1
1
  0
DICTIONARYVAR
  5
39BE2
102
{ACAD_REACTORS
330
5E
102
}
330
5E
100
DictionaryVariables
280
     0
  1
0
  0
DICTIONARYVAR
  5
1AE
102
{ACAD_REACTORS
330
5E
102
}
330
5E
100
DictionaryVariables
280
     0
  1
0
  0
DICTIONARYVAR
  5
1AF
102
{ACAD_REACTORS
330
5E
102
}
330
5E
100
DictionaryVariables
280
     0
  1
0
  0
DICTIONARYVAR
  5
39BE0
102
{ACAD_REACTORS
330
5E
102
}
330
5E
100
DictionaryVariables
280
     0
  1
2
  0
DICTIONARYVAR
  5
39BDF
102
{ACAD_REACTORS
330
5E
102
}
330
5E
100
DictionaryVariables
280
     0
  1
1
  0
DICTIONARYVAR
  5
39C32
102
{ACAD_REACTORS
330
5E
102
}
330
5E
100
DictionaryVariables
280
     0
  1
80.000000
  0
DICTIONARYVAR
  5
39C31
102
{ACAD_REACTORS
330
5E
102
}
330
5E
100
DictionaryVariables
280
     0
  1
5.000000
  0
DICTIONARYVAR
  5
39BE1
102
{ACAD_REACTORS
330
5E
102
}
330
5E
100
DictionaryVariables
280
     0
  1
127
  0
DICTIONARYVAR
  5
39C33
102
{ACAD_REACTORS
330
5E
102
}
330
5E
100
DictionaryVariables
280
     0
  1
2
  0
DICTIONARY
  5
39C75
330
21C
100
AcDbDictionary
280
     1
281
     1
  3
ACAD_XREC_ROUNDTRIP
360
39C76
  0
DICTIONARY
  5
39C3A
330
D3
100
AcDbDictionary
280
     1
281
     1
  3
ACAD_XREC_ROUNDTRIP
360
39C3B
  0
DICTIONARY
  5
39C3C
330
D7
100
AcDbDictionary
280
     1
281
     1
  3
ACAD_XREC_ROUNDTRIP
360
39C3D
  0
DICTIONARY
  5
39C37
330
22
100
AcDbDictionary
280
     1
281
     1
  3
ACAD_XREC_ROUNDTRIP
360
39C38
  0
DICTIONARY
  5
1F9
330
ED
100
AcDbDictionary
280
     1
281
     1
  3
ACAD_XREC_ROUNDTRIP
360
39C3F
  3
FBXASSET
360
1FA
  0
DICTIONARY
  5
1F7
330
EC
100
AcDbDictionary
280
     1
281
     1
  3
ACAD_XREC_ROUNDTRIP
360
39C3E
  3
FBXASSET
360
1F8
  0
DICTIONARY
  5
173
330
EE
100
AcDbDictionary
280
     1
281
     1
  3
ACAD_XREC_ROUNDTRIP
360
39C40
  3
BUMPTILE
360
175
  3
DIFFUSETILE
360
174
  3
FBXASSET
360
1FB
  3
OPACITYTILE
360
176
  3
REFLECTIONTILE
360
177
  0
DICTIONARY
  5
39C61
330
12E
100
AcDbDictionary
280
     1
281
     1
  3
ACAD_XREC_ROUNDTRIP
360
39C62
  0
DICTIONARY
  5
39C73
330
21A
100
AcDbDictionary
280
     1
281
     1
  3
ACAD_XREC_ROUNDTRIP
360
39C74
  0
DICTIONARY
  5
162
330
7F
100
AcDbDictionary
280
     1
281
     1
  3
ACAD_ROUNDTRIP_2008_TABLESTYLE_CELLSTYLEMAP
360
39C34
  3
ACAD_XREC_ROUNDTRIP
360
39C39
  0
DICTIONARY
  5
39C4B
330
F5
100
AcDbDictionary
280
     1
281
     1
  3
ACAD_XREC_ROUNDTRIP
360
39C4C
  0
DICTIONARY
  5
39C49
330
F4
100
AcDbDictionary
280
     1
281
     1
  3
ACAD_XREC_ROUNDTRIP
360
39C4A
  0
DICTIONARY
  5
39C57
330
FB
100
AcDbDictionary
280
     1
281
     1
  3
ACAD_XREC_ROUNDTRIP
360
39C58
  0
DICTIONARY
  5
39C5F
330
FF
100
AcDbDictionary
280
     1
281
     1
  3
ACAD_XREC_ROUNDTRIP
360
39C60
  0
DICTIONARY
  5
39C51
330
F8
100
AcDbDictionary
280
     1
281
     1
  3
ACAD_XREC_ROUNDTRIP
360
39C52
  0
DICTIONARY
  5
39C55
330
FA
100
AcDbDictionary
280
     1
281
     1
  3
ACAD_XREC_ROUNDTRIP
360
39C56
  0
DICTIONARY
  5
39C67
330
1E6
100
AcDbDictionary
280
     1
281
     1
  3
ACAD_XREC_ROUNDTRIP
360
39C68
  0
DICTIONARY
  5
39C5D
330
FE
100
AcDbDictionary
280
     1
281
     1
  3
ACAD_XREC_ROUNDTRIP
360
39C5E
  0
DICTIONARY
  5
39C41
330
F0
100
AcDbDictionary
280
     1
281
     1
  3
ACAD_XREC_ROUNDTRIP
360
39C42
  0
DICTIONARY
  5
39C43
330
F1
100
AcDbDictionary
280
     1
281
     1
  3
ACAD_XREC_ROUNDTRIP
360
39C44
  0
DICTIONARY
  5
39C45
330
F2
100
AcDbDictionary
280
     1
281
     1
  3
ACAD_XREC_ROUNDTRIP
360
39C46
  0
DICTIONARY
  5
39C47
330
F3
100
AcDbDictionary
280
     1
281
     1
  3
ACAD_XREC_ROUNDTRIP
360
39C48
  0
DICTIONARY
  5
39C4F
330
F7
100
AcDbDictionary
280
     1
281
     1
  3
ACAD_XREC_ROUNDTRIP
360
39C50
  0
DICTIONARY
  5
39C63
330
1E4
100
AcDbDictionary
280
     1
281
     1
  3
ACAD_XREC_ROUNDTRIP
360
39C64
  0
DICTIONARY
  5
39C5B
330
FD
100
AcDbDictionary
280
     1
281
     1
  3
ACAD_XREC_ROUNDTRIP
360
39C5C
  0
DICTIONARY
  5
39C65
330
1E5
100
AcDbDictionary
280
     1
281
     1
  3
ACAD_XREC_ROUNDTRIP
360
39C66
  0
DICTIONARY
  5
39C53
330
F9
100
AcDbDictionary
280
     1
281
     1
  3
ACAD_XREC_ROUNDTRIP
360
39C54
  0
DICTIONARY
  5
39C71
330
1F3
100
AcDbDictionary
280
     1
281
     1
  3
ACAD_XREC_ROUNDTRIP
360
39C72
  0
DICTIONARY
  5
39C6F
330
1F2
100
AcDbDictionary
280
     1
281
     1
  3
ACAD_XREC_ROUNDTRIP
360
39C70
  0
DICTIONARY
  5
39C69
330
1EF
100
AcDbDictionary
280
     1
281
     1
  3
ACAD_XREC_ROUNDTRIP
360
39C6A
  0
DICTIONARY
  5
39C6B
330
1F0
100
AcDbDictionary
280
     1
281
     1
  3
ACAD_XREC_ROUNDTRIP
360
39C6C
  0
DICTIONARY
  5
39C59
330
FC
100
AcDbDictionary
280
     1
281
     1
  3
ACAD_XREC_ROUNDTRIP
360
39C5A
  0
DICTIONARY
  5
39C4D
330
F6
100
AcDbDictionary
280
     1
281
     1
  3
ACAD_XREC_ROUNDTRIP
360
39C4E
  0
DICTIONARY
  5
39C6D
330
1F1
100
AcDbDictionary
280
     1
281
     1
  3
ACAD_XREC_ROUNDTRIP
360
39C6E
  0
XRECORD
  5
39C76
102
{ACAD_REACTORS
330
39C75
102
}
330
39C75
100
AcDbXrecord
280
     1
102
DISPLAYNAME
  1
Metric50
102
FLAGS
 90
        0
  0
XRECORD
  5
39C3B
102
{ACAD_REACTORS
330
39C3A
102
}
330
39C3A
100
AcDbXrecord
280
     1
102
SHADEPLOT
 70
     0
102
SHADEPLOTRESLEVEL
 70
     2
102
SHADEPLOTCUSTOMDPI
 70
   300
  0
XRECORD
  5
39C3D
102
{ACAD_REACTORS
330
39C3C
102
}
330
39C3C
100
AcDbXrecord
280
     1
102
SHADEPLOT
 70
     0
102
SHADEPLOTRESLEVEL
 70
     2
102
SHADEPLOTCUSTOMDPI
 70
   300
  0
XRECORD
  5
39C38
102
{ACAD_REACTORS
330
39C37
102
}
330
39C37
100
AcDbXrecord
280
     1
102
SHADEPLOT
 70
     0
102
SHADEPLOTRESLEVEL
 70
     2
102
SHADEPLOTCUSTOMDPI
 70
   300
  0
XRECORD
  5
39C3F
102
{ACAD_REACTORS
330
1F9
102
}
330
1F9
100
AcDbXrecord
280
     1
102
MATERIAL
148
0.0
149
0.0
149
0.0
 93
        0
 94
       63
282
     0
 72
     1
 77
     1
171
     1
175
     1
179
     1
273
     0
  0
XRECORD
  5
1FA
102
{ACAD_REACTORS
330
1F9
102
}
330
1F9
100
AcDbXrecord
280
     1
 70
     1
 90
429727718
  1
D62C5603-E3A1-4AEA-B7FB-FE5D8D0755AF
310
504B03040A0000080000CC70623B3DEE336E79000000790000001B0000006175746F6465736B2D64657369676E2D7061636B6167652E786D6C3C3F786D6C2076657273696F6E3D22312E302220656E636F64696E673D227574662D3822203F3E3C666F726D6174733E3C666F726D61743E687474703A2F2F736368656D612E
310
6175746F6465736B2E636F6D2F64657369676E2D7061636B6167652F323030393C2F666F726D61743E3C2F666F726D6174733E504B0304140006080800CC70623BD486FD9CA0000000F4000000130000005B436F6E74656E745F54797065735D2E786D6C7D8EC10E82300C865F65E91D8A1E8C310C0EEA1BF002731658846E
310
D98AC1B77784ABF1D8FE5FBFBF75BBCE937A534CCEB38643598122B6FEE978D0B0485F9C41B54DDD7D022595594E1A469170414C76A4D9A4D207E29CF43ECE46F218070CC6BECC4078ACAA135ACF422C856C0E68EA1BF5669944DDD7BCDE7B1F8E415D77AECB980613C2E4AC91FC167A2B244592486606FC29C8FD7F045B9A
310
EF7053A7E60B504B0304140006080800CC70623B853B8169EB0000007C01000008000000636F72652E786D6C8D90416EC3201045AF62CDB6C206821CC7C244919D9CA01740401C94182C03558F5F9C3852BBEB6A467FFE9B197D7EFC9E1EC5975982F5AE035262288C535E5B377690E21535501C055FBC8FBF6C503839990E
310
5619041F179FE64D52DE45E362569DD7661365082642A11EB9E920A89B99642953CC8E702F67A9EE7234257977194EC9EAE275C4EABCCF5EAD5940D4AC6F0E35A568B8F43562CD7046CD199FD07E60174276A7BE677B5EADB0E0D14EEFFB6A31321A0D82627C4084204C3F096B71DD52F6819B16635EADF63F509AF53FA164
310
5DDCD1EDDD17164090FCC8732078B56691CB33A85CD7DCC40F504B0304140006080800CC70623B55019EA25F0000007C00000007000000636E782E786D6C4DCB3B0E80201045D1AD90E915ED2CF8AC45050C11660C8261F98AB1B07AC9C97D42D718D865D3E909258CFD00CCE24AC6E326A164D74DC0B4128928FF32603847
310
2BA13128B1252AC747C6BAB984FC68F0B87FE8960A5C09FE86CFB69FBA01504B0304140006080800CC70623BDBABAAF470010000D40300000C0000006662782F636F72652E786D6CC553D16E823014FD95A6AF4B694182CC941A83FA05FB810A9511A125A5257EFE2E82712ECEB8A7F100CD39F7F69E734AF9FADC366850B6
310
AF8DCE7018308C942E4C59EB2AC3DE1D498AD15A706B8CFB56869196ADCAF00863C12B6B7C374385D14E6907A836A59A41D9F7CA615434B0C8705F7CAA5606D23BA8E84F41278B93AC54100640439DE0BDB320004D43C63716C7C399D30917DCFBBA9CD9BA8469F5B156168B24CED3F7248AC8769F27244EB73B92EED8862C
310
B7F13E0C179B3C8F979C8ECD82BBBABDAA2BAC924E9558448CBD9330242CFA08E3154B5651FCC6D215639C8EE5774DBE2B5F6CF2B5768B68963BB5F5588420E442FC700B1139D4CB01F450C1E918227C2E09DF070D8140C84E1E9AAB8F1340832A9CB13130A5F1376A908D57309505ECF2A0DF179C4E9D30F5B239B87E3823
310
7A79C6F31DE1A8A5AEC08474B03C7837EAE4938639B44E5932B833D2C6B6B279CDC613877FA26EE21F4A2A4C63EC7F29A2F301D1F9F7A0E37D145F504B0304140006080800CC70623B9C113CC27E0000009D0000000B0000006662782F636E782E786D6C4DCCDF0A83201C86E15B91DFB94BFB330DD428C8FB886521330DA7
310
6397BF1A1DECE883878F57749FCDA1B7892F1BBC047A23808C7F84D9FA55424E0BE6803A256208E9EF06C84F9B91703228B1C690F78B66B34CD9A5439DF5CF0BFBF65E35BCA1B8D6A5C6F540381E886698B5741C695F9503EBA150A2F8958E3DC3EA0B504B0304140006080800CC70623B7DF2F77C2A010000120200003100
310
00006662782F41393633353835312D344632462D344230382D423046372D3739314545314133324237412F636F72652E786D6C8D51DB8EC22014FC15C2939B0D2DB4B45643319AE817EC0F6041255A68B86CFCFC856D4D76DF7CE190393373060EDB3DC707F856CE6B6B7A480A0C81328395DA5C7B18C3057510EC3873D686
310
3F34088C18550F330C39BB3A1BA7051AAC09CA84841A2BD5020AEF55806078A44B0FFD7053A328440C89E1EFC52486BBB8AA8214A99D789CF9E05200300FC927E4FB4D5B375D43103D5527440FB843077C5AA3F5861C8F645F5787F59E95B390B318B55CE45AA638FAA2957BD7248B390B7A7CC51F9C124149C82B8C378810
310
84AB2F42B7B8DD56F413775B8C5999E9FF4471926F8AA236A1AE96B8B3CC434E5839373893369E1FAF30EA395917409EB7F26AF8801C171837A4A6AC9C89E9F9C9B1A58BA30FD6A5EF5DDDCF894B9AD9B6A59C957943A9FCAE2FD5BC4DFE03504B0304140006080800CC70623BAD7543B64E01000033030000300000006662
310
782F41393633353835312D344632462D344230382D423046372D3739314545314133324237412F636E782E786D6CD593CD6EC32010845F0571AD6CE3D48AD20813A9873E410FBD12D82434182C7EAAE6EDBB2424CD25871E7B41D6EC30B3FA84F9E67BB2E40B4234DE8DB46F1925E094D7C6ED479AD3AE5951B2113C789FEE
310
6C943839C1488B4C05DF079FE72A69D8C96C13AAD6B8631503449F83828872B949AC57D26200B826A308D316B4064D6E46FCDA41C05550DC9E483A00797BFD207EFB092A45DE9514C1BBD22178396BD39D891265658C238DEA00936C654E5E433CB65A26D9F6EDB5EBC14EBF49A45CB856E66048291F6939A9A81BB5C89177
310
38143CA680F4AA299D66A042CEB3354A2684DC9D8D178FE0D9B8B41CAAD720F880EE7EF93C0C18769E099ECC04D5A102C8049A8A05632F4DDF376CF1DE0F6BB65C2F8627B65A33C6BB62177CEBBDAD973006829F89F22E814B54F4BC2BE347F8AA8F681390B50FA73F804400B5F542E796F19FF974E7F78DB802FE05E20750
310
4B0304140006080800CC70623BE75B7789680500003C100000340000006662782F41393633353835312D344632462D344230382D423046372D3739314545314133324237412F6F626A656374732E786D6CAD575B8F9B3818FD2B887D06C22499CB8AA1CA655245D5B455A356FB305264C061D8018C6C3393D95FBFC7600890
310
A4CD5EF210B0B1BFEBF98E3F7B1FF6596ABC522E1296DF9BAE3D320D9A872C4AF2F8DE2CE5CEBA358D0FBEC719939D65A691938CDE9B6ADAF4BD98B3B2D05311DD91329583D9D5FC0F438434A7A611A644887B5384CF34233629258BA878B12322891DEFF6B66BD70BFB62634E8AE781D082709A4B588AF91C528CDA28B73F
310
1C998EEF39EABBEFA97FBD6A7C7E9553F9D3D79FE442923C3C523610337627CB87ABE99D359D4CC6D6E4FACAB5E6ABF9D2726FC6A3C5F56271377BB88362213924694B38DD99FE47C48627A1E7D49F5A8BB5E1A74C0A599ED3B0F21F1E56366B89112D681E218F0915D0D6F17AD41FBA2A369DCF6335D62ABBD39779D5DDD1
310
11D4D8DE3CBB96B2E04FB8202E41051754A1AA8E8F76B4C6DFE810B580B1547F4B84911149794252234D024EF8BBE963A95AE27B3D310A9D5C215C7960FAEE415ED75694C6AFB17BCACA5D99A60A9AA65F217B0BFC53292ACB92BF283FAD0D3621576592CB5BED907C2FA8E9DF794E35E97BEA31BED21FEB401ABB94C44839
310
DCACBF0E1C5DA8DA5B2F4DFFD32AD86F543D9E565E7056502E157C00AD2671CD534549AB752FCA9CDA00677A313F04E51B22FF19E57B300579E3C97EB29F682D92935CEC18CF901B7B54FD8C51F362B56FC72FE0B3C1EAE335EDCCBF5AEC39ADB17DC238973F804BA5E6F6BFE7AF1FB32E523BE9F3BD571418E3631DCA4D48
310
5250CF639223210A9446CA30052EDF057BD35F8329C1ECD84552BF0DC8D18BE7BCE23BFE6BD960AB4A7DE79923A103BEBD80F911CBAA2C60DB19B01CF164A5583B772EE6D3FFA56666CBCDA74DC97724A48F9A58967497E489C4D979006FD7A05E227A1EBDD0F737C623387A9C844D3709995625106D157315F8B8392CD4E0
310
A0B9A720C4BE9829CEF37EA1E13111214D53925356365ADA634861B52519DD27A00AEB808EAF0628E6F435519D446F45CF2C9CF5214F0A15B2F6D06B79DA3EE3CBF7F56780D2F4E7EF73A0F5E5B02A38D07DC852C6B7C1FBB6664213E0C39E3EBA7FF4E1AD23EA2829407C85E586727488B751B2DB9502BC7B228A3FD68B6E
310
A65A22397E690AA8D158D7E404EC8CDA235CC3B7D1898680131CEC2CDF2638C65196279577750F15884AEE19F94199155B92B13297978469D4F8D358DF0AEF7631E28DC8F0D9F437D5D39A83B2231A1D52D543813A824EF8D44BCFF2FA6A31BD1E8DAD87F1CCB526B3879935BF59CDADD5C37479BB1CDD4CA7B3556B516589
310
EF352754B706114D9C885EC9131DE6EFEB43D99AFE2391C2F958179413D7CFEF6B1B6DB1E7600F00DE6E5C67454A339A4BA2E0FBA85ED26F045D454F463DBFCE484C2F90F2E5E3666003662ED8F755951A7D1BECD5B30B550B2785C8E7320B7292A4838DDA71BBC863ED7613CAF659337A3354231D4FF4A182A54904C2898C
310
98B28C4AD0CE056CCF332A80986E571EE9DBC305BB5FEB7E509220A58D25CF042D712A806AC0AD0C657FDEF80D2D9CEAA2EE4D1C76F60BFE74219A06527D6F82DF6412526107381E55E353090704D085B52408A8913C4ED159D79BDA71BB4BC506F4831350EB6F975CD22D69BF7AC49B91A2C0A9DDA3D5CA36AD20FC478E37
310
E61844E2352865EBCB61A275A65283CAAA9DD27703B4102F5AF51EF5F573B75CBB5AD38BC845F7A49F82A0966A49C2E3EA5EA0ECD326CD965F1DB402C6FA8B51A4658C5C5E2EC9E214602E55810345408596591009A82E7E7FFACA19EEA299B14A0081A705CB3296EBC14CDF658DCD336EA6D1136881AAEB87B81AB9EE53D5
310
F5EB8BC8362082DA24122F98680A4E7930C01A0079749CEA14382A0783E5EBA5A10F8C098456A03D6A4AEB6BB881E2513747552A5DB22C7EDAF83BD5528081A365F7FF06504B0304140006080000CC70623B000000000000000000000000350000006662782F41393633353835312D344632462D344230382D423046372D37
310
39314545314133324237412F76657274696365732E62696E504B0304140006080800CC70623BF270F1330600000004000000360000006662782F41393633353835312D344632462D344230382D423046372D3739314545314133324237412F747269616E676C65732E62696E636660600000504B0304140006080000CC7062
310
3B000000000000000000000000370000006662782F41393633353835312D344632462D344230382D423046372D3739314545314133324237412F617474726962757465732E62696E504B0304140006080800CC70623B08DA0BD19000000041010000360000006662782F41393633353835312D344632462D344230382D4230
310
46372D3739314545314133324237412F6469726563746F72792E786D6C858F410AC3201045AF22B36F53E9A60B35CBEEBAE80D244E44489C6234F4F835464A48035D0DF398FF9F8AF63D0E6CC63039F212F8F9020C7D47C6792B21C5FE7403D62A1188E2E60C98D7234A5830286103A55745067B9D86B8A3CF9C7F90C11DE6
310
07FB144396D7B6A82D282E9A152AD114D5EF2CB866EEE831B8EEA07A7BB5A8D7D61A2BAAEB7FD5F70921FF497D00504B0304140006080800CC70623BEDD1DC58FD000000A00100003B0000006662782F41393633353835312D344632462D344230382D423046372D3739314545314133324237412F7265736F75726365732F
310
636F72652E786D6C8D504B6E833010BD0A9A6D65B00922041947112427E8052C33A156828DFCA97AFC9A40A576D7CDCCE87D344F8F9FBFE667F689CE6B6B3A6039850C8DB2A336530731DC4903D95970676DF82583CCC8193B5861107C72362E3BA4AC096842428D1D7107A5F7182053CF7474E0D507CE32973124857FE48B
310
540F3961CEF244279DE03EB81420DB9EAC1384436FA353E879B1B182C7A8C75DA3C7F453DF353A1075D537A7BA6464B8F535A99AE14A9A2BBD90E350DD183B5CFABE3AF262350B1EF4FC9351399401471025A527C218A1E53BAB5A5AB765F5469B96525EACF23FA6B88CFF34456DC2A1DCE36E360F82A5202F42F062ED2BAD
310
579969AFDD8A6F504B010214000A0000080000CC70623B3DEE336E79000000790000001B00000000000000000000000000000000006175746F6465736B2D64657369676E2D7061636B6167652E786D6C504B01021400140006080800CC70623BD486FD9CA0000000F40000001300000000000000000000000000B20000005B
310
436F6E74656E745F54797065735D2E786D6C504B01021400140006080800CC70623B853B8169EB0000007C010000080000000000000000000000000083010000636F72652E786D6C504B01021400140006080800CC70623B55019EA25F0000007C000000070000000000000000000000000094020000636E782E786D6C504B
310
01021400140006080800CC70623BDBABAAF470010000D40300000C00000000000000000000000000180300006662782F636F72652E786D6C504B01021400140006080800CC70623B9C113CC27E0000009D0000000B00000000000000000000000000B20400006662782F636E782E786D6C504B01021400140006080800CC70
310
623B7DF2F77C2A010000120200003100000000000000000000000000590500006662782F41393633353835312D344632462D344230382D423046372D3739314545314133324237412F636F72652E786D6C504B01021400140006080800CC70623BAD7543B64E010000330300003000000000000000000000000000D2060000
310
6662782F41393633353835312D344632462D344230382D423046372D3739314545314133324237412F636E782E786D6C504B01021400140006080800CC70623BE75B7789680500003C10000034000000000000000000000000006E0800006662782F41393633353835312D344632462D344230382D423046372D3739314545
310
314133324237412F6F626A656374732E786D6C504B01021400140006080000CC70623B0000000000000000000000003500000000000000000000000000280E00006662782F41393633353835312D344632462D344230382D423046372D3739314545314133324237412F76657274696365732E62696E504B01021400140006
310
080800CC70623BF270F133060000000400000036000000000000000000000000007B0E00006662782F41393633353835312D344632462D344230382D423046372D3739314545314133324237412F747269616E676C65732E62696E504B01021400140006080000CC70623B0000000000000000000000003700000000000000
310
000000000000D50E00006662782F41393633353835312D344632462D344230382D423046372D3739314545314133324237412F617474726962757465732E62696E504B01021400140006080800CC70623B08DA0BD1900000004101000036000000000000000000000000002A0F00006662782F41393633353835312D344632
310
462D344230382D423046372D3739314545314133324237412F6469726563746F72792E786D6C504B01021400140006080800CC70623BEDD1DC58FD000000A00100003B000000000000000000000000000E1000006662782F41393633353835312D344632462D344230382D423046372D3739314545314133324237412F7265
310
736F75726365732F636F72652E786D6C504B0506000000000E000E0080040000641100000000
  0
XRECORD
  5
39C3E
102
{ACAD_REACTORS
330
1F7
102
}
330
1F7
100
AcDbXrecord
280
     1
102
MATERIAL
148
0.0
149
0.0
149
0.0
 93
        0
 94
       63
282
     0
 72
     1
 77
     1
171
     1
175
     1
179
     1
273
     0
  0
XRECORD
  5
1F8
102
{ACAD_REACTORS
330
1F7
102
}
330
1F7
100
AcDbXrecord
280
     1
 70
     1
 90
429727718
  1
30362254-06B7-45E0-A893-8CFA70E3D6BC
310
504B03040A0000080000CC70623B3DEE336E79000000790000001B0000006175746F6465736B2D64657369676E2D7061636B6167652E786D6C3C3F786D6C2076657273696F6E3D22312E302220656E636F64696E673D227574662D3822203F3E3C666F726D6174733E3C666F726D61743E687474703A2F2F736368656D612E
310
6175746F6465736B2E636F6D2F64657369676E2D7061636B6167652F323030393C2F666F726D61743E3C2F666F726D6174733E504B0304140006080800CC70623BD486FD9CA0000000F4000000130000005B436F6E74656E745F54797065735D2E786D6C7D8EC10E82300C865F65E91D8A1E8C310C0EEA1BF002731658846E
310
D98AC1B77784ABF1D8FE5FBFBF75BBCE937A534CCEB38643598122B6FEE978D0B0485F9C41B54DDD7D022595594E1A469170414C76A4D9A4D207E29CF43ECE46F218070CC6BECC4078ACAA135ACF422C856C0E68EA1BF5669944DDD7BCDE7B1F8E415D77AECB980613C2E4AC91FC167A2B244592486606FC29C8FD7F045B9A
310
EF7053A7E60B504B0304140006080800CC70623B1EC5D7A3EB0000007C01000008000000636F72652E786D6C8D90416EC3201045AF82665B6103C6756C6122AB4D4ED00B204C5C94182C03558F5F9C3852BBEB6A467FFE9B197D71FC9E6FE8CBACC17AD7032D0820E3B41FAD9B7A48F1820F808E52ACDEC75F36404ECDA687
310
4D0629A6D5A76597B477D1B89855E747B38B2A041301E95B6E7A08FAD3CCAA50296647B8168BD2573599823EBB0CA76447F43862C7BCCF5EAC59410E4DDD9C7973C2755553CCCFA4C603E3040F1565ED3B1FDE4E432BCA0D9622DAF9795FAF464533826484B498524CD807E51D79ED187F21878E10516EF63F505AC67F42C9
310
BA58B1FDDD071640D2FCC87D2045B96591CB3DA85CB7DCE40F504B0304140006080800CC70623B55019EA25F0000007C00000007000000636E782E786D6C4DCB3B0E80201045D1AD90E915ED2CF8AC45050C11660C8261F98AB1B07AC9C97D42D718D865D3E909258CFD00CCE24AC6E326A164D74DC0B4128928FF32603847
310
2BA13128B1252AC747C6BAB984FC68F0B87FE8960A5C09FE86CFB69FBA01504B0304140006080800CC70623B8C9102E971010000D40300000C0000006662782F636F72652E786D6CC5535B6E833010BC8AE5DF0A6C08340F1947A84D4ED00B38C6A128602363A31CBFCB234A53A551FA553EC09AD9F5CE8C31DB9E9B1AF5CA
310
7695D1198E428A91D2D214952E33ECDD315861B4E5CC1AE3BE9561A445A3323CC098B3D21ADFCE9034DA29ED00D5A6503328BA4E398C640D8B0C77F253352214DE4145770A5B214FA2546114020D759C75CE8200340D19DE981F0F6746269C33EFAB6266AB02A655C74A59CCF365BADC27CB5D902ED22848F6340DF238A141
310
BE88E2F57B92BFEDF23523433367AE6A2EEAA455C2A902F398D2751045018D3FA264435F3771F242571B4A1919CA6F9A7C5B3CD9E42BED16F12C776AEB308F40C848FC700B1139D4891EF410CEC810227CC6846F8386402064270EF5C5C709A05E49676C024C61FC95EA45ED154CA5211D1FF4FB8291A913A68E9B83EBBB33
310
E2A7673CDE118E5AE8124C0807CB8377834E366998436B950D7A7746DAD846D4CFD978E0F04FD455FC5D49D2D4C6FE9722321F10997F0F32DC47FE05504B0304140006080800CC70623BFFEA85907E0000009D0000000B0000006662782F636E782E786D6C4DCCD10A83201886E15B91FFDC95D95A811AB6F23E625948A6C3
310
E9D8E5AF46073BFAE0E1E365ED67B3E8ADC3CB78C7815C7240DA3DFC64DCC221C519D7805AC182F7F1EF06C88D9BE6703008B6049F9E274D7A1E938DBB5AE3D6131B2589BA0D3D965551E0B2EA732C9B9A624AAEB41E3A557677029960D9AFB4EF11165F504B0304140006080800CC70623B4FEEA4082C0100001202000031
310
0000006662782F39464131463745442D413632322D343644302D413938332D3331353338454246344243312F636F72652E786D6C8D515B6EC32010BC0AE2AB55850DD871ED0813254D72825EC00192A2C460F1A872FC42ED48ED5F7E00CDCECCCEB26C731F6FE05B39AFADE921293004CA082BB5B9F43086336A21D870E6AC
310
0D7F68109861543DCC30E4ECE26C9C164858139409093556AA051CBC570102714B8F1E7AF1A5C6A11862480C7F2DA6415C878B2A4891CA89C7990F2E050073937C42DE1DB7E4F87ED8A36D4329AA9B3D46DBAEAD504556557BD81DEBDD0761E52CE42C462D17B996298E3E6BE59E35C962CE821E1FF18553435012728A7187
310
0841987E927A8D9B35ADDF70BBC6989599FE4F1427F9A4286A132ABAC49D651EF234CD5CE04CDA78BA3DC2A8FB645D00B9DF8B57E215725C60BCA2A463E54C4CE327C7A65E1C7DB02E7DEFCBF594B864C5CA6CDBD49C957943E9FA5D5FBAF336F90F504B0304140006080800CC70623BAD7543B64E01000033030000300000
310
006662782F39464131463745442D413632322D343644302D413938332D3331353338454246344243312F636E782E786D6CD593CD6EC32010845F0571AD6CE3D48AD20813A9873E410FBD12D82434182C7EAAE6EDBB2424CD25871E7B41D6EC30B3FA84F9E67BB2E40B4234DE8DB46F1925E094D7C6ED479AD3AE5951B2113C
310
789FEE6C943839C1488B4C05DF079FE72A69D8C96C13AAD6B8631503449F83828872B949AC57D26200B826A308D316B4064D6E46FCDA41C05550DC9E483A00797BFD207EFB092A45DE9514C1BBD22178396BD39D891265658C238DEA00936C654E5E433CB65A26D9F6EDB5EBC14EBF49A45CB856E66048291F6939A9A81BB5
310
C8917738143CA680F4AA299D66A042CEB3354A2684DC9D8D178FE0D9B8B41CAAD720F880EE7EF93C0C18769E099ECC04D5A102C8049A8A05632F4DDF376CF1DE0F6BB65C2F8627B65A33C6BB62177CEBBDAD973006829F89F22E814B54F4BC2BE347F8AA8F681390B50FA73F804400B5F542E796F19FF974E7F78DB802FE05
310
E207504B0304140006080800CC70623B16AB87BA640500003C100000340000006662782F39464131463745442D413632322D343644302D413938332D3331353338454246344243312F6F626A656374732E786D6CAD575B6FA33818FD2B887DE6924B3BED8A326A92B68A663B534DD4D13E548A0C38942D60649B369D5FBFC7
310
600890A493BDE42160637FD7F31D7FF63E6FB3D478A55C242CBF3247B66B1A340F5994E4F19559CA8D75611A9F7D8F33263BCB4C232719BD32D5B4E97B316765A1A722BA21652A07B3B7B33F0D11D29C9A46981221AE4C113ED38CD8A4942CA2E2C58E882476BCD9DA23BB5ED8171B73523C0F841684D35CC252CCE79062D4
310
468DFA43D7747CCF51DF7D4FFDEB5593E3AB9CCA9FBEFE241792E4E19EB28198C968BAB8199F5D5A67D3E9C49A9E8F47D6EC76B6B0469F26EEFC7C3EBFBCBEB98462213924694B38DD98FE1D62C393D073EA4FADC5DAF04326852CCF6958F90F0F2B9BB5C48816348F90C7840A68EB78EDF68723159BCEE7891A6B95DDE9D3
310
BCEAEEE8086A6C6F9E5D4B59F0175C10A7A0820BAA5055C7473B5AE3CFDD452D602CD5DF12616444529E90D448938013FE6EFA58AA96F85E4F8C42275708571E98FE6827AF6B2B4AE3D7D83D64E5A64C53054DD3AF90BD06FEA9149565C94FCA0F6B834DC85599E4F2423B24DF0B6AFA979E534DFA9E7A4CC6FA631D486393
310
921829879BF5D781A373557BCB85E97FB90DB62B558F8795179C15944B051F40AB495CF35451D26A4727654E6D8033BD98EF82F21D91FF8AF2DD9982BCF1643BDD4EB516C9492E368C67C88DED563FC36D5EACF66DFF057C3658BDBFA69DF9578B3DA735B64F18C7F20770A9D45CFCF7FCF563D6456A277DBEF78A02637CA2
310
43B90A490AEAB94F72244481D24819A6C0E59B606BFA4B3025981DBB48EAB701D97BF19C577CC77F2D1B6C55A9EF3C732474C0B727303F625995056C3B02963D9EAC146BE78EC5FCEC7FA999EBC5EACBAAE41B12D27B4D2C0BBA49F244E2ECDC81B76B502F113D8F5EE8FB1BE3111CDD4FC2AA9B844CAB1288B68AB90A7CDC
310
1C166AB0D3DC5310625FCC14E779BFD0709F8890A629C9292B1B2DED31A4B0DA928CEE135085754027E3018A397D4D5427D15BD1330B677DC8934285AC3DF45A9EB68FF8F2B8FC0A509AFEECFD0FF2DE25CC6047F7214B195F07EFEB9A094D800F7BFAE8FED187B78EA8A3A400F115961BCAD1215E47C966530AF0EE8128FE
310
58CEBB996A8964FFA529A046635D9353B0336A8F700DDF46271A024E70B0B37C9DE01847591E54DED53D54202AB947E4076556AC49C6CA5C9E1226B7F1A7B1BE15DEED62C41B91E1B3E9AFAAA735036547343A925075041DF0A9979E893B391F8FCFA6967B3EFB644DCF6E5CEBFAE272625DCC6FAF3FB93793C5F90CE1EF57
310
407342756B10D1C489E8953CD1617E5CEECAD6F4EF8914CE5D5D504E5C3F1F9736DA62CFC11E00BCDDB8CC8A9466349744C1F75EBDA4DF09BA8A9E8C7A7E9991989E20E5DBDD6A6003664ED8F7A04A8DBE0DF6EAD9B9AA858342E47399053949D2C146EDB85DE4B176BB0965FBAC19BD19AA918E27FA50C1D22402E144464C
310
59462568E704B6E71915404CB72B8FF4EDE184DDAF753F284990D2C6926782963815403548A70C657FDEF80D2D9CEAA2AE4C1C76F60BFE74219A06527D6582DF6412526107381E55E353090704D085B52408D0933C4ED159D79BDA71BB4BC506F4831350EB6F979CD22D69BF7AC49B91A2C0A9DDA3D5CA36AD20FC478E37E6
310
1844E2352865EBCB6EA275A652E3836BE04EFB400BF1A2556F515F1FBB35B2AB35BD889C744FFA1004B5544B121E57F70215746DD2F5E2C1412B602CBF19455AC6C8E5E9922C4E01E65215385004546899059180EAFCF7A707CE7017CD8CDB0410789AB32C63B91E5CEBBBACB17AC6CD347A022D5075FD106377347AAABA7E
310
7D11590744509B44E205134DC1290F06580320F78E537D3D73540E06CB970B431F185308AD40BBD794D6D77003C5A36E8EAA54BA64597CD8F83BD552A080A365F7FF06504B0304140006080000CC70623B000000000000000000000000350000006662782F39464131463745442D413632322D343644302D413938332D3331
310
353338454246344243312F76657274696365732E62696E504B0304140006080800CC70623BF270F1330600000004000000360000006662782F39464131463745442D413632322D343644302D413938332D3331353338454246344243312F747269616E676C65732E62696E636660600000504B0304140006080000CC70623B
310
000000000000000000000000370000006662782F39464131463745442D413632322D343644302D413938332D3331353338454246344243312F617474726962757465732E62696E504B0304140006080800CC70623B08DA0BD19000000041010000360000006662782F39464131463745442D413632322D343644302D413938
310
332D3331353338454246344243312F6469726563746F72792E786D6C858F410AC3201045AF22B36F53E9A60B35CBEEBAE80D244E44489C6234F4F835464A48035D0DF398FF9F8AF63D0E6CC63039F212F8F9020C7D47C6792B21C5FE7403D62A1188E2E60C98D7234A5830286103A55745067B9D86B8A3CF9C7F90C11DE607
310
FB144396D7B6A82D282E9A152AD114D5EF2CB866EEE831B8EEA07A7BB5A8D7D61A2BAAEB7FD5F70921FF497D00504B0304140006080800CC70623B0D6EF93BFE000000A00100003B0000006662782F39464131463745442D413632322D343644302D413938332D3331353338454246344243312F7265736F75726365732F63
310
6F72652E786D6C8D50596E833010BD0A9ADFCA60B334011947A8694ED00B586642AC041B79A97AFC9A40A5F6AF3F33A3B7689E1E3F7DCD8FEC139DD7D6F4C0720A191A65476DA61E62B892236427C19DB5E1970C322367EC618541F0C9D9B8EC90B226A009093576C41D94DE63804C3DD2D18357379C652E63480A7FCF17A9
310
EE72C29CE5894E3AC17D702940B63D59270887DE46A7D0F36263058F518FBB468FE9A7BE6A7420864373B8D4873369AA8691FA421B3294352543C5CAF65C0F6FEF43CB8BD52C78D0F34F46E550061C419494B6843142CB0F5677F4B52BEB177AEC28E5C52AFF638ACBF84F53D42654E51E77B379102C05791282176B5F693D
310
CB4C7BED567C03504B010214000A0000080000CC70623B3DEE336E79000000790000001B00000000000000000000000000000000006175746F6465736B2D64657369676E2D7061636B6167652E786D6C504B01021400140006080800CC70623BD486FD9CA0000000F40000001300000000000000000000000000B20000005B
310
436F6E74656E745F54797065735D2E786D6C504B01021400140006080800CC70623B1EC5D7A3EB0000007C010000080000000000000000000000000083010000636F72652E786D6C504B01021400140006080800CC70623B55019EA25F0000007C000000070000000000000000000000000094020000636E782E786D6C504B
310
01021400140006080800CC70623B8C9102E971010000D40300000C00000000000000000000000000180300006662782F636F72652E786D6C504B01021400140006080800CC70623BFFEA85907E0000009D0000000B00000000000000000000000000B30400006662782F636E782E786D6C504B01021400140006080800CC70
310
623B4FEEA4082C0100001202000031000000000000000000000000005A0500006662782F39464131463745442D413632322D343644302D413938332D3331353338454246344243312F636F72652E786D6C504B01021400140006080800CC70623BAD7543B64E010000330300003000000000000000000000000000D5060000
310
6662782F39464131463745442D413632322D343644302D413938332D3331353338454246344243312F636E782E786D6C504B01021400140006080800CC70623B16AB87BA640500003C1000003400000000000000000000000000710800006662782F39464131463745442D413632322D343644302D413938332D3331353338
310
454246344243312F6F626A656374732E786D6C504B01021400140006080000CC70623B0000000000000000000000003500000000000000000000000000270E00006662782F39464131463745442D413632322D343644302D413938332D3331353338454246344243312F76657274696365732E62696E504B01021400140006
310
080800CC70623BF270F133060000000400000036000000000000000000000000007A0E00006662782F39464131463745442D413632322D343644302D413938332D3331353338454246344243312F747269616E676C65732E62696E504B01021400140006080000CC70623B0000000000000000000000003700000000000000
310
000000000000D40E00006662782F39464131463745442D413632322D343644302D413938332D3331353338454246344243312F617474726962757465732E62696E504B01021400140006080800CC70623B08DA0BD190000000410100003600000000000000000000000000290F00006662782F39464131463745442D413632
310
322D343644302D413938332D3331353338454246344243312F6469726563746F72792E786D6C504B01021400140006080800CC70623B0D6EF93BFE000000A00100003B000000000000000000000000000D1000006662782F39464131463745442D413632322D343644302D413938332D3331353338454246344243312F7265
310
736F75726365732F636F72652E786D6C504B0506000000000E000E0080040000641100000000
  0
XRECORD
  5
39C40
102
{ACAD_REACTORS
330
173
102
}
330
173
100
AcDbXrecord
280
     1
102
MATERIAL
148
0.0
149
0.0
149
0.0
 93
        0
 94
       63
282
     0
 72
     1
 77
     1
171
     1
175
     1
179
     1
273
     0
  0
XRECORD
  5
175
102
{ACAD_REACTORS
330
173
102
}
330
173
100
AcDbXrecord
280
     1
270
     1
271
     1
  0
XRECORD
  5
174
102
{ACAD_REACTORS
330
173
102
}
330
173
100
AcDbXrecord
280
     1
270
     1
271
     1
  0
XRECORD
  5
1FB
102
{ACAD_REACTORS
330
173
102
}
330
173
100
AcDbXrecord
280
     1
 70
     0
 90
1673772943
  1
ECE7A1D2-D628-4531-984C-D00F80459256
310
504B03040A0000080000CC70623B3DEE336E79000000790000001B0000006175746F6465736B2D64657369676E2D7061636B6167652E786D6C3C3F786D6C2076657273696F6E3D22312E302220656E636F64696E673D227574662D3822203F3E3C666F726D6174733E3C666F726D61743E687474703A2F2F736368656D612E
310
6175746F6465736B2E636F6D2F64657369676E2D7061636B6167652F323030393C2F666F726D61743E3C2F666F726D6174733E504B0304140006080800CC70623BD486FD9CA0000000F4000000130000005B436F6E74656E745F54797065735D2E786D6C7D8EC10E82300C865F65E91D8A1E8C310C0EEA1BF002731658846E
310
D98AC1B77784ABF1D8FE5FBFBF75BBCE937A534CCEB38643598122B6FEE978D0B0485F9C41B54DDD7D022595594E1A469170414C76A4D9A4D207E29CF43ECE46F218070CC6BECC4078ACAA135ACF422C856C0E68EA1BF5669944DDD7BCDE7B1F8E415D77AECB980613C2E4AC91FC167A2B244592486606FC29C8FD7F045B9A
310
EF7053A7E60B504B0304140006080800CC70623BD9DDAED0EC0000007C01000008000000636F72652E786D6C8D90416EC3201045AF82665B61836D9CD8C2444DD39CA01740405C94182C03558F5F9C3852BBEB6A467FFE9B197D7EF89E6EE8CB2CC17A37002D0820E394D7D68D03A478C17B4007C117EFE32F1B20272733C0
310
2A83E0E3E2D3BC49CABB685CCCAAF3DA6CA20CC14440EA969B0182FA34932C648AD911AEC52CD5558EA6A0CF2EC329598D1E47ACCEFBECC59A050463A7EA5833865FEBDD0E37353BE3EE8DBDE3F6786A48D375FBF6CC78B9C282473B3DEFABC5C86834888A900E538A49F5419B9EB47DD5BC907D4F082F57FB1F28CDFA9F50
310
B22ED6D5F6EE030B20687EE43E10BC5CB3C8E51E54AE6B6EE207504B0304140006080800CC70623B55019EA25F0000007C00000007000000636E782E786D6C4DCB3B0E80201045D1AD90E915ED2CF8AC45050C11660C8261F98AB1B07AC9C97D42D718D865D3E909258CFD00CCE24AC6E326A164D74DC0B4128928FF326038
310
472BA13128B1252AC747C6BAB984FC68F0B87FE8960A5C09FE86CFB69FBA01504B0304140006080800CC70623BA24EB22D72010000D40300000C0000006662782F636F72652E786D6CC5535B6E833010BC8AE5DF0A6C5E49888CA3A6694ED00B38E05014B091B1518EDFE511A5A9D228FD2A1F60CDEC7A67C6986DCE4D8D7A
310
69BA4AAB0C073EC548AA5C17952A33ECECD15B61B4E1CC686DBF9561A44423333CC098B3D268D7CE50AE9595CA02AA74216750749DB418E5352C32DCE59FB211BE70162ABA93DF8AFC244AE9073ED050C759670D0840D390E18DF9F1706664C23973AE2A66B62A605A75ACA4C13C4976E1364A12EF355A2EBD384AF65EFA96
310
BC7B8BED2EA6719AAE16FB8491A199335B351775B991C2CA02F390D2D40B028F861F41BCA68B7518BFD0D59A524686F29B26D7164F36B94AD9289CE54E6D1DE6010819891F6E21228B3AD1831EC219194284CF98F06DD01008846CC5A1BEF83801D4CBDC6A1303536877A57A513B0953A94FC707FDBE6064EA84A9E3E6E0FA
310
EE8CF0E9198F7784A316AA0413C2C2F2E0ECA0934D1AE6D05A69BCDE9E91D2A611F573361E38FC1375157F5752AE6B6DFE4B11990F88CCBF0719EE23FF02504B0304140006080800CC70623B408A7D3B7C0000009D0000000B0000006662782F636E782E786D6C4DCCD10A83201886E15B91FFDC552A92A0064DBC8F581632
310
D3703A76F9ABD1C18E3E78F878E5F0D9027ABBFCF2292AE86E2D20171F69F6715550CB827B40839639A5F2770314A7CD293819B45C73AAFB45B35BA61ACAA1C1C7E7855C58C15BC331339661262CC762340413D68D77DA5B42298546CBE6573AF60CEB2F504B0304140006080800CC70623B449FB9BD290100001202000031
310
0000006662782F36394639363044362D344446342D343946362D394244322D3234314243333846323333332F636F72652E786D6C8D515B6EC32010BC0AE22B55850D98B871848994463E412FE002495162B07854397EA176A4F62F3F2C9A9D991D587EB84F37F0AD7D30CEF6905418026DA553C65E7A98E219ED203808EE9D
310
8B7F6810D871D23D2C3014FCE25D9A57483A1BB58D19B54EE9151C43D0110279CB971E06F9A5A7B11A53CC8C70ADE6515EC78BAE4895DB992778883E0700CB907242D17643D7E2538BD869608875438BBAE38922CAC8F1BDD90DB4691A5E2F42C153326A951B95E398B3D1FE599322163C9AE9115F7A3D46ADA0A018778810
310
84E907617BDCEE297BC5BB3DC6BC2EF47FA234AB2745C9D8D8D035EE220B50105E2F0DC1954B9FB747187D9F9D8FA0CCDB042D5FA0C015C65B42DF78BD10F3F3B363CB56C7109DCFDFBBB97E662ED92EB62D13BC2E1BCAE5777DB9966D8A1F504B0304140006080800CC70623BAD7543B64E01000033030000300000006662
310
782F36394639363044362D344446342D343946362D394244322D3234314243333846323333332F636E782E786D6CD593CD6EC32010845F0571AD6CE3D48AD20813A9873E410FBD12D82434182C7EAAE6EDBB2424CD25871E7B41D6EC30B3FA84F9E67BB2E40B4234DE8DB46F1925E094D7C6ED479AD3AE5951B2113C789FEE
310
6C943839C1488B4C05DF079FE72A69D8C96C13AAD6B8631503449F83828872B949AC57D26200B826A308D316B4064D6E46FCDA41C05550DC9E483A00797BFD207EFB092A45DE9514C1BBD22178396BD39D891265658C238DEA00936C654E5E433CB65A26D9F6EDB5EBC14EBF49A45CB856E66048291F6939A9A81BB5C89177
310
38143CA680F4AA299D66A042CEB3354A2684DC9D8D178FE0D9B8B41CAAD720F880EE7EF93C0C18769E099ECC04D5A102C8049A8A05632F4DDF376CF1DE0F6BB65C2F8627B65A33C6BB62177CEBBDAD973006829F89F22E814B54F4BC2BE347F8AA8F681390B50FA73F804400B5F542E796F19FF974E7F78DB802FE05E20750
310
4B0304140006080800CC70623B8D05915C650500003B100000340000006662782F36394639363044362D344446342D343946362D394244322D3234314243333846323333332F6F626A656374732E786D6CAD575B6FA33814FE2B887D06429276DA1565D4266D158D3A339A6846FB502932E050B66023DB74D2FDF5FB190C01
310
9276B2973C046C8ECFF53B17071F77456EBD502133CEAE6CDF9DD81665314F32965ED995DA3A17B6F5310C04E7AA47665B8C14F4CAD6DB7618A48257A5D94AE89654B91AEDDEDDFC61C998326A5B714EA4BCB265FC440BE2924AF184CA6737218AB8E976E7FA6E4338649B0A523E8D98964450A6A029F619B8588D52FE7039
310
B1BD30F0F4F730D0FF866AF6369557DB33949F31A9088B0F848DD8CCFCF9F2767A76E99CCDE733677E3EF59D9BBB9BA5E37F984D16E78BC5E5F5ED25044B25C0C96822E8D60EEFE11B91C581D77CEA34368A1F5329E68CD1B8B61F16D63A1B8E092D294B10C78C4A48EB593D192E7DED9BDEE7995E1B91FDEDD3ACEA9FE831
310
6A756F9F7D4D79F4274C90A7A04248AA51D5F8C718DAE06FB2F75AC4796EBE65D22A88A22223B995679120E2D50E41AA49C260C046A35368846B0BECD0DFF3EBEB8AD4F835768F69B9ADF25C43D30E6B646F807FAA64AD59F61715C7A54127C4AACA98BA3006A9D792DAE165E0D59B61A01FB3A9F9D838D2DAE62445C86166
310
F37564E842E7DE6A69879FEEA2DD5AE7E371E1A5E025154AC307D06A03D73EB5978C58FFA4C8E9033066E0F3BD53BEC1F39F91BE7B55103791EDE6BBB991A2046172CB4581D8B893FA674DDA17A77B3B7C413D1B511FD2743BFF8A38F03A658705E3ADF8015C3A3417FF3D7E439FF591DA0B5F18BC20C1B8981957AE6392A3
310
F43C640C01D1A0B4728E2DD4F26DB4B3C3152A252A3B4E913CEC1C72F012782FF88EFF8637AA552DBEF76408E8A8DE9E50F9E1CB3A2DA0DB1B6039A893B56063DC5B3E3FFB5F72E67AB9FEB4AEC496C4F4C1149625DD662C53E89D7BF0F6151A046260D1337DFDC94502430F83B0EE07A130A224BCAD7DAE1D9FB6CD422FF6
310
920702629C4BB9AE79C12F243C6432A6794E18E5552BA56B431AAB5D91317302B2B071E86C3A42B1A02F999E24061403B5D0EB639195DA655DD3EBEAB4FB862DDF579F014AD0E73C22F99E28DA57FB98E75C6CA2D74D53086D600F4786E0FE3144B771A8A7B900F03594DB8A633CBC49B2EDB69228BB479CF863B5E807AAAB
310
23872F6DFEB4129B949CA33823F58830E86D65621E10047D9DB34D862E8EAC3C2ABC2F7B2C40D67CDFE01F5545B92105AF983AC54D93D69E56FB8E797F88913F898A9FEC705D3F9D1B54EC8426FB500D40A03BD0119B06E1B95DDC7EB8F6975367793EBD70E66733DFB9BC982F9CE564727731999F5D4ECFCE3B8D6A4DC2A0
310
6D50FD148437D110834A64C6CDDF57FBACB5C307A2A477DFE4939736CFEF2B175371E0E10CF0DD1D5C15654E0BCA14D1E87DD02FF93782A162C0A3D95F1524A52770F972BF1EE9809D13CE7DD599467F8ECE9ADD85CE85A34CD45355448C64F9E8A031DC2D596ACC6E5DD93D9B82DE2EF5CAF81363A8E47996A0DE24564A79
310
4115AACE09C55E14540231FDA13C319787134EBF34E3A022514E5B4D9E0826E25C02D5805B15ABE1BEF51B26383D445DD9E875EE33FE4C22DA16427D65A3BCA92CA6D28DD01DF5DC53330704308475351050232CCD31583787BA75774AFB06E5070DD0C8EF484E19968C5D83BA5B90B244D31E54D55A372320FE4786B7EA58
310
44E135AA5467CB7EA333A61683CC6A8C3257034C10CF46F40EF9F5BE59BE5BD30C3C72D235E95D10345C1D45445A5F0BB47E46A5EBE5570F9380B5FA629579952296A773720405982B9DE04011506178964401AA8BDF1FBF0A8EAB6861DD6580C0E38217056766716DAEB2D6FA0917D3E4116581EADB879C4E7CFFB11EFACD
310
3D641311495D92C8676CB409A72D18610D803CE8A626049E8EC1887CB5B44CC39883690DDA8399B4B9855B481E7D71D4A9D22F96E5BB73BF5793020C02137BF837504B0304140006080000CC70623B000000000000000000000000350000006662782F36394639363044362D344446342D343946362D394244322D32343142
310
43333846323333332F76657274696365732E62696E504B0304140006080800CC70623BF270F1330600000004000000360000006662782F36394639363044362D344446342D343946362D394244322D3234314243333846323333332F747269616E676C65732E62696E636660600000504B0304140006080000CC70623B0000
310
00000000000000000000370000006662782F36394639363044362D344446342D343946362D394244322D3234314243333846323333332F617474726962757465732E62696E504B0304140006080800CC70623B08DA0BD19000000041010000360000006662782F36394639363044362D344446342D343946362D394244322D
310
3234314243333846323333332F6469726563746F72792E786D6C858F410AC3201045AF22B36F53E9A60B35CBEEBAE80D244E44489C6234F4F835464A48035D0DF398FF9F8AF63D0E6CC63039F212F8F9020C7D47C6792B21C5FE7403D62A1188E2E60C98D7234A5830286103A55745067B9D86B8A3CF9C7F90C11DE607FB14
310
4396D7B6A82D282E9A152AD114D5EF2CB866EEE831B8EEA07A7BB5A8D7D61A2BAAEB7FD5F70921FF497D00504B0304140006080800CC70623BCA768048FE000000A00100003B0000006662782F36394639363044362D344446342D343946362D394244322D3234314243333846323333332F7265736F75726365732F636F72
310
652E786D6C8D50596E833010BD0A9ADFCA60D600328E9AA639412F609909B1126CE4A5EAF16B0295DABFFECC8CDEA2797AECF8353F924FB44E193D409E5248504B332A3D0D10FC95B4901C39B3C6F85F3248B49871801506CE266BC2B243D2688FDA47549B11775038871E12F988C7004EDE7016A9083E2ADC3D5D84BC8B09
310
D33C8D74D471E6BC8D0192EDC93A815B742658898E651BCB59086ADC356A8C3FD555A1055ED7E7E254D615792D0F075295F585746FF53B694EE78A565DD736979A65AB9933AFE69F8CD2A2F038022F28ED489E135A7CE4554F9BBEA85E68DB53CAB255FEC71496F19FA6A0B42F8B3DEE6673C0F318E4497096AD7DC5F52C33
310
EEB55BFE0D504B010214000A0000080000CC70623B3DEE336E79000000790000001B00000000000000000000000000000000006175746F6465736B2D64657369676E2D7061636B6167652E786D6C504B01021400140006080800CC70623BD486FD9CA0000000F40000001300000000000000000000000000B20000005B436F
310
6E74656E745F54797065735D2E786D6C504B01021400140006080800CC70623BD9DDAED0EC0000007C010000080000000000000000000000000083010000636F72652E786D6C504B01021400140006080800CC70623B55019EA25F0000007C000000070000000000000000000000000095020000636E782E786D6C504B0102
310
1400140006080800CC70623BA24EB22D72010000D40300000C00000000000000000000000000190300006662782F636F72652E786D6C504B01021400140006080800CC70623B408A7D3B7C0000009D0000000B00000000000000000000000000B50400006662782F636E782E786D6C504B01021400140006080800CC70623B
310
449FB9BD290100001202000031000000000000000000000000005A0500006662782F36394639363044362D344446342D343946362D394244322D3234314243333846323333332F636F72652E786D6C504B01021400140006080800CC70623BAD7543B64E010000330300003000000000000000000000000000D20600006662
310
782F36394639363044362D344446342D343946362D394244322D3234314243333846323333332F636E782E786D6C504B01021400140006080800CC70623B8D05915C650500003B10000034000000000000000000000000006E0800006662782F36394639363044362D344446342D343946362D394244322D32343142433338
310
46323333332F6F626A656374732E786D6C504B01021400140006080000CC70623B0000000000000000000000003500000000000000000000000000250E00006662782F36394639363044362D344446342D343946362D394244322D3234314243333846323333332F76657274696365732E62696E504B010214001400060808
310
00CC70623BF270F13306000000040000003600000000000000000000000000780E00006662782F36394639363044362D344446342D343946362D394244322D3234314243333846323333332F747269616E676C65732E62696E504B01021400140006080000CC70623B00000000000000000000000037000000000000000000
310
00000000D20E00006662782F36394639363044362D344446342D343946362D394244322D3234314243333846323333332F617474726962757465732E62696E504B01021400140006080800CC70623B08DA0BD190000000410100003600000000000000000000000000270F00006662782F36394639363044362D344446342D
310
343946362D394244322D3234314243333846323333332F6469726563746F72792E786D6C504B01021400140006080800CC70623BCA768048FE000000A00100003B000000000000000000000000000B1000006662782F36394639363044362D344446342D343946362D394244322D3234314243333846323333332F7265736F
310
75726365732F636F72652E786D6C504B0506000000000E000E0080040000621100000000
  0
XRECORD
  5
176
102
{ACAD_REACTORS
330
173
102
}
330
173
100
AcDbXrecord
280
     1
270
     1
271
     1
  0
XRECORD
  5
177
102
{ACAD_REACTORS
330
173
102
}
330
173
100
AcDbXrecord
280
     1
270
     1
271
     1
  0
XRECORD
  5
39C62
102
{ACAD_REACTORS
330
39C61
102
}
330
39C61
100
AcDbXrecord
280
     1
102
ACAD_ROUNDTRIP_2012_MLEADER_STYLE
298
     1
  0
XRECORD
  5
39C74
102
{ACAD_REACTORS
330
39C73
102
}
330
39C73
100
AcDbXrecord
280
     1
102
DISPLAYNAME
  1
Metric50
102
FLAGS
 90
        0
  0
CELLSTYLEMAP
  5
39C34
102
{ACAD_REACTORS
330
162
102
}
330
162
100
AcDbCellStyleMap
 90
        3
300
CELLSTYLE
  1
TABLEFORMAT_BEGIN
 90
        5
170
     1
 91
        0
 92
    32768
 62
   257
 93
        1
300
CONTENTFORMAT
  1
CONTENTFORMAT_BEGIN
 90
        0
 91
        0
 92
      512
 93
        0
300

 40
0.0
140
1.0
 94
        5
 62
     0
340
11
144
6.0
309
CONTENTFORMAT_END
171
     1
301
MARGIN
  1
CELLMARGIN_BEGIN
 40
1.5
 40
1.5
 40
1.5
 40
1.5
 40
4.5
 40
4.5
309
CELLMARGIN_END
 94
        6
 95
        1
302
GRIDFORMAT
  1
GRIDFORMAT_BEGIN
 90
        0
 91
        1
 62
     0
 92
       -2
340
14
 93
        0
 40
1.125
309
GRIDFORMAT_END
 95
        2
302
GRIDFORMAT
  1
GRIDFORMAT_BEGIN
 90
        0
 91
        1
 62
     0
 92
       -2
340
14
 93
        0
 40
1.125
309
GRIDFORMAT_END
 95
        4
302
GRIDFORMAT
  1
GRIDFORMAT_BEGIN
 90
        0
 91
        1
 62
     0
 92
       -2
340
14
 93
        0
 40
1.125
309
GRIDFORMAT_END
 95
        8
302
GRIDFORMAT
  1
GRIDFORMAT_BEGIN
 90
        0
 91
        1
 62
     0
 92
       -2
340
14
 93
        0
 40
1.125
309
GRIDFORMAT_END
 95
       16
302
GRIDFORMAT
  1
GRIDFORMAT_BEGIN
 90
        0
 91
        1
 62
     0
 92
       -2
340
14
 93
        0
 40
1.125
309
GRIDFORMAT_END
 95
       32
302
GRIDFORMAT
  1
GRIDFORMAT_BEGIN
 90
        0
 91
        1
 62
     0
 92
       -2
340
14
 93
        0
 40
1.125
309
GRIDFORMAT_END
309
TABLEFORMAT_END
  1
CELLSTYLE_BEGIN
 90
        1
 91
        1
300
_TITLE
309
CELLSTYLE_END
300
CELLSTYLE
  1
TABLEFORMAT_BEGIN
 90
        5
170
     1
 91
        0
 92
        0
 62
   257
 93
        1
300
CONTENTFORMAT
  1
CONTENTFORMAT_BEGIN
 90
        0
 91
        0
 92
      512
 93
        0
300

 40
0.0
140
1.0
 94
        5
 62
     0
340
11
144
4.5
309
CONTENTFORMAT_END
171
     1
301
MARGIN
  1
CELLMARGIN_BEGIN
 40
1.5
 40
1.5
 40
1.5
 40
1.5
 40
4.5
 40
4.5
309
CELLMARGIN_END
 94
        6
 95
        1
302
GRIDFORMAT
  1
GRIDFORMAT_BEGIN
 90
        0
 91
        1
 62
     0
 92
       -2
340
14
 93
        0
 40
1.125
309
GRIDFORMAT_END
 95
        2
302
GRIDFORMAT
  1
GRIDFORMAT_BEGIN
 90
        0
 91
        1
 62
     0
 92
       -2
340
14
 93
        0
 40
1.125
309
GRIDFORMAT_END
 95
        4
302
GRIDFORMAT
  1
GRIDFORMAT_BEGIN
 90
        0
 91
        1
 62
     0
 92
       -2
340
14
 93
        0
 40
1.125
309
GRIDFORMAT_END
 95
        8
302
GRIDFORMAT
  1
GRIDFORMAT_BEGIN
 90
        0
 91
        1
 62
     0
 92
       -2
340
14
 93
        0
 40
1.125
309
GRIDFORMAT_END
 95
       16
302
GRIDFORMAT
  1
GRIDFORMAT_BEGIN
 90
        0
 91
        1
 62
     0
 92
       -2
340
14
 93
        0
 40
1.125
309
GRIDFORMAT_END
 95
       32
302
GRIDFORMAT
  1
GRIDFORMAT_BEGIN
 90
        0
 91
        1
 62
     0
 92
       -2
340
14
 93
        0
 40
1.125
309
GRIDFORMAT_END
309
TABLEFORMAT_END
  1
CELLSTYLE_BEGIN
 90
        2
 91
        1
300
_HEADER
309
CELLSTYLE_END
300
CELLSTYLE
  1
TABLEFORMAT_BEGIN
 90
        5
170
     1
 91
        0
 92
        0
 62
   257
 93
        1
300
CONTENTFORMAT
  1
CONTENTFORMAT_BEGIN
 90
        0
 91
        0
 92
      512
 93
        0
300

 40
0.0
140
1.0
 94
        2
 62
     0
340
11
144
4.5
309
CONTENTFORMAT_END
171
     1
301
MARGIN
  1
CELLMARGIN_BEGIN
 40
1.5
 40
1.5
 40
1.5
 40
1.5
 40
4.5
 40
4.5
309
CELLMARGIN_END
 94
        6
 95
        1
302
GRIDFORMAT
  1
GRIDFORMAT_BEGIN
 90
        0
 91
        1
 62
     0
 92
       -2
340
14
 93
        0
 40
1.125
309
GRIDFORMAT_END
 95
        2
302
GRIDFORMAT
  1
GRIDFORMAT_BEGIN
 90
        0
 91
        1
 62
     0
 92
       -2
340
14
 93
        0
 40
1.125
309
GRIDFORMAT_END
 95
        4
302
GRIDFORMAT
  1
GRIDFORMAT_BEGIN
 90
        0
 91
        1
 62
     0
 92
       -2
340
14
 93
        0
 40
1.125
309
GRIDFORMAT_END
 95
        8
302
GRIDFORMAT
  1
GRIDFORMAT_BEGIN
 90
        0
 91
        1
 62
     0
 92
       -2
340
14
 93
        0
 40
1.125
309
GRIDFORMAT_END
 95
       16
302
GRIDFORMAT
  1
GRIDFORMAT_BEGIN
 90
        0
 91
        1
 62
     0
 92
       -2
340
14
 93
        0
 40
1.125
309
GRIDFORMAT_END
 95
       32
302
GRIDFORMAT
  1
GRIDFORMAT_BEGIN
 90
        0
 91
        1
 62
     0
 92
       -2
340
14
 93
        0
 40
1.125
309
GRIDFORMAT_END
309
TABLEFORMAT_END
  1
CELLSTYLE_BEGIN
 90
        3
 91
        2
300
_DATA
309
CELLSTYLE_END
  0
XRECORD
  5
39C39
102
{ACAD_REACTORS
330
162
102
}
330
162
100
AcDbXrecord
280
     1
102
ACAD_ROUNDTRIP_PRE2007_TABLESTYLE
 90
      512
 91
        0
  1

 92
      512
 93
        0
  2

 94
      512
 95
        0
  3

  0
XRECORD
  5
39C4C
102
{ACAD_REACTORS
330
39C4B
102
}
330
39C4B
100
AcDbXrecord
280
     1
102
RTVSPost2010Prop28
280
     1
102
RTVSPost2010PropOp28
 70
     1
102
RTVSPost2010Prop29
280
     1
102
RTVSPost2010PropOp29
 70
     1
102
RTVSPost2010Prop30
280
     0
102
RTVSPost2010PropOp30
 70
     1
102
RTVSPost2010Prop31
280
     0
102
RTVSPost2010PropOp31
 70
     1
102
RTVSPost2010Prop32
280
     0
102
RTVSPost2010PropOp32
 70
     1
102
RTVSPost2010Prop33
280
     0
102
RTVSPost2010PropOp33
 70
     1
102
RTVSPost2010Prop34
280
     0
102
RTVSPost2010PropOp34
 70
     1
102
RTVSPost2010Prop35
280
     0
102
RTVSPost2010PropOp35
 70
     1
102
RTVSPost2010Prop36
280
     0
102
RTVSPost2010PropOp36
 70
     1
102
RTVSPost2010Prop37
 90
       50
102
RTVSPost2010PropOp37
 70
     1
102
RTVSPost2010Prop38
140
0.0
102
RTVSPost2010PropOp38
 70
     1
102
RTVSPost2010Prop39
140
1.0
102
RTVSPost2010PropOp39
 70
     1
102
RTVSPost2010Prop40
 90
        0
102
RTVSPost2010PropOp40
 70
     1
102
RTVSPost2010Prop41ColorIndex
 90
       18
102
RTVSPost2010Prop41ColorRGB
 90
        0
102
RTVSPost2010PropOp41
 70
     1
102
RTVSPost2010Prop42
 90
       50
102
RTVSPost2010PropOp42
 70
     1
102
RTVSPost2010Prop43
 90
        3
102
RTVSPost2010PropOp43
 70
     1
102
RTVSPost2010Prop44ColorIndex
 90
        5
102
RTVSPost2010Prop44ColorRGB
 90
      255
102
RTVSPost2010PropOp44
 70
     1
102
RTVSPost2010Prop45
280
     0
102
RTVSPost2010PropOp45
 70
     1
102
RTVSPost2010Prop46
 90
       50
102
RTVSPost2010PropOp46
 70
     1
102
RTVSPost2010Prop47
 90
       50
102
RTVSPost2010PropOp47
 70
     1
102
RTVSPost2010Prop48
 90
       50
102
RTVSPost2010PropOp48
 70
     1
102
RTVSPost2010Prop49
280
     0
102
RTVSPost2010PropOp49
 70
     1
102
RTVSPost2010Prop50
 90
       50
102
RTVSPost2010PropOp50
 70
     1
102
RTVSPost2010Prop51ColorIndex
 90
      256
102
RTVSPost2010Prop51ColorRGB
 90
-16777216
102
RTVSPost2010PropOp51
 70
     0
102
RTVSPost2010Prop52
140
1.0
102
RTVSPost2010PropOp52
 70
     0
102
RTVSPost2010Prop53
 90
        2
102
RTVSPost2010PropOp53
 70
     1
102
RTVSPost2010Prop54
  1
strokes_ogs.tif
102
RTVSPost2010PropOp54
 70
     1
102
RTVSPost2010Prop55
280
     0
102
RTVSPost2010PropOp55
 70
     1
102
RTVSPost2010Prop56
140
1.0
102
RTVSPost2010PropOp56
 70
     1
102
RTVSPost2010Prop57
140
1.0
102
RTVSPost2010PropOp57
 70
     1
102
RTVSPropertyOp0
 70
     1
102
RTVSPropertyOp1
 70
     1
102
RTVSPropertyOp2
 70
     1
102
RTVSPropertyOp3
 70
     1
102
RTVSPropertyOp4
 70
     1
102
RTVSPropertyOp5
 70
     1
102
RTVSPropertyOp6
 70
     1
102
RTVSPropertyOp7
 70
     1
102
RTVSPropertyOp8
 70
     1
102
RTVSPropertyOp9
 70
     1
102
RTVSPropertyOp10
 70
     1
102
RTVSPropertyOp11
 70
     1
102
RTVSPropertyOp12
 70
     1
102
RTVSPropertyOp13
 70
     1
102
RTVSPropertyOp14
 70
     1
102
RTVSPropertyOp15
 70
     1
102
RTVSPropertyOp16
 70
     1
102
RTVSPropertyOp17
 70
     1
102
RTVSPropertyOp18
 70
     1
102
RTVSPropertyOp19
 70
     1
102
RTVSPropertyOp20
 70
     1
102
RTVSPropertyOp21
 70
     1
102
RTVSPropertyOp22
 70
     1
102
RTVSPropertyOp23
 70
     1
102
RTVSPropertyOp24
 70
     1
102
RTVSPropertyOp25
 70
     1
102
RTVSPropertyOp26
 70
     1
102
RTVSPropertyOp27
 70
     1
102
RTVSPropertyOp28
 70
     1
102
RTVSPropertyOp29
 70
     1
102
RTVSPropertyOp30
 70
     1
102
RTVSPropertyOp31
 70
     1
102
RTVSPropertyOp32
 70
     1
102
RTVSPropertyOp33
 70
     1
102
RTVSPropertyOp34
 70
     1
102
RTVSPropertyOp35
 70
     1
102
RTVSPropertyOp36
 70
     1
102
RTVSPropertyOp37
 70
     1
102
RTVSPropertyOp38
 70
     1
102
RTVSPropertyOp39
 70
     1
102
RTVSPropertyOp40
 70
     1
102
RTVSPropertyOp41
 70
     1
102
RTVSPropertyOp42
 70
     1
102
RTVSPropertyOp43
 70
     1
102
RTVSPropertyOp44
 70
     1
102
RTVSPropertyOp45
 70
     1
102
RTVSPropertyOp46
 70
     1
102
RTVSPropertyOp47
 70
     1
102
RTVSPropertyOp48
 70
     1
102
RTVSPropertyOp49
 70
     1
102
RTVSPropertyOp50
 70
     1
102
RTVSPropertyOp51
 70
     0
102
RTVSPropertyOp52
 70
     0
102
RTVSPropertyOp53
 70
     1
102
RTVSPropertyOp54
 70
     1
102
RTVSPropertyOp55
 70
     1
102
RTVSPropertyOp56
 70
     1
102
RTVSPropertyOp57
 70
     1
102
RTVSPropertyOp58
 70
     1
102
RTVSPropertyOp59
 70
     1
102
RTVSPropertyOp60
 70
     1
102
RTVSPropertyOp61
 70
     1
102
RTVSPropertyOp62
 70
     1
  0
XRECORD
  5
39C4A
102
{ACAD_REACTORS
330
39C49
102
}
330
39C49
100
AcDbXrecord
280
     1
102
RTVSPost2010Prop28
280
     0
102
RTVSPost2010PropOp28
 70
     1
102
RTVSPost2010Prop29
280
     1
102
RTVSPost2010PropOp29
 70
     1
102
RTVSPost2010Prop30
280
     1
102
RTVSPost2010PropOp30
 70
     1
102
RTVSPost2010Prop31
280
     0
102
RTVSPost2010PropOp31
 70
     1
102
RTVSPost2010Prop32
280
     0
102
RTVSPost2010PropOp32
 70
     1
102
RTVSPost2010Prop33
280
     0
102
RTVSPost2010PropOp33
 70
     1
102
RTVSPost2010Prop34
280
     0
102
RTVSPost2010PropOp34
 70
     1
102
RTVSPost2010Prop35
280
     0
102
RTVSPost2010PropOp35
 70
     1
102
RTVSPost2010Prop36
280
     0
102
RTVSPost2010PropOp36
 70
     1
102
RTVSPost2010Prop37
 90
       50
102
RTVSPost2010PropOp37
 70
     1
102
RTVSPost2010Prop38
140
0.0
102
RTVSPost2010PropOp38
 70
     1
102
RTVSPost2010Prop39
140
1.0
102
RTVSPost2010PropOp39
 70
     1
102
RTVSPost2010Prop40
 90
        0
102
RTVSPost2010PropOp40
 70
     1
102
RTVSPost2010Prop41ColorIndex
 90
       18
102
RTVSPost2010Prop41ColorRGB
 90
        0
102
RTVSPost2010PropOp41
 70
     1
102
RTVSPost2010Prop42
 90
       50
102
RTVSPost2010PropOp42
 70
     1
102
RTVSPost2010Prop43
 90
        3
102
RTVSPost2010PropOp43
 70
     1
102
RTVSPost2010Prop44ColorIndex
 90
        5
102
RTVSPost2010Prop44ColorRGB
 90
      255
102
RTVSPost2010PropOp44
 70
     1
102
RTVSPost2010Prop45
280
     0
102
RTVSPost2010PropOp45
 70
     1
102
RTVSPost2010Prop46
 90
       50
102
RTVSPost2010PropOp46
 70
     1
102
RTVSPost2010Prop47
 90
       50
102
RTVSPost2010PropOp47
 70
     1
102
RTVSPost2010Prop48
 90
       50
102
RTVSPost2010PropOp48
 70
     1
102
RTVSPost2010Prop49
280
     0
102
RTVSPost2010PropOp49
 70
     1
102
RTVSPost2010Prop50
 90
       50
102
RTVSPost2010PropOp50
 70
     1
102
RTVSPost2010Prop51ColorIndex
 90
      256
102
RTVSPost2010Prop51ColorRGB
 90
-16777216
102
RTVSPost2010PropOp51
 70
     0
102
RTVSPost2010Prop52
140
1.0
102
RTVSPost2010PropOp52
 70
     0
102
RTVSPost2010Prop53
 90
        2
102
RTVSPost2010PropOp53
 70
     1
102
RTVSPost2010Prop54
  1
strokes_ogs.tif
102
RTVSPost2010PropOp54
 70
     1
102
RTVSPost2010Prop55
280
     0
102
RTVSPost2010PropOp55
 70
     1
102
RTVSPost2010Prop56
140
1.0
102
RTVSPost2010PropOp56
 70
     1
102
RTVSPost2010Prop57
140
1.0
102
RTVSPost2010PropOp57
 70
     1
102
RTVSPropertyOp0
 70
     1
102
RTVSPropertyOp1
 70
     1
102
RTVSPropertyOp2
 70
     1
102
RTVSPropertyOp3
 70
     1
102
RTVSPropertyOp4
 70
     1
102
RTVSPropertyOp5
 70
     1
102
RTVSPropertyOp6
 70
     1
102
RTVSPropertyOp7
 70
     1
102
RTVSPropertyOp8
 70
     1
102
RTVSPropertyOp9
 70
     1
102
RTVSPropertyOp10
 70
     1
102
RTVSPropertyOp11
 70
     1
102
RTVSPropertyOp12
 70
     1
102
RTVSPropertyOp13
 70
     1
102
RTVSPropertyOp14
 70
     1
102
RTVSPropertyOp15
 70
     1
102
RTVSPropertyOp16
 70
     1
102
RTVSPropertyOp17
 70
     1
102
RTVSPropertyOp18
 70
     1
102
RTVSPropertyOp19
 70
     1
102
RTVSPropertyOp20
 70
     1
102
RTVSPropertyOp21
 70
     1
102
RTVSPropertyOp22
 70
     1
102
RTVSPropertyOp23
 70
     1
102
RTVSPropertyOp24
 70
     1
102
RTVSPropertyOp25
 70
     1
102
RTVSPropertyOp26
 70
     1
102
RTVSPropertyOp27
 70
     1
102
RTVSPropertyOp28
 70
     1
102
RTVSPropertyOp29
 70
     1
102
RTVSPropertyOp30
 70
     1
102
RTVSPropertyOp31
 70
     1
102
RTVSPropertyOp32
 70
     1
102
RTVSPropertyOp33
 70
     1
102
RTVSPropertyOp34
 70
     1
102
RTVSPropertyOp35
 70
     1
102
RTVSPropertyOp36
 70
     1
102
RTVSPropertyOp37
 70
     1
102
RTVSPropertyOp38
 70
     1
102
RTVSPropertyOp39
 70
     1
102
RTVSPropertyOp40
 70
     1
102
RTVSPropertyOp41
 70
     1
102
RTVSPropertyOp42
 70
     1
102
RTVSPropertyOp43
 70
     1
102
RTVSPropertyOp44
 70
     1
102
RTVSPropertyOp45
 70
     1
102
RTVSPropertyOp46
 70
     1
102
RTVSPropertyOp47
 70
     1
102
RTVSPropertyOp48
 70
     1
102
RTVSPropertyOp49
 70
     1
102
RTVSPropertyOp50
 70
     1
102
RTVSPropertyOp51
 70
     0
102
RTVSPropertyOp52
 70
     0
102
RTVSPropertyOp53
 70
     1
102
RTVSPropertyOp54
 70
     1
102
RTVSPropertyOp55
 70
     1
102
RTVSPropertyOp56
 70
     1
102
RTVSPropertyOp57
 70
     1
102
RTVSPropertyOp58
 70
     1
102
RTVSPropertyOp59
 70
     1
102
RTVSPropertyOp60
 70
     1
102
RTVSPropertyOp61
 70
     1
102
RTVSPropertyOp62
 70
     1
  0
XRECORD
  5
39C58
102
{ACAD_REACTORS
330
39C57
102
}
330
39C57
100
AcDbXrecord
280
     1
102
RTVSPost2010Prop28
280
     0
102
RTVSPost2010PropOp28
 70
     1
102
RTVSPost2010Prop29
280
     1
102
RTVSPost2010PropOp29
 70
     1
102
RTVSPost2010Prop30
280
     1
102
RTVSPost2010PropOp30
 70
     1
102
RTVSPost2010Prop31
280
     0
102
RTVSPost2010PropOp31
 70
     1
102
RTVSPost2010Prop32
280
     0
102
RTVSPost2010PropOp32
 70
     1
102
RTVSPost2010Prop33
280
     0
102
RTVSPost2010PropOp33
 70
     1
102
RTVSPost2010Prop34
280
     0
102
RTVSPost2010PropOp34
 70
     1
102
RTVSPost2010Prop35
280
     0
102
RTVSPost2010PropOp35
 70
     1
102
RTVSPost2010Prop36
280
     0
102
RTVSPost2010PropOp36
 70
     1
102
RTVSPost2010Prop37
 90
       50
102
RTVSPost2010PropOp37
 70
     1
102
RTVSPost2010Prop38
140
0.0
102
RTVSPost2010PropOp38
 70
     1
102
RTVSPost2010Prop39
140
1.0
102
RTVSPost2010PropOp39
 70
     1
102
RTVSPost2010Prop40
 90
        0
102
RTVSPost2010PropOp40
 70
     1
102
RTVSPost2010Prop41ColorIndex
 90
       18
102
RTVSPost2010Prop41ColorRGB
 90
        0
102
RTVSPost2010PropOp41
 70
     1
102
RTVSPost2010Prop42
 90
       50
102
RTVSPost2010PropOp42
 70
     1
102
RTVSPost2010Prop43
 90
        3
102
RTVSPost2010PropOp43
 70
     1
102
RTVSPost2010Prop44ColorIndex
 90
        5
102
RTVSPost2010Prop44ColorRGB
 90
      255
102
RTVSPost2010PropOp44
 70
     1
102
RTVSPost2010Prop45
280
     0
102
RTVSPost2010PropOp45
 70
     1
102
RTVSPost2010Prop46
 90
       50
102
RTVSPost2010PropOp46
 70
     1
102
RTVSPost2010Prop47
 90
       50
102
RTVSPost2010PropOp47
 70
     1
102
RTVSPost2010Prop48
 90
       50
102
RTVSPost2010PropOp48
 70
     1
102
RTVSPost2010Prop49
280
     0
102
RTVSPost2010PropOp49
 70
     1
102
RTVSPost2010Prop50
 90
       50
102
RTVSPost2010PropOp50
 70
     1
102
RTVSPost2010Prop51ColorIndex
 90
      256
102
RTVSPost2010Prop51ColorRGB
 90
-16777216
102
RTVSPost2010PropOp51
 70
     0
102
RTVSPost2010Prop52
140
1.0
102
RTVSPost2010PropOp52
 70
     0
102
RTVSPost2010Prop53
 90
        2
102
RTVSPost2010PropOp53
 70
     1
102
RTVSPost2010Prop54
  1
strokes_ogs.tif
102
RTVSPost2010PropOp54
 70
     1
102
RTVSPost2010Prop55
280
     0
102
RTVSPost2010PropOp55
 70
     1
102
RTVSPost2010Prop56
140
1.0
102
RTVSPost2010PropOp56
 70
     1
102
RTVSPost2010Prop57
140
1.0
102
RTVSPost2010PropOp57
 70
     1
102
RTVSPropertyOp0
 70
     1
102
RTVSPropertyOp1
 70
     1
102
RTVSPropertyOp2
 70
     1
102
RTVSPropertyOp3
 70
     1
102
RTVSPropertyOp4
 70
     1
102
RTVSPropertyOp5
 70
     1
102
RTVSPropertyOp6
 70
     1
102
RTVSPropertyOp7
 70
     1
102
RTVSPropertyOp8
 70
     1
102
RTVSPropertyOp9
 70
     1
102
RTVSPropertyOp10
 70
     1
102
RTVSPropertyOp11
 70
     1
102
RTVSPropertyOp12
 70
     1
102
RTVSPropertyOp13
 70
     1
102
RTVSPropertyOp14
 70
     1
102
RTVSPropertyOp15
 70
     1
102
RTVSPropertyOp16
 70
     1
102
RTVSPropertyOp17
 70
     1
102
RTVSPropertyOp18
 70
     1
102
RTVSPropertyOp19
 70
     1
102
RTVSPropertyOp20
 70
     1
102
RTVSPropertyOp21
 70
     1
102
RTVSPropertyOp22
 70
     1
102
RTVSPropertyOp23
 70
     1
102
RTVSPropertyOp24
 70
     1
102
RTVSPropertyOp25
 70
     1
102
RTVSPropertyOp26
 70
     1
102
RTVSPropertyOp27
 70
     1
102
RTVSPropertyOp28
 70
     1
102
RTVSPropertyOp29
 70
     1
102
RTVSPropertyOp30
 70
     1
102
RTVSPropertyOp31
 70
     1
102
RTVSPropertyOp32
 70
     1
102
RTVSPropertyOp33
 70
     1
102
RTVSPropertyOp34
 70
     1
102
RTVSPropertyOp35
 70
     1
102
RTVSPropertyOp36
 70
     1
102
RTVSPropertyOp37
 70
     1
102
RTVSPropertyOp38
 70
     1
102
RTVSPropertyOp39
 70
     1
102
RTVSPropertyOp40
 70
     1
102
RTVSPropertyOp41
 70
     1
102
RTVSPropertyOp42
 70
     1
102
RTVSPropertyOp43
 70
     1
102
RTVSPropertyOp44
 70
     1
102
RTVSPropertyOp45
 70
     1
102
RTVSPropertyOp46
 70
     1
102
RTVSPropertyOp47
 70
     1
102
RTVSPropertyOp48
 70
     1
102
RTVSPropertyOp49
 70
     1
102
RTVSPropertyOp50
 70
     1
102
RTVSPropertyOp51
 70
     0
102
RTVSPropertyOp52
 70
     0
102
RTVSPropertyOp53
 70
     1
102
RTVSPropertyOp54
 70
     1
102
RTVSPropertyOp55
 70
     1
102
RTVSPropertyOp56
 70
     1
102
RTVSPropertyOp57
 70
     1
102
RTVSPropertyOp58
 70
     1
102
RTVSPropertyOp59
 70
     1
102
RTVSPropertyOp60
 70
     1
102
RTVSPropertyOp61
 70
     1
102
RTVSPropertyOp62
 70
     1
  0
XRECORD
  5
39C60
102
{ACAD_REACTORS
330
39C5F
102
}
330
39C5F
100
AcDbXrecord
280
     1
102
RTVSPost2010Prop28
280
     0
102
RTVSPost2010PropOp28
 70
     1
102
RTVSPost2010Prop29
280
     1
102
RTVSPost2010PropOp29
 70
     1
102
RTVSPost2010Prop30
280
     1
102
RTVSPost2010PropOp30
 70
     1
102
RTVSPost2010Prop31
280
     0
102
RTVSPost2010PropOp31
 70
     1
102
RTVSPost2010Prop32
280
     0
102
RTVSPost2010PropOp32
 70
     1
102
RTVSPost2010Prop33
280
     0
102
RTVSPost2010PropOp33
 70
     1
102
RTVSPost2010Prop34
280
     0
102
RTVSPost2010PropOp34
 70
     1
102
RTVSPost2010Prop35
280
     0
102
RTVSPost2010PropOp35
 70
     1
102
RTVSPost2010Prop36
280
     0
102
RTVSPost2010PropOp36
 70
     1
102
RTVSPost2010Prop37
 90
       50
102
RTVSPost2010PropOp37
 70
     1
102
RTVSPost2010Prop38
140
0.0
102
RTVSPost2010PropOp38
 70
     1
102
RTVSPost2010Prop39
140
1.0
102
RTVSPost2010PropOp39
 70
     1
102
RTVSPost2010Prop40
 90
        0
102
RTVSPost2010PropOp40
 70
     1
102
RTVSPost2010Prop41ColorIndex
 90
       18
102
RTVSPost2010Prop41ColorRGB
 90
        0
102
RTVSPost2010PropOp41
 70
     1
102
RTVSPost2010Prop42
 90
       50
102
RTVSPost2010PropOp42
 70
     1
102
RTVSPost2010Prop43
 90
        3
102
RTVSPost2010PropOp43
 70
     1
102
RTVSPost2010Prop44ColorIndex
 90
        5
102
RTVSPost2010Prop44ColorRGB
 90
      255
102
RTVSPost2010PropOp44
 70
     1
102
RTVSPost2010Prop45
280
     0
102
RTVSPost2010PropOp45
 70
     1
102
RTVSPost2010Prop46
 90
       50
102
RTVSPost2010PropOp46
 70
     1
102
RTVSPost2010Prop47
 90
       50
102
RTVSPost2010PropOp47
 70
     1
102
RTVSPost2010Prop48
 90
       50
102
RTVSPost2010PropOp48
 70
     1
102
RTVSPost2010Prop49
280
     0
102
RTVSPost2010PropOp49
 70
     1
102
RTVSPost2010Prop50
 90
       50
102
RTVSPost2010PropOp50
 70
     1
102
RTVSPost2010Prop51ColorIndex
 90
      256
102
RTVSPost2010Prop51ColorRGB
 90
-16777216
102
RTVSPost2010PropOp51
 70
     0
102
RTVSPost2010Prop52
140
1.0
102
RTVSPost2010PropOp52
 70
     0
102
RTVSPost2010Prop53
 90
        2
102
RTVSPost2010PropOp53
 70
     1
102
RTVSPost2010Prop54
  1
strokes_ogs.tif
102
RTVSPost2010PropOp54
 70
     1
102
RTVSPost2010Prop55
280
     0
102
RTVSPost2010PropOp55
 70
     1
102
RTVSPost2010Prop56
140
1.0
102
RTVSPost2010PropOp56
 70
     1
102
RTVSPost2010Prop57
140
1.0
102
RTVSPost2010PropOp57
 70
     1
102
RTVSPropertyOp0
 70
     1
102
RTVSPropertyOp1
 70
     1
102
RTVSPropertyOp2
 70
     1
102
RTVSPropertyOp3
 70
     1
102
RTVSPropertyOp4
 70
     1
102
RTVSPropertyOp5
 70
     1
102
RTVSPropertyOp6
 70
     1
102
RTVSPropertyOp7
 70
     1
102
RTVSPropertyOp8
 70
     1
102
RTVSPropertyOp9
 70
     1
102
RTVSPropertyOp10
 70
     1
102
RTVSPropertyOp11
 70
     1
102
RTVSPropertyOp12
 70
     1
102
RTVSPropertyOp13
 70
     1
102
RTVSPropertyOp14
 70
     1
102
RTVSPropertyOp15
 70
     1
102
RTVSPropertyOp16
 70
     1
102
RTVSPropertyOp17
 70
     1
102
RTVSPropertyOp18
 70
     1
102
RTVSPropertyOp19
 70
     1
102
RTVSPropertyOp20
 70
     1
102
RTVSPropertyOp21
 70
     1
102
RTVSPropertyOp22
 70
     1
102
RTVSPropertyOp23
 70
     1
102
RTVSPropertyOp24
 70
     1
102
RTVSPropertyOp25
 70
     1
102
RTVSPropertyOp26
 70
     1
102
RTVSPropertyOp27
 70
     1
102
RTVSPropertyOp28
 70
     1
102
RTVSPropertyOp29
 70
     1
102
RTVSPropertyOp30
 70
     1
102
RTVSPropertyOp31
 70
     1
102
RTVSPropertyOp32
 70
     1
102
RTVSPropertyOp33
 70
     1
102
RTVSPropertyOp34
 70
     1
102
RTVSPropertyOp35
 70
     1
102
RTVSPropertyOp36
 70
     1
102
RTVSPropertyOp37
 70
     1
102
RTVSPropertyOp38
 70
     1
102
RTVSPropertyOp39
 70
     1
102
RTVSPropertyOp40
 70
     1
102
RTVSPropertyOp41
 70
     1
102
RTVSPropertyOp42
 70
     1
102
RTVSPropertyOp43
 70
     1
102
RTVSPropertyOp44
 70
     1
102
RTVSPropertyOp45
 70
     1
102
RTVSPropertyOp46
 70
     1
102
RTVSPropertyOp47
 70
     1
102
RTVSPropertyOp48
 70
     1
102
RTVSPropertyOp49
 70
     1
102
RTVSPropertyOp50
 70
     1
102
RTVSPropertyOp51
 70
     0
102
RTVSPropertyOp52
 70
     0
102
RTVSPropertyOp53
 70
     1
102
RTVSPropertyOp54
 70
     1
102
RTVSPropertyOp55
 70
     1
102
RTVSPropertyOp56
 70
     1
102
RTVSPropertyOp57
 70
     1
102
RTVSPropertyOp58
 70
     1
102
RTVSPropertyOp59
 70
     1
102
RTVSPropertyOp60
 70
     1
102
RTVSPropertyOp61
 70
     1
102
RTVSPropertyOp62
 70
     1
  0
XRECORD
  5
39C52
102
{ACAD_REACTORS
330
39C51
102
}
330
39C51
100
AcDbXrecord
280
     1
102
RTVSPost2010Prop28
280
     0
102
RTVSPost2010PropOp28
 70
     1
102
RTVSPost2010Prop29
280
     1
102
RTVSPost2010PropOp29
 70
     1
102
RTVSPost2010Prop30
280
     1
102
RTVSPost2010PropOp30
 70
     1
102
RTVSPost2010Prop31
280
     0
102
RTVSPost2010PropOp31
 70
     1
102
RTVSPost2010Prop32
280
     0
102
RTVSPost2010PropOp32
 70
     1
102
RTVSPost2010Prop33
280
     0
102
RTVSPost2010PropOp33
 70
     1
102
RTVSPost2010Prop34
280
     0
102
RTVSPost2010PropOp34
 70
     1
102
RTVSPost2010Prop35
280
     0
102
RTVSPost2010PropOp35
 70
     1
102
RTVSPost2010Prop36
280
     0
102
RTVSPost2010PropOp36
 70
     1
102
RTVSPost2010Prop37
 90
       50
102
RTVSPost2010PropOp37
 70
     1
102
RTVSPost2010Prop38
140
0.0
102
RTVSPost2010PropOp38
 70
     1
102
RTVSPost2010Prop39
140
1.0
102
RTVSPost2010PropOp39
 70
     1
102
RTVSPost2010Prop40
 90
        0
102
RTVSPost2010PropOp40
 70
     1
102
RTVSPost2010Prop41ColorIndex
 90
       18
102
RTVSPost2010Prop41ColorRGB
 90
        0
102
RTVSPost2010PropOp41
 70
     1
102
RTVSPost2010Prop42
 90
       50
102
RTVSPost2010PropOp42
 70
     1
102
RTVSPost2010Prop43
 90
        3
102
RTVSPost2010PropOp43
 70
     1
102
RTVSPost2010Prop44ColorIndex
 90
        5
102
RTVSPost2010Prop44ColorRGB
 90
      255
102
RTVSPost2010PropOp44
 70
     1
102
RTVSPost2010Prop45
280
     0
102
RTVSPost2010PropOp45
 70
     1
102
RTVSPost2010Prop46
 90
       50
102
RTVSPost2010PropOp46
 70
     1
102
RTVSPost2010Prop47
 90
       50
102
RTVSPost2010PropOp47
 70
     1
102
RTVSPost2010Prop48
 90
       50
102
RTVSPost2010PropOp48
 70
     1
102
RTVSPost2010Prop49
280
     0
102
RTVSPost2010PropOp49
 70
     1
102
RTVSPost2010Prop50
 90
       50
102
RTVSPost2010PropOp50
 70
     1
102
RTVSPost2010Prop51ColorIndex
 90
      256
102
RTVSPost2010Prop51ColorRGB
 90
-16777216
102
RTVSPost2010PropOp51
 70
     0
102
RTVSPost2010Prop52
140
1.0
102
RTVSPost2010PropOp52
 70
     0
102
RTVSPost2010Prop53
 90
        2
102
RTVSPost2010PropOp53
 70
     1
102
RTVSPost2010Prop54
  1
strokes_ogs.tif
102
RTVSPost2010PropOp54
 70
     1
102
RTVSPost2010Prop55
280
     0
102
RTVSPost2010PropOp55
 70
     1
102
RTVSPost2010Prop56
140
1.0
102
RTVSPost2010PropOp56
 70
     1
102
RTVSPost2010Prop57
140
1.0
102
RTVSPost2010PropOp57
 70
     1
102
RTVSPropertyOp0
 70
     1
102
RTVSPropertyOp1
 70
     1
102
RTVSPropertyOp2
 70
     1
102
RTVSPropertyOp3
 70
     1
102
RTVSPropertyOp4
 70
     1
102
RTVSPropertyOp5
 70
     1
102
RTVSPropertyOp6
 70
     1
102
RTVSPropertyOp7
 70
     1
102
RTVSPropertyOp8
 70
     1
102
RTVSPropertyOp9
 70
     1
102
RTVSPropertyOp10
 70
     1
102
RTVSPropertyOp11
 70
     1
102
RTVSPropertyOp12
 70
     1
102
RTVSPropertyOp13
 70
     1
102
RTVSPropertyOp14
 70
     1
102
RTVSPropertyOp15
 70
     1
102
RTVSPropertyOp16
 70
     1
102
RTVSPropertyOp17
 70
     1
102
RTVSPropertyOp18
 70
     1
102
RTVSPropertyOp19
 70
     1
102
RTVSPropertyOp20
 70
     1
102
RTVSPropertyOp21
 70
     1
102
RTVSPropertyOp22
 70
     1
102
RTVSPropertyOp23
 70
     1
102
RTVSPropertyOp24
 70
     1
102
RTVSPropertyOp25
 70
     1
102
RTVSPropertyOp26
 70
     1
102
RTVSPropertyOp27
 70
     1
102
RTVSPropertyOp28
 70
     1
102
RTVSPropertyOp29
 70
     1
102
RTVSPropertyOp30
 70
     1
102
RTVSPropertyOp31
 70
     1
102
RTVSPropertyOp32
 70
     1
102
RTVSPropertyOp33
 70
     1
102
RTVSPropertyOp34
 70
     1
102
RTVSPropertyOp35
 70
     1
102
RTVSPropertyOp36
 70
     1
102
RTVSPropertyOp37
 70
     1
102
RTVSPropertyOp38
 70
     1
102
RTVSPropertyOp39
 70
     1
102
RTVSPropertyOp40
 70
     1
102
RTVSPropertyOp41
 70
     1
102
RTVSPropertyOp42
 70
     1
102
RTVSPropertyOp43
 70
     1
102
RTVSPropertyOp44
 70
     1
102
RTVSPropertyOp45
 70
     1
102
RTVSPropertyOp46
 70
     1
102
RTVSPropertyOp47
 70
     1
102
RTVSPropertyOp48
 70
     1
102
RTVSPropertyOp49
 70
     1
102
RTVSPropertyOp50
 70
     1
102
RTVSPropertyOp51
 70
     0
102
RTVSPropertyOp52
 70
     0
102
RTVSPropertyOp53
 70
     1
102
RTVSPropertyOp54
 70
     1
102
RTVSPropertyOp55
 70
     1
102
RTVSPropertyOp56
 70
     1
102
RTVSPropertyOp57
 70
     1
102
RTVSPropertyOp58
 70
     1
102
RTVSPropertyOp59
 70
     1
102
RTVSPropertyOp60
 70
     1
102
RTVSPropertyOp61
 70
     1
102
RTVSPropertyOp62
 70
     1
  0
XRECORD
  5
39C56
102
{ACAD_REACTORS
330
39C55
102
}
330
39C55
100
AcDbXrecord
280
     1
102
RTVSPost2010Prop28
280
     0
102
RTVSPost2010PropOp28
 70
     1
102
RTVSPost2010Prop29
280
     1
102
RTVSPost2010PropOp29
 70
     1
102
RTVSPost2010Prop30
280
     1
102
RTVSPost2010PropOp30
 70
     1
102
RTVSPost2010Prop31
280
     0
102
RTVSPost2010PropOp31
 70
     1
102
RTVSPost2010Prop32
280
     0
102
RTVSPost2010PropOp32
 70
     1
102
RTVSPost2010Prop33
280
     0
102
RTVSPost2010PropOp33
 70
     1
102
RTVSPost2010Prop34
280
     0
102
RTVSPost2010PropOp34
 70
     1
102
RTVSPost2010Prop35
280
     0
102
RTVSPost2010PropOp35
 70
     1
102
RTVSPost2010Prop36
280
     0
102
RTVSPost2010PropOp36
 70
     1
102
RTVSPost2010Prop37
 90
       50
102
RTVSPost2010PropOp37
 70
     1
102
RTVSPost2010Prop38
140
0.0
102
RTVSPost2010PropOp38
 70
     1
102
RTVSPost2010Prop39
140
1.0
102
RTVSPost2010PropOp39
 70
     1
102
RTVSPost2010Prop40
 90
        0
102
RTVSPost2010PropOp40
 70
     1
102
RTVSPost2010Prop41ColorIndex
 90
       18
102
RTVSPost2010Prop41ColorRGB
 90
        0
102
RTVSPost2010PropOp41
 70
     1
102
RTVSPost2010Prop42
 90
       50
102
RTVSPost2010PropOp42
 70
     1
102
RTVSPost2010Prop43
 90
        3
102
RTVSPost2010PropOp43
 70
     1
102
RTVSPost2010Prop44ColorIndex
 90
        5
102
RTVSPost2010Prop44ColorRGB
 90
      255
102
RTVSPost2010PropOp44
 70
     1
102
RTVSPost2010Prop45
280
     0
102
RTVSPost2010PropOp45
 70
     1
102
RTVSPost2010Prop46
 90
       50
102
RTVSPost2010PropOp46
 70
     1
102
RTVSPost2010Prop47
 90
       50
102
RTVSPost2010PropOp47
 70
     1
102
RTVSPost2010Prop48
 90
       50
102
RTVSPost2010PropOp48
 70
     1
102
RTVSPost2010Prop49
280
     0
102
RTVSPost2010PropOp49
 70
     1
102
RTVSPost2010Prop50
 90
       50
102
RTVSPost2010PropOp50
 70
     1
102
RTVSPost2010Prop51ColorIndex
 90
      256
102
RTVSPost2010Prop51ColorRGB
 90
-16777216
102
RTVSPost2010PropOp51
 70
     0
102
RTVSPost2010Prop52
140
1.0
102
RTVSPost2010PropOp52
 70
     0
102
RTVSPost2010Prop53
 90
        2
102
RTVSPost2010PropOp53
 70
     1
102
RTVSPost2010Prop54
  1
strokes_ogs.tif
102
RTVSPost2010PropOp54
 70
     1
102
RTVSPost2010Prop55
280
     0
102
RTVSPost2010PropOp55
 70
     1
102
RTVSPost2010Prop56
140
1.0
102
RTVSPost2010PropOp56
 70
     1
102
RTVSPost2010Prop57
140
1.0
102
RTVSPost2010PropOp57
 70
     1
102
RTVSPropertyOp0
 70
     1
102
RTVSPropertyOp1
 70
     1
102
RTVSPropertyOp2
 70
     1
102
RTVSPropertyOp3
 70
     1
102
RTVSPropertyOp4
 70
     1
102
RTVSPropertyOp5
 70
     1
102
RTVSPropertyOp6
 70
     1
102
RTVSPropertyOp7
 70
     1
102
RTVSPropertyOp8
 70
     1
102
RTVSPropertyOp9
 70
     1
102
RTVSPropertyOp10
 70
     1
102
RTVSPropertyOp11
 70
     1
102
RTVSPropertyOp12
 70
     1
102
RTVSPropertyOp13
 70
     1
102
RTVSPropertyOp14
 70
     1
102
RTVSPropertyOp15
 70
     1
102
RTVSPropertyOp16
 70
     1
102
RTVSPropertyOp17
 70
     1
102
RTVSPropertyOp18
 70
     1
102
RTVSPropertyOp19
 70
     1
102
RTVSPropertyOp20
 70
     1
102
RTVSPropertyOp21
 70
     1
102
RTVSPropertyOp22
 70
     1
102
RTVSPropertyOp23
 70
     1
102
RTVSPropertyOp24
 70
     1
102
RTVSPropertyOp25
 70
     1
102
RTVSPropertyOp26
 70
     1
102
RTVSPropertyOp27
 70
     1
102
RTVSPropertyOp28
 70
     1
102
RTVSPropertyOp29
 70
     1
102
RTVSPropertyOp30
 70
     1
102
RTVSPropertyOp31
 70
     1
102
RTVSPropertyOp32
 70
     1
102
RTVSPropertyOp33
 70
     1
102
RTVSPropertyOp34
 70
     1
102
RTVSPropertyOp35
 70
     1
102
RTVSPropertyOp36
 70
     1
102
RTVSPropertyOp37
 70
     1
102
RTVSPropertyOp38
 70
     1
102
RTVSPropertyOp39
 70
     1
102
RTVSPropertyOp40
 70
     1
102
RTVSPropertyOp41
 70
     1
102
RTVSPropertyOp42
 70
     1
102
RTVSPropertyOp43
 70
     1
102
RTVSPropertyOp44
 70
     1
102
RTVSPropertyOp45
 70
     1
102
RTVSPropertyOp46
 70
     1
102
RTVSPropertyOp47
 70
     1
102
RTVSPropertyOp48
 70
     1
102
RTVSPropertyOp49
 70
     1
102
RTVSPropertyOp50
 70
     1
102
RTVSPropertyOp51
 70
     0
102
RTVSPropertyOp52
 70
     0
102
RTVSPropertyOp53
 70
     1
102
RTVSPropertyOp54
 70
     1
102
RTVSPropertyOp55
 70
     1
102
RTVSPropertyOp56
 70
     1
102
RTVSPropertyOp57
 70
     1
102
RTVSPropertyOp58
 70
     1
102
RTVSPropertyOp59
 70
     1
102
RTVSPropertyOp60
 70
     1
102
RTVSPropertyOp61
 70
     1
102
RTVSPropertyOp62
 70
     1
  0
XRECORD
  5
39C68
102
{ACAD_REACTORS
330
39C67
102
}
330
39C67
100
AcDbXrecord
280
     1
102
RTVSPost2010Prop28
280
     0
102
RTVSPost2010PropOp28
 70
     1
102
RTVSPost2010Prop29
280
     1
102
RTVSPost2010PropOp29
 70
     1
102
RTVSPost2010Prop30
280
     1
102
RTVSPost2010PropOp30
 70
     1
102
RTVSPost2010Prop31
280
     0
102
RTVSPost2010PropOp31
 70
     1
102
RTVSPost2010Prop32
280
     0
102
RTVSPost2010PropOp32
 70
     1
102
RTVSPost2010Prop33
280
     0
102
RTVSPost2010PropOp33
 70
     1
102
RTVSPost2010Prop34
280
     0
102
RTVSPost2010PropOp34
 70
     1
102
RTVSPost2010Prop35
280
     0
102
RTVSPost2010PropOp35
 70
     1
102
RTVSPost2010Prop36
280
     0
102
RTVSPost2010PropOp36
 70
     1
102
RTVSPost2010Prop37
 90
       50
102
RTVSPost2010PropOp37
 70
     1
102
RTVSPost2010Prop38
140
0.0
102
RTVSPost2010PropOp38
 70
     1
102
RTVSPost2010Prop39
140
1.0
102
RTVSPost2010PropOp39
 70
     1
102
RTVSPost2010Prop40
 90
        0
102
RTVSPost2010PropOp40
 70
     1
102
RTVSPost2010Prop41ColorIndex
 90
       18
102
RTVSPost2010Prop41ColorRGB
 90
        0
102
RTVSPost2010PropOp41
 70
     1
102
RTVSPost2010Prop42
 90
       50
102
RTVSPost2010PropOp42
 70
     1
102
RTVSPost2010Prop43
 90
        3
102
RTVSPost2010PropOp43
 70
     1
102
RTVSPost2010Prop44ColorIndex
 90
        5
102
RTVSPost2010Prop44ColorRGB
 90
      255
102
RTVSPost2010PropOp44
 70
     1
102
RTVSPost2010Prop45
280
     0
102
RTVSPost2010PropOp45
 70
     1
102
RTVSPost2010Prop46
 90
       50
102
RTVSPost2010PropOp46
 70
     1
102
RTVSPost2010Prop47
 90
       50
102
RTVSPost2010PropOp47
 70
     1
102
RTVSPost2010Prop48
 90
       50
102
RTVSPost2010PropOp48
 70
     1
102
RTVSPost2010Prop49
280
     0
102
RTVSPost2010PropOp49
 70
     1
102
RTVSPost2010Prop50
 90
       50
102
RTVSPost2010PropOp50
 70
     1
102
RTVSPost2010Prop51ColorIndex
 90
      256
102
RTVSPost2010Prop51ColorRGB
 90
-16777216
102
RTVSPost2010PropOp51
 70
     0
102
RTVSPost2010Prop52
140
1.0
102
RTVSPost2010PropOp52
 70
     0
102
RTVSPost2010Prop53
 90
        2
102
RTVSPost2010PropOp53
 70
     1
102
RTVSPost2010Prop54
  1
strokes_ogs.tif
102
RTVSPost2010PropOp54
 70
     1
102
RTVSPost2010Prop55
280
     0
102
RTVSPost2010PropOp55
 70
     1
102
RTVSPost2010Prop56
140
1.0
102
RTVSPost2010PropOp56
 70
     1
102
RTVSPost2010Prop57
140
1.0
102
RTVSPost2010PropOp57
 70
     1
102
RTVSPropertyOp0
 70
     0
102
RTVSPropertyOp1
 70
     0
102
RTVSPropertyOp2
 70
     0
102
RTVSPropertyOp3
 70
     0
102
RTVSPropertyOp4
 70
     0
102
RTVSPropertyOp5
 70
     0
102
RTVSPropertyOp6
 70
     0
102
RTVSPropertyOp7
 70
     0
102
RTVSPropertyOp8
 70
     0
102
RTVSPropertyOp9
 70
     0
102
RTVSPropertyOp10
 70
     0
102
RTVSPropertyOp11
 70
     0
102
RTVSPropertyOp12
 70
     0
102
RTVSPropertyOp13
 70
     0
102
RTVSPropertyOp14
 70
     2
102
RTVSPropertyOp15
 70
     0
102
RTVSPropertyOp16
 70
     0
102
RTVSPropertyOp17
 70
     0
102
RTVSPropertyOp18
 70
     0
102
RTVSPropertyOp19
 70
     0
102
RTVSPropertyOp20
 70
     0
102
RTVSPropertyOp21
 70
     0
102
RTVSPropertyOp22
 70
     0
102
RTVSPropertyOp23
 70
     0
102
RTVSPropertyOp24
 70
     0
102
RTVSPropertyOp25
 70
     0
102
RTVSPropertyOp26
 70
     0
102
RTVSPropertyOp27
 70
     0
102
RTVSPropertyOp28
 70
     1
102
RTVSPropertyOp29
 70
     1
102
RTVSPropertyOp30
 70
     1
102
RTVSPropertyOp31
 70
     1
102
RTVSPropertyOp32
 70
     1
102
RTVSPropertyOp33
 70
     1
102
RTVSPropertyOp34
 70
     1
102
RTVSPropertyOp35
 70
     1
102
RTVSPropertyOp36
 70
     1
102
RTVSPropertyOp37
 70
     1
102
RTVSPropertyOp38
 70
     1
102
RTVSPropertyOp39
 70
     1
102
RTVSPropertyOp40
 70
     1
102
RTVSPropertyOp41
 70
     1
102
RTVSPropertyOp42
 70
     1
102
RTVSPropertyOp43
 70
     1
102
RTVSPropertyOp44
 70
     1
102
RTVSPropertyOp45
 70
     1
102
RTVSPropertyOp46
 70
     1
102
RTVSPropertyOp47
 70
     1
102
RTVSPropertyOp48
 70
     1
102
RTVSPropertyOp49
 70
     1
102
RTVSPropertyOp50
 70
     1
102
RTVSPropertyOp51
 70
     0
102
RTVSPropertyOp52
 70
     0
102
RTVSPropertyOp53
 70
     1
102
RTVSPropertyOp54
 70
     1
102
RTVSPropertyOp55
 70
     1
102
RTVSPropertyOp56
 70
     1
102
RTVSPropertyOp57
 70
     1
102
RTVSPropertyOp58
 70
     1
102
RTVSPropertyOp59
 70
     1
102
RTVSPropertyOp60
 70
     1
102
RTVSPropertyOp61
 70
     1
102
RTVSPropertyOp62
 70
     1
  0
XRECORD
  5
39C5E
102
{ACAD_REACTORS
330
39C5D
102
}
330
39C5D
100
AcDbXrecord
280
     1
102
RTVSPost2010Prop28
280
     0
102
RTVSPost2010PropOp28
 70
     1
102
RTVSPost2010Prop29
280
     1
102
RTVSPost2010PropOp29
 70
     1
102
RTVSPost2010Prop30
280
     1
102
RTVSPost2010PropOp30
 70
     1
102
RTVSPost2010Prop31
280
     0
102
RTVSPost2010PropOp31
 70
     1
102
RTVSPost2010Prop32
280
     0
102
RTVSPost2010PropOp32
 70
     1
102
RTVSPost2010Prop33
280
     0
102
RTVSPost2010PropOp33
 70
     1
102
RTVSPost2010Prop34
280
     0
102
RTVSPost2010PropOp34
 70
     1
102
RTVSPost2010Prop35
280
     0
102
RTVSPost2010PropOp35
 70
     1
102
RTVSPost2010Prop36
280
     0
102
RTVSPost2010PropOp36
 70
     1
102
RTVSPost2010Prop37
 90
       50
102
RTVSPost2010PropOp37
 70
     1
102
RTVSPost2010Prop38
140
0.0
102
RTVSPost2010PropOp38
 70
     1
102
RTVSPost2010Prop39
140
1.0
102
RTVSPost2010PropOp39
 70
     1
102
RTVSPost2010Prop40
 90
        0
102
RTVSPost2010PropOp40
 70
     1
102
RTVSPost2010Prop41ColorIndex
 90
       18
102
RTVSPost2010Prop41ColorRGB
 90
        0
102
RTVSPost2010PropOp41
 70
     1
102
RTVSPost2010Prop42
 90
       50
102
RTVSPost2010PropOp42
 70
     1
102
RTVSPost2010Prop43
 90
        3
102
RTVSPost2010PropOp43
 70
     1
102
RTVSPost2010Prop44ColorIndex
 90
        5
102
RTVSPost2010Prop44ColorRGB
 90
      255
102
RTVSPost2010PropOp44
 70
     1
102
RTVSPost2010Prop45
280
     0
102
RTVSPost2010PropOp45
 70
     1
102
RTVSPost2010Prop46
 90
       50
102
RTVSPost2010PropOp46
 70
     1
102
RTVSPost2010Prop47
 90
       50
102
RTVSPost2010PropOp47
 70
     1
102
RTVSPost2010Prop48
 90
       50
102
RTVSPost2010PropOp48
 70
     1
102
RTVSPost2010Prop49
280
     0
102
RTVSPost2010PropOp49
 70
     1
102
RTVSPost2010Prop50
 90
       50
102
RTVSPost2010PropOp50
 70
     1
102
RTVSPost2010Prop51ColorIndex
 90
      256
102
RTVSPost2010Prop51ColorRGB
 90
-16777216
102
RTVSPost2010PropOp51
 70
     0
102
RTVSPost2010Prop52
140
1.0
102
RTVSPost2010PropOp52
 70
     0
102
RTVSPost2010Prop53
 90
        2
102
RTVSPost2010PropOp53
 70
     1
102
RTVSPost2010Prop54
  1
strokes_ogs.tif
102
RTVSPost2010PropOp54
 70
     1
102
RTVSPost2010Prop55
280
     0
102
RTVSPost2010PropOp55
 70
     1
102
RTVSPost2010Prop56
140
1.0
102
RTVSPost2010PropOp56
 70
     1
102
RTVSPost2010Prop57
140
1.0
102
RTVSPost2010PropOp57
 70
     1
102
RTVSPropertyOp0
 70
     1
102
RTVSPropertyOp1
 70
     1
102
RTVSPropertyOp2
 70
     1
102
RTVSPropertyOp3
 70
     1
102
RTVSPropertyOp4
 70
     1
102
RTVSPropertyOp5
 70
     1
102
RTVSPropertyOp6
 70
     1
102
RTVSPropertyOp7
 70
     1
102
RTVSPropertyOp8
 70
     1
102
RTVSPropertyOp9
 70
     1
102
RTVSPropertyOp10
 70
     1
102
RTVSPropertyOp11
 70
     1
102
RTVSPropertyOp12
 70
     1
102
RTVSPropertyOp13
 70
     1
102
RTVSPropertyOp14
 70
     1
102
RTVSPropertyOp15
 70
     1
102
RTVSPropertyOp16
 70
     1
102
RTVSPropertyOp17
 70
     1
102
RTVSPropertyOp18
 70
     1
102
RTVSPropertyOp19
 70
     1
102
RTVSPropertyOp20
 70
     1
102
RTVSPropertyOp21
 70
     1
102
RTVSPropertyOp22
 70
     1
102
RTVSPropertyOp23
 70
     1
102
RTVSPropertyOp24
 70
     1
102
RTVSPropertyOp25
 70
     1
102
RTVSPropertyOp26
 70
     1
102
RTVSPropertyOp27
 70
     1
102
RTVSPropertyOp28
 70
     1
102
RTVSPropertyOp29
 70
     1
102
RTVSPropertyOp30
 70
     1
102
RTVSPropertyOp31
 70
     1
102
RTVSPropertyOp32
 70
     1
102
RTVSPropertyOp33
 70
     1
102
RTVSPropertyOp34
 70
     1
102
RTVSPropertyOp35
 70
     1
102
RTVSPropertyOp36
 70
     1
102
RTVSPropertyOp37
 70
     1
102
RTVSPropertyOp38
 70
     1
102
RTVSPropertyOp39
 70
     1
102
RTVSPropertyOp40
 70
     1
102
RTVSPropertyOp41
 70
     1
102
RTVSPropertyOp42
 70
     1
102
RTVSPropertyOp43
 70
     1
102
RTVSPropertyOp44
 70
     1
102
RTVSPropertyOp45
 70
     1
102
RTVSPropertyOp46
 70
     1
102
RTVSPropertyOp47
 70
     1
102
RTVSPropertyOp48
 70
     1
102
RTVSPropertyOp49
 70
     1
102
RTVSPropertyOp50
 70
     1
102
RTVSPropertyOp51
 70
     0
102
RTVSPropertyOp52
 70
     0
102
RTVSPropertyOp53
 70
     1
102
RTVSPropertyOp54
 70
     1
102
RTVSPropertyOp55
 70
     1
102
RTVSPropertyOp56
 70
     1
102
RTVSPropertyOp57
 70
     1
102
RTVSPropertyOp58
 70
     1
102
RTVSPropertyOp59
 70
     1
102
RTVSPropertyOp60
 70
     1
102
RTVSPropertyOp61
 70
     1
102
RTVSPropertyOp62
 70
     1
  0
XRECORD
  5
39C42
102
{ACAD_REACTORS
330
39C41
102
}
330
39C41
100
AcDbXrecord
280
     1
102
RTVSPost2010Prop28
280
     0
102
RTVSPost2010PropOp28
 70
     1
102
RTVSPost2010Prop29
280
     1
102
RTVSPost2010PropOp29
 70
     1
102
RTVSPost2010Prop30
280
     1
102
RTVSPost2010PropOp30
 70
     1
102
RTVSPost2010Prop31
280
     0
102
RTVSPost2010PropOp31
 70
     1
102
RTVSPost2010Prop32
280
     0
102
RTVSPost2010PropOp32
 70
     1
102
RTVSPost2010Prop33
280
     0
102
RTVSPost2010PropOp33
 70
     1
102
RTVSPost2010Prop34
280
     0
102
RTVSPost2010PropOp34
 70
     1
102
RTVSPost2010Prop35
280
     0
102
RTVSPost2010PropOp35
 70
     1
102
RTVSPost2010Prop36
280
     0
102
RTVSPost2010PropOp36
 70
     1
102
RTVSPost2010Prop37
 90
       50
102
RTVSPost2010PropOp37
 70
     1
102
RTVSPost2010Prop38
140
0.0
102
RTVSPost2010PropOp38
 70
     1
102
RTVSPost2010Prop39
140
1.0
102
RTVSPost2010PropOp39
 70
     1
102
RTVSPost2010Prop40
 90
        0
102
RTVSPost2010PropOp40
 70
     1
102
RTVSPost2010Prop41ColorIndex
 90
       18
102
RTVSPost2010Prop41ColorRGB
 90
        0
102
RTVSPost2010PropOp41
 70
     1
102
RTVSPost2010Prop42
 90
       50
102
RTVSPost2010PropOp42
 70
     1
102
RTVSPost2010Prop43
 90
        3
102
RTVSPost2010PropOp43
 70
     1
102
RTVSPost2010Prop44ColorIndex
 90
        5
102
RTVSPost2010Prop44ColorRGB
 90
      255
102
RTVSPost2010PropOp44
 70
     1
102
RTVSPost2010Prop45
280
     0
102
RTVSPost2010PropOp45
 70
     1
102
RTVSPost2010Prop46
 90
       50
102
RTVSPost2010PropOp46
 70
     1
102
RTVSPost2010Prop47
 90
       50
102
RTVSPost2010PropOp47
 70
     1
102
RTVSPost2010Prop48
 90
       50
102
RTVSPost2010PropOp48
 70
     1
102
RTVSPost2010Prop49
280
     0
102
RTVSPost2010PropOp49
 70
     1
102
RTVSPost2010Prop50
 90
       50
102
RTVSPost2010PropOp50
 70
     1
102
RTVSPost2010Prop51ColorIndex
 90
      256
102
RTVSPost2010Prop51ColorRGB
 90
-16777216
102
RTVSPost2010PropOp51
 70
     0
102
RTVSPost2010Prop52
140
1.0
102
RTVSPost2010PropOp52
 70
     0
102
RTVSPost2010Prop53
 90
        2
102
RTVSPost2010PropOp53
 70
     1
102
RTVSPost2010Prop54
  1
strokes_ogs.tif
102
RTVSPost2010PropOp54
 70
     1
102
RTVSPost2010Prop55
280
     0
102
RTVSPost2010PropOp55
 70
     1
102
RTVSPost2010Prop56
140
1.0
102
RTVSPost2010PropOp56
 70
     1
102
RTVSPost2010Prop57
140
1.0
102
RTVSPost2010PropOp57
 70
     1
102
RTVSPropertyOp0
 70
     1
102
RTVSPropertyOp1
 70
     1
102
RTVSPropertyOp2
 70
     1
102
RTVSPropertyOp3
 70
     1
102
RTVSPropertyOp4
 70
     1
102
RTVSPropertyOp5
 70
     1
102
RTVSPropertyOp6
 70
     1
102
RTVSPropertyOp7
 70
     1
102
RTVSPropertyOp8
 70
     1
102
RTVSPropertyOp9
 70
     1
102
RTVSPropertyOp10
 70
     1
102
RTVSPropertyOp11
 70
     1
102
RTVSPropertyOp12
 70
     1
102
RTVSPropertyOp13
 70
     1
102
RTVSPropertyOp14
 70
     1
102
RTVSPropertyOp15
 70
     1
102
RTVSPropertyOp16
 70
     1
102
RTVSPropertyOp17
 70
     1
102
RTVSPropertyOp18
 70
     1
102
RTVSPropertyOp19
 70
     1
102
RTVSPropertyOp20
 70
     1
102
RTVSPropertyOp21
 70
     1
102
RTVSPropertyOp22
 70
     1
102
RTVSPropertyOp23
 70
     1
102
RTVSPropertyOp24
 70
     1
102
RTVSPropertyOp25
 70
     1
102
RTVSPropertyOp26
 70
     1
102
RTVSPropertyOp27
 70
     1
102
RTVSPropertyOp28
 70
     1
102
RTVSPropertyOp29
 70
     1
102
RTVSPropertyOp30
 70
     1
102
RTVSPropertyOp31
 70
     1
102
RTVSPropertyOp32
 70
     1
102
RTVSPropertyOp33
 70
     1
102
RTVSPropertyOp34
 70
     1
102
RTVSPropertyOp35
 70
     1
102
RTVSPropertyOp36
 70
     1
102
RTVSPropertyOp37
 70
     1
102
RTVSPropertyOp38
 70
     1
102
RTVSPropertyOp39
 70
     1
102
RTVSPropertyOp40
 70
     1
102
RTVSPropertyOp41
 70
     1
102
RTVSPropertyOp42
 70
     1
102
RTVSPropertyOp43
 70
     1
102
RTVSPropertyOp44
 70
     1
102
RTVSPropertyOp45
 70
     1
102
RTVSPropertyOp46
 70
     1
102
RTVSPropertyOp47
 70
     1
102
RTVSPropertyOp48
 70
     1
102
RTVSPropertyOp49
 70
     1
102
RTVSPropertyOp50
 70
     1
102
RTVSPropertyOp51
 70
     0
102
RTVSPropertyOp52
 70
     0
102
RTVSPropertyOp53
 70
     1
102
RTVSPropertyOp54
 70
     1
102
RTVSPropertyOp55
 70
     1
102
RTVSPropertyOp56
 70
     1
102
RTVSPropertyOp57
 70
     1
102
RTVSPropertyOp58
 70
     1
102
RTVSPropertyOp59
 70
     1
102
RTVSPropertyOp60
 70
     1
102
RTVSPropertyOp61
 70
     1
102
RTVSPropertyOp62
 70
     1
  0
XRECORD
  5
39C44
102
{ACAD_REACTORS
330
39C43
102
}
330
39C43
100
AcDbXrecord
280
     1
102
RTVSPost2010Prop28
280
     0
102
RTVSPost2010PropOp28
 70
     1
102
RTVSPost2010Prop29
280
     1
102
RTVSPost2010PropOp29
 70
     1
102
RTVSPost2010Prop30
280
     1
102
RTVSPost2010PropOp30
 70
     1
102
RTVSPost2010Prop31
280
     0
102
RTVSPost2010PropOp31
 70
     1
102
RTVSPost2010Prop32
280
     0
102
RTVSPost2010PropOp32
 70
     1
102
RTVSPost2010Prop33
280
     0
102
RTVSPost2010PropOp33
 70
     1
102
RTVSPost2010Prop34
280
     0
102
RTVSPost2010PropOp34
 70
     1
102
RTVSPost2010Prop35
280
     0
102
RTVSPost2010PropOp35
 70
     1
102
RTVSPost2010Prop36
280
     0
102
RTVSPost2010PropOp36
 70
     1
102
RTVSPost2010Prop37
 90
       50
102
RTVSPost2010PropOp37
 70
     1
102
RTVSPost2010Prop38
140
0.0
102
RTVSPost2010PropOp38
 70
     1
102
RTVSPost2010Prop39
140
1.0
102
RTVSPost2010PropOp39
 70
     1
102
RTVSPost2010Prop40
 90
        0
102
RTVSPost2010PropOp40
 70
     1
102
RTVSPost2010Prop41ColorIndex
 90
       18
102
RTVSPost2010Prop41ColorRGB
 90
        0
102
RTVSPost2010PropOp41
 70
     1
102
RTVSPost2010Prop42
 90
       50
102
RTVSPost2010PropOp42
 70
     1
102
RTVSPost2010Prop43
 90
        3
102
RTVSPost2010PropOp43
 70
     1
102
RTVSPost2010Prop44ColorIndex
 90
        5
102
RTVSPost2010Prop44ColorRGB
 90
      255
102
RTVSPost2010PropOp44
 70
     1
102
RTVSPost2010Prop45
280
     0
102
RTVSPost2010PropOp45
 70
     1
102
RTVSPost2010Prop46
 90
       50
102
RTVSPost2010PropOp46
 70
     1
102
RTVSPost2010Prop47
 90
       50
102
RTVSPost2010PropOp47
 70
     1
102
RTVSPost2010Prop48
 90
       50
102
RTVSPost2010PropOp48
 70
     1
102
RTVSPost2010Prop49
280
     0
102
RTVSPost2010PropOp49
 70
     1
102
RTVSPost2010Prop50
 90
       50
102
RTVSPost2010PropOp50
 70
     1
102
RTVSPost2010Prop51ColorIndex
 90
      256
102
RTVSPost2010Prop51ColorRGB
 90
-16777216
102
RTVSPost2010PropOp51
 70
     0
102
RTVSPost2010Prop52
140
1.0
102
RTVSPost2010PropOp52
 70
     0
102
RTVSPost2010Prop53
 90
        2
102
RTVSPost2010PropOp53
 70
     1
102
RTVSPost2010Prop54
  1
strokes_ogs.tif
102
RTVSPost2010PropOp54
 70
     1
102
RTVSPost2010Prop55
280
     0
102
RTVSPost2010PropOp55
 70
     1
102
RTVSPost2010Prop56
140
1.0
102
RTVSPost2010PropOp56
 70
     1
102
RTVSPost2010Prop57
140
1.0
102
RTVSPost2010PropOp57
 70
     1
102
RTVSPropertyOp0
 70
     1
102
RTVSPropertyOp1
 70
     1
102
RTVSPropertyOp2
 70
     1
102
RTVSPropertyOp3
 70
     1
102
RTVSPropertyOp4
 70
     1
102
RTVSPropertyOp5
 70
     1
102
RTVSPropertyOp6
 70
     1
102
RTVSPropertyOp7
 70
     1
102
RTVSPropertyOp8
 70
     1
102
RTVSPropertyOp9
 70
     1
102
RTVSPropertyOp10
 70
     1
102
RTVSPropertyOp11
 70
     1
102
RTVSPropertyOp12
 70
     1
102
RTVSPropertyOp13
 70
     1
102
RTVSPropertyOp14
 70
     1
102
RTVSPropertyOp15
 70
     1
102
RTVSPropertyOp16
 70
     1
102
RTVSPropertyOp17
 70
     1
102
RTVSPropertyOp18
 70
     1
102
RTVSPropertyOp19
 70
     1
102
RTVSPropertyOp20
 70
     1
102
RTVSPropertyOp21
 70
     1
102
RTVSPropertyOp22
 70
     1
102
RTVSPropertyOp23
 70
     1
102
RTVSPropertyOp24
 70
     1
102
RTVSPropertyOp25
 70
     1
102
RTVSPropertyOp26
 70
     1
102
RTVSPropertyOp27
 70
     1
102
RTVSPropertyOp28
 70
     1
102
RTVSPropertyOp29
 70
     1
102
RTVSPropertyOp30
 70
     1
102
RTVSPropertyOp31
 70
     1
102
RTVSPropertyOp32
 70
     1
102
RTVSPropertyOp33
 70
     1
102
RTVSPropertyOp34
 70
     1
102
RTVSPropertyOp35
 70
     1
102
RTVSPropertyOp36
 70
     1
102
RTVSPropertyOp37
 70
     1
102
RTVSPropertyOp38
 70
     1
102
RTVSPropertyOp39
 70
     1
102
RTVSPropertyOp40
 70
     1
102
RTVSPropertyOp41
 70
     1
102
RTVSPropertyOp42
 70
     1
102
RTVSPropertyOp43
 70
     1
102
RTVSPropertyOp44
 70
     1
102
RTVSPropertyOp45
 70
     1
102
RTVSPropertyOp46
 70
     1
102
RTVSPropertyOp47
 70
     1
102
RTVSPropertyOp48
 70
     1
102
RTVSPropertyOp49
 70
     1
102
RTVSPropertyOp50
 70
     1
102
RTVSPropertyOp51
 70
     0
102
RTVSPropertyOp52
 70
     0
102
RTVSPropertyOp53
 70
     1
102
RTVSPropertyOp54
 70
     1
102
RTVSPropertyOp55
 70
     1
102
RTVSPropertyOp56
 70
     1
102
RTVSPropertyOp57
 70
     1
102
RTVSPropertyOp58
 70
     1
102
RTVSPropertyOp59
 70
     1
102
RTVSPropertyOp60
 70
     1
102
RTVSPropertyOp61
 70
     1
102
RTVSPropertyOp62
 70
     1
  0
XRECORD
  5
39C46
102
{ACAD_REACTORS
330
39C45
102
}
330
39C45
100
AcDbXrecord
280
     1
102
RTVSPost2010Prop28
280
     0
102
RTVSPost2010PropOp28
 70
     1
102
RTVSPost2010Prop29
280
     1
102
RTVSPost2010PropOp29
 70
     1
102
RTVSPost2010Prop30
280
     1
102
RTVSPost2010PropOp30
 70
     1
102
RTVSPost2010Prop31
280
     0
102
RTVSPost2010PropOp31
 70
     1
102
RTVSPost2010Prop32
280
     0
102
RTVSPost2010PropOp32
 70
     1
102
RTVSPost2010Prop33
280
     0
102
RTVSPost2010PropOp33
 70
     1
102
RTVSPost2010Prop34
280
     0
102
RTVSPost2010PropOp34
 70
     1
102
RTVSPost2010Prop35
280
     0
102
RTVSPost2010PropOp35
 70
     1
102
RTVSPost2010Prop36
280
     0
102
RTVSPost2010PropOp36
 70
     1
102
RTVSPost2010Prop37
 90
       50
102
RTVSPost2010PropOp37
 70
     1
102
RTVSPost2010Prop38
140
0.0
102
RTVSPost2010PropOp38
 70
     1
102
RTVSPost2010Prop39
140
1.0
102
RTVSPost2010PropOp39
 70
     1
102
RTVSPost2010Prop40
 90
        0
102
RTVSPost2010PropOp40
 70
     1
102
RTVSPost2010Prop41ColorIndex
 90
       18
102
RTVSPost2010Prop41ColorRGB
 90
        0
102
RTVSPost2010PropOp41
 70
     1
102
RTVSPost2010Prop42
 90
       50
102
RTVSPost2010PropOp42
 70
     1
102
RTVSPost2010Prop43
 90
        3
102
RTVSPost2010PropOp43
 70
     1
102
RTVSPost2010Prop44ColorIndex
 90
        5
102
RTVSPost2010Prop44ColorRGB
 90
      255
102
RTVSPost2010PropOp44
 70
     1
102
RTVSPost2010Prop45
280
     0
102
RTVSPost2010PropOp45
 70
     1
102
RTVSPost2010Prop46
 90
       50
102
RTVSPost2010PropOp46
 70
     1
102
RTVSPost2010Prop47
 90
       50
102
RTVSPost2010PropOp47
 70
     1
102
RTVSPost2010Prop48
 90
       50
102
RTVSPost2010PropOp48
 70
     1
102
RTVSPost2010Prop49
280
     0
102
RTVSPost2010PropOp49
 70
     1
102
RTVSPost2010Prop50
 90
       50
102
RTVSPost2010PropOp50
 70
     1
102
RTVSPost2010Prop51ColorIndex
 90
      256
102
RTVSPost2010Prop51ColorRGB
 90
-16777216
102
RTVSPost2010PropOp51
 70
     0
102
RTVSPost2010Prop52
140
1.0
102
RTVSPost2010PropOp52
 70
     0
102
RTVSPost2010Prop53
 90
        2
102
RTVSPost2010PropOp53
 70
     1
102
RTVSPost2010Prop54
  1
strokes_ogs.tif
102
RTVSPost2010PropOp54
 70
     1
102
RTVSPost2010Prop55
280
     0
102
RTVSPost2010PropOp55
 70
     1
102
RTVSPost2010Prop56
140
1.0
102
RTVSPost2010PropOp56
 70
     1
102
RTVSPost2010Prop57
140
1.0
102
RTVSPost2010PropOp57
 70
     1
102
RTVSPropertyOp0
 70
     1
102
RTVSPropertyOp1
 70
     1
102
RTVSPropertyOp2
 70
     1
102
RTVSPropertyOp3
 70
     1
102
RTVSPropertyOp4
 70
     1
102
RTVSPropertyOp5
 70
     1
102
RTVSPropertyOp6
 70
     1
102
RTVSPropertyOp7
 70
     1
102
RTVSPropertyOp8
 70
     1
102
RTVSPropertyOp9
 70
     1
102
RTVSPropertyOp10
 70
     1
102
RTVSPropertyOp11
 70
     1
102
RTVSPropertyOp12
 70
     1
102
RTVSPropertyOp13
 70
     1
102
RTVSPropertyOp14
 70
     1
102
RTVSPropertyOp15
 70
     1
102
RTVSPropertyOp16
 70
     1
102
RTVSPropertyOp17
 70
     1
102
RTVSPropertyOp18
 70
     1
102
RTVSPropertyOp19
 70
     1
102
RTVSPropertyOp20
 70
     1
102
RTVSPropertyOp21
 70
     1
102
RTVSPropertyOp22
 70
     1
102
RTVSPropertyOp23
 70
     1
102
RTVSPropertyOp24
 70
     1
102
RTVSPropertyOp25
 70
     1
102
RTVSPropertyOp26
 70
     1
102
RTVSPropertyOp27
 70
     1
102
RTVSPropertyOp28
 70
     1
102
RTVSPropertyOp29
 70
     1
102
RTVSPropertyOp30
 70
     1
102
RTVSPropertyOp31
 70
     1
102
RTVSPropertyOp32
 70
     1
102
RTVSPropertyOp33
 70
     1
102
RTVSPropertyOp34
 70
     1
102
RTVSPropertyOp35
 70
     1
102
RTVSPropertyOp36
 70
     1
102
RTVSPropertyOp37
 70
     1
102
RTVSPropertyOp38
 70
     1
102
RTVSPropertyOp39
 70
     1
102
RTVSPropertyOp40
 70
     1
102
RTVSPropertyOp41
 70
     1
102
RTVSPropertyOp42
 70
     1
102
RTVSPropertyOp43
 70
     1
102
RTVSPropertyOp44
 70
     1
102
RTVSPropertyOp45
 70
     1
102
RTVSPropertyOp46
 70
     1
102
RTVSPropertyOp47
 70
     1
102
RTVSPropertyOp48
 70
     1
102
RTVSPropertyOp49
 70
     1
102
RTVSPropertyOp50
 70
     1
102
RTVSPropertyOp51
 70
     0
102
RTVSPropertyOp52
 70
     0
102
RTVSPropertyOp53
 70
     1
102
RTVSPropertyOp54
 70
     1
102
RTVSPropertyOp55
 70
     1
102
RTVSPropertyOp56
 70
     1
102
RTVSPropertyOp57
 70
     1
102
RTVSPropertyOp58
 70
     1
102
RTVSPropertyOp59
 70
     1
102
RTVSPropertyOp60
 70
     1
102
RTVSPropertyOp61
 70
     1
102
RTVSPropertyOp62
 70
     1
  0
XRECORD
  5
39C48
102
{ACAD_REACTORS
330
39C47
102
}
330
39C47
100
AcDbXrecord
280
     1
102
RTVSPost2010Prop28
280
     0
102
RTVSPost2010PropOp28
 70
     1
102
RTVSPost2010Prop29
280
     1
102
RTVSPost2010PropOp29
 70
     1
102
RTVSPost2010Prop30
280
     1
102
RTVSPost2010PropOp30
 70
     1
102
RTVSPost2010Prop31
280
     0
102
RTVSPost2010PropOp31
 70
     1
102
RTVSPost2010Prop32
280
     0
102
RTVSPost2010PropOp32
 70
     1
102
RTVSPost2010Prop33
280
     0
102
RTVSPost2010PropOp33
 70
     1
102
RTVSPost2010Prop34
280
     0
102
RTVSPost2010PropOp34
 70
     1
102
RTVSPost2010Prop35
280
     0
102
RTVSPost2010PropOp35
 70
     1
102
RTVSPost2010Prop36
280
     0
102
RTVSPost2010PropOp36
 70
     1
102
RTVSPost2010Prop37
 90
       50
102
RTVSPost2010PropOp37
 70
     1
102
RTVSPost2010Prop38
140
0.0
102
RTVSPost2010PropOp38
 70
     1
102
RTVSPost2010Prop39
140
1.0
102
RTVSPost2010PropOp39
 70
     1
102
RTVSPost2010Prop40
 90
        0
102
RTVSPost2010PropOp40
 70
     1
102
RTVSPost2010Prop41ColorIndex
 90
       18
102
RTVSPost2010Prop41ColorRGB
 90
        0
102
RTVSPost2010PropOp41
 70
     1
102
RTVSPost2010Prop42
 90
       50
102
RTVSPost2010PropOp42
 70
     1
102
RTVSPost2010Prop43
 90
        3
102
RTVSPost2010PropOp43
 70
     1
102
RTVSPost2010Prop44ColorIndex
 90
        5
102
RTVSPost2010Prop44ColorRGB
 90
      255
102
RTVSPost2010PropOp44
 70
     1
102
RTVSPost2010Prop45
280
     0
102
RTVSPost2010PropOp45
 70
     1
102
RTVSPost2010Prop46
 90
       50
102
RTVSPost2010PropOp46
 70
     1
102
RTVSPost2010Prop47
 90
       50
102
RTVSPost2010PropOp47
 70
     1
102
RTVSPost2010Prop48
 90
       50
102
RTVSPost2010PropOp48
 70
     1
102
RTVSPost2010Prop49
280
     0
102
RTVSPost2010PropOp49
 70
     1
102
RTVSPost2010Prop50
 90
       50
102
RTVSPost2010PropOp50
 70
     1
102
RTVSPost2010Prop51ColorIndex
 90
      256
102
RTVSPost2010Prop51ColorRGB
 90
-16777216
102
RTVSPost2010PropOp51
 70
     0
102
RTVSPost2010Prop52
140
1.0
102
RTVSPost2010PropOp52
 70
     0
102
RTVSPost2010Prop53
 90
        2
102
RTVSPost2010PropOp53
 70
     1
102
RTVSPost2010Prop54
  1
strokes_ogs.tif
102
RTVSPost2010PropOp54
 70
     1
102
RTVSPost2010Prop55
280
     0
102
RTVSPost2010PropOp55
 70
     1
102
RTVSPost2010Prop56
140
1.0
102
RTVSPost2010PropOp56
 70
     1
102
RTVSPost2010Prop57
140
1.0
102
RTVSPost2010PropOp57
 70
     1
102
RTVSPropertyOp0
 70
     1
102
RTVSPropertyOp1
 70
     1
102
RTVSPropertyOp2
 70
     1
102
RTVSPropertyOp3
 70
     1
102
RTVSPropertyOp4
 70
     1
102
RTVSPropertyOp5
 70
     1
102
RTVSPropertyOp6
 70
     1
102
RTVSPropertyOp7
 70
     1
102
RTVSPropertyOp8
 70
     1
102
RTVSPropertyOp9
 70
     1
102
RTVSPropertyOp10
 70
     1
102
RTVSPropertyOp11
 70
     1
102
RTVSPropertyOp12
 70
     1
102
RTVSPropertyOp13
 70
     1
102
RTVSPropertyOp14
 70
     1
102
RTVSPropertyOp15
 70
     1
102
RTVSPropertyOp16
 70
     1
102
RTVSPropertyOp17
 70
     1
102
RTVSPropertyOp18
 70
     1
102
RTVSPropertyOp19
 70
     1
102
RTVSPropertyOp20
 70
     1
102
RTVSPropertyOp21
 70
     1
102
RTVSPropertyOp22
 70
     1
102
RTVSPropertyOp23
 70
     1
102
RTVSPropertyOp24
 70
     1
102
RTVSPropertyOp25
 70
     1
102
RTVSPropertyOp26
 70
     1
102
RTVSPropertyOp27
 70
     1
102
RTVSPropertyOp28
 70
     1
102
RTVSPropertyOp29
 70
     1
102
RTVSPropertyOp30
 70
     1
102
RTVSPropertyOp31
 70
     1
102
RTVSPropertyOp32
 70
     1
102
RTVSPropertyOp33
 70
     1
102
RTVSPropertyOp34
 70
     1
102
RTVSPropertyOp35
 70
     1
102
RTVSPropertyOp36
 70
     1
102
RTVSPropertyOp37
 70
     1
102
RTVSPropertyOp38
 70
     1
102
RTVSPropertyOp39
 70
     1
102
RTVSPropertyOp40
 70
     1
102
RTVSPropertyOp41
 70
     1
102
RTVSPropertyOp42
 70
     1
102
RTVSPropertyOp43
 70
     1
102
RTVSPropertyOp44
 70
     1
102
RTVSPropertyOp45
 70
     1
102
RTVSPropertyOp46
 70
     1
102
RTVSPropertyOp47
 70
     1
102
RTVSPropertyOp48
 70
     1
102
RTVSPropertyOp49
 70
     1
102
RTVSPropertyOp50
 70
     1
102
RTVSPropertyOp51
 70
     0
102
RTVSPropertyOp52
 70
     0
102
RTVSPropertyOp53
 70
     1
102
RTVSPropertyOp54
 70
     1
102
RTVSPropertyOp55
 70
     1
102
RTVSPropertyOp56
 70
     1
102
RTVSPropertyOp57
 70
     1
102
RTVSPropertyOp58
 70
     1
102
RTVSPropertyOp59
 70
     1
102
RTVSPropertyOp60
 70
     1
102
RTVSPropertyOp61
 70
     1
102
RTVSPropertyOp62
 70
     1
  0
XRECORD
  5
39C50
102
{ACAD_REACTORS
330
39C4F
102
}
330
39C4F
100
AcDbXrecord
280
     1
102
RTVSPost2010Prop28
280
     0
102
RTVSPost2010PropOp28
 70
     1
102
RTVSPost2010Prop29
280
     1
102
RTVSPost2010PropOp29
 70
     1
102
RTVSPost2010Prop30
280
     1
102
RTVSPost2010PropOp30
 70
     1
102
RTVSPost2010Prop31
280
     0
102
RTVSPost2010PropOp31
 70
     1
102
RTVSPost2010Prop32
280
     0
102
RTVSPost2010PropOp32
 70
     1
102
RTVSPost2010Prop33
280
     0
102
RTVSPost2010PropOp33
 70
     1
102
RTVSPost2010Prop34
280
     0
102
RTVSPost2010PropOp34
 70
     1
102
RTVSPost2010Prop35
280
     0
102
RTVSPost2010PropOp35
 70
     1
102
RTVSPost2010Prop36
280
     0
102
RTVSPost2010PropOp36
 70
     1
102
RTVSPost2010Prop37
 90
       50
102
RTVSPost2010PropOp37
 70
     1
102
RTVSPost2010Prop38
140
0.0
102
RTVSPost2010PropOp38
 70
     1
102
RTVSPost2010Prop39
140
1.0
102
RTVSPost2010PropOp39
 70
     1
102
RTVSPost2010Prop40
 90
        0
102
RTVSPost2010PropOp40
 70
     1
102
RTVSPost2010Prop41ColorIndex
 90
       18
102
RTVSPost2010Prop41ColorRGB
 90
        0
102
RTVSPost2010PropOp41
 70
     1
102
RTVSPost2010Prop42
 90
       50
102
RTVSPost2010PropOp42
 70
     1
102
RTVSPost2010Prop43
 90
        3
102
RTVSPost2010PropOp43
 70
     1
102
RTVSPost2010Prop44ColorIndex
 90
        5
102
RTVSPost2010Prop44ColorRGB
 90
      255
102
RTVSPost2010PropOp44
 70
     1
102
RTVSPost2010Prop45
280
     0
102
RTVSPost2010PropOp45
 70
     1
102
RTVSPost2010Prop46
 90
       50
102
RTVSPost2010PropOp46
 70
     1
102
RTVSPost2010Prop47
 90
       50
102
RTVSPost2010PropOp47
 70
     1
102
RTVSPost2010Prop48
 90
       50
102
RTVSPost2010PropOp48
 70
     1
102
RTVSPost2010Prop49
280
     0
102
RTVSPost2010PropOp49
 70
     1
102
RTVSPost2010Prop50
 90
       50
102
RTVSPost2010PropOp50
 70
     1
102
RTVSPost2010Prop51ColorIndex
 90
      256
102
RTVSPost2010Prop51ColorRGB
 90
-16777216
102
RTVSPost2010PropOp51
 70
     0
102
RTVSPost2010Prop52
140
1.0
102
RTVSPost2010PropOp52
 70
     0
102
RTVSPost2010Prop53
 90
        2
102
RTVSPost2010PropOp53
 70
     1
102
RTVSPost2010Prop54
  1
strokes_ogs.tif
102
RTVSPost2010PropOp54
 70
     1
102
RTVSPost2010Prop55
280
     0
102
RTVSPost2010PropOp55
 70
     1
102
RTVSPost2010Prop56
140
1.0
102
RTVSPost2010PropOp56
 70
     1
102
RTVSPost2010Prop57
140
1.0
102
RTVSPost2010PropOp57
 70
     1
102
RTVSPropertyOp0
 70
     1
102
RTVSPropertyOp1
 70
     1
102
RTVSPropertyOp2
 70
     1
102
RTVSPropertyOp3
 70
     1
102
RTVSPropertyOp4
 70
     1
102
RTVSPropertyOp5
 70
     1
102
RTVSPropertyOp6
 70
     1
102
RTVSPropertyOp7
 70
     1
102
RTVSPropertyOp8
 70
     1
102
RTVSPropertyOp9
 70
     1
102
RTVSPropertyOp10
 70
     1
102
RTVSPropertyOp11
 70
     1
102
RTVSPropertyOp12
 70
     1
102
RTVSPropertyOp13
 70
     1
102
RTVSPropertyOp14
 70
     1
102
RTVSPropertyOp15
 70
     1
102
RTVSPropertyOp16
 70
     1
102
RTVSPropertyOp17
 70
     1
102
RTVSPropertyOp18
 70
     1
102
RTVSPropertyOp19
 70
     1
102
RTVSPropertyOp20
 70
     1
102
RTVSPropertyOp21
 70
     1
102
RTVSPropertyOp22
 70
     1
102
RTVSPropertyOp23
 70
     1
102
RTVSPropertyOp24
 70
     1
102
RTVSPropertyOp25
 70
     1
102
RTVSPropertyOp26
 70
     1
102
RTVSPropertyOp27
 70
     1
102
RTVSPropertyOp28
 70
     1
102
RTVSPropertyOp29
 70
     1
102
RTVSPropertyOp30
 70
     1
102
RTVSPropertyOp31
 70
     1
102
RTVSPropertyOp32
 70
     1
102
RTVSPropertyOp33
 70
     1
102
RTVSPropertyOp34
 70
     1
102
RTVSPropertyOp35
 70
     1
102
RTVSPropertyOp36
 70
     1
102
RTVSPropertyOp37
 70
     1
102
RTVSPropertyOp38
 70
     1
102
RTVSPropertyOp39
 70
     1
102
RTVSPropertyOp40
 70
     1
102
RTVSPropertyOp41
 70
     1
102
RTVSPropertyOp42
 70
     1
102
RTVSPropertyOp43
 70
     1
102
RTVSPropertyOp44
 70
     1
102
RTVSPropertyOp45
 70
     1
102
RTVSPropertyOp46
 70
     1
102
RTVSPropertyOp47
 70
     1
102
RTVSPropertyOp48
 70
     1
102
RTVSPropertyOp49
 70
     1
102
RTVSPropertyOp50
 70
     1
102
RTVSPropertyOp51
 70
     0
102
RTVSPropertyOp52
 70
     0
102
RTVSPropertyOp53
 70
     1
102
RTVSPropertyOp54
 70
     1
102
RTVSPropertyOp55
 70
     1
102
RTVSPropertyOp56
 70
     1
102
RTVSPropertyOp57
 70
     1
102
RTVSPropertyOp58
 70
     1
102
RTVSPropertyOp59
 70
     1
102
RTVSPropertyOp60
 70
     1
102
RTVSPropertyOp61
 70
     1
102
RTVSPropertyOp62
 70
     1
  0
XRECORD
  5
39C64
102
{ACAD_REACTORS
330
39C63
102
}
330
39C63
100
AcDbXrecord
280
     1
102
RTVSPost2010Prop28
280
     0
102
RTVSPost2010PropOp28
 70
     1
102
RTVSPost2010Prop29
280
     1
102
RTVSPost2010PropOp29
 70
     1
102
RTVSPost2010Prop30
280
     1
102
RTVSPost2010PropOp30
 70
     1
102
RTVSPost2010Prop31
280
     0
102
RTVSPost2010PropOp31
 70
     1
102
RTVSPost2010Prop32
280
     0
102
RTVSPost2010PropOp32
 70
     1
102
RTVSPost2010Prop33
280
     0
102
RTVSPost2010PropOp33
 70
     1
102
RTVSPost2010Prop34
280
     0
102
RTVSPost2010PropOp34
 70
     1
102
RTVSPost2010Prop35
280
     0
102
RTVSPost2010PropOp35
 70
     1
102
RTVSPost2010Prop36
280
     0
102
RTVSPost2010PropOp36
 70
     1
102
RTVSPost2010Prop37
 90
       50
102
RTVSPost2010PropOp37
 70
     1
102
RTVSPost2010Prop38
140
0.0
102
RTVSPost2010PropOp38
 70
     1
102
RTVSPost2010Prop39
140
1.0
102
RTVSPost2010PropOp39
 70
     1
102
RTVSPost2010Prop40
 90
        0
102
RTVSPost2010PropOp40
 70
     1
102
RTVSPost2010Prop41ColorIndex
 90
       18
102
RTVSPost2010Prop41ColorRGB
 90
        0
102
RTVSPost2010PropOp41
 70
     1
102
RTVSPost2010Prop42
 90
       50
102
RTVSPost2010PropOp42
 70
     1
102
RTVSPost2010Prop43
 90
        3
102
RTVSPost2010PropOp43
 70
     1
102
RTVSPost2010Prop44ColorIndex
 90
        5
102
RTVSPost2010Prop44ColorRGB
 90
      255
102
RTVSPost2010PropOp44
 70
     1
102
RTVSPost2010Prop45
280
     0
102
RTVSPost2010PropOp45
 70
     1
102
RTVSPost2010Prop46
 90
       50
102
RTVSPost2010PropOp46
 70
     1
102
RTVSPost2010Prop47
 90
       50
102
RTVSPost2010PropOp47
 70
     1
102
RTVSPost2010Prop48
 90
       50
102
RTVSPost2010PropOp48
 70
     1
102
RTVSPost2010Prop49
280
     0
102
RTVSPost2010PropOp49
 70
     1
102
RTVSPost2010Prop50
 90
       50
102
RTVSPost2010PropOp50
 70
     1
102
RTVSPost2010Prop51ColorIndex
 90
      256
102
RTVSPost2010Prop51ColorRGB
 90
-16777216
102
RTVSPost2010PropOp51
 70
     0
102
RTVSPost2010Prop52
140
1.0
102
RTVSPost2010PropOp52
 70
     0
102
RTVSPost2010Prop53
 90
        2
102
RTVSPost2010PropOp53
 70
     1
102
RTVSPost2010Prop54
  1
strokes_ogs.tif
102
RTVSPost2010PropOp54
 70
     1
102
RTVSPost2010Prop55
280
     0
102
RTVSPost2010PropOp55
 70
     1
102
RTVSPost2010Prop56
140
1.0
102
RTVSPost2010PropOp56
 70
     1
102
RTVSPost2010Prop57
140
1.0
102
RTVSPost2010PropOp57
 70
     1
102
RTVSPropertyOp0
 70
     0
102
RTVSPropertyOp1
 70
     0
102
RTVSPropertyOp2
 70
     0
102
RTVSPropertyOp3
 70
     0
102
RTVSPropertyOp4
 70
     0
102
RTVSPropertyOp5
 70
     0
102
RTVSPropertyOp6
 70
     0
102
RTVSPropertyOp7
 70
     0
102
RTVSPropertyOp8
 70
     0
102
RTVSPropertyOp9
 70
     0
102
RTVSPropertyOp10
 70
     0
102
RTVSPropertyOp11
 70
     0
102
RTVSPropertyOp12
 70
     0
102
RTVSPropertyOp13
 70
     0
102
RTVSPropertyOp14
 70
     2
102
RTVSPropertyOp15
 70
     0
102
RTVSPropertyOp16
 70
     0
102
RTVSPropertyOp17
 70
     0
102
RTVSPropertyOp18
 70
     0
102
RTVSPropertyOp19
 70
     0
102
RTVSPropertyOp20
 70
     0
102
RTVSPropertyOp21
 70
     0
102
RTVSPropertyOp22
 70
     0
102
RTVSPropertyOp23
 70
     0
102
RTVSPropertyOp24
 70
     0
102
RTVSPropertyOp25
 70
     0
102
RTVSPropertyOp26
 70
     0
102
RTVSPropertyOp27
 70
     0
102
RTVSPropertyOp28
 70
     1
102
RTVSPropertyOp29
 70
     1
102
RTVSPropertyOp30
 70
     1
102
RTVSPropertyOp31
 70
     1
102
RTVSPropertyOp32
 70
     1
102
RTVSPropertyOp33
 70
     1
102
RTVSPropertyOp34
 70
     1
102
RTVSPropertyOp35
 70
     1
102
RTVSPropertyOp36
 70
     1
102
RTVSPropertyOp37
 70
     1
102
RTVSPropertyOp38
 70
     1
102
RTVSPropertyOp39
 70
     1
102
RTVSPropertyOp40
 70
     1
102
RTVSPropertyOp41
 70
     1
102
RTVSPropertyOp42
 70
     1
102
RTVSPropertyOp43
 70
     1
102
RTVSPropertyOp44
 70
     1
102
RTVSPropertyOp45
 70
     1
102
RTVSPropertyOp46
 70
     1
102
RTVSPropertyOp47
 70
     1
102
RTVSPropertyOp48
 70
     1
102
RTVSPropertyOp49
 70
     1
102
RTVSPropertyOp50
 70
     1
102
RTVSPropertyOp51
 70
     0
102
RTVSPropertyOp52
 70
     0
102
RTVSPropertyOp53
 70
     1
102
RTVSPropertyOp54
 70
     1
102
RTVSPropertyOp55
 70
     1
102
RTVSPropertyOp56
 70
     1
102
RTVSPropertyOp57
 70
     1
102
RTVSPropertyOp58
 70
     1
102
RTVSPropertyOp59
 70
     1
102
RTVSPropertyOp60
 70
     1
102
RTVSPropertyOp61
 70
     1
102
RTVSPropertyOp62
 70
     1
  0
XRECORD
  5
39C5C
102
{ACAD_REACTORS
330
39C5B
102
}
330
39C5B
100
AcDbXrecord
280
     1
102
RTVSPost2010Prop28
280
     0
102
RTVSPost2010PropOp28
 70
     1
102
RTVSPost2010Prop29
280
     1
102
RTVSPost2010PropOp29
 70
     1
102
RTVSPost2010Prop30
280
     1
102
RTVSPost2010PropOp30
 70
     1
102
RTVSPost2010Prop31
280
     0
102
RTVSPost2010PropOp31
 70
     1
102
RTVSPost2010Prop32
280
     0
102
RTVSPost2010PropOp32
 70
     1
102
RTVSPost2010Prop33
280
     0
102
RTVSPost2010PropOp33
 70
     1
102
RTVSPost2010Prop34
280
     0
102
RTVSPost2010PropOp34
 70
     1
102
RTVSPost2010Prop35
280
     0
102
RTVSPost2010PropOp35
 70
     1
102
RTVSPost2010Prop36
280
     0
102
RTVSPost2010PropOp36
 70
     1
102
RTVSPost2010Prop37
 90
       50
102
RTVSPost2010PropOp37
 70
     1
102
RTVSPost2010Prop38
140
0.0
102
RTVSPost2010PropOp38
 70
     1
102
RTVSPost2010Prop39
140
1.0
102
RTVSPost2010PropOp39
 70
     1
102
RTVSPost2010Prop40
 90
        0
102
RTVSPost2010PropOp40
 70
     1
102
RTVSPost2010Prop41ColorIndex
 90
       18
102
RTVSPost2010Prop41ColorRGB
 90
        0
102
RTVSPost2010PropOp41
 70
     1
102
RTVSPost2010Prop42
 90
       50
102
RTVSPost2010PropOp42
 70
     1
102
RTVSPost2010Prop43
 90
        3
102
RTVSPost2010PropOp43
 70
     1
102
RTVSPost2010Prop44ColorIndex
 90
        5
102
RTVSPost2010Prop44ColorRGB
 90
      255
102
RTVSPost2010PropOp44
 70
     1
102
RTVSPost2010Prop45
280
     0
102
RTVSPost2010PropOp45
 70
     1
102
RTVSPost2010Prop46
 90
       50
102
RTVSPost2010PropOp46
 70
     1
102
RTVSPost2010Prop47
 90
       50
102
RTVSPost2010PropOp47
 70
     1
102
RTVSPost2010Prop48
 90
       50
102
RTVSPost2010PropOp48
 70
     1
102
RTVSPost2010Prop49
280
     0
102
RTVSPost2010PropOp49
 70
     1
102
RTVSPost2010Prop50
 90
       50
102
RTVSPost2010PropOp50
 70
     1
102
RTVSPost2010Prop51ColorIndex
 90
      256
102
RTVSPost2010Prop51ColorRGB
 90
-16777216
102
RTVSPost2010PropOp51
 70
     0
102
RTVSPost2010Prop52
140
1.0
102
RTVSPost2010PropOp52
 70
     0
102
RTVSPost2010Prop53
 90
        2
102
RTVSPost2010PropOp53
 70
     1
102
RTVSPost2010Prop54
  1
strokes_ogs.tif
102
RTVSPost2010PropOp54
 70
     1
102
RTVSPost2010Prop55
280
     0
102
RTVSPost2010PropOp55
 70
     1
102
RTVSPost2010Prop56
140
1.0
102
RTVSPost2010PropOp56
 70
     1
102
RTVSPost2010Prop57
140
1.0
102
RTVSPost2010PropOp57
 70
     1
102
RTVSPropertyOp0
 70
     1
102
RTVSPropertyOp1
 70
     1
102
RTVSPropertyOp2
 70
     1
102
RTVSPropertyOp3
 70
     1
102
RTVSPropertyOp4
 70
     1
102
RTVSPropertyOp5
 70
     1
102
RTVSPropertyOp6
 70
     1
102
RTVSPropertyOp7
 70
     1
102
RTVSPropertyOp8
 70
     1
102
RTVSPropertyOp9
 70
     1
102
RTVSPropertyOp10
 70
     1
102
RTVSPropertyOp11
 70
     1
102
RTVSPropertyOp12
 70
     1
102
RTVSPropertyOp13
 70
     1
102
RTVSPropertyOp14
 70
     1
102
RTVSPropertyOp15
 70
     1
102
RTVSPropertyOp16
 70
     1
102
RTVSPropertyOp17
 70
     1
102
RTVSPropertyOp18
 70
     1
102
RTVSPropertyOp19
 70
     1
102
RTVSPropertyOp20
 70
     1
102
RTVSPropertyOp21
 70
     1
102
RTVSPropertyOp22
 70
     1
102
RTVSPropertyOp23
 70
     1
102
RTVSPropertyOp24
 70
     1
102
RTVSPropertyOp25
 70
     1
102
RTVSPropertyOp26
 70
     1
102
RTVSPropertyOp27
 70
     1
102
RTVSPropertyOp28
 70
     1
102
RTVSPropertyOp29
 70
     1
102
RTVSPropertyOp30
 70
     1
102
RTVSPropertyOp31
 70
     1
102
RTVSPropertyOp32
 70
     1
102
RTVSPropertyOp33
 70
     1
102
RTVSPropertyOp34
 70
     1
102
RTVSPropertyOp35
 70
     1
102
RTVSPropertyOp36
 70
     1
102
RTVSPropertyOp37
 70
     1
102
RTVSPropertyOp38
 70
     1
102
RTVSPropertyOp39
 70
     1
102
RTVSPropertyOp40
 70
     1
102
RTVSPropertyOp41
 70
     1
102
RTVSPropertyOp42
 70
     1
102
RTVSPropertyOp43
 70
     1
102
RTVSPropertyOp44
 70
     1
102
RTVSPropertyOp45
 70
     1
102
RTVSPropertyOp46
 70
     1
102
RTVSPropertyOp47
 70
     1
102
RTVSPropertyOp48
 70
     1
102
RTVSPropertyOp49
 70
     1
102
RTVSPropertyOp50
 70
     1
102
RTVSPropertyOp51
 70
     0
102
RTVSPropertyOp52
 70
     0
102
RTVSPropertyOp53
 70
     1
102
RTVSPropertyOp54
 70
     1
102
RTVSPropertyOp55
 70
     1
102
RTVSPropertyOp56
 70
     1
102
RTVSPropertyOp57
 70
     1
102
RTVSPropertyOp58
 70
     1
102
RTVSPropertyOp59
 70
     1
102
RTVSPropertyOp60
 70
     1
102
RTVSPropertyOp61
 70
     1
102
RTVSPropertyOp62
 70
     1
  0
XRECORD
  5
39C66
102
{ACAD_REACTORS
330
39C65
102
}
330
39C65
100
AcDbXrecord
280
     1
102
RTVSPost2010Prop28
280
     0
102
RTVSPost2010PropOp28
 70
     1
102
RTVSPost2010Prop29
280
     1
102
RTVSPost2010PropOp29
 70
     1
102
RTVSPost2010Prop30
280
     1
102
RTVSPost2010PropOp30
 70
     1
102
RTVSPost2010Prop31
280
     0
102
RTVSPost2010PropOp31
 70
     1
102
RTVSPost2010Prop32
280
     0
102
RTVSPost2010PropOp32
 70
     1
102
RTVSPost2010Prop33
280
     0
102
RTVSPost2010PropOp33
 70
     1
102
RTVSPost2010Prop34
280
     0
102
RTVSPost2010PropOp34
 70
     1
102
RTVSPost2010Prop35
280
     0
102
RTVSPost2010PropOp35
 70
     1
102
RTVSPost2010Prop36
280
     0
102
RTVSPost2010PropOp36
 70
     1
102
RTVSPost2010Prop37
 90
       50
102
RTVSPost2010PropOp37
 70
     1
102
RTVSPost2010Prop38
140
0.0
102
RTVSPost2010PropOp38
 70
     1
102
RTVSPost2010Prop39
140
1.0
102
RTVSPost2010PropOp39
 70
     1
102
RTVSPost2010Prop40
 90
        0
102
RTVSPost2010PropOp40
 70
     1
102
RTVSPost2010Prop41ColorIndex
 90
       18
102
RTVSPost2010Prop41ColorRGB
 90
        0
102
RTVSPost2010PropOp41
 70
     1
102
RTVSPost2010Prop42
 90
       50
102
RTVSPost2010PropOp42
 70
     1
102
RTVSPost2010Prop43
 90
        3
102
RTVSPost2010PropOp43
 70
     1
102
RTVSPost2010Prop44ColorIndex
 90
        5
102
RTVSPost2010Prop44ColorRGB
 90
      255
102
RTVSPost2010PropOp44
 70
     1
102
RTVSPost2010Prop45
280
     0
102
RTVSPost2010PropOp45
 70
     1
102
RTVSPost2010Prop46
 90
       50
102
RTVSPost2010PropOp46
 70
     1
102
RTVSPost2010Prop47
 90
       50
102
RTVSPost2010PropOp47
 70
     1
102
RTVSPost2010Prop48
 90
       50
102
RTVSPost2010PropOp48
 70
     1
102
RTVSPost2010Prop49
280
     0
102
RTVSPost2010PropOp49
 70
     1
102
RTVSPost2010Prop50
 90
       50
102
RTVSPost2010PropOp50
 70
     1
102
RTVSPost2010Prop51ColorIndex
 90
      256
102
RTVSPost2010Prop51ColorRGB
 90
-16777216
102
RTVSPost2010PropOp51
 70
     0
102
RTVSPost2010Prop52
140
1.0
102
RTVSPost2010PropOp52
 70
     0
102
RTVSPost2010Prop53
 90
        2
102
RTVSPost2010PropOp53
 70
     1
102
RTVSPost2010Prop54
  1
strokes_ogs.tif
102
RTVSPost2010PropOp54
 70
     1
102
RTVSPost2010Prop55
280
     0
102
RTVSPost2010PropOp55
 70
     1
102
RTVSPost2010Prop56
140
1.0
102
RTVSPost2010PropOp56
 70
     1
102
RTVSPost2010Prop57
140
1.0
102
RTVSPost2010PropOp57
 70
     1
102
RTVSPropertyOp0
 70
     0
102
RTVSPropertyOp1
 70
     0
102
RTVSPropertyOp2
 70
     0
102
RTVSPropertyOp3
 70
     0
102
RTVSPropertyOp4
 70
     0
102
RTVSPropertyOp5
 70
     0
102
RTVSPropertyOp6
 70
     0
102
RTVSPropertyOp7
 70
     0
102
RTVSPropertyOp8
 70
     0
102
RTVSPropertyOp9
 70
     0
102
RTVSPropertyOp10
 70
     0
102
RTVSPropertyOp11
 70
     0
102
RTVSPropertyOp12
 70
     0
102
RTVSPropertyOp13
 70
     0
102
RTVSPropertyOp14
 70
     2
102
RTVSPropertyOp15
 70
     0
102
RTVSPropertyOp16
 70
     0
102
RTVSPropertyOp17
 70
     0
102
RTVSPropertyOp18
 70
     0
102
RTVSPropertyOp19
 70
     0
102
RTVSPropertyOp20
 70
     0
102
RTVSPropertyOp21
 70
     0
102
RTVSPropertyOp22
 70
     0
102
RTVSPropertyOp23
 70
     0
102
RTVSPropertyOp24
 70
     0
102
RTVSPropertyOp25
 70
     0
102
RTVSPropertyOp26
 70
     0
102
RTVSPropertyOp27
 70
     0
102
RTVSPropertyOp28
 70
     1
102
RTVSPropertyOp29
 70
     1
102
RTVSPropertyOp30
 70
     1
102
RTVSPropertyOp31
 70
     1
102
RTVSPropertyOp32
 70
     1
102
RTVSPropertyOp33
 70
     1
102
RTVSPropertyOp34
 70
     1
102
RTVSPropertyOp35
 70
     1
102
RTVSPropertyOp36
 70
     1
102
RTVSPropertyOp37
 70
     1
102
RTVSPropertyOp38
 70
     1
102
RTVSPropertyOp39
 70
     1
102
RTVSPropertyOp40
 70
     1
102
RTVSPropertyOp41
 70
     1
102
RTVSPropertyOp42
 70
     1
102
RTVSPropertyOp43
 70
     1
102
RTVSPropertyOp44
 70
     1
102
RTVSPropertyOp45
 70
     1
102
RTVSPropertyOp46
 70
     1
102
RTVSPropertyOp47
 70
     1
102
RTVSPropertyOp48
 70
     1
102
RTVSPropertyOp49
 70
     1
102
RTVSPropertyOp50
 70
     1
102
RTVSPropertyOp51
 70
     0
102
RTVSPropertyOp52
 70
     0
102
RTVSPropertyOp53
 70
     1
102
RTVSPropertyOp54
 70
     1
102
RTVSPropertyOp55
 70
     1
102
RTVSPropertyOp56
 70
     1
102
RTVSPropertyOp57
 70
     1
102
RTVSPropertyOp58
 70
     1
102
RTVSPropertyOp59
 70
     1
102
RTVSPropertyOp60
 70
     1
102
RTVSPropertyOp61
 70
     1
102
RTVSPropertyOp62
 70
     1
  0
XRECORD
  5
39C54
102
{ACAD_REACTORS
330
39C53
102
}
330
39C53
100
AcDbXrecord
280
     1
102
RTVSPost2010Prop28
280
     0
102
RTVSPost2010PropOp28
 70
     1
102
RTVSPost2010Prop29
280
     1
102
RTVSPost2010PropOp29
 70
     1
102
RTVSPost2010Prop30
280
     1
102
RTVSPost2010PropOp30
 70
     1
102
RTVSPost2010Prop31
280
     0
102
RTVSPost2010PropOp31
 70
     1
102
RTVSPost2010Prop32
280
     0
102
RTVSPost2010PropOp32
 70
     1
102
RTVSPost2010Prop33
280
     0
102
RTVSPost2010PropOp33
 70
     1
102
RTVSPost2010Prop34
280
     0
102
RTVSPost2010PropOp34
 70
     1
102
RTVSPost2010Prop35
280
     0
102
RTVSPost2010PropOp35
 70
     1
102
RTVSPost2010Prop36
280
     0
102
RTVSPost2010PropOp36
 70
     1
102
RTVSPost2010Prop37
 90
       50
102
RTVSPost2010PropOp37
 70
     1
102
RTVSPost2010Prop38
140
0.0
102
RTVSPost2010PropOp38
 70
     1
102
RTVSPost2010Prop39
140
1.0
102
RTVSPost2010PropOp39
 70
     1
102
RTVSPost2010Prop40
 90
        0
102
RTVSPost2010PropOp40
 70
     1
102
RTVSPost2010Prop41ColorIndex
 90
       18
102
RTVSPost2010Prop41ColorRGB
 90
        0
102
RTVSPost2010PropOp41
 70
     1
102
RTVSPost2010Prop42
 90
       50
102
RTVSPost2010PropOp42
 70
     1
102
RTVSPost2010Prop43
 90
        3
102
RTVSPost2010PropOp43
 70
     1
102
RTVSPost2010Prop44ColorIndex
 90
        5
102
RTVSPost2010Prop44ColorRGB
 90
      255
102
RTVSPost2010PropOp44
 70
     1
102
RTVSPost2010Prop45
280
     0
102
RTVSPost2010PropOp45
 70
     1
102
RTVSPost2010Prop46
 90
       50
102
RTVSPost2010PropOp46
 70
     1
102
RTVSPost2010Prop47
 90
       50
102
RTVSPost2010PropOp47
 70
     1
102
RTVSPost2010Prop48
 90
       50
102
RTVSPost2010PropOp48
 70
     1
102
RTVSPost2010Prop49
280
     0
102
RTVSPost2010PropOp49
 70
     1
102
RTVSPost2010Prop50
 90
       50
102
RTVSPost2010PropOp50
 70
     1
102
RTVSPost2010Prop51ColorIndex
 90
      256
102
RTVSPost2010Prop51ColorRGB
 90
-16777216
102
RTVSPost2010PropOp51
 70
     0
102
RTVSPost2010Prop52
140
1.0
102
RTVSPost2010PropOp52
 70
     0
102
RTVSPost2010Prop53
 90
        2
102
RTVSPost2010PropOp53
 70
     1
102
RTVSPost2010Prop54
  1
strokes_ogs.tif
102
RTVSPost2010PropOp54
 70
     1
102
RTVSPost2010Prop55
280
     0
102
RTVSPost2010PropOp55
 70
     1
102
RTVSPost2010Prop56
140
1.0
102
RTVSPost2010PropOp56
 70
     1
102
RTVSPost2010Prop57
140
1.0
102
RTVSPost2010PropOp57
 70
     1
102
RTVSPropertyOp0
 70
     1
102
RTVSPropertyOp1
 70
     1
102
RTVSPropertyOp2
 70
     1
102
RTVSPropertyOp3
 70
     1
102
RTVSPropertyOp4
 70
     1
102
RTVSPropertyOp5
 70
     1
102
RTVSPropertyOp6
 70
     1
102
RTVSPropertyOp7
 70
     1
102
RTVSPropertyOp8
 70
     1
102
RTVSPropertyOp9
 70
     1
102
RTVSPropertyOp10
 70
     1
102
RTVSPropertyOp11
 70
     1
102
RTVSPropertyOp12
 70
     1
102
RTVSPropertyOp13
 70
     1
102
RTVSPropertyOp14
 70
     1
102
RTVSPropertyOp15
 70
     1
102
RTVSPropertyOp16
 70
     1
102
RTVSPropertyOp17
 70
     1
102
RTVSPropertyOp18
 70
     1
102
RTVSPropertyOp19
 70
     1
102
RTVSPropertyOp20
 70
     1
102
RTVSPropertyOp21
 70
     1
102
RTVSPropertyOp22
 70
     1
102
RTVSPropertyOp23
 70
     1
102
RTVSPropertyOp24
 70
     1
102
RTVSPropertyOp25
 70
     1
102
RTVSPropertyOp26
 70
     1
102
RTVSPropertyOp27
 70
     1
102
RTVSPropertyOp28
 70
     1
102
RTVSPropertyOp29
 70
     1
102
RTVSPropertyOp30
 70
     1
102
RTVSPropertyOp31
 70
     1
102
RTVSPropertyOp32
 70
     1
102
RTVSPropertyOp33
 70
     1
102
RTVSPropertyOp34
 70
     1
102
RTVSPropertyOp35
 70
     1
102
RTVSPropertyOp36
 70
     1
102
RTVSPropertyOp37
 70
     1
102
RTVSPropertyOp38
 70
     1
102
RTVSPropertyOp39
 70
     1
102
RTVSPropertyOp40
 70
     1
102
RTVSPropertyOp41
 70
     1
102
RTVSPropertyOp42
 70
     1
102
RTVSPropertyOp43
 70
     1
102
RTVSPropertyOp44
 70
     1
102
RTVSPropertyOp45
 70
     1
102
RTVSPropertyOp46
 70
     1
102
RTVSPropertyOp47
 70
     1
102
RTVSPropertyOp48
 70
     1
102
RTVSPropertyOp49
 70
     1
102
RTVSPropertyOp50
 70
     1
102
RTVSPropertyOp51
 70
     0
102
RTVSPropertyOp52
 70
     0
102
RTVSPropertyOp53
 70
     1
102
RTVSPropertyOp54
 70
     1
102
RTVSPropertyOp55
 70
     1
102
RTVSPropertyOp56
 70
     1
102
RTVSPropertyOp57
 70
     1
102
RTVSPropertyOp58
 70
     1
102
RTVSPropertyOp59
 70
     1
102
RTVSPropertyOp60
 70
     1
102
RTVSPropertyOp61
 70
     1
102
RTVSPropertyOp62
 70
     1
  0
XRECORD
  5
39C72
102
{ACAD_REACTORS
330
39C71
102
}
330
39C71
100
AcDbXrecord
280
     1
102
RTVSPost2010Prop28
280
     0
102
RTVSPost2010PropOp28
 70
     1
102
RTVSPost2010Prop29
280
     1
102
RTVSPost2010PropOp29
 70
     1
102
RTVSPost2010Prop30
280
     1
102
RTVSPost2010PropOp30
 70
     1
102
RTVSPost2010Prop31
280
     0
102
RTVSPost2010PropOp31
 70
     1
102
RTVSPost2010Prop32
280
     0
102
RTVSPost2010PropOp32
 70
     1
102
RTVSPost2010Prop33
280
     0
102
RTVSPost2010PropOp33
 70
     1
102
RTVSPost2010Prop34
280
     0
102
RTVSPost2010PropOp34
 70
     1
102
RTVSPost2010Prop35
280
     0
102
RTVSPost2010PropOp35
 70
     1
102
RTVSPost2010Prop36
280
     0
102
RTVSPost2010PropOp36
 70
     1
102
RTVSPost2010Prop37
 90
       50
102
RTVSPost2010PropOp37
 70
     1
102
RTVSPost2010Prop38
140
0.0
102
RTVSPost2010PropOp38
 70
     1
102
RTVSPost2010Prop39
140
1.0
102
RTVSPost2010PropOp39
 70
     1
102
RTVSPost2010Prop40
 90
        0
102
RTVSPost2010PropOp40
 70
     1
102
RTVSPost2010Prop41ColorIndex
 90
       18
102
RTVSPost2010Prop41ColorRGB
 90
        0
102
RTVSPost2010PropOp41
 70
     1
102
RTVSPost2010Prop42
 90
       50
102
RTVSPost2010PropOp42
 70
     1
102
RTVSPost2010Prop43
 90
        3
102
RTVSPost2010PropOp43
 70
     1
102
RTVSPost2010Prop44ColorIndex
 90
        5
102
RTVSPost2010Prop44ColorRGB
 90
      255
102
RTVSPost2010PropOp44
 70
     1
102
RTVSPost2010Prop45
280
     0
102
RTVSPost2010PropOp45
 70
     1
102
RTVSPost2010Prop46
 90
       50
102
RTVSPost2010PropOp46
 70
     1
102
RTVSPost2010Prop47
 90
       50
102
RTVSPost2010PropOp47
 70
     1
102
RTVSPost2010Prop48
 90
       50
102
RTVSPost2010PropOp48
 70
     1
102
RTVSPost2010Prop49
280
     0
102
RTVSPost2010PropOp49
 70
     1
102
RTVSPost2010Prop50
 90
       50
102
RTVSPost2010PropOp50
 70
     1
102
RTVSPost2010Prop51ColorIndex
 90
      256
102
RTVSPost2010Prop51ColorRGB
 90
-16777216
102
RTVSPost2010PropOp51
 70
     0
102
RTVSPost2010Prop52
140
1.0
102
RTVSPost2010PropOp52
 70
     0
102
RTVSPost2010Prop53
 90
        2
102
RTVSPost2010PropOp53
 70
     1
102
RTVSPost2010Prop54
  1
strokes_ogs.tif
102
RTVSPost2010PropOp54
 70
     1
102
RTVSPost2010Prop55
280
     0
102
RTVSPost2010PropOp55
 70
     1
102
RTVSPost2010Prop56
140
1.0
102
RTVSPost2010PropOp56
 70
     1
102
RTVSPost2010Prop57
140
1.0
102
RTVSPost2010PropOp57
 70
     1
102
RTVSPropertyOp0
 70
     1
102
RTVSPropertyOp1
 70
     1
102
RTVSPropertyOp2
 70
     1
102
RTVSPropertyOp3
 70
     1
102
RTVSPropertyOp4
 70
     1
102
RTVSPropertyOp5
 70
     1
102
RTVSPropertyOp6
 70
     1
102
RTVSPropertyOp7
 70
     1
102
RTVSPropertyOp8
 70
     1
102
RTVSPropertyOp9
 70
     1
102
RTVSPropertyOp10
 70
     1
102
RTVSPropertyOp11
 70
     1
102
RTVSPropertyOp12
 70
     1
102
RTVSPropertyOp13
 70
     1
102
RTVSPropertyOp14
 70
     1
102
RTVSPropertyOp15
 70
     1
102
RTVSPropertyOp16
 70
     1
102
RTVSPropertyOp17
 70
     1
102
RTVSPropertyOp18
 70
     1
102
RTVSPropertyOp19
 70
     1
102
RTVSPropertyOp20
 70
     1
102
RTVSPropertyOp21
 70
     1
102
RTVSPropertyOp22
 70
     1
102
RTVSPropertyOp23
 70
     1
102
RTVSPropertyOp24
 70
     1
102
RTVSPropertyOp25
 70
     1
102
RTVSPropertyOp26
 70
     1
102
RTVSPropertyOp27
 70
     1
102
RTVSPropertyOp28
 70
     1
102
RTVSPropertyOp29
 70
     1
102
RTVSPropertyOp30
 70
     1
102
RTVSPropertyOp31
 70
     1
102
RTVSPropertyOp32
 70
     1
102
RTVSPropertyOp33
 70
     1
102
RTVSPropertyOp34
 70
     1
102
RTVSPropertyOp35
 70
     1
102
RTVSPropertyOp36
 70
     1
102
RTVSPropertyOp37
 70
     1
102
RTVSPropertyOp38
 70
     1
102
RTVSPropertyOp39
 70
     1
102
RTVSPropertyOp40
 70
     1
102
RTVSPropertyOp41
 70
     1
102
RTVSPropertyOp42
 70
     1
102
RTVSPropertyOp43
 70
     1
102
RTVSPropertyOp44
 70
     1
102
RTVSPropertyOp45
 70
     1
102
RTVSPropertyOp46
 70
     1
102
RTVSPropertyOp47
 70
     1
102
RTVSPropertyOp48
 70
     1
102
RTVSPropertyOp49
 70
     1
102
RTVSPropertyOp50
 70
     1
102
RTVSPropertyOp51
 70
     0
102
RTVSPropertyOp52
 70
     0
102
RTVSPropertyOp53
 70
     1
102
RTVSPropertyOp54
 70
     1
102
RTVSPropertyOp55
 70
     1
102
RTVSPropertyOp56
 70
     1
102
RTVSPropertyOp57
 70
     1
102
RTVSPropertyOp58
 70
     1
102
RTVSPropertyOp59
 70
     1
102
RTVSPropertyOp60
 70
     1
102
RTVSPropertyOp61
 70
     1
102
RTVSPropertyOp62
 70
     1
  0
XRECORD
  5
39C70
102
{ACAD_REACTORS
330
39C6F
102
}
330
39C6F
100
AcDbXrecord
280
     1
102
RTVSPost2010Prop28
280
     0
102
RTVSPost2010PropOp28
 70
     1
102
RTVSPost2010Prop29
280
     1
102
RTVSPost2010PropOp29
 70
     1
102
RTVSPost2010Prop30
280
     1
102
RTVSPost2010PropOp30
 70
     1
102
RTVSPost2010Prop31
280
     0
102
RTVSPost2010PropOp31
 70
     1
102
RTVSPost2010Prop32
280
     0
102
RTVSPost2010PropOp32
 70
     1
102
RTVSPost2010Prop33
280
     0
102
RTVSPost2010PropOp33
 70
     1
102
RTVSPost2010Prop34
280
     0
102
RTVSPost2010PropOp34
 70
     1
102
RTVSPost2010Prop35
280
     0
102
RTVSPost2010PropOp35
 70
     1
102
RTVSPost2010Prop36
280
     0
102
RTVSPost2010PropOp36
 70
     1
102
RTVSPost2010Prop37
 90
       50
102
RTVSPost2010PropOp37
 70
     1
102
RTVSPost2010Prop38
140
0.0
102
RTVSPost2010PropOp38
 70
     1
102
RTVSPost2010Prop39
140
1.0
102
RTVSPost2010PropOp39
 70
     1
102
RTVSPost2010Prop40
 90
        0
102
RTVSPost2010PropOp40
 70
     1
102
RTVSPost2010Prop41ColorIndex
 90
       18
102
RTVSPost2010Prop41ColorRGB
 90
        0
102
RTVSPost2010PropOp41
 70
     1
102
RTVSPost2010Prop42
 90
       50
102
RTVSPost2010PropOp42
 70
     1
102
RTVSPost2010Prop43
 90
        3
102
RTVSPost2010PropOp43
 70
     1
102
RTVSPost2010Prop44ColorIndex
 90
        5
102
RTVSPost2010Prop44ColorRGB
 90
      255
102
RTVSPost2010PropOp44
 70
     1
102
RTVSPost2010Prop45
280
     0
102
RTVSPost2010PropOp45
 70
     1
102
RTVSPost2010Prop46
 90
       50
102
RTVSPost2010PropOp46
 70
     1
102
RTVSPost2010Prop47
 90
       50
102
RTVSPost2010PropOp47
 70
     1
102
RTVSPost2010Prop48
 90
       50
102
RTVSPost2010PropOp48
 70
     1
102
RTVSPost2010Prop49
280
     0
102
RTVSPost2010PropOp49
 70
     1
102
RTVSPost2010Prop50
 90
       50
102
RTVSPost2010PropOp50
 70
     1
102
RTVSPost2010Prop51ColorIndex
 90
      256
102
RTVSPost2010Prop51ColorRGB
 90
-16777216
102
RTVSPost2010PropOp51
 70
     0
102
RTVSPost2010Prop52
140
1.0
102
RTVSPost2010PropOp52
 70
     0
102
RTVSPost2010Prop53
 90
        2
102
RTVSPost2010PropOp53
 70
     1
102
RTVSPost2010Prop54
  1
strokes_ogs.tif
102
RTVSPost2010PropOp54
 70
     1
102
RTVSPost2010Prop55
280
     0
102
RTVSPost2010PropOp55
 70
     1
102
RTVSPost2010Prop56
140
1.0
102
RTVSPost2010PropOp56
 70
     1
102
RTVSPost2010Prop57
140
1.0
102
RTVSPost2010PropOp57
 70
     1
102
RTVSPropertyOp0
 70
     1
102
RTVSPropertyOp1
 70
     1
102
RTVSPropertyOp2
 70
     1
102
RTVSPropertyOp3
 70
     1
102
RTVSPropertyOp4
 70
     1
102
RTVSPropertyOp5
 70
     1
102
RTVSPropertyOp6
 70
     1
102
RTVSPropertyOp7
 70
     1
102
RTVSPropertyOp8
 70
     1
102
RTVSPropertyOp9
 70
     1
102
RTVSPropertyOp10
 70
     1
102
RTVSPropertyOp11
 70
     1
102
RTVSPropertyOp12
 70
     1
102
RTVSPropertyOp13
 70
     1
102
RTVSPropertyOp14
 70
     1
102
RTVSPropertyOp15
 70
     1
102
RTVSPropertyOp16
 70
     1
102
RTVSPropertyOp17
 70
     1
102
RTVSPropertyOp18
 70
     1
102
RTVSPropertyOp19
 70
     1
102
RTVSPropertyOp20
 70
     1
102
RTVSPropertyOp21
 70
     1
102
RTVSPropertyOp22
 70
     1
102
RTVSPropertyOp23
 70
     1
102
RTVSPropertyOp24
 70
     1
102
RTVSPropertyOp25
 70
     1
102
RTVSPropertyOp26
 70
     1
102
RTVSPropertyOp27
 70
     1
102
RTVSPropertyOp28
 70
     1
102
RTVSPropertyOp29
 70
     1
102
RTVSPropertyOp30
 70
     1
102
RTVSPropertyOp31
 70
     1
102
RTVSPropertyOp32
 70
     1
102
RTVSPropertyOp33
 70
     1
102
RTVSPropertyOp34
 70
     1
102
RTVSPropertyOp35
 70
     1
102
RTVSPropertyOp36
 70
     1
102
RTVSPropertyOp37
 70
     1
102
RTVSPropertyOp38
 70
     1
102
RTVSPropertyOp39
 70
     1
102
RTVSPropertyOp40
 70
     1
102
RTVSPropertyOp41
 70
     1
102
RTVSPropertyOp42
 70
     1
102
RTVSPropertyOp43
 70
     1
102
RTVSPropertyOp44
 70
     1
102
RTVSPropertyOp45
 70
     1
102
RTVSPropertyOp46
 70
     1
102
RTVSPropertyOp47
 70
     1
102
RTVSPropertyOp48
 70
     1
102
RTVSPropertyOp49
 70
     1
102
RTVSPropertyOp50
 70
     1
102
RTVSPropertyOp51
 70
     0
102
RTVSPropertyOp52
 70
     0
102
RTVSPropertyOp53
 70
     1
102
RTVSPropertyOp54
 70
     1
102
RTVSPropertyOp55
 70
     1
102
RTVSPropertyOp56
 70
     1
102
RTVSPropertyOp57
 70
     1
102
RTVSPropertyOp58
 70
     1
102
RTVSPropertyOp59
 70
     1
102
RTVSPropertyOp60
 70
     1
102
RTVSPropertyOp61
 70
     1
102
RTVSPropertyOp62
 70
     1
  0
XRECORD
  5
39C6A
102
{ACAD_REACTORS
330
39C69
102
}
330
39C69
100
AcDbXrecord
280
     1
102
RTVSPost2010Prop28
280
     0
102
RTVSPost2010PropOp28
 70
     1
102
RTVSPost2010Prop29
280
     1
102
RTVSPost2010PropOp29
 70
     1
102
RTVSPost2010Prop30
280
     1
102
RTVSPost2010PropOp30
 70
     1
102
RTVSPost2010Prop31
280
     0
102
RTVSPost2010PropOp31
 70
     1
102
RTVSPost2010Prop32
280
     0
102
RTVSPost2010PropOp32
 70
     1
102
RTVSPost2010Prop33
280
     0
102
RTVSPost2010PropOp33
 70
     1
102
RTVSPost2010Prop34
280
     0
102
RTVSPost2010PropOp34
 70
     1
102
RTVSPost2010Prop35
280
     0
102
RTVSPost2010PropOp35
 70
     1
102
RTVSPost2010Prop36
280
     0
102
RTVSPost2010PropOp36
 70
     1
102
RTVSPost2010Prop37
 90
       50
102
RTVSPost2010PropOp37
 70
     1
102
RTVSPost2010Prop38
140
0.0
102
RTVSPost2010PropOp38
 70
     1
102
RTVSPost2010Prop39
140
1.0
102
RTVSPost2010PropOp39
 70
     1
102
RTVSPost2010Prop40
 90
        0
102
RTVSPost2010PropOp40
 70
     1
102
RTVSPost2010Prop41ColorIndex
 90
       18
102
RTVSPost2010Prop41ColorRGB
 90
        0
102
RTVSPost2010PropOp41
 70
     1
102
RTVSPost2010Prop42
 90
       50
102
RTVSPost2010PropOp42
 70
     1
102
RTVSPost2010Prop43
 90
        3
102
RTVSPost2010PropOp43
 70
     1
102
RTVSPost2010Prop44ColorIndex
 90
        5
102
RTVSPost2010Prop44ColorRGB
 90
      255
102
RTVSPost2010PropOp44
 70
     1
102
RTVSPost2010Prop45
280
     0
102
RTVSPost2010PropOp45
 70
     1
102
RTVSPost2010Prop46
 90
       50
102
RTVSPost2010PropOp46
 70
     1
102
RTVSPost2010Prop47
 90
       50
102
RTVSPost2010PropOp47
 70
     1
102
RTVSPost2010Prop48
 90
       50
102
RTVSPost2010PropOp48
 70
     1
102
RTVSPost2010Prop49
280
     0
102
RTVSPost2010PropOp49
 70
     1
102
RTVSPost2010Prop50
 90
       50
102
RTVSPost2010PropOp50
 70
     1
102
RTVSPost2010Prop51ColorIndex
 90
      256
102
RTVSPost2010Prop51ColorRGB
 90
-16777216
102
RTVSPost2010PropOp51
 70
     0
102
RTVSPost2010Prop52
140
1.0
102
RTVSPost2010PropOp52
 70
     0
102
RTVSPost2010Prop53
 90
        2
102
RTVSPost2010PropOp53
 70
     1
102
RTVSPost2010Prop54
  1
strokes_ogs.tif
102
RTVSPost2010PropOp54
 70
     1
102
RTVSPost2010Prop55
280
     0
102
RTVSPost2010PropOp55
 70
     1
102
RTVSPost2010Prop56
140
1.0
102
RTVSPost2010PropOp56
 70
     1
102
RTVSPost2010Prop57
140
1.0
102
RTVSPost2010PropOp57
 70
     1
102
RTVSPropertyOp0
 70
     1
102
RTVSPropertyOp1
 70
     1
102
RTVSPropertyOp2
 70
     1
102
RTVSPropertyOp3
 70
     1
102
RTVSPropertyOp4
 70
     1
102
RTVSPropertyOp5
 70
     1
102
RTVSPropertyOp6
 70
     1
102
RTVSPropertyOp7
 70
     1
102
RTVSPropertyOp8
 70
     1
102
RTVSPropertyOp9
 70
     1
102
RTVSPropertyOp10
 70
     1
102
RTVSPropertyOp11
 70
     1
102
RTVSPropertyOp12
 70
     1
102
RTVSPropertyOp13
 70
     1
102
RTVSPropertyOp14
 70
     1
102
RTVSPropertyOp15
 70
     1
102
RTVSPropertyOp16
 70
     1
102
RTVSPropertyOp17
 70
     1
102
RTVSPropertyOp18
 70
     1
102
RTVSPropertyOp19
 70
     1
102
RTVSPropertyOp20
 70
     1
102
RTVSPropertyOp21
 70
     1
102
RTVSPropertyOp22
 70
     1
102
RTVSPropertyOp23
 70
     1
102
RTVSPropertyOp24
 70
     1
102
RTVSPropertyOp25
 70
     1
102
RTVSPropertyOp26
 70
     1
102
RTVSPropertyOp27
 70
     1
102
RTVSPropertyOp28
 70
     1
102
RTVSPropertyOp29
 70
     1
102
RTVSPropertyOp30
 70
     1
102
RTVSPropertyOp31
 70
     1
102
RTVSPropertyOp32
 70
     1
102
RTVSPropertyOp33
 70
     1
102
RTVSPropertyOp34
 70
     1
102
RTVSPropertyOp35
 70
     1
102
RTVSPropertyOp36
 70
     1
102
RTVSPropertyOp37
 70
     1
102
RTVSPropertyOp38
 70
     1
102
RTVSPropertyOp39
 70
     1
102
RTVSPropertyOp40
 70
     1
102
RTVSPropertyOp41
 70
     1
102
RTVSPropertyOp42
 70
     1
102
RTVSPropertyOp43
 70
     1
102
RTVSPropertyOp44
 70
     1
102
RTVSPropertyOp45
 70
     1
102
RTVSPropertyOp46
 70
     1
102
RTVSPropertyOp47
 70
     1
102
RTVSPropertyOp48
 70
     1
102
RTVSPropertyOp49
 70
     1
102
RTVSPropertyOp50
 70
     1
102
RTVSPropertyOp51
 70
     0
102
RTVSPropertyOp52
 70
     0
102
RTVSPropertyOp53
 70
     1
102
RTVSPropertyOp54
 70
     1
102
RTVSPropertyOp55
 70
     1
102
RTVSPropertyOp56
 70
     1
102
RTVSPropertyOp57
 70
     1
102
RTVSPropertyOp58
 70
     1
102
RTVSPropertyOp59
 70
     1
102
RTVSPropertyOp60
 70
     1
102
RTVSPropertyOp61
 70
     1
102
RTVSPropertyOp62
 70
     1
  0
XRECORD
  5
39C6C
102
{ACAD_REACTORS
330
39C6B
102
}
330
39C6B
100
AcDbXrecord
280
     1
102
RTVSPost2010Prop28
280
     0
102
RTVSPost2010PropOp28
 70
     1
102
RTVSPost2010Prop29
280
     1
102
RTVSPost2010PropOp29
 70
     1
102
RTVSPost2010Prop30
280
     1
102
RTVSPost2010PropOp30
 70
     1
102
RTVSPost2010Prop31
280
     0
102
RTVSPost2010PropOp31
 70
     1
102
RTVSPost2010Prop32
280
     0
102
RTVSPost2010PropOp32
 70
     1
102
RTVSPost2010Prop33
280
     0
102
RTVSPost2010PropOp33
 70
     1
102
RTVSPost2010Prop34
280
     0
102
RTVSPost2010PropOp34
 70
     1
102
RTVSPost2010Prop35
280
     0
102
RTVSPost2010PropOp35
 70
     1
102
RTVSPost2010Prop36
280
     0
102
RTVSPost2010PropOp36
 70
     1
102
RTVSPost2010Prop37
 90
       50
102
RTVSPost2010PropOp37
 70
     1
102
RTVSPost2010Prop38
140
0.0
102
RTVSPost2010PropOp38
 70
     1
102
RTVSPost2010Prop39
140
1.0
102
RTVSPost2010PropOp39
 70
     1
102
RTVSPost2010Prop40
 90
        0
102
RTVSPost2010PropOp40
 70
     1
102
RTVSPost2010Prop41ColorIndex
 90
       18
102
RTVSPost2010Prop41ColorRGB
 90
        0
102
RTVSPost2010PropOp41
 70
     1
102
RTVSPost2010Prop42
 90
       50
102
RTVSPost2010PropOp42
 70
     1
102
RTVSPost2010Prop43
 90
        3
102
RTVSPost2010PropOp43
 70
     1
102
RTVSPost2010Prop44ColorIndex
 90
        5
102
RTVSPost2010Prop44ColorRGB
 90
      255
102
RTVSPost2010PropOp44
 70
     1
102
RTVSPost2010Prop45
280
     0
102
RTVSPost2010PropOp45
 70
     1
102
RTVSPost2010Prop46
 90
       50
102
RTVSPost2010PropOp46
 70
     1
102
RTVSPost2010Prop47
 90
       50
102
RTVSPost2010PropOp47
 70
     1
102
RTVSPost2010Prop48
 90
       50
102
RTVSPost2010PropOp48
 70
     1
102
RTVSPost2010Prop49
280
     0
102
RTVSPost2010PropOp49
 70
     1
102
RTVSPost2010Prop50
 90
       50
102
RTVSPost2010PropOp50
 70
     1
102
RTVSPost2010Prop51ColorIndex
 90
      256
102
RTVSPost2010Prop51ColorRGB
 90
-16777216
102
RTVSPost2010PropOp51
 70
     0
102
RTVSPost2010Prop52
140
1.0
102
RTVSPost2010PropOp52
 70
     0
102
RTVSPost2010Prop53
 90
        2
102
RTVSPost2010PropOp53
 70
     1
102
RTVSPost2010Prop54
  1
strokes_ogs.tif
102
RTVSPost2010PropOp54
 70
     1
102
RTVSPost2010Prop55
280
     0
102
RTVSPost2010PropOp55
 70
     1
102
RTVSPost2010Prop56
140
1.0
102
RTVSPost2010PropOp56
 70
     1
102
RTVSPost2010Prop57
140
1.0
102
RTVSPost2010PropOp57
 70
     1
102
RTVSPropertyOp0
 70
     1
102
RTVSPropertyOp1
 70
     1
102
RTVSPropertyOp2
 70
     1
102
RTVSPropertyOp3
 70
     1
102
RTVSPropertyOp4
 70
     1
102
RTVSPropertyOp5
 70
     1
102
RTVSPropertyOp6
 70
     1
102
RTVSPropertyOp7
 70
     1
102
RTVSPropertyOp8
 70
     1
102
RTVSPropertyOp9
 70
     1
102
RTVSPropertyOp10
 70
     1
102
RTVSPropertyOp11
 70
     1
102
RTVSPropertyOp12
 70
     1
102
RTVSPropertyOp13
 70
     1
102
RTVSPropertyOp14
 70
     1
102
RTVSPropertyOp15
 70
     1
102
RTVSPropertyOp16
 70
     1
102
RTVSPropertyOp17
 70
     1
102
RTVSPropertyOp18
 70
     1
102
RTVSPropertyOp19
 70
     1
102
RTVSPropertyOp20
 70
     1
102
RTVSPropertyOp21
 70
     1
102
RTVSPropertyOp22
 70
     1
102
RTVSPropertyOp23
 70
     1
102
RTVSPropertyOp24
 70
     1
102
RTVSPropertyOp25
 70
     1
102
RTVSPropertyOp26
 70
     1
102
RTVSPropertyOp27
 70
     1
102
RTVSPropertyOp28
 70
     1
102
RTVSPropertyOp29
 70
     1
102
RTVSPropertyOp30
 70
     1
102
RTVSPropertyOp31
 70
     1
102
RTVSPropertyOp32
 70
     1
102
RTVSPropertyOp33
 70
     1
102
RTVSPropertyOp34
 70
     1
102
RTVSPropertyOp35
 70
     1
102
RTVSPropertyOp36
 70
     1
102
RTVSPropertyOp37
 70
     1
102
RTVSPropertyOp38
 70
     1
102
RTVSPropertyOp39
 70
     1
102
RTVSPropertyOp40
 70
     1
102
RTVSPropertyOp41
 70
     1
102
RTVSPropertyOp42
 70
     1
102
RTVSPropertyOp43
 70
     1
102
RTVSPropertyOp44
 70
     1
102
RTVSPropertyOp45
 70
     1
102
RTVSPropertyOp46
 70
     1
102
RTVSPropertyOp47
 70
     1
102
RTVSPropertyOp48
 70
     1
102
RTVSPropertyOp49
 70
     1
102
RTVSPropertyOp50
 70
     1
102
RTVSPropertyOp51
 70
     0
102
RTVSPropertyOp52
 70
     0
102
RTVSPropertyOp53
 70
     1
102
RTVSPropertyOp54
 70
     1
102
RTVSPropertyOp55
 70
     1
102
RTVSPropertyOp56
 70
     1
102
RTVSPropertyOp57
 70
     1
102
RTVSPropertyOp58
 70
     1
102
RTVSPropertyOp59
 70
     1
102
RTVSPropertyOp60
 70
     1
102
RTVSPropertyOp61
 70
     1
102
RTVSPropertyOp62
 70
     1
  0
XRECORD
  5
39C5A
102
{ACAD_REACTORS
330
39C59
102
}
330
39C59
100
AcDbXrecord
280
     1
102
RTVSPost2010Prop28
280
     0
102
RTVSPost2010PropOp28
 70
     1
102
RTVSPost2010Prop29
280
     1
102
RTVSPost2010PropOp29
 70
     1
102
RTVSPost2010Prop30
280
     1
102
RTVSPost2010PropOp30
 70
     1
102
RTVSPost2010Prop31
280
     0
102
RTVSPost2010PropOp31
 70
     1
102
RTVSPost2010Prop32
280
     0
102
RTVSPost2010PropOp32
 70
     1
102
RTVSPost2010Prop33
280
     0
102
RTVSPost2010PropOp33
 70
     1
102
RTVSPost2010Prop34
280
     0
102
RTVSPost2010PropOp34
 70
     1
102
RTVSPost2010Prop35
280
     0
102
RTVSPost2010PropOp35
 70
     1
102
RTVSPost2010Prop36
280
     0
102
RTVSPost2010PropOp36
 70
     1
102
RTVSPost2010Prop37
 90
       50
102
RTVSPost2010PropOp37
 70
     1
102
RTVSPost2010Prop38
140
0.0
102
RTVSPost2010PropOp38
 70
     1
102
RTVSPost2010Prop39
140
1.0
102
RTVSPost2010PropOp39
 70
     1
102
RTVSPost2010Prop40
 90
        0
102
RTVSPost2010PropOp40
 70
     1
102
RTVSPost2010Prop41ColorIndex
 90
       18
102
RTVSPost2010Prop41ColorRGB
 90
        0
102
RTVSPost2010PropOp41
 70
     1
102
RTVSPost2010Prop42
 90
       50
102
RTVSPost2010PropOp42
 70
     1
102
RTVSPost2010Prop43
 90
        3
102
RTVSPost2010PropOp43
 70
     1
102
RTVSPost2010Prop44ColorIndex
 90
        5
102
RTVSPost2010Prop44ColorRGB
 90
      255
102
RTVSPost2010PropOp44
 70
     1
102
RTVSPost2010Prop45
280
     0
102
RTVSPost2010PropOp45
 70
     1
102
RTVSPost2010Prop46
 90
       50
102
RTVSPost2010PropOp46
 70
     1
102
RTVSPost2010Prop47
 90
       50
102
RTVSPost2010PropOp47
 70
     1
102
RTVSPost2010Prop48
 90
       50
102
RTVSPost2010PropOp48
 70
     1
102
RTVSPost2010Prop49
280
     0
102
RTVSPost2010PropOp49
 70
     1
102
RTVSPost2010Prop50
 90
       50
102
RTVSPost2010PropOp50
 70
     1
102
RTVSPost2010Prop51ColorIndex
 90
      256
102
RTVSPost2010Prop51ColorRGB
 90
-16777216
102
RTVSPost2010PropOp51
 70
     0
102
RTVSPost2010Prop52
140
1.0
102
RTVSPost2010PropOp52
 70
     0
102
RTVSPost2010Prop53
 90
        2
102
RTVSPost2010PropOp53
 70
     1
102
RTVSPost2010Prop54
  1
strokes_ogs.tif
102
RTVSPost2010PropOp54
 70
     1
102
RTVSPost2010Prop55
280
     0
102
RTVSPost2010PropOp55
 70
     1
102
RTVSPost2010Prop56
140
1.0
102
RTVSPost2010PropOp56
 70
     1
102
RTVSPost2010Prop57
140
1.0
102
RTVSPost2010PropOp57
 70
     1
102
RTVSPropertyOp0
 70
     1
102
RTVSPropertyOp1
 70
     1
102
RTVSPropertyOp2
 70
     1
102
RTVSPropertyOp3
 70
     1
102
RTVSPropertyOp4
 70
     1
102
RTVSPropertyOp5
 70
     1
102
RTVSPropertyOp6
 70
     1
102
RTVSPropertyOp7
 70
     1
102
RTVSPropertyOp8
 70
     1
102
RTVSPropertyOp9
 70
     1
102
RTVSPropertyOp10
 70
     1
102
RTVSPropertyOp11
 70
     1
102
RTVSPropertyOp12
 70
     1
102
RTVSPropertyOp13
 70
     1
102
RTVSPropertyOp14
 70
     1
102
RTVSPropertyOp15
 70
     1
102
RTVSPropertyOp16
 70
     1
102
RTVSPropertyOp17
 70
     1
102
RTVSPropertyOp18
 70
     1
102
RTVSPropertyOp19
 70
     1
102
RTVSPropertyOp20
 70
     1
102
RTVSPropertyOp21
 70
     1
102
RTVSPropertyOp22
 70
     1
102
RTVSPropertyOp23
 70
     1
102
RTVSPropertyOp24
 70
     1
102
RTVSPropertyOp25
 70
     1
102
RTVSPropertyOp26
 70
     1
102
RTVSPropertyOp27
 70
     1
102
RTVSPropertyOp28
 70
     1
102
RTVSPropertyOp29
 70
     1
102
RTVSPropertyOp30
 70
     1
102
RTVSPropertyOp31
 70
     1
102
RTVSPropertyOp32
 70
     1
102
RTVSPropertyOp33
 70
     1
102
RTVSPropertyOp34
 70
     1
102
RTVSPropertyOp35
 70
     1
102
RTVSPropertyOp36
 70
     1
102
RTVSPropertyOp37
 70
     1
102
RTVSPropertyOp38
 70
     1
102
RTVSPropertyOp39
 70
     1
102
RTVSPropertyOp40
 70
     1
102
RTVSPropertyOp41
 70
     1
102
RTVSPropertyOp42
 70
     1
102
RTVSPropertyOp43
 70
     1
102
RTVSPropertyOp44
 70
     1
102
RTVSPropertyOp45
 70
     1
102
RTVSPropertyOp46
 70
     1
102
RTVSPropertyOp47
 70
     1
102
RTVSPropertyOp48
 70
     1
102
RTVSPropertyOp49
 70
     1
102
RTVSPropertyOp50
 70
     1
102
RTVSPropertyOp51
 70
     0
102
RTVSPropertyOp52
 70
     0
102
RTVSPropertyOp53
 70
     1
102
RTVSPropertyOp54
 70
     1
102
RTVSPropertyOp55
 70
     1
102
RTVSPropertyOp56
 70
     1
102
RTVSPropertyOp57
 70
     1
102
RTVSPropertyOp58
 70
     1
102
RTVSPropertyOp59
 70
     1
102
RTVSPropertyOp60
 70
     1
102
RTVSPropertyOp61
 70
     1
102
RTVSPropertyOp62
 70
     1
  0
XRECORD
  5
39C4E
102
{ACAD_REACTORS
330
39C4D
102
}
330
39C4D
100
AcDbXrecord
280
     1
102
RTVSPost2010Prop28
280
     0
102
RTVSPost2010PropOp28
 70
     1
102
RTVSPost2010Prop29
280
     1
102
RTVSPost2010PropOp29
 70
     1
102
RTVSPost2010Prop30
280
     1
102
RTVSPost2010PropOp30
 70
     1
102
RTVSPost2010Prop31
280
     0
102
RTVSPost2010PropOp31
 70
     1
102
RTVSPost2010Prop32
280
     0
102
RTVSPost2010PropOp32
 70
     1
102
RTVSPost2010Prop33
280
     0
102
RTVSPost2010PropOp33
 70
     1
102
RTVSPost2010Prop34
280
     0
102
RTVSPost2010PropOp34
 70
     1
102
RTVSPost2010Prop35
280
     0
102
RTVSPost2010PropOp35
 70
     1
102
RTVSPost2010Prop36
280
     0
102
RTVSPost2010PropOp36
 70
     1
102
RTVSPost2010Prop37
 90
       50
102
RTVSPost2010PropOp37
 70
     1
102
RTVSPost2010Prop38
140
0.0
102
RTVSPost2010PropOp38
 70
     1
102
RTVSPost2010Prop39
140
1.0
102
RTVSPost2010PropOp39
 70
     1
102
RTVSPost2010Prop40
 90
        0
102
RTVSPost2010PropOp40
 70
     1
102
RTVSPost2010Prop41ColorIndex
 90
       18
102
RTVSPost2010Prop41ColorRGB
 90
        0
102
RTVSPost2010PropOp41
 70
     1
102
RTVSPost2010Prop42
 90
       50
102
RTVSPost2010PropOp42
 70
     1
102
RTVSPost2010Prop43
 90
        3
102
RTVSPost2010PropOp43
 70
     1
102
RTVSPost2010Prop44ColorIndex
 90
        5
102
RTVSPost2010Prop44ColorRGB
 90
      255
102
RTVSPost2010PropOp44
 70
     1
102
RTVSPost2010Prop45
280
     0
102
RTVSPost2010PropOp45
 70
     1
102
RTVSPost2010Prop46
 90
       50
102
RTVSPost2010PropOp46
 70
     1
102
RTVSPost2010Prop47
 90
       50
102
RTVSPost2010PropOp47
 70
     1
102
RTVSPost2010Prop48
 90
       50
102
RTVSPost2010PropOp48
 70
     1
102
RTVSPost2010Prop49
280
     0
102
RTVSPost2010PropOp49
 70
     1
102
RTVSPost2010Prop50
 90
       50
102
RTVSPost2010PropOp50
 70
     1
102
RTVSPost2010Prop51ColorIndex
 90
      256
102
RTVSPost2010Prop51ColorRGB
 90
-16777216
102
RTVSPost2010PropOp51
 70
     0
102
RTVSPost2010Prop52
140
1.0
102
RTVSPost2010PropOp52
 70
     0
102
RTVSPost2010Prop53
 90
        2
102
RTVSPost2010PropOp53
 70
     1
102
RTVSPost2010Prop54
  1
strokes_ogs.tif
102
RTVSPost2010PropOp54
 70
     1
102
RTVSPost2010Prop55
280
     0
102
RTVSPost2010PropOp55
 70
     1
102
RTVSPost2010Prop56
140
1.0
102
RTVSPost2010PropOp56
 70
     1
102
RTVSPost2010Prop57
140
1.0
102
RTVSPost2010PropOp57
 70
     1
102
RTVSPropertyOp0
 70
     1
102
RTVSPropertyOp1
 70
     1
102
RTVSPropertyOp2
 70
     1
102
RTVSPropertyOp3
 70
     1
102
RTVSPropertyOp4
 70
     1
102
RTVSPropertyOp5
 70
     1
102
RTVSPropertyOp6
 70
     1
102
RTVSPropertyOp7
 70
     1
102
RTVSPropertyOp8
 70
     1
102
RTVSPropertyOp9
 70
     1
102
RTVSPropertyOp10
 70
     1
102
RTVSPropertyOp11
 70
     1
102
RTVSPropertyOp12
 70
     1
102
RTVSPropertyOp13
 70
     1
102
RTVSPropertyOp14
 70
     1
102
RTVSPropertyOp15
 70
     1
102
RTVSPropertyOp16
 70
     1
102
RTVSPropertyOp17
 70
     1
102
RTVSPropertyOp18
 70
     1
102
RTVSPropertyOp19
 70
     1
102
RTVSPropertyOp20
 70
     1
102
RTVSPropertyOp21
 70
     1
102
RTVSPropertyOp22
 70
     1
102
RTVSPropertyOp23
 70
     1
102
RTVSPropertyOp24
 70
     1
102
RTVSPropertyOp25
 70
     1
102
RTVSPropertyOp26
 70
     1
102
RTVSPropertyOp27
 70
     1
102
RTVSPropertyOp28
 70
     1
102
RTVSPropertyOp29
 70
     1
102
RTVSPropertyOp30
 70
     1
102
RTVSPropertyOp31
 70
     1
102
RTVSPropertyOp32
 70
     1
102
RTVSPropertyOp33
 70
     1
102
RTVSPropertyOp34
 70
     1
102
RTVSPropertyOp35
 70
     1
102
RTVSPropertyOp36
 70
     1
102
RTVSPropertyOp37
 70
     1
102
RTVSPropertyOp38
 70
     1
102
RTVSPropertyOp39
 70
     1
102
RTVSPropertyOp40
 70
     1
102
RTVSPropertyOp41
 70
     1
102
RTVSPropertyOp42
 70
     1
102
RTVSPropertyOp43
 70
     1
102
RTVSPropertyOp44
 70
     1
102
RTVSPropertyOp45
 70
     1
102
RTVSPropertyOp46
 70
     1
102
RTVSPropertyOp47
 70
     1
102
RTVSPropertyOp48
 70
     1
102
RTVSPropertyOp49
 70
     1
102
RTVSPropertyOp50
 70
     1
102
RTVSPropertyOp51
 70
     0
102
RTVSPropertyOp52
 70
     0
102
RTVSPropertyOp53
 70
     1
102
RTVSPropertyOp54
 70
     1
102
RTVSPropertyOp55
 70
     1
102
RTVSPropertyOp56
 70
     1
102
RTVSPropertyOp57
 70
     1
102
RTVSPropertyOp58
 70
     1
102
RTVSPropertyOp59
 70
     1
102
RTVSPropertyOp60
 70
     1
102
RTVSPropertyOp61
 70
     1
102
RTVSPropertyOp62
 70
     1
  0
XRECORD
  5
39C6E
102
{ACAD_REACTORS
330
39C6D
102
}
330
39C6D
100
AcDbXrecord
280
     1
102
RTVSPost2010Prop28
280
     0
102
RTVSPost2010PropOp28
 70
     1
102
RTVSPost2010Prop29
280
     1
102
RTVSPost2010PropOp29
 70
     1
102
RTVSPost2010Prop30
280
     1
102
RTVSPost2010PropOp30
 70
     1
102
RTVSPost2010Prop31
280
     0
102
RTVSPost2010PropOp31
 70
     1
102
RTVSPost2010Prop32
280
     0
102
RTVSPost2010PropOp32
 70
     1
102
RTVSPost2010Prop33
280
     0
102
RTVSPost2010PropOp33
 70
     1
102
RTVSPost2010Prop34
280
     0
102
RTVSPost2010PropOp34
 70
     1
102
RTVSPost2010Prop35
280
     0
102
RTVSPost2010PropOp35
 70
     1
102
RTVSPost2010Prop36
280
     0
102
RTVSPost2010PropOp36
 70
     1
102
RTVSPost2010Prop37
 90
       50
102
RTVSPost2010PropOp37
 70
     1
102
RTVSPost2010Prop38
140
0.0
102
RTVSPost2010PropOp38
 70
     1
102
RTVSPost2010Prop39
140
1.0
102
RTVSPost2010PropOp39
 70
     1
102
RTVSPost2010Prop40
 90
        0
102
RTVSPost2010PropOp40
 70
     1
102
RTVSPost2010Prop41ColorIndex
 90
       18
102
RTVSPost2010Prop41ColorRGB
 90
        0
102
RTVSPost2010PropOp41
 70
     1
102
RTVSPost2010Prop42
 90
       50
102
RTVSPost2010PropOp42
 70
     1
102
RTVSPost2010Prop43
 90
        3
102
RTVSPost2010PropOp43
 70
     1
102
RTVSPost2010Prop44ColorIndex
 90
        5
102
RTVSPost2010Prop44ColorRGB
 90
      255
102
RTVSPost2010PropOp44
 70
     1
102
RTVSPost2010Prop45
280
     0
102
RTVSPost2010PropOp45
 70
     1
102
RTVSPost2010Prop46
 90
       50
102
RTVSPost2010PropOp46
 70
     1
102
RTVSPost2010Prop47
 90
       50
102
RTVSPost2010PropOp47
 70
     1
102
RTVSPost2010Prop48
 90
       50
102
RTVSPost2010PropOp48
 70
     1
102
RTVSPost2010Prop49
280
     0
102
RTVSPost2010PropOp49
 70
     1
102
RTVSPost2010Prop50
 90
       50
102
RTVSPost2010PropOp50
 70
     1
102
RTVSPost2010Prop51ColorIndex
 90
      256
102
RTVSPost2010Prop51ColorRGB
 90
-16777216
102
RTVSPost2010PropOp51
 70
     0
102
RTVSPost2010Prop52
140
1.0
102
RTVSPost2010PropOp52
 70
     0
102
RTVSPost2010Prop53
 90
        2
102
RTVSPost2010PropOp53
 70
     1
102
RTVSPost2010Prop54
  1
strokes_ogs.tif
102
RTVSPost2010PropOp54
 70
     1
102
RTVSPost2010Prop55
280
     0
102
RTVSPost2010PropOp55
 70
     1
102
RTVSPost2010Prop56
140
1.0
102
RTVSPost2010PropOp56
 70
     1
102
RTVSPost2010Prop57
140
1.0
102
RTVSPost2010PropOp57
 70
     1
102
RTVSPropertyOp0
 70
     1
102
RTVSPropertyOp1
 70
     1
102
RTVSPropertyOp2
 70
     1
102
RTVSPropertyOp3
 70
     1
102
RTVSPropertyOp4
 70
     1
102
RTVSPropertyOp5
 70
     1
102
RTVSPropertyOp6
 70
     1
102
RTVSPropertyOp7
 70
     1
102
RTVSPropertyOp8
 70
     1
102
RTVSPropertyOp9
 70
     1
102
RTVSPropertyOp10
 70
     1
102
RTVSPropertyOp11
 70
     1
102
RTVSPropertyOp12
 70
     1
102
RTVSPropertyOp13
 70
     1
102
RTVSPropertyOp14
 70
     1
102
RTVSPropertyOp15
 70
     1
102
RTVSPropertyOp16
 70
     1
102
RTVSPropertyOp17
 70
     1
102
RTVSPropertyOp18
 70
     1
102
RTVSPropertyOp19
 70
     1
102
RTVSPropertyOp20
 70
     1
102
RTVSPropertyOp21
 70
     1
102
RTVSPropertyOp22
 70
     1
102
RTVSPropertyOp23
 70
     1
102
RTVSPropertyOp24
 70
     1
102
RTVSPropertyOp25
 70
     1
102
RTVSPropertyOp26
 70
     1
102
RTVSPropertyOp27
 70
     1
102
RTVSPropertyOp28
 70
     1
102
RTVSPropertyOp29
 70
     1
102
RTVSPropertyOp30
 70
     1
102
RTVSPropertyOp31
 70
     1
102
RTVSPropertyOp32
 70
     1
102
RTVSPropertyOp33
 70
     1
102
RTVSPropertyOp34
 70
     1
102
RTVSPropertyOp35
 70
     1
102
RTVSPropertyOp36
 70
     1
102
RTVSPropertyOp37
 70
     1
102
RTVSPropertyOp38
 70
     1
102
RTVSPropertyOp39
 70
     1
102
RTVSPropertyOp40
 70
     1
102
RTVSPropertyOp41
 70
     1
102
RTVSPropertyOp42
 70
     1
102
RTVSPropertyOp43
 70
     1
102
RTVSPropertyOp44
 70
     1
102
RTVSPropertyOp45
 70
     1
102
RTVSPropertyOp46
 70
     1
102
RTVSPropertyOp47
 70
     1
102
RTVSPropertyOp48
 70
     1
102
RTVSPropertyOp49
 70
     1
102
RTVSPropertyOp50
 70
     1
102
RTVSPropertyOp51
 70
     0
102
RTVSPropertyOp52
 70
     0
102
RTVSPropertyOp53
 70
     1
102
RTVSPropertyOp54
 70
     1
102
RTVSPropertyOp55
 70
     1
102
RTVSPropertyOp56
 70
     1
102
RTVSPropertyOp57
 70
     1
102
RTVSPropertyOp58
 70
     1
102
RTVSPropertyOp59
 70
     1
102
RTVSPropertyOp60
 70
     1
102
RTVSPropertyOp61
 70
     1
102
RTVSPropertyOp62
 70
     1
  0
ENDSEC
  0
EOF
