  0
SECTION
  2
HEADER
  9
$ACADVER
  1
AC1015
  9
$ACADMAINTVER
 70
    18
  9
$DWGCODEPAGE
  3
ANSI_1252
  9
$INSBASE
 10
0.0
 20
0.0
 30
0.0
  9
$EXTMIN
 10
-34.81201078138781
 20
-422.4237668901026
 30
-0.0015258207003583
  9
$EXTMAX
 10
72.75787410880195
 20
2.007614483832867
 30
0.0000000349246037
  9
$LIMMIN
 10
0.0
 20
0.0
  9
$LIMMAX
 10
420.0
 20
297.0
  9
$ORTHOMODE
 70
     0
  9
$REGENMODE
 70
     1
  9
$FILLMODE
 70
     1
  9
$QTEXTMODE
 70
     0
  9
$MIRRTEXT
 70
     0
  9
$LTSCALE
 40
1.0
  9
$ATTMODE
 70
     1
  9
$TEXTSIZE
 40
2.5
  9
$TRACEWID
 40
1.0
  9
$TEXTSTYLE
  7
Standard
  9
$CLAYER
  8
0
  9
$CELTYPE
  6
ByLayer
  9
$CECOLOR
 62
   256
  9
$CELTSCALE
 40
1.0
  9
$DISPSILH
 70
     0
  9
$DIMSCALE
 40
1.0
  9
$DIMASZ
 40
2.5
  9
$DIMEXO
 40
0.625
  9
$DIMDLI
 40
3.75
  9
$DIMRND
 40
0.0
  9
$DIMDLE
 40
0.0
  9
$DIMEXE
 40
1.25
  9
$DIMTP
 40
0.0
  9
$DIMTM
 40
0.0
  9
$DIMTXT
 40
2.5
  9
$DIMCEN
 40
2.5
  9
$DIMTSZ
 40
0.0
  9
$DIMTOL
 70
     0
  9
$DIMLIM
 70
     0
  9
$DIMTIH
 70
     0
  9
$DIMTOH
 70
     0
  9
$DIMSE1
 70
     0
  9
$DIMSE2
 70
     0
  9
$DIMTAD
 70
     1
  9
$DIMZIN
 70
     8
  9
$DIMBLK
  1

  9
$DIMASO
 70
     1
  9
$DIMSHO
 70
     1
  9
$DIMPOST
  1

  9
$DIMAPOST
  1

  9
$DIMALT
 70
     0
  9
$DIMALTD
 70
     3
  9
$DIMALTF
 40
0.03937007874016
  9
$DIMLFAC
 40
1.0
  9
$DIMTOFL
 70
     1
  9
$DIMTVP
 40
0.0
  9
$DIMTIX
 70
     0
  9
$DIMSOXD
 70
     0
  9
$DIMSAH
 70
     0
  9
$DIMBLK1
  1

  9
$DIMBLK2
  1

  9
$DIMSTYLE
  2
ISO-25
  9
$DIMCLRD
 70
     0
  9
$DIMCLRE
 70
     0
  9
$DIMCLRT
 70
     0
  9
$DIMTFAC
 40
1.0
  9
$DIMGAP
 40
0.625
  9
$DIMJUST
 70
     0
  9
$DIMSD1
 70
     0
  9
$DIMSD2
 70
     0
  9
$DIMTOLJ
 70
     0
  9
$DIMTZIN
 70
     8
  9
$DIMALTZ
 70
     0
  9
$DIMALTTZ
 70
     0
  9
$DIMUPT
 70
     0
  9
$DIMDEC
 70
     2
  9
$DIMTDEC
 70
     2
  9
$DIMALTU
 70
     2
  9
$DIMALTTD
 70
     3
  9
$DIMTXSTY
  7
Standard
  9
$DIMAUNIT
 70
     0
  9
$DIMADEC
 70
     0
  9
$DIMALTRND
 40
0.0
  9
$DIMAZIN
 70
     0
  9
$DIMDSEP
 70
    44
  9
$DIMATFIT
 70
     3
  9
$DIMFRAC
 70
     0
  9
$DIMLDRBLK
  1

  9
$DIMLUNIT
 70
     2
  9
$DIMLWD
 70
    -2
  9
$DIMLWE
 70
    -2
  9
$DIMTMOVE
 70
     0
  9
$LUNITS
 70
     2
  9
$LUPREC
 70
     4
  9
$SKETCHINC
 40
1.0
  9
$FILLETRAD
 40
0.0
  9
$AUNITS
 70
     0
  9
$AUPREC
 70
     0
  9
$MENU
  1
.
  9
$ELEVATION
 40
0.0
  9
$PELEVATION
 40
0.0
  9
$THICKNESS
 40
0.0
  9
$LIMCHECK
 70
     0
  9
$CHAMFERA
 40
0.0
  9
$CHAMFERB
 40
0.0
  9
$CHAMFERC
 40
0.0
  9
$CHAMFERD
 40
0.0
  9
$SKPOLY
 70
     0
  9
$TDCREATE
 40
2460733.571354167
  9
$TDUCREATE
 40
2460733.279687500
  9
$TDUPDATE
 40
2460733.603356482
  9
$TDUUPDATE
 40
2460733.311689815
  9
$TDINDWG
 40
0.0027662037
  9
$TDUSRTIMER
 40
0.0027662037
  9
$USRTIMER
 70
     1
  9
$ANGBASE
 50
0.0
  9
$ANGDIR
 70
     0
  9
$PDMODE
 70
     0
  9
$PDSIZE
 40
0.0
  9
$PLINEWID
 40
0.0
  9
$SPLFRAME
 70
     0
  9
$SPLINETYPE
 70
     6
  9
$SPLINESEGS
 70
     8
  9
$HANDSEED
  5
1B8F8
  9
$SURFTAB1
 70
     6
  9
$SURFTAB2
 70
     6
  9
$SURFTYPE
 70
     6
  9
$SURFU
 70
     6
  9
$SURFV
 70
     6
  9
$UCSBASE
  2

  9
$UCSNAME
  2

  9
$UCSORG
 10
0.0
 20
0.0
 30
0.0
  9
$UCSXDIR
 10
1.0
 20
0.0
 30
0.0
  9
$UCSYDIR
 10
0.0
 20
1.0
 30
0.0
  9
$UCSORTHOREF
  2

  9
$UCSORTHOVIEW
 70
     0
  9
$UCSORGTOP
 10
0.0
 20
0.0
 30
0.0
  9
$UCSORGBOTTOM
 10
0.0
 20
0.0
 30
0.0
  9
$UCSORGLEFT
 10
0.0
 20
0.0
 30
0.0
  9
$UCSORGRIGHT
 10
0.0
 20
0.0
 30
0.0
  9
$UCSORGFRONT
 10
0.0
 20
0.0
 30
0.0
  9
$UCSORGBACK
 10
0.0
 20
0.0
 30
0.0
  9
$PUCSBASE
  2

  9
$PUCSNAME
  2

  9
$PUCSORG
 10
0.0
 20
0.0
 30
0.0
  9
$PUCSXDIR
 10
1.0
 20
0.0
 30
0.0
  9
$PUCSYDIR
 10
0.0
 20
1.0
 30
0.0
  9
$PUCSORTHOREF
  2

  9
$PUCSORTHOVIEW
 70
     0
  9
$PUCSORGTOP
 10
0.0
 20
0.0
 30
0.0
  9
$PUCSORGBOTTOM
 10
0.0
 20
0.0
 30
0.0
  9
$PUCSORGLEFT
 10
0.0
 20
0.0
 30
0.0
  9
$PUCSORGRIGHT
 10
0.0
 20
0.0
 30
0.0
  9
$PUCSORGFRONT
 10
0.0
 20
0.0
 30
0.0
  9
$PUCSORGBACK
 10
0.0
 20
0.0
 30
0.0
  9
$USERI1
 70
     0
  9
$USERI2
 70
     0
  9
$USERI3
 70
     0
  9
$USERI4
 70
     0
  9
$USERI5
 70
     0
  9
$USERR1
 40
0.0
  9
$USERR2
 40
0.0
  9
$USERR3
 40
0.0
  9
$USERR4
 40
0.0
  9
$USERR5
 40
0.0
  9
$WORLDVIEW
 70
     1
  9
$SHADEDGE
 70
     3
  9
$SHADEDIF
 70
    70
  9
$TILEMODE
 70
     1
  9
$MAXACTVP
 70
    48
  9
$PINSBASE
 10
0.0
 20
0.0
 30
0.0
  9
$PLIMCHECK
 70
     0
  9
$PEXTMIN
 10
0.0
 20
0.0
 30
0.0
  9
$PEXTMAX
 10
0.0
 20
0.0
 30
0.0
  9
$PLIMMIN
 10
0.0
 20
0.0
  9
$PLIMMAX
 10
12.0
 20
9.0
  9
$UNITMODE
 70
     0
  9
$VISRETAIN
 70
     1
  9
$PLINEGEN
 70
     0
  9
$PSLTSCALE
 70
     1
  9
$TREEDEPTH
 70
  3020
  9
$CMLSTYLE
  2
Standard
  9
$CMLJUST
 70
     0
  9
$CMLSCALE
 40
20.0
  9
$PROXYGRAPHICS
 70
     1
  9
$MEASUREMENT
 70
     1
  9
$CELWEIGHT
370
    -1
  9
$ENDCAPS
280
     0
  9
$JOINSTYLE
280
     0
  9
$LWDISPLAY
290
     0
  9
$INSUNITS
 70
     4
  9
$HYPERLINKBASE
  1

  9
$STYLESHEET
  1

  9
$XEDIT
290
     1
  9
$CEPSNTYPE
380
     0
  9
$PSTYLEMODE
290
     1
  9
$FINGERPRINTGUID
  2
{6CB9A169-B505-1E4C-8D04-AD9216FC5A69}
  9
$VERSIONGUID
  2
{2D4265C9-DB56-2A45-9F0F-B293C24608C0}
  9
$EXTNAMES
290
     1
  9
$PSVPSCALE
 40
0.0
  9
$OLESTARTUP
290
     0
  0
ENDSEC
  0
SECTION
  2
CLASSES
  0
CLASS
  1
ACDBDICTIONARYWDFLT
  2
AcDbDictionaryWithDefault
  3
ObjectDBX Classes
 90
        0
280
     0
281
     0
  0
CLASS
  1
ACDBPLACEHOLDER
  2
AcDbPlaceHolder
  3
ObjectDBX Classes
 90
        0
280
     0
281
     0
  0
CLASS
  1
LAYOUT
  2
AcDbLayout
  3
ObjectDBX Classes
 90
        0
280
     0
281
     0
  0
CLASS
  1
DICTIONARYVAR
  2
AcDbDictionaryVar
  3
ObjectDBX Classes
 90
        0
280
     0
281
     0
  0
CLASS
  1
TABLESTYLE
  2
AcDbTableStyle
  3
ObjectDBX Classes
 90
     4095
280
     0
281
     0
  0
CLASS
  1
MATERIAL
  2
AcDbMaterial
  3
ObjectDBX Classes
 90
     1153
280
     0
281
     0
  0
CLASS
  1
VISUALSTYLE
  2
AcDbVisualStyle
  3
ObjectDBX Classes
 90
     4095
280
     0
281
     0
  0
CLASS
  1
SCALE
  2
AcDbScale
  3
ObjectDBX Classes
 90
     1153
280
     0
281
     0
  0
CLASS
  1
MLEADERSTYLE
  2
AcDbMLeaderStyle
  3
ACDB_MLEADERSTYLE_CLASS
 90
     4095
280
     0
281
     0
  0
CLASS
  1
CELLSTYLEMAP
  2
AcDbCellStyleMap
  3
ObjectDBX Classes
 90
     1152
280
     0
281
     0
  0
CLASS
  1
EXACXREFPANELOBJECT
  2
ExAcXREFPanelObject
  3
EXAC_ESW
 90
    33793
280
     0
281
     0
  0
CLASS
  1
NPOCOLLECTION
  2
AcDbImpNonPersistentObjectsCollection
  3
ObjectDBX Classes
 90
    33921
280
     0
281
     0
  0
CLASS
  1
LAYER_INDEX
  2
AcDbLayerIndex
  3
ObjectDBX Classes
 90
    32768
280
     0
281
     0
  0
CLASS
  1
SPATIAL_INDEX
  2
AcDbSpatialIndex
  3
ObjectDBX Classes
 90
    32768
280
     0
281
     0
  0
CLASS
  1
IDBUFFER
  2
AcDbIdBuffer
  3
ObjectDBX Classes
 90
    32768
280
     0
281
     0
  0
CLASS
  1
ACDBSECTIONVIEWSTYLE
  2
AcDbSectionViewStyle
  3
ObjectDBX Classes
 90
     1025
280
     0
281
     0
  0
CLASS
  1
ACDBDETAILVIEWSTYLE
  2
AcDbDetailViewStyle
  3
ObjectDBX Classes
 90
     1025
280
     0
281
     0
  0
CLASS
  1
XRECORD
  2
AcDbXrecord
  3
ObjectDBX Classes
 90
        0
280
     0
281
     0
  0
ENDSEC
  0
SECTION
  2
TABLES
  0
TABLE
  2
VPORT
  5
8
102
{ACAD_XDICTIONARY
360
1B806
102
}
330
0
100
AcDbSymbolTable
 70
     1
  0
VPORT
  5
EA
330
8
100
AcDbSymbolTableRecord
100
AcDbViewportTableRecord
  2
*Active
 70
     0
 10
0.0
 20
0.0
 11
1.0
 21
1.0
 12
18.97293166370707
 22
-210.2080762031349
 13
0.0
 23
0.0
 14
10.0
 24
10.0
 15
10.0
 25
10.0
 16
0.0
 26
0.0
 36
1.0
 17
0.0
 27
0.0
 37
0.0
 40
451.3443107119989
 41
0.9846153846153846
 42
50.0
 43
0.0
 44
0.0
 50
0.0
 51
0.0
 71
     0
 72
  1000
 73
     1
 74
     3
 75
     0
 76
     1
 77
     0
 78
     0
281
     0
 65
     1
110
0.0
120
0.0
130
0.0
111
1.0
121
0.0
131
0.0
112
0.0
122
1.0
132
0.0
 79
     0
146
0.0
1001
ACAD_NAV_VCDISPLAY
1070
     3
  0
ENDTAB
  0
TABLE
  2
LTYPE
  5
5
330
0
100
AcDbSymbolTable
 70
     1
  0
LTYPE
  5
14
330
5
100
AcDbSymbolTableRecord
100
AcDbLinetypeTableRecord
  2
ByBlock
 70
     0
  3

 72
    65
 73
     0
 40
0.0
  0
LTYPE
  5
15
330
5
100
AcDbSymbolTableRecord
100
AcDbLinetypeTableRecord
  2
ByLayer
 70
     0
  3

 72
    65
 73
     0
 40
0.0
  0
LTYPE
  5
16
330
5
100
AcDbSymbolTableRecord
100
AcDbLinetypeTableRecord
  2
Continuous
 70
     0
  3
Solid line
 72
    65
 73
     0
 40
0.0
  0
ENDTAB
  0
TABLE
  2
LAYER
  5
2
102
{ACAD_XDICTIONARY
360
1FF
102
}
330
0
100
AcDbSymbolTable
 70
     1
  0
LAYER
  5
10
102
{ACAD_XDICTIONARY
360
13C
102
}
330
2
100
AcDbSymbolTableRecord
100
AcDbLayerTableRecord
  2
0
 70
     0
 62
     7
  6
Continuous
370
    -3
390
F
  0
ENDTAB
  0
TABLE
  2
STYLE
  5
3
330
0
100
AcDbSymbolTable
 70
     1
  0
STYLE
  5
11
330
3
100
AcDbSymbolTableRecord
100
AcDbTextStyleTableRecord
  2
Standard
 70
     0
 40
0.0
 41
1.0
 50
0.0
 71
     0
 42
2.5
  3
arial.ttf
  4

1001
ACAD
1000
Arial
1071
       34
  0
ENDTAB
  0
TABLE
  2
VIEW
  5
6
330
0
100
AcDbSymbolTable
 70
     0
  0
ENDTAB
  0
TABLE
  2
UCS
  5
7
330
0
100
AcDbSymbolTable
 70
     0
  0
ENDTAB
  0
TABLE
  2
APPID
  5
9
330
0
100
AcDbSymbolTable
 70
     8
  0
APPID
  5
12
330
9
100
AcDbSymbolTableRecord
100
AcDbRegAppTableRecord
  2
ACAD
 70
     0
  0
APPID
  5
9E
330
9
100
AcDbSymbolTableRecord
100
AcDbRegAppTableRecord
  2
ACAD_PSEXT
 70
     0
  0
APPID
  5
133
330
9
100
AcDbSymbolTableRecord
100
AcDbRegAppTableRecord
  2
AcadAnnoPO
 70
     0
  0
APPID
  5
134
330
9
100
AcDbSymbolTableRecord
100
AcDbRegAppTableRecord
  2
AcadAnnotative
 70
     0
  0
APPID
  5
135
330
9
100
AcDbSymbolTableRecord
100
AcDbRegAppTableRecord
  2
ACAD_DSTYLE_DIMJAG
 70
     0
  0
APPID
  5
136
330
9
100
AcDbSymbolTableRecord
100
AcDbRegAppTableRecord
  2
ACAD_DSTYLE_DIMTALN
 70
     0
  0
APPID
  5
165
330
9
100
AcDbSymbolTableRecord
100
AcDbRegAppTableRecord
  2
ACAD_MLEADERVER
 70
     0
  0
APPID
  5
217
330
9
100
AcDbSymbolTableRecord
100
AcDbRegAppTableRecord
  2
ACAD_NAV_VCDISPLAY
 70
     0
  0
ENDTAB
  0
TABLE
  2
DIMSTYLE
  5
A
330
0
100
AcDbSymbolTable
 70
     1
100
AcDbDimStyleTable
 71
     0
  0
DIMSTYLE
105
27
330
A
100
AcDbSymbolTableRecord
100
AcDbDimStyleTableRecord
  2
ISO-25
 70
     0
 41
2.5
 42
0.625
 43
3.75
 44
1.25
 73
     0
 74
     0
 77
     1
 78
     8
140
2.5
141
2.5
143
0.03937007874016
147
0.625
171
     3
172
     1
271
     2
272
     2
274
     3
278
    44
283
     0
284
     8
340
11
  0
ENDTAB
  0
TABLE
  2
BLOCK_RECORD
  5
1
330
0
100
AcDbSymbolTable
 70
     4
  0
BLOCK_RECORD
  5
1F
102
{ACAD_XDICTIONARY
360
1CE
102
}
330
1
100
AcDbSymbolTableRecord
100
AcDbBlockTableRecord
  2
*Model_Space
340
22
  0
BLOCK_RECORD
  5
D2
102
{ACAD_XDICTIONARY
360
1B7B7
102
}
330
1
100
AcDbSymbolTableRecord
100
AcDbBlockTableRecord
  2
*Paper_Space
340
D3
  0
BLOCK_RECORD
  5
D6
102
{ACAD_XDICTIONARY
360
1B7B9
102
}
330
1
100
AcDbSymbolTableRecord
100
AcDbBlockTableRecord
  2
*Paper_Space0
340
D7
  0
BLOCK_RECORD
  5
1B3AC
330
1
100
AcDbSymbolTableRecord
100
AcDbBlockTableRecord
  2
MKSA440x200-Front
340
0
102
{BLKREFS
331
1B7B0
102
}
  0
BLOCK_RECORD
  5
1B6A3
330
1
100
AcDbSymbolTableRecord
100
AcDbBlockTableRecord
  2
MKSA440x200-Top
340
0
102
{BLKREFS
331
1B7B1
102
}
  0
BLOCK_RECORD
  5
1B6B4
330
1
100
AcDbSymbolTableRecord
100
AcDbBlockTableRecord
  2
MKSA440x200-ISO
340
0
102
{BLKREFS
331
1B7B2
102
}
  0
ENDTAB
  0
ENDSEC
  0
SECTION
  2
BLOCKS
  0
BLOCK
  5
20
330
1F
100
AcDbEntity
  8
0
100
AcDbBlockBegin
  2
*Model_Space
 70
     0
 10
0.0
 20
0.0
 30
0.0
  3
*Model_Space
  1

  0
ENDBLK
  5
21
330
1F
100
AcDbEntity
  8
0
100
AcDbBlockEnd
  0
BLOCK
  5
D4
330
D2
100
AcDbEntity
 67
     1
  8
0
100
AcDbBlockBegin
  2
*Paper_Space
 70
     0
 10
0.0
 20
0.0
 30
0.0
  3
*Paper_Space
  1

  0
ENDBLK
  5
D5
330
D2
100
AcDbEntity
 67
     1
  8
0
100
AcDbBlockEnd
  0
BLOCK
  5
D8
330
D6
100
AcDbEntity
 67
     1
  8
0
100
AcDbBlockBegin
  2
*Paper_Space0
 70
     0
 10
0.0
 20
0.0
 30
0.0
  3
*Paper_Space0
  1

  0
ENDBLK
  5
D9
330
D6
100
AcDbEntity
 67
     1
  8
0
100
AcDbBlockEnd
  0
BLOCK
  5
1B3AD
330
1B3AC
100
AcDbEntity
  8
0
100
AcDbBlockBegin
  2
MKSA440x200-Front
 70
     0
 10
0.0
 20
0.0
 30
0.0
  3
MKSA440x200-Front
  1

  0
LINE
  5
1B3AF
330
1B3AC
100
AcDbEntity
  8
0
100
AcDbLine
 10
0.0
 20
-198.0
 30
0.0
 11
-2.111027358743949
 21
-192.2
 31
0.0
  0
LINE
  5
1B3B0
330
1B3AC
100
AcDbEntity
  8
0
100
AcDbLine
 10
0.0
 20
-198.0
 30
0.0
 11
2.111027358743966
 21
-192.2
 31
0.0
  0
ELLIPSE
  5
1B3B1
330
1B3AC
100
AcDbEntity
  8
0
100
AcDbEllipse
 10
0.0000000000000172
 20
-198.0
 30
0.0
 11
-1.541261305124497
 21
-8.197953800196538
 31
0.0
210
0.0
220
0.0
230
1.0
 40
0.1759646242458649
 41
2.389264765746327
 42
3.96006109254123
  0
LINE
  5
1B3B2
330
1B3AC
100
AcDbEntity
  8
0
100
AcDbLine
 10
0.0
 20
-192.2
 30
0.0
 11
0.0
 21
-198.0
 31
0.0
  0
LINE
  5
1B3B3
330
1B3AC
100
AcDbEntity
  8
0
100
AcDbLine
 10
2.111027358743981
 20
-186.9999999999999
 30
0.0
 11
-2.111027358743949
 21
-186.9999999999999
 31
0.0
  0
LINE
  5
1B3B4
330
1B3AC
100
AcDbEntity
  8
0
100
AcDbLine
 10
2.000000000000025
 20
-137.0
 30
0.0
 11
-2.000000000000006
 21
-137.0
 31
0.0
  0
LINE
  5
1B3B5
330
1B3AC
100
AcDbEntity
  8
0
100
AcDbLine
 10
4.249999999999985
 20
0.0
 30
0.0
 11
-4.25
 21
0.0
 31
0.0
  0
LINE
  5
1B3B6
330
1B3AC
100
AcDbEntity
  8
0
100
AcDbLine
 10
4.249999999999985
 20
0.3500000000000019
 30
0.0
 11
-4.25
 21
0.3500000000000009
 31
0.0
  0
LINE
  5
1B3B7
330
1B3AC
100
AcDbEntity
  8
0
100
AcDbLine
 10
-2.111027358743949
 20
-192.2
 30
0.0
 11
-2.11102735874395
 21
-186.9999999999999
 31
0.0
  0
LINE
  5
1B3B8
330
1B3AC
100
AcDbEntity
  8
0
100
AcDbLine
 10
2.111027358743982
 20
-192.2
 30
0.0
 11
2.111027358743981
 21
-186.9999999999999
 31
0.0
  0
LINE
  5
1B3B9
330
1B3AC
100
AcDbEntity
  8
0
100
AcDbLine
 10
-1.849999999999987
 20
-187.0
 30
0.0
 11
-1.849999999999987
 21
-186.5
 31
0.0
  0
LINE
  5
1B3BA
330
1B3AC
100
AcDbEntity
  8
0
100
AcDbLine
 10
1.850000000000018
 20
-187.0
 30
0.0
 11
1.850000000000018
 21
-186.4999999999999
 31
0.0
  0
LINE
  5
1B3BB
330
1B3AC
100
AcDbEntity
  8
0
100
AcDbLine
 10
-1.999999999999997
 20
-137.0
 30
0.0
 11
-2.000000000000014
 21
-0.9999999999999964
 31
0.0
  0
LINE
  5
1B3BC
330
1B3AC
100
AcDbEntity
  8
0
100
AcDbLine
 10
2.000000000000017
 20
-137.0
 30
0.0
 11
2.0
 21
-1.000000000000014
 31
0.0
  0
ARC
  5
1B3BD
330
1B3AC
100
AcDbEntity
  8
0
100
AcDbCircle
 10
2.999999999999992
 20
-1.000000000000013
 30
0.0
 40
1.0
100
AcDbArc
 50
90.00000000000005
 51
180.0
  0
ARC
  5
1B3BE
330
1B3AC
100
AcDbEntity
  8
0
100
AcDbCircle
 10
-3.000000000000006
 20
-1.000000000000014
 30
0.0
 40
1.0
100
AcDbArc
 50
0.0
 51
90.00000000000005
  0
LINE
  5
1B3BF
330
1B3AC
100
AcDbEntity
  8
0
100
AcDbLine
 10
-4.25
 20
0.0
 30
0.0
 11
-4.25
 21
0.3499999999999999
 31
0.0
  0
LINE
  5
1B3C0
330
1B3AC
100
AcDbEntity
  8
0
100
AcDbLine
 10
4.249999999999985
 20
0.0
 30
0.0
 11
4.249999999999985
 21
0.3500000000000019
 31
0.0
  0
ARC
  5
1B3C1
330
1B3AC
100
AcDbEntity
  8
0
100
AcDbCircle
 10
0.6503096200045128
 20
-5.973524778799514
 30
0.0
 40
8.0
100
AcDbArc
 50
94.6626442334653
 51
127.773294920092
  0
ARC
  5
1B3C2
330
1B3AC
100
AcDbEntity
  8
0
100
AcDbCircle
 10
-0.6503096200045253
 20
-5.973524778799514
 30
0.0
 40
8.000000000000001
100
AcDbArc
 50
52.22670507990806
 51
85.33735576653475
  0
ELLIPSE
  5
1B3C3
330
1B3AC
100
AcDbEntity
  8
0
100
AcDbEllipse
 10
0.0000000000000172
 20
-198.0000000000001
 30
0.0
 11
-1.54126130512451
 21
8.197953800196543
 31
0.0
210
0.0
220
0.0
230
1.0
 40
0.1759646242458633
 41
5.464716868228158
 42
7.035513195023038
  0
LINE
  5
1B3C4
330
1B3AC
100
AcDbEntity
  8
0
100
AcDbLine
 10
1.857773468998875
 20
-138.4667495333934
 30
0.0
 11
-1.857773468998875
 21
-138.4667495333934
 31
0.0
  0
LINE
  5
1B3C5
330
1B3AC
100
AcDbEntity
  8
0
100
AcDbLine
 10
1.857773468998879
 20
-184.9667495333934
 30
0.0
 11
-1.857773468998879
 21
-184.9667495333934
 31
0.0
  0
LINE
  5
1B3C6
330
1B3AC
100
AcDbEntity
  8
0
100
AcDbLine
 10
-1.849999999999987
 20
-186.4999999999999
 30
0.0
 11
1.850000000000018
 21
-186.4999999999999
 31
0.0
  0
LINE
  5
1B3C7
330
1B3AC
100
AcDbEntity
  8
0
100
AcDbLine
 10
1.857773468998879
 20
-183.4667495333934
 30
0.0
 11
-1.857773468998879
 21
-183.4667495333934
 31
0.0
  0
LINE
  5
1B3C8
330
1B3AC
100
AcDbEntity
  8
0
100
AcDbLine
 10
1.857773468998871
 20
-181.9667495333934
 30
0.0
 11
-1.857773468998871
 21
-181.9667495333934
 31
0.0
  0
LINE
  5
1B3C9
330
1B3AC
100
AcDbEntity
  8
0
100
AcDbLine
 10
1.857773468998879
 20
-180.4667495333933
 30
0.0
 11
-1.857773468998879
 21
-180.4667495333933
 31
0.0
  0
LINE
  5
1B3CA
330
1B3AC
100
AcDbEntity
  8
0
100
AcDbLine
 10
1.857773468998879
 20
-178.9667495333934
 30
0.0
 11
-1.857773468998879
 21
-178.9667495333934
 31
0.0
  0
LINE
  5
1B3CB
330
1B3AC
100
AcDbEntity
  8
0
100
AcDbLine
 10
1.857773468998871
 20
-177.4667495333934
 30
0.0
 11
-1.857773468998871
 21
-177.4667495333934
 31
0.0
  0
LINE
  5
1B3CC
330
1B3AC
100
AcDbEntity
  8
0
100
AcDbLine
 10
1.857773468998879
 20
-175.9667495333934
 30
0.0
 11
-1.857773468998879
 21
-175.9667495333934
 31
0.0
  0
LINE
  5
1B3CD
330
1B3AC
100
AcDbEntity
  8
0
100
AcDbLine
 10
1.857773468998871
 20
-174.4667495333934
 30
0.0
 11
-1.857773468998871
 21
-174.4667495333934
 31
0.0
  0
LINE
  5
1B3CE
330
1B3AC
100
AcDbEntity
  8
0
100
AcDbLine
 10
1.857773468998879
 20
-172.9667495333933
 30
0.0
 11
-1.857773468998879
 21
-172.9667495333933
 31
0.0
  0
LINE
  5
1B3CF
330
1B3AC
100
AcDbEntity
  8
0
100
AcDbLine
 10
1.857773468998879
 20
-171.4667495333934
 30
0.0
 11
-1.857773468998879
 21
-171.4667495333934
 31
0.0
  0
LINE
  5
1B3D0
330
1B3AC
100
AcDbEntity
  8
0
100
AcDbLine
 10
1.857773468998871
 20
-169.9667495333934
 30
0.0
 11
-1.857773468998871
 21
-169.9667495333934
 31
0.0
  0
LINE
  5
1B3D1
330
1B3AC
100
AcDbEntity
  8
0
100
AcDbLine
 10
1.857773468998879
 20
-168.4667495333934
 30
0.0
 11
-1.857773468998879
 21
-168.4667495333934
 31
0.0
  0
LINE
  5
1B3D2
330
1B3AC
100
AcDbEntity
  8
0
100
AcDbLine
 10
1.857773468998871
 20
-166.9667495333934
 30
0.0
 11
-1.857773468998871
 21
-166.9667495333934
 31
0.0
  0
LINE
  5
1B3D3
330
1B3AC
100
AcDbEntity
  8
0
100
AcDbLine
 10
1.857773468998879
 20
-165.4667495333933
 30
0.0
 11
-1.857773468998879
 21
-165.4667495333933
 31
0.0
  0
LINE
  5
1B3D4
330
1B3AC
100
AcDbEntity
  8
0
100
AcDbLine
 10
1.857773468998879
 20
-163.9667495333934
 30
0.0
 11
-1.857773468998879
 21
-163.9667495333934
 31
0.0
  0
LINE
  5
1B3D5
330
1B3AC
100
AcDbEntity
  8
0
100
AcDbLine
 10
1.857773468998879
 20
-162.4667495333933
 30
0.0
 11
-1.857773468998879
 21
-162.4667495333933
 31
0.0
  0
LINE
  5
1B3D6
330
1B3AC
100
AcDbEntity
  8
0
100
AcDbLine
 10
1.857773468998879
 20
-160.9667495333934
 30
0.0
 11
-1.857773468998879
 21
-160.9667495333934
 31
0.0
  0
LINE
  5
1B3D7
330
1B3AC
100
AcDbEntity
  8
0
100
AcDbLine
 10
1.857773468998875
 20
-159.4667495333934
 30
0.0
 11
-1.857773468998875
 21
-159.4667495333934
 31
0.0
  0
LINE
  5
1B3D8
330
1B3AC
100
AcDbEntity
  8
0
100
AcDbLine
 10
1.857773468998875
 20
-157.9667495333934
 30
0.0
 11
-1.857773468998875
 21
-157.9667495333934
 31
0.0
  0
LINE
  5
1B3D9
330
1B3AC
100
AcDbEntity
  8
0
100
AcDbLine
 10
1.857773468998875
 20
-156.4667495333934
 30
0.0
 11
-1.857773468998875
 21
-156.4667495333934
 31
0.0
  0
LINE
  5
1B3DA
330
1B3AC
100
AcDbEntity
  8
0
100
AcDbLine
 10
1.857773468998875
 20
-154.9667495333934
 30
0.0
 11
-1.857773468998875
 21
-154.9667495333934
 31
0.0
  0
LINE
  5
1B3DB
330
1B3AC
100
AcDbEntity
  8
0
100
AcDbLine
 10
1.857773468998875
 20
-153.4667495333934
 30
0.0
 11
-1.857773468998875
 21
-153.4667495333934
 31
0.0
  0
LINE
  5
1B3DC
330
1B3AC
100
AcDbEntity
  8
0
100
AcDbLine
 10
1.857773468998875
 20
-151.9667495333934
 30
0.0
 11
-1.857773468998875
 21
-151.9667495333934
 31
0.0
  0
LINE
  5
1B3DD
330
1B3AC
100
AcDbEntity
  8
0
100
AcDbLine
 10
1.857773468998879
 20
-150.4667495333934
 30
0.0
 11
-1.857773468998879
 21
-150.4667495333934
 31
0.0
  0
LINE
  5
1B3DE
330
1B3AC
100
AcDbEntity
  8
0
100
AcDbLine
 10
1.857773468998875
 20
-148.9667495333934
 30
0.0
 11
-1.857773468998875
 21
-148.9667495333934
 31
0.0
  0
LINE
  5
1B3DF
330
1B3AC
100
AcDbEntity
  8
0
100
AcDbLine
 10
1.857773468998875
 20
-147.4667495333934
 30
0.0
 11
-1.857773468998875
 21
-147.4667495333934
 31
0.0
  0
LINE
  5
1B3E0
330
1B3AC
100
AcDbEntity
  8
0
100
AcDbLine
 10
1.857773468998875
 20
-145.9667495333934
 30
0.0
 11
-1.857773468998875
 21
-145.9667495333934
 31
0.0
  0
LINE
  5
1B3E1
330
1B3AC
100
AcDbEntity
  8
0
100
AcDbLine
 10
1.857773468998875
 20
-144.4667495333934
 30
0.0
 11
-1.857773468998875
 21
-144.4667495333934
 31
0.0
  0
LINE
  5
1B3E2
330
1B3AC
100
AcDbEntity
  8
0
100
AcDbLine
 10
1.857773468998879
 20
-142.9667495333934
 30
0.0
 11
-1.857773468998879
 21
-142.9667495333934
 31
0.0
  0
LINE
  5
1B3E3
330
1B3AC
100
AcDbEntity
  8
0
100
AcDbLine
 10
1.857773468998875
 20
-141.4667495333934
 30
0.0
 11
-1.857773468998875
 21
-141.4667495333934
 31
0.0
  0
LINE
  5
1B3E4
330
1B3AC
100
AcDbEntity
  8
0
100
AcDbLine
 10
1.857773468998875
 20
-139.9667495333934
 30
0.0
 11
-1.857773468998875
 21
-139.9667495333934
 31
0.0
  0
LINE
  5
1B3E5
330
1B3AC
100
AcDbEntity
  8
0
100
AcDbLine
 10
1.857773468998876
 20
-138.4667495333934
 30
0.0
 11
1.995529386843726
 21
-138.4989548365384
 31
0.0
  0
LINE
  5
1B3E6
330
1B3AC
100
AcDbEntity
  8
0
100
AcDbLine
 10
-1.857773468998876
 20
-138.4667495333934
 30
0.0
 11
-1.995529386843726
 21
-138.4989548365384
 31
0.0
  0
LINE
  5
1B3E7
330
1B3AC
100
AcDbEntity
  8
0
100
AcDbLine
 10
1.85777346899888
 20
-184.9667495333934
 30
0.0
 11
1.995529386843726
 21
-184.9989548365384
 31
0.0
  0
LINE
  5
1B3E8
330
1B3AC
100
AcDbEntity
  8
0
100
AcDbLine
 10
-1.85777346899888
 20
-184.9667495333934
 30
0.0
 11
-1.995529386843726
 21
-184.9989548365384
 31
0.0
  0
LINE
  5
1B3E9
330
1B3AC
100
AcDbEntity
  8
0
100
AcDbLine
 10
-1.849999999999994
 20
-186.5
 30
0.0
 11
-2.144748748220959
 21
-185.2392329716031
 31
0.0
  0
LINE
  5
1B3EA
330
1B3AC
100
AcDbEntity
  8
0
100
AcDbLine
 10
1.850000000000011
 20
-186.4999999999999
 30
0.0
 11
2.144748748220959
 21
-185.2392329716031
 31
0.0
  0
ARC
  5
1B3EB
330
1B3AC
100
AcDbEntity
  8
0
100
AcDbCircle
 10
1.94999999999998
 20
-185.1937035847594
 30
0.0
 40
0.2
100
AcDbArc
 50
346.8414235966668
 51
76.84142359667553
  0
ARC
  5
1B3EC
330
1B3AC
100
AcDbEntity
  8
0
100
AcDbCircle
 10
-1.94999999999998
 20
-185.1937035847594
 30
0.0
 40
0.2
100
AcDbArc
 50
103.1585764033278
 51
193.1585764033333
  0
LINE
  5
1B3ED
330
1B3AC
100
AcDbEntity
  8
0
100
AcDbLine
 10
1.85777346899888
 20
-183.4667495333934
 30
0.0
 11
1.995529386843726
 21
-183.4989548365385
 31
0.0
  0
LINE
  5
1B3EE
330
1B3AC
100
AcDbEntity
  8
0
100
AcDbLine
 10
-1.85777346899888
 20
-183.4667495333934
 30
0.0
 11
-1.995529386843726
 21
-183.4989548365385
 31
0.0
  0
LINE
  5
1B3EF
330
1B3AC
100
AcDbEntity
  8
0
100
AcDbLine
 10
-1.857773468998878
 20
-184.9667495333934
 30
0.0
 11
-2.144748748220959
 21
-183.7392329716031
 31
0.0
  0
LINE
  5
1B3F0
330
1B3AC
100
AcDbEntity
  8
0
100
AcDbLine
 10
1.857773468998878
 20
-184.9667495333934
 30
0.0
 11
2.144748748220959
 21
-183.7392329716031
 31
0.0
  0
ARC
  5
1B3F1
330
1B3AC
100
AcDbEntity
  8
0
100
AcDbCircle
 10
1.94999999999998
 20
-183.6937035847594
 30
0.0
 40
0.2
100
AcDbArc
 50
346.8414235966877
 51
76.84142359667553
  0
ARC
  5
1B3F2
330
1B3AC
100
AcDbEntity
  8
0
100
AcDbCircle
 10
-1.94999999999998
 20
-183.6937035847594
 30
0.0
 40
0.2
100
AcDbArc
 50
103.1585764033254
 51
193.1585764033228
  0
LINE
  5
1B3F3
330
1B3AC
100
AcDbEntity
  8
0
100
AcDbLine
 10
1.857773468998872
 20
-181.9667495333934
 30
0.0
 11
1.995529386843726
 21
-181.9989548365384
 31
0.0
  0
LINE
  5
1B3F4
330
1B3AC
100
AcDbEntity
  8
0
100
AcDbLine
 10
-1.857773468998872
 20
-181.9667495333934
 30
0.0
 11
-1.995529386843726
 21
-181.9989548365384
 31
0.0
  0
LINE
  5
1B3F5
330
1B3AC
100
AcDbEntity
  8
0
100
AcDbLine
 10
-1.857773468998878
 20
-183.4667495333934
 30
0.0
 11
-2.144748748220959
 21
-182.2392329716031
 31
0.0
  0
LINE
  5
1B3F6
330
1B3AC
100
AcDbEntity
  8
0
100
AcDbLine
 10
1.857773468998878
 20
-183.4667495333934
 30
0.0
 11
2.144748748220959
 21
-182.2392329716031
 31
0.0
  0
ARC
  5
1B3F7
330
1B3AC
100
AcDbEntity
  8
0
100
AcDbCircle
 10
1.94999999999998
 20
-182.1937035847594
 30
0.0
 40
0.2
100
AcDbArc
 50
346.8414235966667
 51
76.84142359666698
  0
ARC
  5
1B3F8
330
1B3AC
100
AcDbEntity
  8
0
100
AcDbCircle
 10
-1.94999999999998
 20
-182.1937035847594
 30
0.0
 40
0.2
100
AcDbArc
 50
103.1585764033321
 51
193.1585764033333
  0
LINE
  5
1B3F9
330
1B3AC
100
AcDbEntity
  8
0
100
AcDbLine
 10
1.85777346899888
 20
-180.4667495333933
 30
0.0
 11
1.995529386843726
 21
-180.4989548365384
 31
0.0
  0
LINE
  5
1B3FA
330
1B3AC
100
AcDbEntity
  8
0
100
AcDbLine
 10
-1.85777346899888
 20
-180.4667495333933
 30
0.0
 11
-1.995529386843726
 21
-180.4989548365384
 31
0.0
  0
LINE
  5
1B3FB
330
1B3AC
100
AcDbEntity
  8
0
100
AcDbLine
 10
-1.85777346899887
 20
-181.9667495333934
 30
0.0
 11
-2.144748748220959
 21
-180.7392329716031
 31
0.0
  0
LINE
  5
1B3FC
330
1B3AC
100
AcDbEntity
  8
0
100
AcDbLine
 10
1.85777346899887
 20
-181.9667495333934
 30
0.0
 11
2.144748748220959
 21
-180.7392329716031
 31
0.0
  0
ARC
  5
1B3FD
330
1B3AC
100
AcDbEntity
  8
0
100
AcDbCircle
 10
1.94999999999998
 20
-180.6937035847594
 30
0.0
 40
0.2
100
AcDbArc
 50
346.8414235966772
 51
76.84142359667553
  0
ARC
  5
1B3FE
330
1B3AC
100
AcDbEntity
  8
0
100
AcDbCircle
 10
-1.94999999999998
 20
-180.6937035847594
 30
0.0
 40
0.2
100
AcDbArc
 50
103.1585764033254
 51
193.1585764033228
  0
LINE
  5
1B3FF
330
1B3AC
100
AcDbEntity
  8
0
100
AcDbLine
 10
1.85777346899888
 20
-178.9667495333934
 30
0.0
 11
1.995529386843726
 21
-178.9989548365384
 31
0.0
  0
LINE
  5
1B400
330
1B3AC
100
AcDbEntity
  8
0
100
AcDbLine
 10
-1.85777346899888
 20
-178.9667495333934
 30
0.0
 11
-1.995529386843726
 21
-178.9989548365384
 31
0.0
  0
LINE
  5
1B401
330
1B3AC
100
AcDbEntity
  8
0
100
AcDbLine
 10
-1.85777346899887
 20
-180.4667495333934
 30
0.0
 11
-2.144748748220959
 21
-179.2392329716031
 31
0.0
  0
LINE
  5
1B402
330
1B3AC
100
AcDbEntity
  8
0
100
AcDbLine
 10
1.857773468998878
 20
-180.4667495333933
 30
0.0
 11
2.144748748220959
 21
-179.2392329716031
 31
0.0
  0
ARC
  5
1B403
330
1B3AC
100
AcDbEntity
  8
0
100
AcDbCircle
 10
1.94999999999998
 20
-179.1937035847593
 30
0.0
 40
0.2
100
AcDbArc
 50
346.8414235966668
 51
76.84142359667553
  0
ARC
  5
1B404
330
1B3AC
100
AcDbEntity
  8
0
100
AcDbCircle
 10
-1.94999999999998
 20
-179.1937035847593
 30
0.0
 40
0.2
100
AcDbArc
 50
103.1585764033321
 51
193.1585764033333
  0
LINE
  5
1B405
330
1B3AC
100
AcDbEntity
  8
0
100
AcDbLine
 10
1.857773468998872
 20
-177.4667495333934
 30
0.0
 11
1.995529386843726
 21
-177.4989548365384
 31
0.0
  0
LINE
  5
1B406
330
1B3AC
100
AcDbEntity
  8
0
100
AcDbLine
 10
-1.857773468998872
 20
-177.4667495333934
 30
0.0
 11
-1.995529386843726
 21
-177.4989548365384
 31
0.0
  0
LINE
  5
1B407
330
1B3AC
100
AcDbEntity
  8
0
100
AcDbLine
 10
-1.85777346899887
 20
-178.9667495333934
 30
0.0
 11
-2.144748748220959
 21
-177.7392329716031
 31
0.0
  0
LINE
  5
1B408
330
1B3AC
100
AcDbEntity
  8
0
100
AcDbLine
 10
1.857773468998878
 20
-178.9667495333934
 30
0.0
 11
2.144748748220959
 21
-177.7392329716031
 31
0.0
  0
ARC
  5
1B409
330
1B3AC
100
AcDbEntity
  8
0
100
AcDbCircle
 10
1.94999999999998
 20
-177.6937035847594
 30
0.0
 40
0.2
100
AcDbArc
 50
346.8414235966668
 51
76.84142359667553
  0
ARC
  5
1B40A
330
1B3AC
100
AcDbEntity
  8
0
100
AcDbCircle
 10
-1.94999999999998
 20
-177.6937035847594
 30
0.0
 40
0.2
100
AcDbArc
 50
103.1585764033321
 51
193.1585764033333
  0
LINE
  5
1B40B
330
1B3AC
100
AcDbEntity
  8
0
100
AcDbLine
 10
1.85777346899888
 20
-175.9667495333934
 30
0.0
 11
1.995529386843726
 21
-175.9989548365384
 31
0.0
  0
LINE
  5
1B40C
330
1B3AC
100
AcDbEntity
  8
0
100
AcDbLine
 10
-1.85777346899888
 20
-175.9667495333934
 30
0.0
 11
-1.995529386843726
 21
-175.9989548365384
 31
0.0
  0
LINE
  5
1B40D
330
1B3AC
100
AcDbEntity
  8
0
100
AcDbLine
 10
-1.85777346899887
 20
-177.4667495333934
 30
0.0
 11
-2.144748748220959
 21
-176.2392329716031
 31
0.0
  0
LINE
  5
1B40E
330
1B3AC
100
AcDbEntity
  8
0
100
AcDbLine
 10
1.85777346899887
 20
-177.4667495333934
 30
0.0
 11
2.144748748220959
 21
-176.2392329716031
 31
0.0
  0
ARC
  5
1B40F
330
1B3AC
100
AcDbEntity
  8
0
100
AcDbCircle
 10
1.94999999999998
 20
-176.1937035847594
 30
0.0
 40
0.2
100
AcDbArc
 50
346.8414235966877
 51
76.84142359667553
  0
ARC
  5
1B410
330
1B3AC
100
AcDbEntity
  8
0
100
AcDbCircle
 10
-1.94999999999998
 20
-176.1937035847594
 30
0.0
 40
0.2
100
AcDbArc
 50
103.1585764033254
 51
193.1585764033228
  0
LINE
  5
1B411
330
1B3AC
100
AcDbEntity
  8
0
100
AcDbLine
 10
1.857773468998872
 20
-174.4667495333934
 30
0.0
 11
1.995529386843726
 21
-174.4989548365385
 31
0.0
  0
LINE
  5
1B412
330
1B3AC
100
AcDbEntity
  8
0
100
AcDbLine
 10
-1.857773468998872
 20
-174.4667495333934
 30
0.0
 11
-1.995529386843726
 21
-174.4989548365385
 31
0.0
  0
LINE
  5
1B413
330
1B3AC
100
AcDbEntity
  8
0
100
AcDbLine
 10
-1.857773468998878
 20
-175.9667495333934
 30
0.0
 11
-2.144748748220959
 21
-174.7392329716031
 31
0.0
  0
LINE
  5
1B414
330
1B3AC
100
AcDbEntity
  8
0
100
AcDbLine
 10
1.857773468998878
 20
-175.9667495333934
 30
0.0
 11
2.144748748220959
 21
-174.7392329716031
 31
0.0
  0
ARC
  5
1B415
330
1B3AC
100
AcDbEntity
  8
0
100
AcDbCircle
 10
1.94999999999998
 20
-174.6937035847594
 30
0.0
 40
0.2
100
AcDbArc
 50
346.8414235966667
 51
76.84142359666698
  0
ARC
  5
1B416
330
1B3AC
100
AcDbEntity
  8
0
100
AcDbCircle
 10
-1.94999999999998
 20
-174.6937035847594
 30
0.0
 40
0.2
100
AcDbArc
 50
103.1585764033321
 51
193.1585764033333
  0
LINE
  5
1B417
330
1B3AC
100
AcDbEntity
  8
0
100
AcDbLine
 10
1.85777346899888
 20
-172.9667495333933
 30
0.0
 11
1.995529386843726
 21
-172.9989548365384
 31
0.0
  0
LINE
  5
1B418
330
1B3AC
100
AcDbEntity
  8
0
100
AcDbLine
 10
-1.85777346899888
 20
-172.9667495333933
 30
0.0
 11
-1.995529386843726
 21
-172.9989548365384
 31
0.0
  0
LINE
  5
1B419
330
1B3AC
100
AcDbEntity
  8
0
100
AcDbLine
 10
-1.85777346899887
 20
-174.4667495333934
 30
0.0
 11
-2.144748748220959
 21
-173.2392329716031
 31
0.0
  0
LINE
  5
1B41A
330
1B3AC
100
AcDbEntity
  8
0
100
AcDbLine
 10
1.85777346899887
 20
-174.4667495333934
 30
0.0
 11
2.144748748220959
 21
-173.2392329716031
 31
0.0
  0
ARC
  5
1B41B
330
1B3AC
100
AcDbEntity
  8
0
100
AcDbCircle
 10
1.94999999999998
 20
-173.1937035847594
 30
0.0
 40
0.2
100
AcDbArc
 50
346.8414235966772
 51
76.84142359667553
  0
ARC
  5
1B41C
330
1B3AC
100
AcDbEntity
  8
0
100
AcDbCircle
 10
-1.94999999999998
 20
-173.1937035847594
 30
0.0
 40
0.2
100
AcDbArc
 50
103.1585764033254
 51
193.1585764033228
  0
LINE
  5
1B41D
330
1B3AC
100
AcDbEntity
  8
0
100
AcDbLine
 10
1.85777346899888
 20
-171.4667495333934
 30
0.0
 11
1.995529386843726
 21
-171.4989548365385
 31
0.0
  0
LINE
  5
1B41E
330
1B3AC
100
AcDbEntity
  8
0
100
AcDbLine
 10
-1.85777346899888
 20
-171.4667495333934
 30
0.0
 11
-1.995529386843726
 21
-171.4989548365385
 31
0.0
  0
LINE
  5
1B41F
330
1B3AC
100
AcDbEntity
  8
0
100
AcDbLine
 10
-1.85777346899887
 20
-172.9667495333934
 30
0.0
 11
-2.144748748220959
 21
-171.7392329716031
 31
0.0
  0
LINE
  5
1B420
330
1B3AC
100
AcDbEntity
  8
0
100
AcDbLine
 10
1.857773468998878
 20
-172.9667495333933
 30
0.0
 11
2.144748748220959
 21
-171.7392329716031
 31
0.0
  0
ARC
  5
1B421
330
1B3AC
100
AcDbEntity
  8
0
100
AcDbCircle
 10
1.94999999999998
 20
-171.6937035847593
 30
0.0
 40
0.2
100
AcDbArc
 50
346.8414235966668
 51
76.84142359667553
  0
ARC
  5
1B422
330
1B3AC
100
AcDbEntity
  8
0
100
AcDbCircle
 10
-1.94999999999998
 20
-171.6937035847593
 30
0.0
 40
0.2
100
AcDbArc
 50
103.1585764033321
 51
193.1585764033333
  0
LINE
  5
1B423
330
1B3AC
100
AcDbEntity
  8
0
100
AcDbLine
 10
1.857773468998872
 20
-169.9667495333934
 30
0.0
 11
1.995529386843726
 21
-169.9989548365385
 31
0.0
  0
LINE
  5
1B424
330
1B3AC
100
AcDbEntity
  8
0
100
AcDbLine
 10
-1.857773468998872
 20
-169.9667495333934
 30
0.0
 11
-1.995529386843726
 21
-169.9989548365385
 31
0.0
  0
LINE
  5
1B425
330
1B3AC
100
AcDbEntity
  8
0
100
AcDbLine
 10
-1.85777346899887
 20
-171.4667495333934
 30
0.0
 11
-2.144748748220959
 21
-170.2392329716031
 31
0.0
  0
LINE
  5
1B426
330
1B3AC
100
AcDbEntity
  8
0
100
AcDbLine
 10
1.857773468998878
 20
-171.4667495333934
 30
0.0
 11
2.144748748220959
 21
-170.2392329716031
 31
0.0
  0
ARC
  5
1B427
330
1B3AC
100
AcDbEntity
  8
0
100
AcDbCircle
 10
1.94999999999998
 20
-170.1937035847594
 30
0.0
 40
0.2
100
AcDbArc
 50
346.8414235966668
 51
76.84142359667553
  0
ARC
  5
1B428
330
1B3AC
100
AcDbEntity
  8
0
100
AcDbCircle
 10
-1.94999999999998
 20
-170.1937035847594
 30
0.0
 40
0.2
100
AcDbArc
 50
103.1585764033321
 51
193.1585764033333
  0
LINE
  5
1B429
330
1B3AC
100
AcDbEntity
  8
0
100
AcDbLine
 10
1.85777346899888
 20
-168.4667495333934
 30
0.0
 11
1.995529386843726
 21
-168.4989548365384
 31
0.0
  0
LINE
  5
1B42A
330
1B3AC
100
AcDbEntity
  8
0
100
AcDbLine
 10
-1.85777346899888
 20
-168.4667495333934
 30
0.0
 11
-1.995529386843726
 21
-168.4989548365384
 31
0.0
  0
LINE
  5
1B42B
330
1B3AC
100
AcDbEntity
  8
0
100
AcDbLine
 10
-1.85777346899887
 20
-169.9667495333934
 30
0.0
 11
-2.144748748220959
 21
-168.7392329716031
 31
0.0
  0
LINE
  5
1B42C
330
1B3AC
100
AcDbEntity
  8
0
100
AcDbLine
 10
1.85777346899887
 20
-169.9667495333934
 30
0.0
 11
2.144748748220959
 21
-168.7392329716031
 31
0.0
  0
ARC
  5
1B42D
330
1B3AC
100
AcDbEntity
  8
0
100
AcDbCircle
 10
1.94999999999998
 20
-168.6937035847594
 30
0.0
 40
0.2
100
AcDbArc
 50
346.8414235966877
 51
76.84142359667553
  0
ARC
  5
1B42E
330
1B3AC
100
AcDbEntity
  8
0
100
AcDbCircle
 10
-1.94999999999998
 20
-168.6937035847594
 30
0.0
 40
0.2
100
AcDbArc
 50
103.1585764033254
 51
193.1585764033228
  0
LINE
  5
1B42F
330
1B3AC
100
AcDbEntity
  8
0
100
AcDbLine
 10
1.857773468998872
 20
-166.9667495333934
 30
0.0
 11
1.995529386843726
 21
-166.9989548365385
 31
0.0
  0
LINE
  5
1B430
330
1B3AC
100
AcDbEntity
  8
0
100
AcDbLine
 10
-1.857773468998872
 20
-166.9667495333934
 30
0.0
 11
-1.995529386843726
 21
-166.9989548365385
 31
0.0
  0
LINE
  5
1B431
330
1B3AC
100
AcDbEntity
  8
0
100
AcDbLine
 10
-1.857773468998878
 20
-168.4667495333934
 30
0.0
 11
-2.144748748220959
 21
-167.2392329716031
 31
0.0
  0
LINE
  5
1B432
330
1B3AC
100
AcDbEntity
  8
0
100
AcDbLine
 10
1.857773468998878
 20
-168.4667495333934
 30
0.0
 11
2.144748748220959
 21
-167.2392329716031
 31
0.0
  0
ARC
  5
1B433
330
1B3AC
100
AcDbEntity
  8
0
100
AcDbCircle
 10
1.94999999999998
 20
-167.1937035847594
 30
0.0
 40
0.2
100
AcDbArc
 50
346.8414235966667
 51
76.84142359666698
  0
ARC
  5
1B434
330
1B3AC
100
AcDbEntity
  8
0
100
AcDbCircle
 10
-1.94999999999998
 20
-167.1937035847594
 30
0.0
 40
0.2
100
AcDbArc
 50
103.1585764033321
 51
193.1585764033333
  0
LINE
  5
1B435
330
1B3AC
100
AcDbEntity
  8
0
100
AcDbLine
 10
1.85777346899888
 20
-165.4667495333933
 30
0.0
 11
1.995529386843726
 21
-165.4989548365384
 31
0.0
  0
LINE
  5
1B436
330
1B3AC
100
AcDbEntity
  8
0
100
AcDbLine
 10
-1.85777346899888
 20
-165.4667495333933
 30
0.0
 11
-1.995529386843726
 21
-165.4989548365384
 31
0.0
  0
LINE
  5
1B437
330
1B3AC
100
AcDbEntity
  8
0
100
AcDbLine
 10
-1.85777346899887
 20
-166.9667495333934
 30
0.0
 11
-2.144748748220959
 21
-165.7392329716031
 31
0.0
  0
LINE
  5
1B438
330
1B3AC
100
AcDbEntity
  8
0
100
AcDbLine
 10
1.85777346899887
 20
-166.9667495333934
 30
0.0
 11
2.144748748220959
 21
-165.7392329716031
 31
0.0
  0
ARC
  5
1B439
330
1B3AC
100
AcDbEntity
  8
0
100
AcDbCircle
 10
1.94999999999998
 20
-165.6937035847594
 30
0.0
 40
0.2
100
AcDbArc
 50
346.8414235966772
 51
76.84142359667553
  0
ARC
  5
1B43A
330
1B3AC
100
AcDbEntity
  8
0
100
AcDbCircle
 10
-1.94999999999998
 20
-165.6937035847594
 30
0.0
 40
0.2
100
AcDbArc
 50
103.1585764033254
 51
193.1585764033228
  0
LINE
  5
1B43B
330
1B3AC
100
AcDbEntity
  8
0
100
AcDbLine
 10
1.85777346899888
 20
-163.9667495333934
 30
0.0
 11
1.995529386843726
 21
-163.9989548365385
 31
0.0
  0
LINE
  5
1B43C
330
1B3AC
100
AcDbEntity
  8
0
100
AcDbLine
 10
-1.85777346899888
 20
-163.9667495333934
 30
0.0
 11
-1.995529386843726
 21
-163.9989548365385
 31
0.0
  0
LINE
  5
1B43D
330
1B3AC
100
AcDbEntity
  8
0
100
AcDbLine
 10
-1.85777346899887
 20
-165.4667495333934
 30
0.0
 11
-2.144748748220959
 21
-164.2392329716031
 31
0.0
  0
LINE
  5
1B43E
330
1B3AC
100
AcDbEntity
  8
0
100
AcDbLine
 10
1.857773468998878
 20
-165.4667495333933
 30
0.0
 11
2.144748748220959
 21
-164.2392329716031
 31
0.0
  0
ARC
  5
1B43F
330
1B3AC
100
AcDbEntity
  8
0
100
AcDbCircle
 10
1.94999999999998
 20
-164.1937035847593
 30
0.0
 40
0.2
100
AcDbArc
 50
346.8414235966668
 51
76.84142359667553
  0
ARC
  5
1B440
330
1B3AC
100
AcDbEntity
  8
0
100
AcDbCircle
 10
-1.94999999999998
 20
-164.1937035847593
 30
0.0
 40
0.2
100
AcDbArc
 50
103.1585764033321
 51
193.1585764033333
  0
LINE
  5
1B441
330
1B3AC
100
AcDbEntity
  8
0
100
AcDbLine
 10
1.85777346899888
 20
-162.4667495333933
 30
0.0
 11
1.995529386843726
 21
-162.4989548365384
 31
0.0
  0
LINE
  5
1B442
330
1B3AC
100
AcDbEntity
  8
0
100
AcDbLine
 10
-1.85777346899888
 20
-162.4667495333933
 30
0.0
 11
-1.995529386843726
 21
-162.4989548365384
 31
0.0
  0
LINE
  5
1B443
330
1B3AC
100
AcDbEntity
  8
0
100
AcDbLine
 10
-1.85777346899887
 20
-163.9667495333934
 30
0.0
 11
-2.144748748220959
 21
-162.7392329716031
 31
0.0
  0
LINE
  5
1B444
330
1B3AC
100
AcDbEntity
  8
0
100
AcDbLine
 10
1.857773468998878
 20
-163.9667495333934
 30
0.0
 11
2.144748748220959
 21
-162.7392329716031
 31
0.0
  0
ARC
  5
1B445
330
1B3AC
100
AcDbEntity
  8
0
100
AcDbCircle
 10
1.94999999999998
 20
-162.6937035847594
 30
0.0
 40
0.2
100
AcDbArc
 50
346.8414235966668
 51
76.84142359667553
  0
ARC
  5
1B446
330
1B3AC
100
AcDbEntity
  8
0
100
AcDbCircle
 10
-1.94999999999998
 20
-162.6937035847594
 30
0.0
 40
0.2
100
AcDbArc
 50
103.1585764033278
 51
193.1585764033333
  0
LINE
  5
1B447
330
1B3AC
100
AcDbEntity
  8
0
100
AcDbLine
 10
1.85777346899888
 20
-160.9667495333934
 30
0.0
 11
1.995529386843726
 21
-160.9989548365384
 31
0.0
  0
LINE
  5
1B448
330
1B3AC
100
AcDbEntity
  8
0
100
AcDbLine
 10
-1.85777346899888
 20
-160.9667495333934
 30
0.0
 11
-1.995529386843726
 21
-160.9989548365384
 31
0.0
  0
LINE
  5
1B449
330
1B3AC
100
AcDbEntity
  8
0
100
AcDbLine
 10
-1.857773468998878
 20
-162.4667495333933
 30
0.0
 11
-2.144748748220959
 21
-161.2392329716031
 31
0.0
  0
LINE
  5
1B44A
330
1B3AC
100
AcDbEntity
  8
0
100
AcDbLine
 10
1.857773468998878
 20
-162.4667495333933
 30
0.0
 11
2.144748748220959
 21
-161.2392329716031
 31
0.0
  0
ARC
  5
1B44B
330
1B3AC
100
AcDbEntity
  8
0
100
AcDbCircle
 10
1.94999999999998
 20
-161.1937035847594
 30
0.0
 40
0.2
100
AcDbArc
 50
346.8414235966877
 51
76.84142359667553
  0
ARC
  5
1B44C
330
1B3AC
100
AcDbEntity
  8
0
100
AcDbCircle
 10
-1.94999999999998
 20
-161.1937035847594
 30
0.0
 40
0.2
100
AcDbArc
 50
103.1585764033254
 51
193.1585764033228
  0
LINE
  5
1B44D
330
1B3AC
100
AcDbEntity
  8
0
100
AcDbLine
 10
1.857773468998876
 20
-159.4667495333934
 30
0.0
 11
1.995529386843726
 21
-159.4989548365385
 31
0.0
  0
LINE
  5
1B44E
330
1B3AC
100
AcDbEntity
  8
0
100
AcDbLine
 10
-1.857773468998876
 20
-159.4667495333934
 30
0.0
 11
-1.995529386843726
 21
-159.4989548365385
 31
0.0
  0
LINE
  5
1B44F
330
1B3AC
100
AcDbEntity
  8
0
100
AcDbLine
 10
-1.857773468998878
 20
-160.9667495333934
 30
0.0
 11
-2.144748748220955
 21
-159.7392329716031
 31
0.0
  0
LINE
  5
1B450
330
1B3AC
100
AcDbEntity
  8
0
100
AcDbLine
 10
1.857773468998878
 20
-160.9667495333934
 30
0.0
 11
2.144748748220959
 21
-159.7392329716031
 31
0.0
  0
ARC
  5
1B451
330
1B3AC
100
AcDbEntity
  8
0
100
AcDbCircle
 10
1.94999999999998
 20
-159.6937035847594
 30
0.0
 40
0.2
100
AcDbArc
 50
346.8414235966668
 51
76.84142359667025
  0
ARC
  5
1B452
330
1B3AC
100
AcDbEntity
  8
0
100
AcDbCircle
 10
-1.94999999999998
 20
-159.6937035847594
 30
0.0
 40
0.2
100
AcDbArc
 50
103.1585764033299
 51
193.1585764033333
  0
LINE
  5
1B453
330
1B3AC
100
AcDbEntity
  8
0
100
AcDbLine
 10
1.857773468998876
 20
-157.9667495333934
 30
0.0
 11
1.995529386843726
 21
-157.9989548365384
 31
0.0
  0
LINE
  5
1B454
330
1B3AC
100
AcDbEntity
  8
0
100
AcDbLine
 10
-1.857773468998876
 20
-157.9667495333934
 30
0.0
 11
-1.995529386843726
 21
-157.9989548365384
 31
0.0
  0
LINE
  5
1B455
330
1B3AC
100
AcDbEntity
  8
0
100
AcDbLine
 10
-1.85777346899887
 20
-159.4667495333934
 30
0.0
 11
-2.144748748220959
 21
-158.2392329716032
 31
0.0
  0
LINE
  5
1B456
330
1B3AC
100
AcDbEntity
  8
0
100
AcDbLine
 10
1.857773468998873
 20
-159.4667495333934
 30
0.0
 11
2.144748748220959
 21
-158.2392329716032
 31
0.0
  0
ARC
  5
1B457
330
1B3AC
100
AcDbEntity
  8
0
100
AcDbCircle
 10
1.94999999999998
 20
-158.1937035847594
 30
0.0
 40
0.2
100
AcDbArc
 50
346.841423596672
 51
76.84142359667113
  0
ARC
  5
1B458
330
1B3AC
100
AcDbEntity
  8
0
100
AcDbCircle
 10
-1.94999999999998
 20
-158.1937035847594
 30
0.0
 40
0.2
100
AcDbArc
 50
103.1585764033287
 51
193.1585764033279
  0
LINE
  5
1B459
330
1B3AC
100
AcDbEntity
  8
0
100
AcDbLine
 10
1.857773468998876
 20
-156.4667495333934
 30
0.0
 11
1.995529386843726
 21
-156.4989548365385
 31
0.0
  0
LINE
  5
1B45A
330
1B3AC
100
AcDbEntity
  8
0
100
AcDbLine
 10
-1.857773468998876
 20
-156.4667495333934
 30
0.0
 11
-1.995529386843726
 21
-156.4989548365385
 31
0.0
  0
LINE
  5
1B45B
330
1B3AC
100
AcDbEntity
  8
0
100
AcDbLine
 10
-1.857773468998873
 20
-157.9667495333934
 30
0.0
 11
-2.144748748220959
 21
-156.7392329716031
 31
0.0
  0
LINE
  5
1B45C
330
1B3AC
100
AcDbEntity
  8
0
100
AcDbLine
 10
1.857773468998873
 20
-157.9667495333934
 30
0.0
 11
2.144748748220959
 21
-156.7392329716031
 31
0.0
  0
ARC
  5
1B45D
330
1B3AC
100
AcDbEntity
  8
0
100
AcDbCircle
 10
1.94999999999998
 20
-156.6937035847594
 30
0.0
 40
0.2
100
AcDbArc
 50
346.8414235966668
 51
76.84142359667234
  0
ARC
  5
1B45E
330
1B3AC
100
AcDbEntity
  8
0
100
AcDbCircle
 10
-1.94999999999998
 20
-156.6937035847594
 30
0.0
 40
0.2
100
AcDbArc
 50
103.1585764033287
 51
193.1585764033279
  0
LINE
  5
1B45F
330
1B3AC
100
AcDbEntity
  8
0
100
AcDbLine
 10
1.857773468998876
 20
-154.9667495333934
 30
0.0
 11
1.995529386843726
 21
-154.9989548365384
 31
0.0
  0
LINE
  5
1B460
330
1B3AC
100
AcDbEntity
  8
0
100
AcDbLine
 10
-1.857773468998876
 20
-154.9667495333934
 30
0.0
 11
-1.995529386843726
 21
-154.9989548365384
 31
0.0
  0
LINE
  5
1B461
330
1B3AC
100
AcDbEntity
  8
0
100
AcDbLine
 10
-1.85777346899887
 20
-156.4667495333934
 30
0.0
 11
-2.144748748220959
 21
-155.2392329716031
 31
0.0
  0
LINE
  5
1B462
330
1B3AC
100
AcDbEntity
  8
0
100
AcDbLine
 10
1.857773468998873
 20
-156.4667495333934
 30
0.0
 11
2.144748748220959
 21
-155.2392329716031
 31
0.0
  0
ARC
  5
1B463
330
1B3AC
100
AcDbEntity
  8
0
100
AcDbCircle
 10
1.94999999999998
 20
-155.1937035847594
 30
0.0
 40
0.2
100
AcDbArc
 50
346.841423596672
 51
76.84142359667113
  0
ARC
  5
1B464
330
1B3AC
100
AcDbEntity
  8
0
100
AcDbCircle
 10
-1.94999999999998
 20
-155.1937035847594
 30
0.0
 40
0.2
100
AcDbArc
 50
103.1585764033287
 51
193.1585764033279
  0
LINE
  5
1B465
330
1B3AC
100
AcDbEntity
  8
0
100
AcDbLine
 10
1.857773468998876
 20
-153.4667495333934
 30
0.0
 11
1.995529386843726
 21
-153.4989548365385
 31
0.0
  0
LINE
  5
1B466
330
1B3AC
100
AcDbEntity
  8
0
100
AcDbLine
 10
-1.857773468998876
 20
-153.4667495333934
 30
0.0
 11
-1.995529386843726
 21
-153.4989548365385
 31
0.0
  0
LINE
  5
1B467
330
1B3AC
100
AcDbEntity
  8
0
100
AcDbLine
 10
-1.857773468998873
 20
-154.9667495333934
 30
0.0
 11
-2.144748748220959
 21
-153.7392329716031
 31
0.0
  0
LINE
  5
1B468
330
1B3AC
100
AcDbEntity
  8
0
100
AcDbLine
 10
1.857773468998873
 20
-154.9667495333934
 30
0.0
 11
2.144748748220959
 21
-153.7392329716031
 31
0.0
  0
ARC
  5
1B469
330
1B3AC
100
AcDbEntity
  8
0
100
AcDbCircle
 10
1.94999999999998
 20
-153.6937035847594
 30
0.0
 40
0.2
100
AcDbArc
 50
346.8414235966668
 51
76.84142359667234
  0
ARC
  5
1B46A
330
1B3AC
100
AcDbEntity
  8
0
100
AcDbCircle
 10
-1.94999999999998
 20
-153.6937035847594
 30
0.0
 40
0.2
100
AcDbArc
 50
103.1585764033287
 51
193.1585764033279
  0
LINE
  5
1B46B
330
1B3AC
100
AcDbEntity
  8
0
100
AcDbLine
 10
1.857773468998876
 20
-151.9667495333934
 30
0.0
 11
1.995529386843726
 21
-151.9989548365384
 31
0.0
  0
LINE
  5
1B46C
330
1B3AC
100
AcDbEntity
  8
0
100
AcDbLine
 10
-1.857773468998876
 20
-151.9667495333934
 30
0.0
 11
-1.995529386843726
 21
-151.9989548365384
 31
0.0
  0
LINE
  5
1B46D
330
1B3AC
100
AcDbEntity
  8
0
100
AcDbLine
 10
-1.85777346899887
 20
-153.4667495333934
 30
0.0
 11
-2.144748748220959
 21
-152.2392329716031
 31
0.0
  0
LINE
  5
1B46E
330
1B3AC
100
AcDbEntity
  8
0
100
AcDbLine
 10
1.857773468998873
 20
-153.4667495333934
 30
0.0
 11
2.144748748220959
 21
-152.2392329716031
 31
0.0
  0
ARC
  5
1B46F
330
1B3AC
100
AcDbEntity
  8
0
100
AcDbCircle
 10
1.94999999999998
 20
-152.1937035847594
 30
0.0
 40
0.2
100
AcDbArc
 50
346.841423596672
 51
76.84142359667113
  0
ARC
  5
1B470
330
1B3AC
100
AcDbEntity
  8
0
100
AcDbCircle
 10
-1.94999999999998
 20
-152.1937035847594
 30
0.0
 40
0.2
100
AcDbArc
 50
103.1585764033287
 51
193.1585764033279
  0
LINE
  5
1B471
330
1B3AC
100
AcDbEntity
  8
0
100
AcDbLine
 10
1.85777346899888
 20
-150.4667495333934
 30
0.0
 11
1.995529386843726
 21
-150.4989548365385
 31
0.0
  0
LINE
  5
1B472
330
1B3AC
100
AcDbEntity
  8
0
100
AcDbLine
 10
-1.85777346899888
 20
-150.4667495333934
 30
0.0
 11
-1.995529386843726
 21
-150.4989548365385
 31
0.0
  0
LINE
  5
1B473
330
1B3AC
100
AcDbEntity
  8
0
100
AcDbLine
 10
-1.857773468998873
 20
-151.9667495333934
 30
0.0
 11
-2.144748748220959
 21
-150.7392329716031
 31
0.0
  0
LINE
  5
1B474
330
1B3AC
100
AcDbEntity
  8
0
100
AcDbLine
 10
1.857773468998873
 20
-151.9667495333934
 30
0.0
 11
2.144748748220959
 21
-150.7392329716031
 31
0.0
  0
ARC
  5
1B475
330
1B3AC
100
AcDbEntity
  8
0
100
AcDbCircle
 10
1.94999999999998
 20
-150.6937035847594
 30
0.0
 40
0.2
100
AcDbArc
 50
346.8414235966772
 51
76.84142359667234
  0
ARC
  5
1B476
330
1B3AC
100
AcDbEntity
  8
0
100
AcDbCircle
 10
-1.94999999999998
 20
-150.6937035847594
 30
0.0
 40
0.2
100
AcDbArc
 50
103.1585764033277
 51
193.1585764033228
  0
LINE
  5
1B477
330
1B3AC
100
AcDbEntity
  8
0
100
AcDbLine
 10
1.857773468998876
 20
-148.9667495333934
 30
0.0
 11
1.995529386843726
 21
-148.9989548365384
 31
0.0
  0
LINE
  5
1B478
330
1B3AC
100
AcDbEntity
  8
0
100
AcDbLine
 10
-1.857773468998876
 20
-148.9667495333934
 30
0.0
 11
-1.995529386843726
 21
-148.9989548365384
 31
0.0
  0
LINE
  5
1B479
330
1B3AC
100
AcDbEntity
  8
0
100
AcDbLine
 10
-1.857773468998878
 20
-150.4667495333934
 30
0.0
 11
-2.144748748220959
 21
-149.2392329716031
 31
0.0
  0
LINE
  5
1B47A
330
1B3AC
100
AcDbEntity
  8
0
100
AcDbLine
 10
1.857773468998878
 20
-150.4667495333934
 30
0.0
 11
2.144748748220959
 21
-149.2392329716031
 31
0.0
  0
ARC
  5
1B47B
330
1B3AC
100
AcDbEntity
  8
0
100
AcDbCircle
 10
1.94999999999998
 20
-149.1937035847594
 30
0.0
 40
0.2
100
AcDbArc
 50
346.8414235966668
 51
76.84142359667234
  0
ARC
  5
1B47C
330
1B3AC
100
AcDbEntity
  8
0
100
AcDbCircle
 10
-1.94999999999998
 20
-149.1937035847594
 30
0.0
 40
0.2
100
AcDbArc
 50
103.1585764033287
 51
193.1585764033279
  0
LINE
  5
1B47D
330
1B3AC
100
AcDbEntity
  8
0
100
AcDbLine
 10
1.857773468998876
 20
-147.4667495333934
 30
0.0
 11
1.995529386843726
 21
-147.4989548365384
 31
0.0
  0
LINE
  5
1B47E
330
1B3AC
100
AcDbEntity
  8
0
100
AcDbLine
 10
-1.857773468998876
 20
-147.4667495333934
 30
0.0
 11
-1.995529386843726
 21
-147.4989548365384
 31
0.0
  0
LINE
  5
1B47F
330
1B3AC
100
AcDbEntity
  8
0
100
AcDbLine
 10
-1.85777346899887
 20
-148.9667495333934
 30
0.0
 11
-2.144748748220959
 21
-147.7392329716031
 31
0.0
  0
LINE
  5
1B480
330
1B3AC
100
AcDbEntity
  8
0
100
AcDbLine
 10
1.857773468998873
 20
-148.9667495333934
 30
0.0
 11
2.144748748220959
 21
-147.7392329716031
 31
0.0
  0
ARC
  5
1B481
330
1B3AC
100
AcDbEntity
  8
0
100
AcDbCircle
 10
1.94999999999998
 20
-147.6937035847594
 30
0.0
 40
0.2
100
AcDbArc
 50
346.841423596672
 51
76.84142359667113
  0
ARC
  5
1B482
330
1B3AC
100
AcDbEntity
  8
0
100
AcDbCircle
 10
-1.94999999999998
 20
-147.6937035847594
 30
0.0
 40
0.2
100
AcDbArc
 50
103.1585764033287
 51
193.1585764033279
  0
LINE
  5
1B483
330
1B3AC
100
AcDbEntity
  8
0
100
AcDbLine
 10
1.857773468998876
 20
-145.9667495333934
 30
0.0
 11
1.995529386843726
 21
-145.9989548365385
 31
0.0
  0
LINE
  5
1B484
330
1B3AC
100
AcDbEntity
  8
0
100
AcDbLine
 10
-1.857773468998876
 20
-145.9667495333934
 30
0.0
 11
-1.995529386843726
 21
-145.9989548365385
 31
0.0
  0
LINE
  5
1B485
330
1B3AC
100
AcDbEntity
  8
0
100
AcDbLine
 10
-1.857773468998873
 20
-147.4667495333934
 30
0.0
 11
-2.144748748220959
 21
-146.2392329716031
 31
0.0
  0
LINE
  5
1B486
330
1B3AC
100
AcDbEntity
  8
0
100
AcDbLine
 10
1.857773468998873
 20
-147.4667495333934
 30
0.0
 11
2.144748748220959
 21
-146.2392329716031
 31
0.0
  0
ARC
  5
1B487
330
1B3AC
100
AcDbEntity
  8
0
100
AcDbCircle
 10
1.94999999999998
 20
-146.1937035847594
 30
0.0
 40
0.2
100
AcDbArc
 50
346.8414235966668
 51
76.84142359667234
  0
ARC
  5
1B488
330
1B3AC
100
AcDbEntity
  8
0
100
AcDbCircle
 10
-1.94999999999998
 20
-146.1937035847594
 30
0.0
 40
0.2
100
AcDbArc
 50
103.1585764033287
 51
193.1585764033279
  0
LINE
  5
1B489
330
1B3AC
100
AcDbEntity
  8
0
100
AcDbLine
 10
1.857773468998876
 20
-144.4667495333934
 30
0.0
 11
1.995529386843726
 21
-144.4989548365384
 31
0.0
  0
LINE
  5
1B48A
330
1B3AC
100
AcDbEntity
  8
0
100
AcDbLine
 10
-1.857773468998876
 20
-144.4667495333934
 30
0.0
 11
-1.995529386843726
 21
-144.4989548365384
 31
0.0
  0
LINE
  5
1B48B
330
1B3AC
100
AcDbEntity
  8
0
100
AcDbLine
 10
-1.85777346899887
 20
-145.9667495333934
 30
0.0
 11
-2.144748748220959
 21
-144.7392329716031
 31
0.0
  0
LINE
  5
1B48C
330
1B3AC
100
AcDbEntity
  8
0
100
AcDbLine
 10
1.857773468998873
 20
-145.9667495333934
 30
0.0
 11
2.144748748220959
 21
-144.7392329716031
 31
0.0
  0
ARC
  5
1B48D
330
1B3AC
100
AcDbEntity
  8
0
100
AcDbCircle
 10
1.94999999999998
 20
-144.6937035847594
 30
0.0
 40
0.2
100
AcDbArc
 50
346.841423596672
 51
76.84142359667113
  0
ARC
  5
1B48E
330
1B3AC
100
AcDbEntity
  8
0
100
AcDbCircle
 10
-1.94999999999998
 20
-144.6937035847594
 30
0.0
 40
0.2
100
AcDbArc
 50
103.1585764033287
 51
193.1585764033279
  0
LINE
  5
1B48F
330
1B3AC
100
AcDbEntity
  8
0
100
AcDbLine
 10
1.85777346899888
 20
-142.9667495333934
 30
0.0
 11
1.995529386843726
 21
-142.9989548365385
 31
0.0
  0
LINE
  5
1B490
330
1B3AC
100
AcDbEntity
  8
0
100
AcDbLine
 10
-1.85777346899888
 20
-142.9667495333934
 30
0.0
 11
-1.995529386843726
 21
-142.9989548365385
 31
0.0
  0
LINE
  5
1B491
330
1B3AC
100
AcDbEntity
  8
0
100
AcDbLine
 10
-1.857773468998873
 20
-144.4667495333934
 30
0.0
 11
-2.144748748220959
 21
-143.2392329716031
 31
0.0
  0
LINE
  5
1B492
330
1B3AC
100
AcDbEntity
  8
0
100
AcDbLine
 10
1.857773468998873
 20
-144.4667495333934
 30
0.0
 11
2.144748748220959
 21
-143.2392329716031
 31
0.0
  0
ARC
  5
1B493
330
1B3AC
100
AcDbEntity
  8
0
100
AcDbCircle
 10
1.94999999999998
 20
-143.1937035847594
 30
0.0
 40
0.2
100
AcDbArc
 50
346.8414235966668
 51
76.84142359667234
  0
ARC
  5
1B494
330
1B3AC
100
AcDbEntity
  8
0
100
AcDbCircle
 10
-1.94999999999998
 20
-143.1937035847594
 30
0.0
 40
0.2
100
AcDbArc
 50
103.1585764033287
 51
193.1585764033279
  0
LINE
  5
1B495
330
1B3AC
100
AcDbEntity
  8
0
100
AcDbLine
 10
1.857773468998876
 20
-141.4667495333934
 30
0.0
 11
1.995529386843726
 21
-141.4989548365384
 31
0.0
  0
LINE
  5
1B496
330
1B3AC
100
AcDbEntity
  8
0
100
AcDbLine
 10
-1.857773468998876
 20
-141.4667495333934
 30
0.0
 11
-1.995529386843726
 21
-141.4989548365384
 31
0.0
  0
LINE
  5
1B497
330
1B3AC
100
AcDbEntity
  8
0
100
AcDbLine
 10
-1.857773468998878
 20
-142.9667495333934
 30
0.0
 11
-2.144748748220959
 21
-141.7392329716031
 31
0.0
  0
LINE
  5
1B498
330
1B3AC
100
AcDbEntity
  8
0
100
AcDbLine
 10
1.857773468998878
 20
-142.9667495333934
 30
0.0
 11
2.144748748220959
 21
-141.7392329716031
 31
0.0
  0
ARC
  5
1B499
330
1B3AC
100
AcDbEntity
  8
0
100
AcDbCircle
 10
1.94999999999998
 20
-141.6937035847594
 30
0.0
 40
0.2
100
AcDbArc
 50
346.8414235966668
 51
76.84142359667234
  0
ARC
  5
1B49A
330
1B3AC
100
AcDbEntity
  8
0
100
AcDbCircle
 10
-1.94999999999998
 20
-141.6937035847594
 30
0.0
 40
0.2
100
AcDbArc
 50
103.1585764033287
 51
193.1585764033279
  0
LINE
  5
1B49B
330
1B3AC
100
AcDbEntity
  8
0
100
AcDbLine
 10
1.857773468998876
 20
-139.9667495333934
 30
0.0
 11
1.995529386843726
 21
-139.9989548365385
 31
0.0
  0
LINE
  5
1B49C
330
1B3AC
100
AcDbEntity
  8
0
100
AcDbLine
 10
-1.857773468998876
 20
-139.9667495333934
 30
0.0
 11
-1.995529386843726
 21
-139.9989548365385
 31
0.0
  0
LINE
  5
1B49D
330
1B3AC
100
AcDbEntity
  8
0
100
AcDbLine
 10
-1.85777346899887
 20
-141.4667495333934
 30
0.0
 11
-2.144748748220959
 21
-140.2392329716031
 31
0.0
  0
LINE
  5
1B49E
330
1B3AC
100
AcDbEntity
  8
0
100
AcDbLine
 10
1.857773468998873
 20
-141.4667495333934
 30
0.0
 11
2.144748748220959
 21
-140.2392329716031
 31
0.0
  0
ARC
  5
1B49F
330
1B3AC
100
AcDbEntity
  8
0
100
AcDbCircle
 10
1.94999999999998
 20
-140.1937035847594
 30
0.0
 40
0.2
100
AcDbArc
 50
346.841423596672
 51
76.84142359667113
  0
ARC
  5
1B4A0
330
1B3AC
100
AcDbEntity
  8
0
100
AcDbCircle
 10
-1.94999999999998
 20
-140.1937035847594
 30
0.0
 40
0.2
100
AcDbArc
 50
103.1585764033287
 51
193.1585764033279
  0
LINE
  5
1B4A1
330
1B3AC
100
AcDbEntity
  8
0
100
AcDbLine
 10
-1.857773468998873
 20
-139.9667495333934
 30
0.0
 11
-2.144748748220959
 21
-138.7392329716031
 31
0.0
  0
LINE
  5
1B4A2
330
1B3AC
100
AcDbEntity
  8
0
100
AcDbLine
 10
1.857773468998873
 20
-139.9667495333934
 30
0.0
 11
2.144748748220959
 21
-138.7392329716031
 31
0.0
  0
ARC
  5
1B4A3
330
1B3AC
100
AcDbEntity
  8
0
100
AcDbCircle
 10
1.94999999999998
 20
-138.6937035847594
 30
0.0
 40
0.2
100
AcDbArc
 50
346.8414235966668
 51
76.84142359667234
  0
ARC
  5
1B4A4
330
1B3AC
100
AcDbEntity
  8
0
100
AcDbCircle
 10
-1.94999999999998
 20
-138.6937035847594
 30
0.0
 40
0.2
100
AcDbArc
 50
103.1585764033287
 51
193.1585764033279
  0
LINE
  5
1B4A5
330
1B3AC
100
AcDbEntity
  8
0
100
AcDbLine
 10
-1.85777346899887
 20
-138.4667495333934
 30
0.0
 11
-2.144748748220959
 21
-137.2392329716031
 31
0.0
  0
LINE
  5
1B4A6
330
1B3AC
100
AcDbEntity
  8
0
100
AcDbLine
 10
1.857773468998873
 20
-138.4667495333934
 30
0.0
 11
2.144748748220959
 21
-137.2392329716031
 31
0.0
  0
ARC
  5
1B4A7
330
1B3AC
100
AcDbEntity
  8
0
100
AcDbCircle
 10
1.94999999999998
 20
-137.1937035847594
 30
0.0
 40
0.2
100
AcDbArc
 50
346.841423596672
 51
75.58497761062186
  0
ARC
  5
1B4A8
330
1B3AC
100
AcDbEntity
  8
0
100
AcDbCircle
 10
-1.94999999999998
 20
-137.1937035847594
 30
0.0
 40
0.2
100
AcDbArc
 50
104.4150223893782
 51
193.1585764033279
  0
ENDBLK
  5
1B3AE
330
1B3AC
100
AcDbEntity
  8
0
100
AcDbBlockEnd
  0
BLOCK
  5
1B6A4
330
1B6A3
100
AcDbEntity
  8
0
100
AcDbBlockBegin
  2
MKSA440x200-Top
 70
     0
 10
0.0
 20
0.0
 30
0.0
  3
MKSA440x200-Top
  1

  0
CIRCLE
  5
1B6A6
330
1B6A3
100
AcDbEntity
  8
0
100
AcDbCircle
 10
-0.0000000000000071
 20
-0.0000000000000001
 30
0.0
 40
4.249999999999992
  0
ENDBLK
  5
1B6A5
330
1B6A3
100
AcDbEntity
  8
0
100
AcDbBlockEnd
  0
BLOCK
  5
1B6B5
330
1B6B4
100
AcDbEntity
  8
0
100
AcDbBlockBegin
  2
MKSA440x200-ISO
 70
     0
 10
0.0
 20
0.0
 30
0.0
  3
MKSA440x200-ISO
  1

  0
ELLIPSE
  5
1B6B7
330
1B6B4
100
AcDbEntity
  8
0
100
AcDbEllipse
 10
0.0000000000000433
 20
-81.6496580927726
 30
0.0
 11
-2.082536734865132
 21
-6.806440134932261
 31
0.0
210
0.0
220
0.0
230
1.0
 40
0.0507834957882402
 41
2.191716155715295
 42
2.977114319112774
  0
LINE
  5
1B6B8
330
1B6B4
100
AcDbEntity
  8
0
100
AcDbLine
 10
0.0
 20
-81.6496580927726
 30
0.0
 11
1.492721760638205
 21
-77.7758012337215
 31
0.0
  0
ELLIPSE
  5
1B6B9
330
1B6B4
100
AcDbEntity
  8
0
100
AcDbEllipse
 10
0.0000000000000433
 20
-81.6496580927726
 30
0.0
 11
0.0000000000000106
 21
-5.478460908762131
 31
0.0
210
0.0
220
0.0
230
1.0
 40
0.3853321934574061
 41
2.356194490192355
 42
3.92699081698726
  0
LINE
  5
1B6BA
330
1B6B4
100
AcDbEntity
  8
0
100
AcDbLine
 10
-1.492721760638164
 20
-77.77580123372148
 30
0.0
 11
0.0
 21
-81.6496580927726
 31
0.0
  0
ELLIPSE
  5
1B6BB
330
1B6B4
100
AcDbEntity
  8
0
100
AcDbEllipse
 10
0.0000000000000406
 20
-72.66819570256757
 30
0.0
 11
-2.111027358743966
 21
-0.0000000000000001
 31
0.0
210
0.0
220
0.0
230
1.0
 40
0.5773502691896259
 41
5.841584578531355
 42
9.866378689417626
  0
ELLIPSE
  5
1B6BC
330
1B6B4
100
AcDbEntity
  8
0
100
AcDbEllipse
 10
0.0000000000000406
 20
-72.66819570256759
 30
0.0
 11
-1.850000000000003
 21
0.0000000000000005
 31
0.0
210
0.0
220
0.0
230
1.0
 40
0.5773502691896259
 41
0.0000000000000015
 42
3.141592653589794
  0
ELLIPSE
  5
1B6BD
330
1B6B4
100
AcDbEntity
  8
0
100
AcDbEllipse
 10
0.0000000000000284
 20
-31.84336665618131
 30
0.0
 11
-2.000000000000015
 21
0.0000000000000024
 31
0.0
210
0.0
220
0.0
230
1.0
 40
0.5773502691896259
 41
0.0000000000000065
 42
3.141592653589803
  0
ELLIPSE
  5
1B6BE
330
1B6B4
100
AcDbEntity
  8
0
100
AcDbEllipse
 10
-0.000000000000005
 20
80.01666493091716
 30
0.0
 11
-4.249999999999994
 21
-0.0000000000000008
 31
0.0
210
0.0
220
0.0
230
1.0
 40
0.5773502691896259
 41
0.0
 42
3.141592653589793
  0
ELLIPSE
  5
1B6BF
330
1B6B4
100
AcDbEntity
  8
0
100
AcDbEllipse
 10
-0.000000000000005
 20
80.30243873424188
 30
0.0
 11
-4.249999999999992
 21
-0.000000000000001
 31
0.0
210
0.0
220
0.0
230
1.0
 40
0.5773502691896259
 41
5.133893471813673
 42
10.57406979613528
  0
LINE
  5
1B6C0
330
1B6B4
100
AcDbEntity
  8
0
100
AcDbLine
 10
-2.111027358743924
 20
-74.95239497017303
 30
0.0
 11
-2.111027358743925
 21
-72.66819570256757
 31
0.0
  0
LINE
  5
1B6C1
330
1B6B4
100
AcDbEntity
  8
0
100
AcDbLine
 10
2.111027358744007
 20
-74.95239497017296
 30
0.0
 11
2.111027358744006
 21
-72.66819570256757
 31
0.0
  0
LINE
  5
1B6C2
330
1B6B4
100
AcDbEntity
  8
0
100
AcDbLine
 10
-1.849999999999962
 20
-72.66819570256759
 30
0.0
 11
-1.849999999999962
 21
-72.34884320052323
 31
0.0
  0
LINE
  5
1B6C3
330
1B6B4
100
AcDbEntity
  8
0
100
AcDbLine
 10
1.850000000000043
 20
-72.66819570256759
 30
0.0
 11
1.850000000000043
 21
-72.34884320052318
 31
0.0
  0
LINE
  5
1B6C4
330
1B6B4
100
AcDbEntity
  8
0
100
AcDbLine
 10
-1.999999999999979
 20
-31.84336665618131
 30
0.0
 11
-2.000000000000012
 21
77.85160142145611
 31
0.0
  0
LINE
  5
1B6C5
330
1B6B4
100
AcDbEntity
  8
0
100
AcDbLine
 10
2.000000000000036
 20
-31.84336665618131
 30
0.0
 11
2.000000000000003
 21
77.85160142145611
 31
0.0
  0
LINE
  5
1B6C6
330
1B6B4
100
AcDbEntity
  8
0
100
AcDbLine
 10
-4.249999999999999
 20
80.01666493091716
 30
0.0
 11
-4.249999999999999
 21
80.30243873424188
 31
0.0
  0
LINE
  5
1B6C7
330
1B6B4
100
AcDbEntity
  8
0
100
AcDbLine
 10
4.249999999999988
 20
80.01666493091716
 30
0.0
 11
4.249999999999988
 21
80.30243873424188
 31
0.0
  0
SPLINE
  5
1B6C8
330
1B6B4
100
AcDbEntity
  8
0
100
AcDbSpline
210
0.0
220
0.0
230
1.0
 70
     8
 71
     3
 72
    16
 73
    12
 74
     0
 42
0.000000001
 43
0.0000000001
 40
1.934689998763358
 40
1.934689998763358
 40
1.934689998763358
 40
1.934689998763358
 40
2.103291795334953
 40
2.103291795334953
 40
2.271893591906547
 40
2.271893591906547
 40
2.440495388478142
 40
2.440495388478142
 40
2.609097185049737
 40
2.609097185049737
 40
2.777698981621331
 40
2.777698981621331
 40
2.777698981621331
 40
2.777698981621331
 10
1.738818333563077
 20
82.54141251724043
 30
0.0
 10
1.48930598346982
 20
82.60600411006256
 30
0.0
 10
1.250413228226705
 20
82.65350059106934
 30
0.0
 10
0.7853439195768899
 20
82.72289274256225
 30
0.0
 10
0.559158096832399
 20
82.74474327941426
 30
0.0
 10
0.1109893877446921
 20
82.76660798365648
 30
0.0
 10
-0.1109893877447038
 20
82.76660798365648
 30
0.0
 10
-0.5591580968324108
 20
82.74474327941426
 30
0.0
 10
-0.7853439195769019
 20
82.72289274256225
 30
0.0
 10
-1.250413228226717
 20
82.65350059106934
 30
0.0
 10
-1.489305983469831
 20
82.60600411006256
 30
0.0
 10
-1.738818333563088
 20
82.54141251724043
 30
0.0
  0
ELLIPSE
  5
1B6C9
330
1B6B4
100
AcDbEntity
  8
0
100
AcDbEllipse
 10
0.0000000000000433
 20
-81.64965809277267
 30
0.0
 11
-2.082536734865134
 21
6.806440134932277
 31
0.0
210
0.0
220
0.0
230
1.0
 40
0.0507834957882423
 41
0.1644783344771317
 42
0.9498764978745604
  0
ELLIPSE
  5
1B6CA
330
1B6B4
100
AcDbEntity
  8
0
100
AcDbEllipse
 10
0.0000000000000217
 20
-33.06725815518003
 30
0.0
 11
-1.995529386843724
 21
0.0
 31
0.0
210
0.0
220
0.0
230
1.0
 40
0.5773502691896259
 41
6.065315408120657
 42
9.642647859828304
  0
ELLIPSE
  5
1B6CB
330
1B6B4
100
AcDbEntity
  8
0
100
AcDbEllipse
 10
0.0000000000000217
 20
-33.04096263527434
 30
0.0
 11
-1.857773468998875
 21
0.0000000000000001
 31
0.0
210
0.0
220
0.0
230
1.0
 40
0.5773502691896259
 41
0.1660734866402046
 42
2.975519166949588
  0
ELLIPSE
  5
1B6CC
330
1B6B4
100
AcDbEntity
  8
0
100
AcDbEllipse
 10
0.000000000000029
 20
-71.03434916831928
 30
0.0
 11
-1.995529386843725
 21
0.0
 31
0.0
210
0.0
220
0.0
230
1.0
 40
0.5773502691896258
 41
6.06531540812066
 42
9.642647859828295
  0
ELLIPSE
  5
1B6CD
330
1B6B4
100
AcDbEntity
  8
0
100
AcDbEllipse
 10
0.000000000000029
 20
-71.00805364841358
 30
0.0
 11
-1.857773468998879
 21
0.0
 31
0.0
210
0.0
220
0.0
230
1.0
 40
0.5773502691896259
 41
0.1660734866402042
 42
2.975519166949588
  0
ELLIPSE
  5
1B6CE
330
1B6B4
100
AcDbEntity
  8
0
100
AcDbEllipse
 10
0.0000000000000405
 20
-72.2599474121037
 30
0.0
 11
1.850000000000003
 21
0.0000000000000002
 31
0.0
210
0.0
220
0.0
230
1.0
 40
0.5773502691896259
 41
3.307666140229994
 42
6.117111820539393
  0
ELLIPSE
  5
1B6CF
330
1B6B4
100
AcDbEntity
  8
0
100
AcDbEllipse
 10
0.0000000000000291
 20
-71.23053544407131
 30
0.0
 11
-2.144748748220961
 21
0.0000000000000003
 31
0.0
210
0.0
220
0.0
230
1.0
 40
0.5773502691896261
 41
0.1660734866402
 42
2.975519166949586
  0
ELLIPSE
  5
1B6D0
330
1B6B4
100
AcDbEntity
  8
0
100
AcDbEllipse
 10
0.0000000000000288
 20
-69.8096042969277
 30
0.0
 11
-1.995529386843725
 21
0.0
 31
0.0
210
0.0
220
0.0
230
1.0
 40
0.5773502691896258
 41
6.06531540812066
 42
9.642647859828295
  0
ELLIPSE
  5
1B6D1
330
1B6B4
100
AcDbEntity
  8
0
100
AcDbEllipse
 10
0.0000000000000288
 20
-69.783308777022
 30
0.0
 11
-1.857773468998879
 21
0.0
 31
0.0
210
0.0
220
0.0
230
1.0
 40
0.5773502691896259
 41
0.1660734866402042
 42
2.975519166949588
  0
ELLIPSE
  5
1B6D2
330
1B6B4
100
AcDbEntity
  8
0
100
AcDbEllipse
 10
0.0000000000000288
 20
-70.0057905726797
 30
0.0
 11
-2.144748748220961
 21
-0.0000000000000001
 31
0.0
210
0.0
220
0.0
230
1.0
 40
0.5773502691896261
 41
0.1660734866401051
 42
2.975519166949687
  0
ELLIPSE
  5
1B6D3
330
1B6B4
100
AcDbEntity
  8
0
100
AcDbEllipse
 10
0.0000000000000286
 20
-68.58485942553612
 30
0.0
 11
-1.995529386843725
 21
-0.0000000000000001
 31
0.0
210
0.0
220
0.0
230
1.0
 40
0.577350269189626
 41
6.065315408120653
 42
9.642647859828311
  0
ELLIPSE
  5
1B6D4
330
1B6B4
100
AcDbEntity
  8
0
100
AcDbEllipse
 10
0.0000000000000286
 20
-68.55856390563042
 30
0.0
 11
-1.857773468998871
 21
0.0
 31
0.0
210
0.0
220
0.0
230
1.0
 40
0.577350269189626
 41
0.1660734866402049
 42
2.975519166949588
  0
ELLIPSE
  5
1B6D5
330
1B6B4
100
AcDbEntity
  8
0
100
AcDbEllipse
 10
0.0000000000000286
 20
-68.78104570128812
 30
0.0
 11
-2.144748748220961
 21
0.0000000000000002
 31
0.0
210
0.0
220
0.0
230
1.0
 40
0.5773502691896259
 41
0.1660734866402
 42
2.975519166949586
  0
ELLIPSE
  5
1B6D6
330
1B6B4
100
AcDbEntity
  8
0
100
AcDbEllipse
 10
0.0000000000000283
 20
-67.36011455414453
 30
0.0
 11
-1.995529386843725
 21
0.0
 31
0.0
210
0.0
220
0.0
230
1.0
 40
0.5773502691896258
 41
6.06531540812066
 42
9.642647859828295
  0
ELLIPSE
  5
1B6D7
330
1B6B4
100
AcDbEntity
  8
0
100
AcDbEllipse
 10
0.0000000000000283
 20
-67.33381903423882
 30
0.0
 11
-1.857773468998879
 21
0.0
 31
0.0
210
0.0
220
0.0
230
1.0
 40
0.5773502691896259
 41
0.1660734866402042
 42
2.975519166949588
  0
ELLIPSE
  5
1B6D8
330
1B6B4
100
AcDbEntity
  8
0
100
AcDbEllipse
 10
0.0000000000000284
 20
-67.55630082989653
 30
0.0
 11
-2.144748748220961
 21
-0.0000000000000001
 31
0.0
210
0.0
220
0.0
230
1.0
 40
0.5773502691896261
 41
0.1660734866401051
 42
2.975519166949687
  0
ELLIPSE
  5
1B6D9
330
1B6B4
100
AcDbEntity
  8
0
100
AcDbEllipse
 10
0.0000000000000281
 20
-66.13536968275295
 30
0.0
 11
-1.995529386843725
 21
0.0
 31
0.0
210
0.0
220
0.0
230
1.0
 40
0.5773502691896258
 41
6.06531540812066
 42
9.642647859828295
  0
ELLIPSE
  5
1B6DA
330
1B6B4
100
AcDbEntity
  8
0
100
AcDbEllipse
 10
0.0000000000000281
 20
-66.10907416284725
 30
0.0
 11
-1.857773468998879
 21
0.0
 31
0.0
210
0.0
220
0.0
230
1.0
 40
0.5773502691896259
 41
0.1660734866402042
 42
2.975519166949588
  0
ELLIPSE
  5
1B6DB
330
1B6B4
100
AcDbEntity
  8
0
100
AcDbEllipse
 10
0.0000000000000281
 20
-66.33155595850495
 30
0.0
 11
-2.144748748220961
 21
0.0000000000000003
 31
0.0
210
0.0
220
0.0
230
1.0
 40
0.5773502691896261
 41
0.1660734866402
 42
2.975519166949586
  0
ELLIPSE
  5
1B6DC
330
1B6B4
100
AcDbEntity
  8
0
100
AcDbEllipse
 10
0.0000000000000279
 20
-64.91062481136137
 30
0.0
 11
-1.995529386843725
 21
-0.0000000000000001
 31
0.0
210
0.0
220
0.0
230
1.0
 40
0.577350269189626
 41
6.065315408120653
 42
9.642647859828311
  0
ELLIPSE
  5
1B6DD
330
1B6B4
100
AcDbEntity
  8
0
100
AcDbEllipse
 10
0.0000000000000279
 20
-64.88432929145567
 30
0.0
 11
-1.857773468998871
 21
0.0
 31
0.0
210
0.0
220
0.0
230
1.0
 40
0.577350269189626
 41
0.1660734866402049
 42
2.975519166949588
  0
ELLIPSE
  5
1B6DE
330
1B6B4
100
AcDbEntity
  8
0
100
AcDbEllipse
 10
0.0000000000000279
 20
-65.10681108711337
 30
0.0
 11
-2.144748748220961
 21
0.0000000000000003
 31
0.0
210
0.0
220
0.0
230
1.0
 40
0.5773502691896261
 41
0.1660734866402
 42
2.975519166949586
  0
ELLIPSE
  5
1B6DF
330
1B6B4
100
AcDbEntity
  8
0
100
AcDbEllipse
 10
0.0000000000000276
 20
-63.68587993996975
 30
0.0
 11
-1.995529386843725
 21
0.0
 31
0.0
210
0.0
220
0.0
230
1.0
 40
0.5773502691896258
 41
6.06531540812066
 42
9.642647859828295
  0
ELLIPSE
  5
1B6E0
330
1B6B4
100
AcDbEntity
  8
0
100
AcDbEllipse
 10
0.0000000000000276
 20
-63.65958442006405
 30
0.0
 11
-1.857773468998879
 21
0.0
 31
0.0
210
0.0
220
0.0
230
1.0
 40
0.5773502691896259
 41
0.1660734866402042
 42
2.975519166949588
  0
ELLIPSE
  5
1B6E1
330
1B6B4
100
AcDbEntity
  8
0
100
AcDbEllipse
 10
0.0000000000000277
 20
-63.88206621572175
 30
0.0
 11
-2.144748748220961
 21
-0.0000000000000001
 31
0.0
210
0.0
220
0.0
230
1.0
 40
0.5773502691896261
 41
0.1660734866401051
 42
2.975519166949687
  0
ELLIPSE
  5
1B6E2
330
1B6B4
100
AcDbEntity
  8
0
100
AcDbEllipse
 10
0.0000000000000274
 20
-62.46113506857817
 30
0.0
 11
-1.995529386843725
 21
-0.0000000000000001
 31
0.0
210
0.0
220
0.0
230
1.0
 40
0.577350269189626
 41
6.065315408120653
 42
9.642647859828311
  0
ELLIPSE
  5
1B6E3
330
1B6B4
100
AcDbEntity
  8
0
100
AcDbEllipse
 10
0.0000000000000274
 20
-62.43483954867247
 30
0.0
 11
-1.857773468998871
 21
0.0
 31
0.0
210
0.0
220
0.0
230
1.0
 40
0.577350269189626
 41
0.1660734866402049
 42
2.975519166949588
  0
ELLIPSE
  5
1B6E4
330
1B6B4
100
AcDbEntity
  8
0
100
AcDbEllipse
 10
0.0000000000000274
 20
-62.65732134433017
 30
0.0
 11
-2.144748748220961
 21
0.0000000000000002
 31
0.0
210
0.0
220
0.0
230
1.0
 40
0.5773502691896259
 41
0.1660734866402
 42
2.975519166949586
  0
ELLIPSE
  5
1B6E5
330
1B6B4
100
AcDbEntity
  8
0
100
AcDbEllipse
 10
0.0000000000000272
 20
-61.23639019718658
 30
0.0
 11
-1.995529386843725
 21
0.0
 31
0.0
210
0.0
220
0.0
230
1.0
 40
0.5773502691896258
 41
6.06531540812066
 42
9.642647859828295
  0
ELLIPSE
  5
1B6E6
330
1B6B4
100
AcDbEntity
  8
0
100
AcDbEllipse
 10
0.0000000000000272
 20
-61.21009467728088
 30
0.0
 11
-1.857773468998879
 21
0.0
 31
0.0
210
0.0
220
0.0
230
1.0
 40
0.5773502691896259
 41
0.1660734866402042
 42
2.975519166949588
  0
ELLIPSE
  5
1B6E7
330
1B6B4
100
AcDbEntity
  8
0
100
AcDbEllipse
 10
0.0000000000000272
 20
-61.43257647293857
 30
0.0
 11
-2.144748748220961
 21
-0.0000000000000001
 31
0.0
210
0.0
220
0.0
230
1.0
 40
0.5773502691896261
 41
0.1660734866401051
 42
2.975519166949687
  0
ELLIPSE
  5
1B6E8
330
1B6B4
100
AcDbEntity
  8
0
100
AcDbEllipse
 10
0.0000000000000269
 20
-60.011645325795
 30
0.0
 11
-1.995529386843725
 21
0.0
 31
0.0
210
0.0
220
0.0
230
1.0
 40
0.5773502691896258
 41
6.06531540812066
 42
9.642647859828295
  0
ELLIPSE
  5
1B6E9
330
1B6B4
100
AcDbEntity
  8
0
100
AcDbEllipse
 10
0.0000000000000269
 20
-59.9853498058893
 30
0.0
 11
-1.857773468998879
 21
0.0
 31
0.0
210
0.0
220
0.0
230
1.0
 40
0.5773502691896259
 41
0.1660734866402042
 42
2.975519166949588
  0
ELLIPSE
  5
1B6EA
330
1B6B4
100
AcDbEntity
  8
0
100
AcDbEllipse
 10
0.000000000000027
 20
-60.20783160154699
 30
0.0
 11
-2.144748748220961
 21
0.0000000000000003
 31
0.0
210
0.0
220
0.0
230
1.0
 40
0.5773502691896261
 41
0.1660734866402
 42
2.975519166949586
  0
ELLIPSE
  5
1B6EB
330
1B6B4
100
AcDbEntity
  8
0
100
AcDbEllipse
 10
0.0000000000000267
 20
-58.78690045440342
 30
0.0
 11
-1.995529386843725
 21
-0.0000000000000001
 31
0.0
210
0.0
220
0.0
230
1.0
 40
0.577350269189626
 41
6.065315408120653
 42
9.642647859828311
  0
ELLIPSE
  5
1B6EC
330
1B6B4
100
AcDbEntity
  8
0
100
AcDbEllipse
 10
0.0000000000000267
 20
-58.76060493449772
 30
0.0
 11
-1.857773468998871
 21
0.0
 31
0.0
210
0.0
220
0.0
230
1.0
 40
0.577350269189626
 41
0.1660734866402049
 42
2.975519166949588
  0
ELLIPSE
  5
1B6ED
330
1B6B4
100
AcDbEntity
  8
0
100
AcDbEllipse
 10
0.0000000000000267
 20
-58.98308673015542
 30
0.0
 11
-2.144748748220961
 21
0.0000000000000003
 31
0.0
210
0.0
220
0.0
230
1.0
 40
0.5773502691896261
 41
0.1660734866402
 42
2.975519166949586
  0
ELLIPSE
  5
1B6EE
330
1B6B4
100
AcDbEntity
  8
0
100
AcDbEllipse
 10
0.0000000000000265
 20
-57.5621555830118
 30
0.0
 11
-1.995529386843725
 21
0.0
 31
0.0
210
0.0
220
0.0
230
1.0
 40
0.5773502691896258
 41
6.06531540812066
 42
9.642647859828295
  0
ELLIPSE
  5
1B6EF
330
1B6B4
100
AcDbEntity
  8
0
100
AcDbEllipse
 10
0.0000000000000265
 20
-57.53586006310611
 30
0.0
 11
-1.857773468998879
 21
0.0
 31
0.0
210
0.0
220
0.0
230
1.0
 40
0.5773502691896259
 41
0.1660734866402042
 42
2.975519166949588
  0
ELLIPSE
  5
1B6F0
330
1B6B4
100
AcDbEntity
  8
0
100
AcDbEllipse
 10
0.0000000000000265
 20
-57.7583418587638
 30
0.0
 11
-2.144748748220961
 21
-0.0000000000000001
 31
0.0
210
0.0
220
0.0
230
1.0
 40
0.5773502691896261
 41
0.1660734866401051
 42
2.975519166949687
  0
ELLIPSE
  5
1B6F1
330
1B6B4
100
AcDbEntity
  8
0
100
AcDbEllipse
 10
0.0000000000000262
 20
-56.33741071162022
 30
0.0
 11
-1.995529386843725
 21
-0.0000000000000001
 31
0.0
210
0.0
220
0.0
230
1.0
 40
0.577350269189626
 41
6.065315408120653
 42
9.642647859828311
  0
ELLIPSE
  5
1B6F2
330
1B6B4
100
AcDbEntity
  8
0
100
AcDbEllipse
 10
0.0000000000000262
 20
-56.31111519171454
 30
0.0
 11
-1.857773468998871
 21
0.0
 31
0.0
210
0.0
220
0.0
230
1.0
 40
0.577350269189626
 41
0.1660734866402049
 42
2.975519166949588
  0
ELLIPSE
  5
1B6F3
330
1B6B4
100
AcDbEntity
  8
0
100
AcDbEllipse
 10
0.0000000000000263
 20
-56.53359698737222
 30
0.0
 11
-2.144748748220961
 21
0.0000000000000002
 31
0.0
210
0.0
220
0.0
230
1.0
 40
0.5773502691896259
 41
0.1660734866402
 42
2.975519166949586
  0
ELLIPSE
  5
1B6F4
330
1B6B4
100
AcDbEntity
  8
0
100
AcDbEllipse
 10
0.000000000000026
 20
-55.11266584022862
 30
0.0
 11
-1.995529386843725
 21
0.0
 31
0.0
210
0.0
220
0.0
230
1.0
 40
0.5773502691896258
 41
6.06531540812066
 42
9.642647859828295
  0
ELLIPSE
  5
1B6F5
330
1B6B4
100
AcDbEntity
  8
0
100
AcDbEllipse
 10
0.000000000000026
 20
-55.08637032032293
 30
0.0
 11
-1.857773468998879
 21
0.0
 31
0.0
210
0.0
220
0.0
230
1.0
 40
0.5773502691896259
 41
0.1660734866402042
 42
2.975519166949588
  0
ELLIPSE
  5
1B6F6
330
1B6B4
100
AcDbEntity
  8
0
100
AcDbEllipse
 10
0.000000000000026
 20
-55.30885211598063
 30
0.0
 11
-2.144748748220961
 21
-0.0000000000000001
 31
0.0
210
0.0
220
0.0
230
1.0
 40
0.5773502691896261
 41
0.1660734866401051
 42
2.975519166949687
  0
ELLIPSE
  5
1B6F7
330
1B6B4
100
AcDbEntity
  8
0
100
AcDbEllipse
 10
0.0000000000000257
 20
-53.88792096883705
 30
0.0
 11
-1.995529386843725
 21
0.0
 31
0.0
210
0.0
220
0.0
230
1.0
 40
0.5773502691896258
 41
6.06531540812066
 42
9.642647859828295
  0
ELLIPSE
  5
1B6F8
330
1B6B4
100
AcDbEntity
  8
0
100
AcDbEllipse
 10
0.0000000000000257
 20
-53.86162544893135
 30
0.0
 11
-1.857773468998879
 21
0.0
 31
0.0
210
0.0
220
0.0
230
1.0
 40
0.5773502691896259
 41
0.1660734866402042
 42
2.975519166949588
  0
ELLIPSE
  5
1B6F9
330
1B6B4
100
AcDbEntity
  8
0
100
AcDbEllipse
 10
0.0000000000000258
 20
-54.08410724458905
 30
0.0
 11
-2.144748748220961
 21
0.0000000000000003
 31
0.0
210
0.0
220
0.0
230
1.0
 40
0.5773502691896261
 41
0.1660734866402
 42
2.975519166949586
  0
ELLIPSE
  5
1B6FA
330
1B6B4
100
AcDbEntity
  8
0
100
AcDbEllipse
 10
0.0000000000000255
 20
-52.66317609744543
 30
0.0
 11
-1.995529386843725
 21
0.0
 31
0.0
210
0.0
220
0.0
230
1.0
 40
0.5773502691896258
 41
6.06531540812066
 42
9.642647859828295
  0
ELLIPSE
  5
1B6FB
330
1B6B4
100
AcDbEntity
  8
0
100
AcDbEllipse
 10
0.0000000000000255
 20
-52.63688057753974
 30
0.0
 11
-1.857773468998879
 21
0.0
 31
0.0
210
0.0
220
0.0
230
1.0
 40
0.5773502691896259
 41
0.1660734866402042
 42
2.975519166949588
  0
ELLIPSE
  5
1B6FC
330
1B6B4
100
AcDbEntity
  8
0
100
AcDbEllipse
 10
0.0000000000000256
 20
-52.85936237319747
 30
0.0
 11
-2.144748748220961
 21
0.0000000000000003
 31
0.0
210
0.0
220
0.0
230
1.0
 40
0.5773502691896261
 41
0.1660734866402
 42
2.975519166949586
  0
ELLIPSE
  5
1B6FD
330
1B6B4
100
AcDbEntity
  8
0
100
AcDbEllipse
 10
0.0000000000000253
 20
-51.43843122605385
 30
0.0
 11
-1.995529386843725
 21
0.0
 31
0.0
210
0.0
220
0.0
230
1.0
 40
0.5773502691896258
 41
6.06531540812066
 42
9.642647859828295
  0
ELLIPSE
  5
1B6FE
330
1B6B4
100
AcDbEntity
  8
0
100
AcDbEllipse
 10
0.0000000000000253
 20
-51.41213570614816
 30
0.0
 11
-1.857773468998879
 21
0.0
 31
0.0
210
0.0
220
0.0
230
1.0
 40
0.5773502691896259
 41
0.1660734866402042
 42
2.975519166949588
  0
ELLIPSE
  5
1B6FF
330
1B6B4
100
AcDbEntity
  8
0
100
AcDbEllipse
 10
0.0000000000000253
 20
-51.63461750180586
 30
0.0
 11
-2.144748748220961
 21
-0.0000000000000001
 31
0.0
210
0.0
220
0.0
230
1.0
 40
0.5773502691896261
 41
0.1660734866401051
 42
2.975519166949687
  0
ELLIPSE
  5
1B700
330
1B6B4
100
AcDbEntity
  8
0
100
AcDbEllipse
 10
0.000000000000025
 20
-50.2136863546623
 30
0.0
 11
-1.995529386843724
 21
0.0
 31
0.0
210
0.0
220
0.0
230
1.0
 40
0.5773502691896259
 41
6.06531540812066
 42
9.642647859828304
  0
ELLIPSE
  5
1B701
330
1B6B4
100
AcDbEntity
  8
0
100
AcDbEllipse
 10
0.000000000000025
 20
-50.1873908347566
 30
0.0
 11
-1.857773468998875
 21
0.0000000000000001
 31
0.0
210
0.0
220
0.0
230
1.0
 40
0.5773502691896259
 41
0.1660734866402046
 42
2.975519166949588
  0
ELLIPSE
  5
1B702
330
1B6B4
100
AcDbEntity
  8
0
100
AcDbEllipse
 10
0.0000000000000251
 20
-50.40987263041429
 30
0.0
 11
-2.144748748220961
 21
0.0000000000000003
 31
0.0
210
0.0
220
0.0
230
1.0
 40
0.5773502691896261
 41
0.1660734866402
 42
2.975519166949586
  0
ELLIPSE
  5
1B703
330
1B6B4
100
AcDbEntity
  8
0
100
AcDbEllipse
 10
0.0000000000000248
 20
-48.9889414832707
 30
0.0
 11
-1.995529386843724
 21
0.0
 31
0.0
210
0.0
220
0.0
230
1.0
 40
0.5773502691896259
 41
6.06531540812066
 42
9.642647859828304
  0
ELLIPSE
  5
1B704
330
1B6B4
100
AcDbEntity
  8
0
100
AcDbEllipse
 10
0.0000000000000248
 20
-48.962645963365
 30
0.0
 11
-1.857773468998875
 21
0.0000000000000001
 31
0.0
210
0.0
220
0.0
230
1.0
 40
0.5773502691896259
 41
0.1660734866402046
 42
2.975519166949588
  0
ELLIPSE
  5
1B705
330
1B6B4
100
AcDbEntity
  8
0
100
AcDbEllipse
 10
0.0000000000000248
 20
-49.18512775902271
 30
0.0
 11
-2.144748748220961
 21
0.0000000000000001
 31
0.0
210
0.0
220
0.0
230
1.0
 40
0.577350269189626
 41
0.166073486640178
 42
2.975519166949622
  0
ELLIPSE
  5
1B706
330
1B6B4
100
AcDbEntity
  8
0
100
AcDbEllipse
 10
0.0000000000000246
 20
-47.76419661187912
 30
0.0
 11
-1.995529386843724
 21
0.0
 31
0.0
210
0.0
220
0.0
230
1.0
 40
0.5773502691896259
 41
6.06531540812066
 42
9.642647859828304
  0
ELLIPSE
  5
1B707
330
1B6B4
100
AcDbEntity
  8
0
100
AcDbEllipse
 10
0.0000000000000246
 20
-47.73790109197342
 30
0.0
 11
-1.857773468998875
 21
0.0000000000000001
 31
0.0
210
0.0
220
0.0
230
1.0
 40
0.5773502691896259
 41
0.1660734866402046
 42
2.975519166949588
  0
ELLIPSE
  5
1B708
330
1B6B4
100
AcDbEntity
  8
0
100
AcDbEllipse
 10
0.0000000000000246
 20
-47.96038288763113
 30
0.0
 11
-2.144748748220961
 21
0.0000000000000001
 31
0.0
210
0.0
220
0.0
230
1.0
 40
0.577350269189626
 41
0.166073486640178
 42
2.975519166949622
  0
ELLIPSE
  5
1B709
330
1B6B4
100
AcDbEntity
  8
0
100
AcDbEllipse
 10
0.0000000000000243
 20
-46.53945174048752
 30
0.0
 11
-1.995529386843724
 21
0.0
 31
0.0
210
0.0
220
0.0
230
1.0
 40
0.5773502691896259
 41
6.06531540812066
 42
9.642647859828304
  0
ELLIPSE
  5
1B70A
330
1B6B4
100
AcDbEntity
  8
0
100
AcDbEllipse
 10
0.0000000000000243
 20
-46.51315622058183
 30
0.0
 11
-1.857773468998875
 21
0.0000000000000001
 31
0.0
210
0.0
220
0.0
230
1.0
 40
0.5773502691896259
 41
0.1660734866402046
 42
2.975519166949588
  0
ELLIPSE
  5
1B70B
330
1B6B4
100
AcDbEntity
  8
0
100
AcDbEllipse
 10
0.0000000000000244
 20
-46.73563801623952
 30
0.0
 11
-2.144748748220961
 21
0.0000000000000001
 31
0.0
210
0.0
220
0.0
230
1.0
 40
0.577350269189626
 41
0.166073486640178
 42
2.975519166949622
  0
ELLIPSE
  5
1B70C
330
1B6B4
100
AcDbEntity
  8
0
100
AcDbEllipse
 10
0.0000000000000241
 20
-45.31470686909592
 30
0.0
 11
-1.995529386843724
 21
0.0
 31
0.0
210
0.0
220
0.0
230
1.0
 40
0.5773502691896259
 41
6.06531540812066
 42
9.642647859828304
  0
ELLIPSE
  5
1B70D
330
1B6B4
100
AcDbEntity
  8
0
100
AcDbEllipse
 10
0.0000000000000241
 20
-45.28841134919023
 30
0.0
 11
-1.857773468998875
 21
0.0000000000000001
 31
0.0
210
0.0
220
0.0
230
1.0
 40
0.5773502691896259
 41
0.1660734866402046
 42
2.975519166949588
  0
ELLIPSE
  5
1B70E
330
1B6B4
100
AcDbEntity
  8
0
100
AcDbEllipse
 10
0.0000000000000241
 20
-45.51089314484793
 30
0.0
 11
-2.144748748220961
 21
0.0000000000000001
 31
0.0
210
0.0
220
0.0
230
1.0
 40
0.577350269189626
 41
0.166073486640178
 42
2.975519166949622
  0
ELLIPSE
  5
1B70F
330
1B6B4
100
AcDbEntity
  8
0
100
AcDbEllipse
 10
0.0000000000000239
 20
-44.08996199770434
 30
0.0
 11
-1.995529386843724
 21
0.0
 31
0.0
210
0.0
220
0.0
230
1.0
 40
0.5773502691896259
 41
6.06531540812066
 42
9.642647859828304
  0
ELLIPSE
  5
1B710
330
1B6B4
100
AcDbEntity
  8
0
100
AcDbEllipse
 10
0.0000000000000239
 20
-44.06366647779863
 30
0.0
 11
-1.857773468998875
 21
0.0000000000000001
 31
0.0
210
0.0
220
0.0
230
1.0
 40
0.5773502691896259
 41
0.1660734866402046
 42
2.975519166949588
  0
ELLIPSE
  5
1B711
330
1B6B4
100
AcDbEntity
  8
0
100
AcDbEllipse
 10
0.0000000000000239
 20
-44.28614827345633
 30
0.0
 11
-2.144748748220961
 21
0.0000000000000001
 31
0.0
210
0.0
220
0.0
230
1.0
 40
0.577350269189626
 41
0.166073486640178
 42
2.975519166949622
  0
ELLIPSE
  5
1B712
330
1B6B4
100
AcDbEntity
  8
0
100
AcDbEllipse
 10
0.0000000000000236
 20
-42.86521712631276
 30
0.0
 11
-1.995529386843725
 21
0.0
 31
0.0
210
0.0
220
0.0
230
1.0
 40
0.5773502691896258
 41
6.06531540812066
 42
9.642647859828295
  0
ELLIPSE
  5
1B713
330
1B6B4
100
AcDbEntity
  8
0
100
AcDbEllipse
 10
0.0000000000000236
 20
-42.83892160640705
 30
0.0
 11
-1.857773468998879
 21
0.0
 31
0.0
210
0.0
220
0.0
230
1.0
 40
0.5773502691896259
 41
0.1660734866402042
 42
2.975519166949588
  0
ELLIPSE
  5
1B714
330
1B6B4
100
AcDbEntity
  8
0
100
AcDbEllipse
 10
0.0000000000000237
 20
-43.06140340206475
 30
0.0
 11
-2.144748748220962
 21
0.0000000000000002
 31
0.0
210
0.0
220
0.0
230
1.0
 40
0.5773502691896259
 41
0.166073486640113
 42
2.975519166949688
  0
ELLIPSE
  5
1B715
330
1B6B4
100
AcDbEntity
  8
0
100
AcDbEllipse
 10
0.0000000000000234
 20
-41.64047225492118
 30
0.0
 11
-1.995529386843724
 21
0.0
 31
0.0
210
0.0
220
0.0
230
1.0
 40
0.5773502691896259
 41
6.06531540812066
 42
9.642647859828304
  0
ELLIPSE
  5
1B716
330
1B6B4
100
AcDbEntity
  8
0
100
AcDbEllipse
 10
0.0000000000000234
 20
-41.61417673501548
 30
0.0
 11
-1.857773468998875
 21
0.0000000000000001
 31
0.0
210
0.0
220
0.0
230
1.0
 40
0.5773502691896259
 41
0.1660734866402046
 42
2.975519166949588
  0
ELLIPSE
  5
1B717
330
1B6B4
100
AcDbEntity
  8
0
100
AcDbEllipse
 10
0.0000000000000234
 20
-41.83665853067317
 30
0.0
 11
-2.144748748220961
 21
0.0000000000000001
 31
0.0
210
0.0
220
0.0
230
1.0
 40
0.577350269189626
 41
0.166073486640178
 42
2.975519166949622
  0
ELLIPSE
  5
1B718
330
1B6B4
100
AcDbEntity
  8
0
100
AcDbEllipse
 10
0.0000000000000232
 20
-40.41572738352957
 30
0.0
 11
-1.995529386843724
 21
0.0
 31
0.0
210
0.0
220
0.0
230
1.0
 40
0.5773502691896259
 41
6.06531540812066
 42
9.642647859828304
  0
ELLIPSE
  5
1B719
330
1B6B4
100
AcDbEntity
  8
0
100
AcDbEllipse
 10
0.0000000000000232
 20
-40.38943186362388
 30
0.0
 11
-1.857773468998875
 21
0.0000000000000001
 31
0.0
210
0.0
220
0.0
230
1.0
 40
0.5773502691896259
 41
0.1660734866402046
 42
2.975519166949588
  0
ELLIPSE
  5
1B71A
330
1B6B4
100
AcDbEntity
  8
0
100
AcDbEllipse
 10
0.0000000000000232
 20
-40.61191365928158
 30
0.0
 11
-2.144748748220961
 21
0.0000000000000001
 31
0.0
210
0.0
220
0.0
230
1.0
 40
0.577350269189626
 41
0.166073486640178
 42
2.975519166949622
  0
ELLIPSE
  5
1B71B
330
1B6B4
100
AcDbEntity
  8
0
100
AcDbEllipse
 10
0.0000000000000229
 20
-39.19098251213798
 30
0.0
 11
-1.995529386843724
 21
0.0
 31
0.0
210
0.0
220
0.0
230
1.0
 40
0.5773502691896259
 41
6.065315408120657
 42
9.642647859828304
  0
ELLIPSE
  5
1B71C
330
1B6B4
100
AcDbEntity
  8
0
100
AcDbEllipse
 10
0.0000000000000229
 20
-39.16468699223229
 30
0.0
 11
-1.857773468998875
 21
0.0000000000000001
 31
0.0
210
0.0
220
0.0
230
1.0
 40
0.5773502691896259
 41
0.1660734866402046
 42
2.975519166949588
  0
ELLIPSE
  5
1B71D
330
1B6B4
100
AcDbEntity
  8
0
100
AcDbEllipse
 10
0.000000000000023
 20
-39.38716878788998
 30
0.0
 11
-2.144748748220961
 21
0.0000000000000001
 31
0.0
210
0.0
220
0.0
230
1.0
 40
0.577350269189626
 41
0.1660734866401743
 42
2.975519166949615
  0
ELLIPSE
  5
1B71E
330
1B6B4
100
AcDbEntity
  8
0
100
AcDbEllipse
 10
0.0000000000000227
 20
-37.96623764074638
 30
0.0
 11
-1.995529386843724
 21
0.0
 31
0.0
210
0.0
220
0.0
230
1.0
 40
0.5773502691896259
 41
6.065315408120657
 42
9.642647859828304
  0
ELLIPSE
  5
1B71F
330
1B6B4
100
AcDbEntity
  8
0
100
AcDbEllipse
 10
0.0000000000000227
 20
-37.93994212084069
 30
0.0
 11
-1.857773468998875
 21
0.0000000000000001
 31
0.0
210
0.0
220
0.0
230
1.0
 40
0.5773502691896259
 41
0.1660734866402046
 42
2.975519166949588
  0
ELLIPSE
  5
1B720
330
1B6B4
100
AcDbEntity
  8
0
100
AcDbEllipse
 10
0.0000000000000227
 20
-38.16242391649839
 30
0.0
 11
-2.144748748220961
 21
0.0000000000000001
 31
0.0
210
0.0
220
0.0
230
1.0
 40
0.577350269189626
 41
0.1660734866401743
 42
2.975519166949615
  0
ELLIPSE
  5
1B721
330
1B6B4
100
AcDbEntity
  8
0
100
AcDbEllipse
 10
0.0000000000000225
 20
-36.74149276935481
 30
0.0
 11
-1.995529386843725
 21
0.0
 31
0.0
210
0.0
220
0.0
230
1.0
 40
0.5773502691896258
 41
6.065315408120665
 42
9.642647859828304
  0
ELLIPSE
  5
1B722
330
1B6B4
100
AcDbEntity
  8
0
100
AcDbEllipse
 10
0.0000000000000224
 20
-36.71519724944911
 30
0.0
 11
-1.857773468998879
 21
0.0
 31
0.0
210
0.0
220
0.0
230
1.0
 40
0.5773502691896259
 41
0.1660734866402042
 42
2.975519166949593
  0
ELLIPSE
  5
1B723
330
1B6B4
100
AcDbEntity
  8
0
100
AcDbEllipse
 10
0.0000000000000225
 20
-36.93767904510681
 30
0.0
 11
-2.144748748220961
 21
0.0000000000000001
 31
0.0
210
0.0
220
0.0
230
1.0
 40
0.577350269189626
 41
0.1660734866401743
 42
2.975519166949615
  0
ELLIPSE
  5
1B724
330
1B6B4
100
AcDbEntity
  8
0
100
AcDbEllipse
 10
0.0000000000000222
 20
-35.51674789796323
 30
0.0
 11
-1.995529386843724
 21
0.0
 31
0.0
210
0.0
220
0.0
230
1.0
 40
0.5773502691896259
 41
6.065315408120657
 42
9.642647859828304
  0
ELLIPSE
  5
1B725
330
1B6B4
100
AcDbEntity
  8
0
100
AcDbEllipse
 10
0.0000000000000222
 20
-35.49045237805753
 30
0.0
 11
-1.857773468998875
 21
0.0000000000000001
 31
0.0
210
0.0
220
0.0
230
1.0
 40
0.5773502691896259
 41
0.1660734866402046
 42
2.975519166949588
  0
ELLIPSE
  5
1B726
330
1B6B4
100
AcDbEntity
  8
0
100
AcDbEllipse
 10
0.0000000000000223
 20
-35.71293417371523
 30
0.0
 11
-2.144748748220961
 21
0.0000000000000001
 31
0.0
210
0.0
220
0.0
230
1.0
 40
0.577350269189626
 41
0.1660734866401743
 42
2.975519166949615
  0
ELLIPSE
  5
1B727
330
1B6B4
100
AcDbEntity
  8
0
100
AcDbEllipse
 10
0.000000000000022
 20
-34.29200302657164
 30
0.0
 11
-1.995529386843724
 21
0.0
 31
0.0
210
0.0
220
0.0
230
1.0
 40
0.5773502691896259
 41
6.065315408120657
 42
9.642647859828304
  0
ELLIPSE
  5
1B728
330
1B6B4
100
AcDbEntity
  8
0
100
AcDbEllipse
 10
0.000000000000022
 20
-34.26570750666594
 30
0.0
 11
-1.857773468998875
 21
0.0000000000000001
 31
0.0
210
0.0
220
0.0
230
1.0
 40
0.5773502691896259
 41
0.1660734866402046
 42
2.975519166949588
  0
ELLIPSE
  5
1B729
330
1B6B4
100
AcDbEntity
  8
0
100
AcDbEllipse
 10
0.000000000000022
 20
-34.48818930232363
 30
0.0
 11
-2.144748748220961
 21
0.0000000000000001
 31
0.0
210
0.0
220
0.0
230
1.0
 40
0.577350269189626
 41
0.1660734866401743
 42
2.975519166949615
  0
ELLIPSE
  5
1B72A
330
1B6B4
100
AcDbEntity
  8
0
100
AcDbEllipse
 10
0.0000000000000218
 20
-33.26344443093204
 30
0.0
 11
-2.144748748220961
 21
0.0000000000000001
 31
0.0
210
0.0
220
0.0
230
1.0
 40
0.577350269189626
 41
0.1660734866401743
 42
2.975519166949615
  0
LINE
  5
1B72B
330
1B6B4
100
AcDbEntity
  8
0
100
AcDbLine
 10
-1.824546709021779
 20
-72.43651591306741
 30
0.0
 11
-2.115240146078443
 21
-71.43523548267521
 31
0.0
  0
LINE
  5
1B72C
330
1B6B4
100
AcDbEntity
  8
0
100
AcDbLine
 10
1.824546709021839
 20
-72.43651591306741
 30
0.0
 11
2.115240146078502
 21
-71.43523548267521
 31
0.0
  0
SPLINE
  5
1B72D
330
1B6B4
100
AcDbEntity
  8
0
100
AcDbSpline
210
0.0
220
0.0
230
1.0
 70
     8
 71
     3
 72
    10
 73
     6
 74
     0
 42
0.000000001
 43
0.0000000001
 40
0.6193246767572135
 40
0.6193246767572135
 40
0.6193246767572135
 40
0.6193246767572135
 40
0.900914685105844
 40
0.900914685105844
 40
1.158311097701209
 40
1.158311097701209
 40
1.158311097701209
 40
1.158311097701209
 10
2.115240146078472
 20
-71.43523548267523
 30
0.0
 10
2.154093366696735
 20
-71.30140731697368
 30
0.0
 10
2.160420504812771
 20
-71.16021341046587
 30
0.0
 10
2.108094793918045
 20
-70.89985439680545
 30
0.0
 10
2.055675741813318
 20
-70.7803946031786
 30
0.0
 10
1.981545664902111
 20
-70.67099522056814
 30
0.0
  0
SPLINE
  5
1B72E
330
1B6B4
100
AcDbEntity
  8
0
100
AcDbSpline
210
0.0
220
0.0
230
1.0
 70
     8
 71
     3
 72
    12
 73
     8
 74
     0
 42
0.000000001
 43
0.0000000001
 40
3.55407788268348
 40
3.55407788268348
 40
3.55407788268348
 40
3.55407788268348
 40
3.809460694484175
 40
3.809460694484175
 40
4.086485013603704
 40
4.086485013603704
 40
4.093064303627476
 40
4.093064303627476
 40
4.093064303627476
 40
4.093064303627476
 10
-1.981545664902054
 20
-70.67099522056814
 30
0.0
 10
-2.055095825487805
 20
-70.77953877662867
 30
0.0
 10
-2.107276447314168
 20
-70.89797713202577
 30
0.0
 10
-2.159843988207835
 20
-71.15501771078356
 30
0.0
 10
-2.154682823041914
 20
-71.29386746041895
 30
0.0
 10
-2.117038536649394
 20
-71.42897791483699
 30
0.0
 10
-2.116147943227553
 20
-71.43210861634691
 30
0.0
 10
-2.115240146078413
 20
-71.43523548267523
 30
0.0
  0
LINE
  5
1B72F
330
1B6B4
100
AcDbEntity
  8
0
100
AcDbLine
 10
-1.832213226470194
 20
-71.18536406817105
 30
0.0
 11
-2.115240146078443
 21
-70.21049061128358
 31
0.0
  0
LINE
  5
1B730
330
1B6B4
100
AcDbEntity
  8
0
100
AcDbLine
 10
1.832213226470252
 20
-71.18536406817103
 30
0.0
 11
2.115240146078501
 21
-70.21049061128358
 31
0.0
  0
SPLINE
  5
1B731
330
1B6B4
100
AcDbEntity
  8
0
100
AcDbSpline
210
0.0
220
0.0
230
1.0
 70
     8
 71
     3
 72
    10
 73
     6
 74
     0
 42
0.000000001
 43
0.0000000001
 40
0.6193246767573441
 40
0.6193246767573441
 40
0.6193246767573441
 40
0.6193246767573441
 40
0.9009146851059607
 40
0.9009146851059607
 40
1.158311097701209
 40
1.158311097701209
 40
1.158311097701209
 40
1.158311097701209
 10
2.115240146078525
 20
-70.21049061128346
 30
0.0
 10
2.154093366696757
 20
-70.07666244558191
 30
0.0
 10
2.160420504812763
 20
-69.93546853907412
 30
0.0
 10
2.108094793917997
 20
-69.67510952541376
 30
0.0
 10
2.055675741813284
 20
-69.55564973178699
 30
0.0
 10
1.981545664902111
 20
-69.44625034917656
 30
0.0
  0
SPLINE
  5
1B732
330
1B6B4
100
AcDbEntity
  8
0
100
AcDbSpline
210
0.0
220
0.0
230
1.0
 70
     8
 71
     3
 72
    12
 73
     8
 74
     0
 42
0.000000001
 43
0.0000000001
 40
3.55407788268348
 40
3.55407788268348
 40
3.55407788268348
 40
3.55407788268348
 40
3.809460694484302
 40
3.809460694484302
 40
4.086485013603821
 40
4.086485013603821
 40
4.093064303627345
 40
4.093064303627345
 40
4.093064303627345
 40
4.093064303627345
 10
-1.981545664902053
 20
-69.44625034917656
 30
0.0
 10
-2.055095825487842
 20
-69.55479390523713
 30
0.0
 10
-2.10727644731422
 20
-69.67323226063429
 30
0.0
 10
-2.159843988207843
 20
-69.93027283939216
 30
0.0
 10
-2.154682823041892
 20
-70.06912258902758
 30
0.0
 10
-2.11703853664938
 20
-70.20423304344546
 30
0.0
 10
-2.116147943227573
 20
-70.20736374495526
 30
0.0
 10
-2.115240146078468
 20
-70.21049061128346
 30
0.0
  0
LINE
  5
1B733
330
1B6B4
100
AcDbEntity
  8
0
100
AcDbLine
 10
-1.832213226470195
 20
-69.96061919677948
 30
0.0
 11
-2.115240146078444
 21
-68.98574573989201
 31
0.0
  0
LINE
  5
1B734
330
1B6B4
100
AcDbEntity
  8
0
100
AcDbLine
 10
1.832213226470252
 20
-69.96061919677948
 30
0.0
 11
2.115240146078501
 21
-68.98574573989201
 31
0.0
  0
SPLINE
  5
1B735
330
1B6B4
100
AcDbEntity
  8
0
100
AcDbSpline
210
0.0
220
0.0
230
1.0
 70
     8
 71
     3
 72
    10
 73
     6
 74
     0
 42
0.000000001
 43
0.0000000001
 40
0.6193246767572134
 40
0.6193246767572134
 40
0.6193246767572134
 40
0.6193246767572134
 40
0.9009146851058439
 40
0.9009146851058439
 40
1.158311097701209
 40
1.158311097701209
 40
1.158311097701209
 40
1.158311097701209
 10
2.115240146078471
 20
-68.98574573989205
 30
0.0
 10
2.154093366696735
 20
-68.85191757419049
 30
0.0
 10
2.160420504812771
 20
-68.71072366768268
 30
0.0
 10
2.108094793918044
 20
-68.45036465402228
 30
0.0
 10
2.055675741813318
 20
-68.33090486039544
 30
0.0
 10
1.981545664902111
 20
-68.22150547778493
 30
0.0
  0
SPLINE
  5
1B736
330
1B6B4
100
AcDbEntity
  8
0
100
AcDbSpline
210
0.0
220
0.0
230
1.0
 70
     8
 71
     3
 72
    12
 73
     8
 74
     0
 42
0.000000001
 43
0.0000000001
 40
3.554077882683481
 40
3.554077882683481
 40
3.554077882683481
 40
3.554077882683481
 40
3.809460694484175
 40
3.809460694484175
 40
4.086485013603704
 40
4.086485013603704
 40
4.093064303627476
 40
4.093064303627476
 40
4.093064303627476
 40
4.093064303627476
 10
-1.981545664902054
 20
-68.22150547778495
 30
0.0
 10
-2.055095825487806
 20
-68.3300490338455
 30
0.0
 10
-2.107276447314168
 20
-68.44848738924259
 30
0.0
 10
-2.159843988207835
 20
-68.70552796800038
 30
0.0
 10
-2.154682823041914
 20
-68.84437771763578
 30
0.0
 10
-2.117038536649395
 20
-68.97948817205381
 30
0.0
 10
-2.116147943227554
 20
-68.98261887356373
 30
0.0
 10
-2.115240146078414
 20
-68.98574573989205
 30
0.0
  0
LINE
  5
1B737
330
1B6B4
100
AcDbEntity
  8
0
100
AcDbLine
 10
-1.832213226470186
 20
-68.73587432538787
 30
0.0
 11
-2.115240146078444
 21
-67.76100086850042
 31
0.0
  0
LINE
  5
1B738
330
1B6B4
100
AcDbEntity
  8
0
100
AcDbLine
 10
1.832213226470244
 20
-68.73587432538787
 30
0.0
 11
2.115240146078501
 21
-67.76100086850042
 31
0.0
  0
SPLINE
  5
1B739
330
1B6B4
100
AcDbEntity
  8
0
100
AcDbSpline
210
0.0
220
0.0
230
1.0
 70
     8
 71
     3
 72
    10
 73
     6
 74
     0
 42
0.000000001
 43
0.0000000001
 40
0.6193246767573441
 40
0.6193246767573441
 40
0.6193246767573441
 40
0.6193246767573441
 40
0.9009146851059607
 40
0.9009146851059607
 40
1.158311097701209
 40
1.158311097701209
 40
1.158311097701209
 40
1.158311097701209
 10
2.115240146078525
 20
-67.76100086850028
 30
0.0
 10
2.154093366696757
 20
-67.62717270279873
 30
0.0
 10
2.160420504812762
 20
-67.48597879629094
 30
0.0
 10
2.108094793917997
 20
-67.22561978263057
 30
0.0
 10
2.055675741813284
 20
-67.10615998900381
 30
0.0
 10
1.981545664902111
 20
-66.99676060639339
 30
0.0
  0
SPLINE
  5
1B73A
330
1B6B4
100
AcDbEntity
  8
0
100
AcDbSpline
210
0.0
220
0.0
230
1.0
 70
     8
 71
     3
 72
    12
 73
     8
 74
     0
 42
0.000000001
 43
0.0000000001
 40
3.554077882683481
 40
3.554077882683481
 40
3.554077882683481
 40
3.554077882683481
 40
3.809460694484302
 40
3.809460694484302
 40
4.086485013603821
 40
4.086485013603821
 40
4.093064303627345
 40
4.093064303627345
 40
4.093064303627345
 40
4.093064303627345
 10
-1.981545664902055
 20
-66.99676060639339
 30
0.0
 10
-2.055095825487843
 20
-67.10530416245396
 30
0.0
 10
-2.10727644731422
 20
-67.22374251785112
 30
0.0
 10
-2.159843988207843
 20
-67.48078309660899
 30
0.0
 10
-2.154682823041893
 20
-67.61963284624441
 30
0.0
 10
-2.11703853664938
 20
-67.75474330066228
 30
0.0
 10
-2.116147943227574
 20
-67.75787400217208
 30
0.0
 10
-2.115240146078468
 20
-67.76100086850028
 30
0.0
  0
LINE
  5
1B73B
330
1B6B4
100
AcDbEntity
  8
0
100
AcDbLine
 10
-1.832213226470187
 20
-67.51112945399629
 30
0.0
 11
-2.115240146078444
 21
-66.53625599710884
 31
0.0
  0
LINE
  5
1B73C
330
1B6B4
100
AcDbEntity
  8
0
100
AcDbLine
 10
1.832213226470244
 20
-67.51112945399629
 30
0.0
 11
2.1152401460785
 21
-66.53625599710884
 31
0.0
  0
SPLINE
  5
1B73D
330
1B6B4
100
AcDbEntity
  8
0
100
AcDbSpline
210
0.0
220
0.0
230
1.0
 70
     8
 71
     3
 72
    10
 73
     6
 74
     0
 42
0.000000001
 43
0.0000000001
 40
0.6193246767572134
 40
0.6193246767572134
 40
0.6193246767572134
 40
0.6193246767572134
 40
0.9009146851058439
 40
0.9009146851058439
 40
1.158311097701202
 40
1.158311097701202
 40
1.158311097701202
 40
1.158311097701202
 10
2.115240146078471
 20
-66.53625599710887
 30
0.0
 10
2.154093366696734
 20
-66.40242783140732
 30
0.0
 10
2.16042050481277
 20
-66.2612339248995
 30
0.0
 10
2.108094793918045
 20
-66.00087491123909
 30
0.0
 10
2.05567574181332
 20
-65.88141511761223
 30
0.0
 10
1.981545664902116
 20
-65.77201573500179
 30
0.0
  0
SPLINE
  5
1B73E
330
1B6B4
100
AcDbEntity
  8
0
100
AcDbSpline
210
0.0
220
0.0
230
1.0
 70
     8
 71
     3
 72
    12
 73
     8
 74
     0
 42
0.000000001
 43
0.0000000001
 40
3.554077882683487
 40
3.554077882683487
 40
3.554077882683487
 40
3.554077882683487
 40
3.809460694484175
 40
3.809460694484175
 40
4.086485013603704
 40
4.086485013603704
 40
4.093064303627476
 40
4.093064303627476
 40
4.093064303627476
 40
4.093064303627476
 10
-1.98154566490206
 20
-65.77201573500179
 30
0.0
 10
-2.055095825487809
 20
-65.88055929106231
 30
0.0
 10
-2.107276447314169
 20
-65.9989976464594
 30
0.0
 10
-2.159843988207836
 20
-66.25603822521719
 30
0.0
 10
-2.154682823041915
 20
-66.39488797485258
 30
0.0
 10
-2.117038536649395
 20
-66.52999842927062
 30
0.0
 10
-2.116147943227554
 20
-66.53312913078053
 30
0.0
 10
-2.115240146078414
 20
-66.53625599710887
 30
0.0
  0
LINE
  5
1B73F
330
1B6B4
100
AcDbEntity
  8
0
100
AcDbLine
 10
-1.832213226470187
 20
-66.28638458260471
 30
0.0
 11
-2.115240146078444
 21
-65.31151112571726
 31
0.0
  0
LINE
  5
1B740
330
1B6B4
100
AcDbEntity
  8
0
100
AcDbLine
 10
1.832213226470244
 20
-66.28638458260471
 30
0.0
 11
2.1152401460785
 21
-65.31151112571726
 31
0.0
  0
SPLINE
  5
1B741
330
1B6B4
100
AcDbEntity
  8
0
100
AcDbSpline
210
0.0
220
0.0
230
1.0
 70
     8
 71
     3
 72
    10
 73
     6
 74
     0
 42
0.000000001
 43
0.0000000001
 40
0.6193246767572135
 40
0.6193246767572135
 40
0.6193246767572135
 40
0.6193246767572135
 40
0.900914685105844
 40
0.900914685105844
 40
1.158311097701209
 40
1.158311097701209
 40
1.158311097701209
 40
1.158311097701209
 10
2.115240146078471
 20
-65.31151112571729
 30
0.0
 10
2.154093366696734
 20
-65.17768296001574
 30
0.0
 10
2.16042050481277
 20
-65.03648905350792
 30
0.0
 10
2.108094793918044
 20
-64.77613003984751
 30
0.0
 10
2.055675741813316
 20
-64.65667024622065
 30
0.0
 10
1.98154566490211
 20
-64.54727086361019
 30
0.0
  0
SPLINE
  5
1B742
330
1B6B4
100
AcDbEntity
  8
0
100
AcDbSpline
210
0.0
220
0.0
230
1.0
 70
     8
 71
     3
 72
    12
 73
     8
 74
     0
 42
0.000000001
 43
0.0000000001
 40
3.55407788268348
 40
3.55407788268348
 40
3.55407788268348
 40
3.55407788268348
 40
3.809460694484175
 40
3.809460694484175
 40
4.086485013603704
 40
4.086485013603704
 40
4.093064303627476
 40
4.093064303627476
 40
4.093064303627476
 40
4.093064303627476
 10
-1.981545664902055
 20
-64.54727086361019
 30
0.0
 10
-2.055095825487807
 20
-64.65581441967073
 30
0.0
 10
-2.107276447314169
 20
-64.77425277506782
 30
0.0
 10
-2.159843988207836
 20
-65.03129335382562
 30
0.0
 10
-2.154682823041915
 20
-65.170143103461
 30
0.0
 10
-2.117038536649395
 20
-65.30525355787904
 30
0.0
 10
-2.116147943227554
 20
-65.30838425938895
 30
0.0
 10
-2.115240146078415
 20
-65.31151112571729
 30
0.0
  0
LINE
  5
1B743
330
1B6B4
100
AcDbEntity
  8
0
100
AcDbLine
 10
-1.832213226470187
 20
-65.06163971121312
 30
0.0
 11
-2.115240146078444
 21
-64.08676625432564
 31
0.0
  0
LINE
  5
1B744
330
1B6B4
100
AcDbEntity
  8
0
100
AcDbLine
 10
1.832213226470243
 20
-65.06163971121312
 30
0.0
 11
2.1152401460785
 21
-64.08676625432564
 31
0.0
  0
SPLINE
  5
1B745
330
1B6B4
100
AcDbEntity
  8
0
100
AcDbSpline
210
0.0
220
0.0
230
1.0
 70
     8
 71
     3
 72
    10
 73
     6
 74
     0
 42
0.000000001
 43
0.0000000001
 40
0.6193246767573441
 40
0.6193246767573441
 40
0.6193246767573441
 40
0.6193246767573441
 40
0.9009146851059607
 40
0.9009146851059607
 40
1.158311097701209
 40
1.158311097701209
 40
1.158311097701209
 40
1.158311097701209
 10
2.115240146078524
 20
-64.08676625432551
 30
0.0
 10
2.154093366696756
 20
-63.95293808862397
 30
0.0
 10
2.160420504812762
 20
-63.81174418211617
 30
0.0
 10
2.108094793917996
 20
-63.55138516845581
 30
0.0
 10
2.055675741813283
 20
-63.43192537482906
 30
0.0
 10
1.98154566490211
 20
-63.32252599221861
 30
0.0
  0
SPLINE
  5
1B746
330
1B6B4
100
AcDbEntity
  8
0
100
AcDbSpline
210
0.0
220
0.0
230
1.0
 70
     8
 71
     3
 72
    12
 73
     8
 74
     0
 42
0.000000001
 43
0.0000000001
 40
3.55407788268348
 40
3.55407788268348
 40
3.55407788268348
 40
3.55407788268348
 40
3.809460694484302
 40
3.809460694484302
 40
4.086485013603821
 40
4.086485013603821
 40
4.093064303627345
 40
4.093064303627345
 40
4.093064303627345
 40
4.093064303627345
 10
-1.981545664902054
 20
-63.32252599221861
 30
0.0
 10
-2.055095825487843
 20
-63.4310695482792
 30
0.0
 10
-2.107276447314221
 20
-63.54950790367634
 30
0.0
 10
-2.159843988207844
 20
-63.80654848243422
 30
0.0
 10
-2.154682823041893
 20
-63.94539823206963
 30
0.0
 10
-2.117038536649381
 20
-64.0805086864875
 30
0.0
 10
-2.116147943227574
 20
-64.0836393879973
 30
0.0
 10
-2.115240146078469
 20
-64.08676625432551
 30
0.0
  0
LINE
  5
1B747
330
1B6B4
100
AcDbEntity
  8
0
100
AcDbLine
 10
-1.832213226470196
 20
-63.83689483982152
 30
0.0
 11
-2.115240146078445
 21
-62.86202138293406
 31
0.0
  0
LINE
  5
1B748
330
1B6B4
100
AcDbEntity
  8
0
100
AcDbLine
 10
1.832213226470251
 20
-63.83689483982152
 30
0.0
 11
2.1152401460785
 21
-62.86202138293406
 31
0.0
  0
SPLINE
  5
1B749
330
1B6B4
100
AcDbEntity
  8
0
100
AcDbSpline
210
0.0
220
0.0
230
1.0
 70
     8
 71
     3
 72
    10
 73
     6
 74
     0
 42
0.000000001
 43
0.0000000001
 40
0.6193246767572134
 40
0.6193246767572134
 40
0.6193246767572134
 40
0.6193246767572134
 40
0.9009146851058439
 40
0.9009146851058439
 40
1.158311097701209
 40
1.158311097701209
 40
1.158311097701209
 40
1.158311097701209
 10
2.115240146078471
 20
-62.8620213829341
 30
0.0
 10
2.154093366696733
 20
-62.72819321723254
 30
0.0
 10
2.16042050481277
 20
-62.58699931072474
 30
0.0
 10
2.108094793918043
 20
-62.32664029706434
 30
0.0
 10
2.055675741813316
 20
-62.20718050343748
 30
0.0
 10
1.98154566490211
 20
-62.09778112082698
 30
0.0
  0
SPLINE
  5
1B74A
330
1B6B4
100
AcDbEntity
  8
0
100
AcDbSpline
210
0.0
220
0.0
230
1.0
 70
     8
 71
     3
 72
    12
 73
     8
 74
     0
 42
0.000000001
 43
0.0000000001
 40
3.554077882683481
 40
3.554077882683481
 40
3.554077882683481
 40
3.554077882683481
 40
3.809460694484175
 40
3.809460694484175
 40
4.086485013603704
 40
4.086485013603704
 40
4.093064303627476
 40
4.093064303627476
 40
4.093064303627476
 40
4.093064303627476
 10
-1.981545664902056
 20
-62.09778112082698
 30
0.0
 10
-2.055095825487807
 20
-62.20632467688755
 30
0.0
 10
-2.107276447314169
 20
-62.32476303228465
 30
0.0
 10
-2.159843988207836
 20
-62.58180361104243
 30
0.0
 10
-2.154682823041916
 20
-62.72065336067782
 30
0.0
 10
-2.117038536649396
 20
-62.85576381509587
 30
0.0
 10
-2.116147943227555
 20
-62.85889451660579
 30
0.0
 10
-2.115240146078415
 20
-62.8620213829341
 30
0.0
  0
LINE
  5
1B74B
330
1B6B4
100
AcDbEntity
  8
0
100
AcDbLine
 10
-1.832213226470188
 20
-62.61214996842994
 30
0.0
 11
-2.115240146078445
 21
-61.63727651154246
 31
0.0
  0
LINE
  5
1B74C
330
1B6B4
100
AcDbEntity
  8
0
100
AcDbLine
 10
1.832213226470243
 20
-62.61214996842994
 30
0.0
 11
2.115240146078499
 21
-61.63727651154246
 31
0.0
  0
SPLINE
  5
1B74D
330
1B6B4
100
AcDbEntity
  8
0
100
AcDbSpline
210
0.0
220
0.0
230
1.0
 70
     8
 71
     3
 72
    10
 73
     6
 74
     0
 42
0.000000001
 43
0.0000000001
 40
0.6193246767573441
 40
0.6193246767573441
 40
0.6193246767573441
 40
0.6193246767573441
 40
0.9009146851059607
 40
0.9009146851059607
 40
1.158311097701209
 40
1.158311097701209
 40
1.158311097701209
 40
1.158311097701209
 10
2.115240146078524
 20
-61.63727651154234
 30
0.0
 10
2.154093366696756
 20
-61.50344834584078
 30
0.0
 10
2.160420504812761
 20
-61.36225443933298
 30
0.0
 10
2.108094793917996
 20
-61.10189542567262
 30
0.0
 10
2.055675741813282
 20
-60.98243563204587
 30
0.0
 10
1.98154566490211
 20
-60.87303624943544
 30
0.0
  0
SPLINE
  5
1B74E
330
1B6B4
100
AcDbEntity
  8
0
100
AcDbSpline
210
0.0
220
0.0
230
1.0
 70
     8
 71
     3
 72
    12
 73
     8
 74
     0
 42
0.000000001
 43
0.0000000001
 40
3.554077882683481
 40
3.554077882683481
 40
3.554077882683481
 40
3.554077882683481
 40
3.809460694484302
 40
3.809460694484302
 40
4.086485013603821
 40
4.086485013603821
 40
4.093064303627345
 40
4.093064303627345
 40
4.093064303627345
 40
4.093064303627345
 10
-1.981545664902056
 20
-60.87303624943544
 30
0.0
 10
-2.055095825487844
 20
-60.98157980549601
 30
0.0
 10
-2.107276447314221
 20
-61.10001816089317
 30
0.0
 10
-2.159843988207844
 20
-61.35705873965104
 30
0.0
 10
-2.154682823041893
 20
-61.49590848928646
 30
0.0
 10
-2.117038536649381
 20
-61.63101894370433
 30
0.0
 10
-2.116147943227574
 20
-61.63414964521414
 30
0.0
 10
-2.11524014607847
 20
-61.63727651154234
 30
0.0
  0
LINE
  5
1B74F
330
1B6B4
100
AcDbEntity
  8
0
100
AcDbLine
 10
-1.832213226470189
 20
-61.38740509703836
 30
0.0
 11
-2.115240146078445
 21
-60.41253164015088
 31
0.0
  0
LINE
  5
1B750
330
1B6B4
100
AcDbEntity
  8
0
100
AcDbLine
 10
1.832213226470243
 20
-61.38740509703836
 30
0.0
 11
2.115240146078499
 21
-60.41253164015088
 31
0.0
  0
SPLINE
  5
1B751
330
1B6B4
100
AcDbEntity
  8
0
100
AcDbSpline
210
0.0
220
0.0
230
1.0
 70
     8
 71
     3
 72
    10
 73
     6
 74
     0
 42
0.000000001
 43
0.0000000001
 40
0.6193246767572134
 40
0.6193246767572134
 40
0.6193246767572134
 40
0.6193246767572134
 40
0.9009146851058439
 40
0.9009146851058439
 40
1.158311097701202
 40
1.158311097701202
 40
1.158311097701202
 40
1.158311097701202
 10
2.11524014607847
 20
-60.41253164015092
 30
0.0
 10
2.154093366696733
 20
-60.27870347444937
 30
0.0
 10
2.160420504812769
 20
-60.13750956794154
 30
0.0
 10
2.108094793918043
 20
-59.87715055428115
 30
0.0
 10
2.055675741813319
 20
-59.75769076065429
 30
0.0
 10
1.981545664902115
 20
-59.64829137804385
 30
0.0
  0
SPLINE
  5
1B752
330
1B6B4
100
AcDbEntity
  8
0
100
AcDbSpline
210
0.0
220
0.0
230
1.0
 70
     8
 71
     3
 72
    12
 73
     8
 74
     0
 42
0.000000001
 43
0.0000000001
 40
3.554077882683487
 40
3.554077882683487
 40
3.554077882683487
 40
3.554077882683487
 40
3.809460694484175
 40
3.809460694484175
 40
4.086485013603704
 40
4.086485013603704
 40
4.093064303627476
 40
4.093064303627476
 40
4.093064303627476
 40
4.093064303627476
 10
-1.981545664902062
 20
-59.64829137804385
 30
0.0
 10
-2.055095825487811
 20
-59.75683493410436
 30
0.0
 10
-2.10727644731417
 20
-59.87527328950145
 30
0.0
 10
-2.159843988207837
 20
-60.13231386825927
 30
0.0
 10
-2.154682823041916
 20
-60.27116361789463
 30
0.0
 10
-2.117038536649396
 20
-60.40627407231268
 30
0.0
 10
-2.116147943227555
 20
-60.40940477382259
 30
0.0
 10
-2.115240146078416
 20
-60.41253164015092
 30
0.0
  0
LINE
  5
1B753
330
1B6B4
100
AcDbEntity
  8
0
100
AcDbLine
 10
-1.832213226470189
 20
-60.16266022564678
 30
0.0
 11
-2.115240146078445
 21
-59.1877867687593
 31
0.0
  0
LINE
  5
1B754
330
1B6B4
100
AcDbEntity
  8
0
100
AcDbLine
 10
1.832213226470243
 20
-60.16266022564678
 30
0.0
 11
2.115240146078499
 21
-59.1877867687593
 31
0.0
  0
SPLINE
  5
1B755
330
1B6B4
100
AcDbEntity
  8
0
100
AcDbSpline
210
0.0
220
0.0
230
1.0
 70
     8
 71
     3
 72
    10
 73
     6
 74
     0
 42
0.000000001
 43
0.0000000001
 40
0.6193246767572135
 40
0.6193246767572135
 40
0.6193246767572135
 40
0.6193246767572135
 40
0.900914685105844
 40
0.900914685105844
 40
1.158311097701209
 40
1.158311097701209
 40
1.158311097701209
 40
1.158311097701209
 10
2.115240146078469
 20
-59.18778676875934
 30
0.0
 10
2.154093366696733
 20
-59.05395860305779
 30
0.0
 10
2.160420504812769
 20
-58.91276469654997
 30
0.0
 10
2.108094793918042
 20
-58.65240568288957
 30
0.0
 10
2.055675741813316
 20
-58.53294588926273
 30
0.0
 10
1.981545664902109
 20
-58.42354650665225
 30
0.0
  0
SPLINE
  5
1B756
330
1B6B4
100
AcDbEntity
  8
0
100
AcDbSpline
210
0.0
220
0.0
230
1.0
 70
     8
 71
     3
 72
    12
 73
     8
 74
     0
 42
0.000000001
 43
0.0000000001
 40
3.55407788268348
 40
3.55407788268348
 40
3.55407788268348
 40
3.55407788268348
 40
3.809460694484175
 40
3.809460694484175
 40
4.086485013603704
 40
4.086485013603704
 40
4.093064303627476
 40
4.093064303627476
 40
4.093064303627476
 40
4.093064303627476
 10
-1.981545664902056
 20
-58.42354650665225
 30
0.0
 10
-2.055095825487808
 20
-58.5320900627128
 30
0.0
 10
-2.10727644731417
 20
-58.65052841810987
 30
0.0
 10
-2.159843988207837
 20
-58.9075689968677
 30
0.0
 10
-2.154682823041916
 20
-59.04641874650305
 30
0.0
 10
-2.117038536649396
 20
-59.18152920092111
 30
0.0
 10
-2.116147943227556
 20
-59.18465990243101
 30
0.0
 10
-2.115240146078416
 20
-59.18778676875934
 30
0.0
  0
LINE
  5
1B757
330
1B6B4
100
AcDbEntity
  8
0
100
AcDbLine
 10
-1.832213226470188
 20
-58.9379153542552
 30
0.0
 11
-2.115240146078446
 21
-57.96304189736769
 31
0.0
  0
LINE
  5
1B758
330
1B6B4
100
AcDbEntity
  8
0
100
AcDbLine
 10
1.832213226470242
 20
-58.9379153542552
 30
0.0
 11
2.115240146078499
 21
-57.96304189736769
 31
0.0
  0
SPLINE
  5
1B759
330
1B6B4
100
AcDbEntity
  8
0
100
AcDbSpline
210
0.0
220
0.0
230
1.0
 70
     8
 71
     3
 72
    10
 73
     6
 74
     0
 42
0.000000001
 43
0.0000000001
 40
0.6193246767573441
 40
0.6193246767573441
 40
0.6193246767573441
 40
0.6193246767573441
 40
0.9009146851059607
 40
0.9009146851059607
 40
1.158311097701209
 40
1.158311097701209
 40
1.158311097701209
 40
1.158311097701209
 10
2.115240146078523
 20
-57.96304189736757
 30
0.0
 10
2.154093366696755
 20
-57.82921373166601
 30
0.0
 10
2.16042050481276
 20
-57.68801982515824
 30
0.0
 10
2.108094793917995
 20
-57.42766081149787
 30
0.0
 10
2.055675741813282
 20
-57.30820101787111
 30
0.0
 10
1.981545664902109
 20
-57.19880163526067
 30
0.0
  0
SPLINE
  5
1B75A
330
1B6B4
100
AcDbEntity
  8
0
100
AcDbSpline
210
0.0
220
0.0
230
1.0
 70
     8
 71
     3
 72
    12
 73
     8
 74
     0
 42
0.000000001
 43
0.0000000001
 40
3.55407788268348
 40
3.55407788268348
 40
3.55407788268348
 40
3.55407788268348
 40
3.809460694484302
 40
3.809460694484302
 40
4.086485013603821
 40
4.086485013603821
 40
4.093064303627345
 40
4.093064303627345
 40
4.093064303627345
 40
4.093064303627345
 10
-1.981545664902055
 20
-57.19880163526063
 30
0.0
 10
-2.055095825487845
 20
-57.30734519132126
 30
0.0
 10
-2.107276447314222
 20
-57.42578354671841
 30
0.0
 10
-2.159843988207845
 20
-57.68282412547627
 30
0.0
 10
-2.154682823041894
 20
-57.82167387511169
 30
0.0
 10
-2.117038536649382
 20
-57.95678432952955
 30
0.0
 10
-2.116147943227575
 20
-57.95991503103936
 30
0.0
 10
-2.115240146078471
 20
-57.96304189736757
 30
0.0
  0
LINE
  5
1B75B
330
1B6B4
100
AcDbEntity
  8
0
100
AcDbLine
 10
-1.832213226470197
 20
-57.71317048286357
 30
0.0
 11
-2.115240146078446
 21
-56.73829702597611
 31
0.0
  0
LINE
  5
1B75C
330
1B6B4
100
AcDbEntity
  8
0
100
AcDbLine
 10
1.83221322647025
 20
-57.71317048286357
 30
0.0
 11
2.115240146078499
 21
-56.73829702597611
 31
0.0
  0
SPLINE
  5
1B75D
330
1B6B4
100
AcDbEntity
  8
0
100
AcDbSpline
210
0.0
220
0.0
230
1.0
 70
     8
 71
     3
 72
    10
 73
     6
 74
     0
 42
0.000000001
 43
0.0000000001
 40
0.6193246767572134
 40
0.6193246767572134
 40
0.6193246767572134
 40
0.6193246767572134
 40
0.9009146851058439
 40
0.9009146851058439
 40
1.158311097701209
 40
1.158311097701209
 40
1.158311097701209
 40
1.158311097701209
 10
2.115240146078469
 20
-56.73829702597615
 30
0.0
 10
2.154093366696732
 20
-56.60446886027459
 30
0.0
 10
2.160420504812768
 20
-56.4632749537668
 30
0.0
 10
2.108094793918042
 20
-56.20291594010639
 30
0.0
 10
2.055675741813316
 20
-56.08345614647953
 30
0.0
 10
1.981545664902109
 20
-55.97405676386907
 30
0.0
  0
SPLINE
  5
1B75E
330
1B6B4
100
AcDbEntity
  8
0
100
AcDbSpline
210
0.0
220
0.0
230
1.0
 70
     8
 71
     3
 72
    12
 73
     8
 74
     0
 42
0.000000001
 43
0.0000000001
 40
3.554077882683481
 40
3.554077882683481
 40
3.554077882683481
 40
3.554077882683481
 40
3.809460694484175
 40
3.809460694484175
 40
4.086485013603704
 40
4.086485013603704
 40
4.093064303627476
 40
4.093064303627476
 40
4.093064303627476
 40
4.093064303627476
 10
-1.981545664902057
 20
-55.97405676386904
 30
0.0
 10
-2.055095825487808
 20
-56.08260031992961
 30
0.0
 10
-2.10727644731417
 20
-56.20103867532669
 30
0.0
 10
-2.159843988207837
 20
-56.45807925408449
 30
0.0
 10
-2.154682823041917
 20
-56.59692900371988
 30
0.0
 10
-2.117038536649397
 20
-56.73203945813792
 30
0.0
 10
-2.116147943227556
 20
-56.73517015964783
 30
0.0
 10
-2.115240146078416
 20
-56.73829702597615
 30
0.0
  0
LINE
  5
1B75F
330
1B6B4
100
AcDbEntity
  8
0
100
AcDbLine
 10
-1.832213226470189
 20
-56.48842561147199
 30
0.0
 11
-2.115240146078446
 21
-55.51355215458452
 31
0.0
  0
LINE
  5
1B760
330
1B6B4
100
AcDbEntity
  8
0
100
AcDbLine
 10
1.832213226470241
 20
-56.48842561147199
 30
0.0
 11
2.115240146078498
 21
-55.51355215458452
 31
0.0
  0
SPLINE
  5
1B761
330
1B6B4
100
AcDbEntity
  8
0
100
AcDbSpline
210
0.0
220
0.0
230
1.0
 70
     8
 71
     3
 72
    10
 73
     6
 74
     0
 42
0.000000001
 43
0.0000000001
 40
0.6193246767573441
 40
0.6193246767573441
 40
0.6193246767573441
 40
0.6193246767573441
 40
0.9009146851059607
 40
0.9009146851059607
 40
1.158311097701209
 40
1.158311097701209
 40
1.158311097701209
 40
1.158311097701209
 10
2.115240146078523
 20
-55.51355215458439
 30
0.0
 10
2.154093366696755
 20
-55.37972398888284
 30
0.0
 10
2.16042050481276
 20
-55.23853008237503
 30
0.0
 10
2.108094793917994
 20
-54.97817106871467
 30
0.0
 10
2.055675741813281
 20
-54.85871127508793
 30
0.0
 10
1.981545664902108
 20
-54.74931189247749
 30
0.0
  0
SPLINE
  5
1B762
330
1B6B4
100
AcDbEntity
  8
0
100
AcDbSpline
210
0.0
220
0.0
230
1.0
 70
     8
 71
     3
 72
    12
 73
     8
 74
     0
 42
0.000000001
 43
0.0000000001
 40
3.554077882683481
 40
3.554077882683481
 40
3.554077882683481
 40
3.554077882683481
 40
3.809460694484302
 40
3.809460694484302
 40
4.086485013603821
 40
4.086485013603821
 40
4.093064303627345
 40
4.093064303627345
 40
4.093064303627345
 40
4.093064303627345
 10
-1.981545664902057
 20
-54.74931189247747
 30
0.0
 10
-2.055095825487846
 20
-54.85785544853806
 30
0.0
 10
-2.107276447314223
 20
-54.97629380393522
 30
0.0
 10
-2.159843988207846
 20
-55.2333343826931
 30
0.0
 10
-2.154682823041895
 20
-55.37218413232851
 30
0.0
 10
-2.117038536649383
 20
-55.50729458674638
 30
0.0
 10
-2.116147943227576
 20
-55.51042528825618
 30
0.0
 10
-2.115240146078471
 20
-55.51355215458439
 30
0.0
  0
LINE
  5
1B763
330
1B6B4
100
AcDbEntity
  8
0
100
AcDbLine
 10
-1.832213226470189
 20
-55.26368074008042
 30
0.0
 11
-2.115240146078447
 21
-54.28880728319294
 31
0.0
  0
LINE
  5
1B764
330
1B6B4
100
AcDbEntity
  8
0
100
AcDbLine
 10
1.832213226470242
 20
-55.26368074008042
 30
0.0
 11
2.115240146078498
 21
-54.28880728319294
 31
0.0
  0
SPLINE
  5
1B765
330
1B6B4
100
AcDbEntity
  8
0
100
AcDbSpline
210
0.0
220
0.0
230
1.0
 70
     8
 71
     3
 72
    10
 73
     6
 74
     0
 42
0.000000001
 43
0.0000000001
 40
0.6193246767572134
 40
0.6193246767572134
 40
0.6193246767572134
 40
0.6193246767572134
 40
0.9009146851058439
 40
0.9009146851058439
 40
1.158311097701202
 40
1.158311097701202
 40
1.158311097701202
 40
1.158311097701202
 10
2.115240146078469
 20
-54.28880728319298
 30
0.0
 10
2.154093366696732
 20
-54.15497911749142
 30
0.0
 10
2.160420504812768
 20
-54.0137852109836
 30
0.0
 10
2.108094793918042
 20
-53.75342619732321
 30
0.0
 10
2.055675741813317
 20
-53.63396640369635
 30
0.0
 10
1.981545664902114
 20
-53.5245670210859
 30
0.0
  0
SPLINE
  5
1B766
330
1B6B4
100
AcDbEntity
  8
0
100
AcDbSpline
210
0.0
220
0.0
230
1.0
 70
     8
 71
     3
 72
    12
 73
     8
 74
     0
 42
0.000000001
 43
0.0000000001
 40
3.554077882683487
 40
3.554077882683487
 40
3.554077882683487
 40
3.554077882683487
 40
3.809460694484175
 40
3.809460694484175
 40
4.086485013603704
 40
4.086485013603704
 40
4.093064303627476
 40
4.093064303627476
 40
4.093064303627476
 40
4.093064303627476
 10
-1.981545664902063
 20
-53.5245670210859
 30
0.0
 10
-2.055095825487812
 20
-53.63311057714641
 30
0.0
 10
-2.107276447314172
 20
-53.7515489325435
 30
0.0
 10
-2.159843988207838
 20
-54.00858951130132
 30
0.0
 10
-2.154682823041917
 20
-54.14743926093669
 30
0.0
 10
-2.117038536649397
 20
-54.28254971535473
 30
0.0
 10
-2.116147943227557
 20
-54.28568041686464
 30
0.0
 10
-2.115240146078417
 20
-54.28880728319298
 30
0.0
  0
LINE
  5
1B767
330
1B6B4
100
AcDbEntity
  8
0
100
AcDbLine
 10
-1.832213226470189
 20
-54.03893586868884
 30
0.0
 11
-2.115240146078447
 21
-53.06406241180136
 31
0.0
  0
LINE
  5
1B768
330
1B6B4
100
AcDbEntity
  8
0
100
AcDbLine
 10
1.832213226470241
 20
-54.03893586868884
 30
0.0
 11
2.115240146078498
 21
-53.06406241180136
 31
0.0
  0
SPLINE
  5
1B769
330
1B6B4
100
AcDbEntity
  8
0
100
AcDbSpline
210
0.0
220
0.0
230
1.0
 70
     8
 71
     3
 72
    10
 73
     6
 74
     0
 42
0.000000001
 43
0.0000000001
 40
0.6193246767572135
 40
0.6193246767572135
 40
0.6193246767572135
 40
0.6193246767572135
 40
0.900914685105844
 40
0.900914685105844
 40
1.158311097701209
 40
1.158311097701209
 40
1.158311097701209
 40
1.158311097701209
 10
2.115240146078468
 20
-53.0640624118014
 30
0.0
 10
2.154093366696731
 20
-52.93023424609984
 30
0.0
 10
2.160420504812768
 20
-52.78904033959202
 30
0.0
 10
2.108094793918041
 20
-52.52868132593163
 30
0.0
 10
2.055675741813314
 20
-52.40922153230478
 30
0.0
 10
1.981545664902108
 20
-52.29982214969431
 30
0.0
  0
SPLINE
  5
1B76A
330
1B6B4
100
AcDbEntity
  8
0
100
AcDbSpline
210
0.0
220
0.0
230
1.0
 70
     8
 71
     3
 72
    12
 73
     8
 74
     0
 42
0.000000001
 43
0.0000000001
 40
3.55407788268348
 40
3.55407788268348
 40
3.55407788268348
 40
3.55407788268348
 40
3.809460694484175
 40
3.809460694484175
 40
4.086485013603704
 40
4.086485013603704
 40
4.093064303627476
 40
4.093064303627476
 40
4.093064303627476
 40
4.093064303627476
 10
-1.981545664902057
 20
-52.29982214969431
 30
0.0
 10
-2.055095825487809
 20
-52.40836570575485
 30
0.0
 10
-2.107276447314171
 20
-52.52680406115192
 30
0.0
 10
-2.159843988207838
 20
-52.78384463990974
 30
0.0
 10
-2.154682823041917
 20
-52.92269438954511
 30
0.0
 10
-2.117038536649398
 20
-53.05780484396315
 30
0.0
 10
-2.116147943227557
 20
-53.06093554547306
 30
0.0
 10
-2.115240146078417
 20
-53.0640624118014
 30
0.0
  0
LINE
  5
1B76B
330
1B6B4
100
AcDbEntity
  8
0
100
AcDbLine
 10
-1.832213226470198
 20
-52.81419099729721
 30
0.0
 11
-2.115240146078447
 21
-51.83931754040975
 31
0.0
  0
LINE
  5
1B76C
330
1B6B4
100
AcDbEntity
  8
0
100
AcDbLine
 10
1.832213226470249
 20
-52.81419099729721
 30
0.0
 11
2.115240146078498
 21
-51.83931754040975
 31
0.0
  0
SPLINE
  5
1B76D
330
1B6B4
100
AcDbEntity
  8
0
100
AcDbSpline
210
0.0
220
0.0
230
1.0
 70
     8
 71
     3
 72
    10
 73
     6
 74
     0
 42
0.000000001
 43
0.0000000001
 40
0.6193246767573441
 40
0.6193246767573441
 40
0.6193246767573441
 40
0.6193246767573441
 40
0.9009146851059607
 40
0.9009146851059607
 40
1.158311097701209
 40
1.158311097701209
 40
1.158311097701209
 40
1.158311097701209
 10
2.115240146078522
 20
-51.83931754040962
 30
0.0
 10
2.154093366696754
 20
-51.70548937470806
 30
0.0
 10
2.160420504812759
 20
-51.56429546820028
 30
0.0
 10
2.108094793917994
 20
-51.30393645453992
 30
0.0
 10
2.05567574181328
 20
-51.18447666091316
 30
0.0
 10
1.981545664902108
 20
-51.07507727830273
 30
0.0
  0
SPLINE
  5
1B76E
330
1B6B4
100
AcDbEntity
  8
0
100
AcDbSpline
210
0.0
220
0.0
230
1.0
 70
     8
 71
     3
 72
    12
 73
     8
 74
     0
 42
0.000000001
 43
0.0000000001
 40
3.55407788268348
 40
3.55407788268348
 40
3.55407788268348
 40
3.55407788268348
 40
3.809460694484302
 40
3.809460694484302
 40
4.086485013603821
 40
4.086485013603821
 40
4.093064303627345
 40
4.093064303627345
 40
4.093064303627345
 40
4.093064303627345
 10
-1.981545664902057
 20
-51.0750772783027
 30
0.0
 10
-2.055095825487846
 20
-51.18362083436331
 30
0.0
 10
-2.107276447314224
 20
-51.30205918976045
 30
0.0
 10
-2.159843988207846
 20
-51.55909976851832
 30
0.0
 10
-2.154682823041896
 20
-51.69794951815375
 30
0.0
 10
-2.117038536649383
 20
-51.83305997257163
 30
0.0
 10
-2.116147943227577
 20
-51.83619067408141
 30
0.0
 10
-2.115240146078471
 20
-51.83931754040962
 30
0.0
  0
LINE
  5
1B76F
330
1B6B4
100
AcDbEntity
  8
0
100
AcDbLine
 10
-1.832213226470198
 20
-51.58944612590563
 30
0.0
 11
-2.115240146078447
 21
-50.61457266901817
 31
0.0
  0
LINE
  5
1B770
330
1B6B4
100
AcDbEntity
  8
0
100
AcDbLine
 10
1.832213226470249
 20
-51.58944612590563
 30
0.0
 11
2.115240146078497
 21
-50.61457266901817
 31
0.0
  0
SPLINE
  5
1B771
330
1B6B4
100
AcDbEntity
  8
0
100
AcDbSpline
210
0.0
220
0.0
230
1.0
 70
     8
 71
     3
 72
    10
 73
     6
 74
     0
 42
0.000000001
 43
0.0000000001
 40
0.6193246767572074
 40
0.6193246767572074
 40
0.6193246767572074
 40
0.6193246767572074
 40
0.9009146851058385
 40
0.9009146851058385
 40
1.158311097701209
 40
1.158311097701209
 40
1.158311097701209
 40
1.158311097701209
 10
2.115240146078465
 20
-50.61457266901822
 30
0.0
 10
2.15409336669673
 20
-50.48074450331668
 30
0.0
 10
2.160420504812767
 20
-50.33955059680886
 30
0.0
 10
2.108094793918043
 20
-50.07919158314843
 30
0.0
 10
2.055675741813316
 20
-49.95973178952161
 30
0.0
 10
1.981545664902107
 20
-49.85033240691112
 30
0.0
  0
SPLINE
  5
1B772
330
1B6B4
100
AcDbEntity
  8
0
100
AcDbSpline
210
0.0
220
0.0
230
1.0
 70
     8
 71
     3
 72
    12
 73
     8
 74
     0
 42
0.000000001
 43
0.0000000001
 40
3.55407788268348
 40
3.55407788268348
 40
3.55407788268348
 40
3.55407788268348
 40
3.809460694484169
 40
3.809460694484169
 40
4.086485013603699
 40
4.086485013603699
 40
4.093064303627482
 40
4.093064303627482
 40
4.093064303627482
 40
4.093064303627482
 10
-1.981545664902057
 20
-49.85033240691111
 30
0.0
 10
-2.055095825487808
 20
-49.95887596297166
 30
0.0
 10
-2.107276447314169
 20
-50.07731431836875
 30
0.0
 10
-2.159843988207838
 20
-50.33435489712653
 30
0.0
 10
-2.154682823041919
 20
-50.47320464676197
 30
0.0
 10
-2.117038536649399
 20
-50.60831510118001
 30
0.0
 10
-2.116147943227557
 20
-50.6114458026899
 30
0.0
 10
-2.115240146078416
 20
-50.61457266901822
 30
0.0
  0
LINE
  5
1B773
330
1B6B4
100
AcDbEntity
  8
0
100
AcDbLine
 10
-1.83221322647019
 20
-50.36470125451408
 30
0.0
 11
-2.115240146078448
 21
-49.38982779762659
 31
0.0
  0
LINE
  5
1B774
330
1B6B4
100
AcDbEntity
  8
0
100
AcDbLine
 10
1.83221322647024
 20
-50.36470125451408
 30
0.0
 11
2.115240146078497
 21
-49.38982779762659
 31
0.0
  0
SPLINE
  5
1B775
330
1B6B4
100
AcDbEntity
  8
0
100
AcDbSpline
210
0.0
220
0.0
230
1.0
 70
     8
 71
     3
 72
    10
 73
     6
 74
     0
 42
0.000000001
 43
0.0000000001
 40
0.6193246767572728
 40
0.6193246767572728
 40
0.6193246767572728
 40
0.6193246767572728
 40
0.9009146851058968
 40
0.9009146851058968
 40
1.158311097701212
 40
1.158311097701212
 40
1.158311097701212
 40
1.158311097701212
 10
2.115240146078492
 20
-49.38982779762655
 30
0.0
 10
2.154093366696741
 20
-49.25599963192502
 30
0.0
 10
2.160420504812763
 20
-49.11480572541719
 30
0.0
 10
2.108094793918019
 20
-48.8544467117568
 30
0.0
 10
2.055675741813297
 20
-48.73498691813001
 30
0.0
 10
1.981545664902104
 20
-48.62558753551953
 30
0.0
  0
SPLINE
  5
1B776
330
1B6B4
100
AcDbEntity
  8
0
100
AcDbSpline
210
0.0
220
0.0
230
1.0
 70
     8
 71
     3
 72
    12
 73
     8
 74
     0
 42
0.000000001
 43
0.0000000001
 40
3.554077882683477
 40
3.554077882683477
 40
3.554077882683477
 40
3.554077882683477
 40
3.809460694484233
 40
3.809460694484233
 40
4.086485013603757
 40
4.086485013603757
 40
4.093064303627416
 40
4.093064303627416
 40
4.093064303627416
 40
4.093064303627416
 10
-1.981545664902055
 20
-48.62558753551954
 30
0.0
 10
-2.055095825487826
 20
-48.73413109158009
 30
0.0
 10
-2.107276447314196
 20
-48.85256944697722
 30
0.0
 10
-2.159843988207843
 20
-49.10961002573507
 30
0.0
 10
-2.154682823041908
 20
-49.24845977537046
 30
0.0
 10
-2.117038536649392
 20
-49.38357022978843
 30
0.0
 10
-2.116147943227566
 20
-49.38670093129828
 30
0.0
 10
-2.115240146078443
 20
-49.38982779762655
 30
0.0
  0
LINE
  5
1B777
330
1B6B4
100
AcDbEntity
  8
0
100
AcDbLine
 10
-1.832213226470194
 20
-49.13995638312247
 30
0.0
 11
-2.115240146078448
 21
-48.16508292623502
 31
0.0
  0
LINE
  5
1B778
330
1B6B4
100
AcDbEntity
  8
0
100
AcDbLine
 10
1.832213226470244
 20
-49.13995638312247
 30
0.0
 11
2.115240146078497
 21
-48.16508292623502
 31
0.0
  0
SPLINE
  5
1B779
330
1B6B4
100
AcDbEntity
  8
0
100
AcDbSpline
210
0.0
220
0.0
230
1.0
 70
     8
 71
     3
 72
    10
 73
     6
 74
     0
 42
0.000000001
 43
0.0000000001
 40
0.6193246767572728
 40
0.6193246767572728
 40
0.6193246767572728
 40
0.6193246767572728
 40
0.9009146851058968
 40
0.9009146851058968
 40
1.158311097701212
 40
1.158311097701212
 40
1.158311097701212
 40
1.158311097701212
 10
2.115240146078492
 20
-48.16508292623497
 30
0.0
 10
2.154093366696741
 20
-48.03125476053342
 30
0.0
 10
2.160420504812763
 20
-47.89006085402561
 30
0.0
 10
2.108094793918018
 20
-47.6297018403652
 30
0.0
 10
2.055675741813296
 20
-47.51024204673841
 30
0.0
 10
1.981545664902104
 20
-47.40084266412795
 30
0.0
  0
SPLINE
  5
1B77A
330
1B6B4
100
AcDbEntity
  8
0
100
AcDbSpline
210
0.0
220
0.0
230
1.0
 70
     8
 71
     3
 72
    12
 73
     8
 74
     0
 42
0.000000001
 43
0.0000000001
 40
3.554077882683477
 40
3.554077882683477
 40
3.554077882683477
 40
3.554077882683477
 40
3.809460694484233
 40
3.809460694484233
 40
4.086485013603757
 40
4.086485013603757
 40
4.093064303627416
 40
4.093064303627416
 40
4.093064303627416
 40
4.093064303627416
 10
-1.981545664902055
 20
-47.40084266412795
 30
0.0
 10
-2.055095825487826
 20
-47.5093862201885
 30
0.0
 10
-2.107276447314196
 20
-47.62782457558563
 30
0.0
 10
-2.159843988207843
 20
-47.88486515434346
 30
0.0
 10
-2.154682823041908
 20
-48.02371490397887
 30
0.0
 10
-2.117038536649392
 20
-48.15882535839683
 30
0.0
 10
-2.116147943227567
 20
-48.16195605990667
 30
0.0
 10
-2.115240146078443
 20
-48.16508292623497
 30
0.0
  0
LINE
  5
1B77B
330
1B6B4
100
AcDbEntity
  8
0
100
AcDbLine
 10
-1.832213226470191
 20
-47.91521151173089
 30
0.0
 11
-2.115240146078448
 21
-46.94033805484341
 31
0.0
  0
LINE
  5
1B77C
330
1B6B4
100
AcDbEntity
  8
0
100
AcDbLine
 10
1.83221322647024
 20
-47.91521151173089
 30
0.0
 11
2.115240146078496
 21
-46.94033805484341
 31
0.0
  0
SPLINE
  5
1B77D
330
1B6B4
100
AcDbEntity
  8
0
100
AcDbSpline
210
0.0
220
0.0
230
1.0
 70
     8
 71
     3
 72
    10
 73
     6
 74
     0
 42
0.000000001
 43
0.0000000001
 40
0.6193246767572728
 40
0.6193246767572728
 40
0.6193246767572728
 40
0.6193246767572728
 40
0.9009146851058968
 40
0.9009146851058968
 40
1.158311097701212
 40
1.158311097701212
 40
1.158311097701212
 40
1.158311097701212
 10
2.115240146078491
 20
-46.94033805484338
 30
0.0
 10
2.154093366696741
 20
-46.80650988914182
 30
0.0
 10
2.160420504812763
 20
-46.66531598263403
 30
0.0
 10
2.108094793918018
 20
-46.40495696897362
 30
0.0
 10
2.055675741813296
 20
-46.28549717534681
 30
0.0
 10
1.981545664902104
 20
-46.17609779273635
 30
0.0
  0
SPLINE
  5
1B77E
330
1B6B4
100
AcDbEntity
  8
0
100
AcDbSpline
210
0.0
220
0.0
230
1.0
 70
     8
 71
     3
 72
    12
 73
     8
 74
     0
 42
0.000000001
 43
0.0000000001
 40
3.554077882683476
 40
3.554077882683476
 40
3.554077882683476
 40
3.554077882683476
 40
3.809460694484233
 40
3.809460694484233
 40
4.086485013603757
 40
4.086485013603757
 40
4.093064303627416
 40
4.093064303627416
 40
4.093064303627416
 40
4.093064303627416
 10
-1.981545664902055
 20
-46.17609779273634
 30
0.0
 10
-2.055095825487825
 20
-46.28464134879692
 30
0.0
 10
-2.107276447314196
 20
-46.40307970419403
 30
0.0
 10
-2.159843988207843
 20
-46.66012028295188
 30
0.0
 10
-2.154682823041909
 20
-46.79897003258729
 30
0.0
 10
-2.117038536649392
 20
-46.93408048700525
 30
0.0
 10
-2.116147943227567
 20
-46.93721118851508
 30
0.0
 10
-2.115240146078443
 20
-46.94033805484338
 30
0.0
  0
LINE
  5
1B77F
330
1B6B4
100
AcDbEntity
  8
0
100
AcDbLine
 10
-1.832213226470195
 20
-46.69046664033929
 30
0.0
 11
-2.115240146078448
 21
-45.71559318345181
 31
0.0
  0
LINE
  5
1B780
330
1B6B4
100
AcDbEntity
  8
0
100
AcDbLine
 10
1.832213226470243
 20
-46.69046664033929
 30
0.0
 11
2.115240146078496
 21
-45.71559318345181
 31
0.0
  0
SPLINE
  5
1B781
330
1B6B4
100
AcDbEntity
  8
0
100
AcDbSpline
210
0.0
220
0.0
230
1.0
 70
     8
 71
     3
 72
    10
 73
     6
 74
     0
 42
0.000000001
 43
0.0000000001
 40
0.6193246767572728
 40
0.6193246767572728
 40
0.6193246767572728
 40
0.6193246767572728
 40
0.9009146851058968
 40
0.9009146851058968
 40
1.158311097701212
 40
1.158311097701212
 40
1.158311097701212
 40
1.158311097701212
 10
2.115240146078491
 20
-45.71559318345179
 30
0.0
 10
2.154093366696741
 20
-45.58176501775022
 30
0.0
 10
2.160420504812762
 20
-45.44057111124242
 30
0.0
 10
2.108094793918018
 20
-45.18021209758202
 30
0.0
 10
2.055675741813296
 20
-45.06075230395524
 30
0.0
 10
1.981545664902104
 20
-44.95135292134476
 30
0.0
  0
SPLINE
  5
1B782
330
1B6B4
100
AcDbEntity
  8
0
100
AcDbSpline
210
0.0
220
0.0
230
1.0
 70
     8
 71
     3
 72
    12
 73
     8
 74
     0
 42
0.000000001
 43
0.0000000001
 40
3.554077882683476
 40
3.554077882683476
 40
3.554077882683476
 40
3.554077882683476
 40
3.809460694484233
 40
3.809460694484233
 40
4.086485013603757
 40
4.086485013603757
 40
4.093064303627416
 40
4.093064303627416
 40
4.093064303627416
 40
4.093064303627416
 10
-1.981545664902055
 20
-44.95135292134476
 30
0.0
 10
-2.055095825487826
 20
-45.05989647740533
 30
0.0
 10
-2.107276447314196
 20
-45.17833483280243
 30
0.0
 10
-2.159843988207843
 20
-45.43537541156029
 30
0.0
 10
-2.154682823041909
 20
-45.57422516119569
 30
0.0
 10
-2.117038536649392
 20
-45.70933561561367
 30
0.0
 10
-2.116147943227567
 20
-45.7124663171235
 30
0.0
 10
-2.115240146078443
 20
-45.71559318345179
 30
0.0
  0
LINE
  5
1B783
330
1B6B4
100
AcDbEntity
  8
0
100
AcDbLine
 10
-1.832213226470191
 20
-45.46572176894771
 30
0.0
 11
-2.115240146078448
 21
-44.49084831206022
 31
0.0
  0
LINE
  5
1B784
330
1B6B4
100
AcDbEntity
  8
0
100
AcDbLine
 10
1.83221322647024
 20
-45.46572176894771
 30
0.0
 11
2.115240146078496
 21
-44.49084831206022
 31
0.0
  0
SPLINE
  5
1B785
330
1B6B4
100
AcDbEntity
  8
0
100
AcDbSpline
210
0.0
220
0.0
230
1.0
 70
     8
 71
     3
 72
    10
 73
     6
 74
     0
 42
0.000000001
 43
0.0000000001
 40
0.6193246767572728
 40
0.6193246767572728
 40
0.6193246767572728
 40
0.6193246767572728
 40
0.9009146851058968
 40
0.9009146851058968
 40
1.158311097701212
 40
1.158311097701212
 40
1.158311097701212
 40
1.158311097701212
 10
2.115240146078491
 20
-44.49084831206018
 30
0.0
 10
2.15409336669674
 20
-44.35702014635864
 30
0.0
 10
2.160420504812762
 20
-44.21582623985083
 30
0.0
 10
2.108094793918018
 20
-43.95546722619044
 30
0.0
 10
2.055675741813296
 20
-43.83600743256365
 30
0.0
 10
1.981545664902104
 20
-43.72660804995319
 30
0.0
  0
SPLINE
  5
1B786
330
1B6B4
100
AcDbEntity
  8
0
100
AcDbSpline
210
0.0
220
0.0
230
1.0
 70
     8
 71
     3
 72
    12
 73
     8
 74
     0
 42
0.000000001
 43
0.0000000001
 40
3.554077882683477
 40
3.554077882683477
 40
3.554077882683477
 40
3.554077882683477
 40
3.809460694484233
 40
3.809460694484233
 40
4.086485013603757
 40
4.086485013603757
 40
4.093064303627416
 40
4.093064303627416
 40
4.093064303627416
 40
4.093064303627416
 10
-1.981545664902056
 20
-43.72660804995319
 30
0.0
 10
-2.055095825487826
 20
-43.83515160601373
 30
0.0
 10
-2.107276447314196
 20
-43.95358996141085
 30
0.0
 10
-2.159843988207843
 20
-44.21063054016869
 30
0.0
 10
-2.154682823041909
 20
-44.34948028980409
 30
0.0
 10
-2.117038536649393
 20
-44.48459074422206
 30
0.0
 10
-2.116147943227568
 20
-44.4877214457319
 30
0.0
 10
-2.115240146078444
 20
-44.49084831206018
 30
0.0
  0
LINE
  5
1B787
330
1B6B4
100
AcDbEntity
  8
0
100
AcDbLine
 10
-1.832213226470195
 20
-44.24097689755611
 30
0.0
 11
-2.115240146078449
 21
-43.26610344066864
 31
0.0
  0
LINE
  5
1B788
330
1B6B4
100
AcDbEntity
  8
0
100
AcDbLine
 10
1.832213226470243
 20
-44.24097689755611
 30
0.0
 11
2.115240146078496
 21
-43.26610344066864
 31
0.0
  0
SPLINE
  5
1B789
330
1B6B4
100
AcDbEntity
  8
0
100
AcDbSpline
210
0.0
220
0.0
230
1.0
 70
     8
 71
     3
 72
    10
 73
     6
 74
     0
 42
0.000000001
 43
0.0000000001
 40
0.6193246767573381
 40
0.6193246767573381
 40
0.6193246767573381
 40
0.6193246767573381
 40
0.9009146851059554
 40
0.9009146851059554
 40
1.158311097701212
 40
1.158311097701212
 40
1.158311097701212
 40
1.158311097701212
 10
2.115240146078518
 20
-43.26610344066851
 30
0.0
 10
2.154093366696751
 20
-43.13227527496699
 30
0.0
 10
2.160420504812758
 20
-42.99108136845915
 30
0.0
 10
2.108094793917994
 20
-42.7307223547988
 30
0.0
 10
2.055675741813279
 20
-42.61126256117202
 30
0.0
 10
1.981545664902103
 20
-42.50186317856161
 30
0.0
  0
SPLINE
  5
1B78A
330
1B6B4
100
AcDbEntity
  8
0
100
AcDbSpline
210
0.0
220
0.0
230
1.0
 70
     8
 71
     3
 72
    12
 73
     8
 74
     0
 42
0.000000001
 43
0.0000000001
 40
3.554077882683476
 40
3.554077882683476
 40
3.554077882683476
 40
3.554077882683476
 40
3.809460694484296
 40
3.809460694484296
 40
4.086485013603816
 40
4.086485013603816
 40
4.093064303627351
 40
4.093064303627351
 40
4.093064303627351
 40
4.093064303627351
 10
-1.981545664902056
 20
-42.50186317856162
 30
0.0
 10
-2.055095825487844
 20
-42.61040673462218
 30
0.0
 10
-2.107276447314222
 20
-42.72884509001933
 30
0.0
 10
-2.159843988207847
 20
-42.9858856687772
 30
0.0
 10
-2.154682823041898
 20
-43.12473541841263
 30
0.0
 10
-2.117038536649386
 20
-43.25984587283052
 30
0.0
 10
-2.116147943227577
 20
-43.26297657434031
 30
0.0
 10
-2.115240146078471
 20
-43.26610344066851
 30
0.0
  0
LINE
  5
1B78B
330
1B6B4
100
AcDbEntity
  8
0
100
AcDbLine
 10
-1.8322132264702
 20
-43.01623202616453
 30
0.0
 11
-2.115240146078449
 21
-42.04135856927706
 31
0.0
  0
LINE
  5
1B78C
330
1B6B4
100
AcDbEntity
  8
0
100
AcDbLine
 10
1.832213226470247
 20
-43.01623202616453
 30
0.0
 11
2.115240146078495
 21
-42.04135856927706
 31
0.0
  0
SPLINE
  5
1B78D
330
1B6B4
100
AcDbEntity
  8
0
100
AcDbSpline
210
0.0
220
0.0
230
1.0
 70
     8
 71
     3
 72
    10
 73
     6
 74
     0
 42
0.000000001
 43
0.0000000001
 40
0.6193246767572728
 40
0.6193246767572728
 40
0.6193246767572728
 40
0.6193246767572728
 40
0.9009146851058968
 40
0.9009146851058968
 40
1.158311097701212
 40
1.158311097701212
 40
1.158311097701212
 40
1.158311097701212
 10
2.115240146078491
 20
-42.04135856927702
 30
0.0
 10
2.15409336669674
 20
-41.90753040357548
 30
0.0
 10
2.160420504812762
 20
-41.76633649706765
 30
0.0
 10
2.108094793918017
 20
-41.50597748340725
 30
0.0
 10
2.055675741813296
 20
-41.38651768978046
 30
0.0
 10
1.981545664902103
 20
-41.27711830716998
 30
0.0
  0
SPLINE
  5
1B78E
330
1B6B4
100
AcDbEntity
  8
0
100
AcDbSpline
210
0.0
220
0.0
230
1.0
 70
     8
 71
     3
 72
    12
 73
     8
 74
     0
 42
0.000000001
 43
0.0000000001
 40
3.554077882683477
 40
3.554077882683477
 40
3.554077882683477
 40
3.554077882683477
 40
3.809460694484233
 40
3.809460694484233
 40
4.086485013603757
 40
4.086485013603757
 40
4.093064303627416
 40
4.093064303627416
 40
4.093064303627416
 40
4.093064303627416
 10
-1.981545664902057
 20
-41.27711830717
 30
0.0
 10
-2.055095825487827
 20
-41.38566186323055
 30
0.0
 10
-2.107276447314197
 20
-41.50410021862768
 30
0.0
 10
-2.159843988207844
 20
-41.76114079738552
 30
0.0
 10
-2.154682823041909
 20
-41.89999054702091
 30
0.0
 10
-2.117038536649393
 20
-42.03510100143889
 30
0.0
 10
-2.116147943227568
 20
-42.03823170294874
 30
0.0
 10
-2.115240146078444
 20
-42.04135856927702
 30
0.0
  0
LINE
  5
1B78F
330
1B6B4
100
AcDbEntity
  8
0
100
AcDbLine
 10
-1.832213226470192
 20
-41.79148715477295
 30
0.0
 11
-2.115240146078449
 21
-40.81661369788547
 31
0.0
  0
LINE
  5
1B790
330
1B6B4
100
AcDbEntity
  8
0
100
AcDbLine
 10
1.832213226470239
 20
-41.79148715477295
 30
0.0
 11
2.115240146078495
 21
-40.81661369788547
 31
0.0
  0
SPLINE
  5
1B791
330
1B6B4
100
AcDbEntity
  8
0
100
AcDbSpline
210
0.0
220
0.0
230
1.0
 70
     8
 71
     3
 72
    10
 73
     6
 74
     0
 42
0.000000001
 43
0.0000000001
 40
0.6193246767572728
 40
0.6193246767572728
 40
0.6193246767572728
 40
0.6193246767572728
 40
0.9009146851058968
 40
0.9009146851058968
 40
1.158311097701212
 40
1.158311097701212
 40
1.158311097701212
 40
1.158311097701212
 10
2.11524014607849
 20
-40.81661369788543
 30
0.0
 10
2.15409336669674
 20
-40.68278553218387
 30
0.0
 10
2.160420504812762
 20
-40.54159162567607
 30
0.0
 10
2.108094793918017
 20
-40.28123261201567
 30
0.0
 10
2.055675741813296
 20
-40.16177281838887
 30
0.0
 10
1.981545664902103
 20
-40.05237343577839
 30
0.0
  0
SPLINE
  5
1B792
330
1B6B4
100
AcDbEntity
  8
0
100
AcDbSpline
210
0.0
220
0.0
230
1.0
 70
     8
 71
     3
 72
    12
 73
     8
 74
     0
 42
0.000000001
 43
0.0000000001
 40
3.554077882683476
 40
3.554077882683476
 40
3.554077882683476
 40
3.554077882683476
 40
3.809460694484233
 40
3.809460694484233
 40
4.086485013603757
 40
4.086485013603757
 40
4.093064303627416
 40
4.093064303627416
 40
4.093064303627416
 40
4.093064303627416
 10
-1.981545664902056
 20
-40.05237343577841
 30
0.0
 10
-2.055095825487827
 20
-40.16091699183897
 30
0.0
 10
-2.107276447314197
 20
-40.27935534723609
 30
0.0
 10
-2.159843988207844
 20
-40.53639592599394
 30
0.0
 10
-2.15468282304191
 20
-40.67524567562934
 30
0.0
 10
-2.117038536649394
 20
-40.81035613004729
 30
0.0
 10
-2.116147943227568
 20
-40.81348683155713
 30
0.0
 10
-2.115240146078444
 20
-40.81661369788543
 30
0.0
  0
LINE
  5
1B793
330
1B6B4
100
AcDbEntity
  8
0
100
AcDbLine
 10
-1.832213226470196
 20
-40.56674228338135
 30
0.0
 11
-2.115240146078449
 21
-39.59186882649387
 31
0.0
  0
LINE
  5
1B794
330
1B6B4
100
AcDbEntity
  8
0
100
AcDbLine
 10
1.832213226470242
 20
-40.56674228338135
 30
0.0
 11
2.115240146078495
 21
-39.59186882649387
 31
0.0
  0
SPLINE
  5
1B795
330
1B6B4
100
AcDbEntity
  8
0
100
AcDbSpline
210
0.0
220
0.0
230
1.0
 70
     8
 71
     3
 72
    10
 73
     6
 74
     0
 42
0.000000001
 43
0.0000000001
 40
0.6193246767572728
 40
0.6193246767572728
 40
0.6193246767572728
 40
0.6193246767572728
 40
0.9009146851058968
 40
0.9009146851058968
 40
1.158311097701212
 40
1.158311097701212
 40
1.158311097701212
 40
1.158311097701212
 10
2.11524014607849
 20
-39.59186882649384
 30
0.0
 10
2.154093366696739
 20
-39.45804066079228
 30
0.0
 10
2.160420504812761
 20
-39.31684675428448
 30
0.0
 10
2.108094793918017
 20
-39.05648774062408
 30
0.0
 10
2.055675741813296
 20
-38.93702794699729
 30
0.0
 10
1.981545664902102
 20
-38.82762856438681
 30
0.0
  0
SPLINE
  5
1B796
330
1B6B4
100
AcDbEntity
  8
0
100
AcDbSpline
210
0.0
220
0.0
230
1.0
 70
     8
 71
     3
 72
    12
 73
     8
 74
     0
 42
0.000000001
 43
0.0000000001
 40
3.554077882683476
 40
3.554077882683476
 40
3.554077882683476
 40
3.554077882683476
 40
3.809460694484233
 40
3.809460694484233
 40
4.086485013603757
 40
4.086485013603757
 40
4.093064303627416
 40
4.093064303627416
 40
4.093064303627416
 40
4.093064303627416
 10
-1.981545664902056
 20
-38.82762856438681
 30
0.0
 10
-2.055095825487827
 20
-38.93617212044738
 30
0.0
 10
-2.107276447314197
 20
-39.05461047584449
 30
0.0
 10
-2.159843988207844
 20
-39.31165105460234
 30
0.0
 10
-2.15468282304191
 20
-39.45050080423775
 30
0.0
 10
-2.117038536649394
 20
-39.58561125865572
 30
0.0
 10
-2.116147943227569
 20
-39.58874196016556
 30
0.0
 10
-2.115240146078444
 20
-39.59186882649384
 30
0.0
  0
LINE
  5
1B797
330
1B6B4
100
AcDbEntity
  8
0
100
AcDbLine
 10
-1.832213226470192
 20
-39.34199741198977
 30
0.0
 11
-2.115240146078449
 21
-38.36712395510227
 31
0.0
  0
LINE
  5
1B798
330
1B6B4
100
AcDbEntity
  8
0
100
AcDbLine
 10
1.832213226470238
 20
-39.34199741198977
 30
0.0
 11
2.115240146078495
 21
-38.36712395510227
 31
0.0
  0
SPLINE
  5
1B799
330
1B6B4
100
AcDbEntity
  8
0
100
AcDbSpline
210
0.0
220
0.0
230
1.0
 70
     8
 71
     3
 72
    10
 73
     6
 74
     0
 42
0.000000001
 43
0.0000000001
 40
0.6193246767572728
 40
0.6193246767572728
 40
0.6193246767572728
 40
0.6193246767572728
 40
0.9009146851058968
 40
0.9009146851058968
 40
1.158311097701212
 40
1.158311097701212
 40
1.158311097701212
 40
1.158311097701212
 10
2.11524014607849
 20
-38.36712395510224
 30
0.0
 10
2.154093366696739
 20
-38.2332957894007
 30
0.0
 10
2.160420504812761
 20
-38.09210188289288
 30
0.0
 10
2.108094793918017
 20
-37.83174286923248
 30
0.0
 10
2.055675741813295
 20
-37.7122830756057
 30
0.0
 10
1.981545664902102
 20
-37.60288369299523
 30
0.0
  0
SPLINE
  5
1B79A
330
1B6B4
100
AcDbEntity
  8
0
100
AcDbSpline
210
0.0
220
0.0
230
1.0
 70
     8
 71
     3
 72
    12
 73
     8
 74
     0
 42
0.000000001
 43
0.0000000001
 40
3.554077882683477
 40
3.554077882683477
 40
3.554077882683477
 40
3.554077882683477
 40
3.809460694484233
 40
3.809460694484233
 40
4.086485013603757
 40
4.086485013603757
 40
4.093064303627416
 40
4.093064303627416
 40
4.093064303627416
 40
4.093064303627416
 10
-1.981545664902057
 20
-37.60288369299523
 30
0.0
 10
-2.055095825487827
 20
-37.71142724905579
 30
0.0
 10
-2.107276447314197
 20
-37.82986560445291
 30
0.0
 10
-2.159843988207845
 20
-38.08690618321075
 30
0.0
 10
-2.15468282304191
 20
-38.22575593284615
 30
0.0
 10
-2.117038536649394
 20
-38.36086638726412
 30
0.0
 10
-2.116147943227569
 20
-38.36399708877396
 30
0.0
 10
-2.115240146078445
 20
-38.36712395510224
 30
0.0
  0
LINE
  5
1B79B
330
1B6B4
100
AcDbEntity
  8
0
100
AcDbLine
 10
-1.832213226470196
 20
-38.11725254059816
 30
0.0
 11
-2.11524014607845
 21
-37.1423790837107
 31
0.0
  0
LINE
  5
1B79C
330
1B6B4
100
AcDbEntity
  8
0
100
AcDbLine
 10
1.832213226470242
 20
-38.11725254059816
 30
0.0
 11
2.115240146078495
 21
-37.1423790837107
 31
0.0
  0
SPLINE
  5
1B79D
330
1B6B4
100
AcDbEntity
  8
0
100
AcDbSpline
210
0.0
220
0.0
230
1.0
 70
     8
 71
     3
 72
    10
 73
     6
 74
     0
 42
0.000000001
 43
0.0000000001
 40
0.6193246767572728
 40
0.6193246767572728
 40
0.6193246767572728
 40
0.6193246767572728
 40
0.9009146851058968
 40
0.9009146851058968
 40
1.158311097701209
 40
1.158311097701209
 40
1.158311097701209
 40
1.158311097701209
 10
2.11524014607849
 20
-37.14237908371067
 30
0.0
 10
2.154093366696739
 20
-37.00855091800911
 30
0.0
 10
2.160420504812761
 20
-36.86735701150129
 30
0.0
 10
2.108094793918017
 20
-36.60699799784089
 30
0.0
 10
2.055675741813296
 20
-36.4875382042141
 30
0.0
 10
1.981545664902105
 20
-36.37813882160362
 30
0.0
  0
SPLINE
  5
1B79E
330
1B6B4
100
AcDbEntity
  8
0
100
AcDbSpline
210
0.0
220
0.0
230
1.0
 70
     8
 71
     3
 72
    12
 73
     8
 74
     0
 42
0.000000001
 43
0.0000000001
 40
3.55407788268348
 40
3.55407788268348
 40
3.55407788268348
 40
3.55407788268348
 40
3.809460694484233
 40
3.809460694484233
 40
4.086485013603757
 40
4.086485013603757
 40
4.093064303627416
 40
4.093064303627416
 40
4.093064303627416
 40
4.093064303627416
 10
-1.98154566490206
 20
-36.37813882160364
 30
0.0
 10
-2.055095825487829
 20
-36.48668237766419
 30
0.0
 10
-2.107276447314197
 20
-36.60512073306132
 30
0.0
 10
-2.159843988207845
 20
-36.86216131181915
 30
0.0
 10
-2.15468282304191
 20
-37.00101106145455
 30
0.0
 10
-2.117038536649394
 20
-37.13612151587252
 30
0.0
 10
-2.116147943227569
 20
-37.13925221738236
 30
0.0
 10
-2.115240146078445
 20
-37.14237908371067
 30
0.0
  0
LINE
  5
1B79F
330
1B6B4
100
AcDbEntity
  8
0
100
AcDbLine
 10
-1.832213226470201
 20
-36.89250766920658
 30
0.0
 11
-2.11524014607845
 21
-35.91763421231912
 31
0.0
  0
LINE
  5
1B7A0
330
1B6B4
100
AcDbEntity
  8
0
100
AcDbLine
 10
1.832213226470246
 20
-36.89250766920658
 30
0.0
 11
2.115240146078495
 21
-35.91763421231912
 31
0.0
  0
SPLINE
  5
1B7A1
330
1B6B4
100
AcDbEntity
  8
0
100
AcDbSpline
210
0.0
220
0.0
230
1.0
 70
     8
 71
     3
 72
    10
 73
     6
 74
     0
 42
0.000000001
 43
0.0000000001
 40
0.6193246767572728
 40
0.6193246767572728
 40
0.6193246767572728
 40
0.6193246767572728
 40
0.9009146851058968
 40
0.9009146851058968
 40
1.158311097701212
 40
1.158311097701212
 40
1.158311097701212
 40
1.158311097701212
 10
2.11524014607849
 20
-35.91763421231909
 30
0.0
 10
2.154093366696738
 20
-35.78380604661753
 30
0.0
 10
2.160420504812761
 20
-35.64261214010971
 30
0.0
 10
2.108094793918016
 20
-35.38225312644931
 30
0.0
 10
2.055675741813294
 20
-35.26279333282253
 30
0.0
 10
1.981545664902102
 20
-35.15339395021206
 30
0.0
  0
SPLINE
  5
1B7A2
330
1B6B4
100
AcDbEntity
  8
0
100
AcDbSpline
210
0.0
220
0.0
230
1.0
 70
     8
 71
     3
 72
    12
 73
     8
 74
     0
 42
0.000000001
 43
0.0000000001
 40
3.554077882683477
 40
3.554077882683477
 40
3.554077882683477
 40
3.554077882683477
 40
3.809460694484233
 40
3.809460694484233
 40
4.086485013603757
 40
4.086485013603757
 40
4.093064303627416
 40
4.093064303627416
 40
4.093064303627416
 40
4.093064303627416
 10
-1.981545664902058
 20
-35.15339395021206
 30
0.0
 10
-2.055095825487827
 20
-35.26193750627261
 30
0.0
 10
-2.107276447314198
 20
-35.38037586166974
 30
0.0
 10
-2.159843988207845
 20
-35.63741644042757
 30
0.0
 10
-2.154682823041911
 20
-35.77626619006299
 30
0.0
 10
-2.117038536649395
 20
-35.91137664448095
 30
0.0
 10
-2.116147943227569
 20
-35.91450734599078
 30
0.0
 10
-2.115240146078445
 20
-35.91763421231909
 30
0.0
  0
LINE
  5
1B7A3
330
1B6B4
100
AcDbEntity
  8
0
100
AcDbLine
 10
-1.832213226470193
 20
-35.66776279781502
 30
0.0
 11
-2.11524014607845
 21
-34.69288934092752
 31
0.0
  0
LINE
  5
1B7A4
330
1B6B4
100
AcDbEntity
  8
0
100
AcDbLine
 10
1.832213226470237
 20
-35.66776279781502
 30
0.0
 11
2.115240146078494
 21
-34.69288934092752
 31
0.0
  0
SPLINE
  5
1B7A5
330
1B6B4
100
AcDbEntity
  8
0
100
AcDbSpline
210
0.0
220
0.0
230
1.0
 70
     8
 71
     3
 72
    10
 73
     6
 74
     0
 42
0.000000001
 43
0.0000000001
 40
0.6193246767572728
 40
0.6193246767572728
 40
0.6193246767572728
 40
0.6193246767572728
 40
0.9009146851058968
 40
0.9009146851058968
 40
1.158311097701212
 40
1.158311097701212
 40
1.158311097701212
 40
1.158311097701212
 10
2.115240146078489
 20
-34.69288934092749
 30
0.0
 10
2.154093366696738
 20
-34.55906117522594
 30
0.0
 10
2.16042050481276
 20
-34.41786726871813
 30
0.0
 10
2.108094793918016
 20
-34.15750825505774
 30
0.0
 10
2.055675741813294
 20
-34.03804846143095
 30
0.0
 10
1.981545664902101
 20
-33.92864907882046
 30
0.0
  0
SPLINE
  5
1B7A6
330
1B6B4
100
AcDbEntity
  8
0
100
AcDbSpline
210
0.0
220
0.0
230
1.0
 70
     8
 71
     3
 72
    12
 73
     8
 74
     0
 42
0.000000001
 43
0.0000000001
 40
3.554077882683476
 40
3.554077882683476
 40
3.554077882683476
 40
3.554077882683476
 40
3.809460694484233
 40
3.809460694484233
 40
4.086485013603757
 40
4.086485013603757
 40
4.093064303627416
 40
4.093064303627416
 40
4.093064303627416
 40
4.093064303627416
 10
-1.981545664902057
 20
-33.92864907882046
 30
0.0
 10
-2.055095825487827
 20
-34.03719263488103
 30
0.0
 10
-2.107276447314198
 20
-34.15563099027814
 30
0.0
 10
-2.159843988207845
 20
-34.41267156903599
 30
0.0
 10
-2.154682823041911
 20
-34.55152131867139
 30
0.0
 10
-2.117038536649395
 20
-34.68663177308935
 30
0.0
 10
-2.116147943227569
 20
-34.68976247459919
 30
0.0
 10
-2.115240146078445
 20
-34.69288934092749
 30
0.0
  0
LINE
  5
1B7A7
330
1B6B4
100
AcDbEntity
  8
0
100
AcDbLine
 10
-1.832213226470197
 20
-34.44301792642341
 30
0.0
 11
-2.11524014607845
 21
-33.46814446953593
 31
0.0
  0
LINE
  5
1B7A8
330
1B6B4
100
AcDbEntity
  8
0
100
AcDbLine
 10
1.832213226470241
 20
-34.44301792642341
 30
0.0
 11
2.115240146078494
 21
-33.46814446953593
 31
0.0
  0
SPLINE
  5
1B7A9
330
1B6B4
100
AcDbEntity
  8
0
100
AcDbSpline
210
0.0
220
0.0
230
1.0
 70
     8
 71
     3
 72
    10
 73
     6
 74
     0
 42
0.000000001
 43
0.0000000001
 40
0.6193246767572728
 40
0.6193246767572728
 40
0.6193246767572728
 40
0.6193246767572728
 40
0.9009146851058968
 40
0.9009146851058968
 40
1.158311097701212
 40
1.158311097701212
 40
1.158311097701212
 40
1.158311097701212
 10
2.115240146078489
 20
-33.46814446953589
 30
0.0
 10
2.154093366696738
 20
-33.33431630383433
 30
0.0
 10
2.16042050481276
 20
-33.19312239732653
 30
0.0
 10
2.108094793918016
 20
-32.93276338366613
 30
0.0
 10
2.055675741813294
 20
-32.81330359003935
 30
0.0
 10
1.981545664902101
 20
-32.70390420742887
 30
0.0
  0
SPLINE
  5
1B7AA
330
1B6B4
100
AcDbEntity
  8
0
100
AcDbSpline
210
0.0
220
0.0
230
1.0
 70
     8
 71
     3
 72
    12
 73
     8
 74
     0
 42
0.000000001
 43
0.0000000001
 40
3.554077882683476
 40
3.554077882683476
 40
3.554077882683476
 40
3.554077882683476
 40
3.809460694484233
 40
3.809460694484233
 40
4.086485013603757
 40
4.086485013603757
 40
4.093064303627416
 40
4.093064303627416
 40
4.093064303627416
 40
4.093064303627416
 10
-1.981545664902057
 20
-32.70390420742887
 30
0.0
 10
-2.055095825487827
 20
-32.81244776348943
 30
0.0
 10
-2.107276447314198
 20
-32.93088611888656
 30
0.0
 10
-2.159843988207846
 20
-33.1879266976444
 30
0.0
 10
-2.154682823041911
 20
-33.3267764472798
 30
0.0
 10
-2.117038536649395
 20
-33.46188690169777
 30
0.0
 10
-2.11614794322757
 20
-33.46501760320761
 30
0.0
 10
-2.115240146078446
 20
-33.46814446953589
 30
0.0
  0
ELLIPSE
  5
1B7AB
330
1B6B4
100
AcDbEntity
  8
0
100
AcDbEllipse
 10
0.0000000000000215
 20
-32.03869955954044
 30
0.0
 11
-2.144748748220961
 21
0.0000000000000001
 31
0.0
210
0.0
220
0.0
230
1.0
 40
0.577350269189626
 41
0.1660734866401743
 42
2.975519166949615
  0
LINE
  5
1B7AC
330
1B6B4
100
AcDbEntity
  8
0
100
AcDbLine
 10
-1.832213226470194
 20
-33.21827305503183
 30
0.0
 11
-2.115240146078451
 21
-32.24339959814433
 31
0.0
  0
LINE
  5
1B7AD
330
1B6B4
100
AcDbEntity
  8
0
100
AcDbLine
 10
1.832213226470237
 20
-33.21827305503183
 30
0.0
 11
2.115240146078494
 21
-32.24339959814433
 31
0.0
  0
SPLINE
  5
1B7AE
330
1B6B4
100
AcDbEntity
  8
0
100
AcDbSpline
210
0.0
220
0.0
230
1.0
 70
     8
 71
     3
 72
    10
 73
     6
 74
     0
 42
0.000000001
 43
0.0000000001
 40
0.6193246767572728
 40
0.6193246767572728
 40
0.6193246767572728
 40
0.6193246767572728
 40
0.9009146851058968
 40
0.9009146851058968
 40
1.136402995789093
 40
1.136402995789093
 40
1.136402995789093
 40
1.136402995789093
 10
2.115240146078489
 20
-32.24339959814429
 30
0.0
 10
2.154093366696738
 20
-32.10957143244276
 30
0.0
 10
2.16042050481276
 20
-31.96837752593494
 30
0.0
 10
2.11022166940571
 20
-31.71860128687399
 30
0.0
 10
2.064409452776207
 20
-31.60885621534572
 30
0.0
 10
2.000000000000028
 20
-31.50729941094566
 30
0.0
  0
SPLINE
  5
1B7AF
330
1B6B4
100
AcDbEntity
  8
0
100
AcDbSpline
210
0.0
220
0.0
230
1.0
 70
     8
 71
     3
 72
    12
 73
     8
 74
     0
 42
0.000000001
 43
0.0000000001
 40
3.575985984595589
 40
3.575985984595589
 40
3.575985984595589
 40
3.575985984595589
 40
3.809460694484233
 40
3.809460694484233
 40
4.086485013603757
 40
4.086485013603757
 40
4.093064303627416
 40
4.093064303627416
 40
4.093064303627416
 40
4.093064303627416
 10
-1.999999999999979
 20
-31.50729941094562
 30
0.0
 10
-2.063858703887984
 20
-31.60798782887914
 30
0.0
 10
-2.109439557040352
 20
-31.71671824931918
 30
0.0
 10
-2.159843988207846
 20
-31.9631818262528
 30
0.0
 10
-2.154682823041911
 20
-32.10203157588821
 30
0.0
 10
-2.117038536649395
 20
-32.23714203030617
 30
0.0
 10
-2.11614794322757
 20
-32.24027273181601
 30
0.0
 10
-2.115240146078446
 20
-32.24339959814429
 30
0.0
  0
ENDBLK
  5
1B6B6
330
1B6B4
100
AcDbEntity
  8
0
100
AcDbBlockEnd
  0
ENDSEC
  0
SECTION
  2
ENTITIES
  0
INSERT
  5
1B7B0
330
1F
100
AcDbEntity
  8
0
100
AcDbBlockReference
  2
MKSA440x200-Front
 10
0.0
 20
0.0
 30
0.0
  0
INSERT
  5
1B7B1
330
1F
100
AcDbEntity
  8
0
100
AcDbBlockReference
  2
MKSA440x200-Top
 10
0.0
 20
-262.25
 30
0.0
  0
INSERT
  5
1B7B2
330
1F
100
AcDbEntity
  8
0
100
AcDbBlockReference
  2
MKSA440x200-ISO
 10
68.49999999999997
 20
-340.7660995394101
 30
0.0
  0
MTEXT
  5
1B7B3
330
1F
100
AcDbEntity
  8
0
100
AcDbMText
 10
0.0
 20
-326.5
 30
0.0
 40
7.138888888888887
 41
0.0
 71
     5
 72
     5
  1
MKSA44,0x200
 73
     1
 44
1.0
1001
ACAD
1000
MTEXTBEGIN
1070
    73
1070
     1
1070
    44
1040
1.0
1070
    74
1070
     0
1000
MTEXTEND
  0
ENDSEC
  0
SECTION
  2
OBJECTS
  0
DICTIONARY
  5
C
330
0
100
AcDbDictionary
281
     1
  3
ACAD_CIP_PREVIOUS_PRODUCT_INFO
350
216
  3
ACAD_COLOR
350
6B
  3
ACAD_DETAILVIEWSTYLE
350
21B
  3
ACAD_GROUP
350
D
  3
ACAD_LAYOUT
350
1A
  3
ACAD_MATERIAL
350
6A
  3
ACAD_MLEADERSTYLE
350
12D
  3
ACAD_MLINESTYLE
350
17
  3
ACAD_PLOTSETTINGS
350
19
  3
ACAD_PLOTSTYLENAME
350
E
  3
ACAD_SCALELIST
350
10C
  3
ACAD_SECTIONVIEWSTYLE
350
219
  3
ACAD_TABLESTYLE
350
7E
  3
ACAD_VISUALSTYLE
350
EF
  3
ACDB_RECOMPOSE_DATA
350
1B8B6
  3
AcDbVariableDictionary
350
5E
  3
DWGPROPS
350
1B8B7
  0
DICTIONARY
  5
1B806
330
8
100
AcDbDictionary
280
     1
281
     1
  0
DICTIONARY
  5
1FF
330
2
100
AcDbDictionary
280
     1
281
     1
  3
ACAD_LAYERSTATES
360
200
  0
DICTIONARY
  5
13C
330
10
100
AcDbDictionary
280
     1
281
     1
  0
DICTIONARY
  5
1CE
330
1F
100
AcDbDictionary
280
     1
281
     1
  3
ACAD_LAYOUTSELFREF
360
1B80E
  0
DICTIONARY
  5
1B7B7
330
D2
100
AcDbDictionary
280
     1
281
     1
  3
ACAD_LAYOUTSELFREF
360
1B817
  0
DICTIONARY
  5
1B7B9
330
D6
100
AcDbDictionary
280
     1
281
     1
  3
ACAD_LAYOUTSELFREF
360
1B81A
  0
XRECORD
  5
216
102
{ACAD_REACTORS
330
C
102
}
330
C
100
AcDbXrecord
280
     1
300
ACD
300
2021
300
87393ACD_2021_0F
  0
DICTIONARY
  5
6B
102
{ACAD_REACTORS
330
C
102
}
330
C
100
AcDbDictionary
281
     1
  0
DICTIONARY
  5
21B
102
{ACAD_REACTORS
330
C
102
}
330
C
100
AcDbDictionary
281
     1
  3
Metric50
350
21C
  0
DICTIONARY
  5
D
102
{ACAD_REACTORS
330
C
102
}
330
C
100
AcDbDictionary
281
     1
  0
DICTIONARY
  5
1A
102
{ACAD_REACTORS
330
C
102
}
330
C
100
AcDbDictionary
281
     1
  3
Layout1
350
D3
  3
Layout2
350
D7
  3
Model
350
22
  0
DICTIONARY
  5
6A
102
{ACAD_REACTORS
330
C
102
}
330
C
100
AcDbDictionary
281
     1
  3
ByBlock
350
ED
  3
ByLayer
350
EC
  3
Global
350
EE
  0
DICTIONARY
  5
12D
102
{ACAD_REACTORS
330
C
102
}
330
C
100
AcDbDictionary
281
     1
  3
Standard
350
12E
  0
DICTIONARY
  5
17
102
{ACAD_REACTORS
330
C
102
}
330
C
100
AcDbDictionary
281
     1
  3
Standard
350
18
  0
DICTIONARY
  5
19
102
{ACAD_REACTORS
330
C
102
}
330
C
100
AcDbDictionary
281
     1
  0
ACDBDICTIONARYWDFLT
  5
E
102
{ACAD_REACTORS
330
C
102
}
330
C
100
AcDbDictionary
281
     1
  3
Normal
350
F
100
AcDbDictionaryWithDefault
340
F
  0
DICTIONARY
  5
10C
102
{ACAD_REACTORS
330
C
102
}
330
C
100
AcDbDictionary
281
     1
  3
A0
350
10D
  3
A1
350
1BE
  3
A2
350
1BF
  3
A3
350
1C0
  3
A4
350
1C1
  3
A5
350
1C2
  3
A6
350
1C3
  3
A7
350
1C4
  3
A8
350
1C5
  3
A9
350
1C6
  3
B0
350
1C7
  3
B1
350
1C8
  3
B2
350
1C9
  3
B3
350
1CA
  3
B4
350
1CB
  3
B5
350
1CC
  3
B6
350
1CD
  0
DICTIONARY
  5
219
102
{ACAD_REACTORS
330
C
102
}
330
C
100
AcDbDictionary
281
     1
  3
Metric50
350
21A
  0
DICTIONARY
  5
7E
102
{ACAD_REACTORS
330
C
102
}
330
C
100
AcDbDictionary
281
     1
  3
Standard
350
7F
  0
DICTIONARY
  5
EF
102
{ACAD_REACTORS
330
C
102
}
330
C
100
AcDbDictionary
281
     1
  3
2dWireframe
350
F5
  3
Basic
350
F4
  3
Brighten
350
FB
  3
ColorChange
350
FF
  3
Conceptual
350
F8
  3
Dim
350
FA
  3
EdgeColorOff
350
1E6
  3
Facepattern
350
FE
  3
Flat
350
F0
  3
FlatWithEdges
350
F1
  3
Gouraud
350
F2
  3
GouraudWithEdges
350
F3
  3
Hidden
350
F7
  3
JitterOff
350
1E4
  3
Linepattern
350
FD
  3
OverhangOff
350
1E5
  3
Realistic
350
F9
  3
Shaded
350
1F3
  3
Shaded with edges
350
1F2
  3
Shades of Gray
350
1EF
  3
Sketchy
350
1F0
  3
Thicken
350
FC
  3
Wireframe
350
F6
  3
X-Ray
350
1F1
  0
XRECORD
  5
1B8B6
102
{ACAD_REACTORS
330
C
102
}
330
C
100
AcDbXrecord
280
     1
 90
        1
330
7F
  0
DICTIONARY
  5
5E
102
{ACAD_REACTORS
330
C
102
}
330
C
100
AcDbDictionary
281
     1
  3
CANNOSCALE
350
146
  3
CENTEREXE
350
259
  3
CENTERLTYPEFILE
350
25A
  3
CMLEADERSTYLE
350
145
  3
CTABLESTYLE
350
84
  3
CVIEWDETAILSTYLE
350
227
  3
CVIEWSECTIONSTYLE
350
228
  3
DIMASSOC
350
5F
  3
HIDETEXT
350
63
  3
INDEXCTL
350
1B863
  3
LAYEREVAL
350
1AE
  3
LAYERNOTIFY
350
1AF
  3
LIGHTINGUNITS
350
1B861
  3
MSLTSCALE
350
1B860
  3
PSOLHEIGHT
350
1B8B3
  3
PSOLWIDTH
350
1B8B2
  3
SORTENTS
350
1B862
  3
XCLIPFRAME
350
1B8B4
  0
XRECORD
  5
1B8B7
102
{ACAD_REACTORS
330
C
102
}
330
C
100
AcDbXrecord
280
     1
  1
DWGPROPS COOKIE
  2

  3

  4

  6

  7

  8
truole
  9

300
=
301
=
302
=
303
=
304
=
305
=
306
=
307
=
308
=
309
=
 40
0.0027662037037037
 41
2460733.571354167
 42
2460733.603356482
  1

 90
        0
  0
DICTIONARY
  5
200
102
{ACAD_REACTORS
330
1FF
102
}
330
1FF
100
AcDbDictionary
281
     1
  0
XRECORD
  5
1B80E
102
{ACAD_REACTORS
330
1CE
102
}
330
1CE
100
AcDbXrecord
280
     1
340
1F
  0
XRECORD
  5
1B817
102
{ACAD_REACTORS
330
1B7B7
102
}
330
1B7B7
100
AcDbXrecord
280
     1
340
D2
  0
XRECORD
  5
1B81A
102
{ACAD_REACTORS
330
1B7B9
102
}
330
1B7B9
100
AcDbXrecord
280
     1
340
D6
  0
ACDBDETAILVIEWSTYLE
  5
21C
102
{ACAD_XDICTIONARY
360
1B8F6
102
}
102
{ACAD_REACTORS
330
21B
102
}
330
21B
100
AcDbModelDocViewStyle
 70
     0
  3
Metric50
290
     0
100
AcDbDetailViewStyle
 70
     0
 71
     0
 90
        3
 71
     1
340
11
 40
5.0
340
0
 40
5.0
300

 40
0.0
280
     1
 71
     2
340
16
 90
       25
 71
     3
340
11
 40
5.0
 90
        0
 40
15.0
 90
        1
300
%<\AcVar ViewDetailId>% (%<\AcVar ViewScale \f "%sn">%)
 71
     4
340
16
 90
       25
340
16
 90
       25
280
     0
  0
LAYOUT
  5
D3
102
{ACAD_XDICTIONARY
360
1B8BB
102
}
102
{ACAD_REACTORS
330
1A
102
}
330
1A
100
AcDbPlotSettings
  1

  2
C:\Documents and Settings\basas\Application Data\Autodesk\AutoCAD 2005\R16.1\enu\plotters\Default Windows System Printer.pc3
  4

  6

 40
0.0
 41
0.0
 42
0.0
 43
0.0
 44
0.0
 45
0.0
 46
0.0
 47
0.0
 48
0.0
 49
0.0
140
0.0
141
0.0
142
1.0
143
1.0
 70
   688
 72
     0
 73
     0
 74
     5
  7

 75
    16
147
1.0
148
0.0
149
0.0
100
AcDbLayout
  1
Layout1
 70
     1
 71
     1
 10
0.0
 20
0.0
 11
12.0
 21
9.0
 12
0.0
 22
0.0
 32
0.0
 14
0.0
 24
0.0
 34
0.0
 15
0.0
 25
0.0
 35
0.0
146
0.0
 13
0.0
 23
0.0
 33
0.0
 16
1.0
 26
0.0
 36
0.0
 17
0.0
 27
1.0
 37
0.0
 76
     0
330
D2
  0
LAYOUT
  5
D7
102
{ACAD_XDICTIONARY
360
1B8BD
102
}
102
{ACAD_REACTORS
330
1A
102
}
330
1A
100
AcDbPlotSettings
  1

  2
C:\Documents and Settings\basas\Application Data\Autodesk\AutoCAD 2005\R16.1\enu\plotters\Default Windows System Printer.pc3
  4

  6

 40
0.0
 41
0.0
 42
0.0
 43
0.0
 44
0.0
 45
0.0
 46
0.0
 47
0.0
 48
0.0
 49
0.0
140
0.0
141
0.0
142
1.0
143
1.0
 70
   688
 72
     0
 73
     0
 74
     5
  7

 75
    16
147
1.0
148
0.0
149
0.0
100
AcDbLayout
  1
Layout2
 70
     1
 71
     2
 10
0.0
 20
0.0
 11
12.0
 21
9.0
 12
0.0
 22
0.0
 32
0.0
 14
0.0
 24
0.0
 34
0.0
 15
0.0
 25
0.0
 35
0.0
146
0.0
 13
0.0
 23
0.0
 33
0.0
 16
1.0
 26
0.0
 36
0.0
 17
0.0
 27
1.0
 37
0.0
 76
     0
330
D6
  0
LAYOUT
  5
22
102
{ACAD_XDICTIONARY
360
1B8B8
102
}
102
{ACAD_REACTORS
330
1A
102
}
330
1A
100
AcDbPlotSettings
  1

  2
none_device
  4
ISO_A4_(210.00_x_297.00_MM)
  6

 40
7.5
 41
20.0
 42
7.5
 43
20.0
 44
210.0
 45
297.0
 46
11.54999923706054
 47
-13.65000009536743
 48
0.0
 49
0.0
140
0.0
141
0.0
142
1.0
143
8.704084754739808
 70
 11952
 72
     1
 73
     0
 74
     0
  7

 75
     0
147
0.1148885871608098
148
0.0
149
0.0
100
AcDbLayout
  1
Model
 70
     1
 71
     0
 10
0.0
 20
0.0
 11
12.0
 21
9.0
 12
0.0
 22
0.0
 32
0.0
 14
0.0
 24
0.0
 34
0.0
 15
0.0
 25
0.0
 35
0.0
146
0.0
 13
0.0
 23
0.0
 33
0.0
 16
1.0
 26
0.0
 36
0.0
 17
0.0
 27
1.0
 37
0.0
 76
     0
330
1F
331
EA
1001
ACAD_PSEXT
1000
None
1000
None
1000
Not applicable
1000
The layout will not be plotted unless a new plotter configuration name is selected.
1070
     0
  0
MATERIAL
  5
ED
102
{ACAD_XDICTIONARY
360
1F9
102
}
102
{ACAD_REACTORS
330
6A
102
}
330
6A
100
AcDbMaterial
  1
ByBlock
  0
MATERIAL
  5
EC
102
{ACAD_XDICTIONARY
360
1F7
102
}
102
{ACAD_REACTORS
330
6A
102
}
330
6A
100
AcDbMaterial
  1
ByLayer
  0
MATERIAL
  5
EE
102
{ACAD_XDICTIONARY
360
173
102
}
102
{ACAD_REACTORS
330
6A
102
}
330
6A
100
AcDbMaterial
  1
Global
 43
0.0007999999797903
 43
0.0
 43
0.0
 43
0.0
 43
0.0
 43
0.0007999999797903
 43
0.0
 43
0.0
 43
0.0
 43
0.0
 43
1.0
 43
0.0
 43
0.0
 43
0.0
 43
0.0
 43
1.0
 49
0.0007999999797903
 49
0.0
 49
0.0
 49
0.0
 49
0.0
 49
0.0007999999797903
 49
0.0
 49
0.0
 49
0.0
 49
0.0
 49
1.0
 49
0.0
 49
0.0
 49
0.0
 49
0.0
 49
1.0
142
0.0007999999797903
142
0.0
142
0.0
142
0.0
142
0.0
142
0.0007999999797903
142
0.0
142
0.0
142
0.0
142
0.0
142
1.0
142
0.0
142
0.0
142
0.0
142
0.0
142
1.0
144
0.0007999999797903
144
0.0
144
0.0
144
0.0
144
0.0
144
0.0007999999797903
144
0.0
144
0.0
144
0.0
144
0.0
144
1.0
144
0.0
144
0.0
144
0.0
144
0.0
144
1.0
1001
ACAD
1070
    -1
1070
     3
1070
     0
1000

1071
        0
1070
     0
  0
MLEADERSTYLE
  5
12E
102
{ACAD_XDICTIONARY
360
1B8E2
102
}
102
{ACAD_REACTORS
330
12D
102
}
330
12D
100
AcDbMLeaderStyle
170
     2
171
     1
172
     0
 90
        2
 40
0.0
 41
0.0
173
     1
 91
-1056964608
340
14
 92
       -2
290
     1
 42
2.0
291
     1
 43
8.0
  3
Standard
 44
4.0
300

342
11
174
     1
178
     1
175
     1
176
     0
 93
-1056964608
 45
4.0
292
     0
297
     0
 46
4.0
 94
-1056964608
 47
1.0
 49
1.0
140
1.0
293
     1
141
0.0
294
     1
177
     0
142
1.0
295
     0
296
     0
143
3.75
1001
ACAD_MLEADERVER
1070
     2
  0
MLINESTYLE
  5
18
102
{ACAD_REACTORS
330
17
102
}
330
17
100
AcDbMlineStyle
  2
STANDARD
 70
     0
  3

 62
   256
 51
90.0
 52
90.0
 71
     2
 49
0.5
 62
   256
  6
BYLAYER
 49
-0.5
 62
   256
  6
BYLAYER
  0
ACDBPLACEHOLDER
  5
F
102
{ACAD_REACTORS
330
E
102
}
330
E
  0
SCALE
  5
10D
102
{ACAD_REACTORS
330
10C
102
}
330
10C
100
AcDbScale
 70
     0
300
1:1
140
1.0
141
1.0
290
     1
  0
SCALE
  5
1BE
102
{ACAD_REACTORS
330
10C
102
}
330
10C
100
AcDbScale
 70
     0
300
1:2
140
1.0
141
2.0
290
     0
  0
SCALE
  5
1BF
102
{ACAD_REACTORS
330
10C
102
}
330
10C
100
AcDbScale
 70
     0
300
1:4
140
1.0
141
4.0
290
     0
  0
SCALE
  5
1C0
102
{ACAD_REACTORS
330
10C
102
}
330
10C
100
AcDbScale
 70
     0
300
1:5
140
1.0
141
5.0
290
     0
  0
SCALE
  5
1C1
102
{ACAD_REACTORS
330
10C
102
}
330
10C
100
AcDbScale
 70
     0
300
1:8
140
1.0
141
8.0
290
     0
  0
SCALE
  5
1C2
102
{ACAD_REACTORS
330
10C
102
}
330
10C
100
AcDbScale
 70
     0
300
1:10
140
1.0
141
10.0
290
     0
  0
SCALE
  5
1C3
102
{ACAD_REACTORS
330
10C
102
}
330
10C
100
AcDbScale
 70
     0
300
1:16
140
1.0
141
16.0
290
     0
  0
SCALE
  5
1C4
102
{ACAD_REACTORS
330
10C
102
}
330
10C
100
AcDbScale
 70
     0
300
1:20
140
1.0
141
20.0
290
     0
  0
SCALE
  5
1C5
102
{ACAD_REACTORS
330
10C
102
}
330
10C
100
AcDbScale
 70
     0
300
1:30
140
1.0
141
30.0
290
     0
  0
SCALE
  5
1C6
102
{ACAD_REACTORS
330
10C
102
}
330
10C
100
AcDbScale
 70
     0
300
1:40
140
1.0
141
40.0
290
     0
  0
SCALE
  5
1C7
102
{ACAD_REACTORS
330
10C
102
}
330
10C
100
AcDbScale
 70
     0
300
1:50
140
1.0
141
50.0
290
     0
  0
SCALE
  5
1C8
102
{ACAD_REACTORS
330
10C
102
}
330
10C
100
AcDbScale
 70
     0
300
1:100
140
1.0
141
100.0
290
     0
  0
SCALE
  5
1C9
102
{ACAD_REACTORS
330
10C
102
}
330
10C
100
AcDbScale
 70
     0
300
2:1
140
2.0
141
1.0
290
     0
  0
SCALE
  5
1CA
102
{ACAD_REACTORS
330
10C
102
}
330
10C
100
AcDbScale
 70
     0
300
4:1
140
4.0
141
1.0
290
     0
  0
SCALE
  5
1CB
102
{ACAD_REACTORS
330
10C
102
}
330
10C
100
AcDbScale
 70
     0
300
8:1
140
8.0
141
1.0
290
     0
  0
SCALE
  5
1CC
102
{ACAD_REACTORS
330
10C
102
}
330
10C
100
AcDbScale
 70
     0
300
10:1
140
10.0
141
1.0
290
     0
  0
SCALE
  5
1CD
102
{ACAD_REACTORS
330
10C
102
}
330
10C
100
AcDbScale
 70
     0
300
100:1
140
100.0
141
1.0
290
     0
  0
ACDBSECTIONVIEWSTYLE
  5
21A
102
{ACAD_XDICTIONARY
360
1B8F4
102
}
102
{ACAD_REACTORS
330
219
102
}
330
219
100
AcDbModelDocViewStyle
 70
     0
  3
Metric50
290
     0
100
AcDbSectionViewStyle
 70
     0
 71
     0
 90
      102
 71
     1
340
11
 40
5.0
340
0
340
0
 40
5.0
300
I, O, Q, S, X, Z
 40
10.0
 90
        0
 40
2.5
 90
        0
 71
     2
340
16
 90
       25
340
16
 90
       50
 40
5.0
 40
2.5
 40
5.0
 71
     3
340
11
 40
5.0
 90
        0
 40
15.0
 90
        1
300
%<\AcVar ViewSectionStartId>%-%<\AcVar ViewSectionEndId>% (%<\AcVar ViewScale \f "%sn">%)
 71
     4
300
ANSI31
 40
1.0
 90
        0
290
     0
290
     0
 90
        6
 40
0.0
 40
1.570796326794896
 40
0.2617993877991494
 40
1.308996938995747
 40
-0.2617993877991494
 40
1.832595714594046
  0
TABLESTYLE
  5
7F
102
{ACAD_XDICTIONARY
360
162
102
}
102
{ACAD_REACTORS
330
7E
102
}
330
7E
100
AcDbTableStyle
  3
Standard
 70
     0
 71
     0
 40
1.5
 41
1.5
280
     0
281
     0
  7
Standard
140
4.5
170
     2
 62
     0
 63
     7
283
     0
274
    -2
284
     1
 64
     0
275
    -2
285
     1
 65
     0
276
    -2
286
     1
 66
     0
277
    -2
287
     1
 67
     0
278
    -2
288
     1
 68
     0
279
    -2
289
     1
 69
     0
  7
Standard
140
6.0
170
     5
 62
     0
 63
     7
283
     0
274
    -2
284
     1
 64
     0
275
    -2
285
     1
 65
     0
276
    -2
286
     1
 66
     0
277
    -2
287
     1
 67
     0
278
    -2
288
     1
 68
     0
279
    -2
289
     1
 69
     0
  7
Standard
140
4.5
170
     5
 62
     0
 63
     7
283
     0
274
    -2
284
     1
 64
     0
275
    -2
285
     1
 65
     0
276
    -2
286
     1
 66
     0
277
    -2
287
     1
 67
     0
278
    -2
288
     1
 68
     0
279
    -2
289
     1
 69
     0
  0
VISUALSTYLE
  5
F5
102
{ACAD_XDICTIONARY
360
1B8CC
102
}
102
{ACAD_REACTORS
330
EF
102
}
330
EF
100
AcDbVisualStyle
  2
2dWireframe
 70
     4
 71
     0
 72
     2
 73
     1
 90
        0
 40
-0.6
 41
-30.0
 62
     5
 63
     7
 74
     1
 91
        4
 64
     7
 65
   257
 75
     1
175
     1
 42
1.0
 92
        0
 66
   257
 43
1.0
 76
     1
 77
     6
 78
     2
 67
     7
 79
     5
170
     0
171
     0
290
     0
174
     0
 93
        1
 44
0.0
173
     0
291
     0
 45
0.0
1001
ACAD
1000
AcDbSavedByObjectVersion
1070
     0
  0
VISUALSTYLE
  5
F4
102
{ACAD_XDICTIONARY
360
1B8CA
102
}
102
{ACAD_REACTORS
330
EF
102
}
330
EF
100
AcDbVisualStyle
  2
Basic
 70
     7
 71
     1
 72
     0
 73
     1
 90
        0
 40
-0.6
 41
-30.0
 62
     5
 63
     7
 74
     0
 91
        4
 64
     7
 65
   257
 75
     1
175
     1
 42
1.0
 92
        8
 66
     7
 43
1.0
 76
     1
 77
     6
 78
     2
 67
     7
 79
     5
170
     0
171
     0
290
     0
174
     0
 93
        1
 44
0.0
173
     0
291
     1
 45
0.0
1001
ACAD
1000
AcDbSavedByObjectVersion
1070
     0
  0
VISUALSTYLE
  5
FB
102
{ACAD_XDICTIONARY
360
1B8D8
102
}
102
{ACAD_REACTORS
330
EF
102
}
330
EF
100
AcDbVisualStyle
  2
Brighten
 70
    12
 71
     2
 72
     2
 73
     1
 90
        0
 40
-0.6
 41
-30.0
 62
     5
 63
     7
 74
     1
 91
        4
 64
     7
 65
   257
 75
     1
175
     1
 42
1.0
 92
        8
 66
     7
 43
1.0
 76
     1
 77
     6
 78
     2
 67
     7
 79
     5
170
     0
171
     0
290
     0
174
     0
 93
        1
 44
50.0
173
     0
291
     1
 45
0.0
1001
ACAD
1000
AcDbSavedByObjectVersion
1070
     0
  0
VISUALSTYLE
  5
FF
102
{ACAD_XDICTIONARY
360
1B8E0
102
}
102
{ACAD_REACTORS
330
EF
102
}
330
EF
100
AcDbVisualStyle
  2
ColorChange
 70
    16
 71
     2
 72
     2
 73
     3
 90
        0
 40
-0.6
 41
-30.0
 62
     5
 63
     8
 74
     1
 91
        4
 64
     7
 65
   257
 75
     1
175
     1
 42
1.0
 92
        8
 66
     8
 43
1.0
 76
     1
 77
     6
 78
     2
 67
     7
 79
     5
170
     0
171
     0
290
     0
174
     0
 93
        1
 44
0.0
173
     0
291
     1
 45
0.0
1001
ACAD
1000
AcDbSavedByObjectVersion
1070
     0
  0
VISUALSTYLE
  5
F8
102
{ACAD_XDICTIONARY
360
1B8D2
102
}
102
{ACAD_REACTORS
330
EF
102
}
330
EF
100
AcDbVisualStyle
  2
Conceptual
 70
     9
 71
     3
 72
     2
 73
     1
 90
        0
 40
-0.6
 41
-30.0
 62
     5
 63
     7
 74
     2
 91
        2
 64
     7
 65
   257
 75
     1
175
     1
 42
40.0
 92
        8
 66
     7
 43
1.0
 76
     1
 77
     6
 78
     2
 67
     7
 79
     3
170
     0
171
     0
290
     0
174
     0
 93
        1
 44
0.0
173
     0
291
     0
 45
0.0
1001
ACAD
1000
AcDbSavedByObjectVersion
1070
     0
  0
VISUALSTYLE
  5
FA
102
{ACAD_XDICTIONARY
360
1B8D6
102
}
102
{ACAD_REACTORS
330
EF
102
}
330
EF
100
AcDbVisualStyle
  2
Dim
 70
    11
 71
     2
 72
     2
 73
     1
 90
        0
 40
-0.6
 41
-30.0
 62
     5
 63
     7
 74
     1
 91
        4
 64
     7
 65
   257
 75
     1
175
     1
 42
1.0
 92
        8
 66
     7
 43
1.0
 76
     1
 77
     6
 78
     2
 67
     7
 79
     5
170
     0
171
     0
290
     0
174
     0
 93
        1
 44
-50.0
173
     0
291
     1
 45
0.0
1001
ACAD
1000
AcDbSavedByObjectVersion
1070
     0
  0
VISUALSTYLE
  5
1E6
102
{ACAD_XDICTIONARY
360
1B8E8
102
}
102
{ACAD_REACTORS
330
EF
102
}
330
EF
100
AcDbVisualStyle
  2
EdgeColorOff
 70
    22
 71
     2
 72
     2
 73
     0
 90
        0
 40
-0.6
 41
-30.0
 62
     5
 63
     7
 74
     1
 91
        4
 64
     7
 65
   257
 75
     1
175
     1
 42
1.0
 92
        8
 66
     7
 43
1.0
 76
     1
 77
     6
 78
     2
 67
     7
 79
     5
170
     0
171
     0
290
     0
174
     0
 93
        1
 44
0.0
173
     0
291
     1
 45
0.0
1001
ACAD
1000
AcDbSavedByObjectVersion
1070
     0
  0
VISUALSTYLE
  5
FE
102
{ACAD_XDICTIONARY
360
1B8DE
102
}
102
{ACAD_REACTORS
330
EF
102
}
330
EF
100
AcDbVisualStyle
  2
Facepattern
 70
    15
 71
     2
 72
     2
 73
     1
 90
        0
 40
-0.6
 41
-30.0
 62
     5
 63
     7
 74
     1
 91
        4
 64
     7
 65
   257
 75
     1
175
     1
 42
1.0
 92
        8
 66
     7
 43
1.0
 76
     1
 77
     6
 78
     2
 67
     7
 79
     5
170
     0
171
     0
290
     0
174
     0
 93
        1
 44
0.0
173
     0
291
     1
 45
0.0
1001
ACAD
1000
AcDbSavedByObjectVersion
1070
     0
  0
VISUALSTYLE
  5
F0
102
{ACAD_XDICTIONARY
360
1B8C2
102
}
102
{ACAD_REACTORS
330
EF
102
}
330
EF
100
AcDbVisualStyle
  2
Flat
 70
     0
 71
     2
 72
     1
 73
     1
 90
        2
 40
-0.6
 41
30.0
 62
     5
 63
     7
 74
     0
 91
        0
 64
     7
 65
   257
 75
     1
175
     1
 42
1.0
 92
        8
 66
     7
 43
1.0
 76
     1
 77
     6
 78
     2
 67
     7
 79
     5
170
     0
171
     0
290
     0
174
     0
 93
       13
 44
0.0
173
     0
291
     1
 45
0.0
1001
ACAD
1000
AcDbSavedByObjectVersion
1070
     0
  0
VISUALSTYLE
  5
F1
102
{ACAD_XDICTIONARY
360
1B8C4
102
}
102
{ACAD_REACTORS
330
EF
102
}
330
EF
100
AcDbVisualStyle
  2
FlatWithEdges
 70
     1
 71
     2
 72
     1
 73
     1
 90
        2
 40
-0.6
 41
30.0
 62
     5
 63
     7
 74
     1
 91
        0
 64
     7
 65
   257
 75
     1
175
     1
 42
1.0
 92
        0
 66
   257
 43
1.0
 76
     1
 77
     6
 78
     2
 67
     7
 79
     5
170
     0
171
     0
290
     0
174
     0
 93
       13
 44
0.0
173
     0
291
     1
 45
0.0
1001
ACAD
1000
AcDbSavedByObjectVersion
1070
     0
  0
VISUALSTYLE
  5
F2
102
{ACAD_XDICTIONARY
360
1B8C6
102
}
102
{ACAD_REACTORS
330
EF
102
}
330
EF
100
AcDbVisualStyle
  2
Gouraud
 70
     2
 71
     2
 72
     2
 73
     1
 90
        2
 40
-0.6
 41
30.0
 62
     5
 63
     7
 74
     0
 91
        0
 64
     7
 65
   257
 75
     1
175
     1
 42
1.0
 92
        0
 66
     7
 43
1.0
 76
     1
 77
     6
 78
     2
 67
     7
 79
     5
170
     0
171
     0
290
     0
174
     0
 93
       13
 44
0.0
173
     0
291
     1
 45
0.0
1001
ACAD
1000
AcDbSavedByObjectVersion
1070
     0
  0
VISUALSTYLE
  5
F3
102
{ACAD_XDICTIONARY
360
1B8C8
102
}
102
{ACAD_REACTORS
330
EF
102
}
330
EF
100
AcDbVisualStyle
  2
GouraudWithEdges
 70
     3
 71
     2
 72
     2
 73
     1
 90
        2
 40
-0.6
 41
30.0
 62
     5
 63
     7
 74
     1
 91
        0
 64
     7
 65
   257
 75
     1
175
     1
 42
1.0
 92
        0
 66
   257
 43
1.0
 76
     1
 77
     6
 78
     2
 67
     7
 79
     5
170
     0
171
     0
290
     0
174
     0
 93
       13
 44
0.0
173
     0
291
     1
 45
0.0
1001
ACAD
1000
AcDbSavedByObjectVersion
1070
     0
  0
VISUALSTYLE
  5
F7
102
{ACAD_XDICTIONARY
360
1B8D0
102
}
102
{ACAD_REACTORS
330
EF
102
}
330
EF
100
AcDbVisualStyle
  2
Hidden
 70
     6
 71
     1
 72
     2
 73
     2
 90
        0
 40
-0.6
 41
-30.0
 62
     5
 63
     7
 74
     2
 91
        2
 64
     7
 65
   257
 75
     2
175
     1
 42
40.0
 92
        0
 66
   257
 43
1.0
 76
     1
 77
     6
 78
     2
 67
     7
 79
     3
170
     0
171
     0
290
     0
174
     0
 93
        1
 44
0.0
173
     0
291
     0
 45
0.0
1001
ACAD
1000
AcDbSavedByObjectVersion
1070
     0
  0
VISUALSTYLE
  5
1E4
102
{ACAD_XDICTIONARY
360
1B8E4
102
}
102
{ACAD_REACTORS
330
EF
102
}
330
EF
100
AcDbVisualStyle
  2
JitterOff
 70
    20
 71
     2
 72
     2
 73
     0
 90
        0
 40
-0.6
 41
-30.0
 62
     5
 63
     7
 74
     1
 91
        4
 64
     7
 65
   257
 75
     1
175
     1
 42
1.0
 92
       10
 66
     7
 43
1.0
 76
     1
 77
     6
 78
     2
 67
     7
 79
     5
170
     0
171
     0
290
     0
174
     0
 93
        1
 44
0.0
173
     0
291
     1
 45
0.0
1001
ACAD
1000
AcDbSavedByObjectVersion
1070
     0
  0
VISUALSTYLE
  5
FD
102
{ACAD_XDICTIONARY
360
1B8DC
102
}
102
{ACAD_REACTORS
330
EF
102
}
330
EF
100
AcDbVisualStyle
  2
Linepattern
 70
    14
 71
     2
 72
     2
 73
     1
 90
        0
 40
-0.6
 41
-30.0
 62
     5
 63
     7
 74
     1
 91
        4
 64
     7
 65
   257
 75
     7
175
     7
 42
1.0
 92
        8
 66
     7
 43
1.0
 76
     1
 77
     6
 78
     2
 67
     7
 79
     5
170
     0
171
     0
290
     0
174
     0
 93
        1
 44
0.0
173
     0
291
     1
 45
0.0
1001
ACAD
1000
AcDbSavedByObjectVersion
1070
     0
  0
VISUALSTYLE
  5
1E5
102
{ACAD_XDICTIONARY
360
1B8E6
102
}
102
{ACAD_REACTORS
330
EF
102
}
330
EF
100
AcDbVisualStyle
  2
OverhangOff
 70
    21
 71
     2
 72
     2
 73
     0
 90
        0
 40
-0.6
 41
-30.0
 62
     5
 63
     7
 74
     1
 91
        4
 64
     7
 65
   257
 75
     1
175
     1
 42
1.0
 92
        9
 66
     7
 43
1.0
 76
     1
 77
     6
 78
     2
 67
     7
 79
     5
170
     0
171
     0
290
     0
174
     0
 93
        1
 44
0.0
173
     0
291
     1
 45
0.0
1001
ACAD
1000
AcDbSavedByObjectVersion
1070
     0
  0
VISUALSTYLE
  5
F9
102
{ACAD_XDICTIONARY
360
1B8D4
102
}
102
{ACAD_REACTORS
330
EF
102
}
330
EF
100
AcDbVisualStyle
  2
Realistic
 70
     8
 71
     2
 72
     2
 73
     0
 90
        2
 40
-0.6
 41
30.0
 62
     5
 63
     7
 74
     0
 91
        0
 64
     7
 65
   257
 75
     1
175
     1
 42
1.0
 92
        8
 66
   257
 43
1.0
 76
     1
 77
     6
 78
     2
 67
     7
 79
     3
170
     0
171
     0
290
     0
174
     0
 93
       13
 44
0.0
173
     0
291
     0
 45
0.0
1001
ACAD
1000
AcDbSavedByObjectVersion
1070
     0
  0
VISUALSTYLE
  5
1F3
102
{ACAD_XDICTIONARY
360
1B8F2
102
}
102
{ACAD_REACTORS
330
EF
102
}
330
EF
100
AcDbVisualStyle
  2
Shaded
 70
    27
 71
     2
 72
     2
 73
     1
 90
        2
 40
-0.6
 41
30.0
 62
     5
 63
     7
 74
     0
 91
        4
 64
     7
 65
   257
 75
     1
175
     1
 42
1.0
 92
        8
 66
   257
 43
1.0
 76
     1
 77
     6
 78
     2
 67
     8
 79
     3
170
     0
171
     0
290
     0
174
     0
 93
        5
 44
0.0
173
     0
291
     0
 45
0.0
1001
ACAD
1000
AcDbSavedByObjectVersion
1070
     0
  0
VISUALSTYLE
  5
1F2
102
{ACAD_XDICTIONARY
360
1B8F0
102
}
102
{ACAD_REACTORS
330
EF
102
}
330
EF
100
AcDbVisualStyle
  2
Shaded with edges
 70
    26
 71
     2
 72
     2
 73
     1
 90
        2
 40
-0.6
 41
30.0
 62
     5
 63
     7
 74
     1
 91
        2
 64
     7
 65
   257
 75
     2
175
     1
 42
1.0
 92
        8
 66
   257
 43
1.0
 76
     1
 77
     6
 78
     2
 67
     7
 79
     3
170
     0
171
     0
290
     0
174
     0
 93
        5
 44
0.0
173
     0
291
     0
 45
0.0
1001
ACAD
1000
AcDbSavedByObjectVersion
1070
     0
  0
VISUALSTYLE
  5
1EF
102
{ACAD_XDICTIONARY
360
1B8EA
102
}
102
{ACAD_REACTORS
330
EF
102
}
330
EF
100
AcDbVisualStyle
  2
Shades of Gray
 70
    23
 71
     2
 72
     2
 73
     3
 90
        0
 40
-0.6
 41
-30.0
 62
     5
 63
     7
 74
     2
 91
        2
 64
     7
 65
     7
 75
     1
175
     1
 42
40.0
 92
        8
 66
     7
 43
1.0
 76
     1
 77
     6
 78
     2
 67
     7
 79
     3
170
     0
171
     0
290
     0
174
     0
 93
        1
 44
0.0
173
     0
291
     0
 45
0.0
1001
ACAD
1000
AcDbSavedByObjectVersion
1070
     0
  0
VISUALSTYLE
  5
1F0
102
{ACAD_XDICTIONARY
360
1B8EC
102
}
102
{ACAD_REACTORS
330
EF
102
}
330
EF
100
AcDbVisualStyle
  2
Sketchy
 70
    24
 71
     1
 72
     2
 73
     2
 90
        0
 40
-0.6
 41
-30.0
 62
     5
 63
     7
 74
     2
 91
        2
 64
     7
 65
     7
 75
     1
175
     1
 42
40.0
 92
       11
 66
     7
 43
1.0
 76
     1
 77
     6
 78
     2
 67
     7
 79
     6
170
     0
171
     0
290
     0
174
     0
 93
        1
 44
0.0
173
     0
291
     0
 45
0.0
1001
ACAD
1000
AcDbSavedByObjectVersion
1070
     0
  0
VISUALSTYLE
  5
FC
102
{ACAD_XDICTIONARY
360
1B8DA
102
}
102
{ACAD_REACTORS
330
EF
102
}
330
EF
100
AcDbVisualStyle
  2
Thicken
 70
    13
 71
     2
 72
     2
 73
     1
 90
        0
 40
-0.6
 41
-30.0
 62
     5
 63
     7
 74
     1
 91
        4
 64
     7
 65
   257
 75
     1
175
     1
 42
1.0
 92
       12
 66
     7
 43
1.0
 76
     1
 77
     6
 78
     2
 67
     7
 79
     5
170
     0
171
     0
290
     0
174
     0
 93
        1
 44
0.0
173
     0
291
     1
 45
0.0
1001
ACAD
1000
AcDbSavedByObjectVersion
1070
     0
  0
VISUALSTYLE
  5
F6
102
{ACAD_XDICTIONARY
360
1B8CE
102
}
102
{ACAD_REACTORS
330
EF
102
}
330
EF
100
AcDbVisualStyle
  2
Wireframe
 70
     5
 71
     0
 72
     2
 73
     0
 90
        0
 40
-0.6
 41
-30.0
 62
     5
 63
     7
 74
     1
 91
        4
 64
     7
 65
   257
 75
     1
175
     1
 42
1.0
 92
        0
 66
   257
 43
1.0
 76
     1
 77
     6
 78
     2
 67
     7
 79
     3
170
     0
171
     0
290
     0
174
     0
 93
        1
 44
0.0
173
     0
291
     0
 45
0.0
1001
ACAD
1000
AcDbSavedByObjectVersion
1070
     0
  0
VISUALSTYLE
  5
1F1
102
{ACAD_XDICTIONARY
360
1B8EE
102
}
102
{ACAD_REACTORS
330
EF
102
}
330
EF
100
AcDbVisualStyle
  2
X-Ray
 70
    25
 71
     2
 72
     2
 73
     1
 90
        1
 40
0.5
 41
-30.0
 62
     5
 63
     7
 74
     1
 91
        0
 64
     7
 65
   257
 75
     1
175
     1
 42
1.0
 92
        8
 66
     7
 43
1.0
 76
     1
 77
     6
 78
     2
 67
     7
 79
     3
170
     0
171
     0
290
     0
174
     0
 93
       13
 44
0.0
173
     0
291
     0
 45
0.0
1001
ACAD
1000
AcDbSavedByObjectVersion
1070
     0
  0
DICTIONARYVAR
  5
146
102
{ACAD_REACTORS
330
5E
102
}
330
5E
100
DictionaryVariables
280
     0
  1
1:1
  0
DICTIONARYVAR
  5
259
102
{ACAD_REACTORS
330
5E
102
}
330
5E
100
DictionaryVariables
280
     0
  1
3.500000
  0
DICTIONARYVAR
  5
25A
102
{ACAD_REACTORS
330
5E
102
}
330
5E
100
DictionaryVariables
280
     0
  1
acadiso.lin
  0
DICTIONARYVAR
  5
145
102
{ACAD_REACTORS
330
5E
102
}
330
5E
100
DictionaryVariables
280
     0
  1
STANDARD
  0
DICTIONARYVAR
  5
84
102
{ACAD_REACTORS
330
5E
102
}
330
5E
100
DictionaryVariables
280
     0
  1
STANDARD
  0
DICTIONARYVAR
  5
227
102
{ACAD_REACTORS
330
5E
102
}
330
5E
100
DictionaryVariables
280
     0
  1
Metric50
  0
DICTIONARYVAR
  5
228
102
{ACAD_REACTORS
330
5E
102
}
330
5E
100
DictionaryVariables
280
     0
  1
Metric50
  0
DICTIONARYVAR
  5
5F
102
{ACAD_REACTORS
330
5E
102
}
330
5E
100
DictionaryVariables
280
     0
  1
2
  0
DICTIONARYVAR
  5
63
102
{ACAD_REACTORS
330
5E
102
}
330
5E
100
DictionaryVariables
280
     0
  1
1
  0
DICTIONARYVAR
  5
1B863
102
{ACAD_REACTORS
330
5E
102
}
330
5E
100
DictionaryVariables
280
     0
  1
0
  0
DICTIONARYVAR
  5
1AE
102
{ACAD_REACTORS
330
5E
102
}
330
5E
100
DictionaryVariables
280
     0
  1
0
  0
DICTIONARYVAR
  5
1AF
102
{ACAD_REACTORS
330
5E
102
}
330
5E
100
DictionaryVariables
280
     0
  1
0
  0
DICTIONARYVAR
  5
1B861
102
{ACAD_REACTORS
330
5E
102
}
330
5E
100
DictionaryVariables
280
     0
  1
2
  0
DICTIONARYVAR
  5
1B860
102
{ACAD_REACTORS
330
5E
102
}
330
5E
100
DictionaryVariables
280
     0
  1
1
  0
DICTIONARYVAR
  5
1B8B3
102
{ACAD_REACTORS
330
5E
102
}
330
5E
100
DictionaryVariables
280
     0
  1
80.000000
  0
DICTIONARYVAR
  5
1B8B2
102
{ACAD_REACTORS
330
5E
102
}
330
5E
100
DictionaryVariables
280
     0
  1
5.000000
  0
DICTIONARYVAR
  5
1B862
102
{ACAD_REACTORS
330
5E
102
}
330
5E
100
DictionaryVariables
280
     0
  1
127
  0
DICTIONARYVAR
  5
1B8B4
102
{ACAD_REACTORS
330
5E
102
}
330
5E
100
DictionaryVariables
280
     0
  1
2
  0
DICTIONARY
  5
1B8F6
330
21C
100
AcDbDictionary
280
     1
281
     1
  3
ACAD_XREC_ROUNDTRIP
360
1B8F7
  0
DICTIONARY
  5
1B8BB
330
D3
100
AcDbDictionary
280
     1
281
     1
  3
ACAD_XREC_ROUNDTRIP
360
1B8BC
  0
DICTIONARY
  5
1B8BD
330
D7
100
AcDbDictionary
280
     1
281
     1
  3
ACAD_XREC_ROUNDTRIP
360
1B8BE
  0
DICTIONARY
  5
1B8B8
330
22
100
AcDbDictionary
280
     1
281
     1
  3
ACAD_XREC_ROUNDTRIP
360
1B8B9
  0
DICTIONARY
  5
1F9
330
ED
100
AcDbDictionary
280
     1
281
     1
  3
ACAD_XREC_ROUNDTRIP
360
1B8C0
  3
FBXASSET
360
1FA
  0
DICTIONARY
  5
1F7
330
EC
100
AcDbDictionary
280
     1
281
     1
  3
ACAD_XREC_ROUNDTRIP
360
1B8BF
  3
FBXASSET
360
1F8
  0
DICTIONARY
  5
173
330
EE
100
AcDbDictionary
280
     1
281
     1
  3
ACAD_XREC_ROUNDTRIP
360
1B8C1
  3
BUMPTILE
360
175
  3
DIFFUSETILE
360
174
  3
FBXASSET
360
1FB
  3
OPACITYTILE
360
176
  3
REFLECTIONTILE
360
177
  0
DICTIONARY
  5
1B8E2
330
12E
100
AcDbDictionary
280
     1
281
     1
  3
ACAD_XREC_ROUNDTRIP
360
1B8E3
  0
DICTIONARY
  5
1B8F4
330
21A
100
AcDbDictionary
280
     1
281
     1
  3
ACAD_XREC_ROUNDTRIP
360
1B8F5
  0
DICTIONARY
  5
162
330
7F
100
AcDbDictionary
280
     1
281
     1
  3
ACAD_ROUNDTRIP_2008_TABLESTYLE_CELLSTYLEMAP
360
1B8B5
  3
ACAD_XREC_ROUNDTRIP
360
1B8BA
  0
DICTIONARY
  5
1B8CC
330
F5
100
AcDbDictionary
280
     1
281
     1
  3
ACAD_XREC_ROUNDTRIP
360
1B8CD
  0
DICTIONARY
  5
1B8CA
330
F4
100
AcDbDictionary
280
     1
281
     1
  3
ACAD_XREC_ROUNDTRIP
360
1B8CB
  0
DICTIONARY
  5
1B8D8
330
FB
100
AcDbDictionary
280
     1
281
     1
  3
ACAD_XREC_ROUNDTRIP
360
1B8D9
  0
DICTIONARY
  5
1B8E0
330
FF
100
AcDbDictionary
280
     1
281
     1
  3
ACAD_XREC_ROUNDTRIP
360
1B8E1
  0
DICTIONARY
  5
1B8D2
330
F8
100
AcDbDictionary
280
     1
281
     1
  3
ACAD_XREC_ROUNDTRIP
360
1B8D3
  0
DICTIONARY
  5
1B8D6
330
FA
100
AcDbDictionary
280
     1
281
     1
  3
ACAD_XREC_ROUNDTRIP
360
1B8D7
  0
DICTIONARY
  5
1B8E8
330
1E6
100
AcDbDictionary
280
     1
281
     1
  3
ACAD_XREC_ROUNDTRIP
360
1B8E9
  0
DICTIONARY
  5
1B8DE
330
FE
100
AcDbDictionary
280
     1
281
     1
  3
ACAD_XREC_ROUNDTRIP
360
1B8DF
  0
DICTIONARY
  5
1B8C2
330
F0
100
AcDbDictionary
280
     1
281
     1
  3
ACAD_XREC_ROUNDTRIP
360
1B8C3
  0
DICTIONARY
  5
1B8C4
330
F1
100
AcDbDictionary
280
     1
281
     1
  3
ACAD_XREC_ROUNDTRIP
360
1B8C5
  0
DICTIONARY
  5
1B8C6
330
F2
100
AcDbDictionary
280
     1
281
     1
  3
ACAD_XREC_ROUNDTRIP
360
1B8C7
  0
DICTIONARY
  5
1B8C8
330
F3
100
AcDbDictionary
280
     1
281
     1
  3
ACAD_XREC_ROUNDTRIP
360
1B8C9
  0
DICTIONARY
  5
1B8D0
330
F7
100
AcDbDictionary
280
     1
281
     1
  3
ACAD_XREC_ROUNDTRIP
360
1B8D1
  0
DICTIONARY
  5
1B8E4
330
1E4
100
AcDbDictionary
280
     1
281
     1
  3
ACAD_XREC_ROUNDTRIP
360
1B8E5
  0
DICTIONARY
  5
1B8DC
330
FD
100
AcDbDictionary
280
     1
281
     1
  3
ACAD_XREC_ROUNDTRIP
360
1B8DD
  0
DICTIONARY
  5
1B8E6
330
1E5
100
AcDbDictionary
280
     1
281
     1
  3
ACAD_XREC_ROUNDTRIP
360
1B8E7
  0
DICTIONARY
  5
1B8D4
330
F9
100
AcDbDictionary
280
     1
281
     1
  3
ACAD_XREC_ROUNDTRIP
360
1B8D5
  0
DICTIONARY
  5
1B8F2
330
1F3
100
AcDbDictionary
280
     1
281
     1
  3
ACAD_XREC_ROUNDTRIP
360
1B8F3
  0
DICTIONARY
  5
1B8F0
330
1F2
100
AcDbDictionary
280
     1
281
     1
  3
ACAD_XREC_ROUNDTRIP
360
1B8F1
  0
DICTIONARY
  5
1B8EA
330
1EF
100
AcDbDictionary
280
     1
281
     1
  3
ACAD_XREC_ROUNDTRIP
360
1B8EB
  0
DICTIONARY
  5
1B8EC
330
1F0
100
AcDbDictionary
280
     1
281
     1
  3
ACAD_XREC_ROUNDTRIP
360
1B8ED
  0
DICTIONARY
  5
1B8DA
330
FC
100
AcDbDictionary
280
     1
281
     1
  3
ACAD_XREC_ROUNDTRIP
360
1B8DB
  0
DICTIONARY
  5
1B8CE
330
F6
100
AcDbDictionary
280
     1
281
     1
  3
ACAD_XREC_ROUNDTRIP
360
1B8CF
  0
DICTIONARY
  5
1B8EE
330
1F1
100
AcDbDictionary
280
     1
281
     1
  3
ACAD_XREC_ROUNDTRIP
360
1B8EF
  0
XRECORD
  5
1B8F7
102
{ACAD_REACTORS
330
1B8F6
102
}
330
1B8F6
100
AcDbXrecord
280
     1
102
DISPLAYNAME
  1
Metric50
102
FLAGS
 90
        0
  0
XRECORD
  5
1B8BC
102
{ACAD_REACTORS
330
1B8BB
102
}
330
1B8BB
100
AcDbXrecord
280
     1
102
SHADEPLOT
 70
     0
102
SHADEPLOTRESLEVEL
 70
     2
102
SHADEPLOTCUSTOMDPI
 70
   300
  0
XRECORD
  5
1B8BE
102
{ACAD_REACTORS
330
1B8BD
102
}
330
1B8BD
100
AcDbXrecord
280
     1
102
SHADEPLOT
 70
     0
102
SHADEPLOTRESLEVEL
 70
     2
102
SHADEPLOTCUSTOMDPI
 70
   300
  0
XRECORD
  5
1B8B9
102
{ACAD_REACTORS
330
1B8B8
102
}
330
1B8B8
100
AcDbXrecord
280
     1
102
SHADEPLOT
 70
     0
102
SHADEPLOTRESLEVEL
 70
     2
102
SHADEPLOTCUSTOMDPI
 70
   300
  0
XRECORD
  5
1B8C0
102
{ACAD_REACTORS
330
1F9
102
}
330
1F9
100
AcDbXrecord
280
     1
102
MATERIAL
148
0.0
149
0.0
149
0.0
 93
        0
 94
       63
282
     0
 72
     1
 77
     1
171
     1
175
     1
179
     1
273
     0
  0
XRECORD
  5
1FA
102
{ACAD_REACTORS
330
1F9
102
}
330
1F9
100
AcDbXrecord
280
     1
 70
     1
 90
429727718
  1
D62C5603-E3A1-4AEA-B7FB-FE5D8D0755AF
310
504B03040A0000080000CC70623B3DEE336E79000000790000001B0000006175746F6465736B2D64657369676E2D7061636B6167652E786D6C3C3F786D6C2076657273696F6E3D22312E302220656E636F64696E673D227574662D3822203F3E3C666F726D6174733E3C666F726D61743E687474703A2F2F736368656D612E
310
6175746F6465736B2E636F6D2F64657369676E2D7061636B6167652F323030393C2F666F726D61743E3C2F666F726D6174733E504B0304140006080800CC70623BD486FD9CA0000000F4000000130000005B436F6E74656E745F54797065735D2E786D6C7D8EC10E82300C865F65E91D8A1E8C310C0EEA1BF002731658846E
310
D98AC1B77784ABF1D8FE5FBFBF75BBCE937A534CCEB38643598122B6FEE978D0B0485F9C41B54DDD7D022595594E1A469170414C76A4D9A4D207E29CF43ECE46F218070CC6BECC4078ACAA135ACF422C856C0E68EA1BF5669944DDD7BCDE7B1F8E415D77AECB980613C2E4AC91FC167A2B244592486606FC29C8FD7F045B9A
310
EF7053A7E60B504B0304140006080800CC70623B853B8169EB0000007C01000008000000636F72652E786D6C8D90416EC3201045AF62CDB6C206821CC7C244919D9CA01740401C94182C03558F5F9C3852BBEB6A467FFE9B197D7EFC9E1EC5975982F5AE035262288C535E5B377690E21535501C055FBC8FBF6C503839990E
310
5619041F179FE64D52DE45E362569DD7661365082642A11EB9E920A89B99642953CC8E702F67A9EE7234257977194EC9EAE275C4EABCCF5EAD5940D4AC6F0E35A568B8F43562CD7046CD199FD07E60174276A7BE677B5EADB0E0D14EEFFB6A31321A0D82627C4084204C3F096B71DD52F6819B16635EADF63F509AF53FA164
310
5DDCD1EDDD17164090FCC8732078B56691CB33A85CD7DCC40F504B0304140006080800CC70623B55019EA25F0000007C00000007000000636E782E786D6C4DCB3B0E80201045D1AD90E915ED2CF8AC45050C11660C8261F98AB1B07AC9C97D42D718D865D3E909258CFD00CCE24AC6E326A164D74DC0B4128928FF32603847
310
2BA13128B1252AC747C6BAB984FC68F0B87FE8960A5C09FE86CFB69FBA01504B0304140006080800CC70623BDBABAAF470010000D40300000C0000006662782F636F72652E786D6CC553D16E823014FD95A6AF4B694182CC941A83FA05FB810A9511A125A5257EFE2E82712ECEB8A7F100CD39F7F69E734AF9FADC366850B6
310
AF8DCE7018308C942E4C59EB2AC3DE1D498AD15A706B8CFB56869196ADCAF00863C12B6B7C374385D14E6907A836A59A41D9F7CA615434B0C8705F7CAA5606D23BA8E84F41278B93AC54100640439DE0BDB320004D43C63716C7C399D30917DCFBBA9CD9BA8469F5B156168B24CED3F7248AC8769F27244EB73B92EED8862C
310
B7F13E0C179B3C8F979C8ECD82BBBABDAA2BAC924E9558448CBD9330242CFA08E3154B5651FCC6D215639C8EE5774DBE2B5F6CF2B5768B68963BB5F5588420E442FC700B1139D4CB01F450C1E918227C2E09DF070D8140C84E1E9AAB8F1340832A9CB13130A5F1376A908D57309505ECF2A0DF179C4E9D30F5B239B87E3823
310
7A79C6F31DE1A8A5AEC08474B03C7837EAE4938639B44E5932B833D2C6B6B279CDC613877FA26EE21F4A2A4C63EC7F29A2F301D1F9F7A0E37D145F504B0304140006080800CC70623B9C113CC27E0000009D0000000B0000006662782F636E782E786D6C4DCCDF0A83201C86E15B91DFB94BFB330DD428C8FB886521330DA7
310
6397BF1A1DECE883878F57749FCDA1B7892F1BBC047A23808C7F84D9FA55424E0BE6803A256208E9EF06C84F9B91703228B1C690F78B66B34CD9A5439DF5CF0BFBF65E35BCA1B8D6A5C6F540381E886698B5741C695F9503EBA150A2F8958E3DC3EA0B504B0304140006080800CC70623B7DF2F77C2A010000120200003100
310
00006662782F41393633353835312D344632462D344230382D423046372D3739314545314133324237412F636F72652E786D6C8D51DB8EC22014FC15C2939B0D2DB4B45643319AE817EC0F6041255A68B86CFCFC856D4D76DF7CE190393373060EDB3DC707F856CE6B6B7A480A0C81328395DA5C7B18C3057510EC3873D686
310
3F34088C18550F330C39BB3A1BA7051AAC09CA84841A2BD5020AEF55806078A44B0FFD7053A328440C89E1EFC52486BBB8AA8214A99D789CF9E05200300FC927E4FB4D5B375D43103D5527440FB843077C5AA3F5861C8F645F5787F59E95B390B318B55CE45AA638FAA2957BD7248B390B7A7CC51F9C124149C82B8C378810
310
84AB2F42B7B8DD56F413775B8C5999E9FF4471926F8AA236A1AE96B8B3CC434E5839373893369E1FAF30EA395917409EB7F26AF8801C171837A4A6AC9C89E9F9C9B1A58BA30FD6A5EF5DDDCF894B9AD9B6A59C957943A9FCAE2FD5BC4DFE03504B0304140006080800CC70623BAD7543B64E01000033030000300000006662
310
782F41393633353835312D344632462D344230382D423046372D3739314545314133324237412F636E782E786D6CD593CD6EC32010845F0571AD6CE3D48AD20813A9873E410FBD12D82434182C7EAAE6EDBB2424CD25871E7B41D6EC30B3FA84F9E67BB2E40B4234DE8DB46F1925E094D7C6ED479AD3AE5951B2113C789FEE
310
6C943839C1488B4C05DF079FE72A69D8C96C13AAD6B8631503449F83828872B949AC57D26200B826A308D316B4064D6E46FCDA41C05550DC9E483A00797BFD207EFB092A45DE9514C1BBD22178396BD39D891265658C238DEA00936C654E5E433CB65A26D9F6EDB5EBC14EBF49A45CB856E66048291F6939A9A81BB5C89177
310
38143CA680F4AA299D66A042CEB3354A2684DC9D8D178FE0D9B8B41CAAD720F880EE7EF93C0C18769E099ECC04D5A102C8049A8A05632F4DDF376CF1DE0F6BB65C2F8627B65A33C6BB62177CEBBDAD973006829F89F22E814B54F4BC2BE347F8AA8F681390B50FA73F804400B5F542E796F19FF974E7F78DB802FE05E20750
310
4B0304140006080800CC70623BE75B7789680500003C100000340000006662782F41393633353835312D344632462D344230382D423046372D3739314545314133324237412F6F626A656374732E786D6CAD575B8F9B3818FD2B887D06C22499CB8AA1CA655245D5B455A356FB305264C061D8018C6C3393D95FBFC7600890
310
A4CD5EF210B0B1BFEBF98E3F7B1FF6596ABC522E1296DF9BAE3D320D9A872C4AF2F8DE2CE5CEBA358D0FBEC719939D65A691938CDE9B6ADAF4BD98B3B2D05311DD91329583D9D5FC0F438434A7A611A644887B5384CF34233629258BA878B12322891DEFF6B66BD70BFB62634E8AE781D082709A4B588AF91C528CDA28B73F
310
1C998EEF39EABBEFA97FBD6A7C7E9553F9D3D79FE442923C3C523610337627CB87ABE99D359D4CC6D6E4FACAB5E6ABF9D2726FC6A3C5F56271377BB88362213924694B38DD99FE47C48627A1E7D49F5A8BB5E1A74C0A599ED3B0F21F1E56366B89112D681E218F0915D0D6F17AD41FBA2A369DCF6335D62ABBD39779D5DDD1
310
11D4D8DE3CBB96B2E04FB8202E41051754A1AA8E8F76B4C6DFE810B580B1547F4B84911149794252234D024EF8BBE963A95AE27B3D310A9D5C215C7960FAEE415ED75694C6AFB17BCACA5D99A60A9AA65F217B0BFC53292ACB92BF283FAD0D3621576592CB5BED907C2FA8E9DF794E35E97BEA31BED21FEB401ABB94C44839
310
DCACBF0E1C5DA8DA5B2F4DFFD32AD86F543D9E565E7056502E157C00AD2671CD534549AB752FCA9CDA00677A313F04E51B22FF19E57B300579E3C97EB29F682D92935CEC18CF901B7B54FD8C51F362B56FC72FE0B3C1EAE335EDCCBF5AEC39ADB17DC238973F804BA5E6F6BFE7AF1FB32E523BE9F3BD571418E3631DCA4D48
310
5250CF639223210A9446CA30052EDF057BD35F8329C1ECD84552BF0DC8D18BE7BCE23BFE6BD960AB4A7DE79923A103BEBD80F911CBAA2C60DB19B01CF164A5583B772EE6D3FFA56666CBCDA74DC97724A48F9A58967497E489C4D979006FD7A05E227A1EBDD0F737C623387A9C844D3709995625106D157315F8B8392CD4E0
310
A0B9A720C4BE9829CEF37EA1E13111214D53925356365ADA634861B52519DD27A00AEB808EAF0628E6F435519D446F45CF2C9CF5214F0A15B2F6D06B79DA3EE3CBF7F56780D2F4E7EF73A0F5E5B02A38D07DC852C6B7C1FBB6664213E0C39E3EBA7FF4E1AD23EA2829407C85E586727488B751B2DB9502BC7B228A3FD68B6E
310
A65A22397E690AA8D158D7E404EC8CDA235CC3B7D1898680131CEC2CDF2638C65196279577750F15884AEE19F94199155B92B13297978469D4F8D358DF0AEF7631E28DC8F0D9F437D5D39A83B2231A1D52D543813A824EF8D44BCFF2FA6A31BD1E8DAD87F1CCB526B3879935BF59CDADD5C37479BB1CDD4CA7B3556B516589
310
EF352754B706114D9C885EC9131DE6EFEB43D99AFE2391C2F958179413D7CFEF6B1B6DB1E7600F00DE6E5C67454A339A4BA2E0FBA85ED26F045D454F463DBFCE484C2F90F2E5E3666003662ED8F755951A7D1BECD5B30B550B2785C8E7320B7292A4838DDA71BBC863ED7613CAF659337A3354231D4FF4A182A54904C2898C
310
98B28C4AD0CE056CCF332A80986E571EE9DBC305BB5FEB7E509220A58D25CF042D712A806AC0AD0C657FDEF80D2D9CEAA2EE4D1C76F60BFE74219A06527D6F82DF6412526107381E55E353090704D085B52408A8913C4ED159D79BDA71BB4BC506F4831350EB6F975CD22D69BF7AC49B91A2C0A9DDA3D5CA36AD20FC478E37
310
E61844E2352865EBCB61A275A65283CAAA9DD27703B4102F5AF51EF5F573B75CBB5AD38BC845F7A49F82A0966A49C2E3EA5EA0ECD326CD965F1DB402C6FA8B51A4658C5C5E2EC9E214602E55810345408596591009A82E7E7FFACA19EEA299B14A0081A705CB3296EBC14CDF658DCD336EA6D1136881AAEB87B81AB9EE53D5
310
F5EB8BC8362082DA24122F98680A4E7930C01A0079749CEA14382A0783E5EBA5A10F8C098456A03D6A4AEB6BB881E2513747552A5DB22C7EDAF83BD5528081A365F7FF06504B0304140006080000CC70623B000000000000000000000000350000006662782F41393633353835312D344632462D344230382D423046372D37
310
39314545314133324237412F76657274696365732E62696E504B0304140006080800CC70623BF270F1330600000004000000360000006662782F41393633353835312D344632462D344230382D423046372D3739314545314133324237412F747269616E676C65732E62696E636660600000504B0304140006080000CC7062
310
3B000000000000000000000000370000006662782F41393633353835312D344632462D344230382D423046372D3739314545314133324237412F617474726962757465732E62696E504B0304140006080800CC70623B08DA0BD19000000041010000360000006662782F41393633353835312D344632462D344230382D4230
310
46372D3739314545314133324237412F6469726563746F72792E786D6C858F410AC3201045AF22B36F53E9A60B35CBEEBAE80D244E44489C6234F4F835464A48035D0DF398FF9F8AF63D0E6CC63039F212F8F9020C7D47C6792B21C5FE7403D62A1188E2E60C98D7234A5830286103A55745067B9D86B8A3CF9C7F90C11DE6
310
07FB144396D7B6A82D282E9A152AD114D5EF2CB866EEE831B8EEA07A7BB5A8D7D61A2BAAEB7FD5F70921FF497D00504B0304140006080800CC70623BEDD1DC58FD000000A00100003B0000006662782F41393633353835312D344632462D344230382D423046372D3739314545314133324237412F7265736F75726365732F
310
636F72652E786D6C8D504B6E833010BD0A9A6D65B00922041947112427E8052C33A156828DFCA97AFC9A40A576D7CDCCE87D344F8F9FBFE667F689CE6B6B3A6039850C8DB2A336530731DC4903D95970676DF82583CCC8193B5861107C72362E3BA4AC096842428D1D7107A5F7182053CF7474E0D507CE32973124857FE48B
310
540F3961CEF244279DE03EB81420DB9EAC1384436FA353E879B1B182C7A8C75DA3C7F453DF353A1075D537A7BA6464B8F535A99AE14A9A2BBD90E350DD183B5CFABE3AF262350B1EF4FC9351399401471025A527C218A1E53BAB5A5AB765F5469B96525EACF23FA6B88CFF34456DC2A1DCE36E360F82A5202F42F062ED2BAD
310
579969AFDD8A6F504B010214000A0000080000CC70623B3DEE336E79000000790000001B00000000000000000000000000000000006175746F6465736B2D64657369676E2D7061636B6167652E786D6C504B01021400140006080800CC70623BD486FD9CA0000000F40000001300000000000000000000000000B20000005B
310
436F6E74656E745F54797065735D2E786D6C504B01021400140006080800CC70623B853B8169EB0000007C010000080000000000000000000000000083010000636F72652E786D6C504B01021400140006080800CC70623B55019EA25F0000007C000000070000000000000000000000000094020000636E782E786D6C504B
310
01021400140006080800CC70623BDBABAAF470010000D40300000C00000000000000000000000000180300006662782F636F72652E786D6C504B01021400140006080800CC70623B9C113CC27E0000009D0000000B00000000000000000000000000B20400006662782F636E782E786D6C504B01021400140006080800CC70
310
623B7DF2F77C2A010000120200003100000000000000000000000000590500006662782F41393633353835312D344632462D344230382D423046372D3739314545314133324237412F636F72652E786D6C504B01021400140006080800CC70623BAD7543B64E010000330300003000000000000000000000000000D2060000
310
6662782F41393633353835312D344632462D344230382D423046372D3739314545314133324237412F636E782E786D6C504B01021400140006080800CC70623BE75B7789680500003C10000034000000000000000000000000006E0800006662782F41393633353835312D344632462D344230382D423046372D3739314545
310
314133324237412F6F626A656374732E786D6C504B01021400140006080000CC70623B0000000000000000000000003500000000000000000000000000280E00006662782F41393633353835312D344632462D344230382D423046372D3739314545314133324237412F76657274696365732E62696E504B01021400140006
310
080800CC70623BF270F133060000000400000036000000000000000000000000007B0E00006662782F41393633353835312D344632462D344230382D423046372D3739314545314133324237412F747269616E676C65732E62696E504B01021400140006080000CC70623B0000000000000000000000003700000000000000
310
000000000000D50E00006662782F41393633353835312D344632462D344230382D423046372D3739314545314133324237412F617474726962757465732E62696E504B01021400140006080800CC70623B08DA0BD1900000004101000036000000000000000000000000002A0F00006662782F41393633353835312D344632
310
462D344230382D423046372D3739314545314133324237412F6469726563746F72792E786D6C504B01021400140006080800CC70623BEDD1DC58FD000000A00100003B000000000000000000000000000E1000006662782F41393633353835312D344632462D344230382D423046372D3739314545314133324237412F7265
310
736F75726365732F636F72652E786D6C504B0506000000000E000E0080040000641100000000
  0
XRECORD
  5
1B8BF
102
{ACAD_REACTORS
330
1F7
102
}
330
1F7
100
AcDbXrecord
280
     1
102
MATERIAL
148
0.0
149
0.0
149
0.0
 93
        0
 94
       63
282
     0
 72
     1
 77
     1
171
     1
175
     1
179
     1
273
     0
  0
XRECORD
  5
1F8
102
{ACAD_REACTORS
330
1F7
102
}
330
1F7
100
AcDbXrecord
280
     1
 70
     1
 90
429727718
  1
30362254-06B7-45E0-A893-8CFA70E3D6BC
310
504B03040A0000080000CC70623B3DEE336E79000000790000001B0000006175746F6465736B2D64657369676E2D7061636B6167652E786D6C3C3F786D6C2076657273696F6E3D22312E302220656E636F64696E673D227574662D3822203F3E3C666F726D6174733E3C666F726D61743E687474703A2F2F736368656D612E
310
6175746F6465736B2E636F6D2F64657369676E2D7061636B6167652F323030393C2F666F726D61743E3C2F666F726D6174733E504B0304140006080800CC70623BD486FD9CA0000000F4000000130000005B436F6E74656E745F54797065735D2E786D6C7D8EC10E82300C865F65E91D8A1E8C310C0EEA1BF002731658846E
310
D98AC1B77784ABF1D8FE5FBFBF75BBCE937A534CCEB38643598122B6FEE978D0B0485F9C41B54DDD7D022595594E1A469170414C76A4D9A4D207E29CF43ECE46F218070CC6BECC4078ACAA135ACF422C856C0E68EA1BF5669944DDD7BCDE7B1F8E415D77AECB980613C2E4AC91FC167A2B244592486606FC29C8FD7F045B9A
310
EF7053A7E60B504B0304140006080800CC70623B1EC5D7A3EB0000007C01000008000000636F72652E786D6C8D90416EC3201045AF82665B6103C6756C6122AB4D4ED00B204C5C94182C03558F5F9C3852BBEB6A467FFE9B197D71FC9E6FE8CBACC17AD7032D0820E3B41FAD9B7A48F1820F808E52ACDEC75F36404ECDA687
310
4D0629A6D5A76597B477D1B89855E747B38B2A041301E95B6E7A08FAD3CCAA50296647B8168BD2573599823EBB0CA76447F43862C7BCCF5EAC59410E4DDD9C7973C2755553CCCFA4C603E3040F1565ED3B1FDE4E432BCA0D9622DAF9795FAF464533826484B498524CD807E51D79ED187F21878E10516EF63F505AC67F42C9
310
BA58B1FDDD071640D2FCC87D2045B96591CB3DA85CB7DCE40F504B0304140006080800CC70623B55019EA25F0000007C00000007000000636E782E786D6C4DCB3B0E80201045D1AD90E915ED2CF8AC45050C11660C8261F98AB1B07AC9C97D42D718D865D3E909258CFD00CCE24AC6E326A164D74DC0B4128928FF32603847
310
2BA13128B1252AC747C6BAB984FC68F0B87FE8960A5C09FE86CFB69FBA01504B0304140006080800CC70623B8C9102E971010000D40300000C0000006662782F636F72652E786D6CC5535B6E833010BC8AE5DF0A6C08340F1947A84D4ED00B38C6A128602363A31CBFCB234A53A551FA553EC09AD9F5CE8C31DB9E9B1AF5CA
310
7695D1198E428A91D2D214952E33ECDD315861B4E5CC1AE3BE9561A445A3323CC098B3D21ADFCE9034DA29ED00D5A6503328BA4E398C640D8B0C77F253352214DE4145770A5B214FA2546114020D759C75CE8200340D19DE981F0F6746269C33EFAB6266AB02A655C74A59CCF365BADC27CB5D902ED22848F6340DF238A141
310
BE88E2F57B92BFEDF23523433367AE6A2EEAA455C2A902F398D2751045018D3FA264435F3771F242571B4A1919CA6F9A7C5B3CD9E42BED16F12C776AEB308F40C848FC700B1139D4891EF410CEC810227CC6846F8386402064270EF5C5C709A05E49676C024C61FC95EA45ED154CA5211D1FF4FB8291A913A68E9B83EBBB33
310
E2A7673CDE118E5AE8124C0807CB8377834E366998436B950D7A7746DAD846D4CFD978E0F04FD455FC5D49D2D4C6FE9722321F10997F0F32DC47FE05504B0304140006080800CC70623BFFEA85907E0000009D0000000B0000006662782F636E782E786D6C4DCCD10A83201886E15B91FFDC95D95A811AB6F23E625948A6C3
310
E9D8E5AF46073BFAE0E1E365ED67B3E8ADC3CB78C7815C7240DA3DFC64DCC221C519D7805AC182F7F1EF06C88D9BE6703008B6049F9E274D7A1E938DBB5AE3D6131B2589BA0D3D965551E0B2EA732C9B9A624AAEB41E3A557677029960D9AFB4EF11165F504B0304140006080800CC70623B4FEEA4082C0100001202000031
310
0000006662782F39464131463745442D413632322D343644302D413938332D3331353338454246344243312F636F72652E786D6C8D515B6EC32010BC0AE2AB55850DD871ED0813254D72825EC00192A2C460F1A872FC42ED48ED5F7E00CDCECCCEB26C731F6FE05B39AFADE921293004CA082BB5B9F43086336A21D870E6AC
310
0D7F68109861543DCC30E4ECE26C9C164858139409093556AA051CBC570102714B8F1E7AF1A5C6A11862480C7F2DA6415C878B2A4891CA89C7990F2E050073937C42DE1DB7E4F87ED8A36D4329AA9B3D46DBAEAD504556557BD81DEBDD0761E52CE42C462D17B996298E3E6BE59E35C962CE821E1FF18553435012728A7187
310
0841987E927A8D9B35ADDF70BBC6989599FE4F1427F9A4286A132ABAC49D651EF234CD5CE04CDA78BA3DC2A8FB645D00B9DF8B57E215725C60BCA2A463E54C4CE327C7A65E1C7DB02E7DEFCBF594B864C5CA6CDBD49C957943E9FA5D5FBAF336F90F504B0304140006080800CC70623BAD7543B64E01000033030000300000
310
006662782F39464131463745442D413632322D343644302D413938332D3331353338454246344243312F636E782E786D6CD593CD6EC32010845F0571AD6CE3D48AD20813A9873E410FBD12D82434182C7EAAE6EDBB2424CD25871E7B41D6EC30B3FA84F9E67BB2E40B4234DE8DB46F1925E094D7C6ED479AD3AE5951B2113C
310
789FEE6C943839C1488B4C05DF079FE72A69D8C96C13AAD6B8631503449F83828872B949AC57D26200B826A308D316B4064D6E46FCDA41C05550DC9E483A00797BFD207EFB092A45DE9514C1BBD22178396BD39D891265658C238DEA00936C654E5E433CB65A26D9F6EDB5EBC14EBF49A45CB856E66048291F6939A9A81BB5
310
C8917738143CA680F4AA299D66A042CEB3354A2684DC9D8D178FE0D9B8B41CAAD720F880EE7EF93C0C18769E099ECC04D5A102C8049A8A05632F4DDF376CF1DE0F6BB65C2F8627B65A33C6BB62177CEBBDAD973006829F89F22E814B54F4BC2BE347F8AA8F681390B50FA73F804400B5F542E796F19FF974E7F78DB802FE05
310
E207504B0304140006080800CC70623B16AB87BA640500003C100000340000006662782F39464131463745442D413632322D343644302D413938332D3331353338454246344243312F6F626A656374732E786D6CAD575B6FA33818FD2B887DE6924B3BED8A326A92B68A663B534DD4D13E548A0C38942D60649B369D5FBFC7
310
600890A493BDE42160637FD7F31D7FF63E6FB3D478A55C242CBF3247B66B1A340F5994E4F19559CA8D75611A9F7D8F33263BCB4C232719BD32D5B4E97B316765A1A722BA21652A07B3B7B33F0D11D29C9A46981221AE4C113ED38CD8A4942CA2E2C58E882476BCD9DA23BB5ED8171B73523C0F841684D35CC252CCE79062D4
310
468DFA43D7747CCF51DF7D4FFDEB5593E3AB9CCA9FBEFE241792E4E19EB28198C968BAB8199F5D5A67D3E9C49A9E8F47D6EC76B6B0469F26EEFC7C3EBFBCBEB98462213924694B38DD98FE1D62C393D073EA4FADC5DAF04326852CCF6958F90F0F2B9BB5C48816348F90C7840A68EB78EDF68723159BCEE7891A6B95DDE9D3
310
BCEAEEE8086A6C6F9E5D4B59F0175C10A7A0820BAA5055C7473B5AE3CFDD452D602CD5DF12616444529E90D448938013FE6EFA58AA96F85E4F8C42275708571E98FE6827AF6B2B4AE3D7D83D64E5A64C53054DD3AF90BD06FEA9149565C94FCA0F6B834DC85599E4F2423B24DF0B6AFA979E534DFA9E7A4CC6FA631D486393
310
921829879BF5D781A373557BCB85E97FB90DB62B558F8795179C15944B051F40AB495CF35451D26A4727654E6D8033BD98EF82F21D91FF8AF2DD9982BCF1643BDD4EB516C9492E368C67C88DED563FC36D5EACF66DFF057C3658BDBFA69DF9578B3DA735B64F18C7F20770A9D45CFCF7FCF563D6456A277DBEF78A02637CA2
310
43B90A490AEAB94F72244481D24819A6C0E59B606BFA4B3025981DBB48EAB701D97BF19C577CC77F2D1B6C55A9EF3C732474C0B727303F625995056C3B02963D9EAC146BE78EC5FCEC7FA999EBC5EACBAAE41B12D27B4D2C0BBA49F244E2ECDC81B76B502F113D8F5EE8FB1BE3111CDD4FC2AA9B844CAB1288B68AB90A7CDC
310
1C166AB0D3DC5310625FCC14E779BFD0709F8890A629C9292B1B2DED31A4B0DA928CEE135085754027E3018A397D4D5427D15BD1330B677DC8934285AC3DF45A9EB68FF8F2B8FC0A509AFEECFD0FF2DE25CC6047F7214B195F07EFEB9A094D800F7BFAE8FED187B78EA8A3A400F115961BCAD1215E47C966530AF0EE8128FE
310
58CEBB996A8964FFA529A046635D9353B0336A8F700DDF46271A024E70B0B37C9DE01847591E54DED53D54202AB947E4076556AC49C6CA5C9E1226B7F1A7B1BE15DEED62C41B91E1B3E9AFAAA735036547343A925075041DF0A9979E893B391F8FCFA6967B3EFB644DCF6E5CEBFAE272625DCC6FAF3FB93793C5F90CE1EF57
310
407342756B10D1C489E8953CD1617E5CEECAD6F4EF8914CE5D5D504E5C3F1F9736DA62CFC11E00BCDDB8CC8A9466349744C1F75EBDA4DF09BA8A9E8C7A7E9991989E20E5DBDD6A6003664ED8F7A04A8DBE0DF6EAD9B9AA858342E47399053949D2C146EDB85DE4B176BB0965FBAC19BD19AA918E27FA50C1D22402E144464C
310
59462568E704B6E71915404CB72B8FF4EDE184DDAF753F284990D2C6926782963815403548A70C657FDEF80D2D9CEAA2AE4C1C76F60BFE74219A06527D6582DF6412526107381E55E353090704D085B52408D0933C4ED159D79BDA71BB4BC506F4831350EB6F979CD22D69BF7AC49B91A2C0A9DDA3D5CA36AD20FC478E37E6
310
1844E2352865EBCB6EA275A652E3836BE04EFB400BF1A2556F515F1FBB35B2AB35BD889C744FFA1004B5544B121E57F70215746DD2F5E2C1412B602CBF19455AC6C8E5E9922C4E01E65215385004546899059180EAFCF7A707CE7017CD8CDB0410789AB32C63B91E5CEBBBACB17AC6CD347A022D5075FD106377347AAABA7E
310
7D11590744509B44E205134DC1290F06580320F78E537D3D73540E06CB970B431F185308AD40BBD794D6D77003C5A36E8EAA54BA64597CD8F83BD552A080A365F7FF06504B0304140006080000CC70623B000000000000000000000000350000006662782F39464131463745442D413632322D343644302D413938332D3331
310
353338454246344243312F76657274696365732E62696E504B0304140006080800CC70623BF270F1330600000004000000360000006662782F39464131463745442D413632322D343644302D413938332D3331353338454246344243312F747269616E676C65732E62696E636660600000504B0304140006080000CC70623B
310
000000000000000000000000370000006662782F39464131463745442D413632322D343644302D413938332D3331353338454246344243312F617474726962757465732E62696E504B0304140006080800CC70623B08DA0BD19000000041010000360000006662782F39464131463745442D413632322D343644302D413938
310
332D3331353338454246344243312F6469726563746F72792E786D6C858F410AC3201045AF22B36F53E9A60B35CBEEBAE80D244E44489C6234F4F835464A48035D0DF398FF9F8AF63D0E6CC63039F212F8F9020C7D47C6792B21C5FE7403D62A1188E2E60C98D7234A5830286103A55745067B9D86B8A3CF9C7F90C11DE607
310
FB144396D7B6A82D282E9A152AD114D5EF2CB866EEE831B8EEA07A7BB5A8D7D61A2BAAEB7FD5F70921FF497D00504B0304140006080800CC70623B0D6EF93BFE000000A00100003B0000006662782F39464131463745442D413632322D343644302D413938332D3331353338454246344243312F7265736F75726365732F63
310
6F72652E786D6C8D50596E833010BD0A9ADFCA60B334011947A8694ED00B586642AC041B79A97AFC9A40A5F6AF3F33A3B7689E1E3F7DCD8FEC139DD7D6F4C0720A191A65476DA61E62B892236427C19DB5E1970C322367EC618541F0C9D9B8EC90B226A009093576C41D94DE63804C3DD2D18357379C652E63480A7FCF17A9
310
EE72C29CE5894E3AC17D702940B63D59270887DE46A7D0F36263058F518FBB468FE9A7BE6A7420864373B8D4873369AA8691FA421B3294352543C5CAF65C0F6FEF43CB8BD52C78D0F34F46E550061C419494B6843142CB0F5677F4B52BEB177AEC28E5C52AFF638ACBF84F53D42654E51E77B379102C05791282176B5F693D
310
CB4C7BED567C03504B010214000A0000080000CC70623B3DEE336E79000000790000001B00000000000000000000000000000000006175746F6465736B2D64657369676E2D7061636B6167652E786D6C504B01021400140006080800CC70623BD486FD9CA0000000F40000001300000000000000000000000000B20000005B
310
436F6E74656E745F54797065735D2E786D6C504B01021400140006080800CC70623B1EC5D7A3EB0000007C010000080000000000000000000000000083010000636F72652E786D6C504B01021400140006080800CC70623B55019EA25F0000007C000000070000000000000000000000000094020000636E782E786D6C504B
310
01021400140006080800CC70623B8C9102E971010000D40300000C00000000000000000000000000180300006662782F636F72652E786D6C504B01021400140006080800CC70623BFFEA85907E0000009D0000000B00000000000000000000000000B30400006662782F636E782E786D6C504B01021400140006080800CC70
310
623B4FEEA4082C0100001202000031000000000000000000000000005A0500006662782F39464131463745442D413632322D343644302D413938332D3331353338454246344243312F636F72652E786D6C504B01021400140006080800CC70623BAD7543B64E010000330300003000000000000000000000000000D5060000
310
6662782F39464131463745442D413632322D343644302D413938332D3331353338454246344243312F636E782E786D6C504B01021400140006080800CC70623B16AB87BA640500003C1000003400000000000000000000000000710800006662782F39464131463745442D413632322D343644302D413938332D3331353338
310
454246344243312F6F626A656374732E786D6C504B01021400140006080000CC70623B0000000000000000000000003500000000000000000000000000270E00006662782F39464131463745442D413632322D343644302D413938332D3331353338454246344243312F76657274696365732E62696E504B01021400140006
310
080800CC70623BF270F133060000000400000036000000000000000000000000007A0E00006662782F39464131463745442D413632322D343644302D413938332D3331353338454246344243312F747269616E676C65732E62696E504B01021400140006080000CC70623B0000000000000000000000003700000000000000
310
000000000000D40E00006662782F39464131463745442D413632322D343644302D413938332D3331353338454246344243312F617474726962757465732E62696E504B01021400140006080800CC70623B08DA0BD190000000410100003600000000000000000000000000290F00006662782F39464131463745442D413632
310
322D343644302D413938332D3331353338454246344243312F6469726563746F72792E786D6C504B01021400140006080800CC70623B0D6EF93BFE000000A00100003B000000000000000000000000000D1000006662782F39464131463745442D413632322D343644302D413938332D3331353338454246344243312F7265
310
736F75726365732F636F72652E786D6C504B0506000000000E000E0080040000641100000000
  0
XRECORD
  5
1B8C1
102
{ACAD_REACTORS
330
173
102
}
330
173
100
AcDbXrecord
280
     1
102
MATERIAL
148
0.0
149
0.0
149
0.0
 93
        0
 94
       63
282
     0
 72
     1
 77
     1
171
     1
175
     1
179
     1
273
     0
  0
XRECORD
  5
175
102
{ACAD_REACTORS
330
173
102
}
330
173
100
AcDbXrecord
280
     1
270
     1
271
     1
  0
XRECORD
  5
174
102
{ACAD_REACTORS
330
173
102
}
330
173
100
AcDbXrecord
280
     1
270
     1
271
     1
  0
XRECORD
  5
1FB
102
{ACAD_REACTORS
330
173
102
}
330
173
100
AcDbXrecord
280
     1
 70
     0
 90
1673772943
  1
ECE7A1D2-D628-4531-984C-D00F80459256
310
504B03040A0000080000CC70623B3DEE336E79000000790000001B0000006175746F6465736B2D64657369676E2D7061636B6167652E786D6C3C3F786D6C2076657273696F6E3D22312E302220656E636F64696E673D227574662D3822203F3E3C666F726D6174733E3C666F726D61743E687474703A2F2F736368656D612E
310
6175746F6465736B2E636F6D2F64657369676E2D7061636B6167652F323030393C2F666F726D61743E3C2F666F726D6174733E504B0304140006080800CC70623BD486FD9CA0000000F4000000130000005B436F6E74656E745F54797065735D2E786D6C7D8EC10E82300C865F65E91D8A1E8C310C0EEA1BF002731658846E
310
D98AC1B77784ABF1D8FE5FBFBF75BBCE937A534CCEB38643598122B6FEE978D0B0485F9C41B54DDD7D022595594E1A469170414C76A4D9A4D207E29CF43ECE46F218070CC6BECC4078ACAA135ACF422C856C0E68EA1BF5669944DDD7BCDE7B1F8E415D77AECB980613C2E4AC91FC167A2B244592486606FC29C8FD7F045B9A
310
EF7053A7E60B504B0304140006080800CC70623BD9DDAED0EC0000007C01000008000000636F72652E786D6C8D90416EC3201045AF82665B61836D9CD8C2444DD39CA01740405C94182C03558F5F9C3852BBEB6A467FFE9B197D7EF89E6EE8CB2CC17A37002D0820E394D7D68D03A478C17B4007C117EFE32F1B20272733C0
310
2A83E0E3E2D3BC49CABB685CCCAAF3DA6CA20CC14440EA969B0182FA34932C648AD911AEC52CD5558EA6A0CF2EC329598D1E47ACCEFBECC59A050463A7EA5833865FEBDD0E37353BE3EE8DBDE3F6786A48D375FBF6CC78B9C282473B3DEFABC5C86834888A900E538A49F5419B9EB47DD5BC907D4F082F57FB1F28CDFA9F50
310
B22ED6D5F6EE030B20687EE43E10BC5CB3C8E51E54AE6B6EE207504B0304140006080800CC70623B55019EA25F0000007C00000007000000636E782E786D6C4DCB3B0E80201045D1AD90E915ED2CF8AC45050C11660C8261F98AB1B07AC9C97D42D718D865D3E909258CFD00CCE24AC6E326A164D74DC0B4128928FF326038
310
472BA13128B1252AC747C6BAB984FC68F0B87FE8960A5C09FE86CFB69FBA01504B0304140006080800CC70623BA24EB22D72010000D40300000C0000006662782F636F72652E786D6CC5535B6E833010BC8AE5DF0A6C5E49888CA3A6694ED00B38E05014B091B1518EDFE511A5A9D228FD2A1F60CDEC7A67C6986DCE4D8D7A
310
69BA4AAB0C073EC548AA5C17952A33ECECD15B61B4E1CC686DBF9561A44423333CC098B3D268D7CE50AE9595CA02AA74216750749DB418E5352C32DCE59FB211BE70162ABA93DF8AFC244AE9073ED050C759670D0840D390E18DF9F1706664C23973AE2A66B62A605A75ACA4C13C4976E1364A12EF355A2EBD384AF65EFA96
310
BC7B8BED2EA6719AAE16FB8491A199335B351775B991C2CA02F390D2D40B028F861F41BCA68B7518BFD0D59A524686F29B26D7164F36B94AD9289CE54E6D1DE6010819891F6E21228B3AD1831EC219194284CF98F06DD01008846CC5A1BEF83801D4CBDC6A1303536877A57A513B0953A94FC707FDBE6064EA84A9E3E6E0FA
310
EE8CF0E9198F7784A316AA0413C2C2F2E0ECA0934D1AE6D05A69BCDE9E91D2A611F573361E38FC1375157F5752AE6B6DFE4B11990F88CCBF0719EE23FF02504B0304140006080800CC70623B408A7D3B7C0000009D0000000B0000006662782F636E782E786D6C4DCCD10A83201886E15B91FFDC552A92A0064DBC8F581632
310
D3703A76F9ABD1C18E3E78F878E5F0D9027ABBFCF2292AE86E2D20171F69F6715550CB827B40839639A5F2770314A7CD293819B45C73AAFB45B35BA61ACAA1C1C7E7855C58C15BC331339661262CC762340413D68D77DA5B42298546CBE6573AF60CEB2F504B0304140006080800CC70623B449FB9BD290100001202000031
310
0000006662782F36394639363044362D344446342D343946362D394244322D3234314243333846323333332F636F72652E786D6C8D515B6EC32010BC0AE22B55850D98B871848994463E412FE002495162B07854397EA176A4F62F3F2C9A9D991D587EB84F37F0AD7D30CEF6905418026DA553C65E7A98E219ED203808EE9D
310
8B7F6810D871D23D2C3014FCE25D9A57483A1BB58D19B54EE9151C43D0110279CB971E06F9A5A7B11A53CC8C70ADE6515EC78BAE4895DB992778883E0700CB907242D17643D7E2538BD869608875438BBAE38922CAC8F1BDD90DB4691A5E2F42C153326A951B95E398B3D1FE599322163C9AE9115F7A3D46ADA0A018778810
310
84E907617BDCEE297BC5BB3DC6BC2EF47FA234AB2745C9D8D8D035EE220B50105E2F0DC1954B9FB747187D9F9D8FA0CCDB042D5FA0C015C65B42DF78BD10F3F3B363CB56C7109DCFDFBBB97E662ED92EB62D13BC2E1BCAE5777DB9966D8A1F504B0304140006080800CC70623BAD7543B64E01000033030000300000006662
310
782F36394639363044362D344446342D343946362D394244322D3234314243333846323333332F636E782E786D6CD593CD6EC32010845F0571AD6CE3D48AD20813A9873E410FBD12D82434182C7EAAE6EDBB2424CD25871E7B41D6EC30B3FA84F9E67BB2E40B4234DE8DB46F1925E094D7C6ED479AD3AE5951B2113C789FEE
310
6C943839C1488B4C05DF079FE72A69D8C96C13AAD6B8631503449F83828872B949AC57D26200B826A308D316B4064D6E46FCDA41C05550DC9E483A00797BFD207EFB092A45DE9514C1BBD22178396BD39D891265658C238DEA00936C654E5E433CB65A26D9F6EDB5EBC14EBF49A45CB856E66048291F6939A9A81BB5C89177
310
38143CA680F4AA299D66A042CEB3354A2684DC9D8D178FE0D9B8B41CAAD720F880EE7EF93C0C18769E099ECC04D5A102C8049A8A05632F4DDF376CF1DE0F6BB65C2F8627B65A33C6BB62177CEBBDAD973006829F89F22E814B54F4BC2BE347F8AA8F681390B50FA73F804400B5F542E796F19FF974E7F78DB802FE05E20750
310
4B0304140006080800CC70623B8D05915C650500003B100000340000006662782F36394639363044362D344446342D343946362D394244322D3234314243333846323333332F6F626A656374732E786D6CAD575B6FA33814FE2B887D06429276DA1565D4266D158D3A339A6846FB502932E050B66023DB74D2FDF5FB190C01
310
9276B2973C046C8ECFF53B17071F77456EBD502133CEAE6CDF9DD81665314F32965ED995DA3A17B6F5310C04E7AA47665B8C14F4CAD6DB7618A48257A5D94AE89654B91AEDDEDDFC61C998326A5B714EA4BCB265FC440BE2924AF184CA6737218AB8E976E7FA6E4338649B0A523E8D98964450A6A029F619B8588D52FE7039
310
B1BD30F0F4F730D0FF866AF6369557DB33949F31A9088B0F848DD8CCFCF9F2767A76E99CCDE733677E3EF59D9BBB9BA5E37F984D16E78BC5E5F5ED25044B25C0C96822E8D60EEFE11B91C581D77CEA34368A1F5329E68CD1B8B61F16D63A1B8E092D294B10C78C4A48EB593D192E7DED9BDEE7995E1B91FDEDD3ACEA9FE831
310
6A756F9F7D4D79F4274C90A7A04248AA51D5F8C718DAE06FB2F75AC4796EBE65D22A88A22223B995679120E2D50E41AA49C260C046A35368846B0BECD0DFF3EBEB8AD4F835768F69B9ADF25C43D30E6B646F807FAA64AD59F61715C7A54127C4AACA98BA3006A9D792DAE165E0D59B61A01FB3A9F9D838D2DAE62445C86166
310
F37564E842E7DE6A69879FEEA2DD5AE7E371E1A5E025154AC307D06A03D73EB5978C58FFA4C8E9033066E0F3BD53BEC1F39F91BE7B55103791EDE6BBB991A2046172CB4581D8B893FA674DDA17A77B3B7C413D1B511FD2743BFF8A38F03A658705E3ADF8015C3A3417FF3D7E439FF591DA0B5F18BC20C1B8981957AE6392A3
310
F43C640C01D1A0B4728E2DD4F26DB4B3C3152A252A3B4E913CEC1C72F012782FF88EFF8637AA552DBEF76408E8A8DE9E50F9E1CB3A2DA0DB1B6039A893B56063DC5B3E3FFB5F72E67AB9FEB4AEC496C4F4C1149625DD662C53E89D7BF0F6151A046260D1337DFDC94502430F83B0EE07A130A224BCAD7DAE1D9FB6CD422FF6
310
920702629C4BB9AE79C12F243C6432A6794E18E5552BA56B431AAB5D91317302B2B071E86C3A42B1A02F999E24061403B5D0EB639195DA655DD3EBEAB4FB862DDF579F014AD0E73C22F99E28DA57FB98E75C6CA2D74D53086D600F4786E0FE3144B771A8A7B900F03594DB8A633CBC49B2EDB69228BB479CF863B5E807AAAB
310
23872F6DFEB4129B949CA33823F58830E86D65621E10047D9DB34D862E8EAC3C2ABC2F7B2C40D67CDFE01F5545B92105AF983AC54D93D69E56FB8E797F88913F898A9FEC705D3F9D1B54EC8426FB500D40A03BD0119B06E1B95DDC7EB8F6975367793EBD70E66733DFB9BC982F9CE564727731999F5D4ECFCE3B8D6A4DC2A0
310
6D50FD148437D110834A64C6CDDF57FBACB5C307A2A477DFE4939736CFEF2B175371E0E10CF0DD1D5C15654E0BCA14D1E87DD02FF93782A162C0A3D95F1524A52770F972BF1EE9809D13CE7DD599467F8ECE9ADD85CE85A34CD45355448C64F9E8A031DC2D596ACC6E5DD93D9B82DE2EF5CAF81363A8E47996A0DE24564A79
310
4115AACE09C55E14540231FDA13C319787134EBF34E3A022514E5B4D9E0826E25C02D5805B15ABE1BEF51B26383D445DD9E875EE33FE4C22DA16427D65A3BCA92CA6D28DD01DF5DC53330704308475351050232CCD31583787BA75774AFB06E5070DD0C8EF484E19968C5D83BA5B90B244D31E54D55A372320FE4786B7EA58
310
44E135AA5467CB7EA333A61683CC6A8C3257034C10CF46F40EF9F5BE59BE5BD30C3C72D235E95D10345C1D45445A5F0BB47E46A5EBE5570F9380B5FA629579952296A773720405982B9DE04011506178964401AA8BDF1FBF0A8EAB6861DD6580C0E38217056766716DAEB2D6FA0917D3E4116581EADB879C4E7CFFB11EFACD
310
3D641311495D92C8676CB409A72D18610D803CE8A626049E8EC1887CB5B44CC39883690DDA8399B4B9855B481E7D71D4A9D22F96E5BB73BF5793020C02137BF837504B0304140006080000CC70623B000000000000000000000000350000006662782F36394639363044362D344446342D343946362D394244322D32343142
310
43333846323333332F76657274696365732E62696E504B0304140006080800CC70623BF270F1330600000004000000360000006662782F36394639363044362D344446342D343946362D394244322D3234314243333846323333332F747269616E676C65732E62696E636660600000504B0304140006080000CC70623B0000
310
00000000000000000000370000006662782F36394639363044362D344446342D343946362D394244322D3234314243333846323333332F617474726962757465732E62696E504B0304140006080800CC70623B08DA0BD19000000041010000360000006662782F36394639363044362D344446342D343946362D394244322D
310
3234314243333846323333332F6469726563746F72792E786D6C858F410AC3201045AF22B36F53E9A60B35CBEEBAE80D244E44489C6234F4F835464A48035D0DF398FF9F8AF63D0E6CC63039F212F8F9020C7D47C6792B21C5FE7403D62A1188E2E60C98D7234A5830286103A55745067B9D86B8A3CF9C7F90C11DE607FB14
310
4396D7B6A82D282E9A152AD114D5EF2CB866EEE831B8EEA07A7BB5A8D7D61A2BAAEB7FD5F70921FF497D00504B0304140006080800CC70623BCA768048FE000000A00100003B0000006662782F36394639363044362D344446342D343946362D394244322D3234314243333846323333332F7265736F75726365732F636F72
310
652E786D6C8D50596E833010BD0A9ADFCA60D600328E9AA639412F609909B1126CE4A5EAF16B0295DABFFECC8CDEA2797AECF8353F924FB44E193D409E5248504B332A3D0D10FC95B4901C39B3C6F85F3248B49871801506CE266BC2B243D2688FDA47549B11775038871E12F988C7004EDE7016A9083E2ADC3D5D84BC8B09
310
D33C8D74D471E6BC8D0192EDC93A815B742658898E651BCB59086ADC356A8C3FD555A1055ED7E7E254D615792D0F075295F585746FF53B694EE78A565DD736979A65AB9933AFE69F8CD2A2F038022F28ED489E135A7CE4554F9BBEA85E68DB53CAB255FEC71496F19FA6A0B42F8B3DEE6673C0F318E4497096AD7DC5F52C33
310
EEB55BFE0D504B010214000A0000080000CC70623B3DEE336E79000000790000001B00000000000000000000000000000000006175746F6465736B2D64657369676E2D7061636B6167652E786D6C504B01021400140006080800CC70623BD486FD9CA0000000F40000001300000000000000000000000000B20000005B436F
310
6E74656E745F54797065735D2E786D6C504B01021400140006080800CC70623BD9DDAED0EC0000007C010000080000000000000000000000000083010000636F72652E786D6C504B01021400140006080800CC70623B55019EA25F0000007C000000070000000000000000000000000095020000636E782E786D6C504B0102
310
1400140006080800CC70623BA24EB22D72010000D40300000C00000000000000000000000000190300006662782F636F72652E786D6C504B01021400140006080800CC70623B408A7D3B7C0000009D0000000B00000000000000000000000000B50400006662782F636E782E786D6C504B01021400140006080800CC70623B
310
449FB9BD290100001202000031000000000000000000000000005A0500006662782F36394639363044362D344446342D343946362D394244322D3234314243333846323333332F636F72652E786D6C504B01021400140006080800CC70623BAD7543B64E010000330300003000000000000000000000000000D20600006662
310
782F36394639363044362D344446342D343946362D394244322D3234314243333846323333332F636E782E786D6C504B01021400140006080800CC70623B8D05915C650500003B10000034000000000000000000000000006E0800006662782F36394639363044362D344446342D343946362D394244322D32343142433338
310
46323333332F6F626A656374732E786D6C504B01021400140006080000CC70623B0000000000000000000000003500000000000000000000000000250E00006662782F36394639363044362D344446342D343946362D394244322D3234314243333846323333332F76657274696365732E62696E504B010214001400060808
310
00CC70623BF270F13306000000040000003600000000000000000000000000780E00006662782F36394639363044362D344446342D343946362D394244322D3234314243333846323333332F747269616E676C65732E62696E504B01021400140006080000CC70623B00000000000000000000000037000000000000000000
310
00000000D20E00006662782F36394639363044362D344446342D343946362D394244322D3234314243333846323333332F617474726962757465732E62696E504B01021400140006080800CC70623B08DA0BD190000000410100003600000000000000000000000000270F00006662782F36394639363044362D344446342D
310
343946362D394244322D3234314243333846323333332F6469726563746F72792E786D6C504B01021400140006080800CC70623BCA768048FE000000A00100003B000000000000000000000000000B1000006662782F36394639363044362D344446342D343946362D394244322D3234314243333846323333332F7265736F
310
75726365732F636F72652E786D6C504B0506000000000E000E0080040000621100000000
  0
XRECORD
  5
176
102
{ACAD_REACTORS
330
173
102
}
330
173
100
AcDbXrecord
280
     1
270
     1
271
     1
  0
XRECORD
  5
177
102
{ACAD_REACTORS
330
173
102
}
330
173
100
AcDbXrecord
280
     1
270
     1
271
     1
  0
XRECORD
  5
1B8E3
102
{ACAD_REACTORS
330
1B8E2
102
}
330
1B8E2
100
AcDbXrecord
280
     1
102
ACAD_ROUNDTRIP_2012_MLEADER_STYLE
298
     1
  0
XRECORD
  5
1B8F5
102
{ACAD_REACTORS
330
1B8F4
102
}
330
1B8F4
100
AcDbXrecord
280
     1
102
DISPLAYNAME
  1
Metric50
102
FLAGS
 90
        0
  0
CELLSTYLEMAP
  5
1B8B5
102
{ACAD_REACTORS
330
162
102
}
330
162
100
AcDbCellStyleMap
 90
        3
300
CELLSTYLE
  1
TABLEFORMAT_BEGIN
 90
        5
170
     1
 91
        0
 92
    32768
 62
   257
 93
        1
300
CONTENTFORMAT
  1
CONTENTFORMAT_BEGIN
 90
        0
 91
        0
 92
      512
 93
        0
300

 40
0.0
140
1.0
 94
        5
 62
     0
340
11
144
6.0
309
CONTENTFORMAT_END
171
     1
301
MARGIN
  1
CELLMARGIN_BEGIN
 40
1.5
 40
1.5
 40
1.5
 40
1.5
 40
4.5
 40
4.5
309
CELLMARGIN_END
 94
        6
 95
        1
302
GRIDFORMAT
  1
GRIDFORMAT_BEGIN
 90
        0
 91
        1
 62
     0
 92
       -2
340
14
 93
        0
 40
1.125
309
GRIDFORMAT_END
 95
        2
302
GRIDFORMAT
  1
GRIDFORMAT_BEGIN
 90
        0
 91
        1
 62
     0
 92
       -2
340
14
 93
        0
 40
1.125
309
GRIDFORMAT_END
 95
        4
302
GRIDFORMAT
  1
GRIDFORMAT_BEGIN
 90
        0
 91
        1
 62
     0
 92
       -2
340
14
 93
        0
 40
1.125
309
GRIDFORMAT_END
 95
        8
302
GRIDFORMAT
  1
GRIDFORMAT_BEGIN
 90
        0
 91
        1
 62
     0
 92
       -2
340
14
 93
        0
 40
1.125
309
GRIDFORMAT_END
 95
       16
302
GRIDFORMAT
  1
GRIDFORMAT_BEGIN
 90
        0
 91
        1
 62
     0
 92
       -2
340
14
 93
        0
 40
1.125
309
GRIDFORMAT_END
 95
       32
302
GRIDFORMAT
  1
GRIDFORMAT_BEGIN
 90
        0
 91
        1
 62
     0
 92
       -2
340
14
 93
        0
 40
1.125
309
GRIDFORMAT_END
309
TABLEFORMAT_END
  1
CELLSTYLE_BEGIN
 90
        1
 91
        1
300
_TITLE
309
CELLSTYLE_END
300
CELLSTYLE
  1
TABLEFORMAT_BEGIN
 90
        5
170
     1
 91
        0
 92
        0
 62
   257
 93
        1
300
CONTENTFORMAT
  1
CONTENTFORMAT_BEGIN
 90
        0
 91
        0
 92
      512
 93
        0
300

 40
0.0
140
1.0
 94
        5
 62
     0
340
11
144
4.5
309
CONTENTFORMAT_END
171
     1
301
MARGIN
  1
CELLMARGIN_BEGIN
 40
1.5
 40
1.5
 40
1.5
 40
1.5
 40
4.5
 40
4.5
309
CELLMARGIN_END
 94
        6
 95
        1
302
GRIDFORMAT
  1
GRIDFORMAT_BEGIN
 90
        0
 91
        1
 62
     0
 92
       -2
340
14
 93
        0
 40
1.125
309
GRIDFORMAT_END
 95
        2
302
GRIDFORMAT
  1
GRIDFORMAT_BEGIN
 90
        0
 91
        1
 62
     0
 92
       -2
340
14
 93
        0
 40
1.125
309
GRIDFORMAT_END
 95
        4
302
GRIDFORMAT
  1
GRIDFORMAT_BEGIN
 90
        0
 91
        1
 62
     0
 92
       -2
340
14
 93
        0
 40
1.125
309
GRIDFORMAT_END
 95
        8
302
GRIDFORMAT
  1
GRIDFORMAT_BEGIN
 90
        0
 91
        1
 62
     0
 92
       -2
340
14
 93
        0
 40
1.125
309
GRIDFORMAT_END
 95
       16
302
GRIDFORMAT
  1
GRIDFORMAT_BEGIN
 90
        0
 91
        1
 62
     0
 92
       -2
340
14
 93
        0
 40
1.125
309
GRIDFORMAT_END
 95
       32
302
GRIDFORMAT
  1
GRIDFORMAT_BEGIN
 90
        0
 91
        1
 62
     0
 92
       -2
340
14
 93
        0
 40
1.125
309
GRIDFORMAT_END
309
TABLEFORMAT_END
  1
CELLSTYLE_BEGIN
 90
        2
 91
        1
300
_HEADER
309
CELLSTYLE_END
300
CELLSTYLE
  1
TABLEFORMAT_BEGIN
 90
        5
170
     1
 91
        0
 92
        0
 62
   257
 93
        1
300
CONTENTFORMAT
  1
CONTENTFORMAT_BEGIN
 90
        0
 91
        0
 92
      512
 93
        0
300

 40
0.0
140
1.0
 94
        2
 62
     0
340
11
144
4.5
309
CONTENTFORMAT_END
171
     1
301
MARGIN
  1
CELLMARGIN_BEGIN
 40
1.5
 40
1.5
 40
1.5
 40
1.5
 40
4.5
 40
4.5
309
CELLMARGIN_END
 94
        6
 95
        1
302
GRIDFORMAT
  1
GRIDFORMAT_BEGIN
 90
        0
 91
        1
 62
     0
 92
       -2
340
14
 93
        0
 40
1.125
309
GRIDFORMAT_END
 95
        2
302
GRIDFORMAT
  1
GRIDFORMAT_BEGIN
 90
        0
 91
        1
 62
     0
 92
       -2
340
14
 93
        0
 40
1.125
309
GRIDFORMAT_END
 95
        4
302
GRIDFORMAT
  1
GRIDFORMAT_BEGIN
 90
        0
 91
        1
 62
     0
 92
       -2
340
14
 93
        0
 40
1.125
309
GRIDFORMAT_END
 95
        8
302
GRIDFORMAT
  1
GRIDFORMAT_BEGIN
 90
        0
 91
        1
 62
     0
 92
       -2
340
14
 93
        0
 40
1.125
309
GRIDFORMAT_END
 95
       16
302
GRIDFORMAT
  1
GRIDFORMAT_BEGIN
 90
        0
 91
        1
 62
     0
 92
       -2
340
14
 93
        0
 40
1.125
309
GRIDFORMAT_END
 95
       32
302
GRIDFORMAT
  1
GRIDFORMAT_BEGIN
 90
        0
 91
        1
 62
     0
 92
       -2
340
14
 93
        0
 40
1.125
309
GRIDFORMAT_END
309
TABLEFORMAT_END
  1
CELLSTYLE_BEGIN
 90
        3
 91
        2
300
_DATA
309
CELLSTYLE_END
  0
XRECORD
  5
1B8BA
102
{ACAD_REACTORS
330
162
102
}
330
162
100
AcDbXrecord
280
     1
102
ACAD_ROUNDTRIP_PRE2007_TABLESTYLE
 90
      512
 91
        0
  1

 92
      512
 93
        0
  2

 94
      512
 95
        0
  3

  0
XRECORD
  5
1B8CD
102
{ACAD_REACTORS
330
1B8CC
102
}
330
1B8CC
100
AcDbXrecord
280
     1
102
RTVSPost2010Prop28
280
     1
102
RTVSPost2010PropOp28
 70
     1
102
RTVSPost2010Prop29
280
     1
102
RTVSPost2010PropOp29
 70
     1
102
RTVSPost2010Prop30
280
     0
102
RTVSPost2010PropOp30
 70
     1
102
RTVSPost2010Prop31
280
     0
102
RTVSPost2010PropOp31
 70
     1
102
RTVSPost2010Prop32
280
     0
102
RTVSPost2010PropOp32
 70
     1
102
RTVSPost2010Prop33
280
     0
102
RTVSPost2010PropOp33
 70
     1
102
RTVSPost2010Prop34
280
     0
102
RTVSPost2010PropOp34
 70
     1
102
RTVSPost2010Prop35
280
     0
102
RTVSPost2010PropOp35
 70
     1
102
RTVSPost2010Prop36
280
     0
102
RTVSPost2010PropOp36
 70
     1
102
RTVSPost2010Prop37
 90
       50
102
RTVSPost2010PropOp37
 70
     1
102
RTVSPost2010Prop38
140
0.0
102
RTVSPost2010PropOp38
 70
     1
102
RTVSPost2010Prop39
140
1.0
102
RTVSPost2010PropOp39
 70
     1
102
RTVSPost2010Prop40
 90
        0
102
RTVSPost2010PropOp40
 70
     1
102
RTVSPost2010Prop41ColorIndex
 90
       18
102
RTVSPost2010Prop41ColorRGB
 90
        0
102
RTVSPost2010PropOp41
 70
     1
102
RTVSPost2010Prop42
 90
       50
102
RTVSPost2010PropOp42
 70
     1
102
RTVSPost2010Prop43
 90
        3
102
RTVSPost2010PropOp43
 70
     1
102
RTVSPost2010Prop44ColorIndex
 90
        5
102
RTVSPost2010Prop44ColorRGB
 90
      255
102
RTVSPost2010PropOp44
 70
     1
102
RTVSPost2010Prop45
280
     0
102
RTVSPost2010PropOp45
 70
     1
102
RTVSPost2010Prop46
 90
       50
102
RTVSPost2010PropOp46
 70
     1
102
RTVSPost2010Prop47
 90
       50
102
RTVSPost2010PropOp47
 70
     1
102
RTVSPost2010Prop48
 90
       50
102
RTVSPost2010PropOp48
 70
     1
102
RTVSPost2010Prop49
280
     0
102
RTVSPost2010PropOp49
 70
     1
102
RTVSPost2010Prop50
 90
       50
102
RTVSPost2010PropOp50
 70
     1
102
RTVSPost2010Prop51ColorIndex
 90
      256
102
RTVSPost2010Prop51ColorRGB
 90
-16777216
102
RTVSPost2010PropOp51
 70
     0
102
RTVSPost2010Prop52
140
1.0
102
RTVSPost2010PropOp52
 70
     0
102
RTVSPost2010Prop53
 90
        2
102
RTVSPost2010PropOp53
 70
     1
102
RTVSPost2010Prop54
  1
strokes_ogs.tif
102
RTVSPost2010PropOp54
 70
     1
102
RTVSPost2010Prop55
280
     0
102
RTVSPost2010PropOp55
 70
     1
102
RTVSPost2010Prop56
140
1.0
102
RTVSPost2010PropOp56
 70
     1
102
RTVSPost2010Prop57
140
1.0
102
RTVSPost2010PropOp57
 70
     1
102
RTVSPropertyOp0
 70
     1
102
RTVSPropertyOp1
 70
     1
102
RTVSPropertyOp2
 70
     1
102
RTVSPropertyOp3
 70
     1
102
RTVSPropertyOp4
 70
     1
102
RTVSPropertyOp5
 70
     1
102
RTVSPropertyOp6
 70
     1
102
RTVSPropertyOp7
 70
     1
102
RTVSPropertyOp8
 70
     1
102
RTVSPropertyOp9
 70
     1
102
RTVSPropertyOp10
 70
     1
102
RTVSPropertyOp11
 70
     1
102
RTVSPropertyOp12
 70
     1
102
RTVSPropertyOp13
 70
     1
102
RTVSPropertyOp14
 70
     1
102
RTVSPropertyOp15
 70
     1
102
RTVSPropertyOp16
 70
     1
102
RTVSPropertyOp17
 70
     1
102
RTVSPropertyOp18
 70
     1
102
RTVSPropertyOp19
 70
     1
102
RTVSPropertyOp20
 70
     1
102
RTVSPropertyOp21
 70
     1
102
RTVSPropertyOp22
 70
     1
102
RTVSPropertyOp23
 70
     1
102
RTVSPropertyOp24
 70
     1
102
RTVSPropertyOp25
 70
     1
102
RTVSPropertyOp26
 70
     1
102
RTVSPropertyOp27
 70
     1
102
RTVSPropertyOp28
 70
     1
102
RTVSPropertyOp29
 70
     1
102
RTVSPropertyOp30
 70
     1
102
RTVSPropertyOp31
 70
     1
102
RTVSPropertyOp32
 70
     1
102
RTVSPropertyOp33
 70
     1
102
RTVSPropertyOp34
 70
     1
102
RTVSPropertyOp35
 70
     1
102
RTVSPropertyOp36
 70
     1
102
RTVSPropertyOp37
 70
     1
102
RTVSPropertyOp38
 70
     1
102
RTVSPropertyOp39
 70
     1
102
RTVSPropertyOp40
 70
     1
102
RTVSPropertyOp41
 70
     1
102
RTVSPropertyOp42
 70
     1
102
RTVSPropertyOp43
 70
     1
102
RTVSPropertyOp44
 70
     1
102
RTVSPropertyOp45
 70
     1
102
RTVSPropertyOp46
 70
     1
102
RTVSPropertyOp47
 70
     1
102
RTVSPropertyOp48
 70
     1
102
RTVSPropertyOp49
 70
     1
102
RTVSPropertyOp50
 70
     1
102
RTVSPropertyOp51
 70
     0
102
RTVSPropertyOp52
 70
     0
102
RTVSPropertyOp53
 70
     1
102
RTVSPropertyOp54
 70
     1
102
RTVSPropertyOp55
 70
     1
102
RTVSPropertyOp56
 70
     1
102
RTVSPropertyOp57
 70
     1
102
RTVSPropertyOp58
 70
     1
102
RTVSPropertyOp59
 70
     1
102
RTVSPropertyOp60
 70
     1
102
RTVSPropertyOp61
 70
     1
102
RTVSPropertyOp62
 70
     1
  0
XRECORD
  5
1B8CB
102
{ACAD_REACTORS
330
1B8CA
102
}
330
1B8CA
100
AcDbXrecord
280
     1
102
RTVSPost2010Prop28
280
     0
102
RTVSPost2010PropOp28
 70
     1
102
RTVSPost2010Prop29
280
     1
102
RTVSPost2010PropOp29
 70
     1
102
RTVSPost2010Prop30
280
     1
102
RTVSPost2010PropOp30
 70
     1
102
RTVSPost2010Prop31
280
     0
102
RTVSPost2010PropOp31
 70
     1
102
RTVSPost2010Prop32
280
     0
102
RTVSPost2010PropOp32
 70
     1
102
RTVSPost2010Prop33
280
     0
102
RTVSPost2010PropOp33
 70
     1
102
RTVSPost2010Prop34
280
     0
102
RTVSPost2010PropOp34
 70
     1
102
RTVSPost2010Prop35
280
     0
102
RTVSPost2010PropOp35
 70
     1
102
RTVSPost2010Prop36
280
     0
102
RTVSPost2010PropOp36
 70
     1
102
RTVSPost2010Prop37
 90
       50
102
RTVSPost2010PropOp37
 70
     1
102
RTVSPost2010Prop38
140
0.0
102
RTVSPost2010PropOp38
 70
     1
102
RTVSPost2010Prop39
140
1.0
102
RTVSPost2010PropOp39
 70
     1
102
RTVSPost2010Prop40
 90
        0
102
RTVSPost2010PropOp40
 70
     1
102
RTVSPost2010Prop41ColorIndex
 90
       18
102
RTVSPost2010Prop41ColorRGB
 90
        0
102
RTVSPost2010PropOp41
 70
     1
102
RTVSPost2010Prop42
 90
       50
102
RTVSPost2010PropOp42
 70
     1
102
RTVSPost2010Prop43
 90
        3
102
RTVSPost2010PropOp43
 70
     1
102
RTVSPost2010Prop44ColorIndex
 90
        5
102
RTVSPost2010Prop44ColorRGB
 90
      255
102
RTVSPost2010PropOp44
 70
     1
102
RTVSPost2010Prop45
280
     0
102
RTVSPost2010PropOp45
 70
     1
102
RTVSPost2010Prop46
 90
       50
102
RTVSPost2010PropOp46
 70
     1
102
RTVSPost2010Prop47
 90
       50
102
RTVSPost2010PropOp47
 70
     1
102
RTVSPost2010Prop48
 90
       50
102
RTVSPost2010PropOp48
 70
     1
102
RTVSPost2010Prop49
280
     0
102
RTVSPost2010PropOp49
 70
     1
102
RTVSPost2010Prop50
 90
       50
102
RTVSPost2010PropOp50
 70
     1
102
RTVSPost2010Prop51ColorIndex
 90
      256
102
RTVSPost2010Prop51ColorRGB
 90
-16777216
102
RTVSPost2010PropOp51
 70
     0
102
RTVSPost2010Prop52
140
1.0
102
RTVSPost2010PropOp52
 70
     0
102
RTVSPost2010Prop53
 90
        2
102
RTVSPost2010PropOp53
 70
     1
102
RTVSPost2010Prop54
  1
strokes_ogs.tif
102
RTVSPost2010PropOp54
 70
     1
102
RTVSPost2010Prop55
280
     0
102
RTVSPost2010PropOp55
 70
     1
102
RTVSPost2010Prop56
140
1.0
102
RTVSPost2010PropOp56
 70
     1
102
RTVSPost2010Prop57
140
1.0
102
RTVSPost2010PropOp57
 70
     1
102
RTVSPropertyOp0
 70
     1
102
RTVSPropertyOp1
 70
     1
102
RTVSPropertyOp2
 70
     1
102
RTVSPropertyOp3
 70
     1
102
RTVSPropertyOp4
 70
     1
102
RTVSPropertyOp5
 70
     1
102
RTVSPropertyOp6
 70
     1
102
RTVSPropertyOp7
 70
     1
102
RTVSPropertyOp8
 70
     1
102
RTVSPropertyOp9
 70
     1
102
RTVSPropertyOp10
 70
     1
102
RTVSPropertyOp11
 70
     1
102
RTVSPropertyOp12
 70
     1
102
RTVSPropertyOp13
 70
     1
102
RTVSPropertyOp14
 70
     1
102
RTVSPropertyOp15
 70
     1
102
RTVSPropertyOp16
 70
     1
102
RTVSPropertyOp17
 70
     1
102
RTVSPropertyOp18
 70
     1
102
RTVSPropertyOp19
 70
     1
102
RTVSPropertyOp20
 70
     1
102
RTVSPropertyOp21
 70
     1
102
RTVSPropertyOp22
 70
     1
102
RTVSPropertyOp23
 70
     1
102
RTVSPropertyOp24
 70
     1
102
RTVSPropertyOp25
 70
     1
102
RTVSPropertyOp26
 70
     1
102
RTVSPropertyOp27
 70
     1
102
RTVSPropertyOp28
 70
     1
102
RTVSPropertyOp29
 70
     1
102
RTVSPropertyOp30
 70
     1
102
RTVSPropertyOp31
 70
     1
102
RTVSPropertyOp32
 70
     1
102
RTVSPropertyOp33
 70
     1
102
RTVSPropertyOp34
 70
     1
102
RTVSPropertyOp35
 70
     1
102
RTVSPropertyOp36
 70
     1
102
RTVSPropertyOp37
 70
     1
102
RTVSPropertyOp38
 70
     1
102
RTVSPropertyOp39
 70
     1
102
RTVSPropertyOp40
 70
     1
102
RTVSPropertyOp41
 70
     1
102
RTVSPropertyOp42
 70
     1
102
RTVSPropertyOp43
 70
     1
102
RTVSPropertyOp44
 70
     1
102
RTVSPropertyOp45
 70
     1
102
RTVSPropertyOp46
 70
     1
102
RTVSPropertyOp47
 70
     1
102
RTVSPropertyOp48
 70
     1
102
RTVSPropertyOp49
 70
     1
102
RTVSPropertyOp50
 70
     1
102
RTVSPropertyOp51
 70
     0
102
RTVSPropertyOp52
 70
     0
102
RTVSPropertyOp53
 70
     1
102
RTVSPropertyOp54
 70
     1
102
RTVSPropertyOp55
 70
     1
102
RTVSPropertyOp56
 70
     1
102
RTVSPropertyOp57
 70
     1
102
RTVSPropertyOp58
 70
     1
102
RTVSPropertyOp59
 70
     1
102
RTVSPropertyOp60
 70
     1
102
RTVSPropertyOp61
 70
     1
102
RTVSPropertyOp62
 70
     1
  0
XRECORD
  5
1B8D9
102
{ACAD_REACTORS
330
1B8D8
102
}
330
1B8D8
100
AcDbXrecord
280
     1
102
RTVSPost2010Prop28
280
     0
102
RTVSPost2010PropOp28
 70
     1
102
RTVSPost2010Prop29
280
     1
102
RTVSPost2010PropOp29
 70
     1
102
RTVSPost2010Prop30
280
     1
102
RTVSPost2010PropOp30
 70
     1
102
RTVSPost2010Prop31
280
     0
102
RTVSPost2010PropOp31
 70
     1
102
RTVSPost2010Prop32
280
     0
102
RTVSPost2010PropOp32
 70
     1
102
RTVSPost2010Prop33
280
     0
102
RTVSPost2010PropOp33
 70
     1
102
RTVSPost2010Prop34
280
     0
102
RTVSPost2010PropOp34
 70
     1
102
RTVSPost2010Prop35
280
     0
102
RTVSPost2010PropOp35
 70
     1
102
RTVSPost2010Prop36
280
     0
102
RTVSPost2010PropOp36
 70
     1
102
RTVSPost2010Prop37
 90
       50
102
RTVSPost2010PropOp37
 70
     1
102
RTVSPost2010Prop38
140
0.0
102
RTVSPost2010PropOp38
 70
     1
102
RTVSPost2010Prop39
140
1.0
102
RTVSPost2010PropOp39
 70
     1
102
RTVSPost2010Prop40
 90
        0
102
RTVSPost2010PropOp40
 70
     1
102
RTVSPost2010Prop41ColorIndex
 90
       18
102
RTVSPost2010Prop41ColorRGB
 90
        0
102
RTVSPost2010PropOp41
 70
     1
102
RTVSPost2010Prop42
 90
       50
102
RTVSPost2010PropOp42
 70
     1
102
RTVSPost2010Prop43
 90
        3
102
RTVSPost2010PropOp43
 70
     1
102
RTVSPost2010Prop44ColorIndex
 90
        5
102
RTVSPost2010Prop44ColorRGB
 90
      255
102
RTVSPost2010PropOp44
 70
     1
102
RTVSPost2010Prop45
280
     0
102
RTVSPost2010PropOp45
 70
     1
102
RTVSPost2010Prop46
 90
       50
102
RTVSPost2010PropOp46
 70
     1
102
RTVSPost2010Prop47
 90
       50
102
RTVSPost2010PropOp47
 70
     1
102
RTVSPost2010Prop48
 90
       50
102
RTVSPost2010PropOp48
 70
     1
102
RTVSPost2010Prop49
280
     0
102
RTVSPost2010PropOp49
 70
     1
102
RTVSPost2010Prop50
 90
       50
102
RTVSPost2010PropOp50
 70
     1
102
RTVSPost2010Prop51ColorIndex
 90
      256
102
RTVSPost2010Prop51ColorRGB
 90
-16777216
102
RTVSPost2010PropOp51
 70
     0
102
RTVSPost2010Prop52
140
1.0
102
RTVSPost2010PropOp52
 70
     0
102
RTVSPost2010Prop53
 90
        2
102
RTVSPost2010PropOp53
 70
     1
102
RTVSPost2010Prop54
  1
strokes_ogs.tif
102
RTVSPost2010PropOp54
 70
     1
102
RTVSPost2010Prop55
280
     0
102
RTVSPost2010PropOp55
 70
     1
102
RTVSPost2010Prop56
140
1.0
102
RTVSPost2010PropOp56
 70
     1
102
RTVSPost2010Prop57
140
1.0
102
RTVSPost2010PropOp57
 70
     1
102
RTVSPropertyOp0
 70
     1
102
RTVSPropertyOp1
 70
     1
102
RTVSPropertyOp2
 70
     1
102
RTVSPropertyOp3
 70
     1
102
RTVSPropertyOp4
 70
     1
102
RTVSPropertyOp5
 70
     1
102
RTVSPropertyOp6
 70
     1
102
RTVSPropertyOp7
 70
     1
102
RTVSPropertyOp8
 70
     1
102
RTVSPropertyOp9
 70
     1
102
RTVSPropertyOp10
 70
     1
102
RTVSPropertyOp11
 70
     1
102
RTVSPropertyOp12
 70
     1
102
RTVSPropertyOp13
 70
     1
102
RTVSPropertyOp14
 70
     1
102
RTVSPropertyOp15
 70
     1
102
RTVSPropertyOp16
 70
     1
102
RTVSPropertyOp17
 70
     1
102
RTVSPropertyOp18
 70
     1
102
RTVSPropertyOp19
 70
     1
102
RTVSPropertyOp20
 70
     1
102
RTVSPropertyOp21
 70
     1
102
RTVSPropertyOp22
 70
     1
102
RTVSPropertyOp23
 70
     1
102
RTVSPropertyOp24
 70
     1
102
RTVSPropertyOp25
 70
     1
102
RTVSPropertyOp26
 70
     1
102
RTVSPropertyOp27
 70
     1
102
RTVSPropertyOp28
 70
     1
102
RTVSPropertyOp29
 70
     1
102
RTVSPropertyOp30
 70
     1
102
RTVSPropertyOp31
 70
     1
102
RTVSPropertyOp32
 70
     1
102
RTVSPropertyOp33
 70
     1
102
RTVSPropertyOp34
 70
     1
102
RTVSPropertyOp35
 70
     1
102
RTVSPropertyOp36
 70
     1
102
RTVSPropertyOp37
 70
     1
102
RTVSPropertyOp38
 70
     1
102
RTVSPropertyOp39
 70
     1
102
RTVSPropertyOp40
 70
     1
102
RTVSPropertyOp41
 70
     1
102
RTVSPropertyOp42
 70
     1
102
RTVSPropertyOp43
 70
     1
102
RTVSPropertyOp44
 70
     1
102
RTVSPropertyOp45
 70
     1
102
RTVSPropertyOp46
 70
     1
102
RTVSPropertyOp47
 70
     1
102
RTVSPropertyOp48
 70
     1
102
RTVSPropertyOp49
 70
     1
102
RTVSPropertyOp50
 70
     1
102
RTVSPropertyOp51
 70
     0
102
RTVSPropertyOp52
 70
     0
102
RTVSPropertyOp53
 70
     1
102
RTVSPropertyOp54
 70
     1
102
RTVSPropertyOp55
 70
     1
102
RTVSPropertyOp56
 70
     1
102
RTVSPropertyOp57
 70
     1
102
RTVSPropertyOp58
 70
     1
102
RTVSPropertyOp59
 70
     1
102
RTVSPropertyOp60
 70
     1
102
RTVSPropertyOp61
 70
     1
102
RTVSPropertyOp62
 70
     1
  0
XRECORD
  5
1B8E1
102
{ACAD_REACTORS
330
1B8E0
102
}
330
1B8E0
100
AcDbXrecord
280
     1
102
RTVSPost2010Prop28
280
     0
102
RTVSPost2010PropOp28
 70
     1
102
RTVSPost2010Prop29
280
     1
102
RTVSPost2010PropOp29
 70
     1
102
RTVSPost2010Prop30
280
     1
102
RTVSPost2010PropOp30
 70
     1
102
RTVSPost2010Prop31
280
     0
102
RTVSPost2010PropOp31
 70
     1
102
RTVSPost2010Prop32
280
     0
102
RTVSPost2010PropOp32
 70
     1
102
RTVSPost2010Prop33
280
     0
102
RTVSPost2010PropOp33
 70
     1
102
RTVSPost2010Prop34
280
     0
102
RTVSPost2010PropOp34
 70
     1
102
RTVSPost2010Prop35
280
     0
102
RTVSPost2010PropOp35
 70
     1
102
RTVSPost2010Prop36
280
     0
102
RTVSPost2010PropOp36
 70
     1
102
RTVSPost2010Prop37
 90
       50
102
RTVSPost2010PropOp37
 70
     1
102
RTVSPost2010Prop38
140
0.0
102
RTVSPost2010PropOp38
 70
     1
102
RTVSPost2010Prop39
140
1.0
102
RTVSPost2010PropOp39
 70
     1
102
RTVSPost2010Prop40
 90
        0
102
RTVSPost2010PropOp40
 70
     1
102
RTVSPost2010Prop41ColorIndex
 90
       18
102
RTVSPost2010Prop41ColorRGB
 90
        0
102
RTVSPost2010PropOp41
 70
     1
102
RTVSPost2010Prop42
 90
       50
102
RTVSPost2010PropOp42
 70
     1
102
RTVSPost2010Prop43
 90
        3
102
RTVSPost2010PropOp43
 70
     1
102
RTVSPost2010Prop44ColorIndex
 90
        5
102
RTVSPost2010Prop44ColorRGB
 90
      255
102
RTVSPost2010PropOp44
 70
     1
102
RTVSPost2010Prop45
280
     0
102
RTVSPost2010PropOp45
 70
     1
102
RTVSPost2010Prop46
 90
       50
102
RTVSPost2010PropOp46
 70
     1
102
RTVSPost2010Prop47
 90
       50
102
RTVSPost2010PropOp47
 70
     1
102
RTVSPost2010Prop48
 90
       50
102
RTVSPost2010PropOp48
 70
     1
102
RTVSPost2010Prop49
280
     0
102
RTVSPost2010PropOp49
 70
     1
102
RTVSPost2010Prop50
 90
       50
102
RTVSPost2010PropOp50
 70
     1
102
RTVSPost2010Prop51ColorIndex
 90
      256
102
RTVSPost2010Prop51ColorRGB
 90
-16777216
102
RTVSPost2010PropOp51
 70
     0
102
RTVSPost2010Prop52
140
1.0
102
RTVSPost2010PropOp52
 70
     0
102
RTVSPost2010Prop53
 90
        2
102
RTVSPost2010PropOp53
 70
     1
102
RTVSPost2010Prop54
  1
strokes_ogs.tif
102
RTVSPost2010PropOp54
 70
     1
102
RTVSPost2010Prop55
280
     0
102
RTVSPost2010PropOp55
 70
     1
102
RTVSPost2010Prop56
140
1.0
102
RTVSPost2010PropOp56
 70
     1
102
RTVSPost2010Prop57
140
1.0
102
RTVSPost2010PropOp57
 70
     1
102
RTVSPropertyOp0
 70
     1
102
RTVSPropertyOp1
 70
     1
102
RTVSPropertyOp2
 70
     1
102
RTVSPropertyOp3
 70
     1
102
RTVSPropertyOp4
 70
     1
102
RTVSPropertyOp5
 70
     1
102
RTVSPropertyOp6
 70
     1
102
RTVSPropertyOp7
 70
     1
102
RTVSPropertyOp8
 70
     1
102
RTVSPropertyOp9
 70
     1
102
RTVSPropertyOp10
 70
     1
102
RTVSPropertyOp11
 70
     1
102
RTVSPropertyOp12
 70
     1
102
RTVSPropertyOp13
 70
     1
102
RTVSPropertyOp14
 70
     1
102
RTVSPropertyOp15
 70
     1
102
RTVSPropertyOp16
 70
     1
102
RTVSPropertyOp17
 70
     1
102
RTVSPropertyOp18
 70
     1
102
RTVSPropertyOp19
 70
     1
102
RTVSPropertyOp20
 70
     1
102
RTVSPropertyOp21
 70
     1
102
RTVSPropertyOp22
 70
     1
102
RTVSPropertyOp23
 70
     1
102
RTVSPropertyOp24
 70
     1
102
RTVSPropertyOp25
 70
     1
102
RTVSPropertyOp26
 70
     1
102
RTVSPropertyOp27
 70
     1
102
RTVSPropertyOp28
 70
     1
102
RTVSPropertyOp29
 70
     1
102
RTVSPropertyOp30
 70
     1
102
RTVSPropertyOp31
 70
     1
102
RTVSPropertyOp32
 70
     1
102
RTVSPropertyOp33
 70
     1
102
RTVSPropertyOp34
 70
     1
102
RTVSPropertyOp35
 70
     1
102
RTVSPropertyOp36
 70
     1
102
RTVSPropertyOp37
 70
     1
102
RTVSPropertyOp38
 70
     1
102
RTVSPropertyOp39
 70
     1
102
RTVSPropertyOp40
 70
     1
102
RTVSPropertyOp41
 70
     1
102
RTVSPropertyOp42
 70
     1
102
RTVSPropertyOp43
 70
     1
102
RTVSPropertyOp44
 70
     1
102
RTVSPropertyOp45
 70
     1
102
RTVSPropertyOp46
 70
     1
102
RTVSPropertyOp47
 70
     1
102
RTVSPropertyOp48
 70
     1
102
RTVSPropertyOp49
 70
     1
102
RTVSPropertyOp50
 70
     1
102
RTVSPropertyOp51
 70
     0
102
RTVSPropertyOp52
 70
     0
102
RTVSPropertyOp53
 70
     1
102
RTVSPropertyOp54
 70
     1
102
RTVSPropertyOp55
 70
     1
102
RTVSPropertyOp56
 70
     1
102
RTVSPropertyOp57
 70
     1
102
RTVSPropertyOp58
 70
     1
102
RTVSPropertyOp59
 70
     1
102
RTVSPropertyOp60
 70
     1
102
RTVSPropertyOp61
 70
     1
102
RTVSPropertyOp62
 70
     1
  0
XRECORD
  5
1B8D3
102
{ACAD_REACTORS
330
1B8D2
102
}
330
1B8D2
100
AcDbXrecord
280
     1
102
RTVSPost2010Prop28
280
     0
102
RTVSPost2010PropOp28
 70
     1
102
RTVSPost2010Prop29
280
     1
102
RTVSPost2010PropOp29
 70
     1
102
RTVSPost2010Prop30
280
     1
102
RTVSPost2010PropOp30
 70
     1
102
RTVSPost2010Prop31
280
     0
102
RTVSPost2010PropOp31
 70
     1
102
RTVSPost2010Prop32
280
     0
102
RTVSPost2010PropOp32
 70
     1
102
RTVSPost2010Prop33
280
     0
102
RTVSPost2010PropOp33
 70
     1
102
RTVSPost2010Prop34
280
     0
102
RTVSPost2010PropOp34
 70
     1
102
RTVSPost2010Prop35
280
     0
102
RTVSPost2010PropOp35
 70
     1
102
RTVSPost2010Prop36
280
     0
102
RTVSPost2010PropOp36
 70
     1
102
RTVSPost2010Prop37
 90
       50
102
RTVSPost2010PropOp37
 70
     1
102
RTVSPost2010Prop38
140
0.0
102
RTVSPost2010PropOp38
 70
     1
102
RTVSPost2010Prop39
140
1.0
102
RTVSPost2010PropOp39
 70
     1
102
RTVSPost2010Prop40
 90
        0
102
RTVSPost2010PropOp40
 70
     1
102
RTVSPost2010Prop41ColorIndex
 90
       18
102
RTVSPost2010Prop41ColorRGB
 90
        0
102
RTVSPost2010PropOp41
 70
     1
102
RTVSPost2010Prop42
 90
       50
102
RTVSPost2010PropOp42
 70
     1
102
RTVSPost2010Prop43
 90
        3
102
RTVSPost2010PropOp43
 70
     1
102
RTVSPost2010Prop44ColorIndex
 90
        5
102
RTVSPost2010Prop44ColorRGB
 90
      255
102
RTVSPost2010PropOp44
 70
     1
102
RTVSPost2010Prop45
280
     0
102
RTVSPost2010PropOp45
 70
     1
102
RTVSPost2010Prop46
 90
       50
102
RTVSPost2010PropOp46
 70
     1
102
RTVSPost2010Prop47
 90
       50
102
RTVSPost2010PropOp47
 70
     1
102
RTVSPost2010Prop48
 90
       50
102
RTVSPost2010PropOp48
 70
     1
102
RTVSPost2010Prop49
280
     0
102
RTVSPost2010PropOp49
 70
     1
102
RTVSPost2010Prop50
 90
       50
102
RTVSPost2010PropOp50
 70
     1
102
RTVSPost2010Prop51ColorIndex
 90
      256
102
RTVSPost2010Prop51ColorRGB
 90
-16777216
102
RTVSPost2010PropOp51
 70
     0
102
RTVSPost2010Prop52
140
1.0
102
RTVSPost2010PropOp52
 70
     0
102
RTVSPost2010Prop53
 90
        2
102
RTVSPost2010PropOp53
 70
     1
102
RTVSPost2010Prop54
  1
strokes_ogs.tif
102
RTVSPost2010PropOp54
 70
     1
102
RTVSPost2010Prop55
280
     0
102
RTVSPost2010PropOp55
 70
     1
102
RTVSPost2010Prop56
140
1.0
102
RTVSPost2010PropOp56
 70
     1
102
RTVSPost2010Prop57
140
1.0
102
RTVSPost2010PropOp57
 70
     1
102
RTVSPropertyOp0
 70
     1
102
RTVSPropertyOp1
 70
     1
102
RTVSPropertyOp2
 70
     1
102
RTVSPropertyOp3
 70
     1
102
RTVSPropertyOp4
 70
     1
102
RTVSPropertyOp5
 70
     1
102
RTVSPropertyOp6
 70
     1
102
RTVSPropertyOp7
 70
     1
102
RTVSPropertyOp8
 70
     1
102
RTVSPropertyOp9
 70
     1
102
RTVSPropertyOp10
 70
     1
102
RTVSPropertyOp11
 70
     1
102
RTVSPropertyOp12
 70
     1
102
RTVSPropertyOp13
 70
     1
102
RTVSPropertyOp14
 70
     1
102
RTVSPropertyOp15
 70
     1
102
RTVSPropertyOp16
 70
     1
102
RTVSPropertyOp17
 70
     1
102
RTVSPropertyOp18
 70
     1
102
RTVSPropertyOp19
 70
     1
102
RTVSPropertyOp20
 70
     1
102
RTVSPropertyOp21
 70
     1
102
RTVSPropertyOp22
 70
     1
102
RTVSPropertyOp23
 70
     1
102
RTVSPropertyOp24
 70
     1
102
RTVSPropertyOp25
 70
     1
102
RTVSPropertyOp26
 70
     1
102
RTVSPropertyOp27
 70
     1
102
RTVSPropertyOp28
 70
     1
102
RTVSPropertyOp29
 70
     1
102
RTVSPropertyOp30
 70
     1
102
RTVSPropertyOp31
 70
     1
102
RTVSPropertyOp32
 70
     1
102
RTVSPropertyOp33
 70
     1
102
RTVSPropertyOp34
 70
     1
102
RTVSPropertyOp35
 70
     1
102
RTVSPropertyOp36
 70
     1
102
RTVSPropertyOp37
 70
     1
102
RTVSPropertyOp38
 70
     1
102
RTVSPropertyOp39
 70
     1
102
RTVSPropertyOp40
 70
     1
102
RTVSPropertyOp41
 70
     1
102
RTVSPropertyOp42
 70
     1
102
RTVSPropertyOp43
 70
     1
102
RTVSPropertyOp44
 70
     1
102
RTVSPropertyOp45
 70
     1
102
RTVSPropertyOp46
 70
     1
102
RTVSPropertyOp47
 70
     1
102
RTVSPropertyOp48
 70
     1
102
RTVSPropertyOp49
 70
     1
102
RTVSPropertyOp50
 70
     1
102
RTVSPropertyOp51
 70
     0
102
RTVSPropertyOp52
 70
     0
102
RTVSPropertyOp53
 70
     1
102
RTVSPropertyOp54
 70
     1
102
RTVSPropertyOp55
 70
     1
102
RTVSPropertyOp56
 70
     1
102
RTVSPropertyOp57
 70
     1
102
RTVSPropertyOp58
 70
     1
102
RTVSPropertyOp59
 70
     1
102
RTVSPropertyOp60
 70
     1
102
RTVSPropertyOp61
 70
     1
102
RTVSPropertyOp62
 70
     1
  0
XRECORD
  5
1B8D7
102
{ACAD_REACTORS
330
1B8D6
102
}
330
1B8D6
100
AcDbXrecord
280
     1
102
RTVSPost2010Prop28
280
     0
102
RTVSPost2010PropOp28
 70
     1
102
RTVSPost2010Prop29
280
     1
102
RTVSPost2010PropOp29
 70
     1
102
RTVSPost2010Prop30
280
     1
102
RTVSPost2010PropOp30
 70
     1
102
RTVSPost2010Prop31
280
     0
102
RTVSPost2010PropOp31
 70
     1
102
RTVSPost2010Prop32
280
     0
102
RTVSPost2010PropOp32
 70
     1
102
RTVSPost2010Prop33
280
     0
102
RTVSPost2010PropOp33
 70
     1
102
RTVSPost2010Prop34
280
     0
102
RTVSPost2010PropOp34
 70
     1
102
RTVSPost2010Prop35
280
     0
102
RTVSPost2010PropOp35
 70
     1
102
RTVSPost2010Prop36
280
     0
102
RTVSPost2010PropOp36
 70
     1
102
RTVSPost2010Prop37
 90
       50
102
RTVSPost2010PropOp37
 70
     1
102
RTVSPost2010Prop38
140
0.0
102
RTVSPost2010PropOp38
 70
     1
102
RTVSPost2010Prop39
140
1.0
102
RTVSPost2010PropOp39
 70
     1
102
RTVSPost2010Prop40
 90
        0
102
RTVSPost2010PropOp40
 70
     1
102
RTVSPost2010Prop41ColorIndex
 90
       18
102
RTVSPost2010Prop41ColorRGB
 90
        0
102
RTVSPost2010PropOp41
 70
     1
102
RTVSPost2010Prop42
 90
       50
102
RTVSPost2010PropOp42
 70
     1
102
RTVSPost2010Prop43
 90
        3
102
RTVSPost2010PropOp43
 70
     1
102
RTVSPost2010Prop44ColorIndex
 90
        5
102
RTVSPost2010Prop44ColorRGB
 90
      255
102
RTVSPost2010PropOp44
 70
     1
102
RTVSPost2010Prop45
280
     0
102
RTVSPost2010PropOp45
 70
     1
102
RTVSPost2010Prop46
 90
       50
102
RTVSPost2010PropOp46
 70
     1
102
RTVSPost2010Prop47
 90
       50
102
RTVSPost2010PropOp47
 70
     1
102
RTVSPost2010Prop48
 90
       50
102
RTVSPost2010PropOp48
 70
     1
102
RTVSPost2010Prop49
280
     0
102
RTVSPost2010PropOp49
 70
     1
102
RTVSPost2010Prop50
 90
       50
102
RTVSPost2010PropOp50
 70
     1
102
RTVSPost2010Prop51ColorIndex
 90
      256
102
RTVSPost2010Prop51ColorRGB
 90
-16777216
102
RTVSPost2010PropOp51
 70
     0
102
RTVSPost2010Prop52
140
1.0
102
RTVSPost2010PropOp52
 70
     0
102
RTVSPost2010Prop53
 90
        2
102
RTVSPost2010PropOp53
 70
     1
102
RTVSPost2010Prop54
  1
strokes_ogs.tif
102
RTVSPost2010PropOp54
 70
     1
102
RTVSPost2010Prop55
280
     0
102
RTVSPost2010PropOp55
 70
     1
102
RTVSPost2010Prop56
140
1.0
102
RTVSPost2010PropOp56
 70
     1
102
RTVSPost2010Prop57
140
1.0
102
RTVSPost2010PropOp57
 70
     1
102
RTVSPropertyOp0
 70
     1
102
RTVSPropertyOp1
 70
     1
102
RTVSPropertyOp2
 70
     1
102
RTVSPropertyOp3
 70
     1
102
RTVSPropertyOp4
 70
     1
102
RTVSPropertyOp5
 70
     1
102
RTVSPropertyOp6
 70
     1
102
RTVSPropertyOp7
 70
     1
102
RTVSPropertyOp8
 70
     1
102
RTVSPropertyOp9
 70
     1
102
RTVSPropertyOp10
 70
     1
102
RTVSPropertyOp11
 70
     1
102
RTVSPropertyOp12
 70
     1
102
RTVSPropertyOp13
 70
     1
102
RTVSPropertyOp14
 70
     1
102
RTVSPropertyOp15
 70
     1
102
RTVSPropertyOp16
 70
     1
102
RTVSPropertyOp17
 70
     1
102
RTVSPropertyOp18
 70
     1
102
RTVSPropertyOp19
 70
     1
102
RTVSPropertyOp20
 70
     1
102
RTVSPropertyOp21
 70
     1
102
RTVSPropertyOp22
 70
     1
102
RTVSPropertyOp23
 70
     1
102
RTVSPropertyOp24
 70
     1
102
RTVSPropertyOp25
 70
     1
102
RTVSPropertyOp26
 70
     1
102
RTVSPropertyOp27
 70
     1
102
RTVSPropertyOp28
 70
     1
102
RTVSPropertyOp29
 70
     1
102
RTVSPropertyOp30
 70
     1
102
RTVSPropertyOp31
 70
     1
102
RTVSPropertyOp32
 70
     1
102
RTVSPropertyOp33
 70
     1
102
RTVSPropertyOp34
 70
     1
102
RTVSPropertyOp35
 70
     1
102
RTVSPropertyOp36
 70
     1
102
RTVSPropertyOp37
 70
     1
102
RTVSPropertyOp38
 70
     1
102
RTVSPropertyOp39
 70
     1
102
RTVSPropertyOp40
 70
     1
102
RTVSPropertyOp41
 70
     1
102
RTVSPropertyOp42
 70
     1
102
RTVSPropertyOp43
 70
     1
102
RTVSPropertyOp44
 70
     1
102
RTVSPropertyOp45
 70
     1
102
RTVSPropertyOp46
 70
     1
102
RTVSPropertyOp47
 70
     1
102
RTVSPropertyOp48
 70
     1
102
RTVSPropertyOp49
 70
     1
102
RTVSPropertyOp50
 70
     1
102
RTVSPropertyOp51
 70
     0
102
RTVSPropertyOp52
 70
     0
102
RTVSPropertyOp53
 70
     1
102
RTVSPropertyOp54
 70
     1
102
RTVSPropertyOp55
 70
     1
102
RTVSPropertyOp56
 70
     1
102
RTVSPropertyOp57
 70
     1
102
RTVSPropertyOp58
 70
     1
102
RTVSPropertyOp59
 70
     1
102
RTVSPropertyOp60
 70
     1
102
RTVSPropertyOp61
 70
     1
102
RTVSPropertyOp62
 70
     1
  0
XRECORD
  5
1B8E9
102
{ACAD_REACTORS
330
1B8E8
102
}
330
1B8E8
100
AcDbXrecord
280
     1
102
RTVSPost2010Prop28
280
     0
102
RTVSPost2010PropOp28
 70
     1
102
RTVSPost2010Prop29
280
     1
102
RTVSPost2010PropOp29
 70
     1
102
RTVSPost2010Prop30
280
     1
102
RTVSPost2010PropOp30
 70
     1
102
RTVSPost2010Prop31
280
     0
102
RTVSPost2010PropOp31
 70
     1
102
RTVSPost2010Prop32
280
     0
102
RTVSPost2010PropOp32
 70
     1
102
RTVSPost2010Prop33
280
     0
102
RTVSPost2010PropOp33
 70
     1
102
RTVSPost2010Prop34
280
     0
102
RTVSPost2010PropOp34
 70
     1
102
RTVSPost2010Prop35
280
     0
102
RTVSPost2010PropOp35
 70
     1
102
RTVSPost2010Prop36
280
     0
102
RTVSPost2010PropOp36
 70
     1
102
RTVSPost2010Prop37
 90
       50
102
RTVSPost2010PropOp37
 70
     1
102
RTVSPost2010Prop38
140
0.0
102
RTVSPost2010PropOp38
 70
     1
102
RTVSPost2010Prop39
140
1.0
102
RTVSPost2010PropOp39
 70
     1
102
RTVSPost2010Prop40
 90
        0
102
RTVSPost2010PropOp40
 70
     1
102
RTVSPost2010Prop41ColorIndex
 90
       18
102
RTVSPost2010Prop41ColorRGB
 90
        0
102
RTVSPost2010PropOp41
 70
     1
102
RTVSPost2010Prop42
 90
       50
102
RTVSPost2010PropOp42
 70
     1
102
RTVSPost2010Prop43
 90
        3
102
RTVSPost2010PropOp43
 70
     1
102
RTVSPost2010Prop44ColorIndex
 90
        5
102
RTVSPost2010Prop44ColorRGB
 90
      255
102
RTVSPost2010PropOp44
 70
     1
102
RTVSPost2010Prop45
280
     0
102
RTVSPost2010PropOp45
 70
     1
102
RTVSPost2010Prop46
 90
       50
102
RTVSPost2010PropOp46
 70
     1
102
RTVSPost2010Prop47
 90
       50
102
RTVSPost2010PropOp47
 70
     1
102
RTVSPost2010Prop48
 90
       50
102
RTVSPost2010PropOp48
 70
     1
102
RTVSPost2010Prop49
280
     0
102
RTVSPost2010PropOp49
 70
     1
102
RTVSPost2010Prop50
 90
       50
102
RTVSPost2010PropOp50
 70
     1
102
RTVSPost2010Prop51ColorIndex
 90
      256
102
RTVSPost2010Prop51ColorRGB
 90
-16777216
102
RTVSPost2010PropOp51
 70
     0
102
RTVSPost2010Prop52
140
1.0
102
RTVSPost2010PropOp52
 70
     0
102
RTVSPost2010Prop53
 90
        2
102
RTVSPost2010PropOp53
 70
     1
102
RTVSPost2010Prop54
  1
strokes_ogs.tif
102
RTVSPost2010PropOp54
 70
     1
102
RTVSPost2010Prop55
280
     0
102
RTVSPost2010PropOp55
 70
     1
102
RTVSPost2010Prop56
140
1.0
102
RTVSPost2010PropOp56
 70
     1
102
RTVSPost2010Prop57
140
1.0
102
RTVSPost2010PropOp57
 70
     1
102
RTVSPropertyOp0
 70
     0
102
RTVSPropertyOp1
 70
     0
102
RTVSPropertyOp2
 70
     0
102
RTVSPropertyOp3
 70
     0
102
RTVSPropertyOp4
 70
     0
102
RTVSPropertyOp5
 70
     0
102
RTVSPropertyOp6
 70
     0
102
RTVSPropertyOp7
 70
     0
102
RTVSPropertyOp8
 70
     0
102
RTVSPropertyOp9
 70
     0
102
RTVSPropertyOp10
 70
     0
102
RTVSPropertyOp11
 70
     0
102
RTVSPropertyOp12
 70
     0
102
RTVSPropertyOp13
 70
     0
102
RTVSPropertyOp14
 70
     2
102
RTVSPropertyOp15
 70
     0
102
RTVSPropertyOp16
 70
     0
102
RTVSPropertyOp17
 70
     0
102
RTVSPropertyOp18
 70
     0
102
RTVSPropertyOp19
 70
     0
102
RTVSPropertyOp20
 70
     0
102
RTVSPropertyOp21
 70
     0
102
RTVSPropertyOp22
 70
     0
102
RTVSPropertyOp23
 70
     0
102
RTVSPropertyOp24
 70
     0
102
RTVSPropertyOp25
 70
     0
102
RTVSPropertyOp26
 70
     0
102
RTVSPropertyOp27
 70
     0
102
RTVSPropertyOp28
 70
     1
102
RTVSPropertyOp29
 70
     1
102
RTVSPropertyOp30
 70
     1
102
RTVSPropertyOp31
 70
     1
102
RTVSPropertyOp32
 70
     1
102
RTVSPropertyOp33
 70
     1
102
RTVSPropertyOp34
 70
     1
102
RTVSPropertyOp35
 70
     1
102
RTVSPropertyOp36
 70
     1
102
RTVSPropertyOp37
 70
     1
102
RTVSPropertyOp38
 70
     1
102
RTVSPropertyOp39
 70
     1
102
RTVSPropertyOp40
 70
     1
102
RTVSPropertyOp41
 70
     1
102
RTVSPropertyOp42
 70
     1
102
RTVSPropertyOp43
 70
     1
102
RTVSPropertyOp44
 70
     1
102
RTVSPropertyOp45
 70
     1
102
RTVSPropertyOp46
 70
     1
102
RTVSPropertyOp47
 70
     1
102
RTVSPropertyOp48
 70
     1
102
RTVSPropertyOp49
 70
     1
102
RTVSPropertyOp50
 70
     1
102
RTVSPropertyOp51
 70
     0
102
RTVSPropertyOp52
 70
     0
102
RTVSPropertyOp53
 70
     1
102
RTVSPropertyOp54
 70
     1
102
RTVSPropertyOp55
 70
     1
102
RTVSPropertyOp56
 70
     1
102
RTVSPropertyOp57
 70
     1
102
RTVSPropertyOp58
 70
     1
102
RTVSPropertyOp59
 70
     1
102
RTVSPropertyOp60
 70
     1
102
RTVSPropertyOp61
 70
     1
102
RTVSPropertyOp62
 70
     1
  0
XRECORD
  5
1B8DF
102
{ACAD_REACTORS
330
1B8DE
102
}
330
1B8DE
100
AcDbXrecord
280
     1
102
RTVSPost2010Prop28
280
     0
102
RTVSPost2010PropOp28
 70
     1
102
RTVSPost2010Prop29
280
     1
102
RTVSPost2010PropOp29
 70
     1
102
RTVSPost2010Prop30
280
     1
102
RTVSPost2010PropOp30
 70
     1
102
RTVSPost2010Prop31
280
     0
102
RTVSPost2010PropOp31
 70
     1
102
RTVSPost2010Prop32
280
     0
102
RTVSPost2010PropOp32
 70
     1
102
RTVSPost2010Prop33
280
     0
102
RTVSPost2010PropOp33
 70
     1
102
RTVSPost2010Prop34
280
     0
102
RTVSPost2010PropOp34
 70
     1
102
RTVSPost2010Prop35
280
     0
102
RTVSPost2010PropOp35
 70
     1
102
RTVSPost2010Prop36
280
     0
102
RTVSPost2010PropOp36
 70
     1
102
RTVSPost2010Prop37
 90
       50
102
RTVSPost2010PropOp37
 70
     1
102
RTVSPost2010Prop38
140
0.0
102
RTVSPost2010PropOp38
 70
     1
102
RTVSPost2010Prop39
140
1.0
102
RTVSPost2010PropOp39
 70
     1
102
RTVSPost2010Prop40
 90
        0
102
RTVSPost2010PropOp40
 70
     1
102
RTVSPost2010Prop41ColorIndex
 90
       18
102
RTVSPost2010Prop41ColorRGB
 90
        0
102
RTVSPost2010PropOp41
 70
     1
102
RTVSPost2010Prop42
 90
       50
102
RTVSPost2010PropOp42
 70
     1
102
RTVSPost2010Prop43
 90
        3
102
RTVSPost2010PropOp43
 70
     1
102
RTVSPost2010Prop44ColorIndex
 90
        5
102
RTVSPost2010Prop44ColorRGB
 90
      255
102
RTVSPost2010PropOp44
 70
     1
102
RTVSPost2010Prop45
280
     0
102
RTVSPost2010PropOp45
 70
     1
102
RTVSPost2010Prop46
 90
       50
102
RTVSPost2010PropOp46
 70
     1
102
RTVSPost2010Prop47
 90
       50
102
RTVSPost2010PropOp47
 70
     1
102
RTVSPost2010Prop48
 90
       50
102
RTVSPost2010PropOp48
 70
     1
102
RTVSPost2010Prop49
280
     0
102
RTVSPost2010PropOp49
 70
     1
102
RTVSPost2010Prop50
 90
       50
102
RTVSPost2010PropOp50
 70
     1
102
RTVSPost2010Prop51ColorIndex
 90
      256
102
RTVSPost2010Prop51ColorRGB
 90
-16777216
102
RTVSPost2010PropOp51
 70
     0
102
RTVSPost2010Prop52
140
1.0
102
RTVSPost2010PropOp52
 70
     0
102
RTVSPost2010Prop53
 90
        2
102
RTVSPost2010PropOp53
 70
     1
102
RTVSPost2010Prop54
  1
strokes_ogs.tif
102
RTVSPost2010PropOp54
 70
     1
102
RTVSPost2010Prop55
280
     0
102
RTVSPost2010PropOp55
 70
     1
102
RTVSPost2010Prop56
140
1.0
102
RTVSPost2010PropOp56
 70
     1
102
RTVSPost2010Prop57
140
1.0
102
RTVSPost2010PropOp57
 70
     1
102
RTVSPropertyOp0
 70
     1
102
RTVSPropertyOp1
 70
     1
102
RTVSPropertyOp2
 70
     1
102
RTVSPropertyOp3
 70
     1
102
RTVSPropertyOp4
 70
     1
102
RTVSPropertyOp5
 70
     1
102
RTVSPropertyOp6
 70
     1
102
RTVSPropertyOp7
 70
     1
102
RTVSPropertyOp8
 70
     1
102
RTVSPropertyOp9
 70
     1
102
RTVSPropertyOp10
 70
     1
102
RTVSPropertyOp11
 70
     1
102
RTVSPropertyOp12
 70
     1
102
RTVSPropertyOp13
 70
     1
102
RTVSPropertyOp14
 70
     1
102
RTVSPropertyOp15
 70
     1
102
RTVSPropertyOp16
 70
     1
102
RTVSPropertyOp17
 70
     1
102
RTVSPropertyOp18
 70
     1
102
RTVSPropertyOp19
 70
     1
102
RTVSPropertyOp20
 70
     1
102
RTVSPropertyOp21
 70
     1
102
RTVSPropertyOp22
 70
     1
102
RTVSPropertyOp23
 70
     1
102
RTVSPropertyOp24
 70
     1
102
RTVSPropertyOp25
 70
     1
102
RTVSPropertyOp26
 70
     1
102
RTVSPropertyOp27
 70
     1
102
RTVSPropertyOp28
 70
     1
102
RTVSPropertyOp29
 70
     1
102
RTVSPropertyOp30
 70
     1
102
RTVSPropertyOp31
 70
     1
102
RTVSPropertyOp32
 70
     1
102
RTVSPropertyOp33
 70
     1
102
RTVSPropertyOp34
 70
     1
102
RTVSPropertyOp35
 70
     1
102
RTVSPropertyOp36
 70
     1
102
RTVSPropertyOp37
 70
     1
102
RTVSPropertyOp38
 70
     1
102
RTVSPropertyOp39
 70
     1
102
RTVSPropertyOp40
 70
     1
102
RTVSPropertyOp41
 70
     1
102
RTVSPropertyOp42
 70
     1
102
RTVSPropertyOp43
 70
     1
102
RTVSPropertyOp44
 70
     1
102
RTVSPropertyOp45
 70
     1
102
RTVSPropertyOp46
 70
     1
102
RTVSPropertyOp47
 70
     1
102
RTVSPropertyOp48
 70
     1
102
RTVSPropertyOp49
 70
     1
102
RTVSPropertyOp50
 70
     1
102
RTVSPropertyOp51
 70
     0
102
RTVSPropertyOp52
 70
     0
102
RTVSPropertyOp53
 70
     1
102
RTVSPropertyOp54
 70
     1
102
RTVSPropertyOp55
 70
     1
102
RTVSPropertyOp56
 70
     1
102
RTVSPropertyOp57
 70
     1
102
RTVSPropertyOp58
 70
     1
102
RTVSPropertyOp59
 70
     1
102
RTVSPropertyOp60
 70
     1
102
RTVSPropertyOp61
 70
     1
102
RTVSPropertyOp62
 70
     1
  0
XRECORD
  5
1B8C3
102
{ACAD_REACTORS
330
1B8C2
102
}
330
1B8C2
100
AcDbXrecord
280
     1
102
RTVSPost2010Prop28
280
     0
102
RTVSPost2010PropOp28
 70
     1
102
RTVSPost2010Prop29
280
     1
102
RTVSPost2010PropOp29
 70
     1
102
RTVSPost2010Prop30
280
     1
102
RTVSPost2010PropOp30
 70
     1
102
RTVSPost2010Prop31
280
     0
102
RTVSPost2010PropOp31
 70
     1
102
RTVSPost2010Prop32
280
     0
102
RTVSPost2010PropOp32
 70
     1
102
RTVSPost2010Prop33
280
     0
102
RTVSPost2010PropOp33
 70
     1
102
RTVSPost2010Prop34
280
     0
102
RTVSPost2010PropOp34
 70
     1
102
RTVSPost2010Prop35
280
     0
102
RTVSPost2010PropOp35
 70
     1
102
RTVSPost2010Prop36
280
     0
102
RTVSPost2010PropOp36
 70
     1
102
RTVSPost2010Prop37
 90
       50
102
RTVSPost2010PropOp37
 70
     1
102
RTVSPost2010Prop38
140
0.0
102
RTVSPost2010PropOp38
 70
     1
102
RTVSPost2010Prop39
140
1.0
102
RTVSPost2010PropOp39
 70
     1
102
RTVSPost2010Prop40
 90
        0
102
RTVSPost2010PropOp40
 70
     1
102
RTVSPost2010Prop41ColorIndex
 90
       18
102
RTVSPost2010Prop41ColorRGB
 90
        0
102
RTVSPost2010PropOp41
 70
     1
102
RTVSPost2010Prop42
 90
       50
102
RTVSPost2010PropOp42
 70
     1
102
RTVSPost2010Prop43
 90
        3
102
RTVSPost2010PropOp43
 70
     1
102
RTVSPost2010Prop44ColorIndex
 90
        5
102
RTVSPost2010Prop44ColorRGB
 90
      255
102
RTVSPost2010PropOp44
 70
     1
102
RTVSPost2010Prop45
280
     0
102
RTVSPost2010PropOp45
 70
     1
102
RTVSPost2010Prop46
 90
       50
102
RTVSPost2010PropOp46
 70
     1
102
RTVSPost2010Prop47
 90
       50
102
RTVSPost2010PropOp47
 70
     1
102
RTVSPost2010Prop48
 90
       50
102
RTVSPost2010PropOp48
 70
     1
102
RTVSPost2010Prop49
280
     0
102
RTVSPost2010PropOp49
 70
     1
102
RTVSPost2010Prop50
 90
       50
102
RTVSPost2010PropOp50
 70
     1
102
RTVSPost2010Prop51ColorIndex
 90
      256
102
RTVSPost2010Prop51ColorRGB
 90
-16777216
102
RTVSPost2010PropOp51
 70
     0
102
RTVSPost2010Prop52
140
1.0
102
RTVSPost2010PropOp52
 70
     0
102
RTVSPost2010Prop53
 90
        2
102
RTVSPost2010PropOp53
 70
     1
102
RTVSPost2010Prop54
  1
strokes_ogs.tif
102
RTVSPost2010PropOp54
 70
     1
102
RTVSPost2010Prop55
280
     0
102
RTVSPost2010PropOp55
 70
     1
102
RTVSPost2010Prop56
140
1.0
102
RTVSPost2010PropOp56
 70
     1
102
RTVSPost2010Prop57
140
1.0
102
RTVSPost2010PropOp57
 70
     1
102
RTVSPropertyOp0
 70
     1
102
RTVSPropertyOp1
 70
     1
102
RTVSPropertyOp2
 70
     1
102
RTVSPropertyOp3
 70
     1
102
RTVSPropertyOp4
 70
     1
102
RTVSPropertyOp5
 70
     1
102
RTVSPropertyOp6
 70
     1
102
RTVSPropertyOp7
 70
     1
102
RTVSPropertyOp8
 70
     1
102
RTVSPropertyOp9
 70
     1
102
RTVSPropertyOp10
 70
     1
102
RTVSPropertyOp11
 70
     1
102
RTVSPropertyOp12
 70
     1
102
RTVSPropertyOp13
 70
     1
102
RTVSPropertyOp14
 70
     1
102
RTVSPropertyOp15
 70
     1
102
RTVSPropertyOp16
 70
     1
102
RTVSPropertyOp17
 70
     1
102
RTVSPropertyOp18
 70
     1
102
RTVSPropertyOp19
 70
     1
102
RTVSPropertyOp20
 70
     1
102
RTVSPropertyOp21
 70
     1
102
RTVSPropertyOp22
 70
     1
102
RTVSPropertyOp23
 70
     1
102
RTVSPropertyOp24
 70
     1
102
RTVSPropertyOp25
 70
     1
102
RTVSPropertyOp26
 70
     1
102
RTVSPropertyOp27
 70
     1
102
RTVSPropertyOp28
 70
     1
102
RTVSPropertyOp29
 70
     1
102
RTVSPropertyOp30
 70
     1
102
RTVSPropertyOp31
 70
     1
102
RTVSPropertyOp32
 70
     1
102
RTVSPropertyOp33
 70
     1
102
RTVSPropertyOp34
 70
     1
102
RTVSPropertyOp35
 70
     1
102
RTVSPropertyOp36
 70
     1
102
RTVSPropertyOp37
 70
     1
102
RTVSPropertyOp38
 70
     1
102
RTVSPropertyOp39
 70
     1
102
RTVSPropertyOp40
 70
     1
102
RTVSPropertyOp41
 70
     1
102
RTVSPropertyOp42
 70
     1
102
RTVSPropertyOp43
 70
     1
102
RTVSPropertyOp44
 70
     1
102
RTVSPropertyOp45
 70
     1
102
RTVSPropertyOp46
 70
     1
102
RTVSPropertyOp47
 70
     1
102
RTVSPropertyOp48
 70
     1
102
RTVSPropertyOp49
 70
     1
102
RTVSPropertyOp50
 70
     1
102
RTVSPropertyOp51
 70
     0
102
RTVSPropertyOp52
 70
     0
102
RTVSPropertyOp53
 70
     1
102
RTVSPropertyOp54
 70
     1
102
RTVSPropertyOp55
 70
     1
102
RTVSPropertyOp56
 70
     1
102
RTVSPropertyOp57
 70
     1
102
RTVSPropertyOp58
 70
     1
102
RTVSPropertyOp59
 70
     1
102
RTVSPropertyOp60
 70
     1
102
RTVSPropertyOp61
 70
     1
102
RTVSPropertyOp62
 70
     1
  0
XRECORD
  5
1B8C5
102
{ACAD_REACTORS
330
1B8C4
102
}
330
1B8C4
100
AcDbXrecord
280
     1
102
RTVSPost2010Prop28
280
     0
102
RTVSPost2010PropOp28
 70
     1
102
RTVSPost2010Prop29
280
     1
102
RTVSPost2010PropOp29
 70
     1
102
RTVSPost2010Prop30
280
     1
102
RTVSPost2010PropOp30
 70
     1
102
RTVSPost2010Prop31
280
     0
102
RTVSPost2010PropOp31
 70
     1
102
RTVSPost2010Prop32
280
     0
102
RTVSPost2010PropOp32
 70
     1
102
RTVSPost2010Prop33
280
     0
102
RTVSPost2010PropOp33
 70
     1
102
RTVSPost2010Prop34
280
     0
102
RTVSPost2010PropOp34
 70
     1
102
RTVSPost2010Prop35
280
     0
102
RTVSPost2010PropOp35
 70
     1
102
RTVSPost2010Prop36
280
     0
102
RTVSPost2010PropOp36
 70
     1
102
RTVSPost2010Prop37
 90
       50
102
RTVSPost2010PropOp37
 70
     1
102
RTVSPost2010Prop38
140
0.0
102
RTVSPost2010PropOp38
 70
     1
102
RTVSPost2010Prop39
140
1.0
102
RTVSPost2010PropOp39
 70
     1
102
RTVSPost2010Prop40
 90
        0
102
RTVSPost2010PropOp40
 70
     1
102
RTVSPost2010Prop41ColorIndex
 90
       18
102
RTVSPost2010Prop41ColorRGB
 90
        0
102
RTVSPost2010PropOp41
 70
     1
102
RTVSPost2010Prop42
 90
       50
102
RTVSPost2010PropOp42
 70
     1
102
RTVSPost2010Prop43
 90
        3
102
RTVSPost2010PropOp43
 70
     1
102
RTVSPost2010Prop44ColorIndex
 90
        5
102
RTVSPost2010Prop44ColorRGB
 90
      255
102
RTVSPost2010PropOp44
 70
     1
102
RTVSPost2010Prop45
280
     0
102
RTVSPost2010PropOp45
 70
     1
102
RTVSPost2010Prop46
 90
       50
102
RTVSPost2010PropOp46
 70
     1
102
RTVSPost2010Prop47
 90
       50
102
RTVSPost2010PropOp47
 70
     1
102
RTVSPost2010Prop48
 90
       50
102
RTVSPost2010PropOp48
 70
     1
102
RTVSPost2010Prop49
280
     0
102
RTVSPost2010PropOp49
 70
     1
102
RTVSPost2010Prop50
 90
       50
102
RTVSPost2010PropOp50
 70
     1
102
RTVSPost2010Prop51ColorIndex
 90
      256
102
RTVSPost2010Prop51ColorRGB
 90
-16777216
102
RTVSPost2010PropOp51
 70
     0
102
RTVSPost2010Prop52
140
1.0
102
RTVSPost2010PropOp52
 70
     0
102
RTVSPost2010Prop53
 90
        2
102
RTVSPost2010PropOp53
 70
     1
102
RTVSPost2010Prop54
  1
strokes_ogs.tif
102
RTVSPost2010PropOp54
 70
     1
102
RTVSPost2010Prop55
280
     0
102
RTVSPost2010PropOp55
 70
     1
102
RTVSPost2010Prop56
140
1.0
102
RTVSPost2010PropOp56
 70
     1
102
RTVSPost2010Prop57
140
1.0
102
RTVSPost2010PropOp57
 70
     1
102
RTVSPropertyOp0
 70
     1
102
RTVSPropertyOp1
 70
     1
102
RTVSPropertyOp2
 70
     1
102
RTVSPropertyOp3
 70
     1
102
RTVSPropertyOp4
 70
     1
102
RTVSPropertyOp5
 70
     1
102
RTVSPropertyOp6
 70
     1
102
RTVSPropertyOp7
 70
     1
102
RTVSPropertyOp8
 70
     1
102
RTVSPropertyOp9
 70
     1
102
RTVSPropertyOp10
 70
     1
102
RTVSPropertyOp11
 70
     1
102
RTVSPropertyOp12
 70
     1
102
RTVSPropertyOp13
 70
     1
102
RTVSPropertyOp14
 70
     1
102
RTVSPropertyOp15
 70
     1
102
RTVSPropertyOp16
 70
     1
102
RTVSPropertyOp17
 70
     1
102
RTVSPropertyOp18
 70
     1
102
RTVSPropertyOp19
 70
     1
102
RTVSPropertyOp20
 70
     1
102
RTVSPropertyOp21
 70
     1
102
RTVSPropertyOp22
 70
     1
102
RTVSPropertyOp23
 70
     1
102
RTVSPropertyOp24
 70
     1
102
RTVSPropertyOp25
 70
     1
102
RTVSPropertyOp26
 70
     1
102
RTVSPropertyOp27
 70
     1
102
RTVSPropertyOp28
 70
     1
102
RTVSPropertyOp29
 70
     1
102
RTVSPropertyOp30
 70
     1
102
RTVSPropertyOp31
 70
     1
102
RTVSPropertyOp32
 70
     1
102
RTVSPropertyOp33
 70
     1
102
RTVSPropertyOp34
 70
     1
102
RTVSPropertyOp35
 70
     1
102
RTVSPropertyOp36
 70
     1
102
RTVSPropertyOp37
 70
     1
102
RTVSPropertyOp38
 70
     1
102
RTVSPropertyOp39
 70
     1
102
RTVSPropertyOp40
 70
     1
102
RTVSPropertyOp41
 70
     1
102
RTVSPropertyOp42
 70
     1
102
RTVSPropertyOp43
 70
     1
102
RTVSPropertyOp44
 70
     1
102
RTVSPropertyOp45
 70
     1
102
RTVSPropertyOp46
 70
     1
102
RTVSPropertyOp47
 70
     1
102
RTVSPropertyOp48
 70
     1
102
RTVSPropertyOp49
 70
     1
102
RTVSPropertyOp50
 70
     1
102
RTVSPropertyOp51
 70
     0
102
RTVSPropertyOp52
 70
     0
102
RTVSPropertyOp53
 70
     1
102
RTVSPropertyOp54
 70
     1
102
RTVSPropertyOp55
 70
     1
102
RTVSPropertyOp56
 70
     1
102
RTVSPropertyOp57
 70
     1
102
RTVSPropertyOp58
 70
     1
102
RTVSPropertyOp59
 70
     1
102
RTVSPropertyOp60
 70
     1
102
RTVSPropertyOp61
 70
     1
102
RTVSPropertyOp62
 70
     1
  0
XRECORD
  5
1B8C7
102
{ACAD_REACTORS
330
1B8C6
102
}
330
1B8C6
100
AcDbXrecord
280
     1
102
RTVSPost2010Prop28
280
     0
102
RTVSPost2010PropOp28
 70
     1
102
RTVSPost2010Prop29
280
     1
102
RTVSPost2010PropOp29
 70
     1
102
RTVSPost2010Prop30
280
     1
102
RTVSPost2010PropOp30
 70
     1
102
RTVSPost2010Prop31
280
     0
102
RTVSPost2010PropOp31
 70
     1
102
RTVSPost2010Prop32
280
     0
102
RTVSPost2010PropOp32
 70
     1
102
RTVSPost2010Prop33
280
     0
102
RTVSPost2010PropOp33
 70
     1
102
RTVSPost2010Prop34
280
     0
102
RTVSPost2010PropOp34
 70
     1
102
RTVSPost2010Prop35
280
     0
102
RTVSPost2010PropOp35
 70
     1
102
RTVSPost2010Prop36
280
     0
102
RTVSPost2010PropOp36
 70
     1
102
RTVSPost2010Prop37
 90
       50
102
RTVSPost2010PropOp37
 70
     1
102
RTVSPost2010Prop38
140
0.0
102
RTVSPost2010PropOp38
 70
     1
102
RTVSPost2010Prop39
140
1.0
102
RTVSPost2010PropOp39
 70
     1
102
RTVSPost2010Prop40
 90
        0
102
RTVSPost2010PropOp40
 70
     1
102
RTVSPost2010Prop41ColorIndex
 90
       18
102
RTVSPost2010Prop41ColorRGB
 90
        0
102
RTVSPost2010PropOp41
 70
     1
102
RTVSPost2010Prop42
 90
       50
102
RTVSPost2010PropOp42
 70
     1
102
RTVSPost2010Prop43
 90
        3
102
RTVSPost2010PropOp43
 70
     1
102
RTVSPost2010Prop44ColorIndex
 90
        5
102
RTVSPost2010Prop44ColorRGB
 90
      255
102
RTVSPost2010PropOp44
 70
     1
102
RTVSPost2010Prop45
280
     0
102
RTVSPost2010PropOp45
 70
     1
102
RTVSPost2010Prop46
 90
       50
102
RTVSPost2010PropOp46
 70
     1
102
RTVSPost2010Prop47
 90
       50
102
RTVSPost2010PropOp47
 70
     1
102
RTVSPost2010Prop48
 90
       50
102
RTVSPost2010PropOp48
 70
     1
102
RTVSPost2010Prop49
280
     0
102
RTVSPost2010PropOp49
 70
     1
102
RTVSPost2010Prop50
 90
       50
102
RTVSPost2010PropOp50
 70
     1
102
RTVSPost2010Prop51ColorIndex
 90
      256
102
RTVSPost2010Prop51ColorRGB
 90
-16777216
102
RTVSPost2010PropOp51
 70
     0
102
RTVSPost2010Prop52
140
1.0
102
RTVSPost2010PropOp52
 70
     0
102
RTVSPost2010Prop53
 90
        2
102
RTVSPost2010PropOp53
 70
     1
102
RTVSPost2010Prop54
  1
strokes_ogs.tif
102
RTVSPost2010PropOp54
 70
     1
102
RTVSPost2010Prop55
280
     0
102
RTVSPost2010PropOp55
 70
     1
102
RTVSPost2010Prop56
140
1.0
102
RTVSPost2010PropOp56
 70
     1
102
RTVSPost2010Prop57
140
1.0
102
RTVSPost2010PropOp57
 70
     1
102
RTVSPropertyOp0
 70
     1
102
RTVSPropertyOp1
 70
     1
102
RTVSPropertyOp2
 70
     1
102
RTVSPropertyOp3
 70
     1
102
RTVSPropertyOp4
 70
     1
102
RTVSPropertyOp5
 70
     1
102
RTVSPropertyOp6
 70
     1
102
RTVSPropertyOp7
 70
     1
102
RTVSPropertyOp8
 70
     1
102
RTVSPropertyOp9
 70
     1
102
RTVSPropertyOp10
 70
     1
102
RTVSPropertyOp11
 70
     1
102
RTVSPropertyOp12
 70
     1
102
RTVSPropertyOp13
 70
     1
102
RTVSPropertyOp14
 70
     1
102
RTVSPropertyOp15
 70
     1
102
RTVSPropertyOp16
 70
     1
102
RTVSPropertyOp17
 70
     1
102
RTVSPropertyOp18
 70
     1
102
RTVSPropertyOp19
 70
     1
102
RTVSPropertyOp20
 70
     1
102
RTVSPropertyOp21
 70
     1
102
RTVSPropertyOp22
 70
     1
102
RTVSPropertyOp23
 70
     1
102
RTVSPropertyOp24
 70
     1
102
RTVSPropertyOp25
 70
     1
102
RTVSPropertyOp26
 70
     1
102
RTVSPropertyOp27
 70
     1
102
RTVSPropertyOp28
 70
     1
102
RTVSPropertyOp29
 70
     1
102
RTVSPropertyOp30
 70
     1
102
RTVSPropertyOp31
 70
     1
102
RTVSPropertyOp32
 70
     1
102
RTVSPropertyOp33
 70
     1
102
RTVSPropertyOp34
 70
     1
102
RTVSPropertyOp35
 70
     1
102
RTVSPropertyOp36
 70
     1
102
RTVSPropertyOp37
 70
     1
102
RTVSPropertyOp38
 70
     1
102
RTVSPropertyOp39
 70
     1
102
RTVSPropertyOp40
 70
     1
102
RTVSPropertyOp41
 70
     1
102
RTVSPropertyOp42
 70
     1
102
RTVSPropertyOp43
 70
     1
102
RTVSPropertyOp44
 70
     1
102
RTVSPropertyOp45
 70
     1
102
RTVSPropertyOp46
 70
     1
102
RTVSPropertyOp47
 70
     1
102
RTVSPropertyOp48
 70
     1
102
RTVSPropertyOp49
 70
     1
102
RTVSPropertyOp50
 70
     1
102
RTVSPropertyOp51
 70
     0
102
RTVSPropertyOp52
 70
     0
102
RTVSPropertyOp53
 70
     1
102
RTVSPropertyOp54
 70
     1
102
RTVSPropertyOp55
 70
     1
102
RTVSPropertyOp56
 70
     1
102
RTVSPropertyOp57
 70
     1
102
RTVSPropertyOp58
 70
     1
102
RTVSPropertyOp59
 70
     1
102
RTVSPropertyOp60
 70
     1
102
RTVSPropertyOp61
 70
     1
102
RTVSPropertyOp62
 70
     1
  0
XRECORD
  5
1B8C9
102
{ACAD_REACTORS
330
1B8C8
102
}
330
1B8C8
100
AcDbXrecord
280
     1
102
RTVSPost2010Prop28
280
     0
102
RTVSPost2010PropOp28
 70
     1
102
RTVSPost2010Prop29
280
     1
102
RTVSPost2010PropOp29
 70
     1
102
RTVSPost2010Prop30
280
     1
102
RTVSPost2010PropOp30
 70
     1
102
RTVSPost2010Prop31
280
     0
102
RTVSPost2010PropOp31
 70
     1
102
RTVSPost2010Prop32
280
     0
102
RTVSPost2010PropOp32
 70
     1
102
RTVSPost2010Prop33
280
     0
102
RTVSPost2010PropOp33
 70
     1
102
RTVSPost2010Prop34
280
     0
102
RTVSPost2010PropOp34
 70
     1
102
RTVSPost2010Prop35
280
     0
102
RTVSPost2010PropOp35
 70
     1
102
RTVSPost2010Prop36
280
     0
102
RTVSPost2010PropOp36
 70
     1
102
RTVSPost2010Prop37
 90
       50
102
RTVSPost2010PropOp37
 70
     1
102
RTVSPost2010Prop38
140
0.0
102
RTVSPost2010PropOp38
 70
     1
102
RTVSPost2010Prop39
140
1.0
102
RTVSPost2010PropOp39
 70
     1
102
RTVSPost2010Prop40
 90
        0
102
RTVSPost2010PropOp40
 70
     1
102
RTVSPost2010Prop41ColorIndex
 90
       18
102
RTVSPost2010Prop41ColorRGB
 90
        0
102
RTVSPost2010PropOp41
 70
     1
102
RTVSPost2010Prop42
 90
       50
102
RTVSPost2010PropOp42
 70
     1
102
RTVSPost2010Prop43
 90
        3
102
RTVSPost2010PropOp43
 70
     1
102
RTVSPost2010Prop44ColorIndex
 90
        5
102
RTVSPost2010Prop44ColorRGB
 90
      255
102
RTVSPost2010PropOp44
 70
     1
102
RTVSPost2010Prop45
280
     0
102
RTVSPost2010PropOp45
 70
     1
102
RTVSPost2010Prop46
 90
       50
102
RTVSPost2010PropOp46
 70
     1
102
RTVSPost2010Prop47
 90
       50
102
RTVSPost2010PropOp47
 70
     1
102
RTVSPost2010Prop48
 90
       50
102
RTVSPost2010PropOp48
 70
     1
102
RTVSPost2010Prop49
280
     0
102
RTVSPost2010PropOp49
 70
     1
102
RTVSPost2010Prop50
 90
       50
102
RTVSPost2010PropOp50
 70
     1
102
RTVSPost2010Prop51ColorIndex
 90
      256
102
RTVSPost2010Prop51ColorRGB
 90
-16777216
102
RTVSPost2010PropOp51
 70
     0
102
RTVSPost2010Prop52
140
1.0
102
RTVSPost2010PropOp52
 70
     0
102
RTVSPost2010Prop53
 90
        2
102
RTVSPost2010PropOp53
 70
     1
102
RTVSPost2010Prop54
  1
strokes_ogs.tif
102
RTVSPost2010PropOp54
 70
     1
102
RTVSPost2010Prop55
280
     0
102
RTVSPost2010PropOp55
 70
     1
102
RTVSPost2010Prop56
140
1.0
102
RTVSPost2010PropOp56
 70
     1
102
RTVSPost2010Prop57
140
1.0
102
RTVSPost2010PropOp57
 70
     1
102
RTVSPropertyOp0
 70
     1
102
RTVSPropertyOp1
 70
     1
102
RTVSPropertyOp2
 70
     1
102
RTVSPropertyOp3
 70
     1
102
RTVSPropertyOp4
 70
     1
102
RTVSPropertyOp5
 70
     1
102
RTVSPropertyOp6
 70
     1
102
RTVSPropertyOp7
 70
     1
102
RTVSPropertyOp8
 70
     1
102
RTVSPropertyOp9
 70
     1
102
RTVSPropertyOp10
 70
     1
102
RTVSPropertyOp11
 70
     1
102
RTVSPropertyOp12
 70
     1
102
RTVSPropertyOp13
 70
     1
102
RTVSPropertyOp14
 70
     1
102
RTVSPropertyOp15
 70
     1
102
RTVSPropertyOp16
 70
     1
102
RTVSPropertyOp17
 70
     1
102
RTVSPropertyOp18
 70
     1
102
RTVSPropertyOp19
 70
     1
102
RTVSPropertyOp20
 70
     1
102
RTVSPropertyOp21
 70
     1
102
RTVSPropertyOp22
 70
     1
102
RTVSPropertyOp23
 70
     1
102
RTVSPropertyOp24
 70
     1
102
RTVSPropertyOp25
 70
     1
102
RTVSPropertyOp26
 70
     1
102
RTVSPropertyOp27
 70
     1
102
RTVSPropertyOp28
 70
     1
102
RTVSPropertyOp29
 70
     1
102
RTVSPropertyOp30
 70
     1
102
RTVSPropertyOp31
 70
     1
102
RTVSPropertyOp32
 70
     1
102
RTVSPropertyOp33
 70
     1
102
RTVSPropertyOp34
 70
     1
102
RTVSPropertyOp35
 70
     1
102
RTVSPropertyOp36
 70
     1
102
RTVSPropertyOp37
 70
     1
102
RTVSPropertyOp38
 70
     1
102
RTVSPropertyOp39
 70
     1
102
RTVSPropertyOp40
 70
     1
102
RTVSPropertyOp41
 70
     1
102
RTVSPropertyOp42
 70
     1
102
RTVSPropertyOp43
 70
     1
102
RTVSPropertyOp44
 70
     1
102
RTVSPropertyOp45
 70
     1
102
RTVSPropertyOp46
 70
     1
102
RTVSPropertyOp47
 70
     1
102
RTVSPropertyOp48
 70
     1
102
RTVSPropertyOp49
 70
     1
102
RTVSPropertyOp50
 70
     1
102
RTVSPropertyOp51
 70
     0
102
RTVSPropertyOp52
 70
     0
102
RTVSPropertyOp53
 70
     1
102
RTVSPropertyOp54
 70
     1
102
RTVSPropertyOp55
 70
     1
102
RTVSPropertyOp56
 70
     1
102
RTVSPropertyOp57
 70
     1
102
RTVSPropertyOp58
 70
     1
102
RTVSPropertyOp59
 70
     1
102
RTVSPropertyOp60
 70
     1
102
RTVSPropertyOp61
 70
     1
102
RTVSPropertyOp62
 70
     1
  0
XRECORD
  5
1B8D1
102
{ACAD_REACTORS
330
1B8D0
102
}
330
1B8D0
100
AcDbXrecord
280
     1
102
RTVSPost2010Prop28
280
     0
102
RTVSPost2010PropOp28
 70
     1
102
RTVSPost2010Prop29
280
     1
102
RTVSPost2010PropOp29
 70
     1
102
RTVSPost2010Prop30
280
     1
102
RTVSPost2010PropOp30
 70
     1
102
RTVSPost2010Prop31
280
     0
102
RTVSPost2010PropOp31
 70
     1
102
RTVSPost2010Prop32
280
     0
102
RTVSPost2010PropOp32
 70
     1
102
RTVSPost2010Prop33
280
     0
102
RTVSPost2010PropOp33
 70
     1
102
RTVSPost2010Prop34
280
     0
102
RTVSPost2010PropOp34
 70
     1
102
RTVSPost2010Prop35
280
     0
102
RTVSPost2010PropOp35
 70
     1
102
RTVSPost2010Prop36
280
     0
102
RTVSPost2010PropOp36
 70
     1
102
RTVSPost2010Prop37
 90
       50
102
RTVSPost2010PropOp37
 70
     1
102
RTVSPost2010Prop38
140
0.0
102
RTVSPost2010PropOp38
 70
     1
102
RTVSPost2010Prop39
140
1.0
102
RTVSPost2010PropOp39
 70
     1
102
RTVSPost2010Prop40
 90
        0
102
RTVSPost2010PropOp40
 70
     1
102
RTVSPost2010Prop41ColorIndex
 90
       18
102
RTVSPost2010Prop41ColorRGB
 90
        0
102
RTVSPost2010PropOp41
 70
     1
102
RTVSPost2010Prop42
 90
       50
102
RTVSPost2010PropOp42
 70
     1
102
RTVSPost2010Prop43
 90
        3
102
RTVSPost2010PropOp43
 70
     1
102
RTVSPost2010Prop44ColorIndex
 90
        5
102
RTVSPost2010Prop44ColorRGB
 90
      255
102
RTVSPost2010PropOp44
 70
     1
102
RTVSPost2010Prop45
280
     0
102
RTVSPost2010PropOp45
 70
     1
102
RTVSPost2010Prop46
 90
       50
102
RTVSPost2010PropOp46
 70
     1
102
RTVSPost2010Prop47
 90
       50
102
RTVSPost2010PropOp47
 70
     1
102
RTVSPost2010Prop48
 90
       50
102
RTVSPost2010PropOp48
 70
     1
102
RTVSPost2010Prop49
280
     0
102
RTVSPost2010PropOp49
 70
     1
102
RTVSPost2010Prop50
 90
       50
102
RTVSPost2010PropOp50
 70
     1
102
RTVSPost2010Prop51ColorIndex
 90
      256
102
RTVSPost2010Prop51ColorRGB
 90
-16777216
102
RTVSPost2010PropOp51
 70
     0
102
RTVSPost2010Prop52
140
1.0
102
RTVSPost2010PropOp52
 70
     0
102
RTVSPost2010Prop53
 90
        2
102
RTVSPost2010PropOp53
 70
     1
102
RTVSPost2010Prop54
  1
strokes_ogs.tif
102
RTVSPost2010PropOp54
 70
     1
102
RTVSPost2010Prop55
280
     0
102
RTVSPost2010PropOp55
 70
     1
102
RTVSPost2010Prop56
140
1.0
102
RTVSPost2010PropOp56
 70
     1
102
RTVSPost2010Prop57
140
1.0
102
RTVSPost2010PropOp57
 70
     1
102
RTVSPropertyOp0
 70
     1
102
RTVSPropertyOp1
 70
     1
102
RTVSPropertyOp2
 70
     1
102
RTVSPropertyOp3
 70
     1
102
RTVSPropertyOp4
 70
     1
102
RTVSPropertyOp5
 70
     1
102
RTVSPropertyOp6
 70
     1
102
RTVSPropertyOp7
 70
     1
102
RTVSPropertyOp8
 70
     1
102
RTVSPropertyOp9
 70
     1
102
RTVSPropertyOp10
 70
     1
102
RTVSPropertyOp11
 70
     1
102
RTVSPropertyOp12
 70
     1
102
RTVSPropertyOp13
 70
     1
102
RTVSPropertyOp14
 70
     1
102
RTVSPropertyOp15
 70
     1
102
RTVSPropertyOp16
 70
     1
102
RTVSPropertyOp17
 70
     1
102
RTVSPropertyOp18
 70
     1
102
RTVSPropertyOp19
 70
     1
102
RTVSPropertyOp20
 70
     1
102
RTVSPropertyOp21
 70
     1
102
RTVSPropertyOp22
 70
     1
102
RTVSPropertyOp23
 70
     1
102
RTVSPropertyOp24
 70
     1
102
RTVSPropertyOp25
 70
     1
102
RTVSPropertyOp26
 70
     1
102
RTVSPropertyOp27
 70
     1
102
RTVSPropertyOp28
 70
     1
102
RTVSPropertyOp29
 70
     1
102
RTVSPropertyOp30
 70
     1
102
RTVSPropertyOp31
 70
     1
102
RTVSPropertyOp32
 70
     1
102
RTVSPropertyOp33
 70
     1
102
RTVSPropertyOp34
 70
     1
102
RTVSPropertyOp35
 70
     1
102
RTVSPropertyOp36
 70
     1
102
RTVSPropertyOp37
 70
     1
102
RTVSPropertyOp38
 70
     1
102
RTVSPropertyOp39
 70
     1
102
RTVSPropertyOp40
 70
     1
102
RTVSPropertyOp41
 70
     1
102
RTVSPropertyOp42
 70
     1
102
RTVSPropertyOp43
 70
     1
102
RTVSPropertyOp44
 70
     1
102
RTVSPropertyOp45
 70
     1
102
RTVSPropertyOp46
 70
     1
102
RTVSPropertyOp47
 70
     1
102
RTVSPropertyOp48
 70
     1
102
RTVSPropertyOp49
 70
     1
102
RTVSPropertyOp50
 70
     1
102
RTVSPropertyOp51
 70
     0
102
RTVSPropertyOp52
 70
     0
102
RTVSPropertyOp53
 70
     1
102
RTVSPropertyOp54
 70
     1
102
RTVSPropertyOp55
 70
     1
102
RTVSPropertyOp56
 70
     1
102
RTVSPropertyOp57
 70
     1
102
RTVSPropertyOp58
 70
     1
102
RTVSPropertyOp59
 70
     1
102
RTVSPropertyOp60
 70
     1
102
RTVSPropertyOp61
 70
     1
102
RTVSPropertyOp62
 70
     1
  0
XRECORD
  5
1B8E5
102
{ACAD_REACTORS
330
1B8E4
102
}
330
1B8E4
100
AcDbXrecord
280
     1
102
RTVSPost2010Prop28
280
     0
102
RTVSPost2010PropOp28
 70
     1
102
RTVSPost2010Prop29
280
     1
102
RTVSPost2010PropOp29
 70
     1
102
RTVSPost2010Prop30
280
     1
102
RTVSPost2010PropOp30
 70
     1
102
RTVSPost2010Prop31
280
     0
102
RTVSPost2010PropOp31
 70
     1
102
RTVSPost2010Prop32
280
     0
102
RTVSPost2010PropOp32
 70
     1
102
RTVSPost2010Prop33
280
     0
102
RTVSPost2010PropOp33
 70
     1
102
RTVSPost2010Prop34
280
     0
102
RTVSPost2010PropOp34
 70
     1
102
RTVSPost2010Prop35
280
     0
102
RTVSPost2010PropOp35
 70
     1
102
RTVSPost2010Prop36
280
     0
102
RTVSPost2010PropOp36
 70
     1
102
RTVSPost2010Prop37
 90
       50
102
RTVSPost2010PropOp37
 70
     1
102
RTVSPost2010Prop38
140
0.0
102
RTVSPost2010PropOp38
 70
     1
102
RTVSPost2010Prop39
140
1.0
102
RTVSPost2010PropOp39
 70
     1
102
RTVSPost2010Prop40
 90
        0
102
RTVSPost2010PropOp40
 70
     1
102
RTVSPost2010Prop41ColorIndex
 90
       18
102
RTVSPost2010Prop41ColorRGB
 90
        0
102
RTVSPost2010PropOp41
 70
     1
102
RTVSPost2010Prop42
 90
       50
102
RTVSPost2010PropOp42
 70
     1
102
RTVSPost2010Prop43
 90
        3
102
RTVSPost2010PropOp43
 70
     1
102
RTVSPost2010Prop44ColorIndex
 90
        5
102
RTVSPost2010Prop44ColorRGB
 90
      255
102
RTVSPost2010PropOp44
 70
     1
102
RTVSPost2010Prop45
280
     0
102
RTVSPost2010PropOp45
 70
     1
102
RTVSPost2010Prop46
 90
       50
102
RTVSPost2010PropOp46
 70
     1
102
RTVSPost2010Prop47
 90
       50
102
RTVSPost2010PropOp47
 70
     1
102
RTVSPost2010Prop48
 90
       50
102
RTVSPost2010PropOp48
 70
     1
102
RTVSPost2010Prop49
280
     0
102
RTVSPost2010PropOp49
 70
     1
102
RTVSPost2010Prop50
 90
       50
102
RTVSPost2010PropOp50
 70
     1
102
RTVSPost2010Prop51ColorIndex
 90
      256
102
RTVSPost2010Prop51ColorRGB
 90
-16777216
102
RTVSPost2010PropOp51
 70
     0
102
RTVSPost2010Prop52
140
1.0
102
RTVSPost2010PropOp52
 70
     0
102
RTVSPost2010Prop53
 90
        2
102
RTVSPost2010PropOp53
 70
     1
102
RTVSPost2010Prop54
  1
strokes_ogs.tif
102
RTVSPost2010PropOp54
 70
     1
102
RTVSPost2010Prop55
280
     0
102
RTVSPost2010PropOp55
 70
     1
102
RTVSPost2010Prop56
140
1.0
102
RTVSPost2010PropOp56
 70
     1
102
RTVSPost2010Prop57
140
1.0
102
RTVSPost2010PropOp57
 70
     1
102
RTVSPropertyOp0
 70
     0
102
RTVSPropertyOp1
 70
     0
102
RTVSPropertyOp2
 70
     0
102
RTVSPropertyOp3
 70
     0
102
RTVSPropertyOp4
 70
     0
102
RTVSPropertyOp5
 70
     0
102
RTVSPropertyOp6
 70
     0
102
RTVSPropertyOp7
 70
     0
102
RTVSPropertyOp8
 70
     0
102
RTVSPropertyOp9
 70
     0
102
RTVSPropertyOp10
 70
     0
102
RTVSPropertyOp11
 70
     0
102
RTVSPropertyOp12
 70
     0
102
RTVSPropertyOp13
 70
     0
102
RTVSPropertyOp14
 70
     2
102
RTVSPropertyOp15
 70
     0
102
RTVSPropertyOp16
 70
     0
102
RTVSPropertyOp17
 70
     0
102
RTVSPropertyOp18
 70
     0
102
RTVSPropertyOp19
 70
     0
102
RTVSPropertyOp20
 70
     0
102
RTVSPropertyOp21
 70
     0
102
RTVSPropertyOp22
 70
     0
102
RTVSPropertyOp23
 70
     0
102
RTVSPropertyOp24
 70
     0
102
RTVSPropertyOp25
 70
     0
102
RTVSPropertyOp26
 70
     0
102
RTVSPropertyOp27
 70
     0
102
RTVSPropertyOp28
 70
     1
102
RTVSPropertyOp29
 70
     1
102
RTVSPropertyOp30
 70
     1
102
RTVSPropertyOp31
 70
     1
102
RTVSPropertyOp32
 70
     1
102
RTVSPropertyOp33
 70
     1
102
RTVSPropertyOp34
 70
     1
102
RTVSPropertyOp35
 70
     1
102
RTVSPropertyOp36
 70
     1
102
RTVSPropertyOp37
 70
     1
102
RTVSPropertyOp38
 70
     1
102
RTVSPropertyOp39
 70
     1
102
RTVSPropertyOp40
 70
     1
102
RTVSPropertyOp41
 70
     1
102
RTVSPropertyOp42
 70
     1
102
RTVSPropertyOp43
 70
     1
102
RTVSPropertyOp44
 70
     1
102
RTVSPropertyOp45
 70
     1
102
RTVSPropertyOp46
 70
     1
102
RTVSPropertyOp47
 70
     1
102
RTVSPropertyOp48
 70
     1
102
RTVSPropertyOp49
 70
     1
102
RTVSPropertyOp50
 70
     1
102
RTVSPropertyOp51
 70
     0
102
RTVSPropertyOp52
 70
     0
102
RTVSPropertyOp53
 70
     1
102
RTVSPropertyOp54
 70
     1
102
RTVSPropertyOp55
 70
     1
102
RTVSPropertyOp56
 70
     1
102
RTVSPropertyOp57
 70
     1
102
RTVSPropertyOp58
 70
     1
102
RTVSPropertyOp59
 70
     1
102
RTVSPropertyOp60
 70
     1
102
RTVSPropertyOp61
 70
     1
102
RTVSPropertyOp62
 70
     1
  0
XRECORD
  5
1B8DD
102
{ACAD_REACTORS
330
1B8DC
102
}
330
1B8DC
100
AcDbXrecord
280
     1
102
RTVSPost2010Prop28
280
     0
102
RTVSPost2010PropOp28
 70
     1
102
RTVSPost2010Prop29
280
     1
102
RTVSPost2010PropOp29
 70
     1
102
RTVSPost2010Prop30
280
     1
102
RTVSPost2010PropOp30
 70
     1
102
RTVSPost2010Prop31
280
     0
102
RTVSPost2010PropOp31
 70
     1
102
RTVSPost2010Prop32
280
     0
102
RTVSPost2010PropOp32
 70
     1
102
RTVSPost2010Prop33
280
     0
102
RTVSPost2010PropOp33
 70
     1
102
RTVSPost2010Prop34
280
     0
102
RTVSPost2010PropOp34
 70
     1
102
RTVSPost2010Prop35
280
     0
102
RTVSPost2010PropOp35
 70
     1
102
RTVSPost2010Prop36
280
     0
102
RTVSPost2010PropOp36
 70
     1
102
RTVSPost2010Prop37
 90
       50
102
RTVSPost2010PropOp37
 70
     1
102
RTVSPost2010Prop38
140
0.0
102
RTVSPost2010PropOp38
 70
     1
102
RTVSPost2010Prop39
140
1.0
102
RTVSPost2010PropOp39
 70
     1
102
RTVSPost2010Prop40
 90
        0
102
RTVSPost2010PropOp40
 70
     1
102
RTVSPost2010Prop41ColorIndex
 90
       18
102
RTVSPost2010Prop41ColorRGB
 90
        0
102
RTVSPost2010PropOp41
 70
     1
102
RTVSPost2010Prop42
 90
       50
102
RTVSPost2010PropOp42
 70
     1
102
RTVSPost2010Prop43
 90
        3
102
RTVSPost2010PropOp43
 70
     1
102
RTVSPost2010Prop44ColorIndex
 90
        5
102
RTVSPost2010Prop44ColorRGB
 90
      255
102
RTVSPost2010PropOp44
 70
     1
102
RTVSPost2010Prop45
280
     0
102
RTVSPost2010PropOp45
 70
     1
102
RTVSPost2010Prop46
 90
       50
102
RTVSPost2010PropOp46
 70
     1
102
RTVSPost2010Prop47
 90
       50
102
RTVSPost2010PropOp47
 70
     1
102
RTVSPost2010Prop48
 90
       50
102
RTVSPost2010PropOp48
 70
     1
102
RTVSPost2010Prop49
280
     0
102
RTVSPost2010PropOp49
 70
     1
102
RTVSPost2010Prop50
 90
       50
102
RTVSPost2010PropOp50
 70
     1
102
RTVSPost2010Prop51ColorIndex
 90
      256
102
RTVSPost2010Prop51ColorRGB
 90
-16777216
102
RTVSPost2010PropOp51
 70
     0
102
RTVSPost2010Prop52
140
1.0
102
RTVSPost2010PropOp52
 70
     0
102
RTVSPost2010Prop53
 90
        2
102
RTVSPost2010PropOp53
 70
     1
102
RTVSPost2010Prop54
  1
strokes_ogs.tif
102
RTVSPost2010PropOp54
 70
     1
102
RTVSPost2010Prop55
280
     0
102
RTVSPost2010PropOp55
 70
     1
102
RTVSPost2010Prop56
140
1.0
102
RTVSPost2010PropOp56
 70
     1
102
RTVSPost2010Prop57
140
1.0
102
RTVSPost2010PropOp57
 70
     1
102
RTVSPropertyOp0
 70
     1
102
RTVSPropertyOp1
 70
     1
102
RTVSPropertyOp2
 70
     1
102
RTVSPropertyOp3
 70
     1
102
RTVSPropertyOp4
 70
     1
102
RTVSPropertyOp5
 70
     1
102
RTVSPropertyOp6
 70
     1
102
RTVSPropertyOp7
 70
     1
102
RTVSPropertyOp8
 70
     1
102
RTVSPropertyOp9
 70
     1
102
RTVSPropertyOp10
 70
     1
102
RTVSPropertyOp11
 70
     1
102
RTVSPropertyOp12
 70
     1
102
RTVSPropertyOp13
 70
     1
102
RTVSPropertyOp14
 70
     1
102
RTVSPropertyOp15
 70
     1
102
RTVSPropertyOp16
 70
     1
102
RTVSPropertyOp17
 70
     1
102
RTVSPropertyOp18
 70
     1
102
RTVSPropertyOp19
 70
     1
102
RTVSPropertyOp20
 70
     1
102
RTVSPropertyOp21
 70
     1
102
RTVSPropertyOp22
 70
     1
102
RTVSPropertyOp23
 70
     1
102
RTVSPropertyOp24
 70
     1
102
RTVSPropertyOp25
 70
     1
102
RTVSPropertyOp26
 70
     1
102
RTVSPropertyOp27
 70
     1
102
RTVSPropertyOp28
 70
     1
102
RTVSPropertyOp29
 70
     1
102
RTVSPropertyOp30
 70
     1
102
RTVSPropertyOp31
 70
     1
102
RTVSPropertyOp32
 70
     1
102
RTVSPropertyOp33
 70
     1
102
RTVSPropertyOp34
 70
     1
102
RTVSPropertyOp35
 70
     1
102
RTVSPropertyOp36
 70
     1
102
RTVSPropertyOp37
 70
     1
102
RTVSPropertyOp38
 70
     1
102
RTVSPropertyOp39
 70
     1
102
RTVSPropertyOp40
 70
     1
102
RTVSPropertyOp41
 70
     1
102
RTVSPropertyOp42
 70
     1
102
RTVSPropertyOp43
 70
     1
102
RTVSPropertyOp44
 70
     1
102
RTVSPropertyOp45
 70
     1
102
RTVSPropertyOp46
 70
     1
102
RTVSPropertyOp47
 70
     1
102
RTVSPropertyOp48
 70
     1
102
RTVSPropertyOp49
 70
     1
102
RTVSPropertyOp50
 70
     1
102
RTVSPropertyOp51
 70
     0
102
RTVSPropertyOp52
 70
     0
102
RTVSPropertyOp53
 70
     1
102
RTVSPropertyOp54
 70
     1
102
RTVSPropertyOp55
 70
     1
102
RTVSPropertyOp56
 70
     1
102
RTVSPropertyOp57
 70
     1
102
RTVSPropertyOp58
 70
     1
102
RTVSPropertyOp59
 70
     1
102
RTVSPropertyOp60
 70
     1
102
RTVSPropertyOp61
 70
     1
102
RTVSPropertyOp62
 70
     1
  0
XRECORD
  5
1B8E7
102
{ACAD_REACTORS
330
1B8E6
102
}
330
1B8E6
100
AcDbXrecord
280
     1
102
RTVSPost2010Prop28
280
     0
102
RTVSPost2010PropOp28
 70
     1
102
RTVSPost2010Prop29
280
     1
102
RTVSPost2010PropOp29
 70
     1
102
RTVSPost2010Prop30
280
     1
102
RTVSPost2010PropOp30
 70
     1
102
RTVSPost2010Prop31
280
     0
102
RTVSPost2010PropOp31
 70
     1
102
RTVSPost2010Prop32
280
     0
102
RTVSPost2010PropOp32
 70
     1
102
RTVSPost2010Prop33
280
     0
102
RTVSPost2010PropOp33
 70
     1
102
RTVSPost2010Prop34
280
     0
102
RTVSPost2010PropOp34
 70
     1
102
RTVSPost2010Prop35
280
     0
102
RTVSPost2010PropOp35
 70
     1
102
RTVSPost2010Prop36
280
     0
102
RTVSPost2010PropOp36
 70
     1
102
RTVSPost2010Prop37
 90
       50
102
RTVSPost2010PropOp37
 70
     1
102
RTVSPost2010Prop38
140
0.0
102
RTVSPost2010PropOp38
 70
     1
102
RTVSPost2010Prop39
140
1.0
102
RTVSPost2010PropOp39
 70
     1
102
RTVSPost2010Prop40
 90
        0
102
RTVSPost2010PropOp40
 70
     1
102
RTVSPost2010Prop41ColorIndex
 90
       18
102
RTVSPost2010Prop41ColorRGB
 90
        0
102
RTVSPost2010PropOp41
 70
     1
102
RTVSPost2010Prop42
 90
       50
102
RTVSPost2010PropOp42
 70
     1
102
RTVSPost2010Prop43
 90
        3
102
RTVSPost2010PropOp43
 70
     1
102
RTVSPost2010Prop44ColorIndex
 90
        5
102
RTVSPost2010Prop44ColorRGB
 90
      255
102
RTVSPost2010PropOp44
 70
     1
102
RTVSPost2010Prop45
280
     0
102
RTVSPost2010PropOp45
 70
     1
102
RTVSPost2010Prop46
 90
       50
102
RTVSPost2010PropOp46
 70
     1
102
RTVSPost2010Prop47
 90
       50
102
RTVSPost2010PropOp47
 70
     1
102
RTVSPost2010Prop48
 90
       50
102
RTVSPost2010PropOp48
 70
     1
102
RTVSPost2010Prop49
280
     0
102
RTVSPost2010PropOp49
 70
     1
102
RTVSPost2010Prop50
 90
       50
102
RTVSPost2010PropOp50
 70
     1
102
RTVSPost2010Prop51ColorIndex
 90
      256
102
RTVSPost2010Prop51ColorRGB
 90
-16777216
102
RTVSPost2010PropOp51
 70
     0
102
RTVSPost2010Prop52
140
1.0
102
RTVSPost2010PropOp52
 70
     0
102
RTVSPost2010Prop53
 90
        2
102
RTVSPost2010PropOp53
 70
     1
102
RTVSPost2010Prop54
  1
strokes_ogs.tif
102
RTVSPost2010PropOp54
 70
     1
102
RTVSPost2010Prop55
280
     0
102
RTVSPost2010PropOp55
 70
     1
102
RTVSPost2010Prop56
140
1.0
102
RTVSPost2010PropOp56
 70
     1
102
RTVSPost2010Prop57
140
1.0
102
RTVSPost2010PropOp57
 70
     1
102
RTVSPropertyOp0
 70
     0
102
RTVSPropertyOp1
 70
     0
102
RTVSPropertyOp2
 70
     0
102
RTVSPropertyOp3
 70
     0
102
RTVSPropertyOp4
 70
     0
102
RTVSPropertyOp5
 70
     0
102
RTVSPropertyOp6
 70
     0
102
RTVSPropertyOp7
 70
     0
102
RTVSPropertyOp8
 70
     0
102
RTVSPropertyOp9
 70
     0
102
RTVSPropertyOp10
 70
     0
102
RTVSPropertyOp11
 70
     0
102
RTVSPropertyOp12
 70
     0
102
RTVSPropertyOp13
 70
     0
102
RTVSPropertyOp14
 70
     2
102
RTVSPropertyOp15
 70
     0
102
RTVSPropertyOp16
 70
     0
102
RTVSPropertyOp17
 70
     0
102
RTVSPropertyOp18
 70
     0
102
RTVSPropertyOp19
 70
     0
102
RTVSPropertyOp20
 70
     0
102
RTVSPropertyOp21
 70
     0
102
RTVSPropertyOp22
 70
     0
102
RTVSPropertyOp23
 70
     0
102
RTVSPropertyOp24
 70
     0
102
RTVSPropertyOp25
 70
     0
102
RTVSPropertyOp26
 70
     0
102
RTVSPropertyOp27
 70
     0
102
RTVSPropertyOp28
 70
     1
102
RTVSPropertyOp29
 70
     1
102
RTVSPropertyOp30
 70
     1
102
RTVSPropertyOp31
 70
     1
102
RTVSPropertyOp32
 70
     1
102
RTVSPropertyOp33
 70
     1
102
RTVSPropertyOp34
 70
     1
102
RTVSPropertyOp35
 70
     1
102
RTVSPropertyOp36
 70
     1
102
RTVSPropertyOp37
 70
     1
102
RTVSPropertyOp38
 70
     1
102
RTVSPropertyOp39
 70
     1
102
RTVSPropertyOp40
 70
     1
102
RTVSPropertyOp41
 70
     1
102
RTVSPropertyOp42
 70
     1
102
RTVSPropertyOp43
 70
     1
102
RTVSPropertyOp44
 70
     1
102
RTVSPropertyOp45
 70
     1
102
RTVSPropertyOp46
 70
     1
102
RTVSPropertyOp47
 70
     1
102
RTVSPropertyOp48
 70
     1
102
RTVSPropertyOp49
 70
     1
102
RTVSPropertyOp50
 70
     1
102
RTVSPropertyOp51
 70
     0
102
RTVSPropertyOp52
 70
     0
102
RTVSPropertyOp53
 70
     1
102
RTVSPropertyOp54
 70
     1
102
RTVSPropertyOp55
 70
     1
102
RTVSPropertyOp56
 70
     1
102
RTVSPropertyOp57
 70
     1
102
RTVSPropertyOp58
 70
     1
102
RTVSPropertyOp59
 70
     1
102
RTVSPropertyOp60
 70
     1
102
RTVSPropertyOp61
 70
     1
102
RTVSPropertyOp62
 70
     1
  0
XRECORD
  5
1B8D5
102
{ACAD_REACTORS
330
1B8D4
102
}
330
1B8D4
100
AcDbXrecord
280
     1
102
RTVSPost2010Prop28
280
     0
102
RTVSPost2010PropOp28
 70
     1
102
RTVSPost2010Prop29
280
     1
102
RTVSPost2010PropOp29
 70
     1
102
RTVSPost2010Prop30
280
     1
102
RTVSPost2010PropOp30
 70
     1
102
RTVSPost2010Prop31
280
     0
102
RTVSPost2010PropOp31
 70
     1
102
RTVSPost2010Prop32
280
     0
102
RTVSPost2010PropOp32
 70
     1
102
RTVSPost2010Prop33
280
     0
102
RTVSPost2010PropOp33
 70
     1
102
RTVSPost2010Prop34
280
     0
102
RTVSPost2010PropOp34
 70
     1
102
RTVSPost2010Prop35
280
     0
102
RTVSPost2010PropOp35
 70
     1
102
RTVSPost2010Prop36
280
     0
102
RTVSPost2010PropOp36
 70
     1
102
RTVSPost2010Prop37
 90
       50
102
RTVSPost2010PropOp37
 70
     1
102
RTVSPost2010Prop38
140
0.0
102
RTVSPost2010PropOp38
 70
     1
102
RTVSPost2010Prop39
140
1.0
102
RTVSPost2010PropOp39
 70
     1
102
RTVSPost2010Prop40
 90
        0
102
RTVSPost2010PropOp40
 70
     1
102
RTVSPost2010Prop41ColorIndex
 90
       18
102
RTVSPost2010Prop41ColorRGB
 90
        0
102
RTVSPost2010PropOp41
 70
     1
102
RTVSPost2010Prop42
 90
       50
102
RTVSPost2010PropOp42
 70
     1
102
RTVSPost2010Prop43
 90
        3
102
RTVSPost2010PropOp43
 70
     1
102
RTVSPost2010Prop44ColorIndex
 90
        5
102
RTVSPost2010Prop44ColorRGB
 90
      255
102
RTVSPost2010PropOp44
 70
     1
102
RTVSPost2010Prop45
280
     0
102
RTVSPost2010PropOp45
 70
     1
102
RTVSPost2010Prop46
 90
       50
102
RTVSPost2010PropOp46
 70
     1
102
RTVSPost2010Prop47
 90
       50
102
RTVSPost2010PropOp47
 70
     1
102
RTVSPost2010Prop48
 90
       50
102
RTVSPost2010PropOp48
 70
     1
102
RTVSPost2010Prop49
280
     0
102
RTVSPost2010PropOp49
 70
     1
102
RTVSPost2010Prop50
 90
       50
102
RTVSPost2010PropOp50
 70
     1
102
RTVSPost2010Prop51ColorIndex
 90
      256
102
RTVSPost2010Prop51ColorRGB
 90
-16777216
102
RTVSPost2010PropOp51
 70
     0
102
RTVSPost2010Prop52
140
1.0
102
RTVSPost2010PropOp52
 70
     0
102
RTVSPost2010Prop53
 90
        2
102
RTVSPost2010PropOp53
 70
     1
102
RTVSPost2010Prop54
  1
strokes_ogs.tif
102
RTVSPost2010PropOp54
 70
     1
102
RTVSPost2010Prop55
280
     0
102
RTVSPost2010PropOp55
 70
     1
102
RTVSPost2010Prop56
140
1.0
102
RTVSPost2010PropOp56
 70
     1
102
RTVSPost2010Prop57
140
1.0
102
RTVSPost2010PropOp57
 70
     1
102
RTVSPropertyOp0
 70
     1
102
RTVSPropertyOp1
 70
     1
102
RTVSPropertyOp2
 70
     1
102
RTVSPropertyOp3
 70
     1
102
RTVSPropertyOp4
 70
     1
102
RTVSPropertyOp5
 70
     1
102
RTVSPropertyOp6
 70
     1
102
RTVSPropertyOp7
 70
     1
102
RTVSPropertyOp8
 70
     1
102
RTVSPropertyOp9
 70
     1
102
RTVSPropertyOp10
 70
     1
102
RTVSPropertyOp11
 70
     1
102
RTVSPropertyOp12
 70
     1
102
RTVSPropertyOp13
 70
     1
102
RTVSPropertyOp14
 70
     1
102
RTVSPropertyOp15
 70
     1
102
RTVSPropertyOp16
 70
     1
102
RTVSPropertyOp17
 70
     1
102
RTVSPropertyOp18
 70
     1
102
RTVSPropertyOp19
 70
     1
102
RTVSPropertyOp20
 70
     1
102
RTVSPropertyOp21
 70
     1
102
RTVSPropertyOp22
 70
     1
102
RTVSPropertyOp23
 70
     1
102
RTVSPropertyOp24
 70
     1
102
RTVSPropertyOp25
 70
     1
102
RTVSPropertyOp26
 70
     1
102
RTVSPropertyOp27
 70
     1
102
RTVSPropertyOp28
 70
     1
102
RTVSPropertyOp29
 70
     1
102
RTVSPropertyOp30
 70
     1
102
RTVSPropertyOp31
 70
     1
102
RTVSPropertyOp32
 70
     1
102
RTVSPropertyOp33
 70
     1
102
RTVSPropertyOp34
 70
     1
102
RTVSPropertyOp35
 70
     1
102
RTVSPropertyOp36
 70
     1
102
RTVSPropertyOp37
 70
     1
102
RTVSPropertyOp38
 70
     1
102
RTVSPropertyOp39
 70
     1
102
RTVSPropertyOp40
 70
     1
102
RTVSPropertyOp41
 70
     1
102
RTVSPropertyOp42
 70
     1
102
RTVSPropertyOp43
 70
     1
102
RTVSPropertyOp44
 70
     1
102
RTVSPropertyOp45
 70
     1
102
RTVSPropertyOp46
 70
     1
102
RTVSPropertyOp47
 70
     1
102
RTVSPropertyOp48
 70
     1
102
RTVSPropertyOp49
 70
     1
102
RTVSPropertyOp50
 70
     1
102
RTVSPropertyOp51
 70
     0
102
RTVSPropertyOp52
 70
     0
102
RTVSPropertyOp53
 70
     1
102
RTVSPropertyOp54
 70
     1
102
RTVSPropertyOp55
 70
     1
102
RTVSPropertyOp56
 70
     1
102
RTVSPropertyOp57
 70
     1
102
RTVSPropertyOp58
 70
     1
102
RTVSPropertyOp59
 70
     1
102
RTVSPropertyOp60
 70
     1
102
RTVSPropertyOp61
 70
     1
102
RTVSPropertyOp62
 70
     1
  0
XRECORD
  5
1B8F3
102
{ACAD_REACTORS
330
1B8F2
102
}
330
1B8F2
100
AcDbXrecord
280
     1
102
RTVSPost2010Prop28
280
     0
102
RTVSPost2010PropOp28
 70
     1
102
RTVSPost2010Prop29
280
     1
102
RTVSPost2010PropOp29
 70
     1
102
RTVSPost2010Prop30
280
     1
102
RTVSPost2010PropOp30
 70
     1
102
RTVSPost2010Prop31
280
     0
102
RTVSPost2010PropOp31
 70
     1
102
RTVSPost2010Prop32
280
     0
102
RTVSPost2010PropOp32
 70
     1
102
RTVSPost2010Prop33
280
     0
102
RTVSPost2010PropOp33
 70
     1
102
RTVSPost2010Prop34
280
     0
102
RTVSPost2010PropOp34
 70
     1
102
RTVSPost2010Prop35
280
     0
102
RTVSPost2010PropOp35
 70
     1
102
RTVSPost2010Prop36
280
     0
102
RTVSPost2010PropOp36
 70
     1
102
RTVSPost2010Prop37
 90
       50
102
RTVSPost2010PropOp37
 70
     1
102
RTVSPost2010Prop38
140
0.0
102
RTVSPost2010PropOp38
 70
     1
102
RTVSPost2010Prop39
140
1.0
102
RTVSPost2010PropOp39
 70
     1
102
RTVSPost2010Prop40
 90
        0
102
RTVSPost2010PropOp40
 70
     1
102
RTVSPost2010Prop41ColorIndex
 90
       18
102
RTVSPost2010Prop41ColorRGB
 90
        0
102
RTVSPost2010PropOp41
 70
     1
102
RTVSPost2010Prop42
 90
       50
102
RTVSPost2010PropOp42
 70
     1
102
RTVSPost2010Prop43
 90
        3
102
RTVSPost2010PropOp43
 70
     1
102
RTVSPost2010Prop44ColorIndex
 90
        5
102
RTVSPost2010Prop44ColorRGB
 90
      255
102
RTVSPost2010PropOp44
 70
     1
102
RTVSPost2010Prop45
280
     0
102
RTVSPost2010PropOp45
 70
     1
102
RTVSPost2010Prop46
 90
       50
102
RTVSPost2010PropOp46
 70
     1
102
RTVSPost2010Prop47
 90
       50
102
RTVSPost2010PropOp47
 70
     1
102
RTVSPost2010Prop48
 90
       50
102
RTVSPost2010PropOp48
 70
     1
102
RTVSPost2010Prop49
280
     0
102
RTVSPost2010PropOp49
 70
     1
102
RTVSPost2010Prop50
 90
       50
102
RTVSPost2010PropOp50
 70
     1
102
RTVSPost2010Prop51ColorIndex
 90
      256
102
RTVSPost2010Prop51ColorRGB
 90
-16777216
102
RTVSPost2010PropOp51
 70
     0
102
RTVSPost2010Prop52
140
1.0
102
RTVSPost2010PropOp52
 70
     0
102
RTVSPost2010Prop53
 90
        2
102
RTVSPost2010PropOp53
 70
     1
102
RTVSPost2010Prop54
  1
strokes_ogs.tif
102
RTVSPost2010PropOp54
 70
     1
102
RTVSPost2010Prop55
280
     0
102
RTVSPost2010PropOp55
 70
     1
102
RTVSPost2010Prop56
140
1.0
102
RTVSPost2010PropOp56
 70
     1
102
RTVSPost2010Prop57
140
1.0
102
RTVSPost2010PropOp57
 70
     1
102
RTVSPropertyOp0
 70
     1
102
RTVSPropertyOp1
 70
     1
102
RTVSPropertyOp2
 70
     1
102
RTVSPropertyOp3
 70
     1
102
RTVSPropertyOp4
 70
     1
102
RTVSPropertyOp5
 70
     1
102
RTVSPropertyOp6
 70
     1
102
RTVSPropertyOp7
 70
     1
102
RTVSPropertyOp8
 70
     1
102
RTVSPropertyOp9
 70
     1
102
RTVSPropertyOp10
 70
     1
102
RTVSPropertyOp11
 70
     1
102
RTVSPropertyOp12
 70
     1
102
RTVSPropertyOp13
 70
     1
102
RTVSPropertyOp14
 70
     1
102
RTVSPropertyOp15
 70
     1
102
RTVSPropertyOp16
 70
     1
102
RTVSPropertyOp17
 70
     1
102
RTVSPropertyOp18
 70
     1
102
RTVSPropertyOp19
 70
     1
102
RTVSPropertyOp20
 70
     1
102
RTVSPropertyOp21
 70
     1
102
RTVSPropertyOp22
 70
     1
102
RTVSPropertyOp23
 70
     1
102
RTVSPropertyOp24
 70
     1
102
RTVSPropertyOp25
 70
     1
102
RTVSPropertyOp26
 70
     1
102
RTVSPropertyOp27
 70
     1
102
RTVSPropertyOp28
 70
     1
102
RTVSPropertyOp29
 70
     1
102
RTVSPropertyOp30
 70
     1
102
RTVSPropertyOp31
 70
     1
102
RTVSPropertyOp32
 70
     1
102
RTVSPropertyOp33
 70
     1
102
RTVSPropertyOp34
 70
     1
102
RTVSPropertyOp35
 70
     1
102
RTVSPropertyOp36
 70
     1
102
RTVSPropertyOp37
 70
     1
102
RTVSPropertyOp38
 70
     1
102
RTVSPropertyOp39
 70
     1
102
RTVSPropertyOp40
 70
     1
102
RTVSPropertyOp41
 70
     1
102
RTVSPropertyOp42
 70
     1
102
RTVSPropertyOp43
 70
     1
102
RTVSPropertyOp44
 70
     1
102
RTVSPropertyOp45
 70
     1
102
RTVSPropertyOp46
 70
     1
102
RTVSPropertyOp47
 70
     1
102
RTVSPropertyOp48
 70
     1
102
RTVSPropertyOp49
 70
     1
102
RTVSPropertyOp50
 70
     1
102
RTVSPropertyOp51
 70
     0
102
RTVSPropertyOp52
 70
     0
102
RTVSPropertyOp53
 70
     1
102
RTVSPropertyOp54
 70
     1
102
RTVSPropertyOp55
 70
     1
102
RTVSPropertyOp56
 70
     1
102
RTVSPropertyOp57
 70
     1
102
RTVSPropertyOp58
 70
     1
102
RTVSPropertyOp59
 70
     1
102
RTVSPropertyOp60
 70
     1
102
RTVSPropertyOp61
 70
     1
102
RTVSPropertyOp62
 70
     1
  0
XRECORD
  5
1B8F1
102
{ACAD_REACTORS
330
1B8F0
102
}
330
1B8F0
100
AcDbXrecord
280
     1
102
RTVSPost2010Prop28
280
     0
102
RTVSPost2010PropOp28
 70
     1
102
RTVSPost2010Prop29
280
     1
102
RTVSPost2010PropOp29
 70
     1
102
RTVSPost2010Prop30
280
     1
102
RTVSPost2010PropOp30
 70
     1
102
RTVSPost2010Prop31
280
     0
102
RTVSPost2010PropOp31
 70
     1
102
RTVSPost2010Prop32
280
     0
102
RTVSPost2010PropOp32
 70
     1
102
RTVSPost2010Prop33
280
     0
102
RTVSPost2010PropOp33
 70
     1
102
RTVSPost2010Prop34
280
     0
102
RTVSPost2010PropOp34
 70
     1
102
RTVSPost2010Prop35
280
     0
102
RTVSPost2010PropOp35
 70
     1
102
RTVSPost2010Prop36
280
     0
102
RTVSPost2010PropOp36
 70
     1
102
RTVSPost2010Prop37
 90
       50
102
RTVSPost2010PropOp37
 70
     1
102
RTVSPost2010Prop38
140
0.0
102
RTVSPost2010PropOp38
 70
     1
102
RTVSPost2010Prop39
140
1.0
102
RTVSPost2010PropOp39
 70
     1
102
RTVSPost2010Prop40
 90
        0
102
RTVSPost2010PropOp40
 70
     1
102
RTVSPost2010Prop41ColorIndex
 90
       18
102
RTVSPost2010Prop41ColorRGB
 90
        0
102
RTVSPost2010PropOp41
 70
     1
102
RTVSPost2010Prop42
 90
       50
102
RTVSPost2010PropOp42
 70
     1
102
RTVSPost2010Prop43
 90
        3
102
RTVSPost2010PropOp43
 70
     1
102
RTVSPost2010Prop44ColorIndex
 90
        5
102
RTVSPost2010Prop44ColorRGB
 90
      255
102
RTVSPost2010PropOp44
 70
     1
102
RTVSPost2010Prop45
280
     0
102
RTVSPost2010PropOp45
 70
     1
102
RTVSPost2010Prop46
 90
       50
102
RTVSPost2010PropOp46
 70
     1
102
RTVSPost2010Prop47
 90
       50
102
RTVSPost2010PropOp47
 70
     1
102
RTVSPost2010Prop48
 90
       50
102
RTVSPost2010PropOp48
 70
     1
102
RTVSPost2010Prop49
280
     0
102
RTVSPost2010PropOp49
 70
     1
102
RTVSPost2010Prop50
 90
       50
102
RTVSPost2010PropOp50
 70
     1
102
RTVSPost2010Prop51ColorIndex
 90
      256
102
RTVSPost2010Prop51ColorRGB
 90
-16777216
102
RTVSPost2010PropOp51
 70
     0
102
RTVSPost2010Prop52
140
1.0
102
RTVSPost2010PropOp52
 70
     0
102
RTVSPost2010Prop53
 90
        2
102
RTVSPost2010PropOp53
 70
     1
102
RTVSPost2010Prop54
  1
strokes_ogs.tif
102
RTVSPost2010PropOp54
 70
     1
102
RTVSPost2010Prop55
280
     0
102
RTVSPost2010PropOp55
 70
     1
102
RTVSPost2010Prop56
140
1.0
102
RTVSPost2010PropOp56
 70
     1
102
RTVSPost2010Prop57
140
1.0
102
RTVSPost2010PropOp57
 70
     1
102
RTVSPropertyOp0
 70
     1
102
RTVSPropertyOp1
 70
     1
102
RTVSPropertyOp2
 70
     1
102
RTVSPropertyOp3
 70
     1
102
RTVSPropertyOp4
 70
     1
102
RTVSPropertyOp5
 70
     1
102
RTVSPropertyOp6
 70
     1
102
RTVSPropertyOp7
 70
     1
102
RTVSPropertyOp8
 70
     1
102
RTVSPropertyOp9
 70
     1
102
RTVSPropertyOp10
 70
     1
102
RTVSPropertyOp11
 70
     1
102
RTVSPropertyOp12
 70
     1
102
RTVSPropertyOp13
 70
     1
102
RTVSPropertyOp14
 70
     1
102
RTVSPropertyOp15
 70
     1
102
RTVSPropertyOp16
 70
     1
102
RTVSPropertyOp17
 70
     1
102
RTVSPropertyOp18
 70
     1
102
RTVSPropertyOp19
 70
     1
102
RTVSPropertyOp20
 70
     1
102
RTVSPropertyOp21
 70
     1
102
RTVSPropertyOp22
 70
     1
102
RTVSPropertyOp23
 70
     1
102
RTVSPropertyOp24
 70
     1
102
RTVSPropertyOp25
 70
     1
102
RTVSPropertyOp26
 70
     1
102
RTVSPropertyOp27
 70
     1
102
RTVSPropertyOp28
 70
     1
102
RTVSPropertyOp29
 70
     1
102
RTVSPropertyOp30
 70
     1
102
RTVSPropertyOp31
 70
     1
102
RTVSPropertyOp32
 70
     1
102
RTVSPropertyOp33
 70
     1
102
RTVSPropertyOp34
 70
     1
102
RTVSPropertyOp35
 70
     1
102
RTVSPropertyOp36
 70
     1
102
RTVSPropertyOp37
 70
     1
102
RTVSPropertyOp38
 70
     1
102
RTVSPropertyOp39
 70
     1
102
RTVSPropertyOp40
 70
     1
102
RTVSPropertyOp41
 70
     1
102
RTVSPropertyOp42
 70
     1
102
RTVSPropertyOp43
 70
     1
102
RTVSPropertyOp44
 70
     1
102
RTVSPropertyOp45
 70
     1
102
RTVSPropertyOp46
 70
     1
102
RTVSPropertyOp47
 70
     1
102
RTVSPropertyOp48
 70
     1
102
RTVSPropertyOp49
 70
     1
102
RTVSPropertyOp50
 70
     1
102
RTVSPropertyOp51
 70
     0
102
RTVSPropertyOp52
 70
     0
102
RTVSPropertyOp53
 70
     1
102
RTVSPropertyOp54
 70
     1
102
RTVSPropertyOp55
 70
     1
102
RTVSPropertyOp56
 70
     1
102
RTVSPropertyOp57
 70
     1
102
RTVSPropertyOp58
 70
     1
102
RTVSPropertyOp59
 70
     1
102
RTVSPropertyOp60
 70
     1
102
RTVSPropertyOp61
 70
     1
102
RTVSPropertyOp62
 70
     1
  0
XRECORD
  5
1B8EB
102
{ACAD_REACTORS
330
1B8EA
102
}
330
1B8EA
100
AcDbXrecord
280
     1
102
RTVSPost2010Prop28
280
     0
102
RTVSPost2010PropOp28
 70
     1
102
RTVSPost2010Prop29
280
     1
102
RTVSPost2010PropOp29
 70
     1
102
RTVSPost2010Prop30
280
     1
102
RTVSPost2010PropOp30
 70
     1
102
RTVSPost2010Prop31
280
     0
102
RTVSPost2010PropOp31
 70
     1
102
RTVSPost2010Prop32
280
     0
102
RTVSPost2010PropOp32
 70
     1
102
RTVSPost2010Prop33
280
     0
102
RTVSPost2010PropOp33
 70
     1
102
RTVSPost2010Prop34
280
     0
102
RTVSPost2010PropOp34
 70
     1
102
RTVSPost2010Prop35
280
     0
102
RTVSPost2010PropOp35
 70
     1
102
RTVSPost2010Prop36
280
     0
102
RTVSPost2010PropOp36
 70
     1
102
RTVSPost2010Prop37
 90
       50
102
RTVSPost2010PropOp37
 70
     1
102
RTVSPost2010Prop38
140
0.0
102
RTVSPost2010PropOp38
 70
     1
102
RTVSPost2010Prop39
140
1.0
102
RTVSPost2010PropOp39
 70
     1
102
RTVSPost2010Prop40
 90
        0
102
RTVSPost2010PropOp40
 70
     1
102
RTVSPost2010Prop41ColorIndex
 90
       18
102
RTVSPost2010Prop41ColorRGB
 90
        0
102
RTVSPost2010PropOp41
 70
     1
102
RTVSPost2010Prop42
 90
       50
102
RTVSPost2010PropOp42
 70
     1
102
RTVSPost2010Prop43
 90
        3
102
RTVSPost2010PropOp43
 70
     1
102
RTVSPost2010Prop44ColorIndex
 90
        5
102
RTVSPost2010Prop44ColorRGB
 90
      255
102
RTVSPost2010PropOp44
 70
     1
102
RTVSPost2010Prop45
280
     0
102
RTVSPost2010PropOp45
 70
     1
102
RTVSPost2010Prop46
 90
       50
102
RTVSPost2010PropOp46
 70
     1
102
RTVSPost2010Prop47
 90
       50
102
RTVSPost2010PropOp47
 70
     1
102
RTVSPost2010Prop48
 90
       50
102
RTVSPost2010PropOp48
 70
     1
102
RTVSPost2010Prop49
280
     0
102
RTVSPost2010PropOp49
 70
     1
102
RTVSPost2010Prop50
 90
       50
102
RTVSPost2010PropOp50
 70
     1
102
RTVSPost2010Prop51ColorIndex
 90
      256
102
RTVSPost2010Prop51ColorRGB
 90
-16777216
102
RTVSPost2010PropOp51
 70
     0
102
RTVSPost2010Prop52
140
1.0
102
RTVSPost2010PropOp52
 70
     0
102
RTVSPost2010Prop53
 90
        2
102
RTVSPost2010PropOp53
 70
     1
102
RTVSPost2010Prop54
  1
strokes_ogs.tif
102
RTVSPost2010PropOp54
 70
     1
102
RTVSPost2010Prop55
280
     0
102
RTVSPost2010PropOp55
 70
     1
102
RTVSPost2010Prop56
140
1.0
102
RTVSPost2010PropOp56
 70
     1
102
RTVSPost2010Prop57
140
1.0
102
RTVSPost2010PropOp57
 70
     1
102
RTVSPropertyOp0
 70
     1
102
RTVSPropertyOp1
 70
     1
102
RTVSPropertyOp2
 70
     1
102
RTVSPropertyOp3
 70
     1
102
RTVSPropertyOp4
 70
     1
102
RTVSPropertyOp5
 70
     1
102
RTVSPropertyOp6
 70
     1
102
RTVSPropertyOp7
 70
     1
102
RTVSPropertyOp8
 70
     1
102
RTVSPropertyOp9
 70
     1
102
RTVSPropertyOp10
 70
     1
102
RTVSPropertyOp11
 70
     1
102
RTVSPropertyOp12
 70
     1
102
RTVSPropertyOp13
 70
     1
102
RTVSPropertyOp14
 70
     1
102
RTVSPropertyOp15
 70
     1
102
RTVSPropertyOp16
 70
     1
102
RTVSPropertyOp17
 70
     1
102
RTVSPropertyOp18
 70
     1
102
RTVSPropertyOp19
 70
     1
102
RTVSPropertyOp20
 70
     1
102
RTVSPropertyOp21
 70
     1
102
RTVSPropertyOp22
 70
     1
102
RTVSPropertyOp23
 70
     1
102
RTVSPropertyOp24
 70
     1
102
RTVSPropertyOp25
 70
     1
102
RTVSPropertyOp26
 70
     1
102
RTVSPropertyOp27
 70
     1
102
RTVSPropertyOp28
 70
     1
102
RTVSPropertyOp29
 70
     1
102
RTVSPropertyOp30
 70
     1
102
RTVSPropertyOp31
 70
     1
102
RTVSPropertyOp32
 70
     1
102
RTVSPropertyOp33
 70
     1
102
RTVSPropertyOp34
 70
     1
102
RTVSPropertyOp35
 70
     1
102
RTVSPropertyOp36
 70
     1
102
RTVSPropertyOp37
 70
     1
102
RTVSPropertyOp38
 70
     1
102
RTVSPropertyOp39
 70
     1
102
RTVSPropertyOp40
 70
     1
102
RTVSPropertyOp41
 70
     1
102
RTVSPropertyOp42
 70
     1
102
RTVSPropertyOp43
 70
     1
102
RTVSPropertyOp44
 70
     1
102
RTVSPropertyOp45
 70
     1
102
RTVSPropertyOp46
 70
     1
102
RTVSPropertyOp47
 70
     1
102
RTVSPropertyOp48
 70
     1
102
RTVSPropertyOp49
 70
     1
102
RTVSPropertyOp50
 70
     1
102
RTVSPropertyOp51
 70
     0
102
RTVSPropertyOp52
 70
     0
102
RTVSPropertyOp53
 70
     1
102
RTVSPropertyOp54
 70
     1
102
RTVSPropertyOp55
 70
     1
102
RTVSPropertyOp56
 70
     1
102
RTVSPropertyOp57
 70
     1
102
RTVSPropertyOp58
 70
     1
102
RTVSPropertyOp59
 70
     1
102
RTVSPropertyOp60
 70
     1
102
RTVSPropertyOp61
 70
     1
102
RTVSPropertyOp62
 70
     1
  0
XRECORD
  5
1B8ED
102
{ACAD_REACTORS
330
1B8EC
102
}
330
1B8EC
100
AcDbXrecord
280
     1
102
RTVSPost2010Prop28
280
     0
102
RTVSPost2010PropOp28
 70
     1
102
RTVSPost2010Prop29
280
     1
102
RTVSPost2010PropOp29
 70
     1
102
RTVSPost2010Prop30
280
     1
102
RTVSPost2010PropOp30
 70
     1
102
RTVSPost2010Prop31
280
     0
102
RTVSPost2010PropOp31
 70
     1
102
RTVSPost2010Prop32
280
     0
102
RTVSPost2010PropOp32
 70
     1
102
RTVSPost2010Prop33
280
     0
102
RTVSPost2010PropOp33
 70
     1
102
RTVSPost2010Prop34
280
     0
102
RTVSPost2010PropOp34
 70
     1
102
RTVSPost2010Prop35
280
     0
102
RTVSPost2010PropOp35
 70
     1
102
RTVSPost2010Prop36
280
     0
102
RTVSPost2010PropOp36
 70
     1
102
RTVSPost2010Prop37
 90
       50
102
RTVSPost2010PropOp37
 70
     1
102
RTVSPost2010Prop38
140
0.0
102
RTVSPost2010PropOp38
 70
     1
102
RTVSPost2010Prop39
140
1.0
102
RTVSPost2010PropOp39
 70
     1
102
RTVSPost2010Prop40
 90
        0
102
RTVSPost2010PropOp40
 70
     1
102
RTVSPost2010Prop41ColorIndex
 90
       18
102
RTVSPost2010Prop41ColorRGB
 90
        0
102
RTVSPost2010PropOp41
 70
     1
102
RTVSPost2010Prop42
 90
       50
102
RTVSPost2010PropOp42
 70
     1
102
RTVSPost2010Prop43
 90
        3
102
RTVSPost2010PropOp43
 70
     1
102
RTVSPost2010Prop44ColorIndex
 90
        5
102
RTVSPost2010Prop44ColorRGB
 90
      255
102
RTVSPost2010PropOp44
 70
     1
102
RTVSPost2010Prop45
280
     0
102
RTVSPost2010PropOp45
 70
     1
102
RTVSPost2010Prop46
 90
       50
102
RTVSPost2010PropOp46
 70
     1
102
RTVSPost2010Prop47
 90
       50
102
RTVSPost2010PropOp47
 70
     1
102
RTVSPost2010Prop48
 90
       50
102
RTVSPost2010PropOp48
 70
     1
102
RTVSPost2010Prop49
280
     0
102
RTVSPost2010PropOp49
 70
     1
102
RTVSPost2010Prop50
 90
       50
102
RTVSPost2010PropOp50
 70
     1
102
RTVSPost2010Prop51ColorIndex
 90
      256
102
RTVSPost2010Prop51ColorRGB
 90
-16777216
102
RTVSPost2010PropOp51
 70
     0
102
RTVSPost2010Prop52
140
1.0
102
RTVSPost2010PropOp52
 70
     0
102
RTVSPost2010Prop53
 90
        2
102
RTVSPost2010PropOp53
 70
     1
102
RTVSPost2010Prop54
  1
strokes_ogs.tif
102
RTVSPost2010PropOp54
 70
     1
102
RTVSPost2010Prop55
280
     0
102
RTVSPost2010PropOp55
 70
     1
102
RTVSPost2010Prop56
140
1.0
102
RTVSPost2010PropOp56
 70
     1
102
RTVSPost2010Prop57
140
1.0
102
RTVSPost2010PropOp57
 70
     1
102
RTVSPropertyOp0
 70
     1
102
RTVSPropertyOp1
 70
     1
102
RTVSPropertyOp2
 70
     1
102
RTVSPropertyOp3
 70
     1
102
RTVSPropertyOp4
 70
     1
102
RTVSPropertyOp5
 70
     1
102
RTVSPropertyOp6
 70
     1
102
RTVSPropertyOp7
 70
     1
102
RTVSPropertyOp8
 70
     1
102
RTVSPropertyOp9
 70
     1
102
RTVSPropertyOp10
 70
     1
102
RTVSPropertyOp11
 70
     1
102
RTVSPropertyOp12
 70
     1
102
RTVSPropertyOp13
 70
     1
102
RTVSPropertyOp14
 70
     1
102
RTVSPropertyOp15
 70
     1
102
RTVSPropertyOp16
 70
     1
102
RTVSPropertyOp17
 70
     1
102
RTVSPropertyOp18
 70
     1
102
RTVSPropertyOp19
 70
     1
102
RTVSPropertyOp20
 70
     1
102
RTVSPropertyOp21
 70
     1
102
RTVSPropertyOp22
 70
     1
102
RTVSPropertyOp23
 70
     1
102
RTVSPropertyOp24
 70
     1
102
RTVSPropertyOp25
 70
     1
102
RTVSPropertyOp26
 70
     1
102
RTVSPropertyOp27
 70
     1
102
RTVSPropertyOp28
 70
     1
102
RTVSPropertyOp29
 70
     1
102
RTVSPropertyOp30
 70
     1
102
RTVSPropertyOp31
 70
     1
102
RTVSPropertyOp32
 70
     1
102
RTVSPropertyOp33
 70
     1
102
RTVSPropertyOp34
 70
     1
102
RTVSPropertyOp35
 70
     1
102
RTVSPropertyOp36
 70
     1
102
RTVSPropertyOp37
 70
     1
102
RTVSPropertyOp38
 70
     1
102
RTVSPropertyOp39
 70
     1
102
RTVSPropertyOp40
 70
     1
102
RTVSPropertyOp41
 70
     1
102
RTVSPropertyOp42
 70
     1
102
RTVSPropertyOp43
 70
     1
102
RTVSPropertyOp44
 70
     1
102
RTVSPropertyOp45
 70
     1
102
RTVSPropertyOp46
 70
     1
102
RTVSPropertyOp47
 70
     1
102
RTVSPropertyOp48
 70
     1
102
RTVSPropertyOp49
 70
     1
102
RTVSPropertyOp50
 70
     1
102
RTVSPropertyOp51
 70
     0
102
RTVSPropertyOp52
 70
     0
102
RTVSPropertyOp53
 70
     1
102
RTVSPropertyOp54
 70
     1
102
RTVSPropertyOp55
 70
     1
102
RTVSPropertyOp56
 70
     1
102
RTVSPropertyOp57
 70
     1
102
RTVSPropertyOp58
 70
     1
102
RTVSPropertyOp59
 70
     1
102
RTVSPropertyOp60
 70
     1
102
RTVSPropertyOp61
 70
     1
102
RTVSPropertyOp62
 70
     1
  0
XRECORD
  5
1B8DB
102
{ACAD_REACTORS
330
1B8DA
102
}
330
1B8DA
100
AcDbXrecord
280
     1
102
RTVSPost2010Prop28
280
     0
102
RTVSPost2010PropOp28
 70
     1
102
RTVSPost2010Prop29
280
     1
102
RTVSPost2010PropOp29
 70
     1
102
RTVSPost2010Prop30
280
     1
102
RTVSPost2010PropOp30
 70
     1
102
RTVSPost2010Prop31
280
     0
102
RTVSPost2010PropOp31
 70
     1
102
RTVSPost2010Prop32
280
     0
102
RTVSPost2010PropOp32
 70
     1
102
RTVSPost2010Prop33
280
     0
102
RTVSPost2010PropOp33
 70
     1
102
RTVSPost2010Prop34
280
     0
102
RTVSPost2010PropOp34
 70
     1
102
RTVSPost2010Prop35
280
     0
102
RTVSPost2010PropOp35
 70
     1
102
RTVSPost2010Prop36
280
     0
102
RTVSPost2010PropOp36
 70
     1
102
RTVSPost2010Prop37
 90
       50
102
RTVSPost2010PropOp37
 70
     1
102
RTVSPost2010Prop38
140
0.0
102
RTVSPost2010PropOp38
 70
     1
102
RTVSPost2010Prop39
140
1.0
102
RTVSPost2010PropOp39
 70
     1
102
RTVSPost2010Prop40
 90
        0
102
RTVSPost2010PropOp40
 70
     1
102
RTVSPost2010Prop41ColorIndex
 90
       18
102
RTVSPost2010Prop41ColorRGB
 90
        0
102
RTVSPost2010PropOp41
 70
     1
102
RTVSPost2010Prop42
 90
       50
102
RTVSPost2010PropOp42
 70
     1
102
RTVSPost2010Prop43
 90
        3
102
RTVSPost2010PropOp43
 70
     1
102
RTVSPost2010Prop44ColorIndex
 90
        5
102
RTVSPost2010Prop44ColorRGB
 90
      255
102
RTVSPost2010PropOp44
 70
     1
102
RTVSPost2010Prop45
280
     0
102
RTVSPost2010PropOp45
 70
     1
102
RTVSPost2010Prop46
 90
       50
102
RTVSPost2010PropOp46
 70
     1
102
RTVSPost2010Prop47
 90
       50
102
RTVSPost2010PropOp47
 70
     1
102
RTVSPost2010Prop48
 90
       50
102
RTVSPost2010PropOp48
 70
     1
102
RTVSPost2010Prop49
280
     0
102
RTVSPost2010PropOp49
 70
     1
102
RTVSPost2010Prop50
 90
       50
102
RTVSPost2010PropOp50
 70
     1
102
RTVSPost2010Prop51ColorIndex
 90
      256
102
RTVSPost2010Prop51ColorRGB
 90
-16777216
102
RTVSPost2010PropOp51
 70
     0
102
RTVSPost2010Prop52
140
1.0
102
RTVSPost2010PropOp52
 70
     0
102
RTVSPost2010Prop53
 90
        2
102
RTVSPost2010PropOp53
 70
     1
102
RTVSPost2010Prop54
  1
strokes_ogs.tif
102
RTVSPost2010PropOp54
 70
     1
102
RTVSPost2010Prop55
280
     0
102
RTVSPost2010PropOp55
 70
     1
102
RTVSPost2010Prop56
140
1.0
102
RTVSPost2010PropOp56
 70
     1
102
RTVSPost2010Prop57
140
1.0
102
RTVSPost2010PropOp57
 70
     1
102
RTVSPropertyOp0
 70
     1
102
RTVSPropertyOp1
 70
     1
102
RTVSPropertyOp2
 70
     1
102
RTVSPropertyOp3
 70
     1
102
RTVSPropertyOp4
 70
     1
102
RTVSPropertyOp5
 70
     1
102
RTVSPropertyOp6
 70
     1
102
RTVSPropertyOp7
 70
     1
102
RTVSPropertyOp8
 70
     1
102
RTVSPropertyOp9
 70
     1
102
RTVSPropertyOp10
 70
     1
102
RTVSPropertyOp11
 70
     1
102
RTVSPropertyOp12
 70
     1
102
RTVSPropertyOp13
 70
     1
102
RTVSPropertyOp14
 70
     1
102
RTVSPropertyOp15
 70
     1
102
RTVSPropertyOp16
 70
     1
102
RTVSPropertyOp17
 70
     1
102
RTVSPropertyOp18
 70
     1
102
RTVSPropertyOp19
 70
     1
102
RTVSPropertyOp20
 70
     1
102
RTVSPropertyOp21
 70
     1
102
RTVSPropertyOp22
 70
     1
102
RTVSPropertyOp23
 70
     1
102
RTVSPropertyOp24
 70
     1
102
RTVSPropertyOp25
 70
     1
102
RTVSPropertyOp26
 70
     1
102
RTVSPropertyOp27
 70
     1
102
RTVSPropertyOp28
 70
     1
102
RTVSPropertyOp29
 70
     1
102
RTVSPropertyOp30
 70
     1
102
RTVSPropertyOp31
 70
     1
102
RTVSPropertyOp32
 70
     1
102
RTVSPropertyOp33
 70
     1
102
RTVSPropertyOp34
 70
     1
102
RTVSPropertyOp35
 70
     1
102
RTVSPropertyOp36
 70
     1
102
RTVSPropertyOp37
 70
     1
102
RTVSPropertyOp38
 70
     1
102
RTVSPropertyOp39
 70
     1
102
RTVSPropertyOp40
 70
     1
102
RTVSPropertyOp41
 70
     1
102
RTVSPropertyOp42
 70
     1
102
RTVSPropertyOp43
 70
     1
102
RTVSPropertyOp44
 70
     1
102
RTVSPropertyOp45
 70
     1
102
RTVSPropertyOp46
 70
     1
102
RTVSPropertyOp47
 70
     1
102
RTVSPropertyOp48
 70
     1
102
RTVSPropertyOp49
 70
     1
102
RTVSPropertyOp50
 70
     1
102
RTVSPropertyOp51
 70
     0
102
RTVSPropertyOp52
 70
     0
102
RTVSPropertyOp53
 70
     1
102
RTVSPropertyOp54
 70
     1
102
RTVSPropertyOp55
 70
     1
102
RTVSPropertyOp56
 70
     1
102
RTVSPropertyOp57
 70
     1
102
RTVSPropertyOp58
 70
     1
102
RTVSPropertyOp59
 70
     1
102
RTVSPropertyOp60
 70
     1
102
RTVSPropertyOp61
 70
     1
102
RTVSPropertyOp62
 70
     1
  0
XRECORD
  5
1B8CF
102
{ACAD_REACTORS
330
1B8CE
102
}
330
1B8CE
100
AcDbXrecord
280
     1
102
RTVSPost2010Prop28
280
     0
102
RTVSPost2010PropOp28
 70
     1
102
RTVSPost2010Prop29
280
     1
102
RTVSPost2010PropOp29
 70
     1
102
RTVSPost2010Prop30
280
     1
102
RTVSPost2010PropOp30
 70
     1
102
RTVSPost2010Prop31
280
     0
102
RTVSPost2010PropOp31
 70
     1
102
RTVSPost2010Prop32
280
     0
102
RTVSPost2010PropOp32
 70
     1
102
RTVSPost2010Prop33
280
     0
102
RTVSPost2010PropOp33
 70
     1
102
RTVSPost2010Prop34
280
     0
102
RTVSPost2010PropOp34
 70
     1
102
RTVSPost2010Prop35
280
     0
102
RTVSPost2010PropOp35
 70
     1
102
RTVSPost2010Prop36
280
     0
102
RTVSPost2010PropOp36
 70
     1
102
RTVSPost2010Prop37
 90
       50
102
RTVSPost2010PropOp37
 70
     1
102
RTVSPost2010Prop38
140
0.0
102
RTVSPost2010PropOp38
 70
     1
102
RTVSPost2010Prop39
140
1.0
102
RTVSPost2010PropOp39
 70
     1
102
RTVSPost2010Prop40
 90
        0
102
RTVSPost2010PropOp40
 70
     1
102
RTVSPost2010Prop41ColorIndex
 90
       18
102
RTVSPost2010Prop41ColorRGB
 90
        0
102
RTVSPost2010PropOp41
 70
     1
102
RTVSPost2010Prop42
 90
       50
102
RTVSPost2010PropOp42
 70
     1
102
RTVSPost2010Prop43
 90
        3
102
RTVSPost2010PropOp43
 70
     1
102
RTVSPost2010Prop44ColorIndex
 90
        5
102
RTVSPost2010Prop44ColorRGB
 90
      255
102
RTVSPost2010PropOp44
 70
     1
102
RTVSPost2010Prop45
280
     0
102
RTVSPost2010PropOp45
 70
     1
102
RTVSPost2010Prop46
 90
       50
102
RTVSPost2010PropOp46
 70
     1
102
RTVSPost2010Prop47
 90
       50
102
RTVSPost2010PropOp47
 70
     1
102
RTVSPost2010Prop48
 90
       50
102
RTVSPost2010PropOp48
 70
     1
102
RTVSPost2010Prop49
280
     0
102
RTVSPost2010PropOp49
 70
     1
102
RTVSPost2010Prop50
 90
       50
102
RTVSPost2010PropOp50
 70
     1
102
RTVSPost2010Prop51ColorIndex
 90
      256
102
RTVSPost2010Prop51ColorRGB
 90
-16777216
102
RTVSPost2010PropOp51
 70
     0
102
RTVSPost2010Prop52
140
1.0
102
RTVSPost2010PropOp52
 70
     0
102
RTVSPost2010Prop53
 90
        2
102
RTVSPost2010PropOp53
 70
     1
102
RTVSPost2010Prop54
  1
strokes_ogs.tif
102
RTVSPost2010PropOp54
 70
     1
102
RTVSPost2010Prop55
280
     0
102
RTVSPost2010PropOp55
 70
     1
102
RTVSPost2010Prop56
140
1.0
102
RTVSPost2010PropOp56
 70
     1
102
RTVSPost2010Prop57
140
1.0
102
RTVSPost2010PropOp57
 70
     1
102
RTVSPropertyOp0
 70
     1
102
RTVSPropertyOp1
 70
     1
102
RTVSPropertyOp2
 70
     1
102
RTVSPropertyOp3
 70
     1
102
RTVSPropertyOp4
 70
     1
102
RTVSPropertyOp5
 70
     1
102
RTVSPropertyOp6
 70
     1
102
RTVSPropertyOp7
 70
     1
102
RTVSPropertyOp8
 70
     1
102
RTVSPropertyOp9
 70
     1
102
RTVSPropertyOp10
 70
     1
102
RTVSPropertyOp11
 70
     1
102
RTVSPropertyOp12
 70
     1
102
RTVSPropertyOp13
 70
     1
102
RTVSPropertyOp14
 70
     1
102
RTVSPropertyOp15
 70
     1
102
RTVSPropertyOp16
 70
     1
102
RTVSPropertyOp17
 70
     1
102
RTVSPropertyOp18
 70
     1
102
RTVSPropertyOp19
 70
     1
102
RTVSPropertyOp20
 70
     1
102
RTVSPropertyOp21
 70
     1
102
RTVSPropertyOp22
 70
     1
102
RTVSPropertyOp23
 70
     1
102
RTVSPropertyOp24
 70
     1
102
RTVSPropertyOp25
 70
     1
102
RTVSPropertyOp26
 70
     1
102
RTVSPropertyOp27
 70
     1
102
RTVSPropertyOp28
 70
     1
102
RTVSPropertyOp29
 70
     1
102
RTVSPropertyOp30
 70
     1
102
RTVSPropertyOp31
 70
     1
102
RTVSPropertyOp32
 70
     1
102
RTVSPropertyOp33
 70
     1
102
RTVSPropertyOp34
 70
     1
102
RTVSPropertyOp35
 70
     1
102
RTVSPropertyOp36
 70
     1
102
RTVSPropertyOp37
 70
     1
102
RTVSPropertyOp38
 70
     1
102
RTVSPropertyOp39
 70
     1
102
RTVSPropertyOp40
 70
     1
102
RTVSPropertyOp41
 70
     1
102
RTVSPropertyOp42
 70
     1
102
RTVSPropertyOp43
 70
     1
102
RTVSPropertyOp44
 70
     1
102
RTVSPropertyOp45
 70
     1
102
RTVSPropertyOp46
 70
     1
102
RTVSPropertyOp47
 70
     1
102
RTVSPropertyOp48
 70
     1
102
RTVSPropertyOp49
 70
     1
102
RTVSPropertyOp50
 70
     1
102
RTVSPropertyOp51
 70
     0
102
RTVSPropertyOp52
 70
     0
102
RTVSPropertyOp53
 70
     1
102
RTVSPropertyOp54
 70
     1
102
RTVSPropertyOp55
 70
     1
102
RTVSPropertyOp56
 70
     1
102
RTVSPropertyOp57
 70
     1
102
RTVSPropertyOp58
 70
     1
102
RTVSPropertyOp59
 70
     1
102
RTVSPropertyOp60
 70
     1
102
RTVSPropertyOp61
 70
     1
102
RTVSPropertyOp62
 70
     1
  0
XRECORD
  5
1B8EF
102
{ACAD_REACTORS
330
1B8EE
102
}
330
1B8EE
100
AcDbXrecord
280
     1
102
RTVSPost2010Prop28
280
     0
102
RTVSPost2010PropOp28
 70
     1
102
RTVSPost2010Prop29
280
     1
102
RTVSPost2010PropOp29
 70
     1
102
RTVSPost2010Prop30
280
     1
102
RTVSPost2010PropOp30
 70
     1
102
RTVSPost2010Prop31
280
     0
102
RTVSPost2010PropOp31
 70
     1
102
RTVSPost2010Prop32
280
     0
102
RTVSPost2010PropOp32
 70
     1
102
RTVSPost2010Prop33
280
     0
102
RTVSPost2010PropOp33
 70
     1
102
RTVSPost2010Prop34
280
     0
102
RTVSPost2010PropOp34
 70
     1
102
RTVSPost2010Prop35
280
     0
102
RTVSPost2010PropOp35
 70
     1
102
RTVSPost2010Prop36
280
     0
102
RTVSPost2010PropOp36
 70
     1
102
RTVSPost2010Prop37
 90
       50
102
RTVSPost2010PropOp37
 70
     1
102
RTVSPost2010Prop38
140
0.0
102
RTVSPost2010PropOp38
 70
     1
102
RTVSPost2010Prop39
140
1.0
102
RTVSPost2010PropOp39
 70
     1
102
RTVSPost2010Prop40
 90
        0
102
RTVSPost2010PropOp40
 70
     1
102
RTVSPost2010Prop41ColorIndex
 90
       18
102
RTVSPost2010Prop41ColorRGB
 90
        0
102
RTVSPost2010PropOp41
 70
     1
102
RTVSPost2010Prop42
 90
       50
102
RTVSPost2010PropOp42
 70
     1
102
RTVSPost2010Prop43
 90
        3
102
RTVSPost2010PropOp43
 70
     1
102
RTVSPost2010Prop44ColorIndex
 90
        5
102
RTVSPost2010Prop44ColorRGB
 90
      255
102
RTVSPost2010PropOp44
 70
     1
102
RTVSPost2010Prop45
280
     0
102
RTVSPost2010PropOp45
 70
     1
102
RTVSPost2010Prop46
 90
       50
102
RTVSPost2010PropOp46
 70
     1
102
RTVSPost2010Prop47
 90
       50
102
RTVSPost2010PropOp47
 70
     1
102
RTVSPost2010Prop48
 90
       50
102
RTVSPost2010PropOp48
 70
     1
102
RTVSPost2010Prop49
280
     0
102
RTVSPost2010PropOp49
 70
     1
102
RTVSPost2010Prop50
 90
       50
102
RTVSPost2010PropOp50
 70
     1
102
RTVSPost2010Prop51ColorIndex
 90
      256
102
RTVSPost2010Prop51ColorRGB
 90
-16777216
102
RTVSPost2010PropOp51
 70
     0
102
RTVSPost2010Prop52
140
1.0
102
RTVSPost2010PropOp52
 70
     0
102
RTVSPost2010Prop53
 90
        2
102
RTVSPost2010PropOp53
 70
     1
102
RTVSPost2010Prop54
  1
strokes_ogs.tif
102
RTVSPost2010PropOp54
 70
     1
102
RTVSPost2010Prop55
280
     0
102
RTVSPost2010PropOp55
 70
     1
102
RTVSPost2010Prop56
140
1.0
102
RTVSPost2010PropOp56
 70
     1
102
RTVSPost2010Prop57
140
1.0
102
RTVSPost2010PropOp57
 70
     1
102
RTVSPropertyOp0
 70
     1
102
RTVSPropertyOp1
 70
     1
102
RTVSPropertyOp2
 70
     1
102
RTVSPropertyOp3
 70
     1
102
RTVSPropertyOp4
 70
     1
102
RTVSPropertyOp5
 70
     1
102
RTVSPropertyOp6
 70
     1
102
RTVSPropertyOp7
 70
     1
102
RTVSPropertyOp8
 70
     1
102
RTVSPropertyOp9
 70
     1
102
RTVSPropertyOp10
 70
     1
102
RTVSPropertyOp11
 70
     1
102
RTVSPropertyOp12
 70
     1
102
RTVSPropertyOp13
 70
     1
102
RTVSPropertyOp14
 70
     1
102
RTVSPropertyOp15
 70
     1
102
RTVSPropertyOp16
 70
     1
102
RTVSPropertyOp17
 70
     1
102
RTVSPropertyOp18
 70
     1
102
RTVSPropertyOp19
 70
     1
102
RTVSPropertyOp20
 70
     1
102
RTVSPropertyOp21
 70
     1
102
RTVSPropertyOp22
 70
     1
102
RTVSPropertyOp23
 70
     1
102
RTVSPropertyOp24
 70
     1
102
RTVSPropertyOp25
 70
     1
102
RTVSPropertyOp26
 70
     1
102
RTVSPropertyOp27
 70
     1
102
RTVSPropertyOp28
 70
     1
102
RTVSPropertyOp29
 70
     1
102
RTVSPropertyOp30
 70
     1
102
RTVSPropertyOp31
 70
     1
102
RTVSPropertyOp32
 70
     1
102
RTVSPropertyOp33
 70
     1
102
RTVSPropertyOp34
 70
     1
102
RTVSPropertyOp35
 70
     1
102
RTVSPropertyOp36
 70
     1
102
RTVSPropertyOp37
 70
     1
102
RTVSPropertyOp38
 70
     1
102
RTVSPropertyOp39
 70
     1
102
RTVSPropertyOp40
 70
     1
102
RTVSPropertyOp41
 70
     1
102
RTVSPropertyOp42
 70
     1
102
RTVSPropertyOp43
 70
     1
102
RTVSPropertyOp44
 70
     1
102
RTVSPropertyOp45
 70
     1
102
RTVSPropertyOp46
 70
     1
102
RTVSPropertyOp47
 70
     1
102
RTVSPropertyOp48
 70
     1
102
RTVSPropertyOp49
 70
     1
102
RTVSPropertyOp50
 70
     1
102
RTVSPropertyOp51
 70
     0
102
RTVSPropertyOp52
 70
     0
102
RTVSPropertyOp53
 70
     1
102
RTVSPropertyOp54
 70
     1
102
RTVSPropertyOp55
 70
     1
102
RTVSPropertyOp56
 70
     1
102
RTVSPropertyOp57
 70
     1
102
RTVSPropertyOp58
 70
     1
102
RTVSPropertyOp59
 70
     1
102
RTVSPropertyOp60
 70
     1
102
RTVSPropertyOp61
 70
     1
102
RTVSPropertyOp62
 70
     1
  0
ENDSEC
  0
EOF
