  0
SECTION
  2
HEADER
  9
$ACADVER
  1
AC1015
  9
$ACADMAINTVER
 70
    18
  9
$DWGCODEPAGE
  3
ANSI_1252
  9
$INSBASE
 10
0.0
 20
0.0
 30
0.0
  9
$EXTMIN
 10
-25.90392971632991
 20
-306.0229336247115
 30
-0.0015258207003583
  9
$EXTMAX
 10
56.25549371849695
 20
2.007614483832867
 30
0.0000000349246037
  9
$LIMMIN
 10
0.0
 20
0.0
  9
$LIMMAX
 10
420.0
 20
297.0
  9
$ORTHOMODE
 70
     0
  9
$REGENMODE
 70
     1
  9
$FILLMODE
 70
     1
  9
$QTEXTMODE
 70
     0
  9
$MIRRTEXT
 70
     0
  9
$LTSCALE
 40
1.0
  9
$ATTMODE
 70
     1
  9
$TEXTSIZE
 40
2.5
  9
$TRACEWID
 40
1.0
  9
$TEXTSTYLE
  7
Standard
  9
$CLAYER
  8
0
  9
$CELTYPE
  6
ByLayer
  9
$CECOLOR
 62
   256
  9
$CELTSCALE
 40
1.0
  9
$DISPSILH
 70
     0
  9
$DIMSCALE
 40
1.0
  9
$DIMASZ
 40
2.5
  9
$DIMEXO
 40
0.625
  9
$DIMDLI
 40
3.75
  9
$DIMRND
 40
0.0
  9
$DIMDLE
 40
0.0
  9
$DIMEXE
 40
1.25
  9
$DIMTP
 40
0.0
  9
$DIMTM
 40
0.0
  9
$DIMTXT
 40
2.5
  9
$DIMCEN
 40
2.5
  9
$DIMTSZ
 40
0.0
  9
$DIMTOL
 70
     0
  9
$DIMLIM
 70
     0
  9
$DIMTIH
 70
     0
  9
$DIMTOH
 70
     0
  9
$DIMSE1
 70
     0
  9
$DIMSE2
 70
     0
  9
$DIMTAD
 70
     1
  9
$DIMZIN
 70
     8
  9
$DIMBLK
  1

  9
$DIMASO
 70
     1
  9
$DIMSHO
 70
     1
  9
$DIMPOST
  1

  9
$DIMAPOST
  1

  9
$DIMALT
 70
     0
  9
$DIMALTD
 70
     3
  9
$DIMALTF
 40
0.03937007874016
  9
$DIMLFAC
 40
1.0
  9
$DIMTOFL
 70
     1
  9
$DIMTVP
 40
0.0
  9
$DIMTIX
 70
     0
  9
$DIMSOXD
 70
     0
  9
$DIMSAH
 70
     0
  9
$DIMBLK1
  1

  9
$DIMBLK2
  1

  9
$DIMSTYLE
  2
ISO-25
  9
$DIMCLRD
 70
     0
  9
$DIMCLRE
 70
     0
  9
$DIMCLRT
 70
     0
  9
$DIMTFAC
 40
1.0
  9
$DIMGAP
 40
0.625
  9
$DIMJUST
 70
     0
  9
$DIMSD1
 70
     0
  9
$DIMSD2
 70
     0
  9
$DIMTOLJ
 70
     0
  9
$DIMTZIN
 70
     8
  9
$DIMALTZ
 70
     0
  9
$DIMALTTZ
 70
     0
  9
$DIMUPT
 70
     0
  9
$DIMDEC
 70
     2
  9
$DIMTDEC
 70
     2
  9
$DIMALTU
 70
     2
  9
$DIMALTTD
 70
     3
  9
$DIMTXSTY
  7
Standard
  9
$DIMAUNIT
 70
     0
  9
$DIMADEC
 70
     0
  9
$DIMALTRND
 40
0.0
  9
$DIMAZIN
 70
     0
  9
$DIMDSEP
 70
    44
  9
$DIMATFIT
 70
     3
  9
$DIMFRAC
 70
     0
  9
$DIMLDRBLK
  1

  9
$DIMLUNIT
 70
     2
  9
$DIMLWD
 70
    -2
  9
$DIMLWE
 70
    -2
  9
$DIMTMOVE
 70
     0
  9
$LUNITS
 70
     2
  9
$LUPREC
 70
     4
  9
$SKETCHINC
 40
1.0
  9
$FILLETRAD
 40
0.0
  9
$AUNITS
 70
     0
  9
$AUPREC
 70
     0
  9
$MENU
  1
.
  9
$ELEVATION
 40
0.0
  9
$PELEVATION
 40
0.0
  9
$THICKNESS
 40
0.0
  9
$LIMCHECK
 70
     0
  9
$CHAMFERA
 40
0.0
  9
$CHAMFERB
 40
0.0
  9
$CHAMFERC
 40
0.0
  9
$CHAMFERD
 40
0.0
  9
$SKPOLY
 70
     0
  9
$TDCREATE
 40
2460733.571354167
  9
$TDUCREATE
 40
2460733.279687500
  9
$TDUPDATE
 40
2460733.603217593
  9
$TDUUPDATE
 40
2460733.311550926
  9
$TDINDWG
 40
0.0027546296
  9
$TDUSRTIMER
 40
0.0027546296
  9
$USRTIMER
 70
     1
  9
$ANGBASE
 50
0.0
  9
$ANGDIR
 70
     0
  9
$PDMODE
 70
     0
  9
$PDSIZE
 40
0.0
  9
$PLINEWID
 40
0.0
  9
$SPLFRAME
 70
     0
  9
$SPLINETYPE
 70
     6
  9
$SPLINESEGS
 70
     8
  9
$HANDSEED
  5
1AF82
  9
$SURFTAB1
 70
     6
  9
$SURFTAB2
 70
     6
  9
$SURFTYPE
 70
     6
  9
$SURFU
 70
     6
  9
$SURFV
 70
     6
  9
$UCSBASE
  2

  9
$UCSNAME
  2

  9
$UCSORG
 10
0.0
 20
0.0
 30
0.0
  9
$UCSXDIR
 10
1.0
 20
0.0
 30
0.0
  9
$UCSYDIR
 10
0.0
 20
1.0
 30
0.0
  9
$UCSORTHOREF
  2

  9
$UCSORTHOVIEW
 70
     0
  9
$UCSORGTOP
 10
0.0
 20
0.0
 30
0.0
  9
$UCSORGBOTTOM
 10
0.0
 20
0.0
 30
0.0
  9
$UCSORGLEFT
 10
0.0
 20
0.0
 30
0.0
  9
$UCSORGRIGHT
 10
0.0
 20
0.0
 30
0.0
  9
$UCSORGFRONT
 10
0.0
 20
0.0
 30
0.0
  9
$UCSORGBACK
 10
0.0
 20
0.0
 30
0.0
  9
$PUCSBASE
  2

  9
$PUCSNAME
  2

  9
$PUCSORG
 10
0.0
 20
0.0
 30
0.0
  9
$PUCSXDIR
 10
1.0
 20
0.0
 30
0.0
  9
$PUCSYDIR
 10
0.0
 20
1.0
 30
0.0
  9
$PUCSORTHOREF
  2

  9
$PUCSORTHOVIEW
 70
     0
  9
$PUCSORGTOP
 10
0.0
 20
0.0
 30
0.0
  9
$PUCSORGBOTTOM
 10
0.0
 20
0.0
 30
0.0
  9
$PUCSORGLEFT
 10
0.0
 20
0.0
 30
0.0
  9
$PUCSORGRIGHT
 10
0.0
 20
0.0
 30
0.0
  9
$PUCSORGFRONT
 10
0.0
 20
0.0
 30
0.0
  9
$PUCSORGBACK
 10
0.0
 20
0.0
 30
0.0
  9
$USERI1
 70
     0
  9
$USERI2
 70
     0
  9
$USERI3
 70
     0
  9
$USERI4
 70
     0
  9
$USERI5
 70
     0
  9
$USERR1
 40
0.0
  9
$USERR2
 40
0.0
  9
$USERR3
 40
0.0
  9
$USERR4
 40
0.0
  9
$USERR5
 40
0.0
  9
$WORLDVIEW
 70
     1
  9
$SHADEDGE
 70
     3
  9
$SHADEDIF
 70
    70
  9
$TILEMODE
 70
     1
  9
$MAXACTVP
 70
    48
  9
$PINSBASE
 10
0.0
 20
0.0
 30
0.0
  9
$PLIMCHECK
 70
     0
  9
$PEXTMIN
 10
0.0
 20
0.0
 30
0.0
  9
$PEXTMAX
 10
0.0
 20
0.0
 30
0.0
  9
$PLIMMIN
 10
0.0
 20
0.0
  9
$PLIMMAX
 10
12.0
 20
9.0
  9
$UNITMODE
 70
     0
  9
$VISRETAIN
 70
     1
  9
$PLINEGEN
 70
     0
  9
$PSLTSCALE
 70
     1
  9
$TREEDEPTH
 70
  3020
  9
$CMLSTYLE
  2
Standard
  9
$CMLJUST
 70
     0
  9
$CMLSCALE
 40
20.0
  9
$PROXYGRAPHICS
 70
     1
  9
$MEASUREMENT
 70
     1
  9
$CELWEIGHT
370
    -1
  9
$ENDCAPS
280
     0
  9
$JOINSTYLE
280
     0
  9
$LWDISPLAY
290
     0
  9
$INSUNITS
 70
     4
  9
$HYPERLINKBASE
  1

  9
$STYLESHEET
  1

  9
$XEDIT
290
     1
  9
$CEPSNTYPE
380
     0
  9
$PSTYLEMODE
290
     1
  9
$FINGERPRINTGUID
  2
{6CB9A169-B505-1E4C-8D04-AD9216FC5A69}
  9
$VERSIONGUID
  2
{0D4DD83A-4B0B-184B-8D91-A1FE3B4F2EB4}
  9
$EXTNAMES
290
     1
  9
$PSVPSCALE
 40
0.0
  9
$OLESTARTUP
290
     0
  0
ENDSEC
  0
SECTION
  2
CLASSES
  0
CLASS
  1
ACDBDICTIONARYWDFLT
  2
AcDbDictionaryWithDefault
  3
ObjectDBX Classes
 90
        0
280
     0
281
     0
  0
CLASS
  1
ACDBPLACEHOLDER
  2
AcDbPlaceHolder
  3
ObjectDBX Classes
 90
        0
280
     0
281
     0
  0
CLASS
  1
LAYOUT
  2
AcDbLayout
  3
ObjectDBX Classes
 90
        0
280
     0
281
     0
  0
CLASS
  1
DICTIONARYVAR
  2
AcDbDictionaryVar
  3
ObjectDBX Classes
 90
        0
280
     0
281
     0
  0
CLASS
  1
TABLESTYLE
  2
AcDbTableStyle
  3
ObjectDBX Classes
 90
     4095
280
     0
281
     0
  0
CLASS
  1
MATERIAL
  2
AcDbMaterial
  3
ObjectDBX Classes
 90
     1153
280
     0
281
     0
  0
CLASS
  1
VISUALSTYLE
  2
AcDbVisualStyle
  3
ObjectDBX Classes
 90
     4095
280
     0
281
     0
  0
CLASS
  1
SCALE
  2
AcDbScale
  3
ObjectDBX Classes
 90
     1153
280
     0
281
     0
  0
CLASS
  1
MLEADERSTYLE
  2
AcDbMLeaderStyle
  3
ACDB_MLEADERSTYLE_CLASS
 90
     4095
280
     0
281
     0
  0
CLASS
  1
CELLSTYLEMAP
  2
AcDbCellStyleMap
  3
ObjectDBX Classes
 90
     1152
280
     0
281
     0
  0
CLASS
  1
EXACXREFPANELOBJECT
  2
ExAcXREFPanelObject
  3
EXAC_ESW
 90
    33793
280
     0
281
     0
  0
CLASS
  1
NPOCOLLECTION
  2
AcDbImpNonPersistentObjectsCollection
  3
ObjectDBX Classes
 90
    33921
280
     0
281
     0
  0
CLASS
  1
LAYER_INDEX
  2
AcDbLayerIndex
  3
ObjectDBX Classes
 90
    32768
280
     0
281
     0
  0
CLASS
  1
SPATIAL_INDEX
  2
AcDbSpatialIndex
  3
ObjectDBX Classes
 90
    32768
280
     0
281
     0
  0
CLASS
  1
IDBUFFER
  2
AcDbIdBuffer
  3
ObjectDBX Classes
 90
    32768
280
     0
281
     0
  0
CLASS
  1
ACDBSECTIONVIEWSTYLE
  2
AcDbSectionViewStyle
  3
ObjectDBX Classes
 90
     1025
280
     0
281
     0
  0
CLASS
  1
ACDBDETAILVIEWSTYLE
  2
AcDbDetailViewStyle
  3
ObjectDBX Classes
 90
     1025
280
     0
281
     0
  0
CLASS
  1
XRECORD
  2
AcDbXrecord
  3
ObjectDBX Classes
 90
        0
280
     0
281
     0
  0
ENDSEC
  0
SECTION
  2
TABLES
  0
TABLE
  2
VPORT
  5
8
102
{ACAD_XDICTIONARY
360
1AE90
102
}
330
0
100
AcDbSymbolTable
 70
     1
  0
VPORT
  5
EA
330
8
100
AcDbSymbolTableRecord
100
AcDbViewportTableRecord
  2
*Active
 70
     0
 10
0.0
 20
0.0
 11
1.0
 21
1.0
 12
15.1757820010835
 22
-152.0076595704393
 13
0.0
 23
0.0
 14
10.0
 24
10.0
 15
10.0
 25
10.0
 16
0.0
 26
0.0
 36
1.0
 17
0.0
 27
0.0
 37
0.0
 40
327.5625731637476
 41
0.9846153846153846
 42
50.0
 43
0.0
 44
0.0
 50
0.0
 51
0.0
 71
     0
 72
  1000
 73
     1
 74
     3
 75
     0
 76
     1
 77
     0
 78
     0
281
     0
 65
     1
110
0.0
120
0.0
130
0.0
111
1.0
121
0.0
131
0.0
112
0.0
122
1.0
132
0.0
 79
     0
146
0.0
1001
ACAD_NAV_VCDISPLAY
1070
     3
  0
ENDTAB
  0
TABLE
  2
LTYPE
  5
5
330
0
100
AcDbSymbolTable
 70
     1
  0
LTYPE
  5
14
330
5
100
AcDbSymbolTableRecord
100
AcDbLinetypeTableRecord
  2
ByBlock
 70
     0
  3

 72
    65
 73
     0
 40
0.0
  0
LTYPE
  5
15
330
5
100
AcDbSymbolTableRecord
100
AcDbLinetypeTableRecord
  2
ByLayer
 70
     0
  3

 72
    65
 73
     0
 40
0.0
  0
LTYPE
  5
16
330
5
100
AcDbSymbolTableRecord
100
AcDbLinetypeTableRecord
  2
Continuous
 70
     0
  3
Solid line
 72
    65
 73
     0
 40
0.0
  0
ENDTAB
  0
TABLE
  2
LAYER
  5
2
102
{ACAD_XDICTIONARY
360
1FF
102
}
330
0
100
AcDbSymbolTable
 70
     1
  0
LAYER
  5
10
102
{ACAD_XDICTIONARY
360
13C
102
}
330
2
100
AcDbSymbolTableRecord
100
AcDbLayerTableRecord
  2
0
 70
     0
 62
     7
  6
Continuous
370
    -3
390
F
  0
ENDTAB
  0
TABLE
  2
STYLE
  5
3
330
0
100
AcDbSymbolTable
 70
     1
  0
STYLE
  5
11
330
3
100
AcDbSymbolTableRecord
100
AcDbTextStyleTableRecord
  2
Standard
 70
     0
 40
0.0
 41
1.0
 50
0.0
 71
     0
 42
2.5
  3
arial.ttf
  4

1001
ACAD
1000
Arial
1071
       34
  0
ENDTAB
  0
TABLE
  2
VIEW
  5
6
330
0
100
AcDbSymbolTable
 70
     0
  0
ENDTAB
  0
TABLE
  2
UCS
  5
7
330
0
100
AcDbSymbolTable
 70
     0
  0
ENDTAB
  0
TABLE
  2
APPID
  5
9
330
0
100
AcDbSymbolTable
 70
     8
  0
APPID
  5
12
330
9
100
AcDbSymbolTableRecord
100
AcDbRegAppTableRecord
  2
ACAD
 70
     0
  0
APPID
  5
9E
330
9
100
AcDbSymbolTableRecord
100
AcDbRegAppTableRecord
  2
ACAD_PSEXT
 70
     0
  0
APPID
  5
133
330
9
100
AcDbSymbolTableRecord
100
AcDbRegAppTableRecord
  2
AcadAnnoPO
 70
     0
  0
APPID
  5
134
330
9
100
AcDbSymbolTableRecord
100
AcDbRegAppTableRecord
  2
AcadAnnotative
 70
     0
  0
APPID
  5
135
330
9
100
AcDbSymbolTableRecord
100
AcDbRegAppTableRecord
  2
ACAD_DSTYLE_DIMJAG
 70
     0
  0
APPID
  5
136
330
9
100
AcDbSymbolTableRecord
100
AcDbRegAppTableRecord
  2
ACAD_DSTYLE_DIMTALN
 70
     0
  0
APPID
  5
165
330
9
100
AcDbSymbolTableRecord
100
AcDbRegAppTableRecord
  2
ACAD_MLEADERVER
 70
     0
  0
APPID
  5
217
330
9
100
AcDbSymbolTableRecord
100
AcDbRegAppTableRecord
  2
ACAD_NAV_VCDISPLAY
 70
     0
  0
ENDTAB
  0
TABLE
  2
DIMSTYLE
  5
A
330
0
100
AcDbSymbolTable
 70
     1
100
AcDbDimStyleTable
 71
     0
  0
DIMSTYLE
105
27
330
A
100
AcDbSymbolTableRecord
100
AcDbDimStyleTableRecord
  2
ISO-25
 70
     0
 41
2.5
 42
0.625
 43
3.75
 44
1.25
 73
     0
 74
     0
 77
     1
 78
     8
140
2.5
141
2.5
143
0.03937007874016
147
0.625
171
     3
172
     1
271
     2
272
     2
274
     3
278
    44
283
     0
284
     8
340
11
  0
ENDTAB
  0
TABLE
  2
BLOCK_RECORD
  5
1
330
0
100
AcDbSymbolTable
 70
     4
  0
BLOCK_RECORD
  5
1F
102
{ACAD_XDICTIONARY
360
1CE
102
}
330
1
100
AcDbSymbolTableRecord
100
AcDbBlockTableRecord
  2
*Model_Space
340
22
  0
BLOCK_RECORD
  5
D2
102
{ACAD_XDICTIONARY
360
1AE41
102
}
330
1
100
AcDbSymbolTableRecord
100
AcDbBlockTableRecord
  2
*Paper_Space
340
D3
  0
BLOCK_RECORD
  5
D6
102
{ACAD_XDICTIONARY
360
1AE43
102
}
330
1
100
AcDbSymbolTableRecord
100
AcDbBlockTableRecord
  2
*Paper_Space0
340
D7
  0
BLOCK_RECORD
  5
1AA36
330
1
100
AcDbSymbolTableRecord
100
AcDbBlockTableRecord
  2
MKSA440x145-Front
340
0
102
{BLKREFS
331
1AE3A
102
}
  0
BLOCK_RECORD
  5
1AD2D
330
1
100
AcDbSymbolTableRecord
100
AcDbBlockTableRecord
  2
MKSA440x145-Top
340
0
102
{BLKREFS
331
1AE3B
102
}
  0
BLOCK_RECORD
  5
1AD3E
330
1
100
AcDbSymbolTableRecord
100
AcDbBlockTableRecord
  2
MKSA440x145-ISO
340
0
102
{BLKREFS
331
1AE3C
102
}
  0
ENDTAB
  0
ENDSEC
  0
SECTION
  2
BLOCKS
  0
BLOCK
  5
20
330
1F
100
AcDbEntity
  8
0
100
AcDbBlockBegin
  2
*Model_Space
 70
     0
 10
0.0
 20
0.0
 30
0.0
  3
*Model_Space
  1

  0
ENDBLK
  5
21
330
1F
100
AcDbEntity
  8
0
100
AcDbBlockEnd
  0
BLOCK
  5
D4
330
D2
100
AcDbEntity
 67
     1
  8
0
100
AcDbBlockBegin
  2
*Paper_Space
 70
     0
 10
0.0
 20
0.0
 30
0.0
  3
*Paper_Space
  1

  0
ENDBLK
  5
D5
330
D2
100
AcDbEntity
 67
     1
  8
0
100
AcDbBlockEnd
  0
BLOCK
  5
D8
330
D6
100
AcDbEntity
 67
     1
  8
0
100
AcDbBlockBegin
  2
*Paper_Space0
 70
     0
 10
0.0
 20
0.0
 30
0.0
  3
*Paper_Space0
  1

  0
ENDBLK
  5
D9
330
D6
100
AcDbEntity
 67
     1
  8
0
100
AcDbBlockEnd
  0
BLOCK
  5
1AA37
330
1AA36
100
AcDbEntity
  8
0
100
AcDbBlockBegin
  2
MKSA440x145-Front
 70
     0
 10
0.0
 20
0.0
 30
0.0
  3
MKSA440x145-Front
  1

  0
LINE
  5
1AA39
330
1AA36
100
AcDbEntity
  8
0
100
AcDbLine
 10
0.0
 20
-143.0
 30
0.0
 11
-2.111027358743962
 21
-137.2
 31
0.0
  0
LINE
  5
1AA3A
330
1AA36
100
AcDbEntity
  8
0
100
AcDbLine
 10
0.0
 20
-143.0
 30
0.0
 11
2.111027358743972
 21
-137.2
 31
0.0
  0
ELLIPSE
  5
1AA3B
330
1AA36
100
AcDbEntity
  8
0
100
AcDbEllipse
 10
0.0000000000000105
 20
-142.9999999999999
 30
0.0
 11
-1.541261305124504
 21
-8.197953800196577
 31
0.0
210
0.0
220
0.0
230
1.0
 40
0.1759646242458642
 41
2.389264765746323
 42
3.960061092541235
  0
LINE
  5
1AA3C
330
1AA36
100
AcDbEntity
  8
0
100
AcDbLine
 10
0.0
 20
-137.2
 30
0.0
 11
0.0
 21
-143.0
 31
0.0
  0
LINE
  5
1AA3D
330
1AA36
100
AcDbEntity
  8
0
100
AcDbLine
 10
2.111027358743981
 20
-132.0
 30
0.0
 11
-2.111027358743962
 21
-132.0
 31
0.0
  0
LINE
  5
1AA3E
330
1AA36
100
AcDbEntity
  8
0
100
AcDbLine
 10
2.000000000000012
 20
-82.00000000000001
 30
0.0
 11
-2.000000000000006
 21
-82.00000000000001
 31
0.0
  0
LINE
  5
1AA3F
330
1AA36
100
AcDbEntity
  8
0
100
AcDbLine
 10
4.249999999999985
 20
0.0
 30
0.0
 11
-4.25
 21
0.0
 31
0.0
  0
LINE
  5
1AA40
330
1AA36
100
AcDbEntity
  8
0
100
AcDbLine
 10
4.249999999999985
 20
0.3500000000000019
 30
0.0
 11
-4.25
 21
0.3500000000000009
 31
0.0
  0
LINE
  5
1AA41
330
1AA36
100
AcDbEntity
  8
0
100
AcDbLine
 10
-2.111027358743962
 20
-137.2
 30
0.0
 11
-2.111027358743962
 21
-132.0
 31
0.0
  0
LINE
  5
1AA42
330
1AA36
100
AcDbEntity
  8
0
100
AcDbLine
 10
2.111027358743981
 20
-137.2
 30
0.0
 11
2.111027358743981
 21
-132.0
 31
0.0
  0
LINE
  5
1AA43
330
1AA36
100
AcDbEntity
  8
0
100
AcDbLine
 10
-1.849999999999993
 20
-132.0
 30
0.0
 11
-1.849999999999993
 21
-131.5
 31
0.0
  0
LINE
  5
1AA44
330
1AA36
100
AcDbEntity
  8
0
100
AcDbLine
 10
1.850000000000012
 20
-132.0
 30
0.0
 11
1.850000000000012
 21
-131.5
 31
0.0
  0
LINE
  5
1AA45
330
1AA36
100
AcDbEntity
  8
0
100
AcDbLine
 10
-2.000000000000001
 20
-82.00000000000001
 30
0.0
 11
-2.000000000000011
 21
-0.9999999999999964
 31
0.0
  0
LINE
  5
1AA46
330
1AA36
100
AcDbEntity
  8
0
100
AcDbLine
 10
2.000000000000007
 20
-82.00000000000001
 30
0.0
 11
1.999999999999997
 21
-0.9999999999999964
 31
0.0
  0
ARC
  5
1AA47
330
1AA36
100
AcDbEntity
  8
0
100
AcDbCircle
 10
2.999999999999992
 20
-0.999999999999996
 30
0.0
 40
1.0
100
AcDbArc
 50
90.00000000000005
 51
180.0
  0
ARC
  5
1AA48
330
1AA36
100
AcDbEntity
  8
0
100
AcDbCircle
 10
-3.000000000000006
 20
-0.9999999999999968
 30
0.0
 40
1.0
100
AcDbArc
 50
0.0
 51
90.00000000000007
  0
LINE
  5
1AA49
330
1AA36
100
AcDbEntity
  8
0
100
AcDbLine
 10
-4.25
 20
0.0
 30
0.0
 11
-4.25
 21
0.3499999999999999
 31
0.0
  0
LINE
  5
1AA4A
330
1AA36
100
AcDbEntity
  8
0
100
AcDbLine
 10
4.249999999999985
 20
0.0
 30
0.0
 11
4.249999999999985
 21
0.3500000000000019
 31
0.0
  0
ARC
  5
1AA4B
330
1AA36
100
AcDbEntity
  8
0
100
AcDbCircle
 10
0.6503096200045129
 20
-5.973524778799497
 30
0.0
 40
8.0
100
AcDbArc
 50
94.6626442334653
 51
127.773294920092
  0
ARC
  5
1AA4C
330
1AA36
100
AcDbEntity
  8
0
100
AcDbCircle
 10
-0.6503096200045255
 20
-5.973524778799497
 30
0.0
 40
8.000000000000001
100
AcDbArc
 50
52.22670507990798
 51
85.33735576653475
  0
ELLIPSE
  5
1AA4D
330
1AA36
100
AcDbEntity
  8
0
100
AcDbEllipse
 10
0.0000000000000105
 20
-143.0
 30
0.0
 11
-1.541261305124513
 21
8.197953800196582
 31
0.0
210
0.0
220
0.0
230
1.0
 40
0.1759646242458633
 41
5.464716868228148
 42
7.035513195023042
  0
LINE
  5
1AA4E
330
1AA36
100
AcDbEntity
  8
0
100
AcDbLine
 10
1.85777346899888
 20
-83.46674953339343
 30
0.0
 11
-1.85777346899888
 21
-83.46674953339343
 31
0.0
  0
LINE
  5
1AA4F
330
1AA36
100
AcDbEntity
  8
0
100
AcDbLine
 10
1.85777346899888
 20
-129.9667495333934
 30
0.0
 11
-1.85777346899888
 21
-129.9667495333934
 31
0.0
  0
LINE
  5
1AA50
330
1AA36
100
AcDbEntity
  8
0
100
AcDbLine
 10
-1.849999999999993
 20
-131.5
 30
0.0
 11
1.850000000000012
 21
-131.5
 31
0.0
  0
LINE
  5
1AA51
330
1AA36
100
AcDbEntity
  8
0
100
AcDbLine
 10
1.857773468998884
 20
-128.4667495333934
 30
0.0
 11
-1.857773468998884
 21
-128.4667495333934
 31
0.0
  0
LINE
  5
1AA52
330
1AA36
100
AcDbEntity
  8
0
100
AcDbLine
 10
1.85777346899888
 20
-126.9667495333934
 30
0.0
 11
-1.85777346899888
 21
-126.9667495333934
 31
0.0
  0
LINE
  5
1AA53
330
1AA36
100
AcDbEntity
  8
0
100
AcDbLine
 10
1.85777346899888
 20
-125.4667495333934
 30
0.0
 11
-1.85777346899888
 21
-125.4667495333934
 31
0.0
  0
LINE
  5
1AA54
330
1AA36
100
AcDbEntity
  8
0
100
AcDbLine
 10
1.85777346899888
 20
-123.9667495333934
 30
0.0
 11
-1.85777346899888
 21
-123.9667495333934
 31
0.0
  0
LINE
  5
1AA55
330
1AA36
100
AcDbEntity
  8
0
100
AcDbLine
 10
1.85777346899888
 20
-122.4667495333934
 30
0.0
 11
-1.85777346899888
 21
-122.4667495333934
 31
0.0
  0
LINE
  5
1AA56
330
1AA36
100
AcDbEntity
  8
0
100
AcDbLine
 10
1.857773468998884
 20
-120.9667495333934
 30
0.0
 11
-1.857773468998884
 21
-120.9667495333934
 31
0.0
  0
LINE
  5
1AA57
330
1AA36
100
AcDbEntity
  8
0
100
AcDbLine
 10
1.857773468998884
 20
-119.4667495333934
 30
0.0
 11
-1.857773468998884
 21
-119.4667495333934
 31
0.0
  0
LINE
  5
1AA58
330
1AA36
100
AcDbEntity
  8
0
100
AcDbLine
 10
1.85777346899888
 20
-117.9667495333934
 30
0.0
 11
-1.85777346899888
 21
-117.9667495333934
 31
0.0
  0
LINE
  5
1AA59
330
1AA36
100
AcDbEntity
  8
0
100
AcDbLine
 10
1.85777346899888
 20
-116.4667495333934
 30
0.0
 11
-1.85777346899888
 21
-116.4667495333934
 31
0.0
  0
LINE
  5
1AA5A
330
1AA36
100
AcDbEntity
  8
0
100
AcDbLine
 10
1.85777346899888
 20
-114.9667495333934
 30
0.0
 11
-1.85777346899888
 21
-114.9667495333934
 31
0.0
  0
LINE
  5
1AA5B
330
1AA36
100
AcDbEntity
  8
0
100
AcDbLine
 10
1.857773468998884
 20
-113.4667495333934
 30
0.0
 11
-1.857773468998884
 21
-113.4667495333934
 31
0.0
  0
LINE
  5
1AA5C
330
1AA36
100
AcDbEntity
  8
0
100
AcDbLine
 10
1.857773468998884
 20
-111.9667495333934
 30
0.0
 11
-1.857773468998884
 21
-111.9667495333934
 31
0.0
  0
LINE
  5
1AA5D
330
1AA36
100
AcDbEntity
  8
0
100
AcDbLine
 10
1.85777346899888
 20
-110.4667495333934
 30
0.0
 11
-1.85777346899888
 21
-110.4667495333934
 31
0.0
  0
LINE
  5
1AA5E
330
1AA36
100
AcDbEntity
  8
0
100
AcDbLine
 10
1.85777346899888
 20
-108.9667495333934
 30
0.0
 11
-1.85777346899888
 21
-108.9667495333934
 31
0.0
  0
LINE
  5
1AA5F
330
1AA36
100
AcDbEntity
  8
0
100
AcDbLine
 10
1.85777346899888
 20
-107.4667495333934
 30
0.0
 11
-1.85777346899888
 21
-107.4667495333934
 31
0.0
  0
LINE
  5
1AA60
330
1AA36
100
AcDbEntity
  8
0
100
AcDbLine
 10
1.857773468998884
 20
-105.9667495333934
 30
0.0
 11
-1.857773468998884
 21
-105.9667495333934
 31
0.0
  0
LINE
  5
1AA61
330
1AA36
100
AcDbEntity
  8
0
100
AcDbLine
 10
1.857773468998884
 20
-104.4667495333934
 30
0.0
 11
-1.857773468998884
 21
-104.4667495333934
 31
0.0
  0
LINE
  5
1AA62
330
1AA36
100
AcDbEntity
  8
0
100
AcDbLine
 10
1.85777346899888
 20
-102.9667495333934
 30
0.0
 11
-1.85777346899888
 21
-102.9667495333934
 31
0.0
  0
LINE
  5
1AA63
330
1AA36
100
AcDbEntity
  8
0
100
AcDbLine
 10
1.85777346899888
 20
-101.4667495333934
 30
0.0
 11
-1.85777346899888
 21
-101.4667495333934
 31
0.0
  0
LINE
  5
1AA64
330
1AA36
100
AcDbEntity
  8
0
100
AcDbLine
 10
1.85777346899888
 20
-99.96674953339343
 30
0.0
 11
-1.85777346899888
 21
-99.96674953339343
 31
0.0
  0
LINE
  5
1AA65
330
1AA36
100
AcDbEntity
  8
0
100
AcDbLine
 10
1.85777346899888
 20
-98.46674953339345
 30
0.0
 11
-1.85777346899888
 21
-98.46674953339345
 31
0.0
  0
LINE
  5
1AA66
330
1AA36
100
AcDbEntity
  8
0
100
AcDbLine
 10
1.85777346899888
 20
-96.96674953339343
 30
0.0
 11
-1.85777346899888
 21
-96.96674953339343
 31
0.0
  0
LINE
  5
1AA67
330
1AA36
100
AcDbEntity
  8
0
100
AcDbLine
 10
1.85777346899888
 20
-95.46674953339346
 30
0.0
 11
-1.85777346899888
 21
-95.46674953339346
 31
0.0
  0
LINE
  5
1AA68
330
1AA36
100
AcDbEntity
  8
0
100
AcDbLine
 10
1.85777346899888
 20
-93.96674953339344
 30
0.0
 11
-1.85777346899888
 21
-93.96674953339344
 31
0.0
  0
LINE
  5
1AA69
330
1AA36
100
AcDbEntity
  8
0
100
AcDbLine
 10
1.85777346899888
 20
-92.46674953339343
 30
0.0
 11
-1.85777346899888
 21
-92.46674953339343
 31
0.0
  0
LINE
  5
1AA6A
330
1AA36
100
AcDbEntity
  8
0
100
AcDbLine
 10
1.85777346899888
 20
-90.96674953339343
 30
0.0
 11
-1.85777346899888
 21
-90.96674953339343
 31
0.0
  0
LINE
  5
1AA6B
330
1AA36
100
AcDbEntity
  8
0
100
AcDbLine
 10
1.85777346899888
 20
-89.46674953339343
 30
0.0
 11
-1.85777346899888
 21
-89.46674953339343
 31
0.0
  0
LINE
  5
1AA6C
330
1AA36
100
AcDbEntity
  8
0
100
AcDbLine
 10
1.857773468998884
 20
-87.96674953339342
 30
0.0
 11
-1.857773468998884
 21
-87.96674953339342
 31
0.0
  0
LINE
  5
1AA6D
330
1AA36
100
AcDbEntity
  8
0
100
AcDbLine
 10
1.85777346899888
 20
-86.46674953339344
 30
0.0
 11
-1.85777346899888
 21
-86.46674953339344
 31
0.0
  0
LINE
  5
1AA6E
330
1AA36
100
AcDbEntity
  8
0
100
AcDbLine
 10
1.85777346899888
 20
-84.96674953339343
 30
0.0
 11
-1.85777346899888
 21
-84.96674953339343
 31
0.0
  0
LINE
  5
1AA6F
330
1AA36
100
AcDbEntity
  8
0
100
AcDbLine
 10
1.85777346899888
 20
-83.46674953339343
 30
0.0
 11
1.995529386843736
 21
-83.49895483653845
 31
0.0
  0
LINE
  5
1AA70
330
1AA36
100
AcDbEntity
  8
0
100
AcDbLine
 10
-1.857773468998876
 20
-83.46674953339343
 30
0.0
 11
-1.995529386843736
 21
-83.49895483653845
 31
0.0
  0
LINE
  5
1AA71
330
1AA36
100
AcDbEntity
  8
0
100
AcDbLine
 10
1.85777346899888
 20
-129.9667495333934
 30
0.0
 11
1.995529386843736
 21
-129.9989548365384
 31
0.0
  0
LINE
  5
1AA72
330
1AA36
100
AcDbEntity
  8
0
100
AcDbLine
 10
-1.85777346899888
 20
-129.9667495333934
 30
0.0
 11
-1.995529386843736
 21
-129.9989548365384
 31
0.0
  0
LINE
  5
1AA73
330
1AA36
100
AcDbEntity
  8
0
100
AcDbLine
 10
-1.850000000000002
 20
-131.5
 30
0.0
 11
-2.144748748220958
 21
-130.2392329716032
 31
0.0
  0
LINE
  5
1AA74
330
1AA36
100
AcDbEntity
  8
0
100
AcDbLine
 10
1.850000000000002
 20
-131.5
 30
0.0
 11
2.144748748220954
 21
-130.2392329716032
 31
0.0
  0
ARC
  5
1AA75
330
1AA36
100
AcDbEntity
  8
0
100
AcDbCircle
 10
1.949999999999987
 20
-130.1937035847594
 30
0.0
 40
0.2
100
AcDbArc
 50
346.8414235966668
 51
76.84142359667106
  0
ARC
  5
1AA76
330
1AA36
100
AcDbEntity
  8
0
100
AcDbCircle
 10
-1.949999999999987
 20
-130.1937035847594
 30
0.0
 40
0.2
100
AcDbArc
 50
103.158576403328
 51
193.1585764033279
  0
LINE
  5
1AA77
330
1AA36
100
AcDbEntity
  8
0
100
AcDbLine
 10
1.857773468998884
 20
-128.4667495333934
 30
0.0
 11
1.995529386843736
 21
-128.4989548365385
 31
0.0
  0
LINE
  5
1AA78
330
1AA36
100
AcDbEntity
  8
0
100
AcDbLine
 10
-1.85777346899888
 20
-128.4667495333934
 30
0.0
 11
-1.995529386843736
 21
-128.4989548365385
 31
0.0
  0
LINE
  5
1AA79
330
1AA36
100
AcDbEntity
  8
0
100
AcDbLine
 10
-1.857773468998881
 20
-129.9667495333934
 30
0.0
 11
-2.144748748220958
 21
-128.7392329716031
 31
0.0
  0
LINE
  5
1AA7A
330
1AA36
100
AcDbEntity
  8
0
100
AcDbLine
 10
1.857773468998881
 20
-129.9667495333934
 30
0.0
 11
2.144748748220958
 21
-128.7392329716031
 31
0.0
  0
ARC
  5
1AA7B
330
1AA36
100
AcDbEntity
  8
0
100
AcDbCircle
 10
1.949999999999987
 20
-128.6937035847594
 30
0.0
 40
0.2000000000000001
100
AcDbArc
 50
346.841423596672
 51
76.84142359667203
  0
ARC
  5
1AA7C
330
1AA36
100
AcDbEntity
  8
0
100
AcDbCircle
 10
-1.949999999999987
 20
-128.6937035847594
 30
0.0
 40
0.2
100
AcDbArc
 50
103.158576403328
 51
193.1585764033279
  0
LINE
  5
1AA7D
330
1AA36
100
AcDbEntity
  8
0
100
AcDbLine
 10
1.85777346899888
 20
-126.9667495333934
 30
0.0
 11
1.995529386843736
 21
-126.9989548365384
 31
0.0
  0
LINE
  5
1AA7E
330
1AA36
100
AcDbEntity
  8
0
100
AcDbLine
 10
-1.85777346899888
 20
-126.9667495333934
 30
0.0
 11
-1.995529386843736
 21
-126.9989548365384
 31
0.0
  0
LINE
  5
1AA7F
330
1AA36
100
AcDbEntity
  8
0
100
AcDbLine
 10
-1.857773468998885
 20
-128.4667495333934
 30
0.0
 11
-2.144748748220962
 21
-127.2392329716032
 31
0.0
  0
LINE
  5
1AA80
330
1AA36
100
AcDbEntity
  8
0
100
AcDbLine
 10
1.857773468998885
 20
-128.4667495333934
 30
0.0
 11
2.144748748220962
 21
-127.2392329716032
 31
0.0
  0
ARC
  5
1AA81
330
1AA36
100
AcDbEntity
  8
0
100
AcDbCircle
 10
1.949999999999987
 20
-127.1937035847594
 30
0.0
 40
0.2
100
AcDbArc
 50
346.8414235966772
 51
76.84142359667291
  0
ARC
  5
1AA82
330
1AA36
100
AcDbEntity
  8
0
100
AcDbCircle
 10
-1.949999999999987
 20
-127.1937035847594
 30
0.0
 40
0.2
100
AcDbArc
 50
103.158576403327
 51
193.1585764033228
  0
LINE
  5
1AA83
330
1AA36
100
AcDbEntity
  8
0
100
AcDbLine
 10
1.85777346899888
 20
-125.4667495333934
 30
0.0
 11
1.995529386843736
 21
-125.4989548365385
 31
0.0
  0
LINE
  5
1AA84
330
1AA36
100
AcDbEntity
  8
0
100
AcDbLine
 10
-1.85777346899888
 20
-125.4667495333934
 30
0.0
 11
-1.995529386843736
 21
-125.4989548365385
 31
0.0
  0
LINE
  5
1AA85
330
1AA36
100
AcDbEntity
  8
0
100
AcDbLine
 10
-1.857773468998881
 20
-126.9667495333934
 30
0.0
 11
-2.144748748220954
 21
-125.7392329716032
 31
0.0
  0
LINE
  5
1AA86
330
1AA36
100
AcDbEntity
  8
0
100
AcDbLine
 10
1.857773468998881
 20
-126.9667495333934
 30
0.0
 11
2.144748748220954
 21
-125.7392329716032
 31
0.0
  0
ARC
  5
1AA87
330
1AA36
100
AcDbEntity
  8
0
100
AcDbCircle
 10
1.949999999999987
 20
-125.6937035847594
 30
0.0
 40
0.2
100
AcDbArc
 50
346.8414235966668
 51
76.84142359667106
  0
ARC
  5
1AA88
330
1AA36
100
AcDbEntity
  8
0
100
AcDbCircle
 10
-1.949999999999987
 20
-125.6937035847594
 30
0.0
 40
0.2
100
AcDbArc
 50
103.1585764033291
 51
193.1585764033333
  0
LINE
  5
1AA89
330
1AA36
100
AcDbEntity
  8
0
100
AcDbLine
 10
1.85777346899888
 20
-123.9667495333934
 30
0.0
 11
1.995529386843736
 21
-123.9989548365384
 31
0.0
  0
LINE
  5
1AA8A
330
1AA36
100
AcDbEntity
  8
0
100
AcDbLine
 10
-1.857773468998876
 20
-123.9667495333934
 30
0.0
 11
-1.995529386843736
 21
-123.9989548365384
 31
0.0
  0
LINE
  5
1AA8B
330
1AA36
100
AcDbEntity
  8
0
100
AcDbLine
 10
-1.857773468998881
 20
-125.4667495333934
 30
0.0
 11
-2.144748748220958
 21
-124.2392329716031
 31
0.0
  0
LINE
  5
1AA8C
330
1AA36
100
AcDbEntity
  8
0
100
AcDbLine
 10
1.857773468998881
 20
-125.4667495333934
 30
0.0
 11
2.144748748220958
 21
-124.2392329716031
 31
0.0
  0
ARC
  5
1AA8D
330
1AA36
100
AcDbEntity
  8
0
100
AcDbCircle
 10
1.949999999999987
 20
-124.1937035847594
 30
0.0
 40
0.2000000000000001
100
AcDbArc
 50
346.841423596672
 51
76.84142359667203
  0
ARC
  5
1AA8E
330
1AA36
100
AcDbEntity
  8
0
100
AcDbCircle
 10
-1.949999999999987
 20
-124.1937035847594
 30
0.0
 40
0.2
100
AcDbArc
 50
103.158576403328
 51
193.1585764033279
  0
LINE
  5
1AA8F
330
1AA36
100
AcDbEntity
  8
0
100
AcDbLine
 10
1.85777346899888
 20
-122.4667495333934
 30
0.0
 11
1.995529386843736
 21
-122.4989548365384
 31
0.0
  0
LINE
  5
1AA90
330
1AA36
100
AcDbEntity
  8
0
100
AcDbLine
 10
-1.85777346899888
 20
-122.4667495333934
 30
0.0
 11
-1.995529386843736
 21
-122.4989548365384
 31
0.0
  0
LINE
  5
1AA91
330
1AA36
100
AcDbEntity
  8
0
100
AcDbLine
 10
-1.857773468998876
 20
-123.9667495333934
 30
0.0
 11
-2.144748748220958
 21
-122.7392329716032
 31
0.0
  0
LINE
  5
1AA92
330
1AA36
100
AcDbEntity
  8
0
100
AcDbLine
 10
1.857773468998881
 20
-123.9667495333934
 30
0.0
 11
2.144748748220954
 21
-122.7392329716032
 31
0.0
  0
ARC
  5
1AA93
330
1AA36
100
AcDbEntity
  8
0
100
AcDbCircle
 10
1.949999999999987
 20
-122.6937035847594
 30
0.0
 40
0.2
100
AcDbArc
 50
346.8414235966668
 51
76.84142359667106
  0
ARC
  5
1AA94
330
1AA36
100
AcDbEntity
  8
0
100
AcDbCircle
 10
-1.949999999999987
 20
-122.6937035847594
 30
0.0
 40
0.2
100
AcDbArc
 50
103.158576403328
 51
193.1585764033279
  0
LINE
  5
1AA95
330
1AA36
100
AcDbEntity
  8
0
100
AcDbLine
 10
1.857773468998884
 20
-120.9667495333934
 30
0.0
 11
1.995529386843736
 21
-120.9989548365384
 31
0.0
  0
LINE
  5
1AA96
330
1AA36
100
AcDbEntity
  8
0
100
AcDbLine
 10
-1.85777346899888
 20
-120.9667495333934
 30
0.0
 11
-1.995529386843736
 21
-120.9989548365384
 31
0.0
  0
LINE
  5
1AA97
330
1AA36
100
AcDbEntity
  8
0
100
AcDbLine
 10
-1.857773468998881
 20
-122.4667495333934
 30
0.0
 11
-2.144748748220958
 21
-121.2392329716031
 31
0.0
  0
LINE
  5
1AA98
330
1AA36
100
AcDbEntity
  8
0
100
AcDbLine
 10
1.857773468998881
 20
-122.4667495333934
 30
0.0
 11
2.144748748220958
 21
-121.2392329716031
 31
0.0
  0
ARC
  5
1AA99
330
1AA36
100
AcDbEntity
  8
0
100
AcDbCircle
 10
1.949999999999987
 20
-121.1937035847594
 30
0.0
 40
0.2000000000000001
100
AcDbArc
 50
346.841423596672
 51
76.84142359667203
  0
ARC
  5
1AA9A
330
1AA36
100
AcDbEntity
  8
0
100
AcDbCircle
 10
-1.949999999999987
 20
-121.1937035847594
 30
0.0
 40
0.2
100
AcDbArc
 50
103.158576403328
 51
193.1585764033279
  0
LINE
  5
1AA9B
330
1AA36
100
AcDbEntity
  8
0
100
AcDbLine
 10
1.857773468998884
 20
-119.4667495333934
 30
0.0
 11
1.995529386843736
 21
-119.4989548365384
 31
0.0
  0
LINE
  5
1AA9C
330
1AA36
100
AcDbEntity
  8
0
100
AcDbLine
 10
-1.857773468998884
 20
-119.4667495333934
 30
0.0
 11
-1.995529386843736
 21
-119.4989548365384
 31
0.0
  0
LINE
  5
1AA9D
330
1AA36
100
AcDbEntity
  8
0
100
AcDbLine
 10
-1.857773468998885
 20
-120.9667495333934
 30
0.0
 11
-2.144748748220962
 21
-119.7392329716032
 31
0.0
  0
LINE
  5
1AA9E
330
1AA36
100
AcDbEntity
  8
0
100
AcDbLine
 10
1.857773468998885
 20
-120.9667495333934
 30
0.0
 11
2.144748748220962
 21
-119.7392329716032
 31
0.0
  0
ARC
  5
1AA9F
330
1AA36
100
AcDbEntity
  8
0
100
AcDbCircle
 10
1.949999999999987
 20
-119.6937035847594
 30
0.0
 40
0.2
100
AcDbArc
 50
346.8414235966772
 51
76.84142359667291
  0
ARC
  5
1AAA0
330
1AA36
100
AcDbEntity
  8
0
100
AcDbCircle
 10
-1.949999999999987
 20
-119.6937035847594
 30
0.0
 40
0.2
100
AcDbArc
 50
103.158576403327
 51
193.1585764033228
  0
LINE
  5
1AAA1
330
1AA36
100
AcDbEntity
  8
0
100
AcDbLine
 10
1.85777346899888
 20
-117.9667495333934
 30
0.0
 11
1.995529386843736
 21
-117.9989548365385
 31
0.0
  0
LINE
  5
1AAA2
330
1AA36
100
AcDbEntity
  8
0
100
AcDbLine
 10
-1.85777346899888
 20
-117.9667495333934
 30
0.0
 11
-1.995529386843736
 21
-117.9989548365385
 31
0.0
  0
LINE
  5
1AAA3
330
1AA36
100
AcDbEntity
  8
0
100
AcDbLine
 10
-1.857773468998885
 20
-119.4667495333934
 30
0.0
 11
-2.144748748220958
 21
-118.2392329716032
 31
0.0
  0
LINE
  5
1AAA4
330
1AA36
100
AcDbEntity
  8
0
100
AcDbLine
 10
1.857773468998885
 20
-119.4667495333934
 30
0.0
 11
2.144748748220954
 21
-118.2392329716032
 31
0.0
  0
ARC
  5
1AAA5
330
1AA36
100
AcDbEntity
  8
0
100
AcDbCircle
 10
1.949999999999987
 20
-118.1937035847594
 30
0.0
 40
0.2
100
AcDbArc
 50
346.8414235966668
 51
76.84142359667106
  0
ARC
  5
1AAA6
330
1AA36
100
AcDbEntity
  8
0
100
AcDbCircle
 10
-1.949999999999987
 20
-118.1937035847594
 30
0.0
 40
0.2
100
AcDbArc
 50
103.158576403328
 51
193.1585764033279
  0
LINE
  5
1AAA7
330
1AA36
100
AcDbEntity
  8
0
100
AcDbLine
 10
1.85777346899888
 20
-116.4667495333934
 30
0.0
 11
1.995529386843736
 21
-116.4989548365384
 31
0.0
  0
LINE
  5
1AAA8
330
1AA36
100
AcDbEntity
  8
0
100
AcDbLine
 10
-1.857773468998876
 20
-116.4667495333934
 30
0.0
 11
-1.995529386843736
 21
-116.4989548365384
 31
0.0
  0
LINE
  5
1AAA9
330
1AA36
100
AcDbEntity
  8
0
100
AcDbLine
 10
-1.857773468998881
 20
-117.9667495333934
 30
0.0
 11
-2.144748748220958
 21
-116.7392329716032
 31
0.0
  0
LINE
  5
1AAAA
330
1AA36
100
AcDbEntity
  8
0
100
AcDbLine
 10
1.857773468998881
 20
-117.9667495333934
 30
0.0
 11
2.144748748220958
 21
-116.7392329716032
 31
0.0
  0
ARC
  5
1AAAB
330
1AA36
100
AcDbEntity
  8
0
100
AcDbCircle
 10
1.949999999999987
 20
-116.6937035847594
 30
0.0
 40
0.2000000000000001
100
AcDbArc
 50
346.841423596672
 51
76.84142359667203
  0
ARC
  5
1AAAC
330
1AA36
100
AcDbEntity
  8
0
100
AcDbCircle
 10
-1.949999999999987
 20
-116.6937035847594
 30
0.0
 40
0.2
100
AcDbArc
 50
103.158576403328
 51
193.1585764033279
  0
LINE
  5
1AAAD
330
1AA36
100
AcDbEntity
  8
0
100
AcDbLine
 10
1.85777346899888
 20
-114.9667495333934
 30
0.0
 11
1.995529386843736
 21
-114.9989548365384
 31
0.0
  0
LINE
  5
1AAAE
330
1AA36
100
AcDbEntity
  8
0
100
AcDbLine
 10
-1.85777346899888
 20
-114.9667495333934
 30
0.0
 11
-1.995529386843736
 21
-114.9989548365384
 31
0.0
  0
LINE
  5
1AAAF
330
1AA36
100
AcDbEntity
  8
0
100
AcDbLine
 10
-1.857773468998876
 20
-116.4667495333934
 30
0.0
 11
-2.144748748220958
 21
-115.2392329716031
 31
0.0
  0
LINE
  5
1AAB0
330
1AA36
100
AcDbEntity
  8
0
100
AcDbLine
 10
1.857773468998881
 20
-116.4667495333934
 30
0.0
 11
2.144748748220954
 21
-115.2392329716032
 31
0.0
  0
ARC
  5
1AAB1
330
1AA36
100
AcDbEntity
  8
0
100
AcDbCircle
 10
1.949999999999987
 20
-115.1937035847594
 30
0.0
 40
0.2
100
AcDbArc
 50
346.8414235966668
 51
76.84142359667106
  0
ARC
  5
1AAB2
330
1AA36
100
AcDbEntity
  8
0
100
AcDbCircle
 10
-1.949999999999987
 20
-115.1937035847594
 30
0.0
 40
0.2
100
AcDbArc
 50
103.158576403328
 51
193.1585764033279
  0
LINE
  5
1AAB3
330
1AA36
100
AcDbEntity
  8
0
100
AcDbLine
 10
1.857773468998884
 20
-113.4667495333934
 30
0.0
 11
1.995529386843736
 21
-113.4989548365384
 31
0.0
  0
LINE
  5
1AAB4
330
1AA36
100
AcDbEntity
  8
0
100
AcDbLine
 10
-1.85777346899888
 20
-113.4667495333934
 30
0.0
 11
-1.995529386843736
 21
-113.4989548365384
 31
0.0
  0
LINE
  5
1AAB5
330
1AA36
100
AcDbEntity
  8
0
100
AcDbLine
 10
-1.857773468998881
 20
-114.9667495333934
 30
0.0
 11
-2.144748748220958
 21
-113.7392329716031
 31
0.0
  0
LINE
  5
1AAB6
330
1AA36
100
AcDbEntity
  8
0
100
AcDbLine
 10
1.857773468998881
 20
-114.9667495333934
 30
0.0
 11
2.144748748220958
 21
-113.7392329716031
 31
0.0
  0
ARC
  5
1AAB7
330
1AA36
100
AcDbEntity
  8
0
100
AcDbCircle
 10
1.949999999999987
 20
-113.6937035847594
 30
0.0
 40
0.2000000000000001
100
AcDbArc
 50
346.841423596672
 51
76.84142359667203
  0
ARC
  5
1AAB8
330
1AA36
100
AcDbEntity
  8
0
100
AcDbCircle
 10
-1.949999999999987
 20
-113.6937035847594
 30
0.0
 40
0.2
100
AcDbArc
 50
103.158576403328
 51
193.1585764033279
  0
LINE
  5
1AAB9
330
1AA36
100
AcDbEntity
  8
0
100
AcDbLine
 10
1.857773468998884
 20
-111.9667495333934
 30
0.0
 11
1.995529386843736
 21
-111.9989548365384
 31
0.0
  0
LINE
  5
1AABA
330
1AA36
100
AcDbEntity
  8
0
100
AcDbLine
 10
-1.857773468998884
 20
-111.9667495333934
 30
0.0
 11
-1.995529386843736
 21
-111.9989548365384
 31
0.0
  0
LINE
  5
1AABB
330
1AA36
100
AcDbEntity
  8
0
100
AcDbLine
 10
-1.857773468998885
 20
-113.4667495333934
 30
0.0
 11
-2.144748748220962
 21
-112.2392329716031
 31
0.0
  0
LINE
  5
1AABC
330
1AA36
100
AcDbEntity
  8
0
100
AcDbLine
 10
1.857773468998885
 20
-113.4667495333934
 30
0.0
 11
2.144748748220962
 21
-112.2392329716031
 31
0.0
  0
ARC
  5
1AABD
330
1AA36
100
AcDbEntity
  8
0
100
AcDbCircle
 10
1.949999999999987
 20
-112.1937035847594
 30
0.0
 40
0.2
100
AcDbArc
 50
346.8414235966772
 51
76.84142359667291
  0
ARC
  5
1AABE
330
1AA36
100
AcDbEntity
  8
0
100
AcDbCircle
 10
-1.949999999999987
 20
-112.1937035847594
 30
0.0
 40
0.2
100
AcDbArc
 50
103.158576403327
 51
193.1585764033228
  0
LINE
  5
1AABF
330
1AA36
100
AcDbEntity
  8
0
100
AcDbLine
 10
1.85777346899888
 20
-110.4667495333934
 30
0.0
 11
1.995529386843736
 21
-110.4989548365384
 31
0.0
  0
LINE
  5
1AAC0
330
1AA36
100
AcDbEntity
  8
0
100
AcDbLine
 10
-1.85777346899888
 20
-110.4667495333934
 30
0.0
 11
-1.995529386843736
 21
-110.4989548365384
 31
0.0
  0
LINE
  5
1AAC1
330
1AA36
100
AcDbEntity
  8
0
100
AcDbLine
 10
-1.857773468998885
 20
-111.9667495333934
 30
0.0
 11
-2.144748748220958
 21
-110.7392329716032
 31
0.0
  0
LINE
  5
1AAC2
330
1AA36
100
AcDbEntity
  8
0
100
AcDbLine
 10
1.857773468998885
 20
-111.9667495333934
 30
0.0
 11
2.144748748220954
 21
-110.7392329716032
 31
0.0
  0
ARC
  5
1AAC3
330
1AA36
100
AcDbEntity
  8
0
100
AcDbCircle
 10
1.949999999999987
 20
-110.6937035847594
 30
0.0
 40
0.2
100
AcDbArc
 50
346.8414235966668
 51
76.84142359667106
  0
ARC
  5
1AAC4
330
1AA36
100
AcDbEntity
  8
0
100
AcDbCircle
 10
-1.949999999999987
 20
-110.6937035847594
 30
0.0
 40
0.2
100
AcDbArc
 50
103.158576403328
 51
193.1585764033279
  0
LINE
  5
1AAC5
330
1AA36
100
AcDbEntity
  8
0
100
AcDbLine
 10
1.85777346899888
 20
-108.9667495333934
 30
0.0
 11
1.995529386843736
 21
-108.9989548365384
 31
0.0
  0
LINE
  5
1AAC6
330
1AA36
100
AcDbEntity
  8
0
100
AcDbLine
 10
-1.857773468998876
 20
-108.9667495333934
 30
0.0
 11
-1.995529386843736
 21
-108.9989548365384
 31
0.0
  0
LINE
  5
1AAC7
330
1AA36
100
AcDbEntity
  8
0
100
AcDbLine
 10
-1.857773468998881
 20
-110.4667495333934
 30
0.0
 11
-2.144748748220958
 21
-109.2392329716032
 31
0.0
  0
LINE
  5
1AAC8
330
1AA36
100
AcDbEntity
  8
0
100
AcDbLine
 10
1.857773468998881
 20
-110.4667495333934
 30
0.0
 11
2.144748748220958
 21
-109.2392329716032
 31
0.0
  0
ARC
  5
1AAC9
330
1AA36
100
AcDbEntity
  8
0
100
AcDbCircle
 10
1.949999999999987
 20
-109.1937035847594
 30
0.0
 40
0.2000000000000001
100
AcDbArc
 50
346.841423596672
 51
76.84142359667203
  0
ARC
  5
1AACA
330
1AA36
100
AcDbEntity
  8
0
100
AcDbCircle
 10
-1.949999999999987
 20
-109.1937035847594
 30
0.0
 40
0.2
100
AcDbArc
 50
103.158576403328
 51
193.1585764033279
  0
LINE
  5
1AACB
330
1AA36
100
AcDbEntity
  8
0
100
AcDbLine
 10
1.85777346899888
 20
-107.4667495333934
 30
0.0
 11
1.995529386843736
 21
-107.4989548365384
 31
0.0
  0
LINE
  5
1AACC
330
1AA36
100
AcDbEntity
  8
0
100
AcDbLine
 10
-1.85777346899888
 20
-107.4667495333934
 30
0.0
 11
-1.995529386843736
 21
-107.4989548365384
 31
0.0
  0
LINE
  5
1AACD
330
1AA36
100
AcDbEntity
  8
0
100
AcDbLine
 10
-1.857773468998876
 20
-108.9667495333934
 30
0.0
 11
-2.144748748220958
 21
-107.7392329716031
 31
0.0
  0
LINE
  5
1AACE
330
1AA36
100
AcDbEntity
  8
0
100
AcDbLine
 10
1.857773468998881
 20
-108.9667495333934
 30
0.0
 11
2.144748748220954
 21
-107.7392329716032
 31
0.0
  0
ARC
  5
1AACF
330
1AA36
100
AcDbEntity
  8
0
100
AcDbCircle
 10
1.949999999999987
 20
-107.6937035847594
 30
0.0
 40
0.2
100
AcDbArc
 50
346.8414235966668
 51
76.84142359667106
  0
ARC
  5
1AAD0
330
1AA36
100
AcDbEntity
  8
0
100
AcDbCircle
 10
-1.949999999999987
 20
-107.6937035847594
 30
0.0
 40
0.2
100
AcDbArc
 50
103.158576403328
 51
193.1585764033279
  0
LINE
  5
1AAD1
330
1AA36
100
AcDbEntity
  8
0
100
AcDbLine
 10
1.857773468998884
 20
-105.9667495333934
 30
0.0
 11
1.995529386843736
 21
-105.9989548365384
 31
0.0
  0
LINE
  5
1AAD2
330
1AA36
100
AcDbEntity
  8
0
100
AcDbLine
 10
-1.85777346899888
 20
-105.9667495333934
 30
0.0
 11
-1.995529386843736
 21
-105.9989548365384
 31
0.0
  0
LINE
  5
1AAD3
330
1AA36
100
AcDbEntity
  8
0
100
AcDbLine
 10
-1.857773468998881
 20
-107.4667495333934
 30
0.0
 11
-2.144748748220958
 21
-106.2392329716032
 31
0.0
  0
LINE
  5
1AAD4
330
1AA36
100
AcDbEntity
  8
0
100
AcDbLine
 10
1.857773468998881
 20
-107.4667495333934
 30
0.0
 11
2.144748748220958
 21
-106.2392329716032
 31
0.0
  0
ARC
  5
1AAD5
330
1AA36
100
AcDbEntity
  8
0
100
AcDbCircle
 10
1.949999999999987
 20
-106.1937035847594
 30
0.0
 40
0.2000000000000001
100
AcDbArc
 50
346.841423596672
 51
76.84142359667203
  0
ARC
  5
1AAD6
330
1AA36
100
AcDbEntity
  8
0
100
AcDbCircle
 10
-1.949999999999987
 20
-106.1937035847594
 30
0.0
 40
0.2
100
AcDbArc
 50
103.158576403328
 51
193.1585764033279
  0
LINE
  5
1AAD7
330
1AA36
100
AcDbEntity
  8
0
100
AcDbLine
 10
1.857773468998884
 20
-104.4667495333934
 30
0.0
 11
1.995529386843736
 21
-104.4989548365384
 31
0.0
  0
LINE
  5
1AAD8
330
1AA36
100
AcDbEntity
  8
0
100
AcDbLine
 10
-1.857773468998884
 20
-104.4667495333934
 30
0.0
 11
-1.995529386843736
 21
-104.4989548365384
 31
0.0
  0
LINE
  5
1AAD9
330
1AA36
100
AcDbEntity
  8
0
100
AcDbLine
 10
-1.857773468998885
 20
-105.9667495333934
 30
0.0
 11
-2.144748748220962
 21
-104.7392329716031
 31
0.0
  0
LINE
  5
1AADA
330
1AA36
100
AcDbEntity
  8
0
100
AcDbLine
 10
1.857773468998885
 20
-105.9667495333934
 30
0.0
 11
2.144748748220962
 21
-104.7392329716031
 31
0.0
  0
ARC
  5
1AADB
330
1AA36
100
AcDbEntity
  8
0
100
AcDbCircle
 10
1.949999999999987
 20
-104.6937035847594
 30
0.0
 40
0.2
100
AcDbArc
 50
346.8414235966772
 51
76.84142359667291
  0
ARC
  5
1AADC
330
1AA36
100
AcDbEntity
  8
0
100
AcDbCircle
 10
-1.949999999999987
 20
-104.6937035847594
 30
0.0
 40
0.2
100
AcDbArc
 50
103.158576403327
 51
193.1585764033228
  0
LINE
  5
1AADD
330
1AA36
100
AcDbEntity
  8
0
100
AcDbLine
 10
1.85777346899888
 20
-102.9667495333934
 30
0.0
 11
1.995529386843736
 21
-102.9989548365384
 31
0.0
  0
LINE
  5
1AADE
330
1AA36
100
AcDbEntity
  8
0
100
AcDbLine
 10
-1.85777346899888
 20
-102.9667495333934
 30
0.0
 11
-1.995529386843736
 21
-102.9989548365384
 31
0.0
  0
LINE
  5
1AADF
330
1AA36
100
AcDbEntity
  8
0
100
AcDbLine
 10
-1.857773468998885
 20
-104.4667495333934
 30
0.0
 11
-2.144748748220958
 21
-103.2392329716032
 31
0.0
  0
LINE
  5
1AAE0
330
1AA36
100
AcDbEntity
  8
0
100
AcDbLine
 10
1.857773468998885
 20
-104.4667495333934
 30
0.0
 11
2.144748748220954
 21
-103.2392329716032
 31
0.0
  0
ARC
  5
1AAE1
330
1AA36
100
AcDbEntity
  8
0
100
AcDbCircle
 10
1.949999999999987
 20
-103.1937035847594
 30
0.0
 40
0.2
100
AcDbArc
 50
346.8414235966668
 51
76.84142359667106
  0
ARC
  5
1AAE2
330
1AA36
100
AcDbEntity
  8
0
100
AcDbCircle
 10
-1.949999999999987
 20
-103.1937035847594
 30
0.0
 40
0.2
100
AcDbArc
 50
103.158576403328
 51
193.1585764033279
  0
LINE
  5
1AAE3
330
1AA36
100
AcDbEntity
  8
0
100
AcDbLine
 10
1.85777346899888
 20
-101.4667495333934
 30
0.0
 11
1.995529386843736
 21
-101.4989548365385
 31
0.0
  0
LINE
  5
1AAE4
330
1AA36
100
AcDbEntity
  8
0
100
AcDbLine
 10
-1.857773468998876
 20
-101.4667495333934
 30
0.0
 11
-1.995529386843736
 21
-101.4989548365385
 31
0.0
  0
LINE
  5
1AAE5
330
1AA36
100
AcDbEntity
  8
0
100
AcDbLine
 10
-1.857773468998881
 20
-102.9667495333934
 30
0.0
 11
-2.144748748220958
 21
-101.7392329716031
 31
0.0
  0
LINE
  5
1AAE6
330
1AA36
100
AcDbEntity
  8
0
100
AcDbLine
 10
1.857773468998881
 20
-102.9667495333934
 30
0.0
 11
2.144748748220958
 21
-101.7392329716031
 31
0.0
  0
ARC
  5
1AAE7
330
1AA36
100
AcDbEntity
  8
0
100
AcDbCircle
 10
1.949999999999987
 20
-101.6937035847594
 30
0.0
 40
0.2000000000000001
100
AcDbArc
 50
346.841423596672
 51
76.84142359667203
  0
ARC
  5
1AAE8
330
1AA36
100
AcDbEntity
  8
0
100
AcDbCircle
 10
-1.949999999999987
 20
-101.6937035847594
 30
0.0
 40
0.2
100
AcDbArc
 50
103.158576403328
 51
193.1585764033279
  0
LINE
  5
1AAE9
330
1AA36
100
AcDbEntity
  8
0
100
AcDbLine
 10
1.85777346899888
 20
-99.96674953339343
 30
0.0
 11
1.995529386843736
 21
-99.99895483653846
 31
0.0
  0
LINE
  5
1AAEA
330
1AA36
100
AcDbEntity
  8
0
100
AcDbLine
 10
-1.85777346899888
 20
-99.96674953339343
 30
0.0
 11
-1.995529386843736
 21
-99.99895483653846
 31
0.0
  0
LINE
  5
1AAEB
330
1AA36
100
AcDbEntity
  8
0
100
AcDbLine
 10
-1.857773468998876
 20
-101.4667495333934
 30
0.0
 11
-2.144748748220958
 21
-100.2392329716031
 31
0.0
  0
LINE
  5
1AAEC
330
1AA36
100
AcDbEntity
  8
0
100
AcDbLine
 10
1.857773468998881
 20
-101.4667495333934
 30
0.0
 11
2.144748748220954
 21
-100.2392329716032
 31
0.0
  0
ARC
  5
1AAED
330
1AA36
100
AcDbEntity
  8
0
100
AcDbCircle
 10
1.949999999999987
 20
-100.1937035847594
 30
0.0
 40
0.2
100
AcDbArc
 50
346.8414235966668
 51
76.84142359667106
  0
ARC
  5
1AAEE
330
1AA36
100
AcDbEntity
  8
0
100
AcDbCircle
 10
-1.949999999999987
 20
-100.1937035847594
 30
0.0
 40
0.2
100
AcDbArc
 50
103.158576403328
 51
193.1585764033279
  0
LINE
  5
1AAEF
330
1AA36
100
AcDbEntity
  8
0
100
AcDbLine
 10
1.85777346899888
 20
-98.46674953339345
 30
0.0
 11
1.995529386843736
 21
-98.49895483653845
 31
0.0
  0
LINE
  5
1AAF0
330
1AA36
100
AcDbEntity
  8
0
100
AcDbLine
 10
-1.857773468998876
 20
-98.46674953339345
 30
0.0
 11
-1.995529386843736
 21
-98.49895483653845
 31
0.0
  0
LINE
  5
1AAF1
330
1AA36
100
AcDbEntity
  8
0
100
AcDbLine
 10
-1.857773468998881
 20
-99.96674953339343
 30
0.0
 11
-2.144748748220958
 21
-98.73923297160317
 31
0.0
  0
LINE
  5
1AAF2
330
1AA36
100
AcDbEntity
  8
0
100
AcDbLine
 10
1.857773468998881
 20
-99.96674953339343
 30
0.0
 11
2.144748748220958
 21
-98.73923297160317
 31
0.0
  0
ARC
  5
1AAF3
330
1AA36
100
AcDbEntity
  8
0
100
AcDbCircle
 10
1.949999999999987
 20
-98.69370358475942
 30
0.0
 40
0.2000000000000001
100
AcDbArc
 50
346.841423596672
 51
76.84142359667203
  0
ARC
  5
1AAF4
330
1AA36
100
AcDbEntity
  8
0
100
AcDbCircle
 10
-1.949999999999987
 20
-98.69370358475942
 30
0.0
 40
0.2
100
AcDbArc
 50
103.158576403328
 51
193.1585764033279
  0
LINE
  5
1AAF5
330
1AA36
100
AcDbEntity
  8
0
100
AcDbLine
 10
1.85777346899888
 20
-96.96674953339343
 30
0.0
 11
1.995529386843736
 21
-96.99895483653847
 31
0.0
  0
LINE
  5
1AAF6
330
1AA36
100
AcDbEntity
  8
0
100
AcDbLine
 10
-1.85777346899888
 20
-96.96674953339343
 30
0.0
 11
-1.995529386843736
 21
-96.99895483653847
 31
0.0
  0
LINE
  5
1AAF7
330
1AA36
100
AcDbEntity
  8
0
100
AcDbLine
 10
-1.857773468998876
 20
-98.46674953339345
 30
0.0
 11
-2.144748748220958
 21
-97.23923297160318
 31
0.0
  0
LINE
  5
1AAF8
330
1AA36
100
AcDbEntity
  8
0
100
AcDbLine
 10
1.857773468998881
 20
-98.46674953339345
 30
0.0
 11
2.144748748220954
 21
-97.23923297160318
 31
0.0
  0
ARC
  5
1AAF9
330
1AA36
100
AcDbEntity
  8
0
100
AcDbCircle
 10
1.949999999999987
 20
-97.19370358475941
 30
0.0
 40
0.2
100
AcDbArc
 50
346.8414235966668
 51
76.84142359667106
  0
ARC
  5
1AAFA
330
1AA36
100
AcDbEntity
  8
0
100
AcDbCircle
 10
-1.949999999999987
 20
-97.19370358475941
 30
0.0
 40
0.2
100
AcDbArc
 50
103.158576403328
 51
193.1585764033279
  0
LINE
  5
1AAFB
330
1AA36
100
AcDbEntity
  8
0
100
AcDbLine
 10
1.85777346899888
 20
-95.46674953339346
 30
0.0
 11
1.995529386843736
 21
-95.49895483653846
 31
0.0
  0
LINE
  5
1AAFC
330
1AA36
100
AcDbEntity
  8
0
100
AcDbLine
 10
-1.85777346899888
 20
-95.46674953339346
 30
0.0
 11
-1.995529386843736
 21
-95.49895483653846
 31
0.0
  0
LINE
  5
1AAFD
330
1AA36
100
AcDbEntity
  8
0
100
AcDbLine
 10
-1.857773468998881
 20
-96.96674953339343
 30
0.0
 11
-2.144748748220954
 21
-95.73923297160318
 31
0.0
  0
LINE
  5
1AAFE
330
1AA36
100
AcDbEntity
  8
0
100
AcDbLine
 10
1.857773468998881
 20
-96.96674953339343
 30
0.0
 11
2.144748748220954
 21
-95.73923297160318
 31
0.0
  0
ARC
  5
1AAFF
330
1AA36
100
AcDbEntity
  8
0
100
AcDbCircle
 10
1.949999999999987
 20
-95.69370358475941
 30
0.0
 40
0.2
100
AcDbArc
 50
346.8414235966668
 51
76.84142359667106
  0
ARC
  5
1AB00
330
1AA36
100
AcDbEntity
  8
0
100
AcDbCircle
 10
-1.949999999999987
 20
-95.69370358475941
 30
0.0
 40
0.2
100
AcDbArc
 50
103.1585764033291
 51
193.1585764033333
  0
LINE
  5
1AB01
330
1AA36
100
AcDbEntity
  8
0
100
AcDbLine
 10
1.85777346899888
 20
-93.96674953339344
 30
0.0
 11
1.995529386843736
 21
-93.99895483653848
 31
0.0
  0
LINE
  5
1AB02
330
1AA36
100
AcDbEntity
  8
0
100
AcDbLine
 10
-1.857773468998876
 20
-93.96674953339344
 30
0.0
 11
-1.995529386843736
 21
-93.99895483653848
 31
0.0
  0
LINE
  5
1AB03
330
1AA36
100
AcDbEntity
  8
0
100
AcDbLine
 10
-1.857773468998881
 20
-95.46674953339346
 30
0.0
 11
-2.144748748220958
 21
-94.23923297160317
 31
0.0
  0
LINE
  5
1AB04
330
1AA36
100
AcDbEntity
  8
0
100
AcDbLine
 10
1.857773468998881
 20
-95.46674953339346
 30
0.0
 11
2.144748748220958
 21
-94.23923297160317
 31
0.0
  0
ARC
  5
1AB05
330
1AA36
100
AcDbEntity
  8
0
100
AcDbCircle
 10
1.949999999999987
 20
-94.19370358475942
 30
0.0
 40
0.2000000000000001
100
AcDbArc
 50
346.841423596672
 51
76.84142359667203
  0
ARC
  5
1AB06
330
1AA36
100
AcDbEntity
  8
0
100
AcDbCircle
 10
-1.949999999999987
 20
-94.19370358475942
 30
0.0
 40
0.2
100
AcDbArc
 50
103.158576403328
 51
193.1585764033279
  0
LINE
  5
1AB07
330
1AA36
100
AcDbEntity
  8
0
100
AcDbLine
 10
1.85777346899888
 20
-92.46674953339343
 30
0.0
 11
1.995529386843736
 21
-92.49895483653846
 31
0.0
  0
LINE
  5
1AB08
330
1AA36
100
AcDbEntity
  8
0
100
AcDbLine
 10
-1.85777346899888
 20
-92.46674953339343
 30
0.0
 11
-1.995529386843736
 21
-92.49895483653846
 31
0.0
  0
LINE
  5
1AB09
330
1AA36
100
AcDbEntity
  8
0
100
AcDbLine
 10
-1.857773468998876
 20
-93.96674953339346
 30
0.0
 11
-2.144748748220958
 21
-92.73923297160317
 31
0.0
  0
LINE
  5
1AB0A
330
1AA36
100
AcDbEntity
  8
0
100
AcDbLine
 10
1.857773468998881
 20
-93.96674953339344
 30
0.0
 11
2.144748748220954
 21
-92.73923297160321
 31
0.0
  0
ARC
  5
1AB0B
330
1AA36
100
AcDbEntity
  8
0
100
AcDbCircle
 10
1.949999999999987
 20
-92.69370358475942
 30
0.0
 40
0.2
100
AcDbArc
 50
346.8414235966668
 51
76.84142359667106
  0
ARC
  5
1AB0C
330
1AA36
100
AcDbEntity
  8
0
100
AcDbCircle
 10
-1.949999999999987
 20
-92.69370358475942
 30
0.0
 40
0.2
100
AcDbArc
 50
103.158576403328
 51
193.1585764033279
  0
LINE
  5
1AB0D
330
1AA36
100
AcDbEntity
  8
0
100
AcDbLine
 10
1.85777346899888
 20
-90.96674953339343
 30
0.0
 11
1.995529386843736
 21
-90.99895483653845
 31
0.0
  0
LINE
  5
1AB0E
330
1AA36
100
AcDbEntity
  8
0
100
AcDbLine
 10
-1.857773468998876
 20
-90.96674953339343
 30
0.0
 11
-1.995529386843736
 21
-90.99895483653845
 31
0.0
  0
LINE
  5
1AB0F
330
1AA36
100
AcDbEntity
  8
0
100
AcDbLine
 10
-1.857773468998881
 20
-92.46674953339343
 30
0.0
 11
-2.144748748220958
 21
-91.23923297160317
 31
0.0
  0
LINE
  5
1AB10
330
1AA36
100
AcDbEntity
  8
0
100
AcDbLine
 10
1.857773468998881
 20
-92.46674953339343
 30
0.0
 11
2.144748748220958
 21
-91.23923297160317
 31
0.0
  0
ARC
  5
1AB11
330
1AA36
100
AcDbEntity
  8
0
100
AcDbCircle
 10
1.949999999999987
 20
-91.19370358475942
 30
0.0
 40
0.2000000000000001
100
AcDbArc
 50
346.841423596672
 51
76.84142359667203
  0
ARC
  5
1AB12
330
1AA36
100
AcDbEntity
  8
0
100
AcDbCircle
 10
-1.949999999999987
 20
-91.19370358475942
 30
0.0
 40
0.2
100
AcDbArc
 50
103.158576403328
 51
193.1585764033279
  0
LINE
  5
1AB13
330
1AA36
100
AcDbEntity
  8
0
100
AcDbLine
 10
1.85777346899888
 20
-89.46674953339343
 30
0.0
 11
1.995529386843736
 21
-89.49895483653845
 31
0.0
  0
LINE
  5
1AB14
330
1AA36
100
AcDbEntity
  8
0
100
AcDbLine
 10
-1.85777346899888
 20
-89.46674953339343
 30
0.0
 11
-1.995529386843736
 21
-89.49895483653845
 31
0.0
  0
LINE
  5
1AB15
330
1AA36
100
AcDbEntity
  8
0
100
AcDbLine
 10
-1.857773468998876
 20
-90.96674953339345
 30
0.0
 11
-2.144748748220958
 21
-89.73923297160316
 31
0.0
  0
LINE
  5
1AB16
330
1AA36
100
AcDbEntity
  8
0
100
AcDbLine
 10
1.857773468998881
 20
-90.96674953339343
 30
0.0
 11
2.144748748220954
 21
-89.73923297160318
 31
0.0
  0
ARC
  5
1AB17
330
1AA36
100
AcDbEntity
  8
0
100
AcDbCircle
 10
1.949999999999987
 20
-89.69370358475941
 30
0.0
 40
0.2
100
AcDbArc
 50
346.8414235966668
 51
76.84142359667106
  0
ARC
  5
1AB18
330
1AA36
100
AcDbEntity
  8
0
100
AcDbCircle
 10
-1.949999999999987
 20
-89.69370358475941
 30
0.0
 40
0.2
100
AcDbArc
 50
103.158576403328
 51
193.1585764033279
  0
LINE
  5
1AB19
330
1AA36
100
AcDbEntity
  8
0
100
AcDbLine
 10
1.857773468998884
 20
-87.96674953339342
 30
0.0
 11
1.995529386843736
 21
-87.99895483653845
 31
0.0
  0
LINE
  5
1AB1A
330
1AA36
100
AcDbEntity
  8
0
100
AcDbLine
 10
-1.85777346899888
 20
-87.96674953339342
 30
0.0
 11
-1.995529386843736
 21
-87.99895483653845
 31
0.0
  0
LINE
  5
1AB1B
330
1AA36
100
AcDbEntity
  8
0
100
AcDbLine
 10
-1.857773468998881
 20
-89.46674953339343
 30
0.0
 11
-2.144748748220958
 21
-88.23923297160318
 31
0.0
  0
LINE
  5
1AB1C
330
1AA36
100
AcDbEntity
  8
0
100
AcDbLine
 10
1.857773468998881
 20
-89.46674953339343
 30
0.0
 11
2.144748748220958
 21
-88.23923297160318
 31
0.0
  0
ARC
  5
1AB1D
330
1AA36
100
AcDbEntity
  8
0
100
AcDbCircle
 10
1.949999999999987
 20
-88.19370358475941
 30
0.0
 40
0.2000000000000001
100
AcDbArc
 50
346.841423596672
 51
76.84142359667203
  0
ARC
  5
1AB1E
330
1AA36
100
AcDbEntity
  8
0
100
AcDbCircle
 10
-1.949999999999987
 20
-88.19370358475941
 30
0.0
 40
0.2
100
AcDbArc
 50
103.158576403328
 51
193.1585764033279
  0
LINE
  5
1AB1F
330
1AA36
100
AcDbEntity
  8
0
100
AcDbLine
 10
1.85777346899888
 20
-86.46674953339344
 30
0.0
 11
1.995529386843736
 21
-86.49895483653848
 31
0.0
  0
LINE
  5
1AB20
330
1AA36
100
AcDbEntity
  8
0
100
AcDbLine
 10
-1.857773468998876
 20
-86.46674953339344
 30
0.0
 11
-1.995529386843736
 21
-86.49895483653848
 31
0.0
  0
LINE
  5
1AB21
330
1AA36
100
AcDbEntity
  8
0
100
AcDbLine
 10
-1.857773468998885
 20
-87.96674953339342
 30
0.0
 11
-2.144748748220958
 21
-86.73923297160317
 31
0.0
  0
LINE
  5
1AB22
330
1AA36
100
AcDbEntity
  8
0
100
AcDbLine
 10
1.857773468998885
 20
-87.96674953339342
 30
0.0
 11
2.144748748220958
 21
-86.73923297160317
 31
0.0
  0
ARC
  5
1AB23
330
1AA36
100
AcDbEntity
  8
0
100
AcDbCircle
 10
1.949999999999987
 20
-86.69370358475942
 30
0.0
 40
0.2000000000000001
100
AcDbArc
 50
346.841423596672
 51
76.84142359667203
  0
ARC
  5
1AB24
330
1AA36
100
AcDbEntity
  8
0
100
AcDbCircle
 10
-1.949999999999987
 20
-86.69370358475942
 30
0.0
 40
0.2
100
AcDbArc
 50
103.158576403328
 51
193.1585764033279
  0
LINE
  5
1AB25
330
1AA36
100
AcDbEntity
  8
0
100
AcDbLine
 10
1.85777346899888
 20
-84.96674953339343
 30
0.0
 11
1.995529386843736
 21
-84.99895483653846
 31
0.0
  0
LINE
  5
1AB26
330
1AA36
100
AcDbEntity
  8
0
100
AcDbLine
 10
-1.85777346899888
 20
-84.96674953339343
 30
0.0
 11
-1.995529386843736
 21
-84.99895483653846
 31
0.0
  0
LINE
  5
1AB27
330
1AA36
100
AcDbEntity
  8
0
100
AcDbLine
 10
-1.857773468998876
 20
-86.46674953339346
 30
0.0
 11
-2.144748748220958
 21
-85.23923297160317
 31
0.0
  0
LINE
  5
1AB28
330
1AA36
100
AcDbEntity
  8
0
100
AcDbLine
 10
1.857773468998881
 20
-86.46674953339344
 30
0.0
 11
2.144748748220954
 21
-85.23923297160321
 31
0.0
  0
ARC
  5
1AB29
330
1AA36
100
AcDbEntity
  8
0
100
AcDbCircle
 10
1.949999999999987
 20
-85.19370358475942
 30
0.0
 40
0.2
100
AcDbArc
 50
346.8414235966668
 51
76.84142359667106
  0
ARC
  5
1AB2A
330
1AA36
100
AcDbEntity
  8
0
100
AcDbCircle
 10
-1.949999999999987
 20
-85.19370358475942
 30
0.0
 40
0.2
100
AcDbArc
 50
103.158576403328
 51
193.1585764033279
  0
LINE
  5
1AB2B
330
1AA36
100
AcDbEntity
  8
0
100
AcDbLine
 10
-1.857773468998881
 20
-84.96674953339343
 30
0.0
 11
-2.144748748220958
 21
-83.73923297160317
 31
0.0
  0
LINE
  5
1AB2C
330
1AA36
100
AcDbEntity
  8
0
100
AcDbLine
 10
1.857773468998881
 20
-84.96674953339343
 30
0.0
 11
2.144748748220958
 21
-83.73923297160317
 31
0.0
  0
ARC
  5
1AB2D
330
1AA36
100
AcDbEntity
  8
0
100
AcDbCircle
 10
1.949999999999987
 20
-83.69370358475942
 30
0.0
 40
0.2000000000000001
100
AcDbArc
 50
346.841423596672
 51
76.84142359667203
  0
ARC
  5
1AB2E
330
1AA36
100
AcDbEntity
  8
0
100
AcDbCircle
 10
-1.949999999999987
 20
-83.69370358475942
 30
0.0
 40
0.2
100
AcDbArc
 50
103.158576403328
 51
193.1585764033279
  0
LINE
  5
1AB2F
330
1AA36
100
AcDbEntity
  8
0
100
AcDbLine
 10
-1.857773468998876
 20
-83.46674953339345
 30
0.0
 11
-2.144748748220958
 21
-82.23923297160316
 31
0.0
  0
LINE
  5
1AB30
330
1AA36
100
AcDbEntity
  8
0
100
AcDbLine
 10
1.857773468998881
 20
-83.46674953339343
 30
0.0
 11
2.144748748220954
 21
-82.23923297160318
 31
0.0
  0
ARC
  5
1AB31
330
1AA36
100
AcDbEntity
  8
0
100
AcDbCircle
 10
1.949999999999987
 20
-82.19370358475941
 30
0.0
 40
0.2
100
AcDbArc
 50
346.8414235966668
 51
75.58497761062081
  0
ARC
  5
1AB32
330
1AA36
100
AcDbEntity
  8
0
100
AcDbCircle
 10
-1.949999999999987
 20
-82.19370358475941
 30
0.0
 40
0.2
100
AcDbArc
 50
104.4150223893794
 51
193.1585764033279
  0
ENDBLK
  5
1AA38
330
1AA36
100
AcDbEntity
  8
0
100
AcDbBlockEnd
  0
BLOCK
  5
1AD2E
330
1AD2D
100
AcDbEntity
  8
0
100
AcDbBlockBegin
  2
MKSA440x145-Top
 70
     0
 10
0.0
 20
0.0
 30
0.0
  3
MKSA440x145-Top
  1

  0
CIRCLE
  5
1AD30
330
1AD2D
100
AcDbEntity
  8
0
100
AcDbCircle
 10
-0.0000000000000071
 20
-0.0000000000000001
 30
0.0
 40
4.249999999999992
  0
ENDBLK
  5
1AD2F
330
1AD2D
100
AcDbEntity
  8
0
100
AcDbBlockEnd
  0
BLOCK
  5
1AD3F
330
1AD3E
100
AcDbEntity
  8
0
100
AcDbBlockBegin
  2
MKSA440x145-ISO
 70
     0
 10
0.0
 20
0.0
 30
0.0
  3
MKSA440x145-ISO
  1

  0
ELLIPSE
  5
1AD41
330
1AD3E
100
AcDbEntity
  8
0
100
AcDbEllipse
 10
0.0000000000000299
 20
-59.19600211726007
 30
0.0
 11
-2.082536734865137
 21
-6.806440134932297
 31
0.0
210
0.0
220
0.0
230
1.0
 40
0.0507834957882405
 41
2.1917161557153
 42
2.977114319112785
  0
LINE
  5
1AD42
330
1AD3E
100
AcDbEntity
  8
0
100
AcDbLine
 10
0.0
 20
-59.1960021172601
 30
0.0
 11
1.492721760638214
 21
-55.32214525820897
 31
0.0
  0
ELLIPSE
  5
1AD43
330
1AD3E
100
AcDbEntity
  8
0
100
AcDbEllipse
 10
0.0000000000000299
 20
-59.19600211726007
 30
0.0
 11
0.0000000000000072
 21
-5.478460908762157
 31
0.0
210
0.0
220
0.0
230
1.0
 40
0.3853321934574054
 41
2.356194490192346
 42
3.926990816987258
  0
LINE
  5
1AD44
330
1AD3E
100
AcDbEntity
  8
0
100
AcDbLine
 10
-1.492721760638163
 20
-55.32214525820897
 30
0.0
 11
0.0
 21
-59.1960021172601
 31
0.0
  0
ELLIPSE
  5
1AD45
330
1AD3E
100
AcDbEntity
  8
0
100
AcDbEllipse
 10
0.0000000000000272
 20
-50.21453972705511
 30
0.0
 11
-2.111027358743971
 21
-0.0000000000000001
 31
0.0
210
0.0
220
0.0
230
1.0
 40
0.5773502691896258
 41
5.841584578531357
 42
9.866378689417624
  0
ELLIPSE
  5
1AD46
330
1AD3E
100
AcDbEntity
  8
0
100
AcDbEllipse
 10
0.0000000000000272
 20
-50.21453972705512
 30
0.0
 11
-1.850000000000003
 21
0.0000000000000008
 31
0.0
210
0.0
220
0.0
230
1.0
 40
0.5773502691896258
 41
0.0000000000000022
 42
3.141592653589795
  0
ELLIPSE
  5
1AD47
330
1AD3E
100
AcDbEntity
  8
0
100
AcDbEllipse
 10
0.000000000000015
 20
-9.389710680668823
 30
0.0
 11
-2.000000000000009
 21
0.0000000000000013
 31
0.0
210
0.0
220
0.0
230
1.0
 40
0.5773502691896259
 41
0.0000000000000056
 42
3.1415926535898
  0
ELLIPSE
  5
1AD48
330
1AD3E
100
AcDbEntity
  8
0
100
AcDbEllipse
 10
-0.000000000000005
 20
57.56300895540469
 30
0.0
 11
-4.249999999999992
 21
-0.0000000000000008
 31
0.0
210
0.0
220
0.0
230
1.0
 40
0.5773502691896258
 41
0.0
 42
3.141592653589793
  0
ELLIPSE
  5
1AD49
330
1AD3E
100
AcDbEntity
  8
0
100
AcDbEllipse
 10
-0.000000000000005
 20
57.8487827587294
 30
0.0
 11
-4.249999999999992
 21
-0.0000000000000017
 31
0.0
210
0.0
220
0.0
230
1.0
 40
0.5773502691896258
 41
5.133893471813682
 42
10.57406979613528
  0
LINE
  5
1AD4A
330
1AD3E
100
AcDbEntity
  8
0
100
AcDbLine
 10
-2.111027358743943
 20
-52.49873899466046
 30
0.0
 11
-2.111027358743944
 21
-50.21453972705511
 31
0.0
  0
LINE
  5
1AD4B
330
1AD3E
100
AcDbEntity
  8
0
100
AcDbLine
 10
2.111027358743999
 20
-52.49873899466042
 30
0.0
 11
2.111027358743999
 21
-50.21453972705511
 31
0.0
  0
LINE
  5
1AD4C
330
1AD3E
100
AcDbEntity
  8
0
100
AcDbLine
 10
-1.849999999999975
 20
-50.21453972705512
 30
0.0
 11
-1.849999999999975
 21
-49.89518722501081
 31
0.0
  0
LINE
  5
1AD4D
330
1AD3E
100
AcDbEntity
  8
0
100
AcDbLine
 10
1.850000000000029
 20
-50.21453972705512
 30
0.0
 11
1.850000000000029
 21
-49.89518722501075
 31
0.0
  0
LINE
  5
1AD4E
330
1AD3E
100
AcDbEntity
  8
0
100
AcDbLine
 10
-1.999999999999988
 20
-9.389710680668823
 30
0.0
 11
-2.000000000000008
 21
55.39794544594357
 31
0.0
  0
LINE
  5
1AD4F
330
1AD3E
100
AcDbEntity
  8
0
100
AcDbLine
 10
2.000000000000019
 20
-9.389710680668823
 30
0.0
 11
1.999999999999999
 21
55.39794544594357
 31
0.0
  0
LINE
  5
1AD50
330
1AD3E
100
AcDbEntity
  8
0
100
AcDbLine
 10
-4.249999999999998
 20
57.56300895540469
 30
0.0
 11
-4.249999999999998
 21
57.8487827587294
 31
0.0
  0
LINE
  5
1AD51
330
1AD3E
100
AcDbEntity
  8
0
100
AcDbLine
 10
4.249999999999987
 20
57.56300895540469
 30
0.0
 11
4.249999999999987
 21
57.8487827587294
 31
0.0
  0
SPLINE
  5
1AD52
330
1AD3E
100
AcDbEntity
  8
0
100
AcDbSpline
210
0.0
220
0.0
230
1.0
 70
     8
 71
     3
 72
    16
 73
    12
 74
     0
 42
0.000000001
 43
0.0000000001
 40
1.934689998763351
 40
1.934689998763351
 40
1.934689998763351
 40
1.934689998763351
 40
2.103291795334949
 40
2.103291795334949
 40
2.271893591906546
 40
2.271893591906546
 40
2.440495388478143
 40
2.440495388478143
 40
2.609097185049741
 40
2.609097185049741
 40
2.777698981621338
 40
2.777698981621338
 40
2.777698981621338
 40
2.777698981621338
 10
1.738818333563104
 20
60.08775654172795
 30
0.0
 10
1.489305983469844
 20
60.15234813455009
 30
0.0
 10
1.250413228226726
 20
60.19984461555687
 30
0.0
 10
0.7853439195769024
 20
60.26923676704979
 30
0.0
 10
0.5591580968324081
 20
60.29108730390179
 30
0.0
 10
0.1109893877446938
 20
60.31295200814401
 30
0.0
 10
-0.1109893877447049
 20
60.31295200814401
 30
0.0
 10
-0.559158096832419
 20
60.29108730390179
 30
0.0
 10
-0.7853439195769135
 20
60.26923676704979
 30
0.0
 10
-1.250413228226737
 20
60.19984461555687
 30
0.0
 10
-1.489305983469855
 20
60.15234813455009
 30
0.0
 10
-1.738818333563117
 20
60.08775654172795
 30
0.0
  0
ELLIPSE
  5
1AD53
330
1AD3E
100
AcDbEntity
  8
0
100
AcDbEllipse
 10
0.0000000000000299
 20
-59.19600211726013
 30
0.0
 11
-2.08253673486514
 21
6.806440134932308
 31
0.0
210
0.0
220
0.0
230
1.0
 40
0.0507834957882417
 41
0.1644783344770886
 42
0.9498764978745331
  0
ELLIPSE
  5
1AD54
330
1AD3E
100
AcDbEntity
  8
0
100
AcDbEllipse
 10
0.0000000000000131
 20
-10.61360217966754
 30
0.0
 11
-1.995529386843737
 21
0.0
 31
0.0
210
0.0
220
0.0
230
1.0
 40
0.5773502691896257
 41
6.065315408120662
 42
9.642647859828301
  0
ELLIPSE
  5
1AD55
330
1AD3E
100
AcDbEntity
  8
0
100
AcDbEllipse
 10
0.0000000000000131
 20
-10.58730665976189
 30
0.0
 11
-1.857773468998879
 21
0.0000000000000001
 31
0.0
210
0.0
220
0.0
230
1.0
 40
0.5773502691896258
 41
0.1660734866401956
 42
2.975519166949595
  0
ELLIPSE
  5
1AD56
330
1AD3E
100
AcDbEntity
  8
0
100
AcDbEllipse
 10
0.0000000000000204
 20
-48.5806931928068
 30
0.0
 11
-1.995529386843737
 21
0.0
 31
0.0
210
0.0
220
0.0
230
1.0
 40
0.5773502691896257
 41
6.065315408120662
 42
9.642647859828302
  0
ELLIPSE
  5
1AD57
330
1AD3E
100
AcDbEntity
  8
0
100
AcDbEllipse
 10
0.0000000000000204
 20
-48.55439767290114
 30
0.0
 11
-1.857773468998879
 21
0.0000000000000001
 31
0.0
210
0.0
220
0.0
230
1.0
 40
0.5773502691896258
 41
0.1660734866401956
 42
2.975519166949597
  0
ELLIPSE
  5
1AD58
330
1AD3E
100
AcDbEntity
  8
0
100
AcDbEllipse
 10
0.0000000000000271
 20
-49.80629143659126
 30
0.0
 11
1.850000000000003
 21
0.0000000000000002
 31
0.0
210
0.0
220
0.0
230
1.0
 40
0.5773502691896258
 41
3.307666140229985
 42
6.117111820539392
  0
ELLIPSE
  5
1AD59
330
1AD3E
100
AcDbEntity
  8
0
100
AcDbEllipse
 10
0.0000000000000204
 20
-48.77687946855882
 30
0.0
 11
-2.144748748220956
 21
0.0000000000000003
 31
0.0
210
0.0
220
0.0
230
1.0
 40
0.5773502691896259
 41
0.1660734866401858
 42
2.9755191669496
  0
ELLIPSE
  5
1AD5A
330
1AD3E
100
AcDbEntity
  8
0
100
AcDbEllipse
 10
0.0000000000000202
 20
-47.35594832141519
 30
0.0
 11
-1.995529386843736
 21
-0.0000000000000001
 31
0.0
210
0.0
220
0.0
230
1.0
 40
0.577350269189626
 41
6.06531540812067
 42
9.642647859828295
  0
ELLIPSE
  5
1AD5B
330
1AD3E
100
AcDbEntity
  8
0
100
AcDbEllipse
 10
0.0000000000000202
 20
-47.32965280150954
 30
0.0
 11
-1.857773468998884
 21
0.0000000000000001
 31
0.0
210
0.0
220
0.0
230
1.0
 40
0.5773502691896259
 41
0.1660734866401956
 42
2.975519166949597
  0
ELLIPSE
  5
1AD5C
330
1AD3E
100
AcDbEntity
  8
0
100
AcDbEllipse
 10
0.0000000000000202
 20
-47.55213459716723
 30
0.0
 11
-2.144748748220956
 21
0.0000000000000003
 31
0.0
210
0.0
220
0.0
230
1.0
 40
0.5773502691896259
 41
0.1660734866401858
 42
2.9755191669496
  0
ELLIPSE
  5
1AD5D
330
1AD3E
100
AcDbEntity
  8
0
100
AcDbEllipse
 10
0.0000000000000199
 20
-46.1312034500236
 30
0.0
 11
-1.995529386843736
 21
0.0
 31
0.0
210
0.0
220
0.0
230
1.0
 40
0.5773502691896259
 41
6.065315408120662
 42
9.642647859828302
  0
ELLIPSE
  5
1AD5E
330
1AD3E
100
AcDbEntity
  8
0
100
AcDbEllipse
 10
0.0000000000000199
 20
-46.10490793011796
 30
0.0
 11
-1.857773468998879
 21
0.0000000000000001
 31
0.0
210
0.0
220
0.0
230
1.0
 40
0.5773502691896258
 41
0.1660734866401956
 42
2.975519166949597
  0
ELLIPSE
  5
1AD5F
330
1AD3E
100
AcDbEntity
  8
0
100
AcDbEllipse
 10
0.00000000000002
 20
-46.32738972577564
 30
0.0
 11
-2.144748748220956
 21
0.0000000000000004
 31
0.0
210
0.0
220
0.0
230
1.0
 40
0.5773502691896258
 41
0.166073486640121
 42
2.975519166949666
  0
ELLIPSE
  5
1AD60
330
1AD3E
100
AcDbEntity
  8
0
100
AcDbEllipse
 10
0.0000000000000197
 20
-44.90645857863202
 30
0.0
 11
-1.995529386843737
 21
0.0
 31
0.0
210
0.0
220
0.0
230
1.0
 40
0.5773502691896257
 41
6.065315408120662
 42
9.642647859828302
  0
ELLIPSE
  5
1AD61
330
1AD3E
100
AcDbEntity
  8
0
100
AcDbEllipse
 10
0.0000000000000197
 20
-44.88016305872638
 30
0.0
 11
-1.857773468998879
 21
0.0000000000000001
 31
0.0
210
0.0
220
0.0
230
1.0
 40
0.5773502691896258
 41
0.1660734866401956
 42
2.975519166949597
  0
ELLIPSE
  5
1AD62
330
1AD3E
100
AcDbEntity
  8
0
100
AcDbEllipse
 10
0.0000000000000197
 20
-45.10264485438406
 30
0.0
 11
-2.144748748220956
 21
0.0000000000000002
 31
0.0
210
0.0
220
0.0
230
1.0
 40
0.5773502691896257
 41
0.1660734866401929
 42
2.975519166949593
  0
ELLIPSE
  5
1AD63
330
1AD3E
100
AcDbEntity
  8
0
100
AcDbEllipse
 10
0.0000000000000195
 20
-43.68171370724044
 30
0.0
 11
-1.995529386843737
 21
0.0
 31
0.0
210
0.0
220
0.0
230
1.0
 40
0.5773502691896257
 41
6.065315408120662
 42
9.642647859828302
  0
ELLIPSE
  5
1AD64
330
1AD3E
100
AcDbEntity
  8
0
100
AcDbEllipse
 10
0.0000000000000195
 20
-43.65541818733478
 30
0.0
 11
-1.857773468998879
 21
0.0000000000000001
 31
0.0
210
0.0
220
0.0
230
1.0
 40
0.5773502691896258
 41
0.1660734866401956
 42
2.975519166949597
  0
ELLIPSE
  5
1AD65
330
1AD3E
100
AcDbEntity
  8
0
100
AcDbEllipse
 10
0.0000000000000195
 20
-43.87789998299246
 30
0.0
 11
-2.144748748220956
 21
0.0000000000000003
 31
0.0
210
0.0
220
0.0
230
1.0
 40
0.5773502691896259
 41
0.1660734866401858
 42
2.9755191669496
  0
ELLIPSE
  5
1AD66
330
1AD3E
100
AcDbEntity
  8
0
100
AcDbEllipse
 10
0.0000000000000192
 20
-42.45696883584884
 30
0.0
 11
-1.995529386843737
 21
0.0
 31
0.0
210
0.0
220
0.0
230
1.0
 40
0.5773502691896257
 41
6.065315408120662
 42
9.642647859828302
  0
ELLIPSE
  5
1AD67
330
1AD3E
100
AcDbEntity
  8
0
100
AcDbEllipse
 10
0.0000000000000192
 20
-42.43067331594319
 30
0.0
 11
-1.857773468998879
 21
0.0000000000000001
 31
0.0
210
0.0
220
0.0
230
1.0
 40
0.5773502691896258
 41
0.1660734866401956
 42
2.975519166949597
  0
ELLIPSE
  5
1AD68
330
1AD3E
100
AcDbEntity
  8
0
100
AcDbEllipse
 10
0.0000000000000193
 20
-42.65315511160088
 30
0.0
 11
-2.144748748220956
 21
0.0000000000000003
 31
0.0
210
0.0
220
0.0
230
1.0
 40
0.5773502691896259
 41
0.1660734866401858
 42
2.9755191669496
  0
ELLIPSE
  5
1AD69
330
1AD3E
100
AcDbEntity
  8
0
100
AcDbEllipse
 10
0.000000000000019
 20
-41.23222396445725
 30
0.0
 11
-1.995529386843736
 21
-0.0000000000000001
 31
0.0
210
0.0
220
0.0
230
1.0
 40
0.577350269189626
 41
6.06531540812067
 42
9.642647859828295
  0
ELLIPSE
  5
1AD6A
330
1AD3E
100
AcDbEntity
  8
0
100
AcDbEllipse
 10
0.000000000000019
 20
-41.20592844455161
 30
0.0
 11
-1.857773468998884
 21
0.0000000000000001
 31
0.0
210
0.0
220
0.0
230
1.0
 40
0.5773502691896259
 41
0.1660734866401956
 42
2.975519166949597
  0
ELLIPSE
  5
1AD6B
330
1AD3E
100
AcDbEntity
  8
0
100
AcDbEllipse
 10
0.000000000000019
 20
-41.42841024020929
 30
0.0
 11
-2.144748748220956
 21
0.0000000000000003
 31
0.0
210
0.0
220
0.0
230
1.0
 40
0.5773502691896259
 41
0.1660734866401858
 42
2.9755191669496
  0
ELLIPSE
  5
1AD6C
330
1AD3E
100
AcDbEntity
  8
0
100
AcDbEllipse
 10
0.0000000000000188
 20
-40.00747909306567
 30
0.0
 11
-1.995529386843737
 21
0.0000000000000001
 31
0.0
210
0.0
220
0.0
230
1.0
 40
0.5773502691896257
 41
6.065315408120667
 42
9.642647859828295
  0
ELLIPSE
  5
1AD6D
330
1AD3E
100
AcDbEntity
  8
0
100
AcDbEllipse
 10
0.0000000000000188
 20
-39.98118357316002
 30
0.0
 11
-1.857773468998884
 21
0.0000000000000001
 31
0.0
210
0.0
220
0.0
230
1.0
 40
0.5773502691896259
 41
0.1660734866401956
 42
2.975519166949597
  0
ELLIPSE
  5
1AD6E
330
1AD3E
100
AcDbEntity
  8
0
100
AcDbEllipse
 10
0.0000000000000188
 20
-40.20366536881769
 30
0.0
 11
-2.144748748220956
 21
0.0000000000000004
 31
0.0
210
0.0
220
0.0
230
1.0
 40
0.5773502691896258
 41
0.166073486640121
 42
2.975519166949666
  0
ELLIPSE
  5
1AD6F
330
1AD3E
100
AcDbEntity
  8
0
100
AcDbEllipse
 10
0.0000000000000185
 20
-38.7827342216741
 30
0.0
 11
-1.995529386843737
 21
0.0
 31
0.0
210
0.0
220
0.0
230
1.0
 40
0.5773502691896257
 41
6.065315408120662
 42
9.642647859828299
  0
ELLIPSE
  5
1AD70
330
1AD3E
100
AcDbEntity
  8
0
100
AcDbEllipse
 10
0.0000000000000185
 20
-38.75643870176844
 30
0.0
 11
-1.857773468998879
 21
0.0000000000000001
 31
0.0
210
0.0
220
0.0
230
1.0
 40
0.5773502691896258
 41
0.1660734866401956
 42
2.975519166949597
  0
ELLIPSE
  5
1AD71
330
1AD3E
100
AcDbEntity
  8
0
100
AcDbEllipse
 10
0.0000000000000186
 20
-38.97892049742612
 30
0.0
 11
-2.144748748220956
 21
0.0000000000000003
 31
0.0
210
0.0
220
0.0
230
1.0
 40
0.5773502691896259
 41
0.1660734866401899
 42
2.975519166949607
  0
ELLIPSE
  5
1AD72
330
1AD3E
100
AcDbEntity
  8
0
100
AcDbEllipse
 10
0.0000000000000183
 20
-37.5579893502825
 30
0.0
 11
-1.995529386843737
 21
0.0
 31
0.0
210
0.0
220
0.0
230
1.0
 40
0.5773502691896257
 41
6.065315408120662
 42
9.642647859828299
  0
ELLIPSE
  5
1AD73
330
1AD3E
100
AcDbEntity
  8
0
100
AcDbEllipse
 10
0.0000000000000183
 20
-37.53169383037684
 30
0.0
 11
-1.857773468998879
 21
0.0000000000000001
 31
0.0
210
0.0
220
0.0
230
1.0
 40
0.5773502691896258
 41
0.1660734866401956
 42
2.975519166949597
  0
ELLIPSE
  5
1AD74
330
1AD3E
100
AcDbEntity
  8
0
100
AcDbEllipse
 10
0.0000000000000183
 20
-37.75417562603452
 30
0.0
 11
-2.144748748220956
 21
0.0000000000000003
 31
0.0
210
0.0
220
0.0
230
1.0
 40
0.5773502691896259
 41
0.1660734866401899
 42
2.975519166949607
  0
ELLIPSE
  5
1AD75
330
1AD3E
100
AcDbEntity
  8
0
100
AcDbEllipse
 10
0.0000000000000181
 20
-36.33324447889091
 30
0.0
 11
-1.995529386843737
 21
0.0
 31
0.0
210
0.0
220
0.0
230
1.0
 40
0.5773502691896257
 41
6.065315408120662
 42
9.642647859828299
  0
ELLIPSE
  5
1AD76
330
1AD3E
100
AcDbEntity
  8
0
100
AcDbEllipse
 10
0.0000000000000181
 20
-36.30694895898526
 30
0.0
 11
-1.857773468998879
 21
0.0000000000000001
 31
0.0
210
0.0
220
0.0
230
1.0
 40
0.5773502691896258
 41
0.1660734866401956
 42
2.975519166949597
  0
ELLIPSE
  5
1AD77
330
1AD3E
100
AcDbEntity
  8
0
100
AcDbEllipse
 10
0.0000000000000181
 20
-36.52943075464294
 30
0.0
 11
-2.144748748220956
 21
0.0000000000000003
 31
0.0
210
0.0
220
0.0
230
1.0
 40
0.5773502691896259
 41
0.1660734866401899
 42
2.975519166949607
  0
ELLIPSE
  5
1AD78
330
1AD3E
100
AcDbEntity
  8
0
100
AcDbEllipse
 10
0.0000000000000178
 20
-35.10849960749931
 30
0.0
 11
-1.995529386843736
 21
-0.0000000000000001
 31
0.0
210
0.0
220
0.0
230
1.0
 40
0.577350269189626
 41
6.06531540812067
 42
9.642647859828299
  0
ELLIPSE
  5
1AD79
330
1AD3E
100
AcDbEntity
  8
0
100
AcDbEllipse
 10
0.0000000000000178
 20
-35.08220408759367
 30
0.0
 11
-1.857773468998884
 21
0.0000000000000001
 31
0.0
210
0.0
220
0.0
230
1.0
 40
0.5773502691896259
 41
0.1660734866401956
 42
2.975519166949593
  0
ELLIPSE
  5
1AD7A
330
1AD3E
100
AcDbEntity
  8
0
100
AcDbEllipse
 10
0.0000000000000179
 20
-35.30468588325135
 30
0.0
 11
-2.144748748220956
 21
0.0000000000000003
 31
0.0
210
0.0
220
0.0
230
1.0
 40
0.5773502691896259
 41
0.1660734866401899
 42
2.975519166949607
  0
ELLIPSE
  5
1AD7B
330
1AD3E
100
AcDbEntity
  8
0
100
AcDbEllipse
 10
0.0000000000000176
 20
-33.88375473610773
 30
0.0
 11
-1.995529386843737
 21
0.0000000000000001
 31
0.0
210
0.0
220
0.0
230
1.0
 40
0.5773502691896257
 41
6.065315408120667
 42
9.642647859828295
  0
ELLIPSE
  5
1AD7C
330
1AD3E
100
AcDbEntity
  8
0
100
AcDbEllipse
 10
0.0000000000000176
 20
-33.85745921620207
 30
0.0
 11
-1.857773468998884
 21
0.0000000000000001
 31
0.0
210
0.0
220
0.0
230
1.0
 40
0.5773502691896259
 41
0.1660734866401956
 42
2.975519166949593
  0
ELLIPSE
  5
1AD7D
330
1AD3E
100
AcDbEntity
  8
0
100
AcDbEllipse
 10
0.0000000000000176
 20
-34.07994101185975
 30
0.0
 11
-2.144748748220956
 21
0.0000000000000004
 31
0.0
210
0.0
220
0.0
230
1.0
 40
0.5773502691896258
 41
0.1660734866401245
 42
2.975519166949673
  0
ELLIPSE
  5
1AD7E
330
1AD3E
100
AcDbEntity
  8
0
100
AcDbEllipse
 10
0.0000000000000173
 20
-32.65900986471615
 30
0.0
 11
-1.995529386843737
 21
0.0
 31
0.0
210
0.0
220
0.0
230
1.0
 40
0.5773502691896257
 41
6.065315408120662
 42
9.642647859828299
  0
ELLIPSE
  5
1AD7F
330
1AD3E
100
AcDbEntity
  8
0
100
AcDbEllipse
 10
0.0000000000000173
 20
-32.63271434481049
 30
0.0
 11
-1.857773468998879
 21
0.0000000000000001
 31
0.0
210
0.0
220
0.0
230
1.0
 40
0.5773502691896258
 41
0.1660734866401956
 42
2.975519166949597
  0
ELLIPSE
  5
1AD80
330
1AD3E
100
AcDbEntity
  8
0
100
AcDbEllipse
 10
0.0000000000000174
 20
-32.85519614046817
 30
0.0
 11
-2.144748748220956
 21
0.0000000000000003
 31
0.0
210
0.0
220
0.0
230
1.0
 40
0.5773502691896259
 41
0.1660734866401899
 42
2.975519166949607
  0
ELLIPSE
  5
1AD81
330
1AD3E
100
AcDbEntity
  8
0
100
AcDbEllipse
 10
0.0000000000000171
 20
-31.43426499332456
 30
0.0
 11
-1.995529386843737
 21
0.0
 31
0.0
210
0.0
220
0.0
230
1.0
 40
0.5773502691896257
 41
6.065315408120662
 42
9.642647859828299
  0
ELLIPSE
  5
1AD82
330
1AD3E
100
AcDbEntity
  8
0
100
AcDbEllipse
 10
0.0000000000000171
 20
-31.40796947341891
 30
0.0
 11
-1.857773468998879
 21
0.0000000000000001
 31
0.0
210
0.0
220
0.0
230
1.0
 40
0.5773502691896258
 41
0.1660734866401956
 42
2.975519166949597
  0
ELLIPSE
  5
1AD83
330
1AD3E
100
AcDbEntity
  8
0
100
AcDbEllipse
 10
0.0000000000000172
 20
-31.63045126907659
 30
0.0
 11
-2.144748748220956
 21
0.0000000000000003
 31
0.0
210
0.0
220
0.0
230
1.0
 40
0.5773502691896259
 41
0.1660734866401899
 42
2.975519166949607
  0
ELLIPSE
  5
1AD84
330
1AD3E
100
AcDbEntity
  8
0
100
AcDbEllipse
 10
0.0000000000000169
 20
-30.20952012193296
 30
0.0
 11
-1.995529386843737
 21
0.0
 31
0.0
210
0.0
220
0.0
230
1.0
 40
0.5773502691896257
 41
6.065315408120662
 42
9.642647859828299
  0
ELLIPSE
  5
1AD85
330
1AD3E
100
AcDbEntity
  8
0
100
AcDbEllipse
 10
0.0000000000000169
 20
-30.18322460202732
 30
0.0
 11
-1.857773468998879
 21
0.0000000000000001
 31
0.0
210
0.0
220
0.0
230
1.0
 40
0.5773502691896258
 41
0.1660734866401956
 42
2.975519166949597
  0
ELLIPSE
  5
1AD86
330
1AD3E
100
AcDbEntity
  8
0
100
AcDbEllipse
 10
0.0000000000000169
 20
-30.405706397685
 30
0.0
 11
-2.144748748220956
 21
0.0000000000000003
 31
0.0
210
0.0
220
0.0
230
1.0
 40
0.5773502691896259
 41
0.1660734866401899
 42
2.975519166949607
  0
ELLIPSE
  5
1AD87
330
1AD3E
100
AcDbEntity
  8
0
100
AcDbEllipse
 10
0.0000000000000166
 20
-28.98477525054138
 30
0.0
 11
-1.995529386843736
 21
-0.0000000000000001
 31
0.0
210
0.0
220
0.0
230
1.0
 40
0.577350269189626
 41
6.06531540812067
 42
9.642647859828299
  0
ELLIPSE
  5
1AD88
330
1AD3E
100
AcDbEntity
  8
0
100
AcDbEllipse
 10
0.0000000000000166
 20
-28.95847973063572
 30
0.0
 11
-1.857773468998884
 21
0.0000000000000001
 31
0.0
210
0.0
220
0.0
230
1.0
 40
0.5773502691896259
 41
0.1660734866401956
 42
2.975519166949593
  0
ELLIPSE
  5
1AD89
330
1AD3E
100
AcDbEntity
  8
0
100
AcDbEllipse
 10
0.0000000000000167
 20
-29.1809615262934
 30
0.0
 11
-2.144748748220956
 21
0.0000000000000003
 31
0.0
210
0.0
220
0.0
230
1.0
 40
0.5773502691896259
 41
0.1660734866401899
 42
2.975519166949607
  0
ELLIPSE
  5
1AD8A
330
1AD3E
100
AcDbEntity
  8
0
100
AcDbEllipse
 10
0.0000000000000164
 20
-27.76003037914978
 30
0.0
 11
-1.995529386843737
 21
0.0000000000000001
 31
0.0
210
0.0
220
0.0
230
1.0
 40
0.5773502691896257
 41
6.065315408120667
 42
9.642647859828295
  0
ELLIPSE
  5
1AD8B
330
1AD3E
100
AcDbEntity
  8
0
100
AcDbEllipse
 10
0.0000000000000164
 20
-27.73373485924413
 30
0.0
 11
-1.857773468998884
 21
0.0000000000000001
 31
0.0
210
0.0
220
0.0
230
1.0
 40
0.5773502691896259
 41
0.1660734866401956
 42
2.975519166949593
  0
ELLIPSE
  5
1AD8C
330
1AD3E
100
AcDbEntity
  8
0
100
AcDbEllipse
 10
0.0000000000000164
 20
-27.9562166549018
 30
0.0
 11
-2.144748748220956
 21
0.0000000000000004
 31
0.0
210
0.0
220
0.0
230
1.0
 40
0.5773502691896258
 41
0.1660734866401245
 42
2.975519166949673
  0
ELLIPSE
  5
1AD8D
330
1AD3E
100
AcDbEntity
  8
0
100
AcDbEllipse
 10
0.0000000000000162
 20
-26.53528550775821
 30
0.0
 11
-1.995529386843737
 21
0.0
 31
0.0
210
0.0
220
0.0
230
1.0
 40
0.5773502691896257
 41
6.065315408120662
 42
9.642647859828299
  0
ELLIPSE
  5
1AD8E
330
1AD3E
100
AcDbEntity
  8
0
100
AcDbEllipse
 10
0.0000000000000162
 20
-26.50898998785255
 30
0.0
 11
-1.857773468998879
 21
0.0000000000000001
 31
0.0
210
0.0
220
0.0
230
1.0
 40
0.5773502691896258
 41
0.1660734866401956
 42
2.975519166949597
  0
ELLIPSE
  5
1AD8F
330
1AD3E
100
AcDbEntity
  8
0
100
AcDbEllipse
 10
0.0000000000000162
 20
-26.73147178351024
 30
0.0
 11
-2.144748748220956
 21
0.0000000000000003
 31
0.0
210
0.0
220
0.0
230
1.0
 40
0.5773502691896259
 41
0.1660734866401899
 42
2.975519166949607
  0
ELLIPSE
  5
1AD90
330
1AD3E
100
AcDbEntity
  8
0
100
AcDbEllipse
 10
0.0000000000000159
 20
-25.3105406363666
 30
0.0
 11
-1.995529386843737
 21
0.0
 31
0.0
210
0.0
220
0.0
230
1.0
 40
0.5773502691896257
 41
6.065315408120662
 42
9.642647859828299
  0
ELLIPSE
  5
1AD91
330
1AD3E
100
AcDbEntity
  8
0
100
AcDbEllipse
 10
0.0000000000000159
 20
-25.28424511646097
 30
0.0
 11
-1.857773468998879
 21
0.0000000000000001
 31
0.0
210
0.0
220
0.0
230
1.0
 40
0.5773502691896258
 41
0.1660734866401956
 42
2.975519166949597
  0
ELLIPSE
  5
1AD92
330
1AD3E
100
AcDbEntity
  8
0
100
AcDbEllipse
 10
0.000000000000016
 20
-25.50672691211865
 30
0.0
 11
-2.144748748220956
 21
0.0000000000000003
 31
0.0
210
0.0
220
0.0
230
1.0
 40
0.5773502691896259
 41
0.1660734866401899
 42
2.975519166949607
  0
ELLIPSE
  5
1AD93
330
1AD3E
100
AcDbEntity
  8
0
100
AcDbEllipse
 10
0.0000000000000157
 20
-24.08579576497503
 30
0.0
 11
-1.995529386843737
 21
0.0
 31
0.0
210
0.0
220
0.0
230
1.0
 40
0.5773502691896257
 41
6.065315408120662
 42
9.642647859828299
  0
ELLIPSE
  5
1AD94
330
1AD3E
100
AcDbEntity
  8
0
100
AcDbEllipse
 10
0.0000000000000157
 20
-24.05950024506937
 30
0.0
 11
-1.857773468998879
 21
0.0000000000000001
 31
0.0
210
0.0
220
0.0
230
1.0
 40
0.5773502691896258
 41
0.1660734866401956
 42
2.975519166949597
  0
ELLIPSE
  5
1AD95
330
1AD3E
100
AcDbEntity
  8
0
100
AcDbEllipse
 10
0.0000000000000157
 20
-24.28198204072705
 30
0.0
 11
-2.144748748220956
 21
0.0000000000000003
 31
0.0
210
0.0
220
0.0
230
1.0
 40
0.5773502691896259
 41
0.1660734866401899
 42
2.975519166949607
  0
ELLIPSE
  5
1AD96
330
1AD3E
100
AcDbEntity
  8
0
100
AcDbEllipse
 10
0.0000000000000155
 20
-22.86105089358343
 30
0.0
 11
-1.995529386843737
 21
0.0
 31
0.0
210
0.0
220
0.0
230
1.0
 40
0.5773502691896257
 41
6.065315408120662
 42
9.642647859828299
  0
ELLIPSE
  5
1AD97
330
1AD3E
100
AcDbEntity
  8
0
100
AcDbEllipse
 10
0.0000000000000155
 20
-22.83475537367777
 30
0.0
 11
-1.857773468998879
 21
0.0000000000000001
 31
0.0
210
0.0
220
0.0
230
1.0
 40
0.5773502691896258
 41
0.1660734866401956
 42
2.975519166949597
  0
ELLIPSE
  5
1AD98
330
1AD3E
100
AcDbEntity
  8
0
100
AcDbEllipse
 10
0.0000000000000155
 20
-23.05723716933545
 30
0.0
 11
-2.144748748220956
 21
0.0000000000000003
 31
0.0
210
0.0
220
0.0
230
1.0
 40
0.5773502691896259
 41
0.1660734866401899
 42
2.975519166949607
  0
ELLIPSE
  5
1AD99
330
1AD3E
100
AcDbEntity
  8
0
100
AcDbEllipse
 10
0.0000000000000152
 20
-21.63630602219184
 30
0.0
 11
-1.995529386843736
 21
0.0
 31
0.0
210
0.0
220
0.0
230
1.0
 40
0.5773502691896259
 41
6.065315408120662
 42
9.642647859828299
  0
ELLIPSE
  5
1AD9A
330
1AD3E
100
AcDbEntity
  8
0
100
AcDbEllipse
 10
0.0000000000000152
 20
-21.6100105022862
 30
0.0
 11
-1.857773468998879
 21
0.0000000000000001
 31
0.0
210
0.0
220
0.0
230
1.0
 40
0.5773502691896258
 41
0.1660734866401956
 42
2.975519166949597
  0
ELLIPSE
  5
1AD9B
330
1AD3E
100
AcDbEntity
  8
0
100
AcDbEllipse
 10
0.0000000000000153
 20
-21.83249229794387
 30
0.0
 11
-2.144748748220956
 21
0.0000000000000003
 31
0.0
210
0.0
220
0.0
230
1.0
 40
0.5773502691896259
 41
0.1660734866401899
 42
2.975519166949607
  0
ELLIPSE
  5
1AD9C
330
1AD3E
100
AcDbEntity
  8
0
100
AcDbEllipse
 10
0.000000000000015
 20
-20.41156115080026
 30
0.0
 11
-1.995529386843737
 21
0.0
 31
0.0
210
0.0
220
0.0
230
1.0
 40
0.5773502691896257
 41
6.065315408120662
 42
9.642647859828299
  0
ELLIPSE
  5
1AD9D
330
1AD3E
100
AcDbEntity
  8
0
100
AcDbEllipse
 10
0.000000000000015
 20
-20.38526563089462
 30
0.0
 11
-1.857773468998879
 21
0.0000000000000001
 31
0.0
210
0.0
220
0.0
230
1.0
 40
0.5773502691896258
 41
0.1660734866401956
 42
2.975519166949597
  0
ELLIPSE
  5
1AD9E
330
1AD3E
100
AcDbEntity
  8
0
100
AcDbEllipse
 10
0.000000000000015
 20
-20.6077474265523
 30
0.0
 11
-2.144748748220956
 21
0.0000000000000002
 31
0.0
210
0.0
220
0.0
230
1.0
 40
0.5773502691896257
 41
0.166073486640197
 42
2.975519166949596
  0
ELLIPSE
  5
1AD9F
330
1AD3E
100
AcDbEntity
  8
0
100
AcDbEllipse
 10
0.0000000000000148
 20
-19.18681627940867
 30
0.0
 11
-1.995529386843737
 21
0.0
 31
0.0
210
0.0
220
0.0
230
1.0
 40
0.5773502691896257
 41
6.065315408120662
 42
9.642647859828301
  0
ELLIPSE
  5
1ADA0
330
1AD3E
100
AcDbEntity
  8
0
100
AcDbEllipse
 10
0.0000000000000148
 20
-19.16052075950302
 30
0.0
 11
-1.857773468998879
 21
0.0000000000000001
 31
0.0
210
0.0
220
0.0
230
1.0
 40
0.5773502691896258
 41
0.1660734866401956
 42
2.975519166949595
  0
ELLIPSE
  5
1ADA1
330
1AD3E
100
AcDbEntity
  8
0
100
AcDbEllipse
 10
0.0000000000000148
 20
-19.3830025551607
 30
0.0
 11
-2.144748748220956
 21
0.0000000000000003
 31
0.0
210
0.0
220
0.0
230
1.0
 40
0.5773502691896259
 41
0.1660734866401881
 42
2.975519166949606
  0
ELLIPSE
  5
1ADA2
330
1AD3E
100
AcDbEntity
  8
0
100
AcDbEllipse
 10
0.0000000000000145
 20
-17.96207140801709
 30
0.0
 11
-1.995529386843737
 21
0.0
 31
0.0
210
0.0
220
0.0
230
1.0
 40
0.5773502691896257
 41
6.065315408120662
 42
9.642647859828301
  0
ELLIPSE
  5
1ADA3
330
1AD3E
100
AcDbEntity
  8
0
100
AcDbEllipse
 10
0.0000000000000145
 20
-17.93577588811143
 30
0.0
 11
-1.857773468998879
 21
0.0000000000000001
 31
0.0
210
0.0
220
0.0
230
1.0
 40
0.5773502691896258
 41
0.1660734866401956
 42
2.975519166949595
  0
ELLIPSE
  5
1ADA4
330
1AD3E
100
AcDbEntity
  8
0
100
AcDbEllipse
 10
0.0000000000000146
 20
-18.15825768376911
 30
0.0
 11
-2.144748748220956
 21
0.0000000000000003
 31
0.0
210
0.0
220
0.0
230
1.0
 40
0.5773502691896259
 41
0.1660734866401881
 42
2.975519166949606
  0
ELLIPSE
  5
1ADA5
330
1AD3E
100
AcDbEntity
  8
0
100
AcDbEllipse
 10
0.0000000000000143
 20
-16.73732653662549
 30
0.0
 11
-1.995529386843737
 21
0.0
 31
0.0
210
0.0
220
0.0
230
1.0
 40
0.5773502691896257
 41
6.065315408120662
 42
9.642647859828301
  0
ELLIPSE
  5
1ADA6
330
1AD3E
100
AcDbEntity
  8
0
100
AcDbEllipse
 10
0.0000000000000143
 20
-16.71103101671984
 30
0.0
 11
-1.857773468998879
 21
0.0000000000000001
 31
0.0
210
0.0
220
0.0
230
1.0
 40
0.5773502691896258
 41
0.1660734866401956
 42
2.975519166949595
  0
ELLIPSE
  5
1ADA7
330
1AD3E
100
AcDbEntity
  8
0
100
AcDbEllipse
 10
0.0000000000000143
 20
-16.93351281237752
 30
0.0
 11
-2.144748748220956
 21
0.0000000000000003
 31
0.0
210
0.0
220
0.0
230
1.0
 40
0.5773502691896259
 41
0.1660734866401881
 42
2.975519166949606
  0
ELLIPSE
  5
1ADA8
330
1AD3E
100
AcDbEntity
  8
0
100
AcDbEllipse
 10
0.0000000000000141
 20
-15.5125816652339
 30
0.0
 11
-1.995529386843736
 21
0.0
 31
0.0
210
0.0
220
0.0
230
1.0
 40
0.5773502691896259
 41
6.065315408120662
 42
9.642647859828301
  0
ELLIPSE
  5
1ADA9
330
1AD3E
100
AcDbEntity
  8
0
100
AcDbEllipse
 10
0.000000000000014
 20
-15.48628614532824
 30
0.0
 11
-1.857773468998879
 21
0.0000000000000001
 31
0.0
210
0.0
220
0.0
230
1.0
 40
0.5773502691896258
 41
0.1660734866401956
 42
2.975519166949595
  0
ELLIPSE
  5
1ADAA
330
1AD3E
100
AcDbEntity
  8
0
100
AcDbEllipse
 10
0.0000000000000141
 20
-15.70876794098593
 30
0.0
 11
-2.144748748220956
 21
0.0000000000000003
 31
0.0
210
0.0
220
0.0
230
1.0
 40
0.5773502691896259
 41
0.1660734866401881
 42
2.975519166949606
  0
ELLIPSE
  5
1ADAB
330
1AD3E
100
AcDbEntity
  8
0
100
AcDbEllipse
 10
0.0000000000000138
 20
-14.2878367938423
 30
0.0
 11
-1.995529386843736
 21
-0.0000000000000002
 31
0.0
210
0.0
220
0.0
230
1.0
 40
0.577350269189626
 41
6.065315408120667
 42
9.642647859828294
  0
ELLIPSE
  5
1ADAC
330
1AD3E
100
AcDbEntity
  8
0
100
AcDbEllipse
 10
0.0000000000000138
 20
-14.26154127393665
 30
0.0
 11
-1.857773468998884
 21
0.0000000000000001
 31
0.0
210
0.0
220
0.0
230
1.0
 40
0.5773502691896259
 41
0.1660734866401973
 42
2.975519166949597
  0
ELLIPSE
  5
1ADAD
330
1AD3E
100
AcDbEntity
  8
0
100
AcDbEllipse
 10
0.0000000000000139
 20
-14.48402306959433
 30
0.0
 11
-2.144748748220956
 21
0.0000000000000003
 31
0.0
210
0.0
220
0.0
230
1.0
 40
0.5773502691896259
 41
0.1660734866401881
 42
2.975519166949606
  0
ELLIPSE
  5
1ADAE
330
1AD3E
100
AcDbEntity
  8
0
100
AcDbEllipse
 10
0.0000000000000136
 20
-13.06309192245073
 30
0.0
 11
-1.995529386843737
 21
0.0
 31
0.0
210
0.0
220
0.0
230
1.0
 40
0.5773502691896257
 41
6.065315408120662
 42
9.642647859828301
  0
ELLIPSE
  5
1ADAF
330
1AD3E
100
AcDbEntity
  8
0
100
AcDbEllipse
 10
0.0000000000000136
 20
-13.03679640254508
 30
0.0
 11
-1.857773468998879
 21
0.0000000000000001
 31
0.0
210
0.0
220
0.0
230
1.0
 40
0.5773502691896258
 41
0.1660734866401956
 42
2.975519166949595
  0
ELLIPSE
  5
1ADB0
330
1AD3E
100
AcDbEntity
  8
0
100
AcDbEllipse
 10
0.0000000000000136
 20
-13.25927819820275
 30
0.0
 11
-2.144748748220956
 21
0.0000000000000003
 31
0.0
210
0.0
220
0.0
230
1.0
 40
0.5773502691896259
 41
0.1660734866401881
 42
2.975519166949606
  0
ELLIPSE
  5
1ADB1
330
1AD3E
100
AcDbEntity
  8
0
100
AcDbEllipse
 10
0.0000000000000133
 20
-11.83834705105914
 30
0.0
 11
-1.995529386843737
 21
0.0
 31
0.0
210
0.0
220
0.0
230
1.0
 40
0.5773502691896257
 41
6.065315408120662
 42
9.642647859828301
  0
ELLIPSE
  5
1ADB2
330
1AD3E
100
AcDbEntity
  8
0
100
AcDbEllipse
 10
0.0000000000000133
 20
-11.81205153115349
 30
0.0
 11
-1.857773468998879
 21
0.0000000000000001
 31
0.0
210
0.0
220
0.0
230
1.0
 40
0.5773502691896258
 41
0.1660734866401956
 42
2.975519166949595
  0
ELLIPSE
  5
1ADB3
330
1AD3E
100
AcDbEntity
  8
0
100
AcDbEllipse
 10
0.0000000000000134
 20
-12.03453332681117
 30
0.0
 11
-2.144748748220956
 21
0.0000000000000003
 31
0.0
210
0.0
220
0.0
230
1.0
 40
0.5773502691896259
 41
0.1660734866401881
 42
2.975519166949606
  0
ELLIPSE
  5
1ADB4
330
1AD3E
100
AcDbEntity
  8
0
100
AcDbEllipse
 10
0.0000000000000131
 20
-10.80978845541958
 30
0.0
 11
-2.144748748220956
 21
0.0000000000000003
 31
0.0
210
0.0
220
0.0
230
1.0
 40
0.5773502691896259
 41
0.1660734866401881
 42
2.975519166949606
  0
LINE
  5
1ADB5
330
1AD3E
100
AcDbEntity
  8
0
100
AcDbLine
 10
-1.824546709021781
 20
-49.98285993755498
 30
0.0
 11
-2.115240146078449
 21
-48.98157950716272
 31
0.0
  0
LINE
  5
1ADB6
330
1AD3E
100
AcDbEntity
  8
0
100
AcDbLine
 10
1.824546709021823
 20
-49.98285993755498
 30
0.0
 11
2.11524014607849
 21
-48.98157950716272
 31
0.0
  0
SPLINE
  5
1ADB7
330
1AD3E
100
AcDbEntity
  8
0
100
AcDbSpline
210
0.0
220
0.0
230
1.0
 70
     8
 71
     3
 72
    10
 73
     6
 74
     0
 42
0.000000001
 43
0.0000000001
 40
0.6193246767572606
 40
0.6193246767572606
 40
0.6193246767572606
 40
0.6193246767572606
 40
0.9009146851058861
 40
0.9009146851058861
 40
1.158311097701213
 40
1.158311097701213
 40
1.158311097701213
 40
1.158311097701213
 10
2.115240146078489
 20
-48.98157950716268
 30
0.0
 10
2.154093366696741
 20
-48.84775134146114
 30
0.0
 10
2.160420504812766
 20
-48.70655743495333
 30
0.0
 10
2.108094793918025
 20
-48.44619842129294
 30
0.0
 10
2.055675741813301
 20
-48.32673862766612
 30
0.0
 10
1.981545664902105
 20
-48.21733924505566
 30
0.0
  0
SPLINE
  5
1ADB8
330
1AD3E
100
AcDbEntity
  8
0
100
AcDbSpline
210
0.0
220
0.0
230
1.0
 70
     8
 71
     3
 72
    12
 73
     8
 74
     0
 42
0.000000001
 43
0.0000000001
 40
3.554077882683476
 40
3.554077882683476
 40
3.554077882683476
 40
3.554077882683476
 40
3.80946069448422
 40
3.80946069448422
 40
4.086485013603747
 40
4.086485013603747
 40
4.093064303627429
 40
4.093064303627429
 40
4.093064303627429
 40
4.093064303627429
 10
-1.981545664902064
 20
-48.21733924505565
 30
0.0
 10
-2.055095825487831
 20
-48.32588280111622
 30
0.0
 10
-2.107276447314201
 20
-48.44432115651333
 30
0.0
 10
-2.159843988207853
 20
-48.70136173527115
 30
0.0
 10
-2.154682823041921
 20
-48.84021148490657
 30
0.0
 10
-2.117038536649404
 20
-48.97532193932455
 30
0.0
 10
-2.116147943227575
 20
-48.9784526408344
 30
0.0
 10
-2.115240146078448
 20
-48.98157950716268
 30
0.0
  0
LINE
  5
1ADB9
330
1AD3E
100
AcDbEntity
  8
0
100
AcDbLine
 10
-1.832213226470207
 20
-48.73170809265858
 30
0.0
 11
-2.115240146078453
 21
-47.75683463577112
 31
0.0
  0
LINE
  5
1ADBA
330
1AD3E
100
AcDbEntity
  8
0
100
AcDbLine
 10
1.832213226470249
 20
-48.73170809265858
 30
0.0
 11
2.115240146078493
 21
-47.75683463577112
 31
0.0
  0
SPLINE
  5
1ADBB
330
1AD3E
100
AcDbEntity
  8
0
100
AcDbSpline
210
0.0
220
0.0
230
1.0
 70
     8
 71
     3
 72
    10
 73
     6
 74
     0
 42
0.000000001
 43
0.0000000001
 40
0.6193246767572606
 40
0.6193246767572606
 40
0.6193246767572606
 40
0.6193246767572606
 40
0.9009146851058861
 40
0.9009146851058861
 40
1.15831109770121
 40
1.15831109770121
 40
1.15831109770121
 40
1.15831109770121
 10
2.115240146078489
 20
-47.7568346357711
 30
0.0
 10
2.154093366696741
 20
-47.62300647006955
 30
0.0
 10
2.160420504812766
 20
-47.48181256356173
 30
0.0
 10
2.108094793918025
 20
-47.22145354990133
 30
0.0
 10
2.055675741813303
 20
-47.10199375627452
 30
0.0
 10
1.981545664902107
 20
-46.99259437366406
 30
0.0
  0
SPLINE
  5
1ADBC
330
1AD3E
100
AcDbEntity
  8
0
100
AcDbSpline
210
0.0
220
0.0
230
1.0
 70
     8
 71
     3
 72
    12
 73
     8
 74
     0
 42
0.000000001
 43
0.0000000001
 40
3.55407788268348
 40
3.55407788268348
 40
3.55407788268348
 40
3.55407788268348
 40
3.80946069448422
 40
3.80946069448422
 40
4.086485013603747
 40
4.086485013603747
 40
4.093064303627429
 40
4.093064303627429
 40
4.093064303627429
 40
4.093064303627429
 10
-1.981545664902068
 20
-46.99259437366404
 30
0.0
 10
-2.055095825487833
 20
-47.10113792972461
 30
0.0
 10
-2.107276447314201
 20
-47.21957628512172
 30
0.0
 10
-2.159843988207853
 20
-47.47661686387956
 30
0.0
 10
-2.154682823041921
 20
-47.61546661351498
 30
0.0
 10
-2.117038536649404
 20
-47.75057706793295
 30
0.0
 10
-2.116147943227575
 20
-47.75370776944281
 30
0.0
 10
-2.115240146078448
 20
-47.7568346357711
 30
0.0
  0
LINE
  5
1ADBD
330
1AD3E
100
AcDbEntity
  8
0
100
AcDbLine
 10
-1.832213226470212
 20
-47.50696322126699
 30
0.0
 11
-2.115240146078457
 21
-46.53208976437952
 31
0.0
  0
LINE
  5
1ADBE
330
1AD3E
100
AcDbEntity
  8
0
100
AcDbLine
 10
1.832213226470252
 20
-47.50696322126699
 30
0.0
 11
2.115240146078497
 21
-46.53208976437952
 31
0.0
  0
SPLINE
  5
1ADBF
330
1AD3E
100
AcDbEntity
  8
0
100
AcDbSpline
210
0.0
220
0.0
230
1.0
 70
     8
 71
     3
 72
    10
 73
     6
 74
     0
 42
0.000000001
 43
0.0000000001
 40
0.6193246767573257
 40
0.6193246767573257
 40
0.6193246767573257
 40
0.6193246767573257
 40
0.9009146851059444
 40
0.9009146851059444
 40
1.158311097701217
 40
1.158311097701217
 40
1.158311097701217
 40
1.158311097701217
 10
2.115240146078515
 20
-46.53208976437942
 30
0.0
 10
2.154093366696752
 20
-46.39826159867788
 30
0.0
 10
2.160420504812761
 20
-46.25706769217006
 30
0.0
 10
2.108094793918001
 20
-45.9967086785097
 30
0.0
 10
2.055675741813283
 20
-45.87724888488293
 30
0.0
 10
1.981545664902102
 20
-45.76784950227248
 30
0.0
  0
SPLINE
  5
1ADC0
330
1AD3E
100
AcDbEntity
  8
0
100
AcDbSpline
210
0.0
220
0.0
230
1.0
 70
     8
 71
     3
 72
    12
 73
     8
 74
     0
 42
0.000000001
 43
0.0000000001
 40
3.554077882683472
 40
3.554077882683472
 40
3.554077882683472
 40
3.554077882683472
 40
3.809460694484284
 40
3.809460694484284
 40
4.086485013603805
 40
4.086485013603805
 40
4.093064303627364
 40
4.093064303627364
 40
4.093064303627364
 40
4.093064303627364
 10
-1.981545664902061
 20
-45.7678495022725
 30
0.0
 10
-2.055095825487849
 20
-45.87639305833307
 30
0.0
 10
-2.107276447314227
 20
-45.99483141373021
 30
0.0
 10
-2.159843988207857
 20
-46.25187199248807
 30
0.0
 10
-2.15468282304191
 20
-46.39072174212349
 30
0.0
 10
-2.117038536649397
 20
-46.52583219654141
 30
0.0
 10
-2.116147943227585
 20
-46.52896289805119
 30
0.0
 10
-2.115240146078475
 20
-46.53208976437942
 30
0.0
  0
LINE
  5
1ADC1
330
1AD3E
100
AcDbEntity
  8
0
100
AcDbLine
 10
-1.832213226470208
 20
-46.28221834987541
 30
0.0
 11
-2.115240146078449
 21
-45.30734489298795
 31
0.0
  0
LINE
  5
1ADC2
330
1AD3E
100
AcDbEntity
  8
0
100
AcDbLine
 10
1.832213226470248
 20
-46.28221834987541
 30
0.0
 11
2.115240146078489
 21
-45.30734489298795
 31
0.0
  0
SPLINE
  5
1ADC3
330
1AD3E
100
AcDbEntity
  8
0
100
AcDbSpline
210
0.0
220
0.0
230
1.0
 70
     8
 71
     3
 72
    10
 73
     6
 74
     0
 42
0.000000001
 43
0.0000000001
 40
0.6193246767571952
 40
0.6193246767571952
 40
0.6193246767571952
 40
0.6193246767571952
 40
0.9009146851058279
 40
0.9009146851058279
 40
1.15831109770121
 40
1.15831109770121
 40
1.15831109770121
 40
1.15831109770121
 10
2.115240146078461
 20
-45.307344892988
 30
0.0
 10
2.154093366696729
 20
-45.17351672728646
 30
0.0
 10
2.16042050481277
 20
-45.03232282077864
 30
0.0
 10
2.108094793918048
 20
-44.77196380711819
 30
0.0
 10
2.055675741813319
 20
-44.65250401349138
 30
0.0
 10
1.981545664902107
 20
-44.54310463088089
 30
0.0
  0
SPLINE
  5
1ADC4
330
1AD3E
100
AcDbEntity
  8
0
100
AcDbSpline
210
0.0
220
0.0
230
1.0
 70
     8
 71
     3
 72
    12
 73
     8
 74
     0
 42
0.000000001
 43
0.0000000001
 40
3.55407788268348
 40
3.55407788268348
 40
3.55407788268348
 40
3.55407788268348
 40
3.809460694484157
 40
3.809460694484157
 40
4.086485013603688
 40
4.086485013603688
 40
4.093064303627494
 40
4.093064303627494
 40
4.093064303627494
 40
4.093064303627494
 10
-1.981545664902068
 20
-44.54310463088089
 30
0.0
 10
-2.055095825487815
 20
-44.6516481869414
 30
0.0
 10
-2.107276447314176
 20
-44.77008654233849
 30
0.0
 10
-2.15984398820785
 20
-45.02712712109629
 30
0.0
 10
-2.154682823041933
 20
-45.16597687073169
 30
0.0
 10
-2.117038536649411
 20
-45.30108732514976
 30
0.0
 10
-2.116147943227566
 20
-45.30421802665967
 30
0.0
 10
-2.115240146078422
 20
-45.307344892988
 30
0.0
  0
LINE
  5
1ADC5
330
1AD3E
100
AcDbEntity
  8
0
100
AcDbLine
 10
-1.832213226470208
 20
-45.05747347848383
 30
0.0
 11
-2.115240146078454
 21
-44.08260002159635
 31
0.0
  0
LINE
  5
1ADC6
330
1AD3E
100
AcDbEntity
  8
0
100
AcDbLine
 10
1.832213226470247
 20
-45.05747347848383
 30
0.0
 11
2.115240146078493
 21
-44.08260002159635
 31
0.0
  0
SPLINE
  5
1ADC7
330
1AD3E
100
AcDbEntity
  8
0
100
AcDbSpline
210
0.0
220
0.0
230
1.0
 70
     8
 71
     3
 72
    10
 73
     6
 74
     0
 42
0.000000001
 43
0.0000000001
 40
0.6193246767572605
 40
0.6193246767572605
 40
0.6193246767572605
 40
0.6193246767572605
 40
0.900914685105886
 40
0.900914685105886
 40
1.158311097701213
 40
1.158311097701213
 40
1.158311097701213
 40
1.158311097701213
 10
2.115240146078488
 20
-44.08260002159633
 30
0.0
 10
2.15409336669674
 20
-43.94877185589478
 30
0.0
 10
2.160420504812765
 20
-43.80757794938697
 30
0.0
 10
2.108094793918025
 20
-43.54721893572658
 30
0.0
 10
2.0556757418133
 20
-43.42775914209977
 30
0.0
 10
1.981545664902104
 20
-43.31835975948931
 30
0.0
  0
SPLINE
  5
1ADC8
330
1AD3E
100
AcDbEntity
  8
0
100
AcDbSpline
210
0.0
220
0.0
230
1.0
 70
     8
 71
     3
 72
    12
 73
     8
 74
     0
 42
0.000000001
 43
0.0000000001
 40
3.554077882683476
 40
3.554077882683476
 40
3.554077882683476
 40
3.554077882683476
 40
3.80946069448422
 40
3.80946069448422
 40
4.086485013603747
 40
4.086485013603747
 40
4.093064303627429
 40
4.093064303627429
 40
4.093064303627429
 40
4.093064303627429
 10
-1.981545664902066
 20
-43.31835975948931
 30
0.0
 10
-2.055095825487833
 20
-43.42690331554986
 30
0.0
 10
-2.107276447314202
 20
-43.54534167094697
 30
0.0
 10
-2.159843988207854
 20
-43.8023822497048
 30
0.0
 10
-2.154682823041921
 20
-43.94123199934022
 30
0.0
 10
-2.117038536649404
 20
-44.07634245375819
 30
0.0
 10
-2.116147943227577
 20
-44.07947315526805
 30
0.0
 10
-2.115240146078449
 20
-44.08260002159633
 30
0.0
  0
LINE
  5
1ADC9
330
1AD3E
100
AcDbEntity
  8
0
100
AcDbLine
 10
-1.832213226470205
 20
-43.83272860709225
 30
0.0
 11
-2.11524014607845
 21
-42.85785515020477
 31
0.0
  0
LINE
  5
1ADCA
330
1AD3E
100
AcDbEntity
  8
0
100
AcDbLine
 10
1.832213226470243
 20
-43.83272860709225
 30
0.0
 11
2.115240146078488
 21
-42.85785515020477
 31
0.0
  0
SPLINE
  5
1ADCB
330
1AD3E
100
AcDbEntity
  8
0
100
AcDbSpline
210
0.0
220
0.0
230
1.0
 70
     8
 71
     3
 72
    10
 73
     6
 74
     0
 42
0.000000001
 43
0.0000000001
 40
0.6193246767572606
 40
0.6193246767572606
 40
0.6193246767572606
 40
0.6193246767572606
 40
0.9009146851058861
 40
0.9009146851058861
 40
1.158311097701213
 40
1.158311097701213
 40
1.158311097701213
 40
1.158311097701213
 10
2.115240146078487
 20
-42.85785515020475
 30
0.0
 10
2.15409336669674
 20
-42.7240269845032
 30
0.0
 10
2.160420504812765
 20
-42.58283307799538
 30
0.0
 10
2.108094793918024
 20
-42.32247406433498
 30
0.0
 10
2.0556757418133
 20
-42.20301427070817
 30
0.0
 10
1.981545664902104
 20
-42.09361488809771
 30
0.0
  0
SPLINE
  5
1ADCC
330
1AD3E
100
AcDbEntity
  8
0
100
AcDbSpline
210
0.0
220
0.0
230
1.0
 70
     8
 71
     3
 72
    12
 73
     8
 74
     0
 42
0.000000001
 43
0.0000000001
 40
3.554077882683476
 40
3.554077882683476
 40
3.554077882683476
 40
3.554077882683476
 40
3.80946069448422
 40
3.80946069448422
 40
4.086485013603747
 40
4.086485013603747
 40
4.093064303627429
 40
4.093064303627429
 40
4.093064303627429
 40
4.093064303627429
 10
-1.981545664902065
 20
-42.09361488809769
 30
0.0
 10
-2.055095825487833
 20
-42.20215844415826
 30
0.0
 10
-2.107276447314202
 20
-42.32059679955537
 30
0.0
 10
-2.159843988207854
 20
-42.57763737831321
 30
0.0
 10
-2.154682823041922
 20
-42.71648712794863
 30
0.0
 10
-2.117038536649405
 20
-42.8515975823666
 30
0.0
 10
-2.116147943227577
 20
-42.85472828387645
 30
0.0
 10
-2.115240146078449
 20
-42.85785515020475
 30
0.0
  0
LINE
  5
1ADCD
330
1AD3E
100
AcDbEntity
  8
0
100
AcDbLine
 10
-1.832213226470209
 20
-42.60798373570064
 30
0.0
 11
-2.115240146078454
 21
-41.63311027881317
 31
0.0
  0
LINE
  5
1ADCE
330
1AD3E
100
AcDbEntity
  8
0
100
AcDbLine
 10
1.832213226470247
 20
-42.60798373570064
 30
0.0
 11
2.115240146078492
 21
-41.63311027881317
 31
0.0
  0
SPLINE
  5
1ADCF
330
1AD3E
100
AcDbEntity
  8
0
100
AcDbSpline
210
0.0
220
0.0
230
1.0
 70
     8
 71
     3
 72
    10
 73
     6
 74
     0
 42
0.000000001
 43
0.0000000001
 40
0.6193246767572606
 40
0.6193246767572606
 40
0.6193246767572606
 40
0.6193246767572606
 40
0.9009146851058861
 40
0.9009146851058861
 40
1.15831109770121
 40
1.15831109770121
 40
1.15831109770121
 40
1.15831109770121
 10
2.115240146078487
 20
-41.63311027881316
 30
0.0
 10
2.15409336669674
 20
-41.4992821131116
 30
0.0
 10
2.160420504812765
 20
-41.3580882066038
 30
0.0
 10
2.108094793918024
 20
-41.0977291929434
 30
0.0
 10
2.055675741813302
 20
-40.97826939931658
 30
0.0
 10
1.981545664902106
 20
-40.86887001670612
 30
0.0
  0
SPLINE
  5
1ADD0
330
1AD3E
100
AcDbEntity
  8
0
100
AcDbSpline
210
0.0
220
0.0
230
1.0
 70
     8
 71
     3
 72
    12
 73
     8
 74
     0
 42
0.000000001
 43
0.0000000001
 40
3.55407788268348
 40
3.55407788268348
 40
3.55407788268348
 40
3.55407788268348
 40
3.80946069448422
 40
3.80946069448422
 40
4.086485013603747
 40
4.086485013603747
 40
4.093064303627429
 40
4.093064303627429
 40
4.093064303627429
 40
4.093064303627429
 10
-1.981545664902069
 20
-40.8688700167061
 30
0.0
 10
-2.055095825487835
 20
-40.97741357276668
 30
0.0
 10
-2.107276447314202
 20
-41.09585192816378
 30
0.0
 10
-2.159843988207854
 20
-41.35289250692163
 30
0.0
 10
-2.154682823041922
 20
-41.49174225655705
 30
0.0
 10
-2.117038536649405
 20
-41.626852710975
 30
0.0
 10
-2.116147943227577
 20
-41.62998341248486
 30
0.0
 10
-2.11524014607845
 20
-41.63311027881316
 30
0.0
  0
LINE
  5
1ADD1
330
1AD3E
100
AcDbEntity
  8
0
100
AcDbLine
 10
-1.832213226470213
 20
-41.38323886430906
 30
0.0
 11
-2.115240146078458
 21
-40.40836540742158
 31
0.0
  0
LINE
  5
1ADD2
330
1AD3E
100
AcDbEntity
  8
0
100
AcDbLine
 10
1.832213226470251
 20
-41.38323886430906
 30
0.0
 11
2.115240146078496
 21
-40.40836540742158
 31
0.0
  0
SPLINE
  5
1ADD3
330
1AD3E
100
AcDbEntity
  8
0
100
AcDbSpline
210
0.0
220
0.0
230
1.0
 70
     8
 71
     3
 72
    10
 73
     6
 74
     0
 42
0.000000001
 43
0.0000000001
 40
0.6193246767573257
 40
0.6193246767573257
 40
0.6193246767573257
 40
0.6193246767573257
 40
0.9009146851059444
 40
0.9009146851059444
 40
1.158311097701213
 40
1.158311097701213
 40
1.158311097701213
 40
1.158311097701213
 10
2.115240146078514
 20
-40.40836540742149
 30
0.0
 10
2.15409336669675
 20
-40.27453724171993
 30
0.0
 10
2.16042050481276
 20
-40.13334333521213
 30
0.0
 10
2.108094793918
 20
-39.87298432155178
 30
0.0
 10
2.055675741813283
 20
-39.75352452792499
 30
0.0
 10
1.981545664902104
 20
-39.64412514531454
 30
0.0
  0
SPLINE
  5
1ADD4
330
1AD3E
100
AcDbEntity
  8
0
100
AcDbSpline
210
0.0
220
0.0
230
1.0
 70
     8
 71
     3
 72
    12
 73
     8
 74
     0
 42
0.000000001
 43
0.0000000001
 40
3.554077882683476
 40
3.554077882683476
 40
3.554077882683476
 40
3.554077882683476
 40
3.809460694484284
 40
3.809460694484284
 40
4.086485013603805
 40
4.086485013603805
 40
4.093064303627364
 40
4.093064303627364
 40
4.093064303627364
 40
4.093064303627364
 10
-1.981545664902066
 20
-39.64412514531454
 30
0.0
 10
-2.055095825487851
 20
-39.75266870137513
 30
0.0
 10
-2.107276447314228
 20
-39.87110705677228
 30
0.0
 10
-2.159843988207858
 20
-40.12814763553012
 30
0.0
 10
-2.154682823041911
 20
-40.26699738516556
 30
0.0
 10
-2.117038536649398
 20
-40.40210783958346
 30
0.0
 10
-2.116147943227586
 20
-40.40523854109324
 30
0.0
 10
-2.115240146078476
 20
-40.40836540742149
 30
0.0
  0
LINE
  5
1ADD5
330
1AD3E
100
AcDbEntity
  8
0
100
AcDbLine
 10
-1.832213226470213
 20
-40.15849399291746
 30
0.0
 11
-2.11524014607845
 21
-39.18362053603002
 31
0.0
  0
LINE
  5
1ADD6
330
1AD3E
100
AcDbEntity
  8
0
100
AcDbLine
 10
1.832213226470251
 20
-40.15849399291746
 30
0.0
 11
2.115240146078487
 21
-39.18362053603002
 31
0.0
  0
SPLINE
  5
1ADD7
330
1AD3E
100
AcDbEntity
  8
0
100
AcDbSpline
210
0.0
220
0.0
230
1.0
 70
     8
 71
     3
 72
    10
 73
     6
 74
     0
 42
0.000000001
 43
0.0000000001
 40
0.6193246767572606
 40
0.6193246767572606
 40
0.6193246767572606
 40
0.6193246767572606
 40
0.9009146851058861
 40
0.9009146851058861
 40
1.158311097701213
 40
1.158311097701213
 40
1.158311097701213
 40
1.158311097701213
 10
2.115240146078487
 20
-39.18362053602999
 30
0.0
 10
2.154093366696739
 20
-39.04979237032843
 30
0.0
 10
2.160420504812764
 20
-38.90859846382063
 30
0.0
 10
2.108094793918024
 20
-38.64823945016023
 30
0.0
 10
2.055675741813299
 20
-38.52877965653343
 30
0.0
 10
1.981545664902103
 20
-38.41938027392296
 30
0.0
  0
SPLINE
  5
1ADD8
330
1AD3E
100
AcDbEntity
  8
0
100
AcDbSpline
210
0.0
220
0.0
230
1.0
 70
     8
 71
     3
 72
    12
 73
     8
 74
     0
 42
0.000000001
 43
0.0000000001
 40
3.554077882683476
 40
3.554077882683476
 40
3.554077882683476
 40
3.554077882683476
 40
3.80946069448422
 40
3.80946069448422
 40
4.086485013603747
 40
4.086485013603747
 40
4.093064303627429
 40
4.093064303627429
 40
4.093064303627429
 40
4.093064303627429
 10
-1.981545664902066
 20
-38.41938027392296
 30
0.0
 10
-2.055095825487833
 20
-38.52792382998352
 30
0.0
 10
-2.107276447314203
 20
-38.64636218538063
 30
0.0
 10
-2.159843988207855
 20
-38.90340276413846
 30
0.0
 10
-2.154682823041922
 20
-39.04225251377388
 30
0.0
 10
-2.117038536649405
 20
-39.17736296819185
 30
0.0
 10
-2.116147943227577
 20
-39.18049366970171
 30
0.0
 10
-2.11524014607845
 20
-39.18362053602999
 30
0.0
  0
LINE
  5
1ADD9
330
1AD3E
100
AcDbEntity
  8
0
100
AcDbLine
 10
-1.832213226470209
 20
-38.93374912152589
 30
0.0
 11
-2.115240146078455
 21
-37.95887566463841
 31
0.0
  0
LINE
  5
1ADDA
330
1AD3E
100
AcDbEntity
  8
0
100
AcDbLine
 10
1.832213226470246
 20
-38.93374912152589
 30
0.0
 11
2.115240146078491
 21
-37.95887566463841
 31
0.0
  0
SPLINE
  5
1ADDB
330
1AD3E
100
AcDbEntity
  8
0
100
AcDbSpline
210
0.0
220
0.0
230
1.0
 70
     8
 71
     3
 72
    10
 73
     6
 74
     0
 42
0.000000001
 43
0.0000000001
 40
0.6193246767572605
 40
0.6193246767572605
 40
0.6193246767572605
 40
0.6193246767572605
 40
0.900914685105886
 40
0.900914685105886
 40
1.158311097701213
 40
1.158311097701213
 40
1.158311097701213
 40
1.158311097701213
 10
2.115240146078487
 20
-37.95887566463839
 30
0.0
 10
2.154093366696739
 20
-37.82504749893686
 30
0.0
 10
2.160420504812764
 20
-37.68385359242903
 30
0.0
 10
2.108094793918024
 20
-37.42349457876863
 30
0.0
 10
2.055675741813299
 20
-37.30403478514183
 30
0.0
 10
1.981545664902103
 20
-37.19463540253137
 30
0.0
  0
SPLINE
  5
1ADDC
330
1AD3E
100
AcDbEntity
  8
0
100
AcDbSpline
210
0.0
220
0.0
230
1.0
 70
     8
 71
     3
 72
    12
 73
     8
 74
     0
 42
0.000000001
 43
0.0000000001
 40
3.554077882683476
 40
3.554077882683476
 40
3.554077882683476
 40
3.554077882683476
 40
3.80946069448422
 40
3.80946069448422
 40
4.086485013603747
 40
4.086485013603747
 40
4.093064303627429
 40
4.093064303627429
 40
4.093064303627429
 40
4.093064303627429
 10
-1.981545664902067
 20
-37.19463540253135
 30
0.0
 10
-2.055095825487834
 20
-37.30317895859192
 30
0.0
 10
-2.107276447314203
 20
-37.42161731398903
 30
0.0
 10
-2.159843988207855
 20
-37.67865789274686
 30
0.0
 10
-2.154682823041923
 20
-37.81750764238228
 30
0.0
 10
-2.117038536649405
 20
-37.95261809680025
 30
0.0
 10
-2.116147943227578
 20
-37.95574879831011
 30
0.0
 10
-2.11524014607845
 20
-37.95887566463839
 30
0.0
  0
LINE
  5
1ADDD
330
1AD3E
100
AcDbEntity
  8
0
100
AcDbLine
 10
-1.832213226470206
 20
-37.70900425013431
 30
0.0
 11
-2.115240146078451
 21
-36.73413079324685
 31
0.0
  0
LINE
  5
1ADDE
330
1AD3E
100
AcDbEntity
  8
0
100
AcDbLine
 10
1.832213226470242
 20
-37.70900425013431
 30
0.0
 11
2.115240146078487
 21
-36.73413079324685
 31
0.0
  0
SPLINE
  5
1ADDF
330
1AD3E
100
AcDbEntity
  8
0
100
AcDbSpline
210
0.0
220
0.0
230
1.0
 70
     8
 71
     3
 72
    10
 73
     6
 74
     0
 42
0.000000001
 43
0.0000000001
 40
0.6193246767572606
 40
0.6193246767572606
 40
0.6193246767572606
 40
0.6193246767572606
 40
0.9009146851058861
 40
0.9009146851058861
 40
1.158311097701213
 40
1.158311097701213
 40
1.158311097701213
 40
1.158311097701213
 10
2.115240146078487
 20
-36.73413079324681
 30
0.0
 10
2.154093366696738
 20
-36.60030262754526
 30
0.0
 10
2.160420504812763
 20
-36.45910872103744
 30
0.0
 10
2.108094793918023
 20
-36.19874970737704
 30
0.0
 10
2.055675741813299
 20
-36.07928991375023
 30
0.0
 10
1.981545664902102
 20
-35.96989053113977
 30
0.0
  0
SPLINE
  5
1ADE0
330
1AD3E
100
AcDbEntity
  8
0
100
AcDbSpline
210
0.0
220
0.0
230
1.0
 70
     8
 71
     3
 72
    12
 73
     8
 74
     0
 42
0.000000001
 43
0.0000000001
 40
3.554077882683476
 40
3.554077882683476
 40
3.554077882683476
 40
3.554077882683476
 40
3.80946069448422
 40
3.80946069448422
 40
4.086485013603747
 40
4.086485013603747
 40
4.093064303627429
 40
4.093064303627429
 40
4.093064303627429
 40
4.093064303627429
 10
-1.981545664902066
 20
-35.96989053113976
 30
0.0
 10
-2.055095825487834
 20
-36.07843408720034
 30
0.0
 10
-2.107276447314203
 20
-36.19687244259743
 30
0.0
 10
-2.159843988207855
 20
-36.45391302135526
 30
0.0
 10
-2.154682823041923
 20
-36.5927627709907
 30
0.0
 10
-2.117038536649406
 20
-36.72787322540866
 30
0.0
 10
-2.116147943227578
 20
-36.73100392691851
 30
0.0
 10
-2.11524014607845
 20
-36.73413079324681
 30
0.0
  0
LINE
  5
1ADE1
330
1AD3E
100
AcDbEntity
  8
0
100
AcDbLine
 10
-1.83221322647021
 20
-36.48425937874272
 30
0.0
 11
-2.115240146078455
 21
-35.50938592185524
 31
0.0
  0
LINE
  5
1ADE2
330
1AD3E
100
AcDbEntity
  8
0
100
AcDbLine
 10
1.832213226470246
 20
-36.48425937874272
 30
0.0
 11
2.115240146078491
 21
-35.50938592185524
 31
0.0
  0
SPLINE
  5
1ADE3
330
1AD3E
100
AcDbEntity
  8
0
100
AcDbSpline
210
0.0
220
0.0
230
1.0
 70
     8
 71
     3
 72
    10
 73
     6
 74
     0
 42
0.000000001
 43
0.0000000001
 40
0.6193246767572606
 40
0.6193246767572606
 40
0.6193246767572606
 40
0.6193246767572606
 40
0.9009146851058861
 40
0.9009146851058861
 40
1.15831109770121
 40
1.15831109770121
 40
1.15831109770121
 40
1.15831109770121
 10
2.115240146078487
 20
-35.50938592185521
 30
0.0
 10
2.154093366696738
 20
-35.37555775615366
 30
0.0
 10
2.160420504812763
 20
-35.23436384964586
 30
0.0
 10
2.108094793918023
 20
-34.97400483598546
 30
0.0
 10
2.0556757418133
 20
-34.85454504235865
 30
0.0
 10
1.981545664902105
 20
-34.74514565974818
 30
0.0
  0
SPLINE
  5
1ADE4
330
1AD3E
100
AcDbEntity
  8
0
100
AcDbSpline
210
0.0
220
0.0
230
1.0
 70
     8
 71
     3
 72
    12
 73
     8
 74
     0
 42
0.000000001
 43
0.0000000001
 40
3.55407788268348
 40
3.55407788268348
 40
3.55407788268348
 40
3.55407788268348
 40
3.80946069448422
 40
3.80946069448422
 40
4.086485013603747
 40
4.086485013603747
 40
4.093064303627429
 40
4.093064303627429
 40
4.093064303627429
 40
4.093064303627429
 10
-1.98154566490207
 20
-34.74514565974818
 30
0.0
 10
-2.055095825487835
 20
-34.85368921580874
 30
0.0
 10
-2.107276447314204
 20
-34.97212757120583
 30
0.0
 10
-2.159843988207855
 20
-35.22916814996368
 30
0.0
 10
-2.154682823041923
 20
-35.3680178995991
 30
0.0
 10
-2.117038536649406
 20
-35.50312835401706
 30
0.0
 10
-2.116147943227578
 20
-35.50625905552693
 30
0.0
 10
-2.115240146078451
 20
-35.50938592185521
 30
0.0
  0
LINE
  5
1ADE5
330
1AD3E
100
AcDbEntity
  8
0
100
AcDbLine
 10
-1.832213226470214
 20
-35.25951450735111
 30
0.0
 11
-2.115240146078459
 21
-34.28464105046364
 31
0.0
  0
LINE
  5
1ADE6
330
1AD3E
100
AcDbEntity
  8
0
100
AcDbLine
 10
1.832213226470249
 20
-35.25951450735111
 30
0.0
 11
2.115240146078495
 21
-34.28464105046364
 31
0.0
  0
SPLINE
  5
1ADE7
330
1AD3E
100
AcDbEntity
  8
0
100
AcDbSpline
210
0.0
220
0.0
230
1.0
 70
     8
 71
     3
 72
    10
 73
     6
 74
     0
 42
0.000000001
 43
0.0000000001
 40
0.6193246767573257
 40
0.6193246767573257
 40
0.6193246767573257
 40
0.6193246767573257
 40
0.9009146851059444
 40
0.9009146851059444
 40
1.158311097701213
 40
1.158311097701213
 40
1.158311097701213
 40
1.158311097701213
 10
2.115240146078513
 20
-34.28464105046355
 30
0.0
 10
2.154093366696749
 20
-34.15081288476199
 30
0.0
 10
2.160420504812759
 20
-34.00961897825419
 30
0.0
 10
2.108094793917998
 20
-33.74925996459383
 30
0.0
 10
2.055675741813282
 20
-33.62980017096706
 30
0.0
 10
1.981545664902102
 20
-33.5204007883566
 30
0.0
  0
SPLINE
  5
1ADE8
330
1AD3E
100
AcDbEntity
  8
0
100
AcDbSpline
210
0.0
220
0.0
230
1.0
 70
     8
 71
     3
 72
    12
 73
     8
 74
     0
 42
0.000000001
 43
0.0000000001
 40
3.554077882683476
 40
3.554077882683476
 40
3.554077882683476
 40
3.554077882683476
 40
3.809460694484284
 40
3.809460694484284
 40
4.086485013603805
 40
4.086485013603805
 40
4.093064303627364
 40
4.093064303627364
 40
4.093064303627364
 40
4.093064303627364
 10
-1.981545664902067
 20
-33.5204007883566
 30
0.0
 10
-2.055095825487852
 20
-33.62894434441718
 30
0.0
 10
-2.107276447314229
 20
-33.74738269981433
 30
0.0
 10
-2.159843988207859
 20
-34.0044232785722
 30
0.0
 10
-2.154682823041913
 20
-34.14327302820762
 30
0.0
 10
-2.1170385366494
 20
-34.27838348262552
 30
0.0
 10
-2.116147943227587
 20
-34.28151418413532
 30
0.0
 10
-2.115240146078478
 20
-34.28464105046355
 30
0.0
  0
LINE
  5
1ADE9
330
1AD3E
100
AcDbEntity
  8
0
100
AcDbLine
 10
-1.832213226470214
 20
-34.03476963595952
 30
0.0
 11
-2.115240146078452
 21
-33.05989617907208
 31
0.0
  0
LINE
  5
1ADEA
330
1AD3E
100
AcDbEntity
  8
0
100
AcDbLine
 10
1.832213226470249
 20
-34.03476963595952
 30
0.0
 11
2.115240146078487
 21
-33.05989617907208
 31
0.0
  0
SPLINE
  5
1ADEB
330
1AD3E
100
AcDbEntity
  8
0
100
AcDbSpline
210
0.0
220
0.0
230
1.0
 70
     8
 71
     3
 72
    10
 73
     6
 74
     0
 42
0.000000001
 43
0.0000000001
 40
0.6193246767572606
 40
0.6193246767572606
 40
0.6193246767572606
 40
0.6193246767572606
 40
0.9009146851058861
 40
0.9009146851058861
 40
1.158311097701213
 40
1.158311097701213
 40
1.158311097701213
 40
1.158311097701213
 10
2.115240146078486
 20
-33.05989617907204
 30
0.0
 10
2.154093366696738
 20
-32.92606801337051
 30
0.0
 10
2.160420504812763
 20
-32.78487410686268
 30
0.0
 10
2.108094793918022
 20
-32.52451509320228
 30
0.0
 10
2.055675741813298
 20
-32.40505529957548
 30
0.0
 10
1.981545664902102
 20
-32.29565591696502
 30
0.0
  0
SPLINE
  5
1ADEC
330
1AD3E
100
AcDbEntity
  8
0
100
AcDbSpline
210
0.0
220
0.0
230
1.0
 70
     8
 71
     3
 72
    12
 73
     8
 74
     0
 42
0.000000001
 43
0.0000000001
 40
3.554077882683476
 40
3.554077882683476
 40
3.554077882683476
 40
3.554077882683476
 40
3.80946069448422
 40
3.80946069448422
 40
4.086485013603747
 40
4.086485013603747
 40
4.093064303627429
 40
4.093064303627429
 40
4.093064303627429
 40
4.093064303627429
 10
-1.981545664902067
 20
-32.29565591696502
 30
0.0
 10
-2.055095825487835
 20
-32.40419947302557
 30
0.0
 10
-2.107276447314204
 20
-32.52263782842268
 30
0.0
 10
-2.159843988207856
 20
-32.77967840718051
 30
0.0
 10
-2.154682823041924
 20
-32.91852815681593
 30
0.0
 10
-2.117038536649406
 20
-33.0536386112339
 30
0.0
 10
-2.116147943227578
 20
-33.05676931274376
 30
0.0
 10
-2.115240146078451
 20
-33.05989617907204
 30
0.0
  0
LINE
  5
1ADED
330
1AD3E
100
AcDbEntity
  8
0
100
AcDbLine
 10
-1.832213226470211
 20
-32.81002476456794
 30
0.0
 11
-2.115240146078456
 21
-31.83515130768048
 31
0.0
  0
LINE
  5
1ADEE
330
1AD3E
100
AcDbEntity
  8
0
100
AcDbLine
 10
1.832213226470245
 20
-32.81002476456794
 30
0.0
 11
2.11524014607849
 21
-31.83515130768048
 31
0.0
  0
SPLINE
  5
1ADEF
330
1AD3E
100
AcDbEntity
  8
0
100
AcDbSpline
210
0.0
220
0.0
230
1.0
 70
     8
 71
     3
 72
    10
 73
     6
 74
     0
 42
0.000000001
 43
0.0000000001
 40
0.6193246767572605
 40
0.6193246767572605
 40
0.6193246767572605
 40
0.6193246767572605
 40
0.900914685105886
 40
0.900914685105886
 40
1.158311097701213
 40
1.158311097701213
 40
1.158311097701213
 40
1.158311097701213
 10
2.115240146078485
 20
-31.83515130768046
 30
0.0
 10
2.154093366696738
 20
-31.7013231419789
 30
0.0
 10
2.160420504812762
 20
-31.56012923547109
 30
0.0
 10
2.108094793918022
 20
-31.29977022181069
 30
0.0
 10
2.055675741813298
 20
-31.18031042818388
 30
0.0
 10
1.981545664902101
 20
-31.07091104557341
 30
0.0
  0
SPLINE
  5
1ADF0
330
1AD3E
100
AcDbEntity
  8
0
100
AcDbSpline
210
0.0
220
0.0
230
1.0
 70
     8
 71
     3
 72
    12
 73
     8
 74
     0
 42
0.000000001
 43
0.0000000001
 40
3.554077882683476
 40
3.554077882683476
 40
3.554077882683476
 40
3.554077882683476
 40
3.80946069448422
 40
3.80946069448422
 40
4.086485013603747
 40
4.086485013603747
 40
4.093064303627429
 40
4.093064303627429
 40
4.093064303627429
 40
4.093064303627429
 10
-1.981545664902068
 20
-31.07091104557341
 30
0.0
 10
-2.055095825487835
 20
-31.17945460163397
 30
0.0
 10
-2.107276447314204
 20
-31.29789295703108
 30
0.0
 10
-2.159843988207856
 20
-31.55493353578891
 30
0.0
 10
-2.154682823041924
 20
-31.69378328542433
 30
0.0
 10
-2.117038536649407
 20
-31.82889373984231
 30
0.0
 10
-2.116147943227579
 20
-31.83202444135216
 30
0.0
 10
-2.115240146078452
 20
-31.83515130768046
 30
0.0
  0
LINE
  5
1ADF1
330
1AD3E
100
AcDbEntity
  8
0
100
AcDbLine
 10
-1.832213226470207
 20
-31.58527989317637
 30
0.0
 11
-2.115240146078452
 21
-30.6104064362889
 31
0.0
  0
LINE
  5
1ADF2
330
1AD3E
100
AcDbEntity
  8
0
100
AcDbLine
 10
1.832213226470241
 20
-31.58527989317637
 30
0.0
 11
2.115240146078486
 21
-30.6104064362889
 31
0.0
  0
SPLINE
  5
1ADF3
330
1AD3E
100
AcDbEntity
  8
0
100
AcDbSpline
210
0.0
220
0.0
230
1.0
 70
     8
 71
     3
 72
    10
 73
     6
 74
     0
 42
0.000000001
 43
0.0000000001
 40
0.6193246767572606
 40
0.6193246767572606
 40
0.6193246767572606
 40
0.6193246767572606
 40
0.9009146851058861
 40
0.9009146851058861
 40
1.158311097701213
 40
1.158311097701213
 40
1.158311097701213
 40
1.158311097701213
 10
2.115240146078485
 20
-30.61040643628886
 30
0.0
 10
2.154093366696737
 20
-30.47657827058731
 30
0.0
 10
2.160420504812762
 20
-30.33538436407951
 30
0.0
 10
2.108094793918021
 20
-30.07502535041911
 30
0.0
 10
2.055675741813298
 20
-29.9555655567923
 30
0.0
 10
1.981545664902102
 20
-29.84616617418183
 30
0.0
  0
SPLINE
  5
1ADF4
330
1AD3E
100
AcDbEntity
  8
0
100
AcDbSpline
210
0.0
220
0.0
230
1.0
 70
     8
 71
     3
 72
    12
 73
     8
 74
     0
 42
0.000000001
 43
0.0000000001
 40
3.554077882683476
 40
3.554077882683476
 40
3.554077882683476
 40
3.554077882683476
 40
3.80946069448422
 40
3.80946069448422
 40
4.086485013603747
 40
4.086485013603747
 40
4.093064303627429
 40
4.093064303627429
 40
4.093064303627429
 40
4.093064303627429
 10
-1.981545664902068
 20
-29.84616617418181
 30
0.0
 10
-2.055095825487835
 20
-29.95470973024239
 30
0.0
 10
-2.107276447314204
 20
-30.07314808563948
 30
0.0
 10
-2.159843988207856
 20
-30.33018866439733
 30
0.0
 10
-2.154682823041924
 20
-30.46903841403275
 30
0.0
 10
-2.117038536649407
 20
-30.60414886845071
 30
0.0
 10
-2.116147943227579
 20
-30.60727956996057
 30
0.0
 10
-2.115240146078452
 20
-30.61040643628886
 30
0.0
  0
LINE
  5
1ADF5
330
1AD3E
100
AcDbEntity
  8
0
100
AcDbLine
 10
-1.832213226470211
 20
-30.36053502178476
 30
0.0
 11
-2.115240146078456
 21
-29.38566156489729
 31
0.0
  0
LINE
  5
1ADF6
330
1AD3E
100
AcDbEntity
  8
0
100
AcDbLine
 10
1.832213226470245
 20
-30.36053502178476
 30
0.0
 11
2.11524014607849
 21
-29.38566156489729
 31
0.0
  0
SPLINE
  5
1ADF7
330
1AD3E
100
AcDbEntity
  8
0
100
AcDbSpline
210
0.0
220
0.0
230
1.0
 70
     8
 71
     3
 72
    10
 73
     6
 74
     0
 42
0.000000001
 43
0.0000000001
 40
0.6193246767572606
 40
0.6193246767572606
 40
0.6193246767572606
 40
0.6193246767572606
 40
0.9009146851058861
 40
0.9009146851058861
 40
1.15831109770121
 40
1.15831109770121
 40
1.15831109770121
 40
1.15831109770121
 10
2.115240146078485
 20
-29.38566156489727
 30
0.0
 10
2.154093366696737
 20
-29.25183339919571
 30
0.0
 10
2.160420504812762
 20
-29.11063949268791
 30
0.0
 10
2.108094793918021
 20
-28.85028047902751
 30
0.0
 10
2.055675741813299
 20
-28.73082068540071
 30
0.0
 10
1.981545664902104
 20
-28.62142130279023
 30
0.0
  0
SPLINE
  5
1ADF8
330
1AD3E
100
AcDbEntity
  8
0
100
AcDbSpline
210
0.0
220
0.0
230
1.0
 70
     8
 71
     3
 72
    12
 73
     8
 74
     0
 42
0.000000001
 43
0.0000000001
 40
3.55407788268348
 40
3.55407788268348
 40
3.55407788268348
 40
3.55407788268348
 40
3.80946069448422
 40
3.80946069448422
 40
4.086485013603747
 40
4.086485013603747
 40
4.093064303627429
 40
4.093064303627429
 40
4.093064303627429
 40
4.093064303627429
 10
-1.981545664902071
 20
-28.62142130279023
 30
0.0
 10
-2.055095825487836
 20
-28.72996485885079
 30
0.0
 10
-2.107276447314205
 20
-28.8484032142479
 30
0.0
 10
-2.159843988207856
 20
-29.10544379300574
 30
0.0
 10
-2.154682823041924
 20
-29.24429354264116
 30
0.0
 10
-2.117038536649407
 20
-29.37940399705913
 30
0.0
 10
-2.116147943227579
 20
-29.38253469856899
 30
0.0
 10
-2.115240146078452
 20
-29.38566156489727
 30
0.0
  0
LINE
  5
1ADF9
330
1AD3E
100
AcDbEntity
  8
0
100
AcDbLine
 10
-1.832213226470216
 20
-29.13579015039319
 30
0.0
 11
-2.11524014607846
 21
-28.16091669350569
 31
0.0
  0
LINE
  5
1ADFA
330
1AD3E
100
AcDbEntity
  8
0
100
AcDbLine
 10
1.832213226470249
 20
-29.13579015039319
 30
0.0
 11
2.115240146078493
 21
-28.16091669350569
 31
0.0
  0
SPLINE
  5
1ADFB
330
1AD3E
100
AcDbEntity
  8
0
100
AcDbSpline
210
0.0
220
0.0
230
1.0
 70
     8
 71
     3
 72
    10
 73
     6
 74
     0
 42
0.000000001
 43
0.0000000001
 40
0.6193246767573257
 40
0.6193246767573257
 40
0.6193246767573257
 40
0.6193246767573257
 40
0.9009146851059444
 40
0.9009146851059444
 40
1.158311097701213
 40
1.158311097701213
 40
1.158311097701213
 40
1.158311097701213
 10
2.115240146078512
 20
-28.1609166935056
 30
0.0
 10
2.154093366696749
 20
-28.02708852780406
 30
0.0
 10
2.160420504812758
 20
-27.88589462129625
 30
0.0
 10
2.108094793917997
 20
-27.62553560763588
 30
0.0
 10
2.055675741813281
 20
-27.50607581400911
 30
0.0
 10
1.981545664902101
 20
-27.39667643139867
 30
0.0
  0
SPLINE
  5
1ADFC
330
1AD3E
100
AcDbEntity
  8
0
100
AcDbSpline
210
0.0
220
0.0
230
1.0
 70
     8
 71
     3
 72
    12
 73
     8
 74
     0
 42
0.000000001
 43
0.0000000001
 40
3.554077882683476
 40
3.554077882683476
 40
3.554077882683476
 40
3.554077882683476
 40
3.809460694484284
 40
3.809460694484284
 40
4.086485013603805
 40
4.086485013603805
 40
4.093064303627364
 40
4.093064303627364
 40
4.093064303627364
 40
4.093064303627364
 10
-1.981545664902068
 20
-27.39667643139867
 30
0.0
 10
-2.055095825487854
 20
-27.50521998745924
 30
0.0
 10
-2.107276447314231
 20
-27.62365834285638
 30
0.0
 10
-2.15984398820786
 20
-27.88069892161425
 30
0.0
 10
-2.154682823041914
 20
-28.01954867124967
 30
0.0
 10
-2.1170385366494
 20
-28.15465912566759
 30
0.0
 10
-2.116147943227589
 20
-28.15778982717738
 30
0.0
 10
-2.115240146078479
 20
-28.1609166935056
 30
0.0
  0
LINE
  5
1ADFD
330
1AD3E
100
AcDbEntity
  8
0
100
AcDbLine
 10
-1.832213226470216
 20
-27.91104527900159
 30
0.0
 11
-2.115240146078453
 21
-26.93617182211413
 31
0.0
  0
LINE
  5
1ADFE
330
1AD3E
100
AcDbEntity
  8
0
100
AcDbLine
 10
1.832213226470249
 20
-27.91104527900159
 30
0.0
 11
2.115240146078485
 21
-26.93617182211413
 31
0.0
  0
SPLINE
  5
1ADFF
330
1AD3E
100
AcDbEntity
  8
0
100
AcDbSpline
210
0.0
220
0.0
230
1.0
 70
     8
 71
     3
 72
    10
 73
     6
 74
     0
 42
0.000000001
 43
0.0000000001
 40
0.6193246767572606
 40
0.6193246767572606
 40
0.6193246767572606
 40
0.6193246767572606
 40
0.9009146851058861
 40
0.9009146851058861
 40
1.158311097701213
 40
1.158311097701213
 40
1.158311097701213
 40
1.158311097701213
 10
2.115240146078485
 20
-26.93617182211411
 30
0.0
 10
2.154093366696737
 20
-26.80234365641255
 30
0.0
 10
2.160420504812762
 20
-26.66114974990474
 30
0.0
 10
2.108094793918021
 20
-26.40079073624434
 30
0.0
 10
2.055675741813297
 20
-26.28133094261753
 30
0.0
 10
1.981545664902101
 20
-26.17193156000706
 30
0.0
  0
SPLINE
  5
1AE00
330
1AD3E
100
AcDbEntity
  8
0
100
AcDbSpline
210
0.0
220
0.0
230
1.0
 70
     8
 71
     3
 72
    12
 73
     8
 74
     0
 42
0.000000001
 43
0.0000000001
 40
3.554077882683476
 40
3.554077882683476
 40
3.554077882683476
 40
3.554077882683476
 40
3.80946069448422
 40
3.80946069448422
 40
4.086485013603747
 40
4.086485013603747
 40
4.093064303627429
 40
4.093064303627429
 40
4.093064303627429
 40
4.093064303627429
 10
-1.981545664902069
 20
-26.17193156000706
 30
0.0
 10
-2.055095825487835
 20
-26.28047511606762
 30
0.0
 10
-2.107276447314205
 20
-26.39891347146473
 30
0.0
 10
-2.159843988207857
 20
-26.65595405022256
 30
0.0
 10
-2.154682823041925
 20
-26.79480379985798
 30
0.0
 10
-2.117038536649408
 20
-26.92991425427596
 30
0.0
 10
-2.11614794322758
 20
-26.93304495578581
 30
0.0
 10
-2.115240146078452
 20
-26.93617182211411
 30
0.0
  0
LINE
  5
1AE01
330
1AD3E
100
AcDbEntity
  8
0
100
AcDbLine
 10
-1.832213226470212
 20
-26.68630040761001
 30
0.0
 11
-2.115240146078457
 21
-25.71142695072254
 31
0.0
  0
LINE
  5
1AE02
330
1AD3E
100
AcDbEntity
  8
0
100
AcDbLine
 10
1.832213226470244
 20
-26.68630040761001
 30
0.0
 11
2.115240146078489
 21
-25.71142695072254
 31
0.0
  0
SPLINE
  5
1AE03
330
1AD3E
100
AcDbEntity
  8
0
100
AcDbSpline
210
0.0
220
0.0
230
1.0
 70
     8
 71
     3
 72
    10
 73
     6
 74
     0
 42
0.000000001
 43
0.0000000001
 40
0.6193246767572605
 40
0.6193246767572605
 40
0.6193246767572605
 40
0.6193246767572605
 40
0.900914685105886
 40
0.900914685105886
 40
1.158311097701213
 40
1.158311097701213
 40
1.158311097701213
 40
1.158311097701213
 10
2.115240146078484
 20
-25.71142695072251
 30
0.0
 10
2.154093366696737
 20
-25.57759878502096
 30
0.0
 10
2.160420504812761
 20
-25.43640487851316
 30
0.0
 10
2.108094793918021
 20
-25.17604586485276
 30
0.0
 10
2.055675741813297
 20
-25.05658607122594
 30
0.0
 10
1.9815456649021
 20
-24.94718668861548
 30
0.0
  0
SPLINE
  5
1AE04
330
1AD3E
100
AcDbEntity
  8
0
100
AcDbSpline
210
0.0
220
0.0
230
1.0
 70
     8
 71
     3
 72
    12
 73
     8
 74
     0
 42
0.000000001
 43
0.0000000001
 40
3.554077882683476
 40
3.554077882683476
 40
3.554077882683476
 40
3.554077882683476
 40
3.80946069448422
 40
3.80946069448422
 40
4.086485013603747
 40
4.086485013603747
 40
4.093064303627429
 40
4.093064303627429
 40
4.093064303627429
 40
4.093064303627429
 10
-1.981545664902069
 20
-24.94718668861548
 30
0.0
 10
-2.055095825487836
 20
-25.05573024467604
 30
0.0
 10
-2.107276447314205
 20
-25.17416860007313
 30
0.0
 10
-2.159843988207858
 20
-25.43120917883098
 30
0.0
 10
-2.154682823041925
 20
-25.5700589284664
 30
0.0
 10
-2.117038536649408
 20
-25.70516938288436
 30
0.0
 10
-2.11614794322758
 20
-25.70830008439422
 30
0.0
 10
-2.115240146078453
 20
-25.71142695072251
 30
0.0
  0
LINE
  5
1AE05
330
1AD3E
100
AcDbEntity
  8
0
100
AcDbLine
 10
-1.832213226470208
 20
-25.46155553621844
 30
0.0
 11
-2.115240146078453
 21
-24.48668207933096
 31
0.0
  0
LINE
  5
1AE06
330
1AD3E
100
AcDbEntity
  8
0
100
AcDbLine
 10
1.83221322647024
 20
-25.46155553621845
 30
0.0
 11
2.115240146078485
 21
-24.48668207933096
 31
0.0
  0
SPLINE
  5
1AE07
330
1AD3E
100
AcDbEntity
  8
0
100
AcDbSpline
210
0.0
220
0.0
230
1.0
 70
     8
 71
     3
 72
    10
 73
     6
 74
     0
 42
0.000000001
 43
0.0000000001
 40
0.6193246767572606
 40
0.6193246767572606
 40
0.6193246767572606
 40
0.6193246767572606
 40
0.9009146851058861
 40
0.9009146851058861
 40
1.158311097701213
 40
1.158311097701213
 40
1.158311097701213
 40
1.158311097701213
 10
2.115240146078484
 20
-24.48668207933092
 30
0.0
 10
2.154093366696736
 20
-24.35285391362936
 30
0.0
 10
2.160420504812761
 20
-24.21166000712156
 30
0.0
 10
2.10809479391802
 20
-23.95130099346116
 30
0.0
 10
2.055675741813296
 20
-23.83184119983436
 30
0.0
 10
1.9815456649021
 20
-23.72244181722388
 30
0.0
  0
SPLINE
  5
1AE08
330
1AD3E
100
AcDbEntity
  8
0
100
AcDbSpline
210
0.0
220
0.0
230
1.0
 70
     8
 71
     3
 72
    12
 73
     8
 74
     0
 42
0.000000001
 43
0.0000000001
 40
3.554077882683476
 40
3.554077882683476
 40
3.554077882683476
 40
3.554077882683476
 40
3.80946069448422
 40
3.80946069448422
 40
4.086485013603747
 40
4.086485013603747
 40
4.093064303627429
 40
4.093064303627429
 40
4.093064303627429
 40
4.093064303627429
 10
-1.981545664902069
 20
-23.72244181722388
 30
0.0
 10
-2.055095825487836
 20
-23.83098537328444
 30
0.0
 10
-2.107276447314205
 20
-23.94942372868154
 30
0.0
 10
-2.159843988207858
 20
-24.20646430743939
 30
0.0
 10
-2.154682823041925
 20
-24.34531405707481
 30
0.0
 10
-2.117038536649408
 20
-24.48042451149278
 30
0.0
 10
-2.11614794322758
 20
-24.48355521300264
 30
0.0
 10
-2.115240146078453
 20
-24.48668207933092
 30
0.0
  0
LINE
  5
1AE09
330
1AD3E
100
AcDbEntity
  8
0
100
AcDbLine
 10
-1.832213226470212
 20
-24.23681066482683
 30
0.0
 11
-2.115240146078458
 21
-23.26193720793934
 31
0.0
  0
LINE
  5
1AE0A
330
1AD3E
100
AcDbEntity
  8
0
100
AcDbLine
 10
1.832213226470243
 20
-24.23681066482683
 30
0.0
 11
2.115240146078489
 21
-23.26193720793934
 31
0.0
  0
SPLINE
  5
1AE0B
330
1AD3E
100
AcDbEntity
  8
0
100
AcDbSpline
210
0.0
220
0.0
230
1.0
 70
     8
 71
     3
 72
    10
 73
     6
 74
     0
 42
0.000000001
 43
0.0000000001
 40
0.6193246767572606
 40
0.6193246767572606
 40
0.6193246767572606
 40
0.6193246767572606
 40
0.9009146851058861
 40
0.9009146851058861
 40
1.158311097701213
 40
1.158311097701213
 40
1.158311097701213
 40
1.158311097701213
 10
2.115240146078484
 20
-23.26193720793932
 30
0.0
 10
2.154093366696736
 20
-23.12810904223778
 30
0.0
 10
2.160420504812761
 20
-22.98691513572997
 30
0.0
 10
2.10809479391802
 20
-22.72655612206957
 30
0.0
 10
2.055675741813296
 20
-22.60709632844276
 30
0.0
 10
1.9815456649021
 20
-22.4976969458323
 30
0.0
  0
SPLINE
  5
1AE0C
330
1AD3E
100
AcDbEntity
  8
0
100
AcDbSpline
210
0.0
220
0.0
230
1.0
 70
     8
 71
     3
 72
    12
 73
     8
 74
     0
 42
0.000000001
 43
0.0000000001
 40
3.554077882683476
 40
3.554077882683476
 40
3.554077882683476
 40
3.554077882683476
 40
3.80946069448422
 40
3.80946069448422
 40
4.086485013603747
 40
4.086485013603747
 40
4.093064303627429
 40
4.093064303627429
 40
4.093064303627429
 40
4.093064303627429
 10
-1.981545664902069
 20
-22.4976969458323
 30
0.0
 10
-2.055095825487836
 20
-22.60624050189285
 30
0.0
 10
-2.107276447314206
 20
-22.72467885728996
 30
0.0
 10
-2.159843988207858
 20
-22.98171943604779
 30
0.0
 10
-2.154682823041925
 20
-23.12056918568321
 30
0.0
 10
-2.117038536649408
 20
-23.25567964010119
 30
0.0
 10
-2.116147943227581
 20
-23.25881034161104
 30
0.0
 10
-2.115240146078453
 20
-23.26193720793932
 30
0.0
  0
LINE
  5
1AE0D
330
1AD3E
100
AcDbEntity
  8
0
100
AcDbLine
 10
-1.832213226470209
 20
-23.01206579343526
 30
0.0
 11
-2.115240146078454
 21
-22.03719233654776
 31
0.0
  0
LINE
  5
1AE0E
330
1AD3E
100
AcDbEntity
  8
0
100
AcDbLine
 10
1.83221322647024
 20
-23.01206579343526
 30
0.0
 11
2.115240146078484
 21
-22.03719233654776
 31
0.0
  0
SPLINE
  5
1AE0F
330
1AD3E
100
AcDbEntity
  8
0
100
AcDbSpline
210
0.0
220
0.0
230
1.0
 70
     8
 71
     3
 72
    10
 73
     6
 74
     0
 42
0.000000001
 43
0.0000000001
 40
0.6193246767572605
 40
0.6193246767572605
 40
0.6193246767572605
 40
0.6193246767572605
 40
0.900914685105886
 40
0.900914685105886
 40
1.158311097701213
 40
1.158311097701213
 40
1.158311097701213
 40
1.158311097701213
 10
2.115240146078484
 20
-22.03719233654773
 30
0.0
 10
2.154093366696736
 20
-21.9033641708462
 30
0.0
 10
2.160420504812761
 20
-21.76217026433838
 30
0.0
 10
2.10809479391802
 20
-21.50181125067798
 30
0.0
 10
2.055675741813296
 20
-21.38235145705117
 30
0.0
 10
1.9815456649021
 20
-21.27295207444071
 30
0.0
  0
SPLINE
  5
1AE10
330
1AD3E
100
AcDbEntity
  8
0
100
AcDbSpline
210
0.0
220
0.0
230
1.0
 70
     8
 71
     3
 72
    12
 73
     8
 74
     0
 42
0.000000001
 43
0.0000000001
 40
3.554077882683476
 40
3.554077882683476
 40
3.554077882683476
 40
3.554077882683476
 40
3.80946069448422
 40
3.80946069448422
 40
4.086485013603747
 40
4.086485013603747
 40
4.093064303627429
 40
4.093064303627429
 40
4.093064303627429
 40
4.093064303627429
 10
-1.981545664902069
 20
-21.27295207444068
 30
0.0
 10
-2.055095825487836
 20
-21.38149563050125
 30
0.0
 10
-2.107276447314206
 20
-21.49993398589836
 30
0.0
 10
-2.159843988207858
 20
-21.7569745646562
 30
0.0
 10
-2.154682823041926
 20
-21.89582431429162
 30
0.0
 10
-2.117038536649408
 20
-22.03093476870959
 30
0.0
 10
-2.116147943227581
 20
-22.03406547021945
 30
0.0
 10
-2.115240146078453
 20
-22.03719233654773
 30
0.0
  0
LINE
  5
1AE11
330
1AD3E
100
AcDbEntity
  8
0
100
AcDbLine
 10
-1.832213226470212
 20
-21.78732092204364
 30
0.0
 11
-2.115240146078454
 21
-20.81244746515616
 31
0.0
  0
LINE
  5
1AE12
330
1AD3E
100
AcDbEntity
  8
0
100
AcDbLine
 10
1.832213226470243
 20
-21.78732092204364
 30
0.0
 11
2.115240146078484
 21
-20.81244746515616
 31
0.0
  0
SPLINE
  5
1AE13
330
1AD3E
100
AcDbEntity
  8
0
100
AcDbSpline
210
0.0
220
0.0
230
1.0
 70
     8
 71
     3
 72
    10
 73
     6
 74
     0
 42
0.000000001
 43
0.0000000001
 40
0.6193246767571952
 40
0.6193246767571952
 40
0.6193246767571952
 40
0.6193246767571952
 40
0.9009146851058279
 40
0.9009146851058279
 40
1.15831109770121
 40
1.15831109770121
 40
1.15831109770121
 40
1.15831109770121
 10
2.115240146078456
 20
-20.81244746515623
 30
0.0
 10
2.154093366696724
 20
-20.6786192994547
 30
0.0
 10
2.160420504812765
 20
-20.53742539294687
 30
0.0
 10
2.108094793918044
 20
-20.27706637928643
 30
0.0
 10
2.055675741813314
 20
-20.1576065856596
 30
0.0
 10
1.981545664902102
 20
-20.04820720304913
 30
0.0
  0
SPLINE
  5
1AE14
330
1AD3E
100
AcDbEntity
  8
0
100
AcDbSpline
210
0.0
220
0.0
230
1.0
 70
     8
 71
     3
 72
    12
 73
     8
 74
     0
 42
0.000000001
 43
0.0000000001
 40
3.55407788268348
 40
3.55407788268348
 40
3.55407788268348
 40
3.55407788268348
 40
3.809460694484157
 40
3.809460694484157
 40
4.086485013603688
 40
4.086485013603688
 40
4.093064303627494
 40
4.093064303627494
 40
4.093064303627494
 40
4.093064303627494
 10
-1.981545664902073
 20
-20.04820720304913
 30
0.0
 10
-2.05509582548782
 20
-20.15675075910964
 30
0.0
 10
-2.107276447314181
 20
-20.27518911450673
 30
0.0
 10
-2.159843988207854
 20
-20.53222969326452
 30
0.0
 10
-2.154682823041937
 20
-20.67107944289994
 30
0.0
 10
-2.117038536649416
 20
-20.80618989731798
 30
0.0
 10
-2.116147943227571
 20
-20.8093205988279
 30
0.0
 10
-2.115240146078426
 20
-20.81244746515623
 30
0.0
  0
LINE
  5
1AE15
330
1AD3E
100
AcDbEntity
  8
0
100
AcDbLine
 10
-1.832213226470213
 20
-20.56257605065206
 30
0.0
 11
-2.115240146078458
 21
-19.58770259376458
 31
0.0
  0
LINE
  5
1AE16
330
1AD3E
100
AcDbEntity
  8
0
100
AcDbLine
 10
1.832213226470243
 20
-20.56257605065206
 30
0.0
 11
2.115240146078488
 21
-19.58770259376457
 31
0.0
  0
SPLINE
  5
1AE17
330
1AD3E
100
AcDbEntity
  8
0
100
AcDbSpline
210
0.0
220
0.0
230
1.0
 70
     8
 71
     3
 72
    10
 73
     6
 74
     0
 42
0.000000001
 43
0.0000000001
 40
0.6193246767572605
 40
0.6193246767572605
 40
0.6193246767572605
 40
0.6193246767572605
 40
0.900914685105886
 40
0.900914685105886
 40
1.158311097701213
 40
1.158311097701213
 40
1.158311097701213
 40
1.158311097701213
 10
2.115240146078483
 20
-19.58770259376457
 30
0.0
 10
2.154093366696735
 20
-19.45387442806302
 30
0.0
 10
2.16042050481276
 20
-19.3126805215552
 30
0.0
 10
2.10809479391802
 20
-19.0523215078948
 30
0.0
 10
2.055675741813296
 20
-18.93286171426801
 30
0.0
 10
1.981545664902099
 20
-18.82346233165754
 30
0.0
  0
SPLINE
  5
1AE18
330
1AD3E
100
AcDbEntity
  8
0
100
AcDbSpline
210
0.0
220
0.0
230
1.0
 70
     8
 71
     3
 72
    12
 73
     8
 74
     0
 42
0.000000001
 43
0.0000000001
 40
3.554077882683476
 40
3.554077882683476
 40
3.554077882683476
 40
3.554077882683476
 40
3.80946069448422
 40
3.80946069448422
 40
4.086485013603747
 40
4.086485013603747
 40
4.093064303627429
 40
4.093064303627429
 40
4.093064303627429
 40
4.093064303627429
 10
-1.98154566490207
 20
-18.82346233165754
 30
0.0
 10
-2.055095825487837
 20
-18.93200588771808
 30
0.0
 10
-2.107276447314206
 20
-19.05044424311519
 30
0.0
 10
-2.159843988207859
 20
-19.30748482187304
 30
0.0
 10
-2.154682823041926
 20
-19.44633457150846
 30
0.0
 10
-2.117038536649409
 20
-19.58144502592642
 30
0.0
 10
-2.116147943227581
 20
-19.58457572743627
 30
0.0
 10
-2.115240146078454
 20
-19.58770259376457
 30
0.0
  0
LINE
  5
1AE19
330
1AD3E
100
AcDbEntity
  8
0
100
AcDbLine
 10
-1.832213226470209
 20
-19.33783117926048
 30
0.0
 11
-2.115240146078455
 21
-18.36295772237299
 31
0.0
  0
LINE
  5
1AE1A
330
1AD3E
100
AcDbEntity
  8
0
100
AcDbLine
 10
1.832213226470239
 20
-19.33783117926048
 30
0.0
 11
2.115240146078484
 21
-18.36295772237299
 31
0.0
  0
SPLINE
  5
1AE1B
330
1AD3E
100
AcDbEntity
  8
0
100
AcDbSpline
210
0.0
220
0.0
230
1.0
 70
     8
 71
     3
 72
    10
 73
     6
 74
     0
 42
0.000000001
 43
0.0000000001
 40
0.6193246767572606
 40
0.6193246767572606
 40
0.6193246767572606
 40
0.6193246767572606
 40
0.9009146851058861
 40
0.9009146851058861
 40
1.158311097701213
 40
1.158311097701213
 40
1.158311097701213
 40
1.158311097701213
 10
2.115240146078483
 20
-18.36295772237298
 30
0.0
 10
2.154093366696735
 20
-18.22912955667143
 30
0.0
 10
2.16042050481276
 20
-18.08793565016361
 30
0.0
 10
2.108094793918019
 20
-17.82757663650321
 30
0.0
 10
2.055675741813296
 20
-17.70811684287641
 30
0.0
 10
1.981545664902099
 20
-17.59871746026593
 30
0.0
  0
SPLINE
  5
1AE1C
330
1AD3E
100
AcDbEntity
  8
0
100
AcDbSpline
210
0.0
220
0.0
230
1.0
 70
     8
 71
     3
 72
    12
 73
     8
 74
     0
 42
0.000000001
 43
0.0000000001
 40
3.554077882683476
 40
3.554077882683476
 40
3.554077882683476
 40
3.554077882683476
 40
3.80946069448422
 40
3.80946069448422
 40
4.086485013603747
 40
4.086485013603747
 40
4.093064303627429
 40
4.093064303627429
 40
4.093064303627429
 40
4.093064303627429
 10
-1.98154566490207
 20
-17.59871746026594
 30
0.0
 10
-2.055095825487837
 20
-17.70726101632648
 30
0.0
 10
-2.107276447314206
 20
-17.82569937172359
 30
0.0
 10
-2.159843988207859
 20
-18.08273995048144
 30
0.0
 10
-2.154682823041926
 20
-18.22158970011686
 30
0.0
 10
-2.117038536649409
 20
-18.35670015453483
 30
0.0
 10
-2.116147943227581
 20
-18.35983085604469
 30
0.0
 10
-2.115240146078454
 20
-18.36295772237298
 30
0.0
  0
LINE
  5
1AE1D
330
1AD3E
100
AcDbEntity
  8
0
100
AcDbLine
 10
-1.832213226470214
 20
-18.11308630786888
 30
0.0
 11
-2.115240146078459
 21
-17.1382128509814
 31
0.0
  0
LINE
  5
1AE1E
330
1AD3E
100
AcDbEntity
  8
0
100
AcDbLine
 10
1.832213226470242
 20
-18.11308630786888
 30
0.0
 11
2.115240146078487
 21
-17.1382128509814
 31
0.0
  0
SPLINE
  5
1AE1F
330
1AD3E
100
AcDbEntity
  8
0
100
AcDbSpline
210
0.0
220
0.0
230
1.0
 70
     8
 71
     3
 72
    10
 73
     6
 74
     0
 42
0.000000001
 43
0.0000000001
 40
0.6193246767572606
 40
0.6193246767572606
 40
0.6193246767572606
 40
0.6193246767572606
 40
0.9009146851058861
 40
0.9009146851058861
 40
1.158311097701213
 40
1.158311097701213
 40
1.158311097701213
 40
1.158311097701213
 10
2.115240146078483
 20
-17.13821285098138
 30
0.0
 10
2.154093366696735
 20
-17.00438468527984
 30
0.0
 10
2.16042050481276
 20
-16.86319077877202
 30
0.0
 10
2.108094793918019
 20
-16.60283176511162
 30
0.0
 10
2.055675741813295
 20
-16.48337197148482
 30
0.0
 10
1.981545664902099
 20
-16.37397258887436
 30
0.0
  0
SPLINE
  5
1AE20
330
1AD3E
100
AcDbEntity
  8
0
100
AcDbSpline
210
0.0
220
0.0
230
1.0
 70
     8
 71
     3
 72
    12
 73
     8
 74
     0
 42
0.000000001
 43
0.0000000001
 40
3.554077882683476
 40
3.554077882683476
 40
3.554077882683476
 40
3.554077882683476
 40
3.80946069448422
 40
3.80946069448422
 40
4.086485013603747
 40
4.086485013603747
 40
4.093064303627429
 40
4.093064303627429
 40
4.093064303627429
 40
4.093064303627429
 10
-1.98154566490207
 20
-16.37397258887436
 30
0.0
 10
-2.055095825487837
 20
-16.4825161449349
 30
0.0
 10
-2.107276447314207
 20
-16.60095450033201
 30
0.0
 10
-2.159843988207859
 20
-16.85799507908985
 30
0.0
 10
-2.154682823041927
 20
-16.99684482872527
 30
0.0
 10
-2.117038536649409
 20
-17.13195528314323
 30
0.0
 10
-2.116147943227582
 20
-17.13508598465309
 30
0.0
 10
-2.115240146078454
 20
-17.13821285098138
 30
0.0
  0
LINE
  5
1AE21
330
1AD3E
100
AcDbEntity
  8
0
100
AcDbLine
 10
-1.83221322647021
 20
-16.8883414364773
 30
0.0
 11
-2.115240146078455
 21
-15.91346797958981
 31
0.0
  0
LINE
  5
1AE22
330
1AD3E
100
AcDbEntity
  8
0
100
AcDbLine
 10
1.832213226470238
 20
-16.8883414364773
 30
0.0
 11
2.115240146078483
 21
-15.91346797958981
 31
0.0
  0
SPLINE
  5
1AE23
330
1AD3E
100
AcDbEntity
  8
0
100
AcDbSpline
210
0.0
220
0.0
230
1.0
 70
     8
 71
     3
 72
    10
 73
     6
 74
     0
 42
0.000000001
 43
0.0000000001
 40
0.6193246767572605
 40
0.6193246767572605
 40
0.6193246767572605
 40
0.6193246767572605
 40
0.900914685105886
 40
0.900914685105886
 40
1.158311097701213
 40
1.158311097701213
 40
1.158311097701213
 40
1.158311097701213
 10
2.115240146078483
 20
-15.91346797958979
 30
0.0
 10
2.154093366696734
 20
-15.77963981388825
 30
0.0
 10
2.160420504812759
 20
-15.63844590738043
 30
0.0
 10
2.108094793918019
 20
-15.37808689372003
 30
0.0
 10
2.055675741813295
 20
-15.25862710009323
 30
0.0
 10
1.981545664902099
 20
-15.14922771748276
 30
0.0
  0
SPLINE
  5
1AE24
330
1AD3E
100
AcDbEntity
  8
0
100
AcDbSpline
210
0.0
220
0.0
230
1.0
 70
     8
 71
     3
 72
    12
 73
     8
 74
     0
 42
0.000000001
 43
0.0000000001
 40
3.554077882683476
 40
3.554077882683476
 40
3.554077882683476
 40
3.554077882683476
 40
3.80946069448422
 40
3.80946069448422
 40
4.086485013603747
 40
4.086485013603747
 40
4.093064303627429
 40
4.093064303627429
 40
4.093064303627429
 40
4.093064303627429
 10
-1.98154566490207
 20
-15.14922771748276
 30
0.0
 10
-2.055095825487838
 20
-15.2577712735433
 30
0.0
 10
-2.107276447314207
 20
-15.37620962894041
 30
0.0
 10
-2.159843988207859
 20
-15.63325020769825
 30
0.0
 10
-2.154682823041927
 20
-15.77209995733367
 30
0.0
 10
-2.11703853664941
 20
-15.90721041175165
 30
0.0
 10
-2.116147943227582
 20
-15.9103411132615
 30
0.0
 10
-2.115240146078454
 20
-15.91346797958979
 30
0.0
  0
LINE
  5
1AE25
330
1AD3E
100
AcDbEntity
  8
0
100
AcDbLine
 10
-1.832213226470214
 20
-15.66359656508569
 30
0.0
 11
-2.115240146078459
 21
-14.68872310819821
 31
0.0
  0
LINE
  5
1AE26
330
1AD3E
100
AcDbEntity
  8
0
100
AcDbLine
 10
1.832213226470242
 20
-15.66359656508569
 30
0.0
 11
2.115240146078487
 21
-14.68872310819821
 31
0.0
  0
SPLINE
  5
1AE27
330
1AD3E
100
AcDbEntity
  8
0
100
AcDbSpline
210
0.0
220
0.0
230
1.0
 70
     8
 71
     3
 72
    10
 73
     6
 74
     0
 42
0.000000001
 43
0.0000000001
 40
0.6193246767572606
 40
0.6193246767572606
 40
0.6193246767572606
 40
0.6193246767572606
 40
0.9009146851058861
 40
0.9009146851058861
 40
1.15831109770121
 40
1.15831109770121
 40
1.15831109770121
 40
1.15831109770121
 10
2.115240146078482
 20
-14.6887231081982
 30
0.0
 10
2.154093366696734
 20
-14.55489494249666
 30
0.0
 10
2.160420504812759
 20
-14.41370103598884
 30
0.0
 10
2.108094793918019
 20
-14.15334202232844
 30
0.0
 10
2.055675741813296
 20
-14.03388222870163
 30
0.0
 10
1.981545664902101
 20
-13.92448284609117
 30
0.0
  0
SPLINE
  5
1AE28
330
1AD3E
100
AcDbEntity
  8
0
100
AcDbSpline
210
0.0
220
0.0
230
1.0
 70
     8
 71
     3
 72
    12
 73
     8
 74
     0
 42
0.000000001
 43
0.0000000001
 40
3.55407788268348
 40
3.55407788268348
 40
3.55407788268348
 40
3.55407788268348
 40
3.80946069448422
 40
3.80946069448422
 40
4.086485013603747
 40
4.086485013603747
 40
4.093064303627429
 40
4.093064303627429
 40
4.093064303627429
 40
4.093064303627429
 10
-1.981545664902074
 20
-13.92448284609117
 30
0.0
 10
-2.055095825487839
 20
-14.03302640215172
 30
0.0
 10
-2.107276447314208
 20
-14.15146475754883
 30
0.0
 10
-2.159843988207859
 20
-14.40850533630667
 30
0.0
 10
-2.154682823041927
 20
-14.54735508594209
 30
0.0
 10
-2.11703853664941
 20
-14.68246554036005
 30
0.0
 10
-2.116147943227582
 20
-14.68559624186991
 30
0.0
 10
-2.115240146078455
 20
-14.6887231081982
 30
0.0
  0
LINE
  5
1AE29
330
1AD3E
100
AcDbEntity
  8
0
100
AcDbLine
 10
-1.832213226470218
 20
-14.4388516936941
 30
0.0
 11
-2.115240146078459
 21
-13.46397823680663
 31
0.0
  0
LINE
  5
1AE2A
330
1AD3E
100
AcDbEntity
  8
0
100
AcDbLine
 10
1.832213226470246
 20
-14.4388516936941
 30
0.0
 11
2.115240146078487
 21
-13.46397823680663
 31
0.0
  0
SPLINE
  5
1AE2B
330
1AD3E
100
AcDbEntity
  8
0
100
AcDbSpline
210
0.0
220
0.0
230
1.0
 70
     8
 71
     3
 72
    10
 73
     6
 74
     0
 42
0.000000001
 43
0.0000000001
 40
0.6193246767572605
 40
0.6193246767572605
 40
0.6193246767572605
 40
0.6193246767572605
 40
0.900914685105886
 40
0.900914685105886
 40
1.158311097701213
 40
1.158311097701213
 40
1.158311097701213
 40
1.158311097701213
 10
2.115240146078482
 20
-13.46397823680662
 30
0.0
 10
2.154093366696734
 20
-13.33015007110508
 30
0.0
 10
2.160420504812759
 20
-13.18895616459726
 30
0.0
 10
2.108094793918018
 20
-12.92859715093686
 30
0.0
 10
2.055675741813294
 20
-12.80913735731006
 30
0.0
 10
1.981545664902098
 20
-12.69973797469959
 30
0.0
  0
SPLINE
  5
1AE2C
330
1AD3E
100
AcDbEntity
  8
0
100
AcDbSpline
210
0.0
220
0.0
230
1.0
 70
     8
 71
     3
 72
    12
 73
     8
 74
     0
 42
0.000000001
 43
0.0000000001
 40
3.554077882683476
 40
3.554077882683476
 40
3.554077882683476
 40
3.554077882683476
 40
3.80946069448422
 40
3.80946069448422
 40
4.086485013603747
 40
4.086485013603747
 40
4.093064303627429
 40
4.093064303627429
 40
4.093064303627429
 40
4.093064303627429
 10
-1.981545664902071
 20
-12.69973797469958
 30
0.0
 10
-2.055095825487839
 20
-12.80828153076014
 30
0.0
 10
-2.107276447314208
 20
-12.92671988615725
 30
0.0
 10
-2.159843988207859
 20
-13.18376046491509
 30
0.0
 10
-2.154682823041928
 20
-13.32261021455051
 30
0.0
 10
-2.117038536649411
 20
-13.45772066896847
 30
0.0
 10
-2.116147943227582
 20
-13.46085137047834
 30
0.0
 10
-2.115240146078455
 20
-13.46397823680662
 30
0.0
  0
LINE
  5
1AE2D
330
1AD3E
100
AcDbEntity
  8
0
100
AcDbLine
 10
-1.83221322647021
 20
-13.21410682230254
 30
0.0
 11
-2.115240146078456
 21
-12.23923336541506
 31
0.0
  0
LINE
  5
1AE2E
330
1AD3E
100
AcDbEntity
  8
0
100
AcDbLine
 10
1.832213226470238
 20
-13.21410682230254
 30
0.0
 11
2.115240146078483
 21
-12.23923336541506
 31
0.0
  0
SPLINE
  5
1AE2F
330
1AD3E
100
AcDbEntity
  8
0
100
AcDbSpline
210
0.0
220
0.0
230
1.0
 70
     8
 71
     3
 72
    10
 73
     6
 74
     0
 42
0.000000001
 43
0.0000000001
 40
0.6193246767572606
 40
0.6193246767572606
 40
0.6193246767572606
 40
0.6193246767572606
 40
0.9009146851058861
 40
0.9009146851058861
 40
1.158311097701213
 40
1.158311097701213
 40
1.158311097701213
 40
1.158311097701213
 10
2.115240146078482
 20
-12.23923336541503
 30
0.0
 10
2.154093366696734
 20
-12.10540519971348
 30
0.0
 10
2.160420504812759
 20
-11.96421129320566
 30
0.0
 10
2.108094793918018
 20
-11.70385227954527
 30
0.0
 10
2.055675741813294
 20
-11.58439248591847
 30
0.0
 10
1.981545664902098
 20
-11.47499310330801
 30
0.0
  0
SPLINE
  5
1AE30
330
1AD3E
100
AcDbEntity
  8
0
100
AcDbSpline
210
0.0
220
0.0
230
1.0
 70
     8
 71
     3
 72
    12
 73
     8
 74
     0
 42
0.000000001
 43
0.0000000001
 40
3.554077882683476
 40
3.554077882683476
 40
3.554077882683476
 40
3.554077882683476
 40
3.80946069448422
 40
3.80946069448422
 40
4.086485013603747
 40
4.086485013603747
 40
4.093064303627429
 40
4.093064303627429
 40
4.093064303627429
 40
4.093064303627429
 10
-1.981545664902071
 20
-11.47499310330799
 30
0.0
 10
-2.055095825487838
 20
-11.58353665936855
 30
0.0
 10
-2.107276447314208
 20
-11.70197501476567
 30
0.0
 10
-2.159843988207859
 20
-11.95901559352349
 30
0.0
 10
-2.154682823041928
 20
-12.09786534315892
 30
0.0
 10
-2.117038536649411
 20
-12.23297579757688
 30
0.0
 10
-2.116147943227582
 20
-12.23610649908674
 30
0.0
 10
-2.115240146078456
 20
-12.23923336541503
 30
0.0
  0
LINE
  5
1AE31
330
1AD3E
100
AcDbEntity
  8
0
100
AcDbLine
 10
-1.832213226470215
 20
-11.98936195091094
 30
0.0
 11
-2.11524014607846
 21
-11.01448849402346
 31
0.0
  0
LINE
  5
1AE32
330
1AD3E
100
AcDbEntity
  8
0
100
AcDbLine
 10
1.832213226470241
 20
-11.98936195091094
 30
0.0
 11
2.115240146078487
 21
-11.01448849402346
 31
0.0
  0
SPLINE
  5
1AE33
330
1AD3E
100
AcDbEntity
  8
0
100
AcDbSpline
210
0.0
220
0.0
230
1.0
 70
     8
 71
     3
 72
    10
 73
     6
 74
     0
 42
0.000000001
 43
0.0000000001
 40
0.6193246767572606
 40
0.6193246767572606
 40
0.6193246767572606
 40
0.6193246767572606
 40
0.9009146851058861
 40
0.9009146851058861
 40
1.158311097701213
 40
1.158311097701213
 40
1.158311097701213
 40
1.158311097701213
 10
2.115240146078481
 20
-11.01448849402344
 30
0.0
 10
2.154093366696733
 20
-10.8806603283219
 30
0.0
 10
2.160420504812759
 20
-10.73946642181408
 30
0.0
 10
2.108094793918018
 20
-10.47910740815368
 30
0.0
 10
2.055675741813294
 20
-10.35964761452688
 30
0.0
 10
1.981545664902098
 20
-10.25024823191641
 30
0.0
  0
SPLINE
  5
1AE34
330
1AD3E
100
AcDbEntity
  8
0
100
AcDbSpline
210
0.0
220
0.0
230
1.0
 70
     8
 71
     3
 72
    12
 73
     8
 74
     0
 42
0.000000001
 43
0.0000000001
 40
3.554077882683476
 40
3.554077882683476
 40
3.554077882683476
 40
3.554077882683476
 40
3.80946069448422
 40
3.80946069448422
 40
4.086485013603747
 40
4.086485013603747
 40
4.093064303627429
 40
4.093064303627429
 40
4.093064303627429
 40
4.093064303627429
 10
-1.981545664902071
 20
-10.25024823191641
 30
0.0
 10
-2.055095825487839
 20
-10.35879178797696
 30
0.0
 10
-2.107276447314208
 20
-10.47723014337407
 30
0.0
 10
-2.15984398820786
 20
-10.7342707221319
 30
0.0
 10
-2.154682823041928
 20
-10.87312047176732
 30
0.0
 10
-2.117038536649411
 20
-11.00823092618529
 30
0.0
 10
-2.116147943227582
 20
-11.01136162769515
 30
0.0
 10
-2.115240146078456
 20
-11.01448849402344
 30
0.0
  0
ELLIPSE
  5
1AE35
330
1AD3E
100
AcDbEntity
  8
0
100
AcDbEllipse
 10
0.0000000000000129
 20
-9.585043584027985
 30
0.0
 11
-2.144748748220956
 21
0.0000000000000003
 31
0.0
210
0.0
220
0.0
230
1.0
 40
0.5773502691896259
 41
0.1660734866401881
 42
2.975519166949604
  0
LINE
  5
1AE36
330
1AD3E
100
AcDbEntity
  8
0
100
AcDbLine
 10
-1.832213226470211
 20
-10.76461707951936
 30
0.0
 11
-2.115240146078456
 21
-9.789743622631883
 31
0.0
  0
LINE
  5
1AE37
330
1AD3E
100
AcDbEntity
  8
0
100
AcDbLine
 10
1.832213226470237
 20
-10.76461707951936
 30
0.0
 11
2.115240146078482
 21
-9.789743622631883
 31
0.0
  0
SPLINE
  5
1AE38
330
1AD3E
100
AcDbEntity
  8
0
100
AcDbSpline
210
0.0
220
0.0
230
1.0
 70
     8
 71
     3
 72
    10
 73
     6
 74
     0
 42
0.000000001
 43
0.0000000001
 40
0.6193246767572605
 40
0.6193246767572605
 40
0.6193246767572605
 40
0.6193246767572605
 40
0.900914685105886
 40
0.900914685105886
 40
1.136402995789111
 40
1.136402995789111
 40
1.136402995789111
 40
1.136402995789111
 10
2.115240146078481
 20
-9.789743622631847
 30
0.0
 10
2.154093366696733
 20
-9.655915456930301
 30
0.0
 10
2.160420504812758
 20
-9.514721550422482
 30
0.0
 10
2.110221669405711
 20
-9.264945311361518
 30
0.0
 10
2.0644094527762
 20
-9.155200239833245
 30
0.0
 10
2.000000000000011
 20
-9.05364343543316
 30
0.0
  0
SPLINE
  5
1AE39
330
1AD3E
100
AcDbEntity
  8
0
100
AcDbSpline
210
0.0
220
0.0
230
1.0
 70
     8
 71
     3
 72
    12
 73
     8
 74
     0
 42
0.000000001
 43
0.0000000001
 40
3.575985984595583
 40
3.575985984595583
 40
3.575985984595583
 40
3.575985984595583
 40
3.80946069448422
 40
3.80946069448422
 40
4.086485013603747
 40
4.086485013603747
 40
4.093064303627429
 40
4.093064303627429
 40
4.093064303627429
 40
4.093064303627429
 10
-1.999999999999988
 20
-9.05364343543316
 30
0.0
 10
-2.063858703887993
 20
-9.15433185336667
 30
0.0
 10
-2.109439557040361
 20
-9.263062273806692
 30
0.0
 10
-2.15984398820786
 20
-9.509525850740319
 30
0.0
 10
-2.154682823041928
 20
-9.648375600375738
 30
0.0
 10
-2.117038536649411
 20
-9.783486054793701
 30
0.0
 10
-2.116147943227583
 20
-9.786616756303558
 30
0.0
 10
-2.115240146078456
 20
-9.789743622631847
 30
0.0
  0
ENDBLK
  5
1AD40
330
1AD3E
100
AcDbEntity
  8
0
100
AcDbBlockEnd
  0
ENDSEC
  0
SECTION
  2
ENTITIES
  0
INSERT
  5
1AE3A
330
1F
100
AcDbEntity
  8
0
100
AcDbBlockReference
  2
MKSA440x145-Front
 10
0.0
 20
0.0
 30
0.0
  0
INSERT
  5
1AE3B
330
1F
100
AcDbEntity
  8
0
100
AcDbBlockReference
  2
MKSA440x145-Top
 10
0.0
 20
-190.75
 30
0.0
  0
INSERT
  5
1AE3C
330
1F
100
AcDbEntity
  8
0
100
AcDbBlockReference
  2
MKSA440x145-ISO
 10
51.99999999999999
 20
-246.8124435638976
 30
0.0
  0
MTEXT
  5
1AE3D
330
1F
100
AcDbEntity
  8
0
100
AcDbMText
 10
0.0
 20
-238.5
 30
0.0
 40
5.305555555555554
 41
0.0
 71
     5
 72
     5
  1
MKSA44,0x145
 73
     1
 44
1.0
1001
ACAD
1000
MTEXTBEGIN
1070
    73
1070
     1
1070
    44
1040
1.0
1070
    74
1070
     0
1000
MTEXTEND
  0
ENDSEC
  0
SECTION
  2
OBJECTS
  0
DICTIONARY
  5
C
330
0
100
AcDbDictionary
281
     1
  3
ACAD_CIP_PREVIOUS_PRODUCT_INFO
350
216
  3
ACAD_COLOR
350
6B
  3
ACAD_DETAILVIEWSTYLE
350
21B
  3
ACAD_GROUP
350
D
  3
ACAD_LAYOUT
350
1A
  3
ACAD_MATERIAL
350
6A
  3
ACAD_MLEADERSTYLE
350
12D
  3
ACAD_MLINESTYLE
350
17
  3
ACAD_PLOTSETTINGS
350
19
  3
ACAD_PLOTSTYLENAME
350
E
  3
ACAD_SCALELIST
350
10C
  3
ACAD_SECTIONVIEWSTYLE
350
219
  3
ACAD_TABLESTYLE
350
7E
  3
ACAD_VISUALSTYLE
350
EF
  3
ACDB_RECOMPOSE_DATA
350
1AF40
  3
AcDbVariableDictionary
350
5E
  3
DWGPROPS
350
1AF41
  0
DICTIONARY
  5
1AE90
330
8
100
AcDbDictionary
280
     1
281
     1
  0
DICTIONARY
  5
1FF
330
2
100
AcDbDictionary
280
     1
281
     1
  3
ACAD_LAYERSTATES
360
200
  0
DICTIONARY
  5
13C
330
10
100
AcDbDictionary
280
     1
281
     1
  0
DICTIONARY
  5
1CE
330
1F
100
AcDbDictionary
280
     1
281
     1
  3
ACAD_LAYOUTSELFREF
360
1AE98
  0
DICTIONARY
  5
1AE41
330
D2
100
AcDbDictionary
280
     1
281
     1
  3
ACAD_LAYOUTSELFREF
360
1AEA1
  0
DICTIONARY
  5
1AE43
330
D6
100
AcDbDictionary
280
     1
281
     1
  3
ACAD_LAYOUTSELFREF
360
1AEA4
  0
XRECORD
  5
216
102
{ACAD_REACTORS
330
C
102
}
330
C
100
AcDbXrecord
280
     1
300
ACD
300
2021
300
87393ACD_2021_0F
  0
DICTIONARY
  5
6B
102
{ACAD_REACTORS
330
C
102
}
330
C
100
AcDbDictionary
281
     1
  0
DICTIONARY
  5
21B
102
{ACAD_REACTORS
330
C
102
}
330
C
100
AcDbDictionary
281
     1
  3
Metric50
350
21C
  0
DICTIONARY
  5
D
102
{ACAD_REACTORS
330
C
102
}
330
C
100
AcDbDictionary
281
     1
  0
DICTIONARY
  5
1A
102
{ACAD_REACTORS
330
C
102
}
330
C
100
AcDbDictionary
281
     1
  3
Layout1
350
D3
  3
Layout2
350
D7
  3
Model
350
22
  0
DICTIONARY
  5
6A
102
{ACAD_REACTORS
330
C
102
}
330
C
100
AcDbDictionary
281
     1
  3
ByBlock
350
ED
  3
ByLayer
350
EC
  3
Global
350
EE
  0
DICTIONARY
  5
12D
102
{ACAD_REACTORS
330
C
102
}
330
C
100
AcDbDictionary
281
     1
  3
Standard
350
12E
  0
DICTIONARY
  5
17
102
{ACAD_REACTORS
330
C
102
}
330
C
100
AcDbDictionary
281
     1
  3
Standard
350
18
  0
DICTIONARY
  5
19
102
{ACAD_REACTORS
330
C
102
}
330
C
100
AcDbDictionary
281
     1
  0
ACDBDICTIONARYWDFLT
  5
E
102
{ACAD_REACTORS
330
C
102
}
330
C
100
AcDbDictionary
281
     1
  3
Normal
350
F
100
AcDbDictionaryWithDefault
340
F
  0
DICTIONARY
  5
10C
102
{ACAD_REACTORS
330
C
102
}
330
C
100
AcDbDictionary
281
     1
  3
A0
350
10D
  3
A1
350
1BE
  3
A2
350
1BF
  3
A3
350
1C0
  3
A4
350
1C1
  3
A5
350
1C2
  3
A6
350
1C3
  3
A7
350
1C4
  3
A8
350
1C5
  3
A9
350
1C6
  3
B0
350
1C7
  3
B1
350
1C8
  3
B2
350
1C9
  3
B3
350
1CA
  3
B4
350
1CB
  3
B5
350
1CC
  3
B6
350
1CD
  0
DICTIONARY
  5
219
102
{ACAD_REACTORS
330
C
102
}
330
C
100
AcDbDictionary
281
     1
  3
Metric50
350
21A
  0
DICTIONARY
  5
7E
102
{ACAD_REACTORS
330
C
102
}
330
C
100
AcDbDictionary
281
     1
  3
Standard
350
7F
  0
DICTIONARY
  5
EF
102
{ACAD_REACTORS
330
C
102
}
330
C
100
AcDbDictionary
281
     1
  3
2dWireframe
350
F5
  3
Basic
350
F4
  3
Brighten
350
FB
  3
ColorChange
350
FF
  3
Conceptual
350
F8
  3
Dim
350
FA
  3
EdgeColorOff
350
1E6
  3
Facepattern
350
FE
  3
Flat
350
F0
  3
FlatWithEdges
350
F1
  3
Gouraud
350
F2
  3
GouraudWithEdges
350
F3
  3
Hidden
350
F7
  3
JitterOff
350
1E4
  3
Linepattern
350
FD
  3
OverhangOff
350
1E5
  3
Realistic
350
F9
  3
Shaded
350
1F3
  3
Shaded with edges
350
1F2
  3
Shades of Gray
350
1EF
  3
Sketchy
350
1F0
  3
Thicken
350
FC
  3
Wireframe
350
F6
  3
X-Ray
350
1F1
  0
XRECORD
  5
1AF40
102
{ACAD_REACTORS
330
C
102
}
330
C
100
AcDbXrecord
280
     1
 90
        1
330
7F
  0
DICTIONARY
  5
5E
102
{ACAD_REACTORS
330
C
102
}
330
C
100
AcDbDictionary
281
     1
  3
CANNOSCALE
350
146
  3
CENTEREXE
350
259
  3
CENTERLTYPEFILE
350
25A
  3
CMLEADERSTYLE
350
145
  3
CTABLESTYLE
350
84
  3
CVIEWDETAILSTYLE
350
227
  3
CVIEWSECTIONSTYLE
350
228
  3
DIMASSOC
350
5F
  3
HIDETEXT
350
63
  3
INDEXCTL
350
1AEED
  3
LAYEREVAL
350
1AE
  3
LAYERNOTIFY
350
1AF
  3
LIGHTINGUNITS
350
1AEEB
  3
MSLTSCALE
350
1AEEA
  3
PSOLHEIGHT
350
1AF3D
  3
PSOLWIDTH
350
1AF3C
  3
SORTENTS
350
1AEEC
  3
XCLIPFRAME
350
1AF3E
  0
XRECORD
  5
1AF41
102
{ACAD_REACTORS
330
C
102
}
330
C
100
AcDbXrecord
280
     1
  1
DWGPROPS COOKIE
  2

  3

  4

  6

  7

  8
truole
  9

300
=
301
=
302
=
303
=
304
=
305
=
306
=
307
=
308
=
309
=
 40
0.0027546296296296
 41
2460733.571354167
 42
2460733.603217593
  1

 90
        0
  0
DICTIONARY
  5
200
102
{ACAD_REACTORS
330
1FF
102
}
330
1FF
100
AcDbDictionary
281
     1
  0
XRECORD
  5
1AE98
102
{ACAD_REACTORS
330
1CE
102
}
330
1CE
100
AcDbXrecord
280
     1
340
1F
  0
XRECORD
  5
1AEA1
102
{ACAD_REACTORS
330
1AE41
102
}
330
1AE41
100
AcDbXrecord
280
     1
340
D2
  0
XRECORD
  5
1AEA4
102
{ACAD_REACTORS
330
1AE43
102
}
330
1AE43
100
AcDbXrecord
280
     1
340
D6
  0
ACDBDETAILVIEWSTYLE
  5
21C
102
{ACAD_XDICTIONARY
360
1AF80
102
}
102
{ACAD_REACTORS
330
21B
102
}
330
21B
100
AcDbModelDocViewStyle
 70
     0
  3
Metric50
290
     0
100
AcDbDetailViewStyle
 70
     0
 71
     0
 90
        3
 71
     1
340
11
 40
5.0
340
0
 40
5.0
300

 40
0.0
280
     1
 71
     2
340
16
 90
       25
 71
     3
340
11
 40
5.0
 90
        0
 40
15.0
 90
        1
300
%<\AcVar ViewDetailId>% (%<\AcVar ViewScale \f "%sn">%)
 71
     4
340
16
 90
       25
340
16
 90
       25
280
     0
  0
LAYOUT
  5
D3
102
{ACAD_XDICTIONARY
360
1AF45
102
}
102
{ACAD_REACTORS
330
1A
102
}
330
1A
100
AcDbPlotSettings
  1

  2
C:\Documents and Settings\basas\Application Data\Autodesk\AutoCAD 2005\R16.1\enu\plotters\Default Windows System Printer.pc3
  4

  6

 40
0.0
 41
0.0
 42
0.0
 43
0.0
 44
0.0
 45
0.0
 46
0.0
 47
0.0
 48
0.0
 49
0.0
140
0.0
141
0.0
142
1.0
143
1.0
 70
   688
 72
     0
 73
     0
 74
     5
  7

 75
    16
147
1.0
148
0.0
149
0.0
100
AcDbLayout
  1
Layout1
 70
     1
 71
     1
 10
0.0
 20
0.0
 11
12.0
 21
9.0
 12
0.0
 22
0.0
 32
0.0
 14
0.0
 24
0.0
 34
0.0
 15
0.0
 25
0.0
 35
0.0
146
0.0
 13
0.0
 23
0.0
 33
0.0
 16
1.0
 26
0.0
 36
0.0
 17
0.0
 27
1.0
 37
0.0
 76
     0
330
D2
  0
LAYOUT
  5
D7
102
{ACAD_XDICTIONARY
360
1AF47
102
}
102
{ACAD_REACTORS
330
1A
102
}
330
1A
100
AcDbPlotSettings
  1

  2
C:\Documents and Settings\basas\Application Data\Autodesk\AutoCAD 2005\R16.1\enu\plotters\Default Windows System Printer.pc3
  4

  6

 40
0.0
 41
0.0
 42
0.0
 43
0.0
 44
0.0
 45
0.0
 46
0.0
 47
0.0
 48
0.0
 49
0.0
140
0.0
141
0.0
142
1.0
143
1.0
 70
   688
 72
     0
 73
     0
 74
     5
  7

 75
    16
147
1.0
148
0.0
149
0.0
100
AcDbLayout
  1
Layout2
 70
     1
 71
     2
 10
0.0
 20
0.0
 11
12.0
 21
9.0
 12
0.0
 22
0.0
 32
0.0
 14
0.0
 24
0.0
 34
0.0
 15
0.0
 25
0.0
 35
0.0
146
0.0
 13
0.0
 23
0.0
 33
0.0
 16
1.0
 26
0.0
 36
0.0
 17
0.0
 27
1.0
 37
0.0
 76
     0
330
D6
  0
LAYOUT
  5
22
102
{ACAD_XDICTIONARY
360
1AF42
102
}
102
{ACAD_REACTORS
330
1A
102
}
330
1A
100
AcDbPlotSettings
  1

  2
none_device
  4
ISO_A4_(210.00_x_297.00_MM)
  6

 40
7.5
 41
20.0
 42
7.5
 43
20.0
 44
210.0
 45
297.0
 46
11.54999923706054
 47
-13.65000009536743
 48
0.0
 49
0.0
140
0.0
141
0.0
142
1.0
143
8.704084754739808
 70
 11952
 72
     1
 73
     0
 74
     0
  7

 75
     0
147
0.1148885871608098
148
0.0
149
0.0
100
AcDbLayout
  1
Model
 70
     1
 71
     0
 10
0.0
 20
0.0
 11
12.0
 21
9.0
 12
0.0
 22
0.0
 32
0.0
 14
0.0
 24
0.0
 34
0.0
 15
0.0
 25
0.0
 35
0.0
146
0.0
 13
0.0
 23
0.0
 33
0.0
 16
1.0
 26
0.0
 36
0.0
 17
0.0
 27
1.0
 37
0.0
 76
     0
330
1F
331
EA
1001
ACAD_PSEXT
1000
None
1000
None
1000
Not applicable
1000
The layout will not be plotted unless a new plotter configuration name is selected.
1070
     0
  0
MATERIAL
  5
ED
102
{ACAD_XDICTIONARY
360
1F9
102
}
102
{ACAD_REACTORS
330
6A
102
}
330
6A
100
AcDbMaterial
  1
ByBlock
  0
MATERIAL
  5
EC
102
{ACAD_XDICTIONARY
360
1F7
102
}
102
{ACAD_REACTORS
330
6A
102
}
330
6A
100
AcDbMaterial
  1
ByLayer
  0
MATERIAL
  5
EE
102
{ACAD_XDICTIONARY
360
173
102
}
102
{ACAD_REACTORS
330
6A
102
}
330
6A
100
AcDbMaterial
  1
Global
 43
0.0007999999797903
 43
0.0
 43
0.0
 43
0.0
 43
0.0
 43
0.0007999999797903
 43
0.0
 43
0.0
 43
0.0
 43
0.0
 43
1.0
 43
0.0
 43
0.0
 43
0.0
 43
0.0
 43
1.0
 49
0.0007999999797903
 49
0.0
 49
0.0
 49
0.0
 49
0.0
 49
0.0007999999797903
 49
0.0
 49
0.0
 49
0.0
 49
0.0
 49
1.0
 49
0.0
 49
0.0
 49
0.0
 49
0.0
 49
1.0
142
0.0007999999797903
142
0.0
142
0.0
142
0.0
142
0.0
142
0.0007999999797903
142
0.0
142
0.0
142
0.0
142
0.0
142
1.0
142
0.0
142
0.0
142
0.0
142
0.0
142
1.0
144
0.0007999999797903
144
0.0
144
0.0
144
0.0
144
0.0
144
0.0007999999797903
144
0.0
144
0.0
144
0.0
144
0.0
144
1.0
144
0.0
144
0.0
144
0.0
144
0.0
144
1.0
1001
ACAD
1070
    -1
1070
     3
1070
     0
1000

1071
        0
1070
     0
  0
MLEADERSTYLE
  5
12E
102
{ACAD_XDICTIONARY
360
1AF6C
102
}
102
{ACAD_REACTORS
330
12D
102
}
330
12D
100
AcDbMLeaderStyle
170
     2
171
     1
172
     0
 90
        2
 40
0.0
 41
0.0
173
     1
 91
-1056964608
340
14
 92
       -2
290
     1
 42
2.0
291
     1
 43
8.0
  3
Standard
 44
4.0
300

342
11
174
     1
178
     1
175
     1
176
     0
 93
-1056964608
 45
4.0
292
     0
297
     0
 46
4.0
 94
-1056964608
 47
1.0
 49
1.0
140
1.0
293
     1
141
0.0
294
     1
177
     0
142
1.0
295
     0
296
     0
143
3.75
1001
ACAD_MLEADERVER
1070
     2
  0
MLINESTYLE
  5
18
102
{ACAD_REACTORS
330
17
102
}
330
17
100
AcDbMlineStyle
  2
STANDARD
 70
     0
  3

 62
   256
 51
90.0
 52
90.0
 71
     2
 49
0.5
 62
   256
  6
BYLAYER
 49
-0.5
 62
   256
  6
BYLAYER
  0
ACDBPLACEHOLDER
  5
F
102
{ACAD_REACTORS
330
E
102
}
330
E
  0
SCALE
  5
10D
102
{ACAD_REACTORS
330
10C
102
}
330
10C
100
AcDbScale
 70
     0
300
1:1
140
1.0
141
1.0
290
     1
  0
SCALE
  5
1BE
102
{ACAD_REACTORS
330
10C
102
}
330
10C
100
AcDbScale
 70
     0
300
1:2
140
1.0
141
2.0
290
     0
  0
SCALE
  5
1BF
102
{ACAD_REACTORS
330
10C
102
}
330
10C
100
AcDbScale
 70
     0
300
1:4
140
1.0
141
4.0
290
     0
  0
SCALE
  5
1C0
102
{ACAD_REACTORS
330
10C
102
}
330
10C
100
AcDbScale
 70
     0
300
1:5
140
1.0
141
5.0
290
     0
  0
SCALE
  5
1C1
102
{ACAD_REACTORS
330
10C
102
}
330
10C
100
AcDbScale
 70
     0
300
1:8
140
1.0
141
8.0
290
     0
  0
SCALE
  5
1C2
102
{ACAD_REACTORS
330
10C
102
}
330
10C
100
AcDbScale
 70
     0
300
1:10
140
1.0
141
10.0
290
     0
  0
SCALE
  5
1C3
102
{ACAD_REACTORS
330
10C
102
}
330
10C
100
AcDbScale
 70
     0
300
1:16
140
1.0
141
16.0
290
     0
  0
SCALE
  5
1C4
102
{ACAD_REACTORS
330
10C
102
}
330
10C
100
AcDbScale
 70
     0
300
1:20
140
1.0
141
20.0
290
     0
  0
SCALE
  5
1C5
102
{ACAD_REACTORS
330
10C
102
}
330
10C
100
AcDbScale
 70
     0
300
1:30
140
1.0
141
30.0
290
     0
  0
SCALE
  5
1C6
102
{ACAD_REACTORS
330
10C
102
}
330
10C
100
AcDbScale
 70
     0
300
1:40
140
1.0
141
40.0
290
     0
  0
SCALE
  5
1C7
102
{ACAD_REACTORS
330
10C
102
}
330
10C
100
AcDbScale
 70
     0
300
1:50
140
1.0
141
50.0
290
     0
  0
SCALE
  5
1C8
102
{ACAD_REACTORS
330
10C
102
}
330
10C
100
AcDbScale
 70
     0
300
1:100
140
1.0
141
100.0
290
     0
  0
SCALE
  5
1C9
102
{ACAD_REACTORS
330
10C
102
}
330
10C
100
AcDbScale
 70
     0
300
2:1
140
2.0
141
1.0
290
     0
  0
SCALE
  5
1CA
102
{ACAD_REACTORS
330
10C
102
}
330
10C
100
AcDbScale
 70
     0
300
4:1
140
4.0
141
1.0
290
     0
  0
SCALE
  5
1CB
102
{ACAD_REACTORS
330
10C
102
}
330
10C
100
AcDbScale
 70
     0
300
8:1
140
8.0
141
1.0
290
     0
  0
SCALE
  5
1CC
102
{ACAD_REACTORS
330
10C
102
}
330
10C
100
AcDbScale
 70
     0
300
10:1
140
10.0
141
1.0
290
     0
  0
SCALE
  5
1CD
102
{ACAD_REACTORS
330
10C
102
}
330
10C
100
AcDbScale
 70
     0
300
100:1
140
100.0
141
1.0
290
     0
  0
ACDBSECTIONVIEWSTYLE
  5
21A
102
{ACAD_XDICTIONARY
360
1AF7E
102
}
102
{ACAD_REACTORS
330
219
102
}
330
219
100
AcDbModelDocViewStyle
 70
     0
  3
Metric50
290
     0
100
AcDbSectionViewStyle
 70
     0
 71
     0
 90
      102
 71
     1
340
11
 40
5.0
340
0
340
0
 40
5.0
300
I, O, Q, S, X, Z
 40
10.0
 90
        0
 40
2.5
 90
        0
 71
     2
340
16
 90
       25
340
16
 90
       50
 40
5.0
 40
2.5
 40
5.0
 71
     3
340
11
 40
5.0
 90
        0
 40
15.0
 90
        1
300
%<\AcVar ViewSectionStartId>%-%<\AcVar ViewSectionEndId>% (%<\AcVar ViewScale \f "%sn">%)
 71
     4
300
ANSI31
 40
1.0
 90
        0
290
     0
290
     0
 90
        6
 40
0.0
 40
1.570796326794896
 40
0.2617993877991494
 40
1.308996938995747
 40
-0.2617993877991494
 40
1.832595714594046
  0
TABLESTYLE
  5
7F
102
{ACAD_XDICTIONARY
360
162
102
}
102
{ACAD_REACTORS
330
7E
102
}
330
7E
100
AcDbTableStyle
  3
Standard
 70
     0
 71
     0
 40
1.5
 41
1.5
280
     0
281
     0
  7
Standard
140
4.5
170
     2
 62
     0
 63
     7
283
     0
274
    -2
284
     1
 64
     0
275
    -2
285
     1
 65
     0
276
    -2
286
     1
 66
     0
277
    -2
287
     1
 67
     0
278
    -2
288
     1
 68
     0
279
    -2
289
     1
 69
     0
  7
Standard
140
6.0
170
     5
 62
     0
 63
     7
283
     0
274
    -2
284
     1
 64
     0
275
    -2
285
     1
 65
     0
276
    -2
286
     1
 66
     0
277
    -2
287
     1
 67
     0
278
    -2
288
     1
 68
     0
279
    -2
289
     1
 69
     0
  7
Standard
140
4.5
170
     5
 62
     0
 63
     7
283
     0
274
    -2
284
     1
 64
     0
275
    -2
285
     1
 65
     0
276
    -2
286
     1
 66
     0
277
    -2
287
     1
 67
     0
278
    -2
288
     1
 68
     0
279
    -2
289
     1
 69
     0
  0
VISUALSTYLE
  5
F5
102
{ACAD_XDICTIONARY
360
1AF56
102
}
102
{ACAD_REACTORS
330
EF
102
}
330
EF
100
AcDbVisualStyle
  2
2dWireframe
 70
     4
 71
     0
 72
     2
 73
     1
 90
        0
 40
-0.6
 41
-30.0
 62
     5
 63
     7
 74
     1
 91
        4
 64
     7
 65
   257
 75
     1
175
     1
 42
1.0
 92
        0
 66
   257
 43
1.0
 76
     1
 77
     6
 78
     2
 67
     7
 79
     5
170
     0
171
     0
290
     0
174
     0
 93
        1
 44
0.0
173
     0
291
     0
 45
0.0
1001
ACAD
1000
AcDbSavedByObjectVersion
1070
     0
  0
VISUALSTYLE
  5
F4
102
{ACAD_XDICTIONARY
360
1AF54
102
}
102
{ACAD_REACTORS
330
EF
102
}
330
EF
100
AcDbVisualStyle
  2
Basic
 70
     7
 71
     1
 72
     0
 73
     1
 90
        0
 40
-0.6
 41
-30.0
 62
     5
 63
     7
 74
     0
 91
        4
 64
     7
 65
   257
 75
     1
175
     1
 42
1.0
 92
        8
 66
     7
 43
1.0
 76
     1
 77
     6
 78
     2
 67
     7
 79
     5
170
     0
171
     0
290
     0
174
     0
 93
        1
 44
0.0
173
     0
291
     1
 45
0.0
1001
ACAD
1000
AcDbSavedByObjectVersion
1070
     0
  0
VISUALSTYLE
  5
FB
102
{ACAD_XDICTIONARY
360
1AF62
102
}
102
{ACAD_REACTORS
330
EF
102
}
330
EF
100
AcDbVisualStyle
  2
Brighten
 70
    12
 71
     2
 72
     2
 73
     1
 90
        0
 40
-0.6
 41
-30.0
 62
     5
 63
     7
 74
     1
 91
        4
 64
     7
 65
   257
 75
     1
175
     1
 42
1.0
 92
        8
 66
     7
 43
1.0
 76
     1
 77
     6
 78
     2
 67
     7
 79
     5
170
     0
171
     0
290
     0
174
     0
 93
        1
 44
50.0
173
     0
291
     1
 45
0.0
1001
ACAD
1000
AcDbSavedByObjectVersion
1070
     0
  0
VISUALSTYLE
  5
FF
102
{ACAD_XDICTIONARY
360
1AF6A
102
}
102
{ACAD_REACTORS
330
EF
102
}
330
EF
100
AcDbVisualStyle
  2
ColorChange
 70
    16
 71
     2
 72
     2
 73
     3
 90
        0
 40
-0.6
 41
-30.0
 62
     5
 63
     8
 74
     1
 91
        4
 64
     7
 65
   257
 75
     1
175
     1
 42
1.0
 92
        8
 66
     8
 43
1.0
 76
     1
 77
     6
 78
     2
 67
     7
 79
     5
170
     0
171
     0
290
     0
174
     0
 93
        1
 44
0.0
173
     0
291
     1
 45
0.0
1001
ACAD
1000
AcDbSavedByObjectVersion
1070
     0
  0
VISUALSTYLE
  5
F8
102
{ACAD_XDICTIONARY
360
1AF5C
102
}
102
{ACAD_REACTORS
330
EF
102
}
330
EF
100
AcDbVisualStyle
  2
Conceptual
 70
     9
 71
     3
 72
     2
 73
     1
 90
        0
 40
-0.6
 41
-30.0
 62
     5
 63
     7
 74
     2
 91
        2
 64
     7
 65
   257
 75
     1
175
     1
 42
40.0
 92
        8
 66
     7
 43
1.0
 76
     1
 77
     6
 78
     2
 67
     7
 79
     3
170
     0
171
     0
290
     0
174
     0
 93
        1
 44
0.0
173
     0
291
     0
 45
0.0
1001
ACAD
1000
AcDbSavedByObjectVersion
1070
     0
  0
VISUALSTYLE
  5
FA
102
{ACAD_XDICTIONARY
360
1AF60
102
}
102
{ACAD_REACTORS
330
EF
102
}
330
EF
100
AcDbVisualStyle
  2
Dim
 70
    11
 71
     2
 72
     2
 73
     1
 90
        0
 40
-0.6
 41
-30.0
 62
     5
 63
     7
 74
     1
 91
        4
 64
     7
 65
   257
 75
     1
175
     1
 42
1.0
 92
        8
 66
     7
 43
1.0
 76
     1
 77
     6
 78
     2
 67
     7
 79
     5
170
     0
171
     0
290
     0
174
     0
 93
        1
 44
-50.0
173
     0
291
     1
 45
0.0
1001
ACAD
1000
AcDbSavedByObjectVersion
1070
     0
  0
VISUALSTYLE
  5
1E6
102
{ACAD_XDICTIONARY
360
1AF72
102
}
102
{ACAD_REACTORS
330
EF
102
}
330
EF
100
AcDbVisualStyle
  2
EdgeColorOff
 70
    22
 71
     2
 72
     2
 73
     0
 90
        0
 40
-0.6
 41
-30.0
 62
     5
 63
     7
 74
     1
 91
        4
 64
     7
 65
   257
 75
     1
175
     1
 42
1.0
 92
        8
 66
     7
 43
1.0
 76
     1
 77
     6
 78
     2
 67
     7
 79
     5
170
     0
171
     0
290
     0
174
     0
 93
        1
 44
0.0
173
     0
291
     1
 45
0.0
1001
ACAD
1000
AcDbSavedByObjectVersion
1070
     0
  0
VISUALSTYLE
  5
FE
102
{ACAD_XDICTIONARY
360
1AF68
102
}
102
{ACAD_REACTORS
330
EF
102
}
330
EF
100
AcDbVisualStyle
  2
Facepattern
 70
    15
 71
     2
 72
     2
 73
     1
 90
        0
 40
-0.6
 41
-30.0
 62
     5
 63
     7
 74
     1
 91
        4
 64
     7
 65
   257
 75
     1
175
     1
 42
1.0
 92
        8
 66
     7
 43
1.0
 76
     1
 77
     6
 78
     2
 67
     7
 79
     5
170
     0
171
     0
290
     0
174
     0
 93
        1
 44
0.0
173
     0
291
     1
 45
0.0
1001
ACAD
1000
AcDbSavedByObjectVersion
1070
     0
  0
VISUALSTYLE
  5
F0
102
{ACAD_XDICTIONARY
360
1AF4C
102
}
102
{ACAD_REACTORS
330
EF
102
}
330
EF
100
AcDbVisualStyle
  2
Flat
 70
     0
 71
     2
 72
     1
 73
     1
 90
        2
 40
-0.6
 41
30.0
 62
     5
 63
     7
 74
     0
 91
        0
 64
     7
 65
   257
 75
     1
175
     1
 42
1.0
 92
        8
 66
     7
 43
1.0
 76
     1
 77
     6
 78
     2
 67
     7
 79
     5
170
     0
171
     0
290
     0
174
     0
 93
       13
 44
0.0
173
     0
291
     1
 45
0.0
1001
ACAD
1000
AcDbSavedByObjectVersion
1070
     0
  0
VISUALSTYLE
  5
F1
102
{ACAD_XDICTIONARY
360
1AF4E
102
}
102
{ACAD_REACTORS
330
EF
102
}
330
EF
100
AcDbVisualStyle
  2
FlatWithEdges
 70
     1
 71
     2
 72
     1
 73
     1
 90
        2
 40
-0.6
 41
30.0
 62
     5
 63
     7
 74
     1
 91
        0
 64
     7
 65
   257
 75
     1
175
     1
 42
1.0
 92
        0
 66
   257
 43
1.0
 76
     1
 77
     6
 78
     2
 67
     7
 79
     5
170
     0
171
     0
290
     0
174
     0
 93
       13
 44
0.0
173
     0
291
     1
 45
0.0
1001
ACAD
1000
AcDbSavedByObjectVersion
1070
     0
  0
VISUALSTYLE
  5
F2
102
{ACAD_XDICTIONARY
360
1AF50
102
}
102
{ACAD_REACTORS
330
EF
102
}
330
EF
100
AcDbVisualStyle
  2
Gouraud
 70
     2
 71
     2
 72
     2
 73
     1
 90
        2
 40
-0.6
 41
30.0
 62
     5
 63
     7
 74
     0
 91
        0
 64
     7
 65
   257
 75
     1
175
     1
 42
1.0
 92
        0
 66
     7
 43
1.0
 76
     1
 77
     6
 78
     2
 67
     7
 79
     5
170
     0
171
     0
290
     0
174
     0
 93
       13
 44
0.0
173
     0
291
     1
 45
0.0
1001
ACAD
1000
AcDbSavedByObjectVersion
1070
     0
  0
VISUALSTYLE
  5
F3
102
{ACAD_XDICTIONARY
360
1AF52
102
}
102
{ACAD_REACTORS
330
EF
102
}
330
EF
100
AcDbVisualStyle
  2
GouraudWithEdges
 70
     3
 71
     2
 72
     2
 73
     1
 90
        2
 40
-0.6
 41
30.0
 62
     5
 63
     7
 74
     1
 91
        0
 64
     7
 65
   257
 75
     1
175
     1
 42
1.0
 92
        0
 66
   257
 43
1.0
 76
     1
 77
     6
 78
     2
 67
     7
 79
     5
170
     0
171
     0
290
     0
174
     0
 93
       13
 44
0.0
173
     0
291
     1
 45
0.0
1001
ACAD
1000
AcDbSavedByObjectVersion
1070
     0
  0
VISUALSTYLE
  5
F7
102
{ACAD_XDICTIONARY
360
1AF5A
102
}
102
{ACAD_REACTORS
330
EF
102
}
330
EF
100
AcDbVisualStyle
  2
Hidden
 70
     6
 71
     1
 72
     2
 73
     2
 90
        0
 40
-0.6
 41
-30.0
 62
     5
 63
     7
 74
     2
 91
        2
 64
     7
 65
   257
 75
     2
175
     1
 42
40.0
 92
        0
 66
   257
 43
1.0
 76
     1
 77
     6
 78
     2
 67
     7
 79
     3
170
     0
171
     0
290
     0
174
     0
 93
        1
 44
0.0
173
     0
291
     0
 45
0.0
1001
ACAD
1000
AcDbSavedByObjectVersion
1070
     0
  0
VISUALSTYLE
  5
1E4
102
{ACAD_XDICTIONARY
360
1AF6E
102
}
102
{ACAD_REACTORS
330
EF
102
}
330
EF
100
AcDbVisualStyle
  2
JitterOff
 70
    20
 71
     2
 72
     2
 73
     0
 90
        0
 40
-0.6
 41
-30.0
 62
     5
 63
     7
 74
     1
 91
        4
 64
     7
 65
   257
 75
     1
175
     1
 42
1.0
 92
       10
 66
     7
 43
1.0
 76
     1
 77
     6
 78
     2
 67
     7
 79
     5
170
     0
171
     0
290
     0
174
     0
 93
        1
 44
0.0
173
     0
291
     1
 45
0.0
1001
ACAD
1000
AcDbSavedByObjectVersion
1070
     0
  0
VISUALSTYLE
  5
FD
102
{ACAD_XDICTIONARY
360
1AF66
102
}
102
{ACAD_REACTORS
330
EF
102
}
330
EF
100
AcDbVisualStyle
  2
Linepattern
 70
    14
 71
     2
 72
     2
 73
     1
 90
        0
 40
-0.6
 41
-30.0
 62
     5
 63
     7
 74
     1
 91
        4
 64
     7
 65
   257
 75
     7
175
     7
 42
1.0
 92
        8
 66
     7
 43
1.0
 76
     1
 77
     6
 78
     2
 67
     7
 79
     5
170
     0
171
     0
290
     0
174
     0
 93
        1
 44
0.0
173
     0
291
     1
 45
0.0
1001
ACAD
1000
AcDbSavedByObjectVersion
1070
     0
  0
VISUALSTYLE
  5
1E5
102
{ACAD_XDICTIONARY
360
1AF70
102
}
102
{ACAD_REACTORS
330
EF
102
}
330
EF
100
AcDbVisualStyle
  2
OverhangOff
 70
    21
 71
     2
 72
     2
 73
     0
 90
        0
 40
-0.6
 41
-30.0
 62
     5
 63
     7
 74
     1
 91
        4
 64
     7
 65
   257
 75
     1
175
     1
 42
1.0
 92
        9
 66
     7
 43
1.0
 76
     1
 77
     6
 78
     2
 67
     7
 79
     5
170
     0
171
     0
290
     0
174
     0
 93
        1
 44
0.0
173
     0
291
     1
 45
0.0
1001
ACAD
1000
AcDbSavedByObjectVersion
1070
     0
  0
VISUALSTYLE
  5
F9
102
{ACAD_XDICTIONARY
360
1AF5E
102
}
102
{ACAD_REACTORS
330
EF
102
}
330
EF
100
AcDbVisualStyle
  2
Realistic
 70
     8
 71
     2
 72
     2
 73
     0
 90
        2
 40
-0.6
 41
30.0
 62
     5
 63
     7
 74
     0
 91
        0
 64
     7
 65
   257
 75
     1
175
     1
 42
1.0
 92
        8
 66
   257
 43
1.0
 76
     1
 77
     6
 78
     2
 67
     7
 79
     3
170
     0
171
     0
290
     0
174
     0
 93
       13
 44
0.0
173
     0
291
     0
 45
0.0
1001
ACAD
1000
AcDbSavedByObjectVersion
1070
     0
  0
VISUALSTYLE
  5
1F3
102
{ACAD_XDICTIONARY
360
1AF7C
102
}
102
{ACAD_REACTORS
330
EF
102
}
330
EF
100
AcDbVisualStyle
  2
Shaded
 70
    27
 71
     2
 72
     2
 73
     1
 90
        2
 40
-0.6
 41
30.0
 62
     5
 63
     7
 74
     0
 91
        4
 64
     7
 65
   257
 75
     1
175
     1
 42
1.0
 92
        8
 66
   257
 43
1.0
 76
     1
 77
     6
 78
     2
 67
     8
 79
     3
170
     0
171
     0
290
     0
174
     0
 93
        5
 44
0.0
173
     0
291
     0
 45
0.0
1001
ACAD
1000
AcDbSavedByObjectVersion
1070
     0
  0
VISUALSTYLE
  5
1F2
102
{ACAD_XDICTIONARY
360
1AF7A
102
}
102
{ACAD_REACTORS
330
EF
102
}
330
EF
100
AcDbVisualStyle
  2
Shaded with edges
 70
    26
 71
     2
 72
     2
 73
     1
 90
        2
 40
-0.6
 41
30.0
 62
     5
 63
     7
 74
     1
 91
        2
 64
     7
 65
   257
 75
     2
175
     1
 42
1.0
 92
        8
 66
   257
 43
1.0
 76
     1
 77
     6
 78
     2
 67
     7
 79
     3
170
     0
171
     0
290
     0
174
     0
 93
        5
 44
0.0
173
     0
291
     0
 45
0.0
1001
ACAD
1000
AcDbSavedByObjectVersion
1070
     0
  0
VISUALSTYLE
  5
1EF
102
{ACAD_XDICTIONARY
360
1AF74
102
}
102
{ACAD_REACTORS
330
EF
102
}
330
EF
100
AcDbVisualStyle
  2
Shades of Gray
 70
    23
 71
     2
 72
     2
 73
     3
 90
        0
 40
-0.6
 41
-30.0
 62
     5
 63
     7
 74
     2
 91
        2
 64
     7
 65
     7
 75
     1
175
     1
 42
40.0
 92
        8
 66
     7
 43
1.0
 76
     1
 77
     6
 78
     2
 67
     7
 79
     3
170
     0
171
     0
290
     0
174
     0
 93
        1
 44
0.0
173
     0
291
     0
 45
0.0
1001
ACAD
1000
AcDbSavedByObjectVersion
1070
     0
  0
VISUALSTYLE
  5
1F0
102
{ACAD_XDICTIONARY
360
1AF76
102
}
102
{ACAD_REACTORS
330
EF
102
}
330
EF
100
AcDbVisualStyle
  2
Sketchy
 70
    24
 71
     1
 72
     2
 73
     2
 90
        0
 40
-0.6
 41
-30.0
 62
     5
 63
     7
 74
     2
 91
        2
 64
     7
 65
     7
 75
     1
175
     1
 42
40.0
 92
       11
 66
     7
 43
1.0
 76
     1
 77
     6
 78
     2
 67
     7
 79
     6
170
     0
171
     0
290
     0
174
     0
 93
        1
 44
0.0
173
     0
291
     0
 45
0.0
1001
ACAD
1000
AcDbSavedByObjectVersion
1070
     0
  0
VISUALSTYLE
  5
FC
102
{ACAD_XDICTIONARY
360
1AF64
102
}
102
{ACAD_REACTORS
330
EF
102
}
330
EF
100
AcDbVisualStyle
  2
Thicken
 70
    13
 71
     2
 72
     2
 73
     1
 90
        0
 40
-0.6
 41
-30.0
 62
     5
 63
     7
 74
     1
 91
        4
 64
     7
 65
   257
 75
     1
175
     1
 42
1.0
 92
       12
 66
     7
 43
1.0
 76
     1
 77
     6
 78
     2
 67
     7
 79
     5
170
     0
171
     0
290
     0
174
     0
 93
        1
 44
0.0
173
     0
291
     1
 45
0.0
1001
ACAD
1000
AcDbSavedByObjectVersion
1070
     0
  0
VISUALSTYLE
  5
F6
102
{ACAD_XDICTIONARY
360
1AF58
102
}
102
{ACAD_REACTORS
330
EF
102
}
330
EF
100
AcDbVisualStyle
  2
Wireframe
 70
     5
 71
     0
 72
     2
 73
     0
 90
        0
 40
-0.6
 41
-30.0
 62
     5
 63
     7
 74
     1
 91
        4
 64
     7
 65
   257
 75
     1
175
     1
 42
1.0
 92
        0
 66
   257
 43
1.0
 76
     1
 77
     6
 78
     2
 67
     7
 79
     3
170
     0
171
     0
290
     0
174
     0
 93
        1
 44
0.0
173
     0
291
     0
 45
0.0
1001
ACAD
1000
AcDbSavedByObjectVersion
1070
     0
  0
VISUALSTYLE
  5
1F1
102
{ACAD_XDICTIONARY
360
1AF78
102
}
102
{ACAD_REACTORS
330
EF
102
}
330
EF
100
AcDbVisualStyle
  2
X-Ray
 70
    25
 71
     2
 72
     2
 73
     1
 90
        1
 40
0.5
 41
-30.0
 62
     5
 63
     7
 74
     1
 91
        0
 64
     7
 65
   257
 75
     1
175
     1
 42
1.0
 92
        8
 66
     7
 43
1.0
 76
     1
 77
     6
 78
     2
 67
     7
 79
     3
170
     0
171
     0
290
     0
174
     0
 93
       13
 44
0.0
173
     0
291
     0
 45
0.0
1001
ACAD
1000
AcDbSavedByObjectVersion
1070
     0
  0
DICTIONARYVAR
  5
146
102
{ACAD_REACTORS
330
5E
102
}
330
5E
100
DictionaryVariables
280
     0
  1
1:1
  0
DICTIONARYVAR
  5
259
102
{ACAD_REACTORS
330
5E
102
}
330
5E
100
DictionaryVariables
280
     0
  1
3.500000
  0
DICTIONARYVAR
  5
25A
102
{ACAD_REACTORS
330
5E
102
}
330
5E
100
DictionaryVariables
280
     0
  1
acadiso.lin
  0
DICTIONARYVAR
  5
145
102
{ACAD_REACTORS
330
5E
102
}
330
5E
100
DictionaryVariables
280
     0
  1
STANDARD
  0
DICTIONARYVAR
  5
84
102
{ACAD_REACTORS
330
5E
102
}
330
5E
100
DictionaryVariables
280
     0
  1
STANDARD
  0
DICTIONARYVAR
  5
227
102
{ACAD_REACTORS
330
5E
102
}
330
5E
100
DictionaryVariables
280
     0
  1
Metric50
  0
DICTIONARYVAR
  5
228
102
{ACAD_REACTORS
330
5E
102
}
330
5E
100
DictionaryVariables
280
     0
  1
Metric50
  0
DICTIONARYVAR
  5
5F
102
{ACAD_REACTORS
330
5E
102
}
330
5E
100
DictionaryVariables
280
     0
  1
2
  0
DICTIONARYVAR
  5
63
102
{ACAD_REACTORS
330
5E
102
}
330
5E
100
DictionaryVariables
280
     0
  1
1
  0
DICTIONARYVAR
  5
1AEED
102
{ACAD_REACTORS
330
5E
102
}
330
5E
100
DictionaryVariables
280
     0
  1
0
  0
DICTIONARYVAR
  5
1AE
102
{ACAD_REACTORS
330
5E
102
}
330
5E
100
DictionaryVariables
280
     0
  1
0
  0
DICTIONARYVAR
  5
1AF
102
{ACAD_REACTORS
330
5E
102
}
330
5E
100
DictionaryVariables
280
     0
  1
0
  0
DICTIONARYVAR
  5
1AEEB
102
{ACAD_REACTORS
330
5E
102
}
330
5E
100
DictionaryVariables
280
     0
  1
2
  0
DICTIONARYVAR
  5
1AEEA
102
{ACAD_REACTORS
330
5E
102
}
330
5E
100
DictionaryVariables
280
     0
  1
1
  0
DICTIONARYVAR
  5
1AF3D
102
{ACAD_REACTORS
330
5E
102
}
330
5E
100
DictionaryVariables
280
     0
  1
80.000000
  0
DICTIONARYVAR
  5
1AF3C
102
{ACAD_REACTORS
330
5E
102
}
330
5E
100
DictionaryVariables
280
     0
  1
5.000000
  0
DICTIONARYVAR
  5
1AEEC
102
{ACAD_REACTORS
330
5E
102
}
330
5E
100
DictionaryVariables
280
     0
  1
127
  0
DICTIONARYVAR
  5
1AF3E
102
{ACAD_REACTORS
330
5E
102
}
330
5E
100
DictionaryVariables
280
     0
  1
2
  0
DICTIONARY
  5
1AF80
330
21C
100
AcDbDictionary
280
     1
281
     1
  3
ACAD_XREC_ROUNDTRIP
360
1AF81
  0
DICTIONARY
  5
1AF45
330
D3
100
AcDbDictionary
280
     1
281
     1
  3
ACAD_XREC_ROUNDTRIP
360
1AF46
  0
DICTIONARY
  5
1AF47
330
D7
100
AcDbDictionary
280
     1
281
     1
  3
ACAD_XREC_ROUNDTRIP
360
1AF48
  0
DICTIONARY
  5
1AF42
330
22
100
AcDbDictionary
280
     1
281
     1
  3
ACAD_XREC_ROUNDTRIP
360
1AF43
  0
DICTIONARY
  5
1F9
330
ED
100
AcDbDictionary
280
     1
281
     1
  3
ACAD_XREC_ROUNDTRIP
360
1AF4A
  3
FBXASSET
360
1FA
  0
DICTIONARY
  5
1F7
330
EC
100
AcDbDictionary
280
     1
281
     1
  3
ACAD_XREC_ROUNDTRIP
360
1AF49
  3
FBXASSET
360
1F8
  0
DICTIONARY
  5
173
330
EE
100
AcDbDictionary
280
     1
281
     1
  3
ACAD_XREC_ROUNDTRIP
360
1AF4B
  3
BUMPTILE
360
175
  3
DIFFUSETILE
360
174
  3
FBXASSET
360
1FB
  3
OPACITYTILE
360
176
  3
REFLECTIONTILE
360
177
  0
DICTIONARY
  5
1AF6C
330
12E
100
AcDbDictionary
280
     1
281
     1
  3
ACAD_XREC_ROUNDTRIP
360
1AF6D
  0
DICTIONARY
  5
1AF7E
330
21A
100
AcDbDictionary
280
     1
281
     1
  3
ACAD_XREC_ROUNDTRIP
360
1AF7F
  0
DICTIONARY
  5
162
330
7F
100
AcDbDictionary
280
     1
281
     1
  3
ACAD_ROUNDTRIP_2008_TABLESTYLE_CELLSTYLEMAP
360
1AF3F
  3
ACAD_XREC_ROUNDTRIP
360
1AF44
  0
DICTIONARY
  5
1AF56
330
F5
100
AcDbDictionary
280
     1
281
     1
  3
ACAD_XREC_ROUNDTRIP
360
1AF57
  0
DICTIONARY
  5
1AF54
330
F4
100
AcDbDictionary
280
     1
281
     1
  3
ACAD_XREC_ROUNDTRIP
360
1AF55
  0
DICTIONARY
  5
1AF62
330
FB
100
AcDbDictionary
280
     1
281
     1
  3
ACAD_XREC_ROUNDTRIP
360
1AF63
  0
DICTIONARY
  5
1AF6A
330
FF
100
AcDbDictionary
280
     1
281
     1
  3
ACAD_XREC_ROUNDTRIP
360
1AF6B
  0
DICTIONARY
  5
1AF5C
330
F8
100
AcDbDictionary
280
     1
281
     1
  3
ACAD_XREC_ROUNDTRIP
360
1AF5D
  0
DICTIONARY
  5
1AF60
330
FA
100
AcDbDictionary
280
     1
281
     1
  3
ACAD_XREC_ROUNDTRIP
360
1AF61
  0
DICTIONARY
  5
1AF72
330
1E6
100
AcDbDictionary
280
     1
281
     1
  3
ACAD_XREC_ROUNDTRIP
360
1AF73
  0
DICTIONARY
  5
1AF68
330
FE
100
AcDbDictionary
280
     1
281
     1
  3
ACAD_XREC_ROUNDTRIP
360
1AF69
  0
DICTIONARY
  5
1AF4C
330
F0
100
AcDbDictionary
280
     1
281
     1
  3
ACAD_XREC_ROUNDTRIP
360
1AF4D
  0
DICTIONARY
  5
1AF4E
330
F1
100
AcDbDictionary
280
     1
281
     1
  3
ACAD_XREC_ROUNDTRIP
360
1AF4F
  0
DICTIONARY
  5
1AF50
330
F2
100
AcDbDictionary
280
     1
281
     1
  3
ACAD_XREC_ROUNDTRIP
360
1AF51
  0
DICTIONARY
  5
1AF52
330
F3
100
AcDbDictionary
280
     1
281
     1
  3
ACAD_XREC_ROUNDTRIP
360
1AF53
  0
DICTIONARY
  5
1AF5A
330
F7
100
AcDbDictionary
280
     1
281
     1
  3
ACAD_XREC_ROUNDTRIP
360
1AF5B
  0
DICTIONARY
  5
1AF6E
330
1E4
100
AcDbDictionary
280
     1
281
     1
  3
ACAD_XREC_ROUNDTRIP
360
1AF6F
  0
DICTIONARY
  5
1AF66
330
FD
100
AcDbDictionary
280
     1
281
     1
  3
ACAD_XREC_ROUNDTRIP
360
1AF67
  0
DICTIONARY
  5
1AF70
330
1E5
100
AcDbDictionary
280
     1
281
     1
  3
ACAD_XREC_ROUNDTRIP
360
1AF71
  0
DICTIONARY
  5
1AF5E
330
F9
100
AcDbDictionary
280
     1
281
     1
  3
ACAD_XREC_ROUNDTRIP
360
1AF5F
  0
DICTIONARY
  5
1AF7C
330
1F3
100
AcDbDictionary
280
     1
281
     1
  3
ACAD_XREC_ROUNDTRIP
360
1AF7D
  0
DICTIONARY
  5
1AF7A
330
1F2
100
AcDbDictionary
280
     1
281
     1
  3
ACAD_XREC_ROUNDTRIP
360
1AF7B
  0
DICTIONARY
  5
1AF74
330
1EF
100
AcDbDictionary
280
     1
281
     1
  3
ACAD_XREC_ROUNDTRIP
360
1AF75
  0
DICTIONARY
  5
1AF76
330
1F0
100
AcDbDictionary
280
     1
281
     1
  3
ACAD_XREC_ROUNDTRIP
360
1AF77
  0
DICTIONARY
  5
1AF64
330
FC
100
AcDbDictionary
280
     1
281
     1
  3
ACAD_XREC_ROUNDTRIP
360
1AF65
  0
DICTIONARY
  5
1AF58
330
F6
100
AcDbDictionary
280
     1
281
     1
  3
ACAD_XREC_ROUNDTRIP
360
1AF59
  0
DICTIONARY
  5
1AF78
330
1F1
100
AcDbDictionary
280
     1
281
     1
  3
ACAD_XREC_ROUNDTRIP
360
1AF79
  0
XRECORD
  5
1AF81
102
{ACAD_REACTORS
330
1AF80
102
}
330
1AF80
100
AcDbXrecord
280
     1
102
DISPLAYNAME
  1
Metric50
102
FLAGS
 90
        0
  0
XRECORD
  5
1AF46
102
{ACAD_REACTORS
330
1AF45
102
}
330
1AF45
100
AcDbXrecord
280
     1
102
SHADEPLOT
 70
     0
102
SHADEPLOTRESLEVEL
 70
     2
102
SHADEPLOTCUSTOMDPI
 70
   300
  0
XRECORD
  5
1AF48
102
{ACAD_REACTORS
330
1AF47
102
}
330
1AF47
100
AcDbXrecord
280
     1
102
SHADEPLOT
 70
     0
102
SHADEPLOTRESLEVEL
 70
     2
102
SHADEPLOTCUSTOMDPI
 70
   300
  0
XRECORD
  5
1AF43
102
{ACAD_REACTORS
330
1AF42
102
}
330
1AF42
100
AcDbXrecord
280
     1
102
SHADEPLOT
 70
     0
102
SHADEPLOTRESLEVEL
 70
     2
102
SHADEPLOTCUSTOMDPI
 70
   300
  0
XRECORD
  5
1AF4A
102
{ACAD_REACTORS
330
1F9
102
}
330
1F9
100
AcDbXrecord
280
     1
102
MATERIAL
148
0.0
149
0.0
149
0.0
 93
        0
 94
       63
282
     0
 72
     1
 77
     1
171
     1
175
     1
179
     1
273
     0
  0
XRECORD
  5
1FA
102
{ACAD_REACTORS
330
1F9
102
}
330
1F9
100
AcDbXrecord
280
     1
 70
     1
 90
429727718
  1
D62C5603-E3A1-4AEA-B7FB-FE5D8D0755AF
310
504B03040A0000080000CC70623B3DEE336E79000000790000001B0000006175746F6465736B2D64657369676E2D7061636B6167652E786D6C3C3F786D6C2076657273696F6E3D22312E302220656E636F64696E673D227574662D3822203F3E3C666F726D6174733E3C666F726D61743E687474703A2F2F736368656D612E
310
6175746F6465736B2E636F6D2F64657369676E2D7061636B6167652F323030393C2F666F726D61743E3C2F666F726D6174733E504B0304140006080800CC70623BD486FD9CA0000000F4000000130000005B436F6E74656E745F54797065735D2E786D6C7D8EC10E82300C865F65E91D8A1E8C310C0EEA1BF002731658846E
310
D98AC1B77784ABF1D8FE5FBFBF75BBCE937A534CCEB38643598122B6FEE978D0B0485F9C41B54DDD7D022595594E1A469170414C76A4D9A4D207E29CF43ECE46F218070CC6BECC4078ACAA135ACF422C856C0E68EA1BF5669944DDD7BCDE7B1F8E415D77AECB980613C2E4AC91FC167A2B244592486606FC29C8FD7F045B9A
310
EF7053A7E60B504B0304140006080800CC70623B853B8169EB0000007C01000008000000636F72652E786D6C8D90416EC3201045AF62CDB6C206821CC7C244919D9CA01740401C94182C03558F5F9C3852BBEB6A467FFE9B197D7EFC9E1EC5975982F5AE035262288C535E5B377690E21535501C055FBC8FBF6C503839990E
310
5619041F179FE64D52DE45E362569DD7661365082642A11EB9E920A89B99642953CC8E702F67A9EE7234257977194EC9EAE275C4EABCCF5EAD5940D4AC6F0E35A568B8F43562CD7046CD199FD07E60174276A7BE677B5EADB0E0D14EEFFB6A31321A0D82627C4084204C3F096B71DD52F6819B16635EADF63F509AF53FA164
310
5DDCD1EDDD17164090FCC8732078B56691CB33A85CD7DCC40F504B0304140006080800CC70623B55019EA25F0000007C00000007000000636E782E786D6C4DCB3B0E80201045D1AD90E915ED2CF8AC45050C11660C8261F98AB1B07AC9C97D42D718D865D3E909258CFD00CCE24AC6E326A164D74DC0B4128928FF32603847
310
2BA13128B1252AC747C6BAB984FC68F0B87FE8960A5C09FE86CFB69FBA01504B0304140006080800CC70623BDBABAAF470010000D40300000C0000006662782F636F72652E786D6CC553D16E823014FD95A6AF4B694182CC941A83FA05FB810A9511A125A5257EFE2E82712ECEB8A7F100CD39F7F69E734AF9FADC366850B6
310
AF8DCE7018308C942E4C59EB2AC3DE1D498AD15A706B8CFB56869196ADCAF00863C12B6B7C374385D14E6907A836A59A41D9F7CA615434B0C8705F7CAA5606D23BA8E84F41278B93AC54100640439DE0BDB320004D43C63716C7C399D30917DCFBBA9CD9BA8469F5B156168B24CED3F7248AC8769F27244EB73B92EED8862C
310
B7F13E0C179B3C8F979C8ECD82BBBABDAA2BAC924E9558448CBD9330242CFA08E3154B5651FCC6D215639C8EE5774DBE2B5F6CF2B5768B68963BB5F5588420E442FC700B1139D4CB01F450C1E918227C2E09DF070D8140C84E1E9AAB8F1340832A9CB13130A5F1376A908D57309505ECF2A0DF179C4E9D30F5B239B87E3823
310
7A79C6F31DE1A8A5AEC08474B03C7837EAE4938639B44E5932B833D2C6B6B279CDC613877FA26EE21F4A2A4C63EC7F29A2F301D1F9F7A0E37D145F504B0304140006080800CC70623B9C113CC27E0000009D0000000B0000006662782F636E782E786D6C4DCCDF0A83201C86E15B91DFB94BFB330DD428C8FB886521330DA7
310
6397BF1A1DECE883878F57749FCDA1B7892F1BBC047A23808C7F84D9FA55424E0BE6803A256208E9EF06C84F9B91703228B1C690F78B66B34CD9A5439DF5CF0BFBF65E35BCA1B8D6A5C6F540381E886698B5741C695F9503EBA150A2F8958E3DC3EA0B504B0304140006080800CC70623B7DF2F77C2A010000120200003100
310
00006662782F41393633353835312D344632462D344230382D423046372D3739314545314133324237412F636F72652E786D6C8D51DB8EC22014FC15C2939B0D2DB4B45643319AE817EC0F6041255A68B86CFCFC856D4D76DF7CE190393373060EDB3DC707F856CE6B6B7A480A0C81328395DA5C7B18C3057510EC3873D686
310
3F34088C18550F330C39BB3A1BA7051AAC09CA84841A2BD5020AEF55806078A44B0FFD7053A328440C89E1EFC52486BBB8AA8214A99D789CF9E05200300FC927E4FB4D5B375D43103D5527440FB843077C5AA3F5861C8F645F5787F59E95B390B318B55CE45AA638FAA2957BD7248B390B7A7CC51F9C124149C82B8C378810
310
84AB2F42B7B8DD56F413775B8C5999E9FF4471926F8AA236A1AE96B8B3CC434E5839373893369E1FAF30EA395917409EB7F26AF8801C171837A4A6AC9C89E9F9C9B1A58BA30FD6A5EF5DDDCF894B9AD9B6A59C957943A9FCAE2FD5BC4DFE03504B0304140006080800CC70623BAD7543B64E01000033030000300000006662
310
782F41393633353835312D344632462D344230382D423046372D3739314545314133324237412F636E782E786D6CD593CD6EC32010845F0571AD6CE3D48AD20813A9873E410FBD12D82434182C7EAAE6EDBB2424CD25871E7B41D6EC30B3FA84F9E67BB2E40B4234DE8DB46F1925E094D7C6ED479AD3AE5951B2113C789FEE
310
6C943839C1488B4C05DF079FE72A69D8C96C13AAD6B8631503449F83828872B949AC57D26200B826A308D316B4064D6E46FCDA41C05550DC9E483A00797BFD207EFB092A45DE9514C1BBD22178396BD39D891265658C238DEA00936C654E5E433CB65A26D9F6EDB5EBC14EBF49A45CB856E66048291F6939A9A81BB5C89177
310
38143CA680F4AA299D66A042CEB3354A2684DC9D8D178FE0D9B8B41CAAD720F880EE7EF93C0C18769E099ECC04D5A102C8049A8A05632F4DDF376CF1DE0F6BB65C2F8627B65A33C6BB62177CEBBDAD973006829F89F22E814B54F4BC2BE347F8AA8F681390B50FA73F804400B5F542E796F19FF974E7F78DB802FE05E20750
310
4B0304140006080800CC70623BE75B7789680500003C100000340000006662782F41393633353835312D344632462D344230382D423046372D3739314545314133324237412F6F626A656374732E786D6CAD575B8F9B3818FD2B887D06C22499CB8AA1CA655245D5B455A356FB305264C061D8018C6C3393D95FBFC7600890
310
A4CD5EF210B0B1BFEBF98E3F7B1FF6596ABC522E1296DF9BAE3D320D9A872C4AF2F8DE2CE5CEBA358D0FBEC719939D65A691938CDE9B6ADAF4BD98B3B2D05311DD91329583D9D5FC0F438434A7A611A644887B5384CF34233629258BA878B12322891DEFF6B66BD70BFB62634E8AE781D082709A4B588AF91C528CDA28B73F
310
1C998EEF39EABBEFA97FBD6A7C7E9553F9D3D79FE442923C3C523610337627CB87ABE99D359D4CC6D6E4FACAB5E6ABF9D2726FC6A3C5F56271377BB88362213924694B38DD99FE47C48627A1E7D49F5A8BB5E1A74C0A599ED3B0F21F1E56366B89112D681E218F0915D0D6F17AD41FBA2A369DCF6335D62ABBD39779D5DDD1
310
11D4D8DE3CBB96B2E04FB8202E41051754A1AA8E8F76B4C6DFE810B580B1547F4B84911149794252234D024EF8BBE963A95AE27B3D310A9D5C215C7960FAEE415ED75694C6AFB17BCACA5D99A60A9AA65F217B0BFC53292ACB92BF283FAD0D3621576592CB5BED907C2FA8E9DF794E35E97BEA31BED21FEB401ABB94C44839
310
DCACBF0E1C5DA8DA5B2F4DFFD32AD86F543D9E565E7056502E157C00AD2671CD534549AB752FCA9CDA00677A313F04E51B22FF19E57B300579E3C97EB29F682D92935CEC18CF901B7B54FD8C51F362B56FC72FE0B3C1EAE335EDCCBF5AEC39ADB17DC238973F804BA5E6F6BFE7AF1FB32E523BE9F3BD571418E3631DCA4D48
310
5250CF639223210A9446CA30052EDF057BD35F8329C1ECD84552BF0DC8D18BE7BCE23BFE6BD960AB4A7DE79923A103BEBD80F911CBAA2C60DB19B01CF164A5583B772EE6D3FFA56666CBCDA74DC97724A48F9A58967497E489C4D979006FD7A05E227A1EBDD0F737C623387A9C844D3709995625106D157315F8B8392CD4E0
310
A0B9A720C4BE9829CEF37EA1E13111214D53925356365ADA634861B52519DD27A00AEB808EAF0628E6F435519D446F45CF2C9CF5214F0A15B2F6D06B79DA3EE3CBF7F56780D2F4E7EF73A0F5E5B02A38D07DC852C6B7C1FBB6664213E0C39E3EBA7FF4E1AD23EA2829407C85E586727488B751B2DB9502BC7B228A3FD68B6E
310
A65A22397E690AA8D158D7E404EC8CDA235CC3B7D1898680131CEC2CDF2638C65196279577750F15884AEE19F94199155B92B13297978469D4F8D358DF0AEF7631E28DC8F0D9F437D5D39A83B2231A1D52D543813A824EF8D44BCFF2FA6A31BD1E8DAD87F1CCB526B3879935BF59CDADD5C37479BB1CDD4CA7B3556B516589
310
EF352754B706114D9C885EC9131DE6EFEB43D99AFE2391C2F958179413D7CFEF6B1B6DB1E7600F00DE6E5C67454A339A4BA2E0FBA85ED26F045D454F463DBFCE484C2F90F2E5E3666003662ED8F755951A7D1BECD5B30B550B2785C8E7320B7292A4838DDA71BBC863ED7613CAF659337A3354231D4FF4A182A54904C2898C
310
98B28C4AD0CE056CCF332A80986E571EE9DBC305BB5FEB7E509220A58D25CF042D712A806AC0AD0C657FDEF80D2D9CEAA2EE4D1C76F60BFE74219A06527D6F82DF6412526107381E55E353090704D085B52408A8913C4ED159D79BDA71BB4BC506F4831350EB6F975CD22D69BF7AC49B91A2C0A9DDA3D5CA36AD20FC478E37
310
E61844E2352865EBCB61A275A65283CAAA9DD27703B4102F5AF51EF5F573B75CBB5AD38BC845F7A49F82A0966A49C2E3EA5EA0ECD326CD965F1DB402C6FA8B51A4658C5C5E2EC9E214602E55810345408596591009A82E7E7FFACA19EEA299B14A0081A705CB3296EBC14CDF658DCD336EA6D1136881AAEB87B81AB9EE53D5
310
F5EB8BC8362082DA24122F98680A4E7930C01A0079749CEA14382A0783E5EBA5A10F8C098456A03D6A4AEB6BB881E2513747552A5DB22C7EDAF83BD5528081A365F7FF06504B0304140006080000CC70623B000000000000000000000000350000006662782F41393633353835312D344632462D344230382D423046372D37
310
39314545314133324237412F76657274696365732E62696E504B0304140006080800CC70623BF270F1330600000004000000360000006662782F41393633353835312D344632462D344230382D423046372D3739314545314133324237412F747269616E676C65732E62696E636660600000504B0304140006080000CC7062
310
3B000000000000000000000000370000006662782F41393633353835312D344632462D344230382D423046372D3739314545314133324237412F617474726962757465732E62696E504B0304140006080800CC70623B08DA0BD19000000041010000360000006662782F41393633353835312D344632462D344230382D4230
310
46372D3739314545314133324237412F6469726563746F72792E786D6C858F410AC3201045AF22B36F53E9A60B35CBEEBAE80D244E44489C6234F4F835464A48035D0DF398FF9F8AF63D0E6CC63039F212F8F9020C7D47C6792B21C5FE7403D62A1188E2E60C98D7234A5830286103A55745067B9D86B8A3CF9C7F90C11DE6
310
07FB144396D7B6A82D282E9A152AD114D5EF2CB866EEE831B8EEA07A7BB5A8D7D61A2BAAEB7FD5F70921FF497D00504B0304140006080800CC70623BEDD1DC58FD000000A00100003B0000006662782F41393633353835312D344632462D344230382D423046372D3739314545314133324237412F7265736F75726365732F
310
636F72652E786D6C8D504B6E833010BD0A9A6D65B00922041947112427E8052C33A156828DFCA97AFC9A40A576D7CDCCE87D344F8F9FBFE667F689CE6B6B3A6039850C8DB2A336530731DC4903D95970676DF82583CCC8193B5861107C72362E3BA4AC096842428D1D7107A5F7182053CF7474E0D507CE32973124857FE48B
310
540F3961CEF244279DE03EB81420DB9EAC1384436FA353E879B1B182C7A8C75DA3C7F453DF353A1075D537A7BA6464B8F535A99AE14A9A2BBD90E350DD183B5CFABE3AF262350B1EF4FC9351399401471025A527C218A1E53BAB5A5AB765F5469B96525EACF23FA6B88CFF34456DC2A1DCE36E360F82A5202F42F062ED2BAD
310
579969AFDD8A6F504B010214000A0000080000CC70623B3DEE336E79000000790000001B00000000000000000000000000000000006175746F6465736B2D64657369676E2D7061636B6167652E786D6C504B01021400140006080800CC70623BD486FD9CA0000000F40000001300000000000000000000000000B20000005B
310
436F6E74656E745F54797065735D2E786D6C504B01021400140006080800CC70623B853B8169EB0000007C010000080000000000000000000000000083010000636F72652E786D6C504B01021400140006080800CC70623B55019EA25F0000007C000000070000000000000000000000000094020000636E782E786D6C504B
310
01021400140006080800CC70623BDBABAAF470010000D40300000C00000000000000000000000000180300006662782F636F72652E786D6C504B01021400140006080800CC70623B9C113CC27E0000009D0000000B00000000000000000000000000B20400006662782F636E782E786D6C504B01021400140006080800CC70
310
623B7DF2F77C2A010000120200003100000000000000000000000000590500006662782F41393633353835312D344632462D344230382D423046372D3739314545314133324237412F636F72652E786D6C504B01021400140006080800CC70623BAD7543B64E010000330300003000000000000000000000000000D2060000
310
6662782F41393633353835312D344632462D344230382D423046372D3739314545314133324237412F636E782E786D6C504B01021400140006080800CC70623BE75B7789680500003C10000034000000000000000000000000006E0800006662782F41393633353835312D344632462D344230382D423046372D3739314545
310
314133324237412F6F626A656374732E786D6C504B01021400140006080000CC70623B0000000000000000000000003500000000000000000000000000280E00006662782F41393633353835312D344632462D344230382D423046372D3739314545314133324237412F76657274696365732E62696E504B01021400140006
310
080800CC70623BF270F133060000000400000036000000000000000000000000007B0E00006662782F41393633353835312D344632462D344230382D423046372D3739314545314133324237412F747269616E676C65732E62696E504B01021400140006080000CC70623B0000000000000000000000003700000000000000
310
000000000000D50E00006662782F41393633353835312D344632462D344230382D423046372D3739314545314133324237412F617474726962757465732E62696E504B01021400140006080800CC70623B08DA0BD1900000004101000036000000000000000000000000002A0F00006662782F41393633353835312D344632
310
462D344230382D423046372D3739314545314133324237412F6469726563746F72792E786D6C504B01021400140006080800CC70623BEDD1DC58FD000000A00100003B000000000000000000000000000E1000006662782F41393633353835312D344632462D344230382D423046372D3739314545314133324237412F7265
310
736F75726365732F636F72652E786D6C504B0506000000000E000E0080040000641100000000
  0
XRECORD
  5
1AF49
102
{ACAD_REACTORS
330
1F7
102
}
330
1F7
100
AcDbXrecord
280
     1
102
MATERIAL
148
0.0
149
0.0
149
0.0
 93
        0
 94
       63
282
     0
 72
     1
 77
     1
171
     1
175
     1
179
     1
273
     0
  0
XRECORD
  5
1F8
102
{ACAD_REACTORS
330
1F7
102
}
330
1F7
100
AcDbXrecord
280
     1
 70
     1
 90
429727718
  1
30362254-06B7-45E0-A893-8CFA70E3D6BC
310
504B03040A0000080000CC70623B3DEE336E79000000790000001B0000006175746F6465736B2D64657369676E2D7061636B6167652E786D6C3C3F786D6C2076657273696F6E3D22312E302220656E636F64696E673D227574662D3822203F3E3C666F726D6174733E3C666F726D61743E687474703A2F2F736368656D612E
310
6175746F6465736B2E636F6D2F64657369676E2D7061636B6167652F323030393C2F666F726D61743E3C2F666F726D6174733E504B0304140006080800CC70623BD486FD9CA0000000F4000000130000005B436F6E74656E745F54797065735D2E786D6C7D8EC10E82300C865F65E91D8A1E8C310C0EEA1BF002731658846E
310
D98AC1B77784ABF1D8FE5FBFBF75BBCE937A534CCEB38643598122B6FEE978D0B0485F9C41B54DDD7D022595594E1A469170414C76A4D9A4D207E29CF43ECE46F218070CC6BECC4078ACAA135ACF422C856C0E68EA1BF5669944DDD7BCDE7B1F8E415D77AECB980613C2E4AC91FC167A2B244592486606FC29C8FD7F045B9A
310
EF7053A7E60B504B0304140006080800CC70623B1EC5D7A3EB0000007C01000008000000636F72652E786D6C8D90416EC3201045AF82665B6103C6756C6122AB4D4ED00B204C5C94182C03558F5F9C3852BBEB6A467FFE9B197D71FC9E6FE8CBACC17AD7032D0820E3B41FAD9B7A48F1820F808E52ACDEC75F36404ECDA687
310
4D0629A6D5A76597B477D1B89855E747B38B2A041301E95B6E7A08FAD3CCAA50296647B8168BD2573599823EBB0CA76447F43862C7BCCF5EAC59410E4DDD9C7973C2755553CCCFA4C603E3040F1565ED3B1FDE4E432BCA0D9622DAF9795FAF464533826484B498524CD807E51D79ED187F21878E10516EF63F505AC67F42C9
310
BA58B1FDDD071640D2FCC87D2045B96591CB3DA85CB7DCE40F504B0304140006080800CC70623B55019EA25F0000007C00000007000000636E782E786D6C4DCB3B0E80201045D1AD90E915ED2CF8AC45050C11660C8261F98AB1B07AC9C97D42D718D865D3E909258CFD00CCE24AC6E326A164D74DC0B4128928FF32603847
310
2BA13128B1252AC747C6BAB984FC68F0B87FE8960A5C09FE86CFB69FBA01504B0304140006080800CC70623B8C9102E971010000D40300000C0000006662782F636F72652E786D6CC5535B6E833010BC8AE5DF0A6C08340F1947A84D4ED00B38C6A128602363A31CBFCB234A53A551FA553EC09AD9F5CE8C31DB9E9B1AF5CA
310
7695D1198E428A91D2D214952E33ECDD315861B4E5CC1AE3BE9561A445A3323CC098B3D21ADFCE9034DA29ED00D5A6503328BA4E398C640D8B0C77F253352214DE4145770A5B214FA2546114020D759C75CE8200340D19DE981F0F6746269C33EFAB6266AB02A655C74A59CCF365BADC27CB5D902ED22848F6340DF238A141
310
BE88E2F57B92BFEDF23523433367AE6A2EEAA455C2A902F398D2751045018D3FA264435F3771F242571B4A1919CA6F9A7C5B3CD9E42BED16F12C776AEB308F40C848FC700B1139D4891EF410CEC810227CC6846F8386402064270EF5C5C709A05E49676C024C61FC95EA45ED154CA5211D1FF4FB8291A913A68E9B83EBBB33
310
E2A7673CDE118E5AE8124C0807CB8377834E366998436B950D7A7746DAD846D4CFD978E0F04FD455FC5D49D2D4C6FE9722321F10997F0F32DC47FE05504B0304140006080800CC70623BFFEA85907E0000009D0000000B0000006662782F636E782E786D6C4DCCD10A83201886E15B91FFDC95D95A811AB6F23E625948A6C3
310
E9D8E5AF46073BFAE0E1E365ED67B3E8ADC3CB78C7815C7240DA3DFC64DCC221C519D7805AC182F7F1EF06C88D9BE6703008B6049F9E274D7A1E938DBB5AE3D6131B2589BA0D3D965551E0B2EA732C9B9A624AAEB41E3A557677029960D9AFB4EF11165F504B0304140006080800CC70623B4FEEA4082C0100001202000031
310
0000006662782F39464131463745442D413632322D343644302D413938332D3331353338454246344243312F636F72652E786D6C8D515B6EC32010BC0AE2AB55850DD871ED0813254D72825EC00192A2C460F1A872FC42ED48ED5F7E00CDCECCCEB26C731F6FE05B39AFADE921293004CA082BB5B9F43086336A21D870E6AC
310
0D7F68109861543DCC30E4ECE26C9C164858139409093556AA051CBC570102714B8F1E7AF1A5C6A11862480C7F2DA6415C878B2A4891CA89C7990F2E050073937C42DE1DB7E4F87ED8A36D4329AA9B3D46DBAEAD504556557BD81DEBDD0761E52CE42C462D17B996298E3E6BE59E35C962CE821E1FF18553435012728A7187
310
0841987E927A8D9B35ADDF70BBC6989599FE4F1427F9A4286A132ABAC49D651EF234CD5CE04CDA78BA3DC2A8FB645D00B9DF8B57E215725C60BCA2A463E54C4CE327C7A65E1C7DB02E7DEFCBF594B864C5CA6CDBD49C957943E9FA5D5FBAF336F90F504B0304140006080800CC70623BAD7543B64E01000033030000300000
310
006662782F39464131463745442D413632322D343644302D413938332D3331353338454246344243312F636E782E786D6CD593CD6EC32010845F0571AD6CE3D48AD20813A9873E410FBD12D82434182C7EAAE6EDBB2424CD25871E7B41D6EC30B3FA84F9E67BB2E40B4234DE8DB46F1925E094D7C6ED479AD3AE5951B2113C
310
789FEE6C943839C1488B4C05DF079FE72A69D8C96C13AAD6B8631503449F83828872B949AC57D26200B826A308D316B4064D6E46FCDA41C05550DC9E483A00797BFD207EFB092A45DE9514C1BBD22178396BD39D891265658C238DEA00936C654E5E433CB65A26D9F6EDB5EBC14EBF49A45CB856E66048291F6939A9A81BB5
310
C8917738143CA680F4AA299D66A042CEB3354A2684DC9D8D178FE0D9B8B41CAAD720F880EE7EF93C0C18769E099ECC04D5A102C8049A8A05632F4DDF376CF1DE0F6BB65C2F8627B65A33C6BB62177CEBBDAD973006829F89F22E814B54F4BC2BE347F8AA8F681390B50FA73F804400B5F542E796F19FF974E7F78DB802FE05
310
E207504B0304140006080800CC70623B16AB87BA640500003C100000340000006662782F39464131463745442D413632322D343644302D413938332D3331353338454246344243312F6F626A656374732E786D6CAD575B6FA33818FD2B887DE6924B3BED8A326A92B68A663B534DD4D13E548A0C38942D60649B369D5FBFC7
310
600890A493BDE42160637FD7F31D7FF63E6FB3D478A55C242CBF3247B66B1A340F5994E4F19559CA8D75611A9F7D8F33263BCB4C232719BD32D5B4E97B316765A1A722BA21652A07B3B7B33F0D11D29C9A46981221AE4C113ED38CD8A4942CA2E2C58E882476BCD9DA23BB5ED8171B73523C0F841684D35CC252CCE79062D4
310
468DFA43D7747CCF51DF7D4FFDEB5593E3AB9CCA9FBEFE241792E4E19EB28198C968BAB8199F5D5A67D3E9C49A9E8F47D6EC76B6B0469F26EEFC7C3EBFBCBEB98462213924694B38DD98FE1D62C393D073EA4FADC5DAF04326852CCF6958F90F0F2B9BB5C48816348F90C7840A68EB78EDF68723159BCEE7891A6B95DDE9D3
310
BCEAEEE8086A6C6F9E5D4B59F0175C10A7A0820BAA5055C7473B5AE3CFDD452D602CD5DF12616444529E90D448938013FE6EFA58AA96F85E4F8C42275708571E98FE6827AF6B2B4AE3D7D83D64E5A64C53054DD3AF90BD06FEA9149565C94FCA0F6B834DC85599E4F2423B24DF0B6AFA979E534DFA9E7A4CC6FA631D486393
310
921829879BF5D781A373557BCB85E97FB90DB62B558F8795179C15944B051F40AB495CF35451D26A4727654E6D8033BD98EF82F21D91FF8AF2DD9982BCF1643BDD4EB516C9492E368C67C88DED563FC36D5EACF66DFF057C3658BDBFA69DF9578B3DA735B64F18C7F20770A9D45CFCF7FCF563D6456A277DBEF78A02637CA2
310
43B90A490AEAB94F72244481D24819A6C0E59B606BFA4B3025981DBB48EAB701D97BF19C577CC77F2D1B6C55A9EF3C732474C0B727303F625995056C3B02963D9EAC146BE78EC5FCEC7FA999EBC5EACBAAE41B12D27B4D2C0BBA49F244E2ECDC81B76B502F113D8F5EE8FB1BE3111CDD4FC2AA9B844CAB1288B68AB90A7CDC
310
1C166AB0D3DC5310625FCC14E779BFD0709F8890A629C9292B1B2DED31A4B0DA928CEE135085754027E3018A397D4D5427D15BD1330B677DC8934285AC3DF45A9EB68FF8F2B8FC0A509AFEECFD0FF2DE25CC6047F7214B195F07EFEB9A094D800F7BFAE8FED187B78EA8A3A400F115961BCAD1215E47C966530AF0EE8128FE
310
58CEBB996A8964FFA529A046635D9353B0336A8F700DDF46271A024E70B0B37C9DE01847591E54DED53D54202AB947E4076556AC49C6CA5C9E1226B7F1A7B1BE15DEED62C41B91E1B3E9AFAAA735036547343A925075041DF0A9979E893B391F8FCFA6967B3EFB644DCF6E5CEBFAE272625DCC6FAF3FB93793C5F90CE1EF57
310
407342756B10D1C489E8953CD1617E5CEECAD6F4EF8914CE5D5D504E5C3F1F9736DA62CFC11E00BCDDB8CC8A9466349744C1F75EBDA4DF09BA8A9E8C7A7E9991989E20E5DBDD6A6003664ED8F7A04A8DBE0DF6EAD9B9AA858342E47399053949D2C146EDB85DE4B176BB0965FBAC19BD19AA918E27FA50C1D22402E144464C
310
59462568E704B6E71915404CB72B8FF4EDE184DDAF753F284990D2C6926782963815403548A70C657FDEF80D2D9CEAA2AE4C1C76F60BFE74219A06527D6582DF6412526107381E55E353090704D085B52408D0933C4ED159D79BDA71BB4BC506F4831350EB6F979CD22D69BF7AC49B91A2C0A9DDA3D5CA36AD20FC478E37E6
310
1844E2352865EBCB6EA275A652E3836BE04EFB400BF1A2556F515F1FBB35B2AB35BD889C744FFA1004B5544B121E57F70215746DD2F5E2C1412B602CBF19455AC6C8E5E9922C4E01E65215385004546899059180EAFCF7A707CE7017CD8CDB0410789AB32C63B91E5CEBBBACB17AC6CD347A022D5075FD106377347AAABA7E
310
7D11590744509B44E205134DC1290F06580320F78E537D3D73540E06CB970B431F185308AD40BBD794D6D77003C5A36E8EAA54BA64597CD8F83BD552A080A365F7FF06504B0304140006080000CC70623B000000000000000000000000350000006662782F39464131463745442D413632322D343644302D413938332D3331
310
353338454246344243312F76657274696365732E62696E504B0304140006080800CC70623BF270F1330600000004000000360000006662782F39464131463745442D413632322D343644302D413938332D3331353338454246344243312F747269616E676C65732E62696E636660600000504B0304140006080000CC70623B
310
000000000000000000000000370000006662782F39464131463745442D413632322D343644302D413938332D3331353338454246344243312F617474726962757465732E62696E504B0304140006080800CC70623B08DA0BD19000000041010000360000006662782F39464131463745442D413632322D343644302D413938
310
332D3331353338454246344243312F6469726563746F72792E786D6C858F410AC3201045AF22B36F53E9A60B35CBEEBAE80D244E44489C6234F4F835464A48035D0DF398FF9F8AF63D0E6CC63039F212F8F9020C7D47C6792B21C5FE7403D62A1188E2E60C98D7234A5830286103A55745067B9D86B8A3CF9C7F90C11DE607
310
FB144396D7B6A82D282E9A152AD114D5EF2CB866EEE831B8EEA07A7BB5A8D7D61A2BAAEB7FD5F70921FF497D00504B0304140006080800CC70623B0D6EF93BFE000000A00100003B0000006662782F39464131463745442D413632322D343644302D413938332D3331353338454246344243312F7265736F75726365732F63
310
6F72652E786D6C8D50596E833010BD0A9ADFCA60B334011947A8694ED00B586642AC041B79A97AFC9A40A5F6AF3F33A3B7689E1E3F7DCD8FEC139DD7D6F4C0720A191A65476DA61E62B892236427C19DB5E1970C322367EC618541F0C9D9B8EC90B226A009093576C41D94DE63804C3DD2D18357379C652E63480A7FCF17A9
310
EE72C29CE5894E3AC17D702940B63D59270887DE46A7D0F36263058F518FBB468FE9A7BE6A7420864373B8D4873369AA8691FA421B3294352543C5CAF65C0F6FEF43CB8BD52C78D0F34F46E550061C419494B6843142CB0F5677F4B52BEB177AEC28E5C52AFF638ACBF84F53D42654E51E77B379102C05791282176B5F693D
310
CB4C7BED567C03504B010214000A0000080000CC70623B3DEE336E79000000790000001B00000000000000000000000000000000006175746F6465736B2D64657369676E2D7061636B6167652E786D6C504B01021400140006080800CC70623BD486FD9CA0000000F40000001300000000000000000000000000B20000005B
310
436F6E74656E745F54797065735D2E786D6C504B01021400140006080800CC70623B1EC5D7A3EB0000007C010000080000000000000000000000000083010000636F72652E786D6C504B01021400140006080800CC70623B55019EA25F0000007C000000070000000000000000000000000094020000636E782E786D6C504B
310
01021400140006080800CC70623B8C9102E971010000D40300000C00000000000000000000000000180300006662782F636F72652E786D6C504B01021400140006080800CC70623BFFEA85907E0000009D0000000B00000000000000000000000000B30400006662782F636E782E786D6C504B01021400140006080800CC70
310
623B4FEEA4082C0100001202000031000000000000000000000000005A0500006662782F39464131463745442D413632322D343644302D413938332D3331353338454246344243312F636F72652E786D6C504B01021400140006080800CC70623BAD7543B64E010000330300003000000000000000000000000000D5060000
310
6662782F39464131463745442D413632322D343644302D413938332D3331353338454246344243312F636E782E786D6C504B01021400140006080800CC70623B16AB87BA640500003C1000003400000000000000000000000000710800006662782F39464131463745442D413632322D343644302D413938332D3331353338
310
454246344243312F6F626A656374732E786D6C504B01021400140006080000CC70623B0000000000000000000000003500000000000000000000000000270E00006662782F39464131463745442D413632322D343644302D413938332D3331353338454246344243312F76657274696365732E62696E504B01021400140006
310
080800CC70623BF270F133060000000400000036000000000000000000000000007A0E00006662782F39464131463745442D413632322D343644302D413938332D3331353338454246344243312F747269616E676C65732E62696E504B01021400140006080000CC70623B0000000000000000000000003700000000000000
310
000000000000D40E00006662782F39464131463745442D413632322D343644302D413938332D3331353338454246344243312F617474726962757465732E62696E504B01021400140006080800CC70623B08DA0BD190000000410100003600000000000000000000000000290F00006662782F39464131463745442D413632
310
322D343644302D413938332D3331353338454246344243312F6469726563746F72792E786D6C504B01021400140006080800CC70623B0D6EF93BFE000000A00100003B000000000000000000000000000D1000006662782F39464131463745442D413632322D343644302D413938332D3331353338454246344243312F7265
310
736F75726365732F636F72652E786D6C504B0506000000000E000E0080040000641100000000
  0
XRECORD
  5
1AF4B
102
{ACAD_REACTORS
330
173
102
}
330
173
100
AcDbXrecord
280
     1
102
MATERIAL
148
0.0
149
0.0
149
0.0
 93
        0
 94
       63
282
     0
 72
     1
 77
     1
171
     1
175
     1
179
     1
273
     0
  0
XRECORD
  5
175
102
{ACAD_REACTORS
330
173
102
}
330
173
100
AcDbXrecord
280
     1
270
     1
271
     1
  0
XRECORD
  5
174
102
{ACAD_REACTORS
330
173
102
}
330
173
100
AcDbXrecord
280
     1
270
     1
271
     1
  0
XRECORD
  5
1FB
102
{ACAD_REACTORS
330
173
102
}
330
173
100
AcDbXrecord
280
     1
 70
     0
 90
1673772943
  1
ECE7A1D2-D628-4531-984C-D00F80459256
310
504B03040A0000080000CC70623B3DEE336E79000000790000001B0000006175746F6465736B2D64657369676E2D7061636B6167652E786D6C3C3F786D6C2076657273696F6E3D22312E302220656E636F64696E673D227574662D3822203F3E3C666F726D6174733E3C666F726D61743E687474703A2F2F736368656D612E
310
6175746F6465736B2E636F6D2F64657369676E2D7061636B6167652F323030393C2F666F726D61743E3C2F666F726D6174733E504B0304140006080800CC70623BD486FD9CA0000000F4000000130000005B436F6E74656E745F54797065735D2E786D6C7D8EC10E82300C865F65E91D8A1E8C310C0EEA1BF002731658846E
310
D98AC1B77784ABF1D8FE5FBFBF75BBCE937A534CCEB38643598122B6FEE978D0B0485F9C41B54DDD7D022595594E1A469170414C76A4D9A4D207E29CF43ECE46F218070CC6BECC4078ACAA135ACF422C856C0E68EA1BF5669944DDD7BCDE7B1F8E415D77AECB980613C2E4AC91FC167A2B244592486606FC29C8FD7F045B9A
310
EF7053A7E60B504B0304140006080800CC70623BD9DDAED0EC0000007C01000008000000636F72652E786D6C8D90416EC3201045AF82665B61836D9CD8C2444DD39CA01740405C94182C03558F5F9C3852BBEB6A467FFE9B197D7EF89E6EE8CB2CC17A37002D0820E394D7D68D03A478C17B4007C117EFE32F1B20272733C0
310
2A83E0E3E2D3BC49CABB685CCCAAF3DA6CA20CC14440EA969B0182FA34932C648AD911AEC52CD5558EA6A0CF2EC329598D1E47ACCEFBECC59A050463A7EA5833865FEBDD0E37353BE3EE8DBDE3F6786A48D375FBF6CC78B9C282473B3DEFABC5C86834888A900E538A49F5419B9EB47DD5BC907D4F082F57FB1F28CDFA9F50
310
B22ED6D5F6EE030B20687EE43E10BC5CB3C8E51E54AE6B6EE207504B0304140006080800CC70623B55019EA25F0000007C00000007000000636E782E786D6C4DCB3B0E80201045D1AD90E915ED2CF8AC45050C11660C8261F98AB1B07AC9C97D42D718D865D3E909258CFD00CCE24AC6E326A164D74DC0B4128928FF326038
310
472BA13128B1252AC747C6BAB984FC68F0B87FE8960A5C09FE86CFB69FBA01504B0304140006080800CC70623BA24EB22D72010000D40300000C0000006662782F636F72652E786D6CC5535B6E833010BC8AE5DF0A6C5E49888CA3A6694ED00B38E05014B091B1518EDFE511A5A9D228FD2A1F60CDEC7A67C6986DCE4D8D7A
310
69BA4AAB0C073EC548AA5C17952A33ECECD15B61B4E1CC686DBF9561A44423333CC098B3D268D7CE50AE9595CA02AA74216750749DB418E5352C32DCE59FB211BE70162ABA93DF8AFC244AE9073ED050C759670D0840D390E18DF9F1706664C23973AE2A66B62A605A75ACA4C13C4976E1364A12EF355A2EBD384AF65EFA96
310
BC7B8BED2EA6719AAE16FB8491A199335B351775B991C2CA02F390D2D40B028F861F41BCA68B7518BFD0D59A524686F29B26D7164F36B94AD9289CE54E6D1DE6010819891F6E21228B3AD1831EC219194284CF98F06DD01008846CC5A1BEF83801D4CBDC6A1303536877A57A513B0953A94FC707FDBE6064EA84A9E3E6E0FA
310
EE8CF0E9198F7784A316AA0413C2C2F2E0ECA0934D1AE6D05A69BCDE9E91D2A611F573361E38FC1375157F5752AE6B6DFE4B11990F88CCBF0719EE23FF02504B0304140006080800CC70623B408A7D3B7C0000009D0000000B0000006662782F636E782E786D6C4DCCD10A83201886E15B91FFDC552A92A0064DBC8F581632
310
D3703A76F9ABD1C18E3E78F878E5F0D9027ABBFCF2292AE86E2D20171F69F6715550CB827B40839639A5F2770314A7CD293819B45C73AAFB45B35BA61ACAA1C1C7E7855C58C15BC331339661262CC762340413D68D77DA5B42298546CBE6573AF60CEB2F504B0304140006080800CC70623B449FB9BD290100001202000031
310
0000006662782F36394639363044362D344446342D343946362D394244322D3234314243333846323333332F636F72652E786D6C8D515B6EC32010BC0AE22B55850D98B871848994463E412FE002495162B07854397EA176A4F62F3F2C9A9D991D587EB84F37F0AD7D30CEF6905418026DA553C65E7A98E219ED203808EE9D
310
8B7F6810D871D23D2C3014FCE25D9A57483A1BB58D19B54EE9151C43D0110279CB971E06F9A5A7B11A53CC8C70ADE6515EC78BAE4895DB992778883E0700CB907242D17643D7E2538BD869608875438BBAE38922CAC8F1BDD90DB4691A5E2F42C153326A951B95E398B3D1FE599322163C9AE9115F7A3D46ADA0A018778810
310
84E907617BDCEE297BC5BB3DC6BC2EF47FA234AB2745C9D8D8D035EE220B50105E2F0DC1954B9FB747187D9F9D8FA0CCDB042D5FA0C015C65B42DF78BD10F3F3B363CB56C7109DCFDFBBB97E662ED92EB62D13BC2E1BCAE5777DB9966D8A1F504B0304140006080800CC70623BAD7543B64E01000033030000300000006662
310
782F36394639363044362D344446342D343946362D394244322D3234314243333846323333332F636E782E786D6CD593CD6EC32010845F0571AD6CE3D48AD20813A9873E410FBD12D82434182C7EAAE6EDBB2424CD25871E7B41D6EC30B3FA84F9E67BB2E40B4234DE8DB46F1925E094D7C6ED479AD3AE5951B2113C789FEE
310
6C943839C1488B4C05DF079FE72A69D8C96C13AAD6B8631503449F83828872B949AC57D26200B826A308D316B4064D6E46FCDA41C05550DC9E483A00797BFD207EFB092A45DE9514C1BBD22178396BD39D891265658C238DEA00936C654E5E433CB65A26D9F6EDB5EBC14EBF49A45CB856E66048291F6939A9A81BB5C89177
310
38143CA680F4AA299D66A042CEB3354A2684DC9D8D178FE0D9B8B41CAAD720F880EE7EF93C0C18769E099ECC04D5A102C8049A8A05632F4DDF376CF1DE0F6BB65C2F8627B65A33C6BB62177CEBBDAD973006829F89F22E814B54F4BC2BE347F8AA8F681390B50FA73F804400B5F542E796F19FF974E7F78DB802FE05E20750
310
4B0304140006080800CC70623B8D05915C650500003B100000340000006662782F36394639363044362D344446342D343946362D394244322D3234314243333846323333332F6F626A656374732E786D6CAD575B6FA33814FE2B887D06429276DA1565D4266D158D3A339A6846FB502932E050B66023DB74D2FDF5FB190C01
310
9276B2973C046C8ECFF53B17071F77456EBD502133CEAE6CDF9DD81665314F32965ED995DA3A17B6F5310C04E7AA47665B8C14F4CAD6DB7618A48257A5D94AE89654B91AEDDEDDFC61C998326A5B714EA4BCB265FC440BE2924AF184CA6737218AB8E976E7FA6E4338649B0A523E8D98964450A6A029F619B8588D52FE7039
310
B1BD30F0F4F730D0FF866AF6369557DB33949F31A9088B0F848DD8CCFCF9F2767A76E99CCDE733677E3EF59D9BBB9BA5E37F984D16E78BC5E5F5ED25044B25C0C96822E8D60EEFE11B91C581D77CEA34368A1F5329E68CD1B8B61F16D63A1B8E092D294B10C78C4A48EB593D192E7DED9BDEE7995E1B91FDEDD3ACEA9FE831
310
6A756F9F7D4D79F4274C90A7A04248AA51D5F8C718DAE06FB2F75AC4796EBE65D22A88A22223B995679120E2D50E41AA49C260C046A35368846B0BECD0DFF3EBEB8AD4F835768F69B9ADF25C43D30E6B646F807FAA64AD59F61715C7A54127C4AACA98BA3006A9D792DAE165E0D59B61A01FB3A9F9D838D2DAE62445C86166
310
F37564E842E7DE6A69879FEEA2DD5AE7E371E1A5E025154AC307D06A03D73EB5978C58FFA4C8E9033066E0F3BD53BEC1F39F91BE7B55103791EDE6BBB991A2046172CB4581D8B893FA674DDA17A77B3B7C413D1B511FD2743BFF8A38F03A658705E3ADF8015C3A3417FF3D7E439FF591DA0B5F18BC20C1B8981957AE6392A3
310
F43C640C01D1A0B4728E2DD4F26DB4B3C3152A252A3B4E913CEC1C72F012782FF88EFF8637AA552DBEF76408E8A8DE9E50F9E1CB3A2DA0DB1B6039A893B56063DC5B3E3FFB5F72E67AB9FEB4AEC496C4F4C1149625DD662C53E89D7BF0F6151A046260D1337DFDC94502430F83B0EE07A130A224BCAD7DAE1D9FB6CD422FF6
310
920702629C4BB9AE79C12F243C6432A6794E18E5552BA56B431AAB5D91317302B2B071E86C3A42B1A02F999E24061403B5D0EB639195DA655DD3EBEAB4FB862DDF579F014AD0E73C22F99E28DA57FB98E75C6CA2D74D53086D600F4786E0FE3144B771A8A7B900F03594DB8A633CBC49B2EDB69228BB479CF863B5E807AAAB
310
23872F6DFEB4129B949CA33823F58830E86D65621E10047D9DB34D862E8EAC3C2ABC2F7B2C40D67CDFE01F5545B92105AF983AC54D93D69E56FB8E797F88913F898A9FEC705D3F9D1B54EC8426FB500D40A03BD0119B06E1B95DDC7EB8F6975367793EBD70E66733DFB9BC982F9CE564727731999F5D4ECFCE3B8D6A4DC2A0
310
6D50FD148437D110834A64C6CDDF57FBACB5C307A2A477DFE4939736CFEF2B175371E0E10CF0DD1D5C15654E0BCA14D1E87DD02FF93782A162C0A3D95F1524A52770F972BF1EE9809D13CE7DD599467F8ECE9ADD85CE85A34CD45355448C64F9E8A031DC2D596ACC6E5DD93D9B82DE2EF5CAF81363A8E47996A0DE24564A79
310
4115AACE09C55E14540231FDA13C319787134EBF34E3A022514E5B4D9E0826E25C02D5805B15ABE1BEF51B26383D445DD9E875EE33FE4C22DA16427D65A3BCA92CA6D28DD01DF5DC53330704308475351050232CCD31583787BA75774AFB06E5070DD0C8EF484E19968C5D83BA5B90B244D31E54D55A372320FE4786B7EA58
310
44E135AA5467CB7EA333A61683CC6A8C3257034C10CF46F40EF9F5BE59BE5BD30C3C72D235E95D10345C1D45445A5F0BB47E46A5EBE5570F9380B5FA629579952296A773720405982B9DE04011506178964401AA8BDF1FBF0A8EAB6861DD6580C0E38217056766716DAEB2D6FA0917D3E4116581EADB879C4E7CFFB11EFACD
310
3D641311495D92C8676CB409A72D18610D803CE8A626049E8EC1887CB5B44CC39883690DDA8399B4B9855B481E7D71D4A9D22F96E5BB73BF5793020C02137BF837504B0304140006080000CC70623B000000000000000000000000350000006662782F36394639363044362D344446342D343946362D394244322D32343142
310
43333846323333332F76657274696365732E62696E504B0304140006080800CC70623BF270F1330600000004000000360000006662782F36394639363044362D344446342D343946362D394244322D3234314243333846323333332F747269616E676C65732E62696E636660600000504B0304140006080000CC70623B0000
310
00000000000000000000370000006662782F36394639363044362D344446342D343946362D394244322D3234314243333846323333332F617474726962757465732E62696E504B0304140006080800CC70623B08DA0BD19000000041010000360000006662782F36394639363044362D344446342D343946362D394244322D
310
3234314243333846323333332F6469726563746F72792E786D6C858F410AC3201045AF22B36F53E9A60B35CBEEBAE80D244E44489C6234F4F835464A48035D0DF398FF9F8AF63D0E6CC63039F212F8F9020C7D47C6792B21C5FE7403D62A1188E2E60C98D7234A5830286103A55745067B9D86B8A3CF9C7F90C11DE607FB14
310
4396D7B6A82D282E9A152AD114D5EF2CB866EEE831B8EEA07A7BB5A8D7D61A2BAAEB7FD5F70921FF497D00504B0304140006080800CC70623BCA768048FE000000A00100003B0000006662782F36394639363044362D344446342D343946362D394244322D3234314243333846323333332F7265736F75726365732F636F72
310
652E786D6C8D50596E833010BD0A9ADFCA60D600328E9AA639412F609909B1126CE4A5EAF16B0295DABFFECC8CDEA2797AECF8353F924FB44E193D409E5248504B332A3D0D10FC95B4901C39B3C6F85F3248B49871801506CE266BC2B243D2688FDA47549B11775038871E12F988C7004EDE7016A9083E2ADC3D5D84BC8B09
310
D33C8D74D471E6BC8D0192EDC93A815B742658898E651BCB59086ADC356A8C3FD555A1055ED7E7E254D615792D0F075295F585746FF53B694EE78A565DD736979A65AB9933AFE69F8CD2A2F038022F28ED489E135A7CE4554F9BBEA85E68DB53CAB255FEC71496F19FA6A0B42F8B3DEE6673C0F318E4497096AD7DC5F52C33
310
EEB55BFE0D504B010214000A0000080000CC70623B3DEE336E79000000790000001B00000000000000000000000000000000006175746F6465736B2D64657369676E2D7061636B6167652E786D6C504B01021400140006080800CC70623BD486FD9CA0000000F40000001300000000000000000000000000B20000005B436F
310
6E74656E745F54797065735D2E786D6C504B01021400140006080800CC70623BD9DDAED0EC0000007C010000080000000000000000000000000083010000636F72652E786D6C504B01021400140006080800CC70623B55019EA25F0000007C000000070000000000000000000000000095020000636E782E786D6C504B0102
310
1400140006080800CC70623BA24EB22D72010000D40300000C00000000000000000000000000190300006662782F636F72652E786D6C504B01021400140006080800CC70623B408A7D3B7C0000009D0000000B00000000000000000000000000B50400006662782F636E782E786D6C504B01021400140006080800CC70623B
310
449FB9BD290100001202000031000000000000000000000000005A0500006662782F36394639363044362D344446342D343946362D394244322D3234314243333846323333332F636F72652E786D6C504B01021400140006080800CC70623BAD7543B64E010000330300003000000000000000000000000000D20600006662
310
782F36394639363044362D344446342D343946362D394244322D3234314243333846323333332F636E782E786D6C504B01021400140006080800CC70623B8D05915C650500003B10000034000000000000000000000000006E0800006662782F36394639363044362D344446342D343946362D394244322D32343142433338
310
46323333332F6F626A656374732E786D6C504B01021400140006080000CC70623B0000000000000000000000003500000000000000000000000000250E00006662782F36394639363044362D344446342D343946362D394244322D3234314243333846323333332F76657274696365732E62696E504B010214001400060808
310
00CC70623BF270F13306000000040000003600000000000000000000000000780E00006662782F36394639363044362D344446342D343946362D394244322D3234314243333846323333332F747269616E676C65732E62696E504B01021400140006080000CC70623B00000000000000000000000037000000000000000000
310
00000000D20E00006662782F36394639363044362D344446342D343946362D394244322D3234314243333846323333332F617474726962757465732E62696E504B01021400140006080800CC70623B08DA0BD190000000410100003600000000000000000000000000270F00006662782F36394639363044362D344446342D
310
343946362D394244322D3234314243333846323333332F6469726563746F72792E786D6C504B01021400140006080800CC70623BCA768048FE000000A00100003B000000000000000000000000000B1000006662782F36394639363044362D344446342D343946362D394244322D3234314243333846323333332F7265736F
310
75726365732F636F72652E786D6C504B0506000000000E000E0080040000621100000000
  0
XRECORD
  5
176
102
{ACAD_REACTORS
330
173
102
}
330
173
100
AcDbXrecord
280
     1
270
     1
271
     1
  0
XRECORD
  5
177
102
{ACAD_REACTORS
330
173
102
}
330
173
100
AcDbXrecord
280
     1
270
     1
271
     1
  0
XRECORD
  5
1AF6D
102
{ACAD_REACTORS
330
1AF6C
102
}
330
1AF6C
100
AcDbXrecord
280
     1
102
ACAD_ROUNDTRIP_2012_MLEADER_STYLE
298
     1
  0
XRECORD
  5
1AF7F
102
{ACAD_REACTORS
330
1AF7E
102
}
330
1AF7E
100
AcDbXrecord
280
     1
102
DISPLAYNAME
  1
Metric50
102
FLAGS
 90
        0
  0
CELLSTYLEMAP
  5
1AF3F
102
{ACAD_REACTORS
330
162
102
}
330
162
100
AcDbCellStyleMap
 90
        3
300
CELLSTYLE
  1
TABLEFORMAT_BEGIN
 90
        5
170
     1
 91
        0
 92
    32768
 62
   257
 93
        1
300
CONTENTFORMAT
  1
CONTENTFORMAT_BEGIN
 90
        0
 91
        0
 92
      512
 93
        0
300

 40
0.0
140
1.0
 94
        5
 62
     0
340
11
144
6.0
309
CONTENTFORMAT_END
171
     1
301
MARGIN
  1
CELLMARGIN_BEGIN
 40
1.5
 40
1.5
 40
1.5
 40
1.5
 40
4.5
 40
4.5
309
CELLMARGIN_END
 94
        6
 95
        1
302
GRIDFORMAT
  1
GRIDFORMAT_BEGIN
 90
        0
 91
        1
 62
     0
 92
       -2
340
14
 93
        0
 40
1.125
309
GRIDFORMAT_END
 95
        2
302
GRIDFORMAT
  1
GRIDFORMAT_BEGIN
 90
        0
 91
        1
 62
     0
 92
       -2
340
14
 93
        0
 40
1.125
309
GRIDFORMAT_END
 95
        4
302
GRIDFORMAT
  1
GRIDFORMAT_BEGIN
 90
        0
 91
        1
 62
     0
 92
       -2
340
14
 93
        0
 40
1.125
309
GRIDFORMAT_END
 95
        8
302
GRIDFORMAT
  1
GRIDFORMAT_BEGIN
 90
        0
 91
        1
 62
     0
 92
       -2
340
14
 93
        0
 40
1.125
309
GRIDFORMAT_END
 95
       16
302
GRIDFORMAT
  1
GRIDFORMAT_BEGIN
 90
        0
 91
        1
 62
     0
 92
       -2
340
14
 93
        0
 40
1.125
309
GRIDFORMAT_END
 95
       32
302
GRIDFORMAT
  1
GRIDFORMAT_BEGIN
 90
        0
 91
        1
 62
     0
 92
       -2
340
14
 93
        0
 40
1.125
309
GRIDFORMAT_END
309
TABLEFORMAT_END
  1
CELLSTYLE_BEGIN
 90
        1
 91
        1
300
_TITLE
309
CELLSTYLE_END
300
CELLSTYLE
  1
TABLEFORMAT_BEGIN
 90
        5
170
     1
 91
        0
 92
        0
 62
   257
 93
        1
300
CONTENTFORMAT
  1
CONTENTFORMAT_BEGIN
 90
        0
 91
        0
 92
      512
 93
        0
300

 40
0.0
140
1.0
 94
        5
 62
     0
340
11
144
4.5
309
CONTENTFORMAT_END
171
     1
301
MARGIN
  1
CELLMARGIN_BEGIN
 40
1.5
 40
1.5
 40
1.5
 40
1.5
 40
4.5
 40
4.5
309
CELLMARGIN_END
 94
        6
 95
        1
302
GRIDFORMAT
  1
GRIDFORMAT_BEGIN
 90
        0
 91
        1
 62
     0
 92
       -2
340
14
 93
        0
 40
1.125
309
GRIDFORMAT_END
 95
        2
302
GRIDFORMAT
  1
GRIDFORMAT_BEGIN
 90
        0
 91
        1
 62
     0
 92
       -2
340
14
 93
        0
 40
1.125
309
GRIDFORMAT_END
 95
        4
302
GRIDFORMAT
  1
GRIDFORMAT_BEGIN
 90
        0
 91
        1
 62
     0
 92
       -2
340
14
 93
        0
 40
1.125
309
GRIDFORMAT_END
 95
        8
302
GRIDFORMAT
  1
GRIDFORMAT_BEGIN
 90
        0
 91
        1
 62
     0
 92
       -2
340
14
 93
        0
 40
1.125
309
GRIDFORMAT_END
 95
       16
302
GRIDFORMAT
  1
GRIDFORMAT_BEGIN
 90
        0
 91
        1
 62
     0
 92
       -2
340
14
 93
        0
 40
1.125
309
GRIDFORMAT_END
 95
       32
302
GRIDFORMAT
  1
GRIDFORMAT_BEGIN
 90
        0
 91
        1
 62
     0
 92
       -2
340
14
 93
        0
 40
1.125
309
GRIDFORMAT_END
309
TABLEFORMAT_END
  1
CELLSTYLE_BEGIN
 90
        2
 91
        1
300
_HEADER
309
CELLSTYLE_END
300
CELLSTYLE
  1
TABLEFORMAT_BEGIN
 90
        5
170
     1
 91
        0
 92
        0
 62
   257
 93
        1
300
CONTENTFORMAT
  1
CONTENTFORMAT_BEGIN
 90
        0
 91
        0
 92
      512
 93
        0
300

 40
0.0
140
1.0
 94
        2
 62
     0
340
11
144
4.5
309
CONTENTFORMAT_END
171
     1
301
MARGIN
  1
CELLMARGIN_BEGIN
 40
1.5
 40
1.5
 40
1.5
 40
1.5
 40
4.5
 40
4.5
309
CELLMARGIN_END
 94
        6
 95
        1
302
GRIDFORMAT
  1
GRIDFORMAT_BEGIN
 90
        0
 91
        1
 62
     0
 92
       -2
340
14
 93
        0
 40
1.125
309
GRIDFORMAT_END
 95
        2
302
GRIDFORMAT
  1
GRIDFORMAT_BEGIN
 90
        0
 91
        1
 62
     0
 92
       -2
340
14
 93
        0
 40
1.125
309
GRIDFORMAT_END
 95
        4
302
GRIDFORMAT
  1
GRIDFORMAT_BEGIN
 90
        0
 91
        1
 62
     0
 92
       -2
340
14
 93
        0
 40
1.125
309
GRIDFORMAT_END
 95
        8
302
GRIDFORMAT
  1
GRIDFORMAT_BEGIN
 90
        0
 91
        1
 62
     0
 92
       -2
340
14
 93
        0
 40
1.125
309
GRIDFORMAT_END
 95
       16
302
GRIDFORMAT
  1
GRIDFORMAT_BEGIN
 90
        0
 91
        1
 62
     0
 92
       -2
340
14
 93
        0
 40
1.125
309
GRIDFORMAT_END
 95
       32
302
GRIDFORMAT
  1
GRIDFORMAT_BEGIN
 90
        0
 91
        1
 62
     0
 92
       -2
340
14
 93
        0
 40
1.125
309
GRIDFORMAT_END
309
TABLEFORMAT_END
  1
CELLSTYLE_BEGIN
 90
        3
 91
        2
300
_DATA
309
CELLSTYLE_END
  0
XRECORD
  5
1AF44
102
{ACAD_REACTORS
330
162
102
}
330
162
100
AcDbXrecord
280
     1
102
ACAD_ROUNDTRIP_PRE2007_TABLESTYLE
 90
      512
 91
        0
  1

 92
      512
 93
        0
  2

 94
      512
 95
        0
  3

  0
XRECORD
  5
1AF57
102
{ACAD_REACTORS
330
1AF56
102
}
330
1AF56
100
AcDbXrecord
280
     1
102
RTVSPost2010Prop28
280
     1
102
RTVSPost2010PropOp28
 70
     1
102
RTVSPost2010Prop29
280
     1
102
RTVSPost2010PropOp29
 70
     1
102
RTVSPost2010Prop30
280
     0
102
RTVSPost2010PropOp30
 70
     1
102
RTVSPost2010Prop31
280
     0
102
RTVSPost2010PropOp31
 70
     1
102
RTVSPost2010Prop32
280
     0
102
RTVSPost2010PropOp32
 70
     1
102
RTVSPost2010Prop33
280
     0
102
RTVSPost2010PropOp33
 70
     1
102
RTVSPost2010Prop34
280
     0
102
RTVSPost2010PropOp34
 70
     1
102
RTVSPost2010Prop35
280
     0
102
RTVSPost2010PropOp35
 70
     1
102
RTVSPost2010Prop36
280
     0
102
RTVSPost2010PropOp36
 70
     1
102
RTVSPost2010Prop37
 90
       50
102
RTVSPost2010PropOp37
 70
     1
102
RTVSPost2010Prop38
140
0.0
102
RTVSPost2010PropOp38
 70
     1
102
RTVSPost2010Prop39
140
1.0
102
RTVSPost2010PropOp39
 70
     1
102
RTVSPost2010Prop40
 90
        0
102
RTVSPost2010PropOp40
 70
     1
102
RTVSPost2010Prop41ColorIndex
 90
       18
102
RTVSPost2010Prop41ColorRGB
 90
        0
102
RTVSPost2010PropOp41
 70
     1
102
RTVSPost2010Prop42
 90
       50
102
RTVSPost2010PropOp42
 70
     1
102
RTVSPost2010Prop43
 90
        3
102
RTVSPost2010PropOp43
 70
     1
102
RTVSPost2010Prop44ColorIndex
 90
        5
102
RTVSPost2010Prop44ColorRGB
 90
      255
102
RTVSPost2010PropOp44
 70
     1
102
RTVSPost2010Prop45
280
     0
102
RTVSPost2010PropOp45
 70
     1
102
RTVSPost2010Prop46
 90
       50
102
RTVSPost2010PropOp46
 70
     1
102
RTVSPost2010Prop47
 90
       50
102
RTVSPost2010PropOp47
 70
     1
102
RTVSPost2010Prop48
 90
       50
102
RTVSPost2010PropOp48
 70
     1
102
RTVSPost2010Prop49
280
     0
102
RTVSPost2010PropOp49
 70
     1
102
RTVSPost2010Prop50
 90
       50
102
RTVSPost2010PropOp50
 70
     1
102
RTVSPost2010Prop51ColorIndex
 90
      256
102
RTVSPost2010Prop51ColorRGB
 90
-16777216
102
RTVSPost2010PropOp51
 70
     0
102
RTVSPost2010Prop52
140
1.0
102
RTVSPost2010PropOp52
 70
     0
102
RTVSPost2010Prop53
 90
        2
102
RTVSPost2010PropOp53
 70
     1
102
RTVSPost2010Prop54
  1
strokes_ogs.tif
102
RTVSPost2010PropOp54
 70
     1
102
RTVSPost2010Prop55
280
     0
102
RTVSPost2010PropOp55
 70
     1
102
RTVSPost2010Prop56
140
1.0
102
RTVSPost2010PropOp56
 70
     1
102
RTVSPost2010Prop57
140
1.0
102
RTVSPost2010PropOp57
 70
     1
102
RTVSPropertyOp0
 70
     1
102
RTVSPropertyOp1
 70
     1
102
RTVSPropertyOp2
 70
     1
102
RTVSPropertyOp3
 70
     1
102
RTVSPropertyOp4
 70
     1
102
RTVSPropertyOp5
 70
     1
102
RTVSPropertyOp6
 70
     1
102
RTVSPropertyOp7
 70
     1
102
RTVSPropertyOp8
 70
     1
102
RTVSPropertyOp9
 70
     1
102
RTVSPropertyOp10
 70
     1
102
RTVSPropertyOp11
 70
     1
102
RTVSPropertyOp12
 70
     1
102
RTVSPropertyOp13
 70
     1
102
RTVSPropertyOp14
 70
     1
102
RTVSPropertyOp15
 70
     1
102
RTVSPropertyOp16
 70
     1
102
RTVSPropertyOp17
 70
     1
102
RTVSPropertyOp18
 70
     1
102
RTVSPropertyOp19
 70
     1
102
RTVSPropertyOp20
 70
     1
102
RTVSPropertyOp21
 70
     1
102
RTVSPropertyOp22
 70
     1
102
RTVSPropertyOp23
 70
     1
102
RTVSPropertyOp24
 70
     1
102
RTVSPropertyOp25
 70
     1
102
RTVSPropertyOp26
 70
     1
102
RTVSPropertyOp27
 70
     1
102
RTVSPropertyOp28
 70
     1
102
RTVSPropertyOp29
 70
     1
102
RTVSPropertyOp30
 70
     1
102
RTVSPropertyOp31
 70
     1
102
RTVSPropertyOp32
 70
     1
102
RTVSPropertyOp33
 70
     1
102
RTVSPropertyOp34
 70
     1
102
RTVSPropertyOp35
 70
     1
102
RTVSPropertyOp36
 70
     1
102
RTVSPropertyOp37
 70
     1
102
RTVSPropertyOp38
 70
     1
102
RTVSPropertyOp39
 70
     1
102
RTVSPropertyOp40
 70
     1
102
RTVSPropertyOp41
 70
     1
102
RTVSPropertyOp42
 70
     1
102
RTVSPropertyOp43
 70
     1
102
RTVSPropertyOp44
 70
     1
102
RTVSPropertyOp45
 70
     1
102
RTVSPropertyOp46
 70
     1
102
RTVSPropertyOp47
 70
     1
102
RTVSPropertyOp48
 70
     1
102
RTVSPropertyOp49
 70
     1
102
RTVSPropertyOp50
 70
     1
102
RTVSPropertyOp51
 70
     0
102
RTVSPropertyOp52
 70
     0
102
RTVSPropertyOp53
 70
     1
102
RTVSPropertyOp54
 70
     1
102
RTVSPropertyOp55
 70
     1
102
RTVSPropertyOp56
 70
     1
102
RTVSPropertyOp57
 70
     1
102
RTVSPropertyOp58
 70
     1
102
RTVSPropertyOp59
 70
     1
102
RTVSPropertyOp60
 70
     1
102
RTVSPropertyOp61
 70
     1
102
RTVSPropertyOp62
 70
     1
  0
XRECORD
  5
1AF55
102
{ACAD_REACTORS
330
1AF54
102
}
330
1AF54
100
AcDbXrecord
280
     1
102
RTVSPost2010Prop28
280
     0
102
RTVSPost2010PropOp28
 70
     1
102
RTVSPost2010Prop29
280
     1
102
RTVSPost2010PropOp29
 70
     1
102
RTVSPost2010Prop30
280
     1
102
RTVSPost2010PropOp30
 70
     1
102
RTVSPost2010Prop31
280
     0
102
RTVSPost2010PropOp31
 70
     1
102
RTVSPost2010Prop32
280
     0
102
RTVSPost2010PropOp32
 70
     1
102
RTVSPost2010Prop33
280
     0
102
RTVSPost2010PropOp33
 70
     1
102
RTVSPost2010Prop34
280
     0
102
RTVSPost2010PropOp34
 70
     1
102
RTVSPost2010Prop35
280
     0
102
RTVSPost2010PropOp35
 70
     1
102
RTVSPost2010Prop36
280
     0
102
RTVSPost2010PropOp36
 70
     1
102
RTVSPost2010Prop37
 90
       50
102
RTVSPost2010PropOp37
 70
     1
102
RTVSPost2010Prop38
140
0.0
102
RTVSPost2010PropOp38
 70
     1
102
RTVSPost2010Prop39
140
1.0
102
RTVSPost2010PropOp39
 70
     1
102
RTVSPost2010Prop40
 90
        0
102
RTVSPost2010PropOp40
 70
     1
102
RTVSPost2010Prop41ColorIndex
 90
       18
102
RTVSPost2010Prop41ColorRGB
 90
        0
102
RTVSPost2010PropOp41
 70
     1
102
RTVSPost2010Prop42
 90
       50
102
RTVSPost2010PropOp42
 70
     1
102
RTVSPost2010Prop43
 90
        3
102
RTVSPost2010PropOp43
 70
     1
102
RTVSPost2010Prop44ColorIndex
 90
        5
102
RTVSPost2010Prop44ColorRGB
 90
      255
102
RTVSPost2010PropOp44
 70
     1
102
RTVSPost2010Prop45
280
     0
102
RTVSPost2010PropOp45
 70
     1
102
RTVSPost2010Prop46
 90
       50
102
RTVSPost2010PropOp46
 70
     1
102
RTVSPost2010Prop47
 90
       50
102
RTVSPost2010PropOp47
 70
     1
102
RTVSPost2010Prop48
 90
       50
102
RTVSPost2010PropOp48
 70
     1
102
RTVSPost2010Prop49
280
     0
102
RTVSPost2010PropOp49
 70
     1
102
RTVSPost2010Prop50
 90
       50
102
RTVSPost2010PropOp50
 70
     1
102
RTVSPost2010Prop51ColorIndex
 90
      256
102
RTVSPost2010Prop51ColorRGB
 90
-16777216
102
RTVSPost2010PropOp51
 70
     0
102
RTVSPost2010Prop52
140
1.0
102
RTVSPost2010PropOp52
 70
     0
102
RTVSPost2010Prop53
 90
        2
102
RTVSPost2010PropOp53
 70
     1
102
RTVSPost2010Prop54
  1
strokes_ogs.tif
102
RTVSPost2010PropOp54
 70
     1
102
RTVSPost2010Prop55
280
     0
102
RTVSPost2010PropOp55
 70
     1
102
RTVSPost2010Prop56
140
1.0
102
RTVSPost2010PropOp56
 70
     1
102
RTVSPost2010Prop57
140
1.0
102
RTVSPost2010PropOp57
 70
     1
102
RTVSPropertyOp0
 70
     1
102
RTVSPropertyOp1
 70
     1
102
RTVSPropertyOp2
 70
     1
102
RTVSPropertyOp3
 70
     1
102
RTVSPropertyOp4
 70
     1
102
RTVSPropertyOp5
 70
     1
102
RTVSPropertyOp6
 70
     1
102
RTVSPropertyOp7
 70
     1
102
RTVSPropertyOp8
 70
     1
102
RTVSPropertyOp9
 70
     1
102
RTVSPropertyOp10
 70
     1
102
RTVSPropertyOp11
 70
     1
102
RTVSPropertyOp12
 70
     1
102
RTVSPropertyOp13
 70
     1
102
RTVSPropertyOp14
 70
     1
102
RTVSPropertyOp15
 70
     1
102
RTVSPropertyOp16
 70
     1
102
RTVSPropertyOp17
 70
     1
102
RTVSPropertyOp18
 70
     1
102
RTVSPropertyOp19
 70
     1
102
RTVSPropertyOp20
 70
     1
102
RTVSPropertyOp21
 70
     1
102
RTVSPropertyOp22
 70
     1
102
RTVSPropertyOp23
 70
     1
102
RTVSPropertyOp24
 70
     1
102
RTVSPropertyOp25
 70
     1
102
RTVSPropertyOp26
 70
     1
102
RTVSPropertyOp27
 70
     1
102
RTVSPropertyOp28
 70
     1
102
RTVSPropertyOp29
 70
     1
102
RTVSPropertyOp30
 70
     1
102
RTVSPropertyOp31
 70
     1
102
RTVSPropertyOp32
 70
     1
102
RTVSPropertyOp33
 70
     1
102
RTVSPropertyOp34
 70
     1
102
RTVSPropertyOp35
 70
     1
102
RTVSPropertyOp36
 70
     1
102
RTVSPropertyOp37
 70
     1
102
RTVSPropertyOp38
 70
     1
102
RTVSPropertyOp39
 70
     1
102
RTVSPropertyOp40
 70
     1
102
RTVSPropertyOp41
 70
     1
102
RTVSPropertyOp42
 70
     1
102
RTVSPropertyOp43
 70
     1
102
RTVSPropertyOp44
 70
     1
102
RTVSPropertyOp45
 70
     1
102
RTVSPropertyOp46
 70
     1
102
RTVSPropertyOp47
 70
     1
102
RTVSPropertyOp48
 70
     1
102
RTVSPropertyOp49
 70
     1
102
RTVSPropertyOp50
 70
     1
102
RTVSPropertyOp51
 70
     0
102
RTVSPropertyOp52
 70
     0
102
RTVSPropertyOp53
 70
     1
102
RTVSPropertyOp54
 70
     1
102
RTVSPropertyOp55
 70
     1
102
RTVSPropertyOp56
 70
     1
102
RTVSPropertyOp57
 70
     1
102
RTVSPropertyOp58
 70
     1
102
RTVSPropertyOp59
 70
     1
102
RTVSPropertyOp60
 70
     1
102
RTVSPropertyOp61
 70
     1
102
RTVSPropertyOp62
 70
     1
  0
XRECORD
  5
1AF63
102
{ACAD_REACTORS
330
1AF62
102
}
330
1AF62
100
AcDbXrecord
280
     1
102
RTVSPost2010Prop28
280
     0
102
RTVSPost2010PropOp28
 70
     1
102
RTVSPost2010Prop29
280
     1
102
RTVSPost2010PropOp29
 70
     1
102
RTVSPost2010Prop30
280
     1
102
RTVSPost2010PropOp30
 70
     1
102
RTVSPost2010Prop31
280
     0
102
RTVSPost2010PropOp31
 70
     1
102
RTVSPost2010Prop32
280
     0
102
RTVSPost2010PropOp32
 70
     1
102
RTVSPost2010Prop33
280
     0
102
RTVSPost2010PropOp33
 70
     1
102
RTVSPost2010Prop34
280
     0
102
RTVSPost2010PropOp34
 70
     1
102
RTVSPost2010Prop35
280
     0
102
RTVSPost2010PropOp35
 70
     1
102
RTVSPost2010Prop36
280
     0
102
RTVSPost2010PropOp36
 70
     1
102
RTVSPost2010Prop37
 90
       50
102
RTVSPost2010PropOp37
 70
     1
102
RTVSPost2010Prop38
140
0.0
102
RTVSPost2010PropOp38
 70
     1
102
RTVSPost2010Prop39
140
1.0
102
RTVSPost2010PropOp39
 70
     1
102
RTVSPost2010Prop40
 90
        0
102
RTVSPost2010PropOp40
 70
     1
102
RTVSPost2010Prop41ColorIndex
 90
       18
102
RTVSPost2010Prop41ColorRGB
 90
        0
102
RTVSPost2010PropOp41
 70
     1
102
RTVSPost2010Prop42
 90
       50
102
RTVSPost2010PropOp42
 70
     1
102
RTVSPost2010Prop43
 90
        3
102
RTVSPost2010PropOp43
 70
     1
102
RTVSPost2010Prop44ColorIndex
 90
        5
102
RTVSPost2010Prop44ColorRGB
 90
      255
102
RTVSPost2010PropOp44
 70
     1
102
RTVSPost2010Prop45
280
     0
102
RTVSPost2010PropOp45
 70
     1
102
RTVSPost2010Prop46
 90
       50
102
RTVSPost2010PropOp46
 70
     1
102
RTVSPost2010Prop47
 90
       50
102
RTVSPost2010PropOp47
 70
     1
102
RTVSPost2010Prop48
 90
       50
102
RTVSPost2010PropOp48
 70
     1
102
RTVSPost2010Prop49
280
     0
102
RTVSPost2010PropOp49
 70
     1
102
RTVSPost2010Prop50
 90
       50
102
RTVSPost2010PropOp50
 70
     1
102
RTVSPost2010Prop51ColorIndex
 90
      256
102
RTVSPost2010Prop51ColorRGB
 90
-16777216
102
RTVSPost2010PropOp51
 70
     0
102
RTVSPost2010Prop52
140
1.0
102
RTVSPost2010PropOp52
 70
     0
102
RTVSPost2010Prop53
 90
        2
102
RTVSPost2010PropOp53
 70
     1
102
RTVSPost2010Prop54
  1
strokes_ogs.tif
102
RTVSPost2010PropOp54
 70
     1
102
RTVSPost2010Prop55
280
     0
102
RTVSPost2010PropOp55
 70
     1
102
RTVSPost2010Prop56
140
1.0
102
RTVSPost2010PropOp56
 70
     1
102
RTVSPost2010Prop57
140
1.0
102
RTVSPost2010PropOp57
 70
     1
102
RTVSPropertyOp0
 70
     1
102
RTVSPropertyOp1
 70
     1
102
RTVSPropertyOp2
 70
     1
102
RTVSPropertyOp3
 70
     1
102
RTVSPropertyOp4
 70
     1
102
RTVSPropertyOp5
 70
     1
102
RTVSPropertyOp6
 70
     1
102
RTVSPropertyOp7
 70
     1
102
RTVSPropertyOp8
 70
     1
102
RTVSPropertyOp9
 70
     1
102
RTVSPropertyOp10
 70
     1
102
RTVSPropertyOp11
 70
     1
102
RTVSPropertyOp12
 70
     1
102
RTVSPropertyOp13
 70
     1
102
RTVSPropertyOp14
 70
     1
102
RTVSPropertyOp15
 70
     1
102
RTVSPropertyOp16
 70
     1
102
RTVSPropertyOp17
 70
     1
102
RTVSPropertyOp18
 70
     1
102
RTVSPropertyOp19
 70
     1
102
RTVSPropertyOp20
 70
     1
102
RTVSPropertyOp21
 70
     1
102
RTVSPropertyOp22
 70
     1
102
RTVSPropertyOp23
 70
     1
102
RTVSPropertyOp24
 70
     1
102
RTVSPropertyOp25
 70
     1
102
RTVSPropertyOp26
 70
     1
102
RTVSPropertyOp27
 70
     1
102
RTVSPropertyOp28
 70
     1
102
RTVSPropertyOp29
 70
     1
102
RTVSPropertyOp30
 70
     1
102
RTVSPropertyOp31
 70
     1
102
RTVSPropertyOp32
 70
     1
102
RTVSPropertyOp33
 70
     1
102
RTVSPropertyOp34
 70
     1
102
RTVSPropertyOp35
 70
     1
102
RTVSPropertyOp36
 70
     1
102
RTVSPropertyOp37
 70
     1
102
RTVSPropertyOp38
 70
     1
102
RTVSPropertyOp39
 70
     1
102
RTVSPropertyOp40
 70
     1
102
RTVSPropertyOp41
 70
     1
102
RTVSPropertyOp42
 70
     1
102
RTVSPropertyOp43
 70
     1
102
RTVSPropertyOp44
 70
     1
102
RTVSPropertyOp45
 70
     1
102
RTVSPropertyOp46
 70
     1
102
RTVSPropertyOp47
 70
     1
102
RTVSPropertyOp48
 70
     1
102
RTVSPropertyOp49
 70
     1
102
RTVSPropertyOp50
 70
     1
102
RTVSPropertyOp51
 70
     0
102
RTVSPropertyOp52
 70
     0
102
RTVSPropertyOp53
 70
     1
102
RTVSPropertyOp54
 70
     1
102
RTVSPropertyOp55
 70
     1
102
RTVSPropertyOp56
 70
     1
102
RTVSPropertyOp57
 70
     1
102
RTVSPropertyOp58
 70
     1
102
RTVSPropertyOp59
 70
     1
102
RTVSPropertyOp60
 70
     1
102
RTVSPropertyOp61
 70
     1
102
RTVSPropertyOp62
 70
     1
  0
XRECORD
  5
1AF6B
102
{ACAD_REACTORS
330
1AF6A
102
}
330
1AF6A
100
AcDbXrecord
280
     1
102
RTVSPost2010Prop28
280
     0
102
RTVSPost2010PropOp28
 70
     1
102
RTVSPost2010Prop29
280
     1
102
RTVSPost2010PropOp29
 70
     1
102
RTVSPost2010Prop30
280
     1
102
RTVSPost2010PropOp30
 70
     1
102
RTVSPost2010Prop31
280
     0
102
RTVSPost2010PropOp31
 70
     1
102
RTVSPost2010Prop32
280
     0
102
RTVSPost2010PropOp32
 70
     1
102
RTVSPost2010Prop33
280
     0
102
RTVSPost2010PropOp33
 70
     1
102
RTVSPost2010Prop34
280
     0
102
RTVSPost2010PropOp34
 70
     1
102
RTVSPost2010Prop35
280
     0
102
RTVSPost2010PropOp35
 70
     1
102
RTVSPost2010Prop36
280
     0
102
RTVSPost2010PropOp36
 70
     1
102
RTVSPost2010Prop37
 90
       50
102
RTVSPost2010PropOp37
 70
     1
102
RTVSPost2010Prop38
140
0.0
102
RTVSPost2010PropOp38
 70
     1
102
RTVSPost2010Prop39
140
1.0
102
RTVSPost2010PropOp39
 70
     1
102
RTVSPost2010Prop40
 90
        0
102
RTVSPost2010PropOp40
 70
     1
102
RTVSPost2010Prop41ColorIndex
 90
       18
102
RTVSPost2010Prop41ColorRGB
 90
        0
102
RTVSPost2010PropOp41
 70
     1
102
RTVSPost2010Prop42
 90
       50
102
RTVSPost2010PropOp42
 70
     1
102
RTVSPost2010Prop43
 90
        3
102
RTVSPost2010PropOp43
 70
     1
102
RTVSPost2010Prop44ColorIndex
 90
        5
102
RTVSPost2010Prop44ColorRGB
 90
      255
102
RTVSPost2010PropOp44
 70
     1
102
RTVSPost2010Prop45
280
     0
102
RTVSPost2010PropOp45
 70
     1
102
RTVSPost2010Prop46
 90
       50
102
RTVSPost2010PropOp46
 70
     1
102
RTVSPost2010Prop47
 90
       50
102
RTVSPost2010PropOp47
 70
     1
102
RTVSPost2010Prop48
 90
       50
102
RTVSPost2010PropOp48
 70
     1
102
RTVSPost2010Prop49
280
     0
102
RTVSPost2010PropOp49
 70
     1
102
RTVSPost2010Prop50
 90
       50
102
RTVSPost2010PropOp50
 70
     1
102
RTVSPost2010Prop51ColorIndex
 90
      256
102
RTVSPost2010Prop51ColorRGB
 90
-16777216
102
RTVSPost2010PropOp51
 70
     0
102
RTVSPost2010Prop52
140
1.0
102
RTVSPost2010PropOp52
 70
     0
102
RTVSPost2010Prop53
 90
        2
102
RTVSPost2010PropOp53
 70
     1
102
RTVSPost2010Prop54
  1
strokes_ogs.tif
102
RTVSPost2010PropOp54
 70
     1
102
RTVSPost2010Prop55
280
     0
102
RTVSPost2010PropOp55
 70
     1
102
RTVSPost2010Prop56
140
1.0
102
RTVSPost2010PropOp56
 70
     1
102
RTVSPost2010Prop57
140
1.0
102
RTVSPost2010PropOp57
 70
     1
102
RTVSPropertyOp0
 70
     1
102
RTVSPropertyOp1
 70
     1
102
RTVSPropertyOp2
 70
     1
102
RTVSPropertyOp3
 70
     1
102
RTVSPropertyOp4
 70
     1
102
RTVSPropertyOp5
 70
     1
102
RTVSPropertyOp6
 70
     1
102
RTVSPropertyOp7
 70
     1
102
RTVSPropertyOp8
 70
     1
102
RTVSPropertyOp9
 70
     1
102
RTVSPropertyOp10
 70
     1
102
RTVSPropertyOp11
 70
     1
102
RTVSPropertyOp12
 70
     1
102
RTVSPropertyOp13
 70
     1
102
RTVSPropertyOp14
 70
     1
102
RTVSPropertyOp15
 70
     1
102
RTVSPropertyOp16
 70
     1
102
RTVSPropertyOp17
 70
     1
102
RTVSPropertyOp18
 70
     1
102
RTVSPropertyOp19
 70
     1
102
RTVSPropertyOp20
 70
     1
102
RTVSPropertyOp21
 70
     1
102
RTVSPropertyOp22
 70
     1
102
RTVSPropertyOp23
 70
     1
102
RTVSPropertyOp24
 70
     1
102
RTVSPropertyOp25
 70
     1
102
RTVSPropertyOp26
 70
     1
102
RTVSPropertyOp27
 70
     1
102
RTVSPropertyOp28
 70
     1
102
RTVSPropertyOp29
 70
     1
102
RTVSPropertyOp30
 70
     1
102
RTVSPropertyOp31
 70
     1
102
RTVSPropertyOp32
 70
     1
102
RTVSPropertyOp33
 70
     1
102
RTVSPropertyOp34
 70
     1
102
RTVSPropertyOp35
 70
     1
102
RTVSPropertyOp36
 70
     1
102
RTVSPropertyOp37
 70
     1
102
RTVSPropertyOp38
 70
     1
102
RTVSPropertyOp39
 70
     1
102
RTVSPropertyOp40
 70
     1
102
RTVSPropertyOp41
 70
     1
102
RTVSPropertyOp42
 70
     1
102
RTVSPropertyOp43
 70
     1
102
RTVSPropertyOp44
 70
     1
102
RTVSPropertyOp45
 70
     1
102
RTVSPropertyOp46
 70
     1
102
RTVSPropertyOp47
 70
     1
102
RTVSPropertyOp48
 70
     1
102
RTVSPropertyOp49
 70
     1
102
RTVSPropertyOp50
 70
     1
102
RTVSPropertyOp51
 70
     0
102
RTVSPropertyOp52
 70
     0
102
RTVSPropertyOp53
 70
     1
102
RTVSPropertyOp54
 70
     1
102
RTVSPropertyOp55
 70
     1
102
RTVSPropertyOp56
 70
     1
102
RTVSPropertyOp57
 70
     1
102
RTVSPropertyOp58
 70
     1
102
RTVSPropertyOp59
 70
     1
102
RTVSPropertyOp60
 70
     1
102
RTVSPropertyOp61
 70
     1
102
RTVSPropertyOp62
 70
     1
  0
XRECORD
  5
1AF5D
102
{ACAD_REACTORS
330
1AF5C
102
}
330
1AF5C
100
AcDbXrecord
280
     1
102
RTVSPost2010Prop28
280
     0
102
RTVSPost2010PropOp28
 70
     1
102
RTVSPost2010Prop29
280
     1
102
RTVSPost2010PropOp29
 70
     1
102
RTVSPost2010Prop30
280
     1
102
RTVSPost2010PropOp30
 70
     1
102
RTVSPost2010Prop31
280
     0
102
RTVSPost2010PropOp31
 70
     1
102
RTVSPost2010Prop32
280
     0
102
RTVSPost2010PropOp32
 70
     1
102
RTVSPost2010Prop33
280
     0
102
RTVSPost2010PropOp33
 70
     1
102
RTVSPost2010Prop34
280
     0
102
RTVSPost2010PropOp34
 70
     1
102
RTVSPost2010Prop35
280
     0
102
RTVSPost2010PropOp35
 70
     1
102
RTVSPost2010Prop36
280
     0
102
RTVSPost2010PropOp36
 70
     1
102
RTVSPost2010Prop37
 90
       50
102
RTVSPost2010PropOp37
 70
     1
102
RTVSPost2010Prop38
140
0.0
102
RTVSPost2010PropOp38
 70
     1
102
RTVSPost2010Prop39
140
1.0
102
RTVSPost2010PropOp39
 70
     1
102
RTVSPost2010Prop40
 90
        0
102
RTVSPost2010PropOp40
 70
     1
102
RTVSPost2010Prop41ColorIndex
 90
       18
102
RTVSPost2010Prop41ColorRGB
 90
        0
102
RTVSPost2010PropOp41
 70
     1
102
RTVSPost2010Prop42
 90
       50
102
RTVSPost2010PropOp42
 70
     1
102
RTVSPost2010Prop43
 90
        3
102
RTVSPost2010PropOp43
 70
     1
102
RTVSPost2010Prop44ColorIndex
 90
        5
102
RTVSPost2010Prop44ColorRGB
 90
      255
102
RTVSPost2010PropOp44
 70
     1
102
RTVSPost2010Prop45
280
     0
102
RTVSPost2010PropOp45
 70
     1
102
RTVSPost2010Prop46
 90
       50
102
RTVSPost2010PropOp46
 70
     1
102
RTVSPost2010Prop47
 90
       50
102
RTVSPost2010PropOp47
 70
     1
102
RTVSPost2010Prop48
 90
       50
102
RTVSPost2010PropOp48
 70
     1
102
RTVSPost2010Prop49
280
     0
102
RTVSPost2010PropOp49
 70
     1
102
RTVSPost2010Prop50
 90
       50
102
RTVSPost2010PropOp50
 70
     1
102
RTVSPost2010Prop51ColorIndex
 90
      256
102
RTVSPost2010Prop51ColorRGB
 90
-16777216
102
RTVSPost2010PropOp51
 70
     0
102
RTVSPost2010Prop52
140
1.0
102
RTVSPost2010PropOp52
 70
     0
102
RTVSPost2010Prop53
 90
        2
102
RTVSPost2010PropOp53
 70
     1
102
RTVSPost2010Prop54
  1
strokes_ogs.tif
102
RTVSPost2010PropOp54
 70
     1
102
RTVSPost2010Prop55
280
     0
102
RTVSPost2010PropOp55
 70
     1
102
RTVSPost2010Prop56
140
1.0
102
RTVSPost2010PropOp56
 70
     1
102
RTVSPost2010Prop57
140
1.0
102
RTVSPost2010PropOp57
 70
     1
102
RTVSPropertyOp0
 70
     1
102
RTVSPropertyOp1
 70
     1
102
RTVSPropertyOp2
 70
     1
102
RTVSPropertyOp3
 70
     1
102
RTVSPropertyOp4
 70
     1
102
RTVSPropertyOp5
 70
     1
102
RTVSPropertyOp6
 70
     1
102
RTVSPropertyOp7
 70
     1
102
RTVSPropertyOp8
 70
     1
102
RTVSPropertyOp9
 70
     1
102
RTVSPropertyOp10
 70
     1
102
RTVSPropertyOp11
 70
     1
102
RTVSPropertyOp12
 70
     1
102
RTVSPropertyOp13
 70
     1
102
RTVSPropertyOp14
 70
     1
102
RTVSPropertyOp15
 70
     1
102
RTVSPropertyOp16
 70
     1
102
RTVSPropertyOp17
 70
     1
102
RTVSPropertyOp18
 70
     1
102
RTVSPropertyOp19
 70
     1
102
RTVSPropertyOp20
 70
     1
102
RTVSPropertyOp21
 70
     1
102
RTVSPropertyOp22
 70
     1
102
RTVSPropertyOp23
 70
     1
102
RTVSPropertyOp24
 70
     1
102
RTVSPropertyOp25
 70
     1
102
RTVSPropertyOp26
 70
     1
102
RTVSPropertyOp27
 70
     1
102
RTVSPropertyOp28
 70
     1
102
RTVSPropertyOp29
 70
     1
102
RTVSPropertyOp30
 70
     1
102
RTVSPropertyOp31
 70
     1
102
RTVSPropertyOp32
 70
     1
102
RTVSPropertyOp33
 70
     1
102
RTVSPropertyOp34
 70
     1
102
RTVSPropertyOp35
 70
     1
102
RTVSPropertyOp36
 70
     1
102
RTVSPropertyOp37
 70
     1
102
RTVSPropertyOp38
 70
     1
102
RTVSPropertyOp39
 70
     1
102
RTVSPropertyOp40
 70
     1
102
RTVSPropertyOp41
 70
     1
102
RTVSPropertyOp42
 70
     1
102
RTVSPropertyOp43
 70
     1
102
RTVSPropertyOp44
 70
     1
102
RTVSPropertyOp45
 70
     1
102
RTVSPropertyOp46
 70
     1
102
RTVSPropertyOp47
 70
     1
102
RTVSPropertyOp48
 70
     1
102
RTVSPropertyOp49
 70
     1
102
RTVSPropertyOp50
 70
     1
102
RTVSPropertyOp51
 70
     0
102
RTVSPropertyOp52
 70
     0
102
RTVSPropertyOp53
 70
     1
102
RTVSPropertyOp54
 70
     1
102
RTVSPropertyOp55
 70
     1
102
RTVSPropertyOp56
 70
     1
102
RTVSPropertyOp57
 70
     1
102
RTVSPropertyOp58
 70
     1
102
RTVSPropertyOp59
 70
     1
102
RTVSPropertyOp60
 70
     1
102
RTVSPropertyOp61
 70
     1
102
RTVSPropertyOp62
 70
     1
  0
XRECORD
  5
1AF61
102
{ACAD_REACTORS
330
1AF60
102
}
330
1AF60
100
AcDbXrecord
280
     1
102
RTVSPost2010Prop28
280
     0
102
RTVSPost2010PropOp28
 70
     1
102
RTVSPost2010Prop29
280
     1
102
RTVSPost2010PropOp29
 70
     1
102
RTVSPost2010Prop30
280
     1
102
RTVSPost2010PropOp30
 70
     1
102
RTVSPost2010Prop31
280
     0
102
RTVSPost2010PropOp31
 70
     1
102
RTVSPost2010Prop32
280
     0
102
RTVSPost2010PropOp32
 70
     1
102
RTVSPost2010Prop33
280
     0
102
RTVSPost2010PropOp33
 70
     1
102
RTVSPost2010Prop34
280
     0
102
RTVSPost2010PropOp34
 70
     1
102
RTVSPost2010Prop35
280
     0
102
RTVSPost2010PropOp35
 70
     1
102
RTVSPost2010Prop36
280
     0
102
RTVSPost2010PropOp36
 70
     1
102
RTVSPost2010Prop37
 90
       50
102
RTVSPost2010PropOp37
 70
     1
102
RTVSPost2010Prop38
140
0.0
102
RTVSPost2010PropOp38
 70
     1
102
RTVSPost2010Prop39
140
1.0
102
RTVSPost2010PropOp39
 70
     1
102
RTVSPost2010Prop40
 90
        0
102
RTVSPost2010PropOp40
 70
     1
102
RTVSPost2010Prop41ColorIndex
 90
       18
102
RTVSPost2010Prop41ColorRGB
 90
        0
102
RTVSPost2010PropOp41
 70
     1
102
RTVSPost2010Prop42
 90
       50
102
RTVSPost2010PropOp42
 70
     1
102
RTVSPost2010Prop43
 90
        3
102
RTVSPost2010PropOp43
 70
     1
102
RTVSPost2010Prop44ColorIndex
 90
        5
102
RTVSPost2010Prop44ColorRGB
 90
      255
102
RTVSPost2010PropOp44
 70
     1
102
RTVSPost2010Prop45
280
     0
102
RTVSPost2010PropOp45
 70
     1
102
RTVSPost2010Prop46
 90
       50
102
RTVSPost2010PropOp46
 70
     1
102
RTVSPost2010Prop47
 90
       50
102
RTVSPost2010PropOp47
 70
     1
102
RTVSPost2010Prop48
 90
       50
102
RTVSPost2010PropOp48
 70
     1
102
RTVSPost2010Prop49
280
     0
102
RTVSPost2010PropOp49
 70
     1
102
RTVSPost2010Prop50
 90
       50
102
RTVSPost2010PropOp50
 70
     1
102
RTVSPost2010Prop51ColorIndex
 90
      256
102
RTVSPost2010Prop51ColorRGB
 90
-16777216
102
RTVSPost2010PropOp51
 70
     0
102
RTVSPost2010Prop52
140
1.0
102
RTVSPost2010PropOp52
 70
     0
102
RTVSPost2010Prop53
 90
        2
102
RTVSPost2010PropOp53
 70
     1
102
RTVSPost2010Prop54
  1
strokes_ogs.tif
102
RTVSPost2010PropOp54
 70
     1
102
RTVSPost2010Prop55
280
     0
102
RTVSPost2010PropOp55
 70
     1
102
RTVSPost2010Prop56
140
1.0
102
RTVSPost2010PropOp56
 70
     1
102
RTVSPost2010Prop57
140
1.0
102
RTVSPost2010PropOp57
 70
     1
102
RTVSPropertyOp0
 70
     1
102
RTVSPropertyOp1
 70
     1
102
RTVSPropertyOp2
 70
     1
102
RTVSPropertyOp3
 70
     1
102
RTVSPropertyOp4
 70
     1
102
RTVSPropertyOp5
 70
     1
102
RTVSPropertyOp6
 70
     1
102
RTVSPropertyOp7
 70
     1
102
RTVSPropertyOp8
 70
     1
102
RTVSPropertyOp9
 70
     1
102
RTVSPropertyOp10
 70
     1
102
RTVSPropertyOp11
 70
     1
102
RTVSPropertyOp12
 70
     1
102
RTVSPropertyOp13
 70
     1
102
RTVSPropertyOp14
 70
     1
102
RTVSPropertyOp15
 70
     1
102
RTVSPropertyOp16
 70
     1
102
RTVSPropertyOp17
 70
     1
102
RTVSPropertyOp18
 70
     1
102
RTVSPropertyOp19
 70
     1
102
RTVSPropertyOp20
 70
     1
102
RTVSPropertyOp21
 70
     1
102
RTVSPropertyOp22
 70
     1
102
RTVSPropertyOp23
 70
     1
102
RTVSPropertyOp24
 70
     1
102
RTVSPropertyOp25
 70
     1
102
RTVSPropertyOp26
 70
     1
102
RTVSPropertyOp27
 70
     1
102
RTVSPropertyOp28
 70
     1
102
RTVSPropertyOp29
 70
     1
102
RTVSPropertyOp30
 70
     1
102
RTVSPropertyOp31
 70
     1
102
RTVSPropertyOp32
 70
     1
102
RTVSPropertyOp33
 70
     1
102
RTVSPropertyOp34
 70
     1
102
RTVSPropertyOp35
 70
     1
102
RTVSPropertyOp36
 70
     1
102
RTVSPropertyOp37
 70
     1
102
RTVSPropertyOp38
 70
     1
102
RTVSPropertyOp39
 70
     1
102
RTVSPropertyOp40
 70
     1
102
RTVSPropertyOp41
 70
     1
102
RTVSPropertyOp42
 70
     1
102
RTVSPropertyOp43
 70
     1
102
RTVSPropertyOp44
 70
     1
102
RTVSPropertyOp45
 70
     1
102
RTVSPropertyOp46
 70
     1
102
RTVSPropertyOp47
 70
     1
102
RTVSPropertyOp48
 70
     1
102
RTVSPropertyOp49
 70
     1
102
RTVSPropertyOp50
 70
     1
102
RTVSPropertyOp51
 70
     0
102
RTVSPropertyOp52
 70
     0
102
RTVSPropertyOp53
 70
     1
102
RTVSPropertyOp54
 70
     1
102
RTVSPropertyOp55
 70
     1
102
RTVSPropertyOp56
 70
     1
102
RTVSPropertyOp57
 70
     1
102
RTVSPropertyOp58
 70
     1
102
RTVSPropertyOp59
 70
     1
102
RTVSPropertyOp60
 70
     1
102
RTVSPropertyOp61
 70
     1
102
RTVSPropertyOp62
 70
     1
  0
XRECORD
  5
1AF73
102
{ACAD_REACTORS
330
1AF72
102
}
330
1AF72
100
AcDbXrecord
280
     1
102
RTVSPost2010Prop28
280
     0
102
RTVSPost2010PropOp28
 70
     1
102
RTVSPost2010Prop29
280
     1
102
RTVSPost2010PropOp29
 70
     1
102
RTVSPost2010Prop30
280
     1
102
RTVSPost2010PropOp30
 70
     1
102
RTVSPost2010Prop31
280
     0
102
RTVSPost2010PropOp31
 70
     1
102
RTVSPost2010Prop32
280
     0
102
RTVSPost2010PropOp32
 70
     1
102
RTVSPost2010Prop33
280
     0
102
RTVSPost2010PropOp33
 70
     1
102
RTVSPost2010Prop34
280
     0
102
RTVSPost2010PropOp34
 70
     1
102
RTVSPost2010Prop35
280
     0
102
RTVSPost2010PropOp35
 70
     1
102
RTVSPost2010Prop36
280
     0
102
RTVSPost2010PropOp36
 70
     1
102
RTVSPost2010Prop37
 90
       50
102
RTVSPost2010PropOp37
 70
     1
102
RTVSPost2010Prop38
140
0.0
102
RTVSPost2010PropOp38
 70
     1
102
RTVSPost2010Prop39
140
1.0
102
RTVSPost2010PropOp39
 70
     1
102
RTVSPost2010Prop40
 90
        0
102
RTVSPost2010PropOp40
 70
     1
102
RTVSPost2010Prop41ColorIndex
 90
       18
102
RTVSPost2010Prop41ColorRGB
 90
        0
102
RTVSPost2010PropOp41
 70
     1
102
RTVSPost2010Prop42
 90
       50
102
RTVSPost2010PropOp42
 70
     1
102
RTVSPost2010Prop43
 90
        3
102
RTVSPost2010PropOp43
 70
     1
102
RTVSPost2010Prop44ColorIndex
 90
        5
102
RTVSPost2010Prop44ColorRGB
 90
      255
102
RTVSPost2010PropOp44
 70
     1
102
RTVSPost2010Prop45
280
     0
102
RTVSPost2010PropOp45
 70
     1
102
RTVSPost2010Prop46
 90
       50
102
RTVSPost2010PropOp46
 70
     1
102
RTVSPost2010Prop47
 90
       50
102
RTVSPost2010PropOp47
 70
     1
102
RTVSPost2010Prop48
 90
       50
102
RTVSPost2010PropOp48
 70
     1
102
RTVSPost2010Prop49
280
     0
102
RTVSPost2010PropOp49
 70
     1
102
RTVSPost2010Prop50
 90
       50
102
RTVSPost2010PropOp50
 70
     1
102
RTVSPost2010Prop51ColorIndex
 90
      256
102
RTVSPost2010Prop51ColorRGB
 90
-16777216
102
RTVSPost2010PropOp51
 70
     0
102
RTVSPost2010Prop52
140
1.0
102
RTVSPost2010PropOp52
 70
     0
102
RTVSPost2010Prop53
 90
        2
102
RTVSPost2010PropOp53
 70
     1
102
RTVSPost2010Prop54
  1
strokes_ogs.tif
102
RTVSPost2010PropOp54
 70
     1
102
RTVSPost2010Prop55
280
     0
102
RTVSPost2010PropOp55
 70
     1
102
RTVSPost2010Prop56
140
1.0
102
RTVSPost2010PropOp56
 70
     1
102
RTVSPost2010Prop57
140
1.0
102
RTVSPost2010PropOp57
 70
     1
102
RTVSPropertyOp0
 70
     0
102
RTVSPropertyOp1
 70
     0
102
RTVSPropertyOp2
 70
     0
102
RTVSPropertyOp3
 70
     0
102
RTVSPropertyOp4
 70
     0
102
RTVSPropertyOp5
 70
     0
102
RTVSPropertyOp6
 70
     0
102
RTVSPropertyOp7
 70
     0
102
RTVSPropertyOp8
 70
     0
102
RTVSPropertyOp9
 70
     0
102
RTVSPropertyOp10
 70
     0
102
RTVSPropertyOp11
 70
     0
102
RTVSPropertyOp12
 70
     0
102
RTVSPropertyOp13
 70
     0
102
RTVSPropertyOp14
 70
     2
102
RTVSPropertyOp15
 70
     0
102
RTVSPropertyOp16
 70
     0
102
RTVSPropertyOp17
 70
     0
102
RTVSPropertyOp18
 70
     0
102
RTVSPropertyOp19
 70
     0
102
RTVSPropertyOp20
 70
     0
102
RTVSPropertyOp21
 70
     0
102
RTVSPropertyOp22
 70
     0
102
RTVSPropertyOp23
 70
     0
102
RTVSPropertyOp24
 70
     0
102
RTVSPropertyOp25
 70
     0
102
RTVSPropertyOp26
 70
     0
102
RTVSPropertyOp27
 70
     0
102
RTVSPropertyOp28
 70
     1
102
RTVSPropertyOp29
 70
     1
102
RTVSPropertyOp30
 70
     1
102
RTVSPropertyOp31
 70
     1
102
RTVSPropertyOp32
 70
     1
102
RTVSPropertyOp33
 70
     1
102
RTVSPropertyOp34
 70
     1
102
RTVSPropertyOp35
 70
     1
102
RTVSPropertyOp36
 70
     1
102
RTVSPropertyOp37
 70
     1
102
RTVSPropertyOp38
 70
     1
102
RTVSPropertyOp39
 70
     1
102
RTVSPropertyOp40
 70
     1
102
RTVSPropertyOp41
 70
     1
102
RTVSPropertyOp42
 70
     1
102
RTVSPropertyOp43
 70
     1
102
RTVSPropertyOp44
 70
     1
102
RTVSPropertyOp45
 70
     1
102
RTVSPropertyOp46
 70
     1
102
RTVSPropertyOp47
 70
     1
102
RTVSPropertyOp48
 70
     1
102
RTVSPropertyOp49
 70
     1
102
RTVSPropertyOp50
 70
     1
102
RTVSPropertyOp51
 70
     0
102
RTVSPropertyOp52
 70
     0
102
RTVSPropertyOp53
 70
     1
102
RTVSPropertyOp54
 70
     1
102
RTVSPropertyOp55
 70
     1
102
RTVSPropertyOp56
 70
     1
102
RTVSPropertyOp57
 70
     1
102
RTVSPropertyOp58
 70
     1
102
RTVSPropertyOp59
 70
     1
102
RTVSPropertyOp60
 70
     1
102
RTVSPropertyOp61
 70
     1
102
RTVSPropertyOp62
 70
     1
  0
XRECORD
  5
1AF69
102
{ACAD_REACTORS
330
1AF68
102
}
330
1AF68
100
AcDbXrecord
280
     1
102
RTVSPost2010Prop28
280
     0
102
RTVSPost2010PropOp28
 70
     1
102
RTVSPost2010Prop29
280
     1
102
RTVSPost2010PropOp29
 70
     1
102
RTVSPost2010Prop30
280
     1
102
RTVSPost2010PropOp30
 70
     1
102
RTVSPost2010Prop31
280
     0
102
RTVSPost2010PropOp31
 70
     1
102
RTVSPost2010Prop32
280
     0
102
RTVSPost2010PropOp32
 70
     1
102
RTVSPost2010Prop33
280
     0
102
RTVSPost2010PropOp33
 70
     1
102
RTVSPost2010Prop34
280
     0
102
RTVSPost2010PropOp34
 70
     1
102
RTVSPost2010Prop35
280
     0
102
RTVSPost2010PropOp35
 70
     1
102
RTVSPost2010Prop36
280
     0
102
RTVSPost2010PropOp36
 70
     1
102
RTVSPost2010Prop37
 90
       50
102
RTVSPost2010PropOp37
 70
     1
102
RTVSPost2010Prop38
140
0.0
102
RTVSPost2010PropOp38
 70
     1
102
RTVSPost2010Prop39
140
1.0
102
RTVSPost2010PropOp39
 70
     1
102
RTVSPost2010Prop40
 90
        0
102
RTVSPost2010PropOp40
 70
     1
102
RTVSPost2010Prop41ColorIndex
 90
       18
102
RTVSPost2010Prop41ColorRGB
 90
        0
102
RTVSPost2010PropOp41
 70
     1
102
RTVSPost2010Prop42
 90
       50
102
RTVSPost2010PropOp42
 70
     1
102
RTVSPost2010Prop43
 90
        3
102
RTVSPost2010PropOp43
 70
     1
102
RTVSPost2010Prop44ColorIndex
 90
        5
102
RTVSPost2010Prop44ColorRGB
 90
      255
102
RTVSPost2010PropOp44
 70
     1
102
RTVSPost2010Prop45
280
     0
102
RTVSPost2010PropOp45
 70
     1
102
RTVSPost2010Prop46
 90
       50
102
RTVSPost2010PropOp46
 70
     1
102
RTVSPost2010Prop47
 90
       50
102
RTVSPost2010PropOp47
 70
     1
102
RTVSPost2010Prop48
 90
       50
102
RTVSPost2010PropOp48
 70
     1
102
RTVSPost2010Prop49
280
     0
102
RTVSPost2010PropOp49
 70
     1
102
RTVSPost2010Prop50
 90
       50
102
RTVSPost2010PropOp50
 70
     1
102
RTVSPost2010Prop51ColorIndex
 90
      256
102
RTVSPost2010Prop51ColorRGB
 90
-16777216
102
RTVSPost2010PropOp51
 70
     0
102
RTVSPost2010Prop52
140
1.0
102
RTVSPost2010PropOp52
 70
     0
102
RTVSPost2010Prop53
 90
        2
102
RTVSPost2010PropOp53
 70
     1
102
RTVSPost2010Prop54
  1
strokes_ogs.tif
102
RTVSPost2010PropOp54
 70
     1
102
RTVSPost2010Prop55
280
     0
102
RTVSPost2010PropOp55
 70
     1
102
RTVSPost2010Prop56
140
1.0
102
RTVSPost2010PropOp56
 70
     1
102
RTVSPost2010Prop57
140
1.0
102
RTVSPost2010PropOp57
 70
     1
102
RTVSPropertyOp0
 70
     1
102
RTVSPropertyOp1
 70
     1
102
RTVSPropertyOp2
 70
     1
102
RTVSPropertyOp3
 70
     1
102
RTVSPropertyOp4
 70
     1
102
RTVSPropertyOp5
 70
     1
102
RTVSPropertyOp6
 70
     1
102
RTVSPropertyOp7
 70
     1
102
RTVSPropertyOp8
 70
     1
102
RTVSPropertyOp9
 70
     1
102
RTVSPropertyOp10
 70
     1
102
RTVSPropertyOp11
 70
     1
102
RTVSPropertyOp12
 70
     1
102
RTVSPropertyOp13
 70
     1
102
RTVSPropertyOp14
 70
     1
102
RTVSPropertyOp15
 70
     1
102
RTVSPropertyOp16
 70
     1
102
RTVSPropertyOp17
 70
     1
102
RTVSPropertyOp18
 70
     1
102
RTVSPropertyOp19
 70
     1
102
RTVSPropertyOp20
 70
     1
102
RTVSPropertyOp21
 70
     1
102
RTVSPropertyOp22
 70
     1
102
RTVSPropertyOp23
 70
     1
102
RTVSPropertyOp24
 70
     1
102
RTVSPropertyOp25
 70
     1
102
RTVSPropertyOp26
 70
     1
102
RTVSPropertyOp27
 70
     1
102
RTVSPropertyOp28
 70
     1
102
RTVSPropertyOp29
 70
     1
102
RTVSPropertyOp30
 70
     1
102
RTVSPropertyOp31
 70
     1
102
RTVSPropertyOp32
 70
     1
102
RTVSPropertyOp33
 70
     1
102
RTVSPropertyOp34
 70
     1
102
RTVSPropertyOp35
 70
     1
102
RTVSPropertyOp36
 70
     1
102
RTVSPropertyOp37
 70
     1
102
RTVSPropertyOp38
 70
     1
102
RTVSPropertyOp39
 70
     1
102
RTVSPropertyOp40
 70
     1
102
RTVSPropertyOp41
 70
     1
102
RTVSPropertyOp42
 70
     1
102
RTVSPropertyOp43
 70
     1
102
RTVSPropertyOp44
 70
     1
102
RTVSPropertyOp45
 70
     1
102
RTVSPropertyOp46
 70
     1
102
RTVSPropertyOp47
 70
     1
102
RTVSPropertyOp48
 70
     1
102
RTVSPropertyOp49
 70
     1
102
RTVSPropertyOp50
 70
     1
102
RTVSPropertyOp51
 70
     0
102
RTVSPropertyOp52
 70
     0
102
RTVSPropertyOp53
 70
     1
102
RTVSPropertyOp54
 70
     1
102
RTVSPropertyOp55
 70
     1
102
RTVSPropertyOp56
 70
     1
102
RTVSPropertyOp57
 70
     1
102
RTVSPropertyOp58
 70
     1
102
RTVSPropertyOp59
 70
     1
102
RTVSPropertyOp60
 70
     1
102
RTVSPropertyOp61
 70
     1
102
RTVSPropertyOp62
 70
     1
  0
XRECORD
  5
1AF4D
102
{ACAD_REACTORS
330
1AF4C
102
}
330
1AF4C
100
AcDbXrecord
280
     1
102
RTVSPost2010Prop28
280
     0
102
RTVSPost2010PropOp28
 70
     1
102
RTVSPost2010Prop29
280
     1
102
RTVSPost2010PropOp29
 70
     1
102
RTVSPost2010Prop30
280
     1
102
RTVSPost2010PropOp30
 70
     1
102
RTVSPost2010Prop31
280
     0
102
RTVSPost2010PropOp31
 70
     1
102
RTVSPost2010Prop32
280
     0
102
RTVSPost2010PropOp32
 70
     1
102
RTVSPost2010Prop33
280
     0
102
RTVSPost2010PropOp33
 70
     1
102
RTVSPost2010Prop34
280
     0
102
RTVSPost2010PropOp34
 70
     1
102
RTVSPost2010Prop35
280
     0
102
RTVSPost2010PropOp35
 70
     1
102
RTVSPost2010Prop36
280
     0
102
RTVSPost2010PropOp36
 70
     1
102
RTVSPost2010Prop37
 90
       50
102
RTVSPost2010PropOp37
 70
     1
102
RTVSPost2010Prop38
140
0.0
102
RTVSPost2010PropOp38
 70
     1
102
RTVSPost2010Prop39
140
1.0
102
RTVSPost2010PropOp39
 70
     1
102
RTVSPost2010Prop40
 90
        0
102
RTVSPost2010PropOp40
 70
     1
102
RTVSPost2010Prop41ColorIndex
 90
       18
102
RTVSPost2010Prop41ColorRGB
 90
        0
102
RTVSPost2010PropOp41
 70
     1
102
RTVSPost2010Prop42
 90
       50
102
RTVSPost2010PropOp42
 70
     1
102
RTVSPost2010Prop43
 90
        3
102
RTVSPost2010PropOp43
 70
     1
102
RTVSPost2010Prop44ColorIndex
 90
        5
102
RTVSPost2010Prop44ColorRGB
 90
      255
102
RTVSPost2010PropOp44
 70
     1
102
RTVSPost2010Prop45
280
     0
102
RTVSPost2010PropOp45
 70
     1
102
RTVSPost2010Prop46
 90
       50
102
RTVSPost2010PropOp46
 70
     1
102
RTVSPost2010Prop47
 90
       50
102
RTVSPost2010PropOp47
 70
     1
102
RTVSPost2010Prop48
 90
       50
102
RTVSPost2010PropOp48
 70
     1
102
RTVSPost2010Prop49
280
     0
102
RTVSPost2010PropOp49
 70
     1
102
RTVSPost2010Prop50
 90
       50
102
RTVSPost2010PropOp50
 70
     1
102
RTVSPost2010Prop51ColorIndex
 90
      256
102
RTVSPost2010Prop51ColorRGB
 90
-16777216
102
RTVSPost2010PropOp51
 70
     0
102
RTVSPost2010Prop52
140
1.0
102
RTVSPost2010PropOp52
 70
     0
102
RTVSPost2010Prop53
 90
        2
102
RTVSPost2010PropOp53
 70
     1
102
RTVSPost2010Prop54
  1
strokes_ogs.tif
102
RTVSPost2010PropOp54
 70
     1
102
RTVSPost2010Prop55
280
     0
102
RTVSPost2010PropOp55
 70
     1
102
RTVSPost2010Prop56
140
1.0
102
RTVSPost2010PropOp56
 70
     1
102
RTVSPost2010Prop57
140
1.0
102
RTVSPost2010PropOp57
 70
     1
102
RTVSPropertyOp0
 70
     1
102
RTVSPropertyOp1
 70
     1
102
RTVSPropertyOp2
 70
     1
102
RTVSPropertyOp3
 70
     1
102
RTVSPropertyOp4
 70
     1
102
RTVSPropertyOp5
 70
     1
102
RTVSPropertyOp6
 70
     1
102
RTVSPropertyOp7
 70
     1
102
RTVSPropertyOp8
 70
     1
102
RTVSPropertyOp9
 70
     1
102
RTVSPropertyOp10
 70
     1
102
RTVSPropertyOp11
 70
     1
102
RTVSPropertyOp12
 70
     1
102
RTVSPropertyOp13
 70
     1
102
RTVSPropertyOp14
 70
     1
102
RTVSPropertyOp15
 70
     1
102
RTVSPropertyOp16
 70
     1
102
RTVSPropertyOp17
 70
     1
102
RTVSPropertyOp18
 70
     1
102
RTVSPropertyOp19
 70
     1
102
RTVSPropertyOp20
 70
     1
102
RTVSPropertyOp21
 70
     1
102
RTVSPropertyOp22
 70
     1
102
RTVSPropertyOp23
 70
     1
102
RTVSPropertyOp24
 70
     1
102
RTVSPropertyOp25
 70
     1
102
RTVSPropertyOp26
 70
     1
102
RTVSPropertyOp27
 70
     1
102
RTVSPropertyOp28
 70
     1
102
RTVSPropertyOp29
 70
     1
102
RTVSPropertyOp30
 70
     1
102
RTVSPropertyOp31
 70
     1
102
RTVSPropertyOp32
 70
     1
102
RTVSPropertyOp33
 70
     1
102
RTVSPropertyOp34
 70
     1
102
RTVSPropertyOp35
 70
     1
102
RTVSPropertyOp36
 70
     1
102
RTVSPropertyOp37
 70
     1
102
RTVSPropertyOp38
 70
     1
102
RTVSPropertyOp39
 70
     1
102
RTVSPropertyOp40
 70
     1
102
RTVSPropertyOp41
 70
     1
102
RTVSPropertyOp42
 70
     1
102
RTVSPropertyOp43
 70
     1
102
RTVSPropertyOp44
 70
     1
102
RTVSPropertyOp45
 70
     1
102
RTVSPropertyOp46
 70
     1
102
RTVSPropertyOp47
 70
     1
102
RTVSPropertyOp48
 70
     1
102
RTVSPropertyOp49
 70
     1
102
RTVSPropertyOp50
 70
     1
102
RTVSPropertyOp51
 70
     0
102
RTVSPropertyOp52
 70
     0
102
RTVSPropertyOp53
 70
     1
102
RTVSPropertyOp54
 70
     1
102
RTVSPropertyOp55
 70
     1
102
RTVSPropertyOp56
 70
     1
102
RTVSPropertyOp57
 70
     1
102
RTVSPropertyOp58
 70
     1
102
RTVSPropertyOp59
 70
     1
102
RTVSPropertyOp60
 70
     1
102
RTVSPropertyOp61
 70
     1
102
RTVSPropertyOp62
 70
     1
  0
XRECORD
  5
1AF4F
102
{ACAD_REACTORS
330
1AF4E
102
}
330
1AF4E
100
AcDbXrecord
280
     1
102
RTVSPost2010Prop28
280
     0
102
RTVSPost2010PropOp28
 70
     1
102
RTVSPost2010Prop29
280
     1
102
RTVSPost2010PropOp29
 70
     1
102
RTVSPost2010Prop30
280
     1
102
RTVSPost2010PropOp30
 70
     1
102
RTVSPost2010Prop31
280
     0
102
RTVSPost2010PropOp31
 70
     1
102
RTVSPost2010Prop32
280
     0
102
RTVSPost2010PropOp32
 70
     1
102
RTVSPost2010Prop33
280
     0
102
RTVSPost2010PropOp33
 70
     1
102
RTVSPost2010Prop34
280
     0
102
RTVSPost2010PropOp34
 70
     1
102
RTVSPost2010Prop35
280
     0
102
RTVSPost2010PropOp35
 70
     1
102
RTVSPost2010Prop36
280
     0
102
RTVSPost2010PropOp36
 70
     1
102
RTVSPost2010Prop37
 90
       50
102
RTVSPost2010PropOp37
 70
     1
102
RTVSPost2010Prop38
140
0.0
102
RTVSPost2010PropOp38
 70
     1
102
RTVSPost2010Prop39
140
1.0
102
RTVSPost2010PropOp39
 70
     1
102
RTVSPost2010Prop40
 90
        0
102
RTVSPost2010PropOp40
 70
     1
102
RTVSPost2010Prop41ColorIndex
 90
       18
102
RTVSPost2010Prop41ColorRGB
 90
        0
102
RTVSPost2010PropOp41
 70
     1
102
RTVSPost2010Prop42
 90
       50
102
RTVSPost2010PropOp42
 70
     1
102
RTVSPost2010Prop43
 90
        3
102
RTVSPost2010PropOp43
 70
     1
102
RTVSPost2010Prop44ColorIndex
 90
        5
102
RTVSPost2010Prop44ColorRGB
 90
      255
102
RTVSPost2010PropOp44
 70
     1
102
RTVSPost2010Prop45
280
     0
102
RTVSPost2010PropOp45
 70
     1
102
RTVSPost2010Prop46
 90
       50
102
RTVSPost2010PropOp46
 70
     1
102
RTVSPost2010Prop47
 90
       50
102
RTVSPost2010PropOp47
 70
     1
102
RTVSPost2010Prop48
 90
       50
102
RTVSPost2010PropOp48
 70
     1
102
RTVSPost2010Prop49
280
     0
102
RTVSPost2010PropOp49
 70
     1
102
RTVSPost2010Prop50
 90
       50
102
RTVSPost2010PropOp50
 70
     1
102
RTVSPost2010Prop51ColorIndex
 90
      256
102
RTVSPost2010Prop51ColorRGB
 90
-16777216
102
RTVSPost2010PropOp51
 70
     0
102
RTVSPost2010Prop52
140
1.0
102
RTVSPost2010PropOp52
 70
     0
102
RTVSPost2010Prop53
 90
        2
102
RTVSPost2010PropOp53
 70
     1
102
RTVSPost2010Prop54
  1
strokes_ogs.tif
102
RTVSPost2010PropOp54
 70
     1
102
RTVSPost2010Prop55
280
     0
102
RTVSPost2010PropOp55
 70
     1
102
RTVSPost2010Prop56
140
1.0
102
RTVSPost2010PropOp56
 70
     1
102
RTVSPost2010Prop57
140
1.0
102
RTVSPost2010PropOp57
 70
     1
102
RTVSPropertyOp0
 70
     1
102
RTVSPropertyOp1
 70
     1
102
RTVSPropertyOp2
 70
     1
102
RTVSPropertyOp3
 70
     1
102
RTVSPropertyOp4
 70
     1
102
RTVSPropertyOp5
 70
     1
102
RTVSPropertyOp6
 70
     1
102
RTVSPropertyOp7
 70
     1
102
RTVSPropertyOp8
 70
     1
102
RTVSPropertyOp9
 70
     1
102
RTVSPropertyOp10
 70
     1
102
RTVSPropertyOp11
 70
     1
102
RTVSPropertyOp12
 70
     1
102
RTVSPropertyOp13
 70
     1
102
RTVSPropertyOp14
 70
     1
102
RTVSPropertyOp15
 70
     1
102
RTVSPropertyOp16
 70
     1
102
RTVSPropertyOp17
 70
     1
102
RTVSPropertyOp18
 70
     1
102
RTVSPropertyOp19
 70
     1
102
RTVSPropertyOp20
 70
     1
102
RTVSPropertyOp21
 70
     1
102
RTVSPropertyOp22
 70
     1
102
RTVSPropertyOp23
 70
     1
102
RTVSPropertyOp24
 70
     1
102
RTVSPropertyOp25
 70
     1
102
RTVSPropertyOp26
 70
     1
102
RTVSPropertyOp27
 70
     1
102
RTVSPropertyOp28
 70
     1
102
RTVSPropertyOp29
 70
     1
102
RTVSPropertyOp30
 70
     1
102
RTVSPropertyOp31
 70
     1
102
RTVSPropertyOp32
 70
     1
102
RTVSPropertyOp33
 70
     1
102
RTVSPropertyOp34
 70
     1
102
RTVSPropertyOp35
 70
     1
102
RTVSPropertyOp36
 70
     1
102
RTVSPropertyOp37
 70
     1
102
RTVSPropertyOp38
 70
     1
102
RTVSPropertyOp39
 70
     1
102
RTVSPropertyOp40
 70
     1
102
RTVSPropertyOp41
 70
     1
102
RTVSPropertyOp42
 70
     1
102
RTVSPropertyOp43
 70
     1
102
RTVSPropertyOp44
 70
     1
102
RTVSPropertyOp45
 70
     1
102
RTVSPropertyOp46
 70
     1
102
RTVSPropertyOp47
 70
     1
102
RTVSPropertyOp48
 70
     1
102
RTVSPropertyOp49
 70
     1
102
RTVSPropertyOp50
 70
     1
102
RTVSPropertyOp51
 70
     0
102
RTVSPropertyOp52
 70
     0
102
RTVSPropertyOp53
 70
     1
102
RTVSPropertyOp54
 70
     1
102
RTVSPropertyOp55
 70
     1
102
RTVSPropertyOp56
 70
     1
102
RTVSPropertyOp57
 70
     1
102
RTVSPropertyOp58
 70
     1
102
RTVSPropertyOp59
 70
     1
102
RTVSPropertyOp60
 70
     1
102
RTVSPropertyOp61
 70
     1
102
RTVSPropertyOp62
 70
     1
  0
XRECORD
  5
1AF51
102
{ACAD_REACTORS
330
1AF50
102
}
330
1AF50
100
AcDbXrecord
280
     1
102
RTVSPost2010Prop28
280
     0
102
RTVSPost2010PropOp28
 70
     1
102
RTVSPost2010Prop29
280
     1
102
RTVSPost2010PropOp29
 70
     1
102
RTVSPost2010Prop30
280
     1
102
RTVSPost2010PropOp30
 70
     1
102
RTVSPost2010Prop31
280
     0
102
RTVSPost2010PropOp31
 70
     1
102
RTVSPost2010Prop32
280
     0
102
RTVSPost2010PropOp32
 70
     1
102
RTVSPost2010Prop33
280
     0
102
RTVSPost2010PropOp33
 70
     1
102
RTVSPost2010Prop34
280
     0
102
RTVSPost2010PropOp34
 70
     1
102
RTVSPost2010Prop35
280
     0
102
RTVSPost2010PropOp35
 70
     1
102
RTVSPost2010Prop36
280
     0
102
RTVSPost2010PropOp36
 70
     1
102
RTVSPost2010Prop37
 90
       50
102
RTVSPost2010PropOp37
 70
     1
102
RTVSPost2010Prop38
140
0.0
102
RTVSPost2010PropOp38
 70
     1
102
RTVSPost2010Prop39
140
1.0
102
RTVSPost2010PropOp39
 70
     1
102
RTVSPost2010Prop40
 90
        0
102
RTVSPost2010PropOp40
 70
     1
102
RTVSPost2010Prop41ColorIndex
 90
       18
102
RTVSPost2010Prop41ColorRGB
 90
        0
102
RTVSPost2010PropOp41
 70
     1
102
RTVSPost2010Prop42
 90
       50
102
RTVSPost2010PropOp42
 70
     1
102
RTVSPost2010Prop43
 90
        3
102
RTVSPost2010PropOp43
 70
     1
102
RTVSPost2010Prop44ColorIndex
 90
        5
102
RTVSPost2010Prop44ColorRGB
 90
      255
102
RTVSPost2010PropOp44
 70
     1
102
RTVSPost2010Prop45
280
     0
102
RTVSPost2010PropOp45
 70
     1
102
RTVSPost2010Prop46
 90
       50
102
RTVSPost2010PropOp46
 70
     1
102
RTVSPost2010Prop47
 90
       50
102
RTVSPost2010PropOp47
 70
     1
102
RTVSPost2010Prop48
 90
       50
102
RTVSPost2010PropOp48
 70
     1
102
RTVSPost2010Prop49
280
     0
102
RTVSPost2010PropOp49
 70
     1
102
RTVSPost2010Prop50
 90
       50
102
RTVSPost2010PropOp50
 70
     1
102
RTVSPost2010Prop51ColorIndex
 90
      256
102
RTVSPost2010Prop51ColorRGB
 90
-16777216
102
RTVSPost2010PropOp51
 70
     0
102
RTVSPost2010Prop52
140
1.0
102
RTVSPost2010PropOp52
 70
     0
102
RTVSPost2010Prop53
 90
        2
102
RTVSPost2010PropOp53
 70
     1
102
RTVSPost2010Prop54
  1
strokes_ogs.tif
102
RTVSPost2010PropOp54
 70
     1
102
RTVSPost2010Prop55
280
     0
102
RTVSPost2010PropOp55
 70
     1
102
RTVSPost2010Prop56
140
1.0
102
RTVSPost2010PropOp56
 70
     1
102
RTVSPost2010Prop57
140
1.0
102
RTVSPost2010PropOp57
 70
     1
102
RTVSPropertyOp0
 70
     1
102
RTVSPropertyOp1
 70
     1
102
RTVSPropertyOp2
 70
     1
102
RTVSPropertyOp3
 70
     1
102
RTVSPropertyOp4
 70
     1
102
RTVSPropertyOp5
 70
     1
102
RTVSPropertyOp6
 70
     1
102
RTVSPropertyOp7
 70
     1
102
RTVSPropertyOp8
 70
     1
102
RTVSPropertyOp9
 70
     1
102
RTVSPropertyOp10
 70
     1
102
RTVSPropertyOp11
 70
     1
102
RTVSPropertyOp12
 70
     1
102
RTVSPropertyOp13
 70
     1
102
RTVSPropertyOp14
 70
     1
102
RTVSPropertyOp15
 70
     1
102
RTVSPropertyOp16
 70
     1
102
RTVSPropertyOp17
 70
     1
102
RTVSPropertyOp18
 70
     1
102
RTVSPropertyOp19
 70
     1
102
RTVSPropertyOp20
 70
     1
102
RTVSPropertyOp21
 70
     1
102
RTVSPropertyOp22
 70
     1
102
RTVSPropertyOp23
 70
     1
102
RTVSPropertyOp24
 70
     1
102
RTVSPropertyOp25
 70
     1
102
RTVSPropertyOp26
 70
     1
102
RTVSPropertyOp27
 70
     1
102
RTVSPropertyOp28
 70
     1
102
RTVSPropertyOp29
 70
     1
102
RTVSPropertyOp30
 70
     1
102
RTVSPropertyOp31
 70
     1
102
RTVSPropertyOp32
 70
     1
102
RTVSPropertyOp33
 70
     1
102
RTVSPropertyOp34
 70
     1
102
RTVSPropertyOp35
 70
     1
102
RTVSPropertyOp36
 70
     1
102
RTVSPropertyOp37
 70
     1
102
RTVSPropertyOp38
 70
     1
102
RTVSPropertyOp39
 70
     1
102
RTVSPropertyOp40
 70
     1
102
RTVSPropertyOp41
 70
     1
102
RTVSPropertyOp42
 70
     1
102
RTVSPropertyOp43
 70
     1
102
RTVSPropertyOp44
 70
     1
102
RTVSPropertyOp45
 70
     1
102
RTVSPropertyOp46
 70
     1
102
RTVSPropertyOp47
 70
     1
102
RTVSPropertyOp48
 70
     1
102
RTVSPropertyOp49
 70
     1
102
RTVSPropertyOp50
 70
     1
102
RTVSPropertyOp51
 70
     0
102
RTVSPropertyOp52
 70
     0
102
RTVSPropertyOp53
 70
     1
102
RTVSPropertyOp54
 70
     1
102
RTVSPropertyOp55
 70
     1
102
RTVSPropertyOp56
 70
     1
102
RTVSPropertyOp57
 70
     1
102
RTVSPropertyOp58
 70
     1
102
RTVSPropertyOp59
 70
     1
102
RTVSPropertyOp60
 70
     1
102
RTVSPropertyOp61
 70
     1
102
RTVSPropertyOp62
 70
     1
  0
XRECORD
  5
1AF53
102
{ACAD_REACTORS
330
1AF52
102
}
330
1AF52
100
AcDbXrecord
280
     1
102
RTVSPost2010Prop28
280
     0
102
RTVSPost2010PropOp28
 70
     1
102
RTVSPost2010Prop29
280
     1
102
RTVSPost2010PropOp29
 70
     1
102
RTVSPost2010Prop30
280
     1
102
RTVSPost2010PropOp30
 70
     1
102
RTVSPost2010Prop31
280
     0
102
RTVSPost2010PropOp31
 70
     1
102
RTVSPost2010Prop32
280
     0
102
RTVSPost2010PropOp32
 70
     1
102
RTVSPost2010Prop33
280
     0
102
RTVSPost2010PropOp33
 70
     1
102
RTVSPost2010Prop34
280
     0
102
RTVSPost2010PropOp34
 70
     1
102
RTVSPost2010Prop35
280
     0
102
RTVSPost2010PropOp35
 70
     1
102
RTVSPost2010Prop36
280
     0
102
RTVSPost2010PropOp36
 70
     1
102
RTVSPost2010Prop37
 90
       50
102
RTVSPost2010PropOp37
 70
     1
102
RTVSPost2010Prop38
140
0.0
102
RTVSPost2010PropOp38
 70
     1
102
RTVSPost2010Prop39
140
1.0
102
RTVSPost2010PropOp39
 70
     1
102
RTVSPost2010Prop40
 90
        0
102
RTVSPost2010PropOp40
 70
     1
102
RTVSPost2010Prop41ColorIndex
 90
       18
102
RTVSPost2010Prop41ColorRGB
 90
        0
102
RTVSPost2010PropOp41
 70
     1
102
RTVSPost2010Prop42
 90
       50
102
RTVSPost2010PropOp42
 70
     1
102
RTVSPost2010Prop43
 90
        3
102
RTVSPost2010PropOp43
 70
     1
102
RTVSPost2010Prop44ColorIndex
 90
        5
102
RTVSPost2010Prop44ColorRGB
 90
      255
102
RTVSPost2010PropOp44
 70
     1
102
RTVSPost2010Prop45
280
     0
102
RTVSPost2010PropOp45
 70
     1
102
RTVSPost2010Prop46
 90
       50
102
RTVSPost2010PropOp46
 70
     1
102
RTVSPost2010Prop47
 90
       50
102
RTVSPost2010PropOp47
 70
     1
102
RTVSPost2010Prop48
 90
       50
102
RTVSPost2010PropOp48
 70
     1
102
RTVSPost2010Prop49
280
     0
102
RTVSPost2010PropOp49
 70
     1
102
RTVSPost2010Prop50
 90
       50
102
RTVSPost2010PropOp50
 70
     1
102
RTVSPost2010Prop51ColorIndex
 90
      256
102
RTVSPost2010Prop51ColorRGB
 90
-16777216
102
RTVSPost2010PropOp51
 70
     0
102
RTVSPost2010Prop52
140
1.0
102
RTVSPost2010PropOp52
 70
     0
102
RTVSPost2010Prop53
 90
        2
102
RTVSPost2010PropOp53
 70
     1
102
RTVSPost2010Prop54
  1
strokes_ogs.tif
102
RTVSPost2010PropOp54
 70
     1
102
RTVSPost2010Prop55
280
     0
102
RTVSPost2010PropOp55
 70
     1
102
RTVSPost2010Prop56
140
1.0
102
RTVSPost2010PropOp56
 70
     1
102
RTVSPost2010Prop57
140
1.0
102
RTVSPost2010PropOp57
 70
     1
102
RTVSPropertyOp0
 70
     1
102
RTVSPropertyOp1
 70
     1
102
RTVSPropertyOp2
 70
     1
102
RTVSPropertyOp3
 70
     1
102
RTVSPropertyOp4
 70
     1
102
RTVSPropertyOp5
 70
     1
102
RTVSPropertyOp6
 70
     1
102
RTVSPropertyOp7
 70
     1
102
RTVSPropertyOp8
 70
     1
102
RTVSPropertyOp9
 70
     1
102
RTVSPropertyOp10
 70
     1
102
RTVSPropertyOp11
 70
     1
102
RTVSPropertyOp12
 70
     1
102
RTVSPropertyOp13
 70
     1
102
RTVSPropertyOp14
 70
     1
102
RTVSPropertyOp15
 70
     1
102
RTVSPropertyOp16
 70
     1
102
RTVSPropertyOp17
 70
     1
102
RTVSPropertyOp18
 70
     1
102
RTVSPropertyOp19
 70
     1
102
RTVSPropertyOp20
 70
     1
102
RTVSPropertyOp21
 70
     1
102
RTVSPropertyOp22
 70
     1
102
RTVSPropertyOp23
 70
     1
102
RTVSPropertyOp24
 70
     1
102
RTVSPropertyOp25
 70
     1
102
RTVSPropertyOp26
 70
     1
102
RTVSPropertyOp27
 70
     1
102
RTVSPropertyOp28
 70
     1
102
RTVSPropertyOp29
 70
     1
102
RTVSPropertyOp30
 70
     1
102
RTVSPropertyOp31
 70
     1
102
RTVSPropertyOp32
 70
     1
102
RTVSPropertyOp33
 70
     1
102
RTVSPropertyOp34
 70
     1
102
RTVSPropertyOp35
 70
     1
102
RTVSPropertyOp36
 70
     1
102
RTVSPropertyOp37
 70
     1
102
RTVSPropertyOp38
 70
     1
102
RTVSPropertyOp39
 70
     1
102
RTVSPropertyOp40
 70
     1
102
RTVSPropertyOp41
 70
     1
102
RTVSPropertyOp42
 70
     1
102
RTVSPropertyOp43
 70
     1
102
RTVSPropertyOp44
 70
     1
102
RTVSPropertyOp45
 70
     1
102
RTVSPropertyOp46
 70
     1
102
RTVSPropertyOp47
 70
     1
102
RTVSPropertyOp48
 70
     1
102
RTVSPropertyOp49
 70
     1
102
RTVSPropertyOp50
 70
     1
102
RTVSPropertyOp51
 70
     0
102
RTVSPropertyOp52
 70
     0
102
RTVSPropertyOp53
 70
     1
102
RTVSPropertyOp54
 70
     1
102
RTVSPropertyOp55
 70
     1
102
RTVSPropertyOp56
 70
     1
102
RTVSPropertyOp57
 70
     1
102
RTVSPropertyOp58
 70
     1
102
RTVSPropertyOp59
 70
     1
102
RTVSPropertyOp60
 70
     1
102
RTVSPropertyOp61
 70
     1
102
RTVSPropertyOp62
 70
     1
  0
XRECORD
  5
1AF5B
102
{ACAD_REACTORS
330
1AF5A
102
}
330
1AF5A
100
AcDbXrecord
280
     1
102
RTVSPost2010Prop28
280
     0
102
RTVSPost2010PropOp28
 70
     1
102
RTVSPost2010Prop29
280
     1
102
RTVSPost2010PropOp29
 70
     1
102
RTVSPost2010Prop30
280
     1
102
RTVSPost2010PropOp30
 70
     1
102
RTVSPost2010Prop31
280
     0
102
RTVSPost2010PropOp31
 70
     1
102
RTVSPost2010Prop32
280
     0
102
RTVSPost2010PropOp32
 70
     1
102
RTVSPost2010Prop33
280
     0
102
RTVSPost2010PropOp33
 70
     1
102
RTVSPost2010Prop34
280
     0
102
RTVSPost2010PropOp34
 70
     1
102
RTVSPost2010Prop35
280
     0
102
RTVSPost2010PropOp35
 70
     1
102
RTVSPost2010Prop36
280
     0
102
RTVSPost2010PropOp36
 70
     1
102
RTVSPost2010Prop37
 90
       50
102
RTVSPost2010PropOp37
 70
     1
102
RTVSPost2010Prop38
140
0.0
102
RTVSPost2010PropOp38
 70
     1
102
RTVSPost2010Prop39
140
1.0
102
RTVSPost2010PropOp39
 70
     1
102
RTVSPost2010Prop40
 90
        0
102
RTVSPost2010PropOp40
 70
     1
102
RTVSPost2010Prop41ColorIndex
 90
       18
102
RTVSPost2010Prop41ColorRGB
 90
        0
102
RTVSPost2010PropOp41
 70
     1
102
RTVSPost2010Prop42
 90
       50
102
RTVSPost2010PropOp42
 70
     1
102
RTVSPost2010Prop43
 90
        3
102
RTVSPost2010PropOp43
 70
     1
102
RTVSPost2010Prop44ColorIndex
 90
        5
102
RTVSPost2010Prop44ColorRGB
 90
      255
102
RTVSPost2010PropOp44
 70
     1
102
RTVSPost2010Prop45
280
     0
102
RTVSPost2010PropOp45
 70
     1
102
RTVSPost2010Prop46
 90
       50
102
RTVSPost2010PropOp46
 70
     1
102
RTVSPost2010Prop47
 90
       50
102
RTVSPost2010PropOp47
 70
     1
102
RTVSPost2010Prop48
 90
       50
102
RTVSPost2010PropOp48
 70
     1
102
RTVSPost2010Prop49
280
     0
102
RTVSPost2010PropOp49
 70
     1
102
RTVSPost2010Prop50
 90
       50
102
RTVSPost2010PropOp50
 70
     1
102
RTVSPost2010Prop51ColorIndex
 90
      256
102
RTVSPost2010Prop51ColorRGB
 90
-16777216
102
RTVSPost2010PropOp51
 70
     0
102
RTVSPost2010Prop52
140
1.0
102
RTVSPost2010PropOp52
 70
     0
102
RTVSPost2010Prop53
 90
        2
102
RTVSPost2010PropOp53
 70
     1
102
RTVSPost2010Prop54
  1
strokes_ogs.tif
102
RTVSPost2010PropOp54
 70
     1
102
RTVSPost2010Prop55
280
     0
102
RTVSPost2010PropOp55
 70
     1
102
RTVSPost2010Prop56
140
1.0
102
RTVSPost2010PropOp56
 70
     1
102
RTVSPost2010Prop57
140
1.0
102
RTVSPost2010PropOp57
 70
     1
102
RTVSPropertyOp0
 70
     1
102
RTVSPropertyOp1
 70
     1
102
RTVSPropertyOp2
 70
     1
102
RTVSPropertyOp3
 70
     1
102
RTVSPropertyOp4
 70
     1
102
RTVSPropertyOp5
 70
     1
102
RTVSPropertyOp6
 70
     1
102
RTVSPropertyOp7
 70
     1
102
RTVSPropertyOp8
 70
     1
102
RTVSPropertyOp9
 70
     1
102
RTVSPropertyOp10
 70
     1
102
RTVSPropertyOp11
 70
     1
102
RTVSPropertyOp12
 70
     1
102
RTVSPropertyOp13
 70
     1
102
RTVSPropertyOp14
 70
     1
102
RTVSPropertyOp15
 70
     1
102
RTVSPropertyOp16
 70
     1
102
RTVSPropertyOp17
 70
     1
102
RTVSPropertyOp18
 70
     1
102
RTVSPropertyOp19
 70
     1
102
RTVSPropertyOp20
 70
     1
102
RTVSPropertyOp21
 70
     1
102
RTVSPropertyOp22
 70
     1
102
RTVSPropertyOp23
 70
     1
102
RTVSPropertyOp24
 70
     1
102
RTVSPropertyOp25
 70
     1
102
RTVSPropertyOp26
 70
     1
102
RTVSPropertyOp27
 70
     1
102
RTVSPropertyOp28
 70
     1
102
RTVSPropertyOp29
 70
     1
102
RTVSPropertyOp30
 70
     1
102
RTVSPropertyOp31
 70
     1
102
RTVSPropertyOp32
 70
     1
102
RTVSPropertyOp33
 70
     1
102
RTVSPropertyOp34
 70
     1
102
RTVSPropertyOp35
 70
     1
102
RTVSPropertyOp36
 70
     1
102
RTVSPropertyOp37
 70
     1
102
RTVSPropertyOp38
 70
     1
102
RTVSPropertyOp39
 70
     1
102
RTVSPropertyOp40
 70
     1
102
RTVSPropertyOp41
 70
     1
102
RTVSPropertyOp42
 70
     1
102
RTVSPropertyOp43
 70
     1
102
RTVSPropertyOp44
 70
     1
102
RTVSPropertyOp45
 70
     1
102
RTVSPropertyOp46
 70
     1
102
RTVSPropertyOp47
 70
     1
102
RTVSPropertyOp48
 70
     1
102
RTVSPropertyOp49
 70
     1
102
RTVSPropertyOp50
 70
     1
102
RTVSPropertyOp51
 70
     0
102
RTVSPropertyOp52
 70
     0
102
RTVSPropertyOp53
 70
     1
102
RTVSPropertyOp54
 70
     1
102
RTVSPropertyOp55
 70
     1
102
RTVSPropertyOp56
 70
     1
102
RTVSPropertyOp57
 70
     1
102
RTVSPropertyOp58
 70
     1
102
RTVSPropertyOp59
 70
     1
102
RTVSPropertyOp60
 70
     1
102
RTVSPropertyOp61
 70
     1
102
RTVSPropertyOp62
 70
     1
  0
XRECORD
  5
1AF6F
102
{ACAD_REACTORS
330
1AF6E
102
}
330
1AF6E
100
AcDbXrecord
280
     1
102
RTVSPost2010Prop28
280
     0
102
RTVSPost2010PropOp28
 70
     1
102
RTVSPost2010Prop29
280
     1
102
RTVSPost2010PropOp29
 70
     1
102
RTVSPost2010Prop30
280
     1
102
RTVSPost2010PropOp30
 70
     1
102
RTVSPost2010Prop31
280
     0
102
RTVSPost2010PropOp31
 70
     1
102
RTVSPost2010Prop32
280
     0
102
RTVSPost2010PropOp32
 70
     1
102
RTVSPost2010Prop33
280
     0
102
RTVSPost2010PropOp33
 70
     1
102
RTVSPost2010Prop34
280
     0
102
RTVSPost2010PropOp34
 70
     1
102
RTVSPost2010Prop35
280
     0
102
RTVSPost2010PropOp35
 70
     1
102
RTVSPost2010Prop36
280
     0
102
RTVSPost2010PropOp36
 70
     1
102
RTVSPost2010Prop37
 90
       50
102
RTVSPost2010PropOp37
 70
     1
102
RTVSPost2010Prop38
140
0.0
102
RTVSPost2010PropOp38
 70
     1
102
RTVSPost2010Prop39
140
1.0
102
RTVSPost2010PropOp39
 70
     1
102
RTVSPost2010Prop40
 90
        0
102
RTVSPost2010PropOp40
 70
     1
102
RTVSPost2010Prop41ColorIndex
 90
       18
102
RTVSPost2010Prop41ColorRGB
 90
        0
102
RTVSPost2010PropOp41
 70
     1
102
RTVSPost2010Prop42
 90
       50
102
RTVSPost2010PropOp42
 70
     1
102
RTVSPost2010Prop43
 90
        3
102
RTVSPost2010PropOp43
 70
     1
102
RTVSPost2010Prop44ColorIndex
 90
        5
102
RTVSPost2010Prop44ColorRGB
 90
      255
102
RTVSPost2010PropOp44
 70
     1
102
RTVSPost2010Prop45
280
     0
102
RTVSPost2010PropOp45
 70
     1
102
RTVSPost2010Prop46
 90
       50
102
RTVSPost2010PropOp46
 70
     1
102
RTVSPost2010Prop47
 90
       50
102
RTVSPost2010PropOp47
 70
     1
102
RTVSPost2010Prop48
 90
       50
102
RTVSPost2010PropOp48
 70
     1
102
RTVSPost2010Prop49
280
     0
102
RTVSPost2010PropOp49
 70
     1
102
RTVSPost2010Prop50
 90
       50
102
RTVSPost2010PropOp50
 70
     1
102
RTVSPost2010Prop51ColorIndex
 90
      256
102
RTVSPost2010Prop51ColorRGB
 90
-16777216
102
RTVSPost2010PropOp51
 70
     0
102
RTVSPost2010Prop52
140
1.0
102
RTVSPost2010PropOp52
 70
     0
102
RTVSPost2010Prop53
 90
        2
102
RTVSPost2010PropOp53
 70
     1
102
RTVSPost2010Prop54
  1
strokes_ogs.tif
102
RTVSPost2010PropOp54
 70
     1
102
RTVSPost2010Prop55
280
     0
102
RTVSPost2010PropOp55
 70
     1
102
RTVSPost2010Prop56
140
1.0
102
RTVSPost2010PropOp56
 70
     1
102
RTVSPost2010Prop57
140
1.0
102
RTVSPost2010PropOp57
 70
     1
102
RTVSPropertyOp0
 70
     0
102
RTVSPropertyOp1
 70
     0
102
RTVSPropertyOp2
 70
     0
102
RTVSPropertyOp3
 70
     0
102
RTVSPropertyOp4
 70
     0
102
RTVSPropertyOp5
 70
     0
102
RTVSPropertyOp6
 70
     0
102
RTVSPropertyOp7
 70
     0
102
RTVSPropertyOp8
 70
     0
102
RTVSPropertyOp9
 70
     0
102
RTVSPropertyOp10
 70
     0
102
RTVSPropertyOp11
 70
     0
102
RTVSPropertyOp12
 70
     0
102
RTVSPropertyOp13
 70
     0
102
RTVSPropertyOp14
 70
     2
102
RTVSPropertyOp15
 70
     0
102
RTVSPropertyOp16
 70
     0
102
RTVSPropertyOp17
 70
     0
102
RTVSPropertyOp18
 70
     0
102
RTVSPropertyOp19
 70
     0
102
RTVSPropertyOp20
 70
     0
102
RTVSPropertyOp21
 70
     0
102
RTVSPropertyOp22
 70
     0
102
RTVSPropertyOp23
 70
     0
102
RTVSPropertyOp24
 70
     0
102
RTVSPropertyOp25
 70
     0
102
RTVSPropertyOp26
 70
     0
102
RTVSPropertyOp27
 70
     0
102
RTVSPropertyOp28
 70
     1
102
RTVSPropertyOp29
 70
     1
102
RTVSPropertyOp30
 70
     1
102
RTVSPropertyOp31
 70
     1
102
RTVSPropertyOp32
 70
     1
102
RTVSPropertyOp33
 70
     1
102
RTVSPropertyOp34
 70
     1
102
RTVSPropertyOp35
 70
     1
102
RTVSPropertyOp36
 70
     1
102
RTVSPropertyOp37
 70
     1
102
RTVSPropertyOp38
 70
     1
102
RTVSPropertyOp39
 70
     1
102
RTVSPropertyOp40
 70
     1
102
RTVSPropertyOp41
 70
     1
102
RTVSPropertyOp42
 70
     1
102
RTVSPropertyOp43
 70
     1
102
RTVSPropertyOp44
 70
     1
102
RTVSPropertyOp45
 70
     1
102
RTVSPropertyOp46
 70
     1
102
RTVSPropertyOp47
 70
     1
102
RTVSPropertyOp48
 70
     1
102
RTVSPropertyOp49
 70
     1
102
RTVSPropertyOp50
 70
     1
102
RTVSPropertyOp51
 70
     0
102
RTVSPropertyOp52
 70
     0
102
RTVSPropertyOp53
 70
     1
102
RTVSPropertyOp54
 70
     1
102
RTVSPropertyOp55
 70
     1
102
RTVSPropertyOp56
 70
     1
102
RTVSPropertyOp57
 70
     1
102
RTVSPropertyOp58
 70
     1
102
RTVSPropertyOp59
 70
     1
102
RTVSPropertyOp60
 70
     1
102
RTVSPropertyOp61
 70
     1
102
RTVSPropertyOp62
 70
     1
  0
XRECORD
  5
1AF67
102
{ACAD_REACTORS
330
1AF66
102
}
330
1AF66
100
AcDbXrecord
280
     1
102
RTVSPost2010Prop28
280
     0
102
RTVSPost2010PropOp28
 70
     1
102
RTVSPost2010Prop29
280
     1
102
RTVSPost2010PropOp29
 70
     1
102
RTVSPost2010Prop30
280
     1
102
RTVSPost2010PropOp30
 70
     1
102
RTVSPost2010Prop31
280
     0
102
RTVSPost2010PropOp31
 70
     1
102
RTVSPost2010Prop32
280
     0
102
RTVSPost2010PropOp32
 70
     1
102
RTVSPost2010Prop33
280
     0
102
RTVSPost2010PropOp33
 70
     1
102
RTVSPost2010Prop34
280
     0
102
RTVSPost2010PropOp34
 70
     1
102
RTVSPost2010Prop35
280
     0
102
RTVSPost2010PropOp35
 70
     1
102
RTVSPost2010Prop36
280
     0
102
RTVSPost2010PropOp36
 70
     1
102
RTVSPost2010Prop37
 90
       50
102
RTVSPost2010PropOp37
 70
     1
102
RTVSPost2010Prop38
140
0.0
102
RTVSPost2010PropOp38
 70
     1
102
RTVSPost2010Prop39
140
1.0
102
RTVSPost2010PropOp39
 70
     1
102
RTVSPost2010Prop40
 90
        0
102
RTVSPost2010PropOp40
 70
     1
102
RTVSPost2010Prop41ColorIndex
 90
       18
102
RTVSPost2010Prop41ColorRGB
 90
        0
102
RTVSPost2010PropOp41
 70
     1
102
RTVSPost2010Prop42
 90
       50
102
RTVSPost2010PropOp42
 70
     1
102
RTVSPost2010Prop43
 90
        3
102
RTVSPost2010PropOp43
 70
     1
102
RTVSPost2010Prop44ColorIndex
 90
        5
102
RTVSPost2010Prop44ColorRGB
 90
      255
102
RTVSPost2010PropOp44
 70
     1
102
RTVSPost2010Prop45
280
     0
102
RTVSPost2010PropOp45
 70
     1
102
RTVSPost2010Prop46
 90
       50
102
RTVSPost2010PropOp46
 70
     1
102
RTVSPost2010Prop47
 90
       50
102
RTVSPost2010PropOp47
 70
     1
102
RTVSPost2010Prop48
 90
       50
102
RTVSPost2010PropOp48
 70
     1
102
RTVSPost2010Prop49
280
     0
102
RTVSPost2010PropOp49
 70
     1
102
RTVSPost2010Prop50
 90
       50
102
RTVSPost2010PropOp50
 70
     1
102
RTVSPost2010Prop51ColorIndex
 90
      256
102
RTVSPost2010Prop51ColorRGB
 90
-16777216
102
RTVSPost2010PropOp51
 70
     0
102
RTVSPost2010Prop52
140
1.0
102
RTVSPost2010PropOp52
 70
     0
102
RTVSPost2010Prop53
 90
        2
102
RTVSPost2010PropOp53
 70
     1
102
RTVSPost2010Prop54
  1
strokes_ogs.tif
102
RTVSPost2010PropOp54
 70
     1
102
RTVSPost2010Prop55
280
     0
102
RTVSPost2010PropOp55
 70
     1
102
RTVSPost2010Prop56
140
1.0
102
RTVSPost2010PropOp56
 70
     1
102
RTVSPost2010Prop57
140
1.0
102
RTVSPost2010PropOp57
 70
     1
102
RTVSPropertyOp0
 70
     1
102
RTVSPropertyOp1
 70
     1
102
RTVSPropertyOp2
 70
     1
102
RTVSPropertyOp3
 70
     1
102
RTVSPropertyOp4
 70
     1
102
RTVSPropertyOp5
 70
     1
102
RTVSPropertyOp6
 70
     1
102
RTVSPropertyOp7
 70
     1
102
RTVSPropertyOp8
 70
     1
102
RTVSPropertyOp9
 70
     1
102
RTVSPropertyOp10
 70
     1
102
RTVSPropertyOp11
 70
     1
102
RTVSPropertyOp12
 70
     1
102
RTVSPropertyOp13
 70
     1
102
RTVSPropertyOp14
 70
     1
102
RTVSPropertyOp15
 70
     1
102
RTVSPropertyOp16
 70
     1
102
RTVSPropertyOp17
 70
     1
102
RTVSPropertyOp18
 70
     1
102
RTVSPropertyOp19
 70
     1
102
RTVSPropertyOp20
 70
     1
102
RTVSPropertyOp21
 70
     1
102
RTVSPropertyOp22
 70
     1
102
RTVSPropertyOp23
 70
     1
102
RTVSPropertyOp24
 70
     1
102
RTVSPropertyOp25
 70
     1
102
RTVSPropertyOp26
 70
     1
102
RTVSPropertyOp27
 70
     1
102
RTVSPropertyOp28
 70
     1
102
RTVSPropertyOp29
 70
     1
102
RTVSPropertyOp30
 70
     1
102
RTVSPropertyOp31
 70
     1
102
RTVSPropertyOp32
 70
     1
102
RTVSPropertyOp33
 70
     1
102
RTVSPropertyOp34
 70
     1
102
RTVSPropertyOp35
 70
     1
102
RTVSPropertyOp36
 70
     1
102
RTVSPropertyOp37
 70
     1
102
RTVSPropertyOp38
 70
     1
102
RTVSPropertyOp39
 70
     1
102
RTVSPropertyOp40
 70
     1
102
RTVSPropertyOp41
 70
     1
102
RTVSPropertyOp42
 70
     1
102
RTVSPropertyOp43
 70
     1
102
RTVSPropertyOp44
 70
     1
102
RTVSPropertyOp45
 70
     1
102
RTVSPropertyOp46
 70
     1
102
RTVSPropertyOp47
 70
     1
102
RTVSPropertyOp48
 70
     1
102
RTVSPropertyOp49
 70
     1
102
RTVSPropertyOp50
 70
     1
102
RTVSPropertyOp51
 70
     0
102
RTVSPropertyOp52
 70
     0
102
RTVSPropertyOp53
 70
     1
102
RTVSPropertyOp54
 70
     1
102
RTVSPropertyOp55
 70
     1
102
RTVSPropertyOp56
 70
     1
102
RTVSPropertyOp57
 70
     1
102
RTVSPropertyOp58
 70
     1
102
RTVSPropertyOp59
 70
     1
102
RTVSPropertyOp60
 70
     1
102
RTVSPropertyOp61
 70
     1
102
RTVSPropertyOp62
 70
     1
  0
XRECORD
  5
1AF71
102
{ACAD_REACTORS
330
1AF70
102
}
330
1AF70
100
AcDbXrecord
280
     1
102
RTVSPost2010Prop28
280
     0
102
RTVSPost2010PropOp28
 70
     1
102
RTVSPost2010Prop29
280
     1
102
RTVSPost2010PropOp29
 70
     1
102
RTVSPost2010Prop30
280
     1
102
RTVSPost2010PropOp30
 70
     1
102
RTVSPost2010Prop31
280
     0
102
RTVSPost2010PropOp31
 70
     1
102
RTVSPost2010Prop32
280
     0
102
RTVSPost2010PropOp32
 70
     1
102
RTVSPost2010Prop33
280
     0
102
RTVSPost2010PropOp33
 70
     1
102
RTVSPost2010Prop34
280
     0
102
RTVSPost2010PropOp34
 70
     1
102
RTVSPost2010Prop35
280
     0
102
RTVSPost2010PropOp35
 70
     1
102
RTVSPost2010Prop36
280
     0
102
RTVSPost2010PropOp36
 70
     1
102
RTVSPost2010Prop37
 90
       50
102
RTVSPost2010PropOp37
 70
     1
102
RTVSPost2010Prop38
140
0.0
102
RTVSPost2010PropOp38
 70
     1
102
RTVSPost2010Prop39
140
1.0
102
RTVSPost2010PropOp39
 70
     1
102
RTVSPost2010Prop40
 90
        0
102
RTVSPost2010PropOp40
 70
     1
102
RTVSPost2010Prop41ColorIndex
 90
       18
102
RTVSPost2010Prop41ColorRGB
 90
        0
102
RTVSPost2010PropOp41
 70
     1
102
RTVSPost2010Prop42
 90
       50
102
RTVSPost2010PropOp42
 70
     1
102
RTVSPost2010Prop43
 90
        3
102
RTVSPost2010PropOp43
 70
     1
102
RTVSPost2010Prop44ColorIndex
 90
        5
102
RTVSPost2010Prop44ColorRGB
 90
      255
102
RTVSPost2010PropOp44
 70
     1
102
RTVSPost2010Prop45
280
     0
102
RTVSPost2010PropOp45
 70
     1
102
RTVSPost2010Prop46
 90
       50
102
RTVSPost2010PropOp46
 70
     1
102
RTVSPost2010Prop47
 90
       50
102
RTVSPost2010PropOp47
 70
     1
102
RTVSPost2010Prop48
 90
       50
102
RTVSPost2010PropOp48
 70
     1
102
RTVSPost2010Prop49
280
     0
102
RTVSPost2010PropOp49
 70
     1
102
RTVSPost2010Prop50
 90
       50
102
RTVSPost2010PropOp50
 70
     1
102
RTVSPost2010Prop51ColorIndex
 90
      256
102
RTVSPost2010Prop51ColorRGB
 90
-16777216
102
RTVSPost2010PropOp51
 70
     0
102
RTVSPost2010Prop52
140
1.0
102
RTVSPost2010PropOp52
 70
     0
102
RTVSPost2010Prop53
 90
        2
102
RTVSPost2010PropOp53
 70
     1
102
RTVSPost2010Prop54
  1
strokes_ogs.tif
102
RTVSPost2010PropOp54
 70
     1
102
RTVSPost2010Prop55
280
     0
102
RTVSPost2010PropOp55
 70
     1
102
RTVSPost2010Prop56
140
1.0
102
RTVSPost2010PropOp56
 70
     1
102
RTVSPost2010Prop57
140
1.0
102
RTVSPost2010PropOp57
 70
     1
102
RTVSPropertyOp0
 70
     0
102
RTVSPropertyOp1
 70
     0
102
RTVSPropertyOp2
 70
     0
102
RTVSPropertyOp3
 70
     0
102
RTVSPropertyOp4
 70
     0
102
RTVSPropertyOp5
 70
     0
102
RTVSPropertyOp6
 70
     0
102
RTVSPropertyOp7
 70
     0
102
RTVSPropertyOp8
 70
     0
102
RTVSPropertyOp9
 70
     0
102
RTVSPropertyOp10
 70
     0
102
RTVSPropertyOp11
 70
     0
102
RTVSPropertyOp12
 70
     0
102
RTVSPropertyOp13
 70
     0
102
RTVSPropertyOp14
 70
     2
102
RTVSPropertyOp15
 70
     0
102
RTVSPropertyOp16
 70
     0
102
RTVSPropertyOp17
 70
     0
102
RTVSPropertyOp18
 70
     0
102
RTVSPropertyOp19
 70
     0
102
RTVSPropertyOp20
 70
     0
102
RTVSPropertyOp21
 70
     0
102
RTVSPropertyOp22
 70
     0
102
RTVSPropertyOp23
 70
     0
102
RTVSPropertyOp24
 70
     0
102
RTVSPropertyOp25
 70
     0
102
RTVSPropertyOp26
 70
     0
102
RTVSPropertyOp27
 70
     0
102
RTVSPropertyOp28
 70
     1
102
RTVSPropertyOp29
 70
     1
102
RTVSPropertyOp30
 70
     1
102
RTVSPropertyOp31
 70
     1
102
RTVSPropertyOp32
 70
     1
102
RTVSPropertyOp33
 70
     1
102
RTVSPropertyOp34
 70
     1
102
RTVSPropertyOp35
 70
     1
102
RTVSPropertyOp36
 70
     1
102
RTVSPropertyOp37
 70
     1
102
RTVSPropertyOp38
 70
     1
102
RTVSPropertyOp39
 70
     1
102
RTVSPropertyOp40
 70
     1
102
RTVSPropertyOp41
 70
     1
102
RTVSPropertyOp42
 70
     1
102
RTVSPropertyOp43
 70
     1
102
RTVSPropertyOp44
 70
     1
102
RTVSPropertyOp45
 70
     1
102
RTVSPropertyOp46
 70
     1
102
RTVSPropertyOp47
 70
     1
102
RTVSPropertyOp48
 70
     1
102
RTVSPropertyOp49
 70
     1
102
RTVSPropertyOp50
 70
     1
102
RTVSPropertyOp51
 70
     0
102
RTVSPropertyOp52
 70
     0
102
RTVSPropertyOp53
 70
     1
102
RTVSPropertyOp54
 70
     1
102
RTVSPropertyOp55
 70
     1
102
RTVSPropertyOp56
 70
     1
102
RTVSPropertyOp57
 70
     1
102
RTVSPropertyOp58
 70
     1
102
RTVSPropertyOp59
 70
     1
102
RTVSPropertyOp60
 70
     1
102
RTVSPropertyOp61
 70
     1
102
RTVSPropertyOp62
 70
     1
  0
XRECORD
  5
1AF5F
102
{ACAD_REACTORS
330
1AF5E
102
}
330
1AF5E
100
AcDbXrecord
280
     1
102
RTVSPost2010Prop28
280
     0
102
RTVSPost2010PropOp28
 70
     1
102
RTVSPost2010Prop29
280
     1
102
RTVSPost2010PropOp29
 70
     1
102
RTVSPost2010Prop30
280
     1
102
RTVSPost2010PropOp30
 70
     1
102
RTVSPost2010Prop31
280
     0
102
RTVSPost2010PropOp31
 70
     1
102
RTVSPost2010Prop32
280
     0
102
RTVSPost2010PropOp32
 70
     1
102
RTVSPost2010Prop33
280
     0
102
RTVSPost2010PropOp33
 70
     1
102
RTVSPost2010Prop34
280
     0
102
RTVSPost2010PropOp34
 70
     1
102
RTVSPost2010Prop35
280
     0
102
RTVSPost2010PropOp35
 70
     1
102
RTVSPost2010Prop36
280
     0
102
RTVSPost2010PropOp36
 70
     1
102
RTVSPost2010Prop37
 90
       50
102
RTVSPost2010PropOp37
 70
     1
102
RTVSPost2010Prop38
140
0.0
102
RTVSPost2010PropOp38
 70
     1
102
RTVSPost2010Prop39
140
1.0
102
RTVSPost2010PropOp39
 70
     1
102
RTVSPost2010Prop40
 90
        0
102
RTVSPost2010PropOp40
 70
     1
102
RTVSPost2010Prop41ColorIndex
 90
       18
102
RTVSPost2010Prop41ColorRGB
 90
        0
102
RTVSPost2010PropOp41
 70
     1
102
RTVSPost2010Prop42
 90
       50
102
RTVSPost2010PropOp42
 70
     1
102
RTVSPost2010Prop43
 90
        3
102
RTVSPost2010PropOp43
 70
     1
102
RTVSPost2010Prop44ColorIndex
 90
        5
102
RTVSPost2010Prop44ColorRGB
 90
      255
102
RTVSPost2010PropOp44
 70
     1
102
RTVSPost2010Prop45
280
     0
102
RTVSPost2010PropOp45
 70
     1
102
RTVSPost2010Prop46
 90
       50
102
RTVSPost2010PropOp46
 70
     1
102
RTVSPost2010Prop47
 90
       50
102
RTVSPost2010PropOp47
 70
     1
102
RTVSPost2010Prop48
 90
       50
102
RTVSPost2010PropOp48
 70
     1
102
RTVSPost2010Prop49
280
     0
102
RTVSPost2010PropOp49
 70
     1
102
RTVSPost2010Prop50
 90
       50
102
RTVSPost2010PropOp50
 70
     1
102
RTVSPost2010Prop51ColorIndex
 90
      256
102
RTVSPost2010Prop51ColorRGB
 90
-16777216
102
RTVSPost2010PropOp51
 70
     0
102
RTVSPost2010Prop52
140
1.0
102
RTVSPost2010PropOp52
 70
     0
102
RTVSPost2010Prop53
 90
        2
102
RTVSPost2010PropOp53
 70
     1
102
RTVSPost2010Prop54
  1
strokes_ogs.tif
102
RTVSPost2010PropOp54
 70
     1
102
RTVSPost2010Prop55
280
     0
102
RTVSPost2010PropOp55
 70
     1
102
RTVSPost2010Prop56
140
1.0
102
RTVSPost2010PropOp56
 70
     1
102
RTVSPost2010Prop57
140
1.0
102
RTVSPost2010PropOp57
 70
     1
102
RTVSPropertyOp0
 70
     1
102
RTVSPropertyOp1
 70
     1
102
RTVSPropertyOp2
 70
     1
102
RTVSPropertyOp3
 70
     1
102
RTVSPropertyOp4
 70
     1
102
RTVSPropertyOp5
 70
     1
102
RTVSPropertyOp6
 70
     1
102
RTVSPropertyOp7
 70
     1
102
RTVSPropertyOp8
 70
     1
102
RTVSPropertyOp9
 70
     1
102
RTVSPropertyOp10
 70
     1
102
RTVSPropertyOp11
 70
     1
102
RTVSPropertyOp12
 70
     1
102
RTVSPropertyOp13
 70
     1
102
RTVSPropertyOp14
 70
     1
102
RTVSPropertyOp15
 70
     1
102
RTVSPropertyOp16
 70
     1
102
RTVSPropertyOp17
 70
     1
102
RTVSPropertyOp18
 70
     1
102
RTVSPropertyOp19
 70
     1
102
RTVSPropertyOp20
 70
     1
102
RTVSPropertyOp21
 70
     1
102
RTVSPropertyOp22
 70
     1
102
RTVSPropertyOp23
 70
     1
102
RTVSPropertyOp24
 70
     1
102
RTVSPropertyOp25
 70
     1
102
RTVSPropertyOp26
 70
     1
102
RTVSPropertyOp27
 70
     1
102
RTVSPropertyOp28
 70
     1
102
RTVSPropertyOp29
 70
     1
102
RTVSPropertyOp30
 70
     1
102
RTVSPropertyOp31
 70
     1
102
RTVSPropertyOp32
 70
     1
102
RTVSPropertyOp33
 70
     1
102
RTVSPropertyOp34
 70
     1
102
RTVSPropertyOp35
 70
     1
102
RTVSPropertyOp36
 70
     1
102
RTVSPropertyOp37
 70
     1
102
RTVSPropertyOp38
 70
     1
102
RTVSPropertyOp39
 70
     1
102
RTVSPropertyOp40
 70
     1
102
RTVSPropertyOp41
 70
     1
102
RTVSPropertyOp42
 70
     1
102
RTVSPropertyOp43
 70
     1
102
RTVSPropertyOp44
 70
     1
102
RTVSPropertyOp45
 70
     1
102
RTVSPropertyOp46
 70
     1
102
RTVSPropertyOp47
 70
     1
102
RTVSPropertyOp48
 70
     1
102
RTVSPropertyOp49
 70
     1
102
RTVSPropertyOp50
 70
     1
102
RTVSPropertyOp51
 70
     0
102
RTVSPropertyOp52
 70
     0
102
RTVSPropertyOp53
 70
     1
102
RTVSPropertyOp54
 70
     1
102
RTVSPropertyOp55
 70
     1
102
RTVSPropertyOp56
 70
     1
102
RTVSPropertyOp57
 70
     1
102
RTVSPropertyOp58
 70
     1
102
RTVSPropertyOp59
 70
     1
102
RTVSPropertyOp60
 70
     1
102
RTVSPropertyOp61
 70
     1
102
RTVSPropertyOp62
 70
     1
  0
XRECORD
  5
1AF7D
102
{ACAD_REACTORS
330
1AF7C
102
}
330
1AF7C
100
AcDbXrecord
280
     1
102
RTVSPost2010Prop28
280
     0
102
RTVSPost2010PropOp28
 70
     1
102
RTVSPost2010Prop29
280
     1
102
RTVSPost2010PropOp29
 70
     1
102
RTVSPost2010Prop30
280
     1
102
RTVSPost2010PropOp30
 70
     1
102
RTVSPost2010Prop31
280
     0
102
RTVSPost2010PropOp31
 70
     1
102
RTVSPost2010Prop32
280
     0
102
RTVSPost2010PropOp32
 70
     1
102
RTVSPost2010Prop33
280
     0
102
RTVSPost2010PropOp33
 70
     1
102
RTVSPost2010Prop34
280
     0
102
RTVSPost2010PropOp34
 70
     1
102
RTVSPost2010Prop35
280
     0
102
RTVSPost2010PropOp35
 70
     1
102
RTVSPost2010Prop36
280
     0
102
RTVSPost2010PropOp36
 70
     1
102
RTVSPost2010Prop37
 90
       50
102
RTVSPost2010PropOp37
 70
     1
102
RTVSPost2010Prop38
140
0.0
102
RTVSPost2010PropOp38
 70
     1
102
RTVSPost2010Prop39
140
1.0
102
RTVSPost2010PropOp39
 70
     1
102
RTVSPost2010Prop40
 90
        0
102
RTVSPost2010PropOp40
 70
     1
102
RTVSPost2010Prop41ColorIndex
 90
       18
102
RTVSPost2010Prop41ColorRGB
 90
        0
102
RTVSPost2010PropOp41
 70
     1
102
RTVSPost2010Prop42
 90
       50
102
RTVSPost2010PropOp42
 70
     1
102
RTVSPost2010Prop43
 90
        3
102
RTVSPost2010PropOp43
 70
     1
102
RTVSPost2010Prop44ColorIndex
 90
        5
102
RTVSPost2010Prop44ColorRGB
 90
      255
102
RTVSPost2010PropOp44
 70
     1
102
RTVSPost2010Prop45
280
     0
102
RTVSPost2010PropOp45
 70
     1
102
RTVSPost2010Prop46
 90
       50
102
RTVSPost2010PropOp46
 70
     1
102
RTVSPost2010Prop47
 90
       50
102
RTVSPost2010PropOp47
 70
     1
102
RTVSPost2010Prop48
 90
       50
102
RTVSPost2010PropOp48
 70
     1
102
RTVSPost2010Prop49
280
     0
102
RTVSPost2010PropOp49
 70
     1
102
RTVSPost2010Prop50
 90
       50
102
RTVSPost2010PropOp50
 70
     1
102
RTVSPost2010Prop51ColorIndex
 90
      256
102
RTVSPost2010Prop51ColorRGB
 90
-16777216
102
RTVSPost2010PropOp51
 70
     0
102
RTVSPost2010Prop52
140
1.0
102
RTVSPost2010PropOp52
 70
     0
102
RTVSPost2010Prop53
 90
        2
102
RTVSPost2010PropOp53
 70
     1
102
RTVSPost2010Prop54
  1
strokes_ogs.tif
102
RTVSPost2010PropOp54
 70
     1
102
RTVSPost2010Prop55
280
     0
102
RTVSPost2010PropOp55
 70
     1
102
RTVSPost2010Prop56
140
1.0
102
RTVSPost2010PropOp56
 70
     1
102
RTVSPost2010Prop57
140
1.0
102
RTVSPost2010PropOp57
 70
     1
102
RTVSPropertyOp0
 70
     1
102
RTVSPropertyOp1
 70
     1
102
RTVSPropertyOp2
 70
     1
102
RTVSPropertyOp3
 70
     1
102
RTVSPropertyOp4
 70
     1
102
RTVSPropertyOp5
 70
     1
102
RTVSPropertyOp6
 70
     1
102
RTVSPropertyOp7
 70
     1
102
RTVSPropertyOp8
 70
     1
102
RTVSPropertyOp9
 70
     1
102
RTVSPropertyOp10
 70
     1
102
RTVSPropertyOp11
 70
     1
102
RTVSPropertyOp12
 70
     1
102
RTVSPropertyOp13
 70
     1
102
RTVSPropertyOp14
 70
     1
102
RTVSPropertyOp15
 70
     1
102
RTVSPropertyOp16
 70
     1
102
RTVSPropertyOp17
 70
     1
102
RTVSPropertyOp18
 70
     1
102
RTVSPropertyOp19
 70
     1
102
RTVSPropertyOp20
 70
     1
102
RTVSPropertyOp21
 70
     1
102
RTVSPropertyOp22
 70
     1
102
RTVSPropertyOp23
 70
     1
102
RTVSPropertyOp24
 70
     1
102
RTVSPropertyOp25
 70
     1
102
RTVSPropertyOp26
 70
     1
102
RTVSPropertyOp27
 70
     1
102
RTVSPropertyOp28
 70
     1
102
RTVSPropertyOp29
 70
     1
102
RTVSPropertyOp30
 70
     1
102
RTVSPropertyOp31
 70
     1
102
RTVSPropertyOp32
 70
     1
102
RTVSPropertyOp33
 70
     1
102
RTVSPropertyOp34
 70
     1
102
RTVSPropertyOp35
 70
     1
102
RTVSPropertyOp36
 70
     1
102
RTVSPropertyOp37
 70
     1
102
RTVSPropertyOp38
 70
     1
102
RTVSPropertyOp39
 70
     1
102
RTVSPropertyOp40
 70
     1
102
RTVSPropertyOp41
 70
     1
102
RTVSPropertyOp42
 70
     1
102
RTVSPropertyOp43
 70
     1
102
RTVSPropertyOp44
 70
     1
102
RTVSPropertyOp45
 70
     1
102
RTVSPropertyOp46
 70
     1
102
RTVSPropertyOp47
 70
     1
102
RTVSPropertyOp48
 70
     1
102
RTVSPropertyOp49
 70
     1
102
RTVSPropertyOp50
 70
     1
102
RTVSPropertyOp51
 70
     0
102
RTVSPropertyOp52
 70
     0
102
RTVSPropertyOp53
 70
     1
102
RTVSPropertyOp54
 70
     1
102
RTVSPropertyOp55
 70
     1
102
RTVSPropertyOp56
 70
     1
102
RTVSPropertyOp57
 70
     1
102
RTVSPropertyOp58
 70
     1
102
RTVSPropertyOp59
 70
     1
102
RTVSPropertyOp60
 70
     1
102
RTVSPropertyOp61
 70
     1
102
RTVSPropertyOp62
 70
     1
  0
XRECORD
  5
1AF7B
102
{ACAD_REACTORS
330
1AF7A
102
}
330
1AF7A
100
AcDbXrecord
280
     1
102
RTVSPost2010Prop28
280
     0
102
RTVSPost2010PropOp28
 70
     1
102
RTVSPost2010Prop29
280
     1
102
RTVSPost2010PropOp29
 70
     1
102
RTVSPost2010Prop30
280
     1
102
RTVSPost2010PropOp30
 70
     1
102
RTVSPost2010Prop31
280
     0
102
RTVSPost2010PropOp31
 70
     1
102
RTVSPost2010Prop32
280
     0
102
RTVSPost2010PropOp32
 70
     1
102
RTVSPost2010Prop33
280
     0
102
RTVSPost2010PropOp33
 70
     1
102
RTVSPost2010Prop34
280
     0
102
RTVSPost2010PropOp34
 70
     1
102
RTVSPost2010Prop35
280
     0
102
RTVSPost2010PropOp35
 70
     1
102
RTVSPost2010Prop36
280
     0
102
RTVSPost2010PropOp36
 70
     1
102
RTVSPost2010Prop37
 90
       50
102
RTVSPost2010PropOp37
 70
     1
102
RTVSPost2010Prop38
140
0.0
102
RTVSPost2010PropOp38
 70
     1
102
RTVSPost2010Prop39
140
1.0
102
RTVSPost2010PropOp39
 70
     1
102
RTVSPost2010Prop40
 90
        0
102
RTVSPost2010PropOp40
 70
     1
102
RTVSPost2010Prop41ColorIndex
 90
       18
102
RTVSPost2010Prop41ColorRGB
 90
        0
102
RTVSPost2010PropOp41
 70
     1
102
RTVSPost2010Prop42
 90
       50
102
RTVSPost2010PropOp42
 70
     1
102
RTVSPost2010Prop43
 90
        3
102
RTVSPost2010PropOp43
 70
     1
102
RTVSPost2010Prop44ColorIndex
 90
        5
102
RTVSPost2010Prop44ColorRGB
 90
      255
102
RTVSPost2010PropOp44
 70
     1
102
RTVSPost2010Prop45
280
     0
102
RTVSPost2010PropOp45
 70
     1
102
RTVSPost2010Prop46
 90
       50
102
RTVSPost2010PropOp46
 70
     1
102
RTVSPost2010Prop47
 90
       50
102
RTVSPost2010PropOp47
 70
     1
102
RTVSPost2010Prop48
 90
       50
102
RTVSPost2010PropOp48
 70
     1
102
RTVSPost2010Prop49
280
     0
102
RTVSPost2010PropOp49
 70
     1
102
RTVSPost2010Prop50
 90
       50
102
RTVSPost2010PropOp50
 70
     1
102
RTVSPost2010Prop51ColorIndex
 90
      256
102
RTVSPost2010Prop51ColorRGB
 90
-16777216
102
RTVSPost2010PropOp51
 70
     0
102
RTVSPost2010Prop52
140
1.0
102
RTVSPost2010PropOp52
 70
     0
102
RTVSPost2010Prop53
 90
        2
102
RTVSPost2010PropOp53
 70
     1
102
RTVSPost2010Prop54
  1
strokes_ogs.tif
102
RTVSPost2010PropOp54
 70
     1
102
RTVSPost2010Prop55
280
     0
102
RTVSPost2010PropOp55
 70
     1
102
RTVSPost2010Prop56
140
1.0
102
RTVSPost2010PropOp56
 70
     1
102
RTVSPost2010Prop57
140
1.0
102
RTVSPost2010PropOp57
 70
     1
102
RTVSPropertyOp0
 70
     1
102
RTVSPropertyOp1
 70
     1
102
RTVSPropertyOp2
 70
     1
102
RTVSPropertyOp3
 70
     1
102
RTVSPropertyOp4
 70
     1
102
RTVSPropertyOp5
 70
     1
102
RTVSPropertyOp6
 70
     1
102
RTVSPropertyOp7
 70
     1
102
RTVSPropertyOp8
 70
     1
102
RTVSPropertyOp9
 70
     1
102
RTVSPropertyOp10
 70
     1
102
RTVSPropertyOp11
 70
     1
102
RTVSPropertyOp12
 70
     1
102
RTVSPropertyOp13
 70
     1
102
RTVSPropertyOp14
 70
     1
102
RTVSPropertyOp15
 70
     1
102
RTVSPropertyOp16
 70
     1
102
RTVSPropertyOp17
 70
     1
102
RTVSPropertyOp18
 70
     1
102
RTVSPropertyOp19
 70
     1
102
RTVSPropertyOp20
 70
     1
102
RTVSPropertyOp21
 70
     1
102
RTVSPropertyOp22
 70
     1
102
RTVSPropertyOp23
 70
     1
102
RTVSPropertyOp24
 70
     1
102
RTVSPropertyOp25
 70
     1
102
RTVSPropertyOp26
 70
     1
102
RTVSPropertyOp27
 70
     1
102
RTVSPropertyOp28
 70
     1
102
RTVSPropertyOp29
 70
     1
102
RTVSPropertyOp30
 70
     1
102
RTVSPropertyOp31
 70
     1
102
RTVSPropertyOp32
 70
     1
102
RTVSPropertyOp33
 70
     1
102
RTVSPropertyOp34
 70
     1
102
RTVSPropertyOp35
 70
     1
102
RTVSPropertyOp36
 70
     1
102
RTVSPropertyOp37
 70
     1
102
RTVSPropertyOp38
 70
     1
102
RTVSPropertyOp39
 70
     1
102
RTVSPropertyOp40
 70
     1
102
RTVSPropertyOp41
 70
     1
102
RTVSPropertyOp42
 70
     1
102
RTVSPropertyOp43
 70
     1
102
RTVSPropertyOp44
 70
     1
102
RTVSPropertyOp45
 70
     1
102
RTVSPropertyOp46
 70
     1
102
RTVSPropertyOp47
 70
     1
102
RTVSPropertyOp48
 70
     1
102
RTVSPropertyOp49
 70
     1
102
RTVSPropertyOp50
 70
     1
102
RTVSPropertyOp51
 70
     0
102
RTVSPropertyOp52
 70
     0
102
RTVSPropertyOp53
 70
     1
102
RTVSPropertyOp54
 70
     1
102
RTVSPropertyOp55
 70
     1
102
RTVSPropertyOp56
 70
     1
102
RTVSPropertyOp57
 70
     1
102
RTVSPropertyOp58
 70
     1
102
RTVSPropertyOp59
 70
     1
102
RTVSPropertyOp60
 70
     1
102
RTVSPropertyOp61
 70
     1
102
RTVSPropertyOp62
 70
     1
  0
XRECORD
  5
1AF75
102
{ACAD_REACTORS
330
1AF74
102
}
330
1AF74
100
AcDbXrecord
280
     1
102
RTVSPost2010Prop28
280
     0
102
RTVSPost2010PropOp28
 70
     1
102
RTVSPost2010Prop29
280
     1
102
RTVSPost2010PropOp29
 70
     1
102
RTVSPost2010Prop30
280
     1
102
RTVSPost2010PropOp30
 70
     1
102
RTVSPost2010Prop31
280
     0
102
RTVSPost2010PropOp31
 70
     1
102
RTVSPost2010Prop32
280
     0
102
RTVSPost2010PropOp32
 70
     1
102
RTVSPost2010Prop33
280
     0
102
RTVSPost2010PropOp33
 70
     1
102
RTVSPost2010Prop34
280
     0
102
RTVSPost2010PropOp34
 70
     1
102
RTVSPost2010Prop35
280
     0
102
RTVSPost2010PropOp35
 70
     1
102
RTVSPost2010Prop36
280
     0
102
RTVSPost2010PropOp36
 70
     1
102
RTVSPost2010Prop37
 90
       50
102
RTVSPost2010PropOp37
 70
     1
102
RTVSPost2010Prop38
140
0.0
102
RTVSPost2010PropOp38
 70
     1
102
RTVSPost2010Prop39
140
1.0
102
RTVSPost2010PropOp39
 70
     1
102
RTVSPost2010Prop40
 90
        0
102
RTVSPost2010PropOp40
 70
     1
102
RTVSPost2010Prop41ColorIndex
 90
       18
102
RTVSPost2010Prop41ColorRGB
 90
        0
102
RTVSPost2010PropOp41
 70
     1
102
RTVSPost2010Prop42
 90
       50
102
RTVSPost2010PropOp42
 70
     1
102
RTVSPost2010Prop43
 90
        3
102
RTVSPost2010PropOp43
 70
     1
102
RTVSPost2010Prop44ColorIndex
 90
        5
102
RTVSPost2010Prop44ColorRGB
 90
      255
102
RTVSPost2010PropOp44
 70
     1
102
RTVSPost2010Prop45
280
     0
102
RTVSPost2010PropOp45
 70
     1
102
RTVSPost2010Prop46
 90
       50
102
RTVSPost2010PropOp46
 70
     1
102
RTVSPost2010Prop47
 90
       50
102
RTVSPost2010PropOp47
 70
     1
102
RTVSPost2010Prop48
 90
       50
102
RTVSPost2010PropOp48
 70
     1
102
RTVSPost2010Prop49
280
     0
102
RTVSPost2010PropOp49
 70
     1
102
RTVSPost2010Prop50
 90
       50
102
RTVSPost2010PropOp50
 70
     1
102
RTVSPost2010Prop51ColorIndex
 90
      256
102
RTVSPost2010Prop51ColorRGB
 90
-16777216
102
RTVSPost2010PropOp51
 70
     0
102
RTVSPost2010Prop52
140
1.0
102
RTVSPost2010PropOp52
 70
     0
102
RTVSPost2010Prop53
 90
        2
102
RTVSPost2010PropOp53
 70
     1
102
RTVSPost2010Prop54
  1
strokes_ogs.tif
102
RTVSPost2010PropOp54
 70
     1
102
RTVSPost2010Prop55
280
     0
102
RTVSPost2010PropOp55
 70
     1
102
RTVSPost2010Prop56
140
1.0
102
RTVSPost2010PropOp56
 70
     1
102
RTVSPost2010Prop57
140
1.0
102
RTVSPost2010PropOp57
 70
     1
102
RTVSPropertyOp0
 70
     1
102
RTVSPropertyOp1
 70
     1
102
RTVSPropertyOp2
 70
     1
102
RTVSPropertyOp3
 70
     1
102
RTVSPropertyOp4
 70
     1
102
RTVSPropertyOp5
 70
     1
102
RTVSPropertyOp6
 70
     1
102
RTVSPropertyOp7
 70
     1
102
RTVSPropertyOp8
 70
     1
102
RTVSPropertyOp9
 70
     1
102
RTVSPropertyOp10
 70
     1
102
RTVSPropertyOp11
 70
     1
102
RTVSPropertyOp12
 70
     1
102
RTVSPropertyOp13
 70
     1
102
RTVSPropertyOp14
 70
     1
102
RTVSPropertyOp15
 70
     1
102
RTVSPropertyOp16
 70
     1
102
RTVSPropertyOp17
 70
     1
102
RTVSPropertyOp18
 70
     1
102
RTVSPropertyOp19
 70
     1
102
RTVSPropertyOp20
 70
     1
102
RTVSPropertyOp21
 70
     1
102
RTVSPropertyOp22
 70
     1
102
RTVSPropertyOp23
 70
     1
102
RTVSPropertyOp24
 70
     1
102
RTVSPropertyOp25
 70
     1
102
RTVSPropertyOp26
 70
     1
102
RTVSPropertyOp27
 70
     1
102
RTVSPropertyOp28
 70
     1
102
RTVSPropertyOp29
 70
     1
102
RTVSPropertyOp30
 70
     1
102
RTVSPropertyOp31
 70
     1
102
RTVSPropertyOp32
 70
     1
102
RTVSPropertyOp33
 70
     1
102
RTVSPropertyOp34
 70
     1
102
RTVSPropertyOp35
 70
     1
102
RTVSPropertyOp36
 70
     1
102
RTVSPropertyOp37
 70
     1
102
RTVSPropertyOp38
 70
     1
102
RTVSPropertyOp39
 70
     1
102
RTVSPropertyOp40
 70
     1
102
RTVSPropertyOp41
 70
     1
102
RTVSPropertyOp42
 70
     1
102
RTVSPropertyOp43
 70
     1
102
RTVSPropertyOp44
 70
     1
102
RTVSPropertyOp45
 70
     1
102
RTVSPropertyOp46
 70
     1
102
RTVSPropertyOp47
 70
     1
102
RTVSPropertyOp48
 70
     1
102
RTVSPropertyOp49
 70
     1
102
RTVSPropertyOp50
 70
     1
102
RTVSPropertyOp51
 70
     0
102
RTVSPropertyOp52
 70
     0
102
RTVSPropertyOp53
 70
     1
102
RTVSPropertyOp54
 70
     1
102
RTVSPropertyOp55
 70
     1
102
RTVSPropertyOp56
 70
     1
102
RTVSPropertyOp57
 70
     1
102
RTVSPropertyOp58
 70
     1
102
RTVSPropertyOp59
 70
     1
102
RTVSPropertyOp60
 70
     1
102
RTVSPropertyOp61
 70
     1
102
RTVSPropertyOp62
 70
     1
  0
XRECORD
  5
1AF77
102
{ACAD_REACTORS
330
1AF76
102
}
330
1AF76
100
AcDbXrecord
280
     1
102
RTVSPost2010Prop28
280
     0
102
RTVSPost2010PropOp28
 70
     1
102
RTVSPost2010Prop29
280
     1
102
RTVSPost2010PropOp29
 70
     1
102
RTVSPost2010Prop30
280
     1
102
RTVSPost2010PropOp30
 70
     1
102
RTVSPost2010Prop31
280
     0
102
RTVSPost2010PropOp31
 70
     1
102
RTVSPost2010Prop32
280
     0
102
RTVSPost2010PropOp32
 70
     1
102
RTVSPost2010Prop33
280
     0
102
RTVSPost2010PropOp33
 70
     1
102
RTVSPost2010Prop34
280
     0
102
RTVSPost2010PropOp34
 70
     1
102
RTVSPost2010Prop35
280
     0
102
RTVSPost2010PropOp35
 70
     1
102
RTVSPost2010Prop36
280
     0
102
RTVSPost2010PropOp36
 70
     1
102
RTVSPost2010Prop37
 90
       50
102
RTVSPost2010PropOp37
 70
     1
102
RTVSPost2010Prop38
140
0.0
102
RTVSPost2010PropOp38
 70
     1
102
RTVSPost2010Prop39
140
1.0
102
RTVSPost2010PropOp39
 70
     1
102
RTVSPost2010Prop40
 90
        0
102
RTVSPost2010PropOp40
 70
     1
102
RTVSPost2010Prop41ColorIndex
 90
       18
102
RTVSPost2010Prop41ColorRGB
 90
        0
102
RTVSPost2010PropOp41
 70
     1
102
RTVSPost2010Prop42
 90
       50
102
RTVSPost2010PropOp42
 70
     1
102
RTVSPost2010Prop43
 90
        3
102
RTVSPost2010PropOp43
 70
     1
102
RTVSPost2010Prop44ColorIndex
 90
        5
102
RTVSPost2010Prop44ColorRGB
 90
      255
102
RTVSPost2010PropOp44
 70
     1
102
RTVSPost2010Prop45
280
     0
102
RTVSPost2010PropOp45
 70
     1
102
RTVSPost2010Prop46
 90
       50
102
RTVSPost2010PropOp46
 70
     1
102
RTVSPost2010Prop47
 90
       50
102
RTVSPost2010PropOp47
 70
     1
102
RTVSPost2010Prop48
 90
       50
102
RTVSPost2010PropOp48
 70
     1
102
RTVSPost2010Prop49
280
     0
102
RTVSPost2010PropOp49
 70
     1
102
RTVSPost2010Prop50
 90
       50
102
RTVSPost2010PropOp50
 70
     1
102
RTVSPost2010Prop51ColorIndex
 90
      256
102
RTVSPost2010Prop51ColorRGB
 90
-16777216
102
RTVSPost2010PropOp51
 70
     0
102
RTVSPost2010Prop52
140
1.0
102
RTVSPost2010PropOp52
 70
     0
102
RTVSPost2010Prop53
 90
        2
102
RTVSPost2010PropOp53
 70
     1
102
RTVSPost2010Prop54
  1
strokes_ogs.tif
102
RTVSPost2010PropOp54
 70
     1
102
RTVSPost2010Prop55
280
     0
102
RTVSPost2010PropOp55
 70
     1
102
RTVSPost2010Prop56
140
1.0
102
RTVSPost2010PropOp56
 70
     1
102
RTVSPost2010Prop57
140
1.0
102
RTVSPost2010PropOp57
 70
     1
102
RTVSPropertyOp0
 70
     1
102
RTVSPropertyOp1
 70
     1
102
RTVSPropertyOp2
 70
     1
102
RTVSPropertyOp3
 70
     1
102
RTVSPropertyOp4
 70
     1
102
RTVSPropertyOp5
 70
     1
102
RTVSPropertyOp6
 70
     1
102
RTVSPropertyOp7
 70
     1
102
RTVSPropertyOp8
 70
     1
102
RTVSPropertyOp9
 70
     1
102
RTVSPropertyOp10
 70
     1
102
RTVSPropertyOp11
 70
     1
102
RTVSPropertyOp12
 70
     1
102
RTVSPropertyOp13
 70
     1
102
RTVSPropertyOp14
 70
     1
102
RTVSPropertyOp15
 70
     1
102
RTVSPropertyOp16
 70
     1
102
RTVSPropertyOp17
 70
     1
102
RTVSPropertyOp18
 70
     1
102
RTVSPropertyOp19
 70
     1
102
RTVSPropertyOp20
 70
     1
102
RTVSPropertyOp21
 70
     1
102
RTVSPropertyOp22
 70
     1
102
RTVSPropertyOp23
 70
     1
102
RTVSPropertyOp24
 70
     1
102
RTVSPropertyOp25
 70
     1
102
RTVSPropertyOp26
 70
     1
102
RTVSPropertyOp27
 70
     1
102
RTVSPropertyOp28
 70
     1
102
RTVSPropertyOp29
 70
     1
102
RTVSPropertyOp30
 70
     1
102
RTVSPropertyOp31
 70
     1
102
RTVSPropertyOp32
 70
     1
102
RTVSPropertyOp33
 70
     1
102
RTVSPropertyOp34
 70
     1
102
RTVSPropertyOp35
 70
     1
102
RTVSPropertyOp36
 70
     1
102
RTVSPropertyOp37
 70
     1
102
RTVSPropertyOp38
 70
     1
102
RTVSPropertyOp39
 70
     1
102
RTVSPropertyOp40
 70
     1
102
RTVSPropertyOp41
 70
     1
102
RTVSPropertyOp42
 70
     1
102
RTVSPropertyOp43
 70
     1
102
RTVSPropertyOp44
 70
     1
102
RTVSPropertyOp45
 70
     1
102
RTVSPropertyOp46
 70
     1
102
RTVSPropertyOp47
 70
     1
102
RTVSPropertyOp48
 70
     1
102
RTVSPropertyOp49
 70
     1
102
RTVSPropertyOp50
 70
     1
102
RTVSPropertyOp51
 70
     0
102
RTVSPropertyOp52
 70
     0
102
RTVSPropertyOp53
 70
     1
102
RTVSPropertyOp54
 70
     1
102
RTVSPropertyOp55
 70
     1
102
RTVSPropertyOp56
 70
     1
102
RTVSPropertyOp57
 70
     1
102
RTVSPropertyOp58
 70
     1
102
RTVSPropertyOp59
 70
     1
102
RTVSPropertyOp60
 70
     1
102
RTVSPropertyOp61
 70
     1
102
RTVSPropertyOp62
 70
     1
  0
XRECORD
  5
1AF65
102
{ACAD_REACTORS
330
1AF64
102
}
330
1AF64
100
AcDbXrecord
280
     1
102
RTVSPost2010Prop28
280
     0
102
RTVSPost2010PropOp28
 70
     1
102
RTVSPost2010Prop29
280
     1
102
RTVSPost2010PropOp29
 70
     1
102
RTVSPost2010Prop30
280
     1
102
RTVSPost2010PropOp30
 70
     1
102
RTVSPost2010Prop31
280
     0
102
RTVSPost2010PropOp31
 70
     1
102
RTVSPost2010Prop32
280
     0
102
RTVSPost2010PropOp32
 70
     1
102
RTVSPost2010Prop33
280
     0
102
RTVSPost2010PropOp33
 70
     1
102
RTVSPost2010Prop34
280
     0
102
RTVSPost2010PropOp34
 70
     1
102
RTVSPost2010Prop35
280
     0
102
RTVSPost2010PropOp35
 70
     1
102
RTVSPost2010Prop36
280
     0
102
RTVSPost2010PropOp36
 70
     1
102
RTVSPost2010Prop37
 90
       50
102
RTVSPost2010PropOp37
 70
     1
102
RTVSPost2010Prop38
140
0.0
102
RTVSPost2010PropOp38
 70
     1
102
RTVSPost2010Prop39
140
1.0
102
RTVSPost2010PropOp39
 70
     1
102
RTVSPost2010Prop40
 90
        0
102
RTVSPost2010PropOp40
 70
     1
102
RTVSPost2010Prop41ColorIndex
 90
       18
102
RTVSPost2010Prop41ColorRGB
 90
        0
102
RTVSPost2010PropOp41
 70
     1
102
RTVSPost2010Prop42
 90
       50
102
RTVSPost2010PropOp42
 70
     1
102
RTVSPost2010Prop43
 90
        3
102
RTVSPost2010PropOp43
 70
     1
102
RTVSPost2010Prop44ColorIndex
 90
        5
102
RTVSPost2010Prop44ColorRGB
 90
      255
102
RTVSPost2010PropOp44
 70
     1
102
RTVSPost2010Prop45
280
     0
102
RTVSPost2010PropOp45
 70
     1
102
RTVSPost2010Prop46
 90
       50
102
RTVSPost2010PropOp46
 70
     1
102
RTVSPost2010Prop47
 90
       50
102
RTVSPost2010PropOp47
 70
     1
102
RTVSPost2010Prop48
 90
       50
102
RTVSPost2010PropOp48
 70
     1
102
RTVSPost2010Prop49
280
     0
102
RTVSPost2010PropOp49
 70
     1
102
RTVSPost2010Prop50
 90
       50
102
RTVSPost2010PropOp50
 70
     1
102
RTVSPost2010Prop51ColorIndex
 90
      256
102
RTVSPost2010Prop51ColorRGB
 90
-16777216
102
RTVSPost2010PropOp51
 70
     0
102
RTVSPost2010Prop52
140
1.0
102
RTVSPost2010PropOp52
 70
     0
102
RTVSPost2010Prop53
 90
        2
102
RTVSPost2010PropOp53
 70
     1
102
RTVSPost2010Prop54
  1
strokes_ogs.tif
102
RTVSPost2010PropOp54
 70
     1
102
RTVSPost2010Prop55
280
     0
102
RTVSPost2010PropOp55
 70
     1
102
RTVSPost2010Prop56
140
1.0
102
RTVSPost2010PropOp56
 70
     1
102
RTVSPost2010Prop57
140
1.0
102
RTVSPost2010PropOp57
 70
     1
102
RTVSPropertyOp0
 70
     1
102
RTVSPropertyOp1
 70
     1
102
RTVSPropertyOp2
 70
     1
102
RTVSPropertyOp3
 70
     1
102
RTVSPropertyOp4
 70
     1
102
RTVSPropertyOp5
 70
     1
102
RTVSPropertyOp6
 70
     1
102
RTVSPropertyOp7
 70
     1
102
RTVSPropertyOp8
 70
     1
102
RTVSPropertyOp9
 70
     1
102
RTVSPropertyOp10
 70
     1
102
RTVSPropertyOp11
 70
     1
102
RTVSPropertyOp12
 70
     1
102
RTVSPropertyOp13
 70
     1
102
RTVSPropertyOp14
 70
     1
102
RTVSPropertyOp15
 70
     1
102
RTVSPropertyOp16
 70
     1
102
RTVSPropertyOp17
 70
     1
102
RTVSPropertyOp18
 70
     1
102
RTVSPropertyOp19
 70
     1
102
RTVSPropertyOp20
 70
     1
102
RTVSPropertyOp21
 70
     1
102
RTVSPropertyOp22
 70
     1
102
RTVSPropertyOp23
 70
     1
102
RTVSPropertyOp24
 70
     1
102
RTVSPropertyOp25
 70
     1
102
RTVSPropertyOp26
 70
     1
102
RTVSPropertyOp27
 70
     1
102
RTVSPropertyOp28
 70
     1
102
RTVSPropertyOp29
 70
     1
102
RTVSPropertyOp30
 70
     1
102
RTVSPropertyOp31
 70
     1
102
RTVSPropertyOp32
 70
     1
102
RTVSPropertyOp33
 70
     1
102
RTVSPropertyOp34
 70
     1
102
RTVSPropertyOp35
 70
     1
102
RTVSPropertyOp36
 70
     1
102
RTVSPropertyOp37
 70
     1
102
RTVSPropertyOp38
 70
     1
102
RTVSPropertyOp39
 70
     1
102
RTVSPropertyOp40
 70
     1
102
RTVSPropertyOp41
 70
     1
102
RTVSPropertyOp42
 70
     1
102
RTVSPropertyOp43
 70
     1
102
RTVSPropertyOp44
 70
     1
102
RTVSPropertyOp45
 70
     1
102
RTVSPropertyOp46
 70
     1
102
RTVSPropertyOp47
 70
     1
102
RTVSPropertyOp48
 70
     1
102
RTVSPropertyOp49
 70
     1
102
RTVSPropertyOp50
 70
     1
102
RTVSPropertyOp51
 70
     0
102
RTVSPropertyOp52
 70
     0
102
RTVSPropertyOp53
 70
     1
102
RTVSPropertyOp54
 70
     1
102
RTVSPropertyOp55
 70
     1
102
RTVSPropertyOp56
 70
     1
102
RTVSPropertyOp57
 70
     1
102
RTVSPropertyOp58
 70
     1
102
RTVSPropertyOp59
 70
     1
102
RTVSPropertyOp60
 70
     1
102
RTVSPropertyOp61
 70
     1
102
RTVSPropertyOp62
 70
     1
  0
XRECORD
  5
1AF59
102
{ACAD_REACTORS
330
1AF58
102
}
330
1AF58
100
AcDbXrecord
280
     1
102
RTVSPost2010Prop28
280
     0
102
RTVSPost2010PropOp28
 70
     1
102
RTVSPost2010Prop29
280
     1
102
RTVSPost2010PropOp29
 70
     1
102
RTVSPost2010Prop30
280
     1
102
RTVSPost2010PropOp30
 70
     1
102
RTVSPost2010Prop31
280
     0
102
RTVSPost2010PropOp31
 70
     1
102
RTVSPost2010Prop32
280
     0
102
RTVSPost2010PropOp32
 70
     1
102
RTVSPost2010Prop33
280
     0
102
RTVSPost2010PropOp33
 70
     1
102
RTVSPost2010Prop34
280
     0
102
RTVSPost2010PropOp34
 70
     1
102
RTVSPost2010Prop35
280
     0
102
RTVSPost2010PropOp35
 70
     1
102
RTVSPost2010Prop36
280
     0
102
RTVSPost2010PropOp36
 70
     1
102
RTVSPost2010Prop37
 90
       50
102
RTVSPost2010PropOp37
 70
     1
102
RTVSPost2010Prop38
140
0.0
102
RTVSPost2010PropOp38
 70
     1
102
RTVSPost2010Prop39
140
1.0
102
RTVSPost2010PropOp39
 70
     1
102
RTVSPost2010Prop40
 90
        0
102
RTVSPost2010PropOp40
 70
     1
102
RTVSPost2010Prop41ColorIndex
 90
       18
102
RTVSPost2010Prop41ColorRGB
 90
        0
102
RTVSPost2010PropOp41
 70
     1
102
RTVSPost2010Prop42
 90
       50
102
RTVSPost2010PropOp42
 70
     1
102
RTVSPost2010Prop43
 90
        3
102
RTVSPost2010PropOp43
 70
     1
102
RTVSPost2010Prop44ColorIndex
 90
        5
102
RTVSPost2010Prop44ColorRGB
 90
      255
102
RTVSPost2010PropOp44
 70
     1
102
RTVSPost2010Prop45
280
     0
102
RTVSPost2010PropOp45
 70
     1
102
RTVSPost2010Prop46
 90
       50
102
RTVSPost2010PropOp46
 70
     1
102
RTVSPost2010Prop47
 90
       50
102
RTVSPost2010PropOp47
 70
     1
102
RTVSPost2010Prop48
 90
       50
102
RTVSPost2010PropOp48
 70
     1
102
RTVSPost2010Prop49
280
     0
102
RTVSPost2010PropOp49
 70
     1
102
RTVSPost2010Prop50
 90
       50
102
RTVSPost2010PropOp50
 70
     1
102
RTVSPost2010Prop51ColorIndex
 90
      256
102
RTVSPost2010Prop51ColorRGB
 90
-16777216
102
RTVSPost2010PropOp51
 70
     0
102
RTVSPost2010Prop52
140
1.0
102
RTVSPost2010PropOp52
 70
     0
102
RTVSPost2010Prop53
 90
        2
102
RTVSPost2010PropOp53
 70
     1
102
RTVSPost2010Prop54
  1
strokes_ogs.tif
102
RTVSPost2010PropOp54
 70
     1
102
RTVSPost2010Prop55
280
     0
102
RTVSPost2010PropOp55
 70
     1
102
RTVSPost2010Prop56
140
1.0
102
RTVSPost2010PropOp56
 70
     1
102
RTVSPost2010Prop57
140
1.0
102
RTVSPost2010PropOp57
 70
     1
102
RTVSPropertyOp0
 70
     1
102
RTVSPropertyOp1
 70
     1
102
RTVSPropertyOp2
 70
     1
102
RTVSPropertyOp3
 70
     1
102
RTVSPropertyOp4
 70
     1
102
RTVSPropertyOp5
 70
     1
102
RTVSPropertyOp6
 70
     1
102
RTVSPropertyOp7
 70
     1
102
RTVSPropertyOp8
 70
     1
102
RTVSPropertyOp9
 70
     1
102
RTVSPropertyOp10
 70
     1
102
RTVSPropertyOp11
 70
     1
102
RTVSPropertyOp12
 70
     1
102
RTVSPropertyOp13
 70
     1
102
RTVSPropertyOp14
 70
     1
102
RTVSPropertyOp15
 70
     1
102
RTVSPropertyOp16
 70
     1
102
RTVSPropertyOp17
 70
     1
102
RTVSPropertyOp18
 70
     1
102
RTVSPropertyOp19
 70
     1
102
RTVSPropertyOp20
 70
     1
102
RTVSPropertyOp21
 70
     1
102
RTVSPropertyOp22
 70
     1
102
RTVSPropertyOp23
 70
     1
102
RTVSPropertyOp24
 70
     1
102
RTVSPropertyOp25
 70
     1
102
RTVSPropertyOp26
 70
     1
102
RTVSPropertyOp27
 70
     1
102
RTVSPropertyOp28
 70
     1
102
RTVSPropertyOp29
 70
     1
102
RTVSPropertyOp30
 70
     1
102
RTVSPropertyOp31
 70
     1
102
RTVSPropertyOp32
 70
     1
102
RTVSPropertyOp33
 70
     1
102
RTVSPropertyOp34
 70
     1
102
RTVSPropertyOp35
 70
     1
102
RTVSPropertyOp36
 70
     1
102
RTVSPropertyOp37
 70
     1
102
RTVSPropertyOp38
 70
     1
102
RTVSPropertyOp39
 70
     1
102
RTVSPropertyOp40
 70
     1
102
RTVSPropertyOp41
 70
     1
102
RTVSPropertyOp42
 70
     1
102
RTVSPropertyOp43
 70
     1
102
RTVSPropertyOp44
 70
     1
102
RTVSPropertyOp45
 70
     1
102
RTVSPropertyOp46
 70
     1
102
RTVSPropertyOp47
 70
     1
102
RTVSPropertyOp48
 70
     1
102
RTVSPropertyOp49
 70
     1
102
RTVSPropertyOp50
 70
     1
102
RTVSPropertyOp51
 70
     0
102
RTVSPropertyOp52
 70
     0
102
RTVSPropertyOp53
 70
     1
102
RTVSPropertyOp54
 70
     1
102
RTVSPropertyOp55
 70
     1
102
RTVSPropertyOp56
 70
     1
102
RTVSPropertyOp57
 70
     1
102
RTVSPropertyOp58
 70
     1
102
RTVSPropertyOp59
 70
     1
102
RTVSPropertyOp60
 70
     1
102
RTVSPropertyOp61
 70
     1
102
RTVSPropertyOp62
 70
     1
  0
XRECORD
  5
1AF79
102
{ACAD_REACTORS
330
1AF78
102
}
330
1AF78
100
AcDbXrecord
280
     1
102
RTVSPost2010Prop28
280
     0
102
RTVSPost2010PropOp28
 70
     1
102
RTVSPost2010Prop29
280
     1
102
RTVSPost2010PropOp29
 70
     1
102
RTVSPost2010Prop30
280
     1
102
RTVSPost2010PropOp30
 70
     1
102
RTVSPost2010Prop31
280
     0
102
RTVSPost2010PropOp31
 70
     1
102
RTVSPost2010Prop32
280
     0
102
RTVSPost2010PropOp32
 70
     1
102
RTVSPost2010Prop33
280
     0
102
RTVSPost2010PropOp33
 70
     1
102
RTVSPost2010Prop34
280
     0
102
RTVSPost2010PropOp34
 70
     1
102
RTVSPost2010Prop35
280
     0
102
RTVSPost2010PropOp35
 70
     1
102
RTVSPost2010Prop36
280
     0
102
RTVSPost2010PropOp36
 70
     1
102
RTVSPost2010Prop37
 90
       50
102
RTVSPost2010PropOp37
 70
     1
102
RTVSPost2010Prop38
140
0.0
102
RTVSPost2010PropOp38
 70
     1
102
RTVSPost2010Prop39
140
1.0
102
RTVSPost2010PropOp39
 70
     1
102
RTVSPost2010Prop40
 90
        0
102
RTVSPost2010PropOp40
 70
     1
102
RTVSPost2010Prop41ColorIndex
 90
       18
102
RTVSPost2010Prop41ColorRGB
 90
        0
102
RTVSPost2010PropOp41
 70
     1
102
RTVSPost2010Prop42
 90
       50
102
RTVSPost2010PropOp42
 70
     1
102
RTVSPost2010Prop43
 90
        3
102
RTVSPost2010PropOp43
 70
     1
102
RTVSPost2010Prop44ColorIndex
 90
        5
102
RTVSPost2010Prop44ColorRGB
 90
      255
102
RTVSPost2010PropOp44
 70
     1
102
RTVSPost2010Prop45
280
     0
102
RTVSPost2010PropOp45
 70
     1
102
RTVSPost2010Prop46
 90
       50
102
RTVSPost2010PropOp46
 70
     1
102
RTVSPost2010Prop47
 90
       50
102
RTVSPost2010PropOp47
 70
     1
102
RTVSPost2010Prop48
 90
       50
102
RTVSPost2010PropOp48
 70
     1
102
RTVSPost2010Prop49
280
     0
102
RTVSPost2010PropOp49
 70
     1
102
RTVSPost2010Prop50
 90
       50
102
RTVSPost2010PropOp50
 70
     1
102
RTVSPost2010Prop51ColorIndex
 90
      256
102
RTVSPost2010Prop51ColorRGB
 90
-16777216
102
RTVSPost2010PropOp51
 70
     0
102
RTVSPost2010Prop52
140
1.0
102
RTVSPost2010PropOp52
 70
     0
102
RTVSPost2010Prop53
 90
        2
102
RTVSPost2010PropOp53
 70
     1
102
RTVSPost2010Prop54
  1
strokes_ogs.tif
102
RTVSPost2010PropOp54
 70
     1
102
RTVSPost2010Prop55
280
     0
102
RTVSPost2010PropOp55
 70
     1
102
RTVSPost2010Prop56
140
1.0
102
RTVSPost2010PropOp56
 70
     1
102
RTVSPost2010Prop57
140
1.0
102
RTVSPost2010PropOp57
 70
     1
102
RTVSPropertyOp0
 70
     1
102
RTVSPropertyOp1
 70
     1
102
RTVSPropertyOp2
 70
     1
102
RTVSPropertyOp3
 70
     1
102
RTVSPropertyOp4
 70
     1
102
RTVSPropertyOp5
 70
     1
102
RTVSPropertyOp6
 70
     1
102
RTVSPropertyOp7
 70
     1
102
RTVSPropertyOp8
 70
     1
102
RTVSPropertyOp9
 70
     1
102
RTVSPropertyOp10
 70
     1
102
RTVSPropertyOp11
 70
     1
102
RTVSPropertyOp12
 70
     1
102
RTVSPropertyOp13
 70
     1
102
RTVSPropertyOp14
 70
     1
102
RTVSPropertyOp15
 70
     1
102
RTVSPropertyOp16
 70
     1
102
RTVSPropertyOp17
 70
     1
102
RTVSPropertyOp18
 70
     1
102
RTVSPropertyOp19
 70
     1
102
RTVSPropertyOp20
 70
     1
102
RTVSPropertyOp21
 70
     1
102
RTVSPropertyOp22
 70
     1
102
RTVSPropertyOp23
 70
     1
102
RTVSPropertyOp24
 70
     1
102
RTVSPropertyOp25
 70
     1
102
RTVSPropertyOp26
 70
     1
102
RTVSPropertyOp27
 70
     1
102
RTVSPropertyOp28
 70
     1
102
RTVSPropertyOp29
 70
     1
102
RTVSPropertyOp30
 70
     1
102
RTVSPropertyOp31
 70
     1
102
RTVSPropertyOp32
 70
     1
102
RTVSPropertyOp33
 70
     1
102
RTVSPropertyOp34
 70
     1
102
RTVSPropertyOp35
 70
     1
102
RTVSPropertyOp36
 70
     1
102
RTVSPropertyOp37
 70
     1
102
RTVSPropertyOp38
 70
     1
102
RTVSPropertyOp39
 70
     1
102
RTVSPropertyOp40
 70
     1
102
RTVSPropertyOp41
 70
     1
102
RTVSPropertyOp42
 70
     1
102
RTVSPropertyOp43
 70
     1
102
RTVSPropertyOp44
 70
     1
102
RTVSPropertyOp45
 70
     1
102
RTVSPropertyOp46
 70
     1
102
RTVSPropertyOp47
 70
     1
102
RTVSPropertyOp48
 70
     1
102
RTVSPropertyOp49
 70
     1
102
RTVSPropertyOp50
 70
     1
102
RTVSPropertyOp51
 70
     0
102
RTVSPropertyOp52
 70
     0
102
RTVSPropertyOp53
 70
     1
102
RTVSPropertyOp54
 70
     1
102
RTVSPropertyOp55
 70
     1
102
RTVSPropertyOp56
 70
     1
102
RTVSPropertyOp57
 70
     1
102
RTVSPropertyOp58
 70
     1
102
RTVSPropertyOp59
 70
     1
102
RTVSPropertyOp60
 70
     1
102
RTVSPropertyOp61
 70
     1
102
RTVSPropertyOp62
 70
     1
  0
ENDSEC
  0
EOF
