  0
SECTION
  2
HEADER
  9
$ACADVER
  1
AC1015
  9
$ACADMAINTVER
 70
    18
  9
$DWGCODEPAGE
  3
ANSI_1252
  9
$INSBASE
 10
0.0
 20
0.0
 30
0.0
  9
$EXTMIN
 10
-22.63549709533743
 20
-263.695357891842
 30
-0.0015258207003583
  9
$EXTMAX
 10
50.26336724667737
 20
2.007614483832867
 30
0.0000000349246037
  9
$LIMMIN
 10
0.0
 20
0.0
  9
$LIMMAX
 10
420.0
 20
297.0
  9
$ORTHOMODE
 70
     0
  9
$REGENMODE
 70
     1
  9
$FILLMODE
 70
     1
  9
$QTEXTMODE
 70
     0
  9
$MIRRTEXT
 70
     0
  9
$LTSCALE
 40
1.0
  9
$ATTMODE
 70
     1
  9
$TEXTSIZE
 40
2.5
  9
$TRACEWID
 40
1.0
  9
$TEXTSTYLE
  7
Standard
  9
$CLAYER
  8
0
  9
$CELTYPE
  6
ByLayer
  9
$CECOLOR
 62
   256
  9
$CELTSCALE
 40
1.0
  9
$DISPSILH
 70
     0
  9
$DIMSCALE
 40
1.0
  9
$DIMASZ
 40
2.5
  9
$DIMEXO
 40
0.625
  9
$DIMDLI
 40
3.75
  9
$DIMRND
 40
0.0
  9
$DIMDLE
 40
0.0
  9
$DIMEXE
 40
1.25
  9
$DIMTP
 40
0.0
  9
$DIMTM
 40
0.0
  9
$DIMTXT
 40
2.5
  9
$DIMCEN
 40
2.5
  9
$DIMTSZ
 40
0.0
  9
$DIMTOL
 70
     0
  9
$DIMLIM
 70
     0
  9
$DIMTIH
 70
     0
  9
$DIMTOH
 70
     0
  9
$DIMSE1
 70
     0
  9
$DIMSE2
 70
     0
  9
$DIMTAD
 70
     1
  9
$DIMZIN
 70
     8
  9
$DIMBLK
  1

  9
$DIMASO
 70
     1
  9
$DIMSHO
 70
     1
  9
$DIMPOST
  1

  9
$DIMAPOST
  1

  9
$DIMALT
 70
     0
  9
$DIMALTD
 70
     3
  9
$DIMALTF
 40
0.03937007874016
  9
$DIMLFAC
 40
1.0
  9
$DIMTOFL
 70
     1
  9
$DIMTVP
 40
0.0
  9
$DIMTIX
 70
     0
  9
$DIMSOXD
 70
     0
  9
$DIMSAH
 70
     0
  9
$DIMBLK1
  1

  9
$DIMBLK2
  1

  9
$DIMSTYLE
  2
ISO-25
  9
$DIMCLRD
 70
     0
  9
$DIMCLRE
 70
     0
  9
$DIMCLRT
 70
     0
  9
$DIMTFAC
 40
1.0
  9
$DIMGAP
 40
0.625
  9
$DIMJUST
 70
     0
  9
$DIMSD1
 70
     0
  9
$DIMSD2
 70
     0
  9
$DIMTOLJ
 70
     0
  9
$DIMTZIN
 70
     8
  9
$DIMALTZ
 70
     0
  9
$DIMALTTZ
 70
     0
  9
$DIMUPT
 70
     0
  9
$DIMDEC
 70
     2
  9
$DIMTDEC
 70
     2
  9
$DIMALTU
 70
     2
  9
$DIMALTTD
 70
     3
  9
$DIMTXSTY
  7
Standard
  9
$DIMAUNIT
 70
     0
  9
$DIMADEC
 70
     0
  9
$DIMALTRND
 40
0.0
  9
$DIMAZIN
 70
     0
  9
$DIMDSEP
 70
    44
  9
$DIMATFIT
 70
     3
  9
$DIMFRAC
 70
     0
  9
$DIMLDRBLK
  1

  9
$DIMLUNIT
 70
     2
  9
$DIMLWD
 70
    -2
  9
$DIMLWE
 70
    -2
  9
$DIMTMOVE
 70
     0
  9
$LUNITS
 70
     2
  9
$LUPREC
 70
     4
  9
$SKETCHINC
 40
1.0
  9
$FILLETRAD
 40
0.0
  9
$AUNITS
 70
     0
  9
$AUPREC
 70
     0
  9
$MENU
  1
.
  9
$ELEVATION
 40
0.0
  9
$PELEVATION
 40
0.0
  9
$THICKNESS
 40
0.0
  9
$LIMCHECK
 70
     0
  9
$CHAMFERA
 40
0.0
  9
$CHAMFERB
 40
0.0
  9
$CHAMFERC
 40
0.0
  9
$CHAMFERD
 40
0.0
  9
$SKPOLY
 70
     0
  9
$TDCREATE
 40
2460733.571354167
  9
$TDUCREATE
 40
2460733.279687500
  9
$TDUPDATE
 40
2460733.603136574
  9
$TDUUPDATE
 40
2460733.311469907
  9
$TDINDWG
 40
0.0027546296
  9
$TDUSRTIMER
 40
0.0027546296
  9
$USRTIMER
 70
     1
  9
$ANGBASE
 50
0.0
  9
$ANGDIR
 70
     0
  9
$PDMODE
 70
     0
  9
$PDSIZE
 40
0.0
  9
$PLINEWID
 40
0.0
  9
$SPLFRAME
 70
     0
  9
$SPLINETYPE
 70
     6
  9
$SPLINESEGS
 70
     8
  9
$HANDSEED
  5
1AAC7
  9
$SURFTAB1
 70
     6
  9
$SURFTAB2
 70
     6
  9
$SURFTYPE
 70
     6
  9
$SURFU
 70
     6
  9
$SURFV
 70
     6
  9
$UCSBASE
  2

  9
$UCSNAME
  2

  9
$UCSORG
 10
0.0
 20
0.0
 30
0.0
  9
$UCSXDIR
 10
1.0
 20
0.0
 30
0.0
  9
$UCSYDIR
 10
0.0
 20
1.0
 30
0.0
  9
$UCSORTHOREF
  2

  9
$UCSORTHOVIEW
 70
     0
  9
$UCSORGTOP
 10
0.0
 20
0.0
 30
0.0
  9
$UCSORGBOTTOM
 10
0.0
 20
0.0
 30
0.0
  9
$UCSORGLEFT
 10
0.0
 20
0.0
 30
0.0
  9
$UCSORGRIGHT
 10
0.0
 20
0.0
 30
0.0
  9
$UCSORGFRONT
 10
0.0
 20
0.0
 30
0.0
  9
$UCSORGBACK
 10
0.0
 20
0.0
 30
0.0
  9
$PUCSBASE
  2

  9
$PUCSNAME
  2

  9
$PUCSORG
 10
0.0
 20
0.0
 30
0.0
  9
$PUCSXDIR
 10
1.0
 20
0.0
 30
0.0
  9
$PUCSYDIR
 10
0.0
 20
1.0
 30
0.0
  9
$PUCSORTHOREF
  2

  9
$PUCSORTHOVIEW
 70
     0
  9
$PUCSORGTOP
 10
0.0
 20
0.0
 30
0.0
  9
$PUCSORGBOTTOM
 10
0.0
 20
0.0
 30
0.0
  9
$PUCSORGLEFT
 10
0.0
 20
0.0
 30
0.0
  9
$PUCSORGRIGHT
 10
0.0
 20
0.0
 30
0.0
  9
$PUCSORGFRONT
 10
0.0
 20
0.0
 30
0.0
  9
$PUCSORGBACK
 10
0.0
 20
0.0
 30
0.0
  9
$USERI1
 70
     0
  9
$USERI2
 70
     0
  9
$USERI3
 70
     0
  9
$USERI4
 70
     0
  9
$USERI5
 70
     0
  9
$USERR1
 40
0.0
  9
$USERR2
 40
0.0
  9
$USERR3
 40
0.0
  9
$USERR4
 40
0.0
  9
$USERR5
 40
0.0
  9
$WORLDVIEW
 70
     1
  9
$SHADEDGE
 70
     3
  9
$SHADEDIF
 70
    70
  9
$TILEMODE
 70
     1
  9
$MAXACTVP
 70
    48
  9
$PINSBASE
 10
0.0
 20
0.0
 30
0.0
  9
$PLIMCHECK
 70
     0
  9
$PEXTMIN
 10
0.0
 20
0.0
 30
0.0
  9
$PEXTMAX
 10
0.0
 20
0.0
 30
0.0
  9
$PLIMMIN
 10
0.0
 20
0.0
  9
$PLIMMAX
 10
12.0
 20
9.0
  9
$UNITMODE
 70
     0
  9
$VISRETAIN
 70
     1
  9
$PLINEGEN
 70
     0
  9
$PSLTSCALE
 70
     1
  9
$TREEDEPTH
 70
  3020
  9
$CMLSTYLE
  2
Standard
  9
$CMLJUST
 70
     0
  9
$CMLSCALE
 40
20.0
  9
$PROXYGRAPHICS
 70
     1
  9
$MEASUREMENT
 70
     1
  9
$CELWEIGHT
370
    -1
  9
$ENDCAPS
280
     0
  9
$JOINSTYLE
280
     0
  9
$LWDISPLAY
290
     0
  9
$INSUNITS
 70
     4
  9
$HYPERLINKBASE
  1

  9
$STYLESHEET
  1

  9
$XEDIT
290
     1
  9
$CEPSNTYPE
380
     0
  9
$PSTYLEMODE
290
     1
  9
$FINGERPRINTGUID
  2
{6CB9A169-B505-1E4C-8D04-AD9216FC5A69}
  9
$VERSIONGUID
  2
{E50710E8-904F-DC4C-B631-3CDB5D624079}
  9
$EXTNAMES
290
     1
  9
$PSVPSCALE
 40
0.0
  9
$OLESTARTUP
290
     0
  0
ENDSEC
  0
SECTION
  2
CLASSES
  0
CLASS
  1
ACDBDICTIONARYWDFLT
  2
AcDbDictionaryWithDefault
  3
ObjectDBX Classes
 90
        0
280
     0
281
     0
  0
CLASS
  1
ACDBPLACEHOLDER
  2
AcDbPlaceHolder
  3
ObjectDBX Classes
 90
        0
280
     0
281
     0
  0
CLASS
  1
LAYOUT
  2
AcDbLayout
  3
ObjectDBX Classes
 90
        0
280
     0
281
     0
  0
CLASS
  1
DICTIONARYVAR
  2
AcDbDictionaryVar
  3
ObjectDBX Classes
 90
        0
280
     0
281
     0
  0
CLASS
  1
TABLESTYLE
  2
AcDbTableStyle
  3
ObjectDBX Classes
 90
     4095
280
     0
281
     0
  0
CLASS
  1
MATERIAL
  2
AcDbMaterial
  3
ObjectDBX Classes
 90
     1153
280
     0
281
     0
  0
CLASS
  1
VISUALSTYLE
  2
AcDbVisualStyle
  3
ObjectDBX Classes
 90
     4095
280
     0
281
     0
  0
CLASS
  1
SCALE
  2
AcDbScale
  3
ObjectDBX Classes
 90
     1153
280
     0
281
     0
  0
CLASS
  1
MLEADERSTYLE
  2
AcDbMLeaderStyle
  3
ACDB_MLEADERSTYLE_CLASS
 90
     4095
280
     0
281
     0
  0
CLASS
  1
CELLSTYLEMAP
  2
AcDbCellStyleMap
  3
ObjectDBX Classes
 90
     1152
280
     0
281
     0
  0
CLASS
  1
EXACXREFPANELOBJECT
  2
ExAcXREFPanelObject
  3
EXAC_ESW
 90
    33793
280
     0
281
     0
  0
CLASS
  1
NPOCOLLECTION
  2
AcDbImpNonPersistentObjectsCollection
  3
ObjectDBX Classes
 90
    33921
280
     0
281
     0
  0
CLASS
  1
LAYER_INDEX
  2
AcDbLayerIndex
  3
ObjectDBX Classes
 90
    32768
280
     0
281
     0
  0
CLASS
  1
SPATIAL_INDEX
  2
AcDbSpatialIndex
  3
ObjectDBX Classes
 90
    32768
280
     0
281
     0
  0
CLASS
  1
IDBUFFER
  2
AcDbIdBuffer
  3
ObjectDBX Classes
 90
    32768
280
     0
281
     0
  0
CLASS
  1
ACDBSECTIONVIEWSTYLE
  2
AcDbSectionViewStyle
  3
ObjectDBX Classes
 90
     1025
280
     0
281
     0
  0
CLASS
  1
ACDBDETAILVIEWSTYLE
  2
AcDbDetailViewStyle
  3
ObjectDBX Classes
 90
     1025
280
     0
281
     0
  0
CLASS
  1
XRECORD
  2
AcDbXrecord
  3
ObjectDBX Classes
 90
        0
280
     0
281
     0
  0
ENDSEC
  0
SECTION
  2
TABLES
  0
TABLE
  2
VPORT
  5
8
102
{ACAD_XDICTIONARY
360
1A9D5
102
}
330
0
100
AcDbSymbolTable
 70
     1
  0
VPORT
  5
EA
330
8
100
AcDbSymbolTableRecord
100
AcDbViewportTableRecord
  2
*Active
 70
     0
 10
0.0
 20
0.0
 11
1.0
 21
1.0
 12
13.81393507566999
 22
-130.8438717040045
 13
0.0
 23
0.0
 14
10.0
 24
10.0
 15
10.0
 25
10.0
 16
0.0
 26
0.0
 36
1.0
 17
0.0
 27
0.0
 37
0.0
 40
282.5510322371106
 41
0.9846153846153846
 42
50.0
 43
0.0
 44
0.0
 50
0.0
 51
0.0
 71
     0
 72
  1000
 73
     1
 74
     3
 75
     0
 76
     1
 77
     0
 78
     0
281
     0
 65
     1
110
0.0
120
0.0
130
0.0
111
1.0
121
0.0
131
0.0
112
0.0
122
1.0
132
0.0
 79
     0
146
0.0
1001
ACAD_NAV_VCDISPLAY
1070
     3
  0
ENDTAB
  0
TABLE
  2
LTYPE
  5
5
330
0
100
AcDbSymbolTable
 70
     1
  0
LTYPE
  5
14
330
5
100
AcDbSymbolTableRecord
100
AcDbLinetypeTableRecord
  2
ByBlock
 70
     0
  3

 72
    65
 73
     0
 40
0.0
  0
LTYPE
  5
15
330
5
100
AcDbSymbolTableRecord
100
AcDbLinetypeTableRecord
  2
ByLayer
 70
     0
  3

 72
    65
 73
     0
 40
0.0
  0
LTYPE
  5
16
330
5
100
AcDbSymbolTableRecord
100
AcDbLinetypeTableRecord
  2
Continuous
 70
     0
  3
Solid line
 72
    65
 73
     0
 40
0.0
  0
ENDTAB
  0
TABLE
  2
LAYER
  5
2
102
{ACAD_XDICTIONARY
360
1FF
102
}
330
0
100
AcDbSymbolTable
 70
     1
  0
LAYER
  5
10
102
{ACAD_XDICTIONARY
360
13C
102
}
330
2
100
AcDbSymbolTableRecord
100
AcDbLayerTableRecord
  2
0
 70
     0
 62
     7
  6
Continuous
370
    -3
390
F
  0
ENDTAB
  0
TABLE
  2
STYLE
  5
3
330
0
100
AcDbSymbolTable
 70
     1
  0
STYLE
  5
11
330
3
100
AcDbSymbolTableRecord
100
AcDbTextStyleTableRecord
  2
Standard
 70
     0
 40
0.0
 41
1.0
 50
0.0
 71
     0
 42
2.5
  3
arial.ttf
  4

1001
ACAD
1000
Arial
1071
       34
  0
ENDTAB
  0
TABLE
  2
VIEW
  5
6
330
0
100
AcDbSymbolTable
 70
     0
  0
ENDTAB
  0
TABLE
  2
UCS
  5
7
330
0
100
AcDbSymbolTable
 70
     0
  0
ENDTAB
  0
TABLE
  2
APPID
  5
9
330
0
100
AcDbSymbolTable
 70
     8
  0
APPID
  5
12
330
9
100
AcDbSymbolTableRecord
100
AcDbRegAppTableRecord
  2
ACAD
 70
     0
  0
APPID
  5
9E
330
9
100
AcDbSymbolTableRecord
100
AcDbRegAppTableRecord
  2
ACAD_PSEXT
 70
     0
  0
APPID
  5
133
330
9
100
AcDbSymbolTableRecord
100
AcDbRegAppTableRecord
  2
AcadAnnoPO
 70
     0
  0
APPID
  5
134
330
9
100
AcDbSymbolTableRecord
100
AcDbRegAppTableRecord
  2
AcadAnnotative
 70
     0
  0
APPID
  5
135
330
9
100
AcDbSymbolTableRecord
100
AcDbRegAppTableRecord
  2
ACAD_DSTYLE_DIMJAG
 70
     0
  0
APPID
  5
136
330
9
100
AcDbSymbolTableRecord
100
AcDbRegAppTableRecord
  2
ACAD_DSTYLE_DIMTALN
 70
     0
  0
APPID
  5
165
330
9
100
AcDbSymbolTableRecord
100
AcDbRegAppTableRecord
  2
ACAD_MLEADERVER
 70
     0
  0
APPID
  5
217
330
9
100
AcDbSymbolTableRecord
100
AcDbRegAppTableRecord
  2
ACAD_NAV_VCDISPLAY
 70
     0
  0
ENDTAB
  0
TABLE
  2
DIMSTYLE
  5
A
330
0
100
AcDbSymbolTable
 70
     1
100
AcDbDimStyleTable
 71
     0
  0
DIMSTYLE
105
27
330
A
100
AcDbSymbolTableRecord
100
AcDbDimStyleTableRecord
  2
ISO-25
 70
     0
 41
2.5
 42
0.625
 43
3.75
 44
1.25
 73
     0
 74
     0
 77
     1
 78
     8
140
2.5
141
2.5
143
0.03937007874016
147
0.625
171
     3
172
     1
271
     2
272
     2
274
     3
278
    44
283
     0
284
     8
340
11
  0
ENDTAB
  0
TABLE
  2
BLOCK_RECORD
  5
1
330
0
100
AcDbSymbolTable
 70
     4
  0
BLOCK_RECORD
  5
1F
102
{ACAD_XDICTIONARY
360
1CE
102
}
330
1
100
AcDbSymbolTableRecord
100
AcDbBlockTableRecord
  2
*Model_Space
340
22
  0
BLOCK_RECORD
  5
D2
102
{ACAD_XDICTIONARY
360
1A986
102
}
330
1
100
AcDbSymbolTableRecord
100
AcDbBlockTableRecord
  2
*Paper_Space
340
D3
  0
BLOCK_RECORD
  5
D6
102
{ACAD_XDICTIONARY
360
1A988
102
}
330
1
100
AcDbSymbolTableRecord
100
AcDbBlockTableRecord
  2
*Paper_Space0
340
D7
  0
BLOCK_RECORD
  5
1A57B
330
1
100
AcDbSymbolTableRecord
100
AcDbBlockTableRecord
  2
MKSA440x125-Front
340
0
102
{BLKREFS
331
1A97F
102
}
  0
BLOCK_RECORD
  5
1A872
330
1
100
AcDbSymbolTableRecord
100
AcDbBlockTableRecord
  2
MKSA440x125-Top
340
0
102
{BLKREFS
331
1A980
102
}
  0
BLOCK_RECORD
  5
1A883
330
1
100
AcDbSymbolTableRecord
100
AcDbBlockTableRecord
  2
MKSA440x125-ISO
340
0
102
{BLKREFS
331
1A981
102
}
  0
ENDTAB
  0
ENDSEC
  0
SECTION
  2
BLOCKS
  0
BLOCK
  5
20
330
1F
100
AcDbEntity
  8
0
100
AcDbBlockBegin
  2
*Model_Space
 70
     0
 10
0.0
 20
0.0
 30
0.0
  3
*Model_Space
  1

  0
ENDBLK
  5
21
330
1F
100
AcDbEntity
  8
0
100
AcDbBlockEnd
  0
BLOCK
  5
D4
330
D2
100
AcDbEntity
 67
     1
  8
0
100
AcDbBlockBegin
  2
*Paper_Space
 70
     0
 10
0.0
 20
0.0
 30
0.0
  3
*Paper_Space
  1

  0
ENDBLK
  5
D5
330
D2
100
AcDbEntity
 67
     1
  8
0
100
AcDbBlockEnd
  0
BLOCK
  5
D8
330
D6
100
AcDbEntity
 67
     1
  8
0
100
AcDbBlockBegin
  2
*Paper_Space0
 70
     0
 10
0.0
 20
0.0
 30
0.0
  3
*Paper_Space0
  1

  0
ENDBLK
  5
D9
330
D6
100
AcDbEntity
 67
     1
  8
0
100
AcDbBlockEnd
  0
BLOCK
  5
1A57C
330
1A57B
100
AcDbEntity
  8
0
100
AcDbBlockBegin
  2
MKSA440x125-Front
 70
     0
 10
0.0
 20
0.0
 30
0.0
  3
MKSA440x125-Front
  1

  0
LINE
  5
1A57E
330
1A57B
100
AcDbEntity
  8
0
100
AcDbLine
 10
0.0
 20
-123.0
 30
0.0
 11
-2.111027358743965
 21
-117.2
 31
0.0
  0
LINE
  5
1A57F
330
1A57B
100
AcDbEntity
  8
0
100
AcDbLine
 10
0.0
 20
-123.0
 30
0.0
 11
2.111027358743972
 21
-117.2
 31
0.0
  0
ELLIPSE
  5
1A580
330
1A57B
100
AcDbEntity
  8
0
100
AcDbEllipse
 10
0.000000000000008
 20
-123.0
 30
0.0
 11
-1.541261305124505
 21
-8.197953800196561
 31
0.0
210
0.0
220
0.0
230
0.9999999999999998
 40
0.1759646242458644
 41
2.389264765746328
 42
3.96006109254123
  0
LINE
  5
1A581
330
1A57B
100
AcDbEntity
  8
0
100
AcDbLine
 10
0.0
 20
-117.2
 30
0.0
 11
0.0
 21
-123.0
 31
0.0
  0
LINE
  5
1A582
330
1A57B
100
AcDbEntity
  8
0
100
AcDbLine
 10
2.111027358743978
 20
-112.0
 30
0.0
 11
-2.111027358743965
 21
-112.0
 31
0.0
  0
LINE
  5
1A583
330
1A57B
100
AcDbEntity
  8
0
100
AcDbLine
 10
2.000000000000007
 20
-62.00000000000001
 30
0.0
 11
-2.000000000000006
 21
-62.00000000000001
 31
0.0
  0
LINE
  5
1A584
330
1A57B
100
AcDbEntity
  8
0
100
AcDbLine
 10
4.249999999999985
 20
0.0
 30
0.0
 11
-4.25
 21
0.0
 31
0.0
  0
LINE
  5
1A585
330
1A57B
100
AcDbEntity
  8
0
100
AcDbLine
 10
4.249999999999985
 20
0.3500000000000019
 30
0.0
 11
-4.25
 21
0.3500000000000009
 31
0.0
  0
LINE
  5
1A586
330
1A57B
100
AcDbEntity
  8
0
100
AcDbLine
 10
-2.111027358743964
 20
-117.2
 30
0.0
 11
-2.111027358743965
 21
-112.0
 31
0.0
  0
LINE
  5
1A587
330
1A57B
100
AcDbEntity
  8
0
100
AcDbLine
 10
2.111027358743979
 20
-117.2
 30
0.0
 11
2.111027358743978
 21
-112.0
 31
0.0
  0
LINE
  5
1A588
330
1A57B
100
AcDbEntity
  8
0
100
AcDbLine
 10
-1.849999999999996
 20
-112.0
 30
0.0
 11
-1.849999999999996
 21
-111.5
 31
0.0
  0
LINE
  5
1A589
330
1A57B
100
AcDbEntity
  8
0
100
AcDbLine
 10
1.850000000000009
 20
-112.0
 30
0.0
 11
1.850000000000009
 21
-111.5
 31
0.0
  0
LINE
  5
1A58A
330
1A57B
100
AcDbEntity
  8
0
100
AcDbLine
 10
-2.000000000000002
 20
-62.00000000000001
 30
0.0
 11
-2.000000000000009
 21
-0.9999999999999964
 31
0.0
  0
LINE
  5
1A58B
330
1A57B
100
AcDbEntity
  8
0
100
AcDbLine
 10
2.000000000000003
 20
-62.00000000000001
 30
0.0
 11
1.999999999999996
 21
-0.9999999999999964
 31
0.0
  0
ARC
  5
1A58C
330
1A57B
100
AcDbEntity
  8
0
100
AcDbCircle
 10
2.999999999999993
 20
-0.999999999999996
 30
0.0
 40
1.0
100
AcDbArc
 50
90.00000000000005
 51
180.0
  0
ARC
  5
1A58D
330
1A57B
100
AcDbEntity
  8
0
100
AcDbCircle
 10
-3.000000000000006
 20
-0.9999999999999968
 30
0.0
 40
1.0
100
AcDbArc
 50
0.0
 51
90.0
  0
LINE
  5
1A58E
330
1A57B
100
AcDbEntity
  8
0
100
AcDbLine
 10
-4.25
 20
0.0
 30
0.0
 11
-4.25
 21
0.3499999999999999
 31
0.0
  0
LINE
  5
1A58F
330
1A57B
100
AcDbEntity
  8
0
100
AcDbLine
 10
4.249999999999985
 20
0.0
 30
0.0
 11
4.249999999999985
 21
0.3500000000000019
 31
0.0
  0
ARC
  5
1A590
330
1A57B
100
AcDbEntity
  8
0
100
AcDbCircle
 10
0.6503096200045128
 20
-5.973524778799497
 30
0.0
 40
8.0
100
AcDbArc
 50
94.6626442334653
 51
127.773294920092
  0
ARC
  5
1A591
330
1A57B
100
AcDbEntity
  8
0
100
AcDbCircle
 10
-0.6503096200045253
 20
-5.973524778799497
 30
0.0
 40
8.000000000000001
100
AcDbArc
 50
52.22670507990801
 51
85.33735576653475
  0
ELLIPSE
  5
1A592
330
1A57B
100
AcDbEntity
  8
0
100
AcDbEllipse
 10
0.000000000000008
 20
-123.0
 30
0.0
 11
-1.541261305124513
 21
8.19795380019657
 31
0.0
210
0.0
220
0.0
230
1.0
 40
0.1759646242458637
 41
5.464716868228151
 42
7.035513195023038
  0
LINE
  5
1A593
330
1A57B
100
AcDbEntity
  8
0
100
AcDbLine
 10
1.857773468998881
 20
-63.46674953339344
 30
0.0
 11
-1.857773468998881
 21
-63.46674953339344
 31
0.0
  0
LINE
  5
1A594
330
1A57B
100
AcDbEntity
  8
0
100
AcDbLine
 10
1.857773468998881
 20
-109.9667495333934
 30
0.0
 11
-1.857773468998881
 21
-109.9667495333934
 31
0.0
  0
LINE
  5
1A595
330
1A57B
100
AcDbEntity
  8
0
100
AcDbLine
 10
-1.849999999999996
 20
-111.5
 30
0.0
 11
1.850000000000009
 21
-111.5
 31
0.0
  0
LINE
  5
1A596
330
1A57B
100
AcDbEntity
  8
0
100
AcDbLine
 10
1.857773468998884
 20
-108.4667495333934
 30
0.0
 11
-1.857773468998884
 21
-108.4667495333934
 31
0.0
  0
LINE
  5
1A597
330
1A57B
100
AcDbEntity
  8
0
100
AcDbLine
 10
1.857773468998881
 20
-106.9667495333934
 30
0.0
 11
-1.857773468998881
 21
-106.9667495333934
 31
0.0
  0
LINE
  5
1A598
330
1A57B
100
AcDbEntity
  8
0
100
AcDbLine
 10
1.857773468998881
 20
-105.4667495333934
 30
0.0
 11
-1.857773468998881
 21
-105.4667495333934
 31
0.0
  0
LINE
  5
1A599
330
1A57B
100
AcDbEntity
  8
0
100
AcDbLine
 10
1.857773468998881
 20
-103.9667495333934
 30
0.0
 11
-1.857773468998881
 21
-103.9667495333934
 31
0.0
  0
LINE
  5
1A59A
330
1A57B
100
AcDbEntity
  8
0
100
AcDbLine
 10
1.857773468998881
 20
-102.4667495333934
 30
0.0
 11
-1.857773468998881
 21
-102.4667495333934
 31
0.0
  0
LINE
  5
1A59B
330
1A57B
100
AcDbEntity
  8
0
100
AcDbLine
 10
1.857773468998884
 20
-100.9667495333934
 30
0.0
 11
-1.857773468998884
 21
-100.9667495333934
 31
0.0
  0
LINE
  5
1A59C
330
1A57B
100
AcDbEntity
  8
0
100
AcDbLine
 10
1.857773468998884
 20
-99.46674953339343
 30
0.0
 11
-1.857773468998884
 21
-99.46674953339343
 31
0.0
  0
LINE
  5
1A59D
330
1A57B
100
AcDbEntity
  8
0
100
AcDbLine
 10
1.857773468998881
 20
-97.96674953339346
 30
0.0
 11
-1.857773468998881
 21
-97.96674953339346
 31
0.0
  0
LINE
  5
1A59E
330
1A57B
100
AcDbEntity
  8
0
100
AcDbLine
 10
1.857773468998881
 20
-96.46674953339344
 30
0.0
 11
-1.857773468998881
 21
-96.46674953339344
 31
0.0
  0
LINE
  5
1A59F
330
1A57B
100
AcDbEntity
  8
0
100
AcDbLine
 10
1.857773468998881
 20
-94.96674953339343
 30
0.0
 11
-1.857773468998881
 21
-94.96674953339343
 31
0.0
  0
LINE
  5
1A5A0
330
1A57B
100
AcDbEntity
  8
0
100
AcDbLine
 10
1.857773468998884
 20
-93.46674953339343
 30
0.0
 11
-1.857773468998884
 21
-93.46674953339343
 31
0.0
  0
LINE
  5
1A5A1
330
1A57B
100
AcDbEntity
  8
0
100
AcDbLine
 10
1.857773468998884
 20
-91.96674953339343
 30
0.0
 11
-1.857773468998884
 21
-91.96674953339343
 31
0.0
  0
LINE
  5
1A5A2
330
1A57B
100
AcDbEntity
  8
0
100
AcDbLine
 10
1.857773468998881
 20
-90.46674953339346
 30
0.0
 11
-1.857773468998881
 21
-90.46674953339346
 31
0.0
  0
LINE
  5
1A5A3
330
1A57B
100
AcDbEntity
  8
0
100
AcDbLine
 10
1.857773468998881
 20
-88.96674953339344
 30
0.0
 11
-1.857773468998881
 21
-88.96674953339344
 31
0.0
  0
LINE
  5
1A5A4
330
1A57B
100
AcDbEntity
  8
0
100
AcDbLine
 10
1.857773468998881
 20
-87.46674953339343
 30
0.0
 11
-1.857773468998881
 21
-87.46674953339343
 31
0.0
  0
LINE
  5
1A5A5
330
1A57B
100
AcDbEntity
  8
0
100
AcDbLine
 10
1.857773468998884
 20
-85.96674953339343
 30
0.0
 11
-1.857773468998884
 21
-85.96674953339343
 31
0.0
  0
LINE
  5
1A5A6
330
1A57B
100
AcDbEntity
  8
0
100
AcDbLine
 10
1.857773468998884
 20
-84.46674953339343
 30
0.0
 11
-1.857773468998884
 21
-84.46674953339343
 31
0.0
  0
LINE
  5
1A5A7
330
1A57B
100
AcDbEntity
  8
0
100
AcDbLine
 10
1.857773468998881
 20
-82.96674953339346
 30
0.0
 11
-1.857773468998881
 21
-82.96674953339346
 31
0.0
  0
LINE
  5
1A5A8
330
1A57B
100
AcDbEntity
  8
0
100
AcDbLine
 10
1.857773468998881
 20
-81.46674953339344
 30
0.0
 11
-1.857773468998881
 21
-81.46674953339344
 31
0.0
  0
LINE
  5
1A5A9
330
1A57B
100
AcDbEntity
  8
0
100
AcDbLine
 10
1.857773468998881
 20
-79.96674953339343
 30
0.0
 11
-1.857773468998881
 21
-79.96674953339343
 31
0.0
  0
LINE
  5
1A5AA
330
1A57B
100
AcDbEntity
  8
0
100
AcDbLine
 10
1.857773468998881
 20
-78.46674953339344
 30
0.0
 11
-1.857773468998881
 21
-78.46674953339344
 31
0.0
  0
LINE
  5
1A5AB
330
1A57B
100
AcDbEntity
  8
0
100
AcDbLine
 10
1.857773468998883
 20
-76.96674953339343
 30
0.0
 11
-1.857773468998883
 21
-76.96674953339343
 31
0.0
  0
LINE
  5
1A5AC
330
1A57B
100
AcDbEntity
  8
0
100
AcDbLine
 10
1.857773468998883
 20
-75.46674953339344
 30
0.0
 11
-1.857773468998883
 21
-75.46674953339344
 31
0.0
  0
LINE
  5
1A5AD
330
1A57B
100
AcDbEntity
  8
0
100
AcDbLine
 10
1.857773468998881
 20
-73.96674953339344
 30
0.0
 11
-1.857773468998881
 21
-73.96674953339344
 31
0.0
  0
LINE
  5
1A5AE
330
1A57B
100
AcDbEntity
  8
0
100
AcDbLine
 10
1.857773468998881
 20
-72.46674953339343
 30
0.0
 11
-1.857773468998881
 21
-72.46674953339343
 31
0.0
  0
LINE
  5
1A5AF
330
1A57B
100
AcDbEntity
  8
0
100
AcDbLine
 10
1.857773468998881
 20
-70.96674953339344
 30
0.0
 11
-1.857773468998881
 21
-70.96674953339344
 31
0.0
  0
LINE
  5
1A5B0
330
1A57B
100
AcDbEntity
  8
0
100
AcDbLine
 10
1.857773468998883
 20
-69.46674953339343
 30
0.0
 11
-1.857773468998883
 21
-69.46674953339343
 31
0.0
  0
LINE
  5
1A5B1
330
1A57B
100
AcDbEntity
  8
0
100
AcDbLine
 10
1.857773468998881
 20
-67.96674953339344
 30
0.0
 11
-1.857773468998881
 21
-67.96674953339344
 31
0.0
  0
LINE
  5
1A5B2
330
1A57B
100
AcDbEntity
  8
0
100
AcDbLine
 10
1.857773468998883
 20
-66.46674953339344
 30
0.0
 11
-1.857773468998883
 21
-66.46674953339344
 31
0.0
  0
LINE
  5
1A5B3
330
1A57B
100
AcDbEntity
  8
0
100
AcDbLine
 10
1.857773468998881
 20
-64.96674953339343
 30
0.0
 11
-1.857773468998881
 21
-64.96674953339343
 31
0.0
  0
LINE
  5
1A5B4
330
1A57B
100
AcDbEntity
  8
0
100
AcDbLine
 10
1.857773468998882
 20
-63.46674953339344
 30
0.0
 11
1.995529386843742
 21
-63.49895483653845
 31
0.0
  0
LINE
  5
1A5B5
330
1A57B
100
AcDbEntity
  8
0
100
AcDbLine
 10
-1.857773468998882
 20
-63.46674953339344
 30
0.0
 11
-1.995529386843744
 21
-63.49895483653846
 31
0.0
  0
LINE
  5
1A5B6
330
1A57B
100
AcDbEntity
  8
0
100
AcDbLine
 10
1.857773468998882
 20
-109.9667495333934
 30
0.0
 11
1.995529386843742
 21
-109.9989548365384
 31
0.0
  0
LINE
  5
1A5B7
330
1A57B
100
AcDbEntity
  8
0
100
AcDbLine
 10
-1.857773468998882
 20
-109.9667495333934
 30
0.0
 11
-1.995529386843742
 21
-109.9989548365384
 31
0.0
  0
LINE
  5
1A5B8
330
1A57B
100
AcDbEntity
  8
0
100
AcDbLine
 10
-1.850000000000005
 20
-111.5
 30
0.0
 11
-2.144748748220951
 21
-110.2392329716032
 31
0.0
  0
LINE
  5
1A5B9
330
1A57B
100
AcDbEntity
  8
0
100
AcDbLine
 10
1.850000000000001
 20
-111.5
 30
0.0
 11
2.144748748220951
 21
-110.2392329716032
 31
0.0
  0
ARC
  5
1A5BA
330
1A57B
100
AcDbEntity
  8
0
100
AcDbCircle
 10
1.949999999999989
 20
-110.1937035847594
 30
0.0
 40
0.2000000000000001
100
AcDbArc
 50
346.841423596672
 51
76.84142359667203
  0
ARC
  5
1A5BB
330
1A57B
100
AcDbEntity
  8
0
100
AcDbCircle
 10
-1.949999999999989
 20
-110.1937035847594
 30
0.0
 40
0.2
100
AcDbArc
 50
103.158576403328
 51
193.1585764033279
  0
LINE
  5
1A5BC
330
1A57B
100
AcDbEntity
  8
0
100
AcDbLine
 10
1.857773468998885
 20
-108.4667495333934
 30
0.0
 11
1.99552938684375
 21
-108.4989548365384
 31
0.0
  0
LINE
  5
1A5BD
330
1A57B
100
AcDbEntity
  8
0
100
AcDbLine
 10
-1.857773468998881
 20
-108.4667495333934
 30
0.0
 11
-1.995529386843746
 21
-108.4989548365384
 31
0.0
  0
LINE
  5
1A5BE
330
1A57B
100
AcDbEntity
  8
0
100
AcDbLine
 10
-1.85777346899888
 20
-109.9667495333934
 30
0.0
 11
-2.144748748220951
 21
-108.7392329716032
 31
0.0
  0
LINE
  5
1A5BF
330
1A57B
100
AcDbEntity
  8
0
100
AcDbLine
 10
1.85777346899888
 20
-109.9667495333934
 30
0.0
 11
2.144748748220951
 21
-108.7392329716032
 31
0.0
  0
ARC
  5
1A5C0
330
1A57B
100
AcDbEntity
  8
0
100
AcDbCircle
 10
1.949999999999989
 20
-108.6937035847594
 30
0.0
 40
0.2
100
AcDbArc
 50
346.8414235966668
 51
76.84142359666994
  0
ARC
  5
1A5C1
330
1A57B
100
AcDbEntity
  8
0
100
AcDbCircle
 10
-1.949999999999989
 20
-108.6937035847594
 30
0.0
 40
0.2
100
AcDbArc
 50
103.1585764033291
 51
193.1585764033279
  0
LINE
  5
1A5C2
330
1A57B
100
AcDbEntity
  8
0
100
AcDbLine
 10
1.857773468998882
 20
-106.9667495333934
 30
0.0
 11
1.995529386843746
 21
-106.9989548365384
 31
0.0
  0
LINE
  5
1A5C3
330
1A57B
100
AcDbEntity
  8
0
100
AcDbLine
 10
-1.857773468998882
 20
-106.9667495333934
 30
0.0
 11
-1.995529386843746
 21
-106.9989548365384
 31
0.0
  0
LINE
  5
1A5C4
330
1A57B
100
AcDbEntity
  8
0
100
AcDbLine
 10
-1.857773468998884
 20
-108.4667495333934
 30
0.0
 11
-2.144748748220951
 21
-107.2392329716032
 31
0.0
  0
LINE
  5
1A5C5
330
1A57B
100
AcDbEntity
  8
0
100
AcDbLine
 10
1.857773468998884
 20
-108.4667495333934
 30
0.0
 11
2.144748748220951
 21
-107.2392329716032
 31
0.0
  0
ARC
  5
1A5C6
330
1A57B
100
AcDbEntity
  8
0
100
AcDbCircle
 10
1.949999999999989
 20
-107.1937035847594
 30
0.0
 40
0.2
100
AcDbArc
 50
346.8414235966668
 51
76.84142359667098
  0
ARC
  5
1A5C7
330
1A57B
100
AcDbEntity
  8
0
100
AcDbCircle
 10
-1.949999999999989
 20
-107.1937035847594
 30
0.0
 40
0.2
100
AcDbArc
 50
103.1585764033291
 51
193.1585764033333
  0
LINE
  5
1A5C8
330
1A57B
100
AcDbEntity
  8
0
100
AcDbLine
 10
1.857773468998882
 20
-105.4667495333934
 30
0.0
 11
1.995529386843742
 21
-105.4989548365385
 31
0.0
  0
LINE
  5
1A5C9
330
1A57B
100
AcDbEntity
  8
0
100
AcDbLine
 10
-1.857773468998882
 20
-105.4667495333934
 30
0.0
 11
-1.995529386843742
 21
-105.4989548365385
 31
0.0
  0
LINE
  5
1A5CA
330
1A57B
100
AcDbEntity
  8
0
100
AcDbLine
 10
-1.85777346899888
 20
-106.9667495333934
 30
0.0
 11
-2.144748748220951
 21
-105.7392329716032
 31
0.0
  0
LINE
  5
1A5CB
330
1A57B
100
AcDbEntity
  8
0
100
AcDbLine
 10
1.85777346899888
 20
-106.9667495333934
 30
0.0
 11
2.144748748220951
 21
-105.7392329716032
 31
0.0
  0
ARC
  5
1A5CC
330
1A57B
100
AcDbEntity
  8
0
100
AcDbCircle
 10
1.949999999999989
 20
-105.6937035847594
 30
0.0
 40
0.2000000000000001
100
AcDbArc
 50
346.8414235966772
 51
76.84142359667203
  0
ARC
  5
1A5CD
330
1A57B
100
AcDbEntity
  8
0
100
AcDbCircle
 10
-1.949999999999989
 20
-105.6937035847594
 30
0.0
 40
0.2000000000000001
100
AcDbArc
 50
103.158576403328
 51
193.1585764033228
  0
LINE
  5
1A5CE
330
1A57B
100
AcDbEntity
  8
0
100
AcDbLine
 10
1.857773468998882
 20
-103.9667495333934
 30
0.0
 11
1.99552938684375
 21
-103.9989548365384
 31
0.0
  0
LINE
  5
1A5CF
330
1A57B
100
AcDbEntity
  8
0
100
AcDbLine
 10
-1.857773468998878
 20
-103.9667495333934
 30
0.0
 11
-1.995529386843746
 21
-103.9989548365384
 31
0.0
  0
LINE
  5
1A5D0
330
1A57B
100
AcDbEntity
  8
0
100
AcDbLine
 10
-1.85777346899888
 20
-105.4667495333934
 30
0.0
 11
-2.144748748220951
 21
-104.2392329716032
 31
0.0
  0
LINE
  5
1A5D1
330
1A57B
100
AcDbEntity
  8
0
100
AcDbLine
 10
1.85777346899888
 20
-105.4667495333934
 30
0.0
 11
2.144748748220951
 21
-104.2392329716032
 31
0.0
  0
ARC
  5
1A5D2
330
1A57B
100
AcDbEntity
  8
0
100
AcDbCircle
 10
1.949999999999989
 20
-104.1937035847594
 30
0.0
 40
0.2
100
AcDbArc
 50
346.8414235966668
 51
76.84142359666994
  0
ARC
  5
1A5D3
330
1A57B
100
AcDbEntity
  8
0
100
AcDbCircle
 10
-1.949999999999989
 20
-104.1937035847594
 30
0.0
 40
0.2
100
AcDbArc
 50
103.1585764033291
 51
193.1585764033279
  0
LINE
  5
1A5D4
330
1A57B
100
AcDbEntity
  8
0
100
AcDbLine
 10
1.857773468998882
 20
-102.4667495333934
 30
0.0
 11
1.995529386843746
 21
-102.4989548365384
 31
0.0
  0
LINE
  5
1A5D5
330
1A57B
100
AcDbEntity
  8
0
100
AcDbLine
 10
-1.857773468998882
 20
-102.4667495333934
 30
0.0
 11
-1.995529386843746
 21
-102.4989548365384
 31
0.0
  0
LINE
  5
1A5D6
330
1A57B
100
AcDbEntity
  8
0
100
AcDbLine
 10
-1.857773468998876
 20
-103.9667495333934
 30
0.0
 11
-2.144748748220951
 21
-102.7392329716032
 31
0.0
  0
LINE
  5
1A5D7
330
1A57B
100
AcDbEntity
  8
0
100
AcDbLine
 10
1.85777346899888
 20
-103.9667495333934
 30
0.0
 11
2.144748748220951
 21
-102.7392329716032
 31
0.0
  0
ARC
  5
1A5D8
330
1A57B
100
AcDbEntity
  8
0
100
AcDbCircle
 10
1.949999999999989
 20
-102.6937035847594
 30
0.0
 40
0.2
100
AcDbArc
 50
346.841423596672
 51
76.84142359667098
  0
ARC
  5
1A5D9
330
1A57B
100
AcDbEntity
  8
0
100
AcDbCircle
 10
-1.949999999999989
 20
-102.6937035847594
 30
0.0
 40
0.2
100
AcDbArc
 50
103.1585764033291
 51
193.1585764033279
  0
LINE
  5
1A5DA
330
1A57B
100
AcDbEntity
  8
0
100
AcDbLine
 10
1.857773468998885
 20
-100.9667495333934
 30
0.0
 11
1.99552938684375
 21
-100.9989548365384
 31
0.0
  0
LINE
  5
1A5DB
330
1A57B
100
AcDbEntity
  8
0
100
AcDbLine
 10
-1.857773468998881
 20
-100.9667495333934
 30
0.0
 11
-1.995529386843746
 21
-100.9989548365384
 31
0.0
  0
LINE
  5
1A5DC
330
1A57B
100
AcDbEntity
  8
0
100
AcDbLine
 10
-1.85777346899888
 20
-102.4667495333934
 30
0.0
 11
-2.144748748220951
 21
-101.2392329716032
 31
0.0
  0
LINE
  5
1A5DD
330
1A57B
100
AcDbEntity
  8
0
100
AcDbLine
 10
1.85777346899888
 20
-102.4667495333934
 30
0.0
 11
2.144748748220951
 21
-101.2392329716032
 31
0.0
  0
ARC
  5
1A5DE
330
1A57B
100
AcDbEntity
  8
0
100
AcDbCircle
 10
1.949999999999989
 20
-101.1937035847594
 30
0.0
 40
0.2
100
AcDbArc
 50
346.8414235966668
 51
76.84142359666994
  0
ARC
  5
1A5DF
330
1A57B
100
AcDbEntity
  8
0
100
AcDbCircle
 10
-1.949999999999989
 20
-101.1937035847594
 30
0.0
 40
0.2
100
AcDbArc
 50
103.1585764033291
 51
193.1585764033279
  0
LINE
  5
1A5E0
330
1A57B
100
AcDbEntity
  8
0
100
AcDbLine
 10
1.857773468998885
 20
-99.46674953339343
 30
0.0
 11
1.995529386843746
 21
-99.49895483653847
 31
0.0
  0
LINE
  5
1A5E1
330
1A57B
100
AcDbEntity
  8
0
100
AcDbLine
 10
-1.857773468998885
 20
-99.46674953339343
 30
0.0
 11
-1.995529386843746
 21
-99.49895483653847
 31
0.0
  0
LINE
  5
1A5E2
330
1A57B
100
AcDbEntity
  8
0
100
AcDbLine
 10
-1.857773468998884
 20
-100.9667495333934
 30
0.0
 11
-2.144748748220951
 21
-99.7392329716032
 31
0.0
  0
LINE
  5
1A5E3
330
1A57B
100
AcDbEntity
  8
0
100
AcDbLine
 10
1.857773468998884
 20
-100.9667495333934
 30
0.0
 11
2.144748748220951
 21
-99.7392329716032
 31
0.0
  0
ARC
  5
1A5E4
330
1A57B
100
AcDbEntity
  8
0
100
AcDbCircle
 10
1.949999999999989
 20
-99.69370358475943
 30
0.0
 40
0.2
100
AcDbArc
 50
346.8414235966668
 51
76.84142359667098
  0
ARC
  5
1A5E5
330
1A57B
100
AcDbEntity
  8
0
100
AcDbCircle
 10
-1.949999999999989
 20
-99.69370358475943
 30
0.0
 40
0.2
100
AcDbArc
 50
103.1585764033291
 51
193.1585764033333
  0
LINE
  5
1A5E6
330
1A57B
100
AcDbEntity
  8
0
100
AcDbLine
 10
1.857773468998882
 20
-97.96674953339346
 30
0.0
 11
1.995529386843742
 21
-97.99895483653848
 31
0.0
  0
LINE
  5
1A5E7
330
1A57B
100
AcDbEntity
  8
0
100
AcDbLine
 10
-1.857773468998882
 20
-97.96674953339346
 30
0.0
 11
-1.995529386843742
 21
-97.99895483653848
 31
0.0
  0
LINE
  5
1A5E8
330
1A57B
100
AcDbEntity
  8
0
100
AcDbLine
 10
-1.857773468998884
 20
-99.46674953339343
 30
0.0
 11
-2.144748748220951
 21
-98.2392329716032
 31
0.0
  0
LINE
  5
1A5E9
330
1A57B
100
AcDbEntity
  8
0
100
AcDbLine
 10
1.857773468998884
 20
-99.46674953339343
 30
0.0
 11
2.144748748220951
 21
-98.2392329716032
 31
0.0
  0
ARC
  5
1A5EA
330
1A57B
100
AcDbEntity
  8
0
100
AcDbCircle
 10
1.949999999999989
 20
-98.19370358475945
 30
0.0
 40
0.2000000000000001
100
AcDbArc
 50
346.841423596672
 51
76.84142359667203
  0
ARC
  5
1A5EB
330
1A57B
100
AcDbEntity
  8
0
100
AcDbCircle
 10
-1.949999999999989
 20
-98.19370358475945
 30
0.0
 40
0.2
100
AcDbArc
 50
103.158576403328
 51
193.1585764033279
  0
LINE
  5
1A5EC
330
1A57B
100
AcDbEntity
  8
0
100
AcDbLine
 10
1.857773468998882
 20
-96.46674953339344
 30
0.0
 11
1.99552938684375
 21
-96.49895483653848
 31
0.0
  0
LINE
  5
1A5ED
330
1A57B
100
AcDbEntity
  8
0
100
AcDbLine
 10
-1.857773468998878
 20
-96.46674953339344
 30
0.0
 11
-1.995529386843746
 21
-96.49895483653848
 31
0.0
  0
LINE
  5
1A5EE
330
1A57B
100
AcDbEntity
  8
0
100
AcDbLine
 10
-1.85777346899888
 20
-97.96674953339346
 30
0.0
 11
-2.144748748220951
 21
-96.73923297160321
 31
0.0
  0
LINE
  5
1A5EF
330
1A57B
100
AcDbEntity
  8
0
100
AcDbLine
 10
1.85777346899888
 20
-97.96674953339346
 30
0.0
 11
2.144748748220951
 21
-96.73923297160321
 31
0.0
  0
ARC
  5
1A5F0
330
1A57B
100
AcDbEntity
  8
0
100
AcDbCircle
 10
1.949999999999989
 20
-96.69370358475944
 30
0.0
 40
0.2
100
AcDbArc
 50
346.8414235966668
 51
76.84142359666994
  0
ARC
  5
1A5F1
330
1A57B
100
AcDbEntity
  8
0
100
AcDbCircle
 10
-1.949999999999989
 20
-96.69370358475944
 30
0.0
 40
0.2
100
AcDbArc
 50
103.1585764033291
 51
193.1585764033279
  0
LINE
  5
1A5F2
330
1A57B
100
AcDbEntity
  8
0
100
AcDbLine
 10
1.857773468998882
 20
-94.96674953339343
 30
0.0
 11
1.995529386843746
 21
-94.99895483653846
 31
0.0
  0
LINE
  5
1A5F3
330
1A57B
100
AcDbEntity
  8
0
100
AcDbLine
 10
-1.857773468998882
 20
-94.96674953339343
 30
0.0
 11
-1.995529386843746
 21
-94.99895483653846
 31
0.0
  0
LINE
  5
1A5F4
330
1A57B
100
AcDbEntity
  8
0
100
AcDbLine
 10
-1.857773468998876
 20
-96.46674953339346
 30
0.0
 11
-2.144748748220951
 21
-95.23923297160321
 31
0.0
  0
LINE
  5
1A5F5
330
1A57B
100
AcDbEntity
  8
0
100
AcDbLine
 10
1.85777346899888
 20
-96.46674953339344
 30
0.0
 11
2.144748748220951
 21
-95.23923297160321
 31
0.0
  0
ARC
  5
1A5F6
330
1A57B
100
AcDbEntity
  8
0
100
AcDbCircle
 10
1.949999999999989
 20
-95.19370358475944
 30
0.0
 40
0.2
100
AcDbArc
 50
346.841423596672
 51
76.84142359667098
  0
ARC
  5
1A5F7
330
1A57B
100
AcDbEntity
  8
0
100
AcDbCircle
 10
-1.949999999999989
 20
-95.19370358475944
 30
0.0
 40
0.2
100
AcDbArc
 50
103.1585764033291
 51
193.1585764033279
  0
LINE
  5
1A5F8
330
1A57B
100
AcDbEntity
  8
0
100
AcDbLine
 10
1.857773468998885
 20
-93.46674953339343
 30
0.0
 11
1.99552938684375
 21
-93.49895483653845
 31
0.0
  0
LINE
  5
1A5F9
330
1A57B
100
AcDbEntity
  8
0
100
AcDbLine
 10
-1.857773468998881
 20
-93.46674953339343
 30
0.0
 11
-1.995529386843746
 21
-93.49895483653845
 31
0.0
  0
LINE
  5
1A5FA
330
1A57B
100
AcDbEntity
  8
0
100
AcDbLine
 10
-1.85777346899888
 20
-94.96674953339343
 30
0.0
 11
-2.144748748220951
 21
-93.73923297160319
 31
0.0
  0
LINE
  5
1A5FB
330
1A57B
100
AcDbEntity
  8
0
100
AcDbLine
 10
1.85777346899888
 20
-94.96674953339343
 30
0.0
 11
2.144748748220951
 21
-93.73923297160319
 31
0.0
  0
ARC
  5
1A5FC
330
1A57B
100
AcDbEntity
  8
0
100
AcDbCircle
 10
1.949999999999989
 20
-93.69370358475945
 30
0.0
 40
0.2
100
AcDbArc
 50
346.8414235966668
 51
76.84142359666994
  0
ARC
  5
1A5FD
330
1A57B
100
AcDbEntity
  8
0
100
AcDbCircle
 10
-1.949999999999989
 20
-93.69370358475945
 30
0.0
 40
0.2
100
AcDbArc
 50
103.1585764033291
 51
193.1585764033279
  0
LINE
  5
1A5FE
330
1A57B
100
AcDbEntity
  8
0
100
AcDbLine
 10
1.857773468998885
 20
-91.96674953339343
 30
0.0
 11
1.995529386843746
 21
-91.99895483653845
 31
0.0
  0
LINE
  5
1A5FF
330
1A57B
100
AcDbEntity
  8
0
100
AcDbLine
 10
-1.857773468998885
 20
-91.96674953339343
 30
0.0
 11
-1.995529386843746
 21
-91.99895483653845
 31
0.0
  0
LINE
  5
1A600
330
1A57B
100
AcDbEntity
  8
0
100
AcDbLine
 10
-1.857773468998884
 20
-93.46674953339343
 30
0.0
 11
-2.144748748220951
 21
-92.2392329716032
 31
0.0
  0
LINE
  5
1A601
330
1A57B
100
AcDbEntity
  8
0
100
AcDbLine
 10
1.857773468998884
 20
-93.46674953339343
 30
0.0
 11
2.144748748220951
 21
-92.2392329716032
 31
0.0
  0
ARC
  5
1A602
330
1A57B
100
AcDbEntity
  8
0
100
AcDbCircle
 10
1.949999999999989
 20
-92.19370358475943
 30
0.0
 40
0.2
100
AcDbArc
 50
346.8414235966668
 51
76.84142359667098
  0
ARC
  5
1A603
330
1A57B
100
AcDbEntity
  8
0
100
AcDbCircle
 10
-1.949999999999989
 20
-92.19370358475943
 30
0.0
 40
0.2
100
AcDbArc
 50
103.1585764033291
 51
193.1585764033333
  0
LINE
  5
1A604
330
1A57B
100
AcDbEntity
  8
0
100
AcDbLine
 10
1.857773468998882
 20
-90.46674953339346
 30
0.0
 11
1.995529386843742
 21
-90.49895483653846
 31
0.0
  0
LINE
  5
1A605
330
1A57B
100
AcDbEntity
  8
0
100
AcDbLine
 10
-1.857773468998882
 20
-90.46674953339346
 30
0.0
 11
-1.995529386843742
 21
-90.49895483653846
 31
0.0
  0
LINE
  5
1A606
330
1A57B
100
AcDbEntity
  8
0
100
AcDbLine
 10
-1.857773468998884
 20
-91.96674953339343
 30
0.0
 11
-2.144748748220951
 21
-90.7392329716032
 31
0.0
  0
LINE
  5
1A607
330
1A57B
100
AcDbEntity
  8
0
100
AcDbLine
 10
1.857773468998884
 20
-91.96674953339343
 30
0.0
 11
2.144748748220951
 21
-90.7392329716032
 31
0.0
  0
ARC
  5
1A608
330
1A57B
100
AcDbEntity
  8
0
100
AcDbCircle
 10
1.949999999999989
 20
-90.69370358475945
 30
0.0
 40
0.2000000000000001
100
AcDbArc
 50
346.841423596672
 51
76.84142359667203
  0
ARC
  5
1A609
330
1A57B
100
AcDbEntity
  8
0
100
AcDbCircle
 10
-1.949999999999989
 20
-90.69370358475945
 30
0.0
 40
0.2
100
AcDbArc
 50
103.158576403328
 51
193.1585764033279
  0
LINE
  5
1A60A
330
1A57B
100
AcDbEntity
  8
0
100
AcDbLine
 10
1.857773468998882
 20
-88.96674953339344
 30
0.0
 11
1.995529386843742
 21
-88.99895483653848
 31
0.0
  0
LINE
  5
1A60B
330
1A57B
100
AcDbEntity
  8
0
100
AcDbLine
 10
-1.857773468998878
 20
-88.96674953339344
 30
0.0
 11
-1.995529386843742
 21
-88.99895483653848
 31
0.0
  0
LINE
  5
1A60C
330
1A57B
100
AcDbEntity
  8
0
100
AcDbLine
 10
-1.85777346899888
 20
-90.46674953339346
 30
0.0
 11
-2.144748748220951
 21
-89.23923297160319
 31
0.0
  0
LINE
  5
1A60D
330
1A57B
100
AcDbEntity
  8
0
100
AcDbLine
 10
1.85777346899888
 20
-90.46674953339346
 30
0.0
 11
2.144748748220951
 21
-89.23923297160319
 31
0.0
  0
ARC
  5
1A60E
330
1A57B
100
AcDbEntity
  8
0
100
AcDbCircle
 10
1.949999999999989
 20
-89.19370358475944
 30
0.0
 40
0.2000000000000001
100
AcDbArc
 50
346.8414235966668
 51
76.84142359667203
  0
ARC
  5
1A60F
330
1A57B
100
AcDbEntity
  8
0
100
AcDbCircle
 10
-1.949999999999989
 20
-89.19370358475944
 30
0.0
 40
0.2
100
AcDbArc
 50
103.158576403328
 51
193.1585764033279
  0
LINE
  5
1A610
330
1A57B
100
AcDbEntity
  8
0
100
AcDbLine
 10
1.857773468998882
 20
-87.46674953339343
 30
0.0
 11
1.995529386843742
 21
-87.49895483653846
 31
0.0
  0
LINE
  5
1A611
330
1A57B
100
AcDbEntity
  8
0
100
AcDbLine
 10
-1.857773468998882
 20
-87.46674953339343
 30
0.0
 11
-1.995529386843742
 21
-87.49895483653846
 31
0.0
  0
LINE
  5
1A612
330
1A57B
100
AcDbEntity
  8
0
100
AcDbLine
 10
-1.857773468998876
 20
-88.96674953339346
 30
0.0
 11
-2.144748748220951
 21
-87.73923297160321
 31
0.0
  0
LINE
  5
1A613
330
1A57B
100
AcDbEntity
  8
0
100
AcDbLine
 10
1.85777346899888
 20
-88.96674953339344
 30
0.0
 11
2.144748748220951
 21
-87.73923297160321
 31
0.0
  0
ARC
  5
1A614
330
1A57B
100
AcDbEntity
  8
0
100
AcDbCircle
 10
1.949999999999989
 20
-87.69370358475944
 30
0.0
 40
0.2000000000000001
100
AcDbArc
 50
346.841423596672
 51
76.84142359667203
  0
ARC
  5
1A615
330
1A57B
100
AcDbEntity
  8
0
100
AcDbCircle
 10
-1.949999999999989
 20
-87.69370358475944
 30
0.0
 40
0.2
100
AcDbArc
 50
103.158576403328
 51
193.1585764033279
  0
LINE
  5
1A616
330
1A57B
100
AcDbEntity
  8
0
100
AcDbLine
 10
1.857773468998885
 20
-85.96674953339343
 30
0.0
 11
1.99552938684375
 21
-85.99895483653845
 31
0.0
  0
LINE
  5
1A617
330
1A57B
100
AcDbEntity
  8
0
100
AcDbLine
 10
-1.857773468998881
 20
-85.96674953339343
 30
0.0
 11
-1.995529386843746
 21
-85.99895483653845
 31
0.0
  0
LINE
  5
1A618
330
1A57B
100
AcDbEntity
  8
0
100
AcDbLine
 10
-1.85777346899888
 20
-87.46674953339343
 30
0.0
 11
-2.144748748220951
 21
-86.23923297160319
 31
0.0
  0
LINE
  5
1A619
330
1A57B
100
AcDbEntity
  8
0
100
AcDbLine
 10
1.85777346899888
 20
-87.46674953339343
 30
0.0
 11
2.144748748220951
 21
-86.23923297160319
 31
0.0
  0
ARC
  5
1A61A
330
1A57B
100
AcDbEntity
  8
0
100
AcDbCircle
 10
1.949999999999989
 20
-86.19370358475945
 30
0.0
 40
0.2
100
AcDbArc
 50
346.8414235966668
 51
76.84142359666994
  0
ARC
  5
1A61B
330
1A57B
100
AcDbEntity
  8
0
100
AcDbCircle
 10
-1.949999999999989
 20
-86.19370358475945
 30
0.0
 40
0.2
100
AcDbArc
 50
103.1585764033291
 51
193.1585764033279
  0
LINE
  5
1A61C
330
1A57B
100
AcDbEntity
  8
0
100
AcDbLine
 10
1.857773468998885
 20
-84.46674953339343
 30
0.0
 11
1.995529386843746
 21
-84.49895483653845
 31
0.0
  0
LINE
  5
1A61D
330
1A57B
100
AcDbEntity
  8
0
100
AcDbLine
 10
-1.857773468998885
 20
-84.46674953339343
 30
0.0
 11
-1.995529386843746
 21
-84.49895483653845
 31
0.0
  0
LINE
  5
1A61E
330
1A57B
100
AcDbEntity
  8
0
100
AcDbLine
 10
-1.857773468998884
 20
-85.96674953339343
 30
0.0
 11
-2.144748748220951
 21
-84.7392329716032
 31
0.0
  0
LINE
  5
1A61F
330
1A57B
100
AcDbEntity
  8
0
100
AcDbLine
 10
1.857773468998884
 20
-85.96674953339343
 30
0.0
 11
2.144748748220951
 21
-84.7392329716032
 31
0.0
  0
ARC
  5
1A620
330
1A57B
100
AcDbEntity
  8
0
100
AcDbCircle
 10
1.949999999999989
 20
-84.69370358475943
 30
0.0
 40
0.2
100
AcDbArc
 50
346.8414235966668
 51
76.84142359667098
  0
ARC
  5
1A621
330
1A57B
100
AcDbEntity
  8
0
100
AcDbCircle
 10
-1.949999999999989
 20
-84.69370358475943
 30
0.0
 40
0.2
100
AcDbArc
 50
103.1585764033291
 51
193.1585764033333
  0
LINE
  5
1A622
330
1A57B
100
AcDbEntity
  8
0
100
AcDbLine
 10
1.857773468998882
 20
-82.96674953339346
 30
0.0
 11
1.995529386843742
 21
-82.99895483653846
 31
0.0
  0
LINE
  5
1A623
330
1A57B
100
AcDbEntity
  8
0
100
AcDbLine
 10
-1.857773468998882
 20
-82.96674953339346
 30
0.0
 11
-1.995529386843742
 21
-82.99895483653846
 31
0.0
  0
LINE
  5
1A624
330
1A57B
100
AcDbEntity
  8
0
100
AcDbLine
 10
-1.857773468998884
 20
-84.46674953339343
 30
0.0
 11
-2.144748748220951
 21
-83.2392329716032
 31
0.0
  0
LINE
  5
1A625
330
1A57B
100
AcDbEntity
  8
0
100
AcDbLine
 10
1.857773468998884
 20
-84.46674953339343
 30
0.0
 11
2.144748748220951
 21
-83.2392329716032
 31
0.0
  0
ARC
  5
1A626
330
1A57B
100
AcDbEntity
  8
0
100
AcDbCircle
 10
1.949999999999989
 20
-83.19370358475945
 30
0.0
 40
0.2000000000000001
100
AcDbArc
 50
346.841423596672
 51
76.84142359667203
  0
ARC
  5
1A627
330
1A57B
100
AcDbEntity
  8
0
100
AcDbCircle
 10
-1.949999999999989
 20
-83.19370358475945
 30
0.0
 40
0.2
100
AcDbArc
 50
103.158576403328
 51
193.1585764033279
  0
LINE
  5
1A628
330
1A57B
100
AcDbEntity
  8
0
100
AcDbLine
 10
1.857773468998882
 20
-81.46674953339344
 30
0.0
 11
1.995529386843742
 21
-81.49895483653848
 31
0.0
  0
LINE
  5
1A629
330
1A57B
100
AcDbEntity
  8
0
100
AcDbLine
 10
-1.857773468998878
 20
-81.46674953339344
 30
0.0
 11
-1.995529386843742
 21
-81.49895483653848
 31
0.0
  0
LINE
  5
1A62A
330
1A57B
100
AcDbEntity
  8
0
100
AcDbLine
 10
-1.85777346899888
 20
-82.96674953339346
 30
0.0
 11
-2.144748748220951
 21
-81.73923297160319
 31
0.0
  0
LINE
  5
1A62B
330
1A57B
100
AcDbEntity
  8
0
100
AcDbLine
 10
1.85777346899888
 20
-82.96674953339346
 30
0.0
 11
2.144748748220951
 21
-81.73923297160319
 31
0.0
  0
ARC
  5
1A62C
330
1A57B
100
AcDbEntity
  8
0
100
AcDbCircle
 10
1.949999999999989
 20
-81.69370358475944
 30
0.0
 40
0.2000000000000001
100
AcDbArc
 50
346.8414235966668
 51
76.84142359667203
  0
ARC
  5
1A62D
330
1A57B
100
AcDbEntity
  8
0
100
AcDbCircle
 10
-1.949999999999989
 20
-81.69370358475944
 30
0.0
 40
0.2
100
AcDbArc
 50
103.158576403328
 51
193.1585764033279
  0
LINE
  5
1A62E
330
1A57B
100
AcDbEntity
  8
0
100
AcDbLine
 10
1.857773468998882
 20
-79.96674953339343
 30
0.0
 11
1.995529386843742
 21
-79.99895483653846
 31
0.0
  0
LINE
  5
1A62F
330
1A57B
100
AcDbEntity
  8
0
100
AcDbLine
 10
-1.857773468998882
 20
-79.96674953339343
 30
0.0
 11
-1.995529386843744
 21
-79.99895483653848
 31
0.0
  0
LINE
  5
1A630
330
1A57B
100
AcDbEntity
  8
0
100
AcDbLine
 10
-1.857773468998876
 20
-81.46674953339346
 30
0.0
 11
-2.144748748220951
 21
-80.23923297160321
 31
0.0
  0
LINE
  5
1A631
330
1A57B
100
AcDbEntity
  8
0
100
AcDbLine
 10
1.85777346899888
 20
-81.46674953339344
 30
0.0
 11
2.144748748220951
 21
-80.23923297160321
 31
0.0
  0
ARC
  5
1A632
330
1A57B
100
AcDbEntity
  8
0
100
AcDbCircle
 10
1.949999999999989
 20
-80.19370358475944
 30
0.0
 40
0.2000000000000001
100
AcDbArc
 50
346.841423596672
 51
76.84142359667203
  0
ARC
  5
1A633
330
1A57B
100
AcDbEntity
  8
0
100
AcDbCircle
 10
-1.949999999999989
 20
-80.19370358475944
 30
0.0
 40
0.2
100
AcDbArc
 50
103.1585764033285
 51
193.1585764033279
  0
LINE
  5
1A634
330
1A57B
100
AcDbEntity
  8
0
100
AcDbLine
 10
1.857773468998882
 20
-78.46674953339344
 30
0.0
 11
1.995529386843746
 21
-78.49895483653847
 31
0.0
  0
LINE
  5
1A635
330
1A57B
100
AcDbEntity
  8
0
100
AcDbLine
 10
-1.857773468998882
 20
-78.46674953339344
 30
0.0
 11
-1.995529386843746
 21
-78.49895483653847
 31
0.0
  0
LINE
  5
1A636
330
1A57B
100
AcDbEntity
  8
0
100
AcDbLine
 10
-1.85777346899888
 20
-79.96674953339343
 30
0.0
 11
-2.144748748220951
 21
-78.73923297160319
 31
0.0
  0
LINE
  5
1A637
330
1A57B
100
AcDbEntity
  8
0
100
AcDbLine
 10
1.85777346899888
 20
-79.96674953339343
 30
0.0
 11
2.144748748220951
 21
-78.73923297160319
 31
0.0
  0
ARC
  5
1A638
330
1A57B
100
AcDbEntity
  8
0
100
AcDbCircle
 10
1.949999999999989
 20
-78.69370358475944
 30
0.0
 40
0.2
100
AcDbArc
 50
346.841423596672
 51
76.84142359667098
  0
ARC
  5
1A639
330
1A57B
100
AcDbEntity
  8
0
100
AcDbCircle
 10
-1.949999999999989
 20
-78.69370358475944
 30
0.0
 40
0.2
100
AcDbArc
 50
103.1585764033291
 51
193.1585764033279
  0
LINE
  5
1A63A
330
1A57B
100
AcDbEntity
  8
0
100
AcDbLine
 10
1.857773468998884
 20
-76.96674953339343
 30
0.0
 11
1.995529386843746
 21
-76.99895483653846
 31
0.0
  0
LINE
  5
1A63B
330
1A57B
100
AcDbEntity
  8
0
100
AcDbLine
 10
-1.857773468998884
 20
-76.96674953339343
 30
0.0
 11
-1.995529386843746
 21
-76.99895483653846
 31
0.0
  0
LINE
  5
1A63C
330
1A57B
100
AcDbEntity
  8
0
100
AcDbLine
 10
-1.85777346899888
 20
-78.46674953339344
 30
0.0
 11
-2.144748748220951
 21
-77.23923297160318
 31
0.0
  0
LINE
  5
1A63D
330
1A57B
100
AcDbEntity
  8
0
100
AcDbLine
 10
1.85777346899888
 20
-78.46674953339344
 30
0.0
 11
2.144748748220951
 21
-77.23923297160318
 31
0.0
  0
ARC
  5
1A63E
330
1A57B
100
AcDbEntity
  8
0
100
AcDbCircle
 10
1.949999999999989
 20
-77.19370358475943
 30
0.0
 40
0.2
100
AcDbArc
 50
346.841423596672
 51
76.84142359667098
  0
ARC
  5
1A63F
330
1A57B
100
AcDbEntity
  8
0
100
AcDbCircle
 10
-1.949999999999989
 20
-77.19370358475943
 30
0.0
 40
0.2
100
AcDbArc
 50
103.1585764033291
 51
193.1585764033279
  0
LINE
  5
1A640
330
1A57B
100
AcDbEntity
  8
0
100
AcDbLine
 10
1.857773468998884
 20
-75.46674953339344
 30
0.0
 11
1.995529386843744
 21
-75.49895483653847
 31
0.0
  0
LINE
  5
1A641
330
1A57B
100
AcDbEntity
  8
0
100
AcDbLine
 10
-1.857773468998884
 20
-75.46674953339344
 30
0.0
 11
-1.995529386843744
 21
-75.49895483653847
 31
0.0
  0
LINE
  5
1A642
330
1A57B
100
AcDbEntity
  8
0
100
AcDbLine
 10
-1.857773468998882
 20
-76.96674953339343
 30
0.0
 11
-2.144748748220951
 21
-75.73923297160319
 31
0.0
  0
LINE
  5
1A643
330
1A57B
100
AcDbEntity
  8
0
100
AcDbLine
 10
1.857773468998882
 20
-76.96674953339343
 30
0.0
 11
2.144748748220951
 21
-75.73923297160319
 31
0.0
  0
ARC
  5
1A644
330
1A57B
100
AcDbEntity
  8
0
100
AcDbCircle
 10
1.949999999999989
 20
-75.69370358475945
 30
0.0
 40
0.2
100
AcDbArc
 50
346.841423596672
 51
76.84142359667146
  0
ARC
  5
1A645
330
1A57B
100
AcDbEntity
  8
0
100
AcDbCircle
 10
-1.949999999999989
 20
-75.69370358475945
 30
0.0
 40
0.2
100
AcDbArc
 50
103.1585764033285
 51
193.1585764033279
  0
LINE
  5
1A646
330
1A57B
100
AcDbEntity
  8
0
100
AcDbLine
 10
1.857773468998882
 20
-73.96674953339344
 30
0.0
 11
1.995529386843742
 21
-73.99895483653847
 31
0.0
  0
LINE
  5
1A647
330
1A57B
100
AcDbEntity
  8
0
100
AcDbLine
 10
-1.857773468998882
 20
-73.96674953339344
 30
0.0
 11
-1.995529386843742
 21
-73.99895483653847
 31
0.0
  0
LINE
  5
1A648
330
1A57B
100
AcDbEntity
  8
0
100
AcDbLine
 10
-1.857773468998884
 20
-75.46674953339342
 30
0.0
 11
-2.144748748220951
 21
-74.2392329716032
 31
0.0
  0
LINE
  5
1A649
330
1A57B
100
AcDbEntity
  8
0
100
AcDbLine
 10
1.857773468998882
 20
-75.46674953339344
 30
0.0
 11
2.144748748220951
 21
-74.2392329716032
 31
0.0
  0
ARC
  5
1A64A
330
1A57B
100
AcDbEntity
  8
0
100
AcDbCircle
 10
1.949999999999989
 20
-74.19370358475944
 30
0.0
 40
0.2000000000000001
100
AcDbArc
 50
346.841423596672
 51
76.84142359667203
  0
ARC
  5
1A64B
330
1A57B
100
AcDbEntity
  8
0
100
AcDbCircle
 10
-1.949999999999989
 20
-74.19370358475944
 30
0.0
 40
0.2
100
AcDbArc
 50
103.158576403328
 51
193.1585764033279
  0
LINE
  5
1A64C
330
1A57B
100
AcDbEntity
  8
0
100
AcDbLine
 10
1.857773468998882
 20
-72.46674953339343
 30
0.0
 11
1.995529386843742
 21
-72.49895483653846
 31
0.0
  0
LINE
  5
1A64D
330
1A57B
100
AcDbEntity
  8
0
100
AcDbLine
 10
-1.857773468998882
 20
-72.46674953339343
 30
0.0
 11
-1.995529386843744
 21
-72.49895483653848
 31
0.0
  0
LINE
  5
1A64E
330
1A57B
100
AcDbEntity
  8
0
100
AcDbLine
 10
-1.85777346899888
 20
-73.96674953339344
 30
0.0
 11
-2.144748748220951
 21
-72.7392329716032
 31
0.0
  0
LINE
  5
1A64F
330
1A57B
100
AcDbEntity
  8
0
100
AcDbLine
 10
1.85777346899888
 20
-73.96674953339344
 30
0.0
 11
2.144748748220951
 21
-72.7392329716032
 31
0.0
  0
ARC
  5
1A650
330
1A57B
100
AcDbEntity
  8
0
100
AcDbCircle
 10
1.949999999999989
 20
-72.69370358475945
 30
0.0
 40
0.2000000000000001
100
AcDbArc
 50
346.841423596672
 51
76.84142359667203
  0
ARC
  5
1A651
330
1A57B
100
AcDbEntity
  8
0
100
AcDbCircle
 10
-1.949999999999989
 20
-72.69370358475945
 30
0.0
 40
0.2
100
AcDbArc
 50
103.1585764033285
 51
193.1585764033279
  0
LINE
  5
1A652
330
1A57B
100
AcDbEntity
  8
0
100
AcDbLine
 10
1.857773468998882
 20
-70.96674953339344
 30
0.0
 11
1.995529386843742
 21
-70.99895483653845
 31
0.0
  0
LINE
  5
1A653
330
1A57B
100
AcDbEntity
  8
0
100
AcDbLine
 10
-1.857773468998882
 20
-70.96674953339344
 30
0.0
 11
-1.995529386843744
 21
-70.99895483653847
 31
0.0
  0
LINE
  5
1A654
330
1A57B
100
AcDbEntity
  8
0
100
AcDbLine
 10
-1.85777346899888
 20
-72.46674953339343
 30
0.0
 11
-2.144748748220951
 21
-71.23923297160319
 31
0.0
  0
LINE
  5
1A655
330
1A57B
100
AcDbEntity
  8
0
100
AcDbLine
 10
1.85777346899888
 20
-72.46674953339343
 30
0.0
 11
2.144748748220951
 21
-71.23923297160319
 31
0.0
  0
ARC
  5
1A656
330
1A57B
100
AcDbEntity
  8
0
100
AcDbCircle
 10
1.949999999999989
 20
-71.19370358475944
 30
0.0
 40
0.2000000000000001
100
AcDbArc
 50
346.841423596672
 51
76.84142359667203
  0
ARC
  5
1A657
330
1A57B
100
AcDbEntity
  8
0
100
AcDbCircle
 10
-1.949999999999989
 20
-71.19370358475944
 30
0.0
 40
0.2
100
AcDbArc
 50
103.1585764033285
 51
193.1585764033279
  0
LINE
  5
1A658
330
1A57B
100
AcDbEntity
  8
0
100
AcDbLine
 10
1.857773468998884
 20
-69.46674953339343
 30
0.0
 11
1.995529386843746
 21
-69.49895483653846
 31
0.0
  0
LINE
  5
1A659
330
1A57B
100
AcDbEntity
  8
0
100
AcDbLine
 10
-1.857773468998884
 20
-69.46674953339343
 30
0.0
 11
-1.995529386843746
 21
-69.49895483653846
 31
0.0
  0
LINE
  5
1A65A
330
1A57B
100
AcDbEntity
  8
0
100
AcDbLine
 10
-1.85777346899888
 20
-70.96674953339344
 30
0.0
 11
-2.144748748220951
 21
-69.73923297160318
 31
0.0
  0
LINE
  5
1A65B
330
1A57B
100
AcDbEntity
  8
0
100
AcDbLine
 10
1.85777346899888
 20
-70.96674953339344
 30
0.0
 11
2.144748748220951
 21
-69.73923297160318
 31
0.0
  0
ARC
  5
1A65C
330
1A57B
100
AcDbEntity
  8
0
100
AcDbCircle
 10
1.949999999999989
 20
-69.69370358475943
 30
0.0
 40
0.2
100
AcDbArc
 50
346.841423596672
 51
76.84142359667098
  0
ARC
  5
1A65D
330
1A57B
100
AcDbEntity
  8
0
100
AcDbCircle
 10
-1.949999999999989
 20
-69.69370358475943
 30
0.0
 40
0.2
100
AcDbArc
 50
103.1585764033291
 51
193.1585764033279
  0
LINE
  5
1A65E
330
1A57B
100
AcDbEntity
  8
0
100
AcDbLine
 10
1.857773468998882
 20
-67.96674953339344
 30
0.0
 11
1.995529386843744
 21
-67.99895483653847
 31
0.0
  0
LINE
  5
1A65F
330
1A57B
100
AcDbEntity
  8
0
100
AcDbLine
 10
-1.857773468998882
 20
-67.96674953339344
 30
0.0
 11
-1.995529386843744
 21
-67.99895483653847
 31
0.0
  0
LINE
  5
1A660
330
1A57B
100
AcDbEntity
  8
0
100
AcDbLine
 10
-1.857773468998882
 20
-69.46674953339343
 30
0.0
 11
-2.144748748220951
 21
-68.23923297160319
 31
0.0
  0
LINE
  5
1A661
330
1A57B
100
AcDbEntity
  8
0
100
AcDbLine
 10
1.857773468998882
 20
-69.46674953339343
 30
0.0
 11
2.144748748220951
 21
-68.23923297160319
 31
0.0
  0
ARC
  5
1A662
330
1A57B
100
AcDbEntity
  8
0
100
AcDbCircle
 10
1.949999999999989
 20
-68.19370358475945
 30
0.0
 40
0.2
100
AcDbArc
 50
346.841423596672
 51
76.84142359667146
  0
ARC
  5
1A663
330
1A57B
100
AcDbEntity
  8
0
100
AcDbCircle
 10
-1.949999999999989
 20
-68.19370358475945
 30
0.0
 40
0.2
100
AcDbArc
 50
103.1585764033285
 51
193.1585764033279
  0
LINE
  5
1A664
330
1A57B
100
AcDbEntity
  8
0
100
AcDbLine
 10
1.857773468998884
 20
-66.46674953339344
 30
0.0
 11
1.995529386843744
 21
-66.49895483653847
 31
0.0
  0
LINE
  5
1A665
330
1A57B
100
AcDbEntity
  8
0
100
AcDbLine
 10
-1.857773468998884
 20
-66.46674953339344
 30
0.0
 11
-1.995529386843744
 21
-66.49895483653847
 31
0.0
  0
LINE
  5
1A666
330
1A57B
100
AcDbEntity
  8
0
100
AcDbLine
 10
-1.85777346899888
 20
-67.96674953339344
 30
0.0
 11
-2.144748748220951
 21
-66.73923297160318
 31
0.0
  0
LINE
  5
1A667
330
1A57B
100
AcDbEntity
  8
0
100
AcDbLine
 10
1.85777346899888
 20
-67.96674953339344
 30
0.0
 11
2.144748748220951
 21
-66.73923297160318
 31
0.0
  0
ARC
  5
1A668
330
1A57B
100
AcDbEntity
  8
0
100
AcDbCircle
 10
1.949999999999989
 20
-66.69370358475943
 30
0.0
 40
0.2
100
AcDbArc
 50
346.841423596672
 51
76.84142359667146
  0
ARC
  5
1A669
330
1A57B
100
AcDbEntity
  8
0
100
AcDbCircle
 10
-1.949999999999989
 20
-66.69370358475943
 30
0.0
 40
0.2
100
AcDbArc
 50
103.1585764033285
 51
193.1585764033279
  0
LINE
  5
1A66A
330
1A57B
100
AcDbEntity
  8
0
100
AcDbLine
 10
1.857773468998882
 20
-64.96674953339343
 30
0.0
 11
1.995529386843742
 21
-64.99895483653846
 31
0.0
  0
LINE
  5
1A66B
330
1A57B
100
AcDbEntity
  8
0
100
AcDbLine
 10
-1.857773468998882
 20
-64.96674953339343
 30
0.0
 11
-1.995529386843744
 21
-64.99895483653848
 31
0.0
  0
LINE
  5
1A66C
330
1A57B
100
AcDbEntity
  8
0
100
AcDbLine
 10
-1.857773468998884
 20
-66.46674953339342
 30
0.0
 11
-2.144748748220951
 21
-65.2392329716032
 31
0.0
  0
LINE
  5
1A66D
330
1A57B
100
AcDbEntity
  8
0
100
AcDbLine
 10
1.857773468998882
 20
-66.46674953339344
 30
0.0
 11
2.144748748220951
 21
-65.2392329716032
 31
0.0
  0
ARC
  5
1A66E
330
1A57B
100
AcDbEntity
  8
0
100
AcDbCircle
 10
1.949999999999989
 20
-65.19370358475945
 30
0.0
 40
0.2000000000000001
100
AcDbArc
 50
346.841423596672
 51
76.84142359667203
  0
ARC
  5
1A66F
330
1A57B
100
AcDbEntity
  8
0
100
AcDbCircle
 10
-1.949999999999989
 20
-65.19370358475945
 30
0.0
 40
0.2
100
AcDbArc
 50
103.1585764033285
 51
193.1585764033279
  0
LINE
  5
1A670
330
1A57B
100
AcDbEntity
  8
0
100
AcDbLine
 10
-1.85777346899888
 20
-64.96674953339343
 30
0.0
 11
-2.144748748220951
 21
-63.73923297160319
 31
0.0
  0
LINE
  5
1A671
330
1A57B
100
AcDbEntity
  8
0
100
AcDbLine
 10
1.85777346899888
 20
-64.96674953339343
 30
0.0
 11
2.144748748220951
 21
-63.73923297160319
 31
0.0
  0
ARC
  5
1A672
330
1A57B
100
AcDbEntity
  8
0
100
AcDbCircle
 10
1.949999999999989
 20
-63.69370358475944
 30
0.0
 40
0.2000000000000001
100
AcDbArc
 50
346.841423596672
 51
76.84142359667203
  0
ARC
  5
1A673
330
1A57B
100
AcDbEntity
  8
0
100
AcDbCircle
 10
-1.949999999999989
 20
-63.69370358475944
 30
0.0
 40
0.2
100
AcDbArc
 50
103.1585764033285
 51
193.1585764033279
  0
LINE
  5
1A674
330
1A57B
100
AcDbEntity
  8
0
100
AcDbLine
 10
-1.85777346899888
 20
-63.46674953339344
 30
0.0
 11
-2.144748748220951
 21
-62.23923297160318
 31
0.0
  0
LINE
  5
1A675
330
1A57B
100
AcDbEntity
  8
0
100
AcDbLine
 10
1.85777346899888
 20
-63.46674953339344
 30
0.0
 11
2.144748748220951
 21
-62.23923297160318
 31
0.0
  0
ARC
  5
1A676
330
1A57B
100
AcDbEntity
  8
0
100
AcDbCircle
 10
1.949999999999989
 20
-62.19370358475943
 30
0.0
 40
0.2
100
AcDbArc
 50
346.841423596672
 51
75.58497761064224
  0
ARC
  5
1A677
330
1A57B
100
AcDbEntity
  8
0
100
AcDbCircle
 10
-1.949999999999989
 20
-62.19370358475943
 30
0.0
 40
0.2
100
AcDbArc
 50
104.4150223893577
 51
193.1585764033279
  0
ENDBLK
  5
1A57D
330
1A57B
100
AcDbEntity
  8
0
100
AcDbBlockEnd
  0
BLOCK
  5
1A873
330
1A872
100
AcDbEntity
  8
0
100
AcDbBlockBegin
  2
MKSA440x125-Top
 70
     0
 10
0.0
 20
0.0
 30
0.0
  3
MKSA440x125-Top
  1

  0
CIRCLE
  5
1A875
330
1A872
100
AcDbEntity
  8
0
100
AcDbCircle
 10
-0.0000000000000071
 20
-0.0000000000000001
 30
0.0
 40
4.249999999999992
  0
ENDBLK
  5
1A874
330
1A872
100
AcDbEntity
  8
0
100
AcDbBlockEnd
  0
BLOCK
  5
1A884
330
1A883
100
AcDbEntity
  8
0
100
AcDbBlockBegin
  2
MKSA440x125-ISO
 70
     0
 10
0.0
 20
0.0
 30
0.0
  3
MKSA440x125-ISO
  1

  0
ELLIPSE
  5
1A886
330
1A883
100
AcDbEntity
  8
0
100
AcDbEllipse
 10
0.000000000000025
 20
-51.03103630798283
 30
0.0
 11
-2.082536734865138
 21
-6.806440134932283
 31
0.0
210
0.0
220
0.0
230
1.0
 40
0.0507834957882408
 41
2.191716155715303
 42
2.977114319112778
  0
LINE
  5
1A887
330
1A883
100
AcDbEntity
  8
0
100
AcDbLine
 10
0.0
 20
-51.03103630798286
 30
0.0
 11
1.492721760638206
 21
-47.15717944893171
 31
0.0
  0
ELLIPSE
  5
1A888
330
1A883
100
AcDbEntity
  8
0
100
AcDbEllipse
 10
0.000000000000025
 20
-51.03103630798283
 30
0.0
 11
0.0000000000000056
 21
-5.478460908762146
 31
0.0
210
0.0
220
0.0
230
1.0
 40
0.3853321934574061
 41
2.356194490192347
 42
3.926990816987251
  0
LINE
  5
1A889
330
1A883
100
AcDbEntity
  8
0
100
AcDbLine
 10
-1.492721760638172
 20
-47.15717944893171
 30
0.0
 11
0.0
 21
-51.03103630798286
 31
0.0
  0
ELLIPSE
  5
1A88A
330
1A883
100
AcDbEntity
  8
0
100
AcDbEllipse
 10
0.0000000000000223
 20
-42.04957391777785
 30
0.0
 11
-2.111027358743972
 21
0.0000000000000001
 31
0.0
210
0.0
220
0.0
230
1.0
 40
0.5773502691896257
 41
5.841584578531349
 42
9.866378689417617
  0
ELLIPSE
  5
1A88B
330
1A883
100
AcDbEntity
  8
0
100
AcDbEllipse
 10
0.0000000000000223
 20
-42.04957391777788
 30
0.0
 11
-1.850000000000003
 21
0.0000000000000004
 31
0.0
210
0.0
220
0.0
230
1.0
 40
0.5773502691896258
 41
0.0000000000000015
 42
3.141592653589794
  0
ELLIPSE
  5
1A88C
330
1A883
100
AcDbEntity
  8
0
100
AcDbEllipse
 10
0.0000000000000101
 20
-1.224744871391569
 30
0.0
 11
-2.000000000000007
 21
0.0000000000000009
 31
0.0
210
0.0
220
0.0
230
1.0
 40
0.577350269189626
 41
0.0000000000000032
 42
3.141592653589798
  0
ELLIPSE
  5
1A88D
330
1A883
100
AcDbEntity
  8
0
100
AcDbEllipse
 10
-0.000000000000005
 20
49.39804314612743
 30
0.0
 11
-4.249999999999994
 21
-0.0000000000000008
 31
0.0
210
0.0
220
0.0
230
1.0
 40
0.5773502691896257
 41
0.0
 42
3.141592653589793
  0
ELLIPSE
  5
1A88E
330
1A883
100
AcDbEntity
  8
0
100
AcDbEllipse
 10
-0.000000000000005
 20
49.68381694945215
 30
0.0
 11
-4.249999999999993
 21
-0.0000000000000011
 31
0.0
210
0.0
220
0.0
230
1.0
 40
0.5773502691896258
 41
5.133893471813683
 42
10.57406979613528
  0
LINE
  5
1A88F
330
1A883
100
AcDbEntity
  8
0
100
AcDbLine
 10
-2.111027358743949
 20
-44.33377318538322
 30
0.0
 11
-2.11102735874395
 21
-42.04957391777785
 31
0.0
  0
LINE
  5
1A890
330
1A883
100
AcDbEntity
  8
0
100
AcDbLine
 10
2.111027358743995
 20
-44.33377318538321
 30
0.0
 11
2.111027358743994
 21
-42.04957391777785
 31
0.0
  0
LINE
  5
1A891
330
1A883
100
AcDbEntity
  8
0
100
AcDbLine
 10
-1.84999999999998
 20
-42.04957391777788
 30
0.0
 11
-1.84999999999998
 21
-41.73022141573357
 31
0.0
  0
LINE
  5
1A892
330
1A883
100
AcDbEntity
  8
0
100
AcDbLine
 10
1.850000000000025
 20
-42.04957391777788
 30
0.0
 11
1.850000000000025
 21
-41.73022141573354
 31
0.0
  0
LINE
  5
1A893
330
1A883
100
AcDbEntity
  8
0
100
AcDbLine
 10
-1.999999999999993
 20
-1.224744871391569
 30
0.0
 11
-2.000000000000007
 21
47.23297963666635
 31
0.0
  0
LINE
  5
1A894
330
1A883
100
AcDbEntity
  8
0
100
AcDbLine
 10
2.000000000000013
 20
-1.224744871391569
 30
0.0
 11
1.999999999999999
 21
47.23297963666635
 31
0.0
  0
LINE
  5
1A895
330
1A883
100
AcDbEntity
  8
0
100
AcDbLine
 10
-4.249999999999999
 20
49.39804314612743
 30
0.0
 11
-4.249999999999999
 21
49.68381694945215
 31
0.0
  0
LINE
  5
1A896
330
1A883
100
AcDbEntity
  8
0
100
AcDbLine
 10
4.249999999999988
 20
49.39804314612743
 30
0.0
 11
4.249999999999988
 21
49.68381694945215
 31
0.0
  0
SPLINE
  5
1A897
330
1A883
100
AcDbEntity
  8
0
100
AcDbSpline
210
0.0
220
0.0
230
1.0
 70
     8
 71
     3
 72
    16
 73
    12
 74
     0
 42
0.000000001
 43
0.0000000001
 40
1.934689998763352
 40
1.934689998763352
 40
1.934689998763352
 40
1.934689998763352
 40
2.103291795334949
 40
2.103291795334949
 40
2.271893591906546
 40
2.271893591906546
 40
2.440495388478144
 40
2.440495388478144
 40
2.609097185049741
 40
2.609097185049741
 40
2.777698981621337
 40
2.777698981621337
 40
2.777698981621337
 40
2.777698981621337
 10
1.738818333563104
 20
51.92279073245071
 30
0.0
 10
1.489305983469843
 20
51.98738232527284
 30
0.0
 10
1.250413228226725
 20
52.03487880627962
 30
0.0
 10
0.785343919576901
 20
52.10427095777254
 30
0.0
 10
0.5591580968324062
 20
52.12612149462454
 30
0.0
 10
0.1109893877446919
 20
52.14798619886676
 30
0.0
 10
-0.1109893877447068
 20
52.14798619886676
 30
0.0
 10
-0.5591580968324208
 20
52.12612149462454
 30
0.0
 10
-0.7853439195769154
 20
52.10427095777254
 30
0.0
 10
-1.250413228226738
 20
52.03487880627962
 30
0.0
 10
-1.489305983469855
 20
51.98738232527283
 30
0.0
 10
-1.738818333563115
 20
51.92279073245071
 30
0.0
  0
ELLIPSE
  5
1A898
330
1A883
100
AcDbEntity
  8
0
100
AcDbEllipse
 10
0.000000000000025
 20
-51.03103630798289
 30
0.0
 11
-2.082536734865141
 21
6.806440134932294
 31
0.0
210
0.0
220
0.0
230
1.0
 40
0.0507834957882417
 41
0.1644783344771148
 42
0.9498764978745457
  0
ELLIPSE
  5
1A899
330
1A883
100
AcDbEntity
  8
0
100
AcDbEllipse
 10
0.00000000000001
 20
-2.4486363703903
 30
0.0
 11
-1.995529386843743
 21
0.0000000000000002
 31
0.0
210
0.0
220
0.0
230
1.0
 40
0.5773502691896259
 41
6.06531540812065
 42
9.642647859828315
  0
ELLIPSE
  5
1A89A
330
1A883
100
AcDbEntity
  8
0
100
AcDbEllipse
 10
0.00000000000001
 20
-2.422340850484641
 30
0.0
 11
-1.857773468998881
 21
0.0000000000000001
 31
0.0
210
0.0
220
0.0
230
1.0
 40
0.5773502691896259
 41
0.1660734866401947
 42
2.975519166949597
  0
ELLIPSE
  5
1A89B
330
1A883
100
AcDbEntity
  8
0
100
AcDbEllipse
 10
0.0000000000000173
 20
-40.41572738352954
 30
0.0
 11
-1.995529386843743
 21
-0.0000000000000001
 31
0.0
210
0.0
220
0.0
230
1.0
 40
0.5773502691896257
 41
6.065315408120655
 42
9.642647859828318
  0
ELLIPSE
  5
1A89C
330
1A883
100
AcDbEntity
  8
0
100
AcDbEllipse
 10
0.0000000000000173
 20
-40.38943186362388
 30
0.0
 11
-1.857773468998881
 21
0.0000000000000001
 31
0.0
210
0.0
220
0.0
230
1.0
 40
0.5773502691896259
 41
0.1660734866401956
 42
2.975519166949597
  0
ELLIPSE
  5
1A89D
330
1A883
100
AcDbEntity
  8
0
100
AcDbEllipse
 10
0.0000000000000222
 20
-41.64132562731402
 30
0.0
 11
1.850000000000002
 21
0.0000000000000001
 31
0.0
210
0.0
220
0.0
230
1.0
 40
0.5773502691896257
 41
3.307666140229986
 42
6.117111820539393
  0
ELLIPSE
  5
1A89E
330
1A883
100
AcDbEntity
  8
0
100
AcDbEllipse
 10
0.0000000000000173
 20
-40.61191365928158
 30
0.0
 11
-2.14474874822095
 21
0.0000000000000001
 31
0.0
210
0.0
220
0.0
230
1.0
 40
0.5773502691896257
 41
0.1660734866401936
 42
2.975519166949599
  0
ELLIPSE
  5
1A89F
330
1A883
100
AcDbEntity
  8
0
100
AcDbEllipse
 10
0.000000000000017
 20
-39.19098251213796
 30
0.0
 11
-1.995529386843743
 21
-0.0000000000000001
 31
0.0
210
0.0
220
0.0
230
1.0
 40
0.5773502691896257
 41
6.065315408120655
 42
9.642647859828313
  0
ELLIPSE
  5
1A8A0
330
1A883
100
AcDbEntity
  8
0
100
AcDbEllipse
 10
0.000000000000017
 20
-39.1646869922323
 30
0.0
 11
-1.857773468998884
 21
0.0000000000000001
 31
0.0
210
0.0
220
0.0
230
1.0
 40
0.577350269189626
 41
0.1660734866401953
 42
2.975519166949597
  0
ELLIPSE
  5
1A8A1
330
1A883
100
AcDbEntity
  8
0
100
AcDbEllipse
 10
0.0000000000000171
 20
-39.38716878789001
 30
0.0
 11
-2.14474874822095
 21
0.0000000000000001
 31
0.0
210
0.0
220
0.0
230
1.0
 40
0.5773502691896257
 41
0.1660734866401936
 42
2.975519166949599
  0
ELLIPSE
  5
1A8A2
330
1A883
100
AcDbEntity
  8
0
100
AcDbEllipse
 10
0.0000000000000168
 20
-37.96623764074637
 30
0.0
 11
-1.995529386843743
 21
-0.0000000000000001
 31
0.0
210
0.0
220
0.0
230
1.0
 40
0.5773502691896257
 41
6.065315408120647
 42
9.642647859828318
  0
ELLIPSE
  5
1A8A3
330
1A883
100
AcDbEntity
  8
0
100
AcDbEllipse
 10
0.0000000000000168
 20
-37.93994212084071
 30
0.0
 11
-1.857773468998881
 21
0.0000000000000001
 31
0.0
210
0.0
220
0.0
230
1.0
 40
0.5773502691896259
 41
0.1660734866401956
 42
2.975519166949597
  0
ELLIPSE
  5
1A8A4
330
1A883
100
AcDbEntity
  8
0
100
AcDbEllipse
 10
0.0000000000000168
 20
-38.16242391649843
 30
0.0
 11
-2.14474874822095
 21
0.0000000000000003
 31
0.0
210
0.0
220
0.0
230
1.0
 40
0.5773502691896258
 41
0.1660734866401938
 42
2.975519166949596
  0
ELLIPSE
  5
1A8A5
330
1A883
100
AcDbEntity
  8
0
100
AcDbEllipse
 10
0.0000000000000166
 20
-36.74149276935479
 30
0.0
 11
-1.995529386843743
 21
-0.0000000000000001
 31
0.0
210
0.0
220
0.0
230
1.0
 40
0.5773502691896257
 41
6.065315408120655
 42
9.642647859828313
  0
ELLIPSE
  5
1A8A6
330
1A883
100
AcDbEntity
  8
0
100
AcDbEllipse
 10
0.0000000000000166
 20
-36.71519724944913
 30
0.0
 11
-1.857773468998881
 21
0.0000000000000001
 31
0.0
210
0.0
220
0.0
230
1.0
 40
0.5773502691896259
 41
0.1660734866401956
 42
2.975519166949597
  0
ELLIPSE
  5
1A8A7
330
1A883
100
AcDbEntity
  8
0
100
AcDbEllipse
 10
0.0000000000000166
 20
-36.93767904510681
 30
0.0
 11
-2.14474874822095
 21
0.0000000000000001
 31
0.0
210
0.0
220
0.0
230
1.0
 40
0.5773502691896259
 41
0.1660734866401281
 42
2.975519166949661
  0
ELLIPSE
  5
1A8A8
330
1A883
100
AcDbEntity
  8
0
100
AcDbEllipse
 10
0.0000000000000163
 20
-35.51674789796321
 30
0.0
 11
-1.995529386843743
 21
-0.0000000000000001
 31
0.0
210
0.0
220
0.0
230
1.0
 40
0.5773502691896257
 41
6.065315408120647
 42
9.642647859828318
  0
ELLIPSE
  5
1A8A9
330
1A883
100
AcDbEntity
  8
0
100
AcDbEllipse
 10
0.0000000000000163
 20
-35.49045237805753
 30
0.0
 11
-1.857773468998881
 21
0.0000000000000001
 31
0.0
210
0.0
220
0.0
230
1.0
 40
0.5773502691896259
 41
0.1660734866401956
 42
2.975519166949597
  0
ELLIPSE
  5
1A8AA
330
1A883
100
AcDbEntity
  8
0
100
AcDbEllipse
 10
0.0000000000000164
 20
-35.71293417371523
 30
0.0
 11
-2.14474874822095
 21
0.0000000000000001
 31
0.0
210
0.0
220
0.0
230
1.0
 40
0.5773502691896257
 41
0.1660734866401936
 42
2.975519166949599
  0
ELLIPSE
  5
1A8AB
330
1A883
100
AcDbEntity
  8
0
100
AcDbEllipse
 10
0.0000000000000161
 20
-34.29200302657161
 30
0.0
 11
-1.995529386843743
 21
-0.0000000000000001
 31
0.0
210
0.0
220
0.0
230
1.0
 40
0.5773502691896257
 41
6.065315408120647
 42
9.642647859828318
  0
ELLIPSE
  5
1A8AC
330
1A883
100
AcDbEntity
  8
0
100
AcDbEllipse
 10
0.0000000000000161
 20
-34.26570750666595
 30
0.0
 11
-1.857773468998881
 21
0.0000000000000001
 31
0.0
210
0.0
220
0.0
230
1.0
 40
0.5773502691896259
 41
0.1660734866401956
 42
2.975519166949597
  0
ELLIPSE
  5
1A8AD
330
1A883
100
AcDbEntity
  8
0
100
AcDbEllipse
 10
0.0000000000000161
 20
-34.48818930232365
 30
0.0
 11
-2.14474874822095
 21
0.0000000000000001
 31
0.0
210
0.0
220
0.0
230
1.0
 40
0.5773502691896257
 41
0.1660734866401936
 42
2.975519166949599
  0
ELLIPSE
  5
1A8AE
330
1A883
100
AcDbEntity
  8
0
100
AcDbEllipse
 10
0.0000000000000159
 20
-33.06725815518002
 30
0.0
 11
-1.995529386843743
 21
-0.0000000000000001
 31
0.0
210
0.0
220
0.0
230
1.0
 40
0.5773502691896257
 41
6.065315408120655
 42
9.642647859828313
  0
ELLIPSE
  5
1A8AF
330
1A883
100
AcDbEntity
  8
0
100
AcDbEllipse
 10
0.0000000000000159
 20
-33.04096263527436
 30
0.0
 11
-1.857773468998884
 21
0.0000000000000001
 31
0.0
210
0.0
220
0.0
230
1.0
 40
0.577350269189626
 41
0.1660734866401953
 42
2.975519166949597
  0
ELLIPSE
  5
1A8B0
330
1A883
100
AcDbEntity
  8
0
100
AcDbEllipse
 10
0.0000000000000159
 20
-33.26344443093205
 30
0.0
 11
-2.14474874822095
 21
0.0000000000000001
 31
0.0
210
0.0
220
0.0
230
1.0
 40
0.5773502691896257
 41
0.1660734866401936
 42
2.975519166949599
  0
ELLIPSE
  5
1A8B1
330
1A883
100
AcDbEntity
  8
0
100
AcDbEllipse
 10
0.0000000000000156
 20
-31.84251328378844
 30
0.0
 11
-1.995529386843743
 21
0.0
 31
0.0
210
0.0
220
0.0
230
1.0
 40
0.5773502691896259
 41
6.06531540812065
 42
9.64264785982831
  0
ELLIPSE
  5
1A8B2
330
1A883
100
AcDbEntity
  8
0
100
AcDbEllipse
 10
0.0000000000000156
 20
-31.81621776388276
 30
0.0
 11
-1.857773468998884
 21
0.0000000000000001
 31
0.0
210
0.0
220
0.0
230
1.0
 40
0.577350269189626
 41
0.1660734866401953
 42
2.975519166949597
  0
ELLIPSE
  5
1A8B3
330
1A883
100
AcDbEntity
  8
0
100
AcDbEllipse
 10
0.0000000000000157
 20
-32.03869955954047
 30
0.0
 11
-2.14474874822095
 21
0.0000000000000003
 31
0.0
210
0.0
220
0.0
230
1.0
 40
0.5773502691896258
 41
0.1660734866401938
 42
2.975519166949596
  0
ELLIPSE
  5
1A8B4
330
1A883
100
AcDbEntity
  8
0
100
AcDbEllipse
 10
0.0000000000000154
 20
-30.61776841239684
 30
0.0
 11
-1.995529386843743
 21
-0.0000000000000001
 31
0.0
210
0.0
220
0.0
230
1.0
 40
0.5773502691896257
 41
6.065315408120655
 42
9.642647859828313
  0
ELLIPSE
  5
1A8B5
330
1A883
100
AcDbEntity
  8
0
100
AcDbEllipse
 10
0.0000000000000154
 20
-30.59147289249119
 30
0.0
 11
-1.857773468998881
 21
0.0000000000000001
 31
0.0
210
0.0
220
0.0
230
1.0
 40
0.5773502691896259
 41
0.1660734866401956
 42
2.975519166949597
  0
ELLIPSE
  5
1A8B6
330
1A883
100
AcDbEntity
  8
0
100
AcDbEllipse
 10
0.0000000000000154
 20
-30.81395468814888
 30
0.0
 11
-2.14474874822095
 21
0.0000000000000001
 31
0.0
210
0.0
220
0.0
230
1.0
 40
0.5773502691896257
 41
0.1660734866401936
 42
2.975519166949599
  0
ELLIPSE
  5
1A8B7
330
1A883
100
AcDbEntity
  8
0
100
AcDbEllipse
 10
0.0000000000000152
 20
-29.39302354100527
 30
0.0
 11
-1.995529386843743
 21
-0.0000000000000001
 31
0.0
210
0.0
220
0.0
230
1.0
 40
0.5773502691896257
 41
6.065315408120647
 42
9.642647859828318
  0
ELLIPSE
  5
1A8B8
330
1A883
100
AcDbEntity
  8
0
100
AcDbEllipse
 10
0.0000000000000151
 20
-29.3667280210996
 30
0.0
 11
-1.857773468998881
 21
0.0000000000000001
 31
0.0
210
0.0
220
0.0
230
1.0
 40
0.5773502691896259
 41
0.1660734866401956
 42
2.975519166949597
  0
ELLIPSE
  5
1A8B9
330
1A883
100
AcDbEntity
  8
0
100
AcDbEllipse
 10
0.0000000000000152
 20
-29.5892098167573
 30
0.0
 11
-2.14474874822095
 21
0.0000000000000001
 31
0.0
210
0.0
220
0.0
230
1.0
 40
0.5773502691896257
 41
0.1660734866401936
 42
2.975519166949599
  0
ELLIPSE
  5
1A8BA
330
1A883
100
AcDbEntity
  8
0
100
AcDbEllipse
 10
0.0000000000000149
 20
-28.16827866961368
 30
0.0
 11
-1.995529386843743
 21
-0.0000000000000001
 31
0.0
210
0.0
220
0.0
230
1.0
 40
0.5773502691896257
 41
6.065315408120647
 42
9.642647859828318
  0
ELLIPSE
  5
1A8BB
330
1A883
100
AcDbEntity
  8
0
100
AcDbEllipse
 10
0.0000000000000149
 20
-28.14198314970801
 30
0.0
 11
-1.857773468998881
 21
0.0000000000000001
 31
0.0
210
0.0
220
0.0
230
1.0
 40
0.5773502691896259
 41
0.1660734866401956
 42
2.975519166949597
  0
ELLIPSE
  5
1A8BC
330
1A883
100
AcDbEntity
  8
0
100
AcDbEllipse
 10
0.000000000000015
 20
-28.3644649453657
 30
0.0
 11
-2.14474874822095
 21
0.0000000000000001
 31
0.0
210
0.0
220
0.0
230
1.0
 40
0.5773502691896257
 41
0.1660734866401936
 42
2.975519166949599
  0
ELLIPSE
  5
1A8BD
330
1A883
100
AcDbEntity
  8
0
100
AcDbEllipse
 10
0.0000000000000147
 20
-26.94353379822209
 30
0.0
 11
-1.995529386843743
 21
-0.0000000000000001
 31
0.0
210
0.0
220
0.0
230
1.0
 40
0.5773502691896257
 41
6.065315408120655
 42
9.642647859828313
  0
ELLIPSE
  5
1A8BE
330
1A883
100
AcDbEntity
  8
0
100
AcDbEllipse
 10
0.0000000000000147
 20
-26.91723827831642
 30
0.0
 11
-1.857773468998884
 21
0.0000000000000001
 31
0.0
210
0.0
220
0.0
230
1.0
 40
0.577350269189626
 41
0.1660734866401953
 42
2.975519166949597
  0
ELLIPSE
  5
1A8BF
330
1A883
100
AcDbEntity
  8
0
100
AcDbEllipse
 10
0.0000000000000147
 20
-27.13972007397412
 30
0.0
 11
-2.14474874822095
 21
0.0000000000000001
 31
0.0
210
0.0
220
0.0
230
1.0
 40
0.5773502691896257
 41
0.1660734866401936
 42
2.975519166949599
  0
ELLIPSE
  5
1A8C0
330
1A883
100
AcDbEntity
  8
0
100
AcDbEllipse
 10
0.0000000000000144
 20
-25.71878892683049
 30
0.0
 11
-1.995529386843743
 21
0.0
 31
0.0
210
0.0
220
0.0
230
1.0
 40
0.5773502691896259
 41
6.06531540812065
 42
9.64264785982831
  0
ELLIPSE
  5
1A8C1
330
1A883
100
AcDbEntity
  8
0
100
AcDbEllipse
 10
0.0000000000000144
 20
-25.69249340692483
 30
0.0
 11
-1.857773468998884
 21
0.0000000000000001
 31
0.0
210
0.0
220
0.0
230
1.0
 40
0.577350269189626
 41
0.1660734866401953
 42
2.975519166949597
  0
ELLIPSE
  5
1A8C2
330
1A883
100
AcDbEntity
  8
0
100
AcDbEllipse
 10
0.0000000000000145
 20
-25.91497520258254
 30
0.0
 11
-2.14474874822095
 21
0.0000000000000003
 31
0.0
210
0.0
220
0.0
230
1.0
 40
0.5773502691896258
 41
0.1660734866401938
 42
2.975519166949596
  0
ELLIPSE
  5
1A8C3
330
1A883
100
AcDbEntity
  8
0
100
AcDbEllipse
 10
0.0000000000000142
 20
-24.49404405543891
 30
0.0
 11
-1.995529386843743
 21
-0.0000000000000001
 31
0.0
210
0.0
220
0.0
230
1.0
 40
0.5773502691896257
 41
6.065315408120655
 42
9.642647859828313
  0
ELLIPSE
  5
1A8C4
330
1A883
100
AcDbEntity
  8
0
100
AcDbEllipse
 10
0.0000000000000142
 20
-24.46774853553325
 30
0.0
 11
-1.857773468998881
 21
0.0000000000000001
 31
0.0
210
0.0
220
0.0
230
1.0
 40
0.5773502691896259
 41
0.1660734866401956
 42
2.975519166949597
  0
ELLIPSE
  5
1A8C5
330
1A883
100
AcDbEntity
  8
0
100
AcDbEllipse
 10
0.0000000000000142
 20
-24.69023033119095
 30
0.0
 11
-2.14474874822095
 21
0.0000000000000001
 31
0.0
210
0.0
220
0.0
230
1.0
 40
0.5773502691896257
 41
0.1660734866401936
 42
2.975519166949599
  0
ELLIPSE
  5
1A8C6
330
1A883
100
AcDbEntity
  8
0
100
AcDbEllipse
 10
0.000000000000014
 20
-23.26929918404731
 30
0.0
 11
-1.995529386843743
 21
-0.0000000000000001
 31
0.0
210
0.0
220
0.0
230
1.0
 40
0.5773502691896257
 41
6.065315408120655
 42
9.642647859828313
  0
ELLIPSE
  5
1A8C7
330
1A883
100
AcDbEntity
  8
0
100
AcDbEllipse
 10
0.000000000000014
 20
-23.24300366414166
 30
0.0
 11
-1.857773468998881
 21
0.0000000000000001
 31
0.0
210
0.0
220
0.0
230
1.0
 40
0.5773502691896259
 41
0.1660734866401956
 42
2.975519166949597
  0
ELLIPSE
  5
1A8C8
330
1A883
100
AcDbEntity
  8
0
100
AcDbEllipse
 10
0.000000000000014
 20
-23.46548545979935
 30
0.0
 11
-2.14474874822095
 21
0.0000000000000001
 31
0.0
210
0.0
220
0.0
230
1.0
 40
0.5773502691896257
 41
0.1660734866401936
 42
2.975519166949599
  0
ELLIPSE
  5
1A8C9
330
1A883
100
AcDbEntity
  8
0
100
AcDbEllipse
 10
0.0000000000000137
 20
-22.04455431265572
 30
0.0
 11
-1.995529386843743
 21
-0.0000000000000001
 31
0.0
210
0.0
220
0.0
230
1.0
 40
0.5773502691896257
 41
6.065315408120655
 42
9.642647859828313
  0
ELLIPSE
  5
1A8CA
330
1A883
100
AcDbEntity
  8
0
100
AcDbEllipse
 10
0.0000000000000137
 20
-22.01825879275007
 30
0.0
 11
-1.857773468998881
 21
0.0000000000000001
 31
0.0
210
0.0
220
0.0
230
1.0
 40
0.5773502691896259
 41
0.1660734866401956
 42
2.975519166949597
  0
ELLIPSE
  5
1A8CB
330
1A883
100
AcDbEntity
  8
0
100
AcDbEllipse
 10
0.0000000000000138
 20
-22.24074058840777
 30
0.0
 11
-2.14474874822095
 21
0.0000000000000001
 31
0.0
210
0.0
220
0.0
230
1.0
 40
0.5773502691896257
 41
0.1660734866401936
 42
2.975519166949599
  0
ELLIPSE
  5
1A8CC
330
1A883
100
AcDbEntity
  8
0
100
AcDbEllipse
 10
0.0000000000000135
 20
-20.81980944126414
 30
0.0
 11
-1.995529386843743
 21
-0.0000000000000001
 31
0.0
210
0.0
220
0.0
230
1.0
 40
0.5773502691896257
 41
6.065315408120655
 42
9.642647859828313
  0
ELLIPSE
  5
1A8CD
330
1A883
100
AcDbEntity
  8
0
100
AcDbEllipse
 10
0.0000000000000135
 20
-20.79351392135848
 30
0.0
 11
-1.857773468998884
 21
0.0000000000000001
 31
0.0
210
0.0
220
0.0
230
1.0
 40
0.577350269189626
 41
0.1660734866401953
 42
2.975519166949597
  0
ELLIPSE
  5
1A8CE
330
1A883
100
AcDbEntity
  8
0
100
AcDbEllipse
 10
0.0000000000000135
 20
-21.01599571701617
 30
0.0
 11
-2.14474874822095
 21
0.0000000000000001
 31
0.0
210
0.0
220
0.0
230
1.0
 40
0.5773502691896257
 41
0.1660734866401936
 42
2.975519166949599
  0
ELLIPSE
  5
1A8CF
330
1A883
100
AcDbEntity
  8
0
100
AcDbEllipse
 10
0.0000000000000133
 20
-19.59506456987255
 30
0.0
 11
-1.995529386843743
 21
0.0
 31
0.0
210
0.0
220
0.0
230
1.0
 40
0.5773502691896259
 41
6.065315408120653
 42
9.642647859828313
  0
ELLIPSE
  5
1A8D0
330
1A883
100
AcDbEntity
  8
0
100
AcDbEllipse
 10
0.0000000000000133
 20
-19.56876904996688
 30
0.0
 11
-1.857773468998884
 21
0.0000000000000001
 31
0.0
210
0.0
220
0.0
230
1.0
 40
0.577350269189626
 41
0.1660734866401953
 42
2.975519166949597
  0
ELLIPSE
  5
1A8D1
330
1A883
100
AcDbEntity
  8
0
100
AcDbEllipse
 10
0.0000000000000133
 20
-19.79125084562459
 30
0.0
 11
-2.14474874822095
 21
0.0000000000000003
 31
0.0
210
0.0
220
0.0
230
1.0
 40
0.5773502691896258
 41
0.1660734866401957
 42
2.975519166949598
  0
ELLIPSE
  5
1A8D2
330
1A883
100
AcDbEntity
  8
0
100
AcDbEllipse
 10
0.000000000000013
 20
-18.37031969848095
 30
0.0
 11
-1.995529386843743
 21
-0.0000000000000001
 31
0.0
210
0.0
220
0.0
230
1.0
 40
0.5773502691896257
 41
6.065315408120652
 42
9.642647859828311
  0
ELLIPSE
  5
1A8D3
330
1A883
100
AcDbEntity
  8
0
100
AcDbEllipse
 10
0.000000000000013
 20
-18.3440241785753
 30
0.0
 11
-1.857773468998881
 21
0.0000000000000001
 31
0.0
210
0.0
220
0.0
230
1.0
 40
0.5773502691896259
 41
0.1660734866401956
 42
2.975519166949599
  0
ELLIPSE
  5
1A8D4
330
1A883
100
AcDbEntity
  8
0
100
AcDbEllipse
 10
0.0000000000000131
 20
-18.566505974233
 30
0.0
 11
-2.14474874822095
 21
0.0000000000000001
 31
0.0
210
0.0
220
0.0
230
1.0
 40
0.5773502691896257
 41
0.1660734866401936
 42
2.975519166949597
  0
ELLIPSE
  5
1A8D5
330
1A883
100
AcDbEntity
  8
0
100
AcDbEllipse
 10
0.0000000000000128
 20
-17.14557482708937
 30
0.0
 11
-1.995529386843743
 21
-0.0000000000000001
 31
0.0
210
0.0
220
0.0
230
1.0
 40
0.5773502691896257
 41
6.065315408120652
 42
9.642647859828311
  0
ELLIPSE
  5
1A8D6
330
1A883
100
AcDbEntity
  8
0
100
AcDbEllipse
 10
0.0000000000000128
 20
-17.11927930718371
 30
0.0
 11
-1.857773468998881
 21
0.0000000000000001
 31
0.0
210
0.0
220
0.0
230
1.0
 40
0.5773502691896259
 41
0.1660734866401956
 42
2.975519166949599
  0
ELLIPSE
  5
1A8D7
330
1A883
100
AcDbEntity
  8
0
100
AcDbEllipse
 10
0.0000000000000128
 20
-17.3417611028414
 30
0.0
 11
-2.14474874822095
 21
0.0000000000000001
 31
0.0
210
0.0
220
0.0
230
1.0
 40
0.5773502691896257
 41
0.1660734866401936
 42
2.975519166949597
  0
ELLIPSE
  5
1A8D8
330
1A883
100
AcDbEntity
  8
0
100
AcDbEllipse
 10
0.0000000000000126
 20
-15.92082995569778
 30
0.0
 11
-1.995529386843743
 21
0.0000000000000002
 31
0.0
210
0.0
220
0.0
230
1.0
 40
0.5773502691896259
 41
6.06531540812065
 42
9.642647859828315
  0
ELLIPSE
  5
1A8D9
330
1A883
100
AcDbEntity
  8
0
100
AcDbEllipse
 10
0.0000000000000126
 20
-15.89453443579212
 30
0.0
 11
-1.857773468998881
 21
0.0000000000000001
 31
0.0
210
0.0
220
0.0
230
1.0
 40
0.5773502691896259
 41
0.1660734866401956
 42
2.975519166949599
  0
ELLIPSE
  5
1A8DA
330
1A883
100
AcDbEntity
  8
0
100
AcDbEllipse
 10
0.0000000000000126
 20
-16.11701623144982
 30
0.0
 11
-2.14474874822095
 21
0.0000000000000001
 31
0.0
210
0.0
220
0.0
230
1.0
 40
0.5773502691896258
 41
0.1660734866401917
 42
2.975519166949601
  0
ELLIPSE
  5
1A8DB
330
1A883
100
AcDbEntity
  8
0
100
AcDbEllipse
 10
0.0000000000000123
 20
-14.69608508430619
 30
0.0
 11
-1.995529386843743
 21
-0.0000000000000001
 31
0.0
210
0.0
220
0.0
230
1.0
 40
0.5773502691896257
 41
6.065315408120647
 42
9.642647859828318
  0
ELLIPSE
  5
1A8DC
330
1A883
100
AcDbEntity
  8
0
100
AcDbEllipse
 10
0.0000000000000123
 20
-14.66978956440052
 30
0.0
 11
-1.857773468998881
 21
0.0000000000000001
 31
0.0
210
0.0
220
0.0
230
1.0
 40
0.5773502691896259
 41
0.1660734866401956
 42
2.975519166949599
  0
ELLIPSE
  5
1A8DD
330
1A883
100
AcDbEntity
  8
0
100
AcDbEllipse
 10
0.0000000000000124
 20
-14.89227136005822
 30
0.0
 11
-2.14474874822095
 21
0.0000000000000001
 31
0.0
210
0.0
220
0.0
230
1.0
 40
0.5773502691896258
 41
0.1660734866401917
 42
2.975519166949601
  0
ELLIPSE
  5
1A8DE
330
1A883
100
AcDbEntity
  8
0
100
AcDbEllipse
 10
0.0000000000000121
 20
-13.4713402129146
 30
0.0
 11
-1.995529386843743
 21
0.0000000000000002
 31
0.0
210
0.0
220
0.0
230
1.0
 40
0.5773502691896259
 41
6.06531540812065
 42
9.642647859828315
  0
ELLIPSE
  5
1A8DF
330
1A883
100
AcDbEntity
  8
0
100
AcDbEllipse
 10
0.0000000000000121
 20
-13.44504469300894
 30
0.0
 11
-1.857773468998883
 21
0.0000000000000001
 31
0.0
210
0.0
220
0.0
230
1.0
 40
0.5773502691896257
 41
0.1660734866401956
 42
2.975519166949597
  0
ELLIPSE
  5
1A8E0
330
1A883
100
AcDbEntity
  8
0
100
AcDbEllipse
 10
0.0000000000000121
 20
-13.66752648866663
 30
0.0
 11
-2.14474874822095
 21
0.0000000000000001
 31
0.0
210
0.0
220
0.0
230
1.0
 40
0.5773502691896258
 41
0.1660734866401917
 42
2.975519166949601
  0
ELLIPSE
  5
1A8E1
330
1A883
100
AcDbEntity
  8
0
100
AcDbEllipse
 10
0.0000000000000119
 20
-12.24659534152301
 30
0.0
 11
-1.995529386843743
 21
-0.0000000000000001
 31
0.0
210
0.0
220
0.0
230
1.0
 40
0.5773502691896257
 41
6.065315408120652
 42
9.642647859828311
  0
ELLIPSE
  5
1A8E2
330
1A883
100
AcDbEntity
  8
0
100
AcDbEllipse
 10
0.0000000000000118
 20
-12.22029982161735
 30
0.0
 11
-1.857773468998883
 21
0.0000000000000001
 31
0.0
210
0.0
220
0.0
230
1.0
 40
0.5773502691896257
 41
0.1660734866401956
 42
2.975519166949597
  0
ELLIPSE
  5
1A8E3
330
1A883
100
AcDbEntity
  8
0
100
AcDbEllipse
 10
0.0000000000000119
 20
-12.44278161727504
 30
0.0
 11
-2.14474874822095
 21
0.0000000000000001
 31
0.0
210
0.0
220
0.0
230
1.0
 40
0.5773502691896258
 41
0.1660734866401917
 42
2.975519166949601
  0
ELLIPSE
  5
1A8E4
330
1A883
100
AcDbEntity
  8
0
100
AcDbEllipse
 10
0.0000000000000116
 20
-11.02185047013142
 30
0.0
 11
-1.995529386843743
 21
-0.0000000000000001
 31
0.0
210
0.0
220
0.0
230
1.0
 40
0.5773502691896257
 41
6.065315408120652
 42
9.642647859828311
  0
ELLIPSE
  5
1A8E5
330
1A883
100
AcDbEntity
  8
0
100
AcDbEllipse
 10
0.0000000000000116
 20
-10.99555495022577
 30
0.0
 11
-1.857773468998881
 21
0.0000000000000001
 31
0.0
210
0.0
220
0.0
230
1.0
 40
0.5773502691896259
 41
0.1660734866401956
 42
2.975519166949599
  0
ELLIPSE
  5
1A8E6
330
1A883
100
AcDbEntity
  8
0
100
AcDbEllipse
 10
0.0000000000000117
 20
-11.21803674588347
 30
0.0
 11
-2.14474874822095
 21
0.0000000000000001
 31
0.0
210
0.0
220
0.0
230
1.0
 40
0.5773502691896258
 41
0.1660734866401917
 42
2.975519166949601
  0
ELLIPSE
  5
1A8E7
330
1A883
100
AcDbEntity
  8
0
100
AcDbEllipse
 10
0.0000000000000114
 20
-9.797105598739834
 30
0.0
 11
-1.995529386843743
 21
0.0000000000000002
 31
0.0
210
0.0
220
0.0
230
1.0
 40
0.5773502691896259
 41
6.065315408120651
 42
9.642647859828317
  0
ELLIPSE
  5
1A8E8
330
1A883
100
AcDbEntity
  8
0
100
AcDbEllipse
 10
0.0000000000000114
 20
-9.770810078834175
 30
0.0
 11
-1.857773468998881
 21
0.0000000000000001
 31
0.0
210
0.0
220
0.0
230
1.0
 40
0.5773502691896259
 41
0.1660734866401947
 42
2.975519166949597
  0
ELLIPSE
  5
1A8E9
330
1A883
100
AcDbEntity
  8
0
100
AcDbEllipse
 10
0.0000000000000114
 20
-9.993291874491871
 30
0.0
 11
-2.14474874822095
 21
0.0000000000000001
 31
0.0
210
0.0
220
0.0
230
1.0
 40
0.5773502691896258
 41
0.1660734866401917
 42
2.975519166949601
  0
ELLIPSE
  5
1A8EA
330
1A883
100
AcDbEntity
  8
0
100
AcDbEllipse
 10
0.0000000000000111
 20
-8.572360727348247
 30
0.0
 11
-1.995529386843743
 21
0.0000000000000002
 31
0.0
210
0.0
220
0.0
230
1.0
 40
0.5773502691896259
 41
6.065315408120651
 42
9.642647859828317
  0
ELLIPSE
  5
1A8EB
330
1A883
100
AcDbEntity
  8
0
100
AcDbEllipse
 10
0.0000000000000111
 20
-8.546065207442588
 30
0.0
 11
-1.857773468998881
 21
0.0000000000000001
 31
0.0
210
0.0
220
0.0
230
1.0
 40
0.5773502691896259
 41
0.1660734866401947
 42
2.975519166949597
  0
ELLIPSE
  5
1A8EC
330
1A883
100
AcDbEntity
  8
0
100
AcDbEllipse
 10
0.0000000000000112
 20
-8.768547003100284
 30
0.0
 11
-2.14474874822095
 21
0.0000000000000001
 31
0.0
210
0.0
220
0.0
230
1.0
 40
0.5773502691896258
 41
0.1660734866401917
 42
2.975519166949602
  0
ELLIPSE
  5
1A8ED
330
1A883
100
AcDbEntity
  8
0
100
AcDbEllipse
 10
0.0000000000000109
 20
-7.347615855956659
 30
0.0
 11
-1.995529386843743
 21
0.0000000000000002
 31
0.0
210
0.0
220
0.0
230
1.0
 40
0.5773502691896259
 41
6.065315408120651
 42
9.642647859828317
  0
ELLIPSE
  5
1A8EE
330
1A883
100
AcDbEntity
  8
0
100
AcDbEllipse
 10
0.0000000000000109
 20
-7.321320336050991
 30
0.0
 11
-1.857773468998883
 21
0.0000000000000001
 31
0.0
210
0.0
220
0.0
230
1.0
 40
0.5773502691896257
 41
0.1660734866401947
 42
2.975519166949597
  0
ELLIPSE
  5
1A8EF
330
1A883
100
AcDbEntity
  8
0
100
AcDbEllipse
 10
0.0000000000000109
 20
-7.543802131708687
 30
0.0
 11
-2.14474874822095
 21
0.0000000000000001
 31
0.0
210
0.0
220
0.0
230
1.0
 40
0.5773502691896258
 41
0.1660734866401917
 42
2.975519166949602
  0
ELLIPSE
  5
1A8F0
330
1A883
100
AcDbEntity
  8
0
100
AcDbEllipse
 10
0.0000000000000107
 20
-6.122870984565071
 30
0.0
 11
-1.995529386843743
 21
0.0000000000000002
 31
0.0
210
0.0
220
0.0
230
1.0
 40
0.5773502691896259
 41
6.065315408120651
 42
9.642647859828317
  0
ELLIPSE
  5
1A8F1
330
1A883
100
AcDbEntity
  8
0
100
AcDbEllipse
 10
0.0000000000000107
 20
-6.096575464659412
 30
0.0
 11
-1.857773468998881
 21
0.0000000000000001
 31
0.0
210
0.0
220
0.0
230
1.0
 40
0.5773502691896259
 41
0.1660734866401947
 42
2.975519166949597
  0
ELLIPSE
  5
1A8F2
330
1A883
100
AcDbEntity
  8
0
100
AcDbEllipse
 10
0.0000000000000107
 20
-6.319057260317109
 30
0.0
 11
-2.14474874822095
 21
0.0000000000000001
 31
0.0
210
0.0
220
0.0
230
1.0
 40
0.5773502691896258
 41
0.1660734866401917
 42
2.975519166949602
  0
ELLIPSE
  5
1A8F3
330
1A883
100
AcDbEntity
  8
0
100
AcDbEllipse
 10
0.0000000000000104
 20
-4.898126113173475
 30
0.0
 11
-1.995529386843743
 21
-0.0000000000000001
 31
0.0
210
0.0
220
0.0
230
1.0
 40
0.5773502691896257
 41
6.065315408120652
 42
9.642647859828311
  0
ELLIPSE
  5
1A8F4
330
1A883
100
AcDbEntity
  8
0
100
AcDbEllipse
 10
0.0000000000000104
 20
-4.871830593267816
 30
0.0
 11
-1.857773468998883
 21
0.0000000000000001
 31
0.0
210
0.0
220
0.0
230
1.0
 40
0.5773502691896257
 41
0.1660734866401947
 42
2.975519166949597
  0
ELLIPSE
  5
1A8F5
330
1A883
100
AcDbEntity
  8
0
100
AcDbEllipse
 10
0.0000000000000105
 20
-5.094312388925512
 30
0.0
 11
-2.14474874822095
 21
0.0000000000000001
 31
0.0
210
0.0
220
0.0
230
1.0
 40
0.5773502691896258
 41
0.1660734866401917
 42
2.975519166949602
  0
ELLIPSE
  5
1A8F6
330
1A883
100
AcDbEntity
  8
0
100
AcDbEllipse
 10
0.0000000000000102
 20
-3.673381241781896
 30
0.0
 11
-1.995529386843743
 21
0.0000000000000002
 31
0.0
210
0.0
220
0.0
230
1.0
 40
0.5773502691896259
 41
6.065315408120651
 42
9.642647859828317
  0
ELLIPSE
  5
1A8F7
330
1A883
100
AcDbEntity
  8
0
100
AcDbEllipse
 10
0.0000000000000102
 20
-3.647085721876237
 30
0.0
 11
-1.857773468998881
 21
0.0000000000000001
 31
0.0
210
0.0
220
0.0
230
1.0
 40
0.5773502691896259
 41
0.1660734866401947
 42
2.975519166949597
  0
ELLIPSE
  5
1A8F8
330
1A883
100
AcDbEntity
  8
0
100
AcDbEllipse
 10
0.0000000000000102
 20
-3.869567517533925
 30
0.0
 11
-2.14474874822095
 21
0.0000000000000001
 31
0.0
210
0.0
220
0.0
230
1.0
 40
0.5773502691896258
 41
0.1660734866401913
 42
2.975519166949601
  0
ELLIPSE
  5
1A8F9
330
1A883
100
AcDbEntity
  8
0
100
AcDbEllipse
 10
0.00000000000001
 20
-2.644822646142337
 30
0.0
 11
-2.14474874822095
 21
0.0000000000000001
 31
0.0
210
0.0
220
0.0
230
1.0
 40
0.5773502691896258
 41
0.1660734866401913
 42
2.975519166949601
  0
LINE
  5
1A8FA
330
1A883
100
AcDbEntity
  8
0
100
AcDbLine
 10
-1.824546709021784
 20
-41.81789412827772
 30
0.0
 11
-2.11524014607845
 21
-40.81661369788547
 31
0.0
  0
LINE
  5
1A8FB
330
1A883
100
AcDbEntity
  8
0
100
AcDbLine
 10
1.82454670902182
 20
-41.81789412827772
 30
0.0
 11
2.115240146078484
 21
-40.81661369788547
 31
0.0
  0
SPLINE
  5
1A8FC
330
1A883
100
AcDbEntity
  8
0
100
AcDbSpline
210
0.0
220
0.0
230
1.0
 70
     8
 71
     3
 72
    10
 73
     6
 74
     0
 42
0.000000001
 43
0.0000000001
 40
0.6193246767572541
 40
0.6193246767572541
 40
0.6193246767572541
 40
0.6193246767572541
 40
0.9009146851058805
 40
0.9009146851058805
 40
1.15831109770122
 40
1.15831109770122
 40
1.15831109770122
 40
1.15831109770122
 10
2.115240146078486
 20
-40.81661369788547
 30
0.0
 10
2.15409336669674
 20
-40.68278553218393
 30
0.0
 10
2.160420504812766
 20
-40.54159162567611
 30
0.0
 10
2.108094793918026
 20
-40.28123261201571
 30
0.0
 10
2.055675741813299
 20
-40.16177281838889
 30
0.0
 10
1.981545664902098
 20
-40.05237343577842
 30
0.0
  0
SPLINE
  5
1A8FD
330
1A883
100
AcDbEntity
  8
0
100
AcDbSpline
210
0.0
220
0.0
230
1.0
 70
     8
 71
     3
 72
    12
 73
     8
 74
     0
 42
0.000000001
 43
0.0000000001
 40
3.554077882683469
 40
3.554077882683469
 40
3.554077882683469
 40
3.554077882683469
 40
3.809460694484215
 40
3.809460694484215
 40
4.086485013603741
 40
4.086485013603741
 40
4.093064303627436
 40
4.093064303627436
 40
4.093064303627436
 40
4.093064303627436
 10
-1.981545664902064
 20
-40.05237343577842
 30
0.0
 10
-2.055095825487833
 20
-40.16091699183895
 30
0.0
 10
-2.107276447314204
 20
-40.27935534723609
 30
0.0
 10
-2.159843988207858
 20
-40.53639592599392
 30
0.0
 10
-2.154682823041928
 20
-40.67524567562933
 30
0.0
 10
-2.11703853664941
 20
-40.81035613004731
 30
0.0
 10
-2.11614794322758
 20
-40.81348683155717
 30
0.0
 10
-2.115240146078452
 20
-40.81661369788547
 30
0.0
  0
LINE
  5
1A8FE
330
1A883
100
AcDbEntity
  8
0
100
AcDbLine
 10
-1.83221322647021
 20
-40.56674228338133
 30
0.0
 11
-2.11524014607845
 21
-39.59186882649389
 31
0.0
  0
LINE
  5
1A8FF
330
1A883
100
AcDbEntity
  8
0
100
AcDbLine
 10
1.832213226470245
 20
-40.56674228338133
 30
0.0
 11
2.115240146078484
 21
-39.59186882649389
 31
0.0
  0
SPLINE
  5
1A900
330
1A883
100
AcDbEntity
  8
0
100
AcDbSpline
210
0.0
220
0.0
230
1.0
 70
     8
 71
     3
 72
    10
 73
     6
 74
     0
 42
0.000000001
 43
0.0000000001
 40
0.6193246767572541
 40
0.6193246767572541
 40
0.6193246767572541
 40
0.6193246767572541
 40
0.9009146851058805
 40
0.9009146851058805
 40
1.158311097701217
 40
1.158311097701217
 40
1.158311097701217
 40
1.158311097701217
 10
2.115240146078486
 20
-39.59186882649389
 30
0.0
 10
2.154093366696739
 20
-39.45804066079233
 30
0.0
 10
2.160420504812766
 20
-39.31684675428451
 30
0.0
 10
2.108094793918026
 20
-39.05648774062412
 30
0.0
 10
2.055675741813301
 20
-38.93702794699729
 30
0.0
 10
1.981545664902101
 20
-38.82762856438681
 30
0.0
  0
SPLINE
  5
1A901
330
1A883
100
AcDbEntity
  8
0
100
AcDbSpline
210
0.0
220
0.0
230
1.0
 70
     8
 71
     3
 72
    12
 73
     8
 74
     0
 42
0.000000001
 43
0.0000000001
 40
3.554077882683472
 40
3.554077882683472
 40
3.554077882683472
 40
3.554077882683472
 40
3.809460694484215
 40
3.809460694484215
 40
4.086485013603741
 40
4.086485013603741
 40
4.093064303627436
 40
4.093064303627436
 40
4.093064303627436
 40
4.093064303627436
 10
-1.981545664902068
 20
-38.82762856438683
 30
0.0
 10
-2.055095825487835
 20
-38.93617212044737
 30
0.0
 10
-2.107276447314204
 20
-39.05461047584449
 30
0.0
 10
-2.159843988207859
 20
-39.31165105460232
 30
0.0
 10
-2.154682823041928
 20
-39.45050080423773
 30
0.0
 10
-2.11703853664941
 20
-39.58561125865572
 30
0.0
 10
-2.116147943227581
 20
-39.58874196016558
 30
0.0
 10
-2.115240146078452
 20
-39.59186882649389
 30
0.0
  0
LINE
  5
1A902
330
1A883
100
AcDbEntity
  8
0
100
AcDbLine
 10
-1.832213226470215
 20
-39.34199741198975
 30
0.0
 11
-2.11524014607845
 21
-38.36712395510232
 31
0.0
  0
LINE
  5
1A903
330
1A883
100
AcDbEntity
  8
0
100
AcDbLine
 10
1.832213226470249
 20
-39.34199741198975
 30
0.0
 11
2.115240146078484
 21
-38.36712395510232
 31
0.0
  0
SPLINE
  5
1A904
330
1A883
100
AcDbEntity
  8
0
100
AcDbSpline
210
0.0
220
0.0
230
1.0
 70
     8
 71
     3
 72
    10
 73
     6
 74
     0
 42
0.000000001
 43
0.0000000001
 40
0.6193246767571888
 40
0.6193246767571888
 40
0.6193246767571888
 40
0.6193246767571888
 40
0.9009146851058222
 40
0.9009146851058222
 40
1.15831109770122
 40
1.15831109770122
 40
1.15831109770122
 40
1.15831109770122
 10
2.115240146078459
 20
-38.36712395510239
 30
0.0
 10
2.154093366696728
 20
-38.23329578940083
 30
0.0
 10
2.16042050481277
 20
-38.09210188289299
 30
0.0
 10
2.108094793918049
 20
-37.83174286923257
 30
0.0
 10
2.055675741813316
 20
-37.71228307560571
 30
0.0
 10
1.981545664902098
 20
-37.60288369299523
 30
0.0
  0
SPLINE
  5
1A905
330
1A883
100
AcDbEntity
  8
0
100
AcDbSpline
210
0.0
220
0.0
230
1.0
 70
     8
 71
     3
 72
    12
 73
     8
 74
     0
 42
0.000000001
 43
0.0000000001
 40
3.554077882683469
 40
3.554077882683469
 40
3.554077882683469
 40
3.554077882683469
 40
3.809460694484151
 40
3.809460694484151
 40
4.086485013603683
 40
4.086485013603683
 40
4.0930643036275
 40
4.0930643036275
 40
4.0930643036275
 40
4.0930643036275
 10
-1.981545664902064
 20
-37.60288369299523
 30
0.0
 10
-2.055095825487815
 20
-37.71142724905577
 30
0.0
 10
-2.107276447314178
 20
-37.82986560445284
 30
0.0
 10
-2.159843988207855
 20
-38.08690618321064
 30
0.0
 10
-2.15468282304194
 20
-38.22575593284606
 30
0.0
 10
-2.117038536649418
 20
-38.3608663872641
 30
0.0
 10
-2.116147943227571
 20
-38.36399708877403
 30
0.0
 10
-2.115240146078425
 20
-38.36712395510239
 30
0.0
  0
LINE
  5
1A906
330
1A883
100
AcDbEntity
  8
0
100
AcDbLine
 10
-1.832213226470211
 20
-38.11725254059816
 30
0.0
 11
-2.11524014607845
 21
-37.1423790837107
 31
0.0
  0
LINE
  5
1A907
330
1A883
100
AcDbEntity
  8
0
100
AcDbLine
 10
1.832213226470245
 20
-38.11725254059816
 30
0.0
 11
2.115240146078484
 21
-37.1423790837107
 31
0.0
  0
SPLINE
  5
1A908
330
1A883
100
AcDbEntity
  8
0
100
AcDbSpline
210
0.0
220
0.0
230
1.0
 70
     8
 71
     3
 72
    10
 73
     6
 74
     0
 42
0.000000001
 43
0.0000000001
 40
0.6193246767573195
 40
0.6193246767573195
 40
0.6193246767573195
 40
0.6193246767573195
 40
0.9009146851059387
 40
0.9009146851059387
 40
1.15831109770122
 40
1.15831109770122
 40
1.15831109770122
 40
1.15831109770122
 10
2.115240146078512
 20
-37.14237908371061
 30
0.0
 10
2.15409336669675
 20
-37.00855091800905
 30
0.0
 10
2.160420504812761
 20
-36.86735701150127
 30
0.0
 10
2.108094793918002
 20
-36.60699799784089
 30
0.0
 10
2.055675741813282
 20
-36.48753820421412
 30
0.0
 10
1.981545664902098
 20
-36.37813882160366
 30
0.0
  0
SPLINE
  5
1A909
330
1A883
100
AcDbEntity
  8
0
100
AcDbSpline
210
0.0
220
0.0
230
1.0
 70
     8
 71
     3
 72
    12
 73
     8
 74
     0
 42
0.000000001
 43
0.0000000001
 40
3.554077882683469
 40
3.554077882683469
 40
3.554077882683469
 40
3.554077882683469
 40
3.809460694484278
 40
3.809460694484278
 40
4.086485013603799
 40
4.086485013603799
 40
4.09306430362737
 40
4.09306430362737
 40
4.09306430362737
 40
4.09306430362737
 10
-1.981545664902065
 20
-36.37813882160366
 30
0.0
 10
-2.055095825487852
 20
-36.48668237766424
 30
0.0
 10
-2.10727644731423
 20
-36.60512073306139
 30
0.0
 10
-2.159843988207863
 20
-36.86216131181926
 30
0.0
 10
-2.154682823041918
 20
-37.00101106145468
 30
0.0
 10
-2.117038536649404
 20
-37.13612151587258
 30
0.0
 10
-2.11614794322759
 20
-37.13925221738238
 30
0.0
 10
-2.115240146078479
 20
-37.14237908371061
 30
0.0
  0
LINE
  5
1A90A
330
1A883
100
AcDbEntity
  8
0
100
AcDbLine
 10
-1.832213226470211
 20
-36.89250766920658
 30
0.0
 11
-2.115240146078451
 21
-35.91763421231912
 31
0.0
  0
LINE
  5
1A90B
330
1A883
100
AcDbEntity
  8
0
100
AcDbLine
 10
1.832213226470244
 20
-36.89250766920658
 30
0.0
 11
2.115240146078483
 21
-35.91763421231912
 31
0.0
  0
SPLINE
  5
1A90C
330
1A883
100
AcDbEntity
  8
0
100
AcDbSpline
210
0.0
220
0.0
230
1.0
 70
     8
 71
     3
 72
    10
 73
     6
 74
     0
 42
0.000000001
 43
0.0000000001
 40
0.6193246767572541
 40
0.6193246767572541
 40
0.6193246767572541
 40
0.6193246767572541
 40
0.9009146851058805
 40
0.9009146851058805
 40
1.15831109770122
 40
1.15831109770122
 40
1.15831109770122
 40
1.15831109770122
 10
2.115240146078485
 20
-35.91763421231912
 30
0.0
 10
2.154093366696739
 20
-35.78380604661756
 30
0.0
 10
2.160420504812765
 20
-35.64261214010976
 30
0.0
 10
2.108094793918025
 20
-35.38225312644936
 30
0.0
 10
2.055675741813299
 20
-35.26279333282254
 30
0.0
 10
1.981545664902097
 20
-35.15339395021206
 30
0.0
  0
SPLINE
  5
1A90D
330
1A883
100
AcDbEntity
  8
0
100
AcDbSpline
210
0.0
220
0.0
230
1.0
 70
     8
 71
     3
 72
    12
 73
     8
 74
     0
 42
0.000000001
 43
0.0000000001
 40
3.554077882683469
 40
3.554077882683469
 40
3.554077882683469
 40
3.554077882683469
 40
3.809460694484215
 40
3.809460694484215
 40
4.086485013603741
 40
4.086485013603741
 40
4.093064303627436
 40
4.093064303627436
 40
4.093064303627436
 40
4.093064303627436
 10
-1.981545664902064
 20
-35.15339395021206
 30
0.0
 10
-2.055095825487834
 20
-35.26193750627261
 30
0.0
 10
-2.107276447314205
 20
-35.38037586166974
 30
0.0
 10
-2.159843988207859
 20
-35.63741644042757
 30
0.0
 10
-2.154682823041929
 20
-35.77626619006297
 30
0.0
 10
-2.117038536649411
 20
-35.91137664448097
 30
0.0
 10
-2.116147943227581
 20
-35.91450734599082
 30
0.0
 10
-2.115240146078452
 20
-35.91763421231912
 30
0.0
  0
LINE
  5
1A90E
330
1A883
100
AcDbEntity
  8
0
100
AcDbLine
 10
-1.832213226470207
 20
-35.667762797815
 30
0.0
 11
-2.115240146078451
 21
-34.69288934092754
 31
0.0
  0
LINE
  5
1A90F
330
1A883
100
AcDbEntity
  8
0
100
AcDbLine
 10
1.83221322647024
 20
-35.667762797815
 30
0.0
 11
2.115240146078483
 21
-34.69288934092754
 31
0.0
  0
SPLINE
  5
1A910
330
1A883
100
AcDbEntity
  8
0
100
AcDbSpline
210
0.0
220
0.0
230
1.0
 70
     8
 71
     3
 72
    10
 73
     6
 74
     0
 42
0.000000001
 43
0.0000000001
 40
0.6193246767572541
 40
0.6193246767572541
 40
0.6193246767572541
 40
0.6193246767572541
 40
0.9009146851058805
 40
0.9009146851058805
 40
1.15831109770122
 40
1.15831109770122
 40
1.15831109770122
 40
1.15831109770122
 10
2.115240146078485
 20
-34.69288934092754
 30
0.0
 10
2.154093366696738
 20
-34.55906117522598
 30
0.0
 10
2.160420504812765
 20
-34.41786726871817
 30
0.0
 10
2.108094793918025
 20
-34.15750825505777
 30
0.0
 10
2.055675741813298
 20
-34.03804846143095
 30
0.0
 10
1.981545664902097
 20
-33.92864907882048
 30
0.0
  0
SPLINE
  5
1A911
330
1A883
100
AcDbEntity
  8
0
100
AcDbSpline
210
0.0
220
0.0
230
1.0
 70
     8
 71
     3
 72
    12
 73
     8
 74
     0
 42
0.000000001
 43
0.0000000001
 40
3.554077882683469
 40
3.554077882683469
 40
3.554077882683469
 40
3.554077882683469
 40
3.809460694484215
 40
3.809460694484215
 40
4.086485013603741
 40
4.086485013603741
 40
4.093064303627436
 40
4.093064303627436
 40
4.093064303627436
 40
4.093064303627436
 10
-1.981545664902065
 20
-33.92864907882048
 30
0.0
 10
-2.055095825487835
 20
-34.03719263488101
 30
0.0
 10
-2.107276447314205
 20
-34.15563099027814
 30
0.0
 10
-2.159843988207859
 20
-34.41267156903598
 30
0.0
 10
-2.154682823041929
 20
-34.55152131867138
 30
0.0
 10
-2.117038536649411
 20
-34.68663177308937
 30
0.0
 10
-2.116147943227582
 20
-34.68976247459922
 30
0.0
 10
-2.115240146078453
 20
-34.69288934092754
 30
0.0
  0
LINE
  5
1A912
330
1A883
100
AcDbEntity
  8
0
100
AcDbLine
 10
-1.832213226470212
 20
-34.44301792642341
 30
0.0
 11
-2.115240146078452
 21
-33.46814446953594
 31
0.0
  0
LINE
  5
1A913
330
1A883
100
AcDbEntity
  8
0
100
AcDbLine
 10
1.832213226470244
 20
-34.44301792642341
 30
0.0
 11
2.115240146078483
 21
-33.46814446953594
 31
0.0
  0
SPLINE
  5
1A914
330
1A883
100
AcDbEntity
  8
0
100
AcDbSpline
210
0.0
220
0.0
230
1.0
 70
     8
 71
     3
 72
    10
 73
     6
 74
     0
 42
0.000000001
 43
0.0000000001
 40
0.6193246767572541
 40
0.6193246767572541
 40
0.6193246767572541
 40
0.6193246767572541
 40
0.9009146851058805
 40
0.9009146851058805
 40
1.158311097701217
 40
1.158311097701217
 40
1.158311097701217
 40
1.158311097701217
 10
2.115240146078484
 20
-33.46814446953594
 30
0.0
 10
2.154093366696738
 20
-33.33431630383439
 30
0.0
 10
2.160420504812765
 20
-33.19312239732657
 30
0.0
 10
2.108094793918025
 20
-32.93276338366617
 30
0.0
 10
2.0556757418133
 20
-32.81330359003935
 30
0.0
 10
1.9815456649021
 20
-32.70390420742887
 30
0.0
  0
SPLINE
  5
1A915
330
1A883
100
AcDbEntity
  8
0
100
AcDbSpline
210
0.0
220
0.0
230
1.0
 70
     8
 71
     3
 72
    12
 73
     8
 74
     0
 42
0.000000001
 43
0.0000000001
 40
3.554077882683472
 40
3.554077882683472
 40
3.554077882683472
 40
3.554077882683472
 40
3.809460694484215
 40
3.809460694484215
 40
4.086485013603741
 40
4.086485013603741
 40
4.093064303627436
 40
4.093064303627436
 40
4.093064303627436
 40
4.093064303627436
 10
-1.981545664902069
 20
-32.70390420742888
 30
0.0
 10
-2.055095825487836
 20
-32.81244776348943
 30
0.0
 10
-2.107276447314205
 20
-32.93088611888655
 30
0.0
 10
-2.159843988207859
 20
-33.1879266976444
 30
0.0
 10
-2.154682823041929
 20
-33.3267764472798
 30
0.0
 10
-2.117038536649411
 20
-33.46188690169777
 30
0.0
 10
-2.116147943227582
 20
-33.46501760320763
 30
0.0
 10
-2.115240146078453
 20
-33.46814446953594
 30
0.0
  0
LINE
  5
1A916
330
1A883
100
AcDbEntity
  8
0
100
AcDbLine
 10
-1.832213226470216
 20
-33.21827305503181
 30
0.0
 11
-2.115240146078452
 21
-32.24339959814436
 31
0.0
  0
LINE
  5
1A917
330
1A883
100
AcDbEntity
  8
0
100
AcDbLine
 10
1.832213226470247
 20
-33.21827305503181
 30
0.0
 11
2.115240146078483
 21
-32.24339959814436
 31
0.0
  0
SPLINE
  5
1A918
330
1A883
100
AcDbEntity
  8
0
100
AcDbSpline
210
0.0
220
0.0
230
1.0
 70
     8
 71
     3
 72
    10
 73
     6
 74
     0
 42
0.000000001
 43
0.0000000001
 40
0.6193246767571888
 40
0.6193246767571888
 40
0.6193246767571888
 40
0.6193246767571888
 40
0.9009146851058222
 40
0.9009146851058222
 40
1.158311097701217
 40
1.158311097701217
 40
1.158311097701217
 40
1.158311097701217
 10
2.115240146078458
 20
-32.24339959814443
 30
0.0
 10
2.154093366696727
 20
-32.10957143244288
 30
0.0
 10
2.160420504812768
 20
-31.96837752593506
 30
0.0
 10
2.108094793918049
 20
-31.70801851227463
 30
0.0
 10
2.055675741813316
 20
-31.58855871864779
 30
0.0
 10
1.9815456649021
 20
-31.47915933603731
 30
0.0
  0
SPLINE
  5
1A919
330
1A883
100
AcDbEntity
  8
0
100
AcDbSpline
210
0.0
220
0.0
230
1.0
 70
     8
 71
     3
 72
    12
 73
     8
 74
     0
 42
0.000000001
 43
0.0000000001
 40
3.554077882683472
 40
3.554077882683472
 40
3.554077882683472
 40
3.554077882683472
 40
3.809460694484151
 40
3.809460694484151
 40
4.086485013603683
 40
4.086485013603683
 40
4.0930643036275
 40
4.0930643036275
 40
4.0930643036275
 40
4.0930643036275
 10
-1.981545664902068
 20
-31.47915933603729
 30
0.0
 10
-2.055095825487818
 20
-31.58770289209782
 30
0.0
 10
-2.10727644731418
 20
-31.70614124749489
 30
0.0
 10
-2.159843988207856
 20
-31.96318182625269
 30
0.0
 10
-2.154682823041941
 20
-32.10203157588811
 30
0.0
 10
-2.117038536649419
 20
-32.23714203030617
 30
0.0
 10
-2.116147943227572
 20
-32.24027273181608
 30
0.0
 10
-2.115240146078426
 20
-32.24339959814443
 30
0.0
  0
LINE
  5
1A91A
330
1A883
100
AcDbEntity
  8
0
100
AcDbLine
 10
-1.832213226470216
 20
-31.99352818364023
 30
0.0
 11
-2.115240146078452
 21
-31.01865472675277
 31
0.0
  0
LINE
  5
1A91B
330
1A883
100
AcDbEntity
  8
0
100
AcDbLine
 10
1.832213226470247
 20
-31.99352818364021
 30
0.0
 11
2.115240146078483
 21
-31.01865472675277
 31
0.0
  0
SPLINE
  5
1A91C
330
1A883
100
AcDbEntity
  8
0
100
AcDbSpline
210
0.0
220
0.0
230
1.0
 70
     8
 71
     3
 72
    10
 73
     6
 74
     0
 42
0.000000001
 43
0.0000000001
 40
0.6193246767572541
 40
0.6193246767572541
 40
0.6193246767572541
 40
0.6193246767572541
 40
0.9009146851058805
 40
0.9009146851058805
 40
1.15831109770122
 40
1.15831109770122
 40
1.15831109770122
 40
1.15831109770122
 10
2.115240146078484
 20
-31.01865472675277
 30
0.0
 10
2.154093366696738
 20
-30.88482656105121
 30
0.0
 10
2.160420504812765
 20
-30.74363265454341
 30
0.0
 10
2.108094793918025
 20
-30.48327364088301
 30
0.0
 10
2.055675741813298
 20
-30.36381384725619
 30
0.0
 10
1.981545664902096
 20
-30.25441446464571
 30
0.0
  0
SPLINE
  5
1A91D
330
1A883
100
AcDbEntity
  8
0
100
AcDbSpline
210
0.0
220
0.0
230
1.0
 70
     8
 71
     3
 72
    12
 73
     8
 74
     0
 42
0.000000001
 43
0.0000000001
 40
3.554077882683469
 40
3.554077882683469
 40
3.554077882683469
 40
3.554077882683469
 40
3.809460694484215
 40
3.809460694484215
 40
4.086485013603741
 40
4.086485013603741
 40
4.093064303627436
 40
4.093064303627436
 40
4.093064303627436
 40
4.093064303627436
 10
-1.981545664902066
 20
-30.25441446464571
 30
0.0
 10
-2.055095825487835
 20
-30.36295802070626
 30
0.0
 10
-2.107276447314205
 20
-30.48139637610337
 30
0.0
 10
-2.15984398820786
 20
-30.73843695486122
 30
0.0
 10
-2.154682823041929
 20
-30.87728670449662
 30
0.0
 10
-2.117038536649411
 20
-31.01239715891461
 30
0.0
 10
-2.116147943227582
 20
-31.01552786042447
 30
0.0
 10
-2.115240146078453
 20
-31.01865472675277
 30
0.0
  0
LINE
  5
1A91E
330
1A883
100
AcDbEntity
  8
0
100
AcDbLine
 10
-1.832213226470212
 20
-30.76878331224863
 30
0.0
 11
-2.115240146078452
 21
-29.79390985536117
 31
0.0
  0
LINE
  5
1A91F
330
1A883
100
AcDbEntity
  8
0
100
AcDbLine
 10
1.832213226470243
 20
-30.76878331224863
 30
0.0
 11
2.115240146078482
 21
-29.79390985536117
 31
0.0
  0
SPLINE
  5
1A920
330
1A883
100
AcDbEntity
  8
0
100
AcDbSpline
210
0.0
220
0.0
230
1.0
 70
     8
 71
     3
 72
    10
 73
     6
 74
     0
 42
0.000000001
 43
0.0000000001
 40
0.6193246767572541
 40
0.6193246767572541
 40
0.6193246767572541
 40
0.6193246767572541
 40
0.9009146851058805
 40
0.9009146851058805
 40
1.15831109770122
 40
1.15831109770122
 40
1.15831109770122
 40
1.15831109770122
 10
2.115240146078484
 20
-29.79390985536117
 30
0.0
 10
2.154093366696737
 20
-29.66008168965963
 30
0.0
 10
2.160420504812764
 20
-29.51888778315181
 30
0.0
 10
2.108094793918024
 20
-29.25852876949142
 30
0.0
 10
2.055675741813298
 20
-29.13906897586459
 30
0.0
 10
1.981545664902096
 20
-29.02966959325412
 30
0.0
  0
SPLINE
  5
1A921
330
1A883
100
AcDbEntity
  8
0
100
AcDbSpline
210
0.0
220
0.0
230
1.0
 70
     8
 71
     3
 72
    12
 73
     8
 74
     0
 42
0.000000001
 43
0.0000000001
 40
3.554077882683469
 40
3.554077882683469
 40
3.554077882683469
 40
3.554077882683469
 40
3.809460694484215
 40
3.809460694484215
 40
4.086485013603741
 40
4.086485013603741
 40
4.093064303627436
 40
4.093064303627436
 40
4.093064303627436
 40
4.093064303627436
 10
-1.981545664902066
 20
-29.02966959325411
 30
0.0
 10
-2.055095825487835
 20
-29.13821314931466
 30
0.0
 10
-2.107276447314206
 20
-29.25665150471179
 30
0.0
 10
-2.15984398820786
 20
-29.51369208346962
 30
0.0
 10
-2.15468282304193
 20
-29.65254183310504
 30
0.0
 10
-2.117038536649412
 20
-29.78765228752302
 30
0.0
 10
-2.116147943227582
 20
-29.79078298903287
 30
0.0
 10
-2.115240146078453
 20
-29.79390985536117
 30
0.0
  0
LINE
  5
1A922
330
1A883
100
AcDbEntity
  8
0
100
AcDbLine
 10
-1.832213226470209
 20
-29.54403844085707
 30
0.0
 11
-2.115240146078452
 21
-28.56916498396957
 31
0.0
  0
LINE
  5
1A923
330
1A883
100
AcDbEntity
  8
0
100
AcDbLine
 10
1.832213226470239
 20
-29.54403844085707
 30
0.0
 11
2.115240146078482
 21
-28.56916498396957
 31
0.0
  0
SPLINE
  5
1A924
330
1A883
100
AcDbEntity
  8
0
100
AcDbSpline
210
0.0
220
0.0
230
1.0
 70
     8
 71
     3
 72
    10
 73
     6
 74
     0
 42
0.000000001
 43
0.0000000001
 40
0.6193246767572541
 40
0.6193246767572541
 40
0.6193246767572541
 40
0.6193246767572541
 40
0.9009146851058805
 40
0.9009146851058805
 40
1.15831109770122
 40
1.15831109770122
 40
1.15831109770122
 40
1.15831109770122
 10
2.115240146078484
 20
-28.56916498396957
 30
0.0
 10
2.154093366696737
 20
-28.43533681826804
 30
0.0
 10
2.160420504812764
 20
-28.29414291176022
 30
0.0
 10
2.108094793918024
 20
-28.03378389809982
 30
0.0
 10
2.055675741813297
 20
-27.914324104473
 30
0.0
 10
1.981545664902096
 20
-27.80492472186253
 30
0.0
  0
SPLINE
  5
1A925
330
1A883
100
AcDbEntity
  8
0
100
AcDbSpline
210
0.0
220
0.0
230
1.0
 70
     8
 71
     3
 72
    12
 73
     8
 74
     0
 42
0.000000001
 43
0.0000000001
 40
3.554077882683469
 40
3.554077882683469
 40
3.554077882683469
 40
3.554077882683469
 40
3.809460694484215
 40
3.809460694484215
 40
4.086485013603741
 40
4.086485013603741
 40
4.093064303627436
 40
4.093064303627436
 40
4.093064303627436
 40
4.093064303627436
 10
-1.981545664902066
 20
-27.80492472186252
 30
0.0
 10
-2.055095825487835
 20
-27.91346827792308
 30
0.0
 10
-2.107276447314206
 20
-28.03190663332019
 30
0.0
 10
-2.159843988207861
 20
-28.28894721207803
 30
0.0
 10
-2.15468282304193
 20
-28.42779696171345
 30
0.0
 10
-2.117038536649412
 20
-28.56290741613142
 30
0.0
 10
-2.116147943227582
 20
-28.56603811764128
 30
0.0
 10
-2.115240146078454
 20
-28.56916498396957
 30
0.0
  0
LINE
  5
1A926
330
1A883
100
AcDbEntity
  8
0
100
AcDbLine
 10
-1.832213226470213
 20
-28.31929356946546
 30
0.0
 11
-2.115240146078453
 21
-27.34442011257799
 31
0.0
  0
LINE
  5
1A927
330
1A883
100
AcDbEntity
  8
0
100
AcDbLine
 10
1.832213226470242
 20
-28.31929356946546
 30
0.0
 11
2.115240146078482
 21
-27.34442011257799
 31
0.0
  0
SPLINE
  5
1A928
330
1A883
100
AcDbEntity
  8
0
100
AcDbSpline
210
0.0
220
0.0
230
1.0
 70
     8
 71
     3
 72
    10
 73
     6
 74
     0
 42
0.000000001
 43
0.0000000001
 40
0.6193246767572541
 40
0.6193246767572541
 40
0.6193246767572541
 40
0.6193246767572541
 40
0.9009146851058805
 40
0.9009146851058805
 40
1.158311097701217
 40
1.158311097701217
 40
1.158311097701217
 40
1.158311097701217
 10
2.115240146078483
 20
-27.34442011257799
 30
0.0
 10
2.154093366696737
 20
-27.21059194687644
 30
0.0
 10
2.160420504812763
 20
-27.06939804036863
 30
0.0
 10
2.108094793918024
 20
-26.80903902670824
 30
0.0
 10
2.055675741813299
 20
-26.68957923308142
 30
0.0
 10
1.981545664902099
 20
-26.58017985047093
 30
0.0
  0
SPLINE
  5
1A929
330
1A883
100
AcDbEntity
  8
0
100
AcDbSpline
210
0.0
220
0.0
230
1.0
 70
     8
 71
     3
 72
    12
 73
     8
 74
     0
 42
0.000000001
 43
0.0000000001
 40
3.554077882683472
 40
3.554077882683472
 40
3.554077882683472
 40
3.554077882683472
 40
3.809460694484215
 40
3.809460694484215
 40
4.086485013603741
 40
4.086485013603741
 40
4.093064303627436
 40
4.093064303627436
 40
4.093064303627436
 40
4.093064303627436
 10
-1.98154566490207
 20
-26.58017985047094
 30
0.0
 10
-2.055095825487837
 20
-26.68872340653149
 30
0.0
 10
-2.107276447314206
 20
-26.80716176192861
 30
0.0
 10
-2.159843988207861
 20
-27.06420234068643
 30
0.0
 10
-2.15468282304193
 20
-27.20305209032185
 30
0.0
 10
-2.117038536649413
 20
-27.33816254473983
 30
0.0
 10
-2.116147943227582
 20
-27.34129324624969
 30
0.0
 10
-2.115240146078454
 20
-27.34442011257799
 30
0.0
  0
LINE
  5
1A92A
330
1A883
100
AcDbEntity
  8
0
100
AcDbLine
 10
-1.832213226470217
 20
-27.09454869807387
 30
0.0
 11
-2.115240146078453
 21
-26.11967524118641
 31
0.0
  0
LINE
  5
1A92B
330
1A883
100
AcDbEntity
  8
0
100
AcDbLine
 10
1.832213226470246
 20
-27.09454869807387
 30
0.0
 11
2.115240146078481
 21
-26.11967524118641
 31
0.0
  0
SPLINE
  5
1A92C
330
1A883
100
AcDbEntity
  8
0
100
AcDbSpline
210
0.0
220
0.0
230
1.0
 70
     8
 71
     3
 72
    10
 73
     6
 74
     0
 42
0.000000001
 43
0.0000000001
 40
0.6193246767571888
 40
0.6193246767571888
 40
0.6193246767571888
 40
0.6193246767571888
 40
0.9009146851058222
 40
0.9009146851058222
 40
1.158311097701217
 40
1.158311097701217
 40
1.158311097701217
 40
1.158311097701217
 10
2.115240146078456
 20
-26.11967524118649
 30
0.0
 10
2.154093366696725
 20
-25.98584707548494
 30
0.0
 10
2.160420504812767
 20
-25.84465316897711
 30
0.0
 10
2.108094793918048
 20
-25.58429415531667
 30
0.0
 10
2.055675741813315
 20
-25.46483436168985
 30
0.0
 10
1.981545664902099
 20
-25.35543497907935
 30
0.0
  0
SPLINE
  5
1A92D
330
1A883
100
AcDbEntity
  8
0
100
AcDbSpline
210
0.0
220
0.0
230
1.0
 70
     8
 71
     3
 72
    12
 73
     8
 74
     0
 42
0.000000001
 43
0.0000000001
 40
3.554077882683472
 40
3.554077882683472
 40
3.554077882683472
 40
3.554077882683472
 40
3.809460694484151
 40
3.809460694484151
 40
4.086485013603683
 40
4.086485013603683
 40
4.0930643036275
 40
4.0930643036275
 40
4.0930643036275
 40
4.0930643036275
 10
-1.98154566490207
 20
-25.35543497907935
 30
0.0
 10
-2.055095825487819
 20
-25.46397853513987
 30
0.0
 10
-2.107276447314181
 20
-25.58241689053696
 30
0.0
 10
-2.159843988207858
 20
-25.83945746929476
 30
0.0
 10
-2.154682823041942
 20
-25.97830721893017
 30
0.0
 10
-2.11703853664942
 20
-26.11341767334822
 30
0.0
 10
-2.116147943227573
 20
-26.11654837485814
 30
0.0
 10
-2.115240146078427
 20
-26.11967524118649
 30
0.0
  0
LINE
  5
1A92E
330
1A883
100
AcDbEntity
  8
0
100
AcDbLine
 10
-1.832213226470218
 20
-25.86980382668227
 30
0.0
 11
-2.115240146078453
 21
-24.89493036979482
 31
0.0
  0
LINE
  5
1A92F
330
1A883
100
AcDbEntity
  8
0
100
AcDbLine
 10
1.832213226470246
 20
-25.86980382668227
 30
0.0
 11
2.115240146078481
 21
-24.89493036979482
 31
0.0
  0
SPLINE
  5
1A930
330
1A883
100
AcDbEntity
  8
0
100
AcDbSpline
210
0.0
220
0.0
230
1.0
 70
     8
 71
     3
 72
    10
 73
     6
 74
     0
 42
0.000000001
 43
0.0000000001
 40
0.6193246767572541
 40
0.6193246767572541
 40
0.6193246767572541
 40
0.6193246767572541
 40
0.9009146851058805
 40
0.9009146851058805
 40
1.15831109770122
 40
1.15831109770122
 40
1.15831109770122
 40
1.15831109770122
 10
2.115240146078483
 20
-24.89493036979482
 30
0.0
 10
2.154093366696737
 20
-24.76110220409328
 30
0.0
 10
2.160420504812763
 20
-24.61990829758546
 30
0.0
 10
2.108094793918024
 20
-24.35954928392507
 30
0.0
 10
2.055675741813296
 20
-24.24008949029824
 30
0.0
 10
1.981545664902095
 20
-24.13069010768777
 30
0.0
  0
SPLINE
  5
1A931
330
1A883
100
AcDbEntity
  8
0
100
AcDbSpline
210
0.0
220
0.0
230
1.0
 70
     8
 71
     3
 72
    12
 73
     8
 74
     0
 42
0.000000001
 43
0.0000000001
 40
3.554077882683469
 40
3.554077882683469
 40
3.554077882683469
 40
3.554077882683469
 40
3.809460694484215
 40
3.809460694484215
 40
4.086485013603741
 40
4.086485013603741
 40
4.093064303627436
 40
4.093064303627436
 40
4.093064303627436
 40
4.093064303627436
 10
-1.981545664902067
 20
-24.13069010768777
 30
0.0
 10
-2.055095825487836
 20
-24.23923366374832
 30
0.0
 10
-2.107276447314206
 20
-24.35767201914543
 30
0.0
 10
-2.159843988207861
 20
-24.61471259790326
 30
0.0
 10
-2.154682823041931
 20
-24.75356234753868
 30
0.0
 10
-2.117038536649413
 20
-24.88867280195666
 30
0.0
 10
-2.116147943227583
 20
-24.89180350346652
 30
0.0
 10
-2.115240146078454
 20
-24.89493036979482
 30
0.0
  0
LINE
  5
1A932
330
1A883
100
AcDbEntity
  8
0
100
AcDbLine
 10
-1.832213226470214
 20
-24.6450589552907
 30
0.0
 11
-2.115240146078453
 21
-23.67018549840322
 31
0.0
  0
LINE
  5
1A933
330
1A883
100
AcDbEntity
  8
0
100
AcDbLine
 10
1.832213226470242
 20
-24.6450589552907
 30
0.0
 11
2.115240146078481
 21
-23.67018549840322
 31
0.0
  0
SPLINE
  5
1A934
330
1A883
100
AcDbEntity
  8
0
100
AcDbSpline
210
0.0
220
0.0
230
1.0
 70
     8
 71
     3
 72
    10
 73
     6
 74
     0
 42
0.000000001
 43
0.0000000001
 40
0.6193246767572541
 40
0.6193246767572541
 40
0.6193246767572541
 40
0.6193246767572541
 40
0.9009146851058805
 40
0.9009146851058805
 40
1.15831109770122
 40
1.15831109770122
 40
1.15831109770122
 40
1.15831109770122
 10
2.115240146078483
 20
-23.67018549840322
 30
0.0
 10
2.154093366696736
 20
-23.53635733270168
 30
0.0
 10
2.160420504812763
 20
-23.39516342619387
 30
0.0
 10
2.108094793918023
 20
-23.13480441253347
 30
0.0
 10
2.055675741813296
 20
-23.01534461890665
 30
0.0
 10
1.981545664902095
 20
-22.90594523629617
 30
0.0
  0
SPLINE
  5
1A935
330
1A883
100
AcDbEntity
  8
0
100
AcDbSpline
210
0.0
220
0.0
230
1.0
 70
     8
 71
     3
 72
    12
 73
     8
 74
     0
 42
0.000000001
 43
0.0000000001
 40
3.554077882683469
 40
3.554077882683469
 40
3.554077882683469
 40
3.554077882683469
 40
3.809460694484215
 40
3.809460694484215
 40
4.086485013603741
 40
4.086485013603741
 40
4.093064303627436
 40
4.093064303627436
 40
4.093064303627436
 40
4.093064303627436
 10
-1.981545664902068
 20
-22.90594523629617
 30
0.0
 10
-2.055095825487836
 20
-23.01448879235673
 30
0.0
 10
-2.107276447314207
 20
-23.13292714775384
 30
0.0
 10
-2.159843988207862
 20
-23.38996772651168
 30
0.0
 10
-2.154682823041931
 20
-23.5288174761471
 30
0.0
 10
-2.117038536649413
 20
-23.66392793056507
 30
0.0
 10
-2.116147943227583
 20
-23.66705863207493
 30
0.0
 10
-2.115240146078455
 20
-23.67018549840322
 30
0.0
  0
LINE
  5
1A936
330
1A883
100
AcDbEntity
  8
0
100
AcDbLine
 10
-1.83221322647021
 20
-23.42031408389912
 30
0.0
 11
-2.115240146078454
 21
-22.44544062701164
 31
0.0
  0
LINE
  5
1A937
330
1A883
100
AcDbEntity
  8
0
100
AcDbLine
 10
1.832213226470238
 20
-23.42031408389912
 30
0.0
 11
2.115240146078481
 21
-22.44544062701164
 31
0.0
  0
SPLINE
  5
1A938
330
1A883
100
AcDbEntity
  8
0
100
AcDbSpline
210
0.0
220
0.0
230
1.0
 70
     8
 71
     3
 72
    10
 73
     6
 74
     0
 42
0.000000001
 43
0.0000000001
 40
0.6193246767572541
 40
0.6193246767572541
 40
0.6193246767572541
 40
0.6193246767572541
 40
0.9009146851058805
 40
0.9009146851058805
 40
1.15831109770122
 40
1.15831109770122
 40
1.15831109770122
 40
1.15831109770122
 10
2.115240146078483
 20
-22.44544062701164
 30
0.0
 10
2.154093366696736
 20
-22.31161246131009
 30
0.0
 10
2.160420504812762
 20
-22.17041855480228
 30
0.0
 10
2.108094793918023
 20
-21.91005954114189
 30
0.0
 10
2.055675741813296
 20
-21.79059974751506
 30
0.0
 10
1.981545664902095
 20
-21.68120036490459
 30
0.0
  0
SPLINE
  5
1A939
330
1A883
100
AcDbEntity
  8
0
100
AcDbSpline
210
0.0
220
0.0
230
1.0
 70
     8
 71
     3
 72
    12
 73
     8
 74
     0
 42
0.000000001
 43
0.0000000001
 40
3.554077882683469
 40
3.554077882683469
 40
3.554077882683469
 40
3.554077882683469
 40
3.809460694484215
 40
3.809460694484215
 40
4.086485013603741
 40
4.086485013603741
 40
4.093064303627436
 40
4.093064303627436
 40
4.093064303627436
 40
4.093064303627436
 10
-1.981545664902068
 20
-21.68120036490458
 30
0.0
 10
-2.055095825487836
 20
-21.78974392096514
 30
0.0
 10
-2.107276447314207
 20
-21.90818227636225
 30
0.0
 10
-2.159843988207862
 20
-22.16522285512008
 30
0.0
 10
-2.154682823041931
 20
-22.3040726047555
 30
0.0
 10
-2.117038536649414
 20
-22.43918305917348
 30
0.0
 10
-2.116147943227584
 20
-22.44231376068334
 30
0.0
 10
-2.115240146078455
 20
-22.44544062701164
 30
0.0
  0
LINE
  5
1A93A
330
1A883
100
AcDbEntity
  8
0
100
AcDbLine
 10
-1.832213226470214
 20
-22.19556921250752
 30
0.0
 11
-2.115240146078454
 21
-21.22069575562004
 31
0.0
  0
LINE
  5
1A93B
330
1A883
100
AcDbEntity
  8
0
100
AcDbLine
 10
1.832213226470241
 20
-22.19556921250752
 30
0.0
 11
2.11524014607848
 21
-21.22069575562004
 31
0.0
  0
SPLINE
  5
1A93C
330
1A883
100
AcDbEntity
  8
0
100
AcDbSpline
210
0.0
220
0.0
230
1.0
 70
     8
 71
     3
 72
    10
 73
     6
 74
     0
 42
0.000000001
 43
0.0000000001
 40
0.6193246767572541
 40
0.6193246767572541
 40
0.6193246767572541
 40
0.6193246767572541
 40
0.9009146851058805
 40
0.9009146851058805
 40
1.158311097701217
 40
1.158311097701217
 40
1.158311097701217
 40
1.158311097701217
 10
2.115240146078482
 20
-21.22069575562004
 30
0.0
 10
2.154093366696736
 20
-21.08686758991851
 30
0.0
 10
2.160420504812762
 20
-20.94567368341068
 30
0.0
 10
2.108094793918023
 20
-20.68531466975028
 30
0.0
 10
2.055675741813297
 20
-20.56585487612347
 30
0.0
 10
1.981545664902098
 20
-20.456455493513
 30
0.0
  0
SPLINE
  5
1A93D
330
1A883
100
AcDbEntity
  8
0
100
AcDbSpline
210
0.0
220
0.0
230
1.0
 70
     8
 71
     3
 72
    12
 73
     8
 74
     0
 42
0.000000001
 43
0.0000000001
 40
3.554077882683472
 40
3.554077882683472
 40
3.554077882683472
 40
3.554077882683472
 40
3.809460694484215
 40
3.809460694484215
 40
4.086485013603741
 40
4.086485013603741
 40
4.093064303627436
 40
4.093064303627436
 40
4.093064303627436
 40
4.093064303627436
 10
-1.981545664902071
 20
-20.456455493513
 30
0.0
 10
-2.055095825487838
 20
-20.56499904957355
 30
0.0
 10
-2.107276447314208
 20
-20.68343740497066
 30
0.0
 10
-2.159843988207862
 20
-20.94047798372849
 30
0.0
 10
-2.154682823041932
 20
-21.07932773336391
 30
0.0
 10
-2.117038536649414
 20
-21.21443818778189
 30
0.0
 10
-2.116147943227584
 20
-21.21756888929174
 30
0.0
 10
-2.115240146078455
 20
-21.22069575562004
 30
0.0
  0
LINE
  5
1A93E
330
1A883
100
AcDbEntity
  8
0
100
AcDbLine
 10
-1.832213226470218
 20
-20.97082434111592
 30
0.0
 11
-2.115240146078454
 21
-19.99595088422846
 31
0.0
  0
LINE
  5
1A93F
330
1A883
100
AcDbEntity
  8
0
100
AcDbLine
 10
1.832213226470245
 20
-20.97082434111592
 30
0.0
 11
2.11524014607848
 21
-19.99595088422846
 31
0.0
  0
SPLINE
  5
1A940
330
1A883
100
AcDbEntity
  8
0
100
AcDbSpline
210
0.0
220
0.0
230
1.0
 70
     8
 71
     3
 72
    10
 73
     6
 74
     0
 42
0.000000001
 43
0.0000000001
 40
0.6193246767571888
 40
0.6193246767571888
 40
0.6193246767571888
 40
0.6193246767571888
 40
0.9009146851058222
 40
0.9009146851058222
 40
1.158311097701217
 40
1.158311097701217
 40
1.158311097701217
 40
1.158311097701217
 10
2.115240146078455
 20
-19.99595088422854
 30
0.0
 10
2.154093366696725
 20
-19.862122718527
 30
0.0
 10
2.160420504812766
 20
-19.72092881201917
 30
0.0
 10
2.108094793918046
 20
-19.46056979835872
 30
0.0
 10
2.055675741813314
 20
-19.3411100047319
 30
0.0
 10
1.981545664902098
 20
-19.2317106221214
 30
0.0
  0
SPLINE
  5
1A941
330
1A883
100
AcDbEntity
  8
0
100
AcDbSpline
210
0.0
220
0.0
230
1.0
 70
     8
 71
     3
 72
    12
 73
     8
 74
     0
 42
0.000000001
 43
0.0000000001
 40
3.554077882683472
 40
3.554077882683472
 40
3.554077882683472
 40
3.554077882683472
 40
3.809460694484151
 40
3.809460694484151
 40
4.086485013603683
 40
4.086485013603683
 40
4.0930643036275
 40
4.0930643036275
 40
4.0930643036275
 40
4.0930643036275
 10
-1.981545664902071
 20
-19.2317106221214
 30
0.0
 10
-2.05509582548782
 20
-19.34025417818192
 30
0.0
 10
-2.107276447314182
 20
-19.45869253357901
 30
0.0
 10
-2.159843988207859
 20
-19.71573311233681
 30
0.0
 10
-2.154682823041943
 20
-19.85458286197223
 30
0.0
 10
-2.117038536649422
 20
-19.98969331639028
 30
0.0
 10
-2.116147943227574
 20
-19.99282401790019
 30
0.0
 10
-2.115240146078428
 20
-19.99595088422854
 30
0.0
  0
LINE
  5
1A942
330
1A883
100
AcDbEntity
  8
0
100
AcDbLine
 10
-1.832213226470218
 20
-19.74607946972433
 30
0.0
 11
-2.115240146078454
 21
-18.77120601283687
 31
0.0
  0
LINE
  5
1A943
330
1A883
100
AcDbEntity
  8
0
100
AcDbLine
 10
1.832213226470245
 20
-19.74607946972433
 30
0.0
 11
2.11524014607848
 21
-18.77120601283687
 31
0.0
  0
SPLINE
  5
1A944
330
1A883
100
AcDbEntity
  8
0
100
AcDbSpline
210
0.0
220
0.0
230
1.0
 70
     8
 71
     3
 72
    10
 73
     6
 74
     0
 42
0.000000001
 43
0.0000000001
 40
0.6193246767572541
 40
0.6193246767572541
 40
0.6193246767572541
 40
0.6193246767572541
 40
0.9009146851058805
 40
0.9009146851058805
 40
1.15831109770122
 40
1.15831109770122
 40
1.15831109770122
 40
1.15831109770122
 10
2.115240146078482
 20
-18.77120601283687
 30
0.0
 10
2.154093366696735
 20
-18.63737784713532
 30
0.0
 10
2.160420504812762
 20
-18.49618394062751
 30
0.0
 10
2.108094793918022
 20
-18.23582492696712
 30
0.0
 10
2.055675741813296
 20
-18.11636513334029
 30
0.0
 10
1.981545664902094
 20
-18.00696575072982
 30
0.0
  0
SPLINE
  5
1A945
330
1A883
100
AcDbEntity
  8
0
100
AcDbSpline
210
0.0
220
0.0
230
1.0
 70
     8
 71
     3
 72
    12
 73
     8
 74
     0
 42
0.000000001
 43
0.0000000001
 40
3.554077882683469
 40
3.554077882683469
 40
3.554077882683469
 40
3.554077882683469
 40
3.809460694484215
 40
3.809460694484215
 40
4.086485013603741
 40
4.086485013603741
 40
4.093064303627436
 40
4.093064303627436
 40
4.093064303627436
 40
4.093064303627436
 10
-1.981545664902068
 20
-18.00696575072982
 30
0.0
 10
-2.055095825487837
 20
-18.11550930679037
 30
0.0
 10
-2.107276447314208
 20
-18.23394766218749
 30
0.0
 10
-2.159843988207863
 20
-18.49098824094532
 30
0.0
 10
-2.154682823041932
 20
-18.62983799058074
 30
0.0
 10
-2.117038536649414
 20
-18.76494844499872
 30
0.0
 10
-2.116147943227584
 20
-18.76807914650857
 30
0.0
 10
-2.115240146078456
 20
-18.77120601283687
 30
0.0
  0
LINE
  5
1A946
330
1A883
100
AcDbEntity
  8
0
100
AcDbLine
 10
-1.832213226470215
 20
-18.52133459833275
 30
0.0
 11
-2.115240146078455
 21
-17.54646114144527
 31
0.0
  0
LINE
  5
1A947
330
1A883
100
AcDbEntity
  8
0
100
AcDbLine
 10
1.832213226470241
 20
-18.52133459833275
 30
0.0
 11
2.11524014607848
 21
-17.54646114144527
 31
0.0
  0
SPLINE
  5
1A948
330
1A883
100
AcDbEntity
  8
0
100
AcDbSpline
210
0.0
220
0.0
230
1.0
 70
     8
 71
     3
 72
    10
 73
     6
 74
     0
 42
0.000000001
 43
0.0000000001
 40
0.6193246767572541
 40
0.6193246767572541
 40
0.6193246767572541
 40
0.6193246767572541
 40
0.9009146851058805
 40
0.9009146851058805
 40
1.15831109770122
 40
1.15831109770122
 40
1.15831109770122
 40
1.15831109770122
 10
2.115240146078481
 20
-17.54646114144527
 30
0.0
 10
2.154093366696735
 20
-17.41263297574374
 30
0.0
 10
2.160420504812762
 20
-17.27143906923592
 30
0.0
 10
2.108094793918022
 20
-17.01108005557552
 30
0.0
 10
2.055675741813295
 20
-16.8916202619487
 30
0.0
 10
1.981545664902093
 20
-16.78222087933823
 30
0.0
  0
SPLINE
  5
1A949
330
1A883
100
AcDbEntity
  8
0
100
AcDbSpline
210
0.0
220
0.0
230
1.0
 70
     8
 71
     3
 72
    12
 73
     8
 74
     0
 42
0.000000001
 43
0.0000000001
 40
3.554077882683469
 40
3.554077882683469
 40
3.554077882683469
 40
3.554077882683469
 40
3.809460694484215
 40
3.809460694484215
 40
4.086485013603741
 40
4.086485013603741
 40
4.093064303627436
 40
4.093064303627436
 40
4.093064303627436
 40
4.093064303627436
 10
-1.981545664902068
 20
-16.78222087933822
 30
0.0
 10
-2.055095825487837
 20
-16.89076443539878
 30
0.0
 10
-2.107276447314208
 20
-17.00920279079589
 30
0.0
 10
-2.159843988207863
 20
-17.26624336955373
 30
0.0
 10
-2.154682823041933
 20
-17.40509311918915
 30
0.0
 10
-2.117038536649414
 20
-17.54020357360712
 30
0.0
 10
-2.116147943227585
 20
-17.54333427511698
 30
0.0
 10
-2.115240146078456
 20
-17.54646114144527
 30
0.0
  0
LINE
  5
1A94A
330
1A883
100
AcDbEntity
  8
0
100
AcDbLine
 10
-1.832213226470211
 20
-17.29658972694118
 30
0.0
 11
-2.115240146078455
 21
-16.32171627005369
 31
0.0
  0
LINE
  5
1A94B
330
1A883
100
AcDbEntity
  8
0
100
AcDbLine
 10
1.832213226470236
 20
-17.29658972694118
 30
0.0
 11
2.11524014607848
 21
-16.32171627005369
 31
0.0
  0
SPLINE
  5
1A94C
330
1A883
100
AcDbEntity
  8
0
100
AcDbSpline
210
0.0
220
0.0
230
1.0
 70
     8
 71
     3
 72
    10
 73
     6
 74
     0
 42
0.000000001
 43
0.0000000001
 40
0.6193246767572571
 40
0.6193246767572571
 40
0.6193246767572571
 40
0.6193246767572571
 40
0.9009146851058831
 40
0.9009146851058831
 40
1.15831109770122
 40
1.15831109770122
 40
1.15831109770122
 40
1.15831109770122
 10
2.115240146078483
 20
-16.32171627005369
 30
0.0
 10
2.154093366696736
 20
-16.18788810435214
 30
0.0
 10
2.160420504812761
 20
-16.04669419784433
 30
0.0
 10
2.108094793918021
 20
-15.78633518418393
 30
0.0
 10
2.055675741813294
 20
-15.66687539055711
 30
0.0
 10
1.981545664902093
 20
-15.55747600794664
 30
0.0
  0
SPLINE
  5
1A94D
330
1A883
100
AcDbEntity
  8
0
100
AcDbSpline
210
0.0
220
0.0
230
1.0
 70
     8
 71
     3
 72
    12
 73
     8
 74
     0
 42
0.000000001
 43
0.0000000001
 40
3.55407788268347
 40
3.55407788268347
 40
3.55407788268347
 40
3.55407788268347
 40
3.809460694484218
 40
3.809460694484218
 40
4.086485013603744
 40
4.086485013603744
 40
4.093064303627432
 40
4.093064303627432
 40
4.093064303627432
 40
4.093064303627432
 10
-1.981545664902069
 20
-15.55747600794663
 30
0.0
 10
-2.055095825487839
 20
-15.66601956400719
 30
0.0
 10
-2.10727644731421
 20
-15.78445791940431
 30
0.0
 10
-2.159843988207863
 20
-16.04149849816214
 30
0.0
 10
-2.154682823041932
 20
-16.18034824779756
 30
0.0
 10
-2.117038536649414
 20
-16.31545870221553
 30
0.0
 10
-2.116147943227586
 20
-16.31858940372539
 30
0.0
 10
-2.115240146078458
 20
-16.32171627005369
 30
0.0
  0
LINE
  5
1A94E
330
1A883
100
AcDbEntity
  8
0
100
AcDbLine
 10
-1.832213226470215
 20
-16.07184485554957
 30
0.0
 11
-2.115240146078455
 21
-15.09697139866209
 31
0.0
  0
LINE
  5
1A94F
330
1A883
100
AcDbEntity
  8
0
100
AcDbLine
 10
1.83221322647024
 20
-16.07184485554957
 30
0.0
 11
2.115240146078479
 21
-15.09697139866209
 31
0.0
  0
SPLINE
  5
1A950
330
1A883
100
AcDbEntity
  8
0
100
AcDbSpline
210
0.0
220
0.0
230
1.0
 70
     8
 71
     3
 72
    10
 73
     6
 74
     0
 42
0.000000001
 43
0.0000000001
 40
0.6193246767572571
 40
0.6193246767572571
 40
0.6193246767572571
 40
0.6193246767572571
 40
0.9009146851058831
 40
0.9009146851058831
 40
1.15831109770122
 40
1.15831109770122
 40
1.15831109770122
 40
1.15831109770122
 10
2.115240146078482
 20
-15.09697139866209
 30
0.0
 10
2.154093366696736
 20
-14.96314323296055
 30
0.0
 10
2.160420504812761
 20
-14.82194932645272
 30
0.0
 10
2.108094793918021
 20
-14.56159031279233
 30
0.0
 10
2.055675741813294
 20
-14.44213051916551
 30
0.0
 10
1.981545664902093
 20
-14.33273113655506
 30
0.0
  0
SPLINE
  5
1A951
330
1A883
100
AcDbEntity
  8
0
100
AcDbSpline
210
0.0
220
0.0
230
1.0
 70
     8
 71
     3
 72
    12
 73
     8
 74
     0
 42
0.000000001
 43
0.0000000001
 40
3.554077882683469
 40
3.554077882683469
 40
3.554077882683469
 40
3.554077882683469
 40
3.809460694484218
 40
3.809460694484218
 40
4.086485013603744
 40
4.086485013603744
 40
4.093064303627432
 40
4.093064303627432
 40
4.093064303627432
 40
4.093064303627432
 10
-1.981545664902069
 20
-14.33273113655506
 30
0.0
 10
-2.055095825487839
 20
-14.44127469261561
 30
0.0
 10
-2.10727644731421
 20
-14.55971304801271
 30
0.0
 10
-2.159843988207863
 20
-14.81675362677054
 30
0.0
 10
-2.154682823041932
 20
-14.95560337640596
 30
0.0
 10
-2.117038536649414
 20
-15.09071383082394
 30
0.0
 10
-2.116147943227586
 20
-15.0938445323338
 30
0.0
 10
-2.115240146078458
 20
-15.09697139866209
 30
0.0
  0
LINE
  5
1A952
330
1A883
100
AcDbEntity
  8
0
100
AcDbLine
 10
-1.832213226470215
 20
-14.84709998415797
 30
0.0
 11
-2.115240146078455
 21
-13.8722265272705
 31
0.0
  0
LINE
  5
1A953
330
1A883
100
AcDbEntity
  8
0
100
AcDbLine
 10
1.83221322647024
 20
-14.84709998415797
 30
0.0
 11
2.115240146078479
 21
-13.8722265272705
 31
0.0
  0
SPLINE
  5
1A954
330
1A883
100
AcDbEntity
  8
0
100
AcDbSpline
210
0.0
220
0.0
230
1.0
 70
     8
 71
     3
 72
    10
 73
     6
 74
     0
 42
0.000000001
 43
0.0000000001
 40
0.6193246767572571
 40
0.6193246767572571
 40
0.6193246767572571
 40
0.6193246767572571
 40
0.9009146851058831
 40
0.9009146851058831
 40
1.158311097701218
 40
1.158311097701218
 40
1.158311097701218
 40
1.158311097701218
 10
2.115240146078482
 20
-13.8722265272705
 30
0.0
 10
2.154093366696735
 20
-13.73839836156896
 30
0.0
 10
2.160420504812761
 20
-13.59720445506113
 30
0.0
 10
2.108094793918021
 20
-13.33684544140073
 30
0.0
 10
2.055675741813294
 20
-13.21738564777392
 30
0.0
 10
1.981545664902095
 20
-13.10798626516346
 30
0.0
  0
SPLINE
  5
1A955
330
1A883
100
AcDbEntity
  8
0
100
AcDbSpline
210
0.0
220
0.0
230
1.0
 70
     8
 71
     3
 72
    12
 73
     8
 74
     0
 42
0.000000001
 43
0.0000000001
 40
3.554077882683471
 40
3.554077882683471
 40
3.554077882683471
 40
3.554077882683471
 40
3.809460694484218
 40
3.809460694484218
 40
4.086485013603744
 40
4.086485013603744
 40
4.093064303627432
 40
4.093064303627432
 40
4.093064303627432
 40
4.093064303627432
 10
-1.98154566490207
 20
-13.10798626516346
 30
0.0
 10
-2.055095825487839
 20
-13.21652982122401
 30
0.0
 10
-2.10727644731421
 20
-13.33496817662112
 30
0.0
 10
-2.159843988207863
 20
-13.59200875537896
 30
0.0
 10
-2.154682823041933
 20
-13.73085850501438
 30
0.0
 10
-2.117038536649415
 20
-13.86596895943236
 30
0.0
 10
-2.116147943227586
 20
-13.86909966094221
 30
0.0
 10
-2.115240146078458
 20
-13.8722265272705
 30
0.0
  0
LINE
  5
1A956
330
1A883
100
AcDbEntity
  8
0
100
AcDbLine
 10
-1.832213226470216
 20
-13.62235511276639
 30
0.0
 11
-2.115240146078456
 21
-12.64748165587892
 31
0.0
  0
LINE
  5
1A957
330
1A883
100
AcDbEntity
  8
0
100
AcDbLine
 10
1.83221322647024
 20
-13.62235511276639
 30
0.0
 11
2.115240146078479
 21
-12.64748165587892
 31
0.0
  0
SPLINE
  5
1A958
330
1A883
100
AcDbEntity
  8
0
100
AcDbSpline
210
0.0
220
0.0
230
1.0
 70
     8
 71
     3
 72
    10
 73
     6
 74
     0
 42
0.000000001
 43
0.0000000001
 40
0.6193246767572571
 40
0.6193246767572571
 40
0.6193246767572571
 40
0.6193246767572571
 40
0.9009146851058831
 40
0.9009146851058831
 40
1.158311097701218
 40
1.158311097701218
 40
1.158311097701218
 40
1.158311097701218
 10
2.115240146078482
 20
-12.64748165587892
 30
0.0
 10
2.154093366696735
 20
-12.51365349017738
 30
0.0
 10
2.160420504812761
 20
-12.37245958366955
 30
0.0
 10
2.10809479391802
 20
-12.11210057000915
 30
0.0
 10
2.055675741813294
 20
-11.99264077638235
 30
0.0
 10
1.981545664902095
 20
-11.88324139377188
 30
0.0
  0
SPLINE
  5
1A959
330
1A883
100
AcDbEntity
  8
0
100
AcDbSpline
210
0.0
220
0.0
230
1.0
 70
     8
 71
     3
 72
    12
 73
     8
 74
     0
 42
0.000000001
 43
0.0000000001
 40
3.554077882683471
 40
3.554077882683471
 40
3.554077882683471
 40
3.554077882683471
 40
3.809460694484218
 40
3.809460694484218
 40
4.086485013603744
 40
4.086485013603744
 40
4.093064303627432
 40
4.093064303627432
 40
4.093064303627432
 40
4.093064303627432
 10
-1.981545664902071
 20
-11.88324139377187
 30
0.0
 10
-2.05509582548784
 20
-11.99178494983243
 30
0.0
 10
-2.10727644731421
 20
-12.11022330522954
 30
0.0
 10
-2.159843988207864
 20
-12.36726388398737
 30
0.0
 10
-2.154682823041933
 20
-12.50611363362279
 30
0.0
 10
-2.117038536649415
 20
-12.64122408804077
 30
0.0
 10
-2.116147943227586
 20
-12.64435478955063
 30
0.0
 10
-2.115240146078458
 20
-12.64748165587892
 30
0.0
  0
LINE
  5
1A95A
330
1A883
100
AcDbEntity
  8
0
100
AcDbLine
 10
-1.832213226470218
 20
-12.3976102413748
 30
0.0
 11
-2.115240146078456
 21
-11.42273678448735
 31
0.0
  0
LINE
  5
1A95B
330
1A883
100
AcDbEntity
  8
0
100
AcDbLine
 10
1.832213226470241
 20
-12.3976102413748
 30
0.0
 11
2.115240146078479
 21
-11.42273678448734
 31
0.0
  0
SPLINE
  5
1A95C
330
1A883
100
AcDbEntity
  8
0
100
AcDbSpline
210
0.0
220
0.0
230
1.0
 70
     8
 71
     3
 72
    10
 73
     6
 74
     0
 42
0.000000001
 43
0.0000000001
 40
0.6193246767572571
 40
0.6193246767572571
 40
0.6193246767572571
 40
0.6193246767572571
 40
0.9009146851058831
 40
0.9009146851058831
 40
1.15831109770122
 40
1.15831109770122
 40
1.15831109770122
 40
1.15831109770122
 10
2.115240146078481
 20
-11.42273678448734
 30
0.0
 10
2.154093366696734
 20
-11.28890861878579
 30
0.0
 10
2.16042050481276
 20
-11.14771471227796
 30
0.0
 10
2.10809479391802
 20
-10.88735569861756
 30
0.0
 10
2.055675741813293
 20
-10.76789590499075
 30
0.0
 10
1.981545664902093
 20
-10.6584965223803
 30
0.0
  0
SPLINE
  5
1A95D
330
1A883
100
AcDbEntity
  8
0
100
AcDbSpline
210
0.0
220
0.0
230
1.0
 70
     8
 71
     3
 72
    12
 73
     8
 74
     0
 42
0.000000001
 43
0.0000000001
 40
3.554077882683469
 40
3.554077882683469
 40
3.554077882683469
 40
3.554077882683469
 40
3.809460694484218
 40
3.809460694484218
 40
4.086485013603744
 40
4.086485013603744
 40
4.093064303627432
 40
4.093064303627432
 40
4.093064303627432
 40
4.093064303627432
 10
-1.98154566490207
 20
-10.65849652238029
 30
0.0
 10
-2.055095825487839
 20
-10.76704007844085
 30
0.0
 10
-2.10727644731421
 20
-10.88547843383795
 30
0.0
 10
-2.159843988207864
 20
-11.14251901259578
 30
0.0
 10
-2.154682823041933
 20
-11.2813687622312
 30
0.0
 10
-2.117038536649415
 20
-11.41647921664918
 30
0.0
 10
-2.116147943227586
 20
-11.41960991815905
 30
0.0
 10
-2.115240146078459
 20
-11.42273678448734
 30
0.0
  0
LINE
  5
1A95E
330
1A883
100
AcDbEntity
  8
0
100
AcDbLine
 10
-1.832213226470216
 20
-11.17286536998322
 30
0.0
 11
-2.115240146078456
 21
-10.19799191309575
 31
0.0
  0
LINE
  5
1A95F
330
1A883
100
AcDbEntity
  8
0
100
AcDbLine
 10
1.832213226470239
 20
-11.17286536998322
 30
0.0
 11
2.115240146078479
 21
-10.19799191309574
 31
0.0
  0
SPLINE
  5
1A960
330
1A883
100
AcDbEntity
  8
0
100
AcDbSpline
210
0.0
220
0.0
230
1.0
 70
     8
 71
     3
 72
    10
 73
     6
 74
     0
 42
0.000000001
 43
0.0000000001
 40
0.6193246767572571
 40
0.6193246767572571
 40
0.6193246767572571
 40
0.6193246767572571
 40
0.9009146851058831
 40
0.9009146851058831
 40
1.15831109770122
 40
1.15831109770122
 40
1.15831109770122
 40
1.15831109770122
 10
2.115240146078481
 20
-10.19799191309574
 30
0.0
 10
2.154093366696734
 20
-10.0641637473942
 30
0.0
 10
2.16042050481276
 20
-9.922969840886377
 30
0.0
 10
2.108094793918019
 20
-9.662610827225979
 30
0.0
 10
2.055675741813293
 20
-9.543151033599155
 30
0.0
 10
1.981545664902093
 20
-9.433751650988702
 30
0.0
  0
SPLINE
  5
1A961
330
1A883
100
AcDbEntity
  8
0
100
AcDbSpline
210
0.0
220
0.0
230
1.0
 70
     8
 71
     3
 72
    12
 73
     8
 74
     0
 42
0.000000001
 43
0.0000000001
 40
3.554077882683469
 40
3.554077882683469
 40
3.554077882683469
 40
3.554077882683469
 40
3.809460694484218
 40
3.809460694484218
 40
4.086485013603744
 40
4.086485013603744
 40
4.093064303627432
 40
4.093064303627432
 40
4.093064303627432
 40
4.093064303627432
 10
-1.98154566490207
 20
-9.433751650988702
 30
0.0
 10
-2.055095825487839
 20
-9.54229520704926
 30
0.0
 10
-2.107276447314211
 20
-9.660733562446361
 30
0.0
 10
-2.159843988207864
 20
-9.917774141204196
 30
0.0
 10
-2.154682823041933
 20
-10.05662389083962
 30
0.0
 10
-2.117038536649415
 20
-10.19173434525759
 30
0.0
 10
-2.116147943227587
 20
-10.19486504676745
 30
0.0
 10
-2.115240146078459
 20
-10.19799191309574
 30
0.0
  0
LINE
  5
1A962
330
1A883
100
AcDbEntity
  8
0
100
AcDbLine
 10
-1.832213226470216
 20
-9.948120498591626
 30
0.0
 11
-2.115240146078456
 21
-8.973247041704164
 31
0.0
  0
LINE
  5
1A963
330
1A883
100
AcDbEntity
  8
0
100
AcDbLine
 10
1.832213226470239
 20
-9.948120498591626
 30
0.0
 11
2.115240146078478
 21
-8.973247041704164
 31
0.0
  0
SPLINE
  5
1A964
330
1A883
100
AcDbEntity
  8
0
100
AcDbSpline
210
0.0
220
0.0
230
1.0
 70
     8
 71
     3
 72
    10
 73
     6
 74
     0
 42
0.000000001
 43
0.0000000001
 40
0.6193246767572571
 40
0.6193246767572571
 40
0.6193246767572571
 40
0.6193246767572571
 40
0.9009146851058831
 40
0.9009146851058831
 40
1.15831109770122
 40
1.15831109770122
 40
1.15831109770122
 40
1.15831109770122
 10
2.115240146078481
 20
-8.973247041704155
 30
0.0
 10
2.154093366696734
 20
-8.839418876002609
 30
0.0
 10
2.16042050481276
 20
-8.698224969494781
 30
0.0
 10
2.108094793918019
 20
-8.437865955834382
 30
0.0
 10
2.055675741813293
 20
-8.318406162207567
 30
0.0
 10
1.981545664902092
 20
-8.209006779597105
 30
0.0
  0
SPLINE
  5
1A965
330
1A883
100
AcDbEntity
  8
0
100
AcDbSpline
210
0.0
220
0.0
230
1.0
 70
     8
 71
     3
 72
    12
 73
     8
 74
     0
 42
0.000000001
 43
0.0000000001
 40
3.554077882683469
 40
3.554077882683469
 40
3.554077882683469
 40
3.554077882683469
 40
3.809460694484218
 40
3.809460694484218
 40
4.086485013603744
 40
4.086485013603744
 40
4.093064303627432
 40
4.093064303627432
 40
4.093064303627432
 40
4.093064303627432
 10
-1.98154566490207
 20
-8.209006779597105
 30
0.0
 10
-2.05509582548784
 20
-8.317550335657664
 30
0.0
 10
-2.107276447314211
 20
-8.435988691054765
 30
0.0
 10
-2.159843988207865
 20
-8.693029269812599
 30
0.0
 10
-2.154682823041933
 20
-8.831879019448027
 30
0.0
 10
-2.117038536649416
 20
-8.966989473866
 30
0.0
 10
-2.116147943227587
 20
-8.970120175375866
 30
0.0
 10
-2.115240146078459
 20
-8.973247041704155
 30
0.0
  0
LINE
  5
1A966
330
1A883
100
AcDbEntity
  8
0
100
AcDbLine
 10
-1.832213226470217
 20
-8.723375627200038
 30
0.0
 11
-2.115240146078456
 21
-7.748502170312567
 31
0.0
  0
LINE
  5
1A967
330
1A883
100
AcDbEntity
  8
0
100
AcDbLine
 10
1.832213226470239
 20
-8.723375627200038
 30
0.0
 11
2.115240146078478
 21
-7.748502170312567
 31
0.0
  0
SPLINE
  5
1A968
330
1A883
100
AcDbEntity
  8
0
100
AcDbSpline
210
0.0
220
0.0
230
1.0
 70
     8
 71
     3
 72
    10
 73
     6
 74
     0
 42
0.000000001
 43
0.0000000001
 40
0.6193246767572571
 40
0.6193246767572571
 40
0.6193246767572571
 40
0.6193246767572571
 40
0.9009146851058831
 40
0.9009146851058831
 40
1.158311097701218
 40
1.158311097701218
 40
1.158311097701218
 40
1.158311097701218
 10
2.115240146078481
 20
-7.748502170312558
 30
0.0
 10
2.154093366696734
 20
-7.614674004611021
 30
0.0
 10
2.160420504812759
 20
-7.473480098103193
 30
0.0
 10
2.108094793918019
 20
-7.213121084442795
 30
0.0
 10
2.055675741813293
 20
-7.093661290815989
 30
0.0
 10
1.981545664902093
 20
-6.984261908205517
 30
0.0
  0
SPLINE
  5
1A969
330
1A883
100
AcDbEntity
  8
0
100
AcDbSpline
210
0.0
220
0.0
230
1.0
 70
     8
 71
     3
 72
    12
 73
     8
 74
     0
 42
0.000000001
 43
0.0000000001
 40
3.554077882683471
 40
3.554077882683471
 40
3.554077882683471
 40
3.554077882683471
 40
3.809460694484218
 40
3.809460694484218
 40
4.086485013603744
 40
4.086485013603744
 40
4.093064303627432
 40
4.093064303627432
 40
4.093064303627432
 40
4.093064303627432
 10
-1.981545664902071
 20
-6.984261908205517
 30
0.0
 10
-2.055095825487841
 20
-7.092805464266076
 30
0.0
 10
-2.107276447314212
 20
-7.211243819663186
 30
0.0
 10
-2.159843988207865
 20
-7.468284398421012
 30
0.0
 10
-2.154682823041933
 20
-7.60713414805644
 30
0.0
 10
-2.117038536649416
 20
-7.742244602474412
 30
0.0
 10
-2.116147943227587
 20
-7.745375303984269
 30
0.0
 10
-2.115240146078459
 20
-7.748502170312558
 30
0.0
  0
LINE
  5
1A96A
330
1A883
100
AcDbEntity
  8
0
100
AcDbLine
 10
-1.832213226470217
 20
-7.49863075580845
 30
0.0
 11
-2.115240146078456
 21
-6.523757298920989
 31
0.0
  0
LINE
  5
1A96B
330
1A883
100
AcDbEntity
  8
0
100
AcDbLine
 10
1.832213226470238
 20
-7.49863075580845
 30
0.0
 11
2.115240146078478
 21
-6.523757298920989
 31
0.0
  0
SPLINE
  5
1A96C
330
1A883
100
AcDbEntity
  8
0
100
AcDbSpline
210
0.0
220
0.0
230
1.0
 70
     8
 71
     3
 72
    10
 73
     6
 74
     0
 42
0.000000001
 43
0.0000000001
 40
0.6193246767572571
 40
0.6193246767572571
 40
0.6193246767572571
 40
0.6193246767572571
 40
0.9009146851058831
 40
0.9009146851058831
 40
1.15831109770122
 40
1.15831109770122
 40
1.15831109770122
 40
1.15831109770122
 10
2.11524014607848
 20
-6.52375729892098
 30
0.0
 10
2.154093366696733
 20
-6.389929133219434
 30
0.0
 10
2.160420504812759
 20
-6.248735226711605
 30
0.0
 10
2.108094793918019
 20
-5.988376213051207
 30
0.0
 10
2.055675741813292
 20
-5.868916419424392
 30
0.0
 10
1.981545664902092
 20
-5.75951703681393
 30
0.0
  0
SPLINE
  5
1A96D
330
1A883
100
AcDbEntity
  8
0
100
AcDbSpline
210
0.0
220
0.0
230
1.0
 70
     8
 71
     3
 72
    12
 73
     8
 74
     0
 42
0.000000001
 43
0.0000000001
 40
3.554077882683469
 40
3.554077882683469
 40
3.554077882683469
 40
3.554077882683469
 40
3.809460694484218
 40
3.809460694484218
 40
4.086485013603744
 40
4.086485013603744
 40
4.093064303627432
 40
4.093064303627432
 40
4.093064303627432
 40
4.093064303627432
 10
-1.981545664902071
 20
-5.75951703681393
 30
0.0
 10
-2.05509582548784
 20
-5.868060592874488
 30
0.0
 10
-2.107276447314212
 20
-5.98649894827159
 30
0.0
 10
-2.159843988207865
 20
-6.243539527029424
 30
0.0
 10
-2.154682823041933
 20
-6.382389276664852
 30
0.0
 10
-2.117038536649416
 20
-6.517499731082825
 30
0.0
 10
-2.116147943227587
 20
-6.520630432592682
 30
0.0
 10
-2.115240146078459
 20
-6.52375729892098
 30
0.0
  0
LINE
  5
1A96E
330
1A883
100
AcDbEntity
  8
0
100
AcDbLine
 10
-1.832213226470217
 20
-6.273885884416863
 30
0.0
 11
-2.115240146078457
 21
-5.299012427529392
 31
0.0
  0
LINE
  5
1A96F
330
1A883
100
AcDbEntity
  8
0
100
AcDbLine
 10
1.832213226470238
 20
-6.273885884416863
 30
0.0
 11
2.115240146078478
 21
-5.299012427529392
 31
0.0
  0
SPLINE
  5
1A970
330
1A883
100
AcDbEntity
  8
0
100
AcDbSpline
210
0.0
220
0.0
230
1.0
 70
     8
 71
     3
 72
    10
 73
     6
 74
     0
 42
0.000000001
 43
0.0000000001
 40
0.6193246767572571
 40
0.6193246767572571
 40
0.6193246767572571
 40
0.6193246767572571
 40
0.9009146851058831
 40
0.9009146851058831
 40
1.158311097701218
 40
1.158311097701218
 40
1.158311097701218
 40
1.158311097701218
 10
2.11524014607848
 20
-5.299012427529383
 30
0.0
 10
2.154093366696733
 20
-5.165184261827837
 30
0.0
 10
2.160420504812759
 20
-5.023990355320009
 30
0.0
 10
2.108094793918018
 20
-4.76363134165961
 30
0.0
 10
2.055675741813293
 20
-4.644171548032804
 30
0.0
 10
1.981545664902093
 20
-4.534772165422342
 30
0.0
  0
SPLINE
  5
1A971
330
1A883
100
AcDbEntity
  8
0
100
AcDbSpline
210
0.0
220
0.0
230
1.0
 70
     8
 71
     3
 72
    12
 73
     8
 74
     0
 42
0.000000001
 43
0.0000000001
 40
3.554077882683471
 40
3.554077882683471
 40
3.554077882683471
 40
3.554077882683471
 40
3.809460694484218
 40
3.809460694484218
 40
4.086485013603744
 40
4.086485013603744
 40
4.093064303627432
 40
4.093064303627432
 40
4.093064303627432
 40
4.093064303627432
 10
-1.981545664902072
 20
-4.534772165422342
 30
0.0
 10
-2.055095825487841
 20
-4.643315721482892
 30
0.0
 10
-2.107276447314212
 20
-4.761754076880011
 30
0.0
 10
-2.159843988207865
 20
-5.018794655637837
 30
0.0
 10
-2.154682823041934
 20
-5.157644405273265
 30
0.0
 10
-2.117038536649417
 20
-5.292754859691237
 30
0.0
 10
-2.116147943227588
 20
-5.295885561201094
 30
0.0
 10
-2.11524014607846
 20
-5.299012427529383
 30
0.0
  0
LINE
  5
1A972
330
1A883
100
AcDbEntity
  8
0
100
AcDbLine
 10
-1.832213226470219
 20
-5.049141013025266
 30
0.0
 11
-2.115240146078457
 21
-4.074267556137805
 31
0.0
  0
LINE
  5
1A973
330
1A883
100
AcDbEntity
  8
0
100
AcDbLine
 10
1.83221322647024
 20
-5.049141013025266
 30
0.0
 11
2.115240146078477
 21
-4.074267556137805
 31
0.0
  0
SPLINE
  5
1A974
330
1A883
100
AcDbEntity
  8
0
100
AcDbSpline
210
0.0
220
0.0
230
1.0
 70
     8
 71
     3
 72
    10
 73
     6
 74
     0
 42
0.000000001
 43
0.0000000001
 40
0.6193246767572571
 40
0.6193246767572571
 40
0.6193246767572571
 40
0.6193246767572571
 40
0.9009146851058831
 40
0.9009146851058831
 40
1.15831109770122
 40
1.15831109770122
 40
1.15831109770122
 40
1.15831109770122
 10
2.11524014607848
 20
-4.074267556137796
 30
0.0
 10
2.154093366696733
 20
-3.940439390436258
 30
0.0
 10
2.160420504812759
 20
-3.79924548392843
 30
0.0
 10
2.108094793918018
 20
-3.538886470268032
 30
0.0
 10
2.055675741813292
 20
-3.419426676641217
 30
0.0
 10
1.981545664902091
 20
-3.310027294030764
 30
0.0
  0
SPLINE
  5
1A975
330
1A883
100
AcDbEntity
  8
0
100
AcDbSpline
210
0.0
220
0.0
230
1.0
 70
     8
 71
     3
 72
    12
 73
     8
 74
     0
 42
0.000000001
 43
0.0000000001
 40
3.554077882683469
 40
3.554077882683469
 40
3.554077882683469
 40
3.554077882683469
 40
3.809460694484218
 40
3.809460694484218
 40
4.086485013603744
 40
4.086485013603744
 40
4.093064303627432
 40
4.093064303627432
 40
4.093064303627432
 40
4.093064303627432
 10
-1.981545664902071
 20
-3.310027294030755
 30
0.0
 10
-2.055095825487841
 20
-3.418570850091313
 30
0.0
 10
-2.107276447314212
 20
-3.537009205488415
 30
0.0
 10
-2.159843988207866
 20
-3.794049784246249
 30
0.0
 10
-2.154682823041934
 20
-3.932899533881677
 30
0.0
 10
-2.117038536649417
 20
-4.06800998829965
 30
0.0
 10
-2.116147943227588
 20
-4.071140689809507
 30
0.0
 10
-2.11524014607846
 20
-4.074267556137796
 30
0.0
  0
LINE
  5
1A976
330
1A883
100
AcDbEntity
  8
0
100
AcDbLine
 10
-1.832213226470218
 20
-3.824396141633688
 30
0.0
 11
-2.115240146078457
 21
-2.849522684746217
 31
0.0
  0
LINE
  5
1A977
330
1A883
100
AcDbEntity
  8
0
100
AcDbLine
 10
1.832213226470238
 20
-3.824396141633688
 30
0.0
 11
2.115240146078477
 21
-2.849522684746217
 31
0.0
  0
SPLINE
  5
1A978
330
1A883
100
AcDbEntity
  8
0
100
AcDbSpline
210
0.0
220
0.0
230
1.0
 70
     8
 71
     3
 72
    10
 73
     6
 74
     0
 42
0.000000001
 43
0.0000000001
 40
0.6193246767572571
 40
0.6193246767572571
 40
0.6193246767572571
 40
0.6193246767572571
 40
0.9009146851058831
 40
0.9009146851058831
 40
1.15831109770122
 40
1.15831109770122
 40
1.15831109770122
 40
1.15831109770122
 10
2.11524014607848
 20
-2.849522684746208
 30
0.0
 10
2.154093366696733
 20
-2.715694519044662
 30
0.0
 10
2.160420504812758
 20
-2.574500612536834
 30
0.0
 10
2.108094793918018
 20
-2.314141598876435
 30
0.0
 10
2.055675741813292
 20
-2.19468180524962
 30
0.0
 10
1.981545664902091
 20
-2.085282422639167
 30
0.0
  0
SPLINE
  5
1A979
330
1A883
100
AcDbEntity
  8
0
100
AcDbSpline
210
0.0
220
0.0
230
1.0
 70
     8
 71
     3
 72
    12
 73
     8
 74
     0
 42
0.000000001
 43
0.0000000001
 40
3.554077882683469
 40
3.554077882683469
 40
3.554077882683469
 40
3.554077882683469
 40
3.809460694484218
 40
3.809460694484218
 40
4.086485013603744
 40
4.086485013603744
 40
4.093064303627432
 40
4.093064303627432
 40
4.093064303627432
 40
4.093064303627432
 10
-1.981545664902071
 20
-2.085282422639167
 30
0.0
 10
-2.055095825487841
 20
-2.193825978699717
 30
0.0
 10
-2.107276447314212
 20
-2.312264334096827
 30
0.0
 10
-2.159843988207866
 20
-2.569304912854661
 30
0.0
 10
-2.154682823041934
 20
-2.708154662490089
 30
0.0
 10
-2.117038536649417
 20
-2.843265116908062
 30
0.0
 10
-2.116147943227588
 20
-2.846395818417919
 30
0.0
 10
-2.11524014607846
 20
-2.849522684746208
 30
0.0
  0
ELLIPSE
  5
1A97A
330
1A883
100
AcDbEntity
  8
0
100
AcDbEllipse
 10
0.0000000000000098
 20
-1.42007777475074
 30
0.0
 11
-2.14474874822095
 21
0.0000000000000001
 31
0.0
210
0.0
220
0.0
230
1.0
 40
0.5773502691896258
 41
0.1660734866401913
 42
2.975519166949601
  0
LINE
  5
1A97B
330
1A883
100
AcDbEntity
  8
0
100
AcDbLine
 10
-1.832213226470218
 20
-2.599651270242091
 30
0.0
 11
-2.115240146078458
 21
-1.62477781335462
 31
0.0
  0
LINE
  5
1A97C
330
1A883
100
AcDbEntity
  8
0
100
AcDbLine
 10
1.832213226470238
 20
-2.599651270242091
 30
0.0
 11
2.115240146078477
 21
-1.62477781335462
 31
0.0
  0
SPLINE
  5
1A97D
330
1A883
100
AcDbEntity
  8
0
100
AcDbSpline
210
0.0
220
0.0
230
1.0
 70
     8
 71
     3
 72
    10
 73
     6
 74
     0
 42
0.000000001
 43
0.0000000001
 40
0.6193246767572571
 40
0.6193246767572571
 40
0.6193246767572571
 40
0.6193246767572571
 40
0.9009146851058831
 40
0.9009146851058831
 40
1.136402995789117
 40
1.136402995789117
 40
1.136402995789117
 40
1.136402995789117
 10
2.11524014607848
 20
-1.624777813354612
 30
0.0
 10
2.154093366696733
 20
-1.490949647653074
 30
0.0
 10
2.160420504812758
 20
-1.349755741145246
 30
0.0
 10
2.110221669405711
 20
-1.099979502084282
 30
0.0
 10
2.064409452776199
 20
-0.9902344305559918
 30
0.0
 10
2.000000000000006
 20
-0.888677626155907
 30
0.0
  0
SPLINE
  5
1A97E
330
1A883
100
AcDbEntity
  8
0
100
AcDbSpline
210
0.0
220
0.0
230
1.0
 70
     8
 71
     3
 72
    12
 73
     8
 74
     0
 42
0.000000001
 43
0.0000000001
 40
3.575985984595581
 40
3.575985984595581
 40
3.575985984595581
 40
3.575985984595581
 40
3.809460694484218
 40
3.809460694484218
 40
4.086485013603744
 40
4.086485013603744
 40
4.093064303627432
 40
4.093064303627432
 40
4.093064303627432
 40
4.093064303627432
 10
-1.999999999999993
 20
-0.8886776261559248
 30
0.0
 10
-2.063858703887998
 20
-0.9893660440894169
 30
0.0
 10
-2.109439557040366
 20
-1.098096464529465
 30
0.0
 10
-2.159843988207866
 20
-1.344560041463065
 30
0.0
 10
-2.154682823041935
 20
-1.483409791098493
 30
0.0
 10
-2.117038536649417
 20
-1.618520245516466
 30
0.0
 10
-2.116147943227589
 20
-1.621650947026322
 30
0.0
 10
-2.11524014607846
 20
-1.624777813354612
 30
0.0
  0
ENDBLK
  5
1A885
330
1A883
100
AcDbEntity
  8
0
100
AcDbBlockEnd
  0
ENDSEC
  0
SECTION
  2
ENTITIES
  0
INSERT
  5
1A97F
330
1F
100
AcDbEntity
  8
0
100
AcDbBlockReference
  2
MKSA440x125-Front
 10
0.0
 20
0.0
 30
0.0
  0
INSERT
  5
1A980
330
1F
100
AcDbEntity
  8
0
100
AcDbBlockReference
  2
MKSA440x125-Top
 10
0.0
 20
-164.75
 30
0.0
  0
INSERT
  5
1A981
330
1F
100
AcDbEntity
  8
0
100
AcDbBlockReference
  2
MKSA440x125-ISO
 10
45.99999999999998
 20
-212.6474777546203
 30
0.0
  0
MTEXT
  5
1A982
330
1F
100
AcDbEntity
  8
0
100
AcDbMText
 10
0.0
 20
-206.5
 30
0.0
 40
4.638888888888888
 41
0.0
 71
     5
 72
     5
  1
MKSA44,0x125
 73
     1
 44
1.0
1001
ACAD
1000
MTEXTBEGIN
1070
    73
1070
     1
1070
    44
1040
1.0
1070
    74
1070
     0
1000
MTEXTEND
  0
ENDSEC
  0
SECTION
  2
OBJECTS
  0
DICTIONARY
  5
C
330
0
100
AcDbDictionary
281
     1
  3
ACAD_CIP_PREVIOUS_PRODUCT_INFO
350
216
  3
ACAD_COLOR
350
6B
  3
ACAD_DETAILVIEWSTYLE
350
21B
  3
ACAD_GROUP
350
D
  3
ACAD_LAYOUT
350
1A
  3
ACAD_MATERIAL
350
6A
  3
ACAD_MLEADERSTYLE
350
12D
  3
ACAD_MLINESTYLE
350
17
  3
ACAD_PLOTSETTINGS
350
19
  3
ACAD_PLOTSTYLENAME
350
E
  3
ACAD_SCALELIST
350
10C
  3
ACAD_SECTIONVIEWSTYLE
350
219
  3
ACAD_TABLESTYLE
350
7E
  3
ACAD_VISUALSTYLE
350
EF
  3
ACDB_RECOMPOSE_DATA
350
1AA85
  3
AcDbVariableDictionary
350
5E
  3
DWGPROPS
350
1AA86
  0
DICTIONARY
  5
1A9D5
330
8
100
AcDbDictionary
280
     1
281
     1
  0
DICTIONARY
  5
1FF
330
2
100
AcDbDictionary
280
     1
281
     1
  3
ACAD_LAYERSTATES
360
200
  0
DICTIONARY
  5
13C
330
10
100
AcDbDictionary
280
     1
281
     1
  0
DICTIONARY
  5
1CE
330
1F
100
AcDbDictionary
280
     1
281
     1
  3
ACAD_LAYOUTSELFREF
360
1A9DD
  0
DICTIONARY
  5
1A986
330
D2
100
AcDbDictionary
280
     1
281
     1
  3
ACAD_LAYOUTSELFREF
360
1A9E6
  0
DICTIONARY
  5
1A988
330
D6
100
AcDbDictionary
280
     1
281
     1
  3
ACAD_LAYOUTSELFREF
360
1A9E9
  0
XRECORD
  5
216
102
{ACAD_REACTORS
330
C
102
}
330
C
100
AcDbXrecord
280
     1
300
ACD
300
2021
300
87393ACD_2021_0F
  0
DICTIONARY
  5
6B
102
{ACAD_REACTORS
330
C
102
}
330
C
100
AcDbDictionary
281
     1
  0
DICTIONARY
  5
21B
102
{ACAD_REACTORS
330
C
102
}
330
C
100
AcDbDictionary
281
     1
  3
Metric50
350
21C
  0
DICTIONARY
  5
D
102
{ACAD_REACTORS
330
C
102
}
330
C
100
AcDbDictionary
281
     1
  0
DICTIONARY
  5
1A
102
{ACAD_REACTORS
330
C
102
}
330
C
100
AcDbDictionary
281
     1
  3
Layout1
350
D3
  3
Layout2
350
D7
  3
Model
350
22
  0
DICTIONARY
  5
6A
102
{ACAD_REACTORS
330
C
102
}
330
C
100
AcDbDictionary
281
     1
  3
ByBlock
350
ED
  3
ByLayer
350
EC
  3
Global
350
EE
  0
DICTIONARY
  5
12D
102
{ACAD_REACTORS
330
C
102
}
330
C
100
AcDbDictionary
281
     1
  3
Standard
350
12E
  0
DICTIONARY
  5
17
102
{ACAD_REACTORS
330
C
102
}
330
C
100
AcDbDictionary
281
     1
  3
Standard
350
18
  0
DICTIONARY
  5
19
102
{ACAD_REACTORS
330
C
102
}
330
C
100
AcDbDictionary
281
     1
  0
ACDBDICTIONARYWDFLT
  5
E
102
{ACAD_REACTORS
330
C
102
}
330
C
100
AcDbDictionary
281
     1
  3
Normal
350
F
100
AcDbDictionaryWithDefault
340
F
  0
DICTIONARY
  5
10C
102
{ACAD_REACTORS
330
C
102
}
330
C
100
AcDbDictionary
281
     1
  3
A0
350
10D
  3
A1
350
1BE
  3
A2
350
1BF
  3
A3
350
1C0
  3
A4
350
1C1
  3
A5
350
1C2
  3
A6
350
1C3
  3
A7
350
1C4
  3
A8
350
1C5
  3
A9
350
1C6
  3
B0
350
1C7
  3
B1
350
1C8
  3
B2
350
1C9
  3
B3
350
1CA
  3
B4
350
1CB
  3
B5
350
1CC
  3
B6
350
1CD
  0
DICTIONARY
  5
219
102
{ACAD_REACTORS
330
C
102
}
330
C
100
AcDbDictionary
281
     1
  3
Metric50
350
21A
  0
DICTIONARY
  5
7E
102
{ACAD_REACTORS
330
C
102
}
330
C
100
AcDbDictionary
281
     1
  3
Standard
350
7F
  0
DICTIONARY
  5
EF
102
{ACAD_REACTORS
330
C
102
}
330
C
100
AcDbDictionary
281
     1
  3
2dWireframe
350
F5
  3
Basic
350
F4
  3
Brighten
350
FB
  3
ColorChange
350
FF
  3
Conceptual
350
F8
  3
Dim
350
FA
  3
EdgeColorOff
350
1E6
  3
Facepattern
350
FE
  3
Flat
350
F0
  3
FlatWithEdges
350
F1
  3
Gouraud
350
F2
  3
GouraudWithEdges
350
F3
  3
Hidden
350
F7
  3
JitterOff
350
1E4
  3
Linepattern
350
FD
  3
OverhangOff
350
1E5
  3
Realistic
350
F9
  3
Shaded
350
1F3
  3
Shaded with edges
350
1F2
  3
Shades of Gray
350
1EF
  3
Sketchy
350
1F0
  3
Thicken
350
FC
  3
Wireframe
350
F6
  3
X-Ray
350
1F1
  0
XRECORD
  5
1AA85
102
{ACAD_REACTORS
330
C
102
}
330
C
100
AcDbXrecord
280
     1
 90
        1
330
7F
  0
DICTIONARY
  5
5E
102
{ACAD_REACTORS
330
C
102
}
330
C
100
AcDbDictionary
281
     1
  3
CANNOSCALE
350
146
  3
CENTEREXE
350
259
  3
CENTERLTYPEFILE
350
25A
  3
CMLEADERSTYLE
350
145
  3
CTABLESTYLE
350
84
  3
CVIEWDETAILSTYLE
350
227
  3
CVIEWSECTIONSTYLE
350
228
  3
DIMASSOC
350
5F
  3
HIDETEXT
350
63
  3
INDEXCTL
350
1AA32
  3
LAYEREVAL
350
1AE
  3
LAYERNOTIFY
350
1AF
  3
LIGHTINGUNITS
350
1AA30
  3
MSLTSCALE
350
1AA2F
  3
PSOLHEIGHT
350
1AA82
  3
PSOLWIDTH
350
1AA81
  3
SORTENTS
350
1AA31
  3
XCLIPFRAME
350
1AA83
  0
XRECORD
  5
1AA86
102
{ACAD_REACTORS
330
C
102
}
330
C
100
AcDbXrecord
280
     1
  1
DWGPROPS COOKIE
  2

  3

  4

  6

  7

  8
truole
  9

300
=
301
=
302
=
303
=
304
=
305
=
306
=
307
=
308
=
309
=
 40
0.0027546296296296
 41
2460733.571354167
 42
2460733.603136574
  1

 90
        0
  0
DICTIONARY
  5
200
102
{ACAD_REACTORS
330
1FF
102
}
330
1FF
100
AcDbDictionary
281
     1
  0
XRECORD
  5
1A9DD
102
{ACAD_REACTORS
330
1CE
102
}
330
1CE
100
AcDbXrecord
280
     1
340
1F
  0
XRECORD
  5
1A9E6
102
{ACAD_REACTORS
330
1A986
102
}
330
1A986
100
AcDbXrecord
280
     1
340
D2
  0
XRECORD
  5
1A9E9
102
{ACAD_REACTORS
330
1A988
102
}
330
1A988
100
AcDbXrecord
280
     1
340
D6
  0
ACDBDETAILVIEWSTYLE
  5
21C
102
{ACAD_XDICTIONARY
360
1AAC5
102
}
102
{ACAD_REACTORS
330
21B
102
}
330
21B
100
AcDbModelDocViewStyle
 70
     0
  3
Metric50
290
     0
100
AcDbDetailViewStyle
 70
     0
 71
     0
 90
        3
 71
     1
340
11
 40
5.0
340
0
 40
5.0
300

 40
0.0
280
     1
 71
     2
340
16
 90
       25
 71
     3
340
11
 40
5.0
 90
        0
 40
15.0
 90
        1
300
%<\AcVar ViewDetailId>% (%<\AcVar ViewScale \f "%sn">%)
 71
     4
340
16
 90
       25
340
16
 90
       25
280
     0
  0
LAYOUT
  5
D3
102
{ACAD_XDICTIONARY
360
1AA8A
102
}
102
{ACAD_REACTORS
330
1A
102
}
330
1A
100
AcDbPlotSettings
  1

  2
C:\Documents and Settings\basas\Application Data\Autodesk\AutoCAD 2005\R16.1\enu\plotters\Default Windows System Printer.pc3
  4

  6

 40
0.0
 41
0.0
 42
0.0
 43
0.0
 44
0.0
 45
0.0
 46
0.0
 47
0.0
 48
0.0
 49
0.0
140
0.0
141
0.0
142
1.0
143
1.0
 70
   688
 72
     0
 73
     0
 74
     5
  7

 75
    16
147
1.0
148
0.0
149
0.0
100
AcDbLayout
  1
Layout1
 70
     1
 71
     1
 10
0.0
 20
0.0
 11
12.0
 21
9.0
 12
0.0
 22
0.0
 32
0.0
 14
0.0
 24
0.0
 34
0.0
 15
0.0
 25
0.0
 35
0.0
146
0.0
 13
0.0
 23
0.0
 33
0.0
 16
1.0
 26
0.0
 36
0.0
 17
0.0
 27
1.0
 37
0.0
 76
     0
330
D2
  0
LAYOUT
  5
D7
102
{ACAD_XDICTIONARY
360
1AA8C
102
}
102
{ACAD_REACTORS
330
1A
102
}
330
1A
100
AcDbPlotSettings
  1

  2
C:\Documents and Settings\basas\Application Data\Autodesk\AutoCAD 2005\R16.1\enu\plotters\Default Windows System Printer.pc3
  4

  6

 40
0.0
 41
0.0
 42
0.0
 43
0.0
 44
0.0
 45
0.0
 46
0.0
 47
0.0
 48
0.0
 49
0.0
140
0.0
141
0.0
142
1.0
143
1.0
 70
   688
 72
     0
 73
     0
 74
     5
  7

 75
    16
147
1.0
148
0.0
149
0.0
100
AcDbLayout
  1
Layout2
 70
     1
 71
     2
 10
0.0
 20
0.0
 11
12.0
 21
9.0
 12
0.0
 22
0.0
 32
0.0
 14
0.0
 24
0.0
 34
0.0
 15
0.0
 25
0.0
 35
0.0
146
0.0
 13
0.0
 23
0.0
 33
0.0
 16
1.0
 26
0.0
 36
0.0
 17
0.0
 27
1.0
 37
0.0
 76
     0
330
D6
  0
LAYOUT
  5
22
102
{ACAD_XDICTIONARY
360
1AA87
102
}
102
{ACAD_REACTORS
330
1A
102
}
330
1A
100
AcDbPlotSettings
  1

  2
none_device
  4
ISO_A4_(210.00_x_297.00_MM)
  6

 40
7.5
 41
20.0
 42
7.5
 43
20.0
 44
210.0
 45
297.0
 46
11.54999923706054
 47
-13.65000009536743
 48
0.0
 49
0.0
140
0.0
141
0.0
142
1.0
143
8.704084754739808
 70
 11952
 72
     1
 73
     0
 74
     0
  7

 75
     0
147
0.1148885871608098
148
0.0
149
0.0
100
AcDbLayout
  1
Model
 70
     1
 71
     0
 10
0.0
 20
0.0
 11
12.0
 21
9.0
 12
0.0
 22
0.0
 32
0.0
 14
0.0
 24
0.0
 34
0.0
 15
0.0
 25
0.0
 35
0.0
146
0.0
 13
0.0
 23
0.0
 33
0.0
 16
1.0
 26
0.0
 36
0.0
 17
0.0
 27
1.0
 37
0.0
 76
     0
330
1F
331
EA
1001
ACAD_PSEXT
1000
None
1000
None
1000
Not applicable
1000
The layout will not be plotted unless a new plotter configuration name is selected.
1070
     0
  0
MATERIAL
  5
ED
102
{ACAD_XDICTIONARY
360
1F9
102
}
102
{ACAD_REACTORS
330
6A
102
}
330
6A
100
AcDbMaterial
  1
ByBlock
  0
MATERIAL
  5
EC
102
{ACAD_XDICTIONARY
360
1F7
102
}
102
{ACAD_REACTORS
330
6A
102
}
330
6A
100
AcDbMaterial
  1
ByLayer
  0
MATERIAL
  5
EE
102
{ACAD_XDICTIONARY
360
173
102
}
102
{ACAD_REACTORS
330
6A
102
}
330
6A
100
AcDbMaterial
  1
Global
 43
0.0007999999797903
 43
0.0
 43
0.0
 43
0.0
 43
0.0
 43
0.0007999999797903
 43
0.0
 43
0.0
 43
0.0
 43
0.0
 43
1.0
 43
0.0
 43
0.0
 43
0.0
 43
0.0
 43
1.0
 49
0.0007999999797903
 49
0.0
 49
0.0
 49
0.0
 49
0.0
 49
0.0007999999797903
 49
0.0
 49
0.0
 49
0.0
 49
0.0
 49
1.0
 49
0.0
 49
0.0
 49
0.0
 49
0.0
 49
1.0
142
0.0007999999797903
142
0.0
142
0.0
142
0.0
142
0.0
142
0.0007999999797903
142
0.0
142
0.0
142
0.0
142
0.0
142
1.0
142
0.0
142
0.0
142
0.0
142
0.0
142
1.0
144
0.0007999999797903
144
0.0
144
0.0
144
0.0
144
0.0
144
0.0007999999797903
144
0.0
144
0.0
144
0.0
144
0.0
144
1.0
144
0.0
144
0.0
144
0.0
144
0.0
144
1.0
1001
ACAD
1070
    -1
1070
     3
1070
     0
1000

1071
        0
1070
     0
  0
MLEADERSTYLE
  5
12E
102
{ACAD_XDICTIONARY
360
1AAB1
102
}
102
{ACAD_REACTORS
330
12D
102
}
330
12D
100
AcDbMLeaderStyle
170
     2
171
     1
172
     0
 90
        2
 40
0.0
 41
0.0
173
     1
 91
-1056964608
340
14
 92
       -2
290
     1
 42
2.0
291
     1
 43
8.0
  3
Standard
 44
4.0
300

342
11
174
     1
178
     1
175
     1
176
     0
 93
-1056964608
 45
4.0
292
     0
297
     0
 46
4.0
 94
-1056964608
 47
1.0
 49
1.0
140
1.0
293
     1
141
0.0
294
     1
177
     0
142
1.0
295
     0
296
     0
143
3.75
1001
ACAD_MLEADERVER
1070
     2
  0
MLINESTYLE
  5
18
102
{ACAD_REACTORS
330
17
102
}
330
17
100
AcDbMlineStyle
  2
STANDARD
 70
     0
  3

 62
   256
 51
90.0
 52
90.0
 71
     2
 49
0.5
 62
   256
  6
BYLAYER
 49
-0.5
 62
   256
  6
BYLAYER
  0
ACDBPLACEHOLDER
  5
F
102
{ACAD_REACTORS
330
E
102
}
330
E
  0
SCALE
  5
10D
102
{ACAD_REACTORS
330
10C
102
}
330
10C
100
AcDbScale
 70
     0
300
1:1
140
1.0
141
1.0
290
     1
  0
SCALE
  5
1BE
102
{ACAD_REACTORS
330
10C
102
}
330
10C
100
AcDbScale
 70
     0
300
1:2
140
1.0
141
2.0
290
     0
  0
SCALE
  5
1BF
102
{ACAD_REACTORS
330
10C
102
}
330
10C
100
AcDbScale
 70
     0
300
1:4
140
1.0
141
4.0
290
     0
  0
SCALE
  5
1C0
102
{ACAD_REACTORS
330
10C
102
}
330
10C
100
AcDbScale
 70
     0
300
1:5
140
1.0
141
5.0
290
     0
  0
SCALE
  5
1C1
102
{ACAD_REACTORS
330
10C
102
}
330
10C
100
AcDbScale
 70
     0
300
1:8
140
1.0
141
8.0
290
     0
  0
SCALE
  5
1C2
102
{ACAD_REACTORS
330
10C
102
}
330
10C
100
AcDbScale
 70
     0
300
1:10
140
1.0
141
10.0
290
     0
  0
SCALE
  5
1C3
102
{ACAD_REACTORS
330
10C
102
}
330
10C
100
AcDbScale
 70
     0
300
1:16
140
1.0
141
16.0
290
     0
  0
SCALE
  5
1C4
102
{ACAD_REACTORS
330
10C
102
}
330
10C
100
AcDbScale
 70
     0
300
1:20
140
1.0
141
20.0
290
     0
  0
SCALE
  5
1C5
102
{ACAD_REACTORS
330
10C
102
}
330
10C
100
AcDbScale
 70
     0
300
1:30
140
1.0
141
30.0
290
     0
  0
SCALE
  5
1C6
102
{ACAD_REACTORS
330
10C
102
}
330
10C
100
AcDbScale
 70
     0
300
1:40
140
1.0
141
40.0
290
     0
  0
SCALE
  5
1C7
102
{ACAD_REACTORS
330
10C
102
}
330
10C
100
AcDbScale
 70
     0
300
1:50
140
1.0
141
50.0
290
     0
  0
SCALE
  5
1C8
102
{ACAD_REACTORS
330
10C
102
}
330
10C
100
AcDbScale
 70
     0
300
1:100
140
1.0
141
100.0
290
     0
  0
SCALE
  5
1C9
102
{ACAD_REACTORS
330
10C
102
}
330
10C
100
AcDbScale
 70
     0
300
2:1
140
2.0
141
1.0
290
     0
  0
SCALE
  5
1CA
102
{ACAD_REACTORS
330
10C
102
}
330
10C
100
AcDbScale
 70
     0
300
4:1
140
4.0
141
1.0
290
     0
  0
SCALE
  5
1CB
102
{ACAD_REACTORS
330
10C
102
}
330
10C
100
AcDbScale
 70
     0
300
8:1
140
8.0
141
1.0
290
     0
  0
SCALE
  5
1CC
102
{ACAD_REACTORS
330
10C
102
}
330
10C
100
AcDbScale
 70
     0
300
10:1
140
10.0
141
1.0
290
     0
  0
SCALE
  5
1CD
102
{ACAD_REACTORS
330
10C
102
}
330
10C
100
AcDbScale
 70
     0
300
100:1
140
100.0
141
1.0
290
     0
  0
ACDBSECTIONVIEWSTYLE
  5
21A
102
{ACAD_XDICTIONARY
360
1AAC3
102
}
102
{ACAD_REACTORS
330
219
102
}
330
219
100
AcDbModelDocViewStyle
 70
     0
  3
Metric50
290
     0
100
AcDbSectionViewStyle
 70
     0
 71
     0
 90
      102
 71
     1
340
11
 40
5.0
340
0
340
0
 40
5.0
300
I, O, Q, S, X, Z
 40
10.0
 90
        0
 40
2.5
 90
        0
 71
     2
340
16
 90
       25
340
16
 90
       50
 40
5.0
 40
2.5
 40
5.0
 71
     3
340
11
 40
5.0
 90
        0
 40
15.0
 90
        1
300
%<\AcVar ViewSectionStartId>%-%<\AcVar ViewSectionEndId>% (%<\AcVar ViewScale \f "%sn">%)
 71
     4
300
ANSI31
 40
1.0
 90
        0
290
     0
290
     0
 90
        6
 40
0.0
 40
1.570796326794896
 40
0.2617993877991494
 40
1.308996938995747
 40
-0.2617993877991494
 40
1.832595714594046
  0
TABLESTYLE
  5
7F
102
{ACAD_XDICTIONARY
360
162
102
}
102
{ACAD_REACTORS
330
7E
102
}
330
7E
100
AcDbTableStyle
  3
Standard
 70
     0
 71
     0
 40
1.5
 41
1.5
280
     0
281
     0
  7
Standard
140
4.5
170
     2
 62
     0
 63
     7
283
     0
274
    -2
284
     1
 64
     0
275
    -2
285
     1
 65
     0
276
    -2
286
     1
 66
     0
277
    -2
287
     1
 67
     0
278
    -2
288
     1
 68
     0
279
    -2
289
     1
 69
     0
  7
Standard
140
6.0
170
     5
 62
     0
 63
     7
283
     0
274
    -2
284
     1
 64
     0
275
    -2
285
     1
 65
     0
276
    -2
286
     1
 66
     0
277
    -2
287
     1
 67
     0
278
    -2
288
     1
 68
     0
279
    -2
289
     1
 69
     0
  7
Standard
140
4.5
170
     5
 62
     0
 63
     7
283
     0
274
    -2
284
     1
 64
     0
275
    -2
285
     1
 65
     0
276
    -2
286
     1
 66
     0
277
    -2
287
     1
 67
     0
278
    -2
288
     1
 68
     0
279
    -2
289
     1
 69
     0
  0
VISUALSTYLE
  5
F5
102
{ACAD_XDICTIONARY
360
1AA9B
102
}
102
{ACAD_REACTORS
330
EF
102
}
330
EF
100
AcDbVisualStyle
  2
2dWireframe
 70
     4
 71
     0
 72
     2
 73
     1
 90
        0
 40
-0.6
 41
-30.0
 62
     5
 63
     7
 74
     1
 91
        4
 64
     7
 65
   257
 75
     1
175
     1
 42
1.0
 92
        0
 66
   257
 43
1.0
 76
     1
 77
     6
 78
     2
 67
     7
 79
     5
170
     0
171
     0
290
     0
174
     0
 93
        1
 44
0.0
173
     0
291
     0
 45
0.0
1001
ACAD
1000
AcDbSavedByObjectVersion
1070
     0
  0
VISUALSTYLE
  5
F4
102
{ACAD_XDICTIONARY
360
1AA99
102
}
102
{ACAD_REACTORS
330
EF
102
}
330
EF
100
AcDbVisualStyle
  2
Basic
 70
     7
 71
     1
 72
     0
 73
     1
 90
        0
 40
-0.6
 41
-30.0
 62
     5
 63
     7
 74
     0
 91
        4
 64
     7
 65
   257
 75
     1
175
     1
 42
1.0
 92
        8
 66
     7
 43
1.0
 76
     1
 77
     6
 78
     2
 67
     7
 79
     5
170
     0
171
     0
290
     0
174
     0
 93
        1
 44
0.0
173
     0
291
     1
 45
0.0
1001
ACAD
1000
AcDbSavedByObjectVersion
1070
     0
  0
VISUALSTYLE
  5
FB
102
{ACAD_XDICTIONARY
360
1AAA7
102
}
102
{ACAD_REACTORS
330
EF
102
}
330
EF
100
AcDbVisualStyle
  2
Brighten
 70
    12
 71
     2
 72
     2
 73
     1
 90
        0
 40
-0.6
 41
-30.0
 62
     5
 63
     7
 74
     1
 91
        4
 64
     7
 65
   257
 75
     1
175
     1
 42
1.0
 92
        8
 66
     7
 43
1.0
 76
     1
 77
     6
 78
     2
 67
     7
 79
     5
170
     0
171
     0
290
     0
174
     0
 93
        1
 44
50.0
173
     0
291
     1
 45
0.0
1001
ACAD
1000
AcDbSavedByObjectVersion
1070
     0
  0
VISUALSTYLE
  5
FF
102
{ACAD_XDICTIONARY
360
1AAAF
102
}
102
{ACAD_REACTORS
330
EF
102
}
330
EF
100
AcDbVisualStyle
  2
ColorChange
 70
    16
 71
     2
 72
     2
 73
     3
 90
        0
 40
-0.6
 41
-30.0
 62
     5
 63
     8
 74
     1
 91
        4
 64
     7
 65
   257
 75
     1
175
     1
 42
1.0
 92
        8
 66
     8
 43
1.0
 76
     1
 77
     6
 78
     2
 67
     7
 79
     5
170
     0
171
     0
290
     0
174
     0
 93
        1
 44
0.0
173
     0
291
     1
 45
0.0
1001
ACAD
1000
AcDbSavedByObjectVersion
1070
     0
  0
VISUALSTYLE
  5
F8
102
{ACAD_XDICTIONARY
360
1AAA1
102
}
102
{ACAD_REACTORS
330
EF
102
}
330
EF
100
AcDbVisualStyle
  2
Conceptual
 70
     9
 71
     3
 72
     2
 73
     1
 90
        0
 40
-0.6
 41
-30.0
 62
     5
 63
     7
 74
     2
 91
        2
 64
     7
 65
   257
 75
     1
175
     1
 42
40.0
 92
        8
 66
     7
 43
1.0
 76
     1
 77
     6
 78
     2
 67
     7
 79
     3
170
     0
171
     0
290
     0
174
     0
 93
        1
 44
0.0
173
     0
291
     0
 45
0.0
1001
ACAD
1000
AcDbSavedByObjectVersion
1070
     0
  0
VISUALSTYLE
  5
FA
102
{ACAD_XDICTIONARY
360
1AAA5
102
}
102
{ACAD_REACTORS
330
EF
102
}
330
EF
100
AcDbVisualStyle
  2
Dim
 70
    11
 71
     2
 72
     2
 73
     1
 90
        0
 40
-0.6
 41
-30.0
 62
     5
 63
     7
 74
     1
 91
        4
 64
     7
 65
   257
 75
     1
175
     1
 42
1.0
 92
        8
 66
     7
 43
1.0
 76
     1
 77
     6
 78
     2
 67
     7
 79
     5
170
     0
171
     0
290
     0
174
     0
 93
        1
 44
-50.0
173
     0
291
     1
 45
0.0
1001
ACAD
1000
AcDbSavedByObjectVersion
1070
     0
  0
VISUALSTYLE
  5
1E6
102
{ACAD_XDICTIONARY
360
1AAB7
102
}
102
{ACAD_REACTORS
330
EF
102
}
330
EF
100
AcDbVisualStyle
  2
EdgeColorOff
 70
    22
 71
     2
 72
     2
 73
     0
 90
        0
 40
-0.6
 41
-30.0
 62
     5
 63
     7
 74
     1
 91
        4
 64
     7
 65
   257
 75
     1
175
     1
 42
1.0
 92
        8
 66
     7
 43
1.0
 76
     1
 77
     6
 78
     2
 67
     7
 79
     5
170
     0
171
     0
290
     0
174
     0
 93
        1
 44
0.0
173
     0
291
     1
 45
0.0
1001
ACAD
1000
AcDbSavedByObjectVersion
1070
     0
  0
VISUALSTYLE
  5
FE
102
{ACAD_XDICTIONARY
360
1AAAD
102
}
102
{ACAD_REACTORS
330
EF
102
}
330
EF
100
AcDbVisualStyle
  2
Facepattern
 70
    15
 71
     2
 72
     2
 73
     1
 90
        0
 40
-0.6
 41
-30.0
 62
     5
 63
     7
 74
     1
 91
        4
 64
     7
 65
   257
 75
     1
175
     1
 42
1.0
 92
        8
 66
     7
 43
1.0
 76
     1
 77
     6
 78
     2
 67
     7
 79
     5
170
     0
171
     0
290
     0
174
     0
 93
        1
 44
0.0
173
     0
291
     1
 45
0.0
1001
ACAD
1000
AcDbSavedByObjectVersion
1070
     0
  0
VISUALSTYLE
  5
F0
102
{ACAD_XDICTIONARY
360
1AA91
102
}
102
{ACAD_REACTORS
330
EF
102
}
330
EF
100
AcDbVisualStyle
  2
Flat
 70
     0
 71
     2
 72
     1
 73
     1
 90
        2
 40
-0.6
 41
30.0
 62
     5
 63
     7
 74
     0
 91
        0
 64
     7
 65
   257
 75
     1
175
     1
 42
1.0
 92
        8
 66
     7
 43
1.0
 76
     1
 77
     6
 78
     2
 67
     7
 79
     5
170
     0
171
     0
290
     0
174
     0
 93
       13
 44
0.0
173
     0
291
     1
 45
0.0
1001
ACAD
1000
AcDbSavedByObjectVersion
1070
     0
  0
VISUALSTYLE
  5
F1
102
{ACAD_XDICTIONARY
360
1AA93
102
}
102
{ACAD_REACTORS
330
EF
102
}
330
EF
100
AcDbVisualStyle
  2
FlatWithEdges
 70
     1
 71
     2
 72
     1
 73
     1
 90
        2
 40
-0.6
 41
30.0
 62
     5
 63
     7
 74
     1
 91
        0
 64
     7
 65
   257
 75
     1
175
     1
 42
1.0
 92
        0
 66
   257
 43
1.0
 76
     1
 77
     6
 78
     2
 67
     7
 79
     5
170
     0
171
     0
290
     0
174
     0
 93
       13
 44
0.0
173
     0
291
     1
 45
0.0
1001
ACAD
1000
AcDbSavedByObjectVersion
1070
     0
  0
VISUALSTYLE
  5
F2
102
{ACAD_XDICTIONARY
360
1AA95
102
}
102
{ACAD_REACTORS
330
EF
102
}
330
EF
100
AcDbVisualStyle
  2
Gouraud
 70
     2
 71
     2
 72
     2
 73
     1
 90
        2
 40
-0.6
 41
30.0
 62
     5
 63
     7
 74
     0
 91
        0
 64
     7
 65
   257
 75
     1
175
     1
 42
1.0
 92
        0
 66
     7
 43
1.0
 76
     1
 77
     6
 78
     2
 67
     7
 79
     5
170
     0
171
     0
290
     0
174
     0
 93
       13
 44
0.0
173
     0
291
     1
 45
0.0
1001
ACAD
1000
AcDbSavedByObjectVersion
1070
     0
  0
VISUALSTYLE
  5
F3
102
{ACAD_XDICTIONARY
360
1AA97
102
}
102
{ACAD_REACTORS
330
EF
102
}
330
EF
100
AcDbVisualStyle
  2
GouraudWithEdges
 70
     3
 71
     2
 72
     2
 73
     1
 90
        2
 40
-0.6
 41
30.0
 62
     5
 63
     7
 74
     1
 91
        0
 64
     7
 65
   257
 75
     1
175
     1
 42
1.0
 92
        0
 66
   257
 43
1.0
 76
     1
 77
     6
 78
     2
 67
     7
 79
     5
170
     0
171
     0
290
     0
174
     0
 93
       13
 44
0.0
173
     0
291
     1
 45
0.0
1001
ACAD
1000
AcDbSavedByObjectVersion
1070
     0
  0
VISUALSTYLE
  5
F7
102
{ACAD_XDICTIONARY
360
1AA9F
102
}
102
{ACAD_REACTORS
330
EF
102
}
330
EF
100
AcDbVisualStyle
  2
Hidden
 70
     6
 71
     1
 72
     2
 73
     2
 90
        0
 40
-0.6
 41
-30.0
 62
     5
 63
     7
 74
     2
 91
        2
 64
     7
 65
   257
 75
     2
175
     1
 42
40.0
 92
        0
 66
   257
 43
1.0
 76
     1
 77
     6
 78
     2
 67
     7
 79
     3
170
     0
171
     0
290
     0
174
     0
 93
        1
 44
0.0
173
     0
291
     0
 45
0.0
1001
ACAD
1000
AcDbSavedByObjectVersion
1070
     0
  0
VISUALSTYLE
  5
1E4
102
{ACAD_XDICTIONARY
360
1AAB3
102
}
102
{ACAD_REACTORS
330
EF
102
}
330
EF
100
AcDbVisualStyle
  2
JitterOff
 70
    20
 71
     2
 72
     2
 73
     0
 90
        0
 40
-0.6
 41
-30.0
 62
     5
 63
     7
 74
     1
 91
        4
 64
     7
 65
   257
 75
     1
175
     1
 42
1.0
 92
       10
 66
     7
 43
1.0
 76
     1
 77
     6
 78
     2
 67
     7
 79
     5
170
     0
171
     0
290
     0
174
     0
 93
        1
 44
0.0
173
     0
291
     1
 45
0.0
1001
ACAD
1000
AcDbSavedByObjectVersion
1070
     0
  0
VISUALSTYLE
  5
FD
102
{ACAD_XDICTIONARY
360
1AAAB
102
}
102
{ACAD_REACTORS
330
EF
102
}
330
EF
100
AcDbVisualStyle
  2
Linepattern
 70
    14
 71
     2
 72
     2
 73
     1
 90
        0
 40
-0.6
 41
-30.0
 62
     5
 63
     7
 74
     1
 91
        4
 64
     7
 65
   257
 75
     7
175
     7
 42
1.0
 92
        8
 66
     7
 43
1.0
 76
     1
 77
     6
 78
     2
 67
     7
 79
     5
170
     0
171
     0
290
     0
174
     0
 93
        1
 44
0.0
173
     0
291
     1
 45
0.0
1001
ACAD
1000
AcDbSavedByObjectVersion
1070
     0
  0
VISUALSTYLE
  5
1E5
102
{ACAD_XDICTIONARY
360
1AAB5
102
}
102
{ACAD_REACTORS
330
EF
102
}
330
EF
100
AcDbVisualStyle
  2
OverhangOff
 70
    21
 71
     2
 72
     2
 73
     0
 90
        0
 40
-0.6
 41
-30.0
 62
     5
 63
     7
 74
     1
 91
        4
 64
     7
 65
   257
 75
     1
175
     1
 42
1.0
 92
        9
 66
     7
 43
1.0
 76
     1
 77
     6
 78
     2
 67
     7
 79
     5
170
     0
171
     0
290
     0
174
     0
 93
        1
 44
0.0
173
     0
291
     1
 45
0.0
1001
ACAD
1000
AcDbSavedByObjectVersion
1070
     0
  0
VISUALSTYLE
  5
F9
102
{ACAD_XDICTIONARY
360
1AAA3
102
}
102
{ACAD_REACTORS
330
EF
102
}
330
EF
100
AcDbVisualStyle
  2
Realistic
 70
     8
 71
     2
 72
     2
 73
     0
 90
        2
 40
-0.6
 41
30.0
 62
     5
 63
     7
 74
     0
 91
        0
 64
     7
 65
   257
 75
     1
175
     1
 42
1.0
 92
        8
 66
   257
 43
1.0
 76
     1
 77
     6
 78
     2
 67
     7
 79
     3
170
     0
171
     0
290
     0
174
     0
 93
       13
 44
0.0
173
     0
291
     0
 45
0.0
1001
ACAD
1000
AcDbSavedByObjectVersion
1070
     0
  0
VISUALSTYLE
  5
1F3
102
{ACAD_XDICTIONARY
360
1AAC1
102
}
102
{ACAD_REACTORS
330
EF
102
}
330
EF
100
AcDbVisualStyle
  2
Shaded
 70
    27
 71
     2
 72
     2
 73
     1
 90
        2
 40
-0.6
 41
30.0
 62
     5
 63
     7
 74
     0
 91
        4
 64
     7
 65
   257
 75
     1
175
     1
 42
1.0
 92
        8
 66
   257
 43
1.0
 76
     1
 77
     6
 78
     2
 67
     8
 79
     3
170
     0
171
     0
290
     0
174
     0
 93
        5
 44
0.0
173
     0
291
     0
 45
0.0
1001
ACAD
1000
AcDbSavedByObjectVersion
1070
     0
  0
VISUALSTYLE
  5
1F2
102
{ACAD_XDICTIONARY
360
1AABF
102
}
102
{ACAD_REACTORS
330
EF
102
}
330
EF
100
AcDbVisualStyle
  2
Shaded with edges
 70
    26
 71
     2
 72
     2
 73
     1
 90
        2
 40
-0.6
 41
30.0
 62
     5
 63
     7
 74
     1
 91
        2
 64
     7
 65
   257
 75
     2
175
     1
 42
1.0
 92
        8
 66
   257
 43
1.0
 76
     1
 77
     6
 78
     2
 67
     7
 79
     3
170
     0
171
     0
290
     0
174
     0
 93
        5
 44
0.0
173
     0
291
     0
 45
0.0
1001
ACAD
1000
AcDbSavedByObjectVersion
1070
     0
  0
VISUALSTYLE
  5
1EF
102
{ACAD_XDICTIONARY
360
1AAB9
102
}
102
{ACAD_REACTORS
330
EF
102
}
330
EF
100
AcDbVisualStyle
  2
Shades of Gray
 70
    23
 71
     2
 72
     2
 73
     3
 90
        0
 40
-0.6
 41
-30.0
 62
     5
 63
     7
 74
     2
 91
        2
 64
     7
 65
     7
 75
     1
175
     1
 42
40.0
 92
        8
 66
     7
 43
1.0
 76
     1
 77
     6
 78
     2
 67
     7
 79
     3
170
     0
171
     0
290
     0
174
     0
 93
        1
 44
0.0
173
     0
291
     0
 45
0.0
1001
ACAD
1000
AcDbSavedByObjectVersion
1070
     0
  0
VISUALSTYLE
  5
1F0
102
{ACAD_XDICTIONARY
360
1AABB
102
}
102
{ACAD_REACTORS
330
EF
102
}
330
EF
100
AcDbVisualStyle
  2
Sketchy
 70
    24
 71
     1
 72
     2
 73
     2
 90
        0
 40
-0.6
 41
-30.0
 62
     5
 63
     7
 74
     2
 91
        2
 64
     7
 65
     7
 75
     1
175
     1
 42
40.0
 92
       11
 66
     7
 43
1.0
 76
     1
 77
     6
 78
     2
 67
     7
 79
     6
170
     0
171
     0
290
     0
174
     0
 93
        1
 44
0.0
173
     0
291
     0
 45
0.0
1001
ACAD
1000
AcDbSavedByObjectVersion
1070
     0
  0
VISUALSTYLE
  5
FC
102
{ACAD_XDICTIONARY
360
1AAA9
102
}
102
{ACAD_REACTORS
330
EF
102
}
330
EF
100
AcDbVisualStyle
  2
Thicken
 70
    13
 71
     2
 72
     2
 73
     1
 90
        0
 40
-0.6
 41
-30.0
 62
     5
 63
     7
 74
     1
 91
        4
 64
     7
 65
   257
 75
     1
175
     1
 42
1.0
 92
       12
 66
     7
 43
1.0
 76
     1
 77
     6
 78
     2
 67
     7
 79
     5
170
     0
171
     0
290
     0
174
     0
 93
        1
 44
0.0
173
     0
291
     1
 45
0.0
1001
ACAD
1000
AcDbSavedByObjectVersion
1070
     0
  0
VISUALSTYLE
  5
F6
102
{ACAD_XDICTIONARY
360
1AA9D
102
}
102
{ACAD_REACTORS
330
EF
102
}
330
EF
100
AcDbVisualStyle
  2
Wireframe
 70
     5
 71
     0
 72
     2
 73
     0
 90
        0
 40
-0.6
 41
-30.0
 62
     5
 63
     7
 74
     1
 91
        4
 64
     7
 65
   257
 75
     1
175
     1
 42
1.0
 92
        0
 66
   257
 43
1.0
 76
     1
 77
     6
 78
     2
 67
     7
 79
     3
170
     0
171
     0
290
     0
174
     0
 93
        1
 44
0.0
173
     0
291
     0
 45
0.0
1001
ACAD
1000
AcDbSavedByObjectVersion
1070
     0
  0
VISUALSTYLE
  5
1F1
102
{ACAD_XDICTIONARY
360
1AABD
102
}
102
{ACAD_REACTORS
330
EF
102
}
330
EF
100
AcDbVisualStyle
  2
X-Ray
 70
    25
 71
     2
 72
     2
 73
     1
 90
        1
 40
0.5
 41
-30.0
 62
     5
 63
     7
 74
     1
 91
        0
 64
     7
 65
   257
 75
     1
175
     1
 42
1.0
 92
        8
 66
     7
 43
1.0
 76
     1
 77
     6
 78
     2
 67
     7
 79
     3
170
     0
171
     0
290
     0
174
     0
 93
       13
 44
0.0
173
     0
291
     0
 45
0.0
1001
ACAD
1000
AcDbSavedByObjectVersion
1070
     0
  0
DICTIONARYVAR
  5
146
102
{ACAD_REACTORS
330
5E
102
}
330
5E
100
DictionaryVariables
280
     0
  1
1:1
  0
DICTIONARYVAR
  5
259
102
{ACAD_REACTORS
330
5E
102
}
330
5E
100
DictionaryVariables
280
     0
  1
3.500000
  0
DICTIONARYVAR
  5
25A
102
{ACAD_REACTORS
330
5E
102
}
330
5E
100
DictionaryVariables
280
     0
  1
acadiso.lin
  0
DICTIONARYVAR
  5
145
102
{ACAD_REACTORS
330
5E
102
}
330
5E
100
DictionaryVariables
280
     0
  1
STANDARD
  0
DICTIONARYVAR
  5
84
102
{ACAD_REACTORS
330
5E
102
}
330
5E
100
DictionaryVariables
280
     0
  1
STANDARD
  0
DICTIONARYVAR
  5
227
102
{ACAD_REACTORS
330
5E
102
}
330
5E
100
DictionaryVariables
280
     0
  1
Metric50
  0
DICTIONARYVAR
  5
228
102
{ACAD_REACTORS
330
5E
102
}
330
5E
100
DictionaryVariables
280
     0
  1
Metric50
  0
DICTIONARYVAR
  5
5F
102
{ACAD_REACTORS
330
5E
102
}
330
5E
100
DictionaryVariables
280
     0
  1
2
  0
DICTIONARYVAR
  5
63
102
{ACAD_REACTORS
330
5E
102
}
330
5E
100
DictionaryVariables
280
     0
  1
1
  0
DICTIONARYVAR
  5
1AA32
102
{ACAD_REACTORS
330
5E
102
}
330
5E
100
DictionaryVariables
280
     0
  1
0
  0
DICTIONARYVAR
  5
1AE
102
{ACAD_REACTORS
330
5E
102
}
330
5E
100
DictionaryVariables
280
     0
  1
0
  0
DICTIONARYVAR
  5
1AF
102
{ACAD_REACTORS
330
5E
102
}
330
5E
100
DictionaryVariables
280
     0
  1
0
  0
DICTIONARYVAR
  5
1AA30
102
{ACAD_REACTORS
330
5E
102
}
330
5E
100
DictionaryVariables
280
     0
  1
2
  0
DICTIONARYVAR
  5
1AA2F
102
{ACAD_REACTORS
330
5E
102
}
330
5E
100
DictionaryVariables
280
     0
  1
1
  0
DICTIONARYVAR
  5
1AA82
102
{ACAD_REACTORS
330
5E
102
}
330
5E
100
DictionaryVariables
280
     0
  1
80.000000
  0
DICTIONARYVAR
  5
1AA81
102
{ACAD_REACTORS
330
5E
102
}
330
5E
100
DictionaryVariables
280
     0
  1
5.000000
  0
DICTIONARYVAR
  5
1AA31
102
{ACAD_REACTORS
330
5E
102
}
330
5E
100
DictionaryVariables
280
     0
  1
127
  0
DICTIONARYVAR
  5
1AA83
102
{ACAD_REACTORS
330
5E
102
}
330
5E
100
DictionaryVariables
280
     0
  1
2
  0
DICTIONARY
  5
1AAC5
330
21C
100
AcDbDictionary
280
     1
281
     1
  3
ACAD_XREC_ROUNDTRIP
360
1AAC6
  0
DICTIONARY
  5
1AA8A
330
D3
100
AcDbDictionary
280
     1
281
     1
  3
ACAD_XREC_ROUNDTRIP
360
1AA8B
  0
DICTIONARY
  5
1AA8C
330
D7
100
AcDbDictionary
280
     1
281
     1
  3
ACAD_XREC_ROUNDTRIP
360
1AA8D
  0
DICTIONARY
  5
1AA87
330
22
100
AcDbDictionary
280
     1
281
     1
  3
ACAD_XREC_ROUNDTRIP
360
1AA88
  0
DICTIONARY
  5
1F9
330
ED
100
AcDbDictionary
280
     1
281
     1
  3
ACAD_XREC_ROUNDTRIP
360
1AA8F
  3
FBXASSET
360
1FA
  0
DICTIONARY
  5
1F7
330
EC
100
AcDbDictionary
280
     1
281
     1
  3
ACAD_XREC_ROUNDTRIP
360
1AA8E
  3
FBXASSET
360
1F8
  0
DICTIONARY
  5
173
330
EE
100
AcDbDictionary
280
     1
281
     1
  3
ACAD_XREC_ROUNDTRIP
360
1AA90
  3
BUMPTILE
360
175
  3
DIFFUSETILE
360
174
  3
FBXASSET
360
1FB
  3
OPACITYTILE
360
176
  3
REFLECTIONTILE
360
177
  0
DICTIONARY
  5
1AAB1
330
12E
100
AcDbDictionary
280
     1
281
     1
  3
ACAD_XREC_ROUNDTRIP
360
1AAB2
  0
DICTIONARY
  5
1AAC3
330
21A
100
AcDbDictionary
280
     1
281
     1
  3
ACAD_XREC_ROUNDTRIP
360
1AAC4
  0
DICTIONARY
  5
162
330
7F
100
AcDbDictionary
280
     1
281
     1
  3
ACAD_ROUNDTRIP_2008_TABLESTYLE_CELLSTYLEMAP
360
1AA84
  3
ACAD_XREC_ROUNDTRIP
360
1AA89
  0
DICTIONARY
  5
1AA9B
330
F5
100
AcDbDictionary
280
     1
281
     1
  3
ACAD_XREC_ROUNDTRIP
360
1AA9C
  0
DICTIONARY
  5
1AA99
330
F4
100
AcDbDictionary
280
     1
281
     1
  3
ACAD_XREC_ROUNDTRIP
360
1AA9A
  0
DICTIONARY
  5
1AAA7
330
FB
100
AcDbDictionary
280
     1
281
     1
  3
ACAD_XREC_ROUNDTRIP
360
1AAA8
  0
DICTIONARY
  5
1AAAF
330
FF
100
AcDbDictionary
280
     1
281
     1
  3
ACAD_XREC_ROUNDTRIP
360
1AAB0
  0
DICTIONARY
  5
1AAA1
330
F8
100
AcDbDictionary
280
     1
281
     1
  3
ACAD_XREC_ROUNDTRIP
360
1AAA2
  0
DICTIONARY
  5
1AAA5
330
FA
100
AcDbDictionary
280
     1
281
     1
  3
ACAD_XREC_ROUNDTRIP
360
1AAA6
  0
DICTIONARY
  5
1AAB7
330
1E6
100
AcDbDictionary
280
     1
281
     1
  3
ACAD_XREC_ROUNDTRIP
360
1AAB8
  0
DICTIONARY
  5
1AAAD
330
FE
100
AcDbDictionary
280
     1
281
     1
  3
ACAD_XREC_ROUNDTRIP
360
1AAAE
  0
DICTIONARY
  5
1AA91
330
F0
100
AcDbDictionary
280
     1
281
     1
  3
ACAD_XREC_ROUNDTRIP
360
1AA92
  0
DICTIONARY
  5
1AA93
330
F1
100
AcDbDictionary
280
     1
281
     1
  3
ACAD_XREC_ROUNDTRIP
360
1AA94
  0
DICTIONARY
  5
1AA95
330
F2
100
AcDbDictionary
280
     1
281
     1
  3
ACAD_XREC_ROUNDTRIP
360
1AA96
  0
DICTIONARY
  5
1AA97
330
F3
100
AcDbDictionary
280
     1
281
     1
  3
ACAD_XREC_ROUNDTRIP
360
1AA98
  0
DICTIONARY
  5
1AA9F
330
F7
100
AcDbDictionary
280
     1
281
     1
  3
ACAD_XREC_ROUNDTRIP
360
1AAA0
  0
DICTIONARY
  5
1AAB3
330
1E4
100
AcDbDictionary
280
     1
281
     1
  3
ACAD_XREC_ROUNDTRIP
360
1AAB4
  0
DICTIONARY
  5
1AAAB
330
FD
100
AcDbDictionary
280
     1
281
     1
  3
ACAD_XREC_ROUNDTRIP
360
1AAAC
  0
DICTIONARY
  5
1AAB5
330
1E5
100
AcDbDictionary
280
     1
281
     1
  3
ACAD_XREC_ROUNDTRIP
360
1AAB6
  0
DICTIONARY
  5
1AAA3
330
F9
100
AcDbDictionary
280
     1
281
     1
  3
ACAD_XREC_ROUNDTRIP
360
1AAA4
  0
DICTIONARY
  5
1AAC1
330
1F3
100
AcDbDictionary
280
     1
281
     1
  3
ACAD_XREC_ROUNDTRIP
360
1AAC2
  0
DICTIONARY
  5
1AABF
330
1F2
100
AcDbDictionary
280
     1
281
     1
  3
ACAD_XREC_ROUNDTRIP
360
1AAC0
  0
DICTIONARY
  5
1AAB9
330
1EF
100
AcDbDictionary
280
     1
281
     1
  3
ACAD_XREC_ROUNDTRIP
360
1AABA
  0
DICTIONARY
  5
1AABB
330
1F0
100
AcDbDictionary
280
     1
281
     1
  3
ACAD_XREC_ROUNDTRIP
360
1AABC
  0
DICTIONARY
  5
1AAA9
330
FC
100
AcDbDictionary
280
     1
281
     1
  3
ACAD_XREC_ROUNDTRIP
360
1AAAA
  0
DICTIONARY
  5
1AA9D
330
F6
100
AcDbDictionary
280
     1
281
     1
  3
ACAD_XREC_ROUNDTRIP
360
1AA9E
  0
DICTIONARY
  5
1AABD
330
1F1
100
AcDbDictionary
280
     1
281
     1
  3
ACAD_XREC_ROUNDTRIP
360
1AABE
  0
XRECORD
  5
1AAC6
102
{ACAD_REACTORS
330
1AAC5
102
}
330
1AAC5
100
AcDbXrecord
280
     1
102
DISPLAYNAME
  1
Metric50
102
FLAGS
 90
        0
  0
XRECORD
  5
1AA8B
102
{ACAD_REACTORS
330
1AA8A
102
}
330
1AA8A
100
AcDbXrecord
280
     1
102
SHADEPLOT
 70
     0
102
SHADEPLOTRESLEVEL
 70
     2
102
SHADEPLOTCUSTOMDPI
 70
   300
  0
XRECORD
  5
1AA8D
102
{ACAD_REACTORS
330
1AA8C
102
}
330
1AA8C
100
AcDbXrecord
280
     1
102
SHADEPLOT
 70
     0
102
SHADEPLOTRESLEVEL
 70
     2
102
SHADEPLOTCUSTOMDPI
 70
   300
  0
XRECORD
  5
1AA88
102
{ACAD_REACTORS
330
1AA87
102
}
330
1AA87
100
AcDbXrecord
280
     1
102
SHADEPLOT
 70
     0
102
SHADEPLOTRESLEVEL
 70
     2
102
SHADEPLOTCUSTOMDPI
 70
   300
  0
XRECORD
  5
1AA8F
102
{ACAD_REACTORS
330
1F9
102
}
330
1F9
100
AcDbXrecord
280
     1
102
MATERIAL
148
0.0
149
0.0
149
0.0
 93
        0
 94
       63
282
     0
 72
     1
 77
     1
171
     1
175
     1
179
     1
273
     0
  0
XRECORD
  5
1FA
102
{ACAD_REACTORS
330
1F9
102
}
330
1F9
100
AcDbXrecord
280
     1
 70
     1
 90
429727718
  1
D62C5603-E3A1-4AEA-B7FB-FE5D8D0755AF
310
504B03040A0000080000CC70623B3DEE336E79000000790000001B0000006175746F6465736B2D64657369676E2D7061636B6167652E786D6C3C3F786D6C2076657273696F6E3D22312E302220656E636F64696E673D227574662D3822203F3E3C666F726D6174733E3C666F726D61743E687474703A2F2F736368656D612E
310
6175746F6465736B2E636F6D2F64657369676E2D7061636B6167652F323030393C2F666F726D61743E3C2F666F726D6174733E504B0304140006080800CC70623BD486FD9CA0000000F4000000130000005B436F6E74656E745F54797065735D2E786D6C7D8EC10E82300C865F65E91D8A1E8C310C0EEA1BF002731658846E
310
D98AC1B77784ABF1D8FE5FBFBF75BBCE937A534CCEB38643598122B6FEE978D0B0485F9C41B54DDD7D022595594E1A469170414C76A4D9A4D207E29CF43ECE46F218070CC6BECC4078ACAA135ACF422C856C0E68EA1BF5669944DDD7BCDE7B1F8E415D77AECB980613C2E4AC91FC167A2B244592486606FC29C8FD7F045B9A
310
EF7053A7E60B504B0304140006080800CC70623B853B8169EB0000007C01000008000000636F72652E786D6C8D90416EC3201045AF62CDB6C206821CC7C244919D9CA01740401C94182C03558F5F9C3852BBEB6A467FFE9B197D7EFC9E1EC5975982F5AE035262288C535E5B377690E21535501C055FBC8FBF6C503839990E
310
5619041F179FE64D52DE45E362569DD7661365082642A11EB9E920A89B99642953CC8E702F67A9EE7234257977194EC9EAE275C4EABCCF5EAD5940D4AC6F0E35A568B8F43562CD7046CD199FD07E60174276A7BE677B5EADB0E0D14EEFFB6A31321A0D82627C4084204C3F096B71DD52F6819B16635EADF63F509AF53FA164
310
5DDCD1EDDD17164090FCC8732078B56691CB33A85CD7DCC40F504B0304140006080800CC70623B55019EA25F0000007C00000007000000636E782E786D6C4DCB3B0E80201045D1AD90E915ED2CF8AC45050C11660C8261F98AB1B07AC9C97D42D718D865D3E909258CFD00CCE24AC6E326A164D74DC0B4128928FF32603847
310
2BA13128B1252AC747C6BAB984FC68F0B87FE8960A5C09FE86CFB69FBA01504B0304140006080800CC70623BDBABAAF470010000D40300000C0000006662782F636F72652E786D6CC553D16E823014FD95A6AF4B694182CC941A83FA05FB810A9511A125A5257EFE2E82712ECEB8A7F100CD39F7F69E734AF9FADC366850B6
310
AF8DCE7018308C942E4C59EB2AC3DE1D498AD15A706B8CFB56869196ADCAF00863C12B6B7C374385D14E6907A836A59A41D9F7CA615434B0C8705F7CAA5606D23BA8E84F41278B93AC54100640439DE0BDB320004D43C63716C7C399D30917DCFBBA9CD9BA8469F5B156168B24CED3F7248AC8769F27244EB73B92EED8862C
310
B7F13E0C179B3C8F979C8ECD82BBBABDAA2BAC924E9558448CBD9330242CFA08E3154B5651FCC6D215639C8EE5774DBE2B5F6CF2B5768B68963BB5F5588420E442FC700B1139D4CB01F450C1E918227C2E09DF070D8140C84E1E9AAB8F1340832A9CB13130A5F1376A908D57309505ECF2A0DF179C4E9D30F5B239B87E3823
310
7A79C6F31DE1A8A5AEC08474B03C7837EAE4938639B44E5932B833D2C6B6B279CDC613877FA26EE21F4A2A4C63EC7F29A2F301D1F9F7A0E37D145F504B0304140006080800CC70623B9C113CC27E0000009D0000000B0000006662782F636E782E786D6C4DCCDF0A83201C86E15B91DFB94BFB330DD428C8FB886521330DA7
310
6397BF1A1DECE883878F57749FCDA1B7892F1BBC047A23808C7F84D9FA55424E0BE6803A256208E9EF06C84F9B91703228B1C690F78B66B34CD9A5439DF5CF0BFBF65E35BCA1B8D6A5C6F540381E886698B5741C695F9503EBA150A2F8958E3DC3EA0B504B0304140006080800CC70623B7DF2F77C2A010000120200003100
310
00006662782F41393633353835312D344632462D344230382D423046372D3739314545314133324237412F636F72652E786D6C8D51DB8EC22014FC15C2939B0D2DB4B45643319AE817EC0F6041255A68B86CFCFC856D4D76DF7CE190393373060EDB3DC707F856CE6B6B7A480A0C81328395DA5C7B18C3057510EC3873D686
310
3F34088C18550F330C39BB3A1BA7051AAC09CA84841A2BD5020AEF55806078A44B0FFD7053A328440C89E1EFC52486BBB8AA8214A99D789CF9E05200300FC927E4FB4D5B375D43103D5527440FB843077C5AA3F5861C8F645F5787F59E95B390B318B55CE45AA638FAA2957BD7248B390B7A7CC51F9C124149C82B8C378810
310
84AB2F42B7B8DD56F413775B8C5999E9FF4471926F8AA236A1AE96B8B3CC434E5839373893369E1FAF30EA395917409EB7F26AF8801C171837A4A6AC9C89E9F9C9B1A58BA30FD6A5EF5DDDCF894B9AD9B6A59C957943A9FCAE2FD5BC4DFE03504B0304140006080800CC70623BAD7543B64E01000033030000300000006662
310
782F41393633353835312D344632462D344230382D423046372D3739314545314133324237412F636E782E786D6CD593CD6EC32010845F0571AD6CE3D48AD20813A9873E410FBD12D82434182C7EAAE6EDBB2424CD25871E7B41D6EC30B3FA84F9E67BB2E40B4234DE8DB46F1925E094D7C6ED479AD3AE5951B2113C789FEE
310
6C943839C1488B4C05DF079FE72A69D8C96C13AAD6B8631503449F83828872B949AC57D26200B826A308D316B4064D6E46FCDA41C05550DC9E483A00797BFD207EFB092A45DE9514C1BBD22178396BD39D891265658C238DEA00936C654E5E433CB65A26D9F6EDB5EBC14EBF49A45CB856E66048291F6939A9A81BB5C89177
310
38143CA680F4AA299D66A042CEB3354A2684DC9D8D178FE0D9B8B41CAAD720F880EE7EF93C0C18769E099ECC04D5A102C8049A8A05632F4DDF376CF1DE0F6BB65C2F8627B65A33C6BB62177CEBBDAD973006829F89F22E814B54F4BC2BE347F8AA8F681390B50FA73F804400B5F542E796F19FF974E7F78DB802FE05E20750
310
4B0304140006080800CC70623BE75B7789680500003C100000340000006662782F41393633353835312D344632462D344230382D423046372D3739314545314133324237412F6F626A656374732E786D6CAD575B8F9B3818FD2B887D06C22499CB8AA1CA655245D5B455A356FB305264C061D8018C6C3393D95FBFC7600890
310
A4CD5EF210B0B1BFEBF98E3F7B1FF6596ABC522E1296DF9BAE3D320D9A872C4AF2F8DE2CE5CEBA358D0FBEC719939D65A691938CDE9B6ADAF4BD98B3B2D05311DD91329583D9D5FC0F438434A7A611A644887B5384CF34233629258BA878B12322891DEFF6B66BD70BFB62634E8AE781D082709A4B588AF91C528CDA28B73F
310
1C998EEF39EABBEFA97FBD6A7C7E9553F9D3D79FE442923C3C523610337627CB87ABE99D359D4CC6D6E4FACAB5E6ABF9D2726FC6A3C5F56271377BB88362213924694B38DD99FE47C48627A1E7D49F5A8BB5E1A74C0A599ED3B0F21F1E56366B89112D681E218F0915D0D6F17AD41FBA2A369DCF6335D62ABBD39779D5DDD1
310
11D4D8DE3CBB96B2E04FB8202E41051754A1AA8E8F76B4C6DFE810B580B1547F4B84911149794252234D024EF8BBE963A95AE27B3D310A9D5C215C7960FAEE415ED75694C6AFB17BCACA5D99A60A9AA65F217B0BFC53292ACB92BF283FAD0D3621576592CB5BED907C2FA8E9DF794E35E97BEA31BED21FEB401ABB94C44839
310
DCACBF0E1C5DA8DA5B2F4DFFD32AD86F543D9E565E7056502E157C00AD2671CD534549AB752FCA9CDA00677A313F04E51B22FF19E57B300579E3C97EB29F682D92935CEC18CF901B7B54FD8C51F362B56FC72FE0B3C1EAE335EDCCBF5AEC39ADB17DC238973F804BA5E6F6BFE7AF1FB32E523BE9F3BD571418E3631DCA4D48
310
5250CF639223210A9446CA30052EDF057BD35F8329C1ECD84552BF0DC8D18BE7BCE23BFE6BD960AB4A7DE79923A103BEBD80F911CBAA2C60DB19B01CF164A5583B772EE6D3FFA56666CBCDA74DC97724A48F9A58967497E489C4D979006FD7A05E227A1EBDD0F737C623387A9C844D3709995625106D157315F8B8392CD4E0
310
A0B9A720C4BE9829CEF37EA1E13111214D53925356365ADA634861B52519DD27A00AEB808EAF0628E6F435519D446F45CF2C9CF5214F0A15B2F6D06B79DA3EE3CBF7F56780D2F4E7EF73A0F5E5B02A38D07DC852C6B7C1FBB6664213E0C39E3EBA7FF4E1AD23EA2829407C85E586727488B751B2DB9502BC7B228A3FD68B6E
310
A65A22397E690AA8D158D7E404EC8CDA235CC3B7D1898680131CEC2CDF2638C65196279577750F15884AEE19F94199155B92B13297978469D4F8D358DF0AEF7631E28DC8F0D9F437D5D39A83B2231A1D52D543813A824EF8D44BCFF2FA6A31BD1E8DAD87F1CCB526B3879935BF59CDADD5C37479BB1CDD4CA7B3556B516589
310
EF352754B706114D9C885EC9131DE6EFEB43D99AFE2391C2F958179413D7CFEF6B1B6DB1E7600F00DE6E5C67454A339A4BA2E0FBA85ED26F045D454F463DBFCE484C2F90F2E5E3666003662ED8F755951A7D1BECD5B30B550B2785C8E7320B7292A4838DDA71BBC863ED7613CAF659337A3354231D4FF4A182A54904C2898C
310
98B28C4AD0CE056CCF332A80986E571EE9DBC305BB5FEB7E509220A58D25CF042D712A806AC0AD0C657FDEF80D2D9CEAA2EE4D1C76F60BFE74219A06527D6F82DF6412526107381E55E353090704D085B52408A8913C4ED159D79BDA71BB4BC506F4831350EB6F975CD22D69BF7AC49B91A2C0A9DDA3D5CA36AD20FC478E37
310
E61844E2352865EBCB61A275A65283CAAA9DD27703B4102F5AF51EF5F573B75CBB5AD38BC845F7A49F82A0966A49C2E3EA5EA0ECD326CD965F1DB402C6FA8B51A4658C5C5E2EC9E214602E55810345408596591009A82E7E7FFACA19EEA299B14A0081A705CB3296EBC14CDF658DCD336EA6D1136881AAEB87B81AB9EE53D5
310
F5EB8BC8362082DA24122F98680A4E7930C01A0079749CEA14382A0783E5EBA5A10F8C098456A03D6A4AEB6BB881E2513747552A5DB22C7EDAF83BD5528081A365F7FF06504B0304140006080000CC70623B000000000000000000000000350000006662782F41393633353835312D344632462D344230382D423046372D37
310
39314545314133324237412F76657274696365732E62696E504B0304140006080800CC70623BF270F1330600000004000000360000006662782F41393633353835312D344632462D344230382D423046372D3739314545314133324237412F747269616E676C65732E62696E636660600000504B0304140006080000CC7062
310
3B000000000000000000000000370000006662782F41393633353835312D344632462D344230382D423046372D3739314545314133324237412F617474726962757465732E62696E504B0304140006080800CC70623B08DA0BD19000000041010000360000006662782F41393633353835312D344632462D344230382D4230
310
46372D3739314545314133324237412F6469726563746F72792E786D6C858F410AC3201045AF22B36F53E9A60B35CBEEBAE80D244E44489C6234F4F835464A48035D0DF398FF9F8AF63D0E6CC63039F212F8F9020C7D47C6792B21C5FE7403D62A1188E2E60C98D7234A5830286103A55745067B9D86B8A3CF9C7F90C11DE6
310
07FB144396D7B6A82D282E9A152AD114D5EF2CB866EEE831B8EEA07A7BB5A8D7D61A2BAAEB7FD5F70921FF497D00504B0304140006080800CC70623BEDD1DC58FD000000A00100003B0000006662782F41393633353835312D344632462D344230382D423046372D3739314545314133324237412F7265736F75726365732F
310
636F72652E786D6C8D504B6E833010BD0A9A6D65B00922041947112427E8052C33A156828DFCA97AFC9A40A576D7CDCCE87D344F8F9FBFE667F689CE6B6B3A6039850C8DB2A336530731DC4903D95970676DF82583CCC8193B5861107C72362E3BA4AC096842428D1D7107A5F7182053CF7474E0D507CE32973124857FE48B
310
540F3961CEF244279DE03EB81420DB9EAC1384436FA353E879B1B182C7A8C75DA3C7F453DF353A1075D537A7BA6464B8F535A99AE14A9A2BBD90E350DD183B5CFABE3AF262350B1EF4FC9351399401471025A527C218A1E53BAB5A5AB765F5469B96525EACF23FA6B88CFF34456DC2A1DCE36E360F82A5202F42F062ED2BAD
310
579969AFDD8A6F504B010214000A0000080000CC70623B3DEE336E79000000790000001B00000000000000000000000000000000006175746F6465736B2D64657369676E2D7061636B6167652E786D6C504B01021400140006080800CC70623BD486FD9CA0000000F40000001300000000000000000000000000B20000005B
310
436F6E74656E745F54797065735D2E786D6C504B01021400140006080800CC70623B853B8169EB0000007C010000080000000000000000000000000083010000636F72652E786D6C504B01021400140006080800CC70623B55019EA25F0000007C000000070000000000000000000000000094020000636E782E786D6C504B
310
01021400140006080800CC70623BDBABAAF470010000D40300000C00000000000000000000000000180300006662782F636F72652E786D6C504B01021400140006080800CC70623B9C113CC27E0000009D0000000B00000000000000000000000000B20400006662782F636E782E786D6C504B01021400140006080800CC70
310
623B7DF2F77C2A010000120200003100000000000000000000000000590500006662782F41393633353835312D344632462D344230382D423046372D3739314545314133324237412F636F72652E786D6C504B01021400140006080800CC70623BAD7543B64E010000330300003000000000000000000000000000D2060000
310
6662782F41393633353835312D344632462D344230382D423046372D3739314545314133324237412F636E782E786D6C504B01021400140006080800CC70623BE75B7789680500003C10000034000000000000000000000000006E0800006662782F41393633353835312D344632462D344230382D423046372D3739314545
310
314133324237412F6F626A656374732E786D6C504B01021400140006080000CC70623B0000000000000000000000003500000000000000000000000000280E00006662782F41393633353835312D344632462D344230382D423046372D3739314545314133324237412F76657274696365732E62696E504B01021400140006
310
080800CC70623BF270F133060000000400000036000000000000000000000000007B0E00006662782F41393633353835312D344632462D344230382D423046372D3739314545314133324237412F747269616E676C65732E62696E504B01021400140006080000CC70623B0000000000000000000000003700000000000000
310
000000000000D50E00006662782F41393633353835312D344632462D344230382D423046372D3739314545314133324237412F617474726962757465732E62696E504B01021400140006080800CC70623B08DA0BD1900000004101000036000000000000000000000000002A0F00006662782F41393633353835312D344632
310
462D344230382D423046372D3739314545314133324237412F6469726563746F72792E786D6C504B01021400140006080800CC70623BEDD1DC58FD000000A00100003B000000000000000000000000000E1000006662782F41393633353835312D344632462D344230382D423046372D3739314545314133324237412F7265
310
736F75726365732F636F72652E786D6C504B0506000000000E000E0080040000641100000000
  0
XRECORD
  5
1AA8E
102
{ACAD_REACTORS
330
1F7
102
}
330
1F7
100
AcDbXrecord
280
     1
102
MATERIAL
148
0.0
149
0.0
149
0.0
 93
        0
 94
       63
282
     0
 72
     1
 77
     1
171
     1
175
     1
179
     1
273
     0
  0
XRECORD
  5
1F8
102
{ACAD_REACTORS
330
1F7
102
}
330
1F7
100
AcDbXrecord
280
     1
 70
     1
 90
429727718
  1
30362254-06B7-45E0-A893-8CFA70E3D6BC
310
504B03040A0000080000CC70623B3DEE336E79000000790000001B0000006175746F6465736B2D64657369676E2D7061636B6167652E786D6C3C3F786D6C2076657273696F6E3D22312E302220656E636F64696E673D227574662D3822203F3E3C666F726D6174733E3C666F726D61743E687474703A2F2F736368656D612E
310
6175746F6465736B2E636F6D2F64657369676E2D7061636B6167652F323030393C2F666F726D61743E3C2F666F726D6174733E504B0304140006080800CC70623BD486FD9CA0000000F4000000130000005B436F6E74656E745F54797065735D2E786D6C7D8EC10E82300C865F65E91D8A1E8C310C0EEA1BF002731658846E
310
D98AC1B77784ABF1D8FE5FBFBF75BBCE937A534CCEB38643598122B6FEE978D0B0485F9C41B54DDD7D022595594E1A469170414C76A4D9A4D207E29CF43ECE46F218070CC6BECC4078ACAA135ACF422C856C0E68EA1BF5669944DDD7BCDE7B1F8E415D77AECB980613C2E4AC91FC167A2B244592486606FC29C8FD7F045B9A
310
EF7053A7E60B504B0304140006080800CC70623B1EC5D7A3EB0000007C01000008000000636F72652E786D6C8D90416EC3201045AF82665B6103C6756C6122AB4D4ED00B204C5C94182C03558F5F9C3852BBEB6A467FFE9B197D71FC9E6FE8CBACC17AD7032D0820E3B41FAD9B7A48F1820F808E52ACDEC75F36404ECDA687
310
4D0629A6D5A76597B477D1B89855E747B38B2A041301E95B6E7A08FAD3CCAA50296647B8168BD2573599823EBB0CA76447F43862C7BCCF5EAC59410E4DDD9C7973C2755553CCCFA4C603E3040F1565ED3B1FDE4E432BCA0D9622DAF9795FAF464533826484B498524CD807E51D79ED187F21878E10516EF63F505AC67F42C9
310
BA58B1FDDD071640D2FCC87D2045B96591CB3DA85CB7DCE40F504B0304140006080800CC70623B55019EA25F0000007C00000007000000636E782E786D6C4DCB3B0E80201045D1AD90E915ED2CF8AC45050C11660C8261F98AB1B07AC9C97D42D718D865D3E909258CFD00CCE24AC6E326A164D74DC0B4128928FF32603847
310
2BA13128B1252AC747C6BAB984FC68F0B87FE8960A5C09FE86CFB69FBA01504B0304140006080800CC70623B8C9102E971010000D40300000C0000006662782F636F72652E786D6CC5535B6E833010BC8AE5DF0A6C08340F1947A84D4ED00B38C6A128602363A31CBFCB234A53A551FA553EC09AD9F5CE8C31DB9E9B1AF5CA
310
7695D1198E428A91D2D214952E33ECDD315861B4E5CC1AE3BE9561A445A3323CC098B3D21ADFCE9034DA29ED00D5A6503328BA4E398C640D8B0C77F253352214DE4145770A5B214FA2546114020D759C75CE8200340D19DE981F0F6746269C33EFAB6266AB02A655C74A59CCF365BADC27CB5D902ED22848F6340DF238A141
310
BE88E2F57B92BFEDF23523433367AE6A2EEAA455C2A902F398D2751045018D3FA264435F3771F242571B4A1919CA6F9A7C5B3CD9E42BED16F12C776AEB308F40C848FC700B1139D4891EF410CEC810227CC6846F8386402064270EF5C5C709A05E49676C024C61FC95EA45ED154CA5211D1FF4FB8291A913A68E9B83EBBB33
310
E2A7673CDE118E5AE8124C0807CB8377834E366998436B950D7A7746DAD846D4CFD978E0F04FD455FC5D49D2D4C6FE9722321F10997F0F32DC47FE05504B0304140006080800CC70623BFFEA85907E0000009D0000000B0000006662782F636E782E786D6C4DCCD10A83201886E15B91FFDC95D95A811AB6F23E625948A6C3
310
E9D8E5AF46073BFAE0E1E365ED67B3E8ADC3CB78C7815C7240DA3DFC64DCC221C519D7805AC182F7F1EF06C88D9BE6703008B6049F9E274D7A1E938DBB5AE3D6131B2589BA0D3D965551E0B2EA732C9B9A624AAEB41E3A557677029960D9AFB4EF11165F504B0304140006080800CC70623B4FEEA4082C0100001202000031
310
0000006662782F39464131463745442D413632322D343644302D413938332D3331353338454246344243312F636F72652E786D6C8D515B6EC32010BC0AE2AB55850DD871ED0813254D72825EC00192A2C460F1A872FC42ED48ED5F7E00CDCECCCEB26C731F6FE05B39AFADE921293004CA082BB5B9F43086336A21D870E6AC
310
0D7F68109861543DCC30E4ECE26C9C164858139409093556AA051CBC570102714B8F1E7AF1A5C6A11862480C7F2DA6415C878B2A4891CA89C7990F2E050073937C42DE1DB7E4F87ED8A36D4329AA9B3D46DBAEAD504556557BD81DEBDD0761E52CE42C462D17B996298E3E6BE59E35C962CE821E1FF18553435012728A7187
310
0841987E927A8D9B35ADDF70BBC6989599FE4F1427F9A4286A132ABAC49D651EF234CD5CE04CDA78BA3DC2A8FB645D00B9DF8B57E215725C60BCA2A463E54C4CE327C7A65E1C7DB02E7DEFCBF594B864C5CA6CDBD49C957943E9FA5D5FBAF336F90F504B0304140006080800CC70623BAD7543B64E01000033030000300000
310
006662782F39464131463745442D413632322D343644302D413938332D3331353338454246344243312F636E782E786D6CD593CD6EC32010845F0571AD6CE3D48AD20813A9873E410FBD12D82434182C7EAAE6EDBB2424CD25871E7B41D6EC30B3FA84F9E67BB2E40B4234DE8DB46F1925E094D7C6ED479AD3AE5951B2113C
310
789FEE6C943839C1488B4C05DF079FE72A69D8C96C13AAD6B8631503449F83828872B949AC57D26200B826A308D316B4064D6E46FCDA41C05550DC9E483A00797BFD207EFB092A45DE9514C1BBD22178396BD39D891265658C238DEA00936C654E5E433CB65A26D9F6EDB5EBC14EBF49A45CB856E66048291F6939A9A81BB5
310
C8917738143CA680F4AA299D66A042CEB3354A2684DC9D8D178FE0D9B8B41CAAD720F880EE7EF93C0C18769E099ECC04D5A102C8049A8A05632F4DDF376CF1DE0F6BB65C2F8627B65A33C6BB62177CEBBDAD973006829F89F22E814B54F4BC2BE347F8AA8F681390B50FA73F804400B5F542E796F19FF974E7F78DB802FE05
310
E207504B0304140006080800CC70623B16AB87BA640500003C100000340000006662782F39464131463745442D413632322D343644302D413938332D3331353338454246344243312F6F626A656374732E786D6CAD575B6FA33818FD2B887DE6924B3BED8A326A92B68A663B534DD4D13E548A0C38942D60649B369D5FBFC7
310
600890A493BDE42160637FD7F31D7FF63E6FB3D478A55C242CBF3247B66B1A340F5994E4F19559CA8D75611A9F7D8F33263BCB4C232719BD32D5B4E97B316765A1A722BA21652A07B3B7B33F0D11D29C9A46981221AE4C113ED38CD8A4942CA2E2C58E882476BCD9DA23BB5ED8171B73523C0F841684D35CC252CCE79062D4
310
468DFA43D7747CCF51DF7D4FFDEB5593E3AB9CCA9FBEFE241792E4E19EB28198C968BAB8199F5D5A67D3E9C49A9E8F47D6EC76B6B0469F26EEFC7C3EBFBCBEB98462213924694B38DD98FE1D62C393D073EA4FADC5DAF04326852CCF6958F90F0F2B9BB5C48816348F90C7840A68EB78EDF68723159BCEE7891A6B95DDE9D3
310
BCEAEEE8086A6C6F9E5D4B59F0175C10A7A0820BAA5055C7473B5AE3CFDD452D602CD5DF12616444529E90D448938013FE6EFA58AA96F85E4F8C42275708571E98FE6827AF6B2B4AE3D7D83D64E5A64C53054DD3AF90BD06FEA9149565C94FCA0F6B834DC85599E4F2423B24DF0B6AFA979E534DFA9E7A4CC6FA631D486393
310
921829879BF5D781A373557BCB85E97FB90DB62B558F8795179C15944B051F40AB495CF35451D26A4727654E6D8033BD98EF82F21D91FF8AF2DD9982BCF1643BDD4EB516C9492E368C67C88DED563FC36D5EACF66DFF057C3658BDBFA69DF9578B3DA735B64F18C7F20770A9D45CFCF7FCF563D6456A277DBEF78A02637CA2
310
43B90A490AEAB94F72244481D24819A6C0E59B606BFA4B3025981DBB48EAB701D97BF19C577CC77F2D1B6C55A9EF3C732474C0B727303F625995056C3B02963D9EAC146BE78EC5FCEC7FA999EBC5EACBAAE41B12D27B4D2C0BBA49F244E2ECDC81B76B502F113D8F5EE8FB1BE3111CDD4FC2AA9B844CAB1288B68AB90A7CDC
310
1C166AB0D3DC5310625FCC14E779BFD0709F8890A629C9292B1B2DED31A4B0DA928CEE135085754027E3018A397D4D5427D15BD1330B677DC8934285AC3DF45A9EB68FF8F2B8FC0A509AFEECFD0FF2DE25CC6047F7214B195F07EFEB9A094D800F7BFAE8FED187B78EA8A3A400F115961BCAD1215E47C966530AF0EE8128FE
310
58CEBB996A8964FFA529A046635D9353B0336A8F700DDF46271A024E70B0B37C9DE01847591E54DED53D54202AB947E4076556AC49C6CA5C9E1226B7F1A7B1BE15DEED62C41B91E1B3E9AFAAA735036547343A925075041DF0A9979E893B391F8FCFA6967B3EFB644DCF6E5CEBFAE272625DCC6FAF3FB93793C5F90CE1EF57
310
407342756B10D1C489E8953CD1617E5CEECAD6F4EF8914CE5D5D504E5C3F1F9736DA62CFC11E00BCDDB8CC8A9466349744C1F75EBDA4DF09BA8A9E8C7A7E9991989E20E5DBDD6A6003664ED8F7A04A8DBE0DF6EAD9B9AA858342E47399053949D2C146EDB85DE4B176BB0965FBAC19BD19AA918E27FA50C1D22402E144464C
310
59462568E704B6E71915404CB72B8FF4EDE184DDAF753F284990D2C6926782963815403548A70C657FDEF80D2D9CEAA2AE4C1C76F60BFE74219A06527D6582DF6412526107381E55E353090704D085B52408D0933C4ED159D79BDA71BB4BC506F4831350EB6F979CD22D69BF7AC49B91A2C0A9DDA3D5CA36AD20FC478E37E6
310
1844E2352865EBCB6EA275A652E3836BE04EFB400BF1A2556F515F1FBB35B2AB35BD889C744FFA1004B5544B121E57F70215746DD2F5E2C1412B602CBF19455AC6C8E5E9922C4E01E65215385004546899059180EAFCF7A707CE7017CD8CDB0410789AB32C63B91E5CEBBBACB17AC6CD347A022D5075FD106377347AAABA7E
310
7D11590744509B44E205134DC1290F06580320F78E537D3D73540E06CB970B431F185308AD40BBD794D6D77003C5A36E8EAA54BA64597CD8F83BD552A080A365F7FF06504B0304140006080000CC70623B000000000000000000000000350000006662782F39464131463745442D413632322D343644302D413938332D3331
310
353338454246344243312F76657274696365732E62696E504B0304140006080800CC70623BF270F1330600000004000000360000006662782F39464131463745442D413632322D343644302D413938332D3331353338454246344243312F747269616E676C65732E62696E636660600000504B0304140006080000CC70623B
310
000000000000000000000000370000006662782F39464131463745442D413632322D343644302D413938332D3331353338454246344243312F617474726962757465732E62696E504B0304140006080800CC70623B08DA0BD19000000041010000360000006662782F39464131463745442D413632322D343644302D413938
310
332D3331353338454246344243312F6469726563746F72792E786D6C858F410AC3201045AF22B36F53E9A60B35CBEEBAE80D244E44489C6234F4F835464A48035D0DF398FF9F8AF63D0E6CC63039F212F8F9020C7D47C6792B21C5FE7403D62A1188E2E60C98D7234A5830286103A55745067B9D86B8A3CF9C7F90C11DE607
310
FB144396D7B6A82D282E9A152AD114D5EF2CB866EEE831B8EEA07A7BB5A8D7D61A2BAAEB7FD5F70921FF497D00504B0304140006080800CC70623B0D6EF93BFE000000A00100003B0000006662782F39464131463745442D413632322D343644302D413938332D3331353338454246344243312F7265736F75726365732F63
310
6F72652E786D6C8D50596E833010BD0A9ADFCA60B334011947A8694ED00B586642AC041B79A97AFC9A40A5F6AF3F33A3B7689E1E3F7DCD8FEC139DD7D6F4C0720A191A65476DA61E62B892236427C19DB5E1970C322367EC618541F0C9D9B8EC90B226A009093576C41D94DE63804C3DD2D18357379C652E63480A7FCF17A9
310
EE72C29CE5894E3AC17D702940B63D59270887DE46A7D0F36263058F518FBB468FE9A7BE6A7420864373B8D4873369AA8691FA421B3294352543C5CAF65C0F6FEF43CB8BD52C78D0F34F46E550061C419494B6843142CB0F5677F4B52BEB177AEC28E5C52AFF638ACBF84F53D42654E51E77B379102C05791282176B5F693D
310
CB4C7BED567C03504B010214000A0000080000CC70623B3DEE336E79000000790000001B00000000000000000000000000000000006175746F6465736B2D64657369676E2D7061636B6167652E786D6C504B01021400140006080800CC70623BD486FD9CA0000000F40000001300000000000000000000000000B20000005B
310
436F6E74656E745F54797065735D2E786D6C504B01021400140006080800CC70623B1EC5D7A3EB0000007C010000080000000000000000000000000083010000636F72652E786D6C504B01021400140006080800CC70623B55019EA25F0000007C000000070000000000000000000000000094020000636E782E786D6C504B
310
01021400140006080800CC70623B8C9102E971010000D40300000C00000000000000000000000000180300006662782F636F72652E786D6C504B01021400140006080800CC70623BFFEA85907E0000009D0000000B00000000000000000000000000B30400006662782F636E782E786D6C504B01021400140006080800CC70
310
623B4FEEA4082C0100001202000031000000000000000000000000005A0500006662782F39464131463745442D413632322D343644302D413938332D3331353338454246344243312F636F72652E786D6C504B01021400140006080800CC70623BAD7543B64E010000330300003000000000000000000000000000D5060000
310
6662782F39464131463745442D413632322D343644302D413938332D3331353338454246344243312F636E782E786D6C504B01021400140006080800CC70623B16AB87BA640500003C1000003400000000000000000000000000710800006662782F39464131463745442D413632322D343644302D413938332D3331353338
310
454246344243312F6F626A656374732E786D6C504B01021400140006080000CC70623B0000000000000000000000003500000000000000000000000000270E00006662782F39464131463745442D413632322D343644302D413938332D3331353338454246344243312F76657274696365732E62696E504B01021400140006
310
080800CC70623BF270F133060000000400000036000000000000000000000000007A0E00006662782F39464131463745442D413632322D343644302D413938332D3331353338454246344243312F747269616E676C65732E62696E504B01021400140006080000CC70623B0000000000000000000000003700000000000000
310
000000000000D40E00006662782F39464131463745442D413632322D343644302D413938332D3331353338454246344243312F617474726962757465732E62696E504B01021400140006080800CC70623B08DA0BD190000000410100003600000000000000000000000000290F00006662782F39464131463745442D413632
310
322D343644302D413938332D3331353338454246344243312F6469726563746F72792E786D6C504B01021400140006080800CC70623B0D6EF93BFE000000A00100003B000000000000000000000000000D1000006662782F39464131463745442D413632322D343644302D413938332D3331353338454246344243312F7265
310
736F75726365732F636F72652E786D6C504B0506000000000E000E0080040000641100000000
  0
XRECORD
  5
1AA90
102
{ACAD_REACTORS
330
173
102
}
330
173
100
AcDbXrecord
280
     1
102
MATERIAL
148
0.0
149
0.0
149
0.0
 93
        0
 94
       63
282
     0
 72
     1
 77
     1
171
     1
175
     1
179
     1
273
     0
  0
XRECORD
  5
175
102
{ACAD_REACTORS
330
173
102
}
330
173
100
AcDbXrecord
280
     1
270
     1
271
     1
  0
XRECORD
  5
174
102
{ACAD_REACTORS
330
173
102
}
330
173
100
AcDbXrecord
280
     1
270
     1
271
     1
  0
XRECORD
  5
1FB
102
{ACAD_REACTORS
330
173
102
}
330
173
100
AcDbXrecord
280
     1
 70
     0
 90
1673772943
  1
ECE7A1D2-D628-4531-984C-D00F80459256
310
504B03040A0000080000CC70623B3DEE336E79000000790000001B0000006175746F6465736B2D64657369676E2D7061636B6167652E786D6C3C3F786D6C2076657273696F6E3D22312E302220656E636F64696E673D227574662D3822203F3E3C666F726D6174733E3C666F726D61743E687474703A2F2F736368656D612E
310
6175746F6465736B2E636F6D2F64657369676E2D7061636B6167652F323030393C2F666F726D61743E3C2F666F726D6174733E504B0304140006080800CC70623BD486FD9CA0000000F4000000130000005B436F6E74656E745F54797065735D2E786D6C7D8EC10E82300C865F65E91D8A1E8C310C0EEA1BF002731658846E
310
D98AC1B77784ABF1D8FE5FBFBF75BBCE937A534CCEB38643598122B6FEE978D0B0485F9C41B54DDD7D022595594E1A469170414C76A4D9A4D207E29CF43ECE46F218070CC6BECC4078ACAA135ACF422C856C0E68EA1BF5669944DDD7BCDE7B1F8E415D77AECB980613C2E4AC91FC167A2B244592486606FC29C8FD7F045B9A
310
EF7053A7E60B504B0304140006080800CC70623BD9DDAED0EC0000007C01000008000000636F72652E786D6C8D90416EC3201045AF82665B61836D9CD8C2444DD39CA01740405C94182C03558F5F9C3852BBEB6A467FFE9B197D7EF89E6EE8CB2CC17A37002D0820E394D7D68D03A478C17B4007C117EFE32F1B20272733C0
310
2A83E0E3E2D3BC49CABB685CCCAAF3DA6CA20CC14440EA969B0182FA34932C648AD911AEC52CD5558EA6A0CF2EC329598D1E47ACCEFBECC59A050463A7EA5833865FEBDD0E37353BE3EE8DBDE3F6786A48D375FBF6CC78B9C282473B3DEFABC5C86834888A900E538A49F5419B9EB47DD5BC907D4F082F57FB1F28CDFA9F50
310
B22ED6D5F6EE030B20687EE43E10BC5CB3C8E51E54AE6B6EE207504B0304140006080800CC70623B55019EA25F0000007C00000007000000636E782E786D6C4DCB3B0E80201045D1AD90E915ED2CF8AC45050C11660C8261F98AB1B07AC9C97D42D718D865D3E909258CFD00CCE24AC6E326A164D74DC0B4128928FF326038
310
472BA13128B1252AC747C6BAB984FC68F0B87FE8960A5C09FE86CFB69FBA01504B0304140006080800CC70623BA24EB22D72010000D40300000C0000006662782F636F72652E786D6CC5535B6E833010BC8AE5DF0A6C5E49888CA3A6694ED00B38E05014B091B1518EDFE511A5A9D228FD2A1F60CDEC7A67C6986DCE4D8D7A
310
69BA4AAB0C073EC548AA5C17952A33ECECD15B61B4E1CC686DBF9561A44423333CC098B3D268D7CE50AE9595CA02AA74216750749DB418E5352C32DCE59FB211BE70162ABA93DF8AFC244AE9073ED050C759670D0840D390E18DF9F1706664C23973AE2A66B62A605A75ACA4C13C4976E1364A12EF355A2EBD384AF65EFA96
310
BC7B8BED2EA6719AAE16FB8491A199335B351775B991C2CA02F390D2D40B028F861F41BCA68B7518BFD0D59A524686F29B26D7164F36B94AD9289CE54E6D1DE6010819891F6E21228B3AD1831EC219194284CF98F06DD01008846CC5A1BEF83801D4CBDC6A1303536877A57A513B0953A94FC707FDBE6064EA84A9E3E6E0FA
310
EE8CF0E9198F7784A316AA0413C2C2F2E0ECA0934D1AE6D05A69BCDE9E91D2A611F573361E38FC1375157F5752AE6B6DFE4B11990F88CCBF0719EE23FF02504B0304140006080800CC70623B408A7D3B7C0000009D0000000B0000006662782F636E782E786D6C4DCCD10A83201886E15B91FFDC552A92A0064DBC8F581632
310
D3703A76F9ABD1C18E3E78F878E5F0D9027ABBFCF2292AE86E2D20171F69F6715550CB827B40839639A5F2770314A7CD293819B45C73AAFB45B35BA61ACAA1C1C7E7855C58C15BC331339661262CC762340413D68D77DA5B42298546CBE6573AF60CEB2F504B0304140006080800CC70623B449FB9BD290100001202000031
310
0000006662782F36394639363044362D344446342D343946362D394244322D3234314243333846323333332F636F72652E786D6C8D515B6EC32010BC0AE22B55850D98B871848994463E412FE002495162B07854397EA176A4F62F3F2C9A9D991D587EB84F37F0AD7D30CEF6905418026DA553C65E7A98E219ED203808EE9D
310
8B7F6810D871D23D2C3014FCE25D9A57483A1BB58D19B54EE9151C43D0110279CB971E06F9A5A7B11A53CC8C70ADE6515EC78BAE4895DB992778883E0700CB907242D17643D7E2538BD869608875438BBAE38922CAC8F1BDD90DB4691A5E2F42C153326A951B95E398B3D1FE599322163C9AE9115F7A3D46ADA0A018778810
310
84E907617BDCEE297BC5BB3DC6BC2EF47FA234AB2745C9D8D8D035EE220B50105E2F0DC1954B9FB747187D9F9D8FA0CCDB042D5FA0C015C65B42DF78BD10F3F3B363CB56C7109DCFDFBBB97E662ED92EB62D13BC2E1BCAE5777DB9966D8A1F504B0304140006080800CC70623BAD7543B64E01000033030000300000006662
310
782F36394639363044362D344446342D343946362D394244322D3234314243333846323333332F636E782E786D6CD593CD6EC32010845F0571AD6CE3D48AD20813A9873E410FBD12D82434182C7EAAE6EDBB2424CD25871E7B41D6EC30B3FA84F9E67BB2E40B4234DE8DB46F1925E094D7C6ED479AD3AE5951B2113C789FEE
310
6C943839C1488B4C05DF079FE72A69D8C96C13AAD6B8631503449F83828872B949AC57D26200B826A308D316B4064D6E46FCDA41C05550DC9E483A00797BFD207EFB092A45DE9514C1BBD22178396BD39D891265658C238DEA00936C654E5E433CB65A26D9F6EDB5EBC14EBF49A45CB856E66048291F6939A9A81BB5C89177
310
38143CA680F4AA299D66A042CEB3354A2684DC9D8D178FE0D9B8B41CAAD720F880EE7EF93C0C18769E099ECC04D5A102C8049A8A05632F4DDF376CF1DE0F6BB65C2F8627B65A33C6BB62177CEBBDAD973006829F89F22E814B54F4BC2BE347F8AA8F681390B50FA73F804400B5F542E796F19FF974E7F78DB802FE05E20750
310
4B0304140006080800CC70623B8D05915C650500003B100000340000006662782F36394639363044362D344446342D343946362D394244322D3234314243333846323333332F6F626A656374732E786D6CAD575B6FA33814FE2B887D06429276DA1565D4266D158D3A339A6846FB502932E050B66023DB74D2FDF5FB190C01
310
9276B2973C046C8ECFF53B17071F77456EBD502133CEAE6CDF9DD81665314F32965ED995DA3A17B6F5310C04E7AA47665B8C14F4CAD6DB7618A48257A5D94AE89654B91AEDDEDDFC61C998326A5B714EA4BCB265FC440BE2924AF184CA6737218AB8E976E7FA6E4338649B0A523E8D98964450A6A029F619B8588D52FE7039
310
B1BD30F0F4F730D0FF866AF6369557DB33949F31A9088B0F848DD8CCFCF9F2767A76E99CCDE733677E3EF59D9BBB9BA5E37F984D16E78BC5E5F5ED25044B25C0C96822E8D60EEFE11B91C581D77CEA34368A1F5329E68CD1B8B61F16D63A1B8E092D294B10C78C4A48EB593D192E7DED9BDEE7995E1B91FDEDD3ACEA9FE831
310
6A756F9F7D4D79F4274C90A7A04248AA51D5F8C718DAE06FB2F75AC4796EBE65D22A88A22223B995679120E2D50E41AA49C260C046A35368846B0BECD0DFF3EBEB8AD4F835768F69B9ADF25C43D30E6B646F807FAA64AD59F61715C7A54127C4AACA98BA3006A9D792DAE165E0D59B61A01FB3A9F9D838D2DAE62445C86166
310
F37564E842E7DE6A69879FEEA2DD5AE7E371E1A5E025154AC307D06A03D73EB5978C58FFA4C8E9033066E0F3BD53BEC1F39F91BE7B55103791EDE6BBB991A2046172CB4581D8B893FA674DDA17A77B3B7C413D1B511FD2743BFF8A38F03A658705E3ADF8015C3A3417FF3D7E439FF591DA0B5F18BC20C1B8981957AE6392A3
310
F43C640C01D1A0B4728E2DD4F26DB4B3C3152A252A3B4E913CEC1C72F012782FF88EFF8637AA552DBEF76408E8A8DE9E50F9E1CB3A2DA0DB1B6039A893B56063DC5B3E3FFB5F72E67AB9FEB4AEC496C4F4C1149625DD662C53E89D7BF0F6151A046260D1337DFDC94502430F83B0EE07A130A224BCAD7DAE1D9FB6CD422FF6
310
920702629C4BB9AE79C12F243C6432A6794E18E5552BA56B431AAB5D91317302B2B071E86C3A42B1A02F999E24061403B5D0EB639195DA655DD3EBEAB4FB862DDF579F014AD0E73C22F99E28DA57FB98E75C6CA2D74D53086D600F4786E0FE3144B771A8A7B900F03594DB8A633CBC49B2EDB69228BB479CF863B5E807AAAB
310
23872F6DFEB4129B949CA33823F58830E86D65621E10047D9DB34D862E8EAC3C2ABC2F7B2C40D67CDFE01F5545B92105AF983AC54D93D69E56FB8E797F88913F898A9FEC705D3F9D1B54EC8426FB500D40A03BD0119B06E1B95DDC7EB8F6975367793EBD70E66733DFB9BC982F9CE564727731999F5D4ECFCE3B8D6A4DC2A0
310
6D50FD148437D110834A64C6CDDF57FBACB5C307A2A477DFE4939736CFEF2B175371E0E10CF0DD1D5C15654E0BCA14D1E87DD02FF93782A162C0A3D95F1524A52770F972BF1EE9809D13CE7DD599467F8ECE9ADD85CE85A34CD45355448C64F9E8A031DC2D596ACC6E5DD93D9B82DE2EF5CAF81363A8E47996A0DE24564A79
310
4115AACE09C55E14540231FDA13C319787134EBF34E3A022514E5B4D9E0826E25C02D5805B15ABE1BEF51B26383D445DD9E875EE33FE4C22DA16427D65A3BCA92CA6D28DD01DF5DC53330704308475351050232CCD31583787BA75774AFB06E5070DD0C8EF484E19968C5D83BA5B90B244D31E54D55A372320FE4786B7EA58
310
44E135AA5467CB7EA333A61683CC6A8C3257034C10CF46F40EF9F5BE59BE5BD30C3C72D235E95D10345C1D45445A5F0BB47E46A5EBE5570F9380B5FA629579952296A773720405982B9DE04011506178964401AA8BDF1FBF0A8EAB6861DD6580C0E38217056766716DAEB2D6FA0917D3E4116581EADB879C4E7CFFB11EFACD
310
3D641311495D92C8676CB409A72D18610D803CE8A626049E8EC1887CB5B44CC39883690DDA8399B4B9855B481E7D71D4A9D22F96E5BB73BF5793020C02137BF837504B0304140006080000CC70623B000000000000000000000000350000006662782F36394639363044362D344446342D343946362D394244322D32343142
310
43333846323333332F76657274696365732E62696E504B0304140006080800CC70623BF270F1330600000004000000360000006662782F36394639363044362D344446342D343946362D394244322D3234314243333846323333332F747269616E676C65732E62696E636660600000504B0304140006080000CC70623B0000
310
00000000000000000000370000006662782F36394639363044362D344446342D343946362D394244322D3234314243333846323333332F617474726962757465732E62696E504B0304140006080800CC70623B08DA0BD19000000041010000360000006662782F36394639363044362D344446342D343946362D394244322D
310
3234314243333846323333332F6469726563746F72792E786D6C858F410AC3201045AF22B36F53E9A60B35CBEEBAE80D244E44489C6234F4F835464A48035D0DF398FF9F8AF63D0E6CC63039F212F8F9020C7D47C6792B21C5FE7403D62A1188E2E60C98D7234A5830286103A55745067B9D86B8A3CF9C7F90C11DE607FB14
310
4396D7B6A82D282E9A152AD114D5EF2CB866EEE831B8EEA07A7BB5A8D7D61A2BAAEB7FD5F70921FF497D00504B0304140006080800CC70623BCA768048FE000000A00100003B0000006662782F36394639363044362D344446342D343946362D394244322D3234314243333846323333332F7265736F75726365732F636F72
310
652E786D6C8D50596E833010BD0A9ADFCA60D600328E9AA639412F609909B1126CE4A5EAF16B0295DABFFECC8CDEA2797AECF8353F924FB44E193D409E5248504B332A3D0D10FC95B4901C39B3C6F85F3248B49871801506CE266BC2B243D2688FDA47549B11775038871E12F988C7004EDE7016A9083E2ADC3D5D84BC8B09
310
D33C8D74D471E6BC8D0192EDC93A815B742658898E651BCB59086ADC356A8C3FD555A1055ED7E7E254D615792D0F075295F585746FF53B694EE78A565DD736979A65AB9933AFE69F8CD2A2F038022F28ED489E135A7CE4554F9BBEA85E68DB53CAB255FEC71496F19FA6A0B42F8B3DEE6673C0F318E4497096AD7DC5F52C33
310
EEB55BFE0D504B010214000A0000080000CC70623B3DEE336E79000000790000001B00000000000000000000000000000000006175746F6465736B2D64657369676E2D7061636B6167652E786D6C504B01021400140006080800CC70623BD486FD9CA0000000F40000001300000000000000000000000000B20000005B436F
310
6E74656E745F54797065735D2E786D6C504B01021400140006080800CC70623BD9DDAED0EC0000007C010000080000000000000000000000000083010000636F72652E786D6C504B01021400140006080800CC70623B55019EA25F0000007C000000070000000000000000000000000095020000636E782E786D6C504B0102
310
1400140006080800CC70623BA24EB22D72010000D40300000C00000000000000000000000000190300006662782F636F72652E786D6C504B01021400140006080800CC70623B408A7D3B7C0000009D0000000B00000000000000000000000000B50400006662782F636E782E786D6C504B01021400140006080800CC70623B
310
449FB9BD290100001202000031000000000000000000000000005A0500006662782F36394639363044362D344446342D343946362D394244322D3234314243333846323333332F636F72652E786D6C504B01021400140006080800CC70623BAD7543B64E010000330300003000000000000000000000000000D20600006662
310
782F36394639363044362D344446342D343946362D394244322D3234314243333846323333332F636E782E786D6C504B01021400140006080800CC70623B8D05915C650500003B10000034000000000000000000000000006E0800006662782F36394639363044362D344446342D343946362D394244322D32343142433338
310
46323333332F6F626A656374732E786D6C504B01021400140006080000CC70623B0000000000000000000000003500000000000000000000000000250E00006662782F36394639363044362D344446342D343946362D394244322D3234314243333846323333332F76657274696365732E62696E504B010214001400060808
310
00CC70623BF270F13306000000040000003600000000000000000000000000780E00006662782F36394639363044362D344446342D343946362D394244322D3234314243333846323333332F747269616E676C65732E62696E504B01021400140006080000CC70623B00000000000000000000000037000000000000000000
310
00000000D20E00006662782F36394639363044362D344446342D343946362D394244322D3234314243333846323333332F617474726962757465732E62696E504B01021400140006080800CC70623B08DA0BD190000000410100003600000000000000000000000000270F00006662782F36394639363044362D344446342D
310
343946362D394244322D3234314243333846323333332F6469726563746F72792E786D6C504B01021400140006080800CC70623BCA768048FE000000A00100003B000000000000000000000000000B1000006662782F36394639363044362D344446342D343946362D394244322D3234314243333846323333332F7265736F
310
75726365732F636F72652E786D6C504B0506000000000E000E0080040000621100000000
  0
XRECORD
  5
176
102
{ACAD_REACTORS
330
173
102
}
330
173
100
AcDbXrecord
280
     1
270
     1
271
     1
  0
XRECORD
  5
177
102
{ACAD_REACTORS
330
173
102
}
330
173
100
AcDbXrecord
280
     1
270
     1
271
     1
  0
XRECORD
  5
1AAB2
102
{ACAD_REACTORS
330
1AAB1
102
}
330
1AAB1
100
AcDbXrecord
280
     1
102
ACAD_ROUNDTRIP_2012_MLEADER_STYLE
298
     1
  0
XRECORD
  5
1AAC4
102
{ACAD_REACTORS
330
1AAC3
102
}
330
1AAC3
100
AcDbXrecord
280
     1
102
DISPLAYNAME
  1
Metric50
102
FLAGS
 90
        0
  0
CELLSTYLEMAP
  5
1AA84
102
{ACAD_REACTORS
330
162
102
}
330
162
100
AcDbCellStyleMap
 90
        3
300
CELLSTYLE
  1
TABLEFORMAT_BEGIN
 90
        5
170
     1
 91
        0
 92
    32768
 62
   257
 93
        1
300
CONTENTFORMAT
  1
CONTENTFORMAT_BEGIN
 90
        0
 91
        0
 92
      512
 93
        0
300

 40
0.0
140
1.0
 94
        5
 62
     0
340
11
144
6.0
309
CONTENTFORMAT_END
171
     1
301
MARGIN
  1
CELLMARGIN_BEGIN
 40
1.5
 40
1.5
 40
1.5
 40
1.5
 40
4.5
 40
4.5
309
CELLMARGIN_END
 94
        6
 95
        1
302
GRIDFORMAT
  1
GRIDFORMAT_BEGIN
 90
        0
 91
        1
 62
     0
 92
       -2
340
14
 93
        0
 40
1.125
309
GRIDFORMAT_END
 95
        2
302
GRIDFORMAT
  1
GRIDFORMAT_BEGIN
 90
        0
 91
        1
 62
     0
 92
       -2
340
14
 93
        0
 40
1.125
309
GRIDFORMAT_END
 95
        4
302
GRIDFORMAT
  1
GRIDFORMAT_BEGIN
 90
        0
 91
        1
 62
     0
 92
       -2
340
14
 93
        0
 40
1.125
309
GRIDFORMAT_END
 95
        8
302
GRIDFORMAT
  1
GRIDFORMAT_BEGIN
 90
        0
 91
        1
 62
     0
 92
       -2
340
14
 93
        0
 40
1.125
309
GRIDFORMAT_END
 95
       16
302
GRIDFORMAT
  1
GRIDFORMAT_BEGIN
 90
        0
 91
        1
 62
     0
 92
       -2
340
14
 93
        0
 40
1.125
309
GRIDFORMAT_END
 95
       32
302
GRIDFORMAT
  1
GRIDFORMAT_BEGIN
 90
        0
 91
        1
 62
     0
 92
       -2
340
14
 93
        0
 40
1.125
309
GRIDFORMAT_END
309
TABLEFORMAT_END
  1
CELLSTYLE_BEGIN
 90
        1
 91
        1
300
_TITLE
309
CELLSTYLE_END
300
CELLSTYLE
  1
TABLEFORMAT_BEGIN
 90
        5
170
     1
 91
        0
 92
        0
 62
   257
 93
        1
300
CONTENTFORMAT
  1
CONTENTFORMAT_BEGIN
 90
        0
 91
        0
 92
      512
 93
        0
300

 40
0.0
140
1.0
 94
        5
 62
     0
340
11
144
4.5
309
CONTENTFORMAT_END
171
     1
301
MARGIN
  1
CELLMARGIN_BEGIN
 40
1.5
 40
1.5
 40
1.5
 40
1.5
 40
4.5
 40
4.5
309
CELLMARGIN_END
 94
        6
 95
        1
302
GRIDFORMAT
  1
GRIDFORMAT_BEGIN
 90
        0
 91
        1
 62
     0
 92
       -2
340
14
 93
        0
 40
1.125
309
GRIDFORMAT_END
 95
        2
302
GRIDFORMAT
  1
GRIDFORMAT_BEGIN
 90
        0
 91
        1
 62
     0
 92
       -2
340
14
 93
        0
 40
1.125
309
GRIDFORMAT_END
 95
        4
302
GRIDFORMAT
  1
GRIDFORMAT_BEGIN
 90
        0
 91
        1
 62
     0
 92
       -2
340
14
 93
        0
 40
1.125
309
GRIDFORMAT_END
 95
        8
302
GRIDFORMAT
  1
GRIDFORMAT_BEGIN
 90
        0
 91
        1
 62
     0
 92
       -2
340
14
 93
        0
 40
1.125
309
GRIDFORMAT_END
 95
       16
302
GRIDFORMAT
  1
GRIDFORMAT_BEGIN
 90
        0
 91
        1
 62
     0
 92
       -2
340
14
 93
        0
 40
1.125
309
GRIDFORMAT_END
 95
       32
302
GRIDFORMAT
  1
GRIDFORMAT_BEGIN
 90
        0
 91
        1
 62
     0
 92
       -2
340
14
 93
        0
 40
1.125
309
GRIDFORMAT_END
309
TABLEFORMAT_END
  1
CELLSTYLE_BEGIN
 90
        2
 91
        1
300
_HEADER
309
CELLSTYLE_END
300
CELLSTYLE
  1
TABLEFORMAT_BEGIN
 90
        5
170
     1
 91
        0
 92
        0
 62
   257
 93
        1
300
CONTENTFORMAT
  1
CONTENTFORMAT_BEGIN
 90
        0
 91
        0
 92
      512
 93
        0
300

 40
0.0
140
1.0
 94
        2
 62
     0
340
11
144
4.5
309
CONTENTFORMAT_END
171
     1
301
MARGIN
  1
CELLMARGIN_BEGIN
 40
1.5
 40
1.5
 40
1.5
 40
1.5
 40
4.5
 40
4.5
309
CELLMARGIN_END
 94
        6
 95
        1
302
GRIDFORMAT
  1
GRIDFORMAT_BEGIN
 90
        0
 91
        1
 62
     0
 92
       -2
340
14
 93
        0
 40
1.125
309
GRIDFORMAT_END
 95
        2
302
GRIDFORMAT
  1
GRIDFORMAT_BEGIN
 90
        0
 91
        1
 62
     0
 92
       -2
340
14
 93
        0
 40
1.125
309
GRIDFORMAT_END
 95
        4
302
GRIDFORMAT
  1
GRIDFORMAT_BEGIN
 90
        0
 91
        1
 62
     0
 92
       -2
340
14
 93
        0
 40
1.125
309
GRIDFORMAT_END
 95
        8
302
GRIDFORMAT
  1
GRIDFORMAT_BEGIN
 90
        0
 91
        1
 62
     0
 92
       -2
340
14
 93
        0
 40
1.125
309
GRIDFORMAT_END
 95
       16
302
GRIDFORMAT
  1
GRIDFORMAT_BEGIN
 90
        0
 91
        1
 62
     0
 92
       -2
340
14
 93
        0
 40
1.125
309
GRIDFORMAT_END
 95
       32
302
GRIDFORMAT
  1
GRIDFORMAT_BEGIN
 90
        0
 91
        1
 62
     0
 92
       -2
340
14
 93
        0
 40
1.125
309
GRIDFORMAT_END
309
TABLEFORMAT_END
  1
CELLSTYLE_BEGIN
 90
        3
 91
        2
300
_DATA
309
CELLSTYLE_END
  0
XRECORD
  5
1AA89
102
{ACAD_REACTORS
330
162
102
}
330
162
100
AcDbXrecord
280
     1
102
ACAD_ROUNDTRIP_PRE2007_TABLESTYLE
 90
      512
 91
        0
  1

 92
      512
 93
        0
  2

 94
      512
 95
        0
  3

  0
XRECORD
  5
1AA9C
102
{ACAD_REACTORS
330
1AA9B
102
}
330
1AA9B
100
AcDbXrecord
280
     1
102
RTVSPost2010Prop28
280
     1
102
RTVSPost2010PropOp28
 70
     1
102
RTVSPost2010Prop29
280
     1
102
RTVSPost2010PropOp29
 70
     1
102
RTVSPost2010Prop30
280
     0
102
RTVSPost2010PropOp30
 70
     1
102
RTVSPost2010Prop31
280
     0
102
RTVSPost2010PropOp31
 70
     1
102
RTVSPost2010Prop32
280
     0
102
RTVSPost2010PropOp32
 70
     1
102
RTVSPost2010Prop33
280
     0
102
RTVSPost2010PropOp33
 70
     1
102
RTVSPost2010Prop34
280
     0
102
RTVSPost2010PropOp34
 70
     1
102
RTVSPost2010Prop35
280
     0
102
RTVSPost2010PropOp35
 70
     1
102
RTVSPost2010Prop36
280
     0
102
RTVSPost2010PropOp36
 70
     1
102
RTVSPost2010Prop37
 90
       50
102
RTVSPost2010PropOp37
 70
     1
102
RTVSPost2010Prop38
140
0.0
102
RTVSPost2010PropOp38
 70
     1
102
RTVSPost2010Prop39
140
1.0
102
RTVSPost2010PropOp39
 70
     1
102
RTVSPost2010Prop40
 90
        0
102
RTVSPost2010PropOp40
 70
     1
102
RTVSPost2010Prop41ColorIndex
 90
       18
102
RTVSPost2010Prop41ColorRGB
 90
        0
102
RTVSPost2010PropOp41
 70
     1
102
RTVSPost2010Prop42
 90
       50
102
RTVSPost2010PropOp42
 70
     1
102
RTVSPost2010Prop43
 90
        3
102
RTVSPost2010PropOp43
 70
     1
102
RTVSPost2010Prop44ColorIndex
 90
        5
102
RTVSPost2010Prop44ColorRGB
 90
      255
102
RTVSPost2010PropOp44
 70
     1
102
RTVSPost2010Prop45
280
     0
102
RTVSPost2010PropOp45
 70
     1
102
RTVSPost2010Prop46
 90
       50
102
RTVSPost2010PropOp46
 70
     1
102
RTVSPost2010Prop47
 90
       50
102
RTVSPost2010PropOp47
 70
     1
102
RTVSPost2010Prop48
 90
       50
102
RTVSPost2010PropOp48
 70
     1
102
RTVSPost2010Prop49
280
     0
102
RTVSPost2010PropOp49
 70
     1
102
RTVSPost2010Prop50
 90
       50
102
RTVSPost2010PropOp50
 70
     1
102
RTVSPost2010Prop51ColorIndex
 90
      256
102
RTVSPost2010Prop51ColorRGB
 90
-16777216
102
RTVSPost2010PropOp51
 70
     0
102
RTVSPost2010Prop52
140
1.0
102
RTVSPost2010PropOp52
 70
     0
102
RTVSPost2010Prop53
 90
        2
102
RTVSPost2010PropOp53
 70
     1
102
RTVSPost2010Prop54
  1
strokes_ogs.tif
102
RTVSPost2010PropOp54
 70
     1
102
RTVSPost2010Prop55
280
     0
102
RTVSPost2010PropOp55
 70
     1
102
RTVSPost2010Prop56
140
1.0
102
RTVSPost2010PropOp56
 70
     1
102
RTVSPost2010Prop57
140
1.0
102
RTVSPost2010PropOp57
 70
     1
102
RTVSPropertyOp0
 70
     1
102
RTVSPropertyOp1
 70
     1
102
RTVSPropertyOp2
 70
     1
102
RTVSPropertyOp3
 70
     1
102
RTVSPropertyOp4
 70
     1
102
RTVSPropertyOp5
 70
     1
102
RTVSPropertyOp6
 70
     1
102
RTVSPropertyOp7
 70
     1
102
RTVSPropertyOp8
 70
     1
102
RTVSPropertyOp9
 70
     1
102
RTVSPropertyOp10
 70
     1
102
RTVSPropertyOp11
 70
     1
102
RTVSPropertyOp12
 70
     1
102
RTVSPropertyOp13
 70
     1
102
RTVSPropertyOp14
 70
     1
102
RTVSPropertyOp15
 70
     1
102
RTVSPropertyOp16
 70
     1
102
RTVSPropertyOp17
 70
     1
102
RTVSPropertyOp18
 70
     1
102
RTVSPropertyOp19
 70
     1
102
RTVSPropertyOp20
 70
     1
102
RTVSPropertyOp21
 70
     1
102
RTVSPropertyOp22
 70
     1
102
RTVSPropertyOp23
 70
     1
102
RTVSPropertyOp24
 70
     1
102
RTVSPropertyOp25
 70
     1
102
RTVSPropertyOp26
 70
     1
102
RTVSPropertyOp27
 70
     1
102
RTVSPropertyOp28
 70
     1
102
RTVSPropertyOp29
 70
     1
102
RTVSPropertyOp30
 70
     1
102
RTVSPropertyOp31
 70
     1
102
RTVSPropertyOp32
 70
     1
102
RTVSPropertyOp33
 70
     1
102
RTVSPropertyOp34
 70
     1
102
RTVSPropertyOp35
 70
     1
102
RTVSPropertyOp36
 70
     1
102
RTVSPropertyOp37
 70
     1
102
RTVSPropertyOp38
 70
     1
102
RTVSPropertyOp39
 70
     1
102
RTVSPropertyOp40
 70
     1
102
RTVSPropertyOp41
 70
     1
102
RTVSPropertyOp42
 70
     1
102
RTVSPropertyOp43
 70
     1
102
RTVSPropertyOp44
 70
     1
102
RTVSPropertyOp45
 70
     1
102
RTVSPropertyOp46
 70
     1
102
RTVSPropertyOp47
 70
     1
102
RTVSPropertyOp48
 70
     1
102
RTVSPropertyOp49
 70
     1
102
RTVSPropertyOp50
 70
     1
102
RTVSPropertyOp51
 70
     0
102
RTVSPropertyOp52
 70
     0
102
RTVSPropertyOp53
 70
     1
102
RTVSPropertyOp54
 70
     1
102
RTVSPropertyOp55
 70
     1
102
RTVSPropertyOp56
 70
     1
102
RTVSPropertyOp57
 70
     1
102
RTVSPropertyOp58
 70
     1
102
RTVSPropertyOp59
 70
     1
102
RTVSPropertyOp60
 70
     1
102
RTVSPropertyOp61
 70
     1
102
RTVSPropertyOp62
 70
     1
  0
XRECORD
  5
1AA9A
102
{ACAD_REACTORS
330
1AA99
102
}
330
1AA99
100
AcDbXrecord
280
     1
102
RTVSPost2010Prop28
280
     0
102
RTVSPost2010PropOp28
 70
     1
102
RTVSPost2010Prop29
280
     1
102
RTVSPost2010PropOp29
 70
     1
102
RTVSPost2010Prop30
280
     1
102
RTVSPost2010PropOp30
 70
     1
102
RTVSPost2010Prop31
280
     0
102
RTVSPost2010PropOp31
 70
     1
102
RTVSPost2010Prop32
280
     0
102
RTVSPost2010PropOp32
 70
     1
102
RTVSPost2010Prop33
280
     0
102
RTVSPost2010PropOp33
 70
     1
102
RTVSPost2010Prop34
280
     0
102
RTVSPost2010PropOp34
 70
     1
102
RTVSPost2010Prop35
280
     0
102
RTVSPost2010PropOp35
 70
     1
102
RTVSPost2010Prop36
280
     0
102
RTVSPost2010PropOp36
 70
     1
102
RTVSPost2010Prop37
 90
       50
102
RTVSPost2010PropOp37
 70
     1
102
RTVSPost2010Prop38
140
0.0
102
RTVSPost2010PropOp38
 70
     1
102
RTVSPost2010Prop39
140
1.0
102
RTVSPost2010PropOp39
 70
     1
102
RTVSPost2010Prop40
 90
        0
102
RTVSPost2010PropOp40
 70
     1
102
RTVSPost2010Prop41ColorIndex
 90
       18
102
RTVSPost2010Prop41ColorRGB
 90
        0
102
RTVSPost2010PropOp41
 70
     1
102
RTVSPost2010Prop42
 90
       50
102
RTVSPost2010PropOp42
 70
     1
102
RTVSPost2010Prop43
 90
        3
102
RTVSPost2010PropOp43
 70
     1
102
RTVSPost2010Prop44ColorIndex
 90
        5
102
RTVSPost2010Prop44ColorRGB
 90
      255
102
RTVSPost2010PropOp44
 70
     1
102
RTVSPost2010Prop45
280
     0
102
RTVSPost2010PropOp45
 70
     1
102
RTVSPost2010Prop46
 90
       50
102
RTVSPost2010PropOp46
 70
     1
102
RTVSPost2010Prop47
 90
       50
102
RTVSPost2010PropOp47
 70
     1
102
RTVSPost2010Prop48
 90
       50
102
RTVSPost2010PropOp48
 70
     1
102
RTVSPost2010Prop49
280
     0
102
RTVSPost2010PropOp49
 70
     1
102
RTVSPost2010Prop50
 90
       50
102
RTVSPost2010PropOp50
 70
     1
102
RTVSPost2010Prop51ColorIndex
 90
      256
102
RTVSPost2010Prop51ColorRGB
 90
-16777216
102
RTVSPost2010PropOp51
 70
     0
102
RTVSPost2010Prop52
140
1.0
102
RTVSPost2010PropOp52
 70
     0
102
RTVSPost2010Prop53
 90
        2
102
RTVSPost2010PropOp53
 70
     1
102
RTVSPost2010Prop54
  1
strokes_ogs.tif
102
RTVSPost2010PropOp54
 70
     1
102
RTVSPost2010Prop55
280
     0
102
RTVSPost2010PropOp55
 70
     1
102
RTVSPost2010Prop56
140
1.0
102
RTVSPost2010PropOp56
 70
     1
102
RTVSPost2010Prop57
140
1.0
102
RTVSPost2010PropOp57
 70
     1
102
RTVSPropertyOp0
 70
     1
102
RTVSPropertyOp1
 70
     1
102
RTVSPropertyOp2
 70
     1
102
RTVSPropertyOp3
 70
     1
102
RTVSPropertyOp4
 70
     1
102
RTVSPropertyOp5
 70
     1
102
RTVSPropertyOp6
 70
     1
102
RTVSPropertyOp7
 70
     1
102
RTVSPropertyOp8
 70
     1
102
RTVSPropertyOp9
 70
     1
102
RTVSPropertyOp10
 70
     1
102
RTVSPropertyOp11
 70
     1
102
RTVSPropertyOp12
 70
     1
102
RTVSPropertyOp13
 70
     1
102
RTVSPropertyOp14
 70
     1
102
RTVSPropertyOp15
 70
     1
102
RTVSPropertyOp16
 70
     1
102
RTVSPropertyOp17
 70
     1
102
RTVSPropertyOp18
 70
     1
102
RTVSPropertyOp19
 70
     1
102
RTVSPropertyOp20
 70
     1
102
RTVSPropertyOp21
 70
     1
102
RTVSPropertyOp22
 70
     1
102
RTVSPropertyOp23
 70
     1
102
RTVSPropertyOp24
 70
     1
102
RTVSPropertyOp25
 70
     1
102
RTVSPropertyOp26
 70
     1
102
RTVSPropertyOp27
 70
     1
102
RTVSPropertyOp28
 70
     1
102
RTVSPropertyOp29
 70
     1
102
RTVSPropertyOp30
 70
     1
102
RTVSPropertyOp31
 70
     1
102
RTVSPropertyOp32
 70
     1
102
RTVSPropertyOp33
 70
     1
102
RTVSPropertyOp34
 70
     1
102
RTVSPropertyOp35
 70
     1
102
RTVSPropertyOp36
 70
     1
102
RTVSPropertyOp37
 70
     1
102
RTVSPropertyOp38
 70
     1
102
RTVSPropertyOp39
 70
     1
102
RTVSPropertyOp40
 70
     1
102
RTVSPropertyOp41
 70
     1
102
RTVSPropertyOp42
 70
     1
102
RTVSPropertyOp43
 70
     1
102
RTVSPropertyOp44
 70
     1
102
RTVSPropertyOp45
 70
     1
102
RTVSPropertyOp46
 70
     1
102
RTVSPropertyOp47
 70
     1
102
RTVSPropertyOp48
 70
     1
102
RTVSPropertyOp49
 70
     1
102
RTVSPropertyOp50
 70
     1
102
RTVSPropertyOp51
 70
     0
102
RTVSPropertyOp52
 70
     0
102
RTVSPropertyOp53
 70
     1
102
RTVSPropertyOp54
 70
     1
102
RTVSPropertyOp55
 70
     1
102
RTVSPropertyOp56
 70
     1
102
RTVSPropertyOp57
 70
     1
102
RTVSPropertyOp58
 70
     1
102
RTVSPropertyOp59
 70
     1
102
RTVSPropertyOp60
 70
     1
102
RTVSPropertyOp61
 70
     1
102
RTVSPropertyOp62
 70
     1
  0
XRECORD
  5
1AAA8
102
{ACAD_REACTORS
330
1AAA7
102
}
330
1AAA7
100
AcDbXrecord
280
     1
102
RTVSPost2010Prop28
280
     0
102
RTVSPost2010PropOp28
 70
     1
102
RTVSPost2010Prop29
280
     1
102
RTVSPost2010PropOp29
 70
     1
102
RTVSPost2010Prop30
280
     1
102
RTVSPost2010PropOp30
 70
     1
102
RTVSPost2010Prop31
280
     0
102
RTVSPost2010PropOp31
 70
     1
102
RTVSPost2010Prop32
280
     0
102
RTVSPost2010PropOp32
 70
     1
102
RTVSPost2010Prop33
280
     0
102
RTVSPost2010PropOp33
 70
     1
102
RTVSPost2010Prop34
280
     0
102
RTVSPost2010PropOp34
 70
     1
102
RTVSPost2010Prop35
280
     0
102
RTVSPost2010PropOp35
 70
     1
102
RTVSPost2010Prop36
280
     0
102
RTVSPost2010PropOp36
 70
     1
102
RTVSPost2010Prop37
 90
       50
102
RTVSPost2010PropOp37
 70
     1
102
RTVSPost2010Prop38
140
0.0
102
RTVSPost2010PropOp38
 70
     1
102
RTVSPost2010Prop39
140
1.0
102
RTVSPost2010PropOp39
 70
     1
102
RTVSPost2010Prop40
 90
        0
102
RTVSPost2010PropOp40
 70
     1
102
RTVSPost2010Prop41ColorIndex
 90
       18
102
RTVSPost2010Prop41ColorRGB
 90
        0
102
RTVSPost2010PropOp41
 70
     1
102
RTVSPost2010Prop42
 90
       50
102
RTVSPost2010PropOp42
 70
     1
102
RTVSPost2010Prop43
 90
        3
102
RTVSPost2010PropOp43
 70
     1
102
RTVSPost2010Prop44ColorIndex
 90
        5
102
RTVSPost2010Prop44ColorRGB
 90
      255
102
RTVSPost2010PropOp44
 70
     1
102
RTVSPost2010Prop45
280
     0
102
RTVSPost2010PropOp45
 70
     1
102
RTVSPost2010Prop46
 90
       50
102
RTVSPost2010PropOp46
 70
     1
102
RTVSPost2010Prop47
 90
       50
102
RTVSPost2010PropOp47
 70
     1
102
RTVSPost2010Prop48
 90
       50
102
RTVSPost2010PropOp48
 70
     1
102
RTVSPost2010Prop49
280
     0
102
RTVSPost2010PropOp49
 70
     1
102
RTVSPost2010Prop50
 90
       50
102
RTVSPost2010PropOp50
 70
     1
102
RTVSPost2010Prop51ColorIndex
 90
      256
102
RTVSPost2010Prop51ColorRGB
 90
-16777216
102
RTVSPost2010PropOp51
 70
     0
102
RTVSPost2010Prop52
140
1.0
102
RTVSPost2010PropOp52
 70
     0
102
RTVSPost2010Prop53
 90
        2
102
RTVSPost2010PropOp53
 70
     1
102
RTVSPost2010Prop54
  1
strokes_ogs.tif
102
RTVSPost2010PropOp54
 70
     1
102
RTVSPost2010Prop55
280
     0
102
RTVSPost2010PropOp55
 70
     1
102
RTVSPost2010Prop56
140
1.0
102
RTVSPost2010PropOp56
 70
     1
102
RTVSPost2010Prop57
140
1.0
102
RTVSPost2010PropOp57
 70
     1
102
RTVSPropertyOp0
 70
     1
102
RTVSPropertyOp1
 70
     1
102
RTVSPropertyOp2
 70
     1
102
RTVSPropertyOp3
 70
     1
102
RTVSPropertyOp4
 70
     1
102
RTVSPropertyOp5
 70
     1
102
RTVSPropertyOp6
 70
     1
102
RTVSPropertyOp7
 70
     1
102
RTVSPropertyOp8
 70
     1
102
RTVSPropertyOp9
 70
     1
102
RTVSPropertyOp10
 70
     1
102
RTVSPropertyOp11
 70
     1
102
RTVSPropertyOp12
 70
     1
102
RTVSPropertyOp13
 70
     1
102
RTVSPropertyOp14
 70
     1
102
RTVSPropertyOp15
 70
     1
102
RTVSPropertyOp16
 70
     1
102
RTVSPropertyOp17
 70
     1
102
RTVSPropertyOp18
 70
     1
102
RTVSPropertyOp19
 70
     1
102
RTVSPropertyOp20
 70
     1
102
RTVSPropertyOp21
 70
     1
102
RTVSPropertyOp22
 70
     1
102
RTVSPropertyOp23
 70
     1
102
RTVSPropertyOp24
 70
     1
102
RTVSPropertyOp25
 70
     1
102
RTVSPropertyOp26
 70
     1
102
RTVSPropertyOp27
 70
     1
102
RTVSPropertyOp28
 70
     1
102
RTVSPropertyOp29
 70
     1
102
RTVSPropertyOp30
 70
     1
102
RTVSPropertyOp31
 70
     1
102
RTVSPropertyOp32
 70
     1
102
RTVSPropertyOp33
 70
     1
102
RTVSPropertyOp34
 70
     1
102
RTVSPropertyOp35
 70
     1
102
RTVSPropertyOp36
 70
     1
102
RTVSPropertyOp37
 70
     1
102
RTVSPropertyOp38
 70
     1
102
RTVSPropertyOp39
 70
     1
102
RTVSPropertyOp40
 70
     1
102
RTVSPropertyOp41
 70
     1
102
RTVSPropertyOp42
 70
     1
102
RTVSPropertyOp43
 70
     1
102
RTVSPropertyOp44
 70
     1
102
RTVSPropertyOp45
 70
     1
102
RTVSPropertyOp46
 70
     1
102
RTVSPropertyOp47
 70
     1
102
RTVSPropertyOp48
 70
     1
102
RTVSPropertyOp49
 70
     1
102
RTVSPropertyOp50
 70
     1
102
RTVSPropertyOp51
 70
     0
102
RTVSPropertyOp52
 70
     0
102
RTVSPropertyOp53
 70
     1
102
RTVSPropertyOp54
 70
     1
102
RTVSPropertyOp55
 70
     1
102
RTVSPropertyOp56
 70
     1
102
RTVSPropertyOp57
 70
     1
102
RTVSPropertyOp58
 70
     1
102
RTVSPropertyOp59
 70
     1
102
RTVSPropertyOp60
 70
     1
102
RTVSPropertyOp61
 70
     1
102
RTVSPropertyOp62
 70
     1
  0
XRECORD
  5
1AAB0
102
{ACAD_REACTORS
330
1AAAF
102
}
330
1AAAF
100
AcDbXrecord
280
     1
102
RTVSPost2010Prop28
280
     0
102
RTVSPost2010PropOp28
 70
     1
102
RTVSPost2010Prop29
280
     1
102
RTVSPost2010PropOp29
 70
     1
102
RTVSPost2010Prop30
280
     1
102
RTVSPost2010PropOp30
 70
     1
102
RTVSPost2010Prop31
280
     0
102
RTVSPost2010PropOp31
 70
     1
102
RTVSPost2010Prop32
280
     0
102
RTVSPost2010PropOp32
 70
     1
102
RTVSPost2010Prop33
280
     0
102
RTVSPost2010PropOp33
 70
     1
102
RTVSPost2010Prop34
280
     0
102
RTVSPost2010PropOp34
 70
     1
102
RTVSPost2010Prop35
280
     0
102
RTVSPost2010PropOp35
 70
     1
102
RTVSPost2010Prop36
280
     0
102
RTVSPost2010PropOp36
 70
     1
102
RTVSPost2010Prop37
 90
       50
102
RTVSPost2010PropOp37
 70
     1
102
RTVSPost2010Prop38
140
0.0
102
RTVSPost2010PropOp38
 70
     1
102
RTVSPost2010Prop39
140
1.0
102
RTVSPost2010PropOp39
 70
     1
102
RTVSPost2010Prop40
 90
        0
102
RTVSPost2010PropOp40
 70
     1
102
RTVSPost2010Prop41ColorIndex
 90
       18
102
RTVSPost2010Prop41ColorRGB
 90
        0
102
RTVSPost2010PropOp41
 70
     1
102
RTVSPost2010Prop42
 90
       50
102
RTVSPost2010PropOp42
 70
     1
102
RTVSPost2010Prop43
 90
        3
102
RTVSPost2010PropOp43
 70
     1
102
RTVSPost2010Prop44ColorIndex
 90
        5
102
RTVSPost2010Prop44ColorRGB
 90
      255
102
RTVSPost2010PropOp44
 70
     1
102
RTVSPost2010Prop45
280
     0
102
RTVSPost2010PropOp45
 70
     1
102
RTVSPost2010Prop46
 90
       50
102
RTVSPost2010PropOp46
 70
     1
102
RTVSPost2010Prop47
 90
       50
102
RTVSPost2010PropOp47
 70
     1
102
RTVSPost2010Prop48
 90
       50
102
RTVSPost2010PropOp48
 70
     1
102
RTVSPost2010Prop49
280
     0
102
RTVSPost2010PropOp49
 70
     1
102
RTVSPost2010Prop50
 90
       50
102
RTVSPost2010PropOp50
 70
     1
102
RTVSPost2010Prop51ColorIndex
 90
      256
102
RTVSPost2010Prop51ColorRGB
 90
-16777216
102
RTVSPost2010PropOp51
 70
     0
102
RTVSPost2010Prop52
140
1.0
102
RTVSPost2010PropOp52
 70
     0
102
RTVSPost2010Prop53
 90
        2
102
RTVSPost2010PropOp53
 70
     1
102
RTVSPost2010Prop54
  1
strokes_ogs.tif
102
RTVSPost2010PropOp54
 70
     1
102
RTVSPost2010Prop55
280
     0
102
RTVSPost2010PropOp55
 70
     1
102
RTVSPost2010Prop56
140
1.0
102
RTVSPost2010PropOp56
 70
     1
102
RTVSPost2010Prop57
140
1.0
102
RTVSPost2010PropOp57
 70
     1
102
RTVSPropertyOp0
 70
     1
102
RTVSPropertyOp1
 70
     1
102
RTVSPropertyOp2
 70
     1
102
RTVSPropertyOp3
 70
     1
102
RTVSPropertyOp4
 70
     1
102
RTVSPropertyOp5
 70
     1
102
RTVSPropertyOp6
 70
     1
102
RTVSPropertyOp7
 70
     1
102
RTVSPropertyOp8
 70
     1
102
RTVSPropertyOp9
 70
     1
102
RTVSPropertyOp10
 70
     1
102
RTVSPropertyOp11
 70
     1
102
RTVSPropertyOp12
 70
     1
102
RTVSPropertyOp13
 70
     1
102
RTVSPropertyOp14
 70
     1
102
RTVSPropertyOp15
 70
     1
102
RTVSPropertyOp16
 70
     1
102
RTVSPropertyOp17
 70
     1
102
RTVSPropertyOp18
 70
     1
102
RTVSPropertyOp19
 70
     1
102
RTVSPropertyOp20
 70
     1
102
RTVSPropertyOp21
 70
     1
102
RTVSPropertyOp22
 70
     1
102
RTVSPropertyOp23
 70
     1
102
RTVSPropertyOp24
 70
     1
102
RTVSPropertyOp25
 70
     1
102
RTVSPropertyOp26
 70
     1
102
RTVSPropertyOp27
 70
     1
102
RTVSPropertyOp28
 70
     1
102
RTVSPropertyOp29
 70
     1
102
RTVSPropertyOp30
 70
     1
102
RTVSPropertyOp31
 70
     1
102
RTVSPropertyOp32
 70
     1
102
RTVSPropertyOp33
 70
     1
102
RTVSPropertyOp34
 70
     1
102
RTVSPropertyOp35
 70
     1
102
RTVSPropertyOp36
 70
     1
102
RTVSPropertyOp37
 70
     1
102
RTVSPropertyOp38
 70
     1
102
RTVSPropertyOp39
 70
     1
102
RTVSPropertyOp40
 70
     1
102
RTVSPropertyOp41
 70
     1
102
RTVSPropertyOp42
 70
     1
102
RTVSPropertyOp43
 70
     1
102
RTVSPropertyOp44
 70
     1
102
RTVSPropertyOp45
 70
     1
102
RTVSPropertyOp46
 70
     1
102
RTVSPropertyOp47
 70
     1
102
RTVSPropertyOp48
 70
     1
102
RTVSPropertyOp49
 70
     1
102
RTVSPropertyOp50
 70
     1
102
RTVSPropertyOp51
 70
     0
102
RTVSPropertyOp52
 70
     0
102
RTVSPropertyOp53
 70
     1
102
RTVSPropertyOp54
 70
     1
102
RTVSPropertyOp55
 70
     1
102
RTVSPropertyOp56
 70
     1
102
RTVSPropertyOp57
 70
     1
102
RTVSPropertyOp58
 70
     1
102
RTVSPropertyOp59
 70
     1
102
RTVSPropertyOp60
 70
     1
102
RTVSPropertyOp61
 70
     1
102
RTVSPropertyOp62
 70
     1
  0
XRECORD
  5
1AAA2
102
{ACAD_REACTORS
330
1AAA1
102
}
330
1AAA1
100
AcDbXrecord
280
     1
102
RTVSPost2010Prop28
280
     0
102
RTVSPost2010PropOp28
 70
     1
102
RTVSPost2010Prop29
280
     1
102
RTVSPost2010PropOp29
 70
     1
102
RTVSPost2010Prop30
280
     1
102
RTVSPost2010PropOp30
 70
     1
102
RTVSPost2010Prop31
280
     0
102
RTVSPost2010PropOp31
 70
     1
102
RTVSPost2010Prop32
280
     0
102
RTVSPost2010PropOp32
 70
     1
102
RTVSPost2010Prop33
280
     0
102
RTVSPost2010PropOp33
 70
     1
102
RTVSPost2010Prop34
280
     0
102
RTVSPost2010PropOp34
 70
     1
102
RTVSPost2010Prop35
280
     0
102
RTVSPost2010PropOp35
 70
     1
102
RTVSPost2010Prop36
280
     0
102
RTVSPost2010PropOp36
 70
     1
102
RTVSPost2010Prop37
 90
       50
102
RTVSPost2010PropOp37
 70
     1
102
RTVSPost2010Prop38
140
0.0
102
RTVSPost2010PropOp38
 70
     1
102
RTVSPost2010Prop39
140
1.0
102
RTVSPost2010PropOp39
 70
     1
102
RTVSPost2010Prop40
 90
        0
102
RTVSPost2010PropOp40
 70
     1
102
RTVSPost2010Prop41ColorIndex
 90
       18
102
RTVSPost2010Prop41ColorRGB
 90
        0
102
RTVSPost2010PropOp41
 70
     1
102
RTVSPost2010Prop42
 90
       50
102
RTVSPost2010PropOp42
 70
     1
102
RTVSPost2010Prop43
 90
        3
102
RTVSPost2010PropOp43
 70
     1
102
RTVSPost2010Prop44ColorIndex
 90
        5
102
RTVSPost2010Prop44ColorRGB
 90
      255
102
RTVSPost2010PropOp44
 70
     1
102
RTVSPost2010Prop45
280
     0
102
RTVSPost2010PropOp45
 70
     1
102
RTVSPost2010Prop46
 90
       50
102
RTVSPost2010PropOp46
 70
     1
102
RTVSPost2010Prop47
 90
       50
102
RTVSPost2010PropOp47
 70
     1
102
RTVSPost2010Prop48
 90
       50
102
RTVSPost2010PropOp48
 70
     1
102
RTVSPost2010Prop49
280
     0
102
RTVSPost2010PropOp49
 70
     1
102
RTVSPost2010Prop50
 90
       50
102
RTVSPost2010PropOp50
 70
     1
102
RTVSPost2010Prop51ColorIndex
 90
      256
102
RTVSPost2010Prop51ColorRGB
 90
-16777216
102
RTVSPost2010PropOp51
 70
     0
102
RTVSPost2010Prop52
140
1.0
102
RTVSPost2010PropOp52
 70
     0
102
RTVSPost2010Prop53
 90
        2
102
RTVSPost2010PropOp53
 70
     1
102
RTVSPost2010Prop54
  1
strokes_ogs.tif
102
RTVSPost2010PropOp54
 70
     1
102
RTVSPost2010Prop55
280
     0
102
RTVSPost2010PropOp55
 70
     1
102
RTVSPost2010Prop56
140
1.0
102
RTVSPost2010PropOp56
 70
     1
102
RTVSPost2010Prop57
140
1.0
102
RTVSPost2010PropOp57
 70
     1
102
RTVSPropertyOp0
 70
     1
102
RTVSPropertyOp1
 70
     1
102
RTVSPropertyOp2
 70
     1
102
RTVSPropertyOp3
 70
     1
102
RTVSPropertyOp4
 70
     1
102
RTVSPropertyOp5
 70
     1
102
RTVSPropertyOp6
 70
     1
102
RTVSPropertyOp7
 70
     1
102
RTVSPropertyOp8
 70
     1
102
RTVSPropertyOp9
 70
     1
102
RTVSPropertyOp10
 70
     1
102
RTVSPropertyOp11
 70
     1
102
RTVSPropertyOp12
 70
     1
102
RTVSPropertyOp13
 70
     1
102
RTVSPropertyOp14
 70
     1
102
RTVSPropertyOp15
 70
     1
102
RTVSPropertyOp16
 70
     1
102
RTVSPropertyOp17
 70
     1
102
RTVSPropertyOp18
 70
     1
102
RTVSPropertyOp19
 70
     1
102
RTVSPropertyOp20
 70
     1
102
RTVSPropertyOp21
 70
     1
102
RTVSPropertyOp22
 70
     1
102
RTVSPropertyOp23
 70
     1
102
RTVSPropertyOp24
 70
     1
102
RTVSPropertyOp25
 70
     1
102
RTVSPropertyOp26
 70
     1
102
RTVSPropertyOp27
 70
     1
102
RTVSPropertyOp28
 70
     1
102
RTVSPropertyOp29
 70
     1
102
RTVSPropertyOp30
 70
     1
102
RTVSPropertyOp31
 70
     1
102
RTVSPropertyOp32
 70
     1
102
RTVSPropertyOp33
 70
     1
102
RTVSPropertyOp34
 70
     1
102
RTVSPropertyOp35
 70
     1
102
RTVSPropertyOp36
 70
     1
102
RTVSPropertyOp37
 70
     1
102
RTVSPropertyOp38
 70
     1
102
RTVSPropertyOp39
 70
     1
102
RTVSPropertyOp40
 70
     1
102
RTVSPropertyOp41
 70
     1
102
RTVSPropertyOp42
 70
     1
102
RTVSPropertyOp43
 70
     1
102
RTVSPropertyOp44
 70
     1
102
RTVSPropertyOp45
 70
     1
102
RTVSPropertyOp46
 70
     1
102
RTVSPropertyOp47
 70
     1
102
RTVSPropertyOp48
 70
     1
102
RTVSPropertyOp49
 70
     1
102
RTVSPropertyOp50
 70
     1
102
RTVSPropertyOp51
 70
     0
102
RTVSPropertyOp52
 70
     0
102
RTVSPropertyOp53
 70
     1
102
RTVSPropertyOp54
 70
     1
102
RTVSPropertyOp55
 70
     1
102
RTVSPropertyOp56
 70
     1
102
RTVSPropertyOp57
 70
     1
102
RTVSPropertyOp58
 70
     1
102
RTVSPropertyOp59
 70
     1
102
RTVSPropertyOp60
 70
     1
102
RTVSPropertyOp61
 70
     1
102
RTVSPropertyOp62
 70
     1
  0
XRECORD
  5
1AAA6
102
{ACAD_REACTORS
330
1AAA5
102
}
330
1AAA5
100
AcDbXrecord
280
     1
102
RTVSPost2010Prop28
280
     0
102
RTVSPost2010PropOp28
 70
     1
102
RTVSPost2010Prop29
280
     1
102
RTVSPost2010PropOp29
 70
     1
102
RTVSPost2010Prop30
280
     1
102
RTVSPost2010PropOp30
 70
     1
102
RTVSPost2010Prop31
280
     0
102
RTVSPost2010PropOp31
 70
     1
102
RTVSPost2010Prop32
280
     0
102
RTVSPost2010PropOp32
 70
     1
102
RTVSPost2010Prop33
280
     0
102
RTVSPost2010PropOp33
 70
     1
102
RTVSPost2010Prop34
280
     0
102
RTVSPost2010PropOp34
 70
     1
102
RTVSPost2010Prop35
280
     0
102
RTVSPost2010PropOp35
 70
     1
102
RTVSPost2010Prop36
280
     0
102
RTVSPost2010PropOp36
 70
     1
102
RTVSPost2010Prop37
 90
       50
102
RTVSPost2010PropOp37
 70
     1
102
RTVSPost2010Prop38
140
0.0
102
RTVSPost2010PropOp38
 70
     1
102
RTVSPost2010Prop39
140
1.0
102
RTVSPost2010PropOp39
 70
     1
102
RTVSPost2010Prop40
 90
        0
102
RTVSPost2010PropOp40
 70
     1
102
RTVSPost2010Prop41ColorIndex
 90
       18
102
RTVSPost2010Prop41ColorRGB
 90
        0
102
RTVSPost2010PropOp41
 70
     1
102
RTVSPost2010Prop42
 90
       50
102
RTVSPost2010PropOp42
 70
     1
102
RTVSPost2010Prop43
 90
        3
102
RTVSPost2010PropOp43
 70
     1
102
RTVSPost2010Prop44ColorIndex
 90
        5
102
RTVSPost2010Prop44ColorRGB
 90
      255
102
RTVSPost2010PropOp44
 70
     1
102
RTVSPost2010Prop45
280
     0
102
RTVSPost2010PropOp45
 70
     1
102
RTVSPost2010Prop46
 90
       50
102
RTVSPost2010PropOp46
 70
     1
102
RTVSPost2010Prop47
 90
       50
102
RTVSPost2010PropOp47
 70
     1
102
RTVSPost2010Prop48
 90
       50
102
RTVSPost2010PropOp48
 70
     1
102
RTVSPost2010Prop49
280
     0
102
RTVSPost2010PropOp49
 70
     1
102
RTVSPost2010Prop50
 90
       50
102
RTVSPost2010PropOp50
 70
     1
102
RTVSPost2010Prop51ColorIndex
 90
      256
102
RTVSPost2010Prop51ColorRGB
 90
-16777216
102
RTVSPost2010PropOp51
 70
     0
102
RTVSPost2010Prop52
140
1.0
102
RTVSPost2010PropOp52
 70
     0
102
RTVSPost2010Prop53
 90
        2
102
RTVSPost2010PropOp53
 70
     1
102
RTVSPost2010Prop54
  1
strokes_ogs.tif
102
RTVSPost2010PropOp54
 70
     1
102
RTVSPost2010Prop55
280
     0
102
RTVSPost2010PropOp55
 70
     1
102
RTVSPost2010Prop56
140
1.0
102
RTVSPost2010PropOp56
 70
     1
102
RTVSPost2010Prop57
140
1.0
102
RTVSPost2010PropOp57
 70
     1
102
RTVSPropertyOp0
 70
     1
102
RTVSPropertyOp1
 70
     1
102
RTVSPropertyOp2
 70
     1
102
RTVSPropertyOp3
 70
     1
102
RTVSPropertyOp4
 70
     1
102
RTVSPropertyOp5
 70
     1
102
RTVSPropertyOp6
 70
     1
102
RTVSPropertyOp7
 70
     1
102
RTVSPropertyOp8
 70
     1
102
RTVSPropertyOp9
 70
     1
102
RTVSPropertyOp10
 70
     1
102
RTVSPropertyOp11
 70
     1
102
RTVSPropertyOp12
 70
     1
102
RTVSPropertyOp13
 70
     1
102
RTVSPropertyOp14
 70
     1
102
RTVSPropertyOp15
 70
     1
102
RTVSPropertyOp16
 70
     1
102
RTVSPropertyOp17
 70
     1
102
RTVSPropertyOp18
 70
     1
102
RTVSPropertyOp19
 70
     1
102
RTVSPropertyOp20
 70
     1
102
RTVSPropertyOp21
 70
     1
102
RTVSPropertyOp22
 70
     1
102
RTVSPropertyOp23
 70
     1
102
RTVSPropertyOp24
 70
     1
102
RTVSPropertyOp25
 70
     1
102
RTVSPropertyOp26
 70
     1
102
RTVSPropertyOp27
 70
     1
102
RTVSPropertyOp28
 70
     1
102
RTVSPropertyOp29
 70
     1
102
RTVSPropertyOp30
 70
     1
102
RTVSPropertyOp31
 70
     1
102
RTVSPropertyOp32
 70
     1
102
RTVSPropertyOp33
 70
     1
102
RTVSPropertyOp34
 70
     1
102
RTVSPropertyOp35
 70
     1
102
RTVSPropertyOp36
 70
     1
102
RTVSPropertyOp37
 70
     1
102
RTVSPropertyOp38
 70
     1
102
RTVSPropertyOp39
 70
     1
102
RTVSPropertyOp40
 70
     1
102
RTVSPropertyOp41
 70
     1
102
RTVSPropertyOp42
 70
     1
102
RTVSPropertyOp43
 70
     1
102
RTVSPropertyOp44
 70
     1
102
RTVSPropertyOp45
 70
     1
102
RTVSPropertyOp46
 70
     1
102
RTVSPropertyOp47
 70
     1
102
RTVSPropertyOp48
 70
     1
102
RTVSPropertyOp49
 70
     1
102
RTVSPropertyOp50
 70
     1
102
RTVSPropertyOp51
 70
     0
102
RTVSPropertyOp52
 70
     0
102
RTVSPropertyOp53
 70
     1
102
RTVSPropertyOp54
 70
     1
102
RTVSPropertyOp55
 70
     1
102
RTVSPropertyOp56
 70
     1
102
RTVSPropertyOp57
 70
     1
102
RTVSPropertyOp58
 70
     1
102
RTVSPropertyOp59
 70
     1
102
RTVSPropertyOp60
 70
     1
102
RTVSPropertyOp61
 70
     1
102
RTVSPropertyOp62
 70
     1
  0
XRECORD
  5
1AAB8
102
{ACAD_REACTORS
330
1AAB7
102
}
330
1AAB7
100
AcDbXrecord
280
     1
102
RTVSPost2010Prop28
280
     0
102
RTVSPost2010PropOp28
 70
     1
102
RTVSPost2010Prop29
280
     1
102
RTVSPost2010PropOp29
 70
     1
102
RTVSPost2010Prop30
280
     1
102
RTVSPost2010PropOp30
 70
     1
102
RTVSPost2010Prop31
280
     0
102
RTVSPost2010PropOp31
 70
     1
102
RTVSPost2010Prop32
280
     0
102
RTVSPost2010PropOp32
 70
     1
102
RTVSPost2010Prop33
280
     0
102
RTVSPost2010PropOp33
 70
     1
102
RTVSPost2010Prop34
280
     0
102
RTVSPost2010PropOp34
 70
     1
102
RTVSPost2010Prop35
280
     0
102
RTVSPost2010PropOp35
 70
     1
102
RTVSPost2010Prop36
280
     0
102
RTVSPost2010PropOp36
 70
     1
102
RTVSPost2010Prop37
 90
       50
102
RTVSPost2010PropOp37
 70
     1
102
RTVSPost2010Prop38
140
0.0
102
RTVSPost2010PropOp38
 70
     1
102
RTVSPost2010Prop39
140
1.0
102
RTVSPost2010PropOp39
 70
     1
102
RTVSPost2010Prop40
 90
        0
102
RTVSPost2010PropOp40
 70
     1
102
RTVSPost2010Prop41ColorIndex
 90
       18
102
RTVSPost2010Prop41ColorRGB
 90
        0
102
RTVSPost2010PropOp41
 70
     1
102
RTVSPost2010Prop42
 90
       50
102
RTVSPost2010PropOp42
 70
     1
102
RTVSPost2010Prop43
 90
        3
102
RTVSPost2010PropOp43
 70
     1
102
RTVSPost2010Prop44ColorIndex
 90
        5
102
RTVSPost2010Prop44ColorRGB
 90
      255
102
RTVSPost2010PropOp44
 70
     1
102
RTVSPost2010Prop45
280
     0
102
RTVSPost2010PropOp45
 70
     1
102
RTVSPost2010Prop46
 90
       50
102
RTVSPost2010PropOp46
 70
     1
102
RTVSPost2010Prop47
 90
       50
102
RTVSPost2010PropOp47
 70
     1
102
RTVSPost2010Prop48
 90
       50
102
RTVSPost2010PropOp48
 70
     1
102
RTVSPost2010Prop49
280
     0
102
RTVSPost2010PropOp49
 70
     1
102
RTVSPost2010Prop50
 90
       50
102
RTVSPost2010PropOp50
 70
     1
102
RTVSPost2010Prop51ColorIndex
 90
      256
102
RTVSPost2010Prop51ColorRGB
 90
-16777216
102
RTVSPost2010PropOp51
 70
     0
102
RTVSPost2010Prop52
140
1.0
102
RTVSPost2010PropOp52
 70
     0
102
RTVSPost2010Prop53
 90
        2
102
RTVSPost2010PropOp53
 70
     1
102
RTVSPost2010Prop54
  1
strokes_ogs.tif
102
RTVSPost2010PropOp54
 70
     1
102
RTVSPost2010Prop55
280
     0
102
RTVSPost2010PropOp55
 70
     1
102
RTVSPost2010Prop56
140
1.0
102
RTVSPost2010PropOp56
 70
     1
102
RTVSPost2010Prop57
140
1.0
102
RTVSPost2010PropOp57
 70
     1
102
RTVSPropertyOp0
 70
     0
102
RTVSPropertyOp1
 70
     0
102
RTVSPropertyOp2
 70
     0
102
RTVSPropertyOp3
 70
     0
102
RTVSPropertyOp4
 70
     0
102
RTVSPropertyOp5
 70
     0
102
RTVSPropertyOp6
 70
     0
102
RTVSPropertyOp7
 70
     0
102
RTVSPropertyOp8
 70
     0
102
RTVSPropertyOp9
 70
     0
102
RTVSPropertyOp10
 70
     0
102
RTVSPropertyOp11
 70
     0
102
RTVSPropertyOp12
 70
     0
102
RTVSPropertyOp13
 70
     0
102
RTVSPropertyOp14
 70
     2
102
RTVSPropertyOp15
 70
     0
102
RTVSPropertyOp16
 70
     0
102
RTVSPropertyOp17
 70
     0
102
RTVSPropertyOp18
 70
     0
102
RTVSPropertyOp19
 70
     0
102
RTVSPropertyOp20
 70
     0
102
RTVSPropertyOp21
 70
     0
102
RTVSPropertyOp22
 70
     0
102
RTVSPropertyOp23
 70
     0
102
RTVSPropertyOp24
 70
     0
102
RTVSPropertyOp25
 70
     0
102
RTVSPropertyOp26
 70
     0
102
RTVSPropertyOp27
 70
     0
102
RTVSPropertyOp28
 70
     1
102
RTVSPropertyOp29
 70
     1
102
RTVSPropertyOp30
 70
     1
102
RTVSPropertyOp31
 70
     1
102
RTVSPropertyOp32
 70
     1
102
RTVSPropertyOp33
 70
     1
102
RTVSPropertyOp34
 70
     1
102
RTVSPropertyOp35
 70
     1
102
RTVSPropertyOp36
 70
     1
102
RTVSPropertyOp37
 70
     1
102
RTVSPropertyOp38
 70
     1
102
RTVSPropertyOp39
 70
     1
102
RTVSPropertyOp40
 70
     1
102
RTVSPropertyOp41
 70
     1
102
RTVSPropertyOp42
 70
     1
102
RTVSPropertyOp43
 70
     1
102
RTVSPropertyOp44
 70
     1
102
RTVSPropertyOp45
 70
     1
102
RTVSPropertyOp46
 70
     1
102
RTVSPropertyOp47
 70
     1
102
RTVSPropertyOp48
 70
     1
102
RTVSPropertyOp49
 70
     1
102
RTVSPropertyOp50
 70
     1
102
RTVSPropertyOp51
 70
     0
102
RTVSPropertyOp52
 70
     0
102
RTVSPropertyOp53
 70
     1
102
RTVSPropertyOp54
 70
     1
102
RTVSPropertyOp55
 70
     1
102
RTVSPropertyOp56
 70
     1
102
RTVSPropertyOp57
 70
     1
102
RTVSPropertyOp58
 70
     1
102
RTVSPropertyOp59
 70
     1
102
RTVSPropertyOp60
 70
     1
102
RTVSPropertyOp61
 70
     1
102
RTVSPropertyOp62
 70
     1
  0
XRECORD
  5
1AAAE
102
{ACAD_REACTORS
330
1AAAD
102
}
330
1AAAD
100
AcDbXrecord
280
     1
102
RTVSPost2010Prop28
280
     0
102
RTVSPost2010PropOp28
 70
     1
102
RTVSPost2010Prop29
280
     1
102
RTVSPost2010PropOp29
 70
     1
102
RTVSPost2010Prop30
280
     1
102
RTVSPost2010PropOp30
 70
     1
102
RTVSPost2010Prop31
280
     0
102
RTVSPost2010PropOp31
 70
     1
102
RTVSPost2010Prop32
280
     0
102
RTVSPost2010PropOp32
 70
     1
102
RTVSPost2010Prop33
280
     0
102
RTVSPost2010PropOp33
 70
     1
102
RTVSPost2010Prop34
280
     0
102
RTVSPost2010PropOp34
 70
     1
102
RTVSPost2010Prop35
280
     0
102
RTVSPost2010PropOp35
 70
     1
102
RTVSPost2010Prop36
280
     0
102
RTVSPost2010PropOp36
 70
     1
102
RTVSPost2010Prop37
 90
       50
102
RTVSPost2010PropOp37
 70
     1
102
RTVSPost2010Prop38
140
0.0
102
RTVSPost2010PropOp38
 70
     1
102
RTVSPost2010Prop39
140
1.0
102
RTVSPost2010PropOp39
 70
     1
102
RTVSPost2010Prop40
 90
        0
102
RTVSPost2010PropOp40
 70
     1
102
RTVSPost2010Prop41ColorIndex
 90
       18
102
RTVSPost2010Prop41ColorRGB
 90
        0
102
RTVSPost2010PropOp41
 70
     1
102
RTVSPost2010Prop42
 90
       50
102
RTVSPost2010PropOp42
 70
     1
102
RTVSPost2010Prop43
 90
        3
102
RTVSPost2010PropOp43
 70
     1
102
RTVSPost2010Prop44ColorIndex
 90
        5
102
RTVSPost2010Prop44ColorRGB
 90
      255
102
RTVSPost2010PropOp44
 70
     1
102
RTVSPost2010Prop45
280
     0
102
RTVSPost2010PropOp45
 70
     1
102
RTVSPost2010Prop46
 90
       50
102
RTVSPost2010PropOp46
 70
     1
102
RTVSPost2010Prop47
 90
       50
102
RTVSPost2010PropOp47
 70
     1
102
RTVSPost2010Prop48
 90
       50
102
RTVSPost2010PropOp48
 70
     1
102
RTVSPost2010Prop49
280
     0
102
RTVSPost2010PropOp49
 70
     1
102
RTVSPost2010Prop50
 90
       50
102
RTVSPost2010PropOp50
 70
     1
102
RTVSPost2010Prop51ColorIndex
 90
      256
102
RTVSPost2010Prop51ColorRGB
 90
-16777216
102
RTVSPost2010PropOp51
 70
     0
102
RTVSPost2010Prop52
140
1.0
102
RTVSPost2010PropOp52
 70
     0
102
RTVSPost2010Prop53
 90
        2
102
RTVSPost2010PropOp53
 70
     1
102
RTVSPost2010Prop54
  1
strokes_ogs.tif
102
RTVSPost2010PropOp54
 70
     1
102
RTVSPost2010Prop55
280
     0
102
RTVSPost2010PropOp55
 70
     1
102
RTVSPost2010Prop56
140
1.0
102
RTVSPost2010PropOp56
 70
     1
102
RTVSPost2010Prop57
140
1.0
102
RTVSPost2010PropOp57
 70
     1
102
RTVSPropertyOp0
 70
     1
102
RTVSPropertyOp1
 70
     1
102
RTVSPropertyOp2
 70
     1
102
RTVSPropertyOp3
 70
     1
102
RTVSPropertyOp4
 70
     1
102
RTVSPropertyOp5
 70
     1
102
RTVSPropertyOp6
 70
     1
102
RTVSPropertyOp7
 70
     1
102
RTVSPropertyOp8
 70
     1
102
RTVSPropertyOp9
 70
     1
102
RTVSPropertyOp10
 70
     1
102
RTVSPropertyOp11
 70
     1
102
RTVSPropertyOp12
 70
     1
102
RTVSPropertyOp13
 70
     1
102
RTVSPropertyOp14
 70
     1
102
RTVSPropertyOp15
 70
     1
102
RTVSPropertyOp16
 70
     1
102
RTVSPropertyOp17
 70
     1
102
RTVSPropertyOp18
 70
     1
102
RTVSPropertyOp19
 70
     1
102
RTVSPropertyOp20
 70
     1
102
RTVSPropertyOp21
 70
     1
102
RTVSPropertyOp22
 70
     1
102
RTVSPropertyOp23
 70
     1
102
RTVSPropertyOp24
 70
     1
102
RTVSPropertyOp25
 70
     1
102
RTVSPropertyOp26
 70
     1
102
RTVSPropertyOp27
 70
     1
102
RTVSPropertyOp28
 70
     1
102
RTVSPropertyOp29
 70
     1
102
RTVSPropertyOp30
 70
     1
102
RTVSPropertyOp31
 70
     1
102
RTVSPropertyOp32
 70
     1
102
RTVSPropertyOp33
 70
     1
102
RTVSPropertyOp34
 70
     1
102
RTVSPropertyOp35
 70
     1
102
RTVSPropertyOp36
 70
     1
102
RTVSPropertyOp37
 70
     1
102
RTVSPropertyOp38
 70
     1
102
RTVSPropertyOp39
 70
     1
102
RTVSPropertyOp40
 70
     1
102
RTVSPropertyOp41
 70
     1
102
RTVSPropertyOp42
 70
     1
102
RTVSPropertyOp43
 70
     1
102
RTVSPropertyOp44
 70
     1
102
RTVSPropertyOp45
 70
     1
102
RTVSPropertyOp46
 70
     1
102
RTVSPropertyOp47
 70
     1
102
RTVSPropertyOp48
 70
     1
102
RTVSPropertyOp49
 70
     1
102
RTVSPropertyOp50
 70
     1
102
RTVSPropertyOp51
 70
     0
102
RTVSPropertyOp52
 70
     0
102
RTVSPropertyOp53
 70
     1
102
RTVSPropertyOp54
 70
     1
102
RTVSPropertyOp55
 70
     1
102
RTVSPropertyOp56
 70
     1
102
RTVSPropertyOp57
 70
     1
102
RTVSPropertyOp58
 70
     1
102
RTVSPropertyOp59
 70
     1
102
RTVSPropertyOp60
 70
     1
102
RTVSPropertyOp61
 70
     1
102
RTVSPropertyOp62
 70
     1
  0
XRECORD
  5
1AA92
102
{ACAD_REACTORS
330
1AA91
102
}
330
1AA91
100
AcDbXrecord
280
     1
102
RTVSPost2010Prop28
280
     0
102
RTVSPost2010PropOp28
 70
     1
102
RTVSPost2010Prop29
280
     1
102
RTVSPost2010PropOp29
 70
     1
102
RTVSPost2010Prop30
280
     1
102
RTVSPost2010PropOp30
 70
     1
102
RTVSPost2010Prop31
280
     0
102
RTVSPost2010PropOp31
 70
     1
102
RTVSPost2010Prop32
280
     0
102
RTVSPost2010PropOp32
 70
     1
102
RTVSPost2010Prop33
280
     0
102
RTVSPost2010PropOp33
 70
     1
102
RTVSPost2010Prop34
280
     0
102
RTVSPost2010PropOp34
 70
     1
102
RTVSPost2010Prop35
280
     0
102
RTVSPost2010PropOp35
 70
     1
102
RTVSPost2010Prop36
280
     0
102
RTVSPost2010PropOp36
 70
     1
102
RTVSPost2010Prop37
 90
       50
102
RTVSPost2010PropOp37
 70
     1
102
RTVSPost2010Prop38
140
0.0
102
RTVSPost2010PropOp38
 70
     1
102
RTVSPost2010Prop39
140
1.0
102
RTVSPost2010PropOp39
 70
     1
102
RTVSPost2010Prop40
 90
        0
102
RTVSPost2010PropOp40
 70
     1
102
RTVSPost2010Prop41ColorIndex
 90
       18
102
RTVSPost2010Prop41ColorRGB
 90
        0
102
RTVSPost2010PropOp41
 70
     1
102
RTVSPost2010Prop42
 90
       50
102
RTVSPost2010PropOp42
 70
     1
102
RTVSPost2010Prop43
 90
        3
102
RTVSPost2010PropOp43
 70
     1
102
RTVSPost2010Prop44ColorIndex
 90
        5
102
RTVSPost2010Prop44ColorRGB
 90
      255
102
RTVSPost2010PropOp44
 70
     1
102
RTVSPost2010Prop45
280
     0
102
RTVSPost2010PropOp45
 70
     1
102
RTVSPost2010Prop46
 90
       50
102
RTVSPost2010PropOp46
 70
     1
102
RTVSPost2010Prop47
 90
       50
102
RTVSPost2010PropOp47
 70
     1
102
RTVSPost2010Prop48
 90
       50
102
RTVSPost2010PropOp48
 70
     1
102
RTVSPost2010Prop49
280
     0
102
RTVSPost2010PropOp49
 70
     1
102
RTVSPost2010Prop50
 90
       50
102
RTVSPost2010PropOp50
 70
     1
102
RTVSPost2010Prop51ColorIndex
 90
      256
102
RTVSPost2010Prop51ColorRGB
 90
-16777216
102
RTVSPost2010PropOp51
 70
     0
102
RTVSPost2010Prop52
140
1.0
102
RTVSPost2010PropOp52
 70
     0
102
RTVSPost2010Prop53
 90
        2
102
RTVSPost2010PropOp53
 70
     1
102
RTVSPost2010Prop54
  1
strokes_ogs.tif
102
RTVSPost2010PropOp54
 70
     1
102
RTVSPost2010Prop55
280
     0
102
RTVSPost2010PropOp55
 70
     1
102
RTVSPost2010Prop56
140
1.0
102
RTVSPost2010PropOp56
 70
     1
102
RTVSPost2010Prop57
140
1.0
102
RTVSPost2010PropOp57
 70
     1
102
RTVSPropertyOp0
 70
     1
102
RTVSPropertyOp1
 70
     1
102
RTVSPropertyOp2
 70
     1
102
RTVSPropertyOp3
 70
     1
102
RTVSPropertyOp4
 70
     1
102
RTVSPropertyOp5
 70
     1
102
RTVSPropertyOp6
 70
     1
102
RTVSPropertyOp7
 70
     1
102
RTVSPropertyOp8
 70
     1
102
RTVSPropertyOp9
 70
     1
102
RTVSPropertyOp10
 70
     1
102
RTVSPropertyOp11
 70
     1
102
RTVSPropertyOp12
 70
     1
102
RTVSPropertyOp13
 70
     1
102
RTVSPropertyOp14
 70
     1
102
RTVSPropertyOp15
 70
     1
102
RTVSPropertyOp16
 70
     1
102
RTVSPropertyOp17
 70
     1
102
RTVSPropertyOp18
 70
     1
102
RTVSPropertyOp19
 70
     1
102
RTVSPropertyOp20
 70
     1
102
RTVSPropertyOp21
 70
     1
102
RTVSPropertyOp22
 70
     1
102
RTVSPropertyOp23
 70
     1
102
RTVSPropertyOp24
 70
     1
102
RTVSPropertyOp25
 70
     1
102
RTVSPropertyOp26
 70
     1
102
RTVSPropertyOp27
 70
     1
102
RTVSPropertyOp28
 70
     1
102
RTVSPropertyOp29
 70
     1
102
RTVSPropertyOp30
 70
     1
102
RTVSPropertyOp31
 70
     1
102
RTVSPropertyOp32
 70
     1
102
RTVSPropertyOp33
 70
     1
102
RTVSPropertyOp34
 70
     1
102
RTVSPropertyOp35
 70
     1
102
RTVSPropertyOp36
 70
     1
102
RTVSPropertyOp37
 70
     1
102
RTVSPropertyOp38
 70
     1
102
RTVSPropertyOp39
 70
     1
102
RTVSPropertyOp40
 70
     1
102
RTVSPropertyOp41
 70
     1
102
RTVSPropertyOp42
 70
     1
102
RTVSPropertyOp43
 70
     1
102
RTVSPropertyOp44
 70
     1
102
RTVSPropertyOp45
 70
     1
102
RTVSPropertyOp46
 70
     1
102
RTVSPropertyOp47
 70
     1
102
RTVSPropertyOp48
 70
     1
102
RTVSPropertyOp49
 70
     1
102
RTVSPropertyOp50
 70
     1
102
RTVSPropertyOp51
 70
     0
102
RTVSPropertyOp52
 70
     0
102
RTVSPropertyOp53
 70
     1
102
RTVSPropertyOp54
 70
     1
102
RTVSPropertyOp55
 70
     1
102
RTVSPropertyOp56
 70
     1
102
RTVSPropertyOp57
 70
     1
102
RTVSPropertyOp58
 70
     1
102
RTVSPropertyOp59
 70
     1
102
RTVSPropertyOp60
 70
     1
102
RTVSPropertyOp61
 70
     1
102
RTVSPropertyOp62
 70
     1
  0
XRECORD
  5
1AA94
102
{ACAD_REACTORS
330
1AA93
102
}
330
1AA93
100
AcDbXrecord
280
     1
102
RTVSPost2010Prop28
280
     0
102
RTVSPost2010PropOp28
 70
     1
102
RTVSPost2010Prop29
280
     1
102
RTVSPost2010PropOp29
 70
     1
102
RTVSPost2010Prop30
280
     1
102
RTVSPost2010PropOp30
 70
     1
102
RTVSPost2010Prop31
280
     0
102
RTVSPost2010PropOp31
 70
     1
102
RTVSPost2010Prop32
280
     0
102
RTVSPost2010PropOp32
 70
     1
102
RTVSPost2010Prop33
280
     0
102
RTVSPost2010PropOp33
 70
     1
102
RTVSPost2010Prop34
280
     0
102
RTVSPost2010PropOp34
 70
     1
102
RTVSPost2010Prop35
280
     0
102
RTVSPost2010PropOp35
 70
     1
102
RTVSPost2010Prop36
280
     0
102
RTVSPost2010PropOp36
 70
     1
102
RTVSPost2010Prop37
 90
       50
102
RTVSPost2010PropOp37
 70
     1
102
RTVSPost2010Prop38
140
0.0
102
RTVSPost2010PropOp38
 70
     1
102
RTVSPost2010Prop39
140
1.0
102
RTVSPost2010PropOp39
 70
     1
102
RTVSPost2010Prop40
 90
        0
102
RTVSPost2010PropOp40
 70
     1
102
RTVSPost2010Prop41ColorIndex
 90
       18
102
RTVSPost2010Prop41ColorRGB
 90
        0
102
RTVSPost2010PropOp41
 70
     1
102
RTVSPost2010Prop42
 90
       50
102
RTVSPost2010PropOp42
 70
     1
102
RTVSPost2010Prop43
 90
        3
102
RTVSPost2010PropOp43
 70
     1
102
RTVSPost2010Prop44ColorIndex
 90
        5
102
RTVSPost2010Prop44ColorRGB
 90
      255
102
RTVSPost2010PropOp44
 70
     1
102
RTVSPost2010Prop45
280
     0
102
RTVSPost2010PropOp45
 70
     1
102
RTVSPost2010Prop46
 90
       50
102
RTVSPost2010PropOp46
 70
     1
102
RTVSPost2010Prop47
 90
       50
102
RTVSPost2010PropOp47
 70
     1
102
RTVSPost2010Prop48
 90
       50
102
RTVSPost2010PropOp48
 70
     1
102
RTVSPost2010Prop49
280
     0
102
RTVSPost2010PropOp49
 70
     1
102
RTVSPost2010Prop50
 90
       50
102
RTVSPost2010PropOp50
 70
     1
102
RTVSPost2010Prop51ColorIndex
 90
      256
102
RTVSPost2010Prop51ColorRGB
 90
-16777216
102
RTVSPost2010PropOp51
 70
     0
102
RTVSPost2010Prop52
140
1.0
102
RTVSPost2010PropOp52
 70
     0
102
RTVSPost2010Prop53
 90
        2
102
RTVSPost2010PropOp53
 70
     1
102
RTVSPost2010Prop54
  1
strokes_ogs.tif
102
RTVSPost2010PropOp54
 70
     1
102
RTVSPost2010Prop55
280
     0
102
RTVSPost2010PropOp55
 70
     1
102
RTVSPost2010Prop56
140
1.0
102
RTVSPost2010PropOp56
 70
     1
102
RTVSPost2010Prop57
140
1.0
102
RTVSPost2010PropOp57
 70
     1
102
RTVSPropertyOp0
 70
     1
102
RTVSPropertyOp1
 70
     1
102
RTVSPropertyOp2
 70
     1
102
RTVSPropertyOp3
 70
     1
102
RTVSPropertyOp4
 70
     1
102
RTVSPropertyOp5
 70
     1
102
RTVSPropertyOp6
 70
     1
102
RTVSPropertyOp7
 70
     1
102
RTVSPropertyOp8
 70
     1
102
RTVSPropertyOp9
 70
     1
102
RTVSPropertyOp10
 70
     1
102
RTVSPropertyOp11
 70
     1
102
RTVSPropertyOp12
 70
     1
102
RTVSPropertyOp13
 70
     1
102
RTVSPropertyOp14
 70
     1
102
RTVSPropertyOp15
 70
     1
102
RTVSPropertyOp16
 70
     1
102
RTVSPropertyOp17
 70
     1
102
RTVSPropertyOp18
 70
     1
102
RTVSPropertyOp19
 70
     1
102
RTVSPropertyOp20
 70
     1
102
RTVSPropertyOp21
 70
     1
102
RTVSPropertyOp22
 70
     1
102
RTVSPropertyOp23
 70
     1
102
RTVSPropertyOp24
 70
     1
102
RTVSPropertyOp25
 70
     1
102
RTVSPropertyOp26
 70
     1
102
RTVSPropertyOp27
 70
     1
102
RTVSPropertyOp28
 70
     1
102
RTVSPropertyOp29
 70
     1
102
RTVSPropertyOp30
 70
     1
102
RTVSPropertyOp31
 70
     1
102
RTVSPropertyOp32
 70
     1
102
RTVSPropertyOp33
 70
     1
102
RTVSPropertyOp34
 70
     1
102
RTVSPropertyOp35
 70
     1
102
RTVSPropertyOp36
 70
     1
102
RTVSPropertyOp37
 70
     1
102
RTVSPropertyOp38
 70
     1
102
RTVSPropertyOp39
 70
     1
102
RTVSPropertyOp40
 70
     1
102
RTVSPropertyOp41
 70
     1
102
RTVSPropertyOp42
 70
     1
102
RTVSPropertyOp43
 70
     1
102
RTVSPropertyOp44
 70
     1
102
RTVSPropertyOp45
 70
     1
102
RTVSPropertyOp46
 70
     1
102
RTVSPropertyOp47
 70
     1
102
RTVSPropertyOp48
 70
     1
102
RTVSPropertyOp49
 70
     1
102
RTVSPropertyOp50
 70
     1
102
RTVSPropertyOp51
 70
     0
102
RTVSPropertyOp52
 70
     0
102
RTVSPropertyOp53
 70
     1
102
RTVSPropertyOp54
 70
     1
102
RTVSPropertyOp55
 70
     1
102
RTVSPropertyOp56
 70
     1
102
RTVSPropertyOp57
 70
     1
102
RTVSPropertyOp58
 70
     1
102
RTVSPropertyOp59
 70
     1
102
RTVSPropertyOp60
 70
     1
102
RTVSPropertyOp61
 70
     1
102
RTVSPropertyOp62
 70
     1
  0
XRECORD
  5
1AA96
102
{ACAD_REACTORS
330
1AA95
102
}
330
1AA95
100
AcDbXrecord
280
     1
102
RTVSPost2010Prop28
280
     0
102
RTVSPost2010PropOp28
 70
     1
102
RTVSPost2010Prop29
280
     1
102
RTVSPost2010PropOp29
 70
     1
102
RTVSPost2010Prop30
280
     1
102
RTVSPost2010PropOp30
 70
     1
102
RTVSPost2010Prop31
280
     0
102
RTVSPost2010PropOp31
 70
     1
102
RTVSPost2010Prop32
280
     0
102
RTVSPost2010PropOp32
 70
     1
102
RTVSPost2010Prop33
280
     0
102
RTVSPost2010PropOp33
 70
     1
102
RTVSPost2010Prop34
280
     0
102
RTVSPost2010PropOp34
 70
     1
102
RTVSPost2010Prop35
280
     0
102
RTVSPost2010PropOp35
 70
     1
102
RTVSPost2010Prop36
280
     0
102
RTVSPost2010PropOp36
 70
     1
102
RTVSPost2010Prop37
 90
       50
102
RTVSPost2010PropOp37
 70
     1
102
RTVSPost2010Prop38
140
0.0
102
RTVSPost2010PropOp38
 70
     1
102
RTVSPost2010Prop39
140
1.0
102
RTVSPost2010PropOp39
 70
     1
102
RTVSPost2010Prop40
 90
        0
102
RTVSPost2010PropOp40
 70
     1
102
RTVSPost2010Prop41ColorIndex
 90
       18
102
RTVSPost2010Prop41ColorRGB
 90
        0
102
RTVSPost2010PropOp41
 70
     1
102
RTVSPost2010Prop42
 90
       50
102
RTVSPost2010PropOp42
 70
     1
102
RTVSPost2010Prop43
 90
        3
102
RTVSPost2010PropOp43
 70
     1
102
RTVSPost2010Prop44ColorIndex
 90
        5
102
RTVSPost2010Prop44ColorRGB
 90
      255
102
RTVSPost2010PropOp44
 70
     1
102
RTVSPost2010Prop45
280
     0
102
RTVSPost2010PropOp45
 70
     1
102
RTVSPost2010Prop46
 90
       50
102
RTVSPost2010PropOp46
 70
     1
102
RTVSPost2010Prop47
 90
       50
102
RTVSPost2010PropOp47
 70
     1
102
RTVSPost2010Prop48
 90
       50
102
RTVSPost2010PropOp48
 70
     1
102
RTVSPost2010Prop49
280
     0
102
RTVSPost2010PropOp49
 70
     1
102
RTVSPost2010Prop50
 90
       50
102
RTVSPost2010PropOp50
 70
     1
102
RTVSPost2010Prop51ColorIndex
 90
      256
102
RTVSPost2010Prop51ColorRGB
 90
-16777216
102
RTVSPost2010PropOp51
 70
     0
102
RTVSPost2010Prop52
140
1.0
102
RTVSPost2010PropOp52
 70
     0
102
RTVSPost2010Prop53
 90
        2
102
RTVSPost2010PropOp53
 70
     1
102
RTVSPost2010Prop54
  1
strokes_ogs.tif
102
RTVSPost2010PropOp54
 70
     1
102
RTVSPost2010Prop55
280
     0
102
RTVSPost2010PropOp55
 70
     1
102
RTVSPost2010Prop56
140
1.0
102
RTVSPost2010PropOp56
 70
     1
102
RTVSPost2010Prop57
140
1.0
102
RTVSPost2010PropOp57
 70
     1
102
RTVSPropertyOp0
 70
     1
102
RTVSPropertyOp1
 70
     1
102
RTVSPropertyOp2
 70
     1
102
RTVSPropertyOp3
 70
     1
102
RTVSPropertyOp4
 70
     1
102
RTVSPropertyOp5
 70
     1
102
RTVSPropertyOp6
 70
     1
102
RTVSPropertyOp7
 70
     1
102
RTVSPropertyOp8
 70
     1
102
RTVSPropertyOp9
 70
     1
102
RTVSPropertyOp10
 70
     1
102
RTVSPropertyOp11
 70
     1
102
RTVSPropertyOp12
 70
     1
102
RTVSPropertyOp13
 70
     1
102
RTVSPropertyOp14
 70
     1
102
RTVSPropertyOp15
 70
     1
102
RTVSPropertyOp16
 70
     1
102
RTVSPropertyOp17
 70
     1
102
RTVSPropertyOp18
 70
     1
102
RTVSPropertyOp19
 70
     1
102
RTVSPropertyOp20
 70
     1
102
RTVSPropertyOp21
 70
     1
102
RTVSPropertyOp22
 70
     1
102
RTVSPropertyOp23
 70
     1
102
RTVSPropertyOp24
 70
     1
102
RTVSPropertyOp25
 70
     1
102
RTVSPropertyOp26
 70
     1
102
RTVSPropertyOp27
 70
     1
102
RTVSPropertyOp28
 70
     1
102
RTVSPropertyOp29
 70
     1
102
RTVSPropertyOp30
 70
     1
102
RTVSPropertyOp31
 70
     1
102
RTVSPropertyOp32
 70
     1
102
RTVSPropertyOp33
 70
     1
102
RTVSPropertyOp34
 70
     1
102
RTVSPropertyOp35
 70
     1
102
RTVSPropertyOp36
 70
     1
102
RTVSPropertyOp37
 70
     1
102
RTVSPropertyOp38
 70
     1
102
RTVSPropertyOp39
 70
     1
102
RTVSPropertyOp40
 70
     1
102
RTVSPropertyOp41
 70
     1
102
RTVSPropertyOp42
 70
     1
102
RTVSPropertyOp43
 70
     1
102
RTVSPropertyOp44
 70
     1
102
RTVSPropertyOp45
 70
     1
102
RTVSPropertyOp46
 70
     1
102
RTVSPropertyOp47
 70
     1
102
RTVSPropertyOp48
 70
     1
102
RTVSPropertyOp49
 70
     1
102
RTVSPropertyOp50
 70
     1
102
RTVSPropertyOp51
 70
     0
102
RTVSPropertyOp52
 70
     0
102
RTVSPropertyOp53
 70
     1
102
RTVSPropertyOp54
 70
     1
102
RTVSPropertyOp55
 70
     1
102
RTVSPropertyOp56
 70
     1
102
RTVSPropertyOp57
 70
     1
102
RTVSPropertyOp58
 70
     1
102
RTVSPropertyOp59
 70
     1
102
RTVSPropertyOp60
 70
     1
102
RTVSPropertyOp61
 70
     1
102
RTVSPropertyOp62
 70
     1
  0
XRECORD
  5
1AA98
102
{ACAD_REACTORS
330
1AA97
102
}
330
1AA97
100
AcDbXrecord
280
     1
102
RTVSPost2010Prop28
280
     0
102
RTVSPost2010PropOp28
 70
     1
102
RTVSPost2010Prop29
280
     1
102
RTVSPost2010PropOp29
 70
     1
102
RTVSPost2010Prop30
280
     1
102
RTVSPost2010PropOp30
 70
     1
102
RTVSPost2010Prop31
280
     0
102
RTVSPost2010PropOp31
 70
     1
102
RTVSPost2010Prop32
280
     0
102
RTVSPost2010PropOp32
 70
     1
102
RTVSPost2010Prop33
280
     0
102
RTVSPost2010PropOp33
 70
     1
102
RTVSPost2010Prop34
280
     0
102
RTVSPost2010PropOp34
 70
     1
102
RTVSPost2010Prop35
280
     0
102
RTVSPost2010PropOp35
 70
     1
102
RTVSPost2010Prop36
280
     0
102
RTVSPost2010PropOp36
 70
     1
102
RTVSPost2010Prop37
 90
       50
102
RTVSPost2010PropOp37
 70
     1
102
RTVSPost2010Prop38
140
0.0
102
RTVSPost2010PropOp38
 70
     1
102
RTVSPost2010Prop39
140
1.0
102
RTVSPost2010PropOp39
 70
     1
102
RTVSPost2010Prop40
 90
        0
102
RTVSPost2010PropOp40
 70
     1
102
RTVSPost2010Prop41ColorIndex
 90
       18
102
RTVSPost2010Prop41ColorRGB
 90
        0
102
RTVSPost2010PropOp41
 70
     1
102
RTVSPost2010Prop42
 90
       50
102
RTVSPost2010PropOp42
 70
     1
102
RTVSPost2010Prop43
 90
        3
102
RTVSPost2010PropOp43
 70
     1
102
RTVSPost2010Prop44ColorIndex
 90
        5
102
RTVSPost2010Prop44ColorRGB
 90
      255
102
RTVSPost2010PropOp44
 70
     1
102
RTVSPost2010Prop45
280
     0
102
RTVSPost2010PropOp45
 70
     1
102
RTVSPost2010Prop46
 90
       50
102
RTVSPost2010PropOp46
 70
     1
102
RTVSPost2010Prop47
 90
       50
102
RTVSPost2010PropOp47
 70
     1
102
RTVSPost2010Prop48
 90
       50
102
RTVSPost2010PropOp48
 70
     1
102
RTVSPost2010Prop49
280
     0
102
RTVSPost2010PropOp49
 70
     1
102
RTVSPost2010Prop50
 90
       50
102
RTVSPost2010PropOp50
 70
     1
102
RTVSPost2010Prop51ColorIndex
 90
      256
102
RTVSPost2010Prop51ColorRGB
 90
-16777216
102
RTVSPost2010PropOp51
 70
     0
102
RTVSPost2010Prop52
140
1.0
102
RTVSPost2010PropOp52
 70
     0
102
RTVSPost2010Prop53
 90
        2
102
RTVSPost2010PropOp53
 70
     1
102
RTVSPost2010Prop54
  1
strokes_ogs.tif
102
RTVSPost2010PropOp54
 70
     1
102
RTVSPost2010Prop55
280
     0
102
RTVSPost2010PropOp55
 70
     1
102
RTVSPost2010Prop56
140
1.0
102
RTVSPost2010PropOp56
 70
     1
102
RTVSPost2010Prop57
140
1.0
102
RTVSPost2010PropOp57
 70
     1
102
RTVSPropertyOp0
 70
     1
102
RTVSPropertyOp1
 70
     1
102
RTVSPropertyOp2
 70
     1
102
RTVSPropertyOp3
 70
     1
102
RTVSPropertyOp4
 70
     1
102
RTVSPropertyOp5
 70
     1
102
RTVSPropertyOp6
 70
     1
102
RTVSPropertyOp7
 70
     1
102
RTVSPropertyOp8
 70
     1
102
RTVSPropertyOp9
 70
     1
102
RTVSPropertyOp10
 70
     1
102
RTVSPropertyOp11
 70
     1
102
RTVSPropertyOp12
 70
     1
102
RTVSPropertyOp13
 70
     1
102
RTVSPropertyOp14
 70
     1
102
RTVSPropertyOp15
 70
     1
102
RTVSPropertyOp16
 70
     1
102
RTVSPropertyOp17
 70
     1
102
RTVSPropertyOp18
 70
     1
102
RTVSPropertyOp19
 70
     1
102
RTVSPropertyOp20
 70
     1
102
RTVSPropertyOp21
 70
     1
102
RTVSPropertyOp22
 70
     1
102
RTVSPropertyOp23
 70
     1
102
RTVSPropertyOp24
 70
     1
102
RTVSPropertyOp25
 70
     1
102
RTVSPropertyOp26
 70
     1
102
RTVSPropertyOp27
 70
     1
102
RTVSPropertyOp28
 70
     1
102
RTVSPropertyOp29
 70
     1
102
RTVSPropertyOp30
 70
     1
102
RTVSPropertyOp31
 70
     1
102
RTVSPropertyOp32
 70
     1
102
RTVSPropertyOp33
 70
     1
102
RTVSPropertyOp34
 70
     1
102
RTVSPropertyOp35
 70
     1
102
RTVSPropertyOp36
 70
     1
102
RTVSPropertyOp37
 70
     1
102
RTVSPropertyOp38
 70
     1
102
RTVSPropertyOp39
 70
     1
102
RTVSPropertyOp40
 70
     1
102
RTVSPropertyOp41
 70
     1
102
RTVSPropertyOp42
 70
     1
102
RTVSPropertyOp43
 70
     1
102
RTVSPropertyOp44
 70
     1
102
RTVSPropertyOp45
 70
     1
102
RTVSPropertyOp46
 70
     1
102
RTVSPropertyOp47
 70
     1
102
RTVSPropertyOp48
 70
     1
102
RTVSPropertyOp49
 70
     1
102
RTVSPropertyOp50
 70
     1
102
RTVSPropertyOp51
 70
     0
102
RTVSPropertyOp52
 70
     0
102
RTVSPropertyOp53
 70
     1
102
RTVSPropertyOp54
 70
     1
102
RTVSPropertyOp55
 70
     1
102
RTVSPropertyOp56
 70
     1
102
RTVSPropertyOp57
 70
     1
102
RTVSPropertyOp58
 70
     1
102
RTVSPropertyOp59
 70
     1
102
RTVSPropertyOp60
 70
     1
102
RTVSPropertyOp61
 70
     1
102
RTVSPropertyOp62
 70
     1
  0
XRECORD
  5
1AAA0
102
{ACAD_REACTORS
330
1AA9F
102
}
330
1AA9F
100
AcDbXrecord
280
     1
102
RTVSPost2010Prop28
280
     0
102
RTVSPost2010PropOp28
 70
     1
102
RTVSPost2010Prop29
280
     1
102
RTVSPost2010PropOp29
 70
     1
102
RTVSPost2010Prop30
280
     1
102
RTVSPost2010PropOp30
 70
     1
102
RTVSPost2010Prop31
280
     0
102
RTVSPost2010PropOp31
 70
     1
102
RTVSPost2010Prop32
280
     0
102
RTVSPost2010PropOp32
 70
     1
102
RTVSPost2010Prop33
280
     0
102
RTVSPost2010PropOp33
 70
     1
102
RTVSPost2010Prop34
280
     0
102
RTVSPost2010PropOp34
 70
     1
102
RTVSPost2010Prop35
280
     0
102
RTVSPost2010PropOp35
 70
     1
102
RTVSPost2010Prop36
280
     0
102
RTVSPost2010PropOp36
 70
     1
102
RTVSPost2010Prop37
 90
       50
102
RTVSPost2010PropOp37
 70
     1
102
RTVSPost2010Prop38
140
0.0
102
RTVSPost2010PropOp38
 70
     1
102
RTVSPost2010Prop39
140
1.0
102
RTVSPost2010PropOp39
 70
     1
102
RTVSPost2010Prop40
 90
        0
102
RTVSPost2010PropOp40
 70
     1
102
RTVSPost2010Prop41ColorIndex
 90
       18
102
RTVSPost2010Prop41ColorRGB
 90
        0
102
RTVSPost2010PropOp41
 70
     1
102
RTVSPost2010Prop42
 90
       50
102
RTVSPost2010PropOp42
 70
     1
102
RTVSPost2010Prop43
 90
        3
102
RTVSPost2010PropOp43
 70
     1
102
RTVSPost2010Prop44ColorIndex
 90
        5
102
RTVSPost2010Prop44ColorRGB
 90
      255
102
RTVSPost2010PropOp44
 70
     1
102
RTVSPost2010Prop45
280
     0
102
RTVSPost2010PropOp45
 70
     1
102
RTVSPost2010Prop46
 90
       50
102
RTVSPost2010PropOp46
 70
     1
102
RTVSPost2010Prop47
 90
       50
102
RTVSPost2010PropOp47
 70
     1
102
RTVSPost2010Prop48
 90
       50
102
RTVSPost2010PropOp48
 70
     1
102
RTVSPost2010Prop49
280
     0
102
RTVSPost2010PropOp49
 70
     1
102
RTVSPost2010Prop50
 90
       50
102
RTVSPost2010PropOp50
 70
     1
102
RTVSPost2010Prop51ColorIndex
 90
      256
102
RTVSPost2010Prop51ColorRGB
 90
-16777216
102
RTVSPost2010PropOp51
 70
     0
102
RTVSPost2010Prop52
140
1.0
102
RTVSPost2010PropOp52
 70
     0
102
RTVSPost2010Prop53
 90
        2
102
RTVSPost2010PropOp53
 70
     1
102
RTVSPost2010Prop54
  1
strokes_ogs.tif
102
RTVSPost2010PropOp54
 70
     1
102
RTVSPost2010Prop55
280
     0
102
RTVSPost2010PropOp55
 70
     1
102
RTVSPost2010Prop56
140
1.0
102
RTVSPost2010PropOp56
 70
     1
102
RTVSPost2010Prop57
140
1.0
102
RTVSPost2010PropOp57
 70
     1
102
RTVSPropertyOp0
 70
     1
102
RTVSPropertyOp1
 70
     1
102
RTVSPropertyOp2
 70
     1
102
RTVSPropertyOp3
 70
     1
102
RTVSPropertyOp4
 70
     1
102
RTVSPropertyOp5
 70
     1
102
RTVSPropertyOp6
 70
     1
102
RTVSPropertyOp7
 70
     1
102
RTVSPropertyOp8
 70
     1
102
RTVSPropertyOp9
 70
     1
102
RTVSPropertyOp10
 70
     1
102
RTVSPropertyOp11
 70
     1
102
RTVSPropertyOp12
 70
     1
102
RTVSPropertyOp13
 70
     1
102
RTVSPropertyOp14
 70
     1
102
RTVSPropertyOp15
 70
     1
102
RTVSPropertyOp16
 70
     1
102
RTVSPropertyOp17
 70
     1
102
RTVSPropertyOp18
 70
     1
102
RTVSPropertyOp19
 70
     1
102
RTVSPropertyOp20
 70
     1
102
RTVSPropertyOp21
 70
     1
102
RTVSPropertyOp22
 70
     1
102
RTVSPropertyOp23
 70
     1
102
RTVSPropertyOp24
 70
     1
102
RTVSPropertyOp25
 70
     1
102
RTVSPropertyOp26
 70
     1
102
RTVSPropertyOp27
 70
     1
102
RTVSPropertyOp28
 70
     1
102
RTVSPropertyOp29
 70
     1
102
RTVSPropertyOp30
 70
     1
102
RTVSPropertyOp31
 70
     1
102
RTVSPropertyOp32
 70
     1
102
RTVSPropertyOp33
 70
     1
102
RTVSPropertyOp34
 70
     1
102
RTVSPropertyOp35
 70
     1
102
RTVSPropertyOp36
 70
     1
102
RTVSPropertyOp37
 70
     1
102
RTVSPropertyOp38
 70
     1
102
RTVSPropertyOp39
 70
     1
102
RTVSPropertyOp40
 70
     1
102
RTVSPropertyOp41
 70
     1
102
RTVSPropertyOp42
 70
     1
102
RTVSPropertyOp43
 70
     1
102
RTVSPropertyOp44
 70
     1
102
RTVSPropertyOp45
 70
     1
102
RTVSPropertyOp46
 70
     1
102
RTVSPropertyOp47
 70
     1
102
RTVSPropertyOp48
 70
     1
102
RTVSPropertyOp49
 70
     1
102
RTVSPropertyOp50
 70
     1
102
RTVSPropertyOp51
 70
     0
102
RTVSPropertyOp52
 70
     0
102
RTVSPropertyOp53
 70
     1
102
RTVSPropertyOp54
 70
     1
102
RTVSPropertyOp55
 70
     1
102
RTVSPropertyOp56
 70
     1
102
RTVSPropertyOp57
 70
     1
102
RTVSPropertyOp58
 70
     1
102
RTVSPropertyOp59
 70
     1
102
RTVSPropertyOp60
 70
     1
102
RTVSPropertyOp61
 70
     1
102
RTVSPropertyOp62
 70
     1
  0
XRECORD
  5
1AAB4
102
{ACAD_REACTORS
330
1AAB3
102
}
330
1AAB3
100
AcDbXrecord
280
     1
102
RTVSPost2010Prop28
280
     0
102
RTVSPost2010PropOp28
 70
     1
102
RTVSPost2010Prop29
280
     1
102
RTVSPost2010PropOp29
 70
     1
102
RTVSPost2010Prop30
280
     1
102
RTVSPost2010PropOp30
 70
     1
102
RTVSPost2010Prop31
280
     0
102
RTVSPost2010PropOp31
 70
     1
102
RTVSPost2010Prop32
280
     0
102
RTVSPost2010PropOp32
 70
     1
102
RTVSPost2010Prop33
280
     0
102
RTVSPost2010PropOp33
 70
     1
102
RTVSPost2010Prop34
280
     0
102
RTVSPost2010PropOp34
 70
     1
102
RTVSPost2010Prop35
280
     0
102
RTVSPost2010PropOp35
 70
     1
102
RTVSPost2010Prop36
280
     0
102
RTVSPost2010PropOp36
 70
     1
102
RTVSPost2010Prop37
 90
       50
102
RTVSPost2010PropOp37
 70
     1
102
RTVSPost2010Prop38
140
0.0
102
RTVSPost2010PropOp38
 70
     1
102
RTVSPost2010Prop39
140
1.0
102
RTVSPost2010PropOp39
 70
     1
102
RTVSPost2010Prop40
 90
        0
102
RTVSPost2010PropOp40
 70
     1
102
RTVSPost2010Prop41ColorIndex
 90
       18
102
RTVSPost2010Prop41ColorRGB
 90
        0
102
RTVSPost2010PropOp41
 70
     1
102
RTVSPost2010Prop42
 90
       50
102
RTVSPost2010PropOp42
 70
     1
102
RTVSPost2010Prop43
 90
        3
102
RTVSPost2010PropOp43
 70
     1
102
RTVSPost2010Prop44ColorIndex
 90
        5
102
RTVSPost2010Prop44ColorRGB
 90
      255
102
RTVSPost2010PropOp44
 70
     1
102
RTVSPost2010Prop45
280
     0
102
RTVSPost2010PropOp45
 70
     1
102
RTVSPost2010Prop46
 90
       50
102
RTVSPost2010PropOp46
 70
     1
102
RTVSPost2010Prop47
 90
       50
102
RTVSPost2010PropOp47
 70
     1
102
RTVSPost2010Prop48
 90
       50
102
RTVSPost2010PropOp48
 70
     1
102
RTVSPost2010Prop49
280
     0
102
RTVSPost2010PropOp49
 70
     1
102
RTVSPost2010Prop50
 90
       50
102
RTVSPost2010PropOp50
 70
     1
102
RTVSPost2010Prop51ColorIndex
 90
      256
102
RTVSPost2010Prop51ColorRGB
 90
-16777216
102
RTVSPost2010PropOp51
 70
     0
102
RTVSPost2010Prop52
140
1.0
102
RTVSPost2010PropOp52
 70
     0
102
RTVSPost2010Prop53
 90
        2
102
RTVSPost2010PropOp53
 70
     1
102
RTVSPost2010Prop54
  1
strokes_ogs.tif
102
RTVSPost2010PropOp54
 70
     1
102
RTVSPost2010Prop55
280
     0
102
RTVSPost2010PropOp55
 70
     1
102
RTVSPost2010Prop56
140
1.0
102
RTVSPost2010PropOp56
 70
     1
102
RTVSPost2010Prop57
140
1.0
102
RTVSPost2010PropOp57
 70
     1
102
RTVSPropertyOp0
 70
     0
102
RTVSPropertyOp1
 70
     0
102
RTVSPropertyOp2
 70
     0
102
RTVSPropertyOp3
 70
     0
102
RTVSPropertyOp4
 70
     0
102
RTVSPropertyOp5
 70
     0
102
RTVSPropertyOp6
 70
     0
102
RTVSPropertyOp7
 70
     0
102
RTVSPropertyOp8
 70
     0
102
RTVSPropertyOp9
 70
     0
102
RTVSPropertyOp10
 70
     0
102
RTVSPropertyOp11
 70
     0
102
RTVSPropertyOp12
 70
     0
102
RTVSPropertyOp13
 70
     0
102
RTVSPropertyOp14
 70
     2
102
RTVSPropertyOp15
 70
     0
102
RTVSPropertyOp16
 70
     0
102
RTVSPropertyOp17
 70
     0
102
RTVSPropertyOp18
 70
     0
102
RTVSPropertyOp19
 70
     0
102
RTVSPropertyOp20
 70
     0
102
RTVSPropertyOp21
 70
     0
102
RTVSPropertyOp22
 70
     0
102
RTVSPropertyOp23
 70
     0
102
RTVSPropertyOp24
 70
     0
102
RTVSPropertyOp25
 70
     0
102
RTVSPropertyOp26
 70
     0
102
RTVSPropertyOp27
 70
     0
102
RTVSPropertyOp28
 70
     1
102
RTVSPropertyOp29
 70
     1
102
RTVSPropertyOp30
 70
     1
102
RTVSPropertyOp31
 70
     1
102
RTVSPropertyOp32
 70
     1
102
RTVSPropertyOp33
 70
     1
102
RTVSPropertyOp34
 70
     1
102
RTVSPropertyOp35
 70
     1
102
RTVSPropertyOp36
 70
     1
102
RTVSPropertyOp37
 70
     1
102
RTVSPropertyOp38
 70
     1
102
RTVSPropertyOp39
 70
     1
102
RTVSPropertyOp40
 70
     1
102
RTVSPropertyOp41
 70
     1
102
RTVSPropertyOp42
 70
     1
102
RTVSPropertyOp43
 70
     1
102
RTVSPropertyOp44
 70
     1
102
RTVSPropertyOp45
 70
     1
102
RTVSPropertyOp46
 70
     1
102
RTVSPropertyOp47
 70
     1
102
RTVSPropertyOp48
 70
     1
102
RTVSPropertyOp49
 70
     1
102
RTVSPropertyOp50
 70
     1
102
RTVSPropertyOp51
 70
     0
102
RTVSPropertyOp52
 70
     0
102
RTVSPropertyOp53
 70
     1
102
RTVSPropertyOp54
 70
     1
102
RTVSPropertyOp55
 70
     1
102
RTVSPropertyOp56
 70
     1
102
RTVSPropertyOp57
 70
     1
102
RTVSPropertyOp58
 70
     1
102
RTVSPropertyOp59
 70
     1
102
RTVSPropertyOp60
 70
     1
102
RTVSPropertyOp61
 70
     1
102
RTVSPropertyOp62
 70
     1
  0
XRECORD
  5
1AAAC
102
{ACAD_REACTORS
330
1AAAB
102
}
330
1AAAB
100
AcDbXrecord
280
     1
102
RTVSPost2010Prop28
280
     0
102
RTVSPost2010PropOp28
 70
     1
102
RTVSPost2010Prop29
280
     1
102
RTVSPost2010PropOp29
 70
     1
102
RTVSPost2010Prop30
280
     1
102
RTVSPost2010PropOp30
 70
     1
102
RTVSPost2010Prop31
280
     0
102
RTVSPost2010PropOp31
 70
     1
102
RTVSPost2010Prop32
280
     0
102
RTVSPost2010PropOp32
 70
     1
102
RTVSPost2010Prop33
280
     0
102
RTVSPost2010PropOp33
 70
     1
102
RTVSPost2010Prop34
280
     0
102
RTVSPost2010PropOp34
 70
     1
102
RTVSPost2010Prop35
280
     0
102
RTVSPost2010PropOp35
 70
     1
102
RTVSPost2010Prop36
280
     0
102
RTVSPost2010PropOp36
 70
     1
102
RTVSPost2010Prop37
 90
       50
102
RTVSPost2010PropOp37
 70
     1
102
RTVSPost2010Prop38
140
0.0
102
RTVSPost2010PropOp38
 70
     1
102
RTVSPost2010Prop39
140
1.0
102
RTVSPost2010PropOp39
 70
     1
102
RTVSPost2010Prop40
 90
        0
102
RTVSPost2010PropOp40
 70
     1
102
RTVSPost2010Prop41ColorIndex
 90
       18
102
RTVSPost2010Prop41ColorRGB
 90
        0
102
RTVSPost2010PropOp41
 70
     1
102
RTVSPost2010Prop42
 90
       50
102
RTVSPost2010PropOp42
 70
     1
102
RTVSPost2010Prop43
 90
        3
102
RTVSPost2010PropOp43
 70
     1
102
RTVSPost2010Prop44ColorIndex
 90
        5
102
RTVSPost2010Prop44ColorRGB
 90
      255
102
RTVSPost2010PropOp44
 70
     1
102
RTVSPost2010Prop45
280
     0
102
RTVSPost2010PropOp45
 70
     1
102
RTVSPost2010Prop46
 90
       50
102
RTVSPost2010PropOp46
 70
     1
102
RTVSPost2010Prop47
 90
       50
102
RTVSPost2010PropOp47
 70
     1
102
RTVSPost2010Prop48
 90
       50
102
RTVSPost2010PropOp48
 70
     1
102
RTVSPost2010Prop49
280
     0
102
RTVSPost2010PropOp49
 70
     1
102
RTVSPost2010Prop50
 90
       50
102
RTVSPost2010PropOp50
 70
     1
102
RTVSPost2010Prop51ColorIndex
 90
      256
102
RTVSPost2010Prop51ColorRGB
 90
-16777216
102
RTVSPost2010PropOp51
 70
     0
102
RTVSPost2010Prop52
140
1.0
102
RTVSPost2010PropOp52
 70
     0
102
RTVSPost2010Prop53
 90
        2
102
RTVSPost2010PropOp53
 70
     1
102
RTVSPost2010Prop54
  1
strokes_ogs.tif
102
RTVSPost2010PropOp54
 70
     1
102
RTVSPost2010Prop55
280
     0
102
RTVSPost2010PropOp55
 70
     1
102
RTVSPost2010Prop56
140
1.0
102
RTVSPost2010PropOp56
 70
     1
102
RTVSPost2010Prop57
140
1.0
102
RTVSPost2010PropOp57
 70
     1
102
RTVSPropertyOp0
 70
     1
102
RTVSPropertyOp1
 70
     1
102
RTVSPropertyOp2
 70
     1
102
RTVSPropertyOp3
 70
     1
102
RTVSPropertyOp4
 70
     1
102
RTVSPropertyOp5
 70
     1
102
RTVSPropertyOp6
 70
     1
102
RTVSPropertyOp7
 70
     1
102
RTVSPropertyOp8
 70
     1
102
RTVSPropertyOp9
 70
     1
102
RTVSPropertyOp10
 70
     1
102
RTVSPropertyOp11
 70
     1
102
RTVSPropertyOp12
 70
     1
102
RTVSPropertyOp13
 70
     1
102
RTVSPropertyOp14
 70
     1
102
RTVSPropertyOp15
 70
     1
102
RTVSPropertyOp16
 70
     1
102
RTVSPropertyOp17
 70
     1
102
RTVSPropertyOp18
 70
     1
102
RTVSPropertyOp19
 70
     1
102
RTVSPropertyOp20
 70
     1
102
RTVSPropertyOp21
 70
     1
102
RTVSPropertyOp22
 70
     1
102
RTVSPropertyOp23
 70
     1
102
RTVSPropertyOp24
 70
     1
102
RTVSPropertyOp25
 70
     1
102
RTVSPropertyOp26
 70
     1
102
RTVSPropertyOp27
 70
     1
102
RTVSPropertyOp28
 70
     1
102
RTVSPropertyOp29
 70
     1
102
RTVSPropertyOp30
 70
     1
102
RTVSPropertyOp31
 70
     1
102
RTVSPropertyOp32
 70
     1
102
RTVSPropertyOp33
 70
     1
102
RTVSPropertyOp34
 70
     1
102
RTVSPropertyOp35
 70
     1
102
RTVSPropertyOp36
 70
     1
102
RTVSPropertyOp37
 70
     1
102
RTVSPropertyOp38
 70
     1
102
RTVSPropertyOp39
 70
     1
102
RTVSPropertyOp40
 70
     1
102
RTVSPropertyOp41
 70
     1
102
RTVSPropertyOp42
 70
     1
102
RTVSPropertyOp43
 70
     1
102
RTVSPropertyOp44
 70
     1
102
RTVSPropertyOp45
 70
     1
102
RTVSPropertyOp46
 70
     1
102
RTVSPropertyOp47
 70
     1
102
RTVSPropertyOp48
 70
     1
102
RTVSPropertyOp49
 70
     1
102
RTVSPropertyOp50
 70
     1
102
RTVSPropertyOp51
 70
     0
102
RTVSPropertyOp52
 70
     0
102
RTVSPropertyOp53
 70
     1
102
RTVSPropertyOp54
 70
     1
102
RTVSPropertyOp55
 70
     1
102
RTVSPropertyOp56
 70
     1
102
RTVSPropertyOp57
 70
     1
102
RTVSPropertyOp58
 70
     1
102
RTVSPropertyOp59
 70
     1
102
RTVSPropertyOp60
 70
     1
102
RTVSPropertyOp61
 70
     1
102
RTVSPropertyOp62
 70
     1
  0
XRECORD
  5
1AAB6
102
{ACAD_REACTORS
330
1AAB5
102
}
330
1AAB5
100
AcDbXrecord
280
     1
102
RTVSPost2010Prop28
280
     0
102
RTVSPost2010PropOp28
 70
     1
102
RTVSPost2010Prop29
280
     1
102
RTVSPost2010PropOp29
 70
     1
102
RTVSPost2010Prop30
280
     1
102
RTVSPost2010PropOp30
 70
     1
102
RTVSPost2010Prop31
280
     0
102
RTVSPost2010PropOp31
 70
     1
102
RTVSPost2010Prop32
280
     0
102
RTVSPost2010PropOp32
 70
     1
102
RTVSPost2010Prop33
280
     0
102
RTVSPost2010PropOp33
 70
     1
102
RTVSPost2010Prop34
280
     0
102
RTVSPost2010PropOp34
 70
     1
102
RTVSPost2010Prop35
280
     0
102
RTVSPost2010PropOp35
 70
     1
102
RTVSPost2010Prop36
280
     0
102
RTVSPost2010PropOp36
 70
     1
102
RTVSPost2010Prop37
 90
       50
102
RTVSPost2010PropOp37
 70
     1
102
RTVSPost2010Prop38
140
0.0
102
RTVSPost2010PropOp38
 70
     1
102
RTVSPost2010Prop39
140
1.0
102
RTVSPost2010PropOp39
 70
     1
102
RTVSPost2010Prop40
 90
        0
102
RTVSPost2010PropOp40
 70
     1
102
RTVSPost2010Prop41ColorIndex
 90
       18
102
RTVSPost2010Prop41ColorRGB
 90
        0
102
RTVSPost2010PropOp41
 70
     1
102
RTVSPost2010Prop42
 90
       50
102
RTVSPost2010PropOp42
 70
     1
102
RTVSPost2010Prop43
 90
        3
102
RTVSPost2010PropOp43
 70
     1
102
RTVSPost2010Prop44ColorIndex
 90
        5
102
RTVSPost2010Prop44ColorRGB
 90
      255
102
RTVSPost2010PropOp44
 70
     1
102
RTVSPost2010Prop45
280
     0
102
RTVSPost2010PropOp45
 70
     1
102
RTVSPost2010Prop46
 90
       50
102
RTVSPost2010PropOp46
 70
     1
102
RTVSPost2010Prop47
 90
       50
102
RTVSPost2010PropOp47
 70
     1
102
RTVSPost2010Prop48
 90
       50
102
RTVSPost2010PropOp48
 70
     1
102
RTVSPost2010Prop49
280
     0
102
RTVSPost2010PropOp49
 70
     1
102
RTVSPost2010Prop50
 90
       50
102
RTVSPost2010PropOp50
 70
     1
102
RTVSPost2010Prop51ColorIndex
 90
      256
102
RTVSPost2010Prop51ColorRGB
 90
-16777216
102
RTVSPost2010PropOp51
 70
     0
102
RTVSPost2010Prop52
140
1.0
102
RTVSPost2010PropOp52
 70
     0
102
RTVSPost2010Prop53
 90
        2
102
RTVSPost2010PropOp53
 70
     1
102
RTVSPost2010Prop54
  1
strokes_ogs.tif
102
RTVSPost2010PropOp54
 70
     1
102
RTVSPost2010Prop55
280
     0
102
RTVSPost2010PropOp55
 70
     1
102
RTVSPost2010Prop56
140
1.0
102
RTVSPost2010PropOp56
 70
     1
102
RTVSPost2010Prop57
140
1.0
102
RTVSPost2010PropOp57
 70
     1
102
RTVSPropertyOp0
 70
     0
102
RTVSPropertyOp1
 70
     0
102
RTVSPropertyOp2
 70
     0
102
RTVSPropertyOp3
 70
     0
102
RTVSPropertyOp4
 70
     0
102
RTVSPropertyOp5
 70
     0
102
RTVSPropertyOp6
 70
     0
102
RTVSPropertyOp7
 70
     0
102
RTVSPropertyOp8
 70
     0
102
RTVSPropertyOp9
 70
     0
102
RTVSPropertyOp10
 70
     0
102
RTVSPropertyOp11
 70
     0
102
RTVSPropertyOp12
 70
     0
102
RTVSPropertyOp13
 70
     0
102
RTVSPropertyOp14
 70
     2
102
RTVSPropertyOp15
 70
     0
102
RTVSPropertyOp16
 70
     0
102
RTVSPropertyOp17
 70
     0
102
RTVSPropertyOp18
 70
     0
102
RTVSPropertyOp19
 70
     0
102
RTVSPropertyOp20
 70
     0
102
RTVSPropertyOp21
 70
     0
102
RTVSPropertyOp22
 70
     0
102
RTVSPropertyOp23
 70
     0
102
RTVSPropertyOp24
 70
     0
102
RTVSPropertyOp25
 70
     0
102
RTVSPropertyOp26
 70
     0
102
RTVSPropertyOp27
 70
     0
102
RTVSPropertyOp28
 70
     1
102
RTVSPropertyOp29
 70
     1
102
RTVSPropertyOp30
 70
     1
102
RTVSPropertyOp31
 70
     1
102
RTVSPropertyOp32
 70
     1
102
RTVSPropertyOp33
 70
     1
102
RTVSPropertyOp34
 70
     1
102
RTVSPropertyOp35
 70
     1
102
RTVSPropertyOp36
 70
     1
102
RTVSPropertyOp37
 70
     1
102
RTVSPropertyOp38
 70
     1
102
RTVSPropertyOp39
 70
     1
102
RTVSPropertyOp40
 70
     1
102
RTVSPropertyOp41
 70
     1
102
RTVSPropertyOp42
 70
     1
102
RTVSPropertyOp43
 70
     1
102
RTVSPropertyOp44
 70
     1
102
RTVSPropertyOp45
 70
     1
102
RTVSPropertyOp46
 70
     1
102
RTVSPropertyOp47
 70
     1
102
RTVSPropertyOp48
 70
     1
102
RTVSPropertyOp49
 70
     1
102
RTVSPropertyOp50
 70
     1
102
RTVSPropertyOp51
 70
     0
102
RTVSPropertyOp52
 70
     0
102
RTVSPropertyOp53
 70
     1
102
RTVSPropertyOp54
 70
     1
102
RTVSPropertyOp55
 70
     1
102
RTVSPropertyOp56
 70
     1
102
RTVSPropertyOp57
 70
     1
102
RTVSPropertyOp58
 70
     1
102
RTVSPropertyOp59
 70
     1
102
RTVSPropertyOp60
 70
     1
102
RTVSPropertyOp61
 70
     1
102
RTVSPropertyOp62
 70
     1
  0
XRECORD
  5
1AAA4
102
{ACAD_REACTORS
330
1AAA3
102
}
330
1AAA3
100
AcDbXrecord
280
     1
102
RTVSPost2010Prop28
280
     0
102
RTVSPost2010PropOp28
 70
     1
102
RTVSPost2010Prop29
280
     1
102
RTVSPost2010PropOp29
 70
     1
102
RTVSPost2010Prop30
280
     1
102
RTVSPost2010PropOp30
 70
     1
102
RTVSPost2010Prop31
280
     0
102
RTVSPost2010PropOp31
 70
     1
102
RTVSPost2010Prop32
280
     0
102
RTVSPost2010PropOp32
 70
     1
102
RTVSPost2010Prop33
280
     0
102
RTVSPost2010PropOp33
 70
     1
102
RTVSPost2010Prop34
280
     0
102
RTVSPost2010PropOp34
 70
     1
102
RTVSPost2010Prop35
280
     0
102
RTVSPost2010PropOp35
 70
     1
102
RTVSPost2010Prop36
280
     0
102
RTVSPost2010PropOp36
 70
     1
102
RTVSPost2010Prop37
 90
       50
102
RTVSPost2010PropOp37
 70
     1
102
RTVSPost2010Prop38
140
0.0
102
RTVSPost2010PropOp38
 70
     1
102
RTVSPost2010Prop39
140
1.0
102
RTVSPost2010PropOp39
 70
     1
102
RTVSPost2010Prop40
 90
        0
102
RTVSPost2010PropOp40
 70
     1
102
RTVSPost2010Prop41ColorIndex
 90
       18
102
RTVSPost2010Prop41ColorRGB
 90
        0
102
RTVSPost2010PropOp41
 70
     1
102
RTVSPost2010Prop42
 90
       50
102
RTVSPost2010PropOp42
 70
     1
102
RTVSPost2010Prop43
 90
        3
102
RTVSPost2010PropOp43
 70
     1
102
RTVSPost2010Prop44ColorIndex
 90
        5
102
RTVSPost2010Prop44ColorRGB
 90
      255
102
RTVSPost2010PropOp44
 70
     1
102
RTVSPost2010Prop45
280
     0
102
RTVSPost2010PropOp45
 70
     1
102
RTVSPost2010Prop46
 90
       50
102
RTVSPost2010PropOp46
 70
     1
102
RTVSPost2010Prop47
 90
       50
102
RTVSPost2010PropOp47
 70
     1
102
RTVSPost2010Prop48
 90
       50
102
RTVSPost2010PropOp48
 70
     1
102
RTVSPost2010Prop49
280
     0
102
RTVSPost2010PropOp49
 70
     1
102
RTVSPost2010Prop50
 90
       50
102
RTVSPost2010PropOp50
 70
     1
102
RTVSPost2010Prop51ColorIndex
 90
      256
102
RTVSPost2010Prop51ColorRGB
 90
-16777216
102
RTVSPost2010PropOp51
 70
     0
102
RTVSPost2010Prop52
140
1.0
102
RTVSPost2010PropOp52
 70
     0
102
RTVSPost2010Prop53
 90
        2
102
RTVSPost2010PropOp53
 70
     1
102
RTVSPost2010Prop54
  1
strokes_ogs.tif
102
RTVSPost2010PropOp54
 70
     1
102
RTVSPost2010Prop55
280
     0
102
RTVSPost2010PropOp55
 70
     1
102
RTVSPost2010Prop56
140
1.0
102
RTVSPost2010PropOp56
 70
     1
102
RTVSPost2010Prop57
140
1.0
102
RTVSPost2010PropOp57
 70
     1
102
RTVSPropertyOp0
 70
     1
102
RTVSPropertyOp1
 70
     1
102
RTVSPropertyOp2
 70
     1
102
RTVSPropertyOp3
 70
     1
102
RTVSPropertyOp4
 70
     1
102
RTVSPropertyOp5
 70
     1
102
RTVSPropertyOp6
 70
     1
102
RTVSPropertyOp7
 70
     1
102
RTVSPropertyOp8
 70
     1
102
RTVSPropertyOp9
 70
     1
102
RTVSPropertyOp10
 70
     1
102
RTVSPropertyOp11
 70
     1
102
RTVSPropertyOp12
 70
     1
102
RTVSPropertyOp13
 70
     1
102
RTVSPropertyOp14
 70
     1
102
RTVSPropertyOp15
 70
     1
102
RTVSPropertyOp16
 70
     1
102
RTVSPropertyOp17
 70
     1
102
RTVSPropertyOp18
 70
     1
102
RTVSPropertyOp19
 70
     1
102
RTVSPropertyOp20
 70
     1
102
RTVSPropertyOp21
 70
     1
102
RTVSPropertyOp22
 70
     1
102
RTVSPropertyOp23
 70
     1
102
RTVSPropertyOp24
 70
     1
102
RTVSPropertyOp25
 70
     1
102
RTVSPropertyOp26
 70
     1
102
RTVSPropertyOp27
 70
     1
102
RTVSPropertyOp28
 70
     1
102
RTVSPropertyOp29
 70
     1
102
RTVSPropertyOp30
 70
     1
102
RTVSPropertyOp31
 70
     1
102
RTVSPropertyOp32
 70
     1
102
RTVSPropertyOp33
 70
     1
102
RTVSPropertyOp34
 70
     1
102
RTVSPropertyOp35
 70
     1
102
RTVSPropertyOp36
 70
     1
102
RTVSPropertyOp37
 70
     1
102
RTVSPropertyOp38
 70
     1
102
RTVSPropertyOp39
 70
     1
102
RTVSPropertyOp40
 70
     1
102
RTVSPropertyOp41
 70
     1
102
RTVSPropertyOp42
 70
     1
102
RTVSPropertyOp43
 70
     1
102
RTVSPropertyOp44
 70
     1
102
RTVSPropertyOp45
 70
     1
102
RTVSPropertyOp46
 70
     1
102
RTVSPropertyOp47
 70
     1
102
RTVSPropertyOp48
 70
     1
102
RTVSPropertyOp49
 70
     1
102
RTVSPropertyOp50
 70
     1
102
RTVSPropertyOp51
 70
     0
102
RTVSPropertyOp52
 70
     0
102
RTVSPropertyOp53
 70
     1
102
RTVSPropertyOp54
 70
     1
102
RTVSPropertyOp55
 70
     1
102
RTVSPropertyOp56
 70
     1
102
RTVSPropertyOp57
 70
     1
102
RTVSPropertyOp58
 70
     1
102
RTVSPropertyOp59
 70
     1
102
RTVSPropertyOp60
 70
     1
102
RTVSPropertyOp61
 70
     1
102
RTVSPropertyOp62
 70
     1
  0
XRECORD
  5
1AAC2
102
{ACAD_REACTORS
330
1AAC1
102
}
330
1AAC1
100
AcDbXrecord
280
     1
102
RTVSPost2010Prop28
280
     0
102
RTVSPost2010PropOp28
 70
     1
102
RTVSPost2010Prop29
280
     1
102
RTVSPost2010PropOp29
 70
     1
102
RTVSPost2010Prop30
280
     1
102
RTVSPost2010PropOp30
 70
     1
102
RTVSPost2010Prop31
280
     0
102
RTVSPost2010PropOp31
 70
     1
102
RTVSPost2010Prop32
280
     0
102
RTVSPost2010PropOp32
 70
     1
102
RTVSPost2010Prop33
280
     0
102
RTVSPost2010PropOp33
 70
     1
102
RTVSPost2010Prop34
280
     0
102
RTVSPost2010PropOp34
 70
     1
102
RTVSPost2010Prop35
280
     0
102
RTVSPost2010PropOp35
 70
     1
102
RTVSPost2010Prop36
280
     0
102
RTVSPost2010PropOp36
 70
     1
102
RTVSPost2010Prop37
 90
       50
102
RTVSPost2010PropOp37
 70
     1
102
RTVSPost2010Prop38
140
0.0
102
RTVSPost2010PropOp38
 70
     1
102
RTVSPost2010Prop39
140
1.0
102
RTVSPost2010PropOp39
 70
     1
102
RTVSPost2010Prop40
 90
        0
102
RTVSPost2010PropOp40
 70
     1
102
RTVSPost2010Prop41ColorIndex
 90
       18
102
RTVSPost2010Prop41ColorRGB
 90
        0
102
RTVSPost2010PropOp41
 70
     1
102
RTVSPost2010Prop42
 90
       50
102
RTVSPost2010PropOp42
 70
     1
102
RTVSPost2010Prop43
 90
        3
102
RTVSPost2010PropOp43
 70
     1
102
RTVSPost2010Prop44ColorIndex
 90
        5
102
RTVSPost2010Prop44ColorRGB
 90
      255
102
RTVSPost2010PropOp44
 70
     1
102
RTVSPost2010Prop45
280
     0
102
RTVSPost2010PropOp45
 70
     1
102
RTVSPost2010Prop46
 90
       50
102
RTVSPost2010PropOp46
 70
     1
102
RTVSPost2010Prop47
 90
       50
102
RTVSPost2010PropOp47
 70
     1
102
RTVSPost2010Prop48
 90
       50
102
RTVSPost2010PropOp48
 70
     1
102
RTVSPost2010Prop49
280
     0
102
RTVSPost2010PropOp49
 70
     1
102
RTVSPost2010Prop50
 90
       50
102
RTVSPost2010PropOp50
 70
     1
102
RTVSPost2010Prop51ColorIndex
 90
      256
102
RTVSPost2010Prop51ColorRGB
 90
-16777216
102
RTVSPost2010PropOp51
 70
     0
102
RTVSPost2010Prop52
140
1.0
102
RTVSPost2010PropOp52
 70
     0
102
RTVSPost2010Prop53
 90
        2
102
RTVSPost2010PropOp53
 70
     1
102
RTVSPost2010Prop54
  1
strokes_ogs.tif
102
RTVSPost2010PropOp54
 70
     1
102
RTVSPost2010Prop55
280
     0
102
RTVSPost2010PropOp55
 70
     1
102
RTVSPost2010Prop56
140
1.0
102
RTVSPost2010PropOp56
 70
     1
102
RTVSPost2010Prop57
140
1.0
102
RTVSPost2010PropOp57
 70
     1
102
RTVSPropertyOp0
 70
     1
102
RTVSPropertyOp1
 70
     1
102
RTVSPropertyOp2
 70
     1
102
RTVSPropertyOp3
 70
     1
102
RTVSPropertyOp4
 70
     1
102
RTVSPropertyOp5
 70
     1
102
RTVSPropertyOp6
 70
     1
102
RTVSPropertyOp7
 70
     1
102
RTVSPropertyOp8
 70
     1
102
RTVSPropertyOp9
 70
     1
102
RTVSPropertyOp10
 70
     1
102
RTVSPropertyOp11
 70
     1
102
RTVSPropertyOp12
 70
     1
102
RTVSPropertyOp13
 70
     1
102
RTVSPropertyOp14
 70
     1
102
RTVSPropertyOp15
 70
     1
102
RTVSPropertyOp16
 70
     1
102
RTVSPropertyOp17
 70
     1
102
RTVSPropertyOp18
 70
     1
102
RTVSPropertyOp19
 70
     1
102
RTVSPropertyOp20
 70
     1
102
RTVSPropertyOp21
 70
     1
102
RTVSPropertyOp22
 70
     1
102
RTVSPropertyOp23
 70
     1
102
RTVSPropertyOp24
 70
     1
102
RTVSPropertyOp25
 70
     1
102
RTVSPropertyOp26
 70
     1
102
RTVSPropertyOp27
 70
     1
102
RTVSPropertyOp28
 70
     1
102
RTVSPropertyOp29
 70
     1
102
RTVSPropertyOp30
 70
     1
102
RTVSPropertyOp31
 70
     1
102
RTVSPropertyOp32
 70
     1
102
RTVSPropertyOp33
 70
     1
102
RTVSPropertyOp34
 70
     1
102
RTVSPropertyOp35
 70
     1
102
RTVSPropertyOp36
 70
     1
102
RTVSPropertyOp37
 70
     1
102
RTVSPropertyOp38
 70
     1
102
RTVSPropertyOp39
 70
     1
102
RTVSPropertyOp40
 70
     1
102
RTVSPropertyOp41
 70
     1
102
RTVSPropertyOp42
 70
     1
102
RTVSPropertyOp43
 70
     1
102
RTVSPropertyOp44
 70
     1
102
RTVSPropertyOp45
 70
     1
102
RTVSPropertyOp46
 70
     1
102
RTVSPropertyOp47
 70
     1
102
RTVSPropertyOp48
 70
     1
102
RTVSPropertyOp49
 70
     1
102
RTVSPropertyOp50
 70
     1
102
RTVSPropertyOp51
 70
     0
102
RTVSPropertyOp52
 70
     0
102
RTVSPropertyOp53
 70
     1
102
RTVSPropertyOp54
 70
     1
102
RTVSPropertyOp55
 70
     1
102
RTVSPropertyOp56
 70
     1
102
RTVSPropertyOp57
 70
     1
102
RTVSPropertyOp58
 70
     1
102
RTVSPropertyOp59
 70
     1
102
RTVSPropertyOp60
 70
     1
102
RTVSPropertyOp61
 70
     1
102
RTVSPropertyOp62
 70
     1
  0
XRECORD
  5
1AAC0
102
{ACAD_REACTORS
330
1AABF
102
}
330
1AABF
100
AcDbXrecord
280
     1
102
RTVSPost2010Prop28
280
     0
102
RTVSPost2010PropOp28
 70
     1
102
RTVSPost2010Prop29
280
     1
102
RTVSPost2010PropOp29
 70
     1
102
RTVSPost2010Prop30
280
     1
102
RTVSPost2010PropOp30
 70
     1
102
RTVSPost2010Prop31
280
     0
102
RTVSPost2010PropOp31
 70
     1
102
RTVSPost2010Prop32
280
     0
102
RTVSPost2010PropOp32
 70
     1
102
RTVSPost2010Prop33
280
     0
102
RTVSPost2010PropOp33
 70
     1
102
RTVSPost2010Prop34
280
     0
102
RTVSPost2010PropOp34
 70
     1
102
RTVSPost2010Prop35
280
     0
102
RTVSPost2010PropOp35
 70
     1
102
RTVSPost2010Prop36
280
     0
102
RTVSPost2010PropOp36
 70
     1
102
RTVSPost2010Prop37
 90
       50
102
RTVSPost2010PropOp37
 70
     1
102
RTVSPost2010Prop38
140
0.0
102
RTVSPost2010PropOp38
 70
     1
102
RTVSPost2010Prop39
140
1.0
102
RTVSPost2010PropOp39
 70
     1
102
RTVSPost2010Prop40
 90
        0
102
RTVSPost2010PropOp40
 70
     1
102
RTVSPost2010Prop41ColorIndex
 90
       18
102
RTVSPost2010Prop41ColorRGB
 90
        0
102
RTVSPost2010PropOp41
 70
     1
102
RTVSPost2010Prop42
 90
       50
102
RTVSPost2010PropOp42
 70
     1
102
RTVSPost2010Prop43
 90
        3
102
RTVSPost2010PropOp43
 70
     1
102
RTVSPost2010Prop44ColorIndex
 90
        5
102
RTVSPost2010Prop44ColorRGB
 90
      255
102
RTVSPost2010PropOp44
 70
     1
102
RTVSPost2010Prop45
280
     0
102
RTVSPost2010PropOp45
 70
     1
102
RTVSPost2010Prop46
 90
       50
102
RTVSPost2010PropOp46
 70
     1
102
RTVSPost2010Prop47
 90
       50
102
RTVSPost2010PropOp47
 70
     1
102
RTVSPost2010Prop48
 90
       50
102
RTVSPost2010PropOp48
 70
     1
102
RTVSPost2010Prop49
280
     0
102
RTVSPost2010PropOp49
 70
     1
102
RTVSPost2010Prop50
 90
       50
102
RTVSPost2010PropOp50
 70
     1
102
RTVSPost2010Prop51ColorIndex
 90
      256
102
RTVSPost2010Prop51ColorRGB
 90
-16777216
102
RTVSPost2010PropOp51
 70
     0
102
RTVSPost2010Prop52
140
1.0
102
RTVSPost2010PropOp52
 70
     0
102
RTVSPost2010Prop53
 90
        2
102
RTVSPost2010PropOp53
 70
     1
102
RTVSPost2010Prop54
  1
strokes_ogs.tif
102
RTVSPost2010PropOp54
 70
     1
102
RTVSPost2010Prop55
280
     0
102
RTVSPost2010PropOp55
 70
     1
102
RTVSPost2010Prop56
140
1.0
102
RTVSPost2010PropOp56
 70
     1
102
RTVSPost2010Prop57
140
1.0
102
RTVSPost2010PropOp57
 70
     1
102
RTVSPropertyOp0
 70
     1
102
RTVSPropertyOp1
 70
     1
102
RTVSPropertyOp2
 70
     1
102
RTVSPropertyOp3
 70
     1
102
RTVSPropertyOp4
 70
     1
102
RTVSPropertyOp5
 70
     1
102
RTVSPropertyOp6
 70
     1
102
RTVSPropertyOp7
 70
     1
102
RTVSPropertyOp8
 70
     1
102
RTVSPropertyOp9
 70
     1
102
RTVSPropertyOp10
 70
     1
102
RTVSPropertyOp11
 70
     1
102
RTVSPropertyOp12
 70
     1
102
RTVSPropertyOp13
 70
     1
102
RTVSPropertyOp14
 70
     1
102
RTVSPropertyOp15
 70
     1
102
RTVSPropertyOp16
 70
     1
102
RTVSPropertyOp17
 70
     1
102
RTVSPropertyOp18
 70
     1
102
RTVSPropertyOp19
 70
     1
102
RTVSPropertyOp20
 70
     1
102
RTVSPropertyOp21
 70
     1
102
RTVSPropertyOp22
 70
     1
102
RTVSPropertyOp23
 70
     1
102
RTVSPropertyOp24
 70
     1
102
RTVSPropertyOp25
 70
     1
102
RTVSPropertyOp26
 70
     1
102
RTVSPropertyOp27
 70
     1
102
RTVSPropertyOp28
 70
     1
102
RTVSPropertyOp29
 70
     1
102
RTVSPropertyOp30
 70
     1
102
RTVSPropertyOp31
 70
     1
102
RTVSPropertyOp32
 70
     1
102
RTVSPropertyOp33
 70
     1
102
RTVSPropertyOp34
 70
     1
102
RTVSPropertyOp35
 70
     1
102
RTVSPropertyOp36
 70
     1
102
RTVSPropertyOp37
 70
     1
102
RTVSPropertyOp38
 70
     1
102
RTVSPropertyOp39
 70
     1
102
RTVSPropertyOp40
 70
     1
102
RTVSPropertyOp41
 70
     1
102
RTVSPropertyOp42
 70
     1
102
RTVSPropertyOp43
 70
     1
102
RTVSPropertyOp44
 70
     1
102
RTVSPropertyOp45
 70
     1
102
RTVSPropertyOp46
 70
     1
102
RTVSPropertyOp47
 70
     1
102
RTVSPropertyOp48
 70
     1
102
RTVSPropertyOp49
 70
     1
102
RTVSPropertyOp50
 70
     1
102
RTVSPropertyOp51
 70
     0
102
RTVSPropertyOp52
 70
     0
102
RTVSPropertyOp53
 70
     1
102
RTVSPropertyOp54
 70
     1
102
RTVSPropertyOp55
 70
     1
102
RTVSPropertyOp56
 70
     1
102
RTVSPropertyOp57
 70
     1
102
RTVSPropertyOp58
 70
     1
102
RTVSPropertyOp59
 70
     1
102
RTVSPropertyOp60
 70
     1
102
RTVSPropertyOp61
 70
     1
102
RTVSPropertyOp62
 70
     1
  0
XRECORD
  5
1AABA
102
{ACAD_REACTORS
330
1AAB9
102
}
330
1AAB9
100
AcDbXrecord
280
     1
102
RTVSPost2010Prop28
280
     0
102
RTVSPost2010PropOp28
 70
     1
102
RTVSPost2010Prop29
280
     1
102
RTVSPost2010PropOp29
 70
     1
102
RTVSPost2010Prop30
280
     1
102
RTVSPost2010PropOp30
 70
     1
102
RTVSPost2010Prop31
280
     0
102
RTVSPost2010PropOp31
 70
     1
102
RTVSPost2010Prop32
280
     0
102
RTVSPost2010PropOp32
 70
     1
102
RTVSPost2010Prop33
280
     0
102
RTVSPost2010PropOp33
 70
     1
102
RTVSPost2010Prop34
280
     0
102
RTVSPost2010PropOp34
 70
     1
102
RTVSPost2010Prop35
280
     0
102
RTVSPost2010PropOp35
 70
     1
102
RTVSPost2010Prop36
280
     0
102
RTVSPost2010PropOp36
 70
     1
102
RTVSPost2010Prop37
 90
       50
102
RTVSPost2010PropOp37
 70
     1
102
RTVSPost2010Prop38
140
0.0
102
RTVSPost2010PropOp38
 70
     1
102
RTVSPost2010Prop39
140
1.0
102
RTVSPost2010PropOp39
 70
     1
102
RTVSPost2010Prop40
 90
        0
102
RTVSPost2010PropOp40
 70
     1
102
RTVSPost2010Prop41ColorIndex
 90
       18
102
RTVSPost2010Prop41ColorRGB
 90
        0
102
RTVSPost2010PropOp41
 70
     1
102
RTVSPost2010Prop42
 90
       50
102
RTVSPost2010PropOp42
 70
     1
102
RTVSPost2010Prop43
 90
        3
102
RTVSPost2010PropOp43
 70
     1
102
RTVSPost2010Prop44ColorIndex
 90
        5
102
RTVSPost2010Prop44ColorRGB
 90
      255
102
RTVSPost2010PropOp44
 70
     1
102
RTVSPost2010Prop45
280
     0
102
RTVSPost2010PropOp45
 70
     1
102
RTVSPost2010Prop46
 90
       50
102
RTVSPost2010PropOp46
 70
     1
102
RTVSPost2010Prop47
 90
       50
102
RTVSPost2010PropOp47
 70
     1
102
RTVSPost2010Prop48
 90
       50
102
RTVSPost2010PropOp48
 70
     1
102
RTVSPost2010Prop49
280
     0
102
RTVSPost2010PropOp49
 70
     1
102
RTVSPost2010Prop50
 90
       50
102
RTVSPost2010PropOp50
 70
     1
102
RTVSPost2010Prop51ColorIndex
 90
      256
102
RTVSPost2010Prop51ColorRGB
 90
-16777216
102
RTVSPost2010PropOp51
 70
     0
102
RTVSPost2010Prop52
140
1.0
102
RTVSPost2010PropOp52
 70
     0
102
RTVSPost2010Prop53
 90
        2
102
RTVSPost2010PropOp53
 70
     1
102
RTVSPost2010Prop54
  1
strokes_ogs.tif
102
RTVSPost2010PropOp54
 70
     1
102
RTVSPost2010Prop55
280
     0
102
RTVSPost2010PropOp55
 70
     1
102
RTVSPost2010Prop56
140
1.0
102
RTVSPost2010PropOp56
 70
     1
102
RTVSPost2010Prop57
140
1.0
102
RTVSPost2010PropOp57
 70
     1
102
RTVSPropertyOp0
 70
     1
102
RTVSPropertyOp1
 70
     1
102
RTVSPropertyOp2
 70
     1
102
RTVSPropertyOp3
 70
     1
102
RTVSPropertyOp4
 70
     1
102
RTVSPropertyOp5
 70
     1
102
RTVSPropertyOp6
 70
     1
102
RTVSPropertyOp7
 70
     1
102
RTVSPropertyOp8
 70
     1
102
RTVSPropertyOp9
 70
     1
102
RTVSPropertyOp10
 70
     1
102
RTVSPropertyOp11
 70
     1
102
RTVSPropertyOp12
 70
     1
102
RTVSPropertyOp13
 70
     1
102
RTVSPropertyOp14
 70
     1
102
RTVSPropertyOp15
 70
     1
102
RTVSPropertyOp16
 70
     1
102
RTVSPropertyOp17
 70
     1
102
RTVSPropertyOp18
 70
     1
102
RTVSPropertyOp19
 70
     1
102
RTVSPropertyOp20
 70
     1
102
RTVSPropertyOp21
 70
     1
102
RTVSPropertyOp22
 70
     1
102
RTVSPropertyOp23
 70
     1
102
RTVSPropertyOp24
 70
     1
102
RTVSPropertyOp25
 70
     1
102
RTVSPropertyOp26
 70
     1
102
RTVSPropertyOp27
 70
     1
102
RTVSPropertyOp28
 70
     1
102
RTVSPropertyOp29
 70
     1
102
RTVSPropertyOp30
 70
     1
102
RTVSPropertyOp31
 70
     1
102
RTVSPropertyOp32
 70
     1
102
RTVSPropertyOp33
 70
     1
102
RTVSPropertyOp34
 70
     1
102
RTVSPropertyOp35
 70
     1
102
RTVSPropertyOp36
 70
     1
102
RTVSPropertyOp37
 70
     1
102
RTVSPropertyOp38
 70
     1
102
RTVSPropertyOp39
 70
     1
102
RTVSPropertyOp40
 70
     1
102
RTVSPropertyOp41
 70
     1
102
RTVSPropertyOp42
 70
     1
102
RTVSPropertyOp43
 70
     1
102
RTVSPropertyOp44
 70
     1
102
RTVSPropertyOp45
 70
     1
102
RTVSPropertyOp46
 70
     1
102
RTVSPropertyOp47
 70
     1
102
RTVSPropertyOp48
 70
     1
102
RTVSPropertyOp49
 70
     1
102
RTVSPropertyOp50
 70
     1
102
RTVSPropertyOp51
 70
     0
102
RTVSPropertyOp52
 70
     0
102
RTVSPropertyOp53
 70
     1
102
RTVSPropertyOp54
 70
     1
102
RTVSPropertyOp55
 70
     1
102
RTVSPropertyOp56
 70
     1
102
RTVSPropertyOp57
 70
     1
102
RTVSPropertyOp58
 70
     1
102
RTVSPropertyOp59
 70
     1
102
RTVSPropertyOp60
 70
     1
102
RTVSPropertyOp61
 70
     1
102
RTVSPropertyOp62
 70
     1
  0
XRECORD
  5
1AABC
102
{ACAD_REACTORS
330
1AABB
102
}
330
1AABB
100
AcDbXrecord
280
     1
102
RTVSPost2010Prop28
280
     0
102
RTVSPost2010PropOp28
 70
     1
102
RTVSPost2010Prop29
280
     1
102
RTVSPost2010PropOp29
 70
     1
102
RTVSPost2010Prop30
280
     1
102
RTVSPost2010PropOp30
 70
     1
102
RTVSPost2010Prop31
280
     0
102
RTVSPost2010PropOp31
 70
     1
102
RTVSPost2010Prop32
280
     0
102
RTVSPost2010PropOp32
 70
     1
102
RTVSPost2010Prop33
280
     0
102
RTVSPost2010PropOp33
 70
     1
102
RTVSPost2010Prop34
280
     0
102
RTVSPost2010PropOp34
 70
     1
102
RTVSPost2010Prop35
280
     0
102
RTVSPost2010PropOp35
 70
     1
102
RTVSPost2010Prop36
280
     0
102
RTVSPost2010PropOp36
 70
     1
102
RTVSPost2010Prop37
 90
       50
102
RTVSPost2010PropOp37
 70
     1
102
RTVSPost2010Prop38
140
0.0
102
RTVSPost2010PropOp38
 70
     1
102
RTVSPost2010Prop39
140
1.0
102
RTVSPost2010PropOp39
 70
     1
102
RTVSPost2010Prop40
 90
        0
102
RTVSPost2010PropOp40
 70
     1
102
RTVSPost2010Prop41ColorIndex
 90
       18
102
RTVSPost2010Prop41ColorRGB
 90
        0
102
RTVSPost2010PropOp41
 70
     1
102
RTVSPost2010Prop42
 90
       50
102
RTVSPost2010PropOp42
 70
     1
102
RTVSPost2010Prop43
 90
        3
102
RTVSPost2010PropOp43
 70
     1
102
RTVSPost2010Prop44ColorIndex
 90
        5
102
RTVSPost2010Prop44ColorRGB
 90
      255
102
RTVSPost2010PropOp44
 70
     1
102
RTVSPost2010Prop45
280
     0
102
RTVSPost2010PropOp45
 70
     1
102
RTVSPost2010Prop46
 90
       50
102
RTVSPost2010PropOp46
 70
     1
102
RTVSPost2010Prop47
 90
       50
102
RTVSPost2010PropOp47
 70
     1
102
RTVSPost2010Prop48
 90
       50
102
RTVSPost2010PropOp48
 70
     1
102
RTVSPost2010Prop49
280
     0
102
RTVSPost2010PropOp49
 70
     1
102
RTVSPost2010Prop50
 90
       50
102
RTVSPost2010PropOp50
 70
     1
102
RTVSPost2010Prop51ColorIndex
 90
      256
102
RTVSPost2010Prop51ColorRGB
 90
-16777216
102
RTVSPost2010PropOp51
 70
     0
102
RTVSPost2010Prop52
140
1.0
102
RTVSPost2010PropOp52
 70
     0
102
RTVSPost2010Prop53
 90
        2
102
RTVSPost2010PropOp53
 70
     1
102
RTVSPost2010Prop54
  1
strokes_ogs.tif
102
RTVSPost2010PropOp54
 70
     1
102
RTVSPost2010Prop55
280
     0
102
RTVSPost2010PropOp55
 70
     1
102
RTVSPost2010Prop56
140
1.0
102
RTVSPost2010PropOp56
 70
     1
102
RTVSPost2010Prop57
140
1.0
102
RTVSPost2010PropOp57
 70
     1
102
RTVSPropertyOp0
 70
     1
102
RTVSPropertyOp1
 70
     1
102
RTVSPropertyOp2
 70
     1
102
RTVSPropertyOp3
 70
     1
102
RTVSPropertyOp4
 70
     1
102
RTVSPropertyOp5
 70
     1
102
RTVSPropertyOp6
 70
     1
102
RTVSPropertyOp7
 70
     1
102
RTVSPropertyOp8
 70
     1
102
RTVSPropertyOp9
 70
     1
102
RTVSPropertyOp10
 70
     1
102
RTVSPropertyOp11
 70
     1
102
RTVSPropertyOp12
 70
     1
102
RTVSPropertyOp13
 70
     1
102
RTVSPropertyOp14
 70
     1
102
RTVSPropertyOp15
 70
     1
102
RTVSPropertyOp16
 70
     1
102
RTVSPropertyOp17
 70
     1
102
RTVSPropertyOp18
 70
     1
102
RTVSPropertyOp19
 70
     1
102
RTVSPropertyOp20
 70
     1
102
RTVSPropertyOp21
 70
     1
102
RTVSPropertyOp22
 70
     1
102
RTVSPropertyOp23
 70
     1
102
RTVSPropertyOp24
 70
     1
102
RTVSPropertyOp25
 70
     1
102
RTVSPropertyOp26
 70
     1
102
RTVSPropertyOp27
 70
     1
102
RTVSPropertyOp28
 70
     1
102
RTVSPropertyOp29
 70
     1
102
RTVSPropertyOp30
 70
     1
102
RTVSPropertyOp31
 70
     1
102
RTVSPropertyOp32
 70
     1
102
RTVSPropertyOp33
 70
     1
102
RTVSPropertyOp34
 70
     1
102
RTVSPropertyOp35
 70
     1
102
RTVSPropertyOp36
 70
     1
102
RTVSPropertyOp37
 70
     1
102
RTVSPropertyOp38
 70
     1
102
RTVSPropertyOp39
 70
     1
102
RTVSPropertyOp40
 70
     1
102
RTVSPropertyOp41
 70
     1
102
RTVSPropertyOp42
 70
     1
102
RTVSPropertyOp43
 70
     1
102
RTVSPropertyOp44
 70
     1
102
RTVSPropertyOp45
 70
     1
102
RTVSPropertyOp46
 70
     1
102
RTVSPropertyOp47
 70
     1
102
RTVSPropertyOp48
 70
     1
102
RTVSPropertyOp49
 70
     1
102
RTVSPropertyOp50
 70
     1
102
RTVSPropertyOp51
 70
     0
102
RTVSPropertyOp52
 70
     0
102
RTVSPropertyOp53
 70
     1
102
RTVSPropertyOp54
 70
     1
102
RTVSPropertyOp55
 70
     1
102
RTVSPropertyOp56
 70
     1
102
RTVSPropertyOp57
 70
     1
102
RTVSPropertyOp58
 70
     1
102
RTVSPropertyOp59
 70
     1
102
RTVSPropertyOp60
 70
     1
102
RTVSPropertyOp61
 70
     1
102
RTVSPropertyOp62
 70
     1
  0
XRECORD
  5
1AAAA
102
{ACAD_REACTORS
330
1AAA9
102
}
330
1AAA9
100
AcDbXrecord
280
     1
102
RTVSPost2010Prop28
280
     0
102
RTVSPost2010PropOp28
 70
     1
102
RTVSPost2010Prop29
280
     1
102
RTVSPost2010PropOp29
 70
     1
102
RTVSPost2010Prop30
280
     1
102
RTVSPost2010PropOp30
 70
     1
102
RTVSPost2010Prop31
280
     0
102
RTVSPost2010PropOp31
 70
     1
102
RTVSPost2010Prop32
280
     0
102
RTVSPost2010PropOp32
 70
     1
102
RTVSPost2010Prop33
280
     0
102
RTVSPost2010PropOp33
 70
     1
102
RTVSPost2010Prop34
280
     0
102
RTVSPost2010PropOp34
 70
     1
102
RTVSPost2010Prop35
280
     0
102
RTVSPost2010PropOp35
 70
     1
102
RTVSPost2010Prop36
280
     0
102
RTVSPost2010PropOp36
 70
     1
102
RTVSPost2010Prop37
 90
       50
102
RTVSPost2010PropOp37
 70
     1
102
RTVSPost2010Prop38
140
0.0
102
RTVSPost2010PropOp38
 70
     1
102
RTVSPost2010Prop39
140
1.0
102
RTVSPost2010PropOp39
 70
     1
102
RTVSPost2010Prop40
 90
        0
102
RTVSPost2010PropOp40
 70
     1
102
RTVSPost2010Prop41ColorIndex
 90
       18
102
RTVSPost2010Prop41ColorRGB
 90
        0
102
RTVSPost2010PropOp41
 70
     1
102
RTVSPost2010Prop42
 90
       50
102
RTVSPost2010PropOp42
 70
     1
102
RTVSPost2010Prop43
 90
        3
102
RTVSPost2010PropOp43
 70
     1
102
RTVSPost2010Prop44ColorIndex
 90
        5
102
RTVSPost2010Prop44ColorRGB
 90
      255
102
RTVSPost2010PropOp44
 70
     1
102
RTVSPost2010Prop45
280
     0
102
RTVSPost2010PropOp45
 70
     1
102
RTVSPost2010Prop46
 90
       50
102
RTVSPost2010PropOp46
 70
     1
102
RTVSPost2010Prop47
 90
       50
102
RTVSPost2010PropOp47
 70
     1
102
RTVSPost2010Prop48
 90
       50
102
RTVSPost2010PropOp48
 70
     1
102
RTVSPost2010Prop49
280
     0
102
RTVSPost2010PropOp49
 70
     1
102
RTVSPost2010Prop50
 90
       50
102
RTVSPost2010PropOp50
 70
     1
102
RTVSPost2010Prop51ColorIndex
 90
      256
102
RTVSPost2010Prop51ColorRGB
 90
-16777216
102
RTVSPost2010PropOp51
 70
     0
102
RTVSPost2010Prop52
140
1.0
102
RTVSPost2010PropOp52
 70
     0
102
RTVSPost2010Prop53
 90
        2
102
RTVSPost2010PropOp53
 70
     1
102
RTVSPost2010Prop54
  1
strokes_ogs.tif
102
RTVSPost2010PropOp54
 70
     1
102
RTVSPost2010Prop55
280
     0
102
RTVSPost2010PropOp55
 70
     1
102
RTVSPost2010Prop56
140
1.0
102
RTVSPost2010PropOp56
 70
     1
102
RTVSPost2010Prop57
140
1.0
102
RTVSPost2010PropOp57
 70
     1
102
RTVSPropertyOp0
 70
     1
102
RTVSPropertyOp1
 70
     1
102
RTVSPropertyOp2
 70
     1
102
RTVSPropertyOp3
 70
     1
102
RTVSPropertyOp4
 70
     1
102
RTVSPropertyOp5
 70
     1
102
RTVSPropertyOp6
 70
     1
102
RTVSPropertyOp7
 70
     1
102
RTVSPropertyOp8
 70
     1
102
RTVSPropertyOp9
 70
     1
102
RTVSPropertyOp10
 70
     1
102
RTVSPropertyOp11
 70
     1
102
RTVSPropertyOp12
 70
     1
102
RTVSPropertyOp13
 70
     1
102
RTVSPropertyOp14
 70
     1
102
RTVSPropertyOp15
 70
     1
102
RTVSPropertyOp16
 70
     1
102
RTVSPropertyOp17
 70
     1
102
RTVSPropertyOp18
 70
     1
102
RTVSPropertyOp19
 70
     1
102
RTVSPropertyOp20
 70
     1
102
RTVSPropertyOp21
 70
     1
102
RTVSPropertyOp22
 70
     1
102
RTVSPropertyOp23
 70
     1
102
RTVSPropertyOp24
 70
     1
102
RTVSPropertyOp25
 70
     1
102
RTVSPropertyOp26
 70
     1
102
RTVSPropertyOp27
 70
     1
102
RTVSPropertyOp28
 70
     1
102
RTVSPropertyOp29
 70
     1
102
RTVSPropertyOp30
 70
     1
102
RTVSPropertyOp31
 70
     1
102
RTVSPropertyOp32
 70
     1
102
RTVSPropertyOp33
 70
     1
102
RTVSPropertyOp34
 70
     1
102
RTVSPropertyOp35
 70
     1
102
RTVSPropertyOp36
 70
     1
102
RTVSPropertyOp37
 70
     1
102
RTVSPropertyOp38
 70
     1
102
RTVSPropertyOp39
 70
     1
102
RTVSPropertyOp40
 70
     1
102
RTVSPropertyOp41
 70
     1
102
RTVSPropertyOp42
 70
     1
102
RTVSPropertyOp43
 70
     1
102
RTVSPropertyOp44
 70
     1
102
RTVSPropertyOp45
 70
     1
102
RTVSPropertyOp46
 70
     1
102
RTVSPropertyOp47
 70
     1
102
RTVSPropertyOp48
 70
     1
102
RTVSPropertyOp49
 70
     1
102
RTVSPropertyOp50
 70
     1
102
RTVSPropertyOp51
 70
     0
102
RTVSPropertyOp52
 70
     0
102
RTVSPropertyOp53
 70
     1
102
RTVSPropertyOp54
 70
     1
102
RTVSPropertyOp55
 70
     1
102
RTVSPropertyOp56
 70
     1
102
RTVSPropertyOp57
 70
     1
102
RTVSPropertyOp58
 70
     1
102
RTVSPropertyOp59
 70
     1
102
RTVSPropertyOp60
 70
     1
102
RTVSPropertyOp61
 70
     1
102
RTVSPropertyOp62
 70
     1
  0
XRECORD
  5
1AA9E
102
{ACAD_REACTORS
330
1AA9D
102
}
330
1AA9D
100
AcDbXrecord
280
     1
102
RTVSPost2010Prop28
280
     0
102
RTVSPost2010PropOp28
 70
     1
102
RTVSPost2010Prop29
280
     1
102
RTVSPost2010PropOp29
 70
     1
102
RTVSPost2010Prop30
280
     1
102
RTVSPost2010PropOp30
 70
     1
102
RTVSPost2010Prop31
280
     0
102
RTVSPost2010PropOp31
 70
     1
102
RTVSPost2010Prop32
280
     0
102
RTVSPost2010PropOp32
 70
     1
102
RTVSPost2010Prop33
280
     0
102
RTVSPost2010PropOp33
 70
     1
102
RTVSPost2010Prop34
280
     0
102
RTVSPost2010PropOp34
 70
     1
102
RTVSPost2010Prop35
280
     0
102
RTVSPost2010PropOp35
 70
     1
102
RTVSPost2010Prop36
280
     0
102
RTVSPost2010PropOp36
 70
     1
102
RTVSPost2010Prop37
 90
       50
102
RTVSPost2010PropOp37
 70
     1
102
RTVSPost2010Prop38
140
0.0
102
RTVSPost2010PropOp38
 70
     1
102
RTVSPost2010Prop39
140
1.0
102
RTVSPost2010PropOp39
 70
     1
102
RTVSPost2010Prop40
 90
        0
102
RTVSPost2010PropOp40
 70
     1
102
RTVSPost2010Prop41ColorIndex
 90
       18
102
RTVSPost2010Prop41ColorRGB
 90
        0
102
RTVSPost2010PropOp41
 70
     1
102
RTVSPost2010Prop42
 90
       50
102
RTVSPost2010PropOp42
 70
     1
102
RTVSPost2010Prop43
 90
        3
102
RTVSPost2010PropOp43
 70
     1
102
RTVSPost2010Prop44ColorIndex
 90
        5
102
RTVSPost2010Prop44ColorRGB
 90
      255
102
RTVSPost2010PropOp44
 70
     1
102
RTVSPost2010Prop45
280
     0
102
RTVSPost2010PropOp45
 70
     1
102
RTVSPost2010Prop46
 90
       50
102
RTVSPost2010PropOp46
 70
     1
102
RTVSPost2010Prop47
 90
       50
102
RTVSPost2010PropOp47
 70
     1
102
RTVSPost2010Prop48
 90
       50
102
RTVSPost2010PropOp48
 70
     1
102
RTVSPost2010Prop49
280
     0
102
RTVSPost2010PropOp49
 70
     1
102
RTVSPost2010Prop50
 90
       50
102
RTVSPost2010PropOp50
 70
     1
102
RTVSPost2010Prop51ColorIndex
 90
      256
102
RTVSPost2010Prop51ColorRGB
 90
-16777216
102
RTVSPost2010PropOp51
 70
     0
102
RTVSPost2010Prop52
140
1.0
102
RTVSPost2010PropOp52
 70
     0
102
RTVSPost2010Prop53
 90
        2
102
RTVSPost2010PropOp53
 70
     1
102
RTVSPost2010Prop54
  1
strokes_ogs.tif
102
RTVSPost2010PropOp54
 70
     1
102
RTVSPost2010Prop55
280
     0
102
RTVSPost2010PropOp55
 70
     1
102
RTVSPost2010Prop56
140
1.0
102
RTVSPost2010PropOp56
 70
     1
102
RTVSPost2010Prop57
140
1.0
102
RTVSPost2010PropOp57
 70
     1
102
RTVSPropertyOp0
 70
     1
102
RTVSPropertyOp1
 70
     1
102
RTVSPropertyOp2
 70
     1
102
RTVSPropertyOp3
 70
     1
102
RTVSPropertyOp4
 70
     1
102
RTVSPropertyOp5
 70
     1
102
RTVSPropertyOp6
 70
     1
102
RTVSPropertyOp7
 70
     1
102
RTVSPropertyOp8
 70
     1
102
RTVSPropertyOp9
 70
     1
102
RTVSPropertyOp10
 70
     1
102
RTVSPropertyOp11
 70
     1
102
RTVSPropertyOp12
 70
     1
102
RTVSPropertyOp13
 70
     1
102
RTVSPropertyOp14
 70
     1
102
RTVSPropertyOp15
 70
     1
102
RTVSPropertyOp16
 70
     1
102
RTVSPropertyOp17
 70
     1
102
RTVSPropertyOp18
 70
     1
102
RTVSPropertyOp19
 70
     1
102
RTVSPropertyOp20
 70
     1
102
RTVSPropertyOp21
 70
     1
102
RTVSPropertyOp22
 70
     1
102
RTVSPropertyOp23
 70
     1
102
RTVSPropertyOp24
 70
     1
102
RTVSPropertyOp25
 70
     1
102
RTVSPropertyOp26
 70
     1
102
RTVSPropertyOp27
 70
     1
102
RTVSPropertyOp28
 70
     1
102
RTVSPropertyOp29
 70
     1
102
RTVSPropertyOp30
 70
     1
102
RTVSPropertyOp31
 70
     1
102
RTVSPropertyOp32
 70
     1
102
RTVSPropertyOp33
 70
     1
102
RTVSPropertyOp34
 70
     1
102
RTVSPropertyOp35
 70
     1
102
RTVSPropertyOp36
 70
     1
102
RTVSPropertyOp37
 70
     1
102
RTVSPropertyOp38
 70
     1
102
RTVSPropertyOp39
 70
     1
102
RTVSPropertyOp40
 70
     1
102
RTVSPropertyOp41
 70
     1
102
RTVSPropertyOp42
 70
     1
102
RTVSPropertyOp43
 70
     1
102
RTVSPropertyOp44
 70
     1
102
RTVSPropertyOp45
 70
     1
102
RTVSPropertyOp46
 70
     1
102
RTVSPropertyOp47
 70
     1
102
RTVSPropertyOp48
 70
     1
102
RTVSPropertyOp49
 70
     1
102
RTVSPropertyOp50
 70
     1
102
RTVSPropertyOp51
 70
     0
102
RTVSPropertyOp52
 70
     0
102
RTVSPropertyOp53
 70
     1
102
RTVSPropertyOp54
 70
     1
102
RTVSPropertyOp55
 70
     1
102
RTVSPropertyOp56
 70
     1
102
RTVSPropertyOp57
 70
     1
102
RTVSPropertyOp58
 70
     1
102
RTVSPropertyOp59
 70
     1
102
RTVSPropertyOp60
 70
     1
102
RTVSPropertyOp61
 70
     1
102
RTVSPropertyOp62
 70
     1
  0
XRECORD
  5
1AABE
102
{ACAD_REACTORS
330
1AABD
102
}
330
1AABD
100
AcDbXrecord
280
     1
102
RTVSPost2010Prop28
280
     0
102
RTVSPost2010PropOp28
 70
     1
102
RTVSPost2010Prop29
280
     1
102
RTVSPost2010PropOp29
 70
     1
102
RTVSPost2010Prop30
280
     1
102
RTVSPost2010PropOp30
 70
     1
102
RTVSPost2010Prop31
280
     0
102
RTVSPost2010PropOp31
 70
     1
102
RTVSPost2010Prop32
280
     0
102
RTVSPost2010PropOp32
 70
     1
102
RTVSPost2010Prop33
280
     0
102
RTVSPost2010PropOp33
 70
     1
102
RTVSPost2010Prop34
280
     0
102
RTVSPost2010PropOp34
 70
     1
102
RTVSPost2010Prop35
280
     0
102
RTVSPost2010PropOp35
 70
     1
102
RTVSPost2010Prop36
280
     0
102
RTVSPost2010PropOp36
 70
     1
102
RTVSPost2010Prop37
 90
       50
102
RTVSPost2010PropOp37
 70
     1
102
RTVSPost2010Prop38
140
0.0
102
RTVSPost2010PropOp38
 70
     1
102
RTVSPost2010Prop39
140
1.0
102
RTVSPost2010PropOp39
 70
     1
102
RTVSPost2010Prop40
 90
        0
102
RTVSPost2010PropOp40
 70
     1
102
RTVSPost2010Prop41ColorIndex
 90
       18
102
RTVSPost2010Prop41ColorRGB
 90
        0
102
RTVSPost2010PropOp41
 70
     1
102
RTVSPost2010Prop42
 90
       50
102
RTVSPost2010PropOp42
 70
     1
102
RTVSPost2010Prop43
 90
        3
102
RTVSPost2010PropOp43
 70
     1
102
RTVSPost2010Prop44ColorIndex
 90
        5
102
RTVSPost2010Prop44ColorRGB
 90
      255
102
RTVSPost2010PropOp44
 70
     1
102
RTVSPost2010Prop45
280
     0
102
RTVSPost2010PropOp45
 70
     1
102
RTVSPost2010Prop46
 90
       50
102
RTVSPost2010PropOp46
 70
     1
102
RTVSPost2010Prop47
 90
       50
102
RTVSPost2010PropOp47
 70
     1
102
RTVSPost2010Prop48
 90
       50
102
RTVSPost2010PropOp48
 70
     1
102
RTVSPost2010Prop49
280
     0
102
RTVSPost2010PropOp49
 70
     1
102
RTVSPost2010Prop50
 90
       50
102
RTVSPost2010PropOp50
 70
     1
102
RTVSPost2010Prop51ColorIndex
 90
      256
102
RTVSPost2010Prop51ColorRGB
 90
-16777216
102
RTVSPost2010PropOp51
 70
     0
102
RTVSPost2010Prop52
140
1.0
102
RTVSPost2010PropOp52
 70
     0
102
RTVSPost2010Prop53
 90
        2
102
RTVSPost2010PropOp53
 70
     1
102
RTVSPost2010Prop54
  1
strokes_ogs.tif
102
RTVSPost2010PropOp54
 70
     1
102
RTVSPost2010Prop55
280
     0
102
RTVSPost2010PropOp55
 70
     1
102
RTVSPost2010Prop56
140
1.0
102
RTVSPost2010PropOp56
 70
     1
102
RTVSPost2010Prop57
140
1.0
102
RTVSPost2010PropOp57
 70
     1
102
RTVSPropertyOp0
 70
     1
102
RTVSPropertyOp1
 70
     1
102
RTVSPropertyOp2
 70
     1
102
RTVSPropertyOp3
 70
     1
102
RTVSPropertyOp4
 70
     1
102
RTVSPropertyOp5
 70
     1
102
RTVSPropertyOp6
 70
     1
102
RTVSPropertyOp7
 70
     1
102
RTVSPropertyOp8
 70
     1
102
RTVSPropertyOp9
 70
     1
102
RTVSPropertyOp10
 70
     1
102
RTVSPropertyOp11
 70
     1
102
RTVSPropertyOp12
 70
     1
102
RTVSPropertyOp13
 70
     1
102
RTVSPropertyOp14
 70
     1
102
RTVSPropertyOp15
 70
     1
102
RTVSPropertyOp16
 70
     1
102
RTVSPropertyOp17
 70
     1
102
RTVSPropertyOp18
 70
     1
102
RTVSPropertyOp19
 70
     1
102
RTVSPropertyOp20
 70
     1
102
RTVSPropertyOp21
 70
     1
102
RTVSPropertyOp22
 70
     1
102
RTVSPropertyOp23
 70
     1
102
RTVSPropertyOp24
 70
     1
102
RTVSPropertyOp25
 70
     1
102
RTVSPropertyOp26
 70
     1
102
RTVSPropertyOp27
 70
     1
102
RTVSPropertyOp28
 70
     1
102
RTVSPropertyOp29
 70
     1
102
RTVSPropertyOp30
 70
     1
102
RTVSPropertyOp31
 70
     1
102
RTVSPropertyOp32
 70
     1
102
RTVSPropertyOp33
 70
     1
102
RTVSPropertyOp34
 70
     1
102
RTVSPropertyOp35
 70
     1
102
RTVSPropertyOp36
 70
     1
102
RTVSPropertyOp37
 70
     1
102
RTVSPropertyOp38
 70
     1
102
RTVSPropertyOp39
 70
     1
102
RTVSPropertyOp40
 70
     1
102
RTVSPropertyOp41
 70
     1
102
RTVSPropertyOp42
 70
     1
102
RTVSPropertyOp43
 70
     1
102
RTVSPropertyOp44
 70
     1
102
RTVSPropertyOp45
 70
     1
102
RTVSPropertyOp46
 70
     1
102
RTVSPropertyOp47
 70
     1
102
RTVSPropertyOp48
 70
     1
102
RTVSPropertyOp49
 70
     1
102
RTVSPropertyOp50
 70
     1
102
RTVSPropertyOp51
 70
     0
102
RTVSPropertyOp52
 70
     0
102
RTVSPropertyOp53
 70
     1
102
RTVSPropertyOp54
 70
     1
102
RTVSPropertyOp55
 70
     1
102
RTVSPropertyOp56
 70
     1
102
RTVSPropertyOp57
 70
     1
102
RTVSPropertyOp58
 70
     1
102
RTVSPropertyOp59
 70
     1
102
RTVSPropertyOp60
 70
     1
102
RTVSPropertyOp61
 70
     1
102
RTVSPropertyOp62
 70
     1
  0
ENDSEC
  0
EOF
