  0
SECTION
  2
HEADER
  9
$ACADVER
  1
AC1015
  9
$ACADMAINTVER
 70
    18
  9
$DWGCODEPAGE
  3
ANSI_1252
  9
$INSBASE
 10
0.0
 20
0.0
 30
0.0
  9
$EXTMIN
 10
-18.56597804763112
 20
-210.7858882257551
 30
-0.0015258207003583
  9
$EXTMAX
 10
42.76519829263588
 20
2.007614483832867
 30
0.0000000349246037
  9
$LIMMIN
 10
0.0
 20
0.0
  9
$LIMMAX
 10
420.0
 20
297.0
  9
$ORTHOMODE
 70
     0
  9
$REGENMODE
 70
     1
  9
$FILLMODE
 70
     1
  9
$QTEXTMODE
 70
     0
  9
$MIRRTEXT
 70
     0
  9
$LTSCALE
 40
1.0
  9
$ATTMODE
 70
     1
  9
$TEXTSIZE
 40
2.5
  9
$TRACEWID
 40
1.0
  9
$TEXTSTYLE
  7
Standard
  9
$CLAYER
  8
0
  9
$CELTYPE
  6
ByLayer
  9
$CECOLOR
 62
   256
  9
$CELTSCALE
 40
1.0
  9
$DISPSILH
 70
     0
  9
$DIMSCALE
 40
1.0
  9
$DIMASZ
 40
2.5
  9
$DIMEXO
 40
0.625
  9
$DIMDLI
 40
3.75
  9
$DIMRND
 40
0.0
  9
$DIMDLE
 40
0.0
  9
$DIMEXE
 40
1.25
  9
$DIMTP
 40
0.0
  9
$DIMTM
 40
0.0
  9
$DIMTXT
 40
2.5
  9
$DIMCEN
 40
2.5
  9
$DIMTSZ
 40
0.0
  9
$DIMTOL
 70
     0
  9
$DIMLIM
 70
     0
  9
$DIMTIH
 70
     0
  9
$DIMTOH
 70
     0
  9
$DIMSE1
 70
     0
  9
$DIMSE2
 70
     0
  9
$DIMTAD
 70
     1
  9
$DIMZIN
 70
     8
  9
$DIMBLK
  1

  9
$DIMASO
 70
     1
  9
$DIMSHO
 70
     1
  9
$DIMPOST
  1

  9
$DIMAPOST
  1

  9
$DIMALT
 70
     0
  9
$DIMALTD
 70
     3
  9
$DIMALTF
 40
0.03937007874016
  9
$DIMLFAC
 40
1.0
  9
$DIMTOFL
 70
     1
  9
$DIMTVP
 40
0.0
  9
$DIMTIX
 70
     0
  9
$DIMSOXD
 70
     0
  9
$DIMSAH
 70
     0
  9
$DIMBLK1
  1

  9
$DIMBLK2
  1

  9
$DIMSTYLE
  2
ISO-25
  9
$DIMCLRD
 70
     0
  9
$DIMCLRE
 70
     0
  9
$DIMCLRT
 70
     0
  9
$DIMTFAC
 40
1.0
  9
$DIMGAP
 40
0.625
  9
$DIMJUST
 70
     0
  9
$DIMSD1
 70
     0
  9
$DIMSD2
 70
     0
  9
$DIMTOLJ
 70
     0
  9
$DIMTZIN
 70
     8
  9
$DIMALTZ
 70
     0
  9
$DIMALTTZ
 70
     0
  9
$DIMUPT
 70
     0
  9
$DIMDEC
 70
     2
  9
$DIMTDEC
 70
     2
  9
$DIMALTU
 70
     2
  9
$DIMALTTD
 70
     3
  9
$DIMTXSTY
  7
Standard
  9
$DIMAUNIT
 70
     0
  9
$DIMADEC
 70
     0
  9
$DIMALTRND
 40
0.0
  9
$DIMAZIN
 70
     0
  9
$DIMDSEP
 70
    44
  9
$DIMATFIT
 70
     3
  9
$DIMFRAC
 70
     0
  9
$DIMLDRBLK
  1

  9
$DIMLUNIT
 70
     2
  9
$DIMLWD
 70
    -2
  9
$DIMLWE
 70
    -2
  9
$DIMTMOVE
 70
     0
  9
$LUNITS
 70
     2
  9
$LUPREC
 70
     4
  9
$SKETCHINC
 40
1.0
  9
$FILLETRAD
 40
0.0
  9
$AUNITS
 70
     0
  9
$AUPREC
 70
     0
  9
$MENU
  1
.
  9
$ELEVATION
 40
0.0
  9
$PELEVATION
 40
0.0
  9
$THICKNESS
 40
0.0
  9
$LIMCHECK
 70
     0
  9
$CHAMFERA
 40
0.0
  9
$CHAMFERB
 40
0.0
  9
$CHAMFERC
 40
0.0
  9
$CHAMFERD
 40
0.0
  9
$SKPOLY
 70
     0
  9
$TDCREATE
 40
2460733.571354167
  9
$TDUCREATE
 40
2460733.279687500
  9
$TDUPDATE
 40
2460733.603067130
  9
$TDUUPDATE
 40
2460733.311400463
  9
$TDINDWG
 40
0.0027430556
  9
$TDUSRTIMER
 40
0.0027430556
  9
$USRTIMER
 70
     1
  9
$ANGBASE
 50
0.0
  9
$ANGDIR
 70
     0
  9
$PDMODE
 70
     0
  9
$PDSIZE
 40
0.0
  9
$PLINEWID
 40
0.0
  9
$SPLFRAME
 70
     0
  9
$SPLINETYPE
 70
     6
  9
$SPLINESEGS
 70
     8
  9
$HANDSEED
  5
1A60C
  9
$SURFTAB1
 70
     6
  9
$SURFTAB2
 70
     6
  9
$SURFTYPE
 70
     6
  9
$SURFU
 70
     6
  9
$SURFV
 70
     6
  9
$UCSBASE
  2

  9
$UCSNAME
  2

  9
$UCSORG
 10
0.0
 20
0.0
 30
0.0
  9
$UCSXDIR
 10
1.0
 20
0.0
 30
0.0
  9
$UCSYDIR
 10
0.0
 20
1.0
 30
0.0
  9
$UCSORTHOREF
  2

  9
$UCSORTHOVIEW
 70
     0
  9
$UCSORGTOP
 10
0.0
 20
0.0
 30
0.0
  9
$UCSORGBOTTOM
 10
0.0
 20
0.0
 30
0.0
  9
$UCSORGLEFT
 10
0.0
 20
0.0
 30
0.0
  9
$UCSORGRIGHT
 10
0.0
 20
0.0
 30
0.0
  9
$UCSORGFRONT
 10
0.0
 20
0.0
 30
0.0
  9
$UCSORGBACK
 10
0.0
 20
0.0
 30
0.0
  9
$PUCSBASE
  2

  9
$PUCSNAME
  2

  9
$PUCSORG
 10
0.0
 20
0.0
 30
0.0
  9
$PUCSXDIR
 10
1.0
 20
0.0
 30
0.0
  9
$PUCSYDIR
 10
0.0
 20
1.0
 30
0.0
  9
$PUCSORTHOREF
  2

  9
$PUCSORTHOVIEW
 70
     0
  9
$PUCSORGTOP
 10
0.0
 20
0.0
 30
0.0
  9
$PUCSORGBOTTOM
 10
0.0
 20
0.0
 30
0.0
  9
$PUCSORGLEFT
 10
0.0
 20
0.0
 30
0.0
  9
$PUCSORGRIGHT
 10
0.0
 20
0.0
 30
0.0
  9
$PUCSORGFRONT
 10
0.0
 20
0.0
 30
0.0
  9
$PUCSORGBACK
 10
0.0
 20
0.0
 30
0.0
  9
$USERI1
 70
     0
  9
$USERI2
 70
     0
  9
$USERI3
 70
     0
  9
$USERI4
 70
     0
  9
$USERI5
 70
     0
  9
$USERR1
 40
0.0
  9
$USERR2
 40
0.0
  9
$USERR3
 40
0.0
  9
$USERR4
 40
0.0
  9
$USERR5
 40
0.0
  9
$WORLDVIEW
 70
     1
  9
$SHADEDGE
 70
     3
  9
$SHADEDIF
 70
    70
  9
$TILEMODE
 70
     1
  9
$MAXACTVP
 70
    48
  9
$PINSBASE
 10
0.0
 20
0.0
 30
0.0
  9
$PLIMCHECK
 70
     0
  9
$PEXTMIN
 10
0.0
 20
0.0
 30
0.0
  9
$PEXTMAX
 10
0.0
 20
0.0
 30
0.0
  9
$PLIMMIN
 10
0.0
 20
0.0
  9
$PLIMMAX
 10
12.0
 20
9.0
  9
$UNITMODE
 70
     0
  9
$VISRETAIN
 70
     1
  9
$PLINEGEN
 70
     0
  9
$PSLTSCALE
 70
     1
  9
$TREEDEPTH
 70
  3020
  9
$CMLSTYLE
  2
Standard
  9
$CMLJUST
 70
     0
  9
$CMLSCALE
 40
20.0
  9
$PROXYGRAPHICS
 70
     1
  9
$MEASUREMENT
 70
     1
  9
$CELWEIGHT
370
    -1
  9
$ENDCAPS
280
     0
  9
$JOINSTYLE
280
     0
  9
$LWDISPLAY
290
     0
  9
$INSUNITS
 70
     4
  9
$HYPERLINKBASE
  1

  9
$STYLESHEET
  1

  9
$XEDIT
290
     1
  9
$CEPSNTYPE
380
     0
  9
$PSTYLEMODE
290
     1
  9
$FINGERPRINTGUID
  2
{6CB9A169-B505-1E4C-8D04-AD9216FC5A69}
  9
$VERSIONGUID
  2
{965A79F8-CBAE-D243-BE8A-D57294B8B7A5}
  9
$EXTNAMES
290
     1
  9
$PSVPSCALE
 40
0.0
  9
$OLESTARTUP
290
     0
  0
ENDSEC
  0
SECTION
  2
CLASSES
  0
CLASS
  1
ACDBDICTIONARYWDFLT
  2
AcDbDictionaryWithDefault
  3
ObjectDBX Classes
 90
        0
280
     0
281
     0
  0
CLASS
  1
ACDBPLACEHOLDER
  2
AcDbPlaceHolder
  3
ObjectDBX Classes
 90
        0
280
     0
281
     0
  0
CLASS
  1
LAYOUT
  2
AcDbLayout
  3
ObjectDBX Classes
 90
        0
280
     0
281
     0
  0
CLASS
  1
DICTIONARYVAR
  2
AcDbDictionaryVar
  3
ObjectDBX Classes
 90
        0
280
     0
281
     0
  0
CLASS
  1
TABLESTYLE
  2
AcDbTableStyle
  3
ObjectDBX Classes
 90
     4095
280
     0
281
     0
  0
CLASS
  1
MATERIAL
  2
AcDbMaterial
  3
ObjectDBX Classes
 90
     1153
280
     0
281
     0
  0
CLASS
  1
VISUALSTYLE
  2
AcDbVisualStyle
  3
ObjectDBX Classes
 90
     4095
280
     0
281
     0
  0
CLASS
  1
SCALE
  2
AcDbScale
  3
ObjectDBX Classes
 90
     1153
280
     0
281
     0
  0
CLASS
  1
MLEADERSTYLE
  2
AcDbMLeaderStyle
  3
ACDB_MLEADERSTYLE_CLASS
 90
     4095
280
     0
281
     0
  0
CLASS
  1
CELLSTYLEMAP
  2
AcDbCellStyleMap
  3
ObjectDBX Classes
 90
     1152
280
     0
281
     0
  0
CLASS
  1
EXACXREFPANELOBJECT
  2
ExAcXREFPanelObject
  3
EXAC_ESW
 90
    33793
280
     0
281
     0
  0
CLASS
  1
NPOCOLLECTION
  2
AcDbImpNonPersistentObjectsCollection
  3
ObjectDBX Classes
 90
    33921
280
     0
281
     0
  0
CLASS
  1
LAYER_INDEX
  2
AcDbLayerIndex
  3
ObjectDBX Classes
 90
    32768
280
     0
281
     0
  0
CLASS
  1
SPATIAL_INDEX
  2
AcDbSpatialIndex
  3
ObjectDBX Classes
 90
    32768
280
     0
281
     0
  0
CLASS
  1
IDBUFFER
  2
AcDbIdBuffer
  3
ObjectDBX Classes
 90
    32768
280
     0
281
     0
  0
CLASS
  1
ACDBSECTIONVIEWSTYLE
  2
AcDbSectionViewStyle
  3
ObjectDBX Classes
 90
     1025
280
     0
281
     0
  0
CLASS
  1
ACDBDETAILVIEWSTYLE
  2
AcDbDetailViewStyle
  3
ObjectDBX Classes
 90
     1025
280
     0
281
     0
  0
CLASS
  1
XRECORD
  2
AcDbXrecord
  3
ObjectDBX Classes
 90
        0
280
     0
281
     0
  0
ENDSEC
  0
SECTION
  2
TABLES
  0
TABLE
  2
VPORT
  5
8
102
{ACAD_XDICTIONARY
360
1A51A
102
}
330
0
100
AcDbSymbolTable
 70
     1
  0
VPORT
  5
EA
330
8
100
AcDbSymbolTableRecord
100
AcDbViewportTableRecord
  2
*Active
 70
     0
 10
0.0
 20
0.0
 11
1.0
 21
1.0
 12
12.09961012250238
 22
-104.3891368709611
 13
0.0
 23
0.0
 14
10.0
 24
10.0
 15
10.0
 25
10.0
 16
0.0
 26
0.0
 36
1.0
 17
0.0
 27
0.0
 37
0.0
 40
226.2866060788146
 41
0.9846153846153846
 42
50.0
 43
0.0
 44
0.0
 50
0.0
 51
0.0
 71
     0
 72
  1000
 73
     1
 74
     3
 75
     0
 76
     1
 77
     0
 78
     0
281
     0
 65
     1
110
0.0
120
0.0
130
0.0
111
1.0
121
0.0
131
0.0
112
0.0
122
1.0
132
0.0
 79
     0
146
0.0
1001
ACAD_NAV_VCDISPLAY
1070
     3
  0
ENDTAB
  0
TABLE
  2
LTYPE
  5
5
330
0
100
AcDbSymbolTable
 70
     1
  0
LTYPE
  5
14
330
5
100
AcDbSymbolTableRecord
100
AcDbLinetypeTableRecord
  2
ByBlock
 70
     0
  3

 72
    65
 73
     0
 40
0.0
  0
LTYPE
  5
15
330
5
100
AcDbSymbolTableRecord
100
AcDbLinetypeTableRecord
  2
ByLayer
 70
     0
  3

 72
    65
 73
     0
 40
0.0
  0
LTYPE
  5
16
330
5
100
AcDbSymbolTableRecord
100
AcDbLinetypeTableRecord
  2
Continuous
 70
     0
  3
Solid line
 72
    65
 73
     0
 40
0.0
  0
ENDTAB
  0
TABLE
  2
LAYER
  5
2
102
{ACAD_XDICTIONARY
360
1FF
102
}
330
0
100
AcDbSymbolTable
 70
     1
  0
LAYER
  5
10
102
{ACAD_XDICTIONARY
360
13C
102
}
330
2
100
AcDbSymbolTableRecord
100
AcDbLayerTableRecord
  2
0
 70
     0
 62
     7
  6
Continuous
370
    -3
390
F
  0
ENDTAB
  0
TABLE
  2
STYLE
  5
3
330
0
100
AcDbSymbolTable
 70
     1
  0
STYLE
  5
11
330
3
100
AcDbSymbolTableRecord
100
AcDbTextStyleTableRecord
  2
Standard
 70
     0
 40
0.0
 41
1.0
 50
0.0
 71
     0
 42
2.5
  3
arial.ttf
  4

1001
ACAD
1000
Arial
1071
       34
  0
ENDTAB
  0
TABLE
  2
VIEW
  5
6
330
0
100
AcDbSymbolTable
 70
     0
  0
ENDTAB
  0
TABLE
  2
UCS
  5
7
330
0
100
AcDbSymbolTable
 70
     0
  0
ENDTAB
  0
TABLE
  2
APPID
  5
9
330
0
100
AcDbSymbolTable
 70
     8
  0
APPID
  5
12
330
9
100
AcDbSymbolTableRecord
100
AcDbRegAppTableRecord
  2
ACAD
 70
     0
  0
APPID
  5
9E
330
9
100
AcDbSymbolTableRecord
100
AcDbRegAppTableRecord
  2
ACAD_PSEXT
 70
     0
  0
APPID
  5
133
330
9
100
AcDbSymbolTableRecord
100
AcDbRegAppTableRecord
  2
AcadAnnoPO
 70
     0
  0
APPID
  5
134
330
9
100
AcDbSymbolTableRecord
100
AcDbRegAppTableRecord
  2
AcadAnnotative
 70
     0
  0
APPID
  5
135
330
9
100
AcDbSymbolTableRecord
100
AcDbRegAppTableRecord
  2
ACAD_DSTYLE_DIMJAG
 70
     0
  0
APPID
  5
136
330
9
100
AcDbSymbolTableRecord
100
AcDbRegAppTableRecord
  2
ACAD_DSTYLE_DIMTALN
 70
     0
  0
APPID
  5
165
330
9
100
AcDbSymbolTableRecord
100
AcDbRegAppTableRecord
  2
ACAD_MLEADERVER
 70
     0
  0
APPID
  5
217
330
9
100
AcDbSymbolTableRecord
100
AcDbRegAppTableRecord
  2
ACAD_NAV_VCDISPLAY
 70
     0
  0
ENDTAB
  0
TABLE
  2
DIMSTYLE
  5
A
330
0
100
AcDbSymbolTable
 70
     1
100
AcDbDimStyleTable
 71
     0
  0
DIMSTYLE
105
27
330
A
100
AcDbSymbolTableRecord
100
AcDbDimStyleTableRecord
  2
ISO-25
 70
     0
 41
2.5
 42
0.625
 43
3.75
 44
1.25
 73
     0
 74
     0
 77
     1
 78
     8
140
2.5
141
2.5
143
0.03937007874016
147
0.625
171
     3
172
     1
271
     2
272
     2
274
     3
278
    44
283
     0
284
     8
340
11
  0
ENDTAB
  0
TABLE
  2
BLOCK_RECORD
  5
1
330
0
100
AcDbSymbolTable
 70
     4
  0
BLOCK_RECORD
  5
1F
102
{ACAD_XDICTIONARY
360
1CE
102
}
330
1
100
AcDbSymbolTableRecord
100
AcDbBlockTableRecord
  2
*Model_Space
340
22
  0
BLOCK_RECORD
  5
D2
102
{ACAD_XDICTIONARY
360
1A4CB
102
}
330
1
100
AcDbSymbolTableRecord
100
AcDbBlockTableRecord
  2
*Paper_Space
340
D3
  0
BLOCK_RECORD
  5
D6
102
{ACAD_XDICTIONARY
360
1A4CD
102
}
330
1
100
AcDbSymbolTableRecord
100
AcDbBlockTableRecord
  2
*Paper_Space0
340
D7
  0
BLOCK_RECORD
  5
1A0C0
330
1
100
AcDbSymbolTableRecord
100
AcDbBlockTableRecord
  2
MKSA440x100-Front
340
0
102
{BLKREFS
331
1A4C4
102
}
  0
BLOCK_RECORD
  5
1A3B7
330
1
100
AcDbSymbolTableRecord
100
AcDbBlockTableRecord
  2
MKSA440x100-Top
340
0
102
{BLKREFS
331
1A4C5
102
}
  0
BLOCK_RECORD
  5
1A3C8
330
1
100
AcDbSymbolTableRecord
100
AcDbBlockTableRecord
  2
MKSA440x100-ISO
340
0
102
{BLKREFS
331
1A4C6
102
}
  0
ENDTAB
  0
ENDSEC
  0
SECTION
  2
BLOCKS
  0
BLOCK
  5
20
330
1F
100
AcDbEntity
  8
0
100
AcDbBlockBegin
  2
*Model_Space
 70
     0
 10
0.0
 20
0.0
 30
0.0
  3
*Model_Space
  1

  0
ENDBLK
  5
21
330
1F
100
AcDbEntity
  8
0
100
AcDbBlockEnd
  0
BLOCK
  5
D4
330
D2
100
AcDbEntity
 67
     1
  8
0
100
AcDbBlockBegin
  2
*Paper_Space
 70
     0
 10
0.0
 20
0.0
 30
0.0
  3
*Paper_Space
  1

  0
ENDBLK
  5
D5
330
D2
100
AcDbEntity
 67
     1
  8
0
100
AcDbBlockEnd
  0
BLOCK
  5
D8
330
D6
100
AcDbEntity
 67
     1
  8
0
100
AcDbBlockBegin
  2
*Paper_Space0
 70
     0
 10
0.0
 20
0.0
 30
0.0
  3
*Paper_Space0
  1

  0
ENDBLK
  5
D9
330
D6
100
AcDbEntity
 67
     1
  8
0
100
AcDbBlockEnd
  0
BLOCK
  5
1A0C1
330
1A0C0
100
AcDbEntity
  8
0
100
AcDbBlockBegin
  2
MKSA440x100-Front
 70
     0
 10
0.0
 20
0.0
 30
0.0
  3
MKSA440x100-Front
  1

  0
LINE
  5
1A0C3
330
1A0C0
100
AcDbEntity
  8
0
100
AcDbLine
 10
0.0
 20
-98.0
 30
0.0
 11
-2.111027358743967
 21
-92.19999999999998
 31
0.0
  0
LINE
  5
1A0C4
330
1A0C0
100
AcDbEntity
  8
0
100
AcDbLine
 10
0.0
 20
-98.0
 30
0.0
 11
2.111027358743972
 21
-92.19999999999998
 31
0.0
  0
ELLIPSE
  5
1A0C5
330
1A0C0
100
AcDbEntity
  8
0
100
AcDbEllipse
 10
0.000000000000005
 20
-97.99999999999998
 30
0.0
 11
-1.541261305124505
 21
-8.197953800196605
 31
0.0
210
0.0
220
0.0
230
0.9999999999999998
 40
0.1759646242458636
 41
2.389264765746329
 42
3.96006109254123
  0
LINE
  5
1A0C6
330
1A0C0
100
AcDbEntity
  8
0
100
AcDbLine
 10
0.0
 20
-92.19999999999998
 30
0.0
 11
0.0
 21
-98.0
 31
0.0
  0
LINE
  5
1A0C7
330
1A0C0
100
AcDbEntity
  8
0
100
AcDbLine
 10
2.111027358743974
 20
-87.00000000000002
 30
0.0
 11
-2.111027358743967
 21
-87.00000000000002
 31
0.0
  0
LINE
  5
1A0C8
330
1A0C0
100
AcDbEntity
  8
0
100
AcDbLine
 10
2.000000000000001
 20
-37.00000000000001
 30
0.0
 11
-2.000000000000006
 21
-37.00000000000001
 31
0.0
  0
LINE
  5
1A0C9
330
1A0C0
100
AcDbEntity
  8
0
100
AcDbLine
 10
4.249999999999985
 20
0.0
 30
0.0
 11
-4.25
 21
0.0
 31
0.0
  0
LINE
  5
1A0CA
330
1A0C0
100
AcDbEntity
  8
0
100
AcDbLine
 10
4.249999999999985
 20
0.3500000000000019
 30
0.0
 11
-4.25
 21
0.3500000000000009
 31
0.0
  0
LINE
  5
1A0CB
330
1A0C0
100
AcDbEntity
  8
0
100
AcDbLine
 10
-2.111027358743967
 20
-92.19999999999998
 30
0.0
 11
-2.111027358743968
 21
-87.00000000000002
 31
0.0
  0
LINE
  5
1A0CC
330
1A0C0
100
AcDbEntity
  8
0
100
AcDbLine
 10
2.111027358743975
 20
-92.19999999999998
 30
0.0
 11
2.111027358743975
 21
-87.00000000000002
 31
0.0
  0
LINE
  5
1A0CD
330
1A0C0
100
AcDbEntity
  8
0
100
AcDbLine
 10
-1.849999999999999
 20
-87.00000000000001
 30
0.0
 11
-1.849999999999999
 21
-86.50000000000003
 31
0.0
  0
LINE
  5
1A0CE
330
1A0C0
100
AcDbEntity
  8
0
100
AcDbLine
 10
1.850000000000006
 20
-87.00000000000001
 30
0.0
 11
1.850000000000006
 21
-86.50000000000003
 31
0.0
  0
LINE
  5
1A0CF
330
1A0C0
100
AcDbEntity
  8
0
100
AcDbLine
 10
-2.000000000000003
 20
-37.00000000000001
 30
0.0
 11
-2.000000000000008
 21
-1.0
 31
0.0
  0
LINE
  5
1A0D0
330
1A0C0
100
AcDbEntity
  8
0
100
AcDbLine
 10
1.999999999999999
 20
-37.00000000000001
 30
0.0
 11
1.999999999999994
 21
-0.9999999999999964
 31
0.0
  0
ARC
  5
1A0D1
330
1A0C0
100
AcDbEntity
  8
0
100
AcDbCircle
 10
2.999999999999992
 20
-0.999999999999996
 30
0.0
 40
1.0
100
AcDbArc
 50
90.00000000000005
 51
180.0
  0
ARC
  5
1A0D2
330
1A0C0
100
AcDbEntity
  8
0
100
AcDbCircle
 10
-3.000000000000006
 20
-0.9999999999999968
 30
0.0
 40
1.0
100
AcDbArc
 50
0.0
 51
90.00000000000007
  0
LINE
  5
1A0D3
330
1A0C0
100
AcDbEntity
  8
0
100
AcDbLine
 10
-4.25
 20
0.0
 30
0.0
 11
-4.25
 21
0.3499999999999999
 31
0.0
  0
LINE
  5
1A0D4
330
1A0C0
100
AcDbEntity
  8
0
100
AcDbLine
 10
4.249999999999985
 20
0.0
 30
0.0
 11
4.249999999999985
 21
0.3500000000000019
 31
0.0
  0
ARC
  5
1A0D5
330
1A0C0
100
AcDbEntity
  8
0
100
AcDbCircle
 10
0.6503096200045128
 20
-5.973524778799497
 30
0.0
 40
8.0
100
AcDbArc
 50
94.6626442334653
 51
127.773294920092
  0
ARC
  5
1A0D6
330
1A0C0
100
AcDbEntity
  8
0
100
AcDbCircle
 10
-0.6503096200045253
 20
-5.973524778799497
 30
0.0
 40
8.000000000000001
100
AcDbArc
 50
52.22670507990801
 51
85.33735576653475
  0
ELLIPSE
  5
1A0D7
330
1A0C0
100
AcDbEntity
  8
0
100
AcDbEllipse
 10
0.000000000000005
 20
-98.00000000000004
 30
0.0
 11
-1.541261305124511
 21
8.197953800196611
 31
0.0
210
0.0
220
0.0
230
0.9999999999999998
 40
0.1759646242458629
 41
5.464716868228151
 42
7.035513195023041
  0
LINE
  5
1A0D8
330
1A0C0
100
AcDbEntity
  8
0
100
AcDbLine
 10
1.857773468998886
 20
-38.46674953339341
 30
0.0
 11
-1.857773468998886
 21
-38.46674953339341
 31
0.0
  0
LINE
  5
1A0D9
330
1A0C0
100
AcDbEntity
  8
0
100
AcDbLine
 10
1.857773468998885
 20
-84.96674953339342
 30
0.0
 11
-1.857773468998885
 21
-84.96674953339342
 31
0.0
  0
LINE
  5
1A0DA
330
1A0C0
100
AcDbEntity
  8
0
100
AcDbLine
 10
-1.849999999999999
 20
-86.50000000000003
 30
0.0
 11
1.850000000000006
 21
-86.50000000000003
 31
0.0
  0
LINE
  5
1A0DB
330
1A0C0
100
AcDbEntity
  8
0
100
AcDbLine
 10
1.857773468998885
 20
-83.46674953339343
 30
0.0
 11
-1.857773468998885
 21
-83.46674953339343
 31
0.0
  0
LINE
  5
1A0DC
330
1A0C0
100
AcDbEntity
  8
0
100
AcDbLine
 10
1.857773468998887
 20
-81.96674953339341
 30
0.0
 11
-1.857773468998887
 21
-81.96674953339341
 31
0.0
  0
LINE
  5
1A0DD
330
1A0C0
100
AcDbEntity
  8
0
100
AcDbLine
 10
1.857773468998887
 20
-80.46674953339341
 30
0.0
 11
-1.857773468998887
 21
-80.46674953339341
 31
0.0
  0
LINE
  5
1A0DE
330
1A0C0
100
AcDbEntity
  8
0
100
AcDbLine
 10
1.857773468998885
 20
-78.96674953339342
 30
0.0
 11
-1.857773468998885
 21
-78.96674953339342
 31
0.0
  0
LINE
  5
1A0DF
330
1A0C0
100
AcDbEntity
  8
0
100
AcDbLine
 10
1.857773468998885
 20
-77.46674953339343
 30
0.0
 11
-1.857773468998885
 21
-77.46674953339343
 31
0.0
  0
LINE
  5
1A0E0
330
1A0C0
100
AcDbEntity
  8
0
100
AcDbLine
 10
1.857773468998887
 20
-75.96674953339342
 30
0.0
 11
-1.857773468998887
 21
-75.96674953339342
 31
0.0
  0
LINE
  5
1A0E1
330
1A0C0
100
AcDbEntity
  8
0
100
AcDbLine
 10
1.857773468998887
 20
-74.46674953339343
 30
0.0
 11
-1.857773468998887
 21
-74.46674953339343
 31
0.0
  0
LINE
  5
1A0E2
330
1A0C0
100
AcDbEntity
  8
0
100
AcDbLine
 10
1.857773468998885
 20
-72.96674953339342
 30
0.0
 11
-1.857773468998885
 21
-72.96674953339342
 31
0.0
  0
LINE
  5
1A0E3
330
1A0C0
100
AcDbEntity
  8
0
100
AcDbLine
 10
1.857773468998885
 20
-71.46674953339342
 30
0.0
 11
-1.857773468998885
 21
-71.46674953339342
 31
0.0
  0
LINE
  5
1A0E4
330
1A0C0
100
AcDbEntity
  8
0
100
AcDbLine
 10
1.857773468998885
 20
-69.96674953339343
 30
0.0
 11
-1.857773468998885
 21
-69.96674953339343
 31
0.0
  0
LINE
  5
1A0E5
330
1A0C0
100
AcDbEntity
  8
0
100
AcDbLine
 10
1.857773468998887
 20
-68.46674953339342
 30
0.0
 11
-1.857773468998887
 21
-68.46674953339342
 31
0.0
  0
LINE
  5
1A0E6
330
1A0C0
100
AcDbEntity
  8
0
100
AcDbLine
 10
1.857773468998887
 20
-66.96674953339343
 30
0.0
 11
-1.857773468998887
 21
-66.96674953339343
 31
0.0
  0
LINE
  5
1A0E7
330
1A0C0
100
AcDbEntity
  8
0
100
AcDbLine
 10
1.857773468998885
 20
-65.46674953339342
 30
0.0
 11
-1.857773468998885
 21
-65.46674953339342
 31
0.0
  0
LINE
  5
1A0E8
330
1A0C0
100
AcDbEntity
  8
0
100
AcDbLine
 10
1.857773468998885
 20
-63.96674953339342
 30
0.0
 11
-1.857773468998885
 21
-63.96674953339342
 31
0.0
  0
LINE
  5
1A0E9
330
1A0C0
100
AcDbEntity
  8
0
100
AcDbLine
 10
1.857773468998885
 20
-62.46674953339343
 30
0.0
 11
-1.857773468998885
 21
-62.46674953339343
 31
0.0
  0
LINE
  5
1A0EA
330
1A0C0
100
AcDbEntity
  8
0
100
AcDbLine
 10
1.857773468998887
 20
-60.96674953339341
 30
0.0
 11
-1.857773468998887
 21
-60.96674953339341
 31
0.0
  0
LINE
  5
1A0EB
330
1A0C0
100
AcDbEntity
  8
0
100
AcDbLine
 10
1.857773468998887
 20
-59.46674953339343
 30
0.0
 11
-1.857773468998887
 21
-59.46674953339343
 31
0.0
  0
LINE
  5
1A0EC
330
1A0C0
100
AcDbEntity
  8
0
100
AcDbLine
 10
1.857773468998885
 20
-57.96674953339342
 30
0.0
 11
-1.857773468998885
 21
-57.96674953339342
 31
0.0
  0
LINE
  5
1A0ED
330
1A0C0
100
AcDbEntity
  8
0
100
AcDbLine
 10
1.857773468998885
 20
-56.46674953339342
 30
0.0
 11
-1.857773468998885
 21
-56.46674953339342
 31
0.0
  0
LINE
  5
1A0EE
330
1A0C0
100
AcDbEntity
  8
0
100
AcDbLine
 10
1.857773468998885
 20
-54.96674953339343
 30
0.0
 11
-1.857773468998885
 21
-54.96674953339343
 31
0.0
  0
LINE
  5
1A0EF
330
1A0C0
100
AcDbEntity
  8
0
100
AcDbLine
 10
1.857773468998885
 20
-53.46674953339341
 30
0.0
 11
-1.857773468998885
 21
-53.46674953339341
 31
0.0
  0
LINE
  5
1A0F0
330
1A0C0
100
AcDbEntity
  8
0
100
AcDbLine
 10
1.857773468998887
 20
-51.96674953339341
 30
0.0
 11
-1.857773468998887
 21
-51.96674953339341
 31
0.0
  0
LINE
  5
1A0F1
330
1A0C0
100
AcDbEntity
  8
0
100
AcDbLine
 10
1.857773468998887
 20
-50.46674953339342
 30
0.0
 11
-1.857773468998887
 21
-50.46674953339342
 31
0.0
  0
LINE
  5
1A0F2
330
1A0C0
100
AcDbEntity
  8
0
100
AcDbLine
 10
1.857773468998885
 20
-48.96674953339342
 30
0.0
 11
-1.857773468998885
 21
-48.96674953339342
 31
0.0
  0
LINE
  5
1A0F3
330
1A0C0
100
AcDbEntity
  8
0
100
AcDbLine
 10
1.857773468998885
 20
-47.46674953339343
 30
0.0
 11
-1.857773468998885
 21
-47.46674953339343
 31
0.0
  0
LINE
  5
1A0F4
330
1A0C0
100
AcDbEntity
  8
0
100
AcDbLine
 10
1.857773468998885
 20
-45.96674953339341
 30
0.0
 11
-1.857773468998885
 21
-45.96674953339341
 31
0.0
  0
LINE
  5
1A0F5
330
1A0C0
100
AcDbEntity
  8
0
100
AcDbLine
 10
1.857773468998887
 20
-44.46674953339341
 30
0.0
 11
-1.857773468998887
 21
-44.46674953339341
 31
0.0
  0
LINE
  5
1A0F6
330
1A0C0
100
AcDbEntity
  8
0
100
AcDbLine
 10
1.857773468998885
 20
-42.96674953339342
 30
0.0
 11
-1.857773468998885
 21
-42.96674953339342
 31
0.0
  0
LINE
  5
1A0F7
330
1A0C0
100
AcDbEntity
  8
0
100
AcDbLine
 10
1.857773468998886
 20
-41.46674953339341
 30
0.0
 11
-1.857773468998886
 21
-41.46674953339341
 31
0.0
  0
LINE
  5
1A0F8
330
1A0C0
100
AcDbEntity
  8
0
100
AcDbLine
 10
1.857773468998886
 20
-39.96674953339341
 30
0.0
 11
-1.857773468998886
 21
-39.96674953339341
 31
0.0
  0
LINE
  5
1A0F9
330
1A0C0
100
AcDbEntity
  8
0
100
AcDbLine
 10
1.857773468998886
 20
-38.46674953339341
 30
0.0
 11
1.995529386843738
 21
-38.49895483653848
 31
0.0
  0
LINE
  5
1A0FA
330
1A0C0
100
AcDbEntity
  8
0
100
AcDbLine
 10
-1.857773468998886
 20
-38.46674953339341
 30
0.0
 11
-1.995529386843738
 21
-38.49895483653848
 31
0.0
  0
LINE
  5
1A0FB
330
1A0C0
100
AcDbEntity
  8
0
100
AcDbLine
 10
1.857773468998885
 20
-84.96674953339342
 30
0.0
 11
1.995529386843738
 21
-84.99895483653848
 31
0.0
  0
LINE
  5
1A0FC
330
1A0C0
100
AcDbEntity
  8
0
100
AcDbLine
 10
-1.857773468998885
 20
-84.96674953339342
 30
0.0
 11
-1.995529386843738
 21
-84.99895483653848
 31
0.0
  0
ARC
  5
1A0FD
330
1A0C0
100
AcDbEntity
  8
0
100
AcDbCircle
 10
1.949999999999991
 20
-85.19370358475942
 30
0.0
 40
0.2000000000000001
100
AcDbArc
 50
346.841423596672
 51
76.84142359667162
  0
ARC
  5
1A0FE
330
1A0C0
100
AcDbEntity
  8
0
100
AcDbCircle
 10
-1.949999999999991
 20
-85.19370358475942
 30
0.0
 40
0.2000000000000001
100
AcDbArc
 50
103.1585764033284
 51
193.1585764033279
  0
LINE
  5
1A0FF
330
1A0C0
100
AcDbEntity
  8
0
100
AcDbLine
 10
-1.850000000000004
 20
-86.50000000000003
 30
0.0
 11
-2.144748748220876
 21
-85.23923297160315
 31
0.0
  0
LINE
  5
1A100
330
1A0C0
100
AcDbEntity
  8
0
100
AcDbLine
 10
1.850000000000005
 20
-86.50000000000003
 30
0.0
 11
2.144748748220876
 21
-85.23923297160315
 31
0.0
  0
LINE
  5
1A101
330
1A0C0
100
AcDbEntity
  8
0
100
AcDbLine
 10
1.857773468998885
 20
-83.46674953339343
 30
0.0
 11
1.995529386843742
 21
-83.49895483653847
 31
0.0
  0
LINE
  5
1A102
330
1A0C0
100
AcDbEntity
  8
0
100
AcDbLine
 10
-1.857773468998885
 20
-83.46674953339343
 30
0.0
 11
-1.995529386843738
 21
-83.49895483653847
 31
0.0
  0
ARC
  5
1A103
330
1A0C0
100
AcDbEntity
  8
0
100
AcDbCircle
 10
1.949999999999991
 20
-83.69370358475942
 30
0.0
 40
0.2000000000000001
100
AcDbArc
 50
346.841423596672
 51
76.84142359667162
  0
ARC
  5
1A104
330
1A0C0
100
AcDbEntity
  8
0
100
AcDbCircle
 10
-1.949999999999991
 20
-83.69370358475942
 30
0.0
 40
0.2000000000000001
100
AcDbArc
 50
103.1585764033284
 51
193.1585764033279
  0
LINE
  5
1A105
330
1A0C0
100
AcDbEntity
  8
0
100
AcDbLine
 10
-1.857773468998881
 20
-84.96674953339343
 30
0.0
 11
-2.144748748220876
 21
-83.73923297160315
 31
0.0
  0
LINE
  5
1A106
330
1A0C0
100
AcDbEntity
  8
0
100
AcDbLine
 10
1.857773468998885
 20
-84.96674953339342
 30
0.0
 11
2.144748748220872
 21
-83.73923297160317
 31
0.0
  0
LINE
  5
1A107
330
1A0C0
100
AcDbEntity
  8
0
100
AcDbLine
 10
1.857773468998886
 20
-81.96674953339341
 30
0.0
 11
1.995529386843742
 21
-81.99895483653847
 31
0.0
  0
LINE
  5
1A108
330
1A0C0
100
AcDbEntity
  8
0
100
AcDbLine
 10
-1.857773468998886
 20
-81.96674953339341
 30
0.0
 11
-1.995529386843742
 21
-81.99895483653847
 31
0.0
  0
ARC
  5
1A109
330
1A0C0
100
AcDbEntity
  8
0
100
AcDbCircle
 10
1.949999999999991
 20
-82.19370358475943
 30
0.0
 40
0.2000000000000001
100
AcDbArc
 50
346.841423596672
 51
76.84142359667162
  0
ARC
  5
1A10A
330
1A0C0
100
AcDbEntity
  8
0
100
AcDbCircle
 10
-1.949999999999991
 20
-82.19370358475943
 30
0.0
 40
0.2000000000000001
100
AcDbArc
 50
103.1585764033284
 51
193.1585764033279
  0
LINE
  5
1A10B
330
1A0C0
100
AcDbEntity
  8
0
100
AcDbLine
 10
-1.857773468998885
 20
-83.46674953339343
 30
0.0
 11
-2.144748748220872
 21
-82.23923297160316
 31
0.0
  0
LINE
  5
1A10C
330
1A0C0
100
AcDbEntity
  8
0
100
AcDbLine
 10
1.857773468998885
 20
-83.46674953339343
 30
0.0
 11
2.144748748220872
 21
-82.23923297160316
 31
0.0
  0
LINE
  5
1A10D
330
1A0C0
100
AcDbEntity
  8
0
100
AcDbLine
 10
1.857773468998886
 20
-80.46674953339341
 30
0.0
 11
1.995529386843742
 21
-80.49895483653846
 31
0.0
  0
LINE
  5
1A10E
330
1A0C0
100
AcDbEntity
  8
0
100
AcDbLine
 10
-1.857773468998886
 20
-80.46674953339341
 30
0.0
 11
-1.995529386843738
 21
-80.49895483653846
 31
0.0
  0
ARC
  5
1A10F
330
1A0C0
100
AcDbEntity
  8
0
100
AcDbCircle
 10
1.949999999999991
 20
-80.69370358475941
 30
0.0
 40
0.2000000000000001
100
AcDbArc
 50
346.841423596672
 51
76.84142359667162
  0
ARC
  5
1A110
330
1A0C0
100
AcDbEntity
  8
0
100
AcDbCircle
 10
-1.949999999999991
 20
-80.69370358475941
 30
0.0
 40
0.2000000000000001
100
AcDbArc
 50
103.1585764033284
 51
193.1585764033279
  0
LINE
  5
1A111
330
1A0C0
100
AcDbEntity
  8
0
100
AcDbLine
 10
-1.857773468998882
 20
-81.96674953339343
 30
0.0
 11
-2.144748748220876
 21
-80.73923297160314
 31
0.0
  0
LINE
  5
1A112
330
1A0C0
100
AcDbEntity
  8
0
100
AcDbLine
 10
1.857773468998885
 20
-81.96674953339341
 30
0.0
 11
2.144748748220872
 21
-80.73923297160318
 31
0.0
  0
LINE
  5
1A113
330
1A0C0
100
AcDbEntity
  8
0
100
AcDbLine
 10
1.857773468998885
 20
-78.96674953339342
 30
0.0
 11
1.995529386843738
 21
-78.99895483653849
 31
0.0
  0
LINE
  5
1A114
330
1A0C0
100
AcDbEntity
  8
0
100
AcDbLine
 10
-1.857773468998885
 20
-78.96674953339342
 30
0.0
 11
-1.995529386843738
 21
-78.99895483653849
 31
0.0
  0
ARC
  5
1A115
330
1A0C0
100
AcDbEntity
  8
0
100
AcDbCircle
 10
1.949999999999991
 20
-79.19370358475943
 30
0.0
 40
0.2000000000000001
100
AcDbArc
 50
346.841423596672
 51
76.84142359667162
  0
ARC
  5
1A116
330
1A0C0
100
AcDbEntity
  8
0
100
AcDbCircle
 10
-1.949999999999991
 20
-79.19370358475943
 30
0.0
 40
0.2000000000000001
100
AcDbArc
 50
103.1585764033284
 51
193.1585764033279
  0
LINE
  5
1A117
330
1A0C0
100
AcDbEntity
  8
0
100
AcDbLine
 10
-1.857773468998889
 20
-80.46674953339341
 30
0.0
 11
-2.144748748220876
 21
-79.23923297160316
 31
0.0
  0
LINE
  5
1A118
330
1A0C0
100
AcDbEntity
  8
0
100
AcDbLine
 10
1.857773468998889
 20
-80.46674953339341
 30
0.0
 11
2.144748748220876
 21
-79.23923297160316
 31
0.0
  0
LINE
  5
1A119
330
1A0C0
100
AcDbEntity
  8
0
100
AcDbLine
 10
1.857773468998885
 20
-77.46674953339343
 30
0.0
 11
1.995529386843738
 21
-77.49895483653848
 31
0.0
  0
LINE
  5
1A11A
330
1A0C0
100
AcDbEntity
  8
0
100
AcDbLine
 10
-1.857773468998885
 20
-77.46674953339343
 30
0.0
 11
-1.995529386843738
 21
-77.49895483653848
 31
0.0
  0
ARC
  5
1A11B
330
1A0C0
100
AcDbEntity
  8
0
100
AcDbCircle
 10
1.949999999999991
 20
-77.69370358475942
 30
0.0
 40
0.2000000000000001
100
AcDbArc
 50
346.841423596672
 51
76.84142359667162
  0
ARC
  5
1A11C
330
1A0C0
100
AcDbEntity
  8
0
100
AcDbCircle
 10
-1.949999999999991
 20
-77.69370358475942
 30
0.0
 40
0.2000000000000001
100
AcDbArc
 50
103.1585764033284
 51
193.1585764033279
  0
LINE
  5
1A11D
330
1A0C0
100
AcDbEntity
  8
0
100
AcDbLine
 10
-1.857773468998885
 20
-78.96674953339342
 30
0.0
 11
-2.144748748220876
 21
-77.73923297160315
 31
0.0
  0
LINE
  5
1A11E
330
1A0C0
100
AcDbEntity
  8
0
100
AcDbLine
 10
1.857773468998885
 20
-78.96674953339342
 30
0.0
 11
2.144748748220876
 21
-77.73923297160315
 31
0.0
  0
LINE
  5
1A11F
330
1A0C0
100
AcDbEntity
  8
0
100
AcDbLine
 10
1.857773468998886
 20
-75.96674953339342
 30
0.0
 11
1.995529386843738
 21
-75.99895483653847
 31
0.0
  0
LINE
  5
1A120
330
1A0C0
100
AcDbEntity
  8
0
100
AcDbLine
 10
-1.857773468998886
 20
-75.96674953339342
 30
0.0
 11
-1.995529386843738
 21
-75.99895483653847
 31
0.0
  0
ARC
  5
1A121
330
1A0C0
100
AcDbEntity
  8
0
100
AcDbCircle
 10
1.949999999999991
 20
-76.19370358475942
 30
0.0
 40
0.2000000000000001
100
AcDbArc
 50
346.841423596672
 51
76.84142359667162
  0
ARC
  5
1A122
330
1A0C0
100
AcDbEntity
  8
0
100
AcDbCircle
 10
-1.949999999999991
 20
-76.19370358475942
 30
0.0
 40
0.2000000000000001
100
AcDbArc
 50
103.1585764033284
 51
193.1585764033279
  0
LINE
  5
1A123
330
1A0C0
100
AcDbEntity
  8
0
100
AcDbLine
 10
-1.857773468998885
 20
-77.46674953339343
 30
0.0
 11
-2.144748748220876
 21
-76.23923297160316
 31
0.0
  0
LINE
  5
1A124
330
1A0C0
100
AcDbEntity
  8
0
100
AcDbLine
 10
1.857773468998885
 20
-77.46674953339343
 30
0.0
 11
2.144748748220876
 21
-76.23923297160316
 31
0.0
  0
LINE
  5
1A125
330
1A0C0
100
AcDbEntity
  8
0
100
AcDbLine
 10
1.857773468998886
 20
-74.46674953339343
 30
0.0
 11
1.995529386843738
 21
-74.49895483653849
 31
0.0
  0
LINE
  5
1A126
330
1A0C0
100
AcDbEntity
  8
0
100
AcDbLine
 10
-1.857773468998886
 20
-74.46674953339343
 30
0.0
 11
-1.995529386843738
 21
-74.49895483653849
 31
0.0
  0
ARC
  5
1A127
330
1A0C0
100
AcDbEntity
  8
0
100
AcDbCircle
 10
1.949999999999991
 20
-74.69370358475943
 30
0.0
 40
0.2000000000000001
100
AcDbArc
 50
346.841423596672
 51
76.84142359667162
  0
ARC
  5
1A128
330
1A0C0
100
AcDbEntity
  8
0
100
AcDbCircle
 10
-1.949999999999991
 20
-74.69370358475943
 30
0.0
 40
0.2000000000000001
100
AcDbArc
 50
103.1585764033284
 51
193.1585764033279
  0
LINE
  5
1A129
330
1A0C0
100
AcDbEntity
  8
0
100
AcDbLine
 10
-1.857773468998887
 20
-75.96674953339342
 30
0.0
 11
-2.144748748220876
 21
-74.73923297160316
 31
0.0
  0
LINE
  5
1A12A
330
1A0C0
100
AcDbEntity
  8
0
100
AcDbLine
 10
1.857773468998887
 20
-75.96674953339342
 30
0.0
 11
2.144748748220876
 21
-74.73923297160316
 31
0.0
  0
LINE
  5
1A12B
330
1A0C0
100
AcDbEntity
  8
0
100
AcDbLine
 10
1.857773468998885
 20
-72.96674953339342
 30
0.0
 11
1.995529386843738
 21
-72.99895483653848
 31
0.0
  0
LINE
  5
1A12C
330
1A0C0
100
AcDbEntity
  8
0
100
AcDbLine
 10
-1.857773468998885
 20
-72.96674953339342
 30
0.0
 11
-1.995529386843738
 21
-72.99895483653848
 31
0.0
  0
ARC
  5
1A12D
330
1A0C0
100
AcDbEntity
  8
0
100
AcDbCircle
 10
1.949999999999991
 20
-73.19370358475943
 30
0.0
 40
0.2000000000000001
100
AcDbArc
 50
346.841423596672
 51
76.84142359667162
  0
ARC
  5
1A12E
330
1A0C0
100
AcDbEntity
  8
0
100
AcDbCircle
 10
-1.949999999999991
 20
-73.19370358475943
 30
0.0
 40
0.2000000000000001
100
AcDbArc
 50
103.1585764033284
 51
193.1585764033279
  0
LINE
  5
1A12F
330
1A0C0
100
AcDbEntity
  8
0
100
AcDbLine
 10
-1.857773468998889
 20
-74.46674953339341
 30
0.0
 11
-2.144748748220876
 21
-73.23923297160317
 31
0.0
  0
LINE
  5
1A130
330
1A0C0
100
AcDbEntity
  8
0
100
AcDbLine
 10
1.857773468998887
 20
-74.46674953339343
 30
0.0
 11
2.144748748220876
 21
-73.23923297160317
 31
0.0
  0
LINE
  5
1A131
330
1A0C0
100
AcDbEntity
  8
0
100
AcDbLine
 10
1.857773468998885
 20
-71.46674953339342
 30
0.0
 11
1.995529386843738
 21
-71.49895483653849
 31
0.0
  0
LINE
  5
1A132
330
1A0C0
100
AcDbEntity
  8
0
100
AcDbLine
 10
-1.857773468998885
 20
-71.46674953339342
 30
0.0
 11
-1.995529386843738
 21
-71.49895483653849
 31
0.0
  0
ARC
  5
1A133
330
1A0C0
100
AcDbEntity
  8
0
100
AcDbCircle
 10
1.949999999999991
 20
-71.69370358475943
 30
0.0
 40
0.2000000000000001
100
AcDbArc
 50
346.841423596672
 51
76.84142359667162
  0
ARC
  5
1A134
330
1A0C0
100
AcDbEntity
  8
0
100
AcDbCircle
 10
-1.949999999999991
 20
-71.69370358475943
 30
0.0
 40
0.2000000000000001
100
AcDbArc
 50
103.1585764033284
 51
193.1585764033279
  0
LINE
  5
1A135
330
1A0C0
100
AcDbEntity
  8
0
100
AcDbLine
 10
-1.857773468998885
 20
-72.96674953339342
 30
0.0
 11
-2.144748748220876
 21
-71.73923297160316
 31
0.0
  0
LINE
  5
1A136
330
1A0C0
100
AcDbEntity
  8
0
100
AcDbLine
 10
1.857773468998885
 20
-72.96674953339342
 30
0.0
 11
2.144748748220876
 21
-71.73923297160316
 31
0.0
  0
LINE
  5
1A137
330
1A0C0
100
AcDbEntity
  8
0
100
AcDbLine
 10
1.857773468998885
 20
-69.96674953339343
 30
0.0
 11
1.995529386843738
 21
-69.99895483653848
 31
0.0
  0
LINE
  5
1A138
330
1A0C0
100
AcDbEntity
  8
0
100
AcDbLine
 10
-1.857773468998885
 20
-69.96674953339343
 30
0.0
 11
-1.995529386843738
 21
-69.99895483653848
 31
0.0
  0
ARC
  5
1A139
330
1A0C0
100
AcDbEntity
  8
0
100
AcDbCircle
 10
1.949999999999991
 20
-70.19370358475942
 30
0.0
 40
0.2000000000000001
100
AcDbArc
 50
346.841423596672
 51
76.84142359667162
  0
ARC
  5
1A13A
330
1A0C0
100
AcDbEntity
  8
0
100
AcDbCircle
 10
-1.949999999999991
 20
-70.19370358475942
 30
0.0
 40
0.2000000000000001
100
AcDbArc
 50
103.1585764033284
 51
193.1585764033279
  0
LINE
  5
1A13B
330
1A0C0
100
AcDbEntity
  8
0
100
AcDbLine
 10
-1.857773468998885
 20
-71.46674953339342
 30
0.0
 11
-2.144748748220876
 21
-70.23923297160315
 31
0.0
  0
LINE
  5
1A13C
330
1A0C0
100
AcDbEntity
  8
0
100
AcDbLine
 10
1.857773468998885
 20
-71.46674953339342
 30
0.0
 11
2.144748748220876
 21
-70.23923297160315
 31
0.0
  0
LINE
  5
1A13D
330
1A0C0
100
AcDbEntity
  8
0
100
AcDbLine
 10
1.857773468998886
 20
-68.46674953339342
 30
0.0
 11
1.995529386843738
 21
-68.49895483653847
 31
0.0
  0
LINE
  5
1A13E
330
1A0C0
100
AcDbEntity
  8
0
100
AcDbLine
 10
-1.857773468998886
 20
-68.46674953339342
 30
0.0
 11
-1.995529386843738
 21
-68.49895483653847
 31
0.0
  0
ARC
  5
1A13F
330
1A0C0
100
AcDbEntity
  8
0
100
AcDbCircle
 10
1.949999999999991
 20
-68.69370358475942
 30
0.0
 40
0.2000000000000001
100
AcDbArc
 50
346.841423596672
 51
76.84142359667162
  0
ARC
  5
1A140
330
1A0C0
100
AcDbEntity
  8
0
100
AcDbCircle
 10
-1.949999999999991
 20
-68.69370358475942
 30
0.0
 40
0.2000000000000001
100
AcDbArc
 50
103.1585764033284
 51
193.1585764033279
  0
LINE
  5
1A141
330
1A0C0
100
AcDbEntity
  8
0
100
AcDbLine
 10
-1.857773468998885
 20
-69.96674953339343
 30
0.0
 11
-2.144748748220876
 21
-68.73923297160316
 31
0.0
  0
LINE
  5
1A142
330
1A0C0
100
AcDbEntity
  8
0
100
AcDbLine
 10
1.857773468998885
 20
-69.96674953339343
 30
0.0
 11
2.144748748220876
 21
-68.73923297160316
 31
0.0
  0
LINE
  5
1A143
330
1A0C0
100
AcDbEntity
  8
0
100
AcDbLine
 10
1.857773468998886
 20
-66.96674953339343
 30
0.0
 11
1.995529386843738
 21
-66.99895483653849
 31
0.0
  0
LINE
  5
1A144
330
1A0C0
100
AcDbEntity
  8
0
100
AcDbLine
 10
-1.857773468998886
 20
-66.96674953339343
 30
0.0
 11
-1.995529386843738
 21
-66.99895483653849
 31
0.0
  0
ARC
  5
1A145
330
1A0C0
100
AcDbEntity
  8
0
100
AcDbCircle
 10
1.949999999999991
 20
-67.19370358475943
 30
0.0
 40
0.2000000000000001
100
AcDbArc
 50
346.841423596672
 51
76.84142359667162
  0
ARC
  5
1A146
330
1A0C0
100
AcDbEntity
  8
0
100
AcDbCircle
 10
-1.949999999999991
 20
-67.19370358475943
 30
0.0
 40
0.2000000000000001
100
AcDbArc
 50
103.1585764033284
 51
193.1585764033279
  0
LINE
  5
1A147
330
1A0C0
100
AcDbEntity
  8
0
100
AcDbLine
 10
-1.857773468998887
 20
-68.46674953339342
 30
0.0
 11
-2.144748748220876
 21
-67.23923297160316
 31
0.0
  0
LINE
  5
1A148
330
1A0C0
100
AcDbEntity
  8
0
100
AcDbLine
 10
1.857773468998887
 20
-68.46674953339342
 30
0.0
 11
2.144748748220876
 21
-67.23923297160316
 31
0.0
  0
LINE
  5
1A149
330
1A0C0
100
AcDbEntity
  8
0
100
AcDbLine
 10
1.857773468998885
 20
-65.46674953339342
 30
0.0
 11
1.995529386843738
 21
-65.49895483653848
 31
0.0
  0
LINE
  5
1A14A
330
1A0C0
100
AcDbEntity
  8
0
100
AcDbLine
 10
-1.857773468998885
 20
-65.46674953339342
 30
0.0
 11
-1.995529386843738
 21
-65.49895483653848
 31
0.0
  0
ARC
  5
1A14B
330
1A0C0
100
AcDbEntity
  8
0
100
AcDbCircle
 10
1.949999999999991
 20
-65.69370358475943
 30
0.0
 40
0.2000000000000001
100
AcDbArc
 50
346.841423596672
 51
76.84142359667162
  0
ARC
  5
1A14C
330
1A0C0
100
AcDbEntity
  8
0
100
AcDbCircle
 10
-1.949999999999991
 20
-65.69370358475943
 30
0.0
 40
0.2000000000000001
100
AcDbArc
 50
103.1585764033284
 51
193.1585764033279
  0
LINE
  5
1A14D
330
1A0C0
100
AcDbEntity
  8
0
100
AcDbLine
 10
-1.857773468998889
 20
-66.96674953339341
 30
0.0
 11
-2.144748748220876
 21
-65.73923297160317
 31
0.0
  0
LINE
  5
1A14E
330
1A0C0
100
AcDbEntity
  8
0
100
AcDbLine
 10
1.857773468998887
 20
-66.96674953339343
 30
0.0
 11
2.144748748220876
 21
-65.73923297160317
 31
0.0
  0
LINE
  5
1A14F
330
1A0C0
100
AcDbEntity
  8
0
100
AcDbLine
 10
1.857773468998885
 20
-63.96674953339342
 30
0.0
 11
1.995529386843738
 21
-63.99895483653849
 31
0.0
  0
LINE
  5
1A150
330
1A0C0
100
AcDbEntity
  8
0
100
AcDbLine
 10
-1.857773468998885
 20
-63.96674953339342
 30
0.0
 11
-1.995529386843738
 21
-63.99895483653849
 31
0.0
  0
ARC
  5
1A151
330
1A0C0
100
AcDbEntity
  8
0
100
AcDbCircle
 10
1.949999999999991
 20
-64.19370358475943
 30
0.0
 40
0.2000000000000001
100
AcDbArc
 50
346.841423596672
 51
76.84142359667162
  0
ARC
  5
1A152
330
1A0C0
100
AcDbEntity
  8
0
100
AcDbCircle
 10
-1.949999999999991
 20
-64.19370358475943
 30
0.0
 40
0.2000000000000001
100
AcDbArc
 50
103.1585764033284
 51
193.1585764033279
  0
LINE
  5
1A153
330
1A0C0
100
AcDbEntity
  8
0
100
AcDbLine
 10
-1.857773468998885
 20
-65.46674953339342
 30
0.0
 11
-2.144748748220876
 21
-64.23923297160316
 31
0.0
  0
LINE
  5
1A154
330
1A0C0
100
AcDbEntity
  8
0
100
AcDbLine
 10
1.857773468998885
 20
-65.46674953339342
 30
0.0
 11
2.144748748220876
 21
-64.23923297160316
 31
0.0
  0
LINE
  5
1A155
330
1A0C0
100
AcDbEntity
  8
0
100
AcDbLine
 10
1.857773468998885
 20
-62.46674953339343
 30
0.0
 11
1.995529386843738
 21
-62.49895483653848
 31
0.0
  0
LINE
  5
1A156
330
1A0C0
100
AcDbEntity
  8
0
100
AcDbLine
 10
-1.857773468998885
 20
-62.46674953339343
 30
0.0
 11
-1.995529386843738
 21
-62.49895483653848
 31
0.0
  0
ARC
  5
1A157
330
1A0C0
100
AcDbEntity
  8
0
100
AcDbCircle
 10
1.949999999999991
 20
-62.69370358475942
 30
0.0
 40
0.2000000000000001
100
AcDbArc
 50
346.841423596672
 51
76.84142359667162
  0
ARC
  5
1A158
330
1A0C0
100
AcDbEntity
  8
0
100
AcDbCircle
 10
-1.949999999999991
 20
-62.69370358475942
 30
0.0
 40
0.2000000000000001
100
AcDbArc
 50
103.1585764033284
 51
193.1585764033279
  0
LINE
  5
1A159
330
1A0C0
100
AcDbEntity
  8
0
100
AcDbLine
 10
-1.857773468998885
 20
-63.96674953339342
 30
0.0
 11
-2.144748748220876
 21
-62.73923297160315
 31
0.0
  0
LINE
  5
1A15A
330
1A0C0
100
AcDbEntity
  8
0
100
AcDbLine
 10
1.857773468998885
 20
-63.96674953339342
 30
0.0
 11
2.144748748220876
 21
-62.73923297160315
 31
0.0
  0
LINE
  5
1A15B
330
1A0C0
100
AcDbEntity
  8
0
100
AcDbLine
 10
1.857773468998886
 20
-60.96674953339341
 30
0.0
 11
1.995529386843738
 21
-60.99895483653847
 31
0.0
  0
LINE
  5
1A15C
330
1A0C0
100
AcDbEntity
  8
0
100
AcDbLine
 10
-1.857773468998886
 20
-60.96674953339341
 30
0.0
 11
-1.995529386843738
 21
-60.99895483653847
 31
0.0
  0
ARC
  5
1A15D
330
1A0C0
100
AcDbEntity
  8
0
100
AcDbCircle
 10
1.949999999999991
 20
-61.19370358475942
 30
0.0
 40
0.2000000000000001
100
AcDbArc
 50
346.841423596672
 51
76.84142359667162
  0
ARC
  5
1A15E
330
1A0C0
100
AcDbEntity
  8
0
100
AcDbCircle
 10
-1.949999999999991
 20
-61.19370358475942
 30
0.0
 40
0.2000000000000001
100
AcDbArc
 50
103.1585764033284
 51
193.1585764033279
  0
LINE
  5
1A15F
330
1A0C0
100
AcDbEntity
  8
0
100
AcDbLine
 10
-1.857773468998885
 20
-62.46674953339343
 30
0.0
 11
-2.144748748220876
 21
-61.23923297160316
 31
0.0
  0
LINE
  5
1A160
330
1A0C0
100
AcDbEntity
  8
0
100
AcDbLine
 10
1.857773468998885
 20
-62.46674953339343
 30
0.0
 11
2.144748748220876
 21
-61.23923297160316
 31
0.0
  0
LINE
  5
1A161
330
1A0C0
100
AcDbEntity
  8
0
100
AcDbLine
 10
1.857773468998886
 20
-59.46674953339343
 30
0.0
 11
1.995529386843738
 21
-59.49895483653848
 31
0.0
  0
LINE
  5
1A162
330
1A0C0
100
AcDbEntity
  8
0
100
AcDbLine
 10
-1.857773468998886
 20
-59.46674953339343
 30
0.0
 11
-1.995529386843738
 21
-59.49895483653848
 31
0.0
  0
ARC
  5
1A163
330
1A0C0
100
AcDbEntity
  8
0
100
AcDbCircle
 10
1.949999999999991
 20
-59.69370358475942
 30
0.0
 40
0.2000000000000001
100
AcDbArc
 50
346.841423596672
 51
76.84142359667162
  0
ARC
  5
1A164
330
1A0C0
100
AcDbEntity
  8
0
100
AcDbCircle
 10
-1.949999999999991
 20
-59.69370358475942
 30
0.0
 40
0.2000000000000001
100
AcDbArc
 50
103.1585764033284
 51
193.1585764033279
  0
LINE
  5
1A165
330
1A0C0
100
AcDbEntity
  8
0
100
AcDbLine
 10
-1.857773468998887
 20
-60.96674953339341
 30
0.0
 11
-2.144748748220876
 21
-59.73923297160316
 31
0.0
  0
LINE
  5
1A166
330
1A0C0
100
AcDbEntity
  8
0
100
AcDbLine
 10
1.857773468998887
 20
-60.96674953339341
 30
0.0
 11
2.144748748220876
 21
-59.73923297160316
 31
0.0
  0
LINE
  5
1A167
330
1A0C0
100
AcDbEntity
  8
0
100
AcDbLine
 10
1.857773468998885
 20
-57.96674953339342
 30
0.0
 11
1.995529386843738
 21
-57.99895483653848
 31
0.0
  0
LINE
  5
1A168
330
1A0C0
100
AcDbEntity
  8
0
100
AcDbLine
 10
-1.857773468998885
 20
-57.96674953339342
 30
0.0
 11
-1.995529386843738
 21
-57.99895483653848
 31
0.0
  0
ARC
  5
1A169
330
1A0C0
100
AcDbEntity
  8
0
100
AcDbCircle
 10
1.949999999999991
 20
-58.19370358475943
 30
0.0
 40
0.2000000000000001
100
AcDbArc
 50
346.841423596672
 51
76.84142359667162
  0
ARC
  5
1A16A
330
1A0C0
100
AcDbEntity
  8
0
100
AcDbCircle
 10
-1.949999999999991
 20
-58.19370358475943
 30
0.0
 40
0.2000000000000001
100
AcDbArc
 50
103.1585764033284
 51
193.1585764033279
  0
LINE
  5
1A16B
330
1A0C0
100
AcDbEntity
  8
0
100
AcDbLine
 10
-1.857773468998889
 20
-59.46674953339341
 30
0.0
 11
-2.144748748220876
 21
-58.23923297160316
 31
0.0
  0
LINE
  5
1A16C
330
1A0C0
100
AcDbEntity
  8
0
100
AcDbLine
 10
1.857773468998887
 20
-59.46674953339343
 30
0.0
 11
2.144748748220876
 21
-58.23923297160316
 31
0.0
  0
LINE
  5
1A16D
330
1A0C0
100
AcDbEntity
  8
0
100
AcDbLine
 10
1.857773468998885
 20
-56.46674953339342
 30
0.0
 11
1.995529386843738
 21
-56.49895483653849
 31
0.0
  0
LINE
  5
1A16E
330
1A0C0
100
AcDbEntity
  8
0
100
AcDbLine
 10
-1.857773468998885
 20
-56.46674953339342
 30
0.0
 11
-1.995529386843738
 21
-56.49895483653849
 31
0.0
  0
ARC
  5
1A16F
330
1A0C0
100
AcDbEntity
  8
0
100
AcDbCircle
 10
1.949999999999991
 20
-56.69370358475943
 30
0.0
 40
0.2000000000000001
100
AcDbArc
 50
346.841423596672
 51
76.84142359667162
  0
ARC
  5
1A170
330
1A0C0
100
AcDbEntity
  8
0
100
AcDbCircle
 10
-1.949999999999991
 20
-56.69370358475943
 30
0.0
 40
0.2000000000000001
100
AcDbArc
 50
103.1585764033284
 51
193.1585764033279
  0
LINE
  5
1A171
330
1A0C0
100
AcDbEntity
  8
0
100
AcDbLine
 10
-1.857773468998885
 20
-57.96674953339342
 30
0.0
 11
-2.144748748220876
 21
-56.73923297160316
 31
0.0
  0
LINE
  5
1A172
330
1A0C0
100
AcDbEntity
  8
0
100
AcDbLine
 10
1.857773468998885
 20
-57.96674953339342
 30
0.0
 11
2.144748748220876
 21
-56.73923297160316
 31
0.0
  0
LINE
  5
1A173
330
1A0C0
100
AcDbEntity
  8
0
100
AcDbLine
 10
1.857773468998885
 20
-54.96674953339343
 30
0.0
 11
1.995529386843738
 21
-54.99895483653848
 31
0.0
  0
LINE
  5
1A174
330
1A0C0
100
AcDbEntity
  8
0
100
AcDbLine
 10
-1.857773468998885
 20
-54.96674953339343
 30
0.0
 11
-1.995529386843738
 21
-54.99895483653848
 31
0.0
  0
ARC
  5
1A175
330
1A0C0
100
AcDbEntity
  8
0
100
AcDbCircle
 10
1.949999999999991
 20
-55.19370358475942
 30
0.0
 40
0.2000000000000001
100
AcDbArc
 50
346.841423596672
 51
76.84142359667162
  0
ARC
  5
1A176
330
1A0C0
100
AcDbEntity
  8
0
100
AcDbCircle
 10
-1.949999999999991
 20
-55.19370358475942
 30
0.0
 40
0.2000000000000001
100
AcDbArc
 50
103.1585764033284
 51
193.1585764033279
  0
LINE
  5
1A177
330
1A0C0
100
AcDbEntity
  8
0
100
AcDbLine
 10
-1.857773468998885
 20
-56.46674953339342
 30
0.0
 11
-2.144748748220876
 21
-55.23923297160315
 31
0.0
  0
LINE
  5
1A178
330
1A0C0
100
AcDbEntity
  8
0
100
AcDbLine
 10
1.857773468998885
 20
-56.46674953339342
 30
0.0
 11
2.144748748220876
 21
-55.23923297160315
 31
0.0
  0
LINE
  5
1A179
330
1A0C0
100
AcDbEntity
  8
0
100
AcDbLine
 10
1.857773468998885
 20
-53.46674953339341
 30
0.0
 11
1.995529386843738
 21
-53.49895483653847
 31
0.0
  0
LINE
  5
1A17A
330
1A0C0
100
AcDbEntity
  8
0
100
AcDbLine
 10
-1.857773468998885
 20
-53.46674953339341
 30
0.0
 11
-1.995529386843738
 21
-53.49895483653847
 31
0.0
  0
ARC
  5
1A17B
330
1A0C0
100
AcDbEntity
  8
0
100
AcDbCircle
 10
1.949999999999991
 20
-53.69370358475942
 30
0.0
 40
0.2000000000000001
100
AcDbArc
 50
346.841423596672
 51
76.84142359667162
  0
ARC
  5
1A17C
330
1A0C0
100
AcDbEntity
  8
0
100
AcDbCircle
 10
-1.949999999999991
 20
-53.69370358475942
 30
0.0
 40
0.2000000000000001
100
AcDbArc
 50
103.1585764033284
 51
193.1585764033279
  0
LINE
  5
1A17D
330
1A0C0
100
AcDbEntity
  8
0
100
AcDbLine
 10
-1.857773468998885
 20
-54.96674953339343
 30
0.0
 11
-2.144748748220876
 21
-53.73923297160316
 31
0.0
  0
LINE
  5
1A17E
330
1A0C0
100
AcDbEntity
  8
0
100
AcDbLine
 10
1.857773468998885
 20
-54.96674953339343
 30
0.0
 11
2.144748748220876
 21
-53.73923297160316
 31
0.0
  0
LINE
  5
1A17F
330
1A0C0
100
AcDbEntity
  8
0
100
AcDbLine
 10
1.857773468998886
 20
-51.96674953339341
 30
0.0
 11
1.995529386843738
 21
-51.99895483653847
 31
0.0
  0
LINE
  5
1A180
330
1A0C0
100
AcDbEntity
  8
0
100
AcDbLine
 10
-1.857773468998886
 20
-51.96674953339341
 30
0.0
 11
-1.995529386843738
 21
-51.99895483653847
 31
0.0
  0
ARC
  5
1A181
330
1A0C0
100
AcDbEntity
  8
0
100
AcDbCircle
 10
1.949999999999991
 20
-52.19370358475941
 30
0.0
 40
0.2000000000000001
100
AcDbArc
 50
346.841423596672
 51
76.84142359667162
  0
ARC
  5
1A182
330
1A0C0
100
AcDbEntity
  8
0
100
AcDbCircle
 10
-1.949999999999991
 20
-52.19370358475941
 30
0.0
 40
0.2000000000000001
100
AcDbArc
 50
103.1585764033284
 51
193.1585764033279
  0
LINE
  5
1A183
330
1A0C0
100
AcDbEntity
  8
0
100
AcDbLine
 10
-1.857773468998885
 20
-53.46674953339341
 30
0.0
 11
-2.144748748220876
 21
-52.23923297160315
 31
0.0
  0
LINE
  5
1A184
330
1A0C0
100
AcDbEntity
  8
0
100
AcDbLine
 10
1.857773468998885
 20
-53.46674953339341
 30
0.0
 11
2.144748748220876
 21
-52.23923297160315
 31
0.0
  0
LINE
  5
1A185
330
1A0C0
100
AcDbEntity
  8
0
100
AcDbLine
 10
1.857773468998886
 20
-50.46674953339342
 30
0.0
 11
1.995529386843738
 21
-50.49895483653848
 31
0.0
  0
LINE
  5
1A186
330
1A0C0
100
AcDbEntity
  8
0
100
AcDbLine
 10
-1.857773468998886
 20
-50.46674953339342
 30
0.0
 11
-1.995529386843738
 21
-50.49895483653848
 31
0.0
  0
ARC
  5
1A187
330
1A0C0
100
AcDbEntity
  8
0
100
AcDbCircle
 10
1.949999999999991
 20
-50.69370358475943
 30
0.0
 40
0.2000000000000001
100
AcDbArc
 50
346.841423596672
 51
76.84142359667162
  0
ARC
  5
1A188
330
1A0C0
100
AcDbEntity
  8
0
100
AcDbCircle
 10
-1.949999999999991
 20
-50.69370358475943
 30
0.0
 40
0.2000000000000001
100
AcDbArc
 50
103.1585764033284
 51
193.1585764033279
  0
LINE
  5
1A189
330
1A0C0
100
AcDbEntity
  8
0
100
AcDbLine
 10
-1.857773468998887
 20
-51.96674953339341
 30
0.0
 11
-2.144748748220876
 21
-50.73923297160316
 31
0.0
  0
LINE
  5
1A18A
330
1A0C0
100
AcDbEntity
  8
0
100
AcDbLine
 10
1.857773468998887
 20
-51.96674953339341
 30
0.0
 11
2.144748748220876
 21
-50.73923297160316
 31
0.0
  0
LINE
  5
1A18B
330
1A0C0
100
AcDbEntity
  8
0
100
AcDbLine
 10
1.857773468998885
 20
-48.96674953339342
 30
0.0
 11
1.995529386843738
 21
-48.99895483653849
 31
0.0
  0
LINE
  5
1A18C
330
1A0C0
100
AcDbEntity
  8
0
100
AcDbLine
 10
-1.857773468998885
 20
-48.96674953339342
 30
0.0
 11
-1.995529386843738
 21
-48.99895483653849
 31
0.0
  0
ARC
  5
1A18D
330
1A0C0
100
AcDbEntity
  8
0
100
AcDbCircle
 10
1.949999999999991
 20
-49.19370358475943
 30
0.0
 40
0.2000000000000001
100
AcDbArc
 50
346.841423596672
 51
76.84142359667162
  0
ARC
  5
1A18E
330
1A0C0
100
AcDbEntity
  8
0
100
AcDbCircle
 10
-1.949999999999991
 20
-49.19370358475943
 30
0.0
 40
0.2000000000000001
100
AcDbArc
 50
103.1585764033284
 51
193.1585764033279
  0
LINE
  5
1A18F
330
1A0C0
100
AcDbEntity
  8
0
100
AcDbLine
 10
-1.857773468998889
 20
-50.46674953339341
 30
0.0
 11
-2.144748748220876
 21
-49.23923297160316
 31
0.0
  0
LINE
  5
1A190
330
1A0C0
100
AcDbEntity
  8
0
100
AcDbLine
 10
1.857773468998887
 20
-50.46674953339342
 30
0.0
 11
2.144748748220876
 21
-49.23923297160316
 31
0.0
  0
LINE
  5
1A191
330
1A0C0
100
AcDbEntity
  8
0
100
AcDbLine
 10
1.857773468998885
 20
-47.46674953339343
 30
0.0
 11
1.995529386843738
 21
-47.49895483653848
 31
0.0
  0
LINE
  5
1A192
330
1A0C0
100
AcDbEntity
  8
0
100
AcDbLine
 10
-1.857773468998885
 20
-47.46674953339343
 30
0.0
 11
-1.995529386843738
 21
-47.49895483653848
 31
0.0
  0
ARC
  5
1A193
330
1A0C0
100
AcDbEntity
  8
0
100
AcDbCircle
 10
1.949999999999991
 20
-47.69370358475942
 30
0.0
 40
0.2000000000000001
100
AcDbArc
 50
346.841423596672
 51
76.84142359667162
  0
ARC
  5
1A194
330
1A0C0
100
AcDbEntity
  8
0
100
AcDbCircle
 10
-1.949999999999991
 20
-47.69370358475942
 30
0.0
 40
0.2000000000000001
100
AcDbArc
 50
103.1585764033284
 51
193.1585764033279
  0
LINE
  5
1A195
330
1A0C0
100
AcDbEntity
  8
0
100
AcDbLine
 10
-1.857773468998885
 20
-48.96674953339342
 30
0.0
 11
-2.144748748220876
 21
-47.73923297160315
 31
0.0
  0
LINE
  5
1A196
330
1A0C0
100
AcDbEntity
  8
0
100
AcDbLine
 10
1.857773468998885
 20
-48.96674953339342
 30
0.0
 11
2.144748748220876
 21
-47.73923297160315
 31
0.0
  0
LINE
  5
1A197
330
1A0C0
100
AcDbEntity
  8
0
100
AcDbLine
 10
1.857773468998885
 20
-45.96674953339341
 30
0.0
 11
1.995529386843738
 21
-45.99895483653847
 31
0.0
  0
LINE
  5
1A198
330
1A0C0
100
AcDbEntity
  8
0
100
AcDbLine
 10
-1.857773468998885
 20
-45.96674953339341
 30
0.0
 11
-1.995529386843738
 21
-45.99895483653847
 31
0.0
  0
ARC
  5
1A199
330
1A0C0
100
AcDbEntity
  8
0
100
AcDbCircle
 10
1.949999999999991
 20
-46.19370358475942
 30
0.0
 40
0.2000000000000001
100
AcDbArc
 50
346.841423596672
 51
76.84142359667162
  0
ARC
  5
1A19A
330
1A0C0
100
AcDbEntity
  8
0
100
AcDbCircle
 10
-1.949999999999991
 20
-46.19370358475942
 30
0.0
 40
0.2000000000000001
100
AcDbArc
 50
103.1585764033284
 51
193.1585764033279
  0
LINE
  5
1A19B
330
1A0C0
100
AcDbEntity
  8
0
100
AcDbLine
 10
-1.857773468998885
 20
-47.46674953339343
 30
0.0
 11
-2.144748748220876
 21
-46.23923297160316
 31
0.0
  0
LINE
  5
1A19C
330
1A0C0
100
AcDbEntity
  8
0
100
AcDbLine
 10
1.857773468998885
 20
-47.46674953339343
 30
0.0
 11
2.144748748220876
 21
-46.23923297160316
 31
0.0
  0
LINE
  5
1A19D
330
1A0C0
100
AcDbEntity
  8
0
100
AcDbLine
 10
1.857773468998886
 20
-44.46674953339341
 30
0.0
 11
1.995529386843738
 21
-44.49895483653847
 31
0.0
  0
LINE
  5
1A19E
330
1A0C0
100
AcDbEntity
  8
0
100
AcDbLine
 10
-1.857773468998886
 20
-44.46674953339341
 30
0.0
 11
-1.995529386843738
 21
-44.49895483653847
 31
0.0
  0
ARC
  5
1A19F
330
1A0C0
100
AcDbEntity
  8
0
100
AcDbCircle
 10
1.949999999999991
 20
-44.69370358475941
 30
0.0
 40
0.2000000000000001
100
AcDbArc
 50
346.841423596672
 51
76.84142359667162
  0
ARC
  5
1A1A0
330
1A0C0
100
AcDbEntity
  8
0
100
AcDbCircle
 10
-1.949999999999991
 20
-44.69370358475941
 30
0.0
 40
0.2000000000000001
100
AcDbArc
 50
103.1585764033284
 51
193.1585764033279
  0
LINE
  5
1A1A1
330
1A0C0
100
AcDbEntity
  8
0
100
AcDbLine
 10
-1.857773468998885
 20
-45.96674953339341
 30
0.0
 11
-2.144748748220876
 21
-44.73923297160315
 31
0.0
  0
LINE
  5
1A1A2
330
1A0C0
100
AcDbEntity
  8
0
100
AcDbLine
 10
1.857773468998885
 20
-45.96674953339341
 30
0.0
 11
2.144748748220876
 21
-44.73923297160315
 31
0.0
  0
LINE
  5
1A1A3
330
1A0C0
100
AcDbEntity
  8
0
100
AcDbLine
 10
1.857773468998885
 20
-42.96674953339342
 30
0.0
 11
1.995529386843738
 21
-42.99895483653847
 31
0.0
  0
LINE
  5
1A1A4
330
1A0C0
100
AcDbEntity
  8
0
100
AcDbLine
 10
-1.857773468998885
 20
-42.96674953339342
 30
0.0
 11
-1.995529386843738
 21
-42.99895483653847
 31
0.0
  0
ARC
  5
1A1A5
330
1A0C0
100
AcDbEntity
  8
0
100
AcDbCircle
 10
1.949999999999991
 20
-43.19370358475942
 30
0.0
 40
0.2000000000000001
100
AcDbArc
 50
346.841423596672
 51
76.84142359667162
  0
ARC
  5
1A1A6
330
1A0C0
100
AcDbEntity
  8
0
100
AcDbCircle
 10
-1.949999999999991
 20
-43.19370358475942
 30
0.0
 40
0.2000000000000001
100
AcDbArc
 50
103.1585764033284
 51
193.1585764033279
  0
LINE
  5
1A1A7
330
1A0C0
100
AcDbEntity
  8
0
100
AcDbLine
 10
-1.857773468998887
 20
-44.46674953339341
 30
0.0
 11
-2.144748748220876
 21
-43.23923297160315
 31
0.0
  0
LINE
  5
1A1A8
330
1A0C0
100
AcDbEntity
  8
0
100
AcDbLine
 10
1.857773468998887
 20
-44.46674953339341
 30
0.0
 11
2.144748748220876
 21
-43.23923297160315
 31
0.0
  0
LINE
  5
1A1A9
330
1A0C0
100
AcDbEntity
  8
0
100
AcDbLine
 10
1.857773468998886
 20
-41.46674953339341
 30
0.0
 11
1.995529386843738
 21
-41.49895483653847
 31
0.0
  0
LINE
  5
1A1AA
330
1A0C0
100
AcDbEntity
  8
0
100
AcDbLine
 10
-1.857773468998886
 20
-41.46674953339341
 30
0.0
 11
-1.995529386843738
 21
-41.49895483653847
 31
0.0
  0
ARC
  5
1A1AB
330
1A0C0
100
AcDbEntity
  8
0
100
AcDbCircle
 10
1.949999999999991
 20
-41.69370358475942
 30
0.0
 40
0.2000000000000001
100
AcDbArc
 50
346.841423596672
 51
76.84142359667162
  0
ARC
  5
1A1AC
330
1A0C0
100
AcDbEntity
  8
0
100
AcDbCircle
 10
-1.949999999999991
 20
-41.69370358475942
 30
0.0
 40
0.2000000000000001
100
AcDbArc
 50
103.1585764033284
 51
193.1585764033279
  0
LINE
  5
1A1AD
330
1A0C0
100
AcDbEntity
  8
0
100
AcDbLine
 10
-1.857773468998885
 20
-42.96674953339342
 30
0.0
 11
-2.144748748220876
 21
-41.73923297160315
 31
0.0
  0
LINE
  5
1A1AE
330
1A0C0
100
AcDbEntity
  8
0
100
AcDbLine
 10
1.857773468998885
 20
-42.96674953339342
 30
0.0
 11
2.144748748220876
 21
-41.73923297160315
 31
0.0
  0
LINE
  5
1A1AF
330
1A0C0
100
AcDbEntity
  8
0
100
AcDbLine
 10
1.857773468998886
 20
-39.96674953339341
 30
0.0
 11
1.995529386843738
 21
-39.99895483653848
 31
0.0
  0
LINE
  5
1A1B0
330
1A0C0
100
AcDbEntity
  8
0
100
AcDbLine
 10
-1.857773468998886
 20
-39.96674953339341
 30
0.0
 11
-1.995529386843738
 21
-39.99895483653848
 31
0.0
  0
ARC
  5
1A1B1
330
1A0C0
100
AcDbEntity
  8
0
100
AcDbCircle
 10
1.949999999999991
 20
-40.19370358475941
 30
0.0
 40
0.2000000000000001
100
AcDbArc
 50
346.841423596672
 51
76.84142359667162
  0
ARC
  5
1A1B2
330
1A0C0
100
AcDbEntity
  8
0
100
AcDbCircle
 10
-1.949999999999991
 20
-40.19370358475941
 30
0.0
 40
0.2000000000000001
100
AcDbArc
 50
103.1585764033284
 51
193.1585764033279
  0
LINE
  5
1A1B3
330
1A0C0
100
AcDbEntity
  8
0
100
AcDbLine
 10
-1.857773468998885
 20
-41.46674953339341
 30
0.0
 11
-2.144748748220876
 21
-40.23923297160314
 31
0.0
  0
LINE
  5
1A1B4
330
1A0C0
100
AcDbEntity
  8
0
100
AcDbLine
 10
1.857773468998885
 20
-41.46674953339341
 30
0.0
 11
2.144748748220876
 21
-40.23923297160314
 31
0.0
  0
ARC
  5
1A1B5
330
1A0C0
100
AcDbEntity
  8
0
100
AcDbCircle
 10
1.949999999999991
 20
-38.69370358475942
 30
0.0
 40
0.2000000000000001
100
AcDbArc
 50
346.841423596672
 51
76.84142359667162
  0
ARC
  5
1A1B6
330
1A0C0
100
AcDbEntity
  8
0
100
AcDbCircle
 10
-1.949999999999991
 20
-38.69370358475942
 30
0.0
 40
0.2000000000000001
100
AcDbArc
 50
103.1585764033284
 51
193.1585764033279
  0
LINE
  5
1A1B7
330
1A0C0
100
AcDbEntity
  8
0
100
AcDbLine
 10
-1.857773468998886
 20
-39.96674953339341
 30
0.0
 11
-2.144748748220876
 21
-38.73923297160315
 31
0.0
  0
LINE
  5
1A1B8
330
1A0C0
100
AcDbEntity
  8
0
100
AcDbLine
 10
1.857773468998886
 20
-39.96674953339341
 30
0.0
 11
2.144748748220876
 21
-38.73923297160315
 31
0.0
  0
ARC
  5
1A1B9
330
1A0C0
100
AcDbEntity
  8
0
100
AcDbCircle
 10
1.949999999999991
 20
-37.19370358475942
 30
0.0
 40
0.2000000000000001
100
AcDbArc
 50
346.841423596672
 51
75.58497761062177
  0
ARC
  5
1A1BA
330
1A0C0
100
AcDbEntity
  8
0
100
AcDbCircle
 10
-1.949999999999991
 20
-37.19370358475942
 30
0.0
 40
0.2000000000000001
100
AcDbArc
 50
104.4150223893782
 51
193.1585764033279
  0
LINE
  5
1A1BB
330
1A0C0
100
AcDbEntity
  8
0
100
AcDbLine
 10
-1.857773468998885
 20
-38.46674953339342
 30
0.0
 11
-2.144748748220876
 21
-37.23923297160315
 31
0.0
  0
LINE
  5
1A1BC
330
1A0C0
100
AcDbEntity
  8
0
100
AcDbLine
 10
1.857773468998886
 20
-38.46674953339341
 30
0.0
 11
2.144748748220876
 21
-37.23923297160315
 31
0.0
  0
ENDBLK
  5
1A0C2
330
1A0C0
100
AcDbEntity
  8
0
100
AcDbBlockEnd
  0
BLOCK
  5
1A3B8
330
1A3B7
100
AcDbEntity
  8
0
100
AcDbBlockBegin
  2
MKSA440x100-Top
 70
     0
 10
0.0
 20
0.0
 30
0.0
  3
MKSA440x100-Top
  1

  0
CIRCLE
  5
1A3BA
330
1A3B7
100
AcDbEntity
  8
0
100
AcDbCircle
 10
-0.0000000000000071
 20
-0.0000000000000001
 30
0.0
 40
4.249999999999992
  0
ENDBLK
  5
1A3B9
330
1A3B7
100
AcDbEntity
  8
0
100
AcDbBlockEnd
  0
BLOCK
  5
1A3C9
330
1A3C8
100
AcDbEntity
  8
0
100
AcDbBlockBegin
  2
MKSA440x100-ISO
 70
     0
 10
0.0
 20
0.0
 30
0.0
  3
MKSA440x100-ISO
  1

  0
ELLIPSE
  5
1A3CB
330
1A3C8
100
AcDbEntity
  8
0
100
AcDbEllipse
 10
0.0000000000000189
 20
-40.82482904638627
 30
0.0
 11
-2.082536734865137
 21
-6.806440134932319
 31
0.0
210
0.0
220
0.0
230
1.0
 40
0.0507834957882404
 41
2.191716155715271
 42
2.977114319112733
  0
LINE
  5
1A3CC
330
1A3C8
100
AcDbEntity
  8
0
100
AcDbLine
 10
0.0
 20
-40.8248290463863
 30
0.0
 11
1.492721760638201
 21
-36.95097218733514
 31
0.0
  0
ELLIPSE
  5
1A3CD
330
1A3C8
100
AcDbEntity
  8
0
100
AcDbEllipse
 10
0.0000000000000189
 20
-40.82482904638627
 30
0.0
 11
0.0000000000000052
 21
-5.478460908762182
 31
0.0
210
0.0
220
0.0
230
1.0
 40
0.3853321934574036
 41
2.356194490192349
 42
3.926990816987249
  0
LINE
  5
1A3CE
330
1A3C8
100
AcDbEntity
  8
0
100
AcDbLine
 10
-1.492721760638177
 20
-36.95097218733514
 30
0.0
 11
0.0
 21
-40.8248290463863
 31
0.0
  0
ELLIPSE
  5
1A3CF
330
1A3C8
100
AcDbEntity
  8
0
100
AcDbEllipse
 10
0.0000000000000162
 20
-31.84336665618133
 30
0.0
 11
-2.111027358743972
 21
0.0000000000000001
 31
0.0
210
0.0
220
0.0
230
1.0
 40
0.5773502691896257
 41
5.841584578531325
 42
9.866378689417643
  0
ELLIPSE
  5
1A3D0
330
1A3C8
100
AcDbEntity
  8
0
100
AcDbEllipse
 10
0.0000000000000162
 20
-31.8433666561813
 30
0.0
 11
-1.850000000000003
 21
0.0000000000000007
 31
0.0
210
0.0
220
0.0
230
1.0
 40
0.5773502691896259
 41
0.000000000000002
 42
3.141592653589799
  0
ELLIPSE
  5
1A3D1
330
1A3C8
100
AcDbEntity
  8
0
100
AcDbEllipse
 10
0.0000000000000041
 20
8.98146239020499
 30
0.0
 11
-2.000000000000003
 21
0.0000000000000004
 31
0.0
210
0.0
220
0.0
230
1.0
 40
0.5773502691896259
 41
0.0000000000000021
 42
3.141592653589796
  0
ELLIPSE
  5
1A3D2
330
1A3C8
100
AcDbEntity
  8
0
100
AcDbEllipse
 10
-0.000000000000005
 20
39.19183588453086
 30
0.0
 11
-4.249999999999994
 21
-0.0000000000000008
 31
0.0
210
0.0
220
0.0
230
1.0
 40
0.5773502691896259
 41
0.0
 42
3.141592653589793
  0
ELLIPSE
  5
1A3D3
330
1A3C8
100
AcDbEntity
  8
0
100
AcDbEllipse
 10
-0.000000000000005
 20
39.47760968785556
 30
0.0
 11
-4.249999999999993
 21
-0.0000000000000011
 31
0.0
210
0.0
220
0.0
230
1.0
 40
0.5773502691896258
 41
5.133893471813683
 42
10.57406979613528
  0
LINE
  5
1A3D4
330
1A3C8
100
AcDbEntity
  8
0
100
AcDbLine
 10
-2.111027358743955
 20
-34.12756592378663
 30
0.0
 11
-2.111027358743955
 21
-31.84336665618133
 31
0.0
  0
LINE
  5
1A3D5
330
1A3C8
100
AcDbEntity
  8
0
100
AcDbLine
 10
2.111027358743989
 20
-34.1275659237866
 30
0.0
 11
2.111027358743988
 21
-31.84336665618133
 31
0.0
  0
LINE
  5
1A3D6
330
1A3C8
100
AcDbEntity
  8
0
100
AcDbLine
 10
-1.849999999999986
 20
-31.8433666561813
 30
0.0
 11
-1.849999999999986
 21
-31.52401415413697
 31
0.0
  0
LINE
  5
1A3D7
330
1A3C8
100
AcDbEntity
  8
0
100
AcDbLine
 10
1.850000000000019
 20
-31.8433666561813
 30
0.0
 11
1.850000000000019
 21
-31.52401415413695
 31
0.0
  0
LINE
  5
1A3D8
330
1A3C8
100
AcDbEntity
  8
0
100
AcDbLine
 10
-1.999999999999997
 20
8.98146239020499
 30
0.0
 11
-2.000000000000005
 21
37.02677237506978
 31
0.0
  0
LINE
  5
1A3D9
330
1A3C8
100
AcDbEntity
  8
0
100
AcDbLine
 10
2.000000000000005
 20
8.98146239020499
 30
0.0
 11
1.999999999999997
 21
37.02677237506978
 31
0.0
  0
LINE
  5
1A3DA
330
1A3C8
100
AcDbEntity
  8
0
100
AcDbLine
 10
-4.249999999999999
 20
39.19183588453086
 30
0.0
 11
-4.249999999999999
 21
39.47760968785556
 31
0.0
  0
LINE
  5
1A3DB
330
1A3C8
100
AcDbEntity
  8
0
100
AcDbLine
 10
4.249999999999988
 20
39.19183588453086
 30
0.0
 11
4.249999999999988
 21
39.47760968785557
 31
0.0
  0
SPLINE
  5
1A3DC
330
1A3C8
100
AcDbEntity
  8
0
100
AcDbSpline
210
0.0
220
0.0
230
1.0
 70
     8
 71
     3
 72
    16
 73
    12
 74
     0
 42
0.000000001
 43
0.0000000001
 40
1.934689998763352
 40
1.934689998763352
 40
1.934689998763352
 40
1.934689998763352
 40
2.103291795334949
 40
2.103291795334949
 40
2.271893591906546
 40
2.271893591906546
 40
2.440495388478144
 40
2.440495388478144
 40
2.609097185049741
 40
2.609097185049741
 40
2.777698981621337
 40
2.777698981621337
 40
2.777698981621337
 40
2.777698981621337
 10
1.738818333563104
 20
41.71658347085413
 30
0.0
 10
1.489305983469843
 20
41.78117506367626
 30
0.0
 10
1.250413228226725
 20
41.82867154468304
 30
0.0
 10
0.785343919576901
 20
41.89806369617596
 30
0.0
 10
0.5591580968324062
 20
41.91991423302796
 30
0.0
 10
0.1109893877446919
 20
41.94177893727018
 30
0.0
 10
-0.1109893877447068
 20
41.94177893727018
 30
0.0
 10
-0.5591580968324208
 20
41.91991423302796
 30
0.0
 10
-0.7853439195769154
 20
41.89806369617596
 30
0.0
 10
-1.250413228226738
 20
41.82867154468304
 30
0.0
 10
-1.489305983469855
 20
41.78117506367626
 30
0.0
 10
-1.738818333563115
 20
41.71658347085412
 30
0.0
  0
ELLIPSE
  5
1A3DD
330
1A3C8
100
AcDbEntity
  8
0
100
AcDbEllipse
 10
0.0000000000000189
 20
-40.82482904638631
 30
0.0
 11
-2.082536734865141
 21
6.806440134932327
 31
0.0
210
0.0
220
0.0
230
1.0
 40
0.0507834957882411
 41
0.1644783344771173
 42
0.9498764978745532
  0
ELLIPSE
  5
1A3DE
330
1A3C8
100
AcDbEntity
  8
0
100
AcDbEllipse
 10
0.000000000000006
 20
7.757570891206255
 30
0.0
 11
-1.995529386843738
 21
-0.0000000000000001
 31
0.0
210
0.0
220
0.0
230
1.0
 40
0.577350269189626
 41
6.065315408120609
 42
9.642647859828356
  0
ELLIPSE
  5
1A3DF
330
1A3C8
100
AcDbEntity
  8
0
100
AcDbEllipse
 10
0.000000000000006
 20
7.783866411111937
 30
0.0
 11
-1.857773468998886
 21
0.0000000000000001
 31
0.0
210
0.0
220
0.0
230
1.0
 40
0.5773502691896258
 41
0.1660734866401448
 42
2.975519166949647
  0
ELLIPSE
  5
1A3E0
330
1A3C8
100
AcDbEntity
  8
0
100
AcDbEllipse
 10
0.0000000000000133
 20
-30.20952012193301
 30
0.0
 11
-1.995529386843738
 21
-0.0000000000000001
 31
0.0
210
0.0
220
0.0
230
1.0
 40
0.5773502691896259
 41
6.065315408120607
 42
9.642647859828354
  0
ELLIPSE
  5
1A3E1
330
1A3C8
100
AcDbEntity
  8
0
100
AcDbEllipse
 10
0.0000000000000133
 20
-30.18322460202732
 30
0.0
 11
-1.857773468998885
 21
0.0000000000000001
 31
0.0
210
0.0
220
0.0
230
1.0
 40
0.5773502691896258
 41
0.1660734866401449
 42
2.975519166949648
  0
ELLIPSE
  5
1A3E2
330
1A3C8
100
AcDbEntity
  8
0
100
AcDbEllipse
 10
0.0000000000000134
 20
-30.405706397685
 30
0.0
 11
-2.144748748220875
 21
-0.0000000000000001
 31
0.0
210
0.0
220
0.0
230
1.0
 40
0.5773502691896258
 41
0.166073486640145
 42
2.975519166949648
  0
ELLIPSE
  5
1A3E3
330
1A3C8
100
AcDbEntity
  8
0
100
AcDbEllipse
 10
0.0000000000000161
 20
-31.43511836571745
 30
0.0
 11
1.850000000000003
 21
0.0000000000000002
 31
0.0
210
0.0
220
0.0
230
1.0
 40
0.5773502691896259
 41
3.307666140229939
 42
6.117111820539443
  0
ELLIPSE
  5
1A3E4
330
1A3C8
100
AcDbEntity
  8
0
100
AcDbEllipse
 10
0.0000000000000131
 20
-28.98477525054141
 30
0.0
 11
-1.995529386843738
 21
-0.0000000000000001
 31
0.0
210
0.0
220
0.0
230
1.0
 40
0.5773502691896259
 41
6.065315408120607
 42
9.642647859828354
  0
ELLIPSE
  5
1A3E5
330
1A3C8
100
AcDbEntity
  8
0
100
AcDbEllipse
 10
0.0000000000000131
 20
-28.95847973063574
 30
0.0
 11
-1.857773468998885
 21
0.0000000000000001
 31
0.0
210
0.0
220
0.0
230
1.0
 40
0.5773502691896258
 41
0.1660734866401449
 42
2.975519166949648
  0
ELLIPSE
  5
1A3E6
330
1A3C8
100
AcDbEntity
  8
0
100
AcDbEllipse
 10
0.0000000000000131
 20
-29.18096152629342
 30
0.0
 11
-2.144748748220875
 21
-0.0000000000000001
 31
0.0
210
0.0
220
0.0
230
1.0
 40
0.5773502691896258
 41
0.166073486640145
 42
2.975519166949648
  0
ELLIPSE
  5
1A3E7
330
1A3C8
100
AcDbEntity
  8
0
100
AcDbEllipse
 10
0.0000000000000129
 20
-27.76003037914983
 30
0.0
 11
-1.995529386843738
 21
-0.0000000000000001
 31
0.0
210
0.0
220
0.0
230
1.0
 40
0.577350269189626
 41
6.065315408120603
 42
9.642647859828361
  0
ELLIPSE
  5
1A3E8
330
1A3C8
100
AcDbEntity
  8
0
100
AcDbEllipse
 10
0.0000000000000129
 20
-27.73373485924414
 30
0.0
 11
-1.857773468998887
 21
0.0000000000000003
 31
0.0
210
0.0
220
0.0
230
1.0
 40
0.5773502691896258
 41
0.166073486640145
 42
2.975519166949649
  0
ELLIPSE
  5
1A3E9
330
1A3C8
100
AcDbEntity
  8
0
100
AcDbEllipse
 10
0.0000000000000129
 20
-27.95621665490184
 30
0.0
 11
-2.144748748220875
 21
0.0000000000000002
 31
0.0
210
0.0
220
0.0
230
1.0
 40
0.5773502691896258
 41
0.166073486640145
 42
2.975519166949648
  0
ELLIPSE
  5
1A3EA
330
1A3C8
100
AcDbEntity
  8
0
100
AcDbEllipse
 10
0.0000000000000126
 20
-26.53528550775823
 30
0.0
 11
-1.995529386843738
 21
-0.0000000000000001
 31
0.0
210
0.0
220
0.0
230
1.0
 40
0.5773502691896259
 41
6.065315408120615
 42
9.642647859828354
  0
ELLIPSE
  5
1A3EB
330
1A3C8
100
AcDbEntity
  8
0
100
AcDbEllipse
 10
0.0000000000000126
 20
-26.50898998785255
 30
0.0
 11
-1.857773468998887
 21
0.0000000000000003
 31
0.0
210
0.0
220
0.0
230
1.0
 40
0.5773502691896258
 41
0.166073486640145
 42
2.975519166949649
  0
ELLIPSE
  5
1A3EC
330
1A3C8
100
AcDbEntity
  8
0
100
AcDbEllipse
 10
0.0000000000000127
 20
-26.73147178351023
 30
0.0
 11
-2.144748748220875
 21
-0.0000000000000001
 31
0.0
210
0.0
220
0.0
230
1.0
 40
0.5773502691896258
 41
0.166073486640145
 42
2.975519166949648
  0
ELLIPSE
  5
1A3ED
330
1A3C8
100
AcDbEntity
  8
0
100
AcDbEllipse
 10
0.0000000000000124
 20
-25.31054063636665
 30
0.0
 11
-1.995529386843738
 21
-0.0000000000000001
 31
0.0
210
0.0
220
0.0
230
1.0
 40
0.5773502691896259
 41
6.065315408120607
 42
9.642647859828354
  0
ELLIPSE
  5
1A3EE
330
1A3C8
100
AcDbEntity
  8
0
100
AcDbEllipse
 10
0.0000000000000124
 20
-25.28424511646097
 30
0.0
 11
-1.857773468998885
 21
0.0000000000000001
 31
0.0
210
0.0
220
0.0
230
1.0
 40
0.5773502691896258
 41
0.1660734866401449
 42
2.975519166949648
  0
ELLIPSE
  5
1A3EF
330
1A3C8
100
AcDbEntity
  8
0
100
AcDbEllipse
 10
0.0000000000000124
 20
-25.50672691211865
 30
0.0
 11
-2.144748748220875
 21
-0.0000000000000001
 31
0.0
210
0.0
220
0.0
230
1.0
 40
0.5773502691896258
 41
0.166073486640145
 42
2.975519166949648
  0
ELLIPSE
  5
1A3F0
330
1A3C8
100
AcDbEntity
  8
0
100
AcDbEllipse
 10
0.0000000000000122
 20
-24.08579576497506
 30
0.0
 11
-1.995529386843738
 21
-0.0000000000000001
 31
0.0
210
0.0
220
0.0
230
1.0
 40
0.5773502691896259
 41
6.065315408120607
 42
9.642647859828354
  0
ELLIPSE
  5
1A3F1
330
1A3C8
100
AcDbEntity
  8
0
100
AcDbEllipse
 10
0.0000000000000122
 20
-24.05950024506938
 30
0.0
 11
-1.857773468998885
 21
0.0000000000000001
 31
0.0
210
0.0
220
0.0
230
1.0
 40
0.5773502691896258
 41
0.1660734866401449
 42
2.975519166949648
  0
ELLIPSE
  5
1A3F2
330
1A3C8
100
AcDbEntity
  8
0
100
AcDbEllipse
 10
0.0000000000000122
 20
-24.28198204072707
 30
0.0
 11
-2.144748748220875
 21
-0.0000000000000001
 31
0.0
210
0.0
220
0.0
230
1.0
 40
0.5773502691896258
 41
0.166073486640145
 42
2.975519166949648
  0
ELLIPSE
  5
1A3F3
330
1A3C8
100
AcDbEntity
  8
0
100
AcDbEllipse
 10
0.0000000000000119
 20
-22.86105089358347
 30
0.0
 11
-1.995529386843738
 21
-0.0000000000000002
 31
0.0
210
0.0
220
0.0
230
1.0
 40
0.577350269189626
 41
6.065315408120611
 42
9.642647859828354
  0
ELLIPSE
  5
1A3F4
330
1A3C8
100
AcDbEntity
  8
0
100
AcDbEllipse
 10
0.0000000000000119
 20
-22.83475537367779
 30
0.0
 11
-1.857773468998887
 21
0.0000000000000003
 31
0.0
210
0.0
220
0.0
230
1.0
 40
0.5773502691896258
 41
0.166073486640145
 42
2.975519166949649
  0
ELLIPSE
  5
1A3F5
330
1A3C8
100
AcDbEntity
  8
0
100
AcDbEllipse
 10
0.000000000000012
 20
-23.05723716933547
 30
0.0
 11
-2.144748748220875
 21
-0.0000000000000001
 31
0.0
210
0.0
220
0.0
230
1.0
 40
0.5773502691896258
 41
0.166073486640145
 42
2.975519166949648
  0
ELLIPSE
  5
1A3F6
330
1A3C8
100
AcDbEntity
  8
0
100
AcDbEllipse
 10
0.0000000000000117
 20
-21.63630602219189
 30
0.0
 11
-1.995529386843738
 21
-0.0000000000000002
 31
0.0
210
0.0
220
0.0
230
1.0
 40
0.577350269189626
 41
6.065315408120611
 42
9.642647859828354
  0
ELLIPSE
  5
1A3F7
330
1A3C8
100
AcDbEntity
  8
0
100
AcDbEllipse
 10
0.0000000000000117
 20
-21.6100105022862
 30
0.0
 11
-1.857773468998887
 21
0.0000000000000003
 31
0.0
210
0.0
220
0.0
230
1.0
 40
0.5773502691896258
 41
0.166073486640145
 42
2.975519166949649
  0
ELLIPSE
  5
1A3F8
330
1A3C8
100
AcDbEntity
  8
0
100
AcDbEllipse
 10
0.0000000000000117
 20
-21.83249229794388
 30
0.0
 11
-2.144748748220875
 21
-0.0000000000000001
 31
0.0
210
0.0
220
0.0
230
1.0
 40
0.5773502691896258
 41
0.166073486640145
 42
2.975519166949648
  0
ELLIPSE
  5
1A3F9
330
1A3C8
100
AcDbEntity
  8
0
100
AcDbEllipse
 10
0.0000000000000115
 20
-20.4115611508003
 30
0.0
 11
-1.995529386843738
 21
-0.0000000000000001
 31
0.0
210
0.0
220
0.0
230
1.0
 40
0.5773502691896259
 41
6.065315408120607
 42
9.642647859828354
  0
ELLIPSE
  5
1A3FA
330
1A3C8
100
AcDbEntity
  8
0
100
AcDbEllipse
 10
0.0000000000000115
 20
-20.38526563089462
 30
0.0
 11
-1.857773468998885
 21
0.0000000000000001
 31
0.0
210
0.0
220
0.0
230
1.0
 40
0.5773502691896258
 41
0.1660734866401449
 42
2.975519166949648
  0
ELLIPSE
  5
1A3FB
330
1A3C8
100
AcDbEntity
  8
0
100
AcDbEllipse
 10
0.0000000000000115
 20
-20.6077474265523
 30
0.0
 11
-2.144748748220875
 21
-0.0000000000000001
 31
0.0
210
0.0
220
0.0
230
1.0
 40
0.5773502691896258
 41
0.166073486640145
 42
2.975519166949648
  0
ELLIPSE
  5
1A3FC
330
1A3C8
100
AcDbEntity
  8
0
100
AcDbEllipse
 10
0.0000000000000112
 20
-19.18681627940871
 30
0.0
 11
-1.995529386843738
 21
-0.0000000000000001
 31
0.0
210
0.0
220
0.0
230
1.0
 40
0.5773502691896259
 41
6.065315408120607
 42
9.642647859828356
  0
ELLIPSE
  5
1A3FD
330
1A3C8
100
AcDbEntity
  8
0
100
AcDbEllipse
 10
0.0000000000000112
 20
-19.16052075950302
 30
0.0
 11
-1.857773468998885
 21
0.0000000000000001
 31
0.0
210
0.0
220
0.0
230
1.0
 40
0.5773502691896258
 41
0.1660734866401449
 42
2.975519166949648
  0
ELLIPSE
  5
1A3FE
330
1A3C8
100
AcDbEntity
  8
0
100
AcDbEllipse
 10
0.0000000000000113
 20
-19.3830025551607
 30
0.0
 11
-2.144748748220875
 21
-0.0000000000000001
 31
0.0
210
0.0
220
0.0
230
1.0
 40
0.5773502691896258
 41
0.166073486640145
 42
2.975519166949648
  0
ELLIPSE
  5
1A3FF
330
1A3C8
100
AcDbEntity
  8
0
100
AcDbEllipse
 10
0.000000000000011
 20
-17.96207140801711
 30
0.0
 11
-1.995529386843738
 21
-0.0000000000000001
 31
0.0
210
0.0
220
0.0
230
1.0
 40
0.5773502691896259
 41
6.065315408120607
 42
9.642647859828356
  0
ELLIPSE
  5
1A400
330
1A3C8
100
AcDbEntity
  8
0
100
AcDbEllipse
 10
0.000000000000011
 20
-17.93577588811143
 30
0.0
 11
-1.857773468998885
 21
0.0000000000000001
 31
0.0
210
0.0
220
0.0
230
1.0
 40
0.5773502691896258
 41
0.1660734866401449
 42
2.975519166949648
  0
ELLIPSE
  5
1A401
330
1A3C8
100
AcDbEntity
  8
0
100
AcDbEllipse
 10
0.000000000000011
 20
-18.15825768376911
 30
0.0
 11
-2.144748748220875
 21
-0.0000000000000001
 31
0.0
210
0.0
220
0.0
230
1.0
 40
0.5773502691896258
 41
0.166073486640145
 42
2.975519166949648
  0
ELLIPSE
  5
1A402
330
1A3C8
100
AcDbEntity
  8
0
100
AcDbEllipse
 10
0.0000000000000108
 20
-16.73732653662552
 30
0.0
 11
-1.995529386843738
 21
-0.0000000000000002
 31
0.0
210
0.0
220
0.0
230
1.0
 40
0.577350269189626
 41
6.065315408120611
 42
9.642647859828354
  0
ELLIPSE
  5
1A403
330
1A3C8
100
AcDbEntity
  8
0
100
AcDbEllipse
 10
0.0000000000000107
 20
-16.71103101671984
 30
0.0
 11
-1.857773468998887
 21
0.0000000000000003
 31
0.0
210
0.0
220
0.0
230
1.0
 40
0.5773502691896258
 41
0.166073486640145
 42
2.975519166949649
  0
ELLIPSE
  5
1A404
330
1A3C8
100
AcDbEntity
  8
0
100
AcDbEllipse
 10
0.0000000000000108
 20
-16.93351281237752
 30
0.0
 11
-2.144748748220875
 21
-0.0000000000000001
 31
0.0
210
0.0
220
0.0
230
1.0
 40
0.5773502691896258
 41
0.166073486640145
 42
2.975519166949648
  0
ELLIPSE
  5
1A405
330
1A3C8
100
AcDbEntity
  8
0
100
AcDbEllipse
 10
0.0000000000000105
 20
-15.51258166523394
 30
0.0
 11
-1.995529386843738
 21
-0.0000000000000002
 31
0.0
210
0.0
220
0.0
230
1.0
 40
0.577350269189626
 41
6.065315408120611
 42
9.642647859828354
  0
ELLIPSE
  5
1A406
330
1A3C8
100
AcDbEntity
  8
0
100
AcDbEllipse
 10
0.0000000000000105
 20
-15.48628614532825
 30
0.0
 11
-1.857773468998887
 21
0.0000000000000003
 31
0.0
210
0.0
220
0.0
230
1.0
 40
0.5773502691896258
 41
0.166073486640145
 42
2.975519166949649
  0
ELLIPSE
  5
1A407
330
1A3C8
100
AcDbEntity
  8
0
100
AcDbEllipse
 10
0.0000000000000106
 20
-15.70876794098594
 30
0.0
 11
-2.144748748220875
 21
-0.0000000000000001
 31
0.0
210
0.0
220
0.0
230
1.0
 40
0.5773502691896258
 41
0.166073486640145
 42
2.975519166949648
  0
ELLIPSE
  5
1A408
330
1A3C8
100
AcDbEntity
  8
0
100
AcDbEllipse
 10
0.0000000000000103
 20
-14.28783679384235
 30
0.0
 11
-1.995529386843738
 21
-0.0000000000000001
 31
0.0
210
0.0
220
0.0
230
1.0
 40
0.5773502691896259
 41
6.065315408120607
 42
9.642647859828356
  0
ELLIPSE
  5
1A409
330
1A3C8
100
AcDbEntity
  8
0
100
AcDbEllipse
 10
0.0000000000000103
 20
-14.26154127393667
 30
0.0
 11
-1.857773468998885
 21
0.0000000000000001
 31
0.0
210
0.0
220
0.0
230
1.0
 40
0.5773502691896258
 41
0.1660734866401449
 42
2.975519166949648
  0
ELLIPSE
  5
1A40A
330
1A3C8
100
AcDbEntity
  8
0
100
AcDbEllipse
 10
0.0000000000000103
 20
-14.48402306959435
 30
0.0
 11
-2.144748748220875
 21
-0.0000000000000001
 31
0.0
210
0.0
220
0.0
230
1.0
 40
0.5773502691896258
 41
0.166073486640145
 42
2.975519166949648
  0
ELLIPSE
  5
1A40B
330
1A3C8
100
AcDbEntity
  8
0
100
AcDbEllipse
 10
0.00000000000001
 20
-13.06309192245076
 30
0.0
 11
-1.995529386843738
 21
-0.0000000000000001
 31
0.0
210
0.0
220
0.0
230
1.0
 40
0.5773502691896259
 41
6.065315408120607
 42
9.642647859828356
  0
ELLIPSE
  5
1A40C
330
1A3C8
100
AcDbEntity
  8
0
100
AcDbEllipse
 10
0.00000000000001
 20
-13.03679640254508
 30
0.0
 11
-1.857773468998885
 21
0.0000000000000001
 31
0.0
210
0.0
220
0.0
230
1.0
 40
0.5773502691896258
 41
0.1660734866401449
 42
2.975519166949648
  0
ELLIPSE
  5
1A40D
330
1A3C8
100
AcDbEntity
  8
0
100
AcDbEllipse
 10
0.0000000000000101
 20
-13.25927819820276
 30
0.0
 11
-2.144748748220875
 21
-0.0000000000000001
 31
0.0
210
0.0
220
0.0
230
1.0
 40
0.5773502691896258
 41
0.166073486640145
 42
2.975519166949648
  0
ELLIPSE
  5
1A40E
330
1A3C8
100
AcDbEntity
  8
0
100
AcDbEllipse
 10
0.0000000000000098
 20
-11.83834705105917
 30
0.0
 11
-1.995529386843738
 21
-0.0000000000000001
 31
0.0
210
0.0
220
0.0
230
1.0
 40
0.5773502691896259
 41
6.065315408120607
 42
9.642647859828356
  0
ELLIPSE
  5
1A40F
330
1A3C8
100
AcDbEntity
  8
0
100
AcDbEllipse
 10
0.0000000000000098
 20
-11.81205153115349
 30
0.0
 11
-1.857773468998885
 21
0.0000000000000001
 31
0.0
210
0.0
220
0.0
230
1.0
 40
0.5773502691896258
 41
0.1660734866401449
 42
2.975519166949648
  0
ELLIPSE
  5
1A410
330
1A3C8
100
AcDbEntity
  8
0
100
AcDbEllipse
 10
0.0000000000000099
 20
-12.03453332681117
 30
0.0
 11
-2.144748748220875
 21
-0.0000000000000001
 31
0.0
210
0.0
220
0.0
230
1.0
 40
0.5773502691896258
 41
0.166073486640145
 42
2.975519166949648
  0
ELLIPSE
  5
1A411
330
1A3C8
100
AcDbEntity
  8
0
100
AcDbEllipse
 10
0.0000000000000096
 20
-10.61360217966758
 30
0.0
 11
-1.995529386843738
 21
-0.0000000000000002
 31
0.0
210
0.0
220
0.0
230
1.0
 40
0.577350269189626
 41
6.065315408120611
 42
9.642647859828354
  0
ELLIPSE
  5
1A412
330
1A3C8
100
AcDbEntity
  8
0
100
AcDbEllipse
 10
0.0000000000000096
 20
-10.58730665976189
 30
0.0
 11
-1.857773468998887
 21
0.0000000000000003
 31
0.0
210
0.0
220
0.0
230
1.0
 40
0.5773502691896258
 41
0.166073486640145
 42
2.975519166949649
  0
ELLIPSE
  5
1A413
330
1A3C8
100
AcDbEntity
  8
0
100
AcDbEllipse
 10
0.0000000000000096
 20
-10.80978845541958
 30
0.0
 11
-2.144748748220875
 21
-0.0000000000000001
 31
0.0
210
0.0
220
0.0
230
1.0
 40
0.5773502691896258
 41
0.166073486640145
 42
2.975519166949648
  0
ELLIPSE
  5
1A414
330
1A3C8
100
AcDbEntity
  8
0
100
AcDbEllipse
 10
0.0000000000000093
 20
-9.388857308275992
 30
0.0
 11
-1.995529386843738
 21
-0.0000000000000002
 31
0.0
210
0.0
220
0.0
230
1.0
 40
0.577350269189626
 41
6.06531540812061
 42
9.642647859828354
  0
ELLIPSE
  5
1A415
330
1A3C8
100
AcDbEntity
  8
0
100
AcDbEllipse
 10
0.0000000000000093
 20
-9.362561788370316
 30
0.0
 11
-1.857773468998887
 21
0.0000000000000003
 31
0.0
210
0.0
220
0.0
230
1.0
 40
0.5773502691896258
 41
0.166073486640145
 42
2.975519166949649
  0
ELLIPSE
  5
1A416
330
1A3C8
100
AcDbEntity
  8
0
100
AcDbEllipse
 10
0.0000000000000094
 20
-9.585043584027994
 30
0.0
 11
-2.144748748220875
 21
-0.0000000000000001
 31
0.0
210
0.0
220
0.0
230
1.0
 40
0.5773502691896258
 41
0.1660734866401457
 42
2.975519166949648
  0
ELLIPSE
  5
1A417
330
1A3C8
100
AcDbEntity
  8
0
100
AcDbEllipse
 10
0.0000000000000091
 20
-8.164112436884405
 30
0.0
 11
-1.995529386843738
 21
-0.0000000000000001
 31
0.0
210
0.0
220
0.0
230
1.0
 40
0.5773502691896259
 41
6.065315408120608
 42
9.642647859828358
  0
ELLIPSE
  5
1A418
330
1A3C8
100
AcDbEntity
  8
0
100
AcDbEllipse
 10
0.0000000000000091
 20
-8.137816916978728
 30
0.0
 11
-1.857773468998885
 21
0.0000000000000001
 31
0.0
210
0.0
220
0.0
230
1.0
 40
0.5773502691896258
 41
0.1660734866401449
 42
2.975519166949648
  0
ELLIPSE
  5
1A419
330
1A3C8
100
AcDbEntity
  8
0
100
AcDbEllipse
 10
0.0000000000000091
 20
-8.360298712636407
 30
0.0
 11
-2.144748748220875
 21
-0.0000000000000001
 31
0.0
210
0.0
220
0.0
230
1.0
 40
0.5773502691896258
 41
0.1660734866401457
 42
2.975519166949648
  0
ELLIPSE
  5
1A41A
330
1A3C8
100
AcDbEntity
  8
0
100
AcDbEllipse
 10
0.0000000000000089
 20
-6.939367565492817
 30
0.0
 11
-1.995529386843738
 21
-0.0000000000000001
 31
0.0
210
0.0
220
0.0
230
1.0
 40
0.5773502691896259
 41
6.065315408120608
 42
9.642647859828358
  0
ELLIPSE
  5
1A41B
330
1A3C8
100
AcDbEntity
  8
0
100
AcDbEllipse
 10
0.0000000000000089
 20
-6.913072045587131
 30
0.0
 11
-1.857773468998885
 21
0.0000000000000001
 31
0.0
210
0.0
220
0.0
230
1.0
 40
0.5773502691896258
 41
0.1660734866401449
 42
2.975519166949648
  0
ELLIPSE
  5
1A41C
330
1A3C8
100
AcDbEntity
  8
0
100
AcDbEllipse
 10
0.0000000000000089
 20
-7.135553841244819
 30
0.0
 11
-2.144748748220875
 21
-0.0000000000000001
 31
0.0
210
0.0
220
0.0
230
1.0
 40
0.5773502691896258
 41
0.1660734866401457
 42
2.975519166949648
  0
ELLIPSE
  5
1A41D
330
1A3C8
100
AcDbEntity
  8
0
100
AcDbEllipse
 10
0.0000000000000086
 20
-5.714622694101221
 30
0.0
 11
-1.995529386843738
 21
-0.0000000000000001
 31
0.0
210
0.0
220
0.0
230
1.0
 40
0.5773502691896259
 41
6.065315408120608
 42
9.642647859828358
  0
ELLIPSE
  5
1A41E
330
1A3C8
100
AcDbEntity
  8
0
100
AcDbEllipse
 10
0.0000000000000086
 20
-5.688327174195544
 30
0.0
 11
-1.857773468998885
 21
0.0000000000000001
 31
0.0
210
0.0
220
0.0
230
1.0
 40
0.5773502691896258
 41
0.1660734866401449
 42
2.975519166949648
  0
ELLIPSE
  5
1A41F
330
1A3C8
100
AcDbEntity
  8
0
100
AcDbEllipse
 10
0.0000000000000087
 20
-5.910808969853222
 30
0.0
 11
-2.144748748220875
 21
-0.0000000000000001
 31
0.0
210
0.0
220
0.0
230
1.0
 40
0.5773502691896258
 41
0.1660734866401457
 42
2.975519166949648
  0
ELLIPSE
  5
1A420
330
1A3C8
100
AcDbEntity
  8
0
100
AcDbEllipse
 10
0.0000000000000084
 20
-4.489877822709633
 30
0.0
 11
-1.995529386843738
 21
-0.0000000000000001
 31
0.0
210
0.0
220
0.0
230
1.0
 40
0.5773502691896259
 41
6.065315408120607
 42
9.642647859828356
  0
ELLIPSE
  5
1A421
330
1A3C8
100
AcDbEntity
  8
0
100
AcDbEllipse
 10
0.0000000000000084
 20
-4.463582302803947
 30
0.0
 11
-1.857773468998885
 21
0.0000000000000001
 31
0.0
210
0.0
220
0.0
230
1.0
 40
0.5773502691896258
 41
0.1660734866401449
 42
2.975519166949648
  0
ELLIPSE
  5
1A422
330
1A3C8
100
AcDbEntity
  8
0
100
AcDbEllipse
 10
0.0000000000000084
 20
-4.686064098461635
 30
0.0
 11
-2.144748748220875
 21
-0.0000000000000001
 31
0.0
210
0.0
220
0.0
230
1.0
 40
0.5773502691896258
 41
0.1660734866401457
 42
2.975519166949648
  0
ELLIPSE
  5
1A423
330
1A3C8
100
AcDbEntity
  8
0
100
AcDbEllipse
 10
0.0000000000000082
 20
-3.265132951318037
 30
0.0
 11
-1.995529386843738
 21
-0.0000000000000002
 31
0.0
210
0.0
220
0.0
230
1.0
 40
0.577350269189626
 41
6.065315408120609
 42
9.642647859828354
  0
ELLIPSE
  5
1A424
330
1A3C8
100
AcDbEntity
  8
0
100
AcDbEllipse
 10
0.0000000000000082
 20
-3.23883743141236
 30
0.0
 11
-1.857773468998887
 21
0.0000000000000003
 31
0.0
210
0.0
220
0.0
230
1.0
 40
0.5773502691896258
 41
0.1660734866401461
 42
2.975519166949649
  0
ELLIPSE
  5
1A425
330
1A3C8
100
AcDbEntity
  8
0
100
AcDbEllipse
 10
0.0000000000000082
 20
-3.461319227070038
 30
0.0
 11
-2.144748748220875
 21
-0.0000000000000001
 31
0.0
210
0.0
220
0.0
230
1.0
 40
0.5773502691896258
 41
0.1660734866401457
 42
2.975519166949648
  0
ELLIPSE
  5
1A426
330
1A3C8
100
AcDbEntity
  8
0
100
AcDbEllipse
 10
0.0000000000000079
 20
-2.040388079926458
 30
0.0
 11
-1.995529386843738
 21
-0.0000000000000002
 31
0.0
210
0.0
220
0.0
230
1.0
 40
0.577350269189626
 41
6.06531540812061
 42
9.642647859828354
  0
ELLIPSE
  5
1A427
330
1A3C8
100
AcDbEntity
  8
0
100
AcDbEllipse
 10
0.0000000000000079
 20
-2.014092560020772
 30
0.0
 11
-1.857773468998887
 21
0.0000000000000003
 31
0.0
210
0.0
220
0.0
230
1.0
 40
0.5773502691896258
 41
0.1660734866401458
 42
2.975519166949648
  0
ELLIPSE
  5
1A428
330
1A3C8
100
AcDbEntity
  8
0
100
AcDbEllipse
 10
0.000000000000008
 20
-2.23657435567846
 30
0.0
 11
-2.144748748220875
 21
-0.0000000000000001
 31
0.0
210
0.0
220
0.0
230
1.0
 40
0.5773502691896258
 41
0.1660734866401455
 42
2.975519166949648
  0
ELLIPSE
  5
1A429
330
1A3C8
100
AcDbEntity
  8
0
100
AcDbEllipse
 10
0.0000000000000077
 20
-0.8156432085348708
 30
0.0
 11
-1.995529386843738
 21
-0.0000000000000001
 31
0.0
210
0.0
220
0.0
230
1.0
 40
0.5773502691896259
 41
6.065315408120608
 42
9.642647859828358
  0
ELLIPSE
  5
1A42A
330
1A3C8
100
AcDbEntity
  8
0
100
AcDbEllipse
 10
0.0000000000000077
 20
-0.7893476886291939
 30
0.0
 11
-1.857773468998885
 21
0.0000000000000001
 31
0.0
210
0.0
220
0.0
230
1.0
 40
0.5773502691896258
 41
0.1660734866401452
 42
2.975519166949648
  0
ELLIPSE
  5
1A42B
330
1A3C8
100
AcDbEntity
  8
0
100
AcDbEllipse
 10
0.0000000000000077
 20
-1.011829484286872
 30
0.0
 11
-2.144748748220875
 21
-0.0000000000000001
 31
0.0
210
0.0
220
0.0
230
1.0
 40
0.5773502691896258
 41
0.1660734866401455
 42
2.975519166949648
  0
ELLIPSE
  5
1A42C
330
1A3C8
100
AcDbEntity
  8
0
100
AcDbEllipse
 10
0.0000000000000075
 20
0.4091016628567168
 30
0.0
 11
-1.995529386843738
 21
-0.0000000000000001
 31
0.0
210
0.0
220
0.0
230
1.0
 40
0.5773502691896259
 41
6.065315408120608
 42
9.642647859828358
  0
ELLIPSE
  5
1A42D
330
1A3C8
100
AcDbEntity
  8
0
100
AcDbEllipse
 10
0.0000000000000075
 20
0.4353971827623982
 30
0.0
 11
-1.857773468998885
 21
0.0000000000000001
 31
0.0
210
0.0
220
0.0
230
1.0
 40
0.5773502691896258
 41
0.1660734866401452
 42
2.975519166949648
  0
ELLIPSE
  5
1A42E
330
1A3C8
100
AcDbEntity
  8
0
100
AcDbEllipse
 10
0.0000000000000075
 20
0.2129153871047151
 30
0.0
 11
-2.144748748220875
 21
-0.0000000000000001
 31
0.0
210
0.0
220
0.0
230
1.0
 40
0.5773502691896258
 41
0.1660734866401456
 42
2.975519166949648
  0
ELLIPSE
  5
1A42F
330
1A3C8
100
AcDbEntity
  8
0
100
AcDbEllipse
 10
0.0000000000000072
 20
1.633846534248308
 30
0.0
 11
-1.995529386843738
 21
-0.0000000000000001
 31
0.0
210
0.0
220
0.0
230
1.0
 40
0.5773502691896259
 41
6.065315408120608
 42
9.642647859828358
  0
ELLIPSE
  5
1A430
330
1A3C8
100
AcDbEntity
  8
0
100
AcDbEllipse
 10
0.0000000000000072
 20
1.66014205415399
 30
0.0
 11
-1.857773468998885
 21
0.0000000000000001
 31
0.0
210
0.0
220
0.0
230
1.0
 40
0.5773502691896258
 41
0.1660734866401452
 42
2.975519166949648
  0
ELLIPSE
  5
1A431
330
1A3C8
100
AcDbEntity
  8
0
100
AcDbEllipse
 10
0.0000000000000073
 20
1.437660258496307
 30
0.0
 11
-2.144748748220875
 21
-0.0000000000000001
 31
0.0
210
0.0
220
0.0
230
1.0
 40
0.5773502691896258
 41
0.1660734866401455
 42
2.975519166949648
  0
ELLIPSE
  5
1A432
330
1A3C8
100
AcDbEntity
  8
0
100
AcDbEllipse
 10
0.000000000000007
 20
2.8585914056399
 30
0.0
 11
-1.995529386843738
 21
-0.0000000000000002
 31
0.0
210
0.0
220
0.0
230
1.0
 40
0.577350269189626
 41
6.065315408120609
 42
9.642647859828354
  0
ELLIPSE
  5
1A433
330
1A3C8
100
AcDbEntity
  8
0
100
AcDbEllipse
 10
0.000000000000007
 20
2.884886925545582
 30
0.0
 11
-1.857773468998887
 21
0.0000000000000003
 31
0.0
210
0.0
220
0.0
230
1.0
 40
0.5773502691896258
 41
0.1660734866401461
 42
2.975519166949649
  0
ELLIPSE
  5
1A434
330
1A3C8
100
AcDbEntity
  8
0
100
AcDbEllipse
 10
0.000000000000007
 20
2.662405129887899
 30
0.0
 11
-2.144748748220875
 21
-0.0000000000000001
 31
0.0
210
0.0
220
0.0
230
1.0
 40
0.5773502691896258
 41
0.1660734866401455
 42
2.975519166949648
  0
ELLIPSE
  5
1A435
330
1A3C8
100
AcDbEntity
  8
0
100
AcDbEllipse
 10
0.0000000000000068
 20
4.083336277031484
 30
0.0
 11
-1.995529386843738
 21
-0.0000000000000001
 31
0.0
210
0.0
220
0.0
230
1.0
 40
0.5773502691896259
 41
6.065315408120607
 42
9.642647859828356
  0
ELLIPSE
  5
1A436
330
1A3C8
100
AcDbEntity
  8
0
100
AcDbEllipse
 10
0.0000000000000067
 20
4.109631796937165
 30
0.0
 11
-1.857773468998885
 21
0.0000000000000001
 31
0.0
210
0.0
220
0.0
230
1.0
 40
0.5773502691896258
 41
0.1660734866401449
 42
2.975519166949648
  0
ELLIPSE
  5
1A437
330
1A3C8
100
AcDbEntity
  8
0
100
AcDbEllipse
 10
0.0000000000000068
 20
3.887150001279486
 30
0.0
 11
-2.144748748220875
 21
-0.0000000000000001
 31
0.0
210
0.0
220
0.0
230
1.0
 40
0.5773502691896258
 41
0.1660734866401457
 42
2.975519166949648
  0
ELLIPSE
  5
1A438
330
1A3C8
100
AcDbEntity
  8
0
100
AcDbEllipse
 10
0.0000000000000065
 20
5.308081148423076
 30
0.0
 11
-1.995529386843738
 21
-0.0000000000000001
 31
0.0
210
0.0
220
0.0
230
1.0
 40
0.5773502691896259
 41
6.065315408120608
 42
9.642647859828358
  0
ELLIPSE
  5
1A439
330
1A3C8
100
AcDbEntity
  8
0
100
AcDbEllipse
 10
0.0000000000000065
 20
5.334376668328757
 30
0.0
 11
-1.857773468998886
 21
0.0000000000000001
 31
0.0
210
0.0
220
0.0
230
1.0
 40
0.5773502691896258
 41
0.1660734866401448
 42
2.975519166949648
  0
ELLIPSE
  5
1A43A
330
1A3C8
100
AcDbEntity
  8
0
100
AcDbEllipse
 10
0.0000000000000066
 20
5.111894872671074
 30
0.0
 11
-2.144748748220875
 21
-0.0000000000000001
 31
0.0
210
0.0
220
0.0
230
1.0
 40
0.5773502691896258
 41
0.1660734866401457
 42
2.975519166949648
  0
ELLIPSE
  5
1A43B
330
1A3C8
100
AcDbEntity
  8
0
100
AcDbEllipse
 10
0.0000000000000063
 20
6.532826019814668
 30
0.0
 11
-1.995529386843738
 21
-0.0000000000000001
 31
0.0
210
0.0
220
0.0
230
1.0
 40
0.577350269189626
 41
6.065315408120609
 42
9.642647859828354
  0
ELLIPSE
  5
1A43C
330
1A3C8
100
AcDbEntity
  8
0
100
AcDbEllipse
 10
0.0000000000000063
 20
6.559121539720349
 30
0.0
 11
-1.857773468998886
 21
0.0000000000000001
 31
0.0
210
0.0
220
0.0
230
1.0
 40
0.5773502691896258
 41
0.1660734866401448
 42
2.975519166949647
  0
ELLIPSE
  5
1A43D
330
1A3C8
100
AcDbEntity
  8
0
100
AcDbEllipse
 10
0.0000000000000063
 20
6.336639744062666
 30
0.0
 11
-2.144748748220875
 21
-0.0000000000000001
 31
0.0
210
0.0
220
0.0
230
1.0
 40
0.5773502691896258
 41
0.1660734866401457
 42
2.975519166949648
  0
ELLIPSE
  5
1A43E
330
1A3C8
100
AcDbEntity
  8
0
100
AcDbEllipse
 10
0.0000000000000061
 20
7.561384615454258
 30
0.0
 11
-2.144748748220875
 21
-0.0000000000000001
 31
0.0
210
0.0
220
0.0
230
1.0
 40
0.5773502691896258
 41
0.1660734866401457
 42
2.975519166949648
  0
SPLINE
  5
1A43F
330
1A3C8
100
AcDbEntity
  8
0
100
AcDbSpline
210
0.0
220
0.0
230
1.0
 70
     8
 71
     3
 72
    10
 73
     6
 74
     0
 42
0.000000001
 43
0.0000000001
 40
0.6193246767572543
 40
0.6193246767572543
 40
0.6193246767572543
 40
0.6193246767572543
 40
0.9009146851058806
 40
0.9009146851058806
 40
1.158311097701252
 40
1.158311097701252
 40
1.158311097701252
 40
1.158311097701252
 10
2.115240146078484
 20
-30.61040643628889
 30
0.0
 10
2.154093366696738
 20
-30.47657827058735
 30
0.0
 10
2.160420504812764
 20
-30.33538436407953
 30
0.0
 10
2.108094793918021
 20
-30.07502535041911
 30
0.0
 10
2.055675741813285
 20
-29.95556555679229
 30
0.0
 10
1.981545664902069
 20
-29.84616617418179
 30
0.0
  0
SPLINE
  5
1A440
330
1A3C8
100
AcDbEntity
  8
0
100
AcDbSpline
210
0.0
220
0.0
230
1.0
 70
     8
 71
     3
 72
    12
 73
     8
 74
     0
 42
0.000000001
 43
0.0000000001
 40
3.554077882683437
 40
3.554077882683437
 40
3.554077882683437
 40
3.554077882683437
 40
3.809460694484215
 40
3.809460694484215
 40
4.086485013603741
 40
4.086485013603741
 40
4.093064303627436
 40
4.093064303627436
 40
4.093064303627436
 40
4.093064303627436
 10
-1.981545664902042
 20
-29.84616617418183
 30
0.0
 10
-2.055095825487826
 20
-29.95470973024237
 30
0.0
 10
-2.107276447314206
 20
-30.07314808563949
 30
0.0
 10
-2.159843988207864
 20
-30.33018866439734
 30
0.0
 10
-2.154682823041934
 20
-30.46903841403276
 30
0.0
 10
-2.117038536649416
 20
-30.60414886845074
 30
0.0
 10
-2.116147943227586
 20
-30.60727956996059
 30
0.0
 10
-2.115240146078457
 20
-30.61040643628889
 30
0.0
  0
LINE
  5
1A441
330
1A3C8
100
AcDbEntity
  8
0
100
AcDbLine
 10
-1.824546709021807
 20
-31.61168686668111
 30
0.0
 11
-2.115240146078397
 21
-30.61040643628881
 31
0.0
  0
LINE
  5
1A442
330
1A3C8
100
AcDbEntity
  8
0
100
AcDbLine
 10
1.824546709021834
 20
-31.61168686668111
 30
0.0
 11
2.115240146078424
 21
-30.61040643628881
 31
0.0
  0
SPLINE
  5
1A443
330
1A3C8
100
AcDbEntity
  8
0
100
AcDbSpline
210
0.0
220
0.0
230
1.0
 70
     8
 71
     3
 72
    10
 73
     6
 74
     0
 42
0.000000001
 43
0.0000000001
 40
0.6193246767572543
 40
0.6193246767572543
 40
0.6193246767572543
 40
0.6193246767572543
 40
0.9009146851058806
 40
0.9009146851058806
 40
1.158311097701252
 40
1.158311097701252
 40
1.158311097701252
 40
1.158311097701252
 10
2.115240146078484
 20
-29.38566156489731
 30
0.0
 10
2.154093366696737
 20
-29.25183339919576
 30
0.0
 10
2.160420504812764
 20
-29.11063949268795
 30
0.0
 10
2.108094793918021
 20
-28.85028047902752
 30
0.0
 10
2.055675741813284
 20
-28.7308206854007
 30
0.0
 10
1.981545664902069
 20
-28.62142130279021
 30
0.0
  0
SPLINE
  5
1A444
330
1A3C8
100
AcDbEntity
  8
0
100
AcDbSpline
210
0.0
220
0.0
230
1.0
 70
     8
 71
     3
 72
    12
 73
     8
 74
     0
 42
0.000000001
 43
0.0000000001
 40
3.554077882683437
 40
3.554077882683437
 40
3.554077882683437
 40
3.554077882683437
 40
3.809460694484215
 40
3.809460694484215
 40
4.086485013603741
 40
4.086485013603741
 40
4.093064303627436
 40
4.093064303627436
 40
4.093064303627436
 40
4.093064303627436
 10
-1.981545664902043
 20
-28.62142130279023
 30
0.0
 10
-2.055095825487826
 20
-28.72996485885078
 30
0.0
 10
-2.107276447314206
 20
-28.84840321424789
 30
0.0
 10
-2.159843988207864
 20
-29.10544379300575
 30
0.0
 10
-2.154682823041934
 20
-29.24429354264117
 30
0.0
 10
-2.117038536649416
 20
-29.37940399705915
 30
0.0
 10
-2.116147943227586
 20
-29.38253469856901
 30
0.0
 10
-2.115240146078457
 20
-29.38566156489731
 30
0.0
  0
LINE
  5
1A445
330
1A3C8
100
AcDbEntity
  8
0
100
AcDbLine
 10
-1.832213226470231
 20
-30.36053502178474
 30
0.0
 11
-2.115240146078393
 21
-29.38566156489724
 31
0.0
  0
LINE
  5
1A446
330
1A3C8
100
AcDbEntity
  8
0
100
AcDbLine
 10
1.832213226470258
 20
-30.36053502178474
 30
0.0
 11
2.11524014607842
 21
-29.38566156489724
 31
0.0
  0
SPLINE
  5
1A447
330
1A3C8
100
AcDbEntity
  8
0
100
AcDbSpline
210
0.0
220
0.0
230
1.0
 70
     8
 71
     3
 72
    10
 73
     6
 74
     0
 42
0.000000001
 43
0.0000000001
 40
0.6193246767572543
 40
0.6193246767572543
 40
0.6193246767572543
 40
0.6193246767572543
 40
0.9009146851058806
 40
0.9009146851058806
 40
1.158311097701255
 40
1.158311097701255
 40
1.158311097701255
 40
1.158311097701255
 10
2.115240146078484
 20
-28.16091669350573
 30
0.0
 10
2.154093366696737
 20
-28.02708852780418
 30
0.0
 10
2.160420504812764
 20
-27.88589462129637
 30
0.0
 10
2.108094793918021
 20
-27.62553560763593
 30
0.0
 10
2.055675741813283
 20
-27.50607581400912
 30
0.0
 10
1.981545664902066
 20
-27.39667643139863
 30
0.0
  0
SPLINE
  5
1A448
330
1A3C8
100
AcDbEntity
  8
0
100
AcDbSpline
210
0.0
220
0.0
230
1.0
 70
     8
 71
     3
 72
    12
 73
     8
 74
     0
 42
0.000000001
 43
0.0000000001
 40
3.554077882683434
 40
3.554077882683434
 40
3.554077882683434
 40
3.554077882683434
 40
3.809460694484215
 40
3.809460694484215
 40
4.086485013603741
 40
4.086485013603741
 40
4.093064303627436
 40
4.093064303627436
 40
4.093064303627436
 40
4.093064303627436
 10
-1.98154566490204
 20
-27.39667643139865
 30
0.0
 10
-2.055095825487825
 20
-27.50521998745919
 30
0.0
 10
-2.107276447314206
 20
-27.62365834285632
 30
0.0
 10
-2.159843988207864
 20
-27.88069892161417
 30
0.0
 10
-2.154682823041934
 20
-28.01954867124959
 30
0.0
 10
-2.117038536649416
 20
-28.15465912566757
 30
0.0
 10
-2.116147943227586
 20
-28.15778982717743
 30
0.0
 10
-2.115240146078458
 20
-28.16091669350573
 30
0.0
  0
LINE
  5
1A449
330
1A3C8
100
AcDbEntity
  8
0
100
AcDbLine
 10
-1.832213226470235
 20
-29.13579015039314
 30
0.0
 11
-2.115240146078393
 21
-28.16091669350564
 31
0.0
  0
LINE
  5
1A44A
330
1A3C8
100
AcDbEntity
  8
0
100
AcDbLine
 10
1.832213226470262
 20
-29.13579015039314
 30
0.0
 11
2.115240146078419
 21
-28.16091669350564
 31
0.0
  0
SPLINE
  5
1A44B
330
1A3C8
100
AcDbEntity
  8
0
100
AcDbSpline
210
0.0
220
0.0
230
1.0
 70
     8
 71
     3
 72
    10
 73
     6
 74
     0
 42
0.000000001
 43
0.0000000001
 40
0.6193246767572543
 40
0.6193246767572543
 40
0.6193246767572543
 40
0.6193246767572543
 40
0.9009146851058806
 40
0.9009146851058806
 40
1.158311097701248
 40
1.158311097701248
 40
1.158311097701248
 40
1.158311097701248
 10
2.115240146078483
 20
-26.93617182211412
 30
0.0
 10
2.154093366696737
 20
-26.80234365641258
 30
0.0
 10
2.160420504812763
 20
-26.66114974990476
 30
0.0
 10
2.108094793918021
 20
-26.40079073624434
 30
0.0
 10
2.055675741813285
 20
-26.28133094261752
 30
0.0
 10
1.981545664902071
 20
-26.17193156000703
 30
0.0
  0
SPLINE
  5
1A44C
330
1A3C8
100
AcDbEntity
  8
0
100
AcDbSpline
210
0.0
220
0.0
230
1.0
 70
     8
 71
     3
 72
    12
 73
     8
 74
     0
 42
0.000000001
 43
0.0000000001
 40
3.554077882683441
 40
3.554077882683441
 40
3.554077882683441
 40
3.554077882683441
 40
3.809460694484215
 40
3.809460694484215
 40
4.086485013603741
 40
4.086485013603741
 40
4.093064303627436
 40
4.093064303627436
 40
4.093064303627436
 40
4.093064303627436
 10
-1.981545664902046
 20
-26.17193156000703
 30
0.0
 10
-2.055095825487827
 20
-26.28047511606759
 30
0.0
 10
-2.107276447314207
 20
-26.39891347146471
 30
0.0
 10
-2.159843988207864
 20
-26.65595405022256
 30
0.0
 10
-2.154682823041934
 20
-26.79480379985798
 30
0.0
 10
-2.117038536649417
 20
-26.92991425427596
 30
0.0
 10
-2.116147943227586
 20
-26.93304495578582
 30
0.0
 10
-2.115240146078458
 20
-26.93617182211412
 30
0.0
  0
LINE
  5
1A44D
330
1A3C8
100
AcDbEntity
  8
0
100
AcDbLine
 10
-1.832213226470232
 20
-27.91104527900156
 30
0.0
 11
-2.115240146078394
 21
-26.93617182211406
 31
0.0
  0
LINE
  5
1A44E
330
1A3C8
100
AcDbEntity
  8
0
100
AcDbLine
 10
1.832213226470257
 20
-27.91104527900156
 30
0.0
 11
2.115240146078419
 21
-26.93617182211406
 31
0.0
  0
SPLINE
  5
1A44F
330
1A3C8
100
AcDbEntity
  8
0
100
AcDbSpline
210
0.0
220
0.0
230
1.0
 70
     8
 71
     3
 72
    10
 73
     6
 74
     0
 42
0.000000001
 43
0.0000000001
 40
0.6193246767572543
 40
0.6193246767572543
 40
0.6193246767572543
 40
0.6193246767572543
 40
0.9009146851058806
 40
0.9009146851058806
 40
1.158311097701254
 40
1.158311097701254
 40
1.158311097701254
 40
1.158311097701254
 10
2.115240146078483
 20
-25.71142695072254
 30
0.0
 10
2.154093366696737
 20
-25.577598785021
 30
0.0
 10
2.160420504812763
 20
-25.43640487851317
 30
0.0
 10
2.10809479391802
 20
-25.17604586485276
 30
0.0
 10
2.055675741813283
 20
-25.05658607122593
 30
0.0
 10
1.981545664902067
 20
-24.94718668861545
 30
0.0
  0
SPLINE
  5
1A450
330
1A3C8
100
AcDbEntity
  8
0
100
AcDbSpline
210
0.0
220
0.0
230
1.0
 70
     8
 71
     3
 72
    12
 73
     8
 74
     0
 42
0.000000001
 43
0.0000000001
 40
3.554077882683436
 40
3.554077882683436
 40
3.554077882683436
 40
3.554077882683436
 40
3.809460694484215
 40
3.809460694484215
 40
4.086485013603741
 40
4.086485013603741
 40
4.093064303627436
 40
4.093064303627436
 40
4.093064303627436
 40
4.093064303627436
 10
-1.981545664902042
 20
-24.94718668861545
 30
0.0
 10
-2.055095825487826
 20
-25.05573024467601
 30
0.0
 10
-2.107276447314207
 20
-25.17416860007314
 30
0.0
 10
-2.159843988207865
 20
-25.43120917883098
 30
0.0
 10
-2.154682823041935
 20
-25.5700589284664
 30
0.0
 10
-2.117038536649417
 20
-25.70516938288439
 30
0.0
 10
-2.116147943227587
 20
-25.70830008439425
 30
0.0
 10
-2.115240146078458
 20
-25.71142695072254
 30
0.0
  0
LINE
  5
1A451
330
1A3C8
100
AcDbEntity
  8
0
100
AcDbLine
 10
-1.83221322647024
 20
-26.68630040760995
 30
0.0
 11
-2.115240146078398
 21
-25.71142695072246
 31
0.0
  0
LINE
  5
1A452
330
1A3C8
100
AcDbEntity
  8
0
100
AcDbLine
 10
1.832213226470265
 20
-26.68630040760995
 30
0.0
 11
2.115240146078423
 21
-25.71142695072246
 31
0.0
  0
SPLINE
  5
1A453
330
1A3C8
100
AcDbEntity
  8
0
100
AcDbSpline
210
0.0
220
0.0
230
1.0
 70
     8
 71
     3
 72
    10
 73
     6
 74
     0
 42
0.000000001
 43
0.0000000001
 40
0.6193246767572543
 40
0.6193246767572543
 40
0.6193246767572543
 40
0.6193246767572543
 40
0.9009146851058806
 40
0.9009146851058806
 40
1.158311097701253
 40
1.158311097701253
 40
1.158311097701253
 40
1.158311097701253
 10
2.115240146078483
 20
-24.48668207933094
 30
0.0
 10
2.154093366696737
 20
-24.35285391362941
 30
0.0
 10
2.160420504812763
 20
-24.21166000712158
 30
0.0
 10
2.10809479391802
 20
-23.95130099346117
 30
0.0
 10
2.055675741813283
 20
-23.83184119983434
 30
0.0
 10
1.981545664902066
 20
-23.72244181722386
 30
0.0
  0
SPLINE
  5
1A454
330
1A3C8
100
AcDbEntity
  8
0
100
AcDbSpline
210
0.0
220
0.0
230
1.0
 70
     8
 71
     3
 72
    12
 73
     8
 74
     0
 42
0.000000001
 43
0.0000000001
 40
3.554077882683436
 40
3.554077882683436
 40
3.554077882683436
 40
3.554077882683436
 40
3.809460694484215
 40
3.809460694484215
 40
4.086485013603741
 40
4.086485013603741
 40
4.093064303627436
 40
4.093064303627436
 40
4.093064303627436
 40
4.093064303627436
 10
-1.981545664902042
 20
-23.72244181722387
 30
0.0
 10
-2.055095825487827
 20
-23.83098537328443
 30
0.0
 10
-2.107276447314207
 20
-23.94942372868154
 30
0.0
 10
-2.159843988207865
 20
-24.20646430743939
 30
0.0
 10
-2.154682823041935
 20
-24.34531405707482
 30
0.0
 10
-2.117038536649417
 20
-24.4804245114928
 30
0.0
 10
-2.116147943227587
 20
-24.48355521300265
 30
0.0
 10
-2.115240146078458
 20
-24.48668207933094
 30
0.0
  0
LINE
  5
1A455
330
1A3C8
100
AcDbEntity
  8
0
100
AcDbLine
 10
-1.832213226470236
 20
-25.46155553621837
 30
0.0
 11
-2.115240146078398
 21
-24.48668207933087
 31
0.0
  0
LINE
  5
1A456
330
1A3C8
100
AcDbEntity
  8
0
100
AcDbLine
 10
1.832213226470261
 20
-25.46155553621837
 30
0.0
 11
2.115240146078422
 21
-24.48668207933087
 31
0.0
  0
SPLINE
  5
1A457
330
1A3C8
100
AcDbEntity
  8
0
100
AcDbSpline
210
0.0
220
0.0
230
1.0
 70
     8
 71
     3
 72
    10
 73
     6
 74
     0
 42
0.000000001
 43
0.0000000001
 40
0.6193246767572543
 40
0.6193246767572543
 40
0.6193246767572543
 40
0.6193246767572543
 40
0.9009146851058806
 40
0.9009146851058806
 40
1.158311097701252
 40
1.158311097701252
 40
1.158311097701252
 40
1.158311097701252
 10
2.115240146078483
 20
-23.26193720793936
 30
0.0
 10
2.154093366696737
 20
-23.12810904223781
 30
0.0
 10
2.160420504812763
 20
-22.98691513572999
 30
0.0
 10
2.10809479391802
 20
-22.72655612206957
 30
0.0
 10
2.055675741813283
 20
-22.60709632844275
 30
0.0
 10
1.981545664902068
 20
-22.49769694583227
 30
0.0
  0
SPLINE
  5
1A458
330
1A3C8
100
AcDbEntity
  8
0
100
AcDbSpline
210
0.0
220
0.0
230
1.0
 70
     8
 71
     3
 72
    12
 73
     8
 74
     0
 42
0.000000001
 43
0.0000000001
 40
3.554077882683437
 40
3.554077882683437
 40
3.554077882683437
 40
3.554077882683437
 40
3.809460694484215
 40
3.809460694484215
 40
4.086485013603741
 40
4.086485013603741
 40
4.093064303627436
 40
4.093064303627436
 40
4.093064303627436
 40
4.093064303627436
 10
-1.981545664902044
 20
-22.49769694583227
 30
0.0
 10
-2.055095825487827
 20
-22.60624050189283
 30
0.0
 10
-2.107276447314208
 20
-22.72467885728996
 30
0.0
 10
-2.159843988207865
 20
-22.98171943604779
 30
0.0
 10
-2.154682823041935
 20
-23.12056918568322
 30
0.0
 10
-2.117038536649417
 20
-23.25567964010121
 30
0.0
 10
-2.116147943227588
 20
-23.25881034161107
 30
0.0
 10
-2.115240146078459
 20
-23.26193720793936
 30
0.0
  0
LINE
  5
1A459
330
1A3C8
100
AcDbEntity
  8
0
100
AcDbLine
 10
-1.832213226470236
 20
-24.23681066482677
 30
0.0
 11
-2.115240146078398
 21
-23.26193720793928
 31
0.0
  0
LINE
  5
1A45A
330
1A3C8
100
AcDbEntity
  8
0
100
AcDbLine
 10
1.83221322647026
 20
-24.23681066482677
 30
0.0
 11
2.115240146078422
 21
-23.26193720793928
 31
0.0
  0
SPLINE
  5
1A45B
330
1A3C8
100
AcDbEntity
  8
0
100
AcDbSpline
210
0.0
220
0.0
230
1.0
 70
     8
 71
     3
 72
    10
 73
     6
 74
     0
 42
0.000000001
 43
0.0000000001
 40
0.6193246767572543
 40
0.6193246767572543
 40
0.6193246767572543
 40
0.6193246767572543
 40
0.9009146851058806
 40
0.9009146851058806
 40
1.158311097701252
 40
1.158311097701252
 40
1.158311097701252
 40
1.158311097701252
 10
2.115240146078483
 20
-22.03719233654777
 30
0.0
 10
2.154093366696736
 20
-21.90336417084623
 30
0.0
 10
2.160420504812763
 20
-21.76217026433841
 30
0.0
 10
2.10809479391802
 20
-21.501811250678
 30
0.0
 10
2.055675741813283
 20
-21.38235145705117
 30
0.0
 10
1.981545664902067
 20
-21.27295207444068
 30
0.0
  0
SPLINE
  5
1A45C
330
1A3C8
100
AcDbEntity
  8
0
100
AcDbSpline
210
0.0
220
0.0
230
1.0
 70
     8
 71
     3
 72
    12
 73
     8
 74
     0
 42
0.000000001
 43
0.0000000001
 40
3.554077882683437
 40
3.554077882683437
 40
3.554077882683437
 40
3.554077882683437
 40
3.809460694484215
 40
3.809460694484215
 40
4.086485013603741
 40
4.086485013603741
 40
4.093064303627436
 40
4.093064303627436
 40
4.093064303627436
 40
4.093064303627436
 10
-1.981545664902044
 20
-21.27295207444068
 30
0.0
 10
-2.055095825487827
 20
-21.38149563050125
 30
0.0
 10
-2.107276447314208
 20
-21.49993398589837
 30
0.0
 10
-2.159843988207866
 20
-21.75697456465621
 30
0.0
 10
-2.154682823041935
 20
-21.89582431429164
 30
0.0
 10
-2.117038536649417
 20
-22.03093476870962
 30
0.0
 10
-2.116147943227588
 20
-22.03406547021948
 30
0.0
 10
-2.115240146078459
 20
-22.03719233654777
 30
0.0
  0
LINE
  5
1A45D
330
1A3C8
100
AcDbEntity
  8
0
100
AcDbLine
 10
-1.832213226470237
 20
-23.01206579343519
 30
0.0
 11
-2.115240146078399
 21
-22.03719233654769
 31
0.0
  0
LINE
  5
1A45E
330
1A3C8
100
AcDbEntity
  8
0
100
AcDbLine
 10
1.83221322647026
 20
-23.01206579343519
 30
0.0
 11
2.115240146078422
 21
-22.03719233654769
 31
0.0
  0
SPLINE
  5
1A45F
330
1A3C8
100
AcDbEntity
  8
0
100
AcDbSpline
210
0.0
220
0.0
230
1.0
 70
     8
 71
     3
 72
    10
 73
     6
 74
     0
 42
0.000000001
 43
0.0000000001
 40
0.6193246767572543
 40
0.6193246767572543
 40
0.6193246767572543
 40
0.6193246767572543
 40
0.9009146851058806
 40
0.9009146851058806
 40
1.158311097701254
 40
1.158311097701254
 40
1.158311097701254
 40
1.158311097701254
 10
2.115240146078482
 20
-20.81244746515618
 30
0.0
 10
2.154093366696736
 20
-20.67861929945465
 30
0.0
 10
2.160420504812762
 20
-20.53742539294682
 30
0.0
 10
2.10809479391802
 20
-20.27706637928641
 30
0.0
 10
2.055675741813282
 20
-20.15760658565957
 30
0.0
 10
1.981545664902066
 20
-20.04820720304909
 30
0.0
  0
SPLINE
  5
1A460
330
1A3C8
100
AcDbEntity
  8
0
100
AcDbSpline
210
0.0
220
0.0
230
1.0
 70
     8
 71
     3
 72
    12
 73
     8
 74
     0
 42
0.000000001
 43
0.0000000001
 40
3.554077882683436
 40
3.554077882683436
 40
3.554077882683436
 40
3.554077882683436
 40
3.809460694484215
 40
3.809460694484215
 40
4.086485013603741
 40
4.086485013603741
 40
4.093064303627436
 40
4.093064303627436
 40
4.093064303627436
 40
4.093064303627436
 10
-1.981545664902043
 20
-20.04820720304909
 30
0.0
 10
-2.055095825487827
 20
-20.15675075910966
 30
0.0
 10
-2.107276447314208
 20
-20.27518911450678
 30
0.0
 10
-2.159843988207866
 20
-20.53222969326462
 30
0.0
 10
-2.154682823041936
 20
-20.67107944290005
 30
0.0
 10
-2.117038536649418
 20
-20.80618989731803
 30
0.0
 10
-2.116147943227588
 20
-20.80932059882789
 30
0.0
 10
-2.115240146078459
 20
-20.81244746515618
 30
0.0
  0
LINE
  5
1A461
330
1A3C8
100
AcDbEntity
  8
0
100
AcDbLine
 10
-1.832213226470239
 20
-21.7873209220436
 30
0.0
 11
-2.115240146078399
 21
-20.81244746515611
 31
0.0
  0
LINE
  5
1A462
330
1A3C8
100
AcDbEntity
  8
0
100
AcDbLine
 10
1.832213226470262
 20
-21.7873209220436
 30
0.0
 11
2.115240146078422
 21
-20.81244746515611
 31
0.0
  0
SPLINE
  5
1A463
330
1A3C8
100
AcDbEntity
  8
0
100
AcDbSpline
210
0.0
220
0.0
230
1.0
 70
     8
 71
     3
 72
    10
 73
     6
 74
     0
 42
0.000000001
 43
0.0000000001
 40
0.6193246767572543
 40
0.6193246767572543
 40
0.6193246767572543
 40
0.6193246767572543
 40
0.9009146851058806
 40
0.9009146851058806
 40
1.158311097701254
 40
1.158311097701254
 40
1.158311097701254
 40
1.158311097701254
 10
2.115240146078482
 20
-19.58770259376459
 30
0.0
 10
2.154093366696736
 20
-19.45387442806304
 30
0.0
 10
2.160420504812762
 20
-19.31268052155523
 30
0.0
 10
2.108094793918019
 20
-19.05232150789481
 30
0.0
 10
2.055675741813282
 20
-18.93286171426798
 30
0.0
 10
1.981545664902065
 20
-18.82346233165751
 30
0.0
  0
SPLINE
  5
1A464
330
1A3C8
100
AcDbEntity
  8
0
100
AcDbSpline
210
0.0
220
0.0
230
1.0
 70
     8
 71
     3
 72
    12
 73
     8
 74
     0
 42
0.000000001
 43
0.0000000001
 40
3.554077882683436
 40
3.554077882683436
 40
3.554077882683436
 40
3.554077882683436
 40
3.809460694484215
 40
3.809460694484215
 40
4.086485013603741
 40
4.086485013603741
 40
4.093064303627436
 40
4.093064303627436
 40
4.093064303627436
 40
4.093064303627436
 10
-1.981545664902043
 20
-18.82346233165751
 30
0.0
 10
-2.055095825487827
 20
-18.93200588771808
 30
0.0
 10
-2.107276447314208
 20
-19.05044424311519
 30
0.0
 10
-2.159843988207866
 20
-19.30748482187304
 30
0.0
 10
-2.154682823041936
 20
-19.44633457150846
 30
0.0
 10
-2.117038536649418
 20
-19.58144502592645
 30
0.0
 10
-2.116147943227588
 20
-19.5845757274363
 30
0.0
 10
-2.115240146078459
 20
-19.58770259376459
 30
0.0
  0
LINE
  5
1A465
330
1A3C8
100
AcDbEntity
  8
0
100
AcDbLine
 10
-1.832213226470237
 20
-20.56257605065202
 30
0.0
 11
-2.115240146078399
 21
-19.58770259376451
 31
0.0
  0
LINE
  5
1A466
330
1A3C8
100
AcDbEntity
  8
0
100
AcDbLine
 10
1.83221322647026
 20
-20.56257605065202
 30
0.0
 11
2.115240146078422
 21
-19.58770259376451
 31
0.0
  0
SPLINE
  5
1A467
330
1A3C8
100
AcDbEntity
  8
0
100
AcDbSpline
210
0.0
220
0.0
230
1.0
 70
     8
 71
     3
 72
    10
 73
     6
 74
     0
 42
0.000000001
 43
0.0000000001
 40
0.6193246767572543
 40
0.6193246767572543
 40
0.6193246767572543
 40
0.6193246767572543
 40
0.9009146851058806
 40
0.9009146851058806
 40
1.158311097701253
 40
1.158311097701253
 40
1.158311097701253
 40
1.158311097701253
 10
2.115240146078481
 20
-18.36295772237299
 30
0.0
 10
2.154093366696736
 20
-18.22912955667146
 30
0.0
 10
2.160420504812762
 20
-18.08793565016364
 30
0.0
 10
2.108094793918019
 20
-17.82757663650322
 30
0.0
 10
2.055675741813282
 20
-17.70811684287639
 30
0.0
 10
1.981545664902065
 20
-17.59871746026592
 30
0.0
  0
SPLINE
  5
1A468
330
1A3C8
100
AcDbEntity
  8
0
100
AcDbSpline
210
0.0
220
0.0
230
1.0
 70
     8
 71
     3
 72
    12
 73
     8
 74
     0
 42
0.000000001
 43
0.0000000001
 40
3.554077882683436
 40
3.554077882683436
 40
3.554077882683436
 40
3.554077882683436
 40
3.809460694484215
 40
3.809460694484215
 40
4.086485013603741
 40
4.086485013603741
 40
4.093064303627436
 40
4.093064303627436
 40
4.093064303627436
 40
4.093064303627436
 10
-1.981545664902043
 20
-17.5987174602659
 30
0.0
 10
-2.055095825487827
 20
-17.70726101632648
 30
0.0
 10
-2.107276447314208
 20
-17.82569937172359
 30
0.0
 10
-2.159843988207867
 20
-18.08273995048145
 30
0.0
 10
-2.154682823041937
 20
-18.22158970011687
 30
0.0
 10
-2.117038536649418
 20
-18.35670015453485
 30
0.0
 10
-2.116147943227589
 20
-18.35983085604471
 30
0.0
 10
-2.11524014607846
 20
-18.36295772237299
 30
0.0
  0
LINE
  5
1A469
330
1A3C8
100
AcDbEntity
  8
0
100
AcDbLine
 10
-1.832213226470237
 20
-19.33783117926042
 30
0.0
 11
-2.1152401460784
 21
-18.36295772237292
 31
0.0
  0
LINE
  5
1A46A
330
1A3C8
100
AcDbEntity
  8
0
100
AcDbLine
 10
1.83221322647026
 20
-19.33783117926042
 30
0.0
 11
2.115240146078421
 21
-18.36295772237292
 31
0.0
  0
SPLINE
  5
1A46B
330
1A3C8
100
AcDbEntity
  8
0
100
AcDbSpline
210
0.0
220
0.0
230
1.0
 70
     8
 71
     3
 72
    10
 73
     6
 74
     0
 42
0.000000001
 43
0.0000000001
 40
0.6193246767572543
 40
0.6193246767572543
 40
0.6193246767572543
 40
0.6193246767572543
 40
0.9009146851058806
 40
0.9009146851058806
 40
1.158311097701252
 40
1.158311097701252
 40
1.158311097701252
 40
1.158311097701252
 10
2.115240146078481
 20
-17.13821285098141
 30
0.0
 10
2.154093366696735
 20
-17.00438468527986
 30
0.0
 10
2.160420504812762
 20
-16.86319077877204
 30
0.0
 10
2.108094793918019
 20
-16.60283176511162
 30
0.0
 10
2.055675741813282
 20
-16.4833719714848
 30
0.0
 10
1.981545664902066
 20
-16.37397258887432
 30
0.0
  0
SPLINE
  5
1A46C
330
1A3C8
100
AcDbEntity
  8
0
100
AcDbSpline
210
0.0
220
0.0
230
1.0
 70
     8
 71
     3
 72
    12
 73
     8
 74
     0
 42
0.000000001
 43
0.0000000001
 40
3.554077882683437
 40
3.554077882683437
 40
3.554077882683437
 40
3.554077882683437
 40
3.809460694484215
 40
3.809460694484215
 40
4.086485013603741
 40
4.086485013603741
 40
4.093064303627436
 40
4.093064303627436
 40
4.093064303627436
 40
4.093064303627436
 10
-1.981545664902045
 20
-16.37397258887432
 30
0.0
 10
-2.055095825487828
 20
-16.48251614493489
 30
0.0
 10
-2.107276447314209
 20
-16.60095450033201
 30
0.0
 10
-2.159843988207867
 20
-16.85799507908986
 30
0.0
 10
-2.154682823041937
 20
-16.99684482872528
 30
0.0
 10
-2.117038536649418
 20
-17.13195528314326
 30
0.0
 10
-2.116147943227589
 20
-17.13508598465312
 30
0.0
 10
-2.11524014607846
 20
-17.13821285098141
 30
0.0
  0
LINE
  5
1A46D
330
1A3C8
100
AcDbEntity
  8
0
100
AcDbLine
 10
-1.832213226470237
 20
-18.11308630786883
 30
0.0
 11
-2.1152401460784
 21
-17.13821285098133
 31
0.0
  0
LINE
  5
1A46E
330
1A3C8
100
AcDbEntity
  8
0
100
AcDbLine
 10
1.83221322647026
 20
-18.11308630786883
 30
0.0
 11
2.115240146078421
 21
-17.13821285098133
 31
0.0
  0
SPLINE
  5
1A46F
330
1A3C8
100
AcDbEntity
  8
0
100
AcDbSpline
210
0.0
220
0.0
230
1.0
 70
     8
 71
     3
 72
    10
 73
     6
 74
     0
 42
0.000000001
 43
0.0000000001
 40
0.6193246767572543
 40
0.6193246767572543
 40
0.6193246767572543
 40
0.6193246767572543
 40
0.9009146851058806
 40
0.9009146851058806
 40
1.158311097701252
 40
1.158311097701252
 40
1.158311097701252
 40
1.158311097701252
 10
2.115240146078481
 20
-15.91346797958982
 30
0.0
 10
2.154093366696735
 20
-15.77963981388828
 30
0.0
 10
2.160420504812762
 20
-15.63844590738046
 30
0.0
 10
2.108094793918018
 20
-15.37808689372005
 30
0.0
 10
2.055675741813281
 20
-15.25862710009322
 30
0.0
 10
1.981545664902066
 20
-15.14922771748273
 30
0.0
  0
SPLINE
  5
1A470
330
1A3C8
100
AcDbEntity
  8
0
100
AcDbSpline
210
0.0
220
0.0
230
1.0
 70
     8
 71
     3
 72
    12
 73
     8
 74
     0
 42
0.000000001
 43
0.0000000001
 40
3.554077882683437
 40
3.554077882683437
 40
3.554077882683437
 40
3.554077882683437
 40
3.809460694484215
 40
3.809460694484215
 40
4.086485013603741
 40
4.086485013603741
 40
4.093064303627436
 40
4.093064303627436
 40
4.093064303627436
 40
4.093064303627436
 10
-1.981545664902045
 20
-15.14922771748273
 30
0.0
 10
-2.055095825487828
 20
-15.2577712735433
 30
0.0
 10
-2.107276447314209
 20
-15.37620962894042
 30
0.0
 10
-2.159843988207867
 20
-15.63325020769827
 30
0.0
 10
-2.154682823041937
 20
-15.77209995733369
 30
0.0
 10
-2.117038536649419
 20
-15.90721041175167
 30
0.0
 10
-2.116147943227589
 20
-15.91034111326153
 30
0.0
 10
-2.11524014607846
 20
-15.91346797958982
 30
0.0
  0
LINE
  5
1A471
330
1A3C8
100
AcDbEntity
  8
0
100
AcDbLine
 10
-1.832213226470238
 20
-16.88834143647724
 30
0.0
 11
-2.1152401460784
 21
-15.91346797958975
 31
0.0
  0
LINE
  5
1A472
330
1A3C8
100
AcDbEntity
  8
0
100
AcDbLine
 10
1.832213226470259
 20
-16.88834143647724
 30
0.0
 11
2.11524014607842
 21
-15.91346797958975
 31
0.0
  0
SPLINE
  5
1A473
330
1A3C8
100
AcDbEntity
  8
0
100
AcDbSpline
210
0.0
220
0.0
230
1.0
 70
     8
 71
     3
 72
    10
 73
     6
 74
     0
 42
0.000000001
 43
0.0000000001
 40
0.6193246767572543
 40
0.6193246767572543
 40
0.6193246767572543
 40
0.6193246767572543
 40
0.9009146851058806
 40
0.9009146851058806
 40
1.158311097701254
 40
1.158311097701254
 40
1.158311097701254
 40
1.158311097701254
 10
2.115240146078481
 20
-14.68872310819824
 30
0.0
 10
2.154093366696735
 20
-14.55489494249669
 30
0.0
 10
2.160420504812761
 20
-14.41370103598887
 30
0.0
 10
2.108094793918018
 20
-14.15334202232846
 30
0.0
 10
2.055675741813281
 20
-14.03388222870163
 30
0.0
 10
1.981545664902064
 20
-13.92448284609115
 30
0.0
  0
SPLINE
  5
1A474
330
1A3C8
100
AcDbEntity
  8
0
100
AcDbSpline
210
0.0
220
0.0
230
1.0
 70
     8
 71
     3
 72
    12
 73
     8
 74
     0
 42
0.000000001
 43
0.0000000001
 40
3.554077882683436
 40
3.554077882683436
 40
3.554077882683436
 40
3.554077882683436
 40
3.809460694484215
 40
3.809460694484215
 40
4.086485013603741
 40
4.086485013603741
 40
4.093064303627436
 40
4.093064303627436
 40
4.093064303627436
 40
4.093064303627436
 10
-1.981545664902044
 20
-13.92448284609115
 30
0.0
 10
-2.055095825487828
 20
-14.03302640215171
 30
0.0
 10
-2.107276447314209
 20
-14.15146475754883
 30
0.0
 10
-2.159843988207867
 20
-14.40850533630668
 30
0.0
 10
-2.154682823041937
 20
-14.5473550859421
 30
0.0
 10
-2.117038536649419
 20
-14.68246554036008
 30
0.0
 10
-2.116147943227589
 20
-14.68559624186995
 30
0.0
 10
-2.11524014607846
 20
-14.68872310819825
 30
0.0
  0
LINE
  5
1A475
330
1A3C8
100
AcDbEntity
  8
0
100
AcDbLine
 10
-1.83221322647024
 20
-15.66359656508565
 30
0.0
 11
-2.1152401460784
 21
-14.68872310819816
 31
0.0
  0
LINE
  5
1A476
330
1A3C8
100
AcDbEntity
  8
0
100
AcDbLine
 10
1.832213226470261
 20
-15.66359656508565
 30
0.0
 11
2.11524014607842
 21
-14.68872310819816
 31
0.0
  0
SPLINE
  5
1A477
330
1A3C8
100
AcDbEntity
  8
0
100
AcDbSpline
210
0.0
220
0.0
230
1.0
 70
     8
 71
     3
 72
    10
 73
     6
 74
     0
 42
0.000000001
 43
0.0000000001
 40
0.6193246767572543
 40
0.6193246767572543
 40
0.6193246767572543
 40
0.6193246767572543
 40
0.9009146851058806
 40
0.9009146851058806
 40
1.158311097701254
 40
1.158311097701254
 40
1.158311097701254
 40
1.158311097701254
 10
2.115240146078481
 20
-13.46397823680664
 30
0.0
 10
2.154093366696734
 20
-13.33015007110511
 30
0.0
 10
2.160420504812761
 20
-13.18895616459729
 30
0.0
 10
2.108094793918018
 20
-12.92859715093687
 30
0.0
 10
2.055675741813281
 20
-12.80913735731005
 30
0.0
 10
1.981545664902064
 20
-12.69973797469956
 30
0.0
  0
SPLINE
  5
1A478
330
1A3C8
100
AcDbEntity
  8
0
100
AcDbSpline
210
0.0
220
0.0
230
1.0
 70
     8
 71
     3
 72
    12
 73
     8
 74
     0
 42
0.000000001
 43
0.0000000001
 40
3.554077882683436
 40
3.554077882683436
 40
3.554077882683436
 40
3.554077882683436
 40
3.809460694484215
 40
3.809460694484215
 40
4.086485013603741
 40
4.086485013603741
 40
4.093064303627436
 40
4.093064303627436
 40
4.093064303627436
 40
4.093064303627436
 10
-1.981545664902044
 20
-12.69973797469957
 30
0.0
 10
-2.055095825487828
 20
-12.80828153076013
 30
0.0
 10
-2.107276447314209
 20
-12.92671988615724
 30
0.0
 10
-2.159843988207867
 20
-13.1837604649151
 30
0.0
 10
-2.154682823041937
 20
-13.32261021455052
 30
0.0
 10
-2.117038536649419
 20
-13.4577206689685
 30
0.0
 10
-2.11614794322759
 20
-13.46085137047835
 30
0.0
 10
-2.11524014607846
 20
-13.46397823680665
 30
0.0
  0
LINE
  5
1A479
330
1A3C8
100
AcDbEntity
  8
0
100
AcDbLine
 10
-1.832213226470238
 20
-14.43885169369407
 30
0.0
 11
-2.1152401460784
 21
-13.46397823680657
 31
0.0
  0
LINE
  5
1A47A
330
1A3C8
100
AcDbEntity
  8
0
100
AcDbLine
 10
1.832213226470259
 20
-14.43885169369407
 30
0.0
 11
2.11524014607842
 21
-13.46397823680657
 31
0.0
  0
SPLINE
  5
1A47B
330
1A3C8
100
AcDbEntity
  8
0
100
AcDbSpline
210
0.0
220
0.0
230
1.0
 70
     8
 71
     3
 72
    10
 73
     6
 74
     0
 42
0.000000001
 43
0.0000000001
 40
0.6193246767572543
 40
0.6193246767572543
 40
0.6193246767572543
 40
0.6193246767572543
 40
0.9009146851058806
 40
0.9009146851058806
 40
1.158311097701253
 40
1.158311097701253
 40
1.158311097701253
 40
1.158311097701253
 10
2.11524014607848
 20
-12.23923336541506
 30
0.0
 10
2.154093366696734
 20
-12.10540519971351
 30
0.0
 10
2.160420504812761
 20
-11.96421129320569
 30
0.0
 10
2.108094793918017
 20
-11.70385227954527
 30
0.0
 10
2.05567574181328
 20
-11.58439248591845
 30
0.0
 10
1.981545664902064
 20
-11.47499310330796
 30
0.0
  0
SPLINE
  5
1A47C
330
1A3C8
100
AcDbEntity
  8
0
100
AcDbSpline
210
0.0
220
0.0
230
1.0
 70
     8
 71
     3
 72
    12
 73
     8
 74
     0
 42
0.000000001
 43
0.0000000001
 40
3.554077882683436
 40
3.554077882683436
 40
3.554077882683436
 40
3.554077882683436
 40
3.809460694484215
 40
3.809460694484215
 40
4.086485013603741
 40
4.086485013603741
 40
4.093064303627436
 40
4.093064303627436
 40
4.093064303627436
 40
4.093064303627436
 10
-1.981545664902044
 20
-11.47499310330796
 30
0.0
 10
-2.055095825487829
 20
-11.58353665936853
 30
0.0
 10
-2.10727644731421
 20
-11.70197501476565
 30
0.0
 10
-2.159843988207867
 20
-11.9590155935235
 30
0.0
 10
-2.154682823041937
 20
-12.09786534315892
 30
0.0
 10
-2.117038536649419
 20
-12.2329757975769
 30
0.0
 10
-2.11614794322759
 20
-12.23610649908677
 30
0.0
 10
-2.115240146078461
 20
-12.23923336541506
 30
0.0
  0
LINE
  5
1A47D
330
1A3C8
100
AcDbEntity
  8
0
100
AcDbLine
 10
-1.832213226470238
 20
-13.21410682230247
 30
0.0
 11
-2.1152401460784
 21
-12.23923336541498
 31
0.0
  0
LINE
  5
1A47E
330
1A3C8
100
AcDbEntity
  8
0
100
AcDbLine
 10
1.832213226470258
 20
-13.21410682230247
 30
0.0
 11
2.11524014607842
 21
-12.23923336541498
 31
0.0
  0
SPLINE
  5
1A47F
330
1A3C8
100
AcDbEntity
  8
0
100
AcDbSpline
210
0.0
220
0.0
230
1.0
 70
     8
 71
     3
 72
    10
 73
     6
 74
     0
 42
0.000000001
 43
0.0000000001
 40
0.6193246767572543
 40
0.6193246767572543
 40
0.6193246767572543
 40
0.6193246767572543
 40
0.9009146851058806
 40
0.9009146851058806
 40
1.158311097701252
 40
1.158311097701252
 40
1.158311097701252
 40
1.158311097701252
 10
2.11524014607848
 20
-11.01448849402347
 30
0.0
 10
2.154093366696734
 20
-10.88066032832192
 30
0.0
 10
2.16042050481276
 20
-10.7394664218141
 30
0.0
 10
2.108094793918017
 20
-10.47910740815369
 30
0.0
 10
2.055675741813281
 20
-10.35964761452686
 30
0.0
 10
1.981545664902065
 20
-10.25024823191637
 30
0.0
  0
SPLINE
  5
1A480
330
1A3C8
100
AcDbEntity
  8
0
100
AcDbSpline
210
0.0
220
0.0
230
1.0
 70
     8
 71
     3
 72
    12
 73
     8
 74
     0
 42
0.000000001
 43
0.0000000001
 40
3.554077882683437
 40
3.554077882683437
 40
3.554077882683437
 40
3.554077882683437
 40
3.809460694484215
 40
3.809460694484215
 40
4.086485013603741
 40
4.086485013603741
 40
4.093064303627436
 40
4.093064303627436
 40
4.093064303627436
 40
4.093064303627436
 10
-1.981545664902046
 20
-10.25024823191638
 30
0.0
 10
-2.055095825487829
 20
-10.35879178797694
 30
0.0
 10
-2.10727644731421
 20
-10.47723014337406
 30
0.0
 10
-2.159843988207867
 20
-10.73427072213191
 30
0.0
 10
-2.154682823041937
 20
-10.87312047176733
 30
0.0
 10
-2.117038536649419
 20
-11.00823092618531
 30
0.0
 10
-2.11614794322759
 20
-11.01136162769517
 30
0.0
 10
-2.115240146078461
 20
-11.01448849402347
 30
0.0
  0
LINE
  5
1A481
330
1A3C8
100
AcDbEntity
  8
0
100
AcDbLine
 10
-1.832213226470238
 20
-11.98936195091089
 30
0.0
 11
-2.1152401460784
 21
-11.01448849402339
 31
0.0
  0
LINE
  5
1A482
330
1A3C8
100
AcDbEntity
  8
0
100
AcDbLine
 10
1.832213226470258
 20
-11.98936195091089
 30
0.0
 11
2.11524014607842
 21
-11.01448849402339
 31
0.0
  0
SPLINE
  5
1A483
330
1A3C8
100
AcDbEntity
  8
0
100
AcDbSpline
210
0.0
220
0.0
230
1.0
 70
     8
 71
     3
 72
    10
 73
     6
 74
     0
 42
0.000000001
 43
0.0000000001
 40
0.6193246767572543
 40
0.6193246767572543
 40
0.6193246767572543
 40
0.6193246767572543
 40
0.9009146851058806
 40
0.9009146851058806
 40
1.158311097701252
 40
1.158311097701252
 40
1.158311097701252
 40
1.158311097701252
 10
2.11524014607848
 20
-9.789743622631883
 30
0.0
 10
2.154093366696734
 20
-9.655915456930337
 30
0.0
 10
2.16042050481276
 20
-9.514721550422517
 30
0.0
 10
2.108094793918017
 20
-9.254362536762101
 30
0.0
 10
2.05567574181328
 20
-9.134902743135278
 30
0.0
 10
1.981545664902065
 20
-9.025503360524789
 30
0.0
  0
SPLINE
  5
1A484
330
1A3C8
100
AcDbEntity
  8
0
100
AcDbSpline
210
0.0
220
0.0
230
1.0
 70
     8
 71
     3
 72
    12
 73
     8
 74
     0
 42
0.000000001
 43
0.0000000001
 40
3.554077882683437
 40
3.554077882683437
 40
3.554077882683437
 40
3.554077882683437
 40
3.809460694484215
 40
3.809460694484215
 40
4.086485013603741
 40
4.086485013603741
 40
4.093064303627436
 40
4.093064303627436
 40
4.093064303627436
 40
4.093064303627436
 10
-1.981545664902046
 20
-9.025503360524789
 30
0.0
 10
-2.05509582548783
 20
-9.134046916585356
 30
0.0
 10
-2.10727644731421
 20
-9.252485271982475
 30
0.0
 10
-2.159843988207868
 20
-9.509525850740327
 30
0.0
 10
-2.154682823041938
 20
-9.648375600375747
 30
0.0
 10
-2.11703853664942
 20
-9.783486054793728
 30
0.0
 10
-2.11614794322759
 20
-9.786616756303585
 30
0.0
 10
-2.115240146078461
 20
-9.789743622631883
 30
0.0
  0
LINE
  5
1A485
330
1A3C8
100
AcDbEntity
  8
0
100
AcDbLine
 10
-1.832213226470239
 20
-10.7646170795193
 30
0.0
 11
-2.115240146078401
 21
-9.789743622631803
 31
0.0
  0
LINE
  5
1A486
330
1A3C8
100
AcDbEntity
  8
0
100
AcDbLine
 10
1.832213226470258
 20
-10.7646170795193
 30
0.0
 11
2.115240146078419
 21
-9.789743622631803
 31
0.0
  0
SPLINE
  5
1A487
330
1A3C8
100
AcDbEntity
  8
0
100
AcDbSpline
210
0.0
220
0.0
230
1.0
 70
     8
 71
     3
 72
    10
 73
     6
 74
     0
 42
0.000000001
 43
0.0000000001
 40
0.6193246767572543
 40
0.6193246767572543
 40
0.6193246767572543
 40
0.6193246767572543
 40
0.9009146851058806
 40
0.9009146851058806
 40
1.158311097701254
 40
1.158311097701254
 40
1.158311097701254
 40
1.158311097701254
 10
2.11524014607848
 20
-8.564998751240304
 30
0.0
 10
2.154093366696733
 20
-8.431170585538749
 30
0.0
 10
2.16042050481276
 20
-8.28997667903093
 30
0.0
 10
2.108094793918017
 20
-8.029617665370514
 30
0.0
 10
2.05567574181328
 20
-7.91015787174369
 30
0.0
 10
1.981545664902063
 20
-7.80075848913321
 30
0.0
  0
SPLINE
  5
1A488
330
1A3C8
100
AcDbEntity
  8
0
100
AcDbSpline
210
0.0
220
0.0
230
1.0
 70
     8
 71
     3
 72
    12
 73
     8
 74
     0
 42
0.000000001
 43
0.0000000001
 40
3.554077882683436
 40
3.554077882683436
 40
3.554077882683436
 40
3.554077882683436
 40
3.809460694484215
 40
3.809460694484215
 40
4.086485013603741
 40
4.086485013603741
 40
4.093064303627436
 40
4.093064303627436
 40
4.093064303627436
 40
4.093064303627436
 10
-1.981545664902045
 20
-7.80075848913321
 30
0.0
 10
-2.055095825487829
 20
-7.909302045193769
 30
0.0
 10
-2.10727644731421
 20
-8.027740400590896
 30
0.0
 10
-2.159843988207868
 20
-8.284780979348749
 30
0.0
 10
-2.154682823041938
 20
-8.423630728984168
 30
0.0
 10
-2.11703853664942
 20
-8.558741183402149
 30
0.0
 10
-2.11614794322759
 20
-8.561871884912006
 30
0.0
 10
-2.115240146078461
 20
-8.564998751240304
 30
0.0
  0
LINE
  5
1A489
330
1A3C8
100
AcDbEntity
  8
0
100
AcDbLine
 10
-1.832213226470241
 20
-9.539872208127713
 30
0.0
 11
-2.115240146078401
 21
-8.564998751240215
 31
0.0
  0
LINE
  5
1A48A
330
1A3C8
100
AcDbEntity
  8
0
100
AcDbLine
 10
1.83221322647026
 20
-9.539872208127713
 30
0.0
 11
2.115240146078419
 21
-8.564998751240215
 31
0.0
  0
SPLINE
  5
1A48B
330
1A3C8
100
AcDbEntity
  8
0
100
AcDbSpline
210
0.0
220
0.0
230
1.0
 70
     8
 71
     3
 72
    10
 73
     6
 74
     0
 42
0.000000001
 43
0.0000000001
 40
0.6193246767572543
 40
0.6193246767572543
 40
0.6193246767572543
 40
0.6193246767572543
 40
0.9009146851058806
 40
0.9009146851058806
 40
1.158311097701254
 40
1.158311097701254
 40
1.158311097701254
 40
1.158311097701254
 10
2.115240146078479
 20
-7.340253879848708
 30
0.0
 10
2.154093366696733
 20
-7.206425714147162
 30
0.0
 10
2.160420504812759
 20
-7.065231807639342
 30
0.0
 10
2.108094793918017
 20
-6.804872793978926
 30
0.0
 10
2.05567574181328
 20
-6.685413000352102
 30
0.0
 10
1.981545664902063
 20
-6.576013617741613
 30
0.0
  0
SPLINE
  5
1A48C
330
1A3C8
100
AcDbEntity
  8
0
100
AcDbSpline
210
0.0
220
0.0
230
1.0
 70
     8
 71
     3
 72
    12
 73
     8
 74
     0
 42
0.000000001
 43
0.0000000001
 40
3.554077882683436
 40
3.554077882683436
 40
3.554077882683436
 40
3.554077882683436
 40
3.809460694484215
 40
3.809460694484215
 40
4.086485013603741
 40
4.086485013603741
 40
4.093064303627436
 40
4.093064303627436
 40
4.093064303627436
 40
4.093064303627436
 10
-1.981545664902045
 20
-6.576013617741613
 30
0.0
 10
-2.055095825487829
 20
-6.684557173802181
 30
0.0
 10
-2.107276447314211
 20
-6.8029955291993
 30
0.0
 10
-2.159843988207868
 20
-7.060036107957152
 30
0.0
 10
-2.154682823041938
 20
-7.198885857592571
 30
0.0
 10
-2.11703853664942
 20
-7.333996312010553
 30
0.0
 10
-2.116147943227591
 20
-7.33712701352041
 30
0.0
 10
-2.115240146078462
 20
-7.340253879848708
 30
0.0
  0
LINE
  5
1A48D
330
1A3C8
100
AcDbEntity
  8
0
100
AcDbLine
 10
-1.832213226470239
 20
-8.315127336736125
 30
0.0
 11
-2.115240146078401
 21
-7.340253879848628
 31
0.0
  0
LINE
  5
1A48E
330
1A3C8
100
AcDbEntity
  8
0
100
AcDbLine
 10
1.832213226470258
 20
-8.315127336736125
 30
0.0
 11
2.115240146078419
 21
-7.340253879848628
 31
0.0
  0
SPLINE
  5
1A48F
330
1A3C8
100
AcDbEntity
  8
0
100
AcDbSpline
210
0.0
220
0.0
230
1.0
 70
     8
 71
     3
 72
    10
 73
     6
 74
     0
 42
0.000000001
 43
0.0000000001
 40
0.6193246767572543
 40
0.6193246767572543
 40
0.6193246767572543
 40
0.6193246767572543
 40
0.9009146851058806
 40
0.9009146851058806
 40
1.158311097701253
 40
1.158311097701253
 40
1.158311097701253
 40
1.158311097701253
 10
2.115240146078479
 20
-6.11550900845712
 30
0.0
 10
2.154093366696733
 20
-5.981680842755565
 30
0.0
 10
2.160420504812759
 20
-5.840486936247746
 30
0.0
 10
2.108094793918016
 20
-5.58012792258733
 30
0.0
 10
2.05567574181328
 20
-5.460668128960506
 30
0.0
 10
1.981545664902063
 20
-5.351268746350026
 30
0.0
  0
SPLINE
  5
1A490
330
1A3C8
100
AcDbEntity
  8
0
100
AcDbSpline
210
0.0
220
0.0
230
1.0
 70
     8
 71
     3
 72
    12
 73
     8
 74
     0
 42
0.000000001
 43
0.0000000001
 40
3.554077882683436
 40
3.554077882683436
 40
3.554077882683436
 40
3.554077882683436
 40
3.809460694484215
 40
3.809460694484215
 40
4.086485013603741
 40
4.086485013603741
 40
4.093064303627436
 40
4.093064303627436
 40
4.093064303627436
 40
4.093064303627436
 10
-1.981545664902046
 20
-5.351268746350026
 30
0.0
 10
-2.05509582548783
 20
-5.459812302410584
 30
0.0
 10
-2.107276447314211
 20
-5.578250657807712
 30
0.0
 10
-2.159843988207869
 20
-5.835291236565565
 30
0.0
 10
-2.154682823041938
 20
-5.974140986200984
 30
0.0
 10
-2.11703853664942
 20
-6.109251440618965
 30
0.0
 10
-2.116147943227591
 20
-6.112382142128822
 30
0.0
 10
-2.115240146078462
 20
-6.11550900845712
 30
0.0
  0
LINE
  5
1A491
330
1A3C8
100
AcDbEntity
  8
0
100
AcDbLine
 10
-1.83221322647024
 20
-7.090382465344529
 30
0.0
 11
-2.115240146078401
 21
-6.115509008457031
 31
0.0
  0
LINE
  5
1A492
330
1A3C8
100
AcDbEntity
  8
0
100
AcDbLine
 10
1.832213226470257
 20
-7.090382465344529
 30
0.0
 11
2.115240146078419
 21
-6.115509008457031
 31
0.0
  0
SPLINE
  5
1A493
330
1A3C8
100
AcDbEntity
  8
0
100
AcDbSpline
210
0.0
220
0.0
230
1.0
 70
     8
 71
     3
 72
    10
 73
     6
 74
     0
 42
0.000000001
 43
0.0000000001
 40
0.6193246767572543
 40
0.6193246767572543
 40
0.6193246767572543
 40
0.6193246767572543
 40
0.9009146851058806
 40
0.9009146851058806
 40
1.158311097701254
 40
1.158311097701254
 40
1.158311097701254
 40
1.158311097701254
 10
2.115240146078479
 20
-4.890764137065524
 30
0.0
 10
2.154093366696733
 20
-4.756935971363978
 30
0.0
 10
2.160420504812759
 20
-4.615742064856158
 30
0.0
 10
2.108094793918016
 20
-4.355383051195742
 30
0.0
 10
2.055675741813279
 20
-4.235923257568918
 30
0.0
 10
1.981545664902063
 20
-4.126523874958429
 30
0.0
  0
SPLINE
  5
1A494
330
1A3C8
100
AcDbEntity
  8
0
100
AcDbSpline
210
0.0
220
0.0
230
1.0
 70
     8
 71
     3
 72
    12
 73
     8
 74
     0
 42
0.000000001
 43
0.0000000001
 40
3.554077882683436
 40
3.554077882683436
 40
3.554077882683436
 40
3.554077882683436
 40
3.809460694484215
 40
3.809460694484215
 40
4.086485013603741
 40
4.086485013603741
 40
4.093064303627436
 40
4.093064303627436
 40
4.093064303627436
 40
4.093064303627436
 10
-1.981545664902046
 20
-4.126523874958429
 30
0.0
 10
-2.05509582548783
 20
-4.235067431018997
 30
0.0
 10
-2.107276447314211
 20
-4.353505786416116
 30
0.0
 10
-2.159843988207869
 20
-4.610546365173968
 30
0.0
 10
-2.154682823041938
 20
-4.749396114809387
 30
0.0
 10
-2.117038536649421
 20
-4.884506569227369
 30
0.0
 10
-2.116147943227591
 20
-4.887637270737226
 30
0.0
 10
-2.115240146078462
 20
-4.890764137065524
 30
0.0
  0
LINE
  5
1A495
330
1A3C8
100
AcDbEntity
  8
0
100
AcDbLine
 10
-1.83221322647024
 20
-5.865637593952941
 30
0.0
 11
-2.115240146078401
 21
-4.890764137065444
 31
0.0
  0
LINE
  5
1A496
330
1A3C8
100
AcDbEntity
  8
0
100
AcDbLine
 10
1.832213226470257
 20
-5.86563759395295
 30
0.0
 11
2.115240146078419
 21
-4.890764137065444
 31
0.0
  0
SPLINE
  5
1A497
330
1A3C8
100
AcDbEntity
  8
0
100
AcDbSpline
210
0.0
220
0.0
230
1.0
 70
     8
 71
     3
 72
    10
 73
     6
 74
     0
 42
0.000000001
 43
0.0000000001
 40
0.6193246767572543
 40
0.6193246767572543
 40
0.6193246767572543
 40
0.6193246767572543
 40
0.9009146851058806
 40
0.9009146851058806
 40
1.158311097701252
 40
1.158311097701252
 40
1.158311097701252
 40
1.158311097701252
 10
2.115240146078479
 20
-3.666019265673936
 30
0.0
 10
2.154093366696733
 20
-3.532191099972381
 30
0.0
 10
2.160420504812759
 20
-3.390997193464562
 30
0.0
 10
2.108094793918016
 20
-3.130638179804146
 30
0.0
 10
2.05567574181328
 20
-3.011178386177322
 30
0.0
 10
1.981545664902064
 20
-2.901779003566842
 30
0.0
  0
SPLINE
  5
1A498
330
1A3C8
100
AcDbEntity
  8
0
100
AcDbSpline
210
0.0
220
0.0
230
1.0
 70
     8
 71
     3
 72
    12
 73
     8
 74
     0
 42
0.000000001
 43
0.0000000001
 40
3.554077882683437
 40
3.554077882683437
 40
3.554077882683437
 40
3.554077882683437
 40
3.809460694484215
 40
3.809460694484215
 40
4.086485013603741
 40
4.086485013603741
 40
4.093064303627436
 40
4.093064303627436
 40
4.093064303627436
 40
4.093064303627436
 10
-1.981545664902048
 20
-2.901779003566851
 30
0.0
 10
-2.055095825487831
 20
-3.0103225596274
 30
0.0
 10
-2.107276447314212
 20
-3.128760915024537
 30
0.0
 10
-2.159843988207869
 20
-3.385801493782381
 30
0.0
 10
-2.154682823041939
 20
-3.5246512434178
 30
0.0
 10
-2.117038536649421
 20
-3.659761697835781
 30
0.0
 10
-2.116147943227591
 20
-3.662892399345638
 30
0.0
 10
-2.115240146078462
 20
-3.666019265673936
 30
0.0
  0
LINE
  5
1A499
330
1A3C8
100
AcDbEntity
  8
0
100
AcDbLine
 10
-1.83221322647024
 20
-4.640892722561353
 30
0.0
 11
-2.115240146078402
 21
-3.666019265673847
 31
0.0
  0
LINE
  5
1A49A
330
1A3C8
100
AcDbEntity
  8
0
100
AcDbLine
 10
1.832213226470257
 20
-4.640892722561353
 30
0.0
 11
2.115240146078418
 21
-3.666019265673847
 31
0.0
  0
SPLINE
  5
1A49B
330
1A3C8
100
AcDbEntity
  8
0
100
AcDbSpline
210
0.0
220
0.0
230
1.0
 70
     8
 71
     3
 72
    10
 73
     6
 74
     0
 42
0.000000001
 43
0.0000000001
 40
0.6193246767572543
 40
0.6193246767572543
 40
0.6193246767572543
 40
0.6193246767572543
 40
0.9009146851058806
 40
0.9009146851058806
 40
1.158311097701252
 40
1.158311097701252
 40
1.158311097701252
 40
1.158311097701252
 10
2.115240146078479
 20
-2.441274394282348
 30
0.0
 10
2.154093366696732
 20
-2.307446228580802
 30
0.0
 10
2.160420504812759
 20
-2.166252322072983
 30
0.0
 10
2.108094793918016
 20
-1.905893308412567
 30
0.0
 10
2.05567574181328
 20
-1.786433514785743
 30
0.0
 10
1.981545664902064
 20
-1.677034132175254
 30
0.0
  0
SPLINE
  5
1A49C
330
1A3C8
100
AcDbEntity
  8
0
100
AcDbSpline
210
0.0
220
0.0
230
1.0
 70
     8
 71
     3
 72
    12
 73
     8
 74
     0
 42
0.000000001
 43
0.0000000001
 40
3.554077882683437
 40
3.554077882683437
 40
3.554077882683437
 40
3.554077882683437
 40
3.809460694484215
 40
3.809460694484215
 40
4.086485013603741
 40
4.086485013603741
 40
4.093064303627436
 40
4.093064303627436
 40
4.093064303627436
 40
4.093064303627436
 10
-1.981545664902048
 20
-1.677034132175254
 30
0.0
 10
-2.055095825487831
 20
-1.785577688235822
 30
0.0
 10
-2.107276447314212
 20
-1.90401604363295
 30
0.0
 10
-2.159843988207869
 20
-2.161056622390793
 30
0.0
 10
-2.154682823041939
 20
-2.299906372026212
 30
0.0
 10
-2.117038536649421
 20
-2.435016826444194
 30
0.0
 10
-2.116147943227591
 20
-2.438147527954059
 30
0.0
 10
-2.115240146078463
 20
-2.441274394282348
 30
0.0
  0
LINE
  5
1A49D
330
1A3C8
100
AcDbEntity
  8
0
100
AcDbLine
 10
-1.83221322647024
 20
-3.416147851169775
 30
0.0
 11
-2.115240146078402
 21
-2.441274394282269
 31
0.0
  0
LINE
  5
1A49E
330
1A3C8
100
AcDbEntity
  8
0
100
AcDbLine
 10
1.832213226470257
 20
-3.416147851169775
 30
0.0
 11
2.115240146078418
 21
-2.441274394282269
 31
0.0
  0
SPLINE
  5
1A49F
330
1A3C8
100
AcDbEntity
  8
0
100
AcDbSpline
210
0.0
220
0.0
230
1.0
 70
     8
 71
     3
 72
    10
 73
     6
 74
     0
 42
0.000000001
 43
0.0000000001
 40
0.6193246767572543
 40
0.6193246767572543
 40
0.6193246767572543
 40
0.6193246767572543
 40
0.9009146851058806
 40
0.9009146851058806
 40
1.158311097701254
 40
1.158311097701254
 40
1.158311097701254
 40
1.158311097701254
 10
2.115240146078479
 20
-1.21652952289077
 30
0.0
 10
2.154093366696732
 20
-1.082701357189215
 30
0.0
 10
2.160420504812758
 20
-0.9415074506813958
 30
0.0
 10
2.108094793918015
 20
-0.6811484370209798
 30
0.0
 10
2.055675741813278
 20
-0.5616886433941515
 30
0.0
 10
1.981545664902062
 20
-0.4522892607836671
 30
0.0
  0
SPLINE
  5
1A4A0
330
1A3C8
100
AcDbEntity
  8
0
100
AcDbSpline
210
0.0
220
0.0
230
1.0
 70
     8
 71
     3
 72
    12
 73
     8
 74
     0
 42
0.000000001
 43
0.0000000001
 40
3.554077882683436
 40
3.554077882683436
 40
3.554077882683436
 40
3.554077882683436
 40
3.809460694484215
 40
3.809460694484215
 40
4.086485013603741
 40
4.086485013603741
 40
4.093064303627436
 40
4.093064303627436
 40
4.093064303627436
 40
4.093064303627436
 10
-1.981545664902046
 20
-0.4522892607836671
 30
0.0
 10
-2.055095825487831
 20
-0.5608328168442345
 30
0.0
 10
-2.107276447314212
 20
-0.6792711722413581
 30
0.0
 10
-2.15984398820787
 20
-0.9363117509992058
 30
0.0
 10
-2.15468282304194
 20
-1.075161500634624
 30
0.0
 10
-2.117038536649422
 20
-1.210271955052606
 30
0.0
 10
-2.116147943227592
 20
-1.213402656562472
 30
0.0
 10
-2.115240146078463
 20
-1.21652952289077
 30
0.0
  0
LINE
  5
1A4A1
330
1A3C8
100
AcDbEntity
  8
0
100
AcDbLine
 10
-1.832213226470242
 20
-2.191402979778178
 30
0.0
 11
-2.115240146078403
 21
-1.216529522890681
 31
0.0
  0
LINE
  5
1A4A2
330
1A3C8
100
AcDbEntity
  8
0
100
AcDbLine
 10
1.832213226470258
 20
-2.191402979778178
 30
0.0
 11
2.115240146078418
 21
-1.216529522890681
 31
0.0
  0
SPLINE
  5
1A4A3
330
1A3C8
100
AcDbEntity
  8
0
100
AcDbSpline
210
0.0
220
0.0
230
1.0
 70
     8
 71
     3
 72
    10
 73
     6
 74
     0
 42
0.000000001
 43
0.0000000001
 40
0.6193246767572543
 40
0.6193246767572543
 40
0.6193246767572543
 40
0.6193246767572543
 40
0.9009146851058806
 40
0.9009146851058806
 40
1.158311097701253
 40
1.158311097701253
 40
1.158311097701253
 40
1.158311097701253
 10
2.115240146078478
 20
0.0082153485008307
 30
0.0
 10
2.154093366696732
 20
0.1420435142023724
 30
0.0
 10
2.160420504812758
 20
0.2832374207101962
 30
0.0
 10
2.108094793918015
 20
0.5435964343706124
 30
0.0
 10
2.055675741813278
 20
0.6630562279974406
 30
0.0
 10
1.981545664902062
 20
0.7724556106079206
 30
0.0
  0
SPLINE
  5
1A4A4
330
1A3C8
100
AcDbEntity
  8
0
100
AcDbSpline
210
0.0
220
0.0
230
1.0
 70
     8
 71
     3
 72
    12
 73
     8
 74
     0
 42
0.000000001
 43
0.0000000001
 40
3.554077882683436
 40
3.554077882683436
 40
3.554077882683436
 40
3.554077882683436
 40
3.809460694484215
 40
3.809460694484215
 40
4.086485013603741
 40
4.086485013603741
 40
4.093064303627436
 40
4.093064303627436
 40
4.093064303627436
 40
4.093064303627436
 10
-1.981545664902047
 20
0.7724556106079206
 30
0.0
 10
-2.055095825487831
 20
0.6639120545473576
 30
0.0
 10
-2.107276447314212
 20
0.5454736991502296
 30
0.0
 10
-2.15984398820787
 20
0.2884331203923906
 30
0.0
 10
-2.15468282304194
 20
0.1495833707569627
 30
0.0
 10
-2.117038536649422
 20
0.0144729163389768
 30
0.0
 10
-2.116147943227592
 20
0.0113422148291198
 30
0.0
 10
-2.115240146078463
 20
0.0082153485008307
 30
0.0
  0
LINE
  5
1A4A5
330
1A3C8
100
AcDbEntity
  8
0
100
AcDbLine
 10
-1.832213226470241
 20
-0.966658108386591
 30
0.0
 11
-2.115240146078403
 21
0.0082153485009107
 31
0.0
  0
LINE
  5
1A4A6
330
1A3C8
100
AcDbEntity
  8
0
100
AcDbLine
 10
1.832213226470256
 20
-0.966658108386591
 30
0.0
 11
2.115240146078418
 21
0.0082153485009107
 31
0.0
  0
SPLINE
  5
1A4A7
330
1A3C8
100
AcDbEntity
  8
0
100
AcDbSpline
210
0.0
220
0.0
230
1.0
 70
     8
 71
     3
 72
    10
 73
     6
 74
     0
 42
0.000000001
 43
0.0000000001
 40
0.6193246767572543
 40
0.6193246767572543
 40
0.6193246767572543
 40
0.6193246767572543
 40
0.9009146851058806
 40
0.9009146851058806
 40
1.158311097701254
 40
1.158311097701254
 40
1.158311097701254
 40
1.158311097701254
 10
2.115240146078478
 20
1.232960219892422
 30
0.0
 10
2.154093366696732
 20
1.366788385593964
 30
0.0
 10
2.160420504812758
 20
1.507982292101788
 30
0.0
 10
2.108094793918015
 20
1.768341305762204
 30
0.0
 10
2.055675741813278
 20
1.887801099389032
 30
0.0
 10
1.981545664902061
 20
1.997200481999512
 30
0.0
  0
SPLINE
  5
1A4A8
330
1A3C8
100
AcDbEntity
  8
0
100
AcDbSpline
210
0.0
220
0.0
230
1.0
 70
     8
 71
     3
 72
    12
 73
     8
 74
     0
 42
0.000000001
 43
0.0000000001
 40
3.554077882683436
 40
3.554077882683436
 40
3.554077882683436
 40
3.554077882683436
 40
3.809460694484215
 40
3.809460694484215
 40
4.086485013603741
 40
4.086485013603741
 40
4.093064303627436
 40
4.093064303627436
 40
4.093064303627436
 40
4.093064303627436
 10
-1.981545664902047
 20
1.997200481999512
 30
0.0
 10
-2.055095825487831
 20
1.888656925938949
 30
0.0
 10
-2.107276447314212
 20
1.770218570541821
 30
0.0
 10
-2.15984398820787
 20
1.513177991783978
 30
0.0
 10
-2.15468282304194
 20
1.374328242148554
 30
0.0
 10
-2.117038536649422
 20
1.239217787730568
 30
0.0
 10
-2.116147943227592
 20
1.236087086220711
 30
0.0
 10
-2.115240146078463
 20
1.232960219892422
 30
0.0
  0
LINE
  5
1A4A9
330
1A3C8
100
AcDbEntity
  8
0
100
AcDbLine
 10
-1.832213226470241
 20
0.258086763005001
 30
0.0
 11
-2.115240146078403
 21
1.232960219892502
 31
0.0
  0
LINE
  5
1A4AA
330
1A3C8
100
AcDbEntity
  8
0
100
AcDbLine
 10
1.832213226470256
 20
0.258086763005001
 30
0.0
 11
2.115240146078417
 21
1.232960219892502
 31
0.0
  0
SPLINE
  5
1A4AB
330
1A3C8
100
AcDbEntity
  8
0
100
AcDbSpline
210
0.0
220
0.0
230
1.0
 70
     8
 71
     3
 72
    10
 73
     6
 74
     0
 42
0.000000001
 43
0.0000000001
 40
0.6193246767572543
 40
0.6193246767572543
 40
0.6193246767572543
 40
0.6193246767572543
 40
0.9009146851058806
 40
0.9009146851058806
 40
1.158311097701252
 40
1.158311097701252
 40
1.158311097701252
 40
1.158311097701252
 10
2.115240146078478
 20
2.457705091284014
 30
0.0
 10
2.154093366696731
 20
2.591533256985556
 30
0.0
 10
2.160420504812758
 20
2.73272716349338
 30
0.0
 10
2.108094793918015
 20
2.993086177153796
 30
0.0
 10
2.055675741813278
 20
3.11254597078062
 30
0.0
 10
1.981545664902062
 20
3.221945353391104
 30
0.0
  0
SPLINE
  5
1A4AC
330
1A3C8
100
AcDbEntity
  8
0
100
AcDbSpline
210
0.0
220
0.0
230
1.0
 70
     8
 71
     3
 72
    12
 73
     8
 74
     0
 42
0.000000001
 43
0.0000000001
 40
3.554077882683437
 40
3.554077882683437
 40
3.554077882683437
 40
3.554077882683437
 40
3.809460694484215
 40
3.809460694484215
 40
4.086485013603741
 40
4.086485013603741
 40
4.093064303627436
 40
4.093064303627436
 40
4.093064303627436
 40
4.093064303627436
 10
-1.981545664902049
 20
3.221945353391104
 30
0.0
 10
-2.055095825487832
 20
3.113401797330541
 30
0.0
 10
-2.107276447314212
 20
2.994963441933413
 30
0.0
 10
-2.15984398820787
 20
2.73792286317557
 30
0.0
 10
-2.15468282304194
 20
2.599073113540146
 30
0.0
 10
-2.117038536649422
 20
2.46396265912216
 30
0.0
 10
-2.116147943227592
 20
2.460831957612303
 30
0.0
 10
-2.115240146078464
 20
2.457705091284014
 30
0.0
  0
LINE
  5
1A4AD
330
1A3C8
100
AcDbEntity
  8
0
100
AcDbLine
 10
-1.832213226470241
 20
1.482831634396593
 30
0.0
 11
-2.115240146078403
 21
2.457705091284094
 31
0.0
  0
LINE
  5
1A4AE
330
1A3C8
100
AcDbEntity
  8
0
100
AcDbLine
 10
1.832213226470256
 20
1.482831634396593
 30
0.0
 11
2.115240146078417
 21
2.457705091284094
 31
0.0
  0
SPLINE
  5
1A4AF
330
1A3C8
100
AcDbEntity
  8
0
100
AcDbSpline
210
0.0
220
0.0
230
1.0
 70
     8
 71
     3
 72
    10
 73
     6
 74
     0
 42
0.000000001
 43
0.0000000001
 40
0.6193246767572543
 40
0.6193246767572543
 40
0.6193246767572543
 40
0.6193246767572543
 40
0.9009146851058806
 40
0.9009146851058806
 40
1.158311097701254
 40
1.158311097701254
 40
1.158311097701254
 40
1.158311097701254
 10
2.115240146078478
 20
3.682449962675597
 30
0.0
 10
2.154093366696731
 20
3.816278128377139
 30
0.0
 10
2.160420504812758
 20
3.957472034884963
 30
0.0
 10
2.108094793918015
 20
4.217831048545379
 30
0.0
 10
2.055675741813278
 20
4.337290842172212
 30
0.0
 10
1.981545664902061
 20
4.446690224782692
 30
0.0
  0
SPLINE
  5
1A4B0
330
1A3C8
100
AcDbEntity
  8
0
100
AcDbSpline
210
0.0
220
0.0
230
1.0
 70
     8
 71
     3
 72
    12
 73
     8
 74
     0
 42
0.000000001
 43
0.0000000001
 40
3.554077882683436
 40
3.554077882683436
 40
3.554077882683436
 40
3.554077882683436
 40
3.809460694484215
 40
3.809460694484215
 40
4.086485013603741
 40
4.086485013603741
 40
4.093064303627436
 40
4.093064303627436
 40
4.093064303627436
 40
4.093064303627436
 10
-1.981545664902047
 20
4.446690224782692
 30
0.0
 10
-2.055095825487831
 20
4.338146668722124
 30
0.0
 10
-2.107276447314212
 20
4.219708313325001
 30
0.0
 10
-2.15984398820787
 20
3.962667734567153
 30
0.0
 10
-2.15468282304194
 20
3.823817984931729
 30
0.0
 10
-2.117038536649423
 20
3.688707530513748
 30
0.0
 10
-2.116147943227593
 20
3.685576829003887
 30
0.0
 10
-2.115240146078464
 20
3.682449962675597
 30
0.0
  0
LINE
  5
1A4B1
330
1A3C8
100
AcDbEntity
  8
0
100
AcDbLine
 10
-1.832213226470242
 20
2.707576505788176
 30
0.0
 11
-2.115240146078404
 21
3.682449962675682
 31
0.0
  0
LINE
  5
1A4B2
330
1A3C8
100
AcDbEntity
  8
0
100
AcDbLine
 10
1.832213226470256
 20
2.707576505788176
 30
0.0
 11
2.115240146078417
 21
3.682449962675682
 31
0.0
  0
SPLINE
  5
1A4B3
330
1A3C8
100
AcDbEntity
  8
0
100
AcDbSpline
210
0.0
220
0.0
230
1.0
 70
     8
 71
     3
 72
    10
 73
     6
 74
     0
 42
0.000000001
 43
0.0000000001
 40
0.6193246767572543
 40
0.6193246767572543
 40
0.6193246767572543
 40
0.6193246767572543
 40
0.9009146851058806
 40
0.9009146851058806
 40
1.158311097701254
 40
1.158311097701254
 40
1.158311097701254
 40
1.158311097701254
 10
2.115240146078477
 20
4.90719483406719
 30
0.0
 10
2.154093366696731
 20
5.041022999768731
 30
0.0
 10
2.160420504812758
 20
5.182216906276555
 30
0.0
 10
2.108094793918014
 20
5.442575919936971
 30
0.0
 10
2.055675741813277
 20
5.562035713563799
 30
0.0
 10
1.981545664902061
 20
5.671435096174284
 30
0.0
  0
SPLINE
  5
1A4B4
330
1A3C8
100
AcDbEntity
  8
0
100
AcDbSpline
210
0.0
220
0.0
230
1.0
 70
     8
 71
     3
 72
    12
 73
     8
 74
     0
 42
0.000000001
 43
0.0000000001
 40
3.554077882683436
 40
3.554077882683436
 40
3.554077882683436
 40
3.554077882683436
 40
3.809460694484215
 40
3.809460694484215
 40
4.086485013603741
 40
4.086485013603741
 40
4.093064303627436
 40
4.093064303627436
 40
4.093064303627436
 40
4.093064303627436
 10
-1.981545664902048
 20
5.671435096174284
 30
0.0
 10
-2.055095825487832
 20
5.562891540113716
 30
0.0
 10
-2.107276447314213
 20
5.444453184716593
 30
0.0
 10
-2.159843988207871
 20
5.187412605958745
 30
0.0
 10
-2.154682823041941
 20
5.048562856323322
 30
0.0
 10
-2.117038536649423
 20
4.91345240190534
 30
0.0
 10
-2.116147943227593
 20
4.910321700395479
 30
0.0
 10
-2.115240146078464
 20
4.907194834067185
 30
0.0
  0
LINE
  5
1A4B5
330
1A3C8
100
AcDbEntity
  8
0
100
AcDbLine
 10
-1.832213226470242
 20
3.932321377179768
 30
0.0
 11
-2.115240146078404
 21
4.907194834067269
 31
0.0
  0
LINE
  5
1A4B6
330
1A3C8
100
AcDbEntity
  8
0
100
AcDbLine
 10
1.832213226470255
 20
3.932321377179768
 30
0.0
 11
2.115240146078416
 21
4.907194834067269
 31
0.0
  0
SPLINE
  5
1A4B7
330
1A3C8
100
AcDbEntity
  8
0
100
AcDbSpline
210
0.0
220
0.0
230
1.0
 70
     8
 71
     3
 72
    10
 73
     6
 74
     0
 42
0.000000001
 43
0.0000000001
 40
0.6193246767572557
 40
0.6193246767572557
 40
0.6193246767572557
 40
0.6193246767572557
 40
0.9009146851058819
 40
0.9009146851058819
 40
1.158311097701253
 40
1.158311097701253
 40
1.158311097701253
 40
1.158311097701253
 10
2.115240146078478
 20
6.131939705458782
 30
0.0
 10
2.154093366696731
 20
6.265767871160328
 30
0.0
 10
2.160420504812758
 20
6.406961777668152
 30
0.0
 10
2.108094793918014
 20
6.667320791328563
 30
0.0
 10
2.055675741813277
 20
6.786780584955387
 30
0.0
 10
1.981545664902061
 20
6.896179967565876
 30
0.0
  0
SPLINE
  5
1A4B8
330
1A3C8
100
AcDbEntity
  8
0
100
AcDbSpline
210
0.0
220
0.0
230
1.0
 70
     8
 71
     3
 72
    12
 73
     8
 74
     0
 42
0.000000001
 43
0.0000000001
 40
3.554077882683436
 40
3.554077882683436
 40
3.554077882683436
 40
3.554077882683436
 40
3.809460694484215
 40
3.809460694484215
 40
4.086485013603741
 40
4.086485013603741
 40
4.093064303627434
 40
4.093064303627434
 40
4.093064303627434
 40
4.093064303627434
 10
-1.981545664902049
 20
6.896179967565876
 30
0.0
 10
-2.055095825487833
 20
6.787636411505308
 30
0.0
 10
-2.107276447314214
 20
6.669198056108185
 30
0.0
 10
-2.159843988207871
 20
6.412157477350337
 30
0.0
 10
-2.154682823041941
 20
6.273307727714914
 30
0.0
 10
-2.117038536649423
 20
6.138197273296932
 30
0.0
 10
-2.116147943227594
 20
6.135066571787071
 30
0.0
 10
-2.115240146078465
 20
6.131939705458782
 30
0.0
  0
LINE
  5
1A4B9
330
1A3C8
100
AcDbEntity
  8
0
100
AcDbLine
 10
-1.832213226470242
 20
5.15706624857136
 30
0.0
 11
-2.115240146078404
 21
6.131939705458862
 31
0.0
  0
LINE
  5
1A4BA
330
1A3C8
100
AcDbEntity
  8
0
100
AcDbLine
 10
1.832213226470255
 20
5.15706624857136
 30
0.0
 11
2.115240146078416
 21
6.131939705458862
 31
0.0
  0
SPLINE
  5
1A4BB
330
1A3C8
100
AcDbEntity
  8
0
100
AcDbSpline
210
0.0
220
0.0
230
1.0
 70
     8
 71
     3
 72
    10
 73
     6
 74
     0
 42
0.000000001
 43
0.0000000001
 40
0.6193246767572557
 40
0.6193246767572557
 40
0.6193246767572557
 40
0.6193246767572557
 40
0.9009146851058819
 40
0.9009146851058819
 40
1.158311097701253
 40
1.158311097701253
 40
1.158311097701253
 40
1.158311097701253
 10
2.115240146078478
 20
7.356684576850369
 30
0.0
 10
2.154093366696731
 20
7.490512742551915
 30
0.0
 10
2.160420504812757
 20
7.631706649059739
 30
0.0
 10
2.108094793918013
 20
7.892065662720155
 30
0.0
 10
2.055675741813276
 20
8.01152545634698
 30
0.0
 10
1.981545664902061
 20
8.12092483895746
 30
0.0
  0
SPLINE
  5
1A4BC
330
1A3C8
100
AcDbEntity
  8
0
100
AcDbSpline
210
0.0
220
0.0
230
1.0
 70
     8
 71
     3
 72
    12
 73
     8
 74
     0
 42
0.000000001
 43
0.0000000001
 40
3.554077882683436
 40
3.554077882683436
 40
3.554077882683436
 40
3.554077882683436
 40
3.809460694484215
 40
3.809460694484215
 40
4.086485013603741
 40
4.086485013603741
 40
4.093064303627434
 40
4.093064303627434
 40
4.093064303627434
 40
4.093064303627434
 10
-1.981545664902049
 20
8.120924838957463
 30
0.0
 10
-2.055095825487833
 20
8.012381282896896
 30
0.0
 10
-2.107276447314214
 20
7.893942927499772
 30
0.0
 10
-2.159843988207871
 20
7.63690234874192
 30
0.0
 10
-2.154682823041941
 20
7.498052599106497
 30
0.0
 10
-2.117038536649424
 20
7.36294214468852
 30
0.0
 10
-2.116147943227594
 20
7.359811443178663
 30
0.0
 10
-2.115240146078465
 20
7.356684576850369
 30
0.0
  0
LINE
  5
1A4BD
330
1A3C8
100
AcDbEntity
  8
0
100
AcDbLine
 10
-1.832213226470243
 20
6.381811119962952
 30
0.0
 11
-2.115240146078404
 21
7.356684576850454
 31
0.0
  0
LINE
  5
1A4BE
330
1A3C8
100
AcDbEntity
  8
0
100
AcDbLine
 10
1.832213226470256
 20
6.381811119962952
 30
0.0
 11
2.115240146078416
 21
7.356684576850454
 31
0.0
  0
ELLIPSE
  5
1A4BF
330
1A3C8
100
AcDbEntity
  8
0
100
AcDbEllipse
 10
0.0000000000000058
 20
8.786129486845846
 30
0.0
 11
-2.144748748220875
 21
-0.0000000000000001
 31
0.0
210
0.0
220
0.0
230
1.0
 40
0.5773502691896258
 41
0.1660734866401457
 42
2.975519166949648
  0
SPLINE
  5
1A4C0
330
1A3C8
100
AcDbEntity
  8
0
100
AcDbSpline
210
0.0
220
0.0
230
1.0
 70
     8
 71
     3
 72
    10
 73
     6
 74
     0
 42
0.000000001
 43
0.0000000001
 40
0.6193246767572557
 40
0.6193246767572557
 40
0.6193246767572557
 40
0.6193246767572557
 40
0.9009146851058819
 40
0.9009146851058819
 40
1.136402995789125
 40
1.136402995789125
 40
1.136402995789125
 40
1.136402995789125
 10
2.115240146078477
 20
8.581429448241962
 30
0.0
 10
2.154093366696731
 20
8.715257613943503
 30
0.0
 10
2.160420504812757
 20
8.856451520451326
 30
0.0
 10
2.110221669405709
 20
9.106227759512295
 30
0.0
 10
2.064409452776194
 20
9.215972831040591
 30
0.0
 10
1.999999999999997
 20
9.317529635440674
 30
0.0
  0
SPLINE
  5
1A4C1
330
1A3C8
100
AcDbEntity
  8
0
100
AcDbSpline
210
0.0
220
0.0
230
1.0
 70
     8
 71
     3
 72
    12
 73
     8
 74
     0
 42
0.000000001
 43
0.0000000001
 40
3.575985984595579
 40
3.575985984595579
 40
3.575985984595579
 40
3.575985984595579
 40
3.809460694484215
 40
3.809460694484215
 40
4.086485013603741
 40
4.086485013603741
 40
4.093064303627434
 40
4.093064303627434
 40
4.093064303627434
 40
4.093064303627434
 10
-1.999999999999997
 20
9.317529635440656
 30
0.0
 10
-2.063858703888003
 20
9.216841217507155
 30
0.0
 10
-2.109439557040371
 20
9.108110797067116
 30
0.0
 10
-2.159843988207871
 20
8.861647220133509
 30
0.0
 10
-2.154682823041941
 20
8.722797470498084
 30
0.0
 10
-2.117038536649424
 20
8.587687016080106
 30
0.0
 10
-2.116147943227594
 20
8.584556314570249
 30
0.0
 10
-2.115240146078465
 20
8.581429448241962
 30
0.0
  0
LINE
  5
1A4C2
330
1A3C8
100
AcDbEntity
  8
0
100
AcDbLine
 10
-1.832213226470242
 20
7.606555991354535
 30
0.0
 11
-2.115240146078404
 21
8.58142944824204
 31
0.0
  0
LINE
  5
1A4C3
330
1A3C8
100
AcDbEntity
  8
0
100
AcDbLine
 10
1.832213226470255
 20
7.606555991354535
 30
0.0
 11
2.115240146078416
 21
8.58142944824204
 31
0.0
  0
ENDBLK
  5
1A3CA
330
1A3C8
100
AcDbEntity
  8
0
100
AcDbBlockEnd
  0
ENDSEC
  0
SECTION
  2
ENTITIES
  0
INSERT
  5
1A4C4
330
1F
100
AcDbEntity
  8
0
100
AcDbBlockReference
  2
MKSA440x100-Front
 10
0.0
 20
0.0
 30
0.0
  0
INSERT
  5
1A4C5
330
1F
100
AcDbEntity
  8
0
100
AcDbBlockReference
  2
MKSA440x100-Top
 10
0.0
 20
-132.25
 30
0.0
  0
INSERT
  5
1A4C6
330
1F
100
AcDbEntity
  8
0
100
AcDbBlockReference
  2
MKSA440x100-ISO
 10
38.49999999999999
 20
-169.9412704930237
 30
0.0
  0
MTEXT
  5
1A4C7
330
1F
100
AcDbEntity
  8
0
100
AcDbMText
 10
0.0
 20
-166.5
 30
0.0
 40
3.805555555555555
 41
0.0
 71
     5
 72
     5
  1
MKSA44,0x100
 73
     1
 44
1.0
1001
ACAD
1000
MTEXTBEGIN
1070
    73
1070
     1
1070
    44
1040
1.0
1070
    74
1070
     0
1000
MTEXTEND
  0
ENDSEC
  0
SECTION
  2
OBJECTS
  0
DICTIONARY
  5
C
330
0
100
AcDbDictionary
281
     1
  3
ACAD_CIP_PREVIOUS_PRODUCT_INFO
350
216
  3
ACAD_COLOR
350
6B
  3
ACAD_DETAILVIEWSTYLE
350
21B
  3
ACAD_GROUP
350
D
  3
ACAD_LAYOUT
350
1A
  3
ACAD_MATERIAL
350
6A
  3
ACAD_MLEADERSTYLE
350
12D
  3
ACAD_MLINESTYLE
350
17
  3
ACAD_PLOTSETTINGS
350
19
  3
ACAD_PLOTSTYLENAME
350
E
  3
ACAD_SCALELIST
350
10C
  3
ACAD_SECTIONVIEWSTYLE
350
219
  3
ACAD_TABLESTYLE
350
7E
  3
ACAD_VISUALSTYLE
350
EF
  3
ACDB_RECOMPOSE_DATA
350
1A5CA
  3
AcDbVariableDictionary
350
5E
  3
DWGPROPS
350
1A5CB
  0
DICTIONARY
  5
1A51A
330
8
100
AcDbDictionary
280
     1
281
     1
  0
DICTIONARY
  5
1FF
330
2
100
AcDbDictionary
280
     1
281
     1
  3
ACAD_LAYERSTATES
360
200
  0
DICTIONARY
  5
13C
330
10
100
AcDbDictionary
280
     1
281
     1
  0
DICTIONARY
  5
1CE
330
1F
100
AcDbDictionary
280
     1
281
     1
  3
ACAD_LAYOUTSELFREF
360
1A522
  0
DICTIONARY
  5
1A4CB
330
D2
100
AcDbDictionary
280
     1
281
     1
  3
ACAD_LAYOUTSELFREF
360
1A52B
  0
DICTIONARY
  5
1A4CD
330
D6
100
AcDbDictionary
280
     1
281
     1
  3
ACAD_LAYOUTSELFREF
360
1A52E
  0
XRECORD
  5
216
102
{ACAD_REACTORS
330
C
102
}
330
C
100
AcDbXrecord
280
     1
300
ACD
300
2021
300
87393ACD_2021_0F
  0
DICTIONARY
  5
6B
102
{ACAD_REACTORS
330
C
102
}
330
C
100
AcDbDictionary
281
     1
  0
DICTIONARY
  5
21B
102
{ACAD_REACTORS
330
C
102
}
330
C
100
AcDbDictionary
281
     1
  3
Metric50
350
21C
  0
DICTIONARY
  5
D
102
{ACAD_REACTORS
330
C
102
}
330
C
100
AcDbDictionary
281
     1
  0
DICTIONARY
  5
1A
102
{ACAD_REACTORS
330
C
102
}
330
C
100
AcDbDictionary
281
     1
  3
Layout1
350
D3
  3
Layout2
350
D7
  3
Model
350
22
  0
DICTIONARY
  5
6A
102
{ACAD_REACTORS
330
C
102
}
330
C
100
AcDbDictionary
281
     1
  3
ByBlock
350
ED
  3
ByLayer
350
EC
  3
Global
350
EE
  0
DICTIONARY
  5
12D
102
{ACAD_REACTORS
330
C
102
}
330
C
100
AcDbDictionary
281
     1
  3
Standard
350
12E
  0
DICTIONARY
  5
17
102
{ACAD_REACTORS
330
C
102
}
330
C
100
AcDbDictionary
281
     1
  3
Standard
350
18
  0
DICTIONARY
  5
19
102
{ACAD_REACTORS
330
C
102
}
330
C
100
AcDbDictionary
281
     1
  0
ACDBDICTIONARYWDFLT
  5
E
102
{ACAD_REACTORS
330
C
102
}
330
C
100
AcDbDictionary
281
     1
  3
Normal
350
F
100
AcDbDictionaryWithDefault
340
F
  0
DICTIONARY
  5
10C
102
{ACAD_REACTORS
330
C
102
}
330
C
100
AcDbDictionary
281
     1
  3
A0
350
10D
  3
A1
350
1BE
  3
A2
350
1BF
  3
A3
350
1C0
  3
A4
350
1C1
  3
A5
350
1C2
  3
A6
350
1C3
  3
A7
350
1C4
  3
A8
350
1C5
  3
A9
350
1C6
  3
B0
350
1C7
  3
B1
350
1C8
  3
B2
350
1C9
  3
B3
350
1CA
  3
B4
350
1CB
  3
B5
350
1CC
  3
B6
350
1CD
  0
DICTIONARY
  5
219
102
{ACAD_REACTORS
330
C
102
}
330
C
100
AcDbDictionary
281
     1
  3
Metric50
350
21A
  0
DICTIONARY
  5
7E
102
{ACAD_REACTORS
330
C
102
}
330
C
100
AcDbDictionary
281
     1
  3
Standard
350
7F
  0
DICTIONARY
  5
EF
102
{ACAD_REACTORS
330
C
102
}
330
C
100
AcDbDictionary
281
     1
  3
2dWireframe
350
F5
  3
Basic
350
F4
  3
Brighten
350
FB
  3
ColorChange
350
FF
  3
Conceptual
350
F8
  3
Dim
350
FA
  3
EdgeColorOff
350
1E6
  3
Facepattern
350
FE
  3
Flat
350
F0
  3
FlatWithEdges
350
F1
  3
Gouraud
350
F2
  3
GouraudWithEdges
350
F3
  3
Hidden
350
F7
  3
JitterOff
350
1E4
  3
Linepattern
350
FD
  3
OverhangOff
350
1E5
  3
Realistic
350
F9
  3
Shaded
350
1F3
  3
Shaded with edges
350
1F2
  3
Shades of Gray
350
1EF
  3
Sketchy
350
1F0
  3
Thicken
350
FC
  3
Wireframe
350
F6
  3
X-Ray
350
1F1
  0
XRECORD
  5
1A5CA
102
{ACAD_REACTORS
330
C
102
}
330
C
100
AcDbXrecord
280
     1
 90
        1
330
7F
  0
DICTIONARY
  5
5E
102
{ACAD_REACTORS
330
C
102
}
330
C
100
AcDbDictionary
281
     1
  3
CANNOSCALE
350
146
  3
CENTEREXE
350
259
  3
CENTERLTYPEFILE
350
25A
  3
CMLEADERSTYLE
350
145
  3
CTABLESTYLE
350
84
  3
CVIEWDETAILSTYLE
350
227
  3
CVIEWSECTIONSTYLE
350
228
  3
DIMASSOC
350
5F
  3
HIDETEXT
350
63
  3
INDEXCTL
350
1A577
  3
LAYEREVAL
350
1AE
  3
LAYERNOTIFY
350
1AF
  3
LIGHTINGUNITS
350
1A575
  3
MSLTSCALE
350
1A574
  3
PSOLHEIGHT
350
1A5C7
  3
PSOLWIDTH
350
1A5C6
  3
SORTENTS
350
1A576
  3
XCLIPFRAME
350
1A5C8
  0
XRECORD
  5
1A5CB
102
{ACAD_REACTORS
330
C
102
}
330
C
100
AcDbXrecord
280
     1
  1
DWGPROPS COOKIE
  2

  3

  4

  6

  7

  8
truole
  9

300
=
301
=
302
=
303
=
304
=
305
=
306
=
307
=
308
=
309
=
 40
0.0027430555555556
 41
2460733.571354167
 42
2460733.60306713
  1

 90
        0
  0
DICTIONARY
  5
200
102
{ACAD_REACTORS
330
1FF
102
}
330
1FF
100
AcDbDictionary
281
     1
  0
XRECORD
  5
1A522
102
{ACAD_REACTORS
330
1CE
102
}
330
1CE
100
AcDbXrecord
280
     1
340
1F
  0
XRECORD
  5
1A52B
102
{ACAD_REACTORS
330
1A4CB
102
}
330
1A4CB
100
AcDbXrecord
280
     1
340
D2
  0
XRECORD
  5
1A52E
102
{ACAD_REACTORS
330
1A4CD
102
}
330
1A4CD
100
AcDbXrecord
280
     1
340
D6
  0
ACDBDETAILVIEWSTYLE
  5
21C
102
{ACAD_XDICTIONARY
360
1A60A
102
}
102
{ACAD_REACTORS
330
21B
102
}
330
21B
100
AcDbModelDocViewStyle
 70
     0
  3
Metric50
290
     0
100
AcDbDetailViewStyle
 70
     0
 71
     0
 90
        3
 71
     1
340
11
 40
5.0
340
0
 40
5.0
300

 40
0.0
280
     1
 71
     2
340
16
 90
       25
 71
     3
340
11
 40
5.0
 90
        0
 40
15.0
 90
        1
300
%<\AcVar ViewDetailId>% (%<\AcVar ViewScale \f "%sn">%)
 71
     4
340
16
 90
       25
340
16
 90
       25
280
     0
  0
LAYOUT
  5
D3
102
{ACAD_XDICTIONARY
360
1A5CF
102
}
102
{ACAD_REACTORS
330
1A
102
}
330
1A
100
AcDbPlotSettings
  1

  2
C:\Documents and Settings\basas\Application Data\Autodesk\AutoCAD 2005\R16.1\enu\plotters\Default Windows System Printer.pc3
  4

  6

 40
0.0
 41
0.0
 42
0.0
 43
0.0
 44
0.0
 45
0.0
 46
0.0
 47
0.0
 48
0.0
 49
0.0
140
0.0
141
0.0
142
1.0
143
1.0
 70
   688
 72
     0
 73
     0
 74
     5
  7

 75
    16
147
1.0
148
0.0
149
0.0
100
AcDbLayout
  1
Layout1
 70
     1
 71
     1
 10
0.0
 20
0.0
 11
12.0
 21
9.0
 12
0.0
 22
0.0
 32
0.0
 14
0.0
 24
0.0
 34
0.0
 15
0.0
 25
0.0
 35
0.0
146
0.0
 13
0.0
 23
0.0
 33
0.0
 16
1.0
 26
0.0
 36
0.0
 17
0.0
 27
1.0
 37
0.0
 76
     0
330
D2
  0
LAYOUT
  5
D7
102
{ACAD_XDICTIONARY
360
1A5D1
102
}
102
{ACAD_REACTORS
330
1A
102
}
330
1A
100
AcDbPlotSettings
  1

  2
C:\Documents and Settings\basas\Application Data\Autodesk\AutoCAD 2005\R16.1\enu\plotters\Default Windows System Printer.pc3
  4

  6

 40
0.0
 41
0.0
 42
0.0
 43
0.0
 44
0.0
 45
0.0
 46
0.0
 47
0.0
 48
0.0
 49
0.0
140
0.0
141
0.0
142
1.0
143
1.0
 70
   688
 72
     0
 73
     0
 74
     5
  7

 75
    16
147
1.0
148
0.0
149
0.0
100
AcDbLayout
  1
Layout2
 70
     1
 71
     2
 10
0.0
 20
0.0
 11
12.0
 21
9.0
 12
0.0
 22
0.0
 32
0.0
 14
0.0
 24
0.0
 34
0.0
 15
0.0
 25
0.0
 35
0.0
146
0.0
 13
0.0
 23
0.0
 33
0.0
 16
1.0
 26
0.0
 36
0.0
 17
0.0
 27
1.0
 37
0.0
 76
     0
330
D6
  0
LAYOUT
  5
22
102
{ACAD_XDICTIONARY
360
1A5CC
102
}
102
{ACAD_REACTORS
330
1A
102
}
330
1A
100
AcDbPlotSettings
  1

  2
none_device
  4
ISO_A4_(210.00_x_297.00_MM)
  6

 40
7.5
 41
20.0
 42
7.5
 43
20.0
 44
210.0
 45
297.0
 46
11.54999923706054
 47
-13.65000009536743
 48
0.0
 49
0.0
140
0.0
141
0.0
142
1.0
143
8.704084754739808
 70
 11952
 72
     1
 73
     0
 74
     0
  7

 75
     0
147
0.1148885871608098
148
0.0
149
0.0
100
AcDbLayout
  1
Model
 70
     1
 71
     0
 10
0.0
 20
0.0
 11
12.0
 21
9.0
 12
0.0
 22
0.0
 32
0.0
 14
0.0
 24
0.0
 34
0.0
 15
0.0
 25
0.0
 35
0.0
146
0.0
 13
0.0
 23
0.0
 33
0.0
 16
1.0
 26
0.0
 36
0.0
 17
0.0
 27
1.0
 37
0.0
 76
     0
330
1F
331
EA
1001
ACAD_PSEXT
1000
None
1000
None
1000
Not applicable
1000
The layout will not be plotted unless a new plotter configuration name is selected.
1070
     0
  0
MATERIAL
  5
ED
102
{ACAD_XDICTIONARY
360
1F9
102
}
102
{ACAD_REACTORS
330
6A
102
}
330
6A
100
AcDbMaterial
  1
ByBlock
  0
MATERIAL
  5
EC
102
{ACAD_XDICTIONARY
360
1F7
102
}
102
{ACAD_REACTORS
330
6A
102
}
330
6A
100
AcDbMaterial
  1
ByLayer
  0
MATERIAL
  5
EE
102
{ACAD_XDICTIONARY
360
173
102
}
102
{ACAD_REACTORS
330
6A
102
}
330
6A
100
AcDbMaterial
  1
Global
 43
0.0007999999797903
 43
0.0
 43
0.0
 43
0.0
 43
0.0
 43
0.0007999999797903
 43
0.0
 43
0.0
 43
0.0
 43
0.0
 43
1.0
 43
0.0
 43
0.0
 43
0.0
 43
0.0
 43
1.0
 49
0.0007999999797903
 49
0.0
 49
0.0
 49
0.0
 49
0.0
 49
0.0007999999797903
 49
0.0
 49
0.0
 49
0.0
 49
0.0
 49
1.0
 49
0.0
 49
0.0
 49
0.0
 49
0.0
 49
1.0
142
0.0007999999797903
142
0.0
142
0.0
142
0.0
142
0.0
142
0.0007999999797903
142
0.0
142
0.0
142
0.0
142
0.0
142
1.0
142
0.0
142
0.0
142
0.0
142
0.0
142
1.0
144
0.0007999999797903
144
0.0
144
0.0
144
0.0
144
0.0
144
0.0007999999797903
144
0.0
144
0.0
144
0.0
144
0.0
144
1.0
144
0.0
144
0.0
144
0.0
144
0.0
144
1.0
1001
ACAD
1070
    -1
1070
     3
1070
     0
1000

1071
        0
1070
     0
  0
MLEADERSTYLE
  5
12E
102
{ACAD_XDICTIONARY
360
1A5F6
102
}
102
{ACAD_REACTORS
330
12D
102
}
330
12D
100
AcDbMLeaderStyle
170
     2
171
     1
172
     0
 90
        2
 40
0.0
 41
0.0
173
     1
 91
-1056964608
340
14
 92
       -2
290
     1
 42
2.0
291
     1
 43
8.0
  3
Standard
 44
4.0
300

342
11
174
     1
178
     1
175
     1
176
     0
 93
-1056964608
 45
4.0
292
     0
297
     0
 46
4.0
 94
-1056964608
 47
1.0
 49
1.0
140
1.0
293
     1
141
0.0
294
     1
177
     0
142
1.0
295
     0
296
     0
143
3.75
1001
ACAD_MLEADERVER
1070
     2
  0
MLINESTYLE
  5
18
102
{ACAD_REACTORS
330
17
102
}
330
17
100
AcDbMlineStyle
  2
STANDARD
 70
     0
  3

 62
   256
 51
90.0
 52
90.0
 71
     2
 49
0.5
 62
   256
  6
BYLAYER
 49
-0.5
 62
   256
  6
BYLAYER
  0
ACDBPLACEHOLDER
  5
F
102
{ACAD_REACTORS
330
E
102
}
330
E
  0
SCALE
  5
10D
102
{ACAD_REACTORS
330
10C
102
}
330
10C
100
AcDbScale
 70
     0
300
1:1
140
1.0
141
1.0
290
     1
  0
SCALE
  5
1BE
102
{ACAD_REACTORS
330
10C
102
}
330
10C
100
AcDbScale
 70
     0
300
1:2
140
1.0
141
2.0
290
     0
  0
SCALE
  5
1BF
102
{ACAD_REACTORS
330
10C
102
}
330
10C
100
AcDbScale
 70
     0
300
1:4
140
1.0
141
4.0
290
     0
  0
SCALE
  5
1C0
102
{ACAD_REACTORS
330
10C
102
}
330
10C
100
AcDbScale
 70
     0
300
1:5
140
1.0
141
5.0
290
     0
  0
SCALE
  5
1C1
102
{ACAD_REACTORS
330
10C
102
}
330
10C
100
AcDbScale
 70
     0
300
1:8
140
1.0
141
8.0
290
     0
  0
SCALE
  5
1C2
102
{ACAD_REACTORS
330
10C
102
}
330
10C
100
AcDbScale
 70
     0
300
1:10
140
1.0
141
10.0
290
     0
  0
SCALE
  5
1C3
102
{ACAD_REACTORS
330
10C
102
}
330
10C
100
AcDbScale
 70
     0
300
1:16
140
1.0
141
16.0
290
     0
  0
SCALE
  5
1C4
102
{ACAD_REACTORS
330
10C
102
}
330
10C
100
AcDbScale
 70
     0
300
1:20
140
1.0
141
20.0
290
     0
  0
SCALE
  5
1C5
102
{ACAD_REACTORS
330
10C
102
}
330
10C
100
AcDbScale
 70
     0
300
1:30
140
1.0
141
30.0
290
     0
  0
SCALE
  5
1C6
102
{ACAD_REACTORS
330
10C
102
}
330
10C
100
AcDbScale
 70
     0
300
1:40
140
1.0
141
40.0
290
     0
  0
SCALE
  5
1C7
102
{ACAD_REACTORS
330
10C
102
}
330
10C
100
AcDbScale
 70
     0
300
1:50
140
1.0
141
50.0
290
     0
  0
SCALE
  5
1C8
102
{ACAD_REACTORS
330
10C
102
}
330
10C
100
AcDbScale
 70
     0
300
1:100
140
1.0
141
100.0
290
     0
  0
SCALE
  5
1C9
102
{ACAD_REACTORS
330
10C
102
}
330
10C
100
AcDbScale
 70
     0
300
2:1
140
2.0
141
1.0
290
     0
  0
SCALE
  5
1CA
102
{ACAD_REACTORS
330
10C
102
}
330
10C
100
AcDbScale
 70
     0
300
4:1
140
4.0
141
1.0
290
     0
  0
SCALE
  5
1CB
102
{ACAD_REACTORS
330
10C
102
}
330
10C
100
AcDbScale
 70
     0
300
8:1
140
8.0
141
1.0
290
     0
  0
SCALE
  5
1CC
102
{ACAD_REACTORS
330
10C
102
}
330
10C
100
AcDbScale
 70
     0
300
10:1
140
10.0
141
1.0
290
     0
  0
SCALE
  5
1CD
102
{ACAD_REACTORS
330
10C
102
}
330
10C
100
AcDbScale
 70
     0
300
100:1
140
100.0
141
1.0
290
     0
  0
ACDBSECTIONVIEWSTYLE
  5
21A
102
{ACAD_XDICTIONARY
360
1A608
102
}
102
{ACAD_REACTORS
330
219
102
}
330
219
100
AcDbModelDocViewStyle
 70
     0
  3
Metric50
290
     0
100
AcDbSectionViewStyle
 70
     0
 71
     0
 90
      102
 71
     1
340
11
 40
5.0
340
0
340
0
 40
5.0
300
I, O, Q, S, X, Z
 40
10.0
 90
        0
 40
2.5
 90
        0
 71
     2
340
16
 90
       25
340
16
 90
       50
 40
5.0
 40
2.5
 40
5.0
 71
     3
340
11
 40
5.0
 90
        0
 40
15.0
 90
        1
300
%<\AcVar ViewSectionStartId>%-%<\AcVar ViewSectionEndId>% (%<\AcVar ViewScale \f "%sn">%)
 71
     4
300
ANSI31
 40
1.0
 90
        0
290
     0
290
     0
 90
        6
 40
0.0
 40
1.570796326794896
 40
0.2617993877991494
 40
1.308996938995747
 40
-0.2617993877991494
 40
1.832595714594046
  0
TABLESTYLE
  5
7F
102
{ACAD_XDICTIONARY
360
162
102
}
102
{ACAD_REACTORS
330
7E
102
}
330
7E
100
AcDbTableStyle
  3
Standard
 70
     0
 71
     0
 40
1.5
 41
1.5
280
     0
281
     0
  7
Standard
140
4.5
170
     2
 62
     0
 63
     7
283
     0
274
    -2
284
     1
 64
     0
275
    -2
285
     1
 65
     0
276
    -2
286
     1
 66
     0
277
    -2
287
     1
 67
     0
278
    -2
288
     1
 68
     0
279
    -2
289
     1
 69
     0
  7
Standard
140
6.0
170
     5
 62
     0
 63
     7
283
     0
274
    -2
284
     1
 64
     0
275
    -2
285
     1
 65
     0
276
    -2
286
     1
 66
     0
277
    -2
287
     1
 67
     0
278
    -2
288
     1
 68
     0
279
    -2
289
     1
 69
     0
  7
Standard
140
4.5
170
     5
 62
     0
 63
     7
283
     0
274
    -2
284
     1
 64
     0
275
    -2
285
     1
 65
     0
276
    -2
286
     1
 66
     0
277
    -2
287
     1
 67
     0
278
    -2
288
     1
 68
     0
279
    -2
289
     1
 69
     0
  0
VISUALSTYLE
  5
F5
102
{ACAD_XDICTIONARY
360
1A5E0
102
}
102
{ACAD_REACTORS
330
EF
102
}
330
EF
100
AcDbVisualStyle
  2
2dWireframe
 70
     4
 71
     0
 72
     2
 73
     1
 90
        0
 40
-0.6
 41
-30.0
 62
     5
 63
     7
 74
     1
 91
        4
 64
     7
 65
   257
 75
     1
175
     1
 42
1.0
 92
        0
 66
   257
 43
1.0
 76
     1
 77
     6
 78
     2
 67
     7
 79
     5
170
     0
171
     0
290
     0
174
     0
 93
        1
 44
0.0
173
     0
291
     0
 45
0.0
1001
ACAD
1000
AcDbSavedByObjectVersion
1070
     0
  0
VISUALSTYLE
  5
F4
102
{ACAD_XDICTIONARY
360
1A5DE
102
}
102
{ACAD_REACTORS
330
EF
102
}
330
EF
100
AcDbVisualStyle
  2
Basic
 70
     7
 71
     1
 72
     0
 73
     1
 90
        0
 40
-0.6
 41
-30.0
 62
     5
 63
     7
 74
     0
 91
        4
 64
     7
 65
   257
 75
     1
175
     1
 42
1.0
 92
        8
 66
     7
 43
1.0
 76
     1
 77
     6
 78
     2
 67
     7
 79
     5
170
     0
171
     0
290
     0
174
     0
 93
        1
 44
0.0
173
     0
291
     1
 45
0.0
1001
ACAD
1000
AcDbSavedByObjectVersion
1070
     0
  0
VISUALSTYLE
  5
FB
102
{ACAD_XDICTIONARY
360
1A5EC
102
}
102
{ACAD_REACTORS
330
EF
102
}
330
EF
100
AcDbVisualStyle
  2
Brighten
 70
    12
 71
     2
 72
     2
 73
     1
 90
        0
 40
-0.6
 41
-30.0
 62
     5
 63
     7
 74
     1
 91
        4
 64
     7
 65
   257
 75
     1
175
     1
 42
1.0
 92
        8
 66
     7
 43
1.0
 76
     1
 77
     6
 78
     2
 67
     7
 79
     5
170
     0
171
     0
290
     0
174
     0
 93
        1
 44
50.0
173
     0
291
     1
 45
0.0
1001
ACAD
1000
AcDbSavedByObjectVersion
1070
     0
  0
VISUALSTYLE
  5
FF
102
{ACAD_XDICTIONARY
360
1A5F4
102
}
102
{ACAD_REACTORS
330
EF
102
}
330
EF
100
AcDbVisualStyle
  2
ColorChange
 70
    16
 71
     2
 72
     2
 73
     3
 90
        0
 40
-0.6
 41
-30.0
 62
     5
 63
     8
 74
     1
 91
        4
 64
     7
 65
   257
 75
     1
175
     1
 42
1.0
 92
        8
 66
     8
 43
1.0
 76
     1
 77
     6
 78
     2
 67
     7
 79
     5
170
     0
171
     0
290
     0
174
     0
 93
        1
 44
0.0
173
     0
291
     1
 45
0.0
1001
ACAD
1000
AcDbSavedByObjectVersion
1070
     0
  0
VISUALSTYLE
  5
F8
102
{ACAD_XDICTIONARY
360
1A5E6
102
}
102
{ACAD_REACTORS
330
EF
102
}
330
EF
100
AcDbVisualStyle
  2
Conceptual
 70
     9
 71
     3
 72
     2
 73
     1
 90
        0
 40
-0.6
 41
-30.0
 62
     5
 63
     7
 74
     2
 91
        2
 64
     7
 65
   257
 75
     1
175
     1
 42
40.0
 92
        8
 66
     7
 43
1.0
 76
     1
 77
     6
 78
     2
 67
     7
 79
     3
170
     0
171
     0
290
     0
174
     0
 93
        1
 44
0.0
173
     0
291
     0
 45
0.0
1001
ACAD
1000
AcDbSavedByObjectVersion
1070
     0
  0
VISUALSTYLE
  5
FA
102
{ACAD_XDICTIONARY
360
1A5EA
102
}
102
{ACAD_REACTORS
330
EF
102
}
330
EF
100
AcDbVisualStyle
  2
Dim
 70
    11
 71
     2
 72
     2
 73
     1
 90
        0
 40
-0.6
 41
-30.0
 62
     5
 63
     7
 74
     1
 91
        4
 64
     7
 65
   257
 75
     1
175
     1
 42
1.0
 92
        8
 66
     7
 43
1.0
 76
     1
 77
     6
 78
     2
 67
     7
 79
     5
170
     0
171
     0
290
     0
174
     0
 93
        1
 44
-50.0
173
     0
291
     1
 45
0.0
1001
ACAD
1000
AcDbSavedByObjectVersion
1070
     0
  0
VISUALSTYLE
  5
1E6
102
{ACAD_XDICTIONARY
360
1A5FC
102
}
102
{ACAD_REACTORS
330
EF
102
}
330
EF
100
AcDbVisualStyle
  2
EdgeColorOff
 70
    22
 71
     2
 72
     2
 73
     0
 90
        0
 40
-0.6
 41
-30.0
 62
     5
 63
     7
 74
     1
 91
        4
 64
     7
 65
   257
 75
     1
175
     1
 42
1.0
 92
        8
 66
     7
 43
1.0
 76
     1
 77
     6
 78
     2
 67
     7
 79
     5
170
     0
171
     0
290
     0
174
     0
 93
        1
 44
0.0
173
     0
291
     1
 45
0.0
1001
ACAD
1000
AcDbSavedByObjectVersion
1070
     0
  0
VISUALSTYLE
  5
FE
102
{ACAD_XDICTIONARY
360
1A5F2
102
}
102
{ACAD_REACTORS
330
EF
102
}
330
EF
100
AcDbVisualStyle
  2
Facepattern
 70
    15
 71
     2
 72
     2
 73
     1
 90
        0
 40
-0.6
 41
-30.0
 62
     5
 63
     7
 74
     1
 91
        4
 64
     7
 65
   257
 75
     1
175
     1
 42
1.0
 92
        8
 66
     7
 43
1.0
 76
     1
 77
     6
 78
     2
 67
     7
 79
     5
170
     0
171
     0
290
     0
174
     0
 93
        1
 44
0.0
173
     0
291
     1
 45
0.0
1001
ACAD
1000
AcDbSavedByObjectVersion
1070
     0
  0
VISUALSTYLE
  5
F0
102
{ACAD_XDICTIONARY
360
1A5D6
102
}
102
{ACAD_REACTORS
330
EF
102
}
330
EF
100
AcDbVisualStyle
  2
Flat
 70
     0
 71
     2
 72
     1
 73
     1
 90
        2
 40
-0.6
 41
30.0
 62
     5
 63
     7
 74
     0
 91
        0
 64
     7
 65
   257
 75
     1
175
     1
 42
1.0
 92
        8
 66
     7
 43
1.0
 76
     1
 77
     6
 78
     2
 67
     7
 79
     5
170
     0
171
     0
290
     0
174
     0
 93
       13
 44
0.0
173
     0
291
     1
 45
0.0
1001
ACAD
1000
AcDbSavedByObjectVersion
1070
     0
  0
VISUALSTYLE
  5
F1
102
{ACAD_XDICTIONARY
360
1A5D8
102
}
102
{ACAD_REACTORS
330
EF
102
}
330
EF
100
AcDbVisualStyle
  2
FlatWithEdges
 70
     1
 71
     2
 72
     1
 73
     1
 90
        2
 40
-0.6
 41
30.0
 62
     5
 63
     7
 74
     1
 91
        0
 64
     7
 65
   257
 75
     1
175
     1
 42
1.0
 92
        0
 66
   257
 43
1.0
 76
     1
 77
     6
 78
     2
 67
     7
 79
     5
170
     0
171
     0
290
     0
174
     0
 93
       13
 44
0.0
173
     0
291
     1
 45
0.0
1001
ACAD
1000
AcDbSavedByObjectVersion
1070
     0
  0
VISUALSTYLE
  5
F2
102
{ACAD_XDICTIONARY
360
1A5DA
102
}
102
{ACAD_REACTORS
330
EF
102
}
330
EF
100
AcDbVisualStyle
  2
Gouraud
 70
     2
 71
     2
 72
     2
 73
     1
 90
        2
 40
-0.6
 41
30.0
 62
     5
 63
     7
 74
     0
 91
        0
 64
     7
 65
   257
 75
     1
175
     1
 42
1.0
 92
        0
 66
     7
 43
1.0
 76
     1
 77
     6
 78
     2
 67
     7
 79
     5
170
     0
171
     0
290
     0
174
     0
 93
       13
 44
0.0
173
     0
291
     1
 45
0.0
1001
ACAD
1000
AcDbSavedByObjectVersion
1070
     0
  0
VISUALSTYLE
  5
F3
102
{ACAD_XDICTIONARY
360
1A5DC
102
}
102
{ACAD_REACTORS
330
EF
102
}
330
EF
100
AcDbVisualStyle
  2
GouraudWithEdges
 70
     3
 71
     2
 72
     2
 73
     1
 90
        2
 40
-0.6
 41
30.0
 62
     5
 63
     7
 74
     1
 91
        0
 64
     7
 65
   257
 75
     1
175
     1
 42
1.0
 92
        0
 66
   257
 43
1.0
 76
     1
 77
     6
 78
     2
 67
     7
 79
     5
170
     0
171
     0
290
     0
174
     0
 93
       13
 44
0.0
173
     0
291
     1
 45
0.0
1001
ACAD
1000
AcDbSavedByObjectVersion
1070
     0
  0
VISUALSTYLE
  5
F7
102
{ACAD_XDICTIONARY
360
1A5E4
102
}
102
{ACAD_REACTORS
330
EF
102
}
330
EF
100
AcDbVisualStyle
  2
Hidden
 70
     6
 71
     1
 72
     2
 73
     2
 90
        0
 40
-0.6
 41
-30.0
 62
     5
 63
     7
 74
     2
 91
        2
 64
     7
 65
   257
 75
     2
175
     1
 42
40.0
 92
        0
 66
   257
 43
1.0
 76
     1
 77
     6
 78
     2
 67
     7
 79
     3
170
     0
171
     0
290
     0
174
     0
 93
        1
 44
0.0
173
     0
291
     0
 45
0.0
1001
ACAD
1000
AcDbSavedByObjectVersion
1070
     0
  0
VISUALSTYLE
  5
1E4
102
{ACAD_XDICTIONARY
360
1A5F8
102
}
102
{ACAD_REACTORS
330
EF
102
}
330
EF
100
AcDbVisualStyle
  2
JitterOff
 70
    20
 71
     2
 72
     2
 73
     0
 90
        0
 40
-0.6
 41
-30.0
 62
     5
 63
     7
 74
     1
 91
        4
 64
     7
 65
   257
 75
     1
175
     1
 42
1.0
 92
       10
 66
     7
 43
1.0
 76
     1
 77
     6
 78
     2
 67
     7
 79
     5
170
     0
171
     0
290
     0
174
     0
 93
        1
 44
0.0
173
     0
291
     1
 45
0.0
1001
ACAD
1000
AcDbSavedByObjectVersion
1070
     0
  0
VISUALSTYLE
  5
FD
102
{ACAD_XDICTIONARY
360
1A5F0
102
}
102
{ACAD_REACTORS
330
EF
102
}
330
EF
100
AcDbVisualStyle
  2
Linepattern
 70
    14
 71
     2
 72
     2
 73
     1
 90
        0
 40
-0.6
 41
-30.0
 62
     5
 63
     7
 74
     1
 91
        4
 64
     7
 65
   257
 75
     7
175
     7
 42
1.0
 92
        8
 66
     7
 43
1.0
 76
     1
 77
     6
 78
     2
 67
     7
 79
     5
170
     0
171
     0
290
     0
174
     0
 93
        1
 44
0.0
173
     0
291
     1
 45
0.0
1001
ACAD
1000
AcDbSavedByObjectVersion
1070
     0
  0
VISUALSTYLE
  5
1E5
102
{ACAD_XDICTIONARY
360
1A5FA
102
}
102
{ACAD_REACTORS
330
EF
102
}
330
EF
100
AcDbVisualStyle
  2
OverhangOff
 70
    21
 71
     2
 72
     2
 73
     0
 90
        0
 40
-0.6
 41
-30.0
 62
     5
 63
     7
 74
     1
 91
        4
 64
     7
 65
   257
 75
     1
175
     1
 42
1.0
 92
        9
 66
     7
 43
1.0
 76
     1
 77
     6
 78
     2
 67
     7
 79
     5
170
     0
171
     0
290
     0
174
     0
 93
        1
 44
0.0
173
     0
291
     1
 45
0.0
1001
ACAD
1000
AcDbSavedByObjectVersion
1070
     0
  0
VISUALSTYLE
  5
F9
102
{ACAD_XDICTIONARY
360
1A5E8
102
}
102
{ACAD_REACTORS
330
EF
102
}
330
EF
100
AcDbVisualStyle
  2
Realistic
 70
     8
 71
     2
 72
     2
 73
     0
 90
        2
 40
-0.6
 41
30.0
 62
     5
 63
     7
 74
     0
 91
        0
 64
     7
 65
   257
 75
     1
175
     1
 42
1.0
 92
        8
 66
   257
 43
1.0
 76
     1
 77
     6
 78
     2
 67
     7
 79
     3
170
     0
171
     0
290
     0
174
     0
 93
       13
 44
0.0
173
     0
291
     0
 45
0.0
1001
ACAD
1000
AcDbSavedByObjectVersion
1070
     0
  0
VISUALSTYLE
  5
1F3
102
{ACAD_XDICTIONARY
360
1A606
102
}
102
{ACAD_REACTORS
330
EF
102
}
330
EF
100
AcDbVisualStyle
  2
Shaded
 70
    27
 71
     2
 72
     2
 73
     1
 90
        2
 40
-0.6
 41
30.0
 62
     5
 63
     7
 74
     0
 91
        4
 64
     7
 65
   257
 75
     1
175
     1
 42
1.0
 92
        8
 66
   257
 43
1.0
 76
     1
 77
     6
 78
     2
 67
     8
 79
     3
170
     0
171
     0
290
     0
174
     0
 93
        5
 44
0.0
173
     0
291
     0
 45
0.0
1001
ACAD
1000
AcDbSavedByObjectVersion
1070
     0
  0
VISUALSTYLE
  5
1F2
102
{ACAD_XDICTIONARY
360
1A604
102
}
102
{ACAD_REACTORS
330
EF
102
}
330
EF
100
AcDbVisualStyle
  2
Shaded with edges
 70
    26
 71
     2
 72
     2
 73
     1
 90
        2
 40
-0.6
 41
30.0
 62
     5
 63
     7
 74
     1
 91
        2
 64
     7
 65
   257
 75
     2
175
     1
 42
1.0
 92
        8
 66
   257
 43
1.0
 76
     1
 77
     6
 78
     2
 67
     7
 79
     3
170
     0
171
     0
290
     0
174
     0
 93
        5
 44
0.0
173
     0
291
     0
 45
0.0
1001
ACAD
1000
AcDbSavedByObjectVersion
1070
     0
  0
VISUALSTYLE
  5
1EF
102
{ACAD_XDICTIONARY
360
1A5FE
102
}
102
{ACAD_REACTORS
330
EF
102
}
330
EF
100
AcDbVisualStyle
  2
Shades of Gray
 70
    23
 71
     2
 72
     2
 73
     3
 90
        0
 40
-0.6
 41
-30.0
 62
     5
 63
     7
 74
     2
 91
        2
 64
     7
 65
     7
 75
     1
175
     1
 42
40.0
 92
        8
 66
     7
 43
1.0
 76
     1
 77
     6
 78
     2
 67
     7
 79
     3
170
     0
171
     0
290
     0
174
     0
 93
        1
 44
0.0
173
     0
291
     0
 45
0.0
1001
ACAD
1000
AcDbSavedByObjectVersion
1070
     0
  0
VISUALSTYLE
  5
1F0
102
{ACAD_XDICTIONARY
360
1A600
102
}
102
{ACAD_REACTORS
330
EF
102
}
330
EF
100
AcDbVisualStyle
  2
Sketchy
 70
    24
 71
     1
 72
     2
 73
     2
 90
        0
 40
-0.6
 41
-30.0
 62
     5
 63
     7
 74
     2
 91
        2
 64
     7
 65
     7
 75
     1
175
     1
 42
40.0
 92
       11
 66
     7
 43
1.0
 76
     1
 77
     6
 78
     2
 67
     7
 79
     6
170
     0
171
     0
290
     0
174
     0
 93
        1
 44
0.0
173
     0
291
     0
 45
0.0
1001
ACAD
1000
AcDbSavedByObjectVersion
1070
     0
  0
VISUALSTYLE
  5
FC
102
{ACAD_XDICTIONARY
360
1A5EE
102
}
102
{ACAD_REACTORS
330
EF
102
}
330
EF
100
AcDbVisualStyle
  2
Thicken
 70
    13
 71
     2
 72
     2
 73
     1
 90
        0
 40
-0.6
 41
-30.0
 62
     5
 63
     7
 74
     1
 91
        4
 64
     7
 65
   257
 75
     1
175
     1
 42
1.0
 92
       12
 66
     7
 43
1.0
 76
     1
 77
     6
 78
     2
 67
     7
 79
     5
170
     0
171
     0
290
     0
174
     0
 93
        1
 44
0.0
173
     0
291
     1
 45
0.0
1001
ACAD
1000
AcDbSavedByObjectVersion
1070
     0
  0
VISUALSTYLE
  5
F6
102
{ACAD_XDICTIONARY
360
1A5E2
102
}
102
{ACAD_REACTORS
330
EF
102
}
330
EF
100
AcDbVisualStyle
  2
Wireframe
 70
     5
 71
     0
 72
     2
 73
     0
 90
        0
 40
-0.6
 41
-30.0
 62
     5
 63
     7
 74
     1
 91
        4
 64
     7
 65
   257
 75
     1
175
     1
 42
1.0
 92
        0
 66
   257
 43
1.0
 76
     1
 77
     6
 78
     2
 67
     7
 79
     3
170
     0
171
     0
290
     0
174
     0
 93
        1
 44
0.0
173
     0
291
     0
 45
0.0
1001
ACAD
1000
AcDbSavedByObjectVersion
1070
     0
  0
VISUALSTYLE
  5
1F1
102
{ACAD_XDICTIONARY
360
1A602
102
}
102
{ACAD_REACTORS
330
EF
102
}
330
EF
100
AcDbVisualStyle
  2
X-Ray
 70
    25
 71
     2
 72
     2
 73
     1
 90
        1
 40
0.5
 41
-30.0
 62
     5
 63
     7
 74
     1
 91
        0
 64
     7
 65
   257
 75
     1
175
     1
 42
1.0
 92
        8
 66
     7
 43
1.0
 76
     1
 77
     6
 78
     2
 67
     7
 79
     3
170
     0
171
     0
290
     0
174
     0
 93
       13
 44
0.0
173
     0
291
     0
 45
0.0
1001
ACAD
1000
AcDbSavedByObjectVersion
1070
     0
  0
DICTIONARYVAR
  5
146
102
{ACAD_REACTORS
330
5E
102
}
330
5E
100
DictionaryVariables
280
     0
  1
1:1
  0
DICTIONARYVAR
  5
259
102
{ACAD_REACTORS
330
5E
102
}
330
5E
100
DictionaryVariables
280
     0
  1
3.500000
  0
DICTIONARYVAR
  5
25A
102
{ACAD_REACTORS
330
5E
102
}
330
5E
100
DictionaryVariables
280
     0
  1
acadiso.lin
  0
DICTIONARYVAR
  5
145
102
{ACAD_REACTORS
330
5E
102
}
330
5E
100
DictionaryVariables
280
     0
  1
STANDARD
  0
DICTIONARYVAR
  5
84
102
{ACAD_REACTORS
330
5E
102
}
330
5E
100
DictionaryVariables
280
     0
  1
STANDARD
  0
DICTIONARYVAR
  5
227
102
{ACAD_REACTORS
330
5E
102
}
330
5E
100
DictionaryVariables
280
     0
  1
Metric50
  0
DICTIONARYVAR
  5
228
102
{ACAD_REACTORS
330
5E
102
}
330
5E
100
DictionaryVariables
280
     0
  1
Metric50
  0
DICTIONARYVAR
  5
5F
102
{ACAD_REACTORS
330
5E
102
}
330
5E
100
DictionaryVariables
280
     0
  1
2
  0
DICTIONARYVAR
  5
63
102
{ACAD_REACTORS
330
5E
102
}
330
5E
100
DictionaryVariables
280
     0
  1
1
  0
DICTIONARYVAR
  5
1A577
102
{ACAD_REACTORS
330
5E
102
}
330
5E
100
DictionaryVariables
280
     0
  1
0
  0
DICTIONARYVAR
  5
1AE
102
{ACAD_REACTORS
330
5E
102
}
330
5E
100
DictionaryVariables
280
     0
  1
0
  0
DICTIONARYVAR
  5
1AF
102
{ACAD_REACTORS
330
5E
102
}
330
5E
100
DictionaryVariables
280
     0
  1
0
  0
DICTIONARYVAR
  5
1A575
102
{ACAD_REACTORS
330
5E
102
}
330
5E
100
DictionaryVariables
280
     0
  1
2
  0
DICTIONARYVAR
  5
1A574
102
{ACAD_REACTORS
330
5E
102
}
330
5E
100
DictionaryVariables
280
     0
  1
1
  0
DICTIONARYVAR
  5
1A5C7
102
{ACAD_REACTORS
330
5E
102
}
330
5E
100
DictionaryVariables
280
     0
  1
80.000000
  0
DICTIONARYVAR
  5
1A5C6
102
{ACAD_REACTORS
330
5E
102
}
330
5E
100
DictionaryVariables
280
     0
  1
5.000000
  0
DICTIONARYVAR
  5
1A576
102
{ACAD_REACTORS
330
5E
102
}
330
5E
100
DictionaryVariables
280
     0
  1
127
  0
DICTIONARYVAR
  5
1A5C8
102
{ACAD_REACTORS
330
5E
102
}
330
5E
100
DictionaryVariables
280
     0
  1
2
  0
DICTIONARY
  5
1A60A
330
21C
100
AcDbDictionary
280
     1
281
     1
  3
ACAD_XREC_ROUNDTRIP
360
1A60B
  0
DICTIONARY
  5
1A5CF
330
D3
100
AcDbDictionary
280
     1
281
     1
  3
ACAD_XREC_ROUNDTRIP
360
1A5D0
  0
DICTIONARY
  5
1A5D1
330
D7
100
AcDbDictionary
280
     1
281
     1
  3
ACAD_XREC_ROUNDTRIP
360
1A5D2
  0
DICTIONARY
  5
1A5CC
330
22
100
AcDbDictionary
280
     1
281
     1
  3
ACAD_XREC_ROUNDTRIP
360
1A5CD
  0
DICTIONARY
  5
1F9
330
ED
100
AcDbDictionary
280
     1
281
     1
  3
ACAD_XREC_ROUNDTRIP
360
1A5D4
  3
FBXASSET
360
1FA
  0
DICTIONARY
  5
1F7
330
EC
100
AcDbDictionary
280
     1
281
     1
  3
ACAD_XREC_ROUNDTRIP
360
1A5D3
  3
FBXASSET
360
1F8
  0
DICTIONARY
  5
173
330
EE
100
AcDbDictionary
280
     1
281
     1
  3
ACAD_XREC_ROUNDTRIP
360
1A5D5
  3
BUMPTILE
360
175
  3
DIFFUSETILE
360
174
  3
FBXASSET
360
1FB
  3
OPACITYTILE
360
176
  3
REFLECTIONTILE
360
177
  0
DICTIONARY
  5
1A5F6
330
12E
100
AcDbDictionary
280
     1
281
     1
  3
ACAD_XREC_ROUNDTRIP
360
1A5F7
  0
DICTIONARY
  5
1A608
330
21A
100
AcDbDictionary
280
     1
281
     1
  3
ACAD_XREC_ROUNDTRIP
360
1A609
  0
DICTIONARY
  5
162
330
7F
100
AcDbDictionary
280
     1
281
     1
  3
ACAD_ROUNDTRIP_2008_TABLESTYLE_CELLSTYLEMAP
360
1A5C9
  3
ACAD_XREC_ROUNDTRIP
360
1A5CE
  0
DICTIONARY
  5
1A5E0
330
F5
100
AcDbDictionary
280
     1
281
     1
  3
ACAD_XREC_ROUNDTRIP
360
1A5E1
  0
DICTIONARY
  5
1A5DE
330
F4
100
AcDbDictionary
280
     1
281
     1
  3
ACAD_XREC_ROUNDTRIP
360
1A5DF
  0
DICTIONARY
  5
1A5EC
330
FB
100
AcDbDictionary
280
     1
281
     1
  3
ACAD_XREC_ROUNDTRIP
360
1A5ED
  0
DICTIONARY
  5
1A5F4
330
FF
100
AcDbDictionary
280
     1
281
     1
  3
ACAD_XREC_ROUNDTRIP
360
1A5F5
  0
DICTIONARY
  5
1A5E6
330
F8
100
AcDbDictionary
280
     1
281
     1
  3
ACAD_XREC_ROUNDTRIP
360
1A5E7
  0
DICTIONARY
  5
1A5EA
330
FA
100
AcDbDictionary
280
     1
281
     1
  3
ACAD_XREC_ROUNDTRIP
360
1A5EB
  0
DICTIONARY
  5
1A5FC
330
1E6
100
AcDbDictionary
280
     1
281
     1
  3
ACAD_XREC_ROUNDTRIP
360
1A5FD
  0
DICTIONARY
  5
1A5F2
330
FE
100
AcDbDictionary
280
     1
281
     1
  3
ACAD_XREC_ROUNDTRIP
360
1A5F3
  0
DICTIONARY
  5
1A5D6
330
F0
100
AcDbDictionary
280
     1
281
     1
  3
ACAD_XREC_ROUNDTRIP
360
1A5D7
  0
DICTIONARY
  5
1A5D8
330
F1
100
AcDbDictionary
280
     1
281
     1
  3
ACAD_XREC_ROUNDTRIP
360
1A5D9
  0
DICTIONARY
  5
1A5DA
330
F2
100
AcDbDictionary
280
     1
281
     1
  3
ACAD_XREC_ROUNDTRIP
360
1A5DB
  0
DICTIONARY
  5
1A5DC
330
F3
100
AcDbDictionary
280
     1
281
     1
  3
ACAD_XREC_ROUNDTRIP
360
1A5DD
  0
DICTIONARY
  5
1A5E4
330
F7
100
AcDbDictionary
280
     1
281
     1
  3
ACAD_XREC_ROUNDTRIP
360
1A5E5
  0
DICTIONARY
  5
1A5F8
330
1E4
100
AcDbDictionary
280
     1
281
     1
  3
ACAD_XREC_ROUNDTRIP
360
1A5F9
  0
DICTIONARY
  5
1A5F0
330
FD
100
AcDbDictionary
280
     1
281
     1
  3
ACAD_XREC_ROUNDTRIP
360
1A5F1
  0
DICTIONARY
  5
1A5FA
330
1E5
100
AcDbDictionary
280
     1
281
     1
  3
ACAD_XREC_ROUNDTRIP
360
1A5FB
  0
DICTIONARY
  5
1A5E8
330
F9
100
AcDbDictionary
280
     1
281
     1
  3
ACAD_XREC_ROUNDTRIP
360
1A5E9
  0
DICTIONARY
  5
1A606
330
1F3
100
AcDbDictionary
280
     1
281
     1
  3
ACAD_XREC_ROUNDTRIP
360
1A607
  0
DICTIONARY
  5
1A604
330
1F2
100
AcDbDictionary
280
     1
281
     1
  3
ACAD_XREC_ROUNDTRIP
360
1A605
  0
DICTIONARY
  5
1A5FE
330
1EF
100
AcDbDictionary
280
     1
281
     1
  3
ACAD_XREC_ROUNDTRIP
360
1A5FF
  0
DICTIONARY
  5
1A600
330
1F0
100
AcDbDictionary
280
     1
281
     1
  3
ACAD_XREC_ROUNDTRIP
360
1A601
  0
DICTIONARY
  5
1A5EE
330
FC
100
AcDbDictionary
280
     1
281
     1
  3
ACAD_XREC_ROUNDTRIP
360
1A5EF
  0
DICTIONARY
  5
1A5E2
330
F6
100
AcDbDictionary
280
     1
281
     1
  3
ACAD_XREC_ROUNDTRIP
360
1A5E3
  0
DICTIONARY
  5
1A602
330
1F1
100
AcDbDictionary
280
     1
281
     1
  3
ACAD_XREC_ROUNDTRIP
360
1A603
  0
XRECORD
  5
1A60B
102
{ACAD_REACTORS
330
1A60A
102
}
330
1A60A
100
AcDbXrecord
280
     1
102
DISPLAYNAME
  1
Metric50
102
FLAGS
 90
        0
  0
XRECORD
  5
1A5D0
102
{ACAD_REACTORS
330
1A5CF
102
}
330
1A5CF
100
AcDbXrecord
280
     1
102
SHADEPLOT
 70
     0
102
SHADEPLOTRESLEVEL
 70
     2
102
SHADEPLOTCUSTOMDPI
 70
   300
  0
XRECORD
  5
1A5D2
102
{ACAD_REACTORS
330
1A5D1
102
}
330
1A5D1
100
AcDbXrecord
280
     1
102
SHADEPLOT
 70
     0
102
SHADEPLOTRESLEVEL
 70
     2
102
SHADEPLOTCUSTOMDPI
 70
   300
  0
XRECORD
  5
1A5CD
102
{ACAD_REACTORS
330
1A5CC
102
}
330
1A5CC
100
AcDbXrecord
280
     1
102
SHADEPLOT
 70
     0
102
SHADEPLOTRESLEVEL
 70
     2
102
SHADEPLOTCUSTOMDPI
 70
   300
  0
XRECORD
  5
1A5D4
102
{ACAD_REACTORS
330
1F9
102
}
330
1F9
100
AcDbXrecord
280
     1
102
MATERIAL
148
0.0
149
0.0
149
0.0
 93
        0
 94
       63
282
     0
 72
     1
 77
     1
171
     1
175
     1
179
     1
273
     0
  0
XRECORD
  5
1FA
102
{ACAD_REACTORS
330
1F9
102
}
330
1F9
100
AcDbXrecord
280
     1
 70
     1
 90
429727718
  1
D62C5603-E3A1-4AEA-B7FB-FE5D8D0755AF
310
504B03040A0000080000CC70623B3DEE336E79000000790000001B0000006175746F6465736B2D64657369676E2D7061636B6167652E786D6C3C3F786D6C2076657273696F6E3D22312E302220656E636F64696E673D227574662D3822203F3E3C666F726D6174733E3C666F726D61743E687474703A2F2F736368656D612E
310
6175746F6465736B2E636F6D2F64657369676E2D7061636B6167652F323030393C2F666F726D61743E3C2F666F726D6174733E504B0304140006080800CC70623BD486FD9CA0000000F4000000130000005B436F6E74656E745F54797065735D2E786D6C7D8EC10E82300C865F65E91D8A1E8C310C0EEA1BF002731658846E
310
D98AC1B77784ABF1D8FE5FBFBF75BBCE937A534CCEB38643598122B6FEE978D0B0485F9C41B54DDD7D022595594E1A469170414C76A4D9A4D207E29CF43ECE46F218070CC6BECC4078ACAA135ACF422C856C0E68EA1BF5669944DDD7BCDE7B1F8E415D77AECB980613C2E4AC91FC167A2B244592486606FC29C8FD7F045B9A
310
EF7053A7E60B504B0304140006080800CC70623B853B8169EB0000007C01000008000000636F72652E786D6C8D90416EC3201045AF62CDB6C206821CC7C244919D9CA01740401C94182C03558F5F9C3852BBEB6A467FFE9B197D7EFC9E1EC5975982F5AE035262288C535E5B377690E21535501C055FBC8FBF6C503839990E
310
5619041F179FE64D52DE45E362569DD7661365082642A11EB9E920A89B99642953CC8E702F67A9EE7234257977194EC9EAE275C4EABCCF5EAD5940D4AC6F0E35A568B8F43562CD7046CD199FD07E60174276A7BE677B5EADB0E0D14EEFFB6A31321A0D82627C4084204C3F096B71DD52F6819B16635EADF63F509AF53FA164
310
5DDCD1EDDD17164090FCC8732078B56691CB33A85CD7DCC40F504B0304140006080800CC70623B55019EA25F0000007C00000007000000636E782E786D6C4DCB3B0E80201045D1AD90E915ED2CF8AC45050C11660C8261F98AB1B07AC9C97D42D718D865D3E909258CFD00CCE24AC6E326A164D74DC0B4128928FF32603847
310
2BA13128B1252AC747C6BAB984FC68F0B87FE8960A5C09FE86CFB69FBA01504B0304140006080800CC70623BDBABAAF470010000D40300000C0000006662782F636F72652E786D6CC553D16E823014FD95A6AF4B694182CC941A83FA05FB810A9511A125A5257EFE2E82712ECEB8A7F100CD39F7F69E734AF9FADC366850B6
310
AF8DCE7018308C942E4C59EB2AC3DE1D498AD15A706B8CFB56869196ADCAF00863C12B6B7C374385D14E6907A836A59A41D9F7CA615434B0C8705F7CAA5606D23BA8E84F41278B93AC54100640439DE0BDB320004D43C63716C7C399D30917DCFBBA9CD9BA8469F5B156168B24CED3F7248AC8769F27244EB73B92EED8862C
310
B7F13E0C179B3C8F979C8ECD82BBBABDAA2BAC924E9558448CBD9330242CFA08E3154B5651FCC6D215639C8EE5774DBE2B5F6CF2B5768B68963BB5F5588420E442FC700B1139D4CB01F450C1E918227C2E09DF070D8140C84E1E9AAB8F1340832A9CB13130A5F1376A908D57309505ECF2A0DF179C4E9D30F5B239B87E3823
310
7A79C6F31DE1A8A5AEC08474B03C7837EAE4938639B44E5932B833D2C6B6B279CDC613877FA26EE21F4A2A4C63EC7F29A2F301D1F9F7A0E37D145F504B0304140006080800CC70623B9C113CC27E0000009D0000000B0000006662782F636E782E786D6C4DCCDF0A83201C86E15B91DFB94BFB330DD428C8FB886521330DA7
310
6397BF1A1DECE883878F57749FCDA1B7892F1BBC047A23808C7F84D9FA55424E0BE6803A256208E9EF06C84F9B91703228B1C690F78B66B34CD9A5439DF5CF0BFBF65E35BCA1B8D6A5C6F540381E886698B5741C695F9503EBA150A2F8958E3DC3EA0B504B0304140006080800CC70623B7DF2F77C2A010000120200003100
310
00006662782F41393633353835312D344632462D344230382D423046372D3739314545314133324237412F636F72652E786D6C8D51DB8EC22014FC15C2939B0D2DB4B45643319AE817EC0F6041255A68B86CFCFC856D4D76DF7CE190393373060EDB3DC707F856CE6B6B7A480A0C81328395DA5C7B18C3057510EC3873D686
310
3F34088C18550F330C39BB3A1BA7051AAC09CA84841A2BD5020AEF55806078A44B0FFD7053A328440C89E1EFC52486BBB8AA8214A99D789CF9E05200300FC927E4FB4D5B375D43103D5527440FB843077C5AA3F5861C8F645F5787F59E95B390B318B55CE45AA638FAA2957BD7248B390B7A7CC51F9C124149C82B8C378810
310
84AB2F42B7B8DD56F413775B8C5999E9FF4471926F8AA236A1AE96B8B3CC434E5839373893369E1FAF30EA395917409EB7F26AF8801C171837A4A6AC9C89E9F9C9B1A58BA30FD6A5EF5DDDCF894B9AD9B6A59C957943A9FCAE2FD5BC4DFE03504B0304140006080800CC70623BAD7543B64E01000033030000300000006662
310
782F41393633353835312D344632462D344230382D423046372D3739314545314133324237412F636E782E786D6CD593CD6EC32010845F0571AD6CE3D48AD20813A9873E410FBD12D82434182C7EAAE6EDBB2424CD25871E7B41D6EC30B3FA84F9E67BB2E40B4234DE8DB46F1925E094D7C6ED479AD3AE5951B2113C789FEE
310
6C943839C1488B4C05DF079FE72A69D8C96C13AAD6B8631503449F83828872B949AC57D26200B826A308D316B4064D6E46FCDA41C05550DC9E483A00797BFD207EFB092A45DE9514C1BBD22178396BD39D891265658C238DEA00936C654E5E433CB65A26D9F6EDB5EBC14EBF49A45CB856E66048291F6939A9A81BB5C89177
310
38143CA680F4AA299D66A042CEB3354A2684DC9D8D178FE0D9B8B41CAAD720F880EE7EF93C0C18769E099ECC04D5A102C8049A8A05632F4DDF376CF1DE0F6BB65C2F8627B65A33C6BB62177CEBBDAD973006829F89F22E814B54F4BC2BE347F8AA8F681390B50FA73F804400B5F542E796F19FF974E7F78DB802FE05E20750
310
4B0304140006080800CC70623BE75B7789680500003C100000340000006662782F41393633353835312D344632462D344230382D423046372D3739314545314133324237412F6F626A656374732E786D6CAD575B8F9B3818FD2B887D06C22499CB8AA1CA655245D5B455A356FB305264C061D8018C6C3393D95FBFC7600890
310
A4CD5EF210B0B1BFEBF98E3F7B1FF6596ABC522E1296DF9BAE3D320D9A872C4AF2F8DE2CE5CEBA358D0FBEC719939D65A691938CDE9B6ADAF4BD98B3B2D05311DD91329583D9D5FC0F438434A7A611A644887B5384CF34233629258BA878B12322891DEFF6B66BD70BFB62634E8AE781D082709A4B588AF91C528CDA28B73F
310
1C998EEF39EABBEFA97FBD6A7C7E9553F9D3D79FE442923C3C523610337627CB87ABE99D359D4CC6D6E4FACAB5E6ABF9D2726FC6A3C5F56271377BB88362213924694B38DD99FE47C48627A1E7D49F5A8BB5E1A74C0A599ED3B0F21F1E56366B89112D681E218F0915D0D6F17AD41FBA2A369DCF6335D62ABBD39779D5DDD1
310
11D4D8DE3CBB96B2E04FB8202E41051754A1AA8E8F76B4C6DFE810B580B1547F4B84911149794252234D024EF8BBE963A95AE27B3D310A9D5C215C7960FAEE415ED75694C6AFB17BCACA5D99A60A9AA65F217B0BFC53292ACB92BF283FAD0D3621576592CB5BED907C2FA8E9DF794E35E97BEA31BED21FEB401ABB94C44839
310
DCACBF0E1C5DA8DA5B2F4DFFD32AD86F543D9E565E7056502E157C00AD2671CD534549AB752FCA9CDA00677A313F04E51B22FF19E57B300579E3C97EB29F682D92935CEC18CF901B7B54FD8C51F362B56FC72FE0B3C1EAE335EDCCBF5AEC39ADB17DC238973F804BA5E6F6BFE7AF1FB32E523BE9F3BD571418E3631DCA4D48
310
5250CF639223210A9446CA30052EDF057BD35F8329C1ECD84552BF0DC8D18BE7BCE23BFE6BD960AB4A7DE79923A103BEBD80F911CBAA2C60DB19B01CF164A5583B772EE6D3FFA56666CBCDA74DC97724A48F9A58967497E489C4D979006FD7A05E227A1EBDD0F737C623387A9C844D3709995625106D157315F8B8392CD4E0
310
A0B9A720C4BE9829CEF37EA1E13111214D53925356365ADA634861B52519DD27A00AEB808EAF0628E6F435519D446F45CF2C9CF5214F0A15B2F6D06B79DA3EE3CBF7F56780D2F4E7EF73A0F5E5B02A38D07DC852C6B7C1FBB6664213E0C39E3EBA7FF4E1AD23EA2829407C85E586727488B751B2DB9502BC7B228A3FD68B6E
310
A65A22397E690AA8D158D7E404EC8CDA235CC3B7D1898680131CEC2CDF2638C65196279577750F15884AEE19F94199155B92B13297978469D4F8D358DF0AEF7631E28DC8F0D9F437D5D39A83B2231A1D52D543813A824EF8D44BCFF2FA6A31BD1E8DAD87F1CCB526B3879935BF59CDADD5C37479BB1CDD4CA7B3556B516589
310
EF352754B706114D9C885EC9131DE6EFEB43D99AFE2391C2F958179413D7CFEF6B1B6DB1E7600F00DE6E5C67454A339A4BA2E0FBA85ED26F045D454F463DBFCE484C2F90F2E5E3666003662ED8F755951A7D1BECD5B30B550B2785C8E7320B7292A4838DDA71BBC863ED7613CAF659337A3354231D4FF4A182A54904C2898C
310
98B28C4AD0CE056CCF332A80986E571EE9DBC305BB5FEB7E509220A58D25CF042D712A806AC0AD0C657FDEF80D2D9CEAA2EE4D1C76F60BFE74219A06527D6F82DF6412526107381E55E353090704D085B52408A8913C4ED159D79BDA71BB4BC506F4831350EB6F975CD22D69BF7AC49B91A2C0A9DDA3D5CA36AD20FC478E37
310
E61844E2352865EBCB61A275A65283CAAA9DD27703B4102F5AF51EF5F573B75CBB5AD38BC845F7A49F82A0966A49C2E3EA5EA0ECD326CD965F1DB402C6FA8B51A4658C5C5E2EC9E214602E55810345408596591009A82E7E7FFACA19EEA299B14A0081A705CB3296EBC14CDF658DCD336EA6D1136881AAEB87B81AB9EE53D5
310
F5EB8BC8362082DA24122F98680A4E7930C01A0079749CEA14382A0783E5EBA5A10F8C098456A03D6A4AEB6BB881E2513747552A5DB22C7EDAF83BD5528081A365F7FF06504B0304140006080000CC70623B000000000000000000000000350000006662782F41393633353835312D344632462D344230382D423046372D37
310
39314545314133324237412F76657274696365732E62696E504B0304140006080800CC70623BF270F1330600000004000000360000006662782F41393633353835312D344632462D344230382D423046372D3739314545314133324237412F747269616E676C65732E62696E636660600000504B0304140006080000CC7062
310
3B000000000000000000000000370000006662782F41393633353835312D344632462D344230382D423046372D3739314545314133324237412F617474726962757465732E62696E504B0304140006080800CC70623B08DA0BD19000000041010000360000006662782F41393633353835312D344632462D344230382D4230
310
46372D3739314545314133324237412F6469726563746F72792E786D6C858F410AC3201045AF22B36F53E9A60B35CBEEBAE80D244E44489C6234F4F835464A48035D0DF398FF9F8AF63D0E6CC63039F212F8F9020C7D47C6792B21C5FE7403D62A1188E2E60C98D7234A5830286103A55745067B9D86B8A3CF9C7F90C11DE6
310
07FB144396D7B6A82D282E9A152AD114D5EF2CB866EEE831B8EEA07A7BB5A8D7D61A2BAAEB7FD5F70921FF497D00504B0304140006080800CC70623BEDD1DC58FD000000A00100003B0000006662782F41393633353835312D344632462D344230382D423046372D3739314545314133324237412F7265736F75726365732F
310
636F72652E786D6C8D504B6E833010BD0A9A6D65B00922041947112427E8052C33A156828DFCA97AFC9A40A576D7CDCCE87D344F8F9FBFE667F689CE6B6B3A6039850C8DB2A336530731DC4903D95970676DF82583CCC8193B5861107C72362E3BA4AC096842428D1D7107A5F7182053CF7474E0D507CE32973124857FE48B
310
540F3961CEF244279DE03EB81420DB9EAC1384436FA353E879B1B182C7A8C75DA3C7F453DF353A1075D537A7BA6464B8F535A99AE14A9A2BBD90E350DD183B5CFABE3AF262350B1EF4FC9351399401471025A527C218A1E53BAB5A5AB765F5469B96525EACF23FA6B88CFF34456DC2A1DCE36E360F82A5202F42F062ED2BAD
310
579969AFDD8A6F504B010214000A0000080000CC70623B3DEE336E79000000790000001B00000000000000000000000000000000006175746F6465736B2D64657369676E2D7061636B6167652E786D6C504B01021400140006080800CC70623BD486FD9CA0000000F40000001300000000000000000000000000B20000005B
310
436F6E74656E745F54797065735D2E786D6C504B01021400140006080800CC70623B853B8169EB0000007C010000080000000000000000000000000083010000636F72652E786D6C504B01021400140006080800CC70623B55019EA25F0000007C000000070000000000000000000000000094020000636E782E786D6C504B
310
01021400140006080800CC70623BDBABAAF470010000D40300000C00000000000000000000000000180300006662782F636F72652E786D6C504B01021400140006080800CC70623B9C113CC27E0000009D0000000B00000000000000000000000000B20400006662782F636E782E786D6C504B01021400140006080800CC70
310
623B7DF2F77C2A010000120200003100000000000000000000000000590500006662782F41393633353835312D344632462D344230382D423046372D3739314545314133324237412F636F72652E786D6C504B01021400140006080800CC70623BAD7543B64E010000330300003000000000000000000000000000D2060000
310
6662782F41393633353835312D344632462D344230382D423046372D3739314545314133324237412F636E782E786D6C504B01021400140006080800CC70623BE75B7789680500003C10000034000000000000000000000000006E0800006662782F41393633353835312D344632462D344230382D423046372D3739314545
310
314133324237412F6F626A656374732E786D6C504B01021400140006080000CC70623B0000000000000000000000003500000000000000000000000000280E00006662782F41393633353835312D344632462D344230382D423046372D3739314545314133324237412F76657274696365732E62696E504B01021400140006
310
080800CC70623BF270F133060000000400000036000000000000000000000000007B0E00006662782F41393633353835312D344632462D344230382D423046372D3739314545314133324237412F747269616E676C65732E62696E504B01021400140006080000CC70623B0000000000000000000000003700000000000000
310
000000000000D50E00006662782F41393633353835312D344632462D344230382D423046372D3739314545314133324237412F617474726962757465732E62696E504B01021400140006080800CC70623B08DA0BD1900000004101000036000000000000000000000000002A0F00006662782F41393633353835312D344632
310
462D344230382D423046372D3739314545314133324237412F6469726563746F72792E786D6C504B01021400140006080800CC70623BEDD1DC58FD000000A00100003B000000000000000000000000000E1000006662782F41393633353835312D344632462D344230382D423046372D3739314545314133324237412F7265
310
736F75726365732F636F72652E786D6C504B0506000000000E000E0080040000641100000000
  0
XRECORD
  5
1A5D3
102
{ACAD_REACTORS
330
1F7
102
}
330
1F7
100
AcDbXrecord
280
     1
102
MATERIAL
148
0.0
149
0.0
149
0.0
 93
        0
 94
       63
282
     0
 72
     1
 77
     1
171
     1
175
     1
179
     1
273
     0
  0
XRECORD
  5
1F8
102
{ACAD_REACTORS
330
1F7
102
}
330
1F7
100
AcDbXrecord
280
     1
 70
     1
 90
429727718
  1
30362254-06B7-45E0-A893-8CFA70E3D6BC
310
504B03040A0000080000CC70623B3DEE336E79000000790000001B0000006175746F6465736B2D64657369676E2D7061636B6167652E786D6C3C3F786D6C2076657273696F6E3D22312E302220656E636F64696E673D227574662D3822203F3E3C666F726D6174733E3C666F726D61743E687474703A2F2F736368656D612E
310
6175746F6465736B2E636F6D2F64657369676E2D7061636B6167652F323030393C2F666F726D61743E3C2F666F726D6174733E504B0304140006080800CC70623BD486FD9CA0000000F4000000130000005B436F6E74656E745F54797065735D2E786D6C7D8EC10E82300C865F65E91D8A1E8C310C0EEA1BF002731658846E
310
D98AC1B77784ABF1D8FE5FBFBF75BBCE937A534CCEB38643598122B6FEE978D0B0485F9C41B54DDD7D022595594E1A469170414C76A4D9A4D207E29CF43ECE46F218070CC6BECC4078ACAA135ACF422C856C0E68EA1BF5669944DDD7BCDE7B1F8E415D77AECB980613C2E4AC91FC167A2B244592486606FC29C8FD7F045B9A
310
EF7053A7E60B504B0304140006080800CC70623B1EC5D7A3EB0000007C01000008000000636F72652E786D6C8D90416EC3201045AF82665B6103C6756C6122AB4D4ED00B204C5C94182C03558F5F9C3852BBEB6A467FFE9B197D71FC9E6FE8CBACC17AD7032D0820E3B41FAD9B7A48F1820F808E52ACDEC75F36404ECDA687
310
4D0629A6D5A76597B477D1B89855E747B38B2A041301E95B6E7A08FAD3CCAA50296647B8168BD2573599823EBB0CA76447F43862C7BCCF5EAC59410E4DDD9C7973C2755553CCCFA4C603E3040F1565ED3B1FDE4E432BCA0D9622DAF9795FAF464533826484B498524CD807E51D79ED187F21878E10516EF63F505AC67F42C9
310
BA58B1FDDD071640D2FCC87D2045B96591CB3DA85CB7DCE40F504B0304140006080800CC70623B55019EA25F0000007C00000007000000636E782E786D6C4DCB3B0E80201045D1AD90E915ED2CF8AC45050C11660C8261F98AB1B07AC9C97D42D718D865D3E909258CFD00CCE24AC6E326A164D74DC0B4128928FF32603847
310
2BA13128B1252AC747C6BAB984FC68F0B87FE8960A5C09FE86CFB69FBA01504B0304140006080800CC70623B8C9102E971010000D40300000C0000006662782F636F72652E786D6CC5535B6E833010BC8AE5DF0A6C08340F1947A84D4ED00B38C6A128602363A31CBFCB234A53A551FA553EC09AD9F5CE8C31DB9E9B1AF5CA
310
7695D1198E428A91D2D214952E33ECDD315861B4E5CC1AE3BE9561A445A3323CC098B3D21ADFCE9034DA29ED00D5A6503328BA4E398C640D8B0C77F253352214DE4145770A5B214FA2546114020D759C75CE8200340D19DE981F0F6746269C33EFAB6266AB02A655C74A59CCF365BADC27CB5D902ED22848F6340DF238A141
310
BE88E2F57B92BFEDF23523433367AE6A2EEAA455C2A902F398D2751045018D3FA264435F3771F242571B4A1919CA6F9A7C5B3CD9E42BED16F12C776AEB308F40C848FC700B1139D4891EF410CEC810227CC6846F8386402064270EF5C5C709A05E49676C024C61FC95EA45ED154CA5211D1FF4FB8291A913A68E9B83EBBB33
310
E2A7673CDE118E5AE8124C0807CB8377834E366998436B950D7A7746DAD846D4CFD978E0F04FD455FC5D49D2D4C6FE9722321F10997F0F32DC47FE05504B0304140006080800CC70623BFFEA85907E0000009D0000000B0000006662782F636E782E786D6C4DCCD10A83201886E15B91FFDC95D95A811AB6F23E625948A6C3
310
E9D8E5AF46073BFAE0E1E365ED67B3E8ADC3CB78C7815C7240DA3DFC64DCC221C519D7805AC182F7F1EF06C88D9BE6703008B6049F9E274D7A1E938DBB5AE3D6131B2589BA0D3D965551E0B2EA732C9B9A624AAEB41E3A557677029960D9AFB4EF11165F504B0304140006080800CC70623B4FEEA4082C0100001202000031
310
0000006662782F39464131463745442D413632322D343644302D413938332D3331353338454246344243312F636F72652E786D6C8D515B6EC32010BC0AE2AB55850DD871ED0813254D72825EC00192A2C460F1A872FC42ED48ED5F7E00CDCECCCEB26C731F6FE05B39AFADE921293004CA082BB5B9F43086336A21D870E6AC
310
0D7F68109861543DCC30E4ECE26C9C164858139409093556AA051CBC570102714B8F1E7AF1A5C6A11862480C7F2DA6415C878B2A4891CA89C7990F2E050073937C42DE1DB7E4F87ED8A36D4329AA9B3D46DBAEAD504556557BD81DEBDD0761E52CE42C462D17B996298E3E6BE59E35C962CE821E1FF18553435012728A7187
310
0841987E927A8D9B35ADDF70BBC6989599FE4F1427F9A4286A132ABAC49D651EF234CD5CE04CDA78BA3DC2A8FB645D00B9DF8B57E215725C60BCA2A463E54C4CE327C7A65E1C7DB02E7DEFCBF594B864C5CA6CDBD49C957943E9FA5D5FBAF336F90F504B0304140006080800CC70623BAD7543B64E01000033030000300000
310
006662782F39464131463745442D413632322D343644302D413938332D3331353338454246344243312F636E782E786D6CD593CD6EC32010845F0571AD6CE3D48AD20813A9873E410FBD12D82434182C7EAAE6EDBB2424CD25871E7B41D6EC30B3FA84F9E67BB2E40B4234DE8DB46F1925E094D7C6ED479AD3AE5951B2113C
310
789FEE6C943839C1488B4C05DF079FE72A69D8C96C13AAD6B8631503449F83828872B949AC57D26200B826A308D316B4064D6E46FCDA41C05550DC9E483A00797BFD207EFB092A45DE9514C1BBD22178396BD39D891265658C238DEA00936C654E5E433CB65A26D9F6EDB5EBC14EBF49A45CB856E66048291F6939A9A81BB5
310
C8917738143CA680F4AA299D66A042CEB3354A2684DC9D8D178FE0D9B8B41CAAD720F880EE7EF93C0C18769E099ECC04D5A102C8049A8A05632F4DDF376CF1DE0F6BB65C2F8627B65A33C6BB62177CEBBDAD973006829F89F22E814B54F4BC2BE347F8AA8F681390B50FA73F804400B5F542E796F19FF974E7F78DB802FE05
310
E207504B0304140006080800CC70623B16AB87BA640500003C100000340000006662782F39464131463745442D413632322D343644302D413938332D3331353338454246344243312F6F626A656374732E786D6CAD575B6FA33818FD2B887DE6924B3BED8A326A92B68A663B534DD4D13E548A0C38942D60649B369D5FBFC7
310
600890A493BDE42160637FD7F31D7FF63E6FB3D478A55C242CBF3247B66B1A340F5994E4F19559CA8D75611A9F7D8F33263BCB4C232719BD32D5B4E97B316765A1A722BA21652A07B3B7B33F0D11D29C9A46981221AE4C113ED38CD8A4942CA2E2C58E882476BCD9DA23BB5ED8171B73523C0F841684D35CC252CCE79062D4
310
468DFA43D7747CCF51DF7D4FFDEB5593E3AB9CCA9FBEFE241792E4E19EB28198C968BAB8199F5D5A67D3E9C49A9E8F47D6EC76B6B0469F26EEFC7C3EBFBCBEB98462213924694B38DD98FE1D62C393D073EA4FADC5DAF04326852CCF6958F90F0F2B9BB5C48816348F90C7840A68EB78EDF68723159BCEE7891A6B95DDE9D3
310
BCEAEEE8086A6C6F9E5D4B59F0175C10A7A0820BAA5055C7473B5AE3CFDD452D602CD5DF12616444529E90D448938013FE6EFA58AA96F85E4F8C42275708571E98FE6827AF6B2B4AE3D7D83D64E5A64C53054DD3AF90BD06FEA9149565C94FCA0F6B834DC85599E4F2423B24DF0B6AFA979E534DFA9E7A4CC6FA631D486393
310
921829879BF5D781A373557BCB85E97FB90DB62B558F8795179C15944B051F40AB495CF35451D26A4727654E6D8033BD98EF82F21D91FF8AF2DD9982BCF1643BDD4EB516C9492E368C67C88DED563FC36D5EACF66DFF057C3658BDBFA69DF9578B3DA735B64F18C7F20770A9D45CFCF7FCF563D6456A277DBEF78A02637CA2
310
43B90A490AEAB94F72244481D24819A6C0E59B606BFA4B3025981DBB48EAB701D97BF19C577CC77F2D1B6C55A9EF3C732474C0B727303F625995056C3B02963D9EAC146BE78EC5FCEC7FA999EBC5EACBAAE41B12D27B4D2C0BBA49F244E2ECDC81B76B502F113D8F5EE8FB1BE3111CDD4FC2AA9B844CAB1288B68AB90A7CDC
310
1C166AB0D3DC5310625FCC14E779BFD0709F8890A629C9292B1B2DED31A4B0DA928CEE135085754027E3018A397D4D5427D15BD1330B677DC8934285AC3DF45A9EB68FF8F2B8FC0A509AFEECFD0FF2DE25CC6047F7214B195F07EFEB9A094D800F7BFAE8FED187B78EA8A3A400F115961BCAD1215E47C966530AF0EE8128FE
310
58CEBB996A8964FFA529A046635D9353B0336A8F700DDF46271A024E70B0B37C9DE01847591E54DED53D54202AB947E4076556AC49C6CA5C9E1226B7F1A7B1BE15DEED62C41B91E1B3E9AFAAA735036547343A925075041DF0A9979E893B391F8FCFA6967B3EFB644DCF6E5CEBFAE272625DCC6FAF3FB93793C5F90CE1EF57
310
407342756B10D1C489E8953CD1617E5CEECAD6F4EF8914CE5D5D504E5C3F1F9736DA62CFC11E00BCDDB8CC8A9466349744C1F75EBDA4DF09BA8A9E8C7A7E9991989E20E5DBDD6A6003664ED8F7A04A8DBE0DF6EAD9B9AA858342E47399053949D2C146EDB85DE4B176BB0965FBAC19BD19AA918E27FA50C1D22402E144464C
310
59462568E704B6E71915404CB72B8FF4EDE184DDAF753F284990D2C6926782963815403548A70C657FDEF80D2D9CEAA2AE4C1C76F60BFE74219A06527D6582DF6412526107381E55E353090704D085B52408D0933C4ED159D79BDA71BB4BC506F4831350EB6F979CD22D69BF7AC49B91A2C0A9DDA3D5CA36AD20FC478E37E6
310
1844E2352865EBCB6EA275A652E3836BE04EFB400BF1A2556F515F1FBB35B2AB35BD889C744FFA1004B5544B121E57F70215746DD2F5E2C1412B602CBF19455AC6C8E5E9922C4E01E65215385004546899059180EAFCF7A707CE7017CD8CDB0410789AB32C63B91E5CEBBBACB17AC6CD347A022D5075FD106377347AAABA7E
310
7D11590744509B44E205134DC1290F06580320F78E537D3D73540E06CB970B431F185308AD40BBD794D6D77003C5A36E8EAA54BA64597CD8F83BD552A080A365F7FF06504B0304140006080000CC70623B000000000000000000000000350000006662782F39464131463745442D413632322D343644302D413938332D3331
310
353338454246344243312F76657274696365732E62696E504B0304140006080800CC70623BF270F1330600000004000000360000006662782F39464131463745442D413632322D343644302D413938332D3331353338454246344243312F747269616E676C65732E62696E636660600000504B0304140006080000CC70623B
310
000000000000000000000000370000006662782F39464131463745442D413632322D343644302D413938332D3331353338454246344243312F617474726962757465732E62696E504B0304140006080800CC70623B08DA0BD19000000041010000360000006662782F39464131463745442D413632322D343644302D413938
310
332D3331353338454246344243312F6469726563746F72792E786D6C858F410AC3201045AF22B36F53E9A60B35CBEEBAE80D244E44489C6234F4F835464A48035D0DF398FF9F8AF63D0E6CC63039F212F8F9020C7D47C6792B21C5FE7403D62A1188E2E60C98D7234A5830286103A55745067B9D86B8A3CF9C7F90C11DE607
310
FB144396D7B6A82D282E9A152AD114D5EF2CB866EEE831B8EEA07A7BB5A8D7D61A2BAAEB7FD5F70921FF497D00504B0304140006080800CC70623B0D6EF93BFE000000A00100003B0000006662782F39464131463745442D413632322D343644302D413938332D3331353338454246344243312F7265736F75726365732F63
310
6F72652E786D6C8D50596E833010BD0A9ADFCA60B334011947A8694ED00B586642AC041B79A97AFC9A40A5F6AF3F33A3B7689E1E3F7DCD8FEC139DD7D6F4C0720A191A65476DA61E62B892236427C19DB5E1970C322367EC618541F0C9D9B8EC90B226A009093576C41D94DE63804C3DD2D18357379C652E63480A7FCF17A9
310
EE72C29CE5894E3AC17D702940B63D59270887DE46A7D0F36263058F518FBB468FE9A7BE6A7420864373B8D4873369AA8691FA421B3294352543C5CAF65C0F6FEF43CB8BD52C78D0F34F46E550061C419494B6843142CB0F5677F4B52BEB177AEC28E5C52AFF638ACBF84F53D42654E51E77B379102C05791282176B5F693D
310
CB4C7BED567C03504B010214000A0000080000CC70623B3DEE336E79000000790000001B00000000000000000000000000000000006175746F6465736B2D64657369676E2D7061636B6167652E786D6C504B01021400140006080800CC70623BD486FD9CA0000000F40000001300000000000000000000000000B20000005B
310
436F6E74656E745F54797065735D2E786D6C504B01021400140006080800CC70623B1EC5D7A3EB0000007C010000080000000000000000000000000083010000636F72652E786D6C504B01021400140006080800CC70623B55019EA25F0000007C000000070000000000000000000000000094020000636E782E786D6C504B
310
01021400140006080800CC70623B8C9102E971010000D40300000C00000000000000000000000000180300006662782F636F72652E786D6C504B01021400140006080800CC70623BFFEA85907E0000009D0000000B00000000000000000000000000B30400006662782F636E782E786D6C504B01021400140006080800CC70
310
623B4FEEA4082C0100001202000031000000000000000000000000005A0500006662782F39464131463745442D413632322D343644302D413938332D3331353338454246344243312F636F72652E786D6C504B01021400140006080800CC70623BAD7543B64E010000330300003000000000000000000000000000D5060000
310
6662782F39464131463745442D413632322D343644302D413938332D3331353338454246344243312F636E782E786D6C504B01021400140006080800CC70623B16AB87BA640500003C1000003400000000000000000000000000710800006662782F39464131463745442D413632322D343644302D413938332D3331353338
310
454246344243312F6F626A656374732E786D6C504B01021400140006080000CC70623B0000000000000000000000003500000000000000000000000000270E00006662782F39464131463745442D413632322D343644302D413938332D3331353338454246344243312F76657274696365732E62696E504B01021400140006
310
080800CC70623BF270F133060000000400000036000000000000000000000000007A0E00006662782F39464131463745442D413632322D343644302D413938332D3331353338454246344243312F747269616E676C65732E62696E504B01021400140006080000CC70623B0000000000000000000000003700000000000000
310
000000000000D40E00006662782F39464131463745442D413632322D343644302D413938332D3331353338454246344243312F617474726962757465732E62696E504B01021400140006080800CC70623B08DA0BD190000000410100003600000000000000000000000000290F00006662782F39464131463745442D413632
310
322D343644302D413938332D3331353338454246344243312F6469726563746F72792E786D6C504B01021400140006080800CC70623B0D6EF93BFE000000A00100003B000000000000000000000000000D1000006662782F39464131463745442D413632322D343644302D413938332D3331353338454246344243312F7265
310
736F75726365732F636F72652E786D6C504B0506000000000E000E0080040000641100000000
  0
XRECORD
  5
1A5D5
102
{ACAD_REACTORS
330
173
102
}
330
173
100
AcDbXrecord
280
     1
102
MATERIAL
148
0.0
149
0.0
149
0.0
 93
        0
 94
       63
282
     0
 72
     1
 77
     1
171
     1
175
     1
179
     1
273
     0
  0
XRECORD
  5
175
102
{ACAD_REACTORS
330
173
102
}
330
173
100
AcDbXrecord
280
     1
270
     1
271
     1
  0
XRECORD
  5
174
102
{ACAD_REACTORS
330
173
102
}
330
173
100
AcDbXrecord
280
     1
270
     1
271
     1
  0
XRECORD
  5
1FB
102
{ACAD_REACTORS
330
173
102
}
330
173
100
AcDbXrecord
280
     1
 70
     0
 90
1673772943
  1
ECE7A1D2-D628-4531-984C-D00F80459256
310
504B03040A0000080000CC70623B3DEE336E79000000790000001B0000006175746F6465736B2D64657369676E2D7061636B6167652E786D6C3C3F786D6C2076657273696F6E3D22312E302220656E636F64696E673D227574662D3822203F3E3C666F726D6174733E3C666F726D61743E687474703A2F2F736368656D612E
310
6175746F6465736B2E636F6D2F64657369676E2D7061636B6167652F323030393C2F666F726D61743E3C2F666F726D6174733E504B0304140006080800CC70623BD486FD9CA0000000F4000000130000005B436F6E74656E745F54797065735D2E786D6C7D8EC10E82300C865F65E91D8A1E8C310C0EEA1BF002731658846E
310
D98AC1B77784ABF1D8FE5FBFBF75BBCE937A534CCEB38643598122B6FEE978D0B0485F9C41B54DDD7D022595594E1A469170414C76A4D9A4D207E29CF43ECE46F218070CC6BECC4078ACAA135ACF422C856C0E68EA1BF5669944DDD7BCDE7B1F8E415D77AECB980613C2E4AC91FC167A2B244592486606FC29C8FD7F045B9A
310
EF7053A7E60B504B0304140006080800CC70623BD9DDAED0EC0000007C01000008000000636F72652E786D6C8D90416EC3201045AF82665B61836D9CD8C2444DD39CA01740405C94182C03558F5F9C3852BBEB6A467FFE9B197D7EF89E6EE8CB2CC17A37002D0820E394D7D68D03A478C17B4007C117EFE32F1B20272733C0
310
2A83E0E3E2D3BC49CABB685CCCAAF3DA6CA20CC14440EA969B0182FA34932C648AD911AEC52CD5558EA6A0CF2EC329598D1E47ACCEFBECC59A050463A7EA5833865FEBDD0E37353BE3EE8DBDE3F6786A48D375FBF6CC78B9C282473B3DEFABC5C86834888A900E538A49F5419B9EB47DD5BC907D4F082F57FB1F28CDFA9F50
310
B22ED6D5F6EE030B20687EE43E10BC5CB3C8E51E54AE6B6EE207504B0304140006080800CC70623B55019EA25F0000007C00000007000000636E782E786D6C4DCB3B0E80201045D1AD90E915ED2CF8AC45050C11660C8261F98AB1B07AC9C97D42D718D865D3E909258CFD00CCE24AC6E326A164D74DC0B4128928FF326038
310
472BA13128B1252AC747C6BAB984FC68F0B87FE8960A5C09FE86CFB69FBA01504B0304140006080800CC70623BA24EB22D72010000D40300000C0000006662782F636F72652E786D6CC5535B6E833010BC8AE5DF0A6C5E49888CA3A6694ED00B38E05014B091B1518EDFE511A5A9D228FD2A1F60CDEC7A67C6986DCE4D8D7A
310
69BA4AAB0C073EC548AA5C17952A33ECECD15B61B4E1CC686DBF9561A44423333CC098B3D268D7CE50AE9595CA02AA74216750749DB418E5352C32DCE59FB211BE70162ABA93DF8AFC244AE9073ED050C759670D0840D390E18DF9F1706664C23973AE2A66B62A605A75ACA4C13C4976E1364A12EF355A2EBD384AF65EFA96
310
BC7B8BED2EA6719AAE16FB8491A199335B351775B991C2CA02F390D2D40B028F861F41BCA68B7518BFD0D59A524686F29B26D7164F36B94AD9289CE54E6D1DE6010819891F6E21228B3AD1831EC219194284CF98F06DD01008846CC5A1BEF83801D4CBDC6A1303536877A57A513B0953A94FC707FDBE6064EA84A9E3E6E0FA
310
EE8CF0E9198F7784A316AA0413C2C2F2E0ECA0934D1AE6D05A69BCDE9E91D2A611F573361E38FC1375157F5752AE6B6DFE4B11990F88CCBF0719EE23FF02504B0304140006080800CC70623B408A7D3B7C0000009D0000000B0000006662782F636E782E786D6C4DCCD10A83201886E15B91FFDC552A92A0064DBC8F581632
310
D3703A76F9ABD1C18E3E78F878E5F0D9027ABBFCF2292AE86E2D20171F69F6715550CB827B40839639A5F2770314A7CD293819B45C73AAFB45B35BA61ACAA1C1C7E7855C58C15BC331339661262CC762340413D68D77DA5B42298546CBE6573AF60CEB2F504B0304140006080800CC70623B449FB9BD290100001202000031
310
0000006662782F36394639363044362D344446342D343946362D394244322D3234314243333846323333332F636F72652E786D6C8D515B6EC32010BC0AE22B55850D98B871848994463E412FE002495162B07854397EA176A4F62F3F2C9A9D991D587EB84F37F0AD7D30CEF6905418026DA553C65E7A98E219ED203808EE9D
310
8B7F6810D871D23D2C3014FCE25D9A57483A1BB58D19B54EE9151C43D0110279CB971E06F9A5A7B11A53CC8C70ADE6515EC78BAE4895DB992778883E0700CB907242D17643D7E2538BD869608875438BBAE38922CAC8F1BDD90DB4691A5E2F42C153326A951B95E398B3D1FE599322163C9AE9115F7A3D46ADA0A018778810
310
84E907617BDCEE297BC5BB3DC6BC2EF47FA234AB2745C9D8D8D035EE220B50105E2F0DC1954B9FB747187D9F9D8FA0CCDB042D5FA0C015C65B42DF78BD10F3F3B363CB56C7109DCFDFBBB97E662ED92EB62D13BC2E1BCAE5777DB9966D8A1F504B0304140006080800CC70623BAD7543B64E01000033030000300000006662
310
782F36394639363044362D344446342D343946362D394244322D3234314243333846323333332F636E782E786D6CD593CD6EC32010845F0571AD6CE3D48AD20813A9873E410FBD12D82434182C7EAAE6EDBB2424CD25871E7B41D6EC30B3FA84F9E67BB2E40B4234DE8DB46F1925E094D7C6ED479AD3AE5951B2113C789FEE
310
6C943839C1488B4C05DF079FE72A69D8C96C13AAD6B8631503449F83828872B949AC57D26200B826A308D316B4064D6E46FCDA41C05550DC9E483A00797BFD207EFB092A45DE9514C1BBD22178396BD39D891265658C238DEA00936C654E5E433CB65A26D9F6EDB5EBC14EBF49A45CB856E66048291F6939A9A81BB5C89177
310
38143CA680F4AA299D66A042CEB3354A2684DC9D8D178FE0D9B8B41CAAD720F880EE7EF93C0C18769E099ECC04D5A102C8049A8A05632F4DDF376CF1DE0F6BB65C2F8627B65A33C6BB62177CEBBDAD973006829F89F22E814B54F4BC2BE347F8AA8F681390B50FA73F804400B5F542E796F19FF974E7F78DB802FE05E20750
310
4B0304140006080800CC70623B8D05915C650500003B100000340000006662782F36394639363044362D344446342D343946362D394244322D3234314243333846323333332F6F626A656374732E786D6CAD575B6FA33814FE2B887D06429276DA1565D4266D158D3A339A6846FB502932E050B66023DB74D2FDF5FB190C01
310
9276B2973C046C8ECFF53B17071F77456EBD502133CEAE6CDF9DD81665314F32965ED995DA3A17B6F5310C04E7AA47665B8C14F4CAD6DB7618A48257A5D94AE89654B91AEDDEDDFC61C998326A5B714EA4BCB265FC440BE2924AF184CA6737218AB8E976E7FA6E4338649B0A523E8D98964450A6A029F619B8588D52FE7039
310
B1BD30F0F4F730D0FF866AF6369557DB33949F31A9088B0F848DD8CCFCF9F2767A76E99CCDE733677E3EF59D9BBB9BA5E37F984D16E78BC5E5F5ED25044B25C0C96822E8D60EEFE11B91C581D77CEA34368A1F5329E68CD1B8B61F16D63A1B8E092D294B10C78C4A48EB593D192E7DED9BDEE7995E1B91FDEDD3ACEA9FE831
310
6A756F9F7D4D79F4274C90A7A04248AA51D5F8C718DAE06FB2F75AC4796EBE65D22A88A22223B995679120E2D50E41AA49C260C046A35368846B0BECD0DFF3EBEB8AD4F835768F69B9ADF25C43D30E6B646F807FAA64AD59F61715C7A54127C4AACA98BA3006A9D792DAE165E0D59B61A01FB3A9F9D838D2DAE62445C86166
310
F37564E842E7DE6A69879FEEA2DD5AE7E371E1A5E025154AC307D06A03D73EB5978C58FFA4C8E9033066E0F3BD53BEC1F39F91BE7B55103791EDE6BBB991A2046172CB4581D8B893FA674DDA17A77B3B7C413D1B511FD2743BFF8A38F03A658705E3ADF8015C3A3417FF3D7E439FF591DA0B5F18BC20C1B8981957AE6392A3
310
F43C640C01D1A0B4728E2DD4F26DB4B3C3152A252A3B4E913CEC1C72F012782FF88EFF8637AA552DBEF76408E8A8DE9E50F9E1CB3A2DA0DB1B6039A893B56063DC5B3E3FFB5F72E67AB9FEB4AEC496C4F4C1149625DD662C53E89D7BF0F6151A046260D1337DFDC94502430F83B0EE07A130A224BCAD7DAE1D9FB6CD422FF6
310
920702629C4BB9AE79C12F243C6432A6794E18E5552BA56B431AAB5D91317302B2B071E86C3A42B1A02F999E24061403B5D0EB639195DA655DD3EBEAB4FB862DDF579F014AD0E73C22F99E28DA57FB98E75C6CA2D74D53086D600F4786E0FE3144B771A8A7B900F03594DB8A633CBC49B2EDB69228BB479CF863B5E807AAAB
310
23872F6DFEB4129B949CA33823F58830E86D65621E10047D9DB34D862E8EAC3C2ABC2F7B2C40D67CDFE01F5545B92105AF983AC54D93D69E56FB8E797F88913F898A9FEC705D3F9D1B54EC8426FB500D40A03BD0119B06E1B95DDC7EB8F6975367793EBD70E66733DFB9BC982F9CE564727731999F5D4ECFCE3B8D6A4DC2A0
310
6D50FD148437D110834A64C6CDDF57FBACB5C307A2A477DFE4939736CFEF2B175371E0E10CF0DD1D5C15654E0BCA14D1E87DD02FF93782A162C0A3D95F1524A52770F972BF1EE9809D13CE7DD599467F8ECE9ADD85CE85A34CD45355448C64F9E8A031DC2D596ACC6E5DD93D9B82DE2EF5CAF81363A8E47996A0DE24564A79
310
4115AACE09C55E14540231FDA13C319787134EBF34E3A022514E5B4D9E0826E25C02D5805B15ABE1BEF51B26383D445DD9E875EE33FE4C22DA16427D65A3BCA92CA6D28DD01DF5DC53330704308475351050232CCD31583787BA75774AFB06E5070DD0C8EF484E19968C5D83BA5B90B244D31E54D55A372320FE4786B7EA58
310
44E135AA5467CB7EA333A61683CC6A8C3257034C10CF46F40EF9F5BE59BE5BD30C3C72D235E95D10345C1D45445A5F0BB47E46A5EBE5570F9380B5FA629579952296A773720405982B9DE04011506178964401AA8BDF1FBF0A8EAB6861DD6580C0E38217056766716DAEB2D6FA0917D3E4116581EADB879C4E7CFFB11EFACD
310
3D641311495D92C8676CB409A72D18610D803CE8A626049E8EC1887CB5B44CC39883690DDA8399B4B9855B481E7D71D4A9D22F96E5BB73BF5793020C02137BF837504B0304140006080000CC70623B000000000000000000000000350000006662782F36394639363044362D344446342D343946362D394244322D32343142
310
43333846323333332F76657274696365732E62696E504B0304140006080800CC70623BF270F1330600000004000000360000006662782F36394639363044362D344446342D343946362D394244322D3234314243333846323333332F747269616E676C65732E62696E636660600000504B0304140006080000CC70623B0000
310
00000000000000000000370000006662782F36394639363044362D344446342D343946362D394244322D3234314243333846323333332F617474726962757465732E62696E504B0304140006080800CC70623B08DA0BD19000000041010000360000006662782F36394639363044362D344446342D343946362D394244322D
310
3234314243333846323333332F6469726563746F72792E786D6C858F410AC3201045AF22B36F53E9A60B35CBEEBAE80D244E44489C6234F4F835464A48035D0DF398FF9F8AF63D0E6CC63039F212F8F9020C7D47C6792B21C5FE7403D62A1188E2E60C98D7234A5830286103A55745067B9D86B8A3CF9C7F90C11DE607FB14
310
4396D7B6A82D282E9A152AD114D5EF2CB866EEE831B8EEA07A7BB5A8D7D61A2BAAEB7FD5F70921FF497D00504B0304140006080800CC70623BCA768048FE000000A00100003B0000006662782F36394639363044362D344446342D343946362D394244322D3234314243333846323333332F7265736F75726365732F636F72
310
652E786D6C8D50596E833010BD0A9ADFCA60D600328E9AA639412F609909B1126CE4A5EAF16B0295DABFFECC8CDEA2797AECF8353F924FB44E193D409E5248504B332A3D0D10FC95B4901C39B3C6F85F3248B49871801506CE266BC2B243D2688FDA47549B11775038871E12F988C7004EDE7016A9083E2ADC3D5D84BC8B09
310
D33C8D74D471E6BC8D0192EDC93A815B742658898E651BCB59086ADC356A8C3FD555A1055ED7E7E254D615792D0F075295F585746FF53B694EE78A565DD736979A65AB9933AFE69F8CD2A2F038022F28ED489E135A7CE4554F9BBEA85E68DB53CAB255FEC71496F19FA6A0B42F8B3DEE6673C0F318E4497096AD7DC5F52C33
310
EEB55BFE0D504B010214000A0000080000CC70623B3DEE336E79000000790000001B00000000000000000000000000000000006175746F6465736B2D64657369676E2D7061636B6167652E786D6C504B01021400140006080800CC70623BD486FD9CA0000000F40000001300000000000000000000000000B20000005B436F
310
6E74656E745F54797065735D2E786D6C504B01021400140006080800CC70623BD9DDAED0EC0000007C010000080000000000000000000000000083010000636F72652E786D6C504B01021400140006080800CC70623B55019EA25F0000007C000000070000000000000000000000000095020000636E782E786D6C504B0102
310
1400140006080800CC70623BA24EB22D72010000D40300000C00000000000000000000000000190300006662782F636F72652E786D6C504B01021400140006080800CC70623B408A7D3B7C0000009D0000000B00000000000000000000000000B50400006662782F636E782E786D6C504B01021400140006080800CC70623B
310
449FB9BD290100001202000031000000000000000000000000005A0500006662782F36394639363044362D344446342D343946362D394244322D3234314243333846323333332F636F72652E786D6C504B01021400140006080800CC70623BAD7543B64E010000330300003000000000000000000000000000D20600006662
310
782F36394639363044362D344446342D343946362D394244322D3234314243333846323333332F636E782E786D6C504B01021400140006080800CC70623B8D05915C650500003B10000034000000000000000000000000006E0800006662782F36394639363044362D344446342D343946362D394244322D32343142433338
310
46323333332F6F626A656374732E786D6C504B01021400140006080000CC70623B0000000000000000000000003500000000000000000000000000250E00006662782F36394639363044362D344446342D343946362D394244322D3234314243333846323333332F76657274696365732E62696E504B010214001400060808
310
00CC70623BF270F13306000000040000003600000000000000000000000000780E00006662782F36394639363044362D344446342D343946362D394244322D3234314243333846323333332F747269616E676C65732E62696E504B01021400140006080000CC70623B00000000000000000000000037000000000000000000
310
00000000D20E00006662782F36394639363044362D344446342D343946362D394244322D3234314243333846323333332F617474726962757465732E62696E504B01021400140006080800CC70623B08DA0BD190000000410100003600000000000000000000000000270F00006662782F36394639363044362D344446342D
310
343946362D394244322D3234314243333846323333332F6469726563746F72792E786D6C504B01021400140006080800CC70623BCA768048FE000000A00100003B000000000000000000000000000B1000006662782F36394639363044362D344446342D343946362D394244322D3234314243333846323333332F7265736F
310
75726365732F636F72652E786D6C504B0506000000000E000E0080040000621100000000
  0
XRECORD
  5
176
102
{ACAD_REACTORS
330
173
102
}
330
173
100
AcDbXrecord
280
     1
270
     1
271
     1
  0
XRECORD
  5
177
102
{ACAD_REACTORS
330
173
102
}
330
173
100
AcDbXrecord
280
     1
270
     1
271
     1
  0
XRECORD
  5
1A5F7
102
{ACAD_REACTORS
330
1A5F6
102
}
330
1A5F6
100
AcDbXrecord
280
     1
102
ACAD_ROUNDTRIP_2012_MLEADER_STYLE
298
     1
  0
XRECORD
  5
1A609
102
{ACAD_REACTORS
330
1A608
102
}
330
1A608
100
AcDbXrecord
280
     1
102
DISPLAYNAME
  1
Metric50
102
FLAGS
 90
        0
  0
CELLSTYLEMAP
  5
1A5C9
102
{ACAD_REACTORS
330
162
102
}
330
162
100
AcDbCellStyleMap
 90
        3
300
CELLSTYLE
  1
TABLEFORMAT_BEGIN
 90
        5
170
     1
 91
        0
 92
    32768
 62
   257
 93
        1
300
CONTENTFORMAT
  1
CONTENTFORMAT_BEGIN
 90
        0
 91
        0
 92
      512
 93
        0
300

 40
0.0
140
1.0
 94
        5
 62
     0
340
11
144
6.0
309
CONTENTFORMAT_END
171
     1
301
MARGIN
  1
CELLMARGIN_BEGIN
 40
1.5
 40
1.5
 40
1.5
 40
1.5
 40
4.5
 40
4.5
309
CELLMARGIN_END
 94
        6
 95
        1
302
GRIDFORMAT
  1
GRIDFORMAT_BEGIN
 90
        0
 91
        1
 62
     0
 92
       -2
340
14
 93
        0
 40
1.125
309
GRIDFORMAT_END
 95
        2
302
GRIDFORMAT
  1
GRIDFORMAT_BEGIN
 90
        0
 91
        1
 62
     0
 92
       -2
340
14
 93
        0
 40
1.125
309
GRIDFORMAT_END
 95
        4
302
GRIDFORMAT
  1
GRIDFORMAT_BEGIN
 90
        0
 91
        1
 62
     0
 92
       -2
340
14
 93
        0
 40
1.125
309
GRIDFORMAT_END
 95
        8
302
GRIDFORMAT
  1
GRIDFORMAT_BEGIN
 90
        0
 91
        1
 62
     0
 92
       -2
340
14
 93
        0
 40
1.125
309
GRIDFORMAT_END
 95
       16
302
GRIDFORMAT
  1
GRIDFORMAT_BEGIN
 90
        0
 91
        1
 62
     0
 92
       -2
340
14
 93
        0
 40
1.125
309
GRIDFORMAT_END
 95
       32
302
GRIDFORMAT
  1
GRIDFORMAT_BEGIN
 90
        0
 91
        1
 62
     0
 92
       -2
340
14
 93
        0
 40
1.125
309
GRIDFORMAT_END
309
TABLEFORMAT_END
  1
CELLSTYLE_BEGIN
 90
        1
 91
        1
300
_TITLE
309
CELLSTYLE_END
300
CELLSTYLE
  1
TABLEFORMAT_BEGIN
 90
        5
170
     1
 91
        0
 92
        0
 62
   257
 93
        1
300
CONTENTFORMAT
  1
CONTENTFORMAT_BEGIN
 90
        0
 91
        0
 92
      512
 93
        0
300

 40
0.0
140
1.0
 94
        5
 62
     0
340
11
144
4.5
309
CONTENTFORMAT_END
171
     1
301
MARGIN
  1
CELLMARGIN_BEGIN
 40
1.5
 40
1.5
 40
1.5
 40
1.5
 40
4.5
 40
4.5
309
CELLMARGIN_END
 94
        6
 95
        1
302
GRIDFORMAT
  1
GRIDFORMAT_BEGIN
 90
        0
 91
        1
 62
     0
 92
       -2
340
14
 93
        0
 40
1.125
309
GRIDFORMAT_END
 95
        2
302
GRIDFORMAT
  1
GRIDFORMAT_BEGIN
 90
        0
 91
        1
 62
     0
 92
       -2
340
14
 93
        0
 40
1.125
309
GRIDFORMAT_END
 95
        4
302
GRIDFORMAT
  1
GRIDFORMAT_BEGIN
 90
        0
 91
        1
 62
     0
 92
       -2
340
14
 93
        0
 40
1.125
309
GRIDFORMAT_END
 95
        8
302
GRIDFORMAT
  1
GRIDFORMAT_BEGIN
 90
        0
 91
        1
 62
     0
 92
       -2
340
14
 93
        0
 40
1.125
309
GRIDFORMAT_END
 95
       16
302
GRIDFORMAT
  1
GRIDFORMAT_BEGIN
 90
        0
 91
        1
 62
     0
 92
       -2
340
14
 93
        0
 40
1.125
309
GRIDFORMAT_END
 95
       32
302
GRIDFORMAT
  1
GRIDFORMAT_BEGIN
 90
        0
 91
        1
 62
     0
 92
       -2
340
14
 93
        0
 40
1.125
309
GRIDFORMAT_END
309
TABLEFORMAT_END
  1
CELLSTYLE_BEGIN
 90
        2
 91
        1
300
_HEADER
309
CELLSTYLE_END
300
CELLSTYLE
  1
TABLEFORMAT_BEGIN
 90
        5
170
     1
 91
        0
 92
        0
 62
   257
 93
        1
300
CONTENTFORMAT
  1
CONTENTFORMAT_BEGIN
 90
        0
 91
        0
 92
      512
 93
        0
300

 40
0.0
140
1.0
 94
        2
 62
     0
340
11
144
4.5
309
CONTENTFORMAT_END
171
     1
301
MARGIN
  1
CELLMARGIN_BEGIN
 40
1.5
 40
1.5
 40
1.5
 40
1.5
 40
4.5
 40
4.5
309
CELLMARGIN_END
 94
        6
 95
        1
302
GRIDFORMAT
  1
GRIDFORMAT_BEGIN
 90
        0
 91
        1
 62
     0
 92
       -2
340
14
 93
        0
 40
1.125
309
GRIDFORMAT_END
 95
        2
302
GRIDFORMAT
  1
GRIDFORMAT_BEGIN
 90
        0
 91
        1
 62
     0
 92
       -2
340
14
 93
        0
 40
1.125
309
GRIDFORMAT_END
 95
        4
302
GRIDFORMAT
  1
GRIDFORMAT_BEGIN
 90
        0
 91
        1
 62
     0
 92
       -2
340
14
 93
        0
 40
1.125
309
GRIDFORMAT_END
 95
        8
302
GRIDFORMAT
  1
GRIDFORMAT_BEGIN
 90
        0
 91
        1
 62
     0
 92
       -2
340
14
 93
        0
 40
1.125
309
GRIDFORMAT_END
 95
       16
302
GRIDFORMAT
  1
GRIDFORMAT_BEGIN
 90
        0
 91
        1
 62
     0
 92
       -2
340
14
 93
        0
 40
1.125
309
GRIDFORMAT_END
 95
       32
302
GRIDFORMAT
  1
GRIDFORMAT_BEGIN
 90
        0
 91
        1
 62
     0
 92
       -2
340
14
 93
        0
 40
1.125
309
GRIDFORMAT_END
309
TABLEFORMAT_END
  1
CELLSTYLE_BEGIN
 90
        3
 91
        2
300
_DATA
309
CELLSTYLE_END
  0
XRECORD
  5
1A5CE
102
{ACAD_REACTORS
330
162
102
}
330
162
100
AcDbXrecord
280
     1
102
ACAD_ROUNDTRIP_PRE2007_TABLESTYLE
 90
      512
 91
        0
  1

 92
      512
 93
        0
  2

 94
      512
 95
        0
  3

  0
XRECORD
  5
1A5E1
102
{ACAD_REACTORS
330
1A5E0
102
}
330
1A5E0
100
AcDbXrecord
280
     1
102
RTVSPost2010Prop28
280
     1
102
RTVSPost2010PropOp28
 70
     1
102
RTVSPost2010Prop29
280
     1
102
RTVSPost2010PropOp29
 70
     1
102
RTVSPost2010Prop30
280
     0
102
RTVSPost2010PropOp30
 70
     1
102
RTVSPost2010Prop31
280
     0
102
RTVSPost2010PropOp31
 70
     1
102
RTVSPost2010Prop32
280
     0
102
RTVSPost2010PropOp32
 70
     1
102
RTVSPost2010Prop33
280
     0
102
RTVSPost2010PropOp33
 70
     1
102
RTVSPost2010Prop34
280
     0
102
RTVSPost2010PropOp34
 70
     1
102
RTVSPost2010Prop35
280
     0
102
RTVSPost2010PropOp35
 70
     1
102
RTVSPost2010Prop36
280
     0
102
RTVSPost2010PropOp36
 70
     1
102
RTVSPost2010Prop37
 90
       50
102
RTVSPost2010PropOp37
 70
     1
102
RTVSPost2010Prop38
140
0.0
102
RTVSPost2010PropOp38
 70
     1
102
RTVSPost2010Prop39
140
1.0
102
RTVSPost2010PropOp39
 70
     1
102
RTVSPost2010Prop40
 90
        0
102
RTVSPost2010PropOp40
 70
     1
102
RTVSPost2010Prop41ColorIndex
 90
       18
102
RTVSPost2010Prop41ColorRGB
 90
        0
102
RTVSPost2010PropOp41
 70
     1
102
RTVSPost2010Prop42
 90
       50
102
RTVSPost2010PropOp42
 70
     1
102
RTVSPost2010Prop43
 90
        3
102
RTVSPost2010PropOp43
 70
     1
102
RTVSPost2010Prop44ColorIndex
 90
        5
102
RTVSPost2010Prop44ColorRGB
 90
      255
102
RTVSPost2010PropOp44
 70
     1
102
RTVSPost2010Prop45
280
     0
102
RTVSPost2010PropOp45
 70
     1
102
RTVSPost2010Prop46
 90
       50
102
RTVSPost2010PropOp46
 70
     1
102
RTVSPost2010Prop47
 90
       50
102
RTVSPost2010PropOp47
 70
     1
102
RTVSPost2010Prop48
 90
       50
102
RTVSPost2010PropOp48
 70
     1
102
RTVSPost2010Prop49
280
     0
102
RTVSPost2010PropOp49
 70
     1
102
RTVSPost2010Prop50
 90
       50
102
RTVSPost2010PropOp50
 70
     1
102
RTVSPost2010Prop51ColorIndex
 90
      256
102
RTVSPost2010Prop51ColorRGB
 90
-16777216
102
RTVSPost2010PropOp51
 70
     0
102
RTVSPost2010Prop52
140
1.0
102
RTVSPost2010PropOp52
 70
     0
102
RTVSPost2010Prop53
 90
        2
102
RTVSPost2010PropOp53
 70
     1
102
RTVSPost2010Prop54
  1
strokes_ogs.tif
102
RTVSPost2010PropOp54
 70
     1
102
RTVSPost2010Prop55
280
     0
102
RTVSPost2010PropOp55
 70
     1
102
RTVSPost2010Prop56
140
1.0
102
RTVSPost2010PropOp56
 70
     1
102
RTVSPost2010Prop57
140
1.0
102
RTVSPost2010PropOp57
 70
     1
102
RTVSPropertyOp0
 70
     1
102
RTVSPropertyOp1
 70
     1
102
RTVSPropertyOp2
 70
     1
102
RTVSPropertyOp3
 70
     1
102
RTVSPropertyOp4
 70
     1
102
RTVSPropertyOp5
 70
     1
102
RTVSPropertyOp6
 70
     1
102
RTVSPropertyOp7
 70
     1
102
RTVSPropertyOp8
 70
     1
102
RTVSPropertyOp9
 70
     1
102
RTVSPropertyOp10
 70
     1
102
RTVSPropertyOp11
 70
     1
102
RTVSPropertyOp12
 70
     1
102
RTVSPropertyOp13
 70
     1
102
RTVSPropertyOp14
 70
     1
102
RTVSPropertyOp15
 70
     1
102
RTVSPropertyOp16
 70
     1
102
RTVSPropertyOp17
 70
     1
102
RTVSPropertyOp18
 70
     1
102
RTVSPropertyOp19
 70
     1
102
RTVSPropertyOp20
 70
     1
102
RTVSPropertyOp21
 70
     1
102
RTVSPropertyOp22
 70
     1
102
RTVSPropertyOp23
 70
     1
102
RTVSPropertyOp24
 70
     1
102
RTVSPropertyOp25
 70
     1
102
RTVSPropertyOp26
 70
     1
102
RTVSPropertyOp27
 70
     1
102
RTVSPropertyOp28
 70
     1
102
RTVSPropertyOp29
 70
     1
102
RTVSPropertyOp30
 70
     1
102
RTVSPropertyOp31
 70
     1
102
RTVSPropertyOp32
 70
     1
102
RTVSPropertyOp33
 70
     1
102
RTVSPropertyOp34
 70
     1
102
RTVSPropertyOp35
 70
     1
102
RTVSPropertyOp36
 70
     1
102
RTVSPropertyOp37
 70
     1
102
RTVSPropertyOp38
 70
     1
102
RTVSPropertyOp39
 70
     1
102
RTVSPropertyOp40
 70
     1
102
RTVSPropertyOp41
 70
     1
102
RTVSPropertyOp42
 70
     1
102
RTVSPropertyOp43
 70
     1
102
RTVSPropertyOp44
 70
     1
102
RTVSPropertyOp45
 70
     1
102
RTVSPropertyOp46
 70
     1
102
RTVSPropertyOp47
 70
     1
102
RTVSPropertyOp48
 70
     1
102
RTVSPropertyOp49
 70
     1
102
RTVSPropertyOp50
 70
     1
102
RTVSPropertyOp51
 70
     0
102
RTVSPropertyOp52
 70
     0
102
RTVSPropertyOp53
 70
     1
102
RTVSPropertyOp54
 70
     1
102
RTVSPropertyOp55
 70
     1
102
RTVSPropertyOp56
 70
     1
102
RTVSPropertyOp57
 70
     1
102
RTVSPropertyOp58
 70
     1
102
RTVSPropertyOp59
 70
     1
102
RTVSPropertyOp60
 70
     1
102
RTVSPropertyOp61
 70
     1
102
RTVSPropertyOp62
 70
     1
  0
XRECORD
  5
1A5DF
102
{ACAD_REACTORS
330
1A5DE
102
}
330
1A5DE
100
AcDbXrecord
280
     1
102
RTVSPost2010Prop28
280
     0
102
RTVSPost2010PropOp28
 70
     1
102
RTVSPost2010Prop29
280
     1
102
RTVSPost2010PropOp29
 70
     1
102
RTVSPost2010Prop30
280
     1
102
RTVSPost2010PropOp30
 70
     1
102
RTVSPost2010Prop31
280
     0
102
RTVSPost2010PropOp31
 70
     1
102
RTVSPost2010Prop32
280
     0
102
RTVSPost2010PropOp32
 70
     1
102
RTVSPost2010Prop33
280
     0
102
RTVSPost2010PropOp33
 70
     1
102
RTVSPost2010Prop34
280
     0
102
RTVSPost2010PropOp34
 70
     1
102
RTVSPost2010Prop35
280
     0
102
RTVSPost2010PropOp35
 70
     1
102
RTVSPost2010Prop36
280
     0
102
RTVSPost2010PropOp36
 70
     1
102
RTVSPost2010Prop37
 90
       50
102
RTVSPost2010PropOp37
 70
     1
102
RTVSPost2010Prop38
140
0.0
102
RTVSPost2010PropOp38
 70
     1
102
RTVSPost2010Prop39
140
1.0
102
RTVSPost2010PropOp39
 70
     1
102
RTVSPost2010Prop40
 90
        0
102
RTVSPost2010PropOp40
 70
     1
102
RTVSPost2010Prop41ColorIndex
 90
       18
102
RTVSPost2010Prop41ColorRGB
 90
        0
102
RTVSPost2010PropOp41
 70
     1
102
RTVSPost2010Prop42
 90
       50
102
RTVSPost2010PropOp42
 70
     1
102
RTVSPost2010Prop43
 90
        3
102
RTVSPost2010PropOp43
 70
     1
102
RTVSPost2010Prop44ColorIndex
 90
        5
102
RTVSPost2010Prop44ColorRGB
 90
      255
102
RTVSPost2010PropOp44
 70
     1
102
RTVSPost2010Prop45
280
     0
102
RTVSPost2010PropOp45
 70
     1
102
RTVSPost2010Prop46
 90
       50
102
RTVSPost2010PropOp46
 70
     1
102
RTVSPost2010Prop47
 90
       50
102
RTVSPost2010PropOp47
 70
     1
102
RTVSPost2010Prop48
 90
       50
102
RTVSPost2010PropOp48
 70
     1
102
RTVSPost2010Prop49
280
     0
102
RTVSPost2010PropOp49
 70
     1
102
RTVSPost2010Prop50
 90
       50
102
RTVSPost2010PropOp50
 70
     1
102
RTVSPost2010Prop51ColorIndex
 90
      256
102
RTVSPost2010Prop51ColorRGB
 90
-16777216
102
RTVSPost2010PropOp51
 70
     0
102
RTVSPost2010Prop52
140
1.0
102
RTVSPost2010PropOp52
 70
     0
102
RTVSPost2010Prop53
 90
        2
102
RTVSPost2010PropOp53
 70
     1
102
RTVSPost2010Prop54
  1
strokes_ogs.tif
102
RTVSPost2010PropOp54
 70
     1
102
RTVSPost2010Prop55
280
     0
102
RTVSPost2010PropOp55
 70
     1
102
RTVSPost2010Prop56
140
1.0
102
RTVSPost2010PropOp56
 70
     1
102
RTVSPost2010Prop57
140
1.0
102
RTVSPost2010PropOp57
 70
     1
102
RTVSPropertyOp0
 70
     1
102
RTVSPropertyOp1
 70
     1
102
RTVSPropertyOp2
 70
     1
102
RTVSPropertyOp3
 70
     1
102
RTVSPropertyOp4
 70
     1
102
RTVSPropertyOp5
 70
     1
102
RTVSPropertyOp6
 70
     1
102
RTVSPropertyOp7
 70
     1
102
RTVSPropertyOp8
 70
     1
102
RTVSPropertyOp9
 70
     1
102
RTVSPropertyOp10
 70
     1
102
RTVSPropertyOp11
 70
     1
102
RTVSPropertyOp12
 70
     1
102
RTVSPropertyOp13
 70
     1
102
RTVSPropertyOp14
 70
     1
102
RTVSPropertyOp15
 70
     1
102
RTVSPropertyOp16
 70
     1
102
RTVSPropertyOp17
 70
     1
102
RTVSPropertyOp18
 70
     1
102
RTVSPropertyOp19
 70
     1
102
RTVSPropertyOp20
 70
     1
102
RTVSPropertyOp21
 70
     1
102
RTVSPropertyOp22
 70
     1
102
RTVSPropertyOp23
 70
     1
102
RTVSPropertyOp24
 70
     1
102
RTVSPropertyOp25
 70
     1
102
RTVSPropertyOp26
 70
     1
102
RTVSPropertyOp27
 70
     1
102
RTVSPropertyOp28
 70
     1
102
RTVSPropertyOp29
 70
     1
102
RTVSPropertyOp30
 70
     1
102
RTVSPropertyOp31
 70
     1
102
RTVSPropertyOp32
 70
     1
102
RTVSPropertyOp33
 70
     1
102
RTVSPropertyOp34
 70
     1
102
RTVSPropertyOp35
 70
     1
102
RTVSPropertyOp36
 70
     1
102
RTVSPropertyOp37
 70
     1
102
RTVSPropertyOp38
 70
     1
102
RTVSPropertyOp39
 70
     1
102
RTVSPropertyOp40
 70
     1
102
RTVSPropertyOp41
 70
     1
102
RTVSPropertyOp42
 70
     1
102
RTVSPropertyOp43
 70
     1
102
RTVSPropertyOp44
 70
     1
102
RTVSPropertyOp45
 70
     1
102
RTVSPropertyOp46
 70
     1
102
RTVSPropertyOp47
 70
     1
102
RTVSPropertyOp48
 70
     1
102
RTVSPropertyOp49
 70
     1
102
RTVSPropertyOp50
 70
     1
102
RTVSPropertyOp51
 70
     0
102
RTVSPropertyOp52
 70
     0
102
RTVSPropertyOp53
 70
     1
102
RTVSPropertyOp54
 70
     1
102
RTVSPropertyOp55
 70
     1
102
RTVSPropertyOp56
 70
     1
102
RTVSPropertyOp57
 70
     1
102
RTVSPropertyOp58
 70
     1
102
RTVSPropertyOp59
 70
     1
102
RTVSPropertyOp60
 70
     1
102
RTVSPropertyOp61
 70
     1
102
RTVSPropertyOp62
 70
     1
  0
XRECORD
  5
1A5ED
102
{ACAD_REACTORS
330
1A5EC
102
}
330
1A5EC
100
AcDbXrecord
280
     1
102
RTVSPost2010Prop28
280
     0
102
RTVSPost2010PropOp28
 70
     1
102
RTVSPost2010Prop29
280
     1
102
RTVSPost2010PropOp29
 70
     1
102
RTVSPost2010Prop30
280
     1
102
RTVSPost2010PropOp30
 70
     1
102
RTVSPost2010Prop31
280
     0
102
RTVSPost2010PropOp31
 70
     1
102
RTVSPost2010Prop32
280
     0
102
RTVSPost2010PropOp32
 70
     1
102
RTVSPost2010Prop33
280
     0
102
RTVSPost2010PropOp33
 70
     1
102
RTVSPost2010Prop34
280
     0
102
RTVSPost2010PropOp34
 70
     1
102
RTVSPost2010Prop35
280
     0
102
RTVSPost2010PropOp35
 70
     1
102
RTVSPost2010Prop36
280
     0
102
RTVSPost2010PropOp36
 70
     1
102
RTVSPost2010Prop37
 90
       50
102
RTVSPost2010PropOp37
 70
     1
102
RTVSPost2010Prop38
140
0.0
102
RTVSPost2010PropOp38
 70
     1
102
RTVSPost2010Prop39
140
1.0
102
RTVSPost2010PropOp39
 70
     1
102
RTVSPost2010Prop40
 90
        0
102
RTVSPost2010PropOp40
 70
     1
102
RTVSPost2010Prop41ColorIndex
 90
       18
102
RTVSPost2010Prop41ColorRGB
 90
        0
102
RTVSPost2010PropOp41
 70
     1
102
RTVSPost2010Prop42
 90
       50
102
RTVSPost2010PropOp42
 70
     1
102
RTVSPost2010Prop43
 90
        3
102
RTVSPost2010PropOp43
 70
     1
102
RTVSPost2010Prop44ColorIndex
 90
        5
102
RTVSPost2010Prop44ColorRGB
 90
      255
102
RTVSPost2010PropOp44
 70
     1
102
RTVSPost2010Prop45
280
     0
102
RTVSPost2010PropOp45
 70
     1
102
RTVSPost2010Prop46
 90
       50
102
RTVSPost2010PropOp46
 70
     1
102
RTVSPost2010Prop47
 90
       50
102
RTVSPost2010PropOp47
 70
     1
102
RTVSPost2010Prop48
 90
       50
102
RTVSPost2010PropOp48
 70
     1
102
RTVSPost2010Prop49
280
     0
102
RTVSPost2010PropOp49
 70
     1
102
RTVSPost2010Prop50
 90
       50
102
RTVSPost2010PropOp50
 70
     1
102
RTVSPost2010Prop51ColorIndex
 90
      256
102
RTVSPost2010Prop51ColorRGB
 90
-16777216
102
RTVSPost2010PropOp51
 70
     0
102
RTVSPost2010Prop52
140
1.0
102
RTVSPost2010PropOp52
 70
     0
102
RTVSPost2010Prop53
 90
        2
102
RTVSPost2010PropOp53
 70
     1
102
RTVSPost2010Prop54
  1
strokes_ogs.tif
102
RTVSPost2010PropOp54
 70
     1
102
RTVSPost2010Prop55
280
     0
102
RTVSPost2010PropOp55
 70
     1
102
RTVSPost2010Prop56
140
1.0
102
RTVSPost2010PropOp56
 70
     1
102
RTVSPost2010Prop57
140
1.0
102
RTVSPost2010PropOp57
 70
     1
102
RTVSPropertyOp0
 70
     1
102
RTVSPropertyOp1
 70
     1
102
RTVSPropertyOp2
 70
     1
102
RTVSPropertyOp3
 70
     1
102
RTVSPropertyOp4
 70
     1
102
RTVSPropertyOp5
 70
     1
102
RTVSPropertyOp6
 70
     1
102
RTVSPropertyOp7
 70
     1
102
RTVSPropertyOp8
 70
     1
102
RTVSPropertyOp9
 70
     1
102
RTVSPropertyOp10
 70
     1
102
RTVSPropertyOp11
 70
     1
102
RTVSPropertyOp12
 70
     1
102
RTVSPropertyOp13
 70
     1
102
RTVSPropertyOp14
 70
     1
102
RTVSPropertyOp15
 70
     1
102
RTVSPropertyOp16
 70
     1
102
RTVSPropertyOp17
 70
     1
102
RTVSPropertyOp18
 70
     1
102
RTVSPropertyOp19
 70
     1
102
RTVSPropertyOp20
 70
     1
102
RTVSPropertyOp21
 70
     1
102
RTVSPropertyOp22
 70
     1
102
RTVSPropertyOp23
 70
     1
102
RTVSPropertyOp24
 70
     1
102
RTVSPropertyOp25
 70
     1
102
RTVSPropertyOp26
 70
     1
102
RTVSPropertyOp27
 70
     1
102
RTVSPropertyOp28
 70
     1
102
RTVSPropertyOp29
 70
     1
102
RTVSPropertyOp30
 70
     1
102
RTVSPropertyOp31
 70
     1
102
RTVSPropertyOp32
 70
     1
102
RTVSPropertyOp33
 70
     1
102
RTVSPropertyOp34
 70
     1
102
RTVSPropertyOp35
 70
     1
102
RTVSPropertyOp36
 70
     1
102
RTVSPropertyOp37
 70
     1
102
RTVSPropertyOp38
 70
     1
102
RTVSPropertyOp39
 70
     1
102
RTVSPropertyOp40
 70
     1
102
RTVSPropertyOp41
 70
     1
102
RTVSPropertyOp42
 70
     1
102
RTVSPropertyOp43
 70
     1
102
RTVSPropertyOp44
 70
     1
102
RTVSPropertyOp45
 70
     1
102
RTVSPropertyOp46
 70
     1
102
RTVSPropertyOp47
 70
     1
102
RTVSPropertyOp48
 70
     1
102
RTVSPropertyOp49
 70
     1
102
RTVSPropertyOp50
 70
     1
102
RTVSPropertyOp51
 70
     0
102
RTVSPropertyOp52
 70
     0
102
RTVSPropertyOp53
 70
     1
102
RTVSPropertyOp54
 70
     1
102
RTVSPropertyOp55
 70
     1
102
RTVSPropertyOp56
 70
     1
102
RTVSPropertyOp57
 70
     1
102
RTVSPropertyOp58
 70
     1
102
RTVSPropertyOp59
 70
     1
102
RTVSPropertyOp60
 70
     1
102
RTVSPropertyOp61
 70
     1
102
RTVSPropertyOp62
 70
     1
  0
XRECORD
  5
1A5F5
102
{ACAD_REACTORS
330
1A5F4
102
}
330
1A5F4
100
AcDbXrecord
280
     1
102
RTVSPost2010Prop28
280
     0
102
RTVSPost2010PropOp28
 70
     1
102
RTVSPost2010Prop29
280
     1
102
RTVSPost2010PropOp29
 70
     1
102
RTVSPost2010Prop30
280
     1
102
RTVSPost2010PropOp30
 70
     1
102
RTVSPost2010Prop31
280
     0
102
RTVSPost2010PropOp31
 70
     1
102
RTVSPost2010Prop32
280
     0
102
RTVSPost2010PropOp32
 70
     1
102
RTVSPost2010Prop33
280
     0
102
RTVSPost2010PropOp33
 70
     1
102
RTVSPost2010Prop34
280
     0
102
RTVSPost2010PropOp34
 70
     1
102
RTVSPost2010Prop35
280
     0
102
RTVSPost2010PropOp35
 70
     1
102
RTVSPost2010Prop36
280
     0
102
RTVSPost2010PropOp36
 70
     1
102
RTVSPost2010Prop37
 90
       50
102
RTVSPost2010PropOp37
 70
     1
102
RTVSPost2010Prop38
140
0.0
102
RTVSPost2010PropOp38
 70
     1
102
RTVSPost2010Prop39
140
1.0
102
RTVSPost2010PropOp39
 70
     1
102
RTVSPost2010Prop40
 90
        0
102
RTVSPost2010PropOp40
 70
     1
102
RTVSPost2010Prop41ColorIndex
 90
       18
102
RTVSPost2010Prop41ColorRGB
 90
        0
102
RTVSPost2010PropOp41
 70
     1
102
RTVSPost2010Prop42
 90
       50
102
RTVSPost2010PropOp42
 70
     1
102
RTVSPost2010Prop43
 90
        3
102
RTVSPost2010PropOp43
 70
     1
102
RTVSPost2010Prop44ColorIndex
 90
        5
102
RTVSPost2010Prop44ColorRGB
 90
      255
102
RTVSPost2010PropOp44
 70
     1
102
RTVSPost2010Prop45
280
     0
102
RTVSPost2010PropOp45
 70
     1
102
RTVSPost2010Prop46
 90
       50
102
RTVSPost2010PropOp46
 70
     1
102
RTVSPost2010Prop47
 90
       50
102
RTVSPost2010PropOp47
 70
     1
102
RTVSPost2010Prop48
 90
       50
102
RTVSPost2010PropOp48
 70
     1
102
RTVSPost2010Prop49
280
     0
102
RTVSPost2010PropOp49
 70
     1
102
RTVSPost2010Prop50
 90
       50
102
RTVSPost2010PropOp50
 70
     1
102
RTVSPost2010Prop51ColorIndex
 90
      256
102
RTVSPost2010Prop51ColorRGB
 90
-16777216
102
RTVSPost2010PropOp51
 70
     0
102
RTVSPost2010Prop52
140
1.0
102
RTVSPost2010PropOp52
 70
     0
102
RTVSPost2010Prop53
 90
        2
102
RTVSPost2010PropOp53
 70
     1
102
RTVSPost2010Prop54
  1
strokes_ogs.tif
102
RTVSPost2010PropOp54
 70
     1
102
RTVSPost2010Prop55
280
     0
102
RTVSPost2010PropOp55
 70
     1
102
RTVSPost2010Prop56
140
1.0
102
RTVSPost2010PropOp56
 70
     1
102
RTVSPost2010Prop57
140
1.0
102
RTVSPost2010PropOp57
 70
     1
102
RTVSPropertyOp0
 70
     1
102
RTVSPropertyOp1
 70
     1
102
RTVSPropertyOp2
 70
     1
102
RTVSPropertyOp3
 70
     1
102
RTVSPropertyOp4
 70
     1
102
RTVSPropertyOp5
 70
     1
102
RTVSPropertyOp6
 70
     1
102
RTVSPropertyOp7
 70
     1
102
RTVSPropertyOp8
 70
     1
102
RTVSPropertyOp9
 70
     1
102
RTVSPropertyOp10
 70
     1
102
RTVSPropertyOp11
 70
     1
102
RTVSPropertyOp12
 70
     1
102
RTVSPropertyOp13
 70
     1
102
RTVSPropertyOp14
 70
     1
102
RTVSPropertyOp15
 70
     1
102
RTVSPropertyOp16
 70
     1
102
RTVSPropertyOp17
 70
     1
102
RTVSPropertyOp18
 70
     1
102
RTVSPropertyOp19
 70
     1
102
RTVSPropertyOp20
 70
     1
102
RTVSPropertyOp21
 70
     1
102
RTVSPropertyOp22
 70
     1
102
RTVSPropertyOp23
 70
     1
102
RTVSPropertyOp24
 70
     1
102
RTVSPropertyOp25
 70
     1
102
RTVSPropertyOp26
 70
     1
102
RTVSPropertyOp27
 70
     1
102
RTVSPropertyOp28
 70
     1
102
RTVSPropertyOp29
 70
     1
102
RTVSPropertyOp30
 70
     1
102
RTVSPropertyOp31
 70
     1
102
RTVSPropertyOp32
 70
     1
102
RTVSPropertyOp33
 70
     1
102
RTVSPropertyOp34
 70
     1
102
RTVSPropertyOp35
 70
     1
102
RTVSPropertyOp36
 70
     1
102
RTVSPropertyOp37
 70
     1
102
RTVSPropertyOp38
 70
     1
102
RTVSPropertyOp39
 70
     1
102
RTVSPropertyOp40
 70
     1
102
RTVSPropertyOp41
 70
     1
102
RTVSPropertyOp42
 70
     1
102
RTVSPropertyOp43
 70
     1
102
RTVSPropertyOp44
 70
     1
102
RTVSPropertyOp45
 70
     1
102
RTVSPropertyOp46
 70
     1
102
RTVSPropertyOp47
 70
     1
102
RTVSPropertyOp48
 70
     1
102
RTVSPropertyOp49
 70
     1
102
RTVSPropertyOp50
 70
     1
102
RTVSPropertyOp51
 70
     0
102
RTVSPropertyOp52
 70
     0
102
RTVSPropertyOp53
 70
     1
102
RTVSPropertyOp54
 70
     1
102
RTVSPropertyOp55
 70
     1
102
RTVSPropertyOp56
 70
     1
102
RTVSPropertyOp57
 70
     1
102
RTVSPropertyOp58
 70
     1
102
RTVSPropertyOp59
 70
     1
102
RTVSPropertyOp60
 70
     1
102
RTVSPropertyOp61
 70
     1
102
RTVSPropertyOp62
 70
     1
  0
XRECORD
  5
1A5E7
102
{ACAD_REACTORS
330
1A5E6
102
}
330
1A5E6
100
AcDbXrecord
280
     1
102
RTVSPost2010Prop28
280
     0
102
RTVSPost2010PropOp28
 70
     1
102
RTVSPost2010Prop29
280
     1
102
RTVSPost2010PropOp29
 70
     1
102
RTVSPost2010Prop30
280
     1
102
RTVSPost2010PropOp30
 70
     1
102
RTVSPost2010Prop31
280
     0
102
RTVSPost2010PropOp31
 70
     1
102
RTVSPost2010Prop32
280
     0
102
RTVSPost2010PropOp32
 70
     1
102
RTVSPost2010Prop33
280
     0
102
RTVSPost2010PropOp33
 70
     1
102
RTVSPost2010Prop34
280
     0
102
RTVSPost2010PropOp34
 70
     1
102
RTVSPost2010Prop35
280
     0
102
RTVSPost2010PropOp35
 70
     1
102
RTVSPost2010Prop36
280
     0
102
RTVSPost2010PropOp36
 70
     1
102
RTVSPost2010Prop37
 90
       50
102
RTVSPost2010PropOp37
 70
     1
102
RTVSPost2010Prop38
140
0.0
102
RTVSPost2010PropOp38
 70
     1
102
RTVSPost2010Prop39
140
1.0
102
RTVSPost2010PropOp39
 70
     1
102
RTVSPost2010Prop40
 90
        0
102
RTVSPost2010PropOp40
 70
     1
102
RTVSPost2010Prop41ColorIndex
 90
       18
102
RTVSPost2010Prop41ColorRGB
 90
        0
102
RTVSPost2010PropOp41
 70
     1
102
RTVSPost2010Prop42
 90
       50
102
RTVSPost2010PropOp42
 70
     1
102
RTVSPost2010Prop43
 90
        3
102
RTVSPost2010PropOp43
 70
     1
102
RTVSPost2010Prop44ColorIndex
 90
        5
102
RTVSPost2010Prop44ColorRGB
 90
      255
102
RTVSPost2010PropOp44
 70
     1
102
RTVSPost2010Prop45
280
     0
102
RTVSPost2010PropOp45
 70
     1
102
RTVSPost2010Prop46
 90
       50
102
RTVSPost2010PropOp46
 70
     1
102
RTVSPost2010Prop47
 90
       50
102
RTVSPost2010PropOp47
 70
     1
102
RTVSPost2010Prop48
 90
       50
102
RTVSPost2010PropOp48
 70
     1
102
RTVSPost2010Prop49
280
     0
102
RTVSPost2010PropOp49
 70
     1
102
RTVSPost2010Prop50
 90
       50
102
RTVSPost2010PropOp50
 70
     1
102
RTVSPost2010Prop51ColorIndex
 90
      256
102
RTVSPost2010Prop51ColorRGB
 90
-16777216
102
RTVSPost2010PropOp51
 70
     0
102
RTVSPost2010Prop52
140
1.0
102
RTVSPost2010PropOp52
 70
     0
102
RTVSPost2010Prop53
 90
        2
102
RTVSPost2010PropOp53
 70
     1
102
RTVSPost2010Prop54
  1
strokes_ogs.tif
102
RTVSPost2010PropOp54
 70
     1
102
RTVSPost2010Prop55
280
     0
102
RTVSPost2010PropOp55
 70
     1
102
RTVSPost2010Prop56
140
1.0
102
RTVSPost2010PropOp56
 70
     1
102
RTVSPost2010Prop57
140
1.0
102
RTVSPost2010PropOp57
 70
     1
102
RTVSPropertyOp0
 70
     1
102
RTVSPropertyOp1
 70
     1
102
RTVSPropertyOp2
 70
     1
102
RTVSPropertyOp3
 70
     1
102
RTVSPropertyOp4
 70
     1
102
RTVSPropertyOp5
 70
     1
102
RTVSPropertyOp6
 70
     1
102
RTVSPropertyOp7
 70
     1
102
RTVSPropertyOp8
 70
     1
102
RTVSPropertyOp9
 70
     1
102
RTVSPropertyOp10
 70
     1
102
RTVSPropertyOp11
 70
     1
102
RTVSPropertyOp12
 70
     1
102
RTVSPropertyOp13
 70
     1
102
RTVSPropertyOp14
 70
     1
102
RTVSPropertyOp15
 70
     1
102
RTVSPropertyOp16
 70
     1
102
RTVSPropertyOp17
 70
     1
102
RTVSPropertyOp18
 70
     1
102
RTVSPropertyOp19
 70
     1
102
RTVSPropertyOp20
 70
     1
102
RTVSPropertyOp21
 70
     1
102
RTVSPropertyOp22
 70
     1
102
RTVSPropertyOp23
 70
     1
102
RTVSPropertyOp24
 70
     1
102
RTVSPropertyOp25
 70
     1
102
RTVSPropertyOp26
 70
     1
102
RTVSPropertyOp27
 70
     1
102
RTVSPropertyOp28
 70
     1
102
RTVSPropertyOp29
 70
     1
102
RTVSPropertyOp30
 70
     1
102
RTVSPropertyOp31
 70
     1
102
RTVSPropertyOp32
 70
     1
102
RTVSPropertyOp33
 70
     1
102
RTVSPropertyOp34
 70
     1
102
RTVSPropertyOp35
 70
     1
102
RTVSPropertyOp36
 70
     1
102
RTVSPropertyOp37
 70
     1
102
RTVSPropertyOp38
 70
     1
102
RTVSPropertyOp39
 70
     1
102
RTVSPropertyOp40
 70
     1
102
RTVSPropertyOp41
 70
     1
102
RTVSPropertyOp42
 70
     1
102
RTVSPropertyOp43
 70
     1
102
RTVSPropertyOp44
 70
     1
102
RTVSPropertyOp45
 70
     1
102
RTVSPropertyOp46
 70
     1
102
RTVSPropertyOp47
 70
     1
102
RTVSPropertyOp48
 70
     1
102
RTVSPropertyOp49
 70
     1
102
RTVSPropertyOp50
 70
     1
102
RTVSPropertyOp51
 70
     0
102
RTVSPropertyOp52
 70
     0
102
RTVSPropertyOp53
 70
     1
102
RTVSPropertyOp54
 70
     1
102
RTVSPropertyOp55
 70
     1
102
RTVSPropertyOp56
 70
     1
102
RTVSPropertyOp57
 70
     1
102
RTVSPropertyOp58
 70
     1
102
RTVSPropertyOp59
 70
     1
102
RTVSPropertyOp60
 70
     1
102
RTVSPropertyOp61
 70
     1
102
RTVSPropertyOp62
 70
     1
  0
XRECORD
  5
1A5EB
102
{ACAD_REACTORS
330
1A5EA
102
}
330
1A5EA
100
AcDbXrecord
280
     1
102
RTVSPost2010Prop28
280
     0
102
RTVSPost2010PropOp28
 70
     1
102
RTVSPost2010Prop29
280
     1
102
RTVSPost2010PropOp29
 70
     1
102
RTVSPost2010Prop30
280
     1
102
RTVSPost2010PropOp30
 70
     1
102
RTVSPost2010Prop31
280
     0
102
RTVSPost2010PropOp31
 70
     1
102
RTVSPost2010Prop32
280
     0
102
RTVSPost2010PropOp32
 70
     1
102
RTVSPost2010Prop33
280
     0
102
RTVSPost2010PropOp33
 70
     1
102
RTVSPost2010Prop34
280
     0
102
RTVSPost2010PropOp34
 70
     1
102
RTVSPost2010Prop35
280
     0
102
RTVSPost2010PropOp35
 70
     1
102
RTVSPost2010Prop36
280
     0
102
RTVSPost2010PropOp36
 70
     1
102
RTVSPost2010Prop37
 90
       50
102
RTVSPost2010PropOp37
 70
     1
102
RTVSPost2010Prop38
140
0.0
102
RTVSPost2010PropOp38
 70
     1
102
RTVSPost2010Prop39
140
1.0
102
RTVSPost2010PropOp39
 70
     1
102
RTVSPost2010Prop40
 90
        0
102
RTVSPost2010PropOp40
 70
     1
102
RTVSPost2010Prop41ColorIndex
 90
       18
102
RTVSPost2010Prop41ColorRGB
 90
        0
102
RTVSPost2010PropOp41
 70
     1
102
RTVSPost2010Prop42
 90
       50
102
RTVSPost2010PropOp42
 70
     1
102
RTVSPost2010Prop43
 90
        3
102
RTVSPost2010PropOp43
 70
     1
102
RTVSPost2010Prop44ColorIndex
 90
        5
102
RTVSPost2010Prop44ColorRGB
 90
      255
102
RTVSPost2010PropOp44
 70
     1
102
RTVSPost2010Prop45
280
     0
102
RTVSPost2010PropOp45
 70
     1
102
RTVSPost2010Prop46
 90
       50
102
RTVSPost2010PropOp46
 70
     1
102
RTVSPost2010Prop47
 90
       50
102
RTVSPost2010PropOp47
 70
     1
102
RTVSPost2010Prop48
 90
       50
102
RTVSPost2010PropOp48
 70
     1
102
RTVSPost2010Prop49
280
     0
102
RTVSPost2010PropOp49
 70
     1
102
RTVSPost2010Prop50
 90
       50
102
RTVSPost2010PropOp50
 70
     1
102
RTVSPost2010Prop51ColorIndex
 90
      256
102
RTVSPost2010Prop51ColorRGB
 90
-16777216
102
RTVSPost2010PropOp51
 70
     0
102
RTVSPost2010Prop52
140
1.0
102
RTVSPost2010PropOp52
 70
     0
102
RTVSPost2010Prop53
 90
        2
102
RTVSPost2010PropOp53
 70
     1
102
RTVSPost2010Prop54
  1
strokes_ogs.tif
102
RTVSPost2010PropOp54
 70
     1
102
RTVSPost2010Prop55
280
     0
102
RTVSPost2010PropOp55
 70
     1
102
RTVSPost2010Prop56
140
1.0
102
RTVSPost2010PropOp56
 70
     1
102
RTVSPost2010Prop57
140
1.0
102
RTVSPost2010PropOp57
 70
     1
102
RTVSPropertyOp0
 70
     1
102
RTVSPropertyOp1
 70
     1
102
RTVSPropertyOp2
 70
     1
102
RTVSPropertyOp3
 70
     1
102
RTVSPropertyOp4
 70
     1
102
RTVSPropertyOp5
 70
     1
102
RTVSPropertyOp6
 70
     1
102
RTVSPropertyOp7
 70
     1
102
RTVSPropertyOp8
 70
     1
102
RTVSPropertyOp9
 70
     1
102
RTVSPropertyOp10
 70
     1
102
RTVSPropertyOp11
 70
     1
102
RTVSPropertyOp12
 70
     1
102
RTVSPropertyOp13
 70
     1
102
RTVSPropertyOp14
 70
     1
102
RTVSPropertyOp15
 70
     1
102
RTVSPropertyOp16
 70
     1
102
RTVSPropertyOp17
 70
     1
102
RTVSPropertyOp18
 70
     1
102
RTVSPropertyOp19
 70
     1
102
RTVSPropertyOp20
 70
     1
102
RTVSPropertyOp21
 70
     1
102
RTVSPropertyOp22
 70
     1
102
RTVSPropertyOp23
 70
     1
102
RTVSPropertyOp24
 70
     1
102
RTVSPropertyOp25
 70
     1
102
RTVSPropertyOp26
 70
     1
102
RTVSPropertyOp27
 70
     1
102
RTVSPropertyOp28
 70
     1
102
RTVSPropertyOp29
 70
     1
102
RTVSPropertyOp30
 70
     1
102
RTVSPropertyOp31
 70
     1
102
RTVSPropertyOp32
 70
     1
102
RTVSPropertyOp33
 70
     1
102
RTVSPropertyOp34
 70
     1
102
RTVSPropertyOp35
 70
     1
102
RTVSPropertyOp36
 70
     1
102
RTVSPropertyOp37
 70
     1
102
RTVSPropertyOp38
 70
     1
102
RTVSPropertyOp39
 70
     1
102
RTVSPropertyOp40
 70
     1
102
RTVSPropertyOp41
 70
     1
102
RTVSPropertyOp42
 70
     1
102
RTVSPropertyOp43
 70
     1
102
RTVSPropertyOp44
 70
     1
102
RTVSPropertyOp45
 70
     1
102
RTVSPropertyOp46
 70
     1
102
RTVSPropertyOp47
 70
     1
102
RTVSPropertyOp48
 70
     1
102
RTVSPropertyOp49
 70
     1
102
RTVSPropertyOp50
 70
     1
102
RTVSPropertyOp51
 70
     0
102
RTVSPropertyOp52
 70
     0
102
RTVSPropertyOp53
 70
     1
102
RTVSPropertyOp54
 70
     1
102
RTVSPropertyOp55
 70
     1
102
RTVSPropertyOp56
 70
     1
102
RTVSPropertyOp57
 70
     1
102
RTVSPropertyOp58
 70
     1
102
RTVSPropertyOp59
 70
     1
102
RTVSPropertyOp60
 70
     1
102
RTVSPropertyOp61
 70
     1
102
RTVSPropertyOp62
 70
     1
  0
XRECORD
  5
1A5FD
102
{ACAD_REACTORS
330
1A5FC
102
}
330
1A5FC
100
AcDbXrecord
280
     1
102
RTVSPost2010Prop28
280
     0
102
RTVSPost2010PropOp28
 70
     1
102
RTVSPost2010Prop29
280
     1
102
RTVSPost2010PropOp29
 70
     1
102
RTVSPost2010Prop30
280
     1
102
RTVSPost2010PropOp30
 70
     1
102
RTVSPost2010Prop31
280
     0
102
RTVSPost2010PropOp31
 70
     1
102
RTVSPost2010Prop32
280
     0
102
RTVSPost2010PropOp32
 70
     1
102
RTVSPost2010Prop33
280
     0
102
RTVSPost2010PropOp33
 70
     1
102
RTVSPost2010Prop34
280
     0
102
RTVSPost2010PropOp34
 70
     1
102
RTVSPost2010Prop35
280
     0
102
RTVSPost2010PropOp35
 70
     1
102
RTVSPost2010Prop36
280
     0
102
RTVSPost2010PropOp36
 70
     1
102
RTVSPost2010Prop37
 90
       50
102
RTVSPost2010PropOp37
 70
     1
102
RTVSPost2010Prop38
140
0.0
102
RTVSPost2010PropOp38
 70
     1
102
RTVSPost2010Prop39
140
1.0
102
RTVSPost2010PropOp39
 70
     1
102
RTVSPost2010Prop40
 90
        0
102
RTVSPost2010PropOp40
 70
     1
102
RTVSPost2010Prop41ColorIndex
 90
       18
102
RTVSPost2010Prop41ColorRGB
 90
        0
102
RTVSPost2010PropOp41
 70
     1
102
RTVSPost2010Prop42
 90
       50
102
RTVSPost2010PropOp42
 70
     1
102
RTVSPost2010Prop43
 90
        3
102
RTVSPost2010PropOp43
 70
     1
102
RTVSPost2010Prop44ColorIndex
 90
        5
102
RTVSPost2010Prop44ColorRGB
 90
      255
102
RTVSPost2010PropOp44
 70
     1
102
RTVSPost2010Prop45
280
     0
102
RTVSPost2010PropOp45
 70
     1
102
RTVSPost2010Prop46
 90
       50
102
RTVSPost2010PropOp46
 70
     1
102
RTVSPost2010Prop47
 90
       50
102
RTVSPost2010PropOp47
 70
     1
102
RTVSPost2010Prop48
 90
       50
102
RTVSPost2010PropOp48
 70
     1
102
RTVSPost2010Prop49
280
     0
102
RTVSPost2010PropOp49
 70
     1
102
RTVSPost2010Prop50
 90
       50
102
RTVSPost2010PropOp50
 70
     1
102
RTVSPost2010Prop51ColorIndex
 90
      256
102
RTVSPost2010Prop51ColorRGB
 90
-16777216
102
RTVSPost2010PropOp51
 70
     0
102
RTVSPost2010Prop52
140
1.0
102
RTVSPost2010PropOp52
 70
     0
102
RTVSPost2010Prop53
 90
        2
102
RTVSPost2010PropOp53
 70
     1
102
RTVSPost2010Prop54
  1
strokes_ogs.tif
102
RTVSPost2010PropOp54
 70
     1
102
RTVSPost2010Prop55
280
     0
102
RTVSPost2010PropOp55
 70
     1
102
RTVSPost2010Prop56
140
1.0
102
RTVSPost2010PropOp56
 70
     1
102
RTVSPost2010Prop57
140
1.0
102
RTVSPost2010PropOp57
 70
     1
102
RTVSPropertyOp0
 70
     0
102
RTVSPropertyOp1
 70
     0
102
RTVSPropertyOp2
 70
     0
102
RTVSPropertyOp3
 70
     0
102
RTVSPropertyOp4
 70
     0
102
RTVSPropertyOp5
 70
     0
102
RTVSPropertyOp6
 70
     0
102
RTVSPropertyOp7
 70
     0
102
RTVSPropertyOp8
 70
     0
102
RTVSPropertyOp9
 70
     0
102
RTVSPropertyOp10
 70
     0
102
RTVSPropertyOp11
 70
     0
102
RTVSPropertyOp12
 70
     0
102
RTVSPropertyOp13
 70
     0
102
RTVSPropertyOp14
 70
     2
102
RTVSPropertyOp15
 70
     0
102
RTVSPropertyOp16
 70
     0
102
RTVSPropertyOp17
 70
     0
102
RTVSPropertyOp18
 70
     0
102
RTVSPropertyOp19
 70
     0
102
RTVSPropertyOp20
 70
     0
102
RTVSPropertyOp21
 70
     0
102
RTVSPropertyOp22
 70
     0
102
RTVSPropertyOp23
 70
     0
102
RTVSPropertyOp24
 70
     0
102
RTVSPropertyOp25
 70
     0
102
RTVSPropertyOp26
 70
     0
102
RTVSPropertyOp27
 70
     0
102
RTVSPropertyOp28
 70
     1
102
RTVSPropertyOp29
 70
     1
102
RTVSPropertyOp30
 70
     1
102
RTVSPropertyOp31
 70
     1
102
RTVSPropertyOp32
 70
     1
102
RTVSPropertyOp33
 70
     1
102
RTVSPropertyOp34
 70
     1
102
RTVSPropertyOp35
 70
     1
102
RTVSPropertyOp36
 70
     1
102
RTVSPropertyOp37
 70
     1
102
RTVSPropertyOp38
 70
     1
102
RTVSPropertyOp39
 70
     1
102
RTVSPropertyOp40
 70
     1
102
RTVSPropertyOp41
 70
     1
102
RTVSPropertyOp42
 70
     1
102
RTVSPropertyOp43
 70
     1
102
RTVSPropertyOp44
 70
     1
102
RTVSPropertyOp45
 70
     1
102
RTVSPropertyOp46
 70
     1
102
RTVSPropertyOp47
 70
     1
102
RTVSPropertyOp48
 70
     1
102
RTVSPropertyOp49
 70
     1
102
RTVSPropertyOp50
 70
     1
102
RTVSPropertyOp51
 70
     0
102
RTVSPropertyOp52
 70
     0
102
RTVSPropertyOp53
 70
     1
102
RTVSPropertyOp54
 70
     1
102
RTVSPropertyOp55
 70
     1
102
RTVSPropertyOp56
 70
     1
102
RTVSPropertyOp57
 70
     1
102
RTVSPropertyOp58
 70
     1
102
RTVSPropertyOp59
 70
     1
102
RTVSPropertyOp60
 70
     1
102
RTVSPropertyOp61
 70
     1
102
RTVSPropertyOp62
 70
     1
  0
XRECORD
  5
1A5F3
102
{ACAD_REACTORS
330
1A5F2
102
}
330
1A5F2
100
AcDbXrecord
280
     1
102
RTVSPost2010Prop28
280
     0
102
RTVSPost2010PropOp28
 70
     1
102
RTVSPost2010Prop29
280
     1
102
RTVSPost2010PropOp29
 70
     1
102
RTVSPost2010Prop30
280
     1
102
RTVSPost2010PropOp30
 70
     1
102
RTVSPost2010Prop31
280
     0
102
RTVSPost2010PropOp31
 70
     1
102
RTVSPost2010Prop32
280
     0
102
RTVSPost2010PropOp32
 70
     1
102
RTVSPost2010Prop33
280
     0
102
RTVSPost2010PropOp33
 70
     1
102
RTVSPost2010Prop34
280
     0
102
RTVSPost2010PropOp34
 70
     1
102
RTVSPost2010Prop35
280
     0
102
RTVSPost2010PropOp35
 70
     1
102
RTVSPost2010Prop36
280
     0
102
RTVSPost2010PropOp36
 70
     1
102
RTVSPost2010Prop37
 90
       50
102
RTVSPost2010PropOp37
 70
     1
102
RTVSPost2010Prop38
140
0.0
102
RTVSPost2010PropOp38
 70
     1
102
RTVSPost2010Prop39
140
1.0
102
RTVSPost2010PropOp39
 70
     1
102
RTVSPost2010Prop40
 90
        0
102
RTVSPost2010PropOp40
 70
     1
102
RTVSPost2010Prop41ColorIndex
 90
       18
102
RTVSPost2010Prop41ColorRGB
 90
        0
102
RTVSPost2010PropOp41
 70
     1
102
RTVSPost2010Prop42
 90
       50
102
RTVSPost2010PropOp42
 70
     1
102
RTVSPost2010Prop43
 90
        3
102
RTVSPost2010PropOp43
 70
     1
102
RTVSPost2010Prop44ColorIndex
 90
        5
102
RTVSPost2010Prop44ColorRGB
 90
      255
102
RTVSPost2010PropOp44
 70
     1
102
RTVSPost2010Prop45
280
     0
102
RTVSPost2010PropOp45
 70
     1
102
RTVSPost2010Prop46
 90
       50
102
RTVSPost2010PropOp46
 70
     1
102
RTVSPost2010Prop47
 90
       50
102
RTVSPost2010PropOp47
 70
     1
102
RTVSPost2010Prop48
 90
       50
102
RTVSPost2010PropOp48
 70
     1
102
RTVSPost2010Prop49
280
     0
102
RTVSPost2010PropOp49
 70
     1
102
RTVSPost2010Prop50
 90
       50
102
RTVSPost2010PropOp50
 70
     1
102
RTVSPost2010Prop51ColorIndex
 90
      256
102
RTVSPost2010Prop51ColorRGB
 90
-16777216
102
RTVSPost2010PropOp51
 70
     0
102
RTVSPost2010Prop52
140
1.0
102
RTVSPost2010PropOp52
 70
     0
102
RTVSPost2010Prop53
 90
        2
102
RTVSPost2010PropOp53
 70
     1
102
RTVSPost2010Prop54
  1
strokes_ogs.tif
102
RTVSPost2010PropOp54
 70
     1
102
RTVSPost2010Prop55
280
     0
102
RTVSPost2010PropOp55
 70
     1
102
RTVSPost2010Prop56
140
1.0
102
RTVSPost2010PropOp56
 70
     1
102
RTVSPost2010Prop57
140
1.0
102
RTVSPost2010PropOp57
 70
     1
102
RTVSPropertyOp0
 70
     1
102
RTVSPropertyOp1
 70
     1
102
RTVSPropertyOp2
 70
     1
102
RTVSPropertyOp3
 70
     1
102
RTVSPropertyOp4
 70
     1
102
RTVSPropertyOp5
 70
     1
102
RTVSPropertyOp6
 70
     1
102
RTVSPropertyOp7
 70
     1
102
RTVSPropertyOp8
 70
     1
102
RTVSPropertyOp9
 70
     1
102
RTVSPropertyOp10
 70
     1
102
RTVSPropertyOp11
 70
     1
102
RTVSPropertyOp12
 70
     1
102
RTVSPropertyOp13
 70
     1
102
RTVSPropertyOp14
 70
     1
102
RTVSPropertyOp15
 70
     1
102
RTVSPropertyOp16
 70
     1
102
RTVSPropertyOp17
 70
     1
102
RTVSPropertyOp18
 70
     1
102
RTVSPropertyOp19
 70
     1
102
RTVSPropertyOp20
 70
     1
102
RTVSPropertyOp21
 70
     1
102
RTVSPropertyOp22
 70
     1
102
RTVSPropertyOp23
 70
     1
102
RTVSPropertyOp24
 70
     1
102
RTVSPropertyOp25
 70
     1
102
RTVSPropertyOp26
 70
     1
102
RTVSPropertyOp27
 70
     1
102
RTVSPropertyOp28
 70
     1
102
RTVSPropertyOp29
 70
     1
102
RTVSPropertyOp30
 70
     1
102
RTVSPropertyOp31
 70
     1
102
RTVSPropertyOp32
 70
     1
102
RTVSPropertyOp33
 70
     1
102
RTVSPropertyOp34
 70
     1
102
RTVSPropertyOp35
 70
     1
102
RTVSPropertyOp36
 70
     1
102
RTVSPropertyOp37
 70
     1
102
RTVSPropertyOp38
 70
     1
102
RTVSPropertyOp39
 70
     1
102
RTVSPropertyOp40
 70
     1
102
RTVSPropertyOp41
 70
     1
102
RTVSPropertyOp42
 70
     1
102
RTVSPropertyOp43
 70
     1
102
RTVSPropertyOp44
 70
     1
102
RTVSPropertyOp45
 70
     1
102
RTVSPropertyOp46
 70
     1
102
RTVSPropertyOp47
 70
     1
102
RTVSPropertyOp48
 70
     1
102
RTVSPropertyOp49
 70
     1
102
RTVSPropertyOp50
 70
     1
102
RTVSPropertyOp51
 70
     0
102
RTVSPropertyOp52
 70
     0
102
RTVSPropertyOp53
 70
     1
102
RTVSPropertyOp54
 70
     1
102
RTVSPropertyOp55
 70
     1
102
RTVSPropertyOp56
 70
     1
102
RTVSPropertyOp57
 70
     1
102
RTVSPropertyOp58
 70
     1
102
RTVSPropertyOp59
 70
     1
102
RTVSPropertyOp60
 70
     1
102
RTVSPropertyOp61
 70
     1
102
RTVSPropertyOp62
 70
     1
  0
XRECORD
  5
1A5D7
102
{ACAD_REACTORS
330
1A5D6
102
}
330
1A5D6
100
AcDbXrecord
280
     1
102
RTVSPost2010Prop28
280
     0
102
RTVSPost2010PropOp28
 70
     1
102
RTVSPost2010Prop29
280
     1
102
RTVSPost2010PropOp29
 70
     1
102
RTVSPost2010Prop30
280
     1
102
RTVSPost2010PropOp30
 70
     1
102
RTVSPost2010Prop31
280
     0
102
RTVSPost2010PropOp31
 70
     1
102
RTVSPost2010Prop32
280
     0
102
RTVSPost2010PropOp32
 70
     1
102
RTVSPost2010Prop33
280
     0
102
RTVSPost2010PropOp33
 70
     1
102
RTVSPost2010Prop34
280
     0
102
RTVSPost2010PropOp34
 70
     1
102
RTVSPost2010Prop35
280
     0
102
RTVSPost2010PropOp35
 70
     1
102
RTVSPost2010Prop36
280
     0
102
RTVSPost2010PropOp36
 70
     1
102
RTVSPost2010Prop37
 90
       50
102
RTVSPost2010PropOp37
 70
     1
102
RTVSPost2010Prop38
140
0.0
102
RTVSPost2010PropOp38
 70
     1
102
RTVSPost2010Prop39
140
1.0
102
RTVSPost2010PropOp39
 70
     1
102
RTVSPost2010Prop40
 90
        0
102
RTVSPost2010PropOp40
 70
     1
102
RTVSPost2010Prop41ColorIndex
 90
       18
102
RTVSPost2010Prop41ColorRGB
 90
        0
102
RTVSPost2010PropOp41
 70
     1
102
RTVSPost2010Prop42
 90
       50
102
RTVSPost2010PropOp42
 70
     1
102
RTVSPost2010Prop43
 90
        3
102
RTVSPost2010PropOp43
 70
     1
102
RTVSPost2010Prop44ColorIndex
 90
        5
102
RTVSPost2010Prop44ColorRGB
 90
      255
102
RTVSPost2010PropOp44
 70
     1
102
RTVSPost2010Prop45
280
     0
102
RTVSPost2010PropOp45
 70
     1
102
RTVSPost2010Prop46
 90
       50
102
RTVSPost2010PropOp46
 70
     1
102
RTVSPost2010Prop47
 90
       50
102
RTVSPost2010PropOp47
 70
     1
102
RTVSPost2010Prop48
 90
       50
102
RTVSPost2010PropOp48
 70
     1
102
RTVSPost2010Prop49
280
     0
102
RTVSPost2010PropOp49
 70
     1
102
RTVSPost2010Prop50
 90
       50
102
RTVSPost2010PropOp50
 70
     1
102
RTVSPost2010Prop51ColorIndex
 90
      256
102
RTVSPost2010Prop51ColorRGB
 90
-16777216
102
RTVSPost2010PropOp51
 70
     0
102
RTVSPost2010Prop52
140
1.0
102
RTVSPost2010PropOp52
 70
     0
102
RTVSPost2010Prop53
 90
        2
102
RTVSPost2010PropOp53
 70
     1
102
RTVSPost2010Prop54
  1
strokes_ogs.tif
102
RTVSPost2010PropOp54
 70
     1
102
RTVSPost2010Prop55
280
     0
102
RTVSPost2010PropOp55
 70
     1
102
RTVSPost2010Prop56
140
1.0
102
RTVSPost2010PropOp56
 70
     1
102
RTVSPost2010Prop57
140
1.0
102
RTVSPost2010PropOp57
 70
     1
102
RTVSPropertyOp0
 70
     1
102
RTVSPropertyOp1
 70
     1
102
RTVSPropertyOp2
 70
     1
102
RTVSPropertyOp3
 70
     1
102
RTVSPropertyOp4
 70
     1
102
RTVSPropertyOp5
 70
     1
102
RTVSPropertyOp6
 70
     1
102
RTVSPropertyOp7
 70
     1
102
RTVSPropertyOp8
 70
     1
102
RTVSPropertyOp9
 70
     1
102
RTVSPropertyOp10
 70
     1
102
RTVSPropertyOp11
 70
     1
102
RTVSPropertyOp12
 70
     1
102
RTVSPropertyOp13
 70
     1
102
RTVSPropertyOp14
 70
     1
102
RTVSPropertyOp15
 70
     1
102
RTVSPropertyOp16
 70
     1
102
RTVSPropertyOp17
 70
     1
102
RTVSPropertyOp18
 70
     1
102
RTVSPropertyOp19
 70
     1
102
RTVSPropertyOp20
 70
     1
102
RTVSPropertyOp21
 70
     1
102
RTVSPropertyOp22
 70
     1
102
RTVSPropertyOp23
 70
     1
102
RTVSPropertyOp24
 70
     1
102
RTVSPropertyOp25
 70
     1
102
RTVSPropertyOp26
 70
     1
102
RTVSPropertyOp27
 70
     1
102
RTVSPropertyOp28
 70
     1
102
RTVSPropertyOp29
 70
     1
102
RTVSPropertyOp30
 70
     1
102
RTVSPropertyOp31
 70
     1
102
RTVSPropertyOp32
 70
     1
102
RTVSPropertyOp33
 70
     1
102
RTVSPropertyOp34
 70
     1
102
RTVSPropertyOp35
 70
     1
102
RTVSPropertyOp36
 70
     1
102
RTVSPropertyOp37
 70
     1
102
RTVSPropertyOp38
 70
     1
102
RTVSPropertyOp39
 70
     1
102
RTVSPropertyOp40
 70
     1
102
RTVSPropertyOp41
 70
     1
102
RTVSPropertyOp42
 70
     1
102
RTVSPropertyOp43
 70
     1
102
RTVSPropertyOp44
 70
     1
102
RTVSPropertyOp45
 70
     1
102
RTVSPropertyOp46
 70
     1
102
RTVSPropertyOp47
 70
     1
102
RTVSPropertyOp48
 70
     1
102
RTVSPropertyOp49
 70
     1
102
RTVSPropertyOp50
 70
     1
102
RTVSPropertyOp51
 70
     0
102
RTVSPropertyOp52
 70
     0
102
RTVSPropertyOp53
 70
     1
102
RTVSPropertyOp54
 70
     1
102
RTVSPropertyOp55
 70
     1
102
RTVSPropertyOp56
 70
     1
102
RTVSPropertyOp57
 70
     1
102
RTVSPropertyOp58
 70
     1
102
RTVSPropertyOp59
 70
     1
102
RTVSPropertyOp60
 70
     1
102
RTVSPropertyOp61
 70
     1
102
RTVSPropertyOp62
 70
     1
  0
XRECORD
  5
1A5D9
102
{ACAD_REACTORS
330
1A5D8
102
}
330
1A5D8
100
AcDbXrecord
280
     1
102
RTVSPost2010Prop28
280
     0
102
RTVSPost2010PropOp28
 70
     1
102
RTVSPost2010Prop29
280
     1
102
RTVSPost2010PropOp29
 70
     1
102
RTVSPost2010Prop30
280
     1
102
RTVSPost2010PropOp30
 70
     1
102
RTVSPost2010Prop31
280
     0
102
RTVSPost2010PropOp31
 70
     1
102
RTVSPost2010Prop32
280
     0
102
RTVSPost2010PropOp32
 70
     1
102
RTVSPost2010Prop33
280
     0
102
RTVSPost2010PropOp33
 70
     1
102
RTVSPost2010Prop34
280
     0
102
RTVSPost2010PropOp34
 70
     1
102
RTVSPost2010Prop35
280
     0
102
RTVSPost2010PropOp35
 70
     1
102
RTVSPost2010Prop36
280
     0
102
RTVSPost2010PropOp36
 70
     1
102
RTVSPost2010Prop37
 90
       50
102
RTVSPost2010PropOp37
 70
     1
102
RTVSPost2010Prop38
140
0.0
102
RTVSPost2010PropOp38
 70
     1
102
RTVSPost2010Prop39
140
1.0
102
RTVSPost2010PropOp39
 70
     1
102
RTVSPost2010Prop40
 90
        0
102
RTVSPost2010PropOp40
 70
     1
102
RTVSPost2010Prop41ColorIndex
 90
       18
102
RTVSPost2010Prop41ColorRGB
 90
        0
102
RTVSPost2010PropOp41
 70
     1
102
RTVSPost2010Prop42
 90
       50
102
RTVSPost2010PropOp42
 70
     1
102
RTVSPost2010Prop43
 90
        3
102
RTVSPost2010PropOp43
 70
     1
102
RTVSPost2010Prop44ColorIndex
 90
        5
102
RTVSPost2010Prop44ColorRGB
 90
      255
102
RTVSPost2010PropOp44
 70
     1
102
RTVSPost2010Prop45
280
     0
102
RTVSPost2010PropOp45
 70
     1
102
RTVSPost2010Prop46
 90
       50
102
RTVSPost2010PropOp46
 70
     1
102
RTVSPost2010Prop47
 90
       50
102
RTVSPost2010PropOp47
 70
     1
102
RTVSPost2010Prop48
 90
       50
102
RTVSPost2010PropOp48
 70
     1
102
RTVSPost2010Prop49
280
     0
102
RTVSPost2010PropOp49
 70
     1
102
RTVSPost2010Prop50
 90
       50
102
RTVSPost2010PropOp50
 70
     1
102
RTVSPost2010Prop51ColorIndex
 90
      256
102
RTVSPost2010Prop51ColorRGB
 90
-16777216
102
RTVSPost2010PropOp51
 70
     0
102
RTVSPost2010Prop52
140
1.0
102
RTVSPost2010PropOp52
 70
     0
102
RTVSPost2010Prop53
 90
        2
102
RTVSPost2010PropOp53
 70
     1
102
RTVSPost2010Prop54
  1
strokes_ogs.tif
102
RTVSPost2010PropOp54
 70
     1
102
RTVSPost2010Prop55
280
     0
102
RTVSPost2010PropOp55
 70
     1
102
RTVSPost2010Prop56
140
1.0
102
RTVSPost2010PropOp56
 70
     1
102
RTVSPost2010Prop57
140
1.0
102
RTVSPost2010PropOp57
 70
     1
102
RTVSPropertyOp0
 70
     1
102
RTVSPropertyOp1
 70
     1
102
RTVSPropertyOp2
 70
     1
102
RTVSPropertyOp3
 70
     1
102
RTVSPropertyOp4
 70
     1
102
RTVSPropertyOp5
 70
     1
102
RTVSPropertyOp6
 70
     1
102
RTVSPropertyOp7
 70
     1
102
RTVSPropertyOp8
 70
     1
102
RTVSPropertyOp9
 70
     1
102
RTVSPropertyOp10
 70
     1
102
RTVSPropertyOp11
 70
     1
102
RTVSPropertyOp12
 70
     1
102
RTVSPropertyOp13
 70
     1
102
RTVSPropertyOp14
 70
     1
102
RTVSPropertyOp15
 70
     1
102
RTVSPropertyOp16
 70
     1
102
RTVSPropertyOp17
 70
     1
102
RTVSPropertyOp18
 70
     1
102
RTVSPropertyOp19
 70
     1
102
RTVSPropertyOp20
 70
     1
102
RTVSPropertyOp21
 70
     1
102
RTVSPropertyOp22
 70
     1
102
RTVSPropertyOp23
 70
     1
102
RTVSPropertyOp24
 70
     1
102
RTVSPropertyOp25
 70
     1
102
RTVSPropertyOp26
 70
     1
102
RTVSPropertyOp27
 70
     1
102
RTVSPropertyOp28
 70
     1
102
RTVSPropertyOp29
 70
     1
102
RTVSPropertyOp30
 70
     1
102
RTVSPropertyOp31
 70
     1
102
RTVSPropertyOp32
 70
     1
102
RTVSPropertyOp33
 70
     1
102
RTVSPropertyOp34
 70
     1
102
RTVSPropertyOp35
 70
     1
102
RTVSPropertyOp36
 70
     1
102
RTVSPropertyOp37
 70
     1
102
RTVSPropertyOp38
 70
     1
102
RTVSPropertyOp39
 70
     1
102
RTVSPropertyOp40
 70
     1
102
RTVSPropertyOp41
 70
     1
102
RTVSPropertyOp42
 70
     1
102
RTVSPropertyOp43
 70
     1
102
RTVSPropertyOp44
 70
     1
102
RTVSPropertyOp45
 70
     1
102
RTVSPropertyOp46
 70
     1
102
RTVSPropertyOp47
 70
     1
102
RTVSPropertyOp48
 70
     1
102
RTVSPropertyOp49
 70
     1
102
RTVSPropertyOp50
 70
     1
102
RTVSPropertyOp51
 70
     0
102
RTVSPropertyOp52
 70
     0
102
RTVSPropertyOp53
 70
     1
102
RTVSPropertyOp54
 70
     1
102
RTVSPropertyOp55
 70
     1
102
RTVSPropertyOp56
 70
     1
102
RTVSPropertyOp57
 70
     1
102
RTVSPropertyOp58
 70
     1
102
RTVSPropertyOp59
 70
     1
102
RTVSPropertyOp60
 70
     1
102
RTVSPropertyOp61
 70
     1
102
RTVSPropertyOp62
 70
     1
  0
XRECORD
  5
1A5DB
102
{ACAD_REACTORS
330
1A5DA
102
}
330
1A5DA
100
AcDbXrecord
280
     1
102
RTVSPost2010Prop28
280
     0
102
RTVSPost2010PropOp28
 70
     1
102
RTVSPost2010Prop29
280
     1
102
RTVSPost2010PropOp29
 70
     1
102
RTVSPost2010Prop30
280
     1
102
RTVSPost2010PropOp30
 70
     1
102
RTVSPost2010Prop31
280
     0
102
RTVSPost2010PropOp31
 70
     1
102
RTVSPost2010Prop32
280
     0
102
RTVSPost2010PropOp32
 70
     1
102
RTVSPost2010Prop33
280
     0
102
RTVSPost2010PropOp33
 70
     1
102
RTVSPost2010Prop34
280
     0
102
RTVSPost2010PropOp34
 70
     1
102
RTVSPost2010Prop35
280
     0
102
RTVSPost2010PropOp35
 70
     1
102
RTVSPost2010Prop36
280
     0
102
RTVSPost2010PropOp36
 70
     1
102
RTVSPost2010Prop37
 90
       50
102
RTVSPost2010PropOp37
 70
     1
102
RTVSPost2010Prop38
140
0.0
102
RTVSPost2010PropOp38
 70
     1
102
RTVSPost2010Prop39
140
1.0
102
RTVSPost2010PropOp39
 70
     1
102
RTVSPost2010Prop40
 90
        0
102
RTVSPost2010PropOp40
 70
     1
102
RTVSPost2010Prop41ColorIndex
 90
       18
102
RTVSPost2010Prop41ColorRGB
 90
        0
102
RTVSPost2010PropOp41
 70
     1
102
RTVSPost2010Prop42
 90
       50
102
RTVSPost2010PropOp42
 70
     1
102
RTVSPost2010Prop43
 90
        3
102
RTVSPost2010PropOp43
 70
     1
102
RTVSPost2010Prop44ColorIndex
 90
        5
102
RTVSPost2010Prop44ColorRGB
 90
      255
102
RTVSPost2010PropOp44
 70
     1
102
RTVSPost2010Prop45
280
     0
102
RTVSPost2010PropOp45
 70
     1
102
RTVSPost2010Prop46
 90
       50
102
RTVSPost2010PropOp46
 70
     1
102
RTVSPost2010Prop47
 90
       50
102
RTVSPost2010PropOp47
 70
     1
102
RTVSPost2010Prop48
 90
       50
102
RTVSPost2010PropOp48
 70
     1
102
RTVSPost2010Prop49
280
     0
102
RTVSPost2010PropOp49
 70
     1
102
RTVSPost2010Prop50
 90
       50
102
RTVSPost2010PropOp50
 70
     1
102
RTVSPost2010Prop51ColorIndex
 90
      256
102
RTVSPost2010Prop51ColorRGB
 90
-16777216
102
RTVSPost2010PropOp51
 70
     0
102
RTVSPost2010Prop52
140
1.0
102
RTVSPost2010PropOp52
 70
     0
102
RTVSPost2010Prop53
 90
        2
102
RTVSPost2010PropOp53
 70
     1
102
RTVSPost2010Prop54
  1
strokes_ogs.tif
102
RTVSPost2010PropOp54
 70
     1
102
RTVSPost2010Prop55
280
     0
102
RTVSPost2010PropOp55
 70
     1
102
RTVSPost2010Prop56
140
1.0
102
RTVSPost2010PropOp56
 70
     1
102
RTVSPost2010Prop57
140
1.0
102
RTVSPost2010PropOp57
 70
     1
102
RTVSPropertyOp0
 70
     1
102
RTVSPropertyOp1
 70
     1
102
RTVSPropertyOp2
 70
     1
102
RTVSPropertyOp3
 70
     1
102
RTVSPropertyOp4
 70
     1
102
RTVSPropertyOp5
 70
     1
102
RTVSPropertyOp6
 70
     1
102
RTVSPropertyOp7
 70
     1
102
RTVSPropertyOp8
 70
     1
102
RTVSPropertyOp9
 70
     1
102
RTVSPropertyOp10
 70
     1
102
RTVSPropertyOp11
 70
     1
102
RTVSPropertyOp12
 70
     1
102
RTVSPropertyOp13
 70
     1
102
RTVSPropertyOp14
 70
     1
102
RTVSPropertyOp15
 70
     1
102
RTVSPropertyOp16
 70
     1
102
RTVSPropertyOp17
 70
     1
102
RTVSPropertyOp18
 70
     1
102
RTVSPropertyOp19
 70
     1
102
RTVSPropertyOp20
 70
     1
102
RTVSPropertyOp21
 70
     1
102
RTVSPropertyOp22
 70
     1
102
RTVSPropertyOp23
 70
     1
102
RTVSPropertyOp24
 70
     1
102
RTVSPropertyOp25
 70
     1
102
RTVSPropertyOp26
 70
     1
102
RTVSPropertyOp27
 70
     1
102
RTVSPropertyOp28
 70
     1
102
RTVSPropertyOp29
 70
     1
102
RTVSPropertyOp30
 70
     1
102
RTVSPropertyOp31
 70
     1
102
RTVSPropertyOp32
 70
     1
102
RTVSPropertyOp33
 70
     1
102
RTVSPropertyOp34
 70
     1
102
RTVSPropertyOp35
 70
     1
102
RTVSPropertyOp36
 70
     1
102
RTVSPropertyOp37
 70
     1
102
RTVSPropertyOp38
 70
     1
102
RTVSPropertyOp39
 70
     1
102
RTVSPropertyOp40
 70
     1
102
RTVSPropertyOp41
 70
     1
102
RTVSPropertyOp42
 70
     1
102
RTVSPropertyOp43
 70
     1
102
RTVSPropertyOp44
 70
     1
102
RTVSPropertyOp45
 70
     1
102
RTVSPropertyOp46
 70
     1
102
RTVSPropertyOp47
 70
     1
102
RTVSPropertyOp48
 70
     1
102
RTVSPropertyOp49
 70
     1
102
RTVSPropertyOp50
 70
     1
102
RTVSPropertyOp51
 70
     0
102
RTVSPropertyOp52
 70
     0
102
RTVSPropertyOp53
 70
     1
102
RTVSPropertyOp54
 70
     1
102
RTVSPropertyOp55
 70
     1
102
RTVSPropertyOp56
 70
     1
102
RTVSPropertyOp57
 70
     1
102
RTVSPropertyOp58
 70
     1
102
RTVSPropertyOp59
 70
     1
102
RTVSPropertyOp60
 70
     1
102
RTVSPropertyOp61
 70
     1
102
RTVSPropertyOp62
 70
     1
  0
XRECORD
  5
1A5DD
102
{ACAD_REACTORS
330
1A5DC
102
}
330
1A5DC
100
AcDbXrecord
280
     1
102
RTVSPost2010Prop28
280
     0
102
RTVSPost2010PropOp28
 70
     1
102
RTVSPost2010Prop29
280
     1
102
RTVSPost2010PropOp29
 70
     1
102
RTVSPost2010Prop30
280
     1
102
RTVSPost2010PropOp30
 70
     1
102
RTVSPost2010Prop31
280
     0
102
RTVSPost2010PropOp31
 70
     1
102
RTVSPost2010Prop32
280
     0
102
RTVSPost2010PropOp32
 70
     1
102
RTVSPost2010Prop33
280
     0
102
RTVSPost2010PropOp33
 70
     1
102
RTVSPost2010Prop34
280
     0
102
RTVSPost2010PropOp34
 70
     1
102
RTVSPost2010Prop35
280
     0
102
RTVSPost2010PropOp35
 70
     1
102
RTVSPost2010Prop36
280
     0
102
RTVSPost2010PropOp36
 70
     1
102
RTVSPost2010Prop37
 90
       50
102
RTVSPost2010PropOp37
 70
     1
102
RTVSPost2010Prop38
140
0.0
102
RTVSPost2010PropOp38
 70
     1
102
RTVSPost2010Prop39
140
1.0
102
RTVSPost2010PropOp39
 70
     1
102
RTVSPost2010Prop40
 90
        0
102
RTVSPost2010PropOp40
 70
     1
102
RTVSPost2010Prop41ColorIndex
 90
       18
102
RTVSPost2010Prop41ColorRGB
 90
        0
102
RTVSPost2010PropOp41
 70
     1
102
RTVSPost2010Prop42
 90
       50
102
RTVSPost2010PropOp42
 70
     1
102
RTVSPost2010Prop43
 90
        3
102
RTVSPost2010PropOp43
 70
     1
102
RTVSPost2010Prop44ColorIndex
 90
        5
102
RTVSPost2010Prop44ColorRGB
 90
      255
102
RTVSPost2010PropOp44
 70
     1
102
RTVSPost2010Prop45
280
     0
102
RTVSPost2010PropOp45
 70
     1
102
RTVSPost2010Prop46
 90
       50
102
RTVSPost2010PropOp46
 70
     1
102
RTVSPost2010Prop47
 90
       50
102
RTVSPost2010PropOp47
 70
     1
102
RTVSPost2010Prop48
 90
       50
102
RTVSPost2010PropOp48
 70
     1
102
RTVSPost2010Prop49
280
     0
102
RTVSPost2010PropOp49
 70
     1
102
RTVSPost2010Prop50
 90
       50
102
RTVSPost2010PropOp50
 70
     1
102
RTVSPost2010Prop51ColorIndex
 90
      256
102
RTVSPost2010Prop51ColorRGB
 90
-16777216
102
RTVSPost2010PropOp51
 70
     0
102
RTVSPost2010Prop52
140
1.0
102
RTVSPost2010PropOp52
 70
     0
102
RTVSPost2010Prop53
 90
        2
102
RTVSPost2010PropOp53
 70
     1
102
RTVSPost2010Prop54
  1
strokes_ogs.tif
102
RTVSPost2010PropOp54
 70
     1
102
RTVSPost2010Prop55
280
     0
102
RTVSPost2010PropOp55
 70
     1
102
RTVSPost2010Prop56
140
1.0
102
RTVSPost2010PropOp56
 70
     1
102
RTVSPost2010Prop57
140
1.0
102
RTVSPost2010PropOp57
 70
     1
102
RTVSPropertyOp0
 70
     1
102
RTVSPropertyOp1
 70
     1
102
RTVSPropertyOp2
 70
     1
102
RTVSPropertyOp3
 70
     1
102
RTVSPropertyOp4
 70
     1
102
RTVSPropertyOp5
 70
     1
102
RTVSPropertyOp6
 70
     1
102
RTVSPropertyOp7
 70
     1
102
RTVSPropertyOp8
 70
     1
102
RTVSPropertyOp9
 70
     1
102
RTVSPropertyOp10
 70
     1
102
RTVSPropertyOp11
 70
     1
102
RTVSPropertyOp12
 70
     1
102
RTVSPropertyOp13
 70
     1
102
RTVSPropertyOp14
 70
     1
102
RTVSPropertyOp15
 70
     1
102
RTVSPropertyOp16
 70
     1
102
RTVSPropertyOp17
 70
     1
102
RTVSPropertyOp18
 70
     1
102
RTVSPropertyOp19
 70
     1
102
RTVSPropertyOp20
 70
     1
102
RTVSPropertyOp21
 70
     1
102
RTVSPropertyOp22
 70
     1
102
RTVSPropertyOp23
 70
     1
102
RTVSPropertyOp24
 70
     1
102
RTVSPropertyOp25
 70
     1
102
RTVSPropertyOp26
 70
     1
102
RTVSPropertyOp27
 70
     1
102
RTVSPropertyOp28
 70
     1
102
RTVSPropertyOp29
 70
     1
102
RTVSPropertyOp30
 70
     1
102
RTVSPropertyOp31
 70
     1
102
RTVSPropertyOp32
 70
     1
102
RTVSPropertyOp33
 70
     1
102
RTVSPropertyOp34
 70
     1
102
RTVSPropertyOp35
 70
     1
102
RTVSPropertyOp36
 70
     1
102
RTVSPropertyOp37
 70
     1
102
RTVSPropertyOp38
 70
     1
102
RTVSPropertyOp39
 70
     1
102
RTVSPropertyOp40
 70
     1
102
RTVSPropertyOp41
 70
     1
102
RTVSPropertyOp42
 70
     1
102
RTVSPropertyOp43
 70
     1
102
RTVSPropertyOp44
 70
     1
102
RTVSPropertyOp45
 70
     1
102
RTVSPropertyOp46
 70
     1
102
RTVSPropertyOp47
 70
     1
102
RTVSPropertyOp48
 70
     1
102
RTVSPropertyOp49
 70
     1
102
RTVSPropertyOp50
 70
     1
102
RTVSPropertyOp51
 70
     0
102
RTVSPropertyOp52
 70
     0
102
RTVSPropertyOp53
 70
     1
102
RTVSPropertyOp54
 70
     1
102
RTVSPropertyOp55
 70
     1
102
RTVSPropertyOp56
 70
     1
102
RTVSPropertyOp57
 70
     1
102
RTVSPropertyOp58
 70
     1
102
RTVSPropertyOp59
 70
     1
102
RTVSPropertyOp60
 70
     1
102
RTVSPropertyOp61
 70
     1
102
RTVSPropertyOp62
 70
     1
  0
XRECORD
  5
1A5E5
102
{ACAD_REACTORS
330
1A5E4
102
}
330
1A5E4
100
AcDbXrecord
280
     1
102
RTVSPost2010Prop28
280
     0
102
RTVSPost2010PropOp28
 70
     1
102
RTVSPost2010Prop29
280
     1
102
RTVSPost2010PropOp29
 70
     1
102
RTVSPost2010Prop30
280
     1
102
RTVSPost2010PropOp30
 70
     1
102
RTVSPost2010Prop31
280
     0
102
RTVSPost2010PropOp31
 70
     1
102
RTVSPost2010Prop32
280
     0
102
RTVSPost2010PropOp32
 70
     1
102
RTVSPost2010Prop33
280
     0
102
RTVSPost2010PropOp33
 70
     1
102
RTVSPost2010Prop34
280
     0
102
RTVSPost2010PropOp34
 70
     1
102
RTVSPost2010Prop35
280
     0
102
RTVSPost2010PropOp35
 70
     1
102
RTVSPost2010Prop36
280
     0
102
RTVSPost2010PropOp36
 70
     1
102
RTVSPost2010Prop37
 90
       50
102
RTVSPost2010PropOp37
 70
     1
102
RTVSPost2010Prop38
140
0.0
102
RTVSPost2010PropOp38
 70
     1
102
RTVSPost2010Prop39
140
1.0
102
RTVSPost2010PropOp39
 70
     1
102
RTVSPost2010Prop40
 90
        0
102
RTVSPost2010PropOp40
 70
     1
102
RTVSPost2010Prop41ColorIndex
 90
       18
102
RTVSPost2010Prop41ColorRGB
 90
        0
102
RTVSPost2010PropOp41
 70
     1
102
RTVSPost2010Prop42
 90
       50
102
RTVSPost2010PropOp42
 70
     1
102
RTVSPost2010Prop43
 90
        3
102
RTVSPost2010PropOp43
 70
     1
102
RTVSPost2010Prop44ColorIndex
 90
        5
102
RTVSPost2010Prop44ColorRGB
 90
      255
102
RTVSPost2010PropOp44
 70
     1
102
RTVSPost2010Prop45
280
     0
102
RTVSPost2010PropOp45
 70
     1
102
RTVSPost2010Prop46
 90
       50
102
RTVSPost2010PropOp46
 70
     1
102
RTVSPost2010Prop47
 90
       50
102
RTVSPost2010PropOp47
 70
     1
102
RTVSPost2010Prop48
 90
       50
102
RTVSPost2010PropOp48
 70
     1
102
RTVSPost2010Prop49
280
     0
102
RTVSPost2010PropOp49
 70
     1
102
RTVSPost2010Prop50
 90
       50
102
RTVSPost2010PropOp50
 70
     1
102
RTVSPost2010Prop51ColorIndex
 90
      256
102
RTVSPost2010Prop51ColorRGB
 90
-16777216
102
RTVSPost2010PropOp51
 70
     0
102
RTVSPost2010Prop52
140
1.0
102
RTVSPost2010PropOp52
 70
     0
102
RTVSPost2010Prop53
 90
        2
102
RTVSPost2010PropOp53
 70
     1
102
RTVSPost2010Prop54
  1
strokes_ogs.tif
102
RTVSPost2010PropOp54
 70
     1
102
RTVSPost2010Prop55
280
     0
102
RTVSPost2010PropOp55
 70
     1
102
RTVSPost2010Prop56
140
1.0
102
RTVSPost2010PropOp56
 70
     1
102
RTVSPost2010Prop57
140
1.0
102
RTVSPost2010PropOp57
 70
     1
102
RTVSPropertyOp0
 70
     1
102
RTVSPropertyOp1
 70
     1
102
RTVSPropertyOp2
 70
     1
102
RTVSPropertyOp3
 70
     1
102
RTVSPropertyOp4
 70
     1
102
RTVSPropertyOp5
 70
     1
102
RTVSPropertyOp6
 70
     1
102
RTVSPropertyOp7
 70
     1
102
RTVSPropertyOp8
 70
     1
102
RTVSPropertyOp9
 70
     1
102
RTVSPropertyOp10
 70
     1
102
RTVSPropertyOp11
 70
     1
102
RTVSPropertyOp12
 70
     1
102
RTVSPropertyOp13
 70
     1
102
RTVSPropertyOp14
 70
     1
102
RTVSPropertyOp15
 70
     1
102
RTVSPropertyOp16
 70
     1
102
RTVSPropertyOp17
 70
     1
102
RTVSPropertyOp18
 70
     1
102
RTVSPropertyOp19
 70
     1
102
RTVSPropertyOp20
 70
     1
102
RTVSPropertyOp21
 70
     1
102
RTVSPropertyOp22
 70
     1
102
RTVSPropertyOp23
 70
     1
102
RTVSPropertyOp24
 70
     1
102
RTVSPropertyOp25
 70
     1
102
RTVSPropertyOp26
 70
     1
102
RTVSPropertyOp27
 70
     1
102
RTVSPropertyOp28
 70
     1
102
RTVSPropertyOp29
 70
     1
102
RTVSPropertyOp30
 70
     1
102
RTVSPropertyOp31
 70
     1
102
RTVSPropertyOp32
 70
     1
102
RTVSPropertyOp33
 70
     1
102
RTVSPropertyOp34
 70
     1
102
RTVSPropertyOp35
 70
     1
102
RTVSPropertyOp36
 70
     1
102
RTVSPropertyOp37
 70
     1
102
RTVSPropertyOp38
 70
     1
102
RTVSPropertyOp39
 70
     1
102
RTVSPropertyOp40
 70
     1
102
RTVSPropertyOp41
 70
     1
102
RTVSPropertyOp42
 70
     1
102
RTVSPropertyOp43
 70
     1
102
RTVSPropertyOp44
 70
     1
102
RTVSPropertyOp45
 70
     1
102
RTVSPropertyOp46
 70
     1
102
RTVSPropertyOp47
 70
     1
102
RTVSPropertyOp48
 70
     1
102
RTVSPropertyOp49
 70
     1
102
RTVSPropertyOp50
 70
     1
102
RTVSPropertyOp51
 70
     0
102
RTVSPropertyOp52
 70
     0
102
RTVSPropertyOp53
 70
     1
102
RTVSPropertyOp54
 70
     1
102
RTVSPropertyOp55
 70
     1
102
RTVSPropertyOp56
 70
     1
102
RTVSPropertyOp57
 70
     1
102
RTVSPropertyOp58
 70
     1
102
RTVSPropertyOp59
 70
     1
102
RTVSPropertyOp60
 70
     1
102
RTVSPropertyOp61
 70
     1
102
RTVSPropertyOp62
 70
     1
  0
XRECORD
  5
1A5F9
102
{ACAD_REACTORS
330
1A5F8
102
}
330
1A5F8
100
AcDbXrecord
280
     1
102
RTVSPost2010Prop28
280
     0
102
RTVSPost2010PropOp28
 70
     1
102
RTVSPost2010Prop29
280
     1
102
RTVSPost2010PropOp29
 70
     1
102
RTVSPost2010Prop30
280
     1
102
RTVSPost2010PropOp30
 70
     1
102
RTVSPost2010Prop31
280
     0
102
RTVSPost2010PropOp31
 70
     1
102
RTVSPost2010Prop32
280
     0
102
RTVSPost2010PropOp32
 70
     1
102
RTVSPost2010Prop33
280
     0
102
RTVSPost2010PropOp33
 70
     1
102
RTVSPost2010Prop34
280
     0
102
RTVSPost2010PropOp34
 70
     1
102
RTVSPost2010Prop35
280
     0
102
RTVSPost2010PropOp35
 70
     1
102
RTVSPost2010Prop36
280
     0
102
RTVSPost2010PropOp36
 70
     1
102
RTVSPost2010Prop37
 90
       50
102
RTVSPost2010PropOp37
 70
     1
102
RTVSPost2010Prop38
140
0.0
102
RTVSPost2010PropOp38
 70
     1
102
RTVSPost2010Prop39
140
1.0
102
RTVSPost2010PropOp39
 70
     1
102
RTVSPost2010Prop40
 90
        0
102
RTVSPost2010PropOp40
 70
     1
102
RTVSPost2010Prop41ColorIndex
 90
       18
102
RTVSPost2010Prop41ColorRGB
 90
        0
102
RTVSPost2010PropOp41
 70
     1
102
RTVSPost2010Prop42
 90
       50
102
RTVSPost2010PropOp42
 70
     1
102
RTVSPost2010Prop43
 90
        3
102
RTVSPost2010PropOp43
 70
     1
102
RTVSPost2010Prop44ColorIndex
 90
        5
102
RTVSPost2010Prop44ColorRGB
 90
      255
102
RTVSPost2010PropOp44
 70
     1
102
RTVSPost2010Prop45
280
     0
102
RTVSPost2010PropOp45
 70
     1
102
RTVSPost2010Prop46
 90
       50
102
RTVSPost2010PropOp46
 70
     1
102
RTVSPost2010Prop47
 90
       50
102
RTVSPost2010PropOp47
 70
     1
102
RTVSPost2010Prop48
 90
       50
102
RTVSPost2010PropOp48
 70
     1
102
RTVSPost2010Prop49
280
     0
102
RTVSPost2010PropOp49
 70
     1
102
RTVSPost2010Prop50
 90
       50
102
RTVSPost2010PropOp50
 70
     1
102
RTVSPost2010Prop51ColorIndex
 90
      256
102
RTVSPost2010Prop51ColorRGB
 90
-16777216
102
RTVSPost2010PropOp51
 70
     0
102
RTVSPost2010Prop52
140
1.0
102
RTVSPost2010PropOp52
 70
     0
102
RTVSPost2010Prop53
 90
        2
102
RTVSPost2010PropOp53
 70
     1
102
RTVSPost2010Prop54
  1
strokes_ogs.tif
102
RTVSPost2010PropOp54
 70
     1
102
RTVSPost2010Prop55
280
     0
102
RTVSPost2010PropOp55
 70
     1
102
RTVSPost2010Prop56
140
1.0
102
RTVSPost2010PropOp56
 70
     1
102
RTVSPost2010Prop57
140
1.0
102
RTVSPost2010PropOp57
 70
     1
102
RTVSPropertyOp0
 70
     0
102
RTVSPropertyOp1
 70
     0
102
RTVSPropertyOp2
 70
     0
102
RTVSPropertyOp3
 70
     0
102
RTVSPropertyOp4
 70
     0
102
RTVSPropertyOp5
 70
     0
102
RTVSPropertyOp6
 70
     0
102
RTVSPropertyOp7
 70
     0
102
RTVSPropertyOp8
 70
     0
102
RTVSPropertyOp9
 70
     0
102
RTVSPropertyOp10
 70
     0
102
RTVSPropertyOp11
 70
     0
102
RTVSPropertyOp12
 70
     0
102
RTVSPropertyOp13
 70
     0
102
RTVSPropertyOp14
 70
     2
102
RTVSPropertyOp15
 70
     0
102
RTVSPropertyOp16
 70
     0
102
RTVSPropertyOp17
 70
     0
102
RTVSPropertyOp18
 70
     0
102
RTVSPropertyOp19
 70
     0
102
RTVSPropertyOp20
 70
     0
102
RTVSPropertyOp21
 70
     0
102
RTVSPropertyOp22
 70
     0
102
RTVSPropertyOp23
 70
     0
102
RTVSPropertyOp24
 70
     0
102
RTVSPropertyOp25
 70
     0
102
RTVSPropertyOp26
 70
     0
102
RTVSPropertyOp27
 70
     0
102
RTVSPropertyOp28
 70
     1
102
RTVSPropertyOp29
 70
     1
102
RTVSPropertyOp30
 70
     1
102
RTVSPropertyOp31
 70
     1
102
RTVSPropertyOp32
 70
     1
102
RTVSPropertyOp33
 70
     1
102
RTVSPropertyOp34
 70
     1
102
RTVSPropertyOp35
 70
     1
102
RTVSPropertyOp36
 70
     1
102
RTVSPropertyOp37
 70
     1
102
RTVSPropertyOp38
 70
     1
102
RTVSPropertyOp39
 70
     1
102
RTVSPropertyOp40
 70
     1
102
RTVSPropertyOp41
 70
     1
102
RTVSPropertyOp42
 70
     1
102
RTVSPropertyOp43
 70
     1
102
RTVSPropertyOp44
 70
     1
102
RTVSPropertyOp45
 70
     1
102
RTVSPropertyOp46
 70
     1
102
RTVSPropertyOp47
 70
     1
102
RTVSPropertyOp48
 70
     1
102
RTVSPropertyOp49
 70
     1
102
RTVSPropertyOp50
 70
     1
102
RTVSPropertyOp51
 70
     0
102
RTVSPropertyOp52
 70
     0
102
RTVSPropertyOp53
 70
     1
102
RTVSPropertyOp54
 70
     1
102
RTVSPropertyOp55
 70
     1
102
RTVSPropertyOp56
 70
     1
102
RTVSPropertyOp57
 70
     1
102
RTVSPropertyOp58
 70
     1
102
RTVSPropertyOp59
 70
     1
102
RTVSPropertyOp60
 70
     1
102
RTVSPropertyOp61
 70
     1
102
RTVSPropertyOp62
 70
     1
  0
XRECORD
  5
1A5F1
102
{ACAD_REACTORS
330
1A5F0
102
}
330
1A5F0
100
AcDbXrecord
280
     1
102
RTVSPost2010Prop28
280
     0
102
RTVSPost2010PropOp28
 70
     1
102
RTVSPost2010Prop29
280
     1
102
RTVSPost2010PropOp29
 70
     1
102
RTVSPost2010Prop30
280
     1
102
RTVSPost2010PropOp30
 70
     1
102
RTVSPost2010Prop31
280
     0
102
RTVSPost2010PropOp31
 70
     1
102
RTVSPost2010Prop32
280
     0
102
RTVSPost2010PropOp32
 70
     1
102
RTVSPost2010Prop33
280
     0
102
RTVSPost2010PropOp33
 70
     1
102
RTVSPost2010Prop34
280
     0
102
RTVSPost2010PropOp34
 70
     1
102
RTVSPost2010Prop35
280
     0
102
RTVSPost2010PropOp35
 70
     1
102
RTVSPost2010Prop36
280
     0
102
RTVSPost2010PropOp36
 70
     1
102
RTVSPost2010Prop37
 90
       50
102
RTVSPost2010PropOp37
 70
     1
102
RTVSPost2010Prop38
140
0.0
102
RTVSPost2010PropOp38
 70
     1
102
RTVSPost2010Prop39
140
1.0
102
RTVSPost2010PropOp39
 70
     1
102
RTVSPost2010Prop40
 90
        0
102
RTVSPost2010PropOp40
 70
     1
102
RTVSPost2010Prop41ColorIndex
 90
       18
102
RTVSPost2010Prop41ColorRGB
 90
        0
102
RTVSPost2010PropOp41
 70
     1
102
RTVSPost2010Prop42
 90
       50
102
RTVSPost2010PropOp42
 70
     1
102
RTVSPost2010Prop43
 90
        3
102
RTVSPost2010PropOp43
 70
     1
102
RTVSPost2010Prop44ColorIndex
 90
        5
102
RTVSPost2010Prop44ColorRGB
 90
      255
102
RTVSPost2010PropOp44
 70
     1
102
RTVSPost2010Prop45
280
     0
102
RTVSPost2010PropOp45
 70
     1
102
RTVSPost2010Prop46
 90
       50
102
RTVSPost2010PropOp46
 70
     1
102
RTVSPost2010Prop47
 90
       50
102
RTVSPost2010PropOp47
 70
     1
102
RTVSPost2010Prop48
 90
       50
102
RTVSPost2010PropOp48
 70
     1
102
RTVSPost2010Prop49
280
     0
102
RTVSPost2010PropOp49
 70
     1
102
RTVSPost2010Prop50
 90
       50
102
RTVSPost2010PropOp50
 70
     1
102
RTVSPost2010Prop51ColorIndex
 90
      256
102
RTVSPost2010Prop51ColorRGB
 90
-16777216
102
RTVSPost2010PropOp51
 70
     0
102
RTVSPost2010Prop52
140
1.0
102
RTVSPost2010PropOp52
 70
     0
102
RTVSPost2010Prop53
 90
        2
102
RTVSPost2010PropOp53
 70
     1
102
RTVSPost2010Prop54
  1
strokes_ogs.tif
102
RTVSPost2010PropOp54
 70
     1
102
RTVSPost2010Prop55
280
     0
102
RTVSPost2010PropOp55
 70
     1
102
RTVSPost2010Prop56
140
1.0
102
RTVSPost2010PropOp56
 70
     1
102
RTVSPost2010Prop57
140
1.0
102
RTVSPost2010PropOp57
 70
     1
102
RTVSPropertyOp0
 70
     1
102
RTVSPropertyOp1
 70
     1
102
RTVSPropertyOp2
 70
     1
102
RTVSPropertyOp3
 70
     1
102
RTVSPropertyOp4
 70
     1
102
RTVSPropertyOp5
 70
     1
102
RTVSPropertyOp6
 70
     1
102
RTVSPropertyOp7
 70
     1
102
RTVSPropertyOp8
 70
     1
102
RTVSPropertyOp9
 70
     1
102
RTVSPropertyOp10
 70
     1
102
RTVSPropertyOp11
 70
     1
102
RTVSPropertyOp12
 70
     1
102
RTVSPropertyOp13
 70
     1
102
RTVSPropertyOp14
 70
     1
102
RTVSPropertyOp15
 70
     1
102
RTVSPropertyOp16
 70
     1
102
RTVSPropertyOp17
 70
     1
102
RTVSPropertyOp18
 70
     1
102
RTVSPropertyOp19
 70
     1
102
RTVSPropertyOp20
 70
     1
102
RTVSPropertyOp21
 70
     1
102
RTVSPropertyOp22
 70
     1
102
RTVSPropertyOp23
 70
     1
102
RTVSPropertyOp24
 70
     1
102
RTVSPropertyOp25
 70
     1
102
RTVSPropertyOp26
 70
     1
102
RTVSPropertyOp27
 70
     1
102
RTVSPropertyOp28
 70
     1
102
RTVSPropertyOp29
 70
     1
102
RTVSPropertyOp30
 70
     1
102
RTVSPropertyOp31
 70
     1
102
RTVSPropertyOp32
 70
     1
102
RTVSPropertyOp33
 70
     1
102
RTVSPropertyOp34
 70
     1
102
RTVSPropertyOp35
 70
     1
102
RTVSPropertyOp36
 70
     1
102
RTVSPropertyOp37
 70
     1
102
RTVSPropertyOp38
 70
     1
102
RTVSPropertyOp39
 70
     1
102
RTVSPropertyOp40
 70
     1
102
RTVSPropertyOp41
 70
     1
102
RTVSPropertyOp42
 70
     1
102
RTVSPropertyOp43
 70
     1
102
RTVSPropertyOp44
 70
     1
102
RTVSPropertyOp45
 70
     1
102
RTVSPropertyOp46
 70
     1
102
RTVSPropertyOp47
 70
     1
102
RTVSPropertyOp48
 70
     1
102
RTVSPropertyOp49
 70
     1
102
RTVSPropertyOp50
 70
     1
102
RTVSPropertyOp51
 70
     0
102
RTVSPropertyOp52
 70
     0
102
RTVSPropertyOp53
 70
     1
102
RTVSPropertyOp54
 70
     1
102
RTVSPropertyOp55
 70
     1
102
RTVSPropertyOp56
 70
     1
102
RTVSPropertyOp57
 70
     1
102
RTVSPropertyOp58
 70
     1
102
RTVSPropertyOp59
 70
     1
102
RTVSPropertyOp60
 70
     1
102
RTVSPropertyOp61
 70
     1
102
RTVSPropertyOp62
 70
     1
  0
XRECORD
  5
1A5FB
102
{ACAD_REACTORS
330
1A5FA
102
}
330
1A5FA
100
AcDbXrecord
280
     1
102
RTVSPost2010Prop28
280
     0
102
RTVSPost2010PropOp28
 70
     1
102
RTVSPost2010Prop29
280
     1
102
RTVSPost2010PropOp29
 70
     1
102
RTVSPost2010Prop30
280
     1
102
RTVSPost2010PropOp30
 70
     1
102
RTVSPost2010Prop31
280
     0
102
RTVSPost2010PropOp31
 70
     1
102
RTVSPost2010Prop32
280
     0
102
RTVSPost2010PropOp32
 70
     1
102
RTVSPost2010Prop33
280
     0
102
RTVSPost2010PropOp33
 70
     1
102
RTVSPost2010Prop34
280
     0
102
RTVSPost2010PropOp34
 70
     1
102
RTVSPost2010Prop35
280
     0
102
RTVSPost2010PropOp35
 70
     1
102
RTVSPost2010Prop36
280
     0
102
RTVSPost2010PropOp36
 70
     1
102
RTVSPost2010Prop37
 90
       50
102
RTVSPost2010PropOp37
 70
     1
102
RTVSPost2010Prop38
140
0.0
102
RTVSPost2010PropOp38
 70
     1
102
RTVSPost2010Prop39
140
1.0
102
RTVSPost2010PropOp39
 70
     1
102
RTVSPost2010Prop40
 90
        0
102
RTVSPost2010PropOp40
 70
     1
102
RTVSPost2010Prop41ColorIndex
 90
       18
102
RTVSPost2010Prop41ColorRGB
 90
        0
102
RTVSPost2010PropOp41
 70
     1
102
RTVSPost2010Prop42
 90
       50
102
RTVSPost2010PropOp42
 70
     1
102
RTVSPost2010Prop43
 90
        3
102
RTVSPost2010PropOp43
 70
     1
102
RTVSPost2010Prop44ColorIndex
 90
        5
102
RTVSPost2010Prop44ColorRGB
 90
      255
102
RTVSPost2010PropOp44
 70
     1
102
RTVSPost2010Prop45
280
     0
102
RTVSPost2010PropOp45
 70
     1
102
RTVSPost2010Prop46
 90
       50
102
RTVSPost2010PropOp46
 70
     1
102
RTVSPost2010Prop47
 90
       50
102
RTVSPost2010PropOp47
 70
     1
102
RTVSPost2010Prop48
 90
       50
102
RTVSPost2010PropOp48
 70
     1
102
RTVSPost2010Prop49
280
     0
102
RTVSPost2010PropOp49
 70
     1
102
RTVSPost2010Prop50
 90
       50
102
RTVSPost2010PropOp50
 70
     1
102
RTVSPost2010Prop51ColorIndex
 90
      256
102
RTVSPost2010Prop51ColorRGB
 90
-16777216
102
RTVSPost2010PropOp51
 70
     0
102
RTVSPost2010Prop52
140
1.0
102
RTVSPost2010PropOp52
 70
     0
102
RTVSPost2010Prop53
 90
        2
102
RTVSPost2010PropOp53
 70
     1
102
RTVSPost2010Prop54
  1
strokes_ogs.tif
102
RTVSPost2010PropOp54
 70
     1
102
RTVSPost2010Prop55
280
     0
102
RTVSPost2010PropOp55
 70
     1
102
RTVSPost2010Prop56
140
1.0
102
RTVSPost2010PropOp56
 70
     1
102
RTVSPost2010Prop57
140
1.0
102
RTVSPost2010PropOp57
 70
     1
102
RTVSPropertyOp0
 70
     0
102
RTVSPropertyOp1
 70
     0
102
RTVSPropertyOp2
 70
     0
102
RTVSPropertyOp3
 70
     0
102
RTVSPropertyOp4
 70
     0
102
RTVSPropertyOp5
 70
     0
102
RTVSPropertyOp6
 70
     0
102
RTVSPropertyOp7
 70
     0
102
RTVSPropertyOp8
 70
     0
102
RTVSPropertyOp9
 70
     0
102
RTVSPropertyOp10
 70
     0
102
RTVSPropertyOp11
 70
     0
102
RTVSPropertyOp12
 70
     0
102
RTVSPropertyOp13
 70
     0
102
RTVSPropertyOp14
 70
     2
102
RTVSPropertyOp15
 70
     0
102
RTVSPropertyOp16
 70
     0
102
RTVSPropertyOp17
 70
     0
102
RTVSPropertyOp18
 70
     0
102
RTVSPropertyOp19
 70
     0
102
RTVSPropertyOp20
 70
     0
102
RTVSPropertyOp21
 70
     0
102
RTVSPropertyOp22
 70
     0
102
RTVSPropertyOp23
 70
     0
102
RTVSPropertyOp24
 70
     0
102
RTVSPropertyOp25
 70
     0
102
RTVSPropertyOp26
 70
     0
102
RTVSPropertyOp27
 70
     0
102
RTVSPropertyOp28
 70
     1
102
RTVSPropertyOp29
 70
     1
102
RTVSPropertyOp30
 70
     1
102
RTVSPropertyOp31
 70
     1
102
RTVSPropertyOp32
 70
     1
102
RTVSPropertyOp33
 70
     1
102
RTVSPropertyOp34
 70
     1
102
RTVSPropertyOp35
 70
     1
102
RTVSPropertyOp36
 70
     1
102
RTVSPropertyOp37
 70
     1
102
RTVSPropertyOp38
 70
     1
102
RTVSPropertyOp39
 70
     1
102
RTVSPropertyOp40
 70
     1
102
RTVSPropertyOp41
 70
     1
102
RTVSPropertyOp42
 70
     1
102
RTVSPropertyOp43
 70
     1
102
RTVSPropertyOp44
 70
     1
102
RTVSPropertyOp45
 70
     1
102
RTVSPropertyOp46
 70
     1
102
RTVSPropertyOp47
 70
     1
102
RTVSPropertyOp48
 70
     1
102
RTVSPropertyOp49
 70
     1
102
RTVSPropertyOp50
 70
     1
102
RTVSPropertyOp51
 70
     0
102
RTVSPropertyOp52
 70
     0
102
RTVSPropertyOp53
 70
     1
102
RTVSPropertyOp54
 70
     1
102
RTVSPropertyOp55
 70
     1
102
RTVSPropertyOp56
 70
     1
102
RTVSPropertyOp57
 70
     1
102
RTVSPropertyOp58
 70
     1
102
RTVSPropertyOp59
 70
     1
102
RTVSPropertyOp60
 70
     1
102
RTVSPropertyOp61
 70
     1
102
RTVSPropertyOp62
 70
     1
  0
XRECORD
  5
1A5E9
102
{ACAD_REACTORS
330
1A5E8
102
}
330
1A5E8
100
AcDbXrecord
280
     1
102
RTVSPost2010Prop28
280
     0
102
RTVSPost2010PropOp28
 70
     1
102
RTVSPost2010Prop29
280
     1
102
RTVSPost2010PropOp29
 70
     1
102
RTVSPost2010Prop30
280
     1
102
RTVSPost2010PropOp30
 70
     1
102
RTVSPost2010Prop31
280
     0
102
RTVSPost2010PropOp31
 70
     1
102
RTVSPost2010Prop32
280
     0
102
RTVSPost2010PropOp32
 70
     1
102
RTVSPost2010Prop33
280
     0
102
RTVSPost2010PropOp33
 70
     1
102
RTVSPost2010Prop34
280
     0
102
RTVSPost2010PropOp34
 70
     1
102
RTVSPost2010Prop35
280
     0
102
RTVSPost2010PropOp35
 70
     1
102
RTVSPost2010Prop36
280
     0
102
RTVSPost2010PropOp36
 70
     1
102
RTVSPost2010Prop37
 90
       50
102
RTVSPost2010PropOp37
 70
     1
102
RTVSPost2010Prop38
140
0.0
102
RTVSPost2010PropOp38
 70
     1
102
RTVSPost2010Prop39
140
1.0
102
RTVSPost2010PropOp39
 70
     1
102
RTVSPost2010Prop40
 90
        0
102
RTVSPost2010PropOp40
 70
     1
102
RTVSPost2010Prop41ColorIndex
 90
       18
102
RTVSPost2010Prop41ColorRGB
 90
        0
102
RTVSPost2010PropOp41
 70
     1
102
RTVSPost2010Prop42
 90
       50
102
RTVSPost2010PropOp42
 70
     1
102
RTVSPost2010Prop43
 90
        3
102
RTVSPost2010PropOp43
 70
     1
102
RTVSPost2010Prop44ColorIndex
 90
        5
102
RTVSPost2010Prop44ColorRGB
 90
      255
102
RTVSPost2010PropOp44
 70
     1
102
RTVSPost2010Prop45
280
     0
102
RTVSPost2010PropOp45
 70
     1
102
RTVSPost2010Prop46
 90
       50
102
RTVSPost2010PropOp46
 70
     1
102
RTVSPost2010Prop47
 90
       50
102
RTVSPost2010PropOp47
 70
     1
102
RTVSPost2010Prop48
 90
       50
102
RTVSPost2010PropOp48
 70
     1
102
RTVSPost2010Prop49
280
     0
102
RTVSPost2010PropOp49
 70
     1
102
RTVSPost2010Prop50
 90
       50
102
RTVSPost2010PropOp50
 70
     1
102
RTVSPost2010Prop51ColorIndex
 90
      256
102
RTVSPost2010Prop51ColorRGB
 90
-16777216
102
RTVSPost2010PropOp51
 70
     0
102
RTVSPost2010Prop52
140
1.0
102
RTVSPost2010PropOp52
 70
     0
102
RTVSPost2010Prop53
 90
        2
102
RTVSPost2010PropOp53
 70
     1
102
RTVSPost2010Prop54
  1
strokes_ogs.tif
102
RTVSPost2010PropOp54
 70
     1
102
RTVSPost2010Prop55
280
     0
102
RTVSPost2010PropOp55
 70
     1
102
RTVSPost2010Prop56
140
1.0
102
RTVSPost2010PropOp56
 70
     1
102
RTVSPost2010Prop57
140
1.0
102
RTVSPost2010PropOp57
 70
     1
102
RTVSPropertyOp0
 70
     1
102
RTVSPropertyOp1
 70
     1
102
RTVSPropertyOp2
 70
     1
102
RTVSPropertyOp3
 70
     1
102
RTVSPropertyOp4
 70
     1
102
RTVSPropertyOp5
 70
     1
102
RTVSPropertyOp6
 70
     1
102
RTVSPropertyOp7
 70
     1
102
RTVSPropertyOp8
 70
     1
102
RTVSPropertyOp9
 70
     1
102
RTVSPropertyOp10
 70
     1
102
RTVSPropertyOp11
 70
     1
102
RTVSPropertyOp12
 70
     1
102
RTVSPropertyOp13
 70
     1
102
RTVSPropertyOp14
 70
     1
102
RTVSPropertyOp15
 70
     1
102
RTVSPropertyOp16
 70
     1
102
RTVSPropertyOp17
 70
     1
102
RTVSPropertyOp18
 70
     1
102
RTVSPropertyOp19
 70
     1
102
RTVSPropertyOp20
 70
     1
102
RTVSPropertyOp21
 70
     1
102
RTVSPropertyOp22
 70
     1
102
RTVSPropertyOp23
 70
     1
102
RTVSPropertyOp24
 70
     1
102
RTVSPropertyOp25
 70
     1
102
RTVSPropertyOp26
 70
     1
102
RTVSPropertyOp27
 70
     1
102
RTVSPropertyOp28
 70
     1
102
RTVSPropertyOp29
 70
     1
102
RTVSPropertyOp30
 70
     1
102
RTVSPropertyOp31
 70
     1
102
RTVSPropertyOp32
 70
     1
102
RTVSPropertyOp33
 70
     1
102
RTVSPropertyOp34
 70
     1
102
RTVSPropertyOp35
 70
     1
102
RTVSPropertyOp36
 70
     1
102
RTVSPropertyOp37
 70
     1
102
RTVSPropertyOp38
 70
     1
102
RTVSPropertyOp39
 70
     1
102
RTVSPropertyOp40
 70
     1
102
RTVSPropertyOp41
 70
     1
102
RTVSPropertyOp42
 70
     1
102
RTVSPropertyOp43
 70
     1
102
RTVSPropertyOp44
 70
     1
102
RTVSPropertyOp45
 70
     1
102
RTVSPropertyOp46
 70
     1
102
RTVSPropertyOp47
 70
     1
102
RTVSPropertyOp48
 70
     1
102
RTVSPropertyOp49
 70
     1
102
RTVSPropertyOp50
 70
     1
102
RTVSPropertyOp51
 70
     0
102
RTVSPropertyOp52
 70
     0
102
RTVSPropertyOp53
 70
     1
102
RTVSPropertyOp54
 70
     1
102
RTVSPropertyOp55
 70
     1
102
RTVSPropertyOp56
 70
     1
102
RTVSPropertyOp57
 70
     1
102
RTVSPropertyOp58
 70
     1
102
RTVSPropertyOp59
 70
     1
102
RTVSPropertyOp60
 70
     1
102
RTVSPropertyOp61
 70
     1
102
RTVSPropertyOp62
 70
     1
  0
XRECORD
  5
1A607
102
{ACAD_REACTORS
330
1A606
102
}
330
1A606
100
AcDbXrecord
280
     1
102
RTVSPost2010Prop28
280
     0
102
RTVSPost2010PropOp28
 70
     1
102
RTVSPost2010Prop29
280
     1
102
RTVSPost2010PropOp29
 70
     1
102
RTVSPost2010Prop30
280
     1
102
RTVSPost2010PropOp30
 70
     1
102
RTVSPost2010Prop31
280
     0
102
RTVSPost2010PropOp31
 70
     1
102
RTVSPost2010Prop32
280
     0
102
RTVSPost2010PropOp32
 70
     1
102
RTVSPost2010Prop33
280
     0
102
RTVSPost2010PropOp33
 70
     1
102
RTVSPost2010Prop34
280
     0
102
RTVSPost2010PropOp34
 70
     1
102
RTVSPost2010Prop35
280
     0
102
RTVSPost2010PropOp35
 70
     1
102
RTVSPost2010Prop36
280
     0
102
RTVSPost2010PropOp36
 70
     1
102
RTVSPost2010Prop37
 90
       50
102
RTVSPost2010PropOp37
 70
     1
102
RTVSPost2010Prop38
140
0.0
102
RTVSPost2010PropOp38
 70
     1
102
RTVSPost2010Prop39
140
1.0
102
RTVSPost2010PropOp39
 70
     1
102
RTVSPost2010Prop40
 90
        0
102
RTVSPost2010PropOp40
 70
     1
102
RTVSPost2010Prop41ColorIndex
 90
       18
102
RTVSPost2010Prop41ColorRGB
 90
        0
102
RTVSPost2010PropOp41
 70
     1
102
RTVSPost2010Prop42
 90
       50
102
RTVSPost2010PropOp42
 70
     1
102
RTVSPost2010Prop43
 90
        3
102
RTVSPost2010PropOp43
 70
     1
102
RTVSPost2010Prop44ColorIndex
 90
        5
102
RTVSPost2010Prop44ColorRGB
 90
      255
102
RTVSPost2010PropOp44
 70
     1
102
RTVSPost2010Prop45
280
     0
102
RTVSPost2010PropOp45
 70
     1
102
RTVSPost2010Prop46
 90
       50
102
RTVSPost2010PropOp46
 70
     1
102
RTVSPost2010Prop47
 90
       50
102
RTVSPost2010PropOp47
 70
     1
102
RTVSPost2010Prop48
 90
       50
102
RTVSPost2010PropOp48
 70
     1
102
RTVSPost2010Prop49
280
     0
102
RTVSPost2010PropOp49
 70
     1
102
RTVSPost2010Prop50
 90
       50
102
RTVSPost2010PropOp50
 70
     1
102
RTVSPost2010Prop51ColorIndex
 90
      256
102
RTVSPost2010Prop51ColorRGB
 90
-16777216
102
RTVSPost2010PropOp51
 70
     0
102
RTVSPost2010Prop52
140
1.0
102
RTVSPost2010PropOp52
 70
     0
102
RTVSPost2010Prop53
 90
        2
102
RTVSPost2010PropOp53
 70
     1
102
RTVSPost2010Prop54
  1
strokes_ogs.tif
102
RTVSPost2010PropOp54
 70
     1
102
RTVSPost2010Prop55
280
     0
102
RTVSPost2010PropOp55
 70
     1
102
RTVSPost2010Prop56
140
1.0
102
RTVSPost2010PropOp56
 70
     1
102
RTVSPost2010Prop57
140
1.0
102
RTVSPost2010PropOp57
 70
     1
102
RTVSPropertyOp0
 70
     1
102
RTVSPropertyOp1
 70
     1
102
RTVSPropertyOp2
 70
     1
102
RTVSPropertyOp3
 70
     1
102
RTVSPropertyOp4
 70
     1
102
RTVSPropertyOp5
 70
     1
102
RTVSPropertyOp6
 70
     1
102
RTVSPropertyOp7
 70
     1
102
RTVSPropertyOp8
 70
     1
102
RTVSPropertyOp9
 70
     1
102
RTVSPropertyOp10
 70
     1
102
RTVSPropertyOp11
 70
     1
102
RTVSPropertyOp12
 70
     1
102
RTVSPropertyOp13
 70
     1
102
RTVSPropertyOp14
 70
     1
102
RTVSPropertyOp15
 70
     1
102
RTVSPropertyOp16
 70
     1
102
RTVSPropertyOp17
 70
     1
102
RTVSPropertyOp18
 70
     1
102
RTVSPropertyOp19
 70
     1
102
RTVSPropertyOp20
 70
     1
102
RTVSPropertyOp21
 70
     1
102
RTVSPropertyOp22
 70
     1
102
RTVSPropertyOp23
 70
     1
102
RTVSPropertyOp24
 70
     1
102
RTVSPropertyOp25
 70
     1
102
RTVSPropertyOp26
 70
     1
102
RTVSPropertyOp27
 70
     1
102
RTVSPropertyOp28
 70
     1
102
RTVSPropertyOp29
 70
     1
102
RTVSPropertyOp30
 70
     1
102
RTVSPropertyOp31
 70
     1
102
RTVSPropertyOp32
 70
     1
102
RTVSPropertyOp33
 70
     1
102
RTVSPropertyOp34
 70
     1
102
RTVSPropertyOp35
 70
     1
102
RTVSPropertyOp36
 70
     1
102
RTVSPropertyOp37
 70
     1
102
RTVSPropertyOp38
 70
     1
102
RTVSPropertyOp39
 70
     1
102
RTVSPropertyOp40
 70
     1
102
RTVSPropertyOp41
 70
     1
102
RTVSPropertyOp42
 70
     1
102
RTVSPropertyOp43
 70
     1
102
RTVSPropertyOp44
 70
     1
102
RTVSPropertyOp45
 70
     1
102
RTVSPropertyOp46
 70
     1
102
RTVSPropertyOp47
 70
     1
102
RTVSPropertyOp48
 70
     1
102
RTVSPropertyOp49
 70
     1
102
RTVSPropertyOp50
 70
     1
102
RTVSPropertyOp51
 70
     0
102
RTVSPropertyOp52
 70
     0
102
RTVSPropertyOp53
 70
     1
102
RTVSPropertyOp54
 70
     1
102
RTVSPropertyOp55
 70
     1
102
RTVSPropertyOp56
 70
     1
102
RTVSPropertyOp57
 70
     1
102
RTVSPropertyOp58
 70
     1
102
RTVSPropertyOp59
 70
     1
102
RTVSPropertyOp60
 70
     1
102
RTVSPropertyOp61
 70
     1
102
RTVSPropertyOp62
 70
     1
  0
XRECORD
  5
1A605
102
{ACAD_REACTORS
330
1A604
102
}
330
1A604
100
AcDbXrecord
280
     1
102
RTVSPost2010Prop28
280
     0
102
RTVSPost2010PropOp28
 70
     1
102
RTVSPost2010Prop29
280
     1
102
RTVSPost2010PropOp29
 70
     1
102
RTVSPost2010Prop30
280
     1
102
RTVSPost2010PropOp30
 70
     1
102
RTVSPost2010Prop31
280
     0
102
RTVSPost2010PropOp31
 70
     1
102
RTVSPost2010Prop32
280
     0
102
RTVSPost2010PropOp32
 70
     1
102
RTVSPost2010Prop33
280
     0
102
RTVSPost2010PropOp33
 70
     1
102
RTVSPost2010Prop34
280
     0
102
RTVSPost2010PropOp34
 70
     1
102
RTVSPost2010Prop35
280
     0
102
RTVSPost2010PropOp35
 70
     1
102
RTVSPost2010Prop36
280
     0
102
RTVSPost2010PropOp36
 70
     1
102
RTVSPost2010Prop37
 90
       50
102
RTVSPost2010PropOp37
 70
     1
102
RTVSPost2010Prop38
140
0.0
102
RTVSPost2010PropOp38
 70
     1
102
RTVSPost2010Prop39
140
1.0
102
RTVSPost2010PropOp39
 70
     1
102
RTVSPost2010Prop40
 90
        0
102
RTVSPost2010PropOp40
 70
     1
102
RTVSPost2010Prop41ColorIndex
 90
       18
102
RTVSPost2010Prop41ColorRGB
 90
        0
102
RTVSPost2010PropOp41
 70
     1
102
RTVSPost2010Prop42
 90
       50
102
RTVSPost2010PropOp42
 70
     1
102
RTVSPost2010Prop43
 90
        3
102
RTVSPost2010PropOp43
 70
     1
102
RTVSPost2010Prop44ColorIndex
 90
        5
102
RTVSPost2010Prop44ColorRGB
 90
      255
102
RTVSPost2010PropOp44
 70
     1
102
RTVSPost2010Prop45
280
     0
102
RTVSPost2010PropOp45
 70
     1
102
RTVSPost2010Prop46
 90
       50
102
RTVSPost2010PropOp46
 70
     1
102
RTVSPost2010Prop47
 90
       50
102
RTVSPost2010PropOp47
 70
     1
102
RTVSPost2010Prop48
 90
       50
102
RTVSPost2010PropOp48
 70
     1
102
RTVSPost2010Prop49
280
     0
102
RTVSPost2010PropOp49
 70
     1
102
RTVSPost2010Prop50
 90
       50
102
RTVSPost2010PropOp50
 70
     1
102
RTVSPost2010Prop51ColorIndex
 90
      256
102
RTVSPost2010Prop51ColorRGB
 90
-16777216
102
RTVSPost2010PropOp51
 70
     0
102
RTVSPost2010Prop52
140
1.0
102
RTVSPost2010PropOp52
 70
     0
102
RTVSPost2010Prop53
 90
        2
102
RTVSPost2010PropOp53
 70
     1
102
RTVSPost2010Prop54
  1
strokes_ogs.tif
102
RTVSPost2010PropOp54
 70
     1
102
RTVSPost2010Prop55
280
     0
102
RTVSPost2010PropOp55
 70
     1
102
RTVSPost2010Prop56
140
1.0
102
RTVSPost2010PropOp56
 70
     1
102
RTVSPost2010Prop57
140
1.0
102
RTVSPost2010PropOp57
 70
     1
102
RTVSPropertyOp0
 70
     1
102
RTVSPropertyOp1
 70
     1
102
RTVSPropertyOp2
 70
     1
102
RTVSPropertyOp3
 70
     1
102
RTVSPropertyOp4
 70
     1
102
RTVSPropertyOp5
 70
     1
102
RTVSPropertyOp6
 70
     1
102
RTVSPropertyOp7
 70
     1
102
RTVSPropertyOp8
 70
     1
102
RTVSPropertyOp9
 70
     1
102
RTVSPropertyOp10
 70
     1
102
RTVSPropertyOp11
 70
     1
102
RTVSPropertyOp12
 70
     1
102
RTVSPropertyOp13
 70
     1
102
RTVSPropertyOp14
 70
     1
102
RTVSPropertyOp15
 70
     1
102
RTVSPropertyOp16
 70
     1
102
RTVSPropertyOp17
 70
     1
102
RTVSPropertyOp18
 70
     1
102
RTVSPropertyOp19
 70
     1
102
RTVSPropertyOp20
 70
     1
102
RTVSPropertyOp21
 70
     1
102
RTVSPropertyOp22
 70
     1
102
RTVSPropertyOp23
 70
     1
102
RTVSPropertyOp24
 70
     1
102
RTVSPropertyOp25
 70
     1
102
RTVSPropertyOp26
 70
     1
102
RTVSPropertyOp27
 70
     1
102
RTVSPropertyOp28
 70
     1
102
RTVSPropertyOp29
 70
     1
102
RTVSPropertyOp30
 70
     1
102
RTVSPropertyOp31
 70
     1
102
RTVSPropertyOp32
 70
     1
102
RTVSPropertyOp33
 70
     1
102
RTVSPropertyOp34
 70
     1
102
RTVSPropertyOp35
 70
     1
102
RTVSPropertyOp36
 70
     1
102
RTVSPropertyOp37
 70
     1
102
RTVSPropertyOp38
 70
     1
102
RTVSPropertyOp39
 70
     1
102
RTVSPropertyOp40
 70
     1
102
RTVSPropertyOp41
 70
     1
102
RTVSPropertyOp42
 70
     1
102
RTVSPropertyOp43
 70
     1
102
RTVSPropertyOp44
 70
     1
102
RTVSPropertyOp45
 70
     1
102
RTVSPropertyOp46
 70
     1
102
RTVSPropertyOp47
 70
     1
102
RTVSPropertyOp48
 70
     1
102
RTVSPropertyOp49
 70
     1
102
RTVSPropertyOp50
 70
     1
102
RTVSPropertyOp51
 70
     0
102
RTVSPropertyOp52
 70
     0
102
RTVSPropertyOp53
 70
     1
102
RTVSPropertyOp54
 70
     1
102
RTVSPropertyOp55
 70
     1
102
RTVSPropertyOp56
 70
     1
102
RTVSPropertyOp57
 70
     1
102
RTVSPropertyOp58
 70
     1
102
RTVSPropertyOp59
 70
     1
102
RTVSPropertyOp60
 70
     1
102
RTVSPropertyOp61
 70
     1
102
RTVSPropertyOp62
 70
     1
  0
XRECORD
  5
1A5FF
102
{ACAD_REACTORS
330
1A5FE
102
}
330
1A5FE
100
AcDbXrecord
280
     1
102
RTVSPost2010Prop28
280
     0
102
RTVSPost2010PropOp28
 70
     1
102
RTVSPost2010Prop29
280
     1
102
RTVSPost2010PropOp29
 70
     1
102
RTVSPost2010Prop30
280
     1
102
RTVSPost2010PropOp30
 70
     1
102
RTVSPost2010Prop31
280
     0
102
RTVSPost2010PropOp31
 70
     1
102
RTVSPost2010Prop32
280
     0
102
RTVSPost2010PropOp32
 70
     1
102
RTVSPost2010Prop33
280
     0
102
RTVSPost2010PropOp33
 70
     1
102
RTVSPost2010Prop34
280
     0
102
RTVSPost2010PropOp34
 70
     1
102
RTVSPost2010Prop35
280
     0
102
RTVSPost2010PropOp35
 70
     1
102
RTVSPost2010Prop36
280
     0
102
RTVSPost2010PropOp36
 70
     1
102
RTVSPost2010Prop37
 90
       50
102
RTVSPost2010PropOp37
 70
     1
102
RTVSPost2010Prop38
140
0.0
102
RTVSPost2010PropOp38
 70
     1
102
RTVSPost2010Prop39
140
1.0
102
RTVSPost2010PropOp39
 70
     1
102
RTVSPost2010Prop40
 90
        0
102
RTVSPost2010PropOp40
 70
     1
102
RTVSPost2010Prop41ColorIndex
 90
       18
102
RTVSPost2010Prop41ColorRGB
 90
        0
102
RTVSPost2010PropOp41
 70
     1
102
RTVSPost2010Prop42
 90
       50
102
RTVSPost2010PropOp42
 70
     1
102
RTVSPost2010Prop43
 90
        3
102
RTVSPost2010PropOp43
 70
     1
102
RTVSPost2010Prop44ColorIndex
 90
        5
102
RTVSPost2010Prop44ColorRGB
 90
      255
102
RTVSPost2010PropOp44
 70
     1
102
RTVSPost2010Prop45
280
     0
102
RTVSPost2010PropOp45
 70
     1
102
RTVSPost2010Prop46
 90
       50
102
RTVSPost2010PropOp46
 70
     1
102
RTVSPost2010Prop47
 90
       50
102
RTVSPost2010PropOp47
 70
     1
102
RTVSPost2010Prop48
 90
       50
102
RTVSPost2010PropOp48
 70
     1
102
RTVSPost2010Prop49
280
     0
102
RTVSPost2010PropOp49
 70
     1
102
RTVSPost2010Prop50
 90
       50
102
RTVSPost2010PropOp50
 70
     1
102
RTVSPost2010Prop51ColorIndex
 90
      256
102
RTVSPost2010Prop51ColorRGB
 90
-16777216
102
RTVSPost2010PropOp51
 70
     0
102
RTVSPost2010Prop52
140
1.0
102
RTVSPost2010PropOp52
 70
     0
102
RTVSPost2010Prop53
 90
        2
102
RTVSPost2010PropOp53
 70
     1
102
RTVSPost2010Prop54
  1
strokes_ogs.tif
102
RTVSPost2010PropOp54
 70
     1
102
RTVSPost2010Prop55
280
     0
102
RTVSPost2010PropOp55
 70
     1
102
RTVSPost2010Prop56
140
1.0
102
RTVSPost2010PropOp56
 70
     1
102
RTVSPost2010Prop57
140
1.0
102
RTVSPost2010PropOp57
 70
     1
102
RTVSPropertyOp0
 70
     1
102
RTVSPropertyOp1
 70
     1
102
RTVSPropertyOp2
 70
     1
102
RTVSPropertyOp3
 70
     1
102
RTVSPropertyOp4
 70
     1
102
RTVSPropertyOp5
 70
     1
102
RTVSPropertyOp6
 70
     1
102
RTVSPropertyOp7
 70
     1
102
RTVSPropertyOp8
 70
     1
102
RTVSPropertyOp9
 70
     1
102
RTVSPropertyOp10
 70
     1
102
RTVSPropertyOp11
 70
     1
102
RTVSPropertyOp12
 70
     1
102
RTVSPropertyOp13
 70
     1
102
RTVSPropertyOp14
 70
     1
102
RTVSPropertyOp15
 70
     1
102
RTVSPropertyOp16
 70
     1
102
RTVSPropertyOp17
 70
     1
102
RTVSPropertyOp18
 70
     1
102
RTVSPropertyOp19
 70
     1
102
RTVSPropertyOp20
 70
     1
102
RTVSPropertyOp21
 70
     1
102
RTVSPropertyOp22
 70
     1
102
RTVSPropertyOp23
 70
     1
102
RTVSPropertyOp24
 70
     1
102
RTVSPropertyOp25
 70
     1
102
RTVSPropertyOp26
 70
     1
102
RTVSPropertyOp27
 70
     1
102
RTVSPropertyOp28
 70
     1
102
RTVSPropertyOp29
 70
     1
102
RTVSPropertyOp30
 70
     1
102
RTVSPropertyOp31
 70
     1
102
RTVSPropertyOp32
 70
     1
102
RTVSPropertyOp33
 70
     1
102
RTVSPropertyOp34
 70
     1
102
RTVSPropertyOp35
 70
     1
102
RTVSPropertyOp36
 70
     1
102
RTVSPropertyOp37
 70
     1
102
RTVSPropertyOp38
 70
     1
102
RTVSPropertyOp39
 70
     1
102
RTVSPropertyOp40
 70
     1
102
RTVSPropertyOp41
 70
     1
102
RTVSPropertyOp42
 70
     1
102
RTVSPropertyOp43
 70
     1
102
RTVSPropertyOp44
 70
     1
102
RTVSPropertyOp45
 70
     1
102
RTVSPropertyOp46
 70
     1
102
RTVSPropertyOp47
 70
     1
102
RTVSPropertyOp48
 70
     1
102
RTVSPropertyOp49
 70
     1
102
RTVSPropertyOp50
 70
     1
102
RTVSPropertyOp51
 70
     0
102
RTVSPropertyOp52
 70
     0
102
RTVSPropertyOp53
 70
     1
102
RTVSPropertyOp54
 70
     1
102
RTVSPropertyOp55
 70
     1
102
RTVSPropertyOp56
 70
     1
102
RTVSPropertyOp57
 70
     1
102
RTVSPropertyOp58
 70
     1
102
RTVSPropertyOp59
 70
     1
102
RTVSPropertyOp60
 70
     1
102
RTVSPropertyOp61
 70
     1
102
RTVSPropertyOp62
 70
     1
  0
XRECORD
  5
1A601
102
{ACAD_REACTORS
330
1A600
102
}
330
1A600
100
AcDbXrecord
280
     1
102
RTVSPost2010Prop28
280
     0
102
RTVSPost2010PropOp28
 70
     1
102
RTVSPost2010Prop29
280
     1
102
RTVSPost2010PropOp29
 70
     1
102
RTVSPost2010Prop30
280
     1
102
RTVSPost2010PropOp30
 70
     1
102
RTVSPost2010Prop31
280
     0
102
RTVSPost2010PropOp31
 70
     1
102
RTVSPost2010Prop32
280
     0
102
RTVSPost2010PropOp32
 70
     1
102
RTVSPost2010Prop33
280
     0
102
RTVSPost2010PropOp33
 70
     1
102
RTVSPost2010Prop34
280
     0
102
RTVSPost2010PropOp34
 70
     1
102
RTVSPost2010Prop35
280
     0
102
RTVSPost2010PropOp35
 70
     1
102
RTVSPost2010Prop36
280
     0
102
RTVSPost2010PropOp36
 70
     1
102
RTVSPost2010Prop37
 90
       50
102
RTVSPost2010PropOp37
 70
     1
102
RTVSPost2010Prop38
140
0.0
102
RTVSPost2010PropOp38
 70
     1
102
RTVSPost2010Prop39
140
1.0
102
RTVSPost2010PropOp39
 70
     1
102
RTVSPost2010Prop40
 90
        0
102
RTVSPost2010PropOp40
 70
     1
102
RTVSPost2010Prop41ColorIndex
 90
       18
102
RTVSPost2010Prop41ColorRGB
 90
        0
102
RTVSPost2010PropOp41
 70
     1
102
RTVSPost2010Prop42
 90
       50
102
RTVSPost2010PropOp42
 70
     1
102
RTVSPost2010Prop43
 90
        3
102
RTVSPost2010PropOp43
 70
     1
102
RTVSPost2010Prop44ColorIndex
 90
        5
102
RTVSPost2010Prop44ColorRGB
 90
      255
102
RTVSPost2010PropOp44
 70
     1
102
RTVSPost2010Prop45
280
     0
102
RTVSPost2010PropOp45
 70
     1
102
RTVSPost2010Prop46
 90
       50
102
RTVSPost2010PropOp46
 70
     1
102
RTVSPost2010Prop47
 90
       50
102
RTVSPost2010PropOp47
 70
     1
102
RTVSPost2010Prop48
 90
       50
102
RTVSPost2010PropOp48
 70
     1
102
RTVSPost2010Prop49
280
     0
102
RTVSPost2010PropOp49
 70
     1
102
RTVSPost2010Prop50
 90
       50
102
RTVSPost2010PropOp50
 70
     1
102
RTVSPost2010Prop51ColorIndex
 90
      256
102
RTVSPost2010Prop51ColorRGB
 90
-16777216
102
RTVSPost2010PropOp51
 70
     0
102
RTVSPost2010Prop52
140
1.0
102
RTVSPost2010PropOp52
 70
     0
102
RTVSPost2010Prop53
 90
        2
102
RTVSPost2010PropOp53
 70
     1
102
RTVSPost2010Prop54
  1
strokes_ogs.tif
102
RTVSPost2010PropOp54
 70
     1
102
RTVSPost2010Prop55
280
     0
102
RTVSPost2010PropOp55
 70
     1
102
RTVSPost2010Prop56
140
1.0
102
RTVSPost2010PropOp56
 70
     1
102
RTVSPost2010Prop57
140
1.0
102
RTVSPost2010PropOp57
 70
     1
102
RTVSPropertyOp0
 70
     1
102
RTVSPropertyOp1
 70
     1
102
RTVSPropertyOp2
 70
     1
102
RTVSPropertyOp3
 70
     1
102
RTVSPropertyOp4
 70
     1
102
RTVSPropertyOp5
 70
     1
102
RTVSPropertyOp6
 70
     1
102
RTVSPropertyOp7
 70
     1
102
RTVSPropertyOp8
 70
     1
102
RTVSPropertyOp9
 70
     1
102
RTVSPropertyOp10
 70
     1
102
RTVSPropertyOp11
 70
     1
102
RTVSPropertyOp12
 70
     1
102
RTVSPropertyOp13
 70
     1
102
RTVSPropertyOp14
 70
     1
102
RTVSPropertyOp15
 70
     1
102
RTVSPropertyOp16
 70
     1
102
RTVSPropertyOp17
 70
     1
102
RTVSPropertyOp18
 70
     1
102
RTVSPropertyOp19
 70
     1
102
RTVSPropertyOp20
 70
     1
102
RTVSPropertyOp21
 70
     1
102
RTVSPropertyOp22
 70
     1
102
RTVSPropertyOp23
 70
     1
102
RTVSPropertyOp24
 70
     1
102
RTVSPropertyOp25
 70
     1
102
RTVSPropertyOp26
 70
     1
102
RTVSPropertyOp27
 70
     1
102
RTVSPropertyOp28
 70
     1
102
RTVSPropertyOp29
 70
     1
102
RTVSPropertyOp30
 70
     1
102
RTVSPropertyOp31
 70
     1
102
RTVSPropertyOp32
 70
     1
102
RTVSPropertyOp33
 70
     1
102
RTVSPropertyOp34
 70
     1
102
RTVSPropertyOp35
 70
     1
102
RTVSPropertyOp36
 70
     1
102
RTVSPropertyOp37
 70
     1
102
RTVSPropertyOp38
 70
     1
102
RTVSPropertyOp39
 70
     1
102
RTVSPropertyOp40
 70
     1
102
RTVSPropertyOp41
 70
     1
102
RTVSPropertyOp42
 70
     1
102
RTVSPropertyOp43
 70
     1
102
RTVSPropertyOp44
 70
     1
102
RTVSPropertyOp45
 70
     1
102
RTVSPropertyOp46
 70
     1
102
RTVSPropertyOp47
 70
     1
102
RTVSPropertyOp48
 70
     1
102
RTVSPropertyOp49
 70
     1
102
RTVSPropertyOp50
 70
     1
102
RTVSPropertyOp51
 70
     0
102
RTVSPropertyOp52
 70
     0
102
RTVSPropertyOp53
 70
     1
102
RTVSPropertyOp54
 70
     1
102
RTVSPropertyOp55
 70
     1
102
RTVSPropertyOp56
 70
     1
102
RTVSPropertyOp57
 70
     1
102
RTVSPropertyOp58
 70
     1
102
RTVSPropertyOp59
 70
     1
102
RTVSPropertyOp60
 70
     1
102
RTVSPropertyOp61
 70
     1
102
RTVSPropertyOp62
 70
     1
  0
XRECORD
  5
1A5EF
102
{ACAD_REACTORS
330
1A5EE
102
}
330
1A5EE
100
AcDbXrecord
280
     1
102
RTVSPost2010Prop28
280
     0
102
RTVSPost2010PropOp28
 70
     1
102
RTVSPost2010Prop29
280
     1
102
RTVSPost2010PropOp29
 70
     1
102
RTVSPost2010Prop30
280
     1
102
RTVSPost2010PropOp30
 70
     1
102
RTVSPost2010Prop31
280
     0
102
RTVSPost2010PropOp31
 70
     1
102
RTVSPost2010Prop32
280
     0
102
RTVSPost2010PropOp32
 70
     1
102
RTVSPost2010Prop33
280
     0
102
RTVSPost2010PropOp33
 70
     1
102
RTVSPost2010Prop34
280
     0
102
RTVSPost2010PropOp34
 70
     1
102
RTVSPost2010Prop35
280
     0
102
RTVSPost2010PropOp35
 70
     1
102
RTVSPost2010Prop36
280
     0
102
RTVSPost2010PropOp36
 70
     1
102
RTVSPost2010Prop37
 90
       50
102
RTVSPost2010PropOp37
 70
     1
102
RTVSPost2010Prop38
140
0.0
102
RTVSPost2010PropOp38
 70
     1
102
RTVSPost2010Prop39
140
1.0
102
RTVSPost2010PropOp39
 70
     1
102
RTVSPost2010Prop40
 90
        0
102
RTVSPost2010PropOp40
 70
     1
102
RTVSPost2010Prop41ColorIndex
 90
       18
102
RTVSPost2010Prop41ColorRGB
 90
        0
102
RTVSPost2010PropOp41
 70
     1
102
RTVSPost2010Prop42
 90
       50
102
RTVSPost2010PropOp42
 70
     1
102
RTVSPost2010Prop43
 90
        3
102
RTVSPost2010PropOp43
 70
     1
102
RTVSPost2010Prop44ColorIndex
 90
        5
102
RTVSPost2010Prop44ColorRGB
 90
      255
102
RTVSPost2010PropOp44
 70
     1
102
RTVSPost2010Prop45
280
     0
102
RTVSPost2010PropOp45
 70
     1
102
RTVSPost2010Prop46
 90
       50
102
RTVSPost2010PropOp46
 70
     1
102
RTVSPost2010Prop47
 90
       50
102
RTVSPost2010PropOp47
 70
     1
102
RTVSPost2010Prop48
 90
       50
102
RTVSPost2010PropOp48
 70
     1
102
RTVSPost2010Prop49
280
     0
102
RTVSPost2010PropOp49
 70
     1
102
RTVSPost2010Prop50
 90
       50
102
RTVSPost2010PropOp50
 70
     1
102
RTVSPost2010Prop51ColorIndex
 90
      256
102
RTVSPost2010Prop51ColorRGB
 90
-16777216
102
RTVSPost2010PropOp51
 70
     0
102
RTVSPost2010Prop52
140
1.0
102
RTVSPost2010PropOp52
 70
     0
102
RTVSPost2010Prop53
 90
        2
102
RTVSPost2010PropOp53
 70
     1
102
RTVSPost2010Prop54
  1
strokes_ogs.tif
102
RTVSPost2010PropOp54
 70
     1
102
RTVSPost2010Prop55
280
     0
102
RTVSPost2010PropOp55
 70
     1
102
RTVSPost2010Prop56
140
1.0
102
RTVSPost2010PropOp56
 70
     1
102
RTVSPost2010Prop57
140
1.0
102
RTVSPost2010PropOp57
 70
     1
102
RTVSPropertyOp0
 70
     1
102
RTVSPropertyOp1
 70
     1
102
RTVSPropertyOp2
 70
     1
102
RTVSPropertyOp3
 70
     1
102
RTVSPropertyOp4
 70
     1
102
RTVSPropertyOp5
 70
     1
102
RTVSPropertyOp6
 70
     1
102
RTVSPropertyOp7
 70
     1
102
RTVSPropertyOp8
 70
     1
102
RTVSPropertyOp9
 70
     1
102
RTVSPropertyOp10
 70
     1
102
RTVSPropertyOp11
 70
     1
102
RTVSPropertyOp12
 70
     1
102
RTVSPropertyOp13
 70
     1
102
RTVSPropertyOp14
 70
     1
102
RTVSPropertyOp15
 70
     1
102
RTVSPropertyOp16
 70
     1
102
RTVSPropertyOp17
 70
     1
102
RTVSPropertyOp18
 70
     1
102
RTVSPropertyOp19
 70
     1
102
RTVSPropertyOp20
 70
     1
102
RTVSPropertyOp21
 70
     1
102
RTVSPropertyOp22
 70
     1
102
RTVSPropertyOp23
 70
     1
102
RTVSPropertyOp24
 70
     1
102
RTVSPropertyOp25
 70
     1
102
RTVSPropertyOp26
 70
     1
102
RTVSPropertyOp27
 70
     1
102
RTVSPropertyOp28
 70
     1
102
RTVSPropertyOp29
 70
     1
102
RTVSPropertyOp30
 70
     1
102
RTVSPropertyOp31
 70
     1
102
RTVSPropertyOp32
 70
     1
102
RTVSPropertyOp33
 70
     1
102
RTVSPropertyOp34
 70
     1
102
RTVSPropertyOp35
 70
     1
102
RTVSPropertyOp36
 70
     1
102
RTVSPropertyOp37
 70
     1
102
RTVSPropertyOp38
 70
     1
102
RTVSPropertyOp39
 70
     1
102
RTVSPropertyOp40
 70
     1
102
RTVSPropertyOp41
 70
     1
102
RTVSPropertyOp42
 70
     1
102
RTVSPropertyOp43
 70
     1
102
RTVSPropertyOp44
 70
     1
102
RTVSPropertyOp45
 70
     1
102
RTVSPropertyOp46
 70
     1
102
RTVSPropertyOp47
 70
     1
102
RTVSPropertyOp48
 70
     1
102
RTVSPropertyOp49
 70
     1
102
RTVSPropertyOp50
 70
     1
102
RTVSPropertyOp51
 70
     0
102
RTVSPropertyOp52
 70
     0
102
RTVSPropertyOp53
 70
     1
102
RTVSPropertyOp54
 70
     1
102
RTVSPropertyOp55
 70
     1
102
RTVSPropertyOp56
 70
     1
102
RTVSPropertyOp57
 70
     1
102
RTVSPropertyOp58
 70
     1
102
RTVSPropertyOp59
 70
     1
102
RTVSPropertyOp60
 70
     1
102
RTVSPropertyOp61
 70
     1
102
RTVSPropertyOp62
 70
     1
  0
XRECORD
  5
1A5E3
102
{ACAD_REACTORS
330
1A5E2
102
}
330
1A5E2
100
AcDbXrecord
280
     1
102
RTVSPost2010Prop28
280
     0
102
RTVSPost2010PropOp28
 70
     1
102
RTVSPost2010Prop29
280
     1
102
RTVSPost2010PropOp29
 70
     1
102
RTVSPost2010Prop30
280
     1
102
RTVSPost2010PropOp30
 70
     1
102
RTVSPost2010Prop31
280
     0
102
RTVSPost2010PropOp31
 70
     1
102
RTVSPost2010Prop32
280
     0
102
RTVSPost2010PropOp32
 70
     1
102
RTVSPost2010Prop33
280
     0
102
RTVSPost2010PropOp33
 70
     1
102
RTVSPost2010Prop34
280
     0
102
RTVSPost2010PropOp34
 70
     1
102
RTVSPost2010Prop35
280
     0
102
RTVSPost2010PropOp35
 70
     1
102
RTVSPost2010Prop36
280
     0
102
RTVSPost2010PropOp36
 70
     1
102
RTVSPost2010Prop37
 90
       50
102
RTVSPost2010PropOp37
 70
     1
102
RTVSPost2010Prop38
140
0.0
102
RTVSPost2010PropOp38
 70
     1
102
RTVSPost2010Prop39
140
1.0
102
RTVSPost2010PropOp39
 70
     1
102
RTVSPost2010Prop40
 90
        0
102
RTVSPost2010PropOp40
 70
     1
102
RTVSPost2010Prop41ColorIndex
 90
       18
102
RTVSPost2010Prop41ColorRGB
 90
        0
102
RTVSPost2010PropOp41
 70
     1
102
RTVSPost2010Prop42
 90
       50
102
RTVSPost2010PropOp42
 70
     1
102
RTVSPost2010Prop43
 90
        3
102
RTVSPost2010PropOp43
 70
     1
102
RTVSPost2010Prop44ColorIndex
 90
        5
102
RTVSPost2010Prop44ColorRGB
 90
      255
102
RTVSPost2010PropOp44
 70
     1
102
RTVSPost2010Prop45
280
     0
102
RTVSPost2010PropOp45
 70
     1
102
RTVSPost2010Prop46
 90
       50
102
RTVSPost2010PropOp46
 70
     1
102
RTVSPost2010Prop47
 90
       50
102
RTVSPost2010PropOp47
 70
     1
102
RTVSPost2010Prop48
 90
       50
102
RTVSPost2010PropOp48
 70
     1
102
RTVSPost2010Prop49
280
     0
102
RTVSPost2010PropOp49
 70
     1
102
RTVSPost2010Prop50
 90
       50
102
RTVSPost2010PropOp50
 70
     1
102
RTVSPost2010Prop51ColorIndex
 90
      256
102
RTVSPost2010Prop51ColorRGB
 90
-16777216
102
RTVSPost2010PropOp51
 70
     0
102
RTVSPost2010Prop52
140
1.0
102
RTVSPost2010PropOp52
 70
     0
102
RTVSPost2010Prop53
 90
        2
102
RTVSPost2010PropOp53
 70
     1
102
RTVSPost2010Prop54
  1
strokes_ogs.tif
102
RTVSPost2010PropOp54
 70
     1
102
RTVSPost2010Prop55
280
     0
102
RTVSPost2010PropOp55
 70
     1
102
RTVSPost2010Prop56
140
1.0
102
RTVSPost2010PropOp56
 70
     1
102
RTVSPost2010Prop57
140
1.0
102
RTVSPost2010PropOp57
 70
     1
102
RTVSPropertyOp0
 70
     1
102
RTVSPropertyOp1
 70
     1
102
RTVSPropertyOp2
 70
     1
102
RTVSPropertyOp3
 70
     1
102
RTVSPropertyOp4
 70
     1
102
RTVSPropertyOp5
 70
     1
102
RTVSPropertyOp6
 70
     1
102
RTVSPropertyOp7
 70
     1
102
RTVSPropertyOp8
 70
     1
102
RTVSPropertyOp9
 70
     1
102
RTVSPropertyOp10
 70
     1
102
RTVSPropertyOp11
 70
     1
102
RTVSPropertyOp12
 70
     1
102
RTVSPropertyOp13
 70
     1
102
RTVSPropertyOp14
 70
     1
102
RTVSPropertyOp15
 70
     1
102
RTVSPropertyOp16
 70
     1
102
RTVSPropertyOp17
 70
     1
102
RTVSPropertyOp18
 70
     1
102
RTVSPropertyOp19
 70
     1
102
RTVSPropertyOp20
 70
     1
102
RTVSPropertyOp21
 70
     1
102
RTVSPropertyOp22
 70
     1
102
RTVSPropertyOp23
 70
     1
102
RTVSPropertyOp24
 70
     1
102
RTVSPropertyOp25
 70
     1
102
RTVSPropertyOp26
 70
     1
102
RTVSPropertyOp27
 70
     1
102
RTVSPropertyOp28
 70
     1
102
RTVSPropertyOp29
 70
     1
102
RTVSPropertyOp30
 70
     1
102
RTVSPropertyOp31
 70
     1
102
RTVSPropertyOp32
 70
     1
102
RTVSPropertyOp33
 70
     1
102
RTVSPropertyOp34
 70
     1
102
RTVSPropertyOp35
 70
     1
102
RTVSPropertyOp36
 70
     1
102
RTVSPropertyOp37
 70
     1
102
RTVSPropertyOp38
 70
     1
102
RTVSPropertyOp39
 70
     1
102
RTVSPropertyOp40
 70
     1
102
RTVSPropertyOp41
 70
     1
102
RTVSPropertyOp42
 70
     1
102
RTVSPropertyOp43
 70
     1
102
RTVSPropertyOp44
 70
     1
102
RTVSPropertyOp45
 70
     1
102
RTVSPropertyOp46
 70
     1
102
RTVSPropertyOp47
 70
     1
102
RTVSPropertyOp48
 70
     1
102
RTVSPropertyOp49
 70
     1
102
RTVSPropertyOp50
 70
     1
102
RTVSPropertyOp51
 70
     0
102
RTVSPropertyOp52
 70
     0
102
RTVSPropertyOp53
 70
     1
102
RTVSPropertyOp54
 70
     1
102
RTVSPropertyOp55
 70
     1
102
RTVSPropertyOp56
 70
     1
102
RTVSPropertyOp57
 70
     1
102
RTVSPropertyOp58
 70
     1
102
RTVSPropertyOp59
 70
     1
102
RTVSPropertyOp60
 70
     1
102
RTVSPropertyOp61
 70
     1
102
RTVSPropertyOp62
 70
     1
  0
XRECORD
  5
1A603
102
{ACAD_REACTORS
330
1A602
102
}
330
1A602
100
AcDbXrecord
280
     1
102
RTVSPost2010Prop28
280
     0
102
RTVSPost2010PropOp28
 70
     1
102
RTVSPost2010Prop29
280
     1
102
RTVSPost2010PropOp29
 70
     1
102
RTVSPost2010Prop30
280
     1
102
RTVSPost2010PropOp30
 70
     1
102
RTVSPost2010Prop31
280
     0
102
RTVSPost2010PropOp31
 70
     1
102
RTVSPost2010Prop32
280
     0
102
RTVSPost2010PropOp32
 70
     1
102
RTVSPost2010Prop33
280
     0
102
RTVSPost2010PropOp33
 70
     1
102
RTVSPost2010Prop34
280
     0
102
RTVSPost2010PropOp34
 70
     1
102
RTVSPost2010Prop35
280
     0
102
RTVSPost2010PropOp35
 70
     1
102
RTVSPost2010Prop36
280
     0
102
RTVSPost2010PropOp36
 70
     1
102
RTVSPost2010Prop37
 90
       50
102
RTVSPost2010PropOp37
 70
     1
102
RTVSPost2010Prop38
140
0.0
102
RTVSPost2010PropOp38
 70
     1
102
RTVSPost2010Prop39
140
1.0
102
RTVSPost2010PropOp39
 70
     1
102
RTVSPost2010Prop40
 90
        0
102
RTVSPost2010PropOp40
 70
     1
102
RTVSPost2010Prop41ColorIndex
 90
       18
102
RTVSPost2010Prop41ColorRGB
 90
        0
102
RTVSPost2010PropOp41
 70
     1
102
RTVSPost2010Prop42
 90
       50
102
RTVSPost2010PropOp42
 70
     1
102
RTVSPost2010Prop43
 90
        3
102
RTVSPost2010PropOp43
 70
     1
102
RTVSPost2010Prop44ColorIndex
 90
        5
102
RTVSPost2010Prop44ColorRGB
 90
      255
102
RTVSPost2010PropOp44
 70
     1
102
RTVSPost2010Prop45
280
     0
102
RTVSPost2010PropOp45
 70
     1
102
RTVSPost2010Prop46
 90
       50
102
RTVSPost2010PropOp46
 70
     1
102
RTVSPost2010Prop47
 90
       50
102
RTVSPost2010PropOp47
 70
     1
102
RTVSPost2010Prop48
 90
       50
102
RTVSPost2010PropOp48
 70
     1
102
RTVSPost2010Prop49
280
     0
102
RTVSPost2010PropOp49
 70
     1
102
RTVSPost2010Prop50
 90
       50
102
RTVSPost2010PropOp50
 70
     1
102
RTVSPost2010Prop51ColorIndex
 90
      256
102
RTVSPost2010Prop51ColorRGB
 90
-16777216
102
RTVSPost2010PropOp51
 70
     0
102
RTVSPost2010Prop52
140
1.0
102
RTVSPost2010PropOp52
 70
     0
102
RTVSPost2010Prop53
 90
        2
102
RTVSPost2010PropOp53
 70
     1
102
RTVSPost2010Prop54
  1
strokes_ogs.tif
102
RTVSPost2010PropOp54
 70
     1
102
RTVSPost2010Prop55
280
     0
102
RTVSPost2010PropOp55
 70
     1
102
RTVSPost2010Prop56
140
1.0
102
RTVSPost2010PropOp56
 70
     1
102
RTVSPost2010Prop57
140
1.0
102
RTVSPost2010PropOp57
 70
     1
102
RTVSPropertyOp0
 70
     1
102
RTVSPropertyOp1
 70
     1
102
RTVSPropertyOp2
 70
     1
102
RTVSPropertyOp3
 70
     1
102
RTVSPropertyOp4
 70
     1
102
RTVSPropertyOp5
 70
     1
102
RTVSPropertyOp6
 70
     1
102
RTVSPropertyOp7
 70
     1
102
RTVSPropertyOp8
 70
     1
102
RTVSPropertyOp9
 70
     1
102
RTVSPropertyOp10
 70
     1
102
RTVSPropertyOp11
 70
     1
102
RTVSPropertyOp12
 70
     1
102
RTVSPropertyOp13
 70
     1
102
RTVSPropertyOp14
 70
     1
102
RTVSPropertyOp15
 70
     1
102
RTVSPropertyOp16
 70
     1
102
RTVSPropertyOp17
 70
     1
102
RTVSPropertyOp18
 70
     1
102
RTVSPropertyOp19
 70
     1
102
RTVSPropertyOp20
 70
     1
102
RTVSPropertyOp21
 70
     1
102
RTVSPropertyOp22
 70
     1
102
RTVSPropertyOp23
 70
     1
102
RTVSPropertyOp24
 70
     1
102
RTVSPropertyOp25
 70
     1
102
RTVSPropertyOp26
 70
     1
102
RTVSPropertyOp27
 70
     1
102
RTVSPropertyOp28
 70
     1
102
RTVSPropertyOp29
 70
     1
102
RTVSPropertyOp30
 70
     1
102
RTVSPropertyOp31
 70
     1
102
RTVSPropertyOp32
 70
     1
102
RTVSPropertyOp33
 70
     1
102
RTVSPropertyOp34
 70
     1
102
RTVSPropertyOp35
 70
     1
102
RTVSPropertyOp36
 70
     1
102
RTVSPropertyOp37
 70
     1
102
RTVSPropertyOp38
 70
     1
102
RTVSPropertyOp39
 70
     1
102
RTVSPropertyOp40
 70
     1
102
RTVSPropertyOp41
 70
     1
102
RTVSPropertyOp42
 70
     1
102
RTVSPropertyOp43
 70
     1
102
RTVSPropertyOp44
 70
     1
102
RTVSPropertyOp45
 70
     1
102
RTVSPropertyOp46
 70
     1
102
RTVSPropertyOp47
 70
     1
102
RTVSPropertyOp48
 70
     1
102
RTVSPropertyOp49
 70
     1
102
RTVSPropertyOp50
 70
     1
102
RTVSPropertyOp51
 70
     0
102
RTVSPropertyOp52
 70
     0
102
RTVSPropertyOp53
 70
     1
102
RTVSPropertyOp54
 70
     1
102
RTVSPropertyOp55
 70
     1
102
RTVSPropertyOp56
 70
     1
102
RTVSPropertyOp57
 70
     1
102
RTVSPropertyOp58
 70
     1
102
RTVSPropertyOp59
 70
     1
102
RTVSPropertyOp60
 70
     1
102
RTVSPropertyOp61
 70
     1
102
RTVSPropertyOp62
 70
     1
  0
ENDSEC
  0
EOF
