  0
SECTION
  2
HEADER
  9
$ACADVER
  1
AC1015
  9
$ACADMAINTVER
 70
    18
  9
$DWGCODEPAGE
  3
ANSI_1252
  9
$INSBASE
 10
0.0
 20
0.0
 30
0.0
  9
$EXTMIN
 10
-8.856810555859397
 20
-88.33502138398472
 30
-0.0015258207003583
  9
$EXTMAX
 10
22.96234182426986
 20
1.509109844580621
 30
0.0000000349246037
  9
$LIMMIN
 10
0.0
 20
0.0
  9
$LIMMAX
 10
420.0
 20
297.0
  9
$ORTHOMODE
 70
     0
  9
$REGENMODE
 70
     1
  9
$FILLMODE
 70
     1
  9
$QTEXTMODE
 70
     0
  9
$MIRRTEXT
 70
     0
  9
$LTSCALE
 40
1.0
  9
$ATTMODE
 70
     1
  9
$TEXTSIZE
 40
2.5
  9
$TRACEWID
 40
1.0
  9
$TEXTSTYLE
  7
Standard
  9
$CLAYER
  8
0
  9
$CELTYPE
  6
ByLayer
  9
$CECOLOR
 62
   256
  9
$CELTSCALE
 40
1.0
  9
$DISPSILH
 70
     0
  9
$DIMSCALE
 40
1.0
  9
$DIMASZ
 40
2.5
  9
$DIMEXO
 40
0.625
  9
$DIMDLI
 40
3.75
  9
$DIMRND
 40
0.0
  9
$DIMDLE
 40
0.0
  9
$DIMEXE
 40
1.25
  9
$DIMTP
 40
0.0
  9
$DIMTM
 40
0.0
  9
$DIMTXT
 40
2.5
  9
$DIMCEN
 40
2.5
  9
$DIMTSZ
 40
0.0
  9
$DIMTOL
 70
     0
  9
$DIMLIM
 70
     0
  9
$DIMTIH
 70
     0
  9
$DIMTOH
 70
     0
  9
$DIMSE1
 70
     0
  9
$DIMSE2
 70
     0
  9
$DIMTAD
 70
     1
  9
$DIMZIN
 70
     8
  9
$DIMBLK
  1

  9
$DIMASO
 70
     1
  9
$DIMSHO
 70
     1
  9
$DIMPOST
  1

  9
$DIMAPOST
  1

  9
$DIMALT
 70
     0
  9
$DIMALTD
 70
     3
  9
$DIMALTF
 40
0.03937007874016
  9
$DIMLFAC
 40
1.0
  9
$DIMTOFL
 70
     1
  9
$DIMTVP
 40
0.0
  9
$DIMTIX
 70
     0
  9
$DIMSOXD
 70
     0
  9
$DIMSAH
 70
     0
  9
$DIMBLK1
  1

  9
$DIMBLK2
  1

  9
$DIMSTYLE
  2
ISO-25
  9
$DIMCLRD
 70
     0
  9
$DIMCLRE
 70
     0
  9
$DIMCLRT
 70
     0
  9
$DIMTFAC
 40
1.0
  9
$DIMGAP
 40
0.625
  9
$DIMJUST
 70
     0
  9
$DIMSD1
 70
     0
  9
$DIMSD2
 70
     0
  9
$DIMTOLJ
 70
     0
  9
$DIMTZIN
 70
     8
  9
$DIMALTZ
 70
     0
  9
$DIMALTTZ
 70
     0
  9
$DIMUPT
 70
     0
  9
$DIMDEC
 70
     2
  9
$DIMTDEC
 70
     2
  9
$DIMALTU
 70
     2
  9
$DIMALTTD
 70
     3
  9
$DIMTXSTY
  7
Standard
  9
$DIMAUNIT
 70
     0
  9
$DIMADEC
 70
     0
  9
$DIMALTRND
 40
0.0
  9
$DIMAZIN
 70
     0
  9
$DIMDSEP
 70
    44
  9
$DIMATFIT
 70
     3
  9
$DIMFRAC
 70
     0
  9
$DIMLDRBLK
  1

  9
$DIMLUNIT
 70
     2
  9
$DIMLWD
 70
    -2
  9
$DIMLWE
 70
    -2
  9
$DIMTMOVE
 70
     0
  9
$LUNITS
 70
     2
  9
$LUPREC
 70
     4
  9
$SKETCHINC
 40
1.0
  9
$FILLETRAD
 40
0.0
  9
$AUNITS
 70
     0
  9
$AUPREC
 70
     0
  9
$MENU
  1
.
  9
$ELEVATION
 40
0.0
  9
$PELEVATION
 40
0.0
  9
$THICKNESS
 40
0.0
  9
$LIMCHECK
 70
     0
  9
$CHAMFERA
 40
0.0
  9
$CHAMFERB
 40
0.0
  9
$CHAMFERC
 40
0.0
  9
$CHAMFERD
 40
0.0
  9
$SKPOLY
 70
     0
  9
$TDCREATE
 40
2460693.556458334
  9
$TDUCREATE
 40
2460693.264791667
  9
$TDUPDATE
 40
2460693.607488426
  9
$TDUUPDATE
 40
2460693.315821759
  9
$TDINDWG
 40
0.0490162037
  9
$TDUSRTIMER
 40
0.0490162037
  9
$USRTIMER
 70
     1
  9
$ANGBASE
 50
0.0
  9
$ANGDIR
 70
     0
  9
$PDMODE
 70
     0
  9
$PDSIZE
 40
0.0
  9
$PLINEWID
 40
0.0
  9
$SPLFRAME
 70
     0
  9
$SPLINETYPE
 70
     6
  9
$SPLINESEGS
 70
     8
  9
$HANDSEED
  5
3280
  9
$SURFTAB1
 70
     6
  9
$SURFTAB2
 70
     6
  9
$SURFTYPE
 70
     6
  9
$SURFU
 70
     6
  9
$SURFV
 70
     6
  9
$UCSBASE
  2

  9
$UCSNAME
  2

  9
$UCSORG
 10
0.0
 20
0.0
 30
0.0
  9
$UCSXDIR
 10
1.0
 20
0.0
 30
0.0
  9
$UCSYDIR
 10
0.0
 20
1.0
 30
0.0
  9
$UCSORTHOREF
  2

  9
$UCSORTHOVIEW
 70
     0
  9
$UCSORGTOP
 10
0.0
 20
0.0
 30
0.0
  9
$UCSORGBOTTOM
 10
0.0
 20
0.0
 30
0.0
  9
$UCSORGLEFT
 10
0.0
 20
0.0
 30
0.0
  9
$UCSORGRIGHT
 10
0.0
 20
0.0
 30
0.0
  9
$UCSORGFRONT
 10
0.0
 20
0.0
 30
0.0
  9
$UCSORGBACK
 10
0.0
 20
0.0
 30
0.0
  9
$PUCSBASE
  2

  9
$PUCSNAME
  2

  9
$PUCSORG
 10
0.0
 20
0.0
 30
0.0
  9
$PUCSXDIR
 10
1.0
 20
0.0
 30
0.0
  9
$PUCSYDIR
 10
0.0
 20
1.0
 30
0.0
  9
$PUCSORTHOREF
  2

  9
$PUCSORTHOVIEW
 70
     0
  9
$PUCSORGTOP
 10
0.0
 20
0.0
 30
0.0
  9
$PUCSORGBOTTOM
 10
0.0
 20
0.0
 30
0.0
  9
$PUCSORGLEFT
 10
0.0
 20
0.0
 30
0.0
  9
$PUCSORGRIGHT
 10
0.0
 20
0.0
 30
0.0
  9
$PUCSORGFRONT
 10
0.0
 20
0.0
 30
0.0
  9
$PUCSORGBACK
 10
0.0
 20
0.0
 30
0.0
  9
$USERI1
 70
     0
  9
$USERI2
 70
     0
  9
$USERI3
 70
     0
  9
$USERI4
 70
     0
  9
$USERI5
 70
     0
  9
$USERR1
 40
0.0
  9
$USERR2
 40
0.0
  9
$USERR3
 40
0.0
  9
$USERR4
 40
0.0
  9
$USERR5
 40
0.0
  9
$WORLDVIEW
 70
     1
  9
$SHADEDGE
 70
     3
  9
$SHADEDIF
 70
    70
  9
$TILEMODE
 70
     1
  9
$MAXACTVP
 70
    48
  9
$PINSBASE
 10
0.0
 20
0.0
 30
0.0
  9
$PLIMCHECK
 70
     0
  9
$PEXTMIN
 10
0.0
 20
0.0
 30
0.0
  9
$PEXTMAX
 10
0.0
 20
0.0
 30
0.0
  9
$PLIMMIN
 10
0.0
 20
0.0
  9
$PLIMMAX
 10
12.0
 20
9.0
  9
$UNITMODE
 70
     0
  9
$VISRETAIN
 70
     1
  9
$PLINEGEN
 70
     0
  9
$PSLTSCALE
 70
     1
  9
$TREEDEPTH
 70
  3020
  9
$CMLSTYLE
  2
Standard
  9
$CMLJUST
 70
     0
  9
$CMLSCALE
 40
20.0
  9
$PROXYGRAPHICS
 70
     1
  9
$MEASUREMENT
 70
     1
  9
$CELWEIGHT
370
    -1
  9
$ENDCAPS
280
     0
  9
$JOINSTYLE
280
     0
  9
$LWDISPLAY
290
     0
  9
$INSUNITS
 70
     4
  9
$HYPERLINKBASE
  1

  9
$STYLESHEET
  1

  9
$XEDIT
290
     1
  9
$CEPSNTYPE
380
     0
  9
$PSTYLEMODE
290
     1
  9
$FINGERPRINTGUID
  2
{6BB7EA54-E3A6-D244-889C-0863075C46A9}
  9
$VERSIONGUID
  2
{A296E40E-018B-B641-833D-D95BEAABD88A}
  9
$EXTNAMES
290
     1
  9
$PSVPSCALE
 40
0.0
  9
$OLESTARTUP
290
     0
  0
ENDSEC
  0
SECTION
  2
CLASSES
  0
CLASS
  1
ACDBDICTIONARYWDFLT
  2
AcDbDictionaryWithDefault
  3
ObjectDBX Classes
 90
        0
280
     0
281
     0
  0
CLASS
  1
ACDBPLACEHOLDER
  2
AcDbPlaceHolder
  3
ObjectDBX Classes
 90
        0
280
     0
281
     0
  0
CLASS
  1
LAYOUT
  2
AcDbLayout
  3
ObjectDBX Classes
 90
        0
280
     0
281
     0
  0
CLASS
  1
DICTIONARYVAR
  2
AcDbDictionaryVar
  3
ObjectDBX Classes
 90
        0
280
     0
281
     0
  0
CLASS
  1
TABLESTYLE
  2
AcDbTableStyle
  3
ObjectDBX Classes
 90
     4095
280
     0
281
     0
  0
CLASS
  1
MATERIAL
  2
AcDbMaterial
  3
ObjectDBX Classes
 90
     1153
280
     0
281
     0
  0
CLASS
  1
VISUALSTYLE
  2
AcDbVisualStyle
  3
ObjectDBX Classes
 90
     4095
280
     0
281
     0
  0
CLASS
  1
SCALE
  2
AcDbScale
  3
ObjectDBX Classes
 90
     1153
280
     0
281
     0
  0
CLASS
  1
MLEADERSTYLE
  2
AcDbMLeaderStyle
  3
ACDB_MLEADERSTYLE_CLASS
 90
     4095
280
     0
281
     0
  0
CLASS
  1
CELLSTYLEMAP
  2
AcDbCellStyleMap
  3
ObjectDBX Classes
 90
     1152
280
     0
281
     0
  0
CLASS
  1
EXACXREFPANELOBJECT
  2
ExAcXREFPanelObject
  3
EXAC_ESW
 90
    33793
280
     0
281
     0
  0
CLASS
  1
NPOCOLLECTION
  2
AcDbImpNonPersistentObjectsCollection
  3
ObjectDBX Classes
 90
    33921
280
     0
281
     0
  0
CLASS
  1
LAYER_INDEX
  2
AcDbLayerIndex
  3
ObjectDBX Classes
 90
    32768
280
     0
281
     0
  0
CLASS
  1
SPATIAL_INDEX
  2
AcDbSpatialIndex
  3
ObjectDBX Classes
 90
    32768
280
     0
281
     0
  0
CLASS
  1
IDBUFFER
  2
AcDbIdBuffer
  3
ObjectDBX Classes
 90
    32768
280
     0
281
     0
  0
CLASS
  1
ACDBSECTIONVIEWSTYLE
  2
AcDbSectionViewStyle
  3
ObjectDBX Classes
 90
     1025
280
     0
281
     0
  0
CLASS
  1
ACDBDETAILVIEWSTYLE
  2
AcDbDetailViewStyle
  3
ObjectDBX Classes
 90
     1025
280
     0
281
     0
  0
CLASS
  1
XRECORD
  2
AcDbXrecord
  3
ObjectDBX Classes
 90
        0
280
     0
281
     0
  0
ENDSEC
  0
SECTION
  2
TABLES
  0
TABLE
  2
VPORT
  5
8
102
{ACAD_XDICTIONARY
360
318C
102
}
330
0
100
AcDbSymbolTable
 70
     1
  0
VPORT
  5
EA
330
8
100
AcDbSymbolTableRecord
100
AcDbViewportTableRecord
  2
*Active
 70
     0
 10
0.0
 20
0.0
 11
1.0
 21
1.0
 12
7.052765634205226
 22
-43.41295576970205
 13
0.0
 23
0.0
 14
10.0
 24
10.0
 15
10.0
 25
10.0
 16
0.0
 26
0.0
 36
1.0
 17
0.0
 27
0.0
 37
0.0
 40
95.54109158848696
 41
0.9846153846153846
 42
50.0
 43
0.0
 44
0.0
 50
0.0
 51
0.0
 71
     0
 72
  1000
 73
     1
 74
     3
 75
     0
 76
     1
 77
     0
 78
     0
281
     0
 65
     1
110
0.0
120
0.0
130
0.0
111
1.0
121
0.0
131
0.0
112
0.0
122
1.0
132
0.0
 79
     0
146
0.0
1001
ACAD_NAV_VCDISPLAY
1070
     3
  0
ENDTAB
  0
TABLE
  2
LTYPE
  5
5
330
0
100
AcDbSymbolTable
 70
     1
  0
LTYPE
  5
14
330
5
100
AcDbSymbolTableRecord
100
AcDbLinetypeTableRecord
  2
ByBlock
 70
     0
  3

 72
    65
 73
     0
 40
0.0
  0
LTYPE
  5
15
330
5
100
AcDbSymbolTableRecord
100
AcDbLinetypeTableRecord
  2
ByLayer
 70
     0
  3

 72
    65
 73
     0
 40
0.0
  0
LTYPE
  5
16
330
5
100
AcDbSymbolTableRecord
100
AcDbLinetypeTableRecord
  2
Continuous
 70
     0
  3
Solid line
 72
    65
 73
     0
 40
0.0
  0
ENDTAB
  0
TABLE
  2
LAYER
  5
2
102
{ACAD_XDICTIONARY
360
1FF
102
}
330
0
100
AcDbSymbolTable
 70
     1
  0
LAYER
  5
10
102
{ACAD_XDICTIONARY
360
13C
102
}
330
2
100
AcDbSymbolTableRecord
100
AcDbLayerTableRecord
  2
0
 70
     0
 62
     7
  6
Continuous
370
    -3
390
F
  0
ENDTAB
  0
TABLE
  2
STYLE
  5
3
330
0
100
AcDbSymbolTable
 70
     1
  0
STYLE
  5
11
330
3
100
AcDbSymbolTableRecord
100
AcDbTextStyleTableRecord
  2
Standard
 70
     0
 40
0.0
 41
1.0
 50
0.0
 71
     0
 42
2.5
  3
arial.ttf
  4

1001
ACAD
1000
Arial
1071
       34
  0
ENDTAB
  0
TABLE
  2
VIEW
  5
6
330
0
100
AcDbSymbolTable
 70
     0
  0
ENDTAB
  0
TABLE
  2
UCS
  5
7
330
0
100
AcDbSymbolTable
 70
     0
  0
ENDTAB
  0
TABLE
  2
APPID
  5
9
330
0
100
AcDbSymbolTable
 70
     8
  0
APPID
  5
12
330
9
100
AcDbSymbolTableRecord
100
AcDbRegAppTableRecord
  2
ACAD
 70
     0
  0
APPID
  5
9E
330
9
100
AcDbSymbolTableRecord
100
AcDbRegAppTableRecord
  2
ACAD_PSEXT
 70
     0
  0
APPID
  5
133
330
9
100
AcDbSymbolTableRecord
100
AcDbRegAppTableRecord
  2
AcadAnnoPO
 70
     0
  0
APPID
  5
134
330
9
100
AcDbSymbolTableRecord
100
AcDbRegAppTableRecord
  2
AcadAnnotative
 70
     0
  0
APPID
  5
135
330
9
100
AcDbSymbolTableRecord
100
AcDbRegAppTableRecord
  2
ACAD_DSTYLE_DIMJAG
 70
     0
  0
APPID
  5
136
330
9
100
AcDbSymbolTableRecord
100
AcDbRegAppTableRecord
  2
ACAD_DSTYLE_DIMTALN
 70
     0
  0
APPID
  5
165
330
9
100
AcDbSymbolTableRecord
100
AcDbRegAppTableRecord
  2
ACAD_MLEADERVER
 70
     0
  0
APPID
  5
217
330
9
100
AcDbSymbolTableRecord
100
AcDbRegAppTableRecord
  2
ACAD_NAV_VCDISPLAY
 70
     0
  0
ENDTAB
  0
TABLE
  2
DIMSTYLE
  5
A
330
0
100
AcDbSymbolTable
 70
     1
100
AcDbDimStyleTable
 71
     0
  0
DIMSTYLE
105
27
330
A
100
AcDbSymbolTableRecord
100
AcDbDimStyleTableRecord
  2
ISO-25
 70
     0
 41
2.5
 42
0.625
 43
3.75
 44
1.25
 73
     0
 74
     0
 77
     1
 78
     8
140
2.5
141
2.5
143
0.03937007874016
147
0.625
171
     3
172
     1
271
     2
272
     2
274
     3
278
    44
283
     0
284
     8
340
11
  0
ENDTAB
  0
TABLE
  2
BLOCK_RECORD
  5
1
330
0
100
AcDbSymbolTable
 70
     4
  0
BLOCK_RECORD
  5
1F
102
{ACAD_XDICTIONARY
360
1CE
102
}
330
1
100
AcDbSymbolTableRecord
100
AcDbBlockTableRecord
  2
*Model_Space
340
22
  0
BLOCK_RECORD
  5
D2
102
{ACAD_XDICTIONARY
360
313F
102
}
330
1
100
AcDbSymbolTableRecord
100
AcDbBlockTableRecord
  2
*Paper_Space
340
D3
  0
BLOCK_RECORD
  5
D6
102
{ACAD_XDICTIONARY
360
3141
102
}
330
1
100
AcDbSymbolTableRecord
100
AcDbBlockTableRecord
  2
*Paper_Space0
340
D7
  0
BLOCK_RECORD
  5
2D6F
330
1
100
AcDbSymbolTableRecord
100
AcDbBlockTableRecord
  2
CNA40X40S-Front
340
0
102
{BLKREFS
331
3138
102
}
  0
BLOCK_RECORD
  5
2FD6
330
1
100
AcDbSymbolTableRecord
100
AcDbBlockTableRecord
  2
CNA40X40S-Top
340
0
102
{BLKREFS
331
3139
102
}
  0
BLOCK_RECORD
  5
3031
330
1
100
AcDbSymbolTableRecord
100
AcDbBlockTableRecord
  2
CNA40X40S-ISO
340
0
102
{BLKREFS
331
313A
102
}
  0
ENDTAB
  0
ENDSEC
  0
SECTION
  2
BLOCKS
  0
BLOCK
  5
20
330
1F
100
AcDbEntity
  8
0
100
AcDbBlockBegin
  2
*Model_Space
 70
     0
 10
0.0
 20
0.0
 30
0.0
  3
*Model_Space
  1

  0
ENDBLK
  5
21
330
1F
100
AcDbEntity
  8
0
100
AcDbBlockEnd
  0
BLOCK
  5
D4
330
D2
100
AcDbEntity
 67
     1
  8
0
100
AcDbBlockBegin
  2
*Paper_Space
 70
     0
 10
0.0
 20
0.0
 30
0.0
  3
*Paper_Space
  1

  0
ENDBLK
  5
D5
330
D2
100
AcDbEntity
 67
     1
  8
0
100
AcDbBlockEnd
  0
BLOCK
  5
D8
330
D6
100
AcDbEntity
 67
     1
  8
0
100
AcDbBlockBegin
  2
*Paper_Space0
 70
     0
 10
0.0
 20
0.0
 30
0.0
  3
*Paper_Space0
  1

  0
ENDBLK
  5
D9
330
D6
100
AcDbEntity
 67
     1
  8
0
100
AcDbBlockEnd
  0
BLOCK
  5
2D70
330
2D6F
100
AcDbEntity
  8
0
100
AcDbBlockBegin
  2
CNA40X40S-Front
 70
     0
 10
0.0
 20
0.0
 30
0.0
  3
CNA40X40S-Front
  1

  0
LINE
  5
2D72
330
2D6F
100
AcDbEntity
  8
0
100
AcDbLine
 10
-3.250000000000003
 20
1.500000000000001
 30
0.0
 11
3.250000000000015
 21
1.5
 31
0.0
  0
LINE
  5
2D73
330
2D6F
100
AcDbEntity
  8
0
100
AcDbLine
 10
-0.0299792461790294
 20
-40.0
 30
0.0
 11
0.0299792461790287
 21
-40.0
 31
0.0
  0
ARC
  5
2D74
330
2D6F
100
AcDbEntity
  8
0
100
AcDbCircle
 10
0.0299792461790288
 20
-39.90000000000001
 30
0.0
 40
0.1000000000000006
100
AcDbArc
 50
270.0
 51
340.0000000000013
  0
LINE
  5
2D75
330
2D6F
100
AcDbEntity
  8
0
100
AcDbLine
 10
0.1239485082576182
 20
-39.93420201433257
 30
0.0
 11
-0.1239485082576187
 21
-39.93420201433257
 31
0.0
  0
ARC
  5
2D76
330
2D6F
100
AcDbEntity
  8
0
100
AcDbCircle
 10
-0.0299792461790294
 20
-39.90000000000001
 30
0.0
 40
0.1000000000000004
100
AcDbArc
 50
199.9999999999987
 51
270.0
  0
LINE
  5
2D77
330
2D6F
100
AcDbEntity
  8
0
100
AcDbLine
 10
3.000000000000015
 20
0.0
 30
0.0
 11
-3.000000000000004
 21
0.0
 31
0.0
  0
LINE
  5
2D78
330
2D6F
100
AcDbEntity
  8
0
100
AcDbLine
 10
-3.500000000000004
 20
0.5000000000000011
 30
0.0
 11
3.500000000000015
 21
0.5000000000000001
 31
0.0
  0
LINE
  5
2D79
330
2D6F
100
AcDbEntity
  8
0
100
AcDbLine
 10
3.500000000000015
 20
1.25
 30
0.0
 11
-3.500000000000004
 21
1.250000000000001
 31
0.0
  0
ARC
  5
2D7A
330
2D6F
100
AcDbEntity
  8
0
100
AcDbCircle
 10
3.000000000000015
 20
0.5000000000000002
 30
0.0
 40
0.5
100
AcDbArc
 50
270.0
 51
0.0
  0
ARC
  5
2D7B
330
2D6F
100
AcDbEntity
  8
0
100
AcDbCircle
 10
-3.000000000000004
 20
0.500000000000001
 30
0.0
 40
0.5
100
AcDbArc
 50
180.0
 51
270.0
  0
ARC
  5
2D7C
330
2D6F
100
AcDbEntity
  8
0
100
AcDbCircle
 10
3.250000000000015
 20
1.25
 30
0.0
 40
0.25
100
AcDbArc
 50
0.0
 51
90.0
  0
ARC
  5
2D7D
330
2D6F
100
AcDbEntity
  8
0
100
AcDbCircle
 10
-3.250000000000003
 20
1.250000000000001
 30
0.0
 40
0.25
100
AcDbArc
 50
90.0
 51
180.0
  0
LINE
  5
2D7E
330
2D6F
100
AcDbEntity
  8
0
100
AcDbLine
 10
-1.555634918610404
 20
-36.00067593014825
 30
0.0
 11
-0.1239485082576186
 21
-39.93420201433257
 31
0.0
  0
LINE
  5
2D7F
330
2D6F
100
AcDbEntity
  8
0
100
AcDbLine
 10
-1.555634918610405
 20
-36.00067593014825
 30
0.0
 11
-2.166725741731044
 21
-34.32171769238836
 31
0.0
  0
LINE
  5
2D80
330
2D6F
100
AcDbEntity
  8
0
100
AcDbLine
 10
1.555634918610403
 20
-36.00067593014825
 30
0.0
 11
0.1239485082576183
 21
-39.93420201433257
 31
0.0
  0
ELLIPSE
  5
2D81
330
2D6F
100
AcDbEntity
  8
0
100
AcDbEllipse
 10
-0.0000000000000003
 20
-40.27474774194546
 30
0.0
 11
0.0
 21
-6.04445032280017
 31
0.0
210
0.0
220
0.0
230
1.0
 40
0.3639702342662022
 41
2.356194490192344
 42
2.967449360428298
  0
LINE
  5
2D82
330
2D6F
100
AcDbEntity
  8
0
100
AcDbLine
 10
0.3811817940564013
 20
-34.32171769238836
 30
0.0
 11
-0.3811817940564023
 21
-34.32171769238836
 31
0.0
  0
ELLIPSE
  5
2D83
330
2D6F
100
AcDbEntity
  8
0
100
AcDbEllipse
 10
-0.0000000000000003
 20
-40.27474774194546
 30
0.0
 11
0.0
 21
-6.04445032280017
 31
0.0
210
0.0
220
0.0
230
1.0
 40
0.3639702342662022
 41
3.315735946751287
 42
3.92699081698724
  0
LINE
  5
2D84
330
2D6F
100
AcDbEntity
  8
0
100
AcDbLine
 10
1.750000000000002
 20
-33.07171769238836
 30
0.0
 11
-1.750000000000003
 21
-33.07171769238836
 31
0.0
  0
LINE
  5
2D85
330
2D6F
100
AcDbEntity
  8
0
100
AcDbLine
 10
2.126524613390194
 20
-33.17529961895552
 30
0.0
 11
-2.126524613390194
 21
-33.17529961895552
 31
0.0
  0
LINE
  5
2D86
330
2D6F
100
AcDbEntity
  8
0
100
AcDbLine
 10
2.191623175793066
 20
-33.31178256050986
 30
0.0
 11
-2.191623175793066
 21
-33.31178256050986
 31
0.0
  0
LINE
  5
2D87
330
2D6F
100
AcDbEntity
  8
0
100
AcDbLine
 10
-2.166725741731044
 20
-34.32171769238836
 30
0.0
 11
-0.3811817940564022
 21
-34.32171769238836
 31
0.0
  0
LINE
  5
2D88
330
2D6F
100
AcDbEntity
  8
0
100
AcDbLine
 10
0.3811817940564011
 20
-34.32171769238836
 30
0.0
 11
2.166725741731043
 21
-34.32171769238836
 31
0.0
  0
LINE
  5
2D89
330
2D6F
100
AcDbEntity
  8
0
100
AcDbLine
 10
1.750000000000002
 20
-31.82171769238835
 30
0.0
 11
-1.750000000000003
 21
-31.82171769238835
 31
0.0
  0
LINE
  5
2D8A
330
2D6F
100
AcDbEntity
  8
0
100
AcDbLine
 10
2.126524613390194
 20
-31.92529961895552
 30
0.0
 11
-2.126524613390194
 21
-31.92529961895552
 31
0.0
  0
LINE
  5
2D8B
330
2D6F
100
AcDbEntity
  8
0
100
AcDbLine
 10
2.191623175793066
 20
-32.06178256050986
 30
0.0
 11
-2.191623175793066
 21
-32.06178256050986
 31
0.0
  0
LINE
  5
2D8C
330
2D6F
100
AcDbEntity
  8
0
100
AcDbLine
 10
1.750000000000002
 20
-30.57171769238835
 30
0.0
 11
-1.750000000000003
 21
-30.57171769238835
 31
0.0
  0
LINE
  5
2D8D
330
2D6F
100
AcDbEntity
  8
0
100
AcDbLine
 10
2.126524613390194
 20
-30.67529961895552
 30
0.0
 11
-2.126524613390194
 21
-30.67529961895552
 31
0.0
  0
LINE
  5
2D8E
330
2D6F
100
AcDbEntity
  8
0
100
AcDbLine
 10
2.191623175793066
 20
-30.81178256050986
 30
0.0
 11
-2.191623175793066
 21
-30.81178256050986
 31
0.0
  0
LINE
  5
2D8F
330
2D6F
100
AcDbEntity
  8
0
100
AcDbLine
 10
1.750000000000002
 20
-29.32171769238835
 30
0.0
 11
-1.750000000000003
 21
-29.32171769238835
 31
0.0
  0
LINE
  5
2D90
330
2D6F
100
AcDbEntity
  8
0
100
AcDbLine
 10
2.126524613390194
 20
-29.42529961895552
 30
0.0
 11
-2.126524613390194
 21
-29.42529961895552
 31
0.0
  0
LINE
  5
2D91
330
2D6F
100
AcDbEntity
  8
0
100
AcDbLine
 10
2.191623175793066
 20
-29.56178256050986
 30
0.0
 11
-2.191623175793066
 21
-29.56178256050986
 31
0.0
  0
LINE
  5
2D92
330
2D6F
100
AcDbEntity
  8
0
100
AcDbLine
 10
1.750000000000002
 20
-28.07171769238835
 30
0.0
 11
-1.750000000000003
 21
-28.07171769238835
 31
0.0
  0
LINE
  5
2D93
330
2D6F
100
AcDbEntity
  8
0
100
AcDbLine
 10
2.126524613390194
 20
-28.17529961895552
 30
0.0
 11
-2.126524613390194
 21
-28.17529961895552
 31
0.0
  0
LINE
  5
2D94
330
2D6F
100
AcDbEntity
  8
0
100
AcDbLine
 10
2.191623175793066
 20
-28.31178256050986
 30
0.0
 11
-2.191623175793066
 21
-28.31178256050986
 31
0.0
  0
LINE
  5
2D95
330
2D6F
100
AcDbEntity
  8
0
100
AcDbLine
 10
1.750000000000002
 20
-26.82171769238835
 30
0.0
 11
-1.750000000000003
 21
-26.82171769238835
 31
0.0
  0
LINE
  5
2D96
330
2D6F
100
AcDbEntity
  8
0
100
AcDbLine
 10
2.126524613390194
 20
-26.92529961895552
 30
0.0
 11
-2.126524613390194
 21
-26.92529961895552
 31
0.0
  0
LINE
  5
2D97
330
2D6F
100
AcDbEntity
  8
0
100
AcDbLine
 10
2.191623175793066
 20
-27.06178256050986
 30
0.0
 11
-2.191623175793066
 21
-27.06178256050986
 31
0.0
  0
LINE
  5
2D98
330
2D6F
100
AcDbEntity
  8
0
100
AcDbLine
 10
1.750000000000002
 20
-25.57171769238835
 30
0.0
 11
-1.750000000000003
 21
-25.57171769238835
 31
0.0
  0
LINE
  5
2D99
330
2D6F
100
AcDbEntity
  8
0
100
AcDbLine
 10
2.126524613390194
 20
-25.67529961895552
 30
0.0
 11
-2.126524613390194
 21
-25.67529961895552
 31
0.0
  0
LINE
  5
2D9A
330
2D6F
100
AcDbEntity
  8
0
100
AcDbLine
 10
2.191623175793066
 20
-25.81178256050986
 30
0.0
 11
-2.191623175793066
 21
-25.81178256050986
 31
0.0
  0
LINE
  5
2D9B
330
2D6F
100
AcDbEntity
  8
0
100
AcDbLine
 10
1.750000000000002
 20
-24.32171769238835
 30
0.0
 11
-1.750000000000003
 21
-24.32171769238835
 31
0.0
  0
LINE
  5
2D9C
330
2D6F
100
AcDbEntity
  8
0
100
AcDbLine
 10
2.126524613390194
 20
-24.42529961895552
 30
0.0
 11
-2.126524613390194
 21
-24.42529961895552
 31
0.0
  0
LINE
  5
2D9D
330
2D6F
100
AcDbEntity
  8
0
100
AcDbLine
 10
2.191623175793066
 20
-24.56178256050986
 30
0.0
 11
-2.191623175793066
 21
-24.56178256050986
 31
0.0
  0
LINE
  5
2D9E
330
2D6F
100
AcDbEntity
  8
0
100
AcDbLine
 10
1.750000000000002
 20
-23.07171769238835
 30
0.0
 11
-1.750000000000003
 21
-23.07171769238835
 31
0.0
  0
LINE
  5
2D9F
330
2D6F
100
AcDbEntity
  8
0
100
AcDbLine
 10
2.126524613390194
 20
-23.17529961895552
 30
0.0
 11
-2.126524613390194
 21
-23.17529961895552
 31
0.0
  0
LINE
  5
2DA0
330
2D6F
100
AcDbEntity
  8
0
100
AcDbLine
 10
2.191623175793066
 20
-23.31178256050986
 30
0.0
 11
-2.191623175793066
 21
-23.31178256050986
 31
0.0
  0
LINE
  5
2DA1
330
2D6F
100
AcDbEntity
  8
0
100
AcDbLine
 10
1.750000000000002
 20
-21.82171769238835
 30
0.0
 11
-1.750000000000003
 21
-21.82171769238835
 31
0.0
  0
LINE
  5
2DA2
330
2D6F
100
AcDbEntity
  8
0
100
AcDbLine
 10
2.126524613390194
 20
-21.92529961895552
 30
0.0
 11
-2.126524613390194
 21
-21.92529961895552
 31
0.0
  0
LINE
  5
2DA3
330
2D6F
100
AcDbEntity
  8
0
100
AcDbLine
 10
2.191623175793066
 20
-22.06178256050986
 30
0.0
 11
-2.191623175793066
 21
-22.06178256050986
 31
0.0
  0
LINE
  5
2DA4
330
2D6F
100
AcDbEntity
  8
0
100
AcDbLine
 10
1.750000000000002
 20
-20.57171769238835
 30
0.0
 11
-1.750000000000003
 21
-20.57171769238835
 31
0.0
  0
LINE
  5
2DA5
330
2D6F
100
AcDbEntity
  8
0
100
AcDbLine
 10
2.126524613390194
 20
-20.67529961895552
 30
0.0
 11
-2.126524613390194
 21
-20.67529961895552
 31
0.0
  0
LINE
  5
2DA6
330
2D6F
100
AcDbEntity
  8
0
100
AcDbLine
 10
2.191623175793066
 20
-20.81178256050986
 30
0.0
 11
-2.191623175793066
 21
-20.81178256050986
 31
0.0
  0
LINE
  5
2DA7
330
2D6F
100
AcDbEntity
  8
0
100
AcDbLine
 10
1.750000000000002
 20
-19.32171769238835
 30
0.0
 11
-1.750000000000003
 21
-19.32171769238835
 31
0.0
  0
LINE
  5
2DA8
330
2D6F
100
AcDbEntity
  8
0
100
AcDbLine
 10
2.126524613390194
 20
-19.42529961895551
 30
0.0
 11
-2.126524613390194
 21
-19.42529961895551
 31
0.0
  0
LINE
  5
2DA9
330
2D6F
100
AcDbEntity
  8
0
100
AcDbLine
 10
2.191623175793066
 20
-19.56178256050985
 30
0.0
 11
-2.191623175793066
 21
-19.56178256050985
 31
0.0
  0
LINE
  5
2DAA
330
2D6F
100
AcDbEntity
  8
0
100
AcDbLine
 10
1.750000000000002
 20
-18.07171769238835
 30
0.0
 11
-1.750000000000003
 21
-18.07171769238835
 31
0.0
  0
LINE
  5
2DAB
330
2D6F
100
AcDbEntity
  8
0
100
AcDbLine
 10
2.126524613390194
 20
-18.17529961895551
 30
0.0
 11
-2.126524613390194
 21
-18.17529961895551
 31
0.0
  0
LINE
  5
2DAC
330
2D6F
100
AcDbEntity
  8
0
100
AcDbLine
 10
2.191623175793066
 20
-18.31178256050985
 30
0.0
 11
-2.191623175793066
 21
-18.31178256050985
 31
0.0
  0
LINE
  5
2DAD
330
2D6F
100
AcDbEntity
  8
0
100
AcDbLine
 10
1.750000000000002
 20
-16.82171769238835
 30
0.0
 11
-1.750000000000003
 21
-16.82171769238835
 31
0.0
  0
LINE
  5
2DAE
330
2D6F
100
AcDbEntity
  8
0
100
AcDbLine
 10
2.126524613390194
 20
-16.92529961895551
 30
0.0
 11
-2.126524613390194
 21
-16.92529961895551
 31
0.0
  0
LINE
  5
2DAF
330
2D6F
100
AcDbEntity
  8
0
100
AcDbLine
 10
2.191623175793066
 20
-17.06178256050985
 30
0.0
 11
-2.191623175793066
 21
-17.06178256050985
 31
0.0
  0
LINE
  5
2DB0
330
2D6F
100
AcDbEntity
  8
0
100
AcDbLine
 10
1.750000000000002
 20
-15.57171769238835
 30
0.0
 11
-1.750000000000003
 21
-15.57171769238835
 31
0.0
  0
LINE
  5
2DB1
330
2D6F
100
AcDbEntity
  8
0
100
AcDbLine
 10
2.126524613390194
 20
-15.67529961895551
 30
0.0
 11
-2.126524613390194
 21
-15.67529961895551
 31
0.0
  0
LINE
  5
2DB2
330
2D6F
100
AcDbEntity
  8
0
100
AcDbLine
 10
2.191623175793066
 20
-15.81178256050985
 30
0.0
 11
-2.191623175793066
 21
-15.81178256050985
 31
0.0
  0
LINE
  5
2DB3
330
2D6F
100
AcDbEntity
  8
0
100
AcDbLine
 10
1.750000000000002
 20
-14.32171769238835
 30
0.0
 11
-1.750000000000003
 21
-14.32171769238835
 31
0.0
  0
LINE
  5
2DB4
330
2D6F
100
AcDbEntity
  8
0
100
AcDbLine
 10
2.126524613390194
 20
-14.42529961895551
 30
0.0
 11
-2.126524613390194
 21
-14.42529961895551
 31
0.0
  0
LINE
  5
2DB5
330
2D6F
100
AcDbEntity
  8
0
100
AcDbLine
 10
2.191623175793066
 20
-14.56178256050985
 30
0.0
 11
-2.191623175793066
 21
-14.56178256050985
 31
0.0
  0
LINE
  5
2DB6
330
2D6F
100
AcDbEntity
  8
0
100
AcDbLine
 10
1.750000000000002
 20
-13.07171769238835
 30
0.0
 11
-1.750000000000003
 21
-13.07171769238835
 31
0.0
  0
LINE
  5
2DB7
330
2D6F
100
AcDbEntity
  8
0
100
AcDbLine
 10
2.126524613390194
 20
-13.17529961895551
 30
0.0
 11
-2.126524613390194
 21
-13.17529961895551
 31
0.0
  0
LINE
  5
2DB8
330
2D6F
100
AcDbEntity
  8
0
100
AcDbLine
 10
2.191623175793066
 20
-13.31178256050985
 30
0.0
 11
-2.191623175793066
 21
-13.31178256050985
 31
0.0
  0
LINE
  5
2DB9
330
2D6F
100
AcDbEntity
  8
0
100
AcDbLine
 10
1.750000000000002
 20
-11.82171769238835
 30
0.0
 11
-1.750000000000003
 21
-11.82171769238835
 31
0.0
  0
LINE
  5
2DBA
330
2D6F
100
AcDbEntity
  8
0
100
AcDbLine
 10
2.126524613390194
 20
-11.92529961895551
 30
0.0
 11
-2.126524613390194
 21
-11.92529961895551
 31
0.0
  0
LINE
  5
2DBB
330
2D6F
100
AcDbEntity
  8
0
100
AcDbLine
 10
2.191623175793066
 20
-12.06178256050985
 30
0.0
 11
-2.191623175793066
 21
-12.06178256050985
 31
0.0
  0
LINE
  5
2DBC
330
2D6F
100
AcDbEntity
  8
0
100
AcDbLine
 10
1.749999999999997
 20
-10.57171769238835
 30
0.0
 11
-1.749999999999998
 21
-10.57171769238835
 31
0.0
  0
LINE
  5
2DBD
330
2D6F
100
AcDbEntity
  8
0
100
AcDbLine
 10
2.126524613390194
 20
-10.67529961895551
 30
0.0
 11
-2.126524613390194
 21
-10.67529961895551
 31
0.0
  0
LINE
  5
2DBE
330
2D6F
100
AcDbEntity
  8
0
100
AcDbLine
 10
2.191623175793066
 20
-10.81178256050985
 30
0.0
 11
-2.191623175793066
 21
-10.81178256050985
 31
0.0
  0
LINE
  5
2DBF
330
2D6F
100
AcDbEntity
  8
0
100
AcDbLine
 10
1.750000000000001
 20
-33.07171769238836
 30
0.0
 11
2.126524613390193
 21
-33.17529961895552
 31
0.0
  0
LINE
  5
2DC0
330
2D6F
100
AcDbEntity
  8
0
100
AcDbLine
 10
-1.750000000000001
 20
-33.07171769238836
 30
0.0
 11
-2.126524613390194
 21
-33.17529961895552
 31
0.0
  0
ARC
  5
2DC1
330
2D6F
100
AcDbEntity
  8
0
100
AcDbCircle
 10
2.1
 20
-33.27171769238835
 30
0.0
 40
0.1
100
AcDbArc
 50
336.3812630634754
 51
74.61842137712794
  0
ARC
  5
2DC2
330
2D6F
100
AcDbEntity
  8
0
100
AcDbCircle
 10
-2.1
 20
-33.27171769238835
 30
0.0
 40
0.1
100
AcDbArc
 50
105.381578622872
 51
203.6187369365246
  0
LINE
  5
2DC3
330
2D6F
100
AcDbEntity
  8
0
100
AcDbLine
 10
-1.750000000000002
 20
-34.32171769238836
 30
0.0
 11
-2.191623175793065
 21
-33.31178256050986
 31
0.0
  0
LINE
  5
2DC4
330
2D6F
100
AcDbEntity
  8
0
100
AcDbLine
 10
1.750000000000002
 20
-34.32171769238836
 30
0.0
 11
2.191623175793064
 21
-33.31178256050986
 31
0.0
  0
LINE
  5
2DC5
330
2D6F
100
AcDbEntity
  8
0
100
AcDbLine
 10
1.750000000000001
 20
-31.82171769238836
 30
0.0
 11
2.126524613390193
 21
-31.92529961895552
 31
0.0
  0
LINE
  5
2DC6
330
2D6F
100
AcDbEntity
  8
0
100
AcDbLine
 10
-1.750000000000001
 20
-31.82171769238836
 30
0.0
 11
-2.126524613390194
 21
-31.92529961895552
 31
0.0
  0
ARC
  5
2DC7
330
2D6F
100
AcDbEntity
  8
0
100
AcDbCircle
 10
2.1
 20
-32.02171769238835
 30
0.0
 40
0.1
100
AcDbArc
 50
336.3812630634754
 51
74.61842137712794
  0
ARC
  5
2DC8
330
2D6F
100
AcDbEntity
  8
0
100
AcDbCircle
 10
-2.1
 20
-32.02171769238835
 30
0.0
 40
0.1
100
AcDbArc
 50
105.381578622872
 51
203.6187369365246
  0
LINE
  5
2DC9
330
2D6F
100
AcDbEntity
  8
0
100
AcDbLine
 10
-1.750000000000002
 20
-33.07171769238836
 30
0.0
 11
-2.191623175793065
 21
-32.06178256050986
 31
0.0
  0
LINE
  5
2DCA
330
2D6F
100
AcDbEntity
  8
0
100
AcDbLine
 10
1.750000000000002
 20
-33.07171769238836
 30
0.0
 11
2.191623175793064
 21
-32.06178256050986
 31
0.0
  0
LINE
  5
2DCB
330
2D6F
100
AcDbEntity
  8
0
100
AcDbLine
 10
1.750000000000001
 20
-30.57171769238836
 30
0.0
 11
2.126524613390193
 21
-30.67529961895552
 31
0.0
  0
LINE
  5
2DCC
330
2D6F
100
AcDbEntity
  8
0
100
AcDbLine
 10
-1.750000000000001
 20
-30.57171769238836
 30
0.0
 11
-2.126524613390194
 21
-30.67529961895552
 31
0.0
  0
ARC
  5
2DCD
330
2D6F
100
AcDbEntity
  8
0
100
AcDbCircle
 10
2.1
 20
-30.77171769238835
 30
0.0
 40
0.1
100
AcDbArc
 50
336.3812630634754
 51
74.61842137712794
  0
ARC
  5
2DCE
330
2D6F
100
AcDbEntity
  8
0
100
AcDbCircle
 10
-2.1
 20
-30.77171769238835
 30
0.0
 40
0.1
100
AcDbArc
 50
105.381578622872
 51
203.6187369365246
  0
LINE
  5
2DCF
330
2D6F
100
AcDbEntity
  8
0
100
AcDbLine
 10
-1.750000000000002
 20
-31.82171769238835
 30
0.0
 11
-2.191623175793065
 21
-30.81178256050986
 31
0.0
  0
LINE
  5
2DD0
330
2D6F
100
AcDbEntity
  8
0
100
AcDbLine
 10
1.750000000000002
 20
-31.82171769238835
 30
0.0
 11
2.191623175793064
 21
-30.81178256050986
 31
0.0
  0
LINE
  5
2DD1
330
2D6F
100
AcDbEntity
  8
0
100
AcDbLine
 10
1.750000000000001
 20
-29.32171769238836
 30
0.0
 11
2.126524613390193
 21
-29.42529961895552
 31
0.0
  0
LINE
  5
2DD2
330
2D6F
100
AcDbEntity
  8
0
100
AcDbLine
 10
-1.750000000000001
 20
-29.32171769238836
 30
0.0
 11
-2.126524613390194
 21
-29.42529961895552
 31
0.0
  0
ARC
  5
2DD3
330
2D6F
100
AcDbEntity
  8
0
100
AcDbCircle
 10
2.1
 20
-29.52171769238835
 30
0.0
 40
0.1
100
AcDbArc
 50
336.3812630634754
 51
74.61842137712794
  0
ARC
  5
2DD4
330
2D6F
100
AcDbEntity
  8
0
100
AcDbCircle
 10
-2.1
 20
-29.52171769238835
 30
0.0
 40
0.1
100
AcDbArc
 50
105.381578622872
 51
203.6187369365246
  0
LINE
  5
2DD5
330
2D6F
100
AcDbEntity
  8
0
100
AcDbLine
 10
-1.750000000000002
 20
-30.57171769238835
 30
0.0
 11
-2.191623175793065
 21
-29.56178256050986
 31
0.0
  0
LINE
  5
2DD6
330
2D6F
100
AcDbEntity
  8
0
100
AcDbLine
 10
1.750000000000002
 20
-30.57171769238835
 30
0.0
 11
2.191623175793064
 21
-29.56178256050986
 31
0.0
  0
LINE
  5
2DD7
330
2D6F
100
AcDbEntity
  8
0
100
AcDbLine
 10
1.750000000000001
 20
-28.07171769238836
 30
0.0
 11
2.126524613390193
 21
-28.17529961895552
 31
0.0
  0
LINE
  5
2DD8
330
2D6F
100
AcDbEntity
  8
0
100
AcDbLine
 10
-1.750000000000001
 20
-28.07171769238836
 30
0.0
 11
-2.126524613390194
 21
-28.17529961895552
 31
0.0
  0
ARC
  5
2DD9
330
2D6F
100
AcDbEntity
  8
0
100
AcDbCircle
 10
2.1
 20
-28.27171769238835
 30
0.0
 40
0.1
100
AcDbArc
 50
336.3812630634754
 51
74.61842137712794
  0
ARC
  5
2DDA
330
2D6F
100
AcDbEntity
  8
0
100
AcDbCircle
 10
-2.1
 20
-28.27171769238835
 30
0.0
 40
0.1
100
AcDbArc
 50
105.381578622872
 51
203.6187369365246
  0
LINE
  5
2DDB
330
2D6F
100
AcDbEntity
  8
0
100
AcDbLine
 10
-1.750000000000002
 20
-29.32171769238835
 30
0.0
 11
-2.191623175793065
 21
-28.31178256050986
 31
0.0
  0
LINE
  5
2DDC
330
2D6F
100
AcDbEntity
  8
0
100
AcDbLine
 10
1.750000000000002
 20
-29.32171769238835
 30
0.0
 11
2.191623175793064
 21
-28.31178256050986
 31
0.0
  0
LINE
  5
2DDD
330
2D6F
100
AcDbEntity
  8
0
100
AcDbLine
 10
1.750000000000001
 20
-26.82171769238836
 30
0.0
 11
2.126524613390193
 21
-26.92529961895552
 31
0.0
  0
LINE
  5
2DDE
330
2D6F
100
AcDbEntity
  8
0
100
AcDbLine
 10
-1.750000000000001
 20
-26.82171769238836
 30
0.0
 11
-2.126524613390194
 21
-26.92529961895552
 31
0.0
  0
ARC
  5
2DDF
330
2D6F
100
AcDbEntity
  8
0
100
AcDbCircle
 10
2.1
 20
-27.02171769238835
 30
0.0
 40
0.1
100
AcDbArc
 50
336.3812630634754
 51
74.61842137712794
  0
ARC
  5
2DE0
330
2D6F
100
AcDbEntity
  8
0
100
AcDbCircle
 10
-2.1
 20
-27.02171769238835
 30
0.0
 40
0.1
100
AcDbArc
 50
105.381578622872
 51
203.6187369365246
  0
LINE
  5
2DE1
330
2D6F
100
AcDbEntity
  8
0
100
AcDbLine
 10
-1.750000000000002
 20
-28.07171769238835
 30
0.0
 11
-2.191623175793065
 21
-27.06178256050986
 31
0.0
  0
LINE
  5
2DE2
330
2D6F
100
AcDbEntity
  8
0
100
AcDbLine
 10
1.750000000000002
 20
-28.07171769238835
 30
0.0
 11
2.191623175793064
 21
-27.06178256050986
 31
0.0
  0
LINE
  5
2DE3
330
2D6F
100
AcDbEntity
  8
0
100
AcDbLine
 10
1.750000000000001
 20
-25.57171769238836
 30
0.0
 11
2.126524613390193
 21
-25.67529961895552
 31
0.0
  0
LINE
  5
2DE4
330
2D6F
100
AcDbEntity
  8
0
100
AcDbLine
 10
-1.750000000000001
 20
-25.57171769238836
 30
0.0
 11
-2.126524613390194
 21
-25.67529961895552
 31
0.0
  0
ARC
  5
2DE5
330
2D6F
100
AcDbEntity
  8
0
100
AcDbCircle
 10
2.1
 20
-25.77171769238835
 30
0.0
 40
0.1
100
AcDbArc
 50
336.3812630634754
 51
74.61842137712794
  0
ARC
  5
2DE6
330
2D6F
100
AcDbEntity
  8
0
100
AcDbCircle
 10
-2.1
 20
-25.77171769238835
 30
0.0
 40
0.1
100
AcDbArc
 50
105.381578622872
 51
203.6187369365246
  0
LINE
  5
2DE7
330
2D6F
100
AcDbEntity
  8
0
100
AcDbLine
 10
-1.750000000000002
 20
-26.82171769238835
 30
0.0
 11
-2.191623175793065
 21
-25.81178256050986
 31
0.0
  0
LINE
  5
2DE8
330
2D6F
100
AcDbEntity
  8
0
100
AcDbLine
 10
1.750000000000002
 20
-26.82171769238835
 30
0.0
 11
2.191623175793064
 21
-25.81178256050986
 31
0.0
  0
LINE
  5
2DE9
330
2D6F
100
AcDbEntity
  8
0
100
AcDbLine
 10
1.750000000000001
 20
-24.32171769238836
 30
0.0
 11
2.126524613390193
 21
-24.42529961895552
 31
0.0
  0
LINE
  5
2DEA
330
2D6F
100
AcDbEntity
  8
0
100
AcDbLine
 10
-1.750000000000001
 20
-24.32171769238836
 30
0.0
 11
-2.126524613390194
 21
-24.42529961895552
 31
0.0
  0
ARC
  5
2DEB
330
2D6F
100
AcDbEntity
  8
0
100
AcDbCircle
 10
2.1
 20
-24.52171769238835
 30
0.0
 40
0.1
100
AcDbArc
 50
336.3812630634754
 51
74.61842137712794
  0
ARC
  5
2DEC
330
2D6F
100
AcDbEntity
  8
0
100
AcDbCircle
 10
-2.1
 20
-24.52171769238835
 30
0.0
 40
0.1
100
AcDbArc
 50
105.381578622872
 51
203.6187369365246
  0
LINE
  5
2DED
330
2D6F
100
AcDbEntity
  8
0
100
AcDbLine
 10
-1.750000000000002
 20
-25.57171769238835
 30
0.0
 11
-2.191623175793065
 21
-24.56178256050986
 31
0.0
  0
LINE
  5
2DEE
330
2D6F
100
AcDbEntity
  8
0
100
AcDbLine
 10
1.750000000000002
 20
-25.57171769238835
 30
0.0
 11
2.191623175793064
 21
-24.56178256050986
 31
0.0
  0
LINE
  5
2DEF
330
2D6F
100
AcDbEntity
  8
0
100
AcDbLine
 10
1.750000000000001
 20
-23.07171769238836
 30
0.0
 11
2.126524613390193
 21
-23.17529961895552
 31
0.0
  0
LINE
  5
2DF0
330
2D6F
100
AcDbEntity
  8
0
100
AcDbLine
 10
-1.750000000000001
 20
-23.07171769238836
 30
0.0
 11
-2.126524613390194
 21
-23.17529961895552
 31
0.0
  0
ARC
  5
2DF1
330
2D6F
100
AcDbEntity
  8
0
100
AcDbCircle
 10
2.1
 20
-23.27171769238835
 30
0.0
 40
0.1
100
AcDbArc
 50
336.3812630634754
 51
74.61842137712794
  0
ARC
  5
2DF2
330
2D6F
100
AcDbEntity
  8
0
100
AcDbCircle
 10
-2.1
 20
-23.27171769238835
 30
0.0
 40
0.1
100
AcDbArc
 50
105.381578622872
 51
203.6187369365246
  0
LINE
  5
2DF3
330
2D6F
100
AcDbEntity
  8
0
100
AcDbLine
 10
-1.750000000000002
 20
-24.32171769238835
 30
0.0
 11
-2.191623175793065
 21
-23.31178256050986
 31
0.0
  0
LINE
  5
2DF4
330
2D6F
100
AcDbEntity
  8
0
100
AcDbLine
 10
1.750000000000002
 20
-24.32171769238835
 30
0.0
 11
2.191623175793064
 21
-23.31178256050986
 31
0.0
  0
LINE
  5
2DF5
330
2D6F
100
AcDbEntity
  8
0
100
AcDbLine
 10
1.750000000000001
 20
-21.82171769238836
 30
0.0
 11
2.126524613390193
 21
-21.92529961895552
 31
0.0
  0
LINE
  5
2DF6
330
2D6F
100
AcDbEntity
  8
0
100
AcDbLine
 10
-1.750000000000001
 20
-21.82171769238836
 30
0.0
 11
-2.126524613390194
 21
-21.92529961895552
 31
0.0
  0
ARC
  5
2DF7
330
2D6F
100
AcDbEntity
  8
0
100
AcDbCircle
 10
2.1
 20
-22.02171769238835
 30
0.0
 40
0.1
100
AcDbArc
 50
336.3812630634754
 51
74.61842137712794
  0
ARC
  5
2DF8
330
2D6F
100
AcDbEntity
  8
0
100
AcDbCircle
 10
-2.1
 20
-22.02171769238835
 30
0.0
 40
0.1
100
AcDbArc
 50
105.381578622872
 51
203.6187369365246
  0
LINE
  5
2DF9
330
2D6F
100
AcDbEntity
  8
0
100
AcDbLine
 10
-1.750000000000002
 20
-23.07171769238835
 30
0.0
 11
-2.191623175793065
 21
-22.06178256050986
 31
0.0
  0
LINE
  5
2DFA
330
2D6F
100
AcDbEntity
  8
0
100
AcDbLine
 10
1.750000000000002
 20
-23.07171769238835
 30
0.0
 11
2.191623175793064
 21
-22.06178256050986
 31
0.0
  0
LINE
  5
2DFB
330
2D6F
100
AcDbEntity
  8
0
100
AcDbLine
 10
1.750000000000001
 20
-20.57171769238836
 30
0.0
 11
2.126524613390193
 21
-20.67529961895552
 31
0.0
  0
LINE
  5
2DFC
330
2D6F
100
AcDbEntity
  8
0
100
AcDbLine
 10
-1.750000000000001
 20
-20.57171769238836
 30
0.0
 11
-2.126524613390194
 21
-20.67529961895552
 31
0.0
  0
ARC
  5
2DFD
330
2D6F
100
AcDbEntity
  8
0
100
AcDbCircle
 10
2.1
 20
-20.77171769238835
 30
0.0
 40
0.1
100
AcDbArc
 50
336.3812630634754
 51
74.61842137712794
  0
ARC
  5
2DFE
330
2D6F
100
AcDbEntity
  8
0
100
AcDbCircle
 10
-2.1
 20
-20.77171769238835
 30
0.0
 40
0.1
100
AcDbArc
 50
105.381578622872
 51
203.6187369365246
  0
LINE
  5
2DFF
330
2D6F
100
AcDbEntity
  8
0
100
AcDbLine
 10
-1.750000000000002
 20
-21.82171769238835
 30
0.0
 11
-2.191623175793065
 21
-20.81178256050986
 31
0.0
  0
LINE
  5
2E00
330
2D6F
100
AcDbEntity
  8
0
100
AcDbLine
 10
1.750000000000002
 20
-21.82171769238835
 30
0.0
 11
2.191623175793064
 21
-20.81178256050986
 31
0.0
  0
LINE
  5
2E01
330
2D6F
100
AcDbEntity
  8
0
100
AcDbLine
 10
1.750000000000002
 20
-19.32171769238835
 30
0.0
 11
2.126524613390194
 21
-19.42529961895551
 31
0.0
  0
LINE
  5
2E02
330
2D6F
100
AcDbEntity
  8
0
100
AcDbLine
 10
-1.750000000000002
 20
-19.32171769238835
 30
0.0
 11
-2.126524613390194
 21
-19.42529961895551
 31
0.0
  0
ARC
  5
2E03
330
2D6F
100
AcDbEntity
  8
0
100
AcDbCircle
 10
2.1
 20
-19.52171769238835
 30
0.0
 40
0.1
100
AcDbArc
 50
336.3812630634768
 51
74.61842137712794
  0
ARC
  5
2E04
330
2D6F
100
AcDbEntity
  8
0
100
AcDbCircle
 10
-2.1
 20
-19.52171769238835
 30
0.0
 40
0.1
100
AcDbArc
 50
105.381578622872
 51
203.6187369365246
  0
LINE
  5
2E05
330
2D6F
100
AcDbEntity
  8
0
100
AcDbLine
 10
-1.750000000000002
 20
-20.57171769238835
 30
0.0
 11
-2.191623175793066
 21
-19.56178256050985
 31
0.0
  0
LINE
  5
2E06
330
2D6F
100
AcDbEntity
  8
0
100
AcDbLine
 10
1.750000000000002
 20
-20.57171769238835
 30
0.0
 11
2.191623175793065
 21
-19.56178256050985
 31
0.0
  0
LINE
  5
2E07
330
2D6F
100
AcDbEntity
  8
0
100
AcDbLine
 10
1.750000000000002
 20
-18.07171769238835
 30
0.0
 11
2.126524613390194
 21
-18.17529961895551
 31
0.0
  0
LINE
  5
2E08
330
2D6F
100
AcDbEntity
  8
0
100
AcDbLine
 10
-1.750000000000002
 20
-18.07171769238835
 30
0.0
 11
-2.126524613390194
 21
-18.17529961895551
 31
0.0
  0
ARC
  5
2E09
330
2D6F
100
AcDbEntity
  8
0
100
AcDbCircle
 10
2.1
 20
-18.27171769238835
 30
0.0
 40
0.1
100
AcDbArc
 50
336.3812630634768
 51
74.61842137712794
  0
ARC
  5
2E0A
330
2D6F
100
AcDbEntity
  8
0
100
AcDbCircle
 10
-2.1
 20
-18.27171769238835
 30
0.0
 40
0.1
100
AcDbArc
 50
105.381578622872
 51
203.6187369365246
  0
LINE
  5
2E0B
330
2D6F
100
AcDbEntity
  8
0
100
AcDbLine
 10
-1.750000000000002
 20
-19.32171769238835
 30
0.0
 11
-2.191623175793066
 21
-18.31178256050985
 31
0.0
  0
LINE
  5
2E0C
330
2D6F
100
AcDbEntity
  8
0
100
AcDbLine
 10
1.750000000000002
 20
-19.32171769238835
 30
0.0
 11
2.191623175793065
 21
-18.31178256050985
 31
0.0
  0
LINE
  5
2E0D
330
2D6F
100
AcDbEntity
  8
0
100
AcDbLine
 10
1.750000000000002
 20
-16.82171769238835
 30
0.0
 11
2.126524613390194
 21
-16.92529961895551
 31
0.0
  0
LINE
  5
2E0E
330
2D6F
100
AcDbEntity
  8
0
100
AcDbLine
 10
-1.750000000000002
 20
-16.82171769238835
 30
0.0
 11
-2.126524613390194
 21
-16.92529961895551
 31
0.0
  0
ARC
  5
2E0F
330
2D6F
100
AcDbEntity
  8
0
100
AcDbCircle
 10
2.1
 20
-17.02171769238835
 30
0.0
 40
0.1
100
AcDbArc
 50
336.3812630634768
 51
74.61842137712794
  0
ARC
  5
2E10
330
2D6F
100
AcDbEntity
  8
0
100
AcDbCircle
 10
-2.1
 20
-17.02171769238835
 30
0.0
 40
0.1
100
AcDbArc
 50
105.381578622872
 51
203.6187369365246
  0
LINE
  5
2E11
330
2D6F
100
AcDbEntity
  8
0
100
AcDbLine
 10
-1.750000000000002
 20
-18.07171769238835
 30
0.0
 11
-2.191623175793066
 21
-17.06178256050985
 31
0.0
  0
LINE
  5
2E12
330
2D6F
100
AcDbEntity
  8
0
100
AcDbLine
 10
1.750000000000002
 20
-18.07171769238835
 30
0.0
 11
2.191623175793065
 21
-17.06178256050985
 31
0.0
  0
LINE
  5
2E13
330
2D6F
100
AcDbEntity
  8
0
100
AcDbLine
 10
1.750000000000002
 20
-15.57171769238835
 30
0.0
 11
2.126524613390194
 21
-15.67529961895551
 31
0.0
  0
LINE
  5
2E14
330
2D6F
100
AcDbEntity
  8
0
100
AcDbLine
 10
-1.750000000000002
 20
-15.57171769238835
 30
0.0
 11
-2.126524613390194
 21
-15.67529961895551
 31
0.0
  0
ARC
  5
2E15
330
2D6F
100
AcDbEntity
  8
0
100
AcDbCircle
 10
2.1
 20
-15.77171769238835
 30
0.0
 40
0.1
100
AcDbArc
 50
336.3812630634768
 51
74.61842137712794
  0
ARC
  5
2E16
330
2D6F
100
AcDbEntity
  8
0
100
AcDbCircle
 10
-2.1
 20
-15.77171769238835
 30
0.0
 40
0.1
100
AcDbArc
 50
105.381578622872
 51
203.6187369365246
  0
LINE
  5
2E17
330
2D6F
100
AcDbEntity
  8
0
100
AcDbLine
 10
-1.750000000000002
 20
-16.82171769238835
 30
0.0
 11
-2.191623175793066
 21
-15.81178256050985
 31
0.0
  0
LINE
  5
2E18
330
2D6F
100
AcDbEntity
  8
0
100
AcDbLine
 10
1.750000000000002
 20
-16.82171769238835
 30
0.0
 11
2.191623175793065
 21
-15.81178256050985
 31
0.0
  0
LINE
  5
2E19
330
2D6F
100
AcDbEntity
  8
0
100
AcDbLine
 10
1.750000000000002
 20
-14.32171769238835
 30
0.0
 11
2.126524613390194
 21
-14.42529961895551
 31
0.0
  0
LINE
  5
2E1A
330
2D6F
100
AcDbEntity
  8
0
100
AcDbLine
 10
-1.750000000000002
 20
-14.32171769238835
 30
0.0
 11
-2.126524613390194
 21
-14.42529961895551
 31
0.0
  0
ARC
  5
2E1B
330
2D6F
100
AcDbEntity
  8
0
100
AcDbCircle
 10
2.1
 20
-14.52171769238835
 30
0.0
 40
0.1
100
AcDbArc
 50
336.3812630634768
 51
74.61842137712794
  0
ARC
  5
2E1C
330
2D6F
100
AcDbEntity
  8
0
100
AcDbCircle
 10
-2.1
 20
-14.52171769238835
 30
0.0
 40
0.1
100
AcDbArc
 50
105.381578622872
 51
203.6187369365246
  0
LINE
  5
2E1D
330
2D6F
100
AcDbEntity
  8
0
100
AcDbLine
 10
-1.750000000000002
 20
-15.57171769238835
 30
0.0
 11
-2.191623175793066
 21
-14.56178256050985
 31
0.0
  0
LINE
  5
2E1E
330
2D6F
100
AcDbEntity
  8
0
100
AcDbLine
 10
1.750000000000002
 20
-15.57171769238835
 30
0.0
 11
2.191623175793065
 21
-14.56178256050985
 31
0.0
  0
LINE
  5
2E1F
330
2D6F
100
AcDbEntity
  8
0
100
AcDbLine
 10
1.750000000000002
 20
-13.07171769238835
 30
0.0
 11
2.126524613390194
 21
-13.17529961895551
 31
0.0
  0
LINE
  5
2E20
330
2D6F
100
AcDbEntity
  8
0
100
AcDbLine
 10
-1.750000000000002
 20
-13.07171769238835
 30
0.0
 11
-2.126524613390194
 21
-13.17529961895551
 31
0.0
  0
ARC
  5
2E21
330
2D6F
100
AcDbEntity
  8
0
100
AcDbCircle
 10
2.1
 20
-13.27171769238835
 30
0.0
 40
0.1
100
AcDbArc
 50
336.3812630634768
 51
74.61842137712794
  0
ARC
  5
2E22
330
2D6F
100
AcDbEntity
  8
0
100
AcDbCircle
 10
-2.1
 20
-13.27171769238835
 30
0.0
 40
0.1
100
AcDbArc
 50
105.381578622872
 51
203.6187369365246
  0
LINE
  5
2E23
330
2D6F
100
AcDbEntity
  8
0
100
AcDbLine
 10
-1.750000000000002
 20
-14.32171769238835
 30
0.0
 11
-2.191623175793066
 21
-13.31178256050985
 31
0.0
  0
LINE
  5
2E24
330
2D6F
100
AcDbEntity
  8
0
100
AcDbLine
 10
1.750000000000002
 20
-14.32171769238835
 30
0.0
 11
2.191623175793065
 21
-13.31178256050985
 31
0.0
  0
LINE
  5
2E25
330
2D6F
100
AcDbEntity
  8
0
100
AcDbLine
 10
1.750000000000002
 20
-11.82171769238835
 30
0.0
 11
2.126524613390194
 21
-11.92529961895551
 31
0.0
  0
LINE
  5
2E26
330
2D6F
100
AcDbEntity
  8
0
100
AcDbLine
 10
-1.750000000000002
 20
-11.82171769238835
 30
0.0
 11
-2.126524613390194
 21
-11.92529961895551
 31
0.0
  0
ARC
  5
2E27
330
2D6F
100
AcDbEntity
  8
0
100
AcDbCircle
 10
2.1
 20
-12.02171769238835
 30
0.0
 40
0.1
100
AcDbArc
 50
336.3812630634768
 51
74.61842137712794
  0
ARC
  5
2E28
330
2D6F
100
AcDbEntity
  8
0
100
AcDbCircle
 10
-2.1
 20
-12.02171769238835
 30
0.0
 40
0.1
100
AcDbArc
 50
105.381578622872
 51
203.6187369365246
  0
LINE
  5
2E29
330
2D6F
100
AcDbEntity
  8
0
100
AcDbLine
 10
-1.750000000000002
 20
-13.07171769238835
 30
0.0
 11
-2.191623175793066
 21
-12.06178256050985
 31
0.0
  0
LINE
  5
2E2A
330
2D6F
100
AcDbEntity
  8
0
100
AcDbLine
 10
1.750000000000002
 20
-13.07171769238835
 30
0.0
 11
2.191623175793065
 21
-12.06178256050985
 31
0.0
  0
LINE
  5
2E2B
330
2D6F
100
AcDbEntity
  8
0
100
AcDbLine
 10
1.749999999999997
 20
-10.57171769238835
 30
0.0
 11
2.126524613390194
 21
-10.67529961895551
 31
0.0
  0
LINE
  5
2E2C
330
2D6F
100
AcDbEntity
  8
0
100
AcDbLine
 10
-1.749999999999998
 20
-10.57171769238835
 30
0.0
 11
-2.126524613390194
 21
-10.67529961895551
 31
0.0
  0
ARC
  5
2E2D
330
2D6F
100
AcDbEntity
  8
0
100
AcDbCircle
 10
2.1
 20
-10.77171769238835
 30
0.0
 40
0.1
100
AcDbArc
 50
336.3812630634768
 51
74.61842137712794
  0
ARC
  5
2E2E
330
2D6F
100
AcDbEntity
  8
0
100
AcDbCircle
 10
-2.1
 20
-10.77171769238835
 30
0.0
 40
0.1
100
AcDbArc
 50
105.381578622872
 51
203.6187369365246
  0
LINE
  5
2E2F
330
2D6F
100
AcDbEntity
  8
0
100
AcDbLine
 10
-1.750000000000002
 20
-11.82171769238835
 30
0.0
 11
-2.191623175793066
 21
-10.81178256050985
 31
0.0
  0
LINE
  5
2E30
330
2D6F
100
AcDbEntity
  8
0
100
AcDbLine
 10
1.750000000000002
 20
-11.82171769238835
 30
0.0
 11
2.191623175793065
 21
-10.81178256050985
 31
0.0
  0
LINE
  5
2E31
330
2D6F
100
AcDbEntity
  8
0
100
AcDbLine
 10
2.166725741731043
 20
-34.32171769238836
 30
0.0
 11
1.555634918610403
 21
-36.00067593014825
 31
0.0
  0
LINE
  5
2E32
330
2D6F
100
AcDbEntity
  8
0
100
AcDbLine
 10
1.999999999999995
 20
-10.0
 30
0.0
 11
-1.999999999999987
 21
-10.0
 31
0.0
  0
LINE
  5
2E33
330
2D6F
100
AcDbEntity
  8
0
100
AcDbLine
 10
-1.749999999999998
 20
-10.57171769238835
 30
0.0
 11
-1.999999999999994
 21
-10.0
 31
0.0
  0
LINE
  5
2E34
330
2D6F
100
AcDbEntity
  8
0
100
AcDbLine
 10
1.749999999999997
 20
-10.57171769238835
 30
0.0
 11
1.999999999999996
 21
-9.999999999999998
 31
0.0
  0
LINE
  5
2E35
330
2D6F
100
AcDbEntity
  8
0
100
AcDbLine
 10
1.999999999999997
 20
-3.5
 30
0.0
 11
-1.999999999999987
 21
-3.5
 31
0.0
  0
LINE
  5
2E36
330
2D6F
100
AcDbEntity
  8
0
100
AcDbLine
 10
-3.500000000000004
 20
0.5000000000000011
 30
0.0
 11
-3.500000000000004
 21
1.250000000000001
 31
0.0
  0
LINE
  5
2E37
330
2D6F
100
AcDbEntity
  8
0
100
AcDbLine
 10
3.500000000000015
 20
0.5000000000000001
 30
0.0
 11
3.500000000000015
 21
1.25
 31
0.0
  0
LINE
  5
2E38
330
2D6F
100
AcDbEntity
  8
0
100
AcDbLine
 10
-1.999999999999987
 20
-10.0
 30
0.0
 11
-1.999999999999986
 21
-3.5
 31
0.0
  0
LINE
  5
2E39
330
2D6F
100
AcDbEntity
  8
0
100
AcDbLine
 10
1.999999999999995
 20
-10.0
 30
0.0
 11
1.999999999999996
 21
-3.5
 31
0.0
  0
LINE
  5
2E3A
330
2D6F
100
AcDbEntity
  8
0
100
AcDbLine
 10
-1.999999999999987
 20
-3.499999999999999
 30
0.0
 11
-2.775931319250276
 21
0.0
 31
0.0
  0
LINE
  5
2E3B
330
2D6F
100
AcDbEntity
  8
0
100
AcDbLine
 10
1.999999999999997
 20
-3.5
 30
0.0
 11
2.775931319250287
 21
0.0
 31
0.0
  0
ENDBLK
  5
2D71
330
2D6F
100
AcDbEntity
  8
0
100
AcDbBlockEnd
  0
BLOCK
  5
2FD7
330
2FD6
100
AcDbEntity
  8
0
100
AcDbBlockBegin
  2
CNA40X40S-Top
 70
     0
 10
0.0
 20
0.0
 30
0.0
  3
CNA40X40S-Top
  1

  0
LINE
  5
2FD9
330
2FD6
100
AcDbEntity
  8
0
100
AcDbLine
 10
-1.15405824279582
 20
1.279668714579575
 30
0.0
 11
-1.623951554150629
 21
0.6028394193921136
 31
0.0
  0
LINE
  5
2FDA
330
2FD6
100
AcDbEntity
  8
0
100
AcDbLine
 10
-1.623951554150629
 20
0.6028394193921136
 30
0.0
 11
-1.15405824279582
 21
0.6028394193921136
 31
0.0
  0
LINE
  5
2FDB
330
2FD6
100
AcDbEntity
  8
0
100
AcDbLine
 10
-0.7676253006110877
 20
0.6028394193921136
 30
0.0
 11
-0.7676253006110877
 21
0.4336320955952481
 31
0.0
  0
LINE
  5
2FDC
330
2FD6
100
AcDbEntity
  8
0
100
AcDbLine
 10
-0.7676253006110877
 20
0.4336320955952481
 30
0.0
 11
-0.9699881135303115
 21
0.4336320955952481
 31
0.0
  0
LINE
  5
2FDD
330
2FD6
100
AcDbEntity
  8
0
100
AcDbLine
 10
-0.9699881135303115
 20
0.4336320955952481
 30
0.0
 11
-0.9699881135303115
 21
0.0746381788910877
 31
0.0
  0
LINE
  5
2FDE
330
2FD6
100
AcDbEntity
  8
0
100
AcDbLine
 10
-0.9699881135303115
 20
0.0746381788910877
 30
0.0
 11
-1.15405824279582
 21
0.0746381788910877
 31
0.0
  0
LINE
  5
2FDF
330
2FD6
100
AcDbEntity
  8
0
100
AcDbLine
 10
-1.15405824279582
 20
0.0746381788910877
 30
0.0
 11
-1.15405824279582
 21
0.4336320955952481
 31
0.0
  0
LINE
  5
2FE0
330
2FD6
100
AcDbEntity
  8
0
100
AcDbLine
 10
-1.15405824279582
 20
0.4336320955952481
 30
0.0
 11
-1.804591805231066
 21
0.4336320955952481
 31
0.0
  0
LINE
  5
2FE1
330
2FD6
100
AcDbEntity
  8
0
100
AcDbLine
 10
-1.15405824279582
 20
0.6028394193921136
 30
0.0
 11
-1.15405824279582
 21
1.279668714579575
 31
0.0
  0
LINE
  5
2FE2
330
2FD6
100
AcDbEntity
  8
0
100
AcDbLine
 10
-1.804591805231066
 20
0.4336320955952481
 30
0.0
 11
-1.804591805231066
 21
0.6028394193921136
 31
0.0
  0
LINE
  5
2FE3
330
2FD6
100
AcDbEntity
  8
0
100
AcDbLine
 10
-1.804591805231066
 20
0.6028394193921136
 30
0.0
 11
-1.120902753673461
 21
1.574638238495732
 31
0.0
  0
LINE
  5
2FE4
330
2FD6
100
AcDbEntity
  8
0
100
AcDbLine
 10
-1.120902753673461
 20
1.574638238495732
 30
0.0
 11
-0.9699881135303115
 21
1.574638238495732
 31
0.0
  0
LINE
  5
2FE5
330
2FD6
100
AcDbEntity
  8
0
100
AcDbLine
 10
-0.9699881135303115
 20
1.574638238495732
 30
0.0
 11
-0.9699881135303115
 21
0.6028394193921136
 31
0.0
  0
LINE
  5
2FE6
330
2FD6
100
AcDbEntity
  8
0
100
AcDbLine
 10
-0.9699881135303115
 20
0.6028394193921136
 30
0.0
 11
-0.7676253006110877
 21
0.6028394193921136
 31
0.0
  0
SPLINE
  5
2FE7
330
2FD6
100
AcDbEntity
  8
0
100
AcDbSpline
210
0.0
220
0.0
230
1.0
 70
     8
 71
     2
 72
     6
 73
     3
 74
     0
 42
0.000000001
 43
0.0000000001
 40
0.0
 40
0.0
 40
0.0
 40
1.0
 40
1.0
 40
1.0
 10
-0.0896527126952686
 20
0.0494857388672293
 30
0.0
 10
-0.3068783310831364
 20
0.0494857388672293
 30
0.0
 10
-0.4303539457457138
 20
0.2038302571954512
 30
0.0
  0
SPLINE
  5
2FE8
330
2FD6
100
AcDbEntity
  8
0
100
AcDbSpline
210
0.0
220
0.0
230
1.0
 70
     8
 71
     2
 72
     8
 73
     5
 74
     0
 42
0.000000001
 43
0.0000000001
 40
0.0
 40
0.0
 40
0.0
 40
1.0
 40
2.0
 40
3.0
 40
3.0
 40
3.0
 10
0.3985332823132553
 20
0.8143485741381953
 30
0.0
 10
0.3985332823132553
 20
0.5502479538876825
 30
0.0
 10
0.2899204731193215
 20
0.2255528190342379
 30
0.0
 10
0.0738381474598109
 20
0.0494857388672293
 30
0.0
 10
-0.0896527126952686
 20
0.0494857388672293
 30
0.0
  0
SPLINE
  5
2FE9
330
2FD6
100
AcDbEntity
  8
0
100
AcDbSpline
210
0.0
220
0.0
230
1.0
 70
     8
 71
     2
 72
     7
 73
     4
 74
     0
 42
0.000000001
 43
0.0000000001
 40
0.0
 40
0.0
 40
0.0
 40
1.0
 40
2.0
 40
2.0
 40
2.0
 10
-0.3891954075248546
 20
0.8143485741381953
 30
0.0
 10
-0.3891954075248546
 20
0.4439217301504629
 30
0.0
 10
-0.2165582055429177
 20
0.2004003790103796
 30
0.0
 10
-0.0896527126952686
 20
0.2004003790103796
 30
0.0
  0
SPLINE
  5
2FEA
330
2FD6
100
AcDbEntity
  8
0
100
AcDbSpline
210
0.0
220
0.0
230
1.0
 70
     8
 71
     2
 72
     7
 73
     4
 74
     0
 42
0.000000001
 43
0.0000000001
 40
0.0
 40
0.0
 40
0.0
 40
1.0
 40
2.0
 40
2.0
 40
2.0
 10
-0.0896527126952686
 20
0.2004003790103796
 30
0.0
 10
0.0361094874240233
 20
0.2004003790103796
 30
0.0
 10
0.2087466894059603
 20
0.4450650228788201
 30
0.0
 10
0.2087466894059603
 20
0.8143485741381953
 30
0.0
  0
SPLINE
  5
2FEB
330
2FD6
100
AcDbEntity
  8
0
100
AcDbSpline
210
0.0
220
0.0
230
1.0
 70
     8
 71
     2
 72
     9
 73
     6
 74
     0
 42
0.000000001
 43
0.0000000001
 40
0.0
 40
0.0
 40
0.0
 40
1.0
 40
2.0
 40
3.0
 40
4.0
 40
4.0
 40
4.0
 10
-0.0896527126952686
 20
1.580354702137518
 30
0.0
 10
0.0303930237822373
 20
1.580354702137518
 30
0.0
 10
0.2133198603193891
 20
1.483174820227156
 30
0.0
 10
0.3310790113401806
 20
1.300247983690004
 30
0.0
 10
0.3985332823132553
 20
1.037290656167848
 30
0.0
 10
0.3985332823132553
 20
0.8143485741381953
 30
0.0
  0
SPLINE
  5
2FEC
330
2FD6
100
AcDbEntity
  8
0
100
AcDbSpline
210
0.0
220
0.0
230
1.0
 70
     8
 71
     2
 72
     8
 73
     5
 74
     0
 42
0.000000001
 43
0.0000000001
 40
0.0
 40
0.0
 40
0.0
 40
1.0
 40
2.0
 40
3.0
 40
3.0
 40
3.0
 10
-0.5789820004321497
 20
0.8143485741381953
 30
0.0
 10
-0.5789820004321497
 20
1.080735779845422
 30
0.0
 10
-0.4692258985098585
 20
1.405430914698866
 30
0.0
 10
-0.2542868655787052
 20
1.580354702137518
 30
0.0
 10
-0.0896527126952686
 20
1.580354702137518
 30
0.0
  0
SPLINE
  5
2FED
330
2FD6
100
AcDbEntity
  8
0
100
AcDbSpline
210
0.0
220
0.0
230
1.0
 70
     8
 71
     2
 72
     6
 73
     3
 74
     0
 42
0.000000001
 43
0.0000000001
 40
0.0
 40
0.0
 40
0.0
 40
1.0
 40
1.0
 40
1.0
 10
-0.4303539457457138
 20
0.2038302571954512
 30
0.0
 10
-0.5789820004321497
 20
0.3924735573743889
 30
0.0
 10
-0.5789820004321497
 20
0.8143485741381953
 30
0.0
  0
SPLINE
  5
2FEE
330
2FD6
100
AcDbEntity
  8
0
100
AcDbSpline
210
0.0
220
0.0
230
1.0
 70
     8
 71
     2
 72
     6
 73
     3
 74
     0
 42
0.000000001
 43
0.0000000001
 40
0.0
 40
0.0
 40
0.0
 40
1.0
 40
1.0
 40
1.0
 10
-0.2943021110712072
 20
1.320827252800434
 30
0.0
 10
-0.3891954075248546
 20
1.18363212539757
 30
0.0
 10
-0.3891954075248546
 20
0.8143485741381953
 30
0.0
  0
SPLINE
  5
2FEF
330
2FD6
100
AcDbEntity
  8
0
100
AcDbSpline
210
0.0
220
0.0
230
1.0
 70
     8
 71
     2
 72
     6
 73
     3
 74
     0
 42
0.000000001
 43
0.0000000001
 40
0.0
 40
0.0
 40
0.0
 40
1.0
 40
1.0
 40
1.0
 10
-0.091939298151983
 20
1.42829676926601
 30
0.0
 10
-0.218844790999632
 20
1.42829676926601
 30
0.0
 10
-0.2943021110712072
 20
1.320827252800434
 30
0.0
  0
SPLINE
  5
2FF0
330
2FD6
100
AcDbEntity
  8
0
100
AcDbSpline
210
0.0
220
0.0
230
1.0
 70
     8
 71
     2
 72
     7
 73
     4
 74
     0
 42
0.000000001
 43
0.0000000001
 40
0.0
 40
0.0
 40
0.0
 40
1.0
 40
2.0
 40
2.0
 40
2.0
 10
0.2087466894059603
 20
0.8143485741381953
 30
0.0
 10
0.2087466894059603
 20
1.184775418125927
 30
0.0
 10
0.0361094874240233
 20
1.42829676926601
 30
0.0
 10
-0.091939298151983
 20
1.42829676926601
 30
0.0
  0
CIRCLE
  5
2FF1
330
2FD6
100
AcDbEntity
  8
0
100
AcDbCircle
 10
0.0000000000000056
 20
0.0
 30
0.0
 40
3.250000000000009
  0
CIRCLE
  5
2FF2
330
2FD6
100
AcDbEntity
  8
0
100
AcDbCircle
 10
0.0000000000000056
 20
0.0
 30
0.0
 40
3.500000000000009
  0
LINE
  5
2FF3
330
2FD6
100
AcDbEntity
  8
0
100
AcDbLine
 10
0.2114195845729008
 20
-1.466773692787436
 30
0.0
 11
-0.6755677135348783
 21
-1.466773692787437
 31
0.0
  0
LINE
  5
2FF4
330
2FD6
100
AcDbEntity
  8
0
100
AcDbLine
 10
-0.6755677135348783
 20
-1.466773692787437
 30
0.0
 11
-0.6755677135348783
 21
-1.166773692787436
 31
0.0
  0
LINE
  5
2FF5
330
2FD6
100
AcDbEntity
  8
0
100
AcDbLine
 10
-0.6755677135348783
 20
-1.166773692787436
 30
0.0
 11
0.3846246653297886
 21
-1.166773692787436
 31
0.0
  0
LINE
  5
2FF6
330
2FD6
100
AcDbEntity
  8
0
100
AcDbLine
 10
0.3846246653297886
 20
-1.166773692787436
 30
0.0
 11
0.5578297460866752
 21
-0.8667736927874386
 31
0.0
  0
LINE
  5
2FF7
330
2FD6
100
AcDbEntity
  8
0
100
AcDbLine
 10
0.5578297460866752
 20
-0.8667736927874386
 30
0.0
 11
-0.6755677135348783
 21
-0.8667736927874386
 31
0.0
  0
LINE
  5
2FF8
330
2FD6
100
AcDbEntity
  8
0
100
AcDbLine
 10
-0.6755677135348783
 20
-0.8667736927874386
 30
0.0
 11
-0.6755677135348783
 21
-0.5667736927874369
 31
0.0
  0
LINE
  5
2FF9
330
2FD6
100
AcDbEntity
  8
0
100
AcDbLine
 10
-0.6755677135348783
 20
-0.5667736927874369
 30
0.0
 11
0.731034826843564
 21
-0.5667736927874369
 31
0.0
  0
LINE
  5
2FFA
330
2FD6
100
AcDbEntity
  8
0
100
AcDbLine
 10
0.7310348268435641
 20
-0.5667736927874369
 30
0.0
 11
1.174528475897453
 21
0.2013798402080209
 31
0.0
  0
LINE
  5
2FFB
330
2FD6
100
AcDbEntity
  8
0
100
AcDbLine
 10
1.174528475897453
 20
0.2013798402080209
 30
0.0
 11
1.434336097032785
 21
0.0513798402080214
 31
0.0
  0
LINE
  5
2FFC
330
2FD6
100
AcDbEntity
  8
0
100
AcDbLine
 10
1.434336097032785
 20
0.0513798402080214
 30
0.0
 11
1.077444988357339
 21
-0.5667736927874369
 31
0.0
  0
LINE
  5
2FFD
330
2FD6
100
AcDbEntity
  8
0
100
AcDbLine
 10
1.077444988357339
 20
-0.5667736927874369
 30
0.0
 11
1.964432286465117
 21
-0.5667736927874369
 31
0.0
  0
LINE
  5
2FFE
330
2FD6
100
AcDbEntity
  8
0
100
AcDbLine
 10
1.964432286465117
 20
-0.5667736927874369
 30
0.0
 11
1.964432286465117
 21
-0.8667736927874386
 31
0.0
  0
LINE
  5
2FFF
330
2FD6
100
AcDbEntity
  8
0
100
AcDbLine
 10
1.964432286465117
 20
-0.8667736927874386
 30
0.0
 11
0.9042399076004505
 21
-0.8667736927874386
 31
0.0
  0
LINE
  5
3000
330
2FD6
100
AcDbEntity
  8
0
100
AcDbLine
 10
0.9042399076004505
 20
-0.8667736927874386
 30
0.0
 11
0.7310348268435638
 21
-1.166773692787436
 31
0.0
  0
LINE
  5
3001
330
2FD6
100
AcDbEntity
  8
0
100
AcDbLine
 10
0.7310348268435638
 20
-1.166773692787436
 30
0.0
 11
1.964432286465117
 21
-1.166773692787436
 31
0.0
  0
LINE
  5
3002
330
2FD6
100
AcDbEntity
  8
0
100
AcDbLine
 10
1.964432286465117
 20
-1.166773692787436
 30
0.0
 11
1.964432286465117
 21
-1.466773692787435
 31
0.0
  0
LINE
  5
3003
330
2FD6
100
AcDbEntity
  8
0
100
AcDbLine
 10
1.964432286465117
 20
-1.466773692787435
 30
0.0
 11
0.557829746086676
 21
-1.466773692787436
 31
0.0
  0
LINE
  5
3004
330
2FD6
100
AcDbEntity
  8
0
100
AcDbLine
 10
0.557829746086676
 20
-1.466773692787436
 30
0.0
 11
0.1143360970327862
 21
-2.234927225782894
 31
0.0
  0
LINE
  5
3005
330
2FD6
100
AcDbEntity
  8
0
100
AcDbLine
 10
0.1143360970327862
 20
-2.234927225782894
 30
0.0
 11
-0.1454715241025449
 21
-2.084927225782894
 31
0.0
  0
LINE
  5
3006
330
2FD6
100
AcDbEntity
  8
0
100
AcDbLine
 10
-0.1454715241025449
 20
-2.084927225782894
 30
0.0
 11
0.2114195845729008
 21
-1.466773692787436
 31
0.0
  0
ENDBLK
  5
2FD8
330
2FD6
100
AcDbEntity
  8
0
100
AcDbBlockEnd
  0
BLOCK
  5
3032
330
3031
100
AcDbEntity
  8
0
100
AcDbBlockBegin
  2
CNA40X40S-ISO
 70
     0
 10
0.0
 20
0.0
 30
0.0
  3
CNA40X40S-ISO
  1

  0
LINE
  5
3034
330
3031
100
AcDbEntity
  8
0
100
AcDbLine
 10
-0.6925545688171998
 20
17.40279855831495
 30
0.0
 11
-0.5094182140296272
 21
17.50853238204997
 31
0.0
  0
LINE
  5
3035
330
3031
100
AcDbEntity
  8
0
100
AcDbLine
 10
-0.2596133313289098
 20
17.50246466712589
 30
0.0
 11
-0.1872318921723996
 21
17.46067522374455
 31
0.0
  0
LINE
  5
3036
330
3031
100
AcDbEntity
  8
0
100
AcDbLine
 10
0.3208394381827889
 20
17.96081051754416
 30
0.0
 11
0.3568415254896802
 21
17.94002470274613
 31
0.0
  0
LINE
  5
3037
330
3031
100
AcDbEntity
  8
0
100
AcDbLine
 10
-0.8497672613338401
 20
17.84319019747756
 30
0.0
 11
0.3208394381827889
 21
17.96081051754416
 31
0.0
  0
LINE
  5
3038
330
3031
100
AcDbEntity
  8
0
100
AcDbLine
 10
-0.8987042292983737
 20
17.81493642584991
 30
0.0
 11
-0.8497672613338401
 21
17.84319019747756
 31
0.0
  0
LINE
  5
3039
330
3031
100
AcDbEntity
  8
0
100
AcDbLine
 10
-0.7220353148396225
 20
17.769444123785
 30
0.0
 11
-0.3897705679464357
 21
17.577610982724
 31
0.0
  0
LINE
  5
303A
330
3031
100
AcDbEntity
  8
0
100
AcDbLine
 10
-0.3897705679464357
 20
17.577610982724
 30
0.0
 11
0.0888200163863298
 21
17.85392538542014
 31
0.0
  0
LINE
  5
303B
330
3031
100
AcDbEntity
  8
0
100
AcDbLine
 10
0.08882001638633
 20
17.93557504351292
 30
0.0
 11
-0.7220353148396225
 21
17.85109378187778
 31
0.0
  0
LINE
  5
303C
330
3031
100
AcDbEntity
  8
0
100
AcDbLine
 10
0.0888200163863298
 20
17.85392538542014
 30
0.0
 11
0.08882001638633
 21
17.93557504351292
 31
0.0
  0
LINE
  5
303D
330
3031
100
AcDbEntity
  8
0
100
AcDbLine
 10
-0.7220353148396225
 20
17.769444123785
 30
0.0
 11
-0.7220353148396225
 21
17.85109378187778
 31
0.0
  0
LINE
  5
303E
330
3031
100
AcDbEntity
  8
0
100
AcDbLine
 10
-0.7220353148396225
 20
17.85109378187778
 30
0.0
 11
-0.3897705679464356
 21
17.65926064081678
 31
0.0
  0
LINE
  5
303F
330
3031
100
AcDbEntity
  8
0
100
AcDbLine
 10
-0.3897705679464357
 20
17.577610982724
 30
0.0
 11
-0.3897705679464356
 21
17.65926064081678
 31
0.0
  0
LINE
  5
3040
330
3031
100
AcDbEntity
  8
0
100
AcDbLine
 10
-0.1165212140537417
 20
17.50150005279094
 30
0.0
 11
-0.2361688601369331
 21
17.4324214521169
 31
0.0
  0
LINE
  5
3041
330
3031
100
AcDbEntity
  8
0
100
AcDbLine
 10
-0.2361688601369331
 20
17.4324214521169
 30
0.0
 11
-0.3792609774121011
 21
17.51503572454464
 31
0.0
  0
LINE
  5
3042
330
3031
100
AcDbEntity
  8
0
100
AcDbLine
 10
-0.3792609774121011
 20
17.51503572454464
 30
0.0
 11
-0.6331080103183316
 21
17.36847707176323
 31
0.0
  0
LINE
  5
3043
330
3031
100
AcDbEntity
  8
0
100
AcDbLine
 10
-0.6331080103183316
 20
17.36847707176323
 30
0.0
 11
-0.7632652469358574
 21
17.44362338736134
 31
0.0
  0
LINE
  5
3044
330
3031
100
AcDbEntity
  8
0
100
AcDbLine
 10
-0.7632652469358574
 20
17.44362338736134
 30
0.0
 11
-0.5094182140296271
 21
17.59018204014274
 31
0.0
  0
LINE
  5
3045
330
3031
100
AcDbEntity
  8
0
100
AcDbLine
 10
-0.5094182140296272
 20
17.50853238204997
 30
0.0
 11
-0.5094182140296271
 21
17.59018204014274
 31
0.0
  0
LINE
  5
3046
330
3031
100
AcDbEntity
  8
0
100
AcDbLine
 10
-0.5094182140296271
 20
17.59018204014274
 30
0.0
 11
-0.9694149074170315
 21
17.8557612548963
 31
0.0
  0
LINE
  5
3047
330
3031
100
AcDbEntity
  8
0
100
AcDbLine
 10
-0.3897705679464356
 20
17.65926064081678
 30
0.0
 11
0.08882001638633
 21
17.93557504351292
 31
0.0
  0
LINE
  5
3048
330
3031
100
AcDbEntity
  8
0
100
AcDbLine
 10
-0.9694149074170315
 20
17.8557612548963
 30
0.0
 11
-0.8497672613338401
 21
17.92483985557034
 31
0.0
  0
LINE
  5
3049
330
3031
100
AcDbEntity
  8
0
100
AcDbLine
 10
-0.8497672613338401
 20
17.84319019747756
 30
0.0
 11
-0.8497672613338401
 21
17.92483985557034
 31
0.0
  0
LINE
  5
304A
330
3031
100
AcDbEntity
  8
0
100
AcDbLine
 10
-0.8497672613338401
 20
17.92483985557034
 30
0.0
 11
0.320839438182789
 21
18.04246017563694
 31
0.0
  0
LINE
  5
304B
330
3031
100
AcDbEntity
  8
0
100
AcDbLine
 10
0.3208394381827889
 20
17.96081051754416
 30
0.0
 11
0.320839438182789
 21
18.04246017563694
 31
0.0
  0
LINE
  5
304C
330
3031
100
AcDbEntity
  8
0
100
AcDbLine
 10
0.320839438182789
 20
18.04246017563694
 30
0.0
 11
0.4275522036083382
 21
17.98084953179252
 31
0.0
  0
LINE
  5
304D
330
3031
100
AcDbEntity
  8
0
100
AcDbLine
 10
0.4275522036083382
 20
17.98084953179252
 30
0.0
 11
-0.2596133313289096
 21
17.58411432521867
 31
0.0
  0
LINE
  5
304E
330
3031
100
AcDbEntity
  8
0
100
AcDbLine
 10
-0.2596133313289098
 20
17.50246466712589
 30
0.0
 11
-0.2596133313289096
 21
17.58411432521867
 31
0.0
  0
LINE
  5
304F
330
3031
100
AcDbEntity
  8
0
100
AcDbLine
 10
-0.2596133313289096
 20
17.58411432521867
 30
0.0
 11
-0.1165212140537417
 21
17.50150005279094
 31
0.0
  0
SPLINE
  5
3050
330
3031
100
AcDbEntity
  8
0
100
AcDbSpline
210
0.0
220
0.0
230
1.0
 70
     8
 71
     2
 72
     6
 73
     3
 74
     0
 42
0.000000001
 43
0.0000000001
 40
0.0
 40
0.0
 40
0.0
 40
1.0
 40
1.0
 40
1.0
 10
-0.0284023395735534
 20
16.99881320869678
 30
0.0
 10
-0.1820040473830559
 20
17.08749519604858
 30
0.0
 10
-0.1601764362732844
 20
17.20091479039852
 30
0.0
  0
LINE
  5
3051
330
3031
100
AcDbEntity
  8
0
100
AcDbLine
 10
-0.1601764362732843
 20
17.14599821219175
 30
0.0
 11
-0.1601764362732843
 21
17.20091479039852
 31
0.0
  0
SPLINE
  5
3052
330
3031
100
AcDbEntity
  8
0
100
AcDbSpline
210
0.0
220
0.0
230
1.0
 70
     8
 71
     2
 72
     8
 73
     5
 74
     0
 42
0.000000001
 43
0.0000000001
 40
0.0
 40
0.0
 40
0.0
 40
1.0
 40
2.0
 40
3.0
 40
3.0
 40
3.0
 10
0.8576369854749451
 20
17.11176605574486
 30
0.0
 10
0.6708896459802343
 20
17.00394742901714
 30
0.0
 10
0.3644946604023319
 20
16.91573218896719
 30
0.0
 10
0.0872031563041249
 20
16.932068344532
 30
0.0
 10
-0.0284023395735534
 20
16.99881320869678
 30
0.0
  0
SPLINE
  5
3053
330
3031
100
AcDbEntity
  8
0
100
AcDbSpline
210
0.0
220
0.0
230
1.0
 70
     8
 71
     2
 72
     7
 73
     4
 74
     0
 42
0.000000001
 43
0.0000000001
 40
0.0
 40
0.0
 40
0.0
 40
1.0
 40
2.0
 40
2.0
 40
2.0
 10
0.3006286871552231
 20
17.43335494672061
 30
0.0
 10
0.0386973538379662
 20
17.28212882092069
 30
0.0
 10
-0.0114253087103979
 20
17.11223280304671
 30
0.0
 10
0.0783104258519957
 20
17.06042385254119
 30
0.0
  0
SPLINE
  5
3054
330
3031
100
AcDbEntity
  8
0
100
AcDbSpline
210
0.0
220
0.0
230
1.0
 70
     8
 71
     3
 72
    12
 73
     8
 74
     0
 42
0.000000001
 43
0.0000000001
 40
-0.0195887520481805
 40
-0.0195887520481805
 40
-0.0195887520481805
 40
-0.0195887520481805
 40
-0.0187359721154918
 40
-0.0187359721154918
 40
-0.0094511780382718
 40
-0.0094511780382718
 40
0.0
 40
0.0
 40
0.0
 40
0.0
 10
0.0081079149704111
 20
17.080020166326
 30
0.0
 10
0.0081430299553028
 20
17.07832189197574
 30
0.0
 10
0.0082059831196122
 20
17.07665378922844
 30
0.0
 10
0.0091535703269046
 20
17.05715299110722
 30
0.0
 10
0.0147425334569543
 20
17.03971593923989
 30
0.0
 10
0.0384815092568581
 20
17.00636449054154
 30
0.0
 10
0.0560337855817846
 20
16.99163561870506
 30
0.0
 10
0.0783104258519957
 20
16.97877419444841
 30
0.0
  0
LINE
  5
3055
330
3031
100
AcDbEntity
  8
0
100
AcDbLine
 10
0.0783104258519957
 20
16.97877419444841
 30
0.0
 11
0.0783104258519957
 21
17.06042385254119
 31
0.0
  0
SPLINE
  5
3056
330
3031
100
AcDbEntity
  8
0
100
AcDbSpline
210
0.0
220
0.0
230
1.0
 70
     8
 71
     2
 72
     7
 73
     4
 74
     0
 42
0.000000001
 43
0.0000000001
 40
0.0
 40
0.0
 40
0.0
 40
1.0
 40
2.0
 40
2.0
 40
2.0
 10
0.0783104258519957
 20
17.06042385254119
 30
0.0
 10
0.1672377303732866
 20
17.00908164933751
 30
0.0
 10
0.4623146953757519
 20
17.03848672935416
 30
0.0
 10
0.7234375986519062
 20
17.18924610785222
 30
0.0
  0
SPLINE
  5
3057
330
3031
100
AcDbEntity
  8
0
100
AcDbSpline
210
0.0
220
0.0
230
1.0
 70
     8
 71
     3
 72
    16
 73
    12
 74
     0
 42
0.000000001
 43
0.0000000001
 40
-0.1316439447214688
 40
-0.1316439447214688
 40
-0.1316439447214688
 40
-0.1316439447214688
 40
-0.1146389982537615
 40
-0.1146389982537615
 40
-0.0978612385826376
 40
-0.0978612385826376
 40
-0.0652893432516137
 40
-0.0652893432516137
 40
-0.0388214793591702
 40
-0.0388214793591702
 40
0.0
 40
0.0
 40
0.0
 40
0.0
 10
0.0783104258519957
 20
16.97877419444841
 30
0.0
 10
0.0926899766107105
 20
16.97047215694704
 30
0.0
 10
0.1085782640579049
 20
16.96325779189554
 30
0.0
 10
0.1434568761344129
 20
16.95148690698865
 30
0.0
 10
0.1618374971935925
 20
16.94708696405976
 30
0.0
 10
0.2187907817420158
 20
16.93815636475388
 30
0.0
 10
0.2580845590572531
 20
16.93771833353933
 30
0.0
 10
0.3280900416911403
 20
16.94287865084131
 30
0.0
 10
0.3695389059114429
 20
16.94813576426139
 30
0.0
 10
0.5286722062797484
 20
17.00154992159616
 30
0.0
 10
0.6319344942833637
 20
17.05476710782058
 30
0.0
 10
0.7234375986519062
 20
17.10759644975945
 30
0.0
  0
LINE
  5
3058
330
3031
100
AcDbEntity
  8
0
100
AcDbLine
 10
0.7234375986519061
 20
17.10759644975945
 30
0.0
 11
0.7234375986519061
 21
17.18924610785222
 31
0.0
  0
SPLINE
  5
3059
330
3031
100
AcDbEntity
  8
0
100
AcDbSpline
210
0.0
220
0.0
230
1.0
 70
     8
 71
     2
 72
     9
 73
     6
 74
     0
 42
0.000000001
 43
0.0000000001
 40
0.0
 40
0.0
 40
0.0
 40
1.0
 40
2.0
 40
3.0
 40
4.0
 40
4.0
 40
4.0
 10
1.054085485462887
 20
17.62378784587606
 30
0.0
 10
1.138970639778665
 20
17.57477937918164
 30
0.0
 10
1.199602892861364
 20
17.460426290228
 30
0.0
 10
1.153522380518513
 20
17.33767174984103
 30
0.0
 10
1.01528084348996
 20
17.20278177960592
 30
0.0
 10
0.8576369854749451
 20
17.11176605574486
 30
0.0
  0
LINE
  5
305A
330
3031
100
AcDbEntity
  8
0
100
AcDbLine
 10
1.054085485462887
 20
17.54213818778328
 30
0.0
 11
1.054085485462887
 21
17.62378784587606
 31
0.0
  0
SPLINE
  5
305B
330
3031
100
AcDbEntity
  8
0
100
AcDbSpline
210
0.0
220
0.0
230
1.0
 70
     8
 71
     3
 72
    12
 73
     8
 74
     0
 42
0.000000001
 43
0.0000000001
 40
-0.1489082982956996
 40
-0.1489082982956996
 40
-0.1489082982956996
 40
-0.1489082982956996
 40
-0.1296906340609352
 40
-0.1296906340609352
 40
-0.1117996883946096
 40
-0.1117996883946096
 40
-0.1021225654270309
 40
-0.1021225654270309
 40
-0.1021225654270309
 40
-0.1021225654270309
 10
1.054085485462887
 20
17.54213818778328
 30
0.0
 10
1.079293415038462
 20
17.52758438285711
 30
0.0
 10
1.10220921052229
 20
17.51172988752649
 30
0.0
 10
1.13966441603957
 20
17.47838078080951
 30
0.0
 10
1.154399804553762
 20
17.46131850895663
 30
0.0
 10
1.17105089011185
 20
17.4333990900636
 30
0.0
 10
1.176402365258554
 20
17.42230066267859
 30
0.0
 10
1.180280515289907
 20
17.40995885967902
 30
0.0
  0
SPLINE
  5
305C
330
3031
100
AcDbEntity
  8
0
100
AcDbSpline
210
0.0
220
0.0
230
1.0
 70
     8
 71
     2
 72
     8
 73
     5
 74
     0
 42
0.000000001
 43
0.0000000001
 40
0.0
 40
0.0
 40
0.0
 40
1.0
 40
2.0
 40
3.0
 40
3.0
 40
3.0
 10
0.166429300332184
 20
17.51083499882797
 30
0.0
 10
0.3547934999091002
 20
17.61958712015939
 30
0.0
 10
0.661996915528105
 20
17.70733561290749
 30
0.0
 10
0.9376715595441067
 20
17.69099945734269
 30
0.0
 10
1.054085485462887
 20
17.62378784587606
 30
0.0
  0
LINE
  5
305D
330
3031
100
AcDbEntity
  8
0
100
AcDbLine
 10
0.166429300332184
 20
17.42918534073519
 30
0.0
 11
0.166429300332184
 21
17.51083499882797
 31
0.0
  0
SPLINE
  5
305E
330
3031
100
AcDbEntity
  8
0
100
AcDbSpline
210
0.0
220
0.0
230
1.0
 70
     8
 71
     3
 72
    16
 73
    12
 74
     0
 42
0.000000001
 43
0.0000000001
 40
-0.0904804890000762
 40
-0.0904804890000762
 40
-0.0904804890000762
 40
-0.0904804890000762
 40
-0.0609286449548591
 40
-0.0609286449548591
 40
-0.0430076776619319
 40
-0.0430076776619319
 40
-0.030574207758127
 40
-0.030574207758127
 40
-0.0182470383319731
 40
-0.0182470383319731
 40
0.0
 40
0.0
 40
0.0
 40
0.0
 10
0.166429300332184
 20
17.42918534073519
 30
0.0
 10
0.2346221292335379
 20
17.46855648885819
 30
0.0
 10
0.3110781242708133
 20
17.50829389457013
 30
0.0
 10
0.4378377788717247
 20
17.55998100701532
 30
0.0
 10
0.5059877980888851
 20
17.58462727745371
 30
0.0
 10
0.6435946339319245
 20
17.61255199276243
 30
0.0
 10
0.7021804743502851
 20
17.61923379959895
 30
0.0
 10
0.8211704813420535
 20
17.61832598684451
 30
0.0
 10
0.8680464588134293
 20
17.6109779960309
 30
0.0
 10
0.9619316836522855
 20
17.58803288139975
 30
0.0
 10
1.01107680365919
 20
17.56696926180013
 30
0.0
 10
1.054085485462887
 20
17.54213818778328
 30
0.0
  0
SPLINE
  5
305F
330
3031
100
AcDbEntity
  8
0
100
AcDbSpline
210
0.0
220
0.0
230
1.0
 70
     8
 71
     2
 72
     6
 73
     3
 74
     0
 42
0.000000001
 43
0.0000000001
 40
0.0
 40
0.0
 40
0.0
 40
1.0
 40
1.0
 40
1.0
 10
-0.1601764362732844
 20
17.20091479039852
 30
0.0
 10
-0.1318813848346919
 20
17.33860524444473
 30
0.0
 10
0.166429300332184
 20
17.51083499882797
 30
0.0
  0
SPLINE
  5
3060
330
3031
100
AcDbEntity
  8
0
100
AcDbSpline
210
0.0
220
0.0
230
1.0
 70
     8
 71
     3
 72
    12
 73
     8
 74
     0
 42
0.000000001
 43
0.0000000001
 40
-0.0605813861930637
 40
-0.0605813861930637
 40
-0.0605813861930637
 40
-0.0605813861930637
 40
-0.050251012952018
 40
-0.050251012952018
 40
-0.035758791167233
 40
-0.035758791167233
 40
0.0
 40
0.0
 40
0.0
 40
0.0
 10
-0.156782330533711
 20
17.13275038392773
 30
0.0
 10
-0.1509456951614646
 20
17.15238105507591
 30
0.0
 10
-0.1413593727825863
 20
17.1716247019708
 30
0.0
 10
-0.1120288255419223
 20
17.21642477618699
 30
0.0
 10
-0.0895440578080992
 20
17.2417095321972
 30
0.0
 10
-0.0022802671385125
 20
17.32451521856925
 30
0.0
 10
0.0821450212609038
 20
17.38052378952494
 30
0.0
 10
0.166429300332184
 20
17.42918534073519
 30
0.0
  0
SPLINE
  5
3061
330
3031
100
AcDbEntity
  8
0
100
AcDbSpline
210
0.0
220
0.0
230
1.0
 70
     8
 71
     2
 72
     6
 73
     3
 74
     0
 42
0.000000001
 43
0.0000000001
 40
0.0
 40
0.0
 40
0.0
 40
1.0
 40
1.0
 40
1.0
 10
0.7258628887752141
 20
17.60138397538718
 30
0.0
 10
0.5617515904313774
 20
17.58411432521867
 30
0.0
 10
0.3006286871552231
 20
17.43335494672061
 30
0.0
  0
SPLINE
  5
3062
330
3031
100
AcDbEntity
  8
0
100
AcDbSpline
210
0.0
220
0.0
230
1.0
 70
     8
 71
     2
 72
     6
 73
     3
 74
     0
 42
0.000000001
 43
0.0000000001
 40
0.0
 40
0.0
 40
0.0
 40
1.0
 40
1.0
 40
1.0
 10
0.9449474299140305
 20
17.5626439493335
 30
0.0
 10
0.8552116953516371
 20
17.61445289983903
 30
0.0
 10
0.7258628887752141
 20
17.60138397538718
 30
0.0
  0
SPLINE
  5
3063
330
3031
100
AcDbEntity
  8
0
100
AcDbSpline
210
0.0
220
0.0
230
1.0
 70
     8
 71
     2
 72
     7
 73
     4
 74
     0
 42
0.000000001
 43
0.0000000001
 40
0.0
 40
0.0
 40
0.0
 40
1.0
 40
2.0
 40
2.0
 40
2.0
 10
0.7234375986519062
 20
17.18924610785222
 30
0.0
 10
0.9853689319691628
 20
17.34047223365214
 30
0.0
 10
1.035491594517526
 20
17.51036825152612
 30
0.0
 10
0.9449474299140305
 20
17.5626439493335
 30
0.0
  0
SPLINE
  5
3064
330
3031
100
AcDbEntity
  8
0
100
AcDbSpline
210
0.0
220
0.0
230
1.0
 70
     8
 71
     3
 72
    12
 73
     8
 74
     0
 42
0.000000001
 43
0.0000000001
 40
-0.0525844939629563
 40
-0.0525844939629563
 40
-0.0525844939629563
 40
-0.0525844939629563
 40
-0.0380086084305599
 40
-0.0380086084305599
 40
-0.0286865702032855
 40
-0.0286865702032855
 40
-0.0197365609350678
 40
-0.0197365609350678
 40
-0.0197365609350678
 40
-0.0197365609350678
 10
0.7234375986519062
 20
17.10759644975945
 30
0.0
 10
0.7877173640763936
 20
17.14470838963072
 30
0.0
 10
0.8567693445883499
 20
17.18775898730186
 30
0.0
 10
0.9457026494384344
 20
17.25721875930457
 30
0.0
 10
0.9771703993836442
 20
17.28620099665676
 30
0.0
 10
1.01356475853936
 20
17.34063756689027
 30
0.0
 10
1.016264168863771
 20
17.36133021657862
 30
0.0
 10
1.015915137643519
 20
17.37906609681328
 30
0.0
  0
LINE
  5
3065
330
3031
100
AcDbEntity
  8
0
100
AcDbLine
 10
0.0081648868630825
 20
17.08002055899266
 30
0.0
 11
0.0081648868630825
 21
17.16167021708544
 31
0.0
  0
LINE
  5
3066
330
3031
100
AcDbEntity
  8
0
100
AcDbLine
 10
1.015863139253831
 20
17.3790657557145
 30
0.0
 11
1.015863139253831
 21
17.46071541380727
 31
0.0
  0
ELLIPSE
  5
3067
330
3031
100
AcDbEntity
  8
0
100
AcDbEllipse
 10
-0.0000000000000003
 20
16.94201017370859
 30
0.0
 11
3.250000000000009
 21
-0.0000000000001944
 31
0.0
210
0.0
220
0.0
230
1.0
 40
0.5773502691896259
 41
0.0
 42
6.283185307179586
  0
LINE
  5
3068
330
3031
100
AcDbEntity
  8
0
100
AcDbLine
 10
0.0
 20
-16.99007763766608
 30
0.0
 11
0.0
 21
-17.00089628254115
 31
0.0
  0
LINE
  5
3069
330
3031
100
AcDbEntity
  8
0
100
AcDbLine
 10
0.0
 20
-16.99007763766608
 30
0.0
 11
-0.1752896614138416
 21
-16.88887410446264
 31
0.0
  0
ELLIPSE
  5
306A
330
3031
100
AcDbEntity
  8
0
100
AcDbEllipse
 10
-0.0423970565361092
 20
-16.86094827669926
 30
0.0
 11
0.1414213562373098
 21
-0.0000000000000002
 31
0.0
210
0.0
220
0.0
230
1.0
 40
0.5773502691896245
 41
3.490658503988631
 42
3.92699081698722
  0
LINE
  5
306B
330
3031
100
AcDbEntity
  8
0
100
AcDbLine
 10
0.1752896614138327
 20
-16.88887410446264
 30
0.0
 11
0.0
 21
-16.99007763766608
 31
0.0
  0
ELLIPSE
  5
306C
330
3031
100
AcDbEntity
  8
0
100
AcDbEllipse
 10
0.0423970565361002
 20
-16.86094827669926
 30
0.0
 11
0.141421356237309
 21
-0.0000000000000002
 31
0.0
210
0.0
220
0.0
230
1.0
 40
0.5773502691896275
 41
5.497787143782159
 42
5.934119456780747
  0
ELLIPSE
  5
306D
330
3031
100
AcDbEntity
  8
0
100
AcDbEllipse
 10
-0.0000000000000004
 20
16.12551359278087
 30
0.0
 11
3.500000000000009
 21
-0.0000000000000005
 31
0.0
210
0.0
220
0.0
230
1.0
 40
0.577350269189626
 41
3.141592653589793
 42
6.283185307179586
  0
ELLIPSE
  5
306E
330
3031
100
AcDbEntity
  8
0
100
AcDbEllipse
 10
-0.0000000000000003
 20
16.73788602847666
 30
0.0
 11
-3.500000000000009
 21
0.0000000000000004
 31
0.0
210
0.0
220
0.0
230
1.0
 40
0.577350269189626
 41
0.0000000000000003
 42
3.141592653589793
  0
LINE
  5
306F
330
3031
100
AcDbEntity
  8
0
100
AcDbLine
 10
0.0
 20
-17.00089628254115
 30
0.0
 11
-0.1423970565361094
 21
-16.91868330361822
 31
0.0
  0
LINE
  5
3070
330
3031
100
AcDbEntity
  8
0
100
AcDbLine
 10
0.1423970565360999
 20
-16.91868330361822
 30
0.0
 11
0.0
 21
-17.00089628254115
 31
0.0
  0
SPLINE
  5
3071
330
3031
100
AcDbEntity
  8
0
100
AcDbSpline
210
0.0
220
0.0
230
1.0
 70
     8
 71
     3
 72
    26
 73
    22
 74
     0
 42
0.000000001
 43
0.0000000001
 40
3.926990816987241
 40
3.926990816987241
 40
3.926990816987241
 40
3.926990816987241
 40
4.18090827222432
 40
4.18090827222432
 40
4.459612473143646
 40
4.459612473143646
 40
4.785810895217632
 40
4.785810895217632
 40
5.130298550732668
 40
5.130298550732668
 40
5.472112732357818
 40
5.472112732357818
 40
5.811686729235356
 40
5.811686729235356
 40
6.152929357162729
 40
6.152929357162729
 40
6.497508216313473
 40
6.497508216313473
 40
6.828212222362012
 40
6.828212222362012
 40
7.068583470577034
 40
7.068583470577034
 40
7.068583470577034
 40
7.068583470577034
 10
-3.500000000000009
 20
16.12551359278087
 30
0.0
 10
-3.500000000000009
 20
15.90561462608126
 30
0.0
 10
-3.450321130804008
 20
15.68669660151235
 30
0.0
 10
-3.26055448613747
 20
15.2645239410684
 30
0.0
 10
-3.11375130373634
 20
15.06455375290993
 30
0.0
 10
-2.724281983716072
 20
14.68307531504921
 30
0.0
 10
-2.469193435707713
 20
14.50930474748526
 30
0.0
 10
-1.88069617258928
 20
14.21609397679695
 30
0.0
 10
-1.543196767270719
 20
14.10034362117231
 30
0.0
 10
-0.8321816023514511
 20
13.94230881877122
 30
0.0
 10
-0.4590306071528422
 20
13.89964257839131
 30
0.0
 10
0.2877212257028169
 20
13.88857094730691
 30
0.0
 10
0.6611420980562213
 20
13.91969049667812
 30
0.0
 10
1.377452575842074
 20
14.05394622981986
 30
0.0
 10
1.720087385915322
 20
14.15728624405337
 30
0.0
 10
2.344079496730386
 20
14.43409365836514
 30
0.0
 10
2.62520298965262
 20
14.60803493320288
 30
0.0
 10
3.081735018131624
 20
15.01828299910685
 30
0.0
 10
3.261753084570159
 20
15.25341264472012
 30
0.0
 10
3.455569187820964
 20
15.70994105742289
 30
0.0
 10
3.500000000000008
 20
15.91734598548728
 30
0.0
 10
3.500000000000008
 20
16.12551359278086
 30
0.0
  0
SPLINE
  5
3072
330
3031
100
AcDbEntity
  8
0
100
AcDbSpline
210
0.0
220
0.0
230
1.0
 70
     8
 71
     3
 72
    26
 73
    22
 74
     0
 42
0.000000001
 43
0.0000000001
 40
0.7853981633974483
 40
0.7853981633974483
 40
0.7853981633974483
 40
0.7853981633974483
 40
1.066823108986854
 40
1.066823108986854
 40
1.368550437254481
 40
1.368550437254481
 40
1.696076798797079
 40
1.696076798797079
 40
2.028186960742127
 40
2.028186960742127
 40
2.358377837585618
 40
2.358377837585618
 40
2.687644070884362
 40
2.687644070884362
 40
3.017853549584236
 40
3.017853549584236
 40
3.349968623515759
 40
3.349968623515759
 40
3.677219723477697
 40
3.677219723477697
 40
3.926990816987241
 40
3.926990816987241
 40
3.926990816987241
 40
3.926990816987241
 10
3.500000000000009
 20
16.73788602847666
 30
0.0
 10
3.500000000000009
 20
16.95452705260029
 30
0.0
 10
3.446116938667898
 20
17.1703766406325
 30
0.0
 10
3.238014997220567
 20
17.58597212777252
 30
0.0
 10
3.077916978986694
 20
17.78387641716699
 30
0.0
 10
2.659993220554677
 20
18.14964048157574
 30
0.0
 10
2.394650499326815
 20
18.31399665680422
 30
0.0
 10
1.791518772665578
 20
18.58431623633378
 30
0.0
 10
1.452657098569421
 20
18.68931819869388
 30
0.0
 10
0.7398252301111091
 20
18.82936997436711
 30
0.0
 10
0.3661812717943705
 20
18.86474066716268
 30
0.0
 10
-0.3799571153534123
 20
18.86380011629425
 30
0.0
 10
-0.752307818464951
 20
18.82769107089643
 30
0.0
 10
-1.461339032481576
 20
18.68681196073391
 30
0.0
 10
-1.79780541911557
 20
18.58192624579829
 30
0.0
 10
-2.40274697909327
 20
18.30993171125835
 30
0.0
 10
-2.670927597751319
 20
18.14257676719993
 30
0.0
 10
-3.105240866111176
 20
17.75735183888322
 30
0.0
 10
-3.273179797892221
 20
17.53956570294942
 30
0.0
 10
-3.457689951015864
 20
17.12197347179906
 30
0.0
 10
-3.500000000000009
 20
16.93015990590803
 30
0.0
 10
-3.500000000000009
 20
16.73788602847666
 30
0.0
  0
LINE
  5
3073
330
3031
100
AcDbEntity
  8
0
100
AcDbLine
 10
-0.8876694027088934
 20
16.25689063715829
 30
0.0
 11
-1.514864136027238
 21
16.61900168527395
 31
0.0
  0
LINE
  5
3074
330
3031
100
AcDbEntity
  8
0
100
AcDbLine
 10
-1.514864136027238
 20
16.61900168527395
 30
0.0
 11
-1.302732101671273
 21
16.74147617241311
 31
0.0
  0
LINE
  5
3075
330
3031
100
AcDbEntity
  8
0
100
AcDbLine
 10
-1.302732101671273
 20
16.74147617241311
 30
0.0
 11
-0.5530628812137706
 21
16.30865444617879
 31
0.0
  0
LINE
  5
3076
330
3031
100
AcDbEntity
  8
0
100
AcDbLine
 10
-0.5530628812137705
 20
16.30865444617879
 30
0.0
 11
-0.2184563597186495
 21
16.3604182551993
 31
0.0
  0
LINE
  5
3077
330
3031
100
AcDbEntity
  8
0
100
AcDbLine
 10
-0.2184563597186495
 20
16.3604182551993
 30
0.0
 11
-1.09060006731531
 21
16.86395065955227
 31
0.0
  0
LINE
  5
3078
330
3031
100
AcDbEntity
  8
0
100
AcDbLine
 10
-1.09060006731531
 20
16.86395065955227
 30
0.0
 11
-0.8784680329593452
 21
16.98642514669143
 31
0.0
  0
LINE
  5
3079
330
3031
100
AcDbEntity
  8
0
100
AcDbLine
 10
-0.8784680329593452
 20
16.98642514669143
 30
0.0
 11
0.1161501617764757
 21
16.4121820642198
 31
0.0
  0
LINE
  5
307A
330
3031
100
AcDbEntity
  8
0
100
AcDbLine
 10
0.1161501617764758
 20
16.4121820642198
 30
0.0
 11
0.9729141006091403
 21
16.54472390682115
 31
0.0
  0
LINE
  5
307B
330
3031
100
AcDbEntity
  8
0
100
AcDbLine
 10
0.9729141006091406
 20
16.54472390682115
 30
0.0
 11
1.050559814139897
 21
16.37742064607358
 31
0.0
  0
LINE
  5
307C
330
3031
100
AcDbEntity
  8
0
100
AcDbLine
 10
1.050559814139897
 20
16.37742064607358
 30
0.0
 11
0.3610991360547938
 21
16.27076070798249
 31
0.0
  0
LINE
  5
307D
330
3031
100
AcDbEntity
  8
0
100
AcDbLine
 10
0.3610991360547938
 20
16.27076070798249
 30
0.0
 11
0.9882938693731373
 21
15.90864965986683
 31
0.0
  0
LINE
  5
307E
330
3031
100
AcDbEntity
  8
0
100
AcDbLine
 10
0.9882938693731373
 20
15.90864965986683
 30
0.0
 11
0.7761618350171718
 21
15.78617517272767
 31
0.0
  0
LINE
  5
307F
330
3031
100
AcDbEntity
  8
0
100
AcDbLine
 10
0.7761618350171718
 20
15.78617517272767
 30
0.0
 11
0.0264926145596681
 21
16.21899689896199
 31
0.0
  0
LINE
  5
3080
330
3031
100
AcDbEntity
  8
0
100
AcDbLine
 10
0.0264926145596681
 20
16.21899689896199
 30
0.0
 11
-0.3081139069354529
 21
16.16723308994149
 31
0.0
  0
LINE
  5
3081
330
3031
100
AcDbEntity
  8
0
100
AcDbLine
 10
-0.3081139069354529
 20
16.16723308994149
 30
0.0
 11
0.564029800661209
 21
15.66370068558851
 31
0.0
  0
LINE
  5
3082
330
3031
100
AcDbEntity
  8
0
100
AcDbLine
 10
0.564029800661209
 20
15.66370068558851
 30
0.0
 11
0.3518977663052458
 21
15.54122619844936
 31
0.0
  0
LINE
  5
3083
330
3031
100
AcDbEntity
  8
0
100
AcDbLine
 10
0.3518977663052458
 20
15.54122619844936
 30
0.0
 11
-0.6427204284305757
 21
16.11546928092098
 31
0.0
  0
LINE
  5
3084
330
3031
100
AcDbEntity
  8
0
100
AcDbLine
 10
-0.6427204284305757
 20
16.11546928092098
 30
0.0
 11
-1.49948436726324
 21
15.98292743831964
 31
0.0
  0
LINE
  5
3085
330
3031
100
AcDbEntity
  8
0
100
AcDbLine
 10
-1.49948436726324
 20
15.98292743831964
 30
0.0
 11
-1.577130080793996
 21
16.1502306990672
 31
0.0
  0
LINE
  5
3086
330
3031
100
AcDbEntity
  8
0
100
AcDbLine
 10
-1.577130080793996
 20
16.1502306990672
 30
0.0
 11
-0.8876694027088934
 21
16.25689063715829
 31
0.0
  0
LINE
  5
3087
330
3031
100
AcDbEntity
  8
0
100
AcDbLine
 10
0.1161501617764759
 20
16.33053240612703
 30
0.0
 11
0.1161501617764758
 21
16.4121820642198
 31
0.0
  0
LINE
  5
3088
330
3031
100
AcDbEntity
  8
0
100
AcDbLine
 10
-0.8784680329593452
 20
16.98642514669143
 30
0.0
 11
-0.8784680329593452
 21
16.90477548859866
 31
0.0
  0
LINE
  5
3089
330
3031
100
AcDbEntity
  8
0
100
AcDbLine
 10
0.1161501617764759
 20
16.33053240612703
 30
0.0
 11
-0.8784680329593451
 21
16.90477548859866
 31
0.0
  0
LINE
  5
308A
330
3031
100
AcDbEntity
  8
0
100
AcDbLine
 10
-0.2184563597186495
 20
16.3604182551993
 30
0.0
 11
-0.2184563597186494
 21
16.27876859710652
 31
0.0
  0
LINE
  5
308B
330
3031
100
AcDbEntity
  8
0
100
AcDbLine
 10
0.3610991360547938
 20
16.27076070798249
 30
0.0
 11
0.3610991360547936
 21
16.18911104988972
 31
0.0
  0
LINE
  5
308C
330
3031
100
AcDbEntity
  8
0
100
AcDbLine
 10
0.917583191254482
 20
15.86782483082045
 30
0.0
 11
0.3610991360547936
 21
16.18911104988972
 31
0.0
  0
LINE
  5
308D
330
3031
100
AcDbEntity
  8
0
100
AcDbLine
 10
-0.8784680329593452
 20
16.90477548859866
 30
0.0
 11
-1.019889389196655
 21
16.82312583050588
 31
0.0
  0
LINE
  5
308E
330
3031
100
AcDbEntity
  8
0
100
AcDbLine
 10
-0.3081139069354529
 20
16.16723308994149
 30
0.0
 11
-0.3081139069354529
 21
16.08558343184871
 31
0.0
  0
LINE
  5
308F
330
3031
100
AcDbEntity
  8
0
100
AcDbLine
 10
-0.5530628812137705
 20
16.22700478808602
 30
0.0
 11
-0.5530628812137705
 21
16.30865444617879
 31
0.0
  0
LINE
  5
3090
330
3031
100
AcDbEntity
  8
0
100
AcDbLine
 10
-0.2184563597186494
 20
16.27876859710652
 30
0.0
 11
-0.5530628812137705
 21
16.22700478808602
 31
0.0
  0
LINE
  5
3091
330
3031
100
AcDbEntity
  8
0
100
AcDbLine
 10
-1.302732101671273
 20
16.74147617241311
 30
0.0
 11
-1.302732101671273
 21
16.65982651432034
 31
0.0
  0
LINE
  5
3092
330
3031
100
AcDbEntity
  8
0
100
AcDbLine
 10
-0.5530628812137705
 20
16.22700478808602
 30
0.0
 11
-1.302732101671273
 21
16.65982651432034
 31
0.0
  0
LINE
  5
3093
330
3031
100
AcDbEntity
  8
0
100
AcDbLine
 10
0.4933191225425536
 20
15.62287585654213
 30
0.0
 11
-0.3081139069354528
 21
16.08558343184871
 31
0.0
  0
LINE
  5
3094
330
3031
100
AcDbEntity
  8
0
100
AcDbLine
 10
-0.8876694027088934
 20
16.25689063715829
 30
0.0
 11
-0.8876694027088934
 21
16.17524097906552
 31
0.0
  0
LINE
  5
3095
330
3031
100
AcDbEntity
  8
0
100
AcDbLine
 10
-1.302732101671273
 20
16.65982651432034
 30
0.0
 11
-1.444153457908583
 21
16.57817685622757
 31
0.0
  0
LINE
  5
3096
330
3031
100
AcDbEntity
  8
0
100
AcDbLine
 10
0.9729141006091406
 20
16.46307424872837
 30
0.0
 11
0.1161501617764758
 21
16.33053240612703
 31
0.0
  0
LINE
  5
3097
330
3031
100
AcDbEntity
  8
0
100
AcDbLine
 10
-0.8876694027088934
 20
16.17524097906552
 30
0.0
 11
-1.541774741734669
 21
16.07405053096148
 31
0.0
  0
LINE
  5
3098
330
3031
100
AcDbEntity
  8
0
100
AcDbLine
 10
1.015204475080569
 20
16.37195115608652
 30
0.0
 11
0.9729141006091406
 21
16.46307424872837
 31
0.0
  0
LINE
  5
3099
330
3031
100
AcDbEntity
  8
0
100
AcDbLine
 10
0.9729141006091406
 20
16.54472390682115
 30
0.0
 11
0.9729141006091406
 21
16.46307424872837
 31
0.0
  0
LINE
  5
309A
330
3031
100
AcDbEntity
  8
0
100
AcDbLine
 10
-2.200000000000003
 20
-13.67716350573612
 30
0.0
 11
-0.1752896614138413
 21
-16.88887410446264
 31
0.0
  0
LINE
  5
309B
330
3031
100
AcDbEntity
  8
0
100
AcDbLine
 10
0.0
 20
-14.9473340979533
 30
0.0
 11
0.0
 21
-16.99007763766608
 31
0.0
  0
ELLIPSE
  5
309C
330
3031
100
AcDbEntity
  8
0
100
AcDbEllipse
 10
-0.0000000000000044
 20
-17.16692852670812
 30
0.0
 11
1.97712250981172
 21
-4.10969426810152
 31
0.0
210
0.0
220
0.0
230
0.9999999999999996
 40
0.2347805934183502
 41
2.024814548144747
 42
2.636069418380701
  0
LINE
  5
309D
330
3031
100
AcDbEntity
  8
0
100
AcDbLine
 10
-1.262570233507341
 20
-13.34647874082994
 30
0.0
 11
-1.801642696391613
 21
-13.03524510927099
 31
0.0
  0
ELLIPSE
  5
309E
330
3031
100
AcDbEntity
  8
0
100
AcDbEllipse
 10
-0.0000000000000044
 20
-17.16692852670812
 30
0.0
 11
1.97712250981172
 21
-4.10969426810152
 31
0.0
210
0.0
220
0.0
230
0.9999999999999996
 40
0.2347805934183502
 41
2.984356004703689
 42
3.595610874939642
  0
LINE
  5
309F
330
3031
100
AcDbEntity
  8
0
100
AcDbLine
 10
0.1752896614138327
 20
-16.88887410446264
 30
0.0
 11
2.199999999999994
 21
-13.67716350573612
 31
0.0
  0
ELLIPSE
  5
30A0
330
3031
100
AcDbEntity
  8
0
100
AcDbEllipse
 10
-0.0000000000000044
 20
-11.28567911892506
 30
0.0
 11
-1.750000000000003
 21
0.0000000000000001
 31
0.0
210
0.0
220
0.0
230
1.0
 40
0.577350269189626
 41
0.3143546097304749
 42
2.827238043859317
  0
ELLIPSE
  5
30A1
330
3031
100
AcDbEntity
  8
0
100
AcDbEllipse
 10
-0.0000000000000044
 20
-11.37025340781306
 30
0.0
 11
-2.126524613390194
 21
-0.0000000000000001
 31
0.0
210
0.0
220
0.0
230
1.0
 40
0.5773502691896258
 41
5.956776068670669
 42
9.751187199278295
  0
ELLIPSE
  5
30A2
330
3031
100
AcDbEntity
  8
0
100
AcDbEllipse
 10
-0.0000000000000044
 20
-11.48169126294714
 30
0.0
 11
-2.191623175793066
 21
0.0000000000000001
 31
0.0
210
0.0
220
0.0
230
1.0
 40
0.5773502691896258
 41
0.3143546097304754
 42
2.827238043859318
  0
ELLIPSE
  5
30A3
330
3031
100
AcDbEntity
  8
0
100
AcDbEllipse
 10
-0.0000000000000044
 20
-12.30629984508472
 30
0.0
 11
-1.750000000000003
 21
0.0000000000000001
 31
0.0
210
0.0
220
0.0
230
1.0
 40
0.577350269189626
 41
0.3143546097304749
 42
2.827238043859317
  0
ELLIPSE
  5
30A4
330
3031
100
AcDbEntity
  8
0
100
AcDbEllipse
 10
-0.0000000000000044
 20
-12.30629984508472
 30
0.0
 11
-2.199999999999999
 21
0.0000000000000001
 31
0.0
210
0.0
220
0.0
230
1.0
 40
0.5773502691896259
 41
5.946500859423643
 42
6.89444017741554
  0
ELLIPSE
  5
30A5
330
3031
100
AcDbEntity
  8
0
100
AcDbEllipse
 10
-0.0000000000000044
 20
-12.30629984508472
 30
0.0
 11
-2.199999999999999
 21
0.0000000000001315
 31
0.0
210
0.0
220
0.0
230
1.0
 40
0.5773502691896259
 41
0.9595414565590889
 42
2.182051197030997
  0
ELLIPSE
  5
30A6
330
3031
100
AcDbEntity
  8
0
100
AcDbEllipse
 10
-0.0000000000000044
 20
-12.30629984508472
 30
0.0
 11
2.199999999999998
 21
0.0000000000000001
 31
0.0
210
0.0
220
0.0
230
1.0
 40
0.5773502691896258
 41
5.671930436943632
 42
6.619869754935529
  0
ELLIPSE
  5
30A7
330
3031
100
AcDbEntity
  8
0
100
AcDbEllipse
 10
-0.0000000000000044
 20
-10.26505839276541
 30
0.0
 11
-1.750000000000003
 21
0.0000000000000001
 31
0.0
210
0.0
220
0.0
230
1.0
 40
0.577350269189626
 41
0.3143546097304749
 42
2.827238043859317
  0
ELLIPSE
  5
30A8
330
3031
100
AcDbEntity
  8
0
100
AcDbEllipse
 10
-0.0000000000000044
 20
-10.3496326816534
 30
0.0
 11
-2.126524613390194
 21
-0.0000000000000001
 31
0.0
210
0.0
220
0.0
230
1.0
 40
0.5773502691896258
 41
5.956776068670669
 42
9.751187199278295
  0
ELLIPSE
  5
30A9
330
3031
100
AcDbEntity
  8
0
100
AcDbEllipse
 10
-0.0000000000000044
 20
-10.46107053678748
 30
0.0
 11
-2.191623175793066
 21
0.0000000000000001
 31
0.0
210
0.0
220
0.0
230
1.0
 40
0.5773502691896258
 41
0.3143546097304754
 42
2.827238043859318
  0
ELLIPSE
  5
30AA
330
3031
100
AcDbEntity
  8
0
100
AcDbEllipse
 10
-0.0000000000000044
 20
-9.244437666605751
 30
0.0
 11
-1.750000000000003
 21
0.0000000000000001
 31
0.0
210
0.0
220
0.0
230
1.0
 40
0.577350269189626
 41
0.3143546097304749
 42
2.827238043859317
  0
ELLIPSE
  5
30AB
330
3031
100
AcDbEntity
  8
0
100
AcDbEllipse
 10
-0.0000000000000044
 20
-9.329011955493747
 30
0.0
 11
-2.126524613390194
 21
-0.0000000000000001
 31
0.0
210
0.0
220
0.0
230
1.0
 40
0.5773502691896258
 41
5.956776068670669
 42
9.751187199278295
  0
ELLIPSE
  5
30AC
330
3031
100
AcDbEntity
  8
0
100
AcDbEllipse
 10
-0.0000000000000044
 20
-9.440449810627825
 30
0.0
 11
-2.191623175793066
 21
0.0000000000000001
 31
0.0
210
0.0
220
0.0
230
1.0
 40
0.5773502691896258
 41
0.3143546097304754
 42
2.827238043859318
  0
ELLIPSE
  5
30AD
330
3031
100
AcDbEntity
  8
0
100
AcDbEllipse
 10
-0.0000000000000044
 20
-8.223816940446093
 30
0.0
 11
-1.750000000000003
 21
0.0000000000000001
 31
0.0
210
0.0
220
0.0
230
1.0
 40
0.577350269189626
 41
0.3143546097304749
 42
2.827238043859317
  0
ELLIPSE
  5
30AE
330
3031
100
AcDbEntity
  8
0
100
AcDbEllipse
 10
-0.0000000000000044
 20
-8.308391229334088
 30
0.0
 11
-2.126524613390194
 21
-0.0000000000000001
 31
0.0
210
0.0
220
0.0
230
1.0
 40
0.5773502691896258
 41
5.956776068670669
 42
9.751187199278295
  0
ELLIPSE
  5
30AF
330
3031
100
AcDbEntity
  8
0
100
AcDbEllipse
 10
-0.0000000000000044
 20
-8.419829084468165
 30
0.0
 11
-2.191623175793066
 21
0.0000000000000001
 31
0.0
210
0.0
220
0.0
230
1.0
 40
0.5773502691896258
 41
0.3143546097304754
 42
2.827238043859318
  0
ELLIPSE
  5
30B0
330
3031
100
AcDbEntity
  8
0
100
AcDbEllipse
 10
-0.0000000000000044
 20
-7.203196214286435
 30
0.0
 11
-1.750000000000003
 21
0.0000000000000001
 31
0.0
210
0.0
220
0.0
230
1.0
 40
0.577350269189626
 41
0.3143546097304749
 42
2.827238043859317
  0
ELLIPSE
  5
30B1
330
3031
100
AcDbEntity
  8
0
100
AcDbEllipse
 10
-0.0000000000000044
 20
-7.287770503174431
 30
0.0
 11
-2.126524613390194
 21
-0.0000000000000001
 31
0.0
210
0.0
220
0.0
230
1.0
 40
0.5773502691896258
 41
5.956776068670669
 42
9.751187199278295
  0
ELLIPSE
  5
30B2
330
3031
100
AcDbEntity
  8
0
100
AcDbEllipse
 10
-0.0000000000000044
 20
-7.399208358308508
 30
0.0
 11
-2.191623175793066
 21
0.0000000000000001
 31
0.0
210
0.0
220
0.0
230
1.0
 40
0.5773502691896258
 41
0.3143546097304754
 42
2.827238043859318
  0
ELLIPSE
  5
30B3
330
3031
100
AcDbEntity
  8
0
100
AcDbEllipse
 10
-0.0000000000000044
 20
-6.182575488126778
 30
0.0
 11
-1.750000000000003
 21
0.0000000000000001
 31
0.0
210
0.0
220
0.0
230
1.0
 40
0.577350269189626
 41
0.3143546097304749
 42
2.827238043859317
  0
ELLIPSE
  5
30B4
330
3031
100
AcDbEntity
  8
0
100
AcDbEllipse
 10
-0.0000000000000044
 20
-6.267149777014773
 30
0.0
 11
-2.126524613390194
 21
-0.0000000000000001
 31
0.0
210
0.0
220
0.0
230
1.0
 40
0.5773502691896258
 41
5.956776068670669
 42
9.751187199278295
  0
ELLIPSE
  5
30B5
330
3031
100
AcDbEntity
  8
0
100
AcDbEllipse
 10
-0.0000000000000044
 20
-6.378587632148851
 30
0.0
 11
-2.191623175793066
 21
0.0000000000000001
 31
0.0
210
0.0
220
0.0
230
1.0
 40
0.5773502691896258
 41
0.3143546097304754
 42
2.827238043859318
  0
ELLIPSE
  5
30B6
330
3031
100
AcDbEntity
  8
0
100
AcDbEllipse
 10
-0.0000000000000044
 20
-5.16195476196712
 30
0.0
 11
-1.750000000000003
 21
0.0000000000000001
 31
0.0
210
0.0
220
0.0
230
1.0
 40
0.577350269189626
 41
0.3143546097304749
 42
2.827238043859317
  0
ELLIPSE
  5
30B7
330
3031
100
AcDbEntity
  8
0
100
AcDbEllipse
 10
-0.0000000000000044
 20
-5.246529050855115
 30
0.0
 11
-2.126524613390194
 21
-0.0000000000000001
 31
0.0
210
0.0
220
0.0
230
1.0
 40
0.5773502691896258
 41
5.956776068670669
 42
9.751187199278295
  0
ELLIPSE
  5
30B8
330
3031
100
AcDbEntity
  8
0
100
AcDbEllipse
 10
-0.0000000000000044
 20
-5.357966905989193
 30
0.0
 11
-2.191623175793066
 21
0.0000000000000001
 31
0.0
210
0.0
220
0.0
230
1.0
 40
0.5773502691896258
 41
0.3143546097304754
 42
2.827238043859318
  0
ELLIPSE
  5
30B9
330
3031
100
AcDbEntity
  8
0
100
AcDbEllipse
 10
-0.0000000000000044
 20
-4.141334035807464
 30
0.0
 11
-1.750000000000003
 21
0.0000000000000001
 31
0.0
210
0.0
220
0.0
230
1.0
 40
0.577350269189626
 41
0.3143546097304755
 42
2.827238043859317
  0
ELLIPSE
  5
30BA
330
3031
100
AcDbEntity
  8
0
100
AcDbEllipse
 10
-0.0000000000000044
 20
-4.225908324695457
 30
0.0
 11
-2.126524613390194
 21
-0.0000000000000001
 31
0.0
210
0.0
220
0.0
230
1.0
 40
0.5773502691896258
 41
5.956776068670669
 42
9.751187199278295
  0
ELLIPSE
  5
30BB
330
3031
100
AcDbEntity
  8
0
100
AcDbEllipse
 10
-0.0000000000000044
 20
-4.337346179829535
 30
0.0
 11
-2.191623175793066
 21
0.0000000000000001
 31
0.0
210
0.0
220
0.0
230
1.0
 40
0.5773502691896258
 41
0.3143546097304753
 42
2.827238043859317
  0
ELLIPSE
  5
30BC
330
3031
100
AcDbEntity
  8
0
100
AcDbEllipse
 10
-0.0000000000000044
 20
-3.120713309647806
 30
0.0
 11
-1.750000000000003
 21
0.0000000000000001
 31
0.0
210
0.0
220
0.0
230
1.0
 40
0.577350269189626
 41
0.3143546097304755
 42
2.827238043859317
  0
ELLIPSE
  5
30BD
330
3031
100
AcDbEntity
  8
0
100
AcDbEllipse
 10
-0.0000000000000044
 20
-3.205287598535799
 30
0.0
 11
-2.126524613390194
 21
-0.0000000000000001
 31
0.0
210
0.0
220
0.0
230
1.0
 40
0.5773502691896258
 41
5.956776068670669
 42
9.751187199278295
  0
ELLIPSE
  5
30BE
330
3031
100
AcDbEntity
  8
0
100
AcDbEllipse
 10
-0.0000000000000044
 20
-3.316725453669877
 30
0.0
 11
-2.191623175793066
 21
0.0000000000000001
 31
0.0
210
0.0
220
0.0
230
1.0
 40
0.5773502691896258
 41
0.3143546097304753
 42
2.827238043859317
  0
ELLIPSE
  5
30BF
330
3031
100
AcDbEntity
  8
0
100
AcDbEllipse
 10
-0.0000000000000044
 20
-2.100092583488148
 30
0.0
 11
-1.750000000000003
 21
0.0000000000000001
 31
0.0
210
0.0
220
0.0
230
1.0
 40
0.577350269189626
 41
0.3143546097304752
 42
2.827238043859317
  0
ELLIPSE
  5
30C0
330
3031
100
AcDbEntity
  8
0
100
AcDbEllipse
 10
-0.0000000000000044
 20
-2.184666872376141
 30
0.0
 11
-2.126524613390194
 21
-0.0000000000000001
 31
0.0
210
0.0
220
0.0
230
1.0
 40
0.5773502691896258
 41
5.956776068670669
 42
9.751187199278295
  0
ELLIPSE
  5
30C1
330
3031
100
AcDbEntity
  8
0
100
AcDbEllipse
 10
-0.0000000000000044
 20
-2.296104727510219
 30
0.0
 11
-2.191623175793066
 21
0.0000000000000001
 31
0.0
210
0.0
220
0.0
230
1.0
 40
0.5773502691896258
 41
0.3143546097304753
 42
2.827238043859317
  0
ELLIPSE
  5
30C2
330
3031
100
AcDbEntity
  8
0
100
AcDbEllipse
 10
-0.0000000000000044
 20
-1.079471857328491
 30
0.0
 11
-1.750000000000003
 21
0.0000000000000001
 31
0.0
210
0.0
220
0.0
230
1.0
 40
0.577350269189626
 41
0.3143546097304752
 42
2.827238043859317
  0
ELLIPSE
  5
30C3
330
3031
100
AcDbEntity
  8
0
100
AcDbEllipse
 10
-0.0000000000000044
 20
-1.164046146216484
 30
0.0
 11
-2.126524613390194
 21
-0.0000000000000001
 31
0.0
210
0.0
220
0.0
230
1.0
 40
0.5773502691896258
 41
5.956776068670669
 42
9.751187199278295
  0
ELLIPSE
  5
30C4
330
3031
100
AcDbEntity
  8
0
100
AcDbEllipse
 10
-0.0000000000000044
 20
-1.275484001350564
 30
0.0
 11
-2.191623175793066
 21
0.0000000000000001
 31
0.0
210
0.0
220
0.0
230
1.0
 40
0.5773502691896258
 41
0.3143546097304753
 42
2.827238043859317
  0
ELLIPSE
  5
30C5
330
3031
100
AcDbEntity
  8
0
100
AcDbEllipse
 10
-0.0000000000000044
 20
-0.0588511311688333
 30
0.0
 11
-1.750000000000003
 21
0.0000000000000001
 31
0.0
210
0.0
220
0.0
230
1.0
 40
0.577350269189626
 41
0.3143546097304752
 42
2.827238043859317
  0
ELLIPSE
  5
30C6
330
3031
100
AcDbEntity
  8
0
100
AcDbEllipse
 10
-0.0000000000000044
 20
-0.1434254200568263
 30
0.0
 11
-2.126524613390194
 21
-0.0000000000000001
 31
0.0
210
0.0
220
0.0
230
1.0
 40
0.5773502691896258
 41
5.956776068670669
 42
9.751187199278295
  0
ELLIPSE
  5
30C7
330
3031
100
AcDbEntity
  8
0
100
AcDbEllipse
 10
-0.0000000000000044
 20
-0.2548632751909041
 30
0.0
 11
-2.191623175793066
 21
0.0000000000000001
 31
0.0
210
0.0
220
0.0
230
1.0
 40
0.5773502691896258
 41
0.3143546097304753
 42
2.827238043859317
  0
ELLIPSE
  5
30C8
330
3031
100
AcDbEntity
  8
0
100
AcDbEllipse
 10
-0.0000000000000044
 20
0.9617695949908222
 30
0.0
 11
-1.750000000000003
 21
0.0000000000000001
 31
0.0
210
0.0
220
0.0
230
1.0
 40
0.577350269189626
 41
0.3143546097304753
 42
2.827238043859317
  0
ELLIPSE
  5
30C9
330
3031
100
AcDbEntity
  8
0
100
AcDbEllipse
 10
-0.0000000000000044
 20
0.8771953061028291
 30
0.0
 11
-2.126524613390194
 21
-0.0000000000000001
 31
0.0
210
0.0
220
0.0
230
1.0
 40
0.5773502691896258
 41
5.956776068670669
 42
9.751187199278295
  0
ELLIPSE
  5
30CA
330
3031
100
AcDbEntity
  8
0
100
AcDbEllipse
 10
-0.0000000000000044
 20
0.7657574509687537
 30
0.0
 11
-2.191623175793066
 21
0.0000000000000001
 31
0.0
210
0.0
220
0.0
230
1.0
 40
0.5773502691896258
 41
0.3143546097304753
 42
2.827238043859317
  0
ELLIPSE
  5
30CB
330
3031
100
AcDbEntity
  8
0
100
AcDbEllipse
 10
-0.0000000000000044
 20
1.98239032115048
 30
0.0
 11
-1.750000000000003
 21
0.0000000000000001
 31
0.0
210
0.0
220
0.0
230
1.0
 40
0.577350269189626
 41
0.3143546097304752
 42
2.827238043859317
  0
ELLIPSE
  5
30CC
330
3031
100
AcDbEntity
  8
0
100
AcDbEllipse
 10
-0.0000000000000044
 20
1.897816032262486
 30
0.0
 11
-2.126524613390194
 21
-0.0000000000000001
 31
0.0
210
0.0
220
0.0
230
1.0
 40
0.5773502691896258
 41
5.956776068670669
 42
9.751187199278295
  0
ELLIPSE
  5
30CD
330
3031
100
AcDbEntity
  8
0
100
AcDbEllipse
 10
-0.0000000000000044
 20
1.786378177128411
 30
0.0
 11
-2.191623175793066
 21
0.0000000000000001
 31
0.0
210
0.0
220
0.0
230
1.0
 40
0.5773502691896258
 41
0.3143546097304753
 42
2.827238043859317
  0
ELLIPSE
  5
30CE
330
3031
100
AcDbEntity
  8
0
100
AcDbEllipse
 10
-0.0000000000000044
 20
3.003011047310137
 30
0.0
 11
-1.750000000000003
 21
0.0000000000000001
 31
0.0
210
0.0
220
0.0
230
1.0
 40
0.577350269189626
 41
0.3143546097304755
 42
2.827238043859317
  0
ELLIPSE
  5
30CF
330
3031
100
AcDbEntity
  8
0
100
AcDbEllipse
 10
-0.0000000000000044
 20
2.918436758422144
 30
0.0
 11
-2.126524613390194
 21
-0.0000000000000001
 31
0.0
210
0.0
220
0.0
230
1.0
 40
0.5773502691896258
 41
5.956776068670669
 42
9.751187199278295
  0
ELLIPSE
  5
30D0
330
3031
100
AcDbEntity
  8
0
100
AcDbEllipse
 10
-0.0000000000000044
 20
2.806998903288069
 30
0.0
 11
-2.191623175793066
 21
0.0000000000000001
 31
0.0
210
0.0
220
0.0
230
1.0
 40
0.5773502691896258
 41
0.3143546097304753
 42
2.827238043859317
  0
ELLIPSE
  5
30D1
330
3031
100
AcDbEntity
  8
0
100
AcDbEllipse
 10
-0.0000000000000044
 20
4.023631773469795
 30
0.0
 11
-1.750000000000003
 21
0.0000000000000001
 31
0.0
210
0.0
220
0.0
230
1.0
 40
0.577350269189626
 41
0.3143546097304755
 42
2.827238043859317
  0
ELLIPSE
  5
30D2
330
3031
100
AcDbEntity
  8
0
100
AcDbEllipse
 10
-0.0000000000000044
 20
3.939057484581802
 30
0.0
 11
-2.126524613390194
 21
-0.0000000000000001
 31
0.0
210
0.0
220
0.0
230
1.0
 40
0.5773502691896258
 41
5.956776068670669
 42
9.751187199278295
  0
ELLIPSE
  5
30D3
330
3031
100
AcDbEntity
  8
0
100
AcDbEllipse
 10
-0.0000000000000044
 20
3.827619629447727
 30
0.0
 11
-2.191623175793066
 21
0.0000000000000001
 31
0.0
210
0.0
220
0.0
230
1.0
 40
0.5773502691896258
 41
0.3143546097304753
 42
2.827238043859317
  0
ELLIPSE
  5
30D4
330
3031
100
AcDbEntity
  8
0
100
AcDbEllipse
 10
-0.0000000000000044
 20
5.044252499629453
 30
0.0
 11
-1.750000000000003
 21
0.0000000000000001
 31
0.0
210
0.0
220
0.0
230
1.0
 40
0.577350269189626
 41
0.3143546097304755
 42
2.827238043859317
  0
ELLIPSE
  5
30D5
330
3031
100
AcDbEntity
  8
0
100
AcDbEllipse
 10
-0.0000000000000044
 20
4.95967821074146
 30
0.0
 11
-2.126524613390194
 21
-0.0000000000000001
 31
0.0
210
0.0
220
0.0
230
1.0
 40
0.5773502691896258
 41
5.956776068670669
 42
9.751187199278295
  0
ELLIPSE
  5
30D6
330
3031
100
AcDbEntity
  8
0
100
AcDbEllipse
 10
-0.0000000000000044
 20
4.848240355607384
 30
0.0
 11
-2.191623175793066
 21
0.0000000000000001
 31
0.0
210
0.0
220
0.0
230
1.0
 40
0.5773502691896258
 41
0.3143546097304753
 42
2.827238043859317
  0
ELLIPSE
  5
30D7
330
3031
100
AcDbEntity
  8
0
100
AcDbEllipse
 10
-0.0000000000000044
 20
6.064873225789111
 30
0.0
 11
-1.750000000000003
 21
0.0000000000000001
 31
0.0
210
0.0
220
0.0
230
1.0
 40
0.577350269189626
 41
0.3143546097304749
 42
2.827238043859317
  0
ELLIPSE
  5
30D8
330
3031
100
AcDbEntity
  8
0
100
AcDbEllipse
 10
-0.0000000000000044
 20
5.980298936901117
 30
0.0
 11
-2.126524613390194
 21
-0.0000000000000001
 31
0.0
210
0.0
220
0.0
230
1.0
 40
0.5773502691896258
 41
5.956776068670669
 42
9.751187199278295
  0
ELLIPSE
  5
30D9
330
3031
100
AcDbEntity
  8
0
100
AcDbEllipse
 10
-0.0000000000000044
 20
5.868861081767041
 30
0.0
 11
-2.191623175793066
 21
0.0000000000000001
 31
0.0
210
0.0
220
0.0
230
1.0
 40
0.5773502691896258
 41
0.3143546097304754
 42
2.827238043859318
  0
ELLIPSE
  5
30DA
330
3031
100
AcDbEntity
  8
0
100
AcDbEllipse
 10
-0.0000000000000044
 20
7.085493951948768
 30
0.0
 11
-1.749999999999997
 21
0.0000000000000002
 31
0.0
210
0.0
220
0.0
230
1.0
 40
0.5773502691896258
 41
0.3143546097304735
 42
2.827238043859321
  0
ELLIPSE
  5
30DB
330
3031
100
AcDbEntity
  8
0
100
AcDbEllipse
 10
-0.0000000000000044
 20
7.000919663060774
 30
0.0
 11
-2.126524613390194
 21
0.0
 31
0.0
210
0.0
220
0.0
230
1.0
 40
0.577350269189626
 41
5.92231168232028
 42
9.785651585628675
  0
ELLIPSE
  5
30DC
330
3031
100
AcDbEntity
  8
0
100
AcDbEllipse
 10
-0.0000000000000044
 20
6.889481807926699
 30
0.0
 11
-2.191623175793066
 21
0.0000000000000001
 31
0.0
210
0.0
220
0.0
230
1.0
 40
0.5773502691896258
 41
0.3143546097304754
 42
2.827238043859318
  0
SPLINE
  5
30DD
330
3031
100
AcDbEntity
  8
0
100
AcDbSpline
210
0.0
220
0.0
230
1.0
 70
     8
 71
     3
 72
    12
 73
     8
 74
     0
 42
0.000000001
 43
0.0000000001
 40
0.4710435536669474
 40
0.4710435536669474
 40
0.4710435536669474
 40
0.4710435536669474
 40
0.7820503547189653
 40
0.7820503547189653
 40
1.07599178902394
 40
1.07599178902394
 40
1.164704273717283
 40
1.164704273717283
 40
1.164704273717283
 40
1.164704273717283
 10
2.084225166090883
 20
-11.87293611454551
 30
0.0
 10
2.158936633132981
 20
-11.74026938920411
 30
0.0
 10
2.199153602695838
 20
-11.59726375926316
 30
0.0
 10
2.200773793621874
 20
-11.3178528781606
 30
0.0
 10
2.166409101712267
 20
-11.18235400185318
 30
0.0
 10
2.080933970507219
 20
-11.01733965427698
 30
0.0
 10
2.058305425268169
 20
-10.97983947834115
 30
0.0
 10
2.033027998263428
 20
-10.9432272774349
 30
0.0
  0
SPLINE
  5
30DE
330
3031
100
AcDbEntity
  8
0
100
AcDbSpline
210
0.0
220
0.0
230
1.0
 70
     8
 71
     3
 72
    12
 73
     8
 74
     0
 42
0.000000001
 43
0.0000000001
 40
3.547684706667407
 40
3.547684706667407
 40
3.547684706667407
 40
3.547684706667407
 40
3.669602340872341
 40
3.669602340872341
 40
3.976209328623869
 40
3.976209328623869
 40
4.241345426717742
 40
4.241345426717742
 40
4.241345426717742
 40
4.241345426717742
 10
-2.033027998263437
 20
-10.9432272774349
 30
0.0
 10
-2.067766785141731
 20
-10.99354345258157
 30
0.0
 10
-2.09750187012732
 20
-11.04554248161766
 30
0.0
 10
-2.182946322891827
 20
-11.23295240237052
 30
0.0
 10
-2.209151776725327
 20
-11.37581293017839
 30
0.0
 10
-2.186668892840651
 20
-11.63933198734746
 30
0.0
 10
-2.147917364420335
 20
-11.75983653670693
 30
0.0
 10
-2.084225166090892
 20
-11.87293611454551
 30
0.0
  0
LINE
  5
30DF
330
3031
100
AcDbEntity
  8
0
100
AcDbLine
 10
-1.664243233483441
 20
-12.61870687648479
 30
0.0
 11
-2.084225166090909
 21
-11.87293611454548
 31
0.0
  0
LINE
  5
30E0
330
3031
100
AcDbEntity
  8
0
100
AcDbLine
 10
1.664243233483432
 20
-12.61870687648479
 30
0.0
 11
2.0842251660909
 21
-11.87293611454548
 31
0.0
  0
SPLINE
  5
30E1
330
3031
100
AcDbEntity
  8
0
100
AcDbSpline
210
0.0
220
0.0
230
1.0
 70
     8
 71
     3
 72
    12
 73
     8
 74
     0
 42
0.000000001
 43
0.0000000001
 40
0.4710435536669474
 40
0.4710435536669474
 40
0.4710435536669474
 40
0.4710435536669474
 40
0.7820503547189653
 40
0.7820503547189653
 40
1.07599178902394
 40
1.07599178902394
 40
1.164704273717283
 40
1.164704273717283
 40
1.164704273717283
 40
1.164704273717283
 10
2.084225166090883
 20
-10.85231538838585
 30
0.0
 10
2.158936633132981
 20
-10.71964866304445
 30
0.0
 10
2.199153602695838
 20
-10.5766430331035
 30
0.0
 10
2.200773793621874
 20
-10.29723215200095
 30
0.0
 10
2.166409101712267
 20
-10.16173327569352
 30
0.0
 10
2.080933970507219
 20
-9.996718928117317
 30
0.0
 10
2.058305425268169
 20
-9.959218752181495
 30
0.0
 10
2.033027998263428
 20
-9.922606551275237
 30
0.0
  0
SPLINE
  5
30E2
330
3031
100
AcDbEntity
  8
0
100
AcDbSpline
210
0.0
220
0.0
230
1.0
 70
     8
 71
     3
 72
    12
 73
     8
 74
     0
 42
0.000000001
 43
0.0000000001
 40
3.547684706667407
 40
3.547684706667407
 40
3.547684706667407
 40
3.547684706667407
 40
3.669602340872341
 40
3.669602340872341
 40
3.976209328623869
 40
3.976209328623869
 40
4.241345426717742
 40
4.241345426717742
 40
4.241345426717742
 40
4.241345426717742
 10
-2.033027998263437
 20
-9.92260655127524
 30
0.0
 10
-2.067766785141731
 20
-9.972922726421913
 30
0.0
 10
-2.09750187012732
 20
-10.024921755458
 30
0.0
 10
-2.182946322891827
 20
-10.21233167621086
 30
0.0
 10
-2.209151776725327
 20
-10.35519220401873
 30
0.0
 10
-2.186668892840651
 20
-10.61871126118781
 30
0.0
 10
-2.147917364420335
 20
-10.73921581054727
 30
0.0
 10
-2.084225166090892
 20
-10.85231538838585
 30
0.0
  0
LINE
  5
30E3
330
3031
100
AcDbEntity
  8
0
100
AcDbLine
 10
-1.664243233483441
 20
-11.59808615032513
 30
0.0
 11
-2.084225166090909
 21
-10.85231538838582
 31
0.0
  0
LINE
  5
30E4
330
3031
100
AcDbEntity
  8
0
100
AcDbLine
 10
1.664243233483432
 20
-11.59808615032513
 30
0.0
 11
2.0842251660909
 21
-10.85231538838582
 31
0.0
  0
SPLINE
  5
30E5
330
3031
100
AcDbEntity
  8
0
100
AcDbSpline
210
0.0
220
0.0
230
1.0
 70
     8
 71
     3
 72
    12
 73
     8
 74
     0
 42
0.000000001
 43
0.0000000001
 40
0.4710435536669474
 40
0.4710435536669474
 40
0.4710435536669474
 40
0.4710435536669474
 40
0.7820503547189653
 40
0.7820503547189653
 40
1.07599178902394
 40
1.07599178902394
 40
1.164704273717283
 40
1.164704273717283
 40
1.164704273717283
 40
1.164704273717283
 10
2.084225166090883
 20
-9.831694662226194
 30
0.0
 10
2.158936633132981
 20
-9.699027936884796
 30
0.0
 10
2.199153602695838
 20
-9.556022306943848
 30
0.0
 10
2.200773793621874
 20
-9.27661142584129
 30
0.0
 10
2.166409101712267
 20
-9.141112549533865
 30
0.0
 10
2.080933970507219
 20
-8.976098201957665
 30
0.0
 10
2.058305425268169
 20
-8.938598026021837
 30
0.0
 10
2.033027998263428
 20
-8.901985825115584
 30
0.0
  0
SPLINE
  5
30E6
330
3031
100
AcDbEntity
  8
0
100
AcDbSpline
210
0.0
220
0.0
230
1.0
 70
     8
 71
     3
 72
    12
 73
     8
 74
     0
 42
0.000000001
 43
0.0000000001
 40
3.547684706667407
 40
3.547684706667407
 40
3.547684706667407
 40
3.547684706667407
 40
3.669602340872341
 40
3.669602340872341
 40
3.976209328623869
 40
3.976209328623869
 40
4.241345426717742
 40
4.241345426717742
 40
4.241345426717742
 40
4.241345426717742
 10
-2.033027998263437
 20
-8.901985825115584
 30
0.0
 10
-2.067766785141731
 20
-8.952302000262255
 30
0.0
 10
-2.09750187012732
 20
-9.00430102929835
 30
0.0
 10
-2.182946322891827
 20
-9.191710950051202
 30
0.0
 10
-2.209151776725327
 20
-9.334571477859077
 30
0.0
 10
-2.186668892840651
 20
-9.598090535028148
 30
0.0
 10
-2.147917364420335
 20
-9.718595084387612
 30
0.0
 10
-2.084225166090892
 20
-9.831694662226194
 30
0.0
  0
LINE
  5
30E7
330
3031
100
AcDbEntity
  8
0
100
AcDbLine
 10
-1.664243233483441
 20
-10.57746542416547
 30
0.0
 11
-2.084225166090909
 21
-9.831694662226162
 31
0.0
  0
LINE
  5
30E8
330
3031
100
AcDbEntity
  8
0
100
AcDbLine
 10
1.664243233483432
 20
-10.57746542416547
 30
0.0
 11
2.0842251660909
 21
-9.831694662226162
 31
0.0
  0
SPLINE
  5
30E9
330
3031
100
AcDbEntity
  8
0
100
AcDbSpline
210
0.0
220
0.0
230
1.0
 70
     8
 71
     3
 72
    12
 73
     8
 74
     0
 42
0.000000001
 43
0.0000000001
 40
0.4710435536669474
 40
0.4710435536669474
 40
0.4710435536669474
 40
0.4710435536669474
 40
0.7820503547189653
 40
0.7820503547189653
 40
1.07599178902394
 40
1.07599178902394
 40
1.164704273717283
 40
1.164704273717283
 40
1.164704273717283
 40
1.164704273717283
 10
2.084225166090883
 20
-8.811073936066534
 30
0.0
 10
2.158936633132981
 20
-8.678407210725138
 30
0.0
 10
2.199153602695838
 20
-8.535401580784188
 30
0.0
 10
2.200773793621874
 20
-8.255990699681632
 30
0.0
 10
2.166409101712267
 20
-8.120491823374207
 30
0.0
 10
2.080933970507219
 20
-7.955477475798007
 30
0.0
 10
2.058305425268169
 20
-7.917977299862184
 30
0.0
 10
2.033027998263428
 20
-7.881365098955925
 30
0.0
  0
SPLINE
  5
30EA
330
3031
100
AcDbEntity
  8
0
100
AcDbSpline
210
0.0
220
0.0
230
1.0
 70
     8
 71
     3
 72
    12
 73
     8
 74
     0
 42
0.000000001
 43
0.0000000001
 40
3.547684706667407
 40
3.547684706667407
 40
3.547684706667407
 40
3.547684706667407
 40
3.669602340872341
 40
3.669602340872341
 40
3.976209328623869
 40
3.976209328623869
 40
4.241345426717742
 40
4.241345426717742
 40
4.241345426717742
 40
4.241345426717742
 10
-2.033027998263437
 20
-7.881365098955925
 30
0.0
 10
-2.067766785141731
 20
-7.931681274102597
 30
0.0
 10
-2.09750187012732
 20
-7.983680303138691
 30
0.0
 10
-2.182946322891827
 20
-8.171090223891543
 30
0.0
 10
-2.209151776725327
 20
-8.313950751699419
 30
0.0
 10
-2.186668892840651
 20
-8.577469808868492
 30
0.0
 10
-2.147917364420335
 20
-8.697974358227952
 30
0.0
 10
-2.084225166090892
 20
-8.811073936066534
 30
0.0
  0
LINE
  5
30EB
330
3031
100
AcDbEntity
  8
0
100
AcDbLine
 10
-1.664243233483441
 20
-9.556844698005818
 30
0.0
 11
-2.084225166090909
 21
-8.811073936066504
 31
0.0
  0
LINE
  5
30EC
330
3031
100
AcDbEntity
  8
0
100
AcDbLine
 10
1.664243233483432
 20
-9.556844698005818
 30
0.0
 11
2.0842251660909
 21
-8.811073936066504
 31
0.0
  0
SPLINE
  5
30ED
330
3031
100
AcDbEntity
  8
0
100
AcDbSpline
210
0.0
220
0.0
230
1.0
 70
     8
 71
     3
 72
    12
 73
     8
 74
     0
 42
0.000000001
 43
0.0000000001
 40
0.4710435536669474
 40
0.4710435536669474
 40
0.4710435536669474
 40
0.4710435536669474
 40
0.7820503547189653
 40
0.7820503547189653
 40
1.07599178902394
 40
1.07599178902394
 40
1.164704273717283
 40
1.164704273717283
 40
1.164704273717283
 40
1.164704273717283
 10
2.084225166090883
 20
-7.790453209906877
 30
0.0
 10
2.158936633132981
 20
-7.65778648456548
 30
0.0
 10
2.199153602695838
 20
-7.514780854624532
 30
0.0
 10
2.200773793621874
 20
-7.235369973521974
 30
0.0
 10
2.166409101712267
 20
-7.099871097214549
 30
0.0
 10
2.080933970507219
 20
-6.934856749638349
 30
0.0
 10
2.058305425268169
 20
-6.897356573702526
 30
0.0
 10
2.033027998263428
 20
-6.860744372796268
 30
0.0
  0
SPLINE
  5
30EE
330
3031
100
AcDbEntity
  8
0
100
AcDbSpline
210
0.0
220
0.0
230
1.0
 70
     8
 71
     3
 72
    12
 73
     8
 74
     0
 42
0.000000001
 43
0.0000000001
 40
3.547684706667407
 40
3.547684706667407
 40
3.547684706667407
 40
3.547684706667407
 40
3.669602340872341
 40
3.669602340872341
 40
3.976209328623869
 40
3.976209328623869
 40
4.241345426717742
 40
4.241345426717742
 40
4.241345426717742
 40
4.241345426717742
 10
-2.033027998263437
 20
-6.860744372796268
 30
0.0
 10
-2.067766785141731
 20
-6.911060547942939
 30
0.0
 10
-2.09750187012732
 20
-6.963059576979033
 30
0.0
 10
-2.182946322891827
 20
-7.150469497731886
 30
0.0
 10
-2.209151776725327
 20
-7.293330025539761
 30
0.0
 10
-2.186668892840651
 20
-7.556849082708834
 30
0.0
 10
-2.147917364420335
 20
-7.677353632068295
 30
0.0
 10
-2.084225166090892
 20
-7.790453209906877
 30
0.0
  0
LINE
  5
30EF
330
3031
100
AcDbEntity
  8
0
100
AcDbLine
 10
-1.664243233483441
 20
-8.536223971846158
 30
0.0
 11
-2.084225166090909
 21
-7.790453209906846
 31
0.0
  0
LINE
  5
30F0
330
3031
100
AcDbEntity
  8
0
100
AcDbLine
 10
1.664243233483432
 20
-8.536223971846158
 30
0.0
 11
2.0842251660909
 21
-7.790453209906846
 31
0.0
  0
SPLINE
  5
30F1
330
3031
100
AcDbEntity
  8
0
100
AcDbSpline
210
0.0
220
0.0
230
1.0
 70
     8
 71
     3
 72
    12
 73
     8
 74
     0
 42
0.000000001
 43
0.0000000001
 40
0.4710435536669474
 40
0.4710435536669474
 40
0.4710435536669474
 40
0.4710435536669474
 40
0.7820503547189653
 40
0.7820503547189653
 40
1.07599178902394
 40
1.07599178902394
 40
1.164704273717283
 40
1.164704273717283
 40
1.164704273717283
 40
1.164704273717283
 10
2.084225166090883
 20
-6.76983248374722
 30
0.0
 10
2.158936633132981
 20
-6.637165758405823
 30
0.0
 10
2.199153602695838
 20
-6.494160128464874
 30
0.0
 10
2.200773793621874
 20
-6.214749247362316
 30
0.0
 10
2.166409101712267
 20
-6.079250371054891
 30
0.0
 10
2.080933970507219
 20
-5.914236023478691
 30
0.0
 10
2.058305425268169
 20
-5.876735847542868
 30
0.0
 10
2.033027998263428
 20
-5.84012364663661
 30
0.0
  0
SPLINE
  5
30F2
330
3031
100
AcDbEntity
  8
0
100
AcDbSpline
210
0.0
220
0.0
230
1.0
 70
     8
 71
     3
 72
    12
 73
     8
 74
     0
 42
0.000000001
 43
0.0000000001
 40
3.547684706667407
 40
3.547684706667407
 40
3.547684706667407
 40
3.547684706667407
 40
3.669602340872341
 40
3.669602340872341
 40
3.976209328623869
 40
3.976209328623869
 40
4.241345426717742
 40
4.241345426717742
 40
4.241345426717742
 40
4.241345426717742
 10
-2.033027998263437
 20
-5.84012364663661
 30
0.0
 10
-2.067766785141731
 20
-5.890439821783282
 30
0.0
 10
-2.09750187012732
 20
-5.942438850819375
 30
0.0
 10
-2.182946322891827
 20
-6.129848771572228
 30
0.0
 10
-2.209151776725327
 20
-6.272709299380103
 30
0.0
 10
-2.186668892840651
 20
-6.536228356549176
 30
0.0
 10
-2.147917364420335
 20
-6.656732905908637
 30
0.0
 10
-2.084225166090892
 20
-6.76983248374722
 30
0.0
  0
LINE
  5
30F3
330
3031
100
AcDbEntity
  8
0
100
AcDbLine
 10
-1.664243233483441
 20
-7.515603245686501
 30
0.0
 11
-2.084225166090909
 21
-6.769832483747189
 31
0.0
  0
LINE
  5
30F4
330
3031
100
AcDbEntity
  8
0
100
AcDbLine
 10
1.664243233483432
 20
-7.515603245686501
 30
0.0
 11
2.0842251660909
 21
-6.769832483747189
 31
0.0
  0
SPLINE
  5
30F5
330
3031
100
AcDbEntity
  8
0
100
AcDbSpline
210
0.0
220
0.0
230
1.0
 70
     8
 71
     3
 72
    12
 73
     8
 74
     0
 42
0.000000001
 43
0.0000000001
 40
0.4710435536669474
 40
0.4710435536669474
 40
0.4710435536669474
 40
0.4710435536669474
 40
0.7820503547189653
 40
0.7820503547189653
 40
1.07599178902394
 40
1.07599178902394
 40
1.164704273717283
 40
1.164704273717283
 40
1.164704273717283
 40
1.164704273717283
 10
2.084225166090883
 20
-5.749211757587562
 30
0.0
 10
2.158936633132981
 20
-5.616545032246165
 30
0.0
 10
2.199153602695838
 20
-5.473539402305216
 30
0.0
 10
2.200773793621874
 20
-5.194128521202658
 30
0.0
 10
2.166409101712267
 20
-5.058629644895233
 30
0.0
 10
2.080933970507219
 20
-4.893615297319033
 30
0.0
 10
2.058305425268169
 20
-4.85611512138321
 30
0.0
 10
2.033027998263428
 20
-4.819502920476952
 30
0.0
  0
SPLINE
  5
30F6
330
3031
100
AcDbEntity
  8
0
100
AcDbSpline
210
0.0
220
0.0
230
1.0
 70
     8
 71
     3
 72
    12
 73
     8
 74
     0
 42
0.000000001
 43
0.0000000001
 40
3.547684706667407
 40
3.547684706667407
 40
3.547684706667407
 40
3.547684706667407
 40
3.669602340872341
 40
3.669602340872341
 40
3.976209328623869
 40
3.976209328623869
 40
4.241345426717742
 40
4.241345426717742
 40
4.241345426717742
 40
4.241345426717742
 10
-2.033027998263437
 20
-4.819502920476952
 30
0.0
 10
-2.067766785141731
 20
-4.869819095623624
 30
0.0
 10
-2.09750187012732
 20
-4.921818124659718
 30
0.0
 10
-2.182946322891827
 20
-5.10922804541257
 30
0.0
 10
-2.209151776725327
 20
-5.252088573220445
 30
0.0
 10
-2.186668892840651
 20
-5.515607630389518
 30
0.0
 10
-2.147917364420335
 20
-5.636112179748979
 30
0.0
 10
-2.084225166090892
 20
-5.749211757587562
 30
0.0
  0
LINE
  5
30F7
330
3031
100
AcDbEntity
  8
0
100
AcDbLine
 10
-1.664243233483441
 20
-6.494982519526844
 30
0.0
 11
-2.084225166090909
 21
-5.749211757587531
 31
0.0
  0
LINE
  5
30F8
330
3031
100
AcDbEntity
  8
0
100
AcDbLine
 10
1.664243233483432
 20
-6.494982519526844
 30
0.0
 11
2.0842251660909
 21
-5.749211757587531
 31
0.0
  0
SPLINE
  5
30F9
330
3031
100
AcDbEntity
  8
0
100
AcDbSpline
210
0.0
220
0.0
230
1.0
 70
     8
 71
     3
 72
    12
 73
     8
 74
     0
 42
0.000000001
 43
0.0000000001
 40
0.4710435536669474
 40
0.4710435536669474
 40
0.4710435536669474
 40
0.4710435536669474
 40
0.7820503547189653
 40
0.7820503547189653
 40
1.07599178902394
 40
1.07599178902394
 40
1.164704273717283
 40
1.164704273717283
 40
1.164704273717283
 40
1.164704273717283
 10
2.084225166090883
 20
-4.728591031427904
 30
0.0
 10
2.158936633132981
 20
-4.595924306086507
 30
0.0
 10
2.199153602695838
 20
-4.452918676145558
 30
0.0
 10
2.200773793621874
 20
-4.173507795043001
 30
0.0
 10
2.166409101712267
 20
-4.038008918735576
 30
0.0
 10
2.080933970507219
 20
-3.872994571159376
 30
0.0
 10
2.058305425268169
 20
-3.835494395223555
 30
0.0
 10
2.033027998263428
 20
-3.798882194317296
 30
0.0
  0
SPLINE
  5
30FA
330
3031
100
AcDbEntity
  8
0
100
AcDbSpline
210
0.0
220
0.0
230
1.0
 70
     8
 71
     3
 72
    12
 73
     8
 74
     0
 42
0.000000001
 43
0.0000000001
 40
3.547684706667407
 40
3.547684706667407
 40
3.547684706667407
 40
3.547684706667407
 40
3.669602340872341
 40
3.669602340872341
 40
3.976209328623869
 40
3.976209328623869
 40
4.241345426717742
 40
4.241345426717742
 40
4.241345426717742
 40
4.241345426717742
 10
-2.033027998263437
 20
-3.798882194317299
 30
0.0
 10
-2.067766785141731
 20
-3.849198369463968
 30
0.0
 10
-2.09750187012732
 20
-3.901197398500062
 30
0.0
 10
-2.182946322891827
 20
-4.088607319252909
 30
0.0
 10
-2.209151776725327
 20
-4.231467847060789
 30
0.0
 10
-2.186668892840651
 20
-4.49498690422986
 30
0.0
 10
-2.147917364420335
 20
-4.615491453589326
 30
0.0
 10
-2.084225166090892
 20
-4.728591031427904
 30
0.0
  0
LINE
  5
30FB
330
3031
100
AcDbEntity
  8
0
100
AcDbLine
 10
-1.664243233483441
 20
-5.474361793367186
 30
0.0
 11
-2.084225166090909
 21
-4.728591031427873
 31
0.0
  0
LINE
  5
30FC
330
3031
100
AcDbEntity
  8
0
100
AcDbLine
 10
1.664243233483432
 20
-5.474361793367186
 30
0.0
 11
2.0842251660909
 21
-4.728591031427873
 31
0.0
  0
SPLINE
  5
30FD
330
3031
100
AcDbEntity
  8
0
100
AcDbSpline
210
0.0
220
0.0
230
1.0
 70
     8
 71
     3
 72
    12
 73
     8
 74
     0
 42
0.000000001
 43
0.0000000001
 40
0.4710435536669474
 40
0.4710435536669474
 40
0.4710435536669474
 40
0.4710435536669474
 40
0.7820503547189653
 40
0.7820503547189653
 40
1.07599178902394
 40
1.07599178902394
 40
1.164704273717283
 40
1.164704273717283
 40
1.164704273717283
 40
1.164704273717283
 10
2.084225166090883
 20
-3.707970305268246
 30
0.0
 10
2.158936633132981
 20
-3.575303579926847
 30
0.0
 10
2.199153602695838
 20
-3.432297949985902
 30
0.0
 10
2.200773793621874
 20
-3.152887068883345
 30
0.0
 10
2.166409101712267
 20
-3.017388192575918
 30
0.0
 10
2.080933970507219
 20
-2.852373844999718
 30
0.0
 10
2.058305425268169
 20
-2.814873669063897
 30
0.0
 10
2.033027998263428
 20
-2.778261468157638
 30
0.0
  0
SPLINE
  5
30FE
330
3031
100
AcDbEntity
  8
0
100
AcDbSpline
210
0.0
220
0.0
230
1.0
 70
     8
 71
     3
 72
    12
 73
     8
 74
     0
 42
0.000000001
 43
0.0000000001
 40
3.547684706667407
 40
3.547684706667407
 40
3.547684706667407
 40
3.547684706667407
 40
3.669602340872341
 40
3.669602340872341
 40
3.976209328623869
 40
3.976209328623869
 40
4.241345426717742
 40
4.241345426717742
 40
4.241345426717742
 40
4.241345426717742
 10
-2.033027998263437
 20
-2.778261468157641
 30
0.0
 10
-2.067766785141731
 20
-2.82857764330431
 30
0.0
 10
-2.09750187012732
 20
-2.880576672340404
 30
0.0
 10
-2.182946322891827
 20
-3.067986593093252
 30
0.0
 10
-2.209151776725327
 20
-3.210847120901132
 30
0.0
 10
-2.186668892840651
 20
-3.4743661780702
 30
0.0
 10
-2.147917364420335
 20
-3.594870727429668
 30
0.0
 10
-2.084225166090892
 20
-3.707970305268246
 30
0.0
  0
LINE
  5
30FF
330
3031
100
AcDbEntity
  8
0
100
AcDbLine
 10
-1.664243233483441
 20
-4.453741067207528
 30
0.0
 11
-2.084225166090909
 21
-3.707970305268217
 31
0.0
  0
LINE
  5
3100
330
3031
100
AcDbEntity
  8
0
100
AcDbLine
 10
1.664243233483432
 20
-4.453741067207528
 30
0.0
 11
2.0842251660909
 21
-3.707970305268215
 31
0.0
  0
SPLINE
  5
3101
330
3031
100
AcDbEntity
  8
0
100
AcDbSpline
210
0.0
220
0.0
230
1.0
 70
     8
 71
     3
 72
    12
 73
     8
 74
     0
 42
0.000000001
 43
0.0000000001
 40
0.4710435536669474
 40
0.4710435536669474
 40
0.4710435536669474
 40
0.4710435536669474
 40
0.7820503547189653
 40
0.7820503547189653
 40
1.07599178902394
 40
1.07599178902394
 40
1.164704273717283
 40
1.164704273717283
 40
1.164704273717283
 40
1.164704273717283
 10
2.084225166090883
 20
-2.687349579108588
 30
0.0
 10
2.158936633132981
 20
-2.554682853767189
 30
0.0
 10
2.199153602695838
 20
-2.411677223826245
 30
0.0
 10
2.200773793621874
 20
-2.132266342723687
 30
0.0
 10
2.166409101712267
 20
-1.99676746641626
 30
0.0
 10
2.080933970507219
 20
-1.83175311884006
 30
0.0
 10
2.058305425268169
 20
-1.794252942904239
 30
0.0
 10
2.033027998263428
 20
-1.757640741997981
 30
0.0
  0
SPLINE
  5
3102
330
3031
100
AcDbEntity
  8
0
100
AcDbSpline
210
0.0
220
0.0
230
1.0
 70
     8
 71
     3
 72
    12
 73
     8
 74
     0
 42
0.000000001
 43
0.0000000001
 40
3.547684706667407
 40
3.547684706667407
 40
3.547684706667407
 40
3.547684706667407
 40
3.669602340872341
 40
3.669602340872341
 40
3.976209328623869
 40
3.976209328623869
 40
4.241345426717742
 40
4.241345426717742
 40
4.241345426717742
 40
4.241345426717742
 10
-2.033027998263437
 20
-1.757640741997983
 30
0.0
 10
-2.067766785141731
 20
-1.807956917144652
 30
0.0
 10
-2.09750187012732
 20
-1.859955946180746
 30
0.0
 10
-2.182946322891827
 20
-2.047365866933594
 30
0.0
 10
-2.209151776725327
 20
-2.190226394741474
 30
0.0
 10
-2.186668892840651
 20
-2.453745451910545
 30
0.0
 10
-2.147917364420335
 20
-2.57425000127001
 30
0.0
 10
-2.084225166090892
 20
-2.687349579108588
 30
0.0
  0
LINE
  5
3103
330
3031
100
AcDbEntity
  8
0
100
AcDbLine
 10
-1.664243233483441
 20
-3.433120341047872
 30
0.0
 11
-2.084225166090909
 21
-2.687349579108559
 31
0.0
  0
LINE
  5
3104
330
3031
100
AcDbEntity
  8
0
100
AcDbLine
 10
1.664243233483432
 20
-3.433120341047872
 30
0.0
 11
2.0842251660909
 21
-2.687349579108557
 31
0.0
  0
SPLINE
  5
3105
330
3031
100
AcDbEntity
  8
0
100
AcDbSpline
210
0.0
220
0.0
230
1.0
 70
     8
 71
     3
 72
    12
 73
     8
 74
     0
 42
0.000000001
 43
0.0000000001
 40
0.4710435536669474
 40
0.4710435536669474
 40
0.4710435536669474
 40
0.4710435536669474
 40
0.7820503547189653
 40
0.7820503547189653
 40
1.07599178902394
 40
1.07599178902394
 40
1.164704273717283
 40
1.164704273717283
 40
1.164704273717283
 40
1.164704273717283
 10
2.084225166090883
 20
-1.666728852948933
 30
0.0
 10
2.158936633132981
 20
-1.534062127607531
 30
0.0
 10
2.199153602695838
 20
-1.391056497666587
 30
0.0
 10
2.200773793621874
 20
-1.111645616564029
 30
0.0
 10
2.166409101712267
 20
-0.9761467402566026
 30
0.0
 10
2.080933970507219
 20
-0.8111323926804026
 30
0.0
 10
2.058305425268169
 20
-0.773632216744582
 30
0.0
 10
2.033027998263428
 20
-0.7370200158383234
 30
0.0
  0
SPLINE
  5
3106
330
3031
100
AcDbEntity
  8
0
100
AcDbSpline
210
0.0
220
0.0
230
1.0
 70
     8
 71
     3
 72
    12
 73
     8
 74
     0
 42
0.000000001
 43
0.0000000001
 40
3.547684706667407
 40
3.547684706667407
 40
3.547684706667407
 40
3.547684706667407
 40
3.669602340872341
 40
3.669602340872341
 40
3.976209328623869
 40
3.976209328623869
 40
4.241345426717742
 40
4.241345426717742
 40
4.241345426717742
 40
4.241345426717742
 10
-2.033027998263437
 20
-0.7370200158383256
 30
0.0
 10
-2.067766785141731
 20
-0.7873361909849952
 30
0.0
 10
-2.09750187012732
 20
-0.8393352200210891
 30
0.0
 10
-2.182946322891827
 20
-1.026745140773939
 30
0.0
 10
-2.209151776725327
 20
-1.169605668581816
 30
0.0
 10
-2.186668892840651
 20
-1.433124725750887
 30
0.0
 10
-2.147917364420335
 20
-1.553629275110353
 30
0.0
 10
-2.084225166090892
 20
-1.666728852948933
 30
0.0
  0
LINE
  5
3107
330
3031
100
AcDbEntity
  8
0
100
AcDbLine
 10
-1.664243233483441
 20
-2.412499614888214
 30
0.0
 11
-2.084225166090909
 21
-1.666728852948904
 31
0.0
  0
LINE
  5
3108
330
3031
100
AcDbEntity
  8
0
100
AcDbLine
 10
1.664243233483432
 20
-2.412499614888214
 30
0.0
 11
2.0842251660909
 21
-1.666728852948904
 31
0.0
  0
SPLINE
  5
3109
330
3031
100
AcDbEntity
  8
0
100
AcDbSpline
210
0.0
220
0.0
230
1.0
 70
     8
 71
     3
 72
    12
 73
     8
 74
     0
 42
0.000000001
 43
0.0000000001
 40
0.4710435536669654
 40
0.4710435536669654
 40
0.4710435536669654
 40
0.4710435536669654
 40
0.782050354718982
 40
0.782050354718982
 40
1.075991789023956
 40
1.075991789023956
 40
1.164704273717283
 40
1.164704273717283
 40
1.164704273717283
 40
1.164704273717283
 10
2.084225166090896
 20
-0.646108126789251
 30
0.0
 10
2.15893663313299
 20
-0.5134414014478517
 30
0.0
 10
2.199153602695842
 20
-0.3704357715069073
 30
0.0
 10
2.200773793621871
 20
-0.0910248904043498
 30
0.0
 10
2.166409101712259
 20
0.0444739859030774
 30
0.0
 10
2.08093397050721
 20
0.2094883334792708
 30
0.0
 10
2.058305425268164
 20
0.2469885094150825
 30
0.0
 10
2.033027998263428
 20
0.2836007103213345
 30
0.0
  0
SPLINE
  5
310A
330
3031
100
AcDbEntity
  8
0
100
AcDbSpline
210
0.0
220
0.0
230
1.0
 70
     8
 71
     3
 72
    12
 73
     8
 74
     0
 42
0.000000001
 43
0.0000000001
 40
3.547684706667406
 40
3.547684706667406
 40
3.547684706667406
 40
3.547684706667406
 40
3.669602340872358
 40
3.669602340872358
 40
3.976209328623884
 40
3.976209328623884
 40
4.241345426717724
 40
4.241345426717724
 40
4.241345426717724
 40
4.241345426717724
 10
-2.033027998263437
 20
0.2836007103213323
 30
0.0
 10
-2.067766785141736
 20
0.233284535174656
 30
0.0
 10
-2.097501870127329
 20
0.1812855061385532
 30
0.0
 10
-2.182946322891833
 20
-0.0061244146143036
 30
0.0
 10
-2.209151776725329
 20
-0.1489849424221812
 30
0.0
 10
-2.186668892840647
 20
-0.4125039995912339
 30
0.0
 10
-2.147917364420337
 20
-0.5330085489506864
 30
0.0
 10
-2.084225166090905
 20
-0.646108126789251
 30
0.0
  0
LINE
  5
310B
330
3031
100
AcDbEntity
  8
0
100
AcDbLine
 10
-1.664243233483441
 20
-1.391878888728557
 30
0.0
 11
-2.084225166090911
 21
-0.6461081267892422
 31
0.0
  0
LINE
  5
310C
330
3031
100
AcDbEntity
  8
0
100
AcDbLine
 10
1.664243233483432
 20
-1.391878888728557
 30
0.0
 11
2.084225166090902
 21
-0.6461081267892422
 31
0.0
  0
SPLINE
  5
310D
330
3031
100
AcDbEntity
  8
0
100
AcDbSpline
210
0.0
220
0.0
230
1.0
 70
     8
 71
     3
 72
    12
 73
     8
 74
     0
 42
0.000000001
 43
0.0000000001
 40
0.4710435536669654
 40
0.4710435536669654
 40
0.4710435536669654
 40
0.4710435536669654
 40
0.782050354718982
 40
0.782050354718982
 40
1.075991789023956
 40
1.075991789023956
 40
1.164704273717283
 40
1.164704273717283
 40
1.164704273717283
 40
1.164704273717283
 10
2.084225166090896
 20
0.3745125993704068
 30
0.0
 10
2.15893663313299
 20
0.5071793247118062
 30
0.0
 10
2.199153602695842
 20
0.6501849546527505
 30
0.0
 10
2.200773793621871
 20
0.9295958357553079
 30
0.0
 10
2.166409101712259
 20
1.065094712062735
 30
0.0
 10
2.08093397050721
 20
1.230109059638928
 30
0.0
 10
2.058305425268164
 20
1.26760923557474
 30
0.0
 10
2.033027998263428
 20
1.30422143648099
 30
0.0
  0
SPLINE
  5
310E
330
3031
100
AcDbEntity
  8
0
100
AcDbSpline
210
0.0
220
0.0
230
1.0
 70
     8
 71
     3
 72
    12
 73
     8
 74
     0
 42
0.000000001
 43
0.0000000001
 40
3.547684706667406
 40
3.547684706667406
 40
3.547684706667406
 40
3.547684706667406
 40
3.669602340872358
 40
3.669602340872358
 40
3.976209328623884
 40
3.976209328623884
 40
4.241345426717724
 40
4.241345426717724
 40
4.241345426717724
 40
4.241345426717724
 10
-2.033027998263437
 20
1.30422143648099
 30
0.0
 10
-2.067766785141736
 20
1.253905261334311
 30
0.0
 10
-2.097501870127329
 20
1.201906232298211
 30
0.0
 10
-2.182946322891833
 20
1.014496311545354
 30
0.0
 10
-2.209151776725329
 20
0.8716357837374765
 30
0.0
 10
-2.186668892840647
 20
0.608116726568424
 30
0.0
 10
-2.147917364420337
 20
0.4876121772089715
 30
0.0
 10
-2.084225166090905
 20
0.3745125993704068
 30
0.0
  0
LINE
  5
310F
330
3031
100
AcDbEntity
  8
0
100
AcDbLine
 10
-1.664243233483441
 20
-0.3712581625688993
 30
0.0
 11
-2.084225166090911
 21
0.3745125993704157
 31
0.0
  0
LINE
  5
3110
330
3031
100
AcDbEntity
  8
0
100
AcDbLine
 10
1.664243233483432
 20
-0.3712581625688993
 30
0.0
 11
2.084225166090902
 21
0.3745125993704157
 31
0.0
  0
SPLINE
  5
3111
330
3031
100
AcDbEntity
  8
0
100
AcDbSpline
210
0.0
220
0.0
230
1.0
 70
     8
 71
     3
 72
    12
 73
     8
 74
     0
 42
0.000000001
 43
0.0000000001
 40
0.4710435536669654
 40
0.4710435536669654
 40
0.4710435536669654
 40
0.4710435536669654
 40
0.782050354718982
 40
0.782050354718982
 40
1.075991789023956
 40
1.075991789023956
 40
1.164704273717283
 40
1.164704273717283
 40
1.164704273717283
 40
1.164704273717283
 10
2.084225166090896
 20
1.395133325530064
 30
0.0
 10
2.15893663313299
 20
1.527800050871461
 30
0.0
 10
2.199153602695842
 20
1.670805680812408
 30
0.0
 10
2.200773793621871
 20
1.950216561914965
 30
0.0
 10
2.166409101712259
 20
2.08571543822239
 30
0.0
 10
2.08093397050721
 20
2.250729785798586
 30
0.0
 10
2.058305425268164
 20
2.288229961734398
 30
0.0
 10
2.033027998263428
 20
2.32484216264065
 30
0.0
  0
SPLINE
  5
3112
330
3031
100
AcDbEntity
  8
0
100
AcDbSpline
210
0.0
220
0.0
230
1.0
 70
     8
 71
     3
 72
    12
 73
     8
 74
     0
 42
0.000000001
 43
0.0000000001
 40
3.547684706667406
 40
3.547684706667406
 40
3.547684706667406
 40
3.547684706667406
 40
3.669602340872358
 40
3.669602340872358
 40
3.976209328623884
 40
3.976209328623884
 40
4.241345426717724
 40
4.241345426717724
 40
4.241345426717724
 40
4.241345426717724
 10
-2.033027998263437
 20
2.324842162640647
 30
0.0
 10
-2.067766785141736
 20
2.274525987493969
 30
0.0
 10
-2.097501870127329
 20
2.222526958457868
 30
0.0
 10
-2.182946322891833
 20
2.035117037705009
 30
0.0
 10
-2.209151776725329
 20
1.892256509897132
 30
0.0
 10
-2.186668892840647
 20
1.628737452728081
 30
0.0
 10
-2.147917364420337
 20
1.508232903368629
 30
0.0
 10
-2.084225166090905
 20
1.395133325530064
 30
0.0
  0
LINE
  5
3113
330
3031
100
AcDbEntity
  8
0
100
AcDbLine
 10
-1.664243233483441
 20
0.6493625635907563
 30
0.0
 11
-2.084225166090911
 21
1.395133325530073
 31
0.0
  0
LINE
  5
3114
330
3031
100
AcDbEntity
  8
0
100
AcDbLine
 10
1.664243233483432
 20
0.6493625635907563
 30
0.0
 11
2.084225166090902
 21
1.395133325530073
 31
0.0
  0
SPLINE
  5
3115
330
3031
100
AcDbEntity
  8
0
100
AcDbSpline
210
0.0
220
0.0
230
1.0
 70
     8
 71
     3
 72
    12
 73
     8
 74
     0
 42
0.000000001
 43
0.0000000001
 40
0.4710435536669654
 40
0.4710435536669654
 40
0.4710435536669654
 40
0.4710435536669654
 40
0.782050354718982
 40
0.782050354718982
 40
1.075991789023956
 40
1.075991789023956
 40
1.164704273717283
 40
1.164704273717283
 40
1.164704273717283
 40
1.164704273717283
 10
2.084225166090896
 20
2.415754051689722
 30
0.0
 10
2.15893663313299
 20
2.548420777031119
 30
0.0
 10
2.199153602695842
 20
2.691426406972063
 30
0.0
 10
2.200773793621871
 20
2.970837288074623
 30
0.0
 10
2.166409101712259
 20
3.106336164382048
 30
0.0
 10
2.08093397050721
 20
3.271350511958244
 30
0.0
 10
2.058305425268164
 20
3.308850687894056
 30
0.0
 10
2.033027998263428
 20
3.345462888800305
 30
0.0
  0
SPLINE
  5
3116
330
3031
100
AcDbEntity
  8
0
100
AcDbSpline
210
0.0
220
0.0
230
1.0
 70
     8
 71
     3
 72
    12
 73
     8
 74
     0
 42
0.000000001
 43
0.0000000001
 40
3.547684706667406
 40
3.547684706667406
 40
3.547684706667406
 40
3.547684706667406
 40
3.669602340872358
 40
3.669602340872358
 40
3.976209328623884
 40
3.976209328623884
 40
4.241345426717724
 40
4.241345426717724
 40
4.241345426717724
 40
4.241345426717724
 10
-2.033027998263437
 20
3.345462888800303
 30
0.0
 10
-2.067766785141736
 20
3.295146713653627
 30
0.0
 10
-2.097501870127329
 20
3.243147684617526
 30
0.0
 10
-2.182946322891833
 20
3.055737763864667
 30
0.0
 10
-2.209151776725329
 20
2.91287723605679
 30
0.0
 10
-2.186668892840647
 20
2.649358178887739
 30
0.0
 10
-2.147917364420337
 20
2.528853629528287
 30
0.0
 10
-2.084225166090905
 20
2.415754051689722
 30
0.0
  0
LINE
  5
3117
330
3031
100
AcDbEntity
  8
0
100
AcDbLine
 10
-1.664243233483441
 20
1.669983289750414
 30
0.0
 11
-2.084225166090911
 21
2.415754051689731
 31
0.0
  0
LINE
  5
3118
330
3031
100
AcDbEntity
  8
0
100
AcDbLine
 10
1.664243233483432
 20
1.669983289750414
 30
0.0
 11
2.084225166090902
 21
2.415754051689731
 31
0.0
  0
SPLINE
  5
3119
330
3031
100
AcDbEntity
  8
0
100
AcDbSpline
210
0.0
220
0.0
230
1.0
 70
     8
 71
     3
 72
    12
 73
     8
 74
     0
 42
0.000000001
 43
0.0000000001
 40
0.4710435536669654
 40
0.4710435536669654
 40
0.4710435536669654
 40
0.4710435536669654
 40
0.782050354718982
 40
0.782050354718982
 40
1.075991789023956
 40
1.075991789023956
 40
1.164704273717283
 40
1.164704273717283
 40
1.164704273717283
 40
1.164704273717283
 10
2.084225166090896
 20
3.43637477784938
 30
0.0
 10
2.15893663313299
 20
3.569041503190777
 30
0.0
 10
2.199153602695842
 20
3.712047133131721
 30
0.0
 10
2.200773793621871
 20
3.991458014234281
 30
0.0
 10
2.166409101712259
 20
4.126956890541706
 30
0.0
 10
2.08093397050721
 20
4.291971238117902
 30
0.0
 10
2.058305425268164
 20
4.329471414053712
 30
0.0
 10
2.033027998263428
 20
4.366083614959961
 30
0.0
  0
SPLINE
  5
311A
330
3031
100
AcDbEntity
  8
0
100
AcDbSpline
210
0.0
220
0.0
230
1.0
 70
     8
 71
     3
 72
    12
 73
     8
 74
     0
 42
0.000000001
 43
0.0000000001
 40
3.547684706667406
 40
3.547684706667406
 40
3.547684706667406
 40
3.547684706667406
 40
3.669602340872358
 40
3.669602340872358
 40
3.976209328623884
 40
3.976209328623884
 40
4.241345426717724
 40
4.241345426717724
 40
4.241345426717724
 40
4.241345426717724
 10
-2.033027998263437
 20
4.366083614959961
 30
0.0
 10
-2.067766785141736
 20
4.315767439813285
 30
0.0
 10
-2.097501870127329
 20
4.263768410777184
 30
0.0
 10
-2.182946322891833
 20
4.076358490024325
 30
0.0
 10
-2.209151776725329
 20
3.933497962216447
 30
0.0
 10
-2.186668892840647
 20
3.669978905047397
 30
0.0
 10
-2.147917364420337
 20
3.549474355687944
 30
0.0
 10
-2.084225166090905
 20
3.43637477784938
 30
0.0
  0
LINE
  5
311B
330
3031
100
AcDbEntity
  8
0
100
AcDbLine
 10
-1.664243233483441
 20
2.690604015910071
 30
0.0
 11
-2.084225166090911
 21
3.436374777849386
 31
0.0
  0
LINE
  5
311C
330
3031
100
AcDbEntity
  8
0
100
AcDbLine
 10
1.664243233483432
 20
2.690604015910071
 30
0.0
 11
2.084225166090902
 21
3.436374777849386
 31
0.0
  0
SPLINE
  5
311D
330
3031
100
AcDbEntity
  8
0
100
AcDbSpline
210
0.0
220
0.0
230
1.0
 70
     8
 71
     3
 72
    12
 73
     8
 74
     0
 42
0.000000001
 43
0.0000000001
 40
0.4710435536669654
 40
0.4710435536669654
 40
0.4710435536669654
 40
0.4710435536669654
 40
0.782050354718982
 40
0.782050354718982
 40
1.075991789023956
 40
1.075991789023956
 40
1.164704273717283
 40
1.164704273717283
 40
1.164704273717283
 40
1.164704273717283
 10
2.084225166090896
 20
4.456995504009038
 30
0.0
 10
2.15893663313299
 20
4.589662229350435
 30
0.0
 10
2.199153602695842
 20
4.732667859291379
 30
0.0
 10
2.200773793621871
 20
5.012078740393938
 30
0.0
 10
2.166409101712259
 20
5.147577616701363
 30
0.0
 10
2.08093397050721
 20
5.31259196427756
 30
0.0
 10
2.058305425268164
 20
5.350092140213369
 30
0.0
 10
2.033027998263428
 20
5.386704341119621
 30
0.0
  0
SPLINE
  5
311E
330
3031
100
AcDbEntity
  8
0
100
AcDbSpline
210
0.0
220
0.0
230
1.0
 70
     8
 71
     3
 72
    12
 73
     8
 74
     0
 42
0.000000001
 43
0.0000000001
 40
3.547684706667406
 40
3.547684706667406
 40
3.547684706667406
 40
3.547684706667406
 40
3.669602340872358
 40
3.669602340872358
 40
3.976209328623884
 40
3.976209328623884
 40
4.241345426717724
 40
4.241345426717724
 40
4.241345426717724
 40
4.241345426717724
 10
-2.033027998263437
 20
5.386704341119619
 30
0.0
 10
-2.067766785141736
 20
5.336388165972943
 30
0.0
 10
-2.097501870127329
 20
5.284389136936842
 30
0.0
 10
-2.182946322891833
 20
5.096979216183983
 30
0.0
 10
-2.209151776725329
 20
4.954118688376105
 30
0.0
 10
-2.186668892840647
 20
4.690599631207055
 30
0.0
 10
-2.147917364420337
 20
4.570095081847602
 30
0.0
 10
-2.084225166090905
 20
4.456995504009038
 30
0.0
  0
LINE
  5
311F
330
3031
100
AcDbEntity
  8
0
100
AcDbLine
 10
-1.664243233483441
 20
3.711224742069729
 30
0.0
 11
-2.084225166090911
 21
4.456995504009045
 31
0.0
  0
LINE
  5
3120
330
3031
100
AcDbEntity
  8
0
100
AcDbLine
 10
1.664243233483432
 20
3.711224742069729
 30
0.0
 11
2.084225166090902
 21
4.456995504009045
 31
0.0
  0
SPLINE
  5
3121
330
3031
100
AcDbEntity
  8
0
100
AcDbSpline
210
0.0
220
0.0
230
1.0
 70
     8
 71
     3
 72
    12
 73
     8
 74
     0
 42
0.000000001
 43
0.0000000001
 40
0.4710435536669654
 40
0.4710435536669654
 40
0.4710435536669654
 40
0.4710435536669654
 40
0.782050354718982
 40
0.782050354718982
 40
1.075991789023956
 40
1.075991789023956
 40
1.164704273717283
 40
1.164704273717283
 40
1.164704273717283
 40
1.164704273717283
 10
2.084225166090896
 20
5.477616230168694
 30
0.0
 10
2.15893663313299
 20
5.610282955510093
 30
0.0
 10
2.199153602695842
 20
5.753288585451038
 30
0.0
 10
2.200773793621871
 20
6.032699466553595
 30
0.0
 10
2.166409101712259
 20
6.168198342861021
 30
0.0
 10
2.08093397050721
 20
6.333212690437216
 30
0.0
 10
2.058305425268164
 20
6.370712866373027
 30
0.0
 10
2.033027998263428
 20
6.407325067279278
 30
0.0
  0
SPLINE
  5
3122
330
3031
100
AcDbEntity
  8
0
100
AcDbSpline
210
0.0
220
0.0
230
1.0
 70
     8
 71
     3
 72
    12
 73
     8
 74
     0
 42
0.000000001
 43
0.0000000001
 40
3.547684706667406
 40
3.547684706667406
 40
3.547684706667406
 40
3.547684706667406
 40
3.669602340872358
 40
3.669602340872358
 40
3.976209328623884
 40
3.976209328623884
 40
4.241345426717724
 40
4.241345426717724
 40
4.241345426717724
 40
4.241345426717724
 10
-2.033027998263437
 20
6.407325067279278
 30
0.0
 10
-2.067766785141736
 20
6.357008892132601
 30
0.0
 10
-2.097501870127329
 20
6.305009863096499
 30
0.0
 10
-2.182946322891833
 20
6.117599942343639
 30
0.0
 10
-2.209151776725329
 20
5.974739414535763
 30
0.0
 10
-2.186668892840647
 20
5.711220357366713
 30
0.0
 10
-2.147917364420337
 20
5.590715808007258
 30
0.0
 10
-2.084225166090905
 20
5.477616230168694
 30
0.0
  0
LINE
  5
3123
330
3031
100
AcDbEntity
  8
0
100
AcDbLine
 10
-1.664243233483441
 20
4.731845468229387
 30
0.0
 11
-2.084225166090911
 21
5.477616230168703
 31
0.0
  0
LINE
  5
3124
330
3031
100
AcDbEntity
  8
0
100
AcDbLine
 10
1.664243233483432
 20
4.731845468229387
 30
0.0
 11
2.084225166090902
 21
5.477616230168703
 31
0.0
  0
SPLINE
  5
3125
330
3031
100
AcDbEntity
  8
0
100
AcDbSpline
210
0.0
220
0.0
230
1.0
 70
     8
 71
     3
 72
    12
 73
     8
 74
     0
 42
0.000000001
 43
0.0000000001
 40
0.4710435536669659
 40
0.4710435536669659
 40
0.4710435536669659
 40
0.4710435536669659
 40
0.7820503547189823
 40
0.7820503547189823
 40
1.075991789023956
 40
1.075991789023956
 40
1.206105402486822
 40
1.206105402486822
 40
1.206105402486822
 40
1.206105402486822
 10
2.084225166090896
 20
6.498236956328352
 30
0.0
 10
2.15893663313299
 20
6.630903681669751
 30
0.0
 10
2.199153602695842
 20
6.773909311610697
 30
0.0
 10
2.200773793621871
 20
7.053320192713254
 30
0.0
 10
2.166409101712259
 20
7.188819069020679
 30
0.0
 10
2.071686013703639
 20
7.371687095635905
 30
0.0
 10
2.036571803740099
 20
7.42616382826683
 30
0.0
 10
1.995923874905541
 20
7.47861574181871
 30
0.0
  0
SPLINE
  5
3126
330
3031
100
AcDbEntity
  8
0
100
AcDbSpline
210
0.0
220
0.0
230
1.0
 70
     8
 71
     3
 72
    12
 73
     8
 74
     0
 42
0.000000001
 43
0.0000000001
 40
3.506283577897866
 40
3.506283577897866
 40
3.506283577897866
 40
3.506283577897866
 40
3.669602340872359
 40
3.669602340872359
 40
3.976209328623886
 40
3.976209328623886
 40
4.241345426717723
 40
4.241345426717723
 40
4.241345426717723
 40
4.241345426717723
 10
-1.99592387490555
 20
7.478615741818711
 30
0.0
 10
-2.046945203712391
 20
7.412778037300704
 30
0.0
 10
-2.089246809367004
 20
7.343736858684392
 30
0.0
 10
-2.182946322891833
 20
7.138220668503296
 30
0.0
 10
-2.20915177672533
 20
6.995360140695419
 30
0.0
 10
-2.186668892840647
 20
6.731841083526369
 30
0.0
 10
-2.147917364420337
 20
6.611336534166917
 30
0.0
 10
-2.084225166090906
 20
6.498236956328353
 30
0.0
  0
LINE
  5
3127
330
3031
100
AcDbEntity
  8
0
100
AcDbLine
 10
-1.664243233483441
 20
5.752466194389046
 30
0.0
 11
-2.084225166090911
 21
6.498236956328361
 31
0.0
  0
LINE
  5
3128
330
3031
100
AcDbEntity
  8
0
100
AcDbLine
 10
1.664243233483432
 20
5.752466194389046
 30
0.0
 11
2.084225166090902
 21
6.498236956328361
 31
0.0
  0
LINE
  5
3129
330
3031
100
AcDbEntity
  8
0
100
AcDbLine
 10
1.801642696391604
 20
-13.03524510927099
 30
0.0
 11
1.262570233507332
 21
-13.34647874082994
 31
0.0
  0
ELLIPSE
  5
312A
330
3031
100
AcDbEntity
  8
0
100
AcDbEllipse
 10
-0.0000000000000044
 20
-17.16692852670812
 30
0.0
 11
1.97712250981172
 21
4.10969426810152
 31
0.0
210
0.0
220
0.0
230
0.9999999999999996
 40
0.2347805934183503
 41
5.829167085829737
 42
6.440421956065691
  0
ELLIPSE
  5
312B
330
3031
100
AcDbEntity
  8
0
100
AcDbEllipse
 10
-0.0000000000000044
 20
-17.16692852670812
 30
0.0
 11
1.97712250981172
 21
4.10969426810152
 31
0.0
210
0.0
220
0.0
230
0.9999999999999996
 40
0.2347805934183503
 41
0.5055232352090933
 42
1.116778105445046
  0
ELLIPSE
  5
312C
330
3031
100
AcDbEntity
  8
0
100
AcDbEllipse
 10
-0.0000000000000014
 20
7.552299493039744
 30
0.0
 11
-1.999999999999991
 21
0.0000000000000002
 31
0.0
210
0.0
220
0.0
230
1.0
 40
0.5773502691896258
 41
0.0000000000000018
 42
3.141592653589794
  0
LINE
  5
312D
330
3031
100
AcDbEntity
  8
0
100
AcDbLine
 10
-1.664243233483438
 20
6.773086920548706
 30
0.0
 11
-1.901992266838212
 21
7.195262885725389
 31
0.0
  0
LINE
  5
312E
330
3031
100
AcDbEntity
  8
0
100
AcDbLine
 10
1.664243233483429
 20
6.773086920548706
 30
0.0
 11
1.901992266838204
 21
7.195262885725393
 31
0.0
  0
ELLIPSE
  5
312F
330
3031
100
AcDbEntity
  8
0
100
AcDbEllipse
 10
-0.0000000000000008
 20
12.85952726906996
 30
0.0
 11
-1.999999999999992
 21
0.0000000000000001
 31
0.0
210
0.0
220
0.0
230
1.0
 40
0.577350269189626
 41
0.1574110559144119
 42
2.984181597675379
  0
LINE
  5
3130
330
3031
100
AcDbEntity
  8
0
100
AcDbLine
 10
-3.500000000000009
 20
16.12551359278087
 30
0.0
 11
-3.500000000000009
 21
16.73788602847666
 31
0.0
  0
LINE
  5
3131
330
3031
100
AcDbEntity
  8
0
100
AcDbLine
 10
3.500000000000009
 20
16.12551359278086
 30
0.0
 11
3.500000000000009
 21
16.73788602847666
 31
0.0
  0
LINE
  5
3132
330
3031
100
AcDbEntity
  8
0
100
AcDbLine
 10
-1.999999999999992
 20
7.552299493039745
 30
0.0
 11
-1.999999999999992
 21
12.76845783082432
 31
0.0
  0
LINE
  5
3133
330
3031
100
AcDbEntity
  8
0
100
AcDbLine
 10
1.999999999999989
 20
7.552299493039744
 30
0.0
 11
1.99999999999999
 21
12.76845783082432
 31
0.0
  0
LINE
  5
3134
330
3031
100
AcDbEntity
  8
0
100
AcDbLine
 10
-1.975272880670222
 20
12.67851433501208
 30
0.0
 11
-2.486296602459289
 21
14.53733417438391
 31
0.0
  0
LINE
  5
3135
330
3031
100
AcDbEntity
  8
0
100
AcDbLine
 10
1.975272880670221
 20
12.67851433501208
 30
0.0
 11
2.486296602459288
 21
14.53733417438391
 31
0.0
  0
LINE
  5
3136
330
3031
100
AcDbEntity
  8
0
100
AcDbLine
 10
-2.200000000000004
 20
-13.67716350573612
 30
0.0
 11
-2.200000000000004
 21
-12.30629984508472
 31
0.0
  0
LINE
  5
3137
330
3031
100
AcDbEntity
  8
0
100
AcDbLine
 10
2.199999999999995
 20
-13.67716350573612
 30
0.0
 11
2.199999999999995
 21
-12.30629984508472
 31
0.0
  0
ENDBLK
  5
3033
330
3031
100
AcDbEntity
  8
0
100
AcDbBlockEnd
  0
ENDSEC
  0
SECTION
  2
ENTITIES
  0
INSERT
  5
3138
330
1F
100
AcDbEntity
  8
0
100
AcDbBlockReference
  2
CNA40X40S-Front
 10
0.0
 20
0.0
 30
0.0
  0
INSERT
  5
3139
330
1F
100
AcDbEntity
  8
0
100
AcDbBlockReference
  2
CNA40X40S-Top
 10
0.0
 20
-55.95000000000002
 30
0.0
  0
INSERT
  5
313A
330
1F
100
AcDbEntity
  8
0
100
AcDbBlockReference
  2
CNA40X40S-ISO
 10
19.45000000000003
 20
-71.31474066716268
 30
0.0
  0
MTEXT
  5
313B
330
1F
100
AcDbEntity
  8
0
100
AcDbMText
 10
0.0
 20
-71.90000000000003
 30
0.0
 40
2.126666666666668
 41
0.0
 71
     5
 72
     5
  1
CNA4.0X40S
 73
     1
 44
1.0
1001
ACAD
1000
MTEXTBEGIN
1070
    73
1070
     1
1070
    44
1040
1.0
1070
    74
1070
     0
1000
MTEXTEND
  0
ENDSEC
  0
SECTION
  2
OBJECTS
  0
DICTIONARY
  5
C
330
0
100
AcDbDictionary
281
     1
  3
ACAD_CIP_PREVIOUS_PRODUCT_INFO
350
216
  3
ACAD_COLOR
350
6B
  3
ACAD_DETAILVIEWSTYLE
350
21B
  3
ACAD_GROUP
350
D
  3
ACAD_LAYOUT
350
1A
  3
ACAD_MATERIAL
350
6A
  3
ACAD_MLEADERSTYLE
350
12D
  3
ACAD_MLINESTYLE
350
17
  3
ACAD_PLOTSETTINGS
350
19
  3
ACAD_PLOTSTYLENAME
350
E
  3
ACAD_SCALELIST
350
10C
  3
ACAD_SECTIONVIEWSTYLE
350
219
  3
ACAD_TABLESTYLE
350
7E
  3
ACAD_VISUALSTYLE
350
EF
  3
ACDB_RECOMPOSE_DATA
350
323E
  3
AcDbVariableDictionary
350
5E
  3
DWGPROPS
350
323F
  0
DICTIONARY
  5
318C
330
8
100
AcDbDictionary
280
     1
281
     1
  0
DICTIONARY
  5
1FF
330
2
100
AcDbDictionary
280
     1
281
     1
  3
ACAD_LAYERSTATES
360
200
  0
DICTIONARY
  5
13C
330
10
100
AcDbDictionary
280
     1
281
     1
  0
DICTIONARY
  5
1CE
330
1F
100
AcDbDictionary
280
     1
281
     1
  3
ACAD_LAYOUTSELFREF
360
3194
  0
DICTIONARY
  5
313F
330
D2
100
AcDbDictionary
280
     1
281
     1
  3
ACAD_LAYOUTSELFREF
360
319D
  0
DICTIONARY
  5
3141
330
D6
100
AcDbDictionary
280
     1
281
     1
  3
ACAD_LAYOUTSELFREF
360
31A0
  0
XRECORD
  5
216
102
{ACAD_REACTORS
330
C
102
}
330
C
100
AcDbXrecord
280
     1
300
ACD
300
2021
300
87393ACD_2021_0F
  0
DICTIONARY
  5
6B
102
{ACAD_REACTORS
330
C
102
}
330
C
100
AcDbDictionary
281
     1
  0
DICTIONARY
  5
21B
102
{ACAD_REACTORS
330
C
102
}
330
C
100
AcDbDictionary
281
     1
  3
Metric50
350
21C
  0
DICTIONARY
  5
D
102
{ACAD_REACTORS
330
C
102
}
330
C
100
AcDbDictionary
281
     1
  0
DICTIONARY
  5
1A
102
{ACAD_REACTORS
330
C
102
}
330
C
100
AcDbDictionary
281
     1
  3
Layout1
350
D3
  3
Layout2
350
D7
  3
Model
350
22
  0
DICTIONARY
  5
6A
102
{ACAD_REACTORS
330
C
102
}
330
C
100
AcDbDictionary
281
     1
  3
ByBlock
350
ED
  3
ByLayer
350
EC
  3
Global
350
EE
  0
DICTIONARY
  5
12D
102
{ACAD_REACTORS
330
C
102
}
330
C
100
AcDbDictionary
281
     1
  3
Standard
350
12E
  0
DICTIONARY
  5
17
102
{ACAD_REACTORS
330
C
102
}
330
C
100
AcDbDictionary
281
     1
  3
Standard
350
18
  0
DICTIONARY
  5
19
102
{ACAD_REACTORS
330
C
102
}
330
C
100
AcDbDictionary
281
     1
  0
ACDBDICTIONARYWDFLT
  5
E
102
{ACAD_REACTORS
330
C
102
}
330
C
100
AcDbDictionary
281
     1
  3
Normal
350
F
100
AcDbDictionaryWithDefault
340
F
  0
DICTIONARY
  5
10C
102
{ACAD_REACTORS
330
C
102
}
330
C
100
AcDbDictionary
281
     1
  3
A0
350
10D
  3
A1
350
1BE
  3
A2
350
1BF
  3
A3
350
1C0
  3
A4
350
1C1
  3
A5
350
1C2
  3
A6
350
1C3
  3
A7
350
1C4
  3
A8
350
1C5
  3
A9
350
1C6
  3
B0
350
1C7
  3
B1
350
1C8
  3
B2
350
1C9
  3
B3
350
1CA
  3
B4
350
1CB
  3
B5
350
1CC
  3
B6
350
1CD
  0
DICTIONARY
  5
219
102
{ACAD_REACTORS
330
C
102
}
330
C
100
AcDbDictionary
281
     1
  3
Metric50
350
21A
  0
DICTIONARY
  5
7E
102
{ACAD_REACTORS
330
C
102
}
330
C
100
AcDbDictionary
281
     1
  3
Standard
350
7F
  0
DICTIONARY
  5
EF
102
{ACAD_REACTORS
330
C
102
}
330
C
100
AcDbDictionary
281
     1
  3
2dWireframe
350
F5
  3
Basic
350
F4
  3
Brighten
350
FB
  3
ColorChange
350
FF
  3
Conceptual
350
F8
  3
Dim
350
FA
  3
EdgeColorOff
350
1E6
  3
Facepattern
350
FE
  3
Flat
350
F0
  3
FlatWithEdges
350
F1
  3
Gouraud
350
F2
  3
GouraudWithEdges
350
F3
  3
Hidden
350
F7
  3
JitterOff
350
1E4
  3
Linepattern
350
FD
  3
OverhangOff
350
1E5
  3
Realistic
350
F9
  3
Shaded
350
1F3
  3
Shaded with edges
350
1F2
  3
Shades of Gray
350
1EF
  3
Sketchy
350
1F0
  3
Thicken
350
FC
  3
Wireframe
350
F6
  3
X-Ray
350
1F1
  0
XRECORD
  5
323E
102
{ACAD_REACTORS
330
C
102
}
330
C
100
AcDbXrecord
280
     1
 90
        1
330
7F
  0
DICTIONARY
  5
5E
102
{ACAD_REACTORS
330
C
102
}
330
C
100
AcDbDictionary
281
     1
  3
CANNOSCALE
350
146
  3
CENTEREXE
350
259
  3
CENTERLTYPEFILE
350
25A
  3
CMLEADERSTYLE
350
145
  3
CTABLESTYLE
350
84
  3
CVIEWDETAILSTYLE
350
227
  3
CVIEWSECTIONSTYLE
350
228
  3
DIMASSOC
350
5F
  3
HIDETEXT
350
63
  3
INDEXCTL
350
31E9
  3
LAYEREVAL
350
1AE
  3
LAYERNOTIFY
350
1AF
  3
LIGHTINGUNITS
350
31E7
  3
MSLTSCALE
350
31E6
  3
PSOLHEIGHT
350
323B
  3
PSOLWIDTH
350
323A
  3
SORTENTS
350
31E8
  3
XCLIPFRAME
350
323C
  0
XRECORD
  5
323F
102
{ACAD_REACTORS
330
C
102
}
330
C
100
AcDbXrecord
280
     1
  1
DWGPROPS COOKIE
  2

  3

  4

  6

  7

  8
tronnguyen
  9

300
=
301
=
302
=
303
=
304
=
305
=
306
=
307
=
308
=
309
=
 40
0.0490162037037037
 41
2460693.556458334
 42
2460693.607488426
  1

 90
        0
  0
DICTIONARY
  5
200
102
{ACAD_REACTORS
330
1FF
102
}
330
1FF
100
AcDbDictionary
281
     1
  0
XRECORD
  5
3194
102
{ACAD_REACTORS
330
1CE
102
}
330
1CE
100
AcDbXrecord
280
     1
340
1F
  0
XRECORD
  5
319D
102
{ACAD_REACTORS
330
313F
102
}
330
313F
100
AcDbXrecord
280
     1
340
D2
  0
XRECORD
  5
31A0
102
{ACAD_REACTORS
330
3141
102
}
330
3141
100
AcDbXrecord
280
     1
340
D6
  0
ACDBDETAILVIEWSTYLE
  5
21C
102
{ACAD_XDICTIONARY
360
327E
102
}
102
{ACAD_REACTORS
330
21B
102
}
330
21B
100
AcDbModelDocViewStyle
 70
     0
  3
Metric50
290
     0
100
AcDbDetailViewStyle
 70
     0
 71
     0
 90
        3
 71
     1
340
11
 40
5.0
340
0
 40
5.0
300

 40
0.0
280
     1
 71
     2
340
16
 90
       25
 71
     3
340
11
 40
5.0
 90
        0
 40
15.0
 90
        1
300
%<\AcVar ViewDetailId>% (%<\AcVar ViewScale \f "%sn">%)
 71
     4
340
16
 90
       25
340
16
 90
       25
280
     0
  0
LAYOUT
  5
D3
102
{ACAD_XDICTIONARY
360
3243
102
}
102
{ACAD_REACTORS
330
1A
102
}
330
1A
100
AcDbPlotSettings
  1

  2
C:\Documents and Settings\basas\Application Data\Autodesk\AutoCAD 2005\R16.1\enu\plotters\Default Windows System Printer.pc3
  4

  6

 40
0.0
 41
0.0
 42
0.0
 43
0.0
 44
0.0
 45
0.0
 46
0.0
 47
0.0
 48
0.0
 49
0.0
140
0.0
141
0.0
142
1.0
143
1.0
 70
   688
 72
     0
 73
     0
 74
     5
  7

 75
    16
147
1.0
148
0.0
149
0.0
100
AcDbLayout
  1
Layout1
 70
     1
 71
     1
 10
0.0
 20
0.0
 11
12.0
 21
9.0
 12
0.0
 22
0.0
 32
0.0
 14
0.0
 24
0.0
 34
0.0
 15
0.0
 25
0.0
 35
0.0
146
0.0
 13
0.0
 23
0.0
 33
0.0
 16
1.0
 26
0.0
 36
0.0
 17
0.0
 27
1.0
 37
0.0
 76
     0
330
D2
  0
LAYOUT
  5
D7
102
{ACAD_XDICTIONARY
360
3245
102
}
102
{ACAD_REACTORS
330
1A
102
}
330
1A
100
AcDbPlotSettings
  1

  2
C:\Documents and Settings\basas\Application Data\Autodesk\AutoCAD 2005\R16.1\enu\plotters\Default Windows System Printer.pc3
  4

  6

 40
0.0
 41
0.0
 42
0.0
 43
0.0
 44
0.0
 45
0.0
 46
0.0
 47
0.0
 48
0.0
 49
0.0
140
0.0
141
0.0
142
1.0
143
1.0
 70
   688
 72
     0
 73
     0
 74
     5
  7

 75
    16
147
1.0
148
0.0
149
0.0
100
AcDbLayout
  1
Layout2
 70
     1
 71
     2
 10
0.0
 20
0.0
 11
12.0
 21
9.0
 12
0.0
 22
0.0
 32
0.0
 14
0.0
 24
0.0
 34
0.0
 15
0.0
 25
0.0
 35
0.0
146
0.0
 13
0.0
 23
0.0
 33
0.0
 16
1.0
 26
0.0
 36
0.0
 17
0.0
 27
1.0
 37
0.0
 76
     0
330
D6
  0
LAYOUT
  5
22
102
{ACAD_XDICTIONARY
360
3240
102
}
102
{ACAD_REACTORS
330
1A
102
}
330
1A
100
AcDbPlotSettings
  1

  2
none_device
  4
ISO_A4_(210.00_x_297.00_MM)
  6

 40
7.5
 41
20.0
 42
7.5
 43
20.0
 44
210.0
 45
297.0
 46
11.54999923706054
 47
-13.65000009536743
 48
0.0
 49
0.0
140
0.0
141
0.0
142
1.0
143
8.704084754739808
 70
 11952
 72
     1
 73
     0
 74
     0
  7

 75
     0
147
0.1148885871608098
148
0.0
149
0.0
100
AcDbLayout
  1
Model
 70
     1
 71
     0
 10
0.0
 20
0.0
 11
12.0
 21
9.0
 12
0.0
 22
0.0
 32
0.0
 14
0.0
 24
0.0
 34
0.0
 15
0.0
 25
0.0
 35
0.0
146
0.0
 13
0.0
 23
0.0
 33
0.0
 16
1.0
 26
0.0
 36
0.0
 17
0.0
 27
1.0
 37
0.0
 76
     0
330
1F
331
EA
1001
ACAD_PSEXT
1000
None
1000
None
1000
Not applicable
1000
The layout will not be plotted unless a new plotter configuration name is selected.
1070
     0
  0
MATERIAL
  5
ED
102
{ACAD_XDICTIONARY
360
1F9
102
}
102
{ACAD_REACTORS
330
6A
102
}
330
6A
100
AcDbMaterial
  1
ByBlock
  0
MATERIAL
  5
EC
102
{ACAD_XDICTIONARY
360
1F7
102
}
102
{ACAD_REACTORS
330
6A
102
}
330
6A
100
AcDbMaterial
  1
ByLayer
  0
MATERIAL
  5
EE
102
{ACAD_XDICTIONARY
360
173
102
}
102
{ACAD_REACTORS
330
6A
102
}
330
6A
100
AcDbMaterial
  1
Global
 43
0.0007999999797903
 43
0.0
 43
0.0
 43
0.0
 43
0.0
 43
0.0007999999797903
 43
0.0
 43
0.0
 43
0.0
 43
0.0
 43
1.0
 43
0.0
 43
0.0
 43
0.0
 43
0.0
 43
1.0
 49
0.0007999999797903
 49
0.0
 49
0.0
 49
0.0
 49
0.0
 49
0.0007999999797903
 49
0.0
 49
0.0
 49
0.0
 49
0.0
 49
1.0
 49
0.0
 49
0.0
 49
0.0
 49
0.0
 49
1.0
142
0.0007999999797903
142
0.0
142
0.0
142
0.0
142
0.0
142
0.0007999999797903
142
0.0
142
0.0
142
0.0
142
0.0
142
1.0
142
0.0
142
0.0
142
0.0
142
0.0
142
1.0
144
0.0007999999797903
144
0.0
144
0.0
144
0.0
144
0.0
144
0.0007999999797903
144
0.0
144
0.0
144
0.0
144
0.0
144
1.0
144
0.0
144
0.0
144
0.0
144
0.0
144
1.0
1001
ACAD
1070
    -1
1070
     3
1070
     0
1000

1071
        0
1070
     0
  0
MLEADERSTYLE
  5
12E
102
{ACAD_XDICTIONARY
360
326A
102
}
102
{ACAD_REACTORS
330
12D
102
}
330
12D
100
AcDbMLeaderStyle
170
     2
171
     1
172
     0
 90
        2
 40
0.0
 41
0.0
173
     1
 91
-1056964608
340
14
 92
       -2
290
     1
 42
2.0
291
     1
 43
8.0
  3
Standard
 44
4.0
300

342
11
174
     1
178
     1
175
     1
176
     0
 93
-1056964608
 45
4.0
292
     0
297
     0
 46
4.0
 94
-1056964608
 47
1.0
 49
1.0
140
1.0
293
     1
141
0.0
294
     1
177
     0
142
1.0
295
     0
296
     0
143
3.75
1001
ACAD_MLEADERVER
1070
     2
  0
MLINESTYLE
  5
18
102
{ACAD_REACTORS
330
17
102
}
330
17
100
AcDbMlineStyle
  2
STANDARD
 70
     0
  3

 62
   256
 51
90.0
 52
90.0
 71
     2
 49
0.5
 62
   256
  6
BYLAYER
 49
-0.5
 62
   256
  6
BYLAYER
  0
ACDBPLACEHOLDER
  5
F
102
{ACAD_REACTORS
330
E
102
}
330
E
  0
SCALE
  5
10D
102
{ACAD_REACTORS
330
10C
102
}
330
10C
100
AcDbScale
 70
     0
300
1:1
140
1.0
141
1.0
290
     1
  0
SCALE
  5
1BE
102
{ACAD_REACTORS
330
10C
102
}
330
10C
100
AcDbScale
 70
     0
300
1:2
140
1.0
141
2.0
290
     0
  0
SCALE
  5
1BF
102
{ACAD_REACTORS
330
10C
102
}
330
10C
100
AcDbScale
 70
     0
300
1:4
140
1.0
141
4.0
290
     0
  0
SCALE
  5
1C0
102
{ACAD_REACTORS
330
10C
102
}
330
10C
100
AcDbScale
 70
     0
300
1:5
140
1.0
141
5.0
290
     0
  0
SCALE
  5
1C1
102
{ACAD_REACTORS
330
10C
102
}
330
10C
100
AcDbScale
 70
     0
300
1:8
140
1.0
141
8.0
290
     0
  0
SCALE
  5
1C2
102
{ACAD_REACTORS
330
10C
102
}
330
10C
100
AcDbScale
 70
     0
300
1:10
140
1.0
141
10.0
290
     0
  0
SCALE
  5
1C3
102
{ACAD_REACTORS
330
10C
102
}
330
10C
100
AcDbScale
 70
     0
300
1:16
140
1.0
141
16.0
290
     0
  0
SCALE
  5
1C4
102
{ACAD_REACTORS
330
10C
102
}
330
10C
100
AcDbScale
 70
     0
300
1:20
140
1.0
141
20.0
290
     0
  0
SCALE
  5
1C5
102
{ACAD_REACTORS
330
10C
102
}
330
10C
100
AcDbScale
 70
     0
300
1:30
140
1.0
141
30.0
290
     0
  0
SCALE
  5
1C6
102
{ACAD_REACTORS
330
10C
102
}
330
10C
100
AcDbScale
 70
     0
300
1:40
140
1.0
141
40.0
290
     0
  0
SCALE
  5
1C7
102
{ACAD_REACTORS
330
10C
102
}
330
10C
100
AcDbScale
 70
     0
300
1:50
140
1.0
141
50.0
290
     0
  0
SCALE
  5
1C8
102
{ACAD_REACTORS
330
10C
102
}
330
10C
100
AcDbScale
 70
     0
300
1:100
140
1.0
141
100.0
290
     0
  0
SCALE
  5
1C9
102
{ACAD_REACTORS
330
10C
102
}
330
10C
100
AcDbScale
 70
     0
300
2:1
140
2.0
141
1.0
290
     0
  0
SCALE
  5
1CA
102
{ACAD_REACTORS
330
10C
102
}
330
10C
100
AcDbScale
 70
     0
300
4:1
140
4.0
141
1.0
290
     0
  0
SCALE
  5
1CB
102
{ACAD_REACTORS
330
10C
102
}
330
10C
100
AcDbScale
 70
     0
300
8:1
140
8.0
141
1.0
290
     0
  0
SCALE
  5
1CC
102
{ACAD_REACTORS
330
10C
102
}
330
10C
100
AcDbScale
 70
     0
300
10:1
140
10.0
141
1.0
290
     0
  0
SCALE
  5
1CD
102
{ACAD_REACTORS
330
10C
102
}
330
10C
100
AcDbScale
 70
     0
300
100:1
140
100.0
141
1.0
290
     0
  0
ACDBSECTIONVIEWSTYLE
  5
21A
102
{ACAD_XDICTIONARY
360
327C
102
}
102
{ACAD_REACTORS
330
219
102
}
330
219
100
AcDbModelDocViewStyle
 70
     0
  3
Metric50
290
     0
100
AcDbSectionViewStyle
 70
     0
 71
     0
 90
      102
 71
     1
340
11
 40
5.0
340
0
340
0
 40
5.0
300
I, O, Q, S, X, Z
 40
10.0
 90
        0
 40
2.5
 90
        0
 71
     2
340
16
 90
       25
340
16
 90
       50
 40
5.0
 40
2.5
 40
5.0
 71
     3
340
11
 40
5.0
 90
        0
 40
15.0
 90
        1
300
%<\AcVar ViewSectionStartId>%-%<\AcVar ViewSectionEndId>% (%<\AcVar ViewScale \f "%sn">%)
 71
     4
300
ANSI31
 40
1.0
 90
        0
290
     0
290
     0
 90
        6
 40
0.0
 40
1.570796326794896
 40
0.2617993877991494
 40
1.308996938995747
 40
-0.2617993877991494
 40
1.832595714594046
  0
TABLESTYLE
  5
7F
102
{ACAD_XDICTIONARY
360
162
102
}
102
{ACAD_REACTORS
330
7E
102
}
330
7E
100
AcDbTableStyle
  3
Standard
 70
     0
 71
     0
 40
1.5
 41
1.5
280
     0
281
     0
  7
Standard
140
4.5
170
     2
 62
     0
 63
     7
283
     0
274
    -2
284
     1
 64
     0
275
    -2
285
     1
 65
     0
276
    -2
286
     1
 66
     0
277
    -2
287
     1
 67
     0
278
    -2
288
     1
 68
     0
279
    -2
289
     1
 69
     0
  7
Standard
140
6.0
170
     5
 62
     0
 63
     7
283
     0
274
    -2
284
     1
 64
     0
275
    -2
285
     1
 65
     0
276
    -2
286
     1
 66
     0
277
    -2
287
     1
 67
     0
278
    -2
288
     1
 68
     0
279
    -2
289
     1
 69
     0
  7
Standard
140
4.5
170
     5
 62
     0
 63
     7
283
     0
274
    -2
284
     1
 64
     0
275
    -2
285
     1
 65
     0
276
    -2
286
     1
 66
     0
277
    -2
287
     1
 67
     0
278
    -2
288
     1
 68
     0
279
    -2
289
     1
 69
     0
  0
VISUALSTYLE
  5
F5
102
{ACAD_XDICTIONARY
360
3254
102
}
102
{ACAD_REACTORS
330
EF
102
}
330
EF
100
AcDbVisualStyle
  2
2dWireframe
 70
     4
 71
     0
 72
     2
 73
     1
 90
        0
 40
-0.6
 41
-30.0
 62
     5
 63
     7
 74
     1
 91
        4
 64
     7
 65
   257
 75
     1
175
     1
 42
1.0
 92
        0
 66
   257
 43
1.0
 76
     1
 77
     6
 78
     2
 67
     7
 79
     5
170
     0
171
     0
290
     0
174
     0
 93
        1
 44
0.0
173
     0
291
     0
 45
0.0
1001
ACAD
1000
AcDbSavedByObjectVersion
1070
     0
  0
VISUALSTYLE
  5
F4
102
{ACAD_XDICTIONARY
360
3252
102
}
102
{ACAD_REACTORS
330
EF
102
}
330
EF
100
AcDbVisualStyle
  2
Basic
 70
     7
 71
     1
 72
     0
 73
     1
 90
        0
 40
-0.6
 41
-30.0
 62
     5
 63
     7
 74
     0
 91
        4
 64
     7
 65
   257
 75
     1
175
     1
 42
1.0
 92
        8
 66
     7
 43
1.0
 76
     1
 77
     6
 78
     2
 67
     7
 79
     5
170
     0
171
     0
290
     0
174
     0
 93
        1
 44
0.0
173
     0
291
     1
 45
0.0
1001
ACAD
1000
AcDbSavedByObjectVersion
1070
     0
  0
VISUALSTYLE
  5
FB
102
{ACAD_XDICTIONARY
360
3260
102
}
102
{ACAD_REACTORS
330
EF
102
}
330
EF
100
AcDbVisualStyle
  2
Brighten
 70
    12
 71
     2
 72
     2
 73
     1
 90
        0
 40
-0.6
 41
-30.0
 62
     5
 63
     7
 74
     1
 91
        4
 64
     7
 65
   257
 75
     1
175
     1
 42
1.0
 92
        8
 66
     7
 43
1.0
 76
     1
 77
     6
 78
     2
 67
     7
 79
     5
170
     0
171
     0
290
     0
174
     0
 93
        1
 44
50.0
173
     0
291
     1
 45
0.0
1001
ACAD
1000
AcDbSavedByObjectVersion
1070
     0
  0
VISUALSTYLE
  5
FF
102
{ACAD_XDICTIONARY
360
3268
102
}
102
{ACAD_REACTORS
330
EF
102
}
330
EF
100
AcDbVisualStyle
  2
ColorChange
 70
    16
 71
     2
 72
     2
 73
     3
 90
        0
 40
-0.6
 41
-30.0
 62
     5
 63
     8
 74
     1
 91
        4
 64
     7
 65
   257
 75
     1
175
     1
 42
1.0
 92
        8
 66
     8
 43
1.0
 76
     1
 77
     6
 78
     2
 67
     7
 79
     5
170
     0
171
     0
290
     0
174
     0
 93
        1
 44
0.0
173
     0
291
     1
 45
0.0
1001
ACAD
1000
AcDbSavedByObjectVersion
1070
     0
  0
VISUALSTYLE
  5
F8
102
{ACAD_XDICTIONARY
360
325A
102
}
102
{ACAD_REACTORS
330
EF
102
}
330
EF
100
AcDbVisualStyle
  2
Conceptual
 70
     9
 71
     3
 72
     2
 73
     1
 90
        0
 40
-0.6
 41
-30.0
 62
     5
 63
     7
 74
     2
 91
        2
 64
     7
 65
   257
 75
     1
175
     1
 42
40.0
 92
        8
 66
     7
 43
1.0
 76
     1
 77
     6
 78
     2
 67
     7
 79
     3
170
     0
171
     0
290
     0
174
     0
 93
        1
 44
0.0
173
     0
291
     0
 45
0.0
1001
ACAD
1000
AcDbSavedByObjectVersion
1070
     0
  0
VISUALSTYLE
  5
FA
102
{ACAD_XDICTIONARY
360
325E
102
}
102
{ACAD_REACTORS
330
EF
102
}
330
EF
100
AcDbVisualStyle
  2
Dim
 70
    11
 71
     2
 72
     2
 73
     1
 90
        0
 40
-0.6
 41
-30.0
 62
     5
 63
     7
 74
     1
 91
        4
 64
     7
 65
   257
 75
     1
175
     1
 42
1.0
 92
        8
 66
     7
 43
1.0
 76
     1
 77
     6
 78
     2
 67
     7
 79
     5
170
     0
171
     0
290
     0
174
     0
 93
        1
 44
-50.0
173
     0
291
     1
 45
0.0
1001
ACAD
1000
AcDbSavedByObjectVersion
1070
     0
  0
VISUALSTYLE
  5
1E6
102
{ACAD_XDICTIONARY
360
3270
102
}
102
{ACAD_REACTORS
330
EF
102
}
330
EF
100
AcDbVisualStyle
  2
EdgeColorOff
 70
    22
 71
     2
 72
     2
 73
     0
 90
        0
 40
-0.6
 41
-30.0
 62
     5
 63
     7
 74
     1
 91
        4
 64
     7
 65
   257
 75
     1
175
     1
 42
1.0
 92
        8
 66
     7
 43
1.0
 76
     1
 77
     6
 78
     2
 67
     7
 79
     5
170
     0
171
     0
290
     0
174
     0
 93
        1
 44
0.0
173
     0
291
     1
 45
0.0
1001
ACAD
1000
AcDbSavedByObjectVersion
1070
     0
  0
VISUALSTYLE
  5
FE
102
{ACAD_XDICTIONARY
360
3266
102
}
102
{ACAD_REACTORS
330
EF
102
}
330
EF
100
AcDbVisualStyle
  2
Facepattern
 70
    15
 71
     2
 72
     2
 73
     1
 90
        0
 40
-0.6
 41
-30.0
 62
     5
 63
     7
 74
     1
 91
        4
 64
     7
 65
   257
 75
     1
175
     1
 42
1.0
 92
        8
 66
     7
 43
1.0
 76
     1
 77
     6
 78
     2
 67
     7
 79
     5
170
     0
171
     0
290
     0
174
     0
 93
        1
 44
0.0
173
     0
291
     1
 45
0.0
1001
ACAD
1000
AcDbSavedByObjectVersion
1070
     0
  0
VISUALSTYLE
  5
F0
102
{ACAD_XDICTIONARY
360
324A
102
}
102
{ACAD_REACTORS
330
EF
102
}
330
EF
100
AcDbVisualStyle
  2
Flat
 70
     0
 71
     2
 72
     1
 73
     1
 90
        2
 40
-0.6
 41
30.0
 62
     5
 63
     7
 74
     0
 91
        0
 64
     7
 65
   257
 75
     1
175
     1
 42
1.0
 92
        8
 66
     7
 43
1.0
 76
     1
 77
     6
 78
     2
 67
     7
 79
     5
170
     0
171
     0
290
     0
174
     0
 93
       13
 44
0.0
173
     0
291
     1
 45
0.0
1001
ACAD
1000
AcDbSavedByObjectVersion
1070
     0
  0
VISUALSTYLE
  5
F1
102
{ACAD_XDICTIONARY
360
324C
102
}
102
{ACAD_REACTORS
330
EF
102
}
330
EF
100
AcDbVisualStyle
  2
FlatWithEdges
 70
     1
 71
     2
 72
     1
 73
     1
 90
        2
 40
-0.6
 41
30.0
 62
     5
 63
     7
 74
     1
 91
        0
 64
     7
 65
   257
 75
     1
175
     1
 42
1.0
 92
        0
 66
   257
 43
1.0
 76
     1
 77
     6
 78
     2
 67
     7
 79
     5
170
     0
171
     0
290
     0
174
     0
 93
       13
 44
0.0
173
     0
291
     1
 45
0.0
1001
ACAD
1000
AcDbSavedByObjectVersion
1070
     0
  0
VISUALSTYLE
  5
F2
102
{ACAD_XDICTIONARY
360
324E
102
}
102
{ACAD_REACTORS
330
EF
102
}
330
EF
100
AcDbVisualStyle
  2
Gouraud
 70
     2
 71
     2
 72
     2
 73
     1
 90
        2
 40
-0.6
 41
30.0
 62
     5
 63
     7
 74
     0
 91
        0
 64
     7
 65
   257
 75
     1
175
     1
 42
1.0
 92
        0
 66
     7
 43
1.0
 76
     1
 77
     6
 78
     2
 67
     7
 79
     5
170
     0
171
     0
290
     0
174
     0
 93
       13
 44
0.0
173
     0
291
     1
 45
0.0
1001
ACAD
1000
AcDbSavedByObjectVersion
1070
     0
  0
VISUALSTYLE
  5
F3
102
{ACAD_XDICTIONARY
360
3250
102
}
102
{ACAD_REACTORS
330
EF
102
}
330
EF
100
AcDbVisualStyle
  2
GouraudWithEdges
 70
     3
 71
     2
 72
     2
 73
     1
 90
        2
 40
-0.6
 41
30.0
 62
     5
 63
     7
 74
     1
 91
        0
 64
     7
 65
   257
 75
     1
175
     1
 42
1.0
 92
        0
 66
   257
 43
1.0
 76
     1
 77
     6
 78
     2
 67
     7
 79
     5
170
     0
171
     0
290
     0
174
     0
 93
       13
 44
0.0
173
     0
291
     1
 45
0.0
1001
ACAD
1000
AcDbSavedByObjectVersion
1070
     0
  0
VISUALSTYLE
  5
F7
102
{ACAD_XDICTIONARY
360
3258
102
}
102
{ACAD_REACTORS
330
EF
102
}
330
EF
100
AcDbVisualStyle
  2
Hidden
 70
     6
 71
     1
 72
     2
 73
     2
 90
        0
 40
-0.6
 41
-30.0
 62
     5
 63
     7
 74
     2
 91
        2
 64
     7
 65
   257
 75
     2
175
     1
 42
40.0
 92
        0
 66
   257
 43
1.0
 76
     1
 77
     6
 78
     2
 67
     7
 79
     3
170
     0
171
     0
290
     0
174
     0
 93
        1
 44
0.0
173
     0
291
     0
 45
0.0
1001
ACAD
1000
AcDbSavedByObjectVersion
1070
     0
  0
VISUALSTYLE
  5
1E4
102
{ACAD_XDICTIONARY
360
326C
102
}
102
{ACAD_REACTORS
330
EF
102
}
330
EF
100
AcDbVisualStyle
  2
JitterOff
 70
    20
 71
     2
 72
     2
 73
     0
 90
        0
 40
-0.6
 41
-30.0
 62
     5
 63
     7
 74
     1
 91
        4
 64
     7
 65
   257
 75
     1
175
     1
 42
1.0
 92
       10
 66
     7
 43
1.0
 76
     1
 77
     6
 78
     2
 67
     7
 79
     5
170
     0
171
     0
290
     0
174
     0
 93
        1
 44
0.0
173
     0
291
     1
 45
0.0
1001
ACAD
1000
AcDbSavedByObjectVersion
1070
     0
  0
VISUALSTYLE
  5
FD
102
{ACAD_XDICTIONARY
360
3264
102
}
102
{ACAD_REACTORS
330
EF
102
}
330
EF
100
AcDbVisualStyle
  2
Linepattern
 70
    14
 71
     2
 72
     2
 73
     1
 90
        0
 40
-0.6
 41
-30.0
 62
     5
 63
     7
 74
     1
 91
        4
 64
     7
 65
   257
 75
     7
175
     7
 42
1.0
 92
        8
 66
     7
 43
1.0
 76
     1
 77
     6
 78
     2
 67
     7
 79
     5
170
     0
171
     0
290
     0
174
     0
 93
        1
 44
0.0
173
     0
291
     1
 45
0.0
1001
ACAD
1000
AcDbSavedByObjectVersion
1070
     0
  0
VISUALSTYLE
  5
1E5
102
{ACAD_XDICTIONARY
360
326E
102
}
102
{ACAD_REACTORS
330
EF
102
}
330
EF
100
AcDbVisualStyle
  2
OverhangOff
 70
    21
 71
     2
 72
     2
 73
     0
 90
        0
 40
-0.6
 41
-30.0
 62
     5
 63
     7
 74
     1
 91
        4
 64
     7
 65
   257
 75
     1
175
     1
 42
1.0
 92
        9
 66
     7
 43
1.0
 76
     1
 77
     6
 78
     2
 67
     7
 79
     5
170
     0
171
     0
290
     0
174
     0
 93
        1
 44
0.0
173
     0
291
     1
 45
0.0
1001
ACAD
1000
AcDbSavedByObjectVersion
1070
     0
  0
VISUALSTYLE
  5
F9
102
{ACAD_XDICTIONARY
360
325C
102
}
102
{ACAD_REACTORS
330
EF
102
}
330
EF
100
AcDbVisualStyle
  2
Realistic
 70
     8
 71
     2
 72
     2
 73
     0
 90
        2
 40
-0.6
 41
30.0
 62
     5
 63
     7
 74
     0
 91
        0
 64
     7
 65
   257
 75
     1
175
     1
 42
1.0
 92
        8
 66
   257
 43
1.0
 76
     1
 77
     6
 78
     2
 67
     7
 79
     3
170
     0
171
     0
290
     0
174
     0
 93
       13
 44
0.0
173
     0
291
     0
 45
0.0
1001
ACAD
1000
AcDbSavedByObjectVersion
1070
     0
  0
VISUALSTYLE
  5
1F3
102
{ACAD_XDICTIONARY
360
327A
102
}
102
{ACAD_REACTORS
330
EF
102
}
330
EF
100
AcDbVisualStyle
  2
Shaded
 70
    27
 71
     2
 72
     2
 73
     1
 90
        2
 40
-0.6
 41
30.0
 62
     5
 63
     7
 74
     0
 91
        4
 64
     7
 65
   257
 75
     1
175
     1
 42
1.0
 92
        8
 66
   257
 43
1.0
 76
     1
 77
     6
 78
     2
 67
     8
 79
     3
170
     0
171
     0
290
     0
174
     0
 93
        5
 44
0.0
173
     0
291
     0
 45
0.0
1001
ACAD
1000
AcDbSavedByObjectVersion
1070
     0
  0
VISUALSTYLE
  5
1F2
102
{ACAD_XDICTIONARY
360
3278
102
}
102
{ACAD_REACTORS
330
EF
102
}
330
EF
100
AcDbVisualStyle
  2
Shaded with edges
 70
    26
 71
     2
 72
     2
 73
     1
 90
        2
 40
-0.6
 41
30.0
 62
     5
 63
     7
 74
     1
 91
        2
 64
     7
 65
   257
 75
     2
175
     1
 42
1.0
 92
        8
 66
   257
 43
1.0
 76
     1
 77
     6
 78
     2
 67
     7
 79
     3
170
     0
171
     0
290
     0
174
     0
 93
        5
 44
0.0
173
     0
291
     0
 45
0.0
1001
ACAD
1000
AcDbSavedByObjectVersion
1070
     0
  0
VISUALSTYLE
  5
1EF
102
{ACAD_XDICTIONARY
360
3272
102
}
102
{ACAD_REACTORS
330
EF
102
}
330
EF
100
AcDbVisualStyle
  2
Shades of Gray
 70
    23
 71
     2
 72
     2
 73
     3
 90
        0
 40
-0.6
 41
-30.0
 62
     5
 63
     7
 74
     2
 91
        2
 64
     7
 65
     7
 75
     1
175
     1
 42
40.0
 92
        8
 66
     7
 43
1.0
 76
     1
 77
     6
 78
     2
 67
     7
 79
     3
170
     0
171
     0
290
     0
174
     0
 93
        1
 44
0.0
173
     0
291
     0
 45
0.0
1001
ACAD
1000
AcDbSavedByObjectVersion
1070
     0
  0
VISUALSTYLE
  5
1F0
102
{ACAD_XDICTIONARY
360
3274
102
}
102
{ACAD_REACTORS
330
EF
102
}
330
EF
100
AcDbVisualStyle
  2
Sketchy
 70
    24
 71
     1
 72
     2
 73
     2
 90
        0
 40
-0.6
 41
-30.0
 62
     5
 63
     7
 74
     2
 91
        2
 64
     7
 65
     7
 75
     1
175
     1
 42
40.0
 92
       11
 66
     7
 43
1.0
 76
     1
 77
     6
 78
     2
 67
     7
 79
     6
170
     0
171
     0
290
     0
174
     0
 93
        1
 44
0.0
173
     0
291
     0
 45
0.0
1001
ACAD
1000
AcDbSavedByObjectVersion
1070
     0
  0
VISUALSTYLE
  5
FC
102
{ACAD_XDICTIONARY
360
3262
102
}
102
{ACAD_REACTORS
330
EF
102
}
330
EF
100
AcDbVisualStyle
  2
Thicken
 70
    13
 71
     2
 72
     2
 73
     1
 90
        0
 40
-0.6
 41
-30.0
 62
     5
 63
     7
 74
     1
 91
        4
 64
     7
 65
   257
 75
     1
175
     1
 42
1.0
 92
       12
 66
     7
 43
1.0
 76
     1
 77
     6
 78
     2
 67
     7
 79
     5
170
     0
171
     0
290
     0
174
     0
 93
        1
 44
0.0
173
     0
291
     1
 45
0.0
1001
ACAD
1000
AcDbSavedByObjectVersion
1070
     0
  0
VISUALSTYLE
  5
F6
102
{ACAD_XDICTIONARY
360
3256
102
}
102
{ACAD_REACTORS
330
EF
102
}
330
EF
100
AcDbVisualStyle
  2
Wireframe
 70
     5
 71
     0
 72
     2
 73
     0
 90
        0
 40
-0.6
 41
-30.0
 62
     5
 63
     7
 74
     1
 91
        4
 64
     7
 65
   257
 75
     1
175
     1
 42
1.0
 92
        0
 66
   257
 43
1.0
 76
     1
 77
     6
 78
     2
 67
     7
 79
     3
170
     0
171
     0
290
     0
174
     0
 93
        1
 44
0.0
173
     0
291
     0
 45
0.0
1001
ACAD
1000
AcDbSavedByObjectVersion
1070
     0
  0
VISUALSTYLE
  5
1F1
102
{ACAD_XDICTIONARY
360
3276
102
}
102
{ACAD_REACTORS
330
EF
102
}
330
EF
100
AcDbVisualStyle
  2
X-Ray
 70
    25
 71
     2
 72
     2
 73
     1
 90
        1
 40
0.5
 41
-30.0
 62
     5
 63
     7
 74
     1
 91
        0
 64
     7
 65
   257
 75
     1
175
     1
 42
1.0
 92
        8
 66
     7
 43
1.0
 76
     1
 77
     6
 78
     2
 67
     7
 79
     3
170
     0
171
     0
290
     0
174
     0
 93
       13
 44
0.0
173
     0
291
     0
 45
0.0
1001
ACAD
1000
AcDbSavedByObjectVersion
1070
     0
  0
DICTIONARYVAR
  5
146
102
{ACAD_REACTORS
330
5E
102
}
330
5E
100
DictionaryVariables
280
     0
  1
1:1
  0
DICTIONARYVAR
  5
259
102
{ACAD_REACTORS
330
5E
102
}
330
5E
100
DictionaryVariables
280
     0
  1
3.500000
  0
DICTIONARYVAR
  5
25A
102
{ACAD_REACTORS
330
5E
102
}
330
5E
100
DictionaryVariables
280
     0
  1
acadiso.lin
  0
DICTIONARYVAR
  5
145
102
{ACAD_REACTORS
330
5E
102
}
330
5E
100
DictionaryVariables
280
     0
  1
STANDARD
  0
DICTIONARYVAR
  5
84
102
{ACAD_REACTORS
330
5E
102
}
330
5E
100
DictionaryVariables
280
     0
  1
STANDARD
  0
DICTIONARYVAR
  5
227
102
{ACAD_REACTORS
330
5E
102
}
330
5E
100
DictionaryVariables
280
     0
  1
Metric50
  0
DICTIONARYVAR
  5
228
102
{ACAD_REACTORS
330
5E
102
}
330
5E
100
DictionaryVariables
280
     0
  1
Metric50
  0
DICTIONARYVAR
  5
5F
102
{ACAD_REACTORS
330
5E
102
}
330
5E
100
DictionaryVariables
280
     0
  1
2
  0
DICTIONARYVAR
  5
63
102
{ACAD_REACTORS
330
5E
102
}
330
5E
100
DictionaryVariables
280
     0
  1
1
  0
DICTIONARYVAR
  5
31E9
102
{ACAD_REACTORS
330
5E
102
}
330
5E
100
DictionaryVariables
280
     0
  1
0
  0
DICTIONARYVAR
  5
1AE
102
{ACAD_REACTORS
330
5E
102
}
330
5E
100
DictionaryVariables
280
     0
  1
0
  0
DICTIONARYVAR
  5
1AF
102
{ACAD_REACTORS
330
5E
102
}
330
5E
100
DictionaryVariables
280
     0
  1
0
  0
DICTIONARYVAR
  5
31E7
102
{ACAD_REACTORS
330
5E
102
}
330
5E
100
DictionaryVariables
280
     0
  1
2
  0
DICTIONARYVAR
  5
31E6
102
{ACAD_REACTORS
330
5E
102
}
330
5E
100
DictionaryVariables
280
     0
  1
1
  0
DICTIONARYVAR
  5
323B
102
{ACAD_REACTORS
330
5E
102
}
330
5E
100
DictionaryVariables
280
     0
  1
80.000000
  0
DICTIONARYVAR
  5
323A
102
{ACAD_REACTORS
330
5E
102
}
330
5E
100
DictionaryVariables
280
     0
  1
5.000000
  0
DICTIONARYVAR
  5
31E8
102
{ACAD_REACTORS
330
5E
102
}
330
5E
100
DictionaryVariables
280
     0
  1
127
  0
DICTIONARYVAR
  5
323C
102
{ACAD_REACTORS
330
5E
102
}
330
5E
100
DictionaryVariables
280
     0
  1
2
  0
DICTIONARY
  5
327E
330
21C
100
AcDbDictionary
280
     1
281
     1
  3
ACAD_XREC_ROUNDTRIP
360
327F
  0
DICTIONARY
  5
3243
330
D3
100
AcDbDictionary
280
     1
281
     1
  3
ACAD_XREC_ROUNDTRIP
360
3244
  0
DICTIONARY
  5
3245
330
D7
100
AcDbDictionary
280
     1
281
     1
  3
ACAD_XREC_ROUNDTRIP
360
3246
  0
DICTIONARY
  5
3240
330
22
100
AcDbDictionary
280
     1
281
     1
  3
ACAD_XREC_ROUNDTRIP
360
3241
  0
DICTIONARY
  5
1F9
330
ED
100
AcDbDictionary
280
     1
281
     1
  3
ACAD_XREC_ROUNDTRIP
360
3248
  3
FBXASSET
360
1FA
  0
DICTIONARY
  5
1F7
330
EC
100
AcDbDictionary
280
     1
281
     1
  3
ACAD_XREC_ROUNDTRIP
360
3247
  3
FBXASSET
360
1F8
  0
DICTIONARY
  5
173
330
EE
100
AcDbDictionary
280
     1
281
     1
  3
ACAD_XREC_ROUNDTRIP
360
3249
  3
BUMPTILE
360
175
  3
DIFFUSETILE
360
174
  3
FBXASSET
360
1FB
  3
OPACITYTILE
360
176
  3
REFLECTIONTILE
360
177
  0
DICTIONARY
  5
326A
330
12E
100
AcDbDictionary
280
     1
281
     1
  3
ACAD_XREC_ROUNDTRIP
360
326B
  0
DICTIONARY
  5
327C
330
21A
100
AcDbDictionary
280
     1
281
     1
  3
ACAD_XREC_ROUNDTRIP
360
327D
  0
DICTIONARY
  5
162
330
7F
100
AcDbDictionary
280
     1
281
     1
  3
ACAD_ROUNDTRIP_2008_TABLESTYLE_CELLSTYLEMAP
360
323D
  3
ACAD_XREC_ROUNDTRIP
360
3242
  0
DICTIONARY
  5
3254
330
F5
100
AcDbDictionary
280
     1
281
     1
  3
ACAD_XREC_ROUNDTRIP
360
3255
  0
DICTIONARY
  5
3252
330
F4
100
AcDbDictionary
280
     1
281
     1
  3
ACAD_XREC_ROUNDTRIP
360
3253
  0
DICTIONARY
  5
3260
330
FB
100
AcDbDictionary
280
     1
281
     1
  3
ACAD_XREC_ROUNDTRIP
360
3261
  0
DICTIONARY
  5
3268
330
FF
100
AcDbDictionary
280
     1
281
     1
  3
ACAD_XREC_ROUNDTRIP
360
3269
  0
DICTIONARY
  5
325A
330
F8
100
AcDbDictionary
280
     1
281
     1
  3
ACAD_XREC_ROUNDTRIP
360
325B
  0
DICTIONARY
  5
325E
330
FA
100
AcDbDictionary
280
     1
281
     1
  3
ACAD_XREC_ROUNDTRIP
360
325F
  0
DICTIONARY
  5
3270
330
1E6
100
AcDbDictionary
280
     1
281
     1
  3
ACAD_XREC_ROUNDTRIP
360
3271
  0
DICTIONARY
  5
3266
330
FE
100
AcDbDictionary
280
     1
281
     1
  3
ACAD_XREC_ROUNDTRIP
360
3267
  0
DICTIONARY
  5
324A
330
F0
100
AcDbDictionary
280
     1
281
     1
  3
ACAD_XREC_ROUNDTRIP
360
324B
  0
DICTIONARY
  5
324C
330
F1
100
AcDbDictionary
280
     1
281
     1
  3
ACAD_XREC_ROUNDTRIP
360
324D
  0
DICTIONARY
  5
324E
330
F2
100
AcDbDictionary
280
     1
281
     1
  3
ACAD_XREC_ROUNDTRIP
360
324F
  0
DICTIONARY
  5
3250
330
F3
100
AcDbDictionary
280
     1
281
     1
  3
ACAD_XREC_ROUNDTRIP
360
3251
  0
DICTIONARY
  5
3258
330
F7
100
AcDbDictionary
280
     1
281
     1
  3
ACAD_XREC_ROUNDTRIP
360
3259
  0
DICTIONARY
  5
326C
330
1E4
100
AcDbDictionary
280
     1
281
     1
  3
ACAD_XREC_ROUNDTRIP
360
326D
  0
DICTIONARY
  5
3264
330
FD
100
AcDbDictionary
280
     1
281
     1
  3
ACAD_XREC_ROUNDTRIP
360
3265
  0
DICTIONARY
  5
326E
330
1E5
100
AcDbDictionary
280
     1
281
     1
  3
ACAD_XREC_ROUNDTRIP
360
326F
  0
DICTIONARY
  5
325C
330
F9
100
AcDbDictionary
280
     1
281
     1
  3
ACAD_XREC_ROUNDTRIP
360
325D
  0
DICTIONARY
  5
327A
330
1F3
100
AcDbDictionary
280
     1
281
     1
  3
ACAD_XREC_ROUNDTRIP
360
327B
  0
DICTIONARY
  5
3278
330
1F2
100
AcDbDictionary
280
     1
281
     1
  3
ACAD_XREC_ROUNDTRIP
360
3279
  0
DICTIONARY
  5
3272
330
1EF
100
AcDbDictionary
280
     1
281
     1
  3
ACAD_XREC_ROUNDTRIP
360
3273
  0
DICTIONARY
  5
3274
330
1F0
100
AcDbDictionary
280
     1
281
     1
  3
ACAD_XREC_ROUNDTRIP
360
3275
  0
DICTIONARY
  5
3262
330
FC
100
AcDbDictionary
280
     1
281
     1
  3
ACAD_XREC_ROUNDTRIP
360
3263
  0
DICTIONARY
  5
3256
330
F6
100
AcDbDictionary
280
     1
281
     1
  3
ACAD_XREC_ROUNDTRIP
360
3257
  0
DICTIONARY
  5
3276
330
1F1
100
AcDbDictionary
280
     1
281
     1
  3
ACAD_XREC_ROUNDTRIP
360
3277
  0
XRECORD
  5
327F
102
{ACAD_REACTORS
330
327E
102
}
330
327E
100
AcDbXrecord
280
     1
102
DISPLAYNAME
  1
Metric50
102
FLAGS
 90
        0
  0
XRECORD
  5
3244
102
{ACAD_REACTORS
330
3243
102
}
330
3243
100
AcDbXrecord
280
     1
102
SHADEPLOT
 70
     0
102
SHADEPLOTRESLEVEL
 70
     2
102
SHADEPLOTCUSTOMDPI
 70
   300
  0
XRECORD
  5
3246
102
{ACAD_REACTORS
330
3245
102
}
330
3245
100
AcDbXrecord
280
     1
102
SHADEPLOT
 70
     0
102
SHADEPLOTRESLEVEL
 70
     2
102
SHADEPLOTCUSTOMDPI
 70
   300
  0
XRECORD
  5
3241
102
{ACAD_REACTORS
330
3240
102
}
330
3240
100
AcDbXrecord
280
     1
102
SHADEPLOT
 70
     0
102
SHADEPLOTRESLEVEL
 70
     2
102
SHADEPLOTCUSTOMDPI
 70
   300
  0
XRECORD
  5
3248
102
{ACAD_REACTORS
330
1F9
102
}
330
1F9
100
AcDbXrecord
280
     1
102
MATERIAL
148
0.0
149
0.0
149
0.0
 93
        0
 94
       63
282
     0
 72
     1
 77
     1
171
     1
175
     1
179
     1
273
     0
  0
XRECORD
  5
1FA
102
{ACAD_REACTORS
330
1F9
102
}
330
1F9
100
AcDbXrecord
280
     1
 70
     1
 90
429727718
  1
D62C5603-E3A1-4AEA-B7FB-FE5D8D0755AF
310
504B03040A0000080000CC70623B3DEE336E79000000790000001B0000006175746F6465736B2D64657369676E2D7061636B6167652E786D6C3C3F786D6C2076657273696F6E3D22312E302220656E636F64696E673D227574662D3822203F3E3C666F726D6174733E3C666F726D61743E687474703A2F2F736368656D612E
310
6175746F6465736B2E636F6D2F64657369676E2D7061636B6167652F323030393C2F666F726D61743E3C2F666F726D6174733E504B0304140006080800CC70623BD486FD9CA0000000F4000000130000005B436F6E74656E745F54797065735D2E786D6C7D8EC10E82300C865F65E91D8A1E8C310C0EEA1BF002731658846E
310
D98AC1B77784ABF1D8FE5FBFBF75BBCE937A534CCEB38643598122B6FEE978D0B0485F9C41B54DDD7D022595594E1A469170414C76A4D9A4D207E29CF43ECE46F218070CC6BECC4078ACAA135ACF422C856C0E68EA1BF5669944DDD7BCDE7B1F8E415D77AECB980613C2E4AC91FC167A2B244592486606FC29C8FD7F045B9A
310
EF7053A7E60B504B0304140006080800CC70623B853B8169EB0000007C01000008000000636F72652E786D6C8D90416EC3201045AF62CDB6C206821CC7C244919D9CA01740401C94182C03558F5F9C3852BBEB6A467FFE9B197D7EFC9E1EC5975982F5AE035262288C535E5B377690E21535501C055FBC8FBF6C503839990E
310
5619041F179FE64D52DE45E362569DD7661365082642A11EB9E920A89B99642953CC8E702F67A9EE7234257977194EC9EAE275C4EABCCF5EAD5940D4AC6F0E35A568B8F43562CD7046CD199FD07E60174276A7BE677B5EADB0E0D14EEFFB6A31321A0D82627C4084204C3F096B71DD52F6819B16635EADF63F509AF53FA164
310
5DDCD1EDDD17164090FCC8732078B56691CB33A85CD7DCC40F504B0304140006080800CC70623B55019EA25F0000007C00000007000000636E782E786D6C4DCB3B0E80201045D1AD90E915ED2CF8AC45050C11660C8261F98AB1B07AC9C97D42D718D865D3E909258CFD00CCE24AC6E326A164D74DC0B4128928FF32603847
310
2BA13128B1252AC747C6BAB984FC68F0B87FE8960A5C09FE86CFB69FBA01504B0304140006080800CC70623BDBABAAF470010000D40300000C0000006662782F636F72652E786D6CC553D16E823014FD95A6AF4B694182CC941A83FA05FB810A9511A125A5257EFE2E82712ECEB8A7F100CD39F7F69E734AF9FADC366850B6
310
AF8DCE7018308C942E4C59EB2AC3DE1D498AD15A706B8CFB56869196ADCAF00863C12B6B7C374385D14E6907A836A59A41D9F7CA615434B0C8705F7CAA5606D23BA8E84F41278B93AC54100640439DE0BDB320004D43C63716C7C399D30917DCFBBA9CD9BA8469F5B156168B24CED3F7248AC8769F27244EB73B92EED8862C
310
B7F13E0C179B3C8F979C8ECD82BBBABDAA2BAC924E9558448CBD9330242CFA08E3154B5651FCC6D215639C8EE5774DBE2B5F6CF2B5768B68963BB5F5588420E442FC700B1139D4CB01F450C1E918227C2E09DF070D8140C84E1E9AAB8F1340832A9CB13130A5F1376A908D57309505ECF2A0DF179C4E9D30F5B239B87E3823
310
7A79C6F31DE1A8A5AEC08474B03C7837EAE4938639B44E5932B833D2C6B6B279CDC613877FA26EE21F4A2A4C63EC7F29A2F301D1F9F7A0E37D145F504B0304140006080800CC70623B9C113CC27E0000009D0000000B0000006662782F636E782E786D6C4DCCDF0A83201C86E15B91DFB94BFB330DD428C8FB886521330DA7
310
6397BF1A1DECE883878F57749FCDA1B7892F1BBC047A23808C7F84D9FA55424E0BE6803A256208E9EF06C84F9B91703228B1C690F78B66B34CD9A5439DF5CF0BFBF65E35BCA1B8D6A5C6F540381E886698B5741C695F9503EBA150A2F8958E3DC3EA0B504B0304140006080800CC70623B7DF2F77C2A010000120200003100
310
00006662782F41393633353835312D344632462D344230382D423046372D3739314545314133324237412F636F72652E786D6C8D51DB8EC22014FC15C2939B0D2DB4B45643319AE817EC0F6041255A68B86CFCFC856D4D76DF7CE190393373060EDB3DC707F856CE6B6B7A480A0C81328395DA5C7B18C3057510EC3873D686
310
3F34088C18550F330C39BB3A1BA7051AAC09CA84841A2BD5020AEF55806078A44B0FFD7053A328440C89E1EFC52486BBB8AA8214A99D789CF9E05200300FC927E4FB4D5B375D43103D5527440FB843077C5AA3F5861C8F645F5787F59E95B390B318B55CE45AA638FAA2957BD7248B390B7A7CC51F9C124149C82B8C378810
310
84AB2F42B7B8DD56F413775B8C5999E9FF4471926F8AA236A1AE96B8B3CC434E5839373893369E1FAF30EA395917409EB7F26AF8801C171837A4A6AC9C89E9F9C9B1A58BA30FD6A5EF5DDDCF894B9AD9B6A59C957943A9FCAE2FD5BC4DFE03504B0304140006080800CC70623BAD7543B64E01000033030000300000006662
310
782F41393633353835312D344632462D344230382D423046372D3739314545314133324237412F636E782E786D6CD593CD6EC32010845F0571AD6CE3D48AD20813A9873E410FBD12D82434182C7EAAE6EDBB2424CD25871E7B41D6EC30B3FA84F9E67BB2E40B4234DE8DB46F1925E094D7C6ED479AD3AE5951B2113C789FEE
310
6C943839C1488B4C05DF079FE72A69D8C96C13AAD6B8631503449F83828872B949AC57D26200B826A308D316B4064D6E46FCDA41C05550DC9E483A00797BFD207EFB092A45DE9514C1BBD22178396BD39D891265658C238DEA00936C654E5E433CB65A26D9F6EDB5EBC14EBF49A45CB856E66048291F6939A9A81BB5C89177
310
38143CA680F4AA299D66A042CEB3354A2684DC9D8D178FE0D9B8B41CAAD720F880EE7EF93C0C18769E099ECC04D5A102C8049A8A05632F4DDF376CF1DE0F6BB65C2F8627B65A33C6BB62177CEBBDAD973006829F89F22E814B54F4BC2BE347F8AA8F681390B50FA73F804400B5F542E796F19FF974E7F78DB802FE05E20750
310
4B0304140006080800CC70623BE75B7789680500003C100000340000006662782F41393633353835312D344632462D344230382D423046372D3739314545314133324237412F6F626A656374732E786D6CAD575B8F9B3818FD2B887D06C22499CB8AA1CA655245D5B455A356FB305264C061D8018C6C3393D95FBFC7600890
310
A4CD5EF210B0B1BFEBF98E3F7B1FF6596ABC522E1296DF9BAE3D320D9A872C4AF2F8DE2CE5CEBA358D0FBEC719939D65A691938CDE9B6ADAF4BD98B3B2D05311DD91329583D9D5FC0F438434A7A611A644887B5384CF34233629258BA878B12322891DEFF6B66BD70BFB62634E8AE781D082709A4B588AF91C528CDA28B73F
310
1C998EEF39EABBEFA97FBD6A7C7E9553F9D3D79FE442923C3C523610337627CB87ABE99D359D4CC6D6E4FACAB5E6ABF9D2726FC6A3C5F56271377BB88362213924694B38DD99FE47C48627A1E7D49F5A8BB5E1A74C0A599ED3B0F21F1E56366B89112D681E218F0915D0D6F17AD41FBA2A369DCF6335D62ABBD39779D5DDD1
310
11D4D8DE3CBB96B2E04FB8202E41051754A1AA8E8F76B4C6DFE810B580B1547F4B84911149794252234D024EF8BBE963A95AE27B3D310A9D5C215C7960FAEE415ED75694C6AFB17BCACA5D99A60A9AA65F217B0BFC53292ACB92BF283FAD0D3621576592CB5BED907C2FA8E9DF794E35E97BEA31BED21FEB401ABB94C44839
310
DCACBF0E1C5DA8DA5B2F4DFFD32AD86F543D9E565E7056502E157C00AD2671CD534549AB752FCA9CDA00677A313F04E51B22FF19E57B300579E3C97EB29F682D92935CEC18CF901B7B54FD8C51F362B56FC72FE0B3C1EAE335EDCCBF5AEC39ADB17DC238973F804BA5E6F6BFE7AF1FB32E523BE9F3BD571418E3631DCA4D48
310
5250CF639223210A9446CA30052EDF057BD35F8329C1ECD84552BF0DC8D18BE7BCE23BFE6BD960AB4A7DE79923A103BEBD80F911CBAA2C60DB19B01CF164A5583B772EE6D3FFA56666CBCDA74DC97724A48F9A58967497E489C4D979006FD7A05E227A1EBDD0F737C623387A9C844D3709995625106D157315F8B8392CD4E0
310
A0B9A720C4BE9829CEF37EA1E13111214D53925356365ADA634861B52519DD27A00AEB808EAF0628E6F435519D446F45CF2C9CF5214F0A15B2F6D06B79DA3EE3CBF7F56780D2F4E7EF73A0F5E5B02A38D07DC852C6B7C1FBB6664213E0C39E3EBA7FF4E1AD23EA2829407C85E586727488B751B2DB9502BC7B228A3FD68B6E
310
A65A22397E690AA8D158D7E404EC8CDA235CC3B7D1898680131CEC2CDF2638C65196279577750F15884AEE19F94199155B92B13297978469D4F8D358DF0AEF7631E28DC8F0D9F437D5D39A83B2231A1D52D543813A824EF8D44BCFF2FA6A31BD1E8DAD87F1CCB526B3879935BF59CDADD5C37479BB1CDD4CA7B3556B516589
310
EF352754B706114D9C885EC9131DE6EFEB43D99AFE2391C2F958179413D7CFEF6B1B6DB1E7600F00DE6E5C67454A339A4BA2E0FBA85ED26F045D454F463DBFCE484C2F90F2E5E3666003662ED8F755951A7D1BECD5B30B550B2785C8E7320B7292A4838DDA71BBC863ED7613CAF659337A3354231D4FF4A182A54904C2898C
310
98B28C4AD0CE056CCF332A80986E571EE9DBC305BB5FEB7E509220A58D25CF042D712A806AC0AD0C657FDEF80D2D9CEAA2EE4D1C76F60BFE74219A06527D6F82DF6412526107381E55E353090704D085B52408A8913C4ED159D79BDA71BB4BC506F4831350EB6F975CD22D69BF7AC49B91A2C0A9DDA3D5CA36AD20FC478E37
310
E61844E2352865EBCB61A275A65283CAAA9DD27703B4102F5AF51EF5F573B75CBB5AD38BC845F7A49F82A0966A49C2E3EA5EA0ECD326CD965F1DB402C6FA8B51A4658C5C5E2EC9E214602E55810345408596591009A82E7E7FFACA19EEA299B14A0081A705CB3296EBC14CDF658DCD336EA6D1136881AAEB87B81AB9EE53D5
310
F5EB8BC8362082DA24122F98680A4E7930C01A0079749CEA14382A0783E5EBA5A10F8C098456A03D6A4AEB6BB881E2513747552A5DB22C7EDAF83BD5528081A365F7FF06504B0304140006080000CC70623B000000000000000000000000350000006662782F41393633353835312D344632462D344230382D423046372D37
310
39314545314133324237412F76657274696365732E62696E504B0304140006080800CC70623BF270F1330600000004000000360000006662782F41393633353835312D344632462D344230382D423046372D3739314545314133324237412F747269616E676C65732E62696E636660600000504B0304140006080000CC7062
310
3B000000000000000000000000370000006662782F41393633353835312D344632462D344230382D423046372D3739314545314133324237412F617474726962757465732E62696E504B0304140006080800CC70623B08DA0BD19000000041010000360000006662782F41393633353835312D344632462D344230382D4230
310
46372D3739314545314133324237412F6469726563746F72792E786D6C858F410AC3201045AF22B36F53E9A60B35CBEEBAE80D244E44489C6234F4F835464A48035D0DF398FF9F8AF63D0E6CC63039F212F8F9020C7D47C6792B21C5FE7403D62A1188E2E60C98D7234A5830286103A55745067B9D86B8A3CF9C7F90C11DE6
310
07FB144396D7B6A82D282E9A152AD114D5EF2CB866EEE831B8EEA07A7BB5A8D7D61A2BAAEB7FD5F70921FF497D00504B0304140006080800CC70623BEDD1DC58FD000000A00100003B0000006662782F41393633353835312D344632462D344230382D423046372D3739314545314133324237412F7265736F75726365732F
310
636F72652E786D6C8D504B6E833010BD0A9A6D65B00922041947112427E8052C33A156828DFCA97AFC9A40A576D7CDCCE87D344F8F9FBFE667F689CE6B6B3A6039850C8DB2A336530731DC4903D95970676DF82583CCC8193B5861107C72362E3BA4AC096842428D1D7107A5F7182053CF7474E0D507CE32973124857FE48B
310
540F3961CEF244279DE03EB81420DB9EAC1384436FA353E879B1B182C7A8C75DA3C7F453DF353A1075D537A7BA6464B8F535A99AE14A9A2BBD90E350DD183B5CFABE3AF262350B1EF4FC9351399401471025A527C218A1E53BAB5A5AB765F5469B96525EACF23FA6B88CFF34456DC2A1DCE36E360F82A5202F42F062ED2BAD
310
579969AFDD8A6F504B010214000A0000080000CC70623B3DEE336E79000000790000001B00000000000000000000000000000000006175746F6465736B2D64657369676E2D7061636B6167652E786D6C504B01021400140006080800CC70623BD486FD9CA0000000F40000001300000000000000000000000000B20000005B
310
436F6E74656E745F54797065735D2E786D6C504B01021400140006080800CC70623B853B8169EB0000007C010000080000000000000000000000000083010000636F72652E786D6C504B01021400140006080800CC70623B55019EA25F0000007C000000070000000000000000000000000094020000636E782E786D6C504B
310
01021400140006080800CC70623BDBABAAF470010000D40300000C00000000000000000000000000180300006662782F636F72652E786D6C504B01021400140006080800CC70623B9C113CC27E0000009D0000000B00000000000000000000000000B20400006662782F636E782E786D6C504B01021400140006080800CC70
310
623B7DF2F77C2A010000120200003100000000000000000000000000590500006662782F41393633353835312D344632462D344230382D423046372D3739314545314133324237412F636F72652E786D6C504B01021400140006080800CC70623BAD7543B64E010000330300003000000000000000000000000000D2060000
310
6662782F41393633353835312D344632462D344230382D423046372D3739314545314133324237412F636E782E786D6C504B01021400140006080800CC70623BE75B7789680500003C10000034000000000000000000000000006E0800006662782F41393633353835312D344632462D344230382D423046372D3739314545
310
314133324237412F6F626A656374732E786D6C504B01021400140006080000CC70623B0000000000000000000000003500000000000000000000000000280E00006662782F41393633353835312D344632462D344230382D423046372D3739314545314133324237412F76657274696365732E62696E504B01021400140006
310
080800CC70623BF270F133060000000400000036000000000000000000000000007B0E00006662782F41393633353835312D344632462D344230382D423046372D3739314545314133324237412F747269616E676C65732E62696E504B01021400140006080000CC70623B0000000000000000000000003700000000000000
310
000000000000D50E00006662782F41393633353835312D344632462D344230382D423046372D3739314545314133324237412F617474726962757465732E62696E504B01021400140006080800CC70623B08DA0BD1900000004101000036000000000000000000000000002A0F00006662782F41393633353835312D344632
310
462D344230382D423046372D3739314545314133324237412F6469726563746F72792E786D6C504B01021400140006080800CC70623BEDD1DC58FD000000A00100003B000000000000000000000000000E1000006662782F41393633353835312D344632462D344230382D423046372D3739314545314133324237412F7265
310
736F75726365732F636F72652E786D6C504B0506000000000E000E0080040000641100000000
  0
XRECORD
  5
3247
102
{ACAD_REACTORS
330
1F7
102
}
330
1F7
100
AcDbXrecord
280
     1
102
MATERIAL
148
0.0
149
0.0
149
0.0
 93
        0
 94
       63
282
     0
 72
     1
 77
     1
171
     1
175
     1
179
     1
273
     0
  0
XRECORD
  5
1F8
102
{ACAD_REACTORS
330
1F7
102
}
330
1F7
100
AcDbXrecord
280
     1
 70
     1
 90
429727718
  1
30362254-06B7-45E0-A893-8CFA70E3D6BC
310
504B03040A0000080000CC70623B3DEE336E79000000790000001B0000006175746F6465736B2D64657369676E2D7061636B6167652E786D6C3C3F786D6C2076657273696F6E3D22312E302220656E636F64696E673D227574662D3822203F3E3C666F726D6174733E3C666F726D61743E687474703A2F2F736368656D612E
310
6175746F6465736B2E636F6D2F64657369676E2D7061636B6167652F323030393C2F666F726D61743E3C2F666F726D6174733E504B0304140006080800CC70623BD486FD9CA0000000F4000000130000005B436F6E74656E745F54797065735D2E786D6C7D8EC10E82300C865F65E91D8A1E8C310C0EEA1BF002731658846E
310
D98AC1B77784ABF1D8FE5FBFBF75BBCE937A534CCEB38643598122B6FEE978D0B0485F9C41B54DDD7D022595594E1A469170414C76A4D9A4D207E29CF43ECE46F218070CC6BECC4078ACAA135ACF422C856C0E68EA1BF5669944DDD7BCDE7B1F8E415D77AECB980613C2E4AC91FC167A2B244592486606FC29C8FD7F045B9A
310
EF7053A7E60B504B0304140006080800CC70623B1EC5D7A3EB0000007C01000008000000636F72652E786D6C8D90416EC3201045AF82665B6103C6756C6122AB4D4ED00B204C5C94182C03558F5F9C3852BBEB6A467FFE9B197D71FC9E6FE8CBACC17AD7032D0820E3B41FAD9B7A48F1820F808E52ACDEC75F36404ECDA687
310
4D0629A6D5A76597B477D1B89855E747B38B2A041301E95B6E7A08FAD3CCAA50296647B8168BD2573599823EBB0CA76447F43862C7BCCF5EAC59410E4DDD9C7973C2755553CCCFA4C603E3040F1565ED3B1FDE4E432BCA0D9622DAF9795FAF464533826484B498524CD807E51D79ED187F21878E10516EF63F505AC67F42C9
310
BA58B1FDDD071640D2FCC87D2045B96591CB3DA85CB7DCE40F504B0304140006080800CC70623B55019EA25F0000007C00000007000000636E782E786D6C4DCB3B0E80201045D1AD90E915ED2CF8AC45050C11660C8261F98AB1B07AC9C97D42D718D865D3E909258CFD00CCE24AC6E326A164D74DC0B4128928FF32603847
310
2BA13128B1252AC747C6BAB984FC68F0B87FE8960A5C09FE86CFB69FBA01504B0304140006080800CC70623B8C9102E971010000D40300000C0000006662782F636F72652E786D6CC5535B6E833010BC8AE5DF0A6C08340F1947A84D4ED00B38C6A128602363A31CBFCB234A53A551FA553EC09AD9F5CE8C31DB9E9B1AF5CA
310
7695D1198E428A91D2D214952E33ECDD315861B4E5CC1AE3BE9561A445A3323CC098B3D21ADFCE9034DA29ED00D5A6503328BA4E398C640D8B0C77F253352214DE4145770A5B214FA2546114020D759C75CE8200340D19DE981F0F6746269C33EFAB6266AB02A655C74A59CCF365BADC27CB5D902ED22848F6340DF238A141
310
BE88E2F57B92BFEDF23523433367AE6A2EEAA455C2A902F398D2751045018D3FA264435F3771F242571B4A1919CA6F9A7C5B3CD9E42BED16F12C776AEB308F40C848FC700B1139D4891EF410CEC810227CC6846F8386402064270EF5C5C709A05E49676C024C61FC95EA45ED154CA5211D1FF4FB8291A913A68E9B83EBBB33
310
E2A7673CDE118E5AE8124C0807CB8377834E366998436B950D7A7746DAD846D4CFD978E0F04FD455FC5D49D2D4C6FE9722321F10997F0F32DC47FE05504B0304140006080800CC70623BFFEA85907E0000009D0000000B0000006662782F636E782E786D6C4DCCD10A83201886E15B91FFDC95D95A811AB6F23E625948A6C3
310
E9D8E5AF46073BFAE0E1E365ED67B3E8ADC3CB78C7815C7240DA3DFC64DCC221C519D7805AC182F7F1EF06C88D9BE6703008B6049F9E274D7A1E938DBB5AE3D6131B2589BA0D3D965551E0B2EA732C9B9A624AAEB41E3A557677029960D9AFB4EF11165F504B0304140006080800CC70623B4FEEA4082C0100001202000031
310
0000006662782F39464131463745442D413632322D343644302D413938332D3331353338454246344243312F636F72652E786D6C8D515B6EC32010BC0AE2AB55850DD871ED0813254D72825EC00192A2C460F1A872FC42ED48ED5F7E00CDCECCCEB26C731F6FE05B39AFADE921293004CA082BB5B9F43086336A21D870E6AC
310
0D7F68109861543DCC30E4ECE26C9C164858139409093556AA051CBC570102714B8F1E7AF1A5C6A11862480C7F2DA6415C878B2A4891CA89C7990F2E050073937C42DE1DB7E4F87ED8A36D4329AA9B3D46DBAEAD504556557BD81DEBDD0761E52CE42C462D17B996298E3E6BE59E35C962CE821E1FF18553435012728A7187
310
0841987E927A8D9B35ADDF70BBC6989599FE4F1427F9A4286A132ABAC49D651EF234CD5CE04CDA78BA3DC2A8FB645D00B9DF8B57E215725C60BCA2A463E54C4CE327C7A65E1C7DB02E7DEFCBF594B864C5CA6CDBD49C957943E9FA5D5FBAF336F90F504B0304140006080800CC70623BAD7543B64E01000033030000300000
310
006662782F39464131463745442D413632322D343644302D413938332D3331353338454246344243312F636E782E786D6CD593CD6EC32010845F0571AD6CE3D48AD20813A9873E410FBD12D82434182C7EAAE6EDBB2424CD25871E7B41D6EC30B3FA84F9E67BB2E40B4234DE8DB46F1925E094D7C6ED479AD3AE5951B2113C
310
789FEE6C943839C1488B4C05DF079FE72A69D8C96C13AAD6B8631503449F83828872B949AC57D26200B826A308D316B4064D6E46FCDA41C05550DC9E483A00797BFD207EFB092A45DE9514C1BBD22178396BD39D891265658C238DEA00936C654E5E433CB65A26D9F6EDB5EBC14EBF49A45CB856E66048291F6939A9A81BB5
310
C8917738143CA680F4AA299D66A042CEB3354A2684DC9D8D178FE0D9B8B41CAAD720F880EE7EF93C0C18769E099ECC04D5A102C8049A8A05632F4DDF376CF1DE0F6BB65C2F8627B65A33C6BB62177CEBBDAD973006829F89F22E814B54F4BC2BE347F8AA8F681390B50FA73F804400B5F542E796F19FF974E7F78DB802FE05
310
E207504B0304140006080800CC70623B16AB87BA640500003C100000340000006662782F39464131463745442D413632322D343644302D413938332D3331353338454246344243312F6F626A656374732E786D6CAD575B6FA33818FD2B887DE6924B3BED8A326A92B68A663B534DD4D13E548A0C38942D60649B369D5FBFC7
310
600890A493BDE42160637FD7F31D7FF63E6FB3D478A55C242CBF3247B66B1A340F5994E4F19559CA8D75611A9F7D8F33263BCB4C232719BD32D5B4E97B316765A1A722BA21652A07B3B7B33F0D11D29C9A46981221AE4C113ED38CD8A4942CA2E2C58E882476BCD9DA23BB5ED8171B73523C0F841684D35CC252CCE79062D4
310
468DFA43D7747CCF51DF7D4FFDEB5593E3AB9CCA9FBEFE241792E4E19EB28198C968BAB8199F5D5A67D3E9C49A9E8F47D6EC76B6B0469F26EEFC7C3EBFBCBEB98462213924694B38DD98FE1D62C393D073EA4FADC5DAF04326852CCF6958F90F0F2B9BB5C48816348F90C7840A68EB78EDF68723159BCEE7891A6B95DDE9D3
310
BCEAEEE8086A6C6F9E5D4B59F0175C10A7A0820BAA5055C7473B5AE3CFDD452D602CD5DF12616444529E90D448938013FE6EFA58AA96F85E4F8C42275708571E98FE6827AF6B2B4AE3D7D83D64E5A64C53054DD3AF90BD06FEA9149565C94FCA0F6B834DC85599E4F2423B24DF0B6AFA979E534DFA9E7A4CC6FA631D486393
310
921829879BF5D781A373557BCB85E97FB90DB62B558F8795179C15944B051F40AB495CF35451D26A4727654E6D8033BD98EF82F21D91FF8AF2DD9982BCF1643BDD4EB516C9492E368C67C88DED563FC36D5EACF66DFF057C3658BDBFA69DF9578B3DA735B64F18C7F20770A9D45CFCF7FCF563D6456A277DBEF78A02637CA2
310
43B90A490AEAB94F72244481D24819A6C0E59B606BFA4B3025981DBB48EAB701D97BF19C577CC77F2D1B6C55A9EF3C732474C0B727303F625995056C3B02963D9EAC146BE78EC5FCEC7FA999EBC5EACBAAE41B12D27B4D2C0BBA49F244E2ECDC81B76B502F113D8F5EE8FB1BE3111CDD4FC2AA9B844CAB1288B68AB90A7CDC
310
1C166AB0D3DC5310625FCC14E779BFD0709F8890A629C9292B1B2DED31A4B0DA928CEE135085754027E3018A397D4D5427D15BD1330B677DC8934285AC3DF45A9EB68FF8F2B8FC0A509AFEECFD0FF2DE25CC6047F7214B195F07EFEB9A094D800F7BFAE8FED187B78EA8A3A400F115961BCAD1215E47C966530AF0EE8128FE
310
58CEBB996A8964FFA529A046635D9353B0336A8F700DDF46271A024E70B0B37C9DE01847591E54DED53D54202AB947E4076556AC49C6CA5C9E1226B7F1A7B1BE15DEED62C41B91E1B3E9AFAAA735036547343A925075041DF0A9979E893B391F8FCFA6967B3EFB644DCF6E5CEBFAE272625DCC6FAF3FB93793C5F90CE1EF57
310
407342756B10D1C489E8953CD1617E5CEECAD6F4EF8914CE5D5D504E5C3F1F9736DA62CFC11E00BCDDB8CC8A9466349744C1F75EBDA4DF09BA8A9E8C7A7E9991989E20E5DBDD6A6003664ED8F7A04A8DBE0DF6EAD9B9AA858342E47399053949D2C146EDB85DE4B176BB0965FBAC19BD19AA918E27FA50C1D22402E144464C
310
59462568E704B6E71915404CB72B8FF4EDE184DDAF753F284990D2C6926782963815403548A70C657FDEF80D2D9CEAA2AE4C1C76F60BFE74219A06527D6582DF6412526107381E55E353090704D085B52408D0933C4ED159D79BDA71BB4BC506F4831350EB6F979CD22D69BF7AC49B91A2C0A9DDA3D5CA36AD20FC478E37E6
310
1844E2352865EBCB6EA275A652E3836BE04EFB400BF1A2556F515F1FBB35B2AB35BD889C744FFA1004B5544B121E57F70215746DD2F5E2C1412B602CBF19455AC6C8E5E9922C4E01E65215385004546899059180EAFCF7A707CE7017CD8CDB0410789AB32C63B91E5CEBBBACB17AC6CD347A022D5075FD106377347AAABA7E
310
7D11590744509B44E205134DC1290F06580320F78E537D3D73540E06CB970B431F185308AD40BBD794D6D77003C5A36E8EAA54BA64597CD8F83BD552A080A365F7FF06504B0304140006080000CC70623B000000000000000000000000350000006662782F39464131463745442D413632322D343644302D413938332D3331
310
353338454246344243312F76657274696365732E62696E504B0304140006080800CC70623BF270F1330600000004000000360000006662782F39464131463745442D413632322D343644302D413938332D3331353338454246344243312F747269616E676C65732E62696E636660600000504B0304140006080000CC70623B
310
000000000000000000000000370000006662782F39464131463745442D413632322D343644302D413938332D3331353338454246344243312F617474726962757465732E62696E504B0304140006080800CC70623B08DA0BD19000000041010000360000006662782F39464131463745442D413632322D343644302D413938
310
332D3331353338454246344243312F6469726563746F72792E786D6C858F410AC3201045AF22B36F53E9A60B35CBEEBAE80D244E44489C6234F4F835464A48035D0DF398FF9F8AF63D0E6CC63039F212F8F9020C7D47C6792B21C5FE7403D62A1188E2E60C98D7234A5830286103A55745067B9D86B8A3CF9C7F90C11DE607
310
FB144396D7B6A82D282E9A152AD114D5EF2CB866EEE831B8EEA07A7BB5A8D7D61A2BAAEB7FD5F70921FF497D00504B0304140006080800CC70623B0D6EF93BFE000000A00100003B0000006662782F39464131463745442D413632322D343644302D413938332D3331353338454246344243312F7265736F75726365732F63
310
6F72652E786D6C8D50596E833010BD0A9ADFCA60B334011947A8694ED00B586642AC041B79A97AFC9A40A5F6AF3F33A3B7689E1E3F7DCD8FEC139DD7D6F4C0720A191A65476DA61E62B892236427C19DB5E1970C322367EC618541F0C9D9B8EC90B226A009093576C41D94DE63804C3DD2D18357379C652E63480A7FCF17A9
310
EE72C29CE5894E3AC17D702940B63D59270887DE46A7D0F36263058F518FBB468FE9A7BE6A7420864373B8D4873369AA8691FA421B3294352543C5CAF65C0F6FEF43CB8BD52C78D0F34F46E550061C419494B6843142CB0F5677F4B52BEB177AEC28E5C52AFF638ACBF84F53D42654E51E77B379102C05791282176B5F693D
310
CB4C7BED567C03504B010214000A0000080000CC70623B3DEE336E79000000790000001B00000000000000000000000000000000006175746F6465736B2D64657369676E2D7061636B6167652E786D6C504B01021400140006080800CC70623BD486FD9CA0000000F40000001300000000000000000000000000B20000005B
310
436F6E74656E745F54797065735D2E786D6C504B01021400140006080800CC70623B1EC5D7A3EB0000007C010000080000000000000000000000000083010000636F72652E786D6C504B01021400140006080800CC70623B55019EA25F0000007C000000070000000000000000000000000094020000636E782E786D6C504B
310
01021400140006080800CC70623B8C9102E971010000D40300000C00000000000000000000000000180300006662782F636F72652E786D6C504B01021400140006080800CC70623BFFEA85907E0000009D0000000B00000000000000000000000000B30400006662782F636E782E786D6C504B01021400140006080800CC70
310
623B4FEEA4082C0100001202000031000000000000000000000000005A0500006662782F39464131463745442D413632322D343644302D413938332D3331353338454246344243312F636F72652E786D6C504B01021400140006080800CC70623BAD7543B64E010000330300003000000000000000000000000000D5060000
310
6662782F39464131463745442D413632322D343644302D413938332D3331353338454246344243312F636E782E786D6C504B01021400140006080800CC70623B16AB87BA640500003C1000003400000000000000000000000000710800006662782F39464131463745442D413632322D343644302D413938332D3331353338
310
454246344243312F6F626A656374732E786D6C504B01021400140006080000CC70623B0000000000000000000000003500000000000000000000000000270E00006662782F39464131463745442D413632322D343644302D413938332D3331353338454246344243312F76657274696365732E62696E504B01021400140006
310
080800CC70623BF270F133060000000400000036000000000000000000000000007A0E00006662782F39464131463745442D413632322D343644302D413938332D3331353338454246344243312F747269616E676C65732E62696E504B01021400140006080000CC70623B0000000000000000000000003700000000000000
310
000000000000D40E00006662782F39464131463745442D413632322D343644302D413938332D3331353338454246344243312F617474726962757465732E62696E504B01021400140006080800CC70623B08DA0BD190000000410100003600000000000000000000000000290F00006662782F39464131463745442D413632
310
322D343644302D413938332D3331353338454246344243312F6469726563746F72792E786D6C504B01021400140006080800CC70623B0D6EF93BFE000000A00100003B000000000000000000000000000D1000006662782F39464131463745442D413632322D343644302D413938332D3331353338454246344243312F7265
310
736F75726365732F636F72652E786D6C504B0506000000000E000E0080040000641100000000
  0
XRECORD
  5
3249
102
{ACAD_REACTORS
330
173
102
}
330
173
100
AcDbXrecord
280
     1
102
MATERIAL
148
0.0
149
0.0
149
0.0
 93
        0
 94
       63
282
     0
 72
     1
 77
     1
171
     1
175
     1
179
     1
273
     0
  0
XRECORD
  5
175
102
{ACAD_REACTORS
330
173
102
}
330
173
100
AcDbXrecord
280
     1
270
     1
271
     1
  0
XRECORD
  5
174
102
{ACAD_REACTORS
330
173
102
}
330
173
100
AcDbXrecord
280
     1
270
     1
271
     1
  0
XRECORD
  5
1FB
102
{ACAD_REACTORS
330
173
102
}
330
173
100
AcDbXrecord
280
     1
 70
     0
 90
1673772943
  1
ECE7A1D2-D628-4531-984C-D00F80459256
310
504B03040A0000080000CC70623B3DEE336E79000000790000001B0000006175746F6465736B2D64657369676E2D7061636B6167652E786D6C3C3F786D6C2076657273696F6E3D22312E302220656E636F64696E673D227574662D3822203F3E3C666F726D6174733E3C666F726D61743E687474703A2F2F736368656D612E
310
6175746F6465736B2E636F6D2F64657369676E2D7061636B6167652F323030393C2F666F726D61743E3C2F666F726D6174733E504B0304140006080800CC70623BD486FD9CA0000000F4000000130000005B436F6E74656E745F54797065735D2E786D6C7D8EC10E82300C865F65E91D8A1E8C310C0EEA1BF002731658846E
310
D98AC1B77784ABF1D8FE5FBFBF75BBCE937A534CCEB38643598122B6FEE978D0B0485F9C41B54DDD7D022595594E1A469170414C76A4D9A4D207E29CF43ECE46F218070CC6BECC4078ACAA135ACF422C856C0E68EA1BF5669944DDD7BCDE7B1F8E415D77AECB980613C2E4AC91FC167A2B244592486606FC29C8FD7F045B9A
310
EF7053A7E60B504B0304140006080800CC70623BD9DDAED0EC0000007C01000008000000636F72652E786D6C8D90416EC3201045AF82665B61836D9CD8C2444DD39CA01740405C94182C03558F5F9C3852BBEB6A467FFE9B197D7EF89E6EE8CB2CC17A37002D0820E394D7D68D03A478C17B4007C117EFE32F1B20272733C0
310
2A83E0E3E2D3BC49CABB685CCCAAF3DA6CA20CC14440EA969B0182FA34932C648AD911AEC52CD5558EA6A0CF2EC329598D1E47ACCEFBECC59A050463A7EA5833865FEBDD0E37353BE3EE8DBDE3F6786A48D375FBF6CC78B9C282473B3DEFABC5C86834888A900E538A49F5419B9EB47DD5BC907D4F082F57FB1F28CDFA9F50
310
B22ED6D5F6EE030B20687EE43E10BC5CB3C8E51E54AE6B6EE207504B0304140006080800CC70623B55019EA25F0000007C00000007000000636E782E786D6C4DCB3B0E80201045D1AD90E915ED2CF8AC45050C11660C8261F98AB1B07AC9C97D42D718D865D3E909258CFD00CCE24AC6E326A164D74DC0B4128928FF326038
310
472BA13128B1252AC747C6BAB984FC68F0B87FE8960A5C09FE86CFB69FBA01504B0304140006080800CC70623BA24EB22D72010000D40300000C0000006662782F636F72652E786D6CC5535B6E833010BC8AE5DF0A6C5E49888CA3A6694ED00B38E05014B091B1518EDFE511A5A9D228FD2A1F60CDEC7A67C6986DCE4D8D7A
310
69BA4AAB0C073EC548AA5C17952A33ECECD15B61B4E1CC686DBF9561A44423333CC098B3D268D7CE50AE9595CA02AA74216750749DB418E5352C32DCE59FB211BE70162ABA93DF8AFC244AE9073ED050C759670D0840D390E18DF9F1706664C23973AE2A66B62A605A75ACA4C13C4976E1364A12EF355A2EBD384AF65EFA96
310
BC7B8BED2EA6719AAE16FB8491A199335B351775B991C2CA02F390D2D40B028F861F41BCA68B7518BFD0D59A524686F29B26D7164F36B94AD9289CE54E6D1DE6010819891F6E21228B3AD1831EC219194284CF98F06DD01008846CC5A1BEF83801D4CBDC6A1303536877A57A513B0953A94FC707FDBE6064EA84A9E3E6E0FA
310
EE8CF0E9198F7784A316AA0413C2C2F2E0ECA0934D1AE6D05A69BCDE9E91D2A611F573361E38FC1375157F5752AE6B6DFE4B11990F88CCBF0719EE23FF02504B0304140006080800CC70623B408A7D3B7C0000009D0000000B0000006662782F636E782E786D6C4DCCD10A83201886E15B91FFDC552A92A0064DBC8F581632
310
D3703A76F9ABD1C18E3E78F878E5F0D9027ABBFCF2292AE86E2D20171F69F6715550CB827B40839639A5F2770314A7CD293819B45C73AAFB45B35BA61ACAA1C1C7E7855C58C15BC331339661262CC762340413D68D77DA5B42298546CBE6573AF60CEB2F504B0304140006080800CC70623B449FB9BD290100001202000031
310
0000006662782F36394639363044362D344446342D343946362D394244322D3234314243333846323333332F636F72652E786D6C8D515B6EC32010BC0AE22B55850D98B871848994463E412FE002495162B07854397EA176A4F62F3F2C9A9D991D587EB84F37F0AD7D30CEF6905418026DA553C65E7A98E219ED203808EE9D
310
8B7F6810D871D23D2C3014FCE25D9A57483A1BB58D19B54EE9151C43D0110279CB971E06F9A5A7B11A53CC8C70ADE6515EC78BAE4895DB992778883E0700CB907242D17643D7E2538BD869608875438BBAE38922CAC8F1BDD90DB4691A5E2F42C153326A951B95E398B3D1FE599322163C9AE9115F7A3D46ADA0A018778810
310
84E907617BDCEE297BC5BB3DC6BC2EF47FA234AB2745C9D8D8D035EE220B50105E2F0DC1954B9FB747187D9F9D8FA0CCDB042D5FA0C015C65B42DF78BD10F3F3B363CB56C7109DCFDFBBB97E662ED92EB62D13BC2E1BCAE5777DB9966D8A1F504B0304140006080800CC70623BAD7543B64E01000033030000300000006662
310
782F36394639363044362D344446342D343946362D394244322D3234314243333846323333332F636E782E786D6CD593CD6EC32010845F0571AD6CE3D48AD20813A9873E410FBD12D82434182C7EAAE6EDBB2424CD25871E7B41D6EC30B3FA84F9E67BB2E40B4234DE8DB46F1925E094D7C6ED479AD3AE5951B2113C789FEE
310
6C943839C1488B4C05DF079FE72A69D8C96C13AAD6B8631503449F83828872B949AC57D26200B826A308D316B4064D6E46FCDA41C05550DC9E483A00797BFD207EFB092A45DE9514C1BBD22178396BD39D891265658C238DEA00936C654E5E433CB65A26D9F6EDB5EBC14EBF49A45CB856E66048291F6939A9A81BB5C89177
310
38143CA680F4AA299D66A042CEB3354A2684DC9D8D178FE0D9B8B41CAAD720F880EE7EF93C0C18769E099ECC04D5A102C8049A8A05632F4DDF376CF1DE0F6BB65C2F8627B65A33C6BB62177CEBBDAD973006829F89F22E814B54F4BC2BE347F8AA8F681390B50FA73F804400B5F542E796F19FF974E7F78DB802FE05E20750
310
4B0304140006080800CC70623B8D05915C650500003B100000340000006662782F36394639363044362D344446342D343946362D394244322D3234314243333846323333332F6F626A656374732E786D6CAD575B6FA33814FE2B887D06429276DA1565D4266D158D3A339A6846FB502932E050B66023DB74D2FDF5FB190C01
310
9276B2973C046C8ECFF53B17071F77456EBD502133CEAE6CDF9DD81665314F32965ED995DA3A17B6F5310C04E7AA47665B8C14F4CAD6DB7618A48257A5D94AE89654B91AEDDEDDFC61C998326A5B714EA4BCB265FC440BE2924AF184CA6737218AB8E976E7FA6E4338649B0A523E8D98964450A6A029F619B8588D52FE7039
310
B1BD30F0F4F730D0FF866AF6369557DB33949F31A9088B0F848DD8CCFCF9F2767A76E99CCDE733677E3EF59D9BBB9BA5E37F984D16E78BC5E5F5ED25044B25C0C96822E8D60EEFE11B91C581D77CEA34368A1F5329E68CD1B8B61F16D63A1B8E092D294B10C78C4A48EB593D192E7DED9BDEE7995E1B91FDEDD3ACEA9FE831
310
6A756F9F7D4D79F4274C90A7A04248AA51D5F8C718DAE06FB2F75AC4796EBE65D22A88A22223B995679120E2D50E41AA49C260C046A35368846B0BECD0DFF3EBEB8AD4F835768F69B9ADF25C43D30E6B646F807FAA64AD59F61715C7A54127C4AACA98BA3006A9D792DAE165E0D59B61A01FB3A9F9D838D2DAE62445C86166
310
F37564E842E7DE6A69879FEEA2DD5AE7E371E1A5E025154AC307D06A03D73EB5978C58FFA4C8E9033066E0F3BD53BEC1F39F91BE7B55103791EDE6BBB991A2046172CB4581D8B893FA674DDA17A77B3B7C413D1B511FD2743BFF8A38F03A658705E3ADF8015C3A3417FF3D7E439FF591DA0B5F18BC20C1B8981957AE6392A3
310
F43C640C01D1A0B4728E2DD4F26DB4B3C3152A252A3B4E913CEC1C72F012782FF88EFF8637AA552DBEF76408E8A8DE9E50F9E1CB3A2DA0DB1B6039A893B56063DC5B3E3FFB5F72E67AB9FEB4AEC496C4F4C1149625DD662C53E89D7BF0F6151A046260D1337DFDC94502430F83B0EE07A130A224BCAD7DAE1D9FB6CD422FF6
310
920702629C4BB9AE79C12F243C6432A6794E18E5552BA56B431AAB5D91317302B2B071E86C3A42B1A02F999E24061403B5D0EB639195DA655DD3EBEAB4FB862DDF579F014AD0E73C22F99E28DA57FB98E75C6CA2D74D53086D600F4786E0FE3144B771A8A7B900F03594DB8A633CBC49B2EDB69228BB479CF863B5E807AAAB
310
23872F6DFEB4129B949CA33823F58830E86D65621E10047D9DB34D862E8EAC3C2ABC2F7B2C40D67CDFE01F5545B92105AF983AC54D93D69E56FB8E797F88913F898A9FEC705D3F9D1B54EC8426FB500D40A03BD0119B06E1B95DDC7EB8F6975367793EBD70E66733DFB9BC982F9CE564727731999F5D4ECFCE3B8D6A4DC2A0
310
6D50FD148437D110834A64C6CDDF57FBACB5C307A2A477DFE4939736CFEF2B175371E0E10CF0DD1D5C15654E0BCA14D1E87DD02FF93782A162C0A3D95F1524A52770F972BF1EE9809D13CE7DD599467F8ECE9ADD85CE85A34CD45355448C64F9E8A031DC2D596ACC6E5DD93D9B82DE2EF5CAF81363A8E47996A0DE24564A79
310
4115AACE09C55E14540231FDA13C319787134EBF34E3A022514E5B4D9E0826E25C02D5805B15ABE1BEF51B26383D445DD9E875EE33FE4C22DA16427D65A3BCA92CA6D28DD01DF5DC53330704308475351050232CCD31583787BA75774AFB06E5070DD0C8EF484E19968C5D83BA5B90B244D31E54D55A372320FE4786B7EA58
310
44E135AA5467CB7EA333A61683CC6A8C3257034C10CF46F40EF9F5BE59BE5BD30C3C72D235E95D10345C1D45445A5F0BB47E46A5EBE5570F9380B5FA629579952296A773720405982B9DE04011506178964401AA8BDF1FBF0A8EAB6861DD6580C0E38217056766716DAEB2D6FA0917D3E4116581EADB879C4E7CFFB11EFACD
310
3D641311495D92C8676CB409A72D18610D803CE8A626049E8EC1887CB5B44CC39883690DDA8399B4B9855B481E7D71D4A9D22F96E5BB73BF5793020C02137BF837504B0304140006080000CC70623B000000000000000000000000350000006662782F36394639363044362D344446342D343946362D394244322D32343142
310
43333846323333332F76657274696365732E62696E504B0304140006080800CC70623BF270F1330600000004000000360000006662782F36394639363044362D344446342D343946362D394244322D3234314243333846323333332F747269616E676C65732E62696E636660600000504B0304140006080000CC70623B0000
310
00000000000000000000370000006662782F36394639363044362D344446342D343946362D394244322D3234314243333846323333332F617474726962757465732E62696E504B0304140006080800CC70623B08DA0BD19000000041010000360000006662782F36394639363044362D344446342D343946362D394244322D
310
3234314243333846323333332F6469726563746F72792E786D6C858F410AC3201045AF22B36F53E9A60B35CBEEBAE80D244E44489C6234F4F835464A48035D0DF398FF9F8AF63D0E6CC63039F212F8F9020C7D47C6792B21C5FE7403D62A1188E2E60C98D7234A5830286103A55745067B9D86B8A3CF9C7F90C11DE607FB14
310
4396D7B6A82D282E9A152AD114D5EF2CB866EEE831B8EEA07A7BB5A8D7D61A2BAAEB7FD5F70921FF497D00504B0304140006080800CC70623BCA768048FE000000A00100003B0000006662782F36394639363044362D344446342D343946362D394244322D3234314243333846323333332F7265736F75726365732F636F72
310
652E786D6C8D50596E833010BD0A9ADFCA60D600328E9AA639412F609909B1126CE4A5EAF16B0295DABFFECC8CDEA2797AECF8353F924FB44E193D409E5248504B332A3D0D10FC95B4901C39B3C6F85F3248B49871801506CE266BC2B243D2688FDA47549B11775038871E12F988C7004EDE7016A9083E2ADC3D5D84BC8B09
310
D33C8D74D471E6BC8D0192EDC93A815B742658898E651BCB59086ADC356A8C3FD555A1055ED7E7E254D615792D0F075295F585746FF53B694EE78A565DD736979A65AB9933AFE69F8CD2A2F038022F28ED489E135A7CE4554F9BBEA85E68DB53CAB255FEC71496F19FA6A0B42F8B3DEE6673C0F318E4497096AD7DC5F52C33
310
EEB55BFE0D504B010214000A0000080000CC70623B3DEE336E79000000790000001B00000000000000000000000000000000006175746F6465736B2D64657369676E2D7061636B6167652E786D6C504B01021400140006080800CC70623BD486FD9CA0000000F40000001300000000000000000000000000B20000005B436F
310
6E74656E745F54797065735D2E786D6C504B01021400140006080800CC70623BD9DDAED0EC0000007C010000080000000000000000000000000083010000636F72652E786D6C504B01021400140006080800CC70623B55019EA25F0000007C000000070000000000000000000000000095020000636E782E786D6C504B0102
310
1400140006080800CC70623BA24EB22D72010000D40300000C00000000000000000000000000190300006662782F636F72652E786D6C504B01021400140006080800CC70623B408A7D3B7C0000009D0000000B00000000000000000000000000B50400006662782F636E782E786D6C504B01021400140006080800CC70623B
310
449FB9BD290100001202000031000000000000000000000000005A0500006662782F36394639363044362D344446342D343946362D394244322D3234314243333846323333332F636F72652E786D6C504B01021400140006080800CC70623BAD7543B64E010000330300003000000000000000000000000000D20600006662
310
782F36394639363044362D344446342D343946362D394244322D3234314243333846323333332F636E782E786D6C504B01021400140006080800CC70623B8D05915C650500003B10000034000000000000000000000000006E0800006662782F36394639363044362D344446342D343946362D394244322D32343142433338
310
46323333332F6F626A656374732E786D6C504B01021400140006080000CC70623B0000000000000000000000003500000000000000000000000000250E00006662782F36394639363044362D344446342D343946362D394244322D3234314243333846323333332F76657274696365732E62696E504B010214001400060808
310
00CC70623BF270F13306000000040000003600000000000000000000000000780E00006662782F36394639363044362D344446342D343946362D394244322D3234314243333846323333332F747269616E676C65732E62696E504B01021400140006080000CC70623B00000000000000000000000037000000000000000000
310
00000000D20E00006662782F36394639363044362D344446342D343946362D394244322D3234314243333846323333332F617474726962757465732E62696E504B01021400140006080800CC70623B08DA0BD190000000410100003600000000000000000000000000270F00006662782F36394639363044362D344446342D
310
343946362D394244322D3234314243333846323333332F6469726563746F72792E786D6C504B01021400140006080800CC70623BCA768048FE000000A00100003B000000000000000000000000000B1000006662782F36394639363044362D344446342D343946362D394244322D3234314243333846323333332F7265736F
310
75726365732F636F72652E786D6C504B0506000000000E000E0080040000621100000000
  0
XRECORD
  5
176
102
{ACAD_REACTORS
330
173
102
}
330
173
100
AcDbXrecord
280
     1
270
     1
271
     1
  0
XRECORD
  5
177
102
{ACAD_REACTORS
330
173
102
}
330
173
100
AcDbXrecord
280
     1
270
     1
271
     1
  0
XRECORD
  5
326B
102
{ACAD_REACTORS
330
326A
102
}
330
326A
100
AcDbXrecord
280
     1
102
ACAD_ROUNDTRIP_2012_MLEADER_STYLE
298
     1
  0
XRECORD
  5
327D
102
{ACAD_REACTORS
330
327C
102
}
330
327C
100
AcDbXrecord
280
     1
102
DISPLAYNAME
  1
Metric50
102
FLAGS
 90
        0
  0
CELLSTYLEMAP
  5
323D
102
{ACAD_REACTORS
330
162
102
}
330
162
100
AcDbCellStyleMap
 90
        3
300
CELLSTYLE
  1
TABLEFORMAT_BEGIN
 90
        5
170
     1
 91
        0
 92
    32768
 62
   257
 93
        1
300
CONTENTFORMAT
  1
CONTENTFORMAT_BEGIN
 90
        0
 91
        0
 92
      512
 93
        0
300

 40
0.0
140
1.0
 94
        5
 62
     0
340
11
144
6.0
309
CONTENTFORMAT_END
171
     1
301
MARGIN
  1
CELLMARGIN_BEGIN
 40
1.5
 40
1.5
 40
1.5
 40
1.5
 40
4.5
 40
4.5
309
CELLMARGIN_END
 94
        6
 95
        1
302
GRIDFORMAT
  1
GRIDFORMAT_BEGIN
 90
        0
 91
        1
 62
     0
 92
       -2
340
14
 93
        0
 40
1.125
309
GRIDFORMAT_END
 95
        2
302
GRIDFORMAT
  1
GRIDFORMAT_BEGIN
 90
        0
 91
        1
 62
     0
 92
       -2
340
14
 93
        0
 40
1.125
309
GRIDFORMAT_END
 95
        4
302
GRIDFORMAT
  1
GRIDFORMAT_BEGIN
 90
        0
 91
        1
 62
     0
 92
       -2
340
14
 93
        0
 40
1.125
309
GRIDFORMAT_END
 95
        8
302
GRIDFORMAT
  1
GRIDFORMAT_BEGIN
 90
        0
 91
        1
 62
     0
 92
       -2
340
14
 93
        0
 40
1.125
309
GRIDFORMAT_END
 95
       16
302
GRIDFORMAT
  1
GRIDFORMAT_BEGIN
 90
        0
 91
        1
 62
     0
 92
       -2
340
14
 93
        0
 40
1.125
309
GRIDFORMAT_END
 95
       32
302
GRIDFORMAT
  1
GRIDFORMAT_BEGIN
 90
        0
 91
        1
 62
     0
 92
       -2
340
14
 93
        0
 40
1.125
309
GRIDFORMAT_END
309
TABLEFORMAT_END
  1
CELLSTYLE_BEGIN
 90
        1
 91
        1
300
_TITLE
309
CELLSTYLE_END
300
CELLSTYLE
  1
TABLEFORMAT_BEGIN
 90
        5
170
     1
 91
        0
 92
        0
 62
   257
 93
        1
300
CONTENTFORMAT
  1
CONTENTFORMAT_BEGIN
 90
        0
 91
        0
 92
      512
 93
        0
300

 40
0.0
140
1.0
 94
        5
 62
     0
340
11
144
4.5
309
CONTENTFORMAT_END
171
     1
301
MARGIN
  1
CELLMARGIN_BEGIN
 40
1.5
 40
1.5
 40
1.5
 40
1.5
 40
4.5
 40
4.5
309
CELLMARGIN_END
 94
        6
 95
        1
302
GRIDFORMAT
  1
GRIDFORMAT_BEGIN
 90
        0
 91
        1
 62
     0
 92
       -2
340
14
 93
        0
 40
1.125
309
GRIDFORMAT_END
 95
        2
302
GRIDFORMAT
  1
GRIDFORMAT_BEGIN
 90
        0
 91
        1
 62
     0
 92
       -2
340
14
 93
        0
 40
1.125
309
GRIDFORMAT_END
 95
        4
302
GRIDFORMAT
  1
GRIDFORMAT_BEGIN
 90
        0
 91
        1
 62
     0
 92
       -2
340
14
 93
        0
 40
1.125
309
GRIDFORMAT_END
 95
        8
302
GRIDFORMAT
  1
GRIDFORMAT_BEGIN
 90
        0
 91
        1
 62
     0
 92
       -2
340
14
 93
        0
 40
1.125
309
GRIDFORMAT_END
 95
       16
302
GRIDFORMAT
  1
GRIDFORMAT_BEGIN
 90
        0
 91
        1
 62
     0
 92
       -2
340
14
 93
        0
 40
1.125
309
GRIDFORMAT_END
 95
       32
302
GRIDFORMAT
  1
GRIDFORMAT_BEGIN
 90
        0
 91
        1
 62
     0
 92
       -2
340
14
 93
        0
 40
1.125
309
GRIDFORMAT_END
309
TABLEFORMAT_END
  1
CELLSTYLE_BEGIN
 90
        2
 91
        1
300
_HEADER
309
CELLSTYLE_END
300
CELLSTYLE
  1
TABLEFORMAT_BEGIN
 90
        5
170
     1
 91
        0
 92
        0
 62
   257
 93
        1
300
CONTENTFORMAT
  1
CONTENTFORMAT_BEGIN
 90
        0
 91
        0
 92
      512
 93
        0
300

 40
0.0
140
1.0
 94
        2
 62
     0
340
11
144
4.5
309
CONTENTFORMAT_END
171
     1
301
MARGIN
  1
CELLMARGIN_BEGIN
 40
1.5
 40
1.5
 40
1.5
 40
1.5
 40
4.5
 40
4.5
309
CELLMARGIN_END
 94
        6
 95
        1
302
GRIDFORMAT
  1
GRIDFORMAT_BEGIN
 90
        0
 91
        1
 62
     0
 92
       -2
340
14
 93
        0
 40
1.125
309
GRIDFORMAT_END
 95
        2
302
GRIDFORMAT
  1
GRIDFORMAT_BEGIN
 90
        0
 91
        1
 62
     0
 92
       -2
340
14
 93
        0
 40
1.125
309
GRIDFORMAT_END
 95
        4
302
GRIDFORMAT
  1
GRIDFORMAT_BEGIN
 90
        0
 91
        1
 62
     0
 92
       -2
340
14
 93
        0
 40
1.125
309
GRIDFORMAT_END
 95
        8
302
GRIDFORMAT
  1
GRIDFORMAT_BEGIN
 90
        0
 91
        1
 62
     0
 92
       -2
340
14
 93
        0
 40
1.125
309
GRIDFORMAT_END
 95
       16
302
GRIDFORMAT
  1
GRIDFORMAT_BEGIN
 90
        0
 91
        1
 62
     0
 92
       -2
340
14
 93
        0
 40
1.125
309
GRIDFORMAT_END
 95
       32
302
GRIDFORMAT
  1
GRIDFORMAT_BEGIN
 90
        0
 91
        1
 62
     0
 92
       -2
340
14
 93
        0
 40
1.125
309
GRIDFORMAT_END
309
TABLEFORMAT_END
  1
CELLSTYLE_BEGIN
 90
        3
 91
        2
300
_DATA
309
CELLSTYLE_END
  0
XRECORD
  5
3242
102
{ACAD_REACTORS
330
162
102
}
330
162
100
AcDbXrecord
280
     1
102
ACAD_ROUNDTRIP_PRE2007_TABLESTYLE
 90
      512
 91
        0
  1

 92
      512
 93
        0
  2

 94
      512
 95
        0
  3

  0
XRECORD
  5
3255
102
{ACAD_REACTORS
330
3254
102
}
330
3254
100
AcDbXrecord
280
     1
102
RTVSPost2010Prop28
280
     1
102
RTVSPost2010PropOp28
 70
     1
102
RTVSPost2010Prop29
280
     1
102
RTVSPost2010PropOp29
 70
     1
102
RTVSPost2010Prop30
280
     0
102
RTVSPost2010PropOp30
 70
     1
102
RTVSPost2010Prop31
280
     0
102
RTVSPost2010PropOp31
 70
     1
102
RTVSPost2010Prop32
280
     0
102
RTVSPost2010PropOp32
 70
     1
102
RTVSPost2010Prop33
280
     0
102
RTVSPost2010PropOp33
 70
     1
102
RTVSPost2010Prop34
280
     0
102
RTVSPost2010PropOp34
 70
     1
102
RTVSPost2010Prop35
280
     0
102
RTVSPost2010PropOp35
 70
     1
102
RTVSPost2010Prop36
280
     0
102
RTVSPost2010PropOp36
 70
     1
102
RTVSPost2010Prop37
 90
       50
102
RTVSPost2010PropOp37
 70
     1
102
RTVSPost2010Prop38
140
0.0
102
RTVSPost2010PropOp38
 70
     1
102
RTVSPost2010Prop39
140
1.0
102
RTVSPost2010PropOp39
 70
     1
102
RTVSPost2010Prop40
 90
        0
102
RTVSPost2010PropOp40
 70
     1
102
RTVSPost2010Prop41ColorIndex
 90
       18
102
RTVSPost2010Prop41ColorRGB
 90
        0
102
RTVSPost2010PropOp41
 70
     1
102
RTVSPost2010Prop42
 90
       50
102
RTVSPost2010PropOp42
 70
     1
102
RTVSPost2010Prop43
 90
        3
102
RTVSPost2010PropOp43
 70
     1
102
RTVSPost2010Prop44ColorIndex
 90
        5
102
RTVSPost2010Prop44ColorRGB
 90
      255
102
RTVSPost2010PropOp44
 70
     1
102
RTVSPost2010Prop45
280
     0
102
RTVSPost2010PropOp45
 70
     1
102
RTVSPost2010Prop46
 90
       50
102
RTVSPost2010PropOp46
 70
     1
102
RTVSPost2010Prop47
 90
       50
102
RTVSPost2010PropOp47
 70
     1
102
RTVSPost2010Prop48
 90
       50
102
RTVSPost2010PropOp48
 70
     1
102
RTVSPost2010Prop49
280
     0
102
RTVSPost2010PropOp49
 70
     1
102
RTVSPost2010Prop50
 90
       50
102
RTVSPost2010PropOp50
 70
     1
102
RTVSPost2010Prop51ColorIndex
 90
      256
102
RTVSPost2010Prop51ColorRGB
 90
-16777216
102
RTVSPost2010PropOp51
 70
     0
102
RTVSPost2010Prop52
140
1.0
102
RTVSPost2010PropOp52
 70
     0
102
RTVSPost2010Prop53
 90
        2
102
RTVSPost2010PropOp53
 70
     1
102
RTVSPost2010Prop54
  1
strokes_ogs.tif
102
RTVSPost2010PropOp54
 70
     1
102
RTVSPost2010Prop55
280
     0
102
RTVSPost2010PropOp55
 70
     1
102
RTVSPost2010Prop56
140
1.0
102
RTVSPost2010PropOp56
 70
     1
102
RTVSPost2010Prop57
140
1.0
102
RTVSPost2010PropOp57
 70
     1
102
RTVSPropertyOp0
 70
     1
102
RTVSPropertyOp1
 70
     1
102
RTVSPropertyOp2
 70
     1
102
RTVSPropertyOp3
 70
     1
102
RTVSPropertyOp4
 70
     1
102
RTVSPropertyOp5
 70
     1
102
RTVSPropertyOp6
 70
     1
102
RTVSPropertyOp7
 70
     1
102
RTVSPropertyOp8
 70
     1
102
RTVSPropertyOp9
 70
     1
102
RTVSPropertyOp10
 70
     1
102
RTVSPropertyOp11
 70
     1
102
RTVSPropertyOp12
 70
     1
102
RTVSPropertyOp13
 70
     1
102
RTVSPropertyOp14
 70
     1
102
RTVSPropertyOp15
 70
     1
102
RTVSPropertyOp16
 70
     1
102
RTVSPropertyOp17
 70
     1
102
RTVSPropertyOp18
 70
     1
102
RTVSPropertyOp19
 70
     1
102
RTVSPropertyOp20
 70
     1
102
RTVSPropertyOp21
 70
     1
102
RTVSPropertyOp22
 70
     1
102
RTVSPropertyOp23
 70
     1
102
RTVSPropertyOp24
 70
     1
102
RTVSPropertyOp25
 70
     1
102
RTVSPropertyOp26
 70
     1
102
RTVSPropertyOp27
 70
     1
102
RTVSPropertyOp28
 70
     1
102
RTVSPropertyOp29
 70
     1
102
RTVSPropertyOp30
 70
     1
102
RTVSPropertyOp31
 70
     1
102
RTVSPropertyOp32
 70
     1
102
RTVSPropertyOp33
 70
     1
102
RTVSPropertyOp34
 70
     1
102
RTVSPropertyOp35
 70
     1
102
RTVSPropertyOp36
 70
     1
102
RTVSPropertyOp37
 70
     1
102
RTVSPropertyOp38
 70
     1
102
RTVSPropertyOp39
 70
     1
102
RTVSPropertyOp40
 70
     1
102
RTVSPropertyOp41
 70
     1
102
RTVSPropertyOp42
 70
     1
102
RTVSPropertyOp43
 70
     1
102
RTVSPropertyOp44
 70
     1
102
RTVSPropertyOp45
 70
     1
102
RTVSPropertyOp46
 70
     1
102
RTVSPropertyOp47
 70
     1
102
RTVSPropertyOp48
 70
     1
102
RTVSPropertyOp49
 70
     1
102
RTVSPropertyOp50
 70
     1
102
RTVSPropertyOp51
 70
     0
102
RTVSPropertyOp52
 70
     0
102
RTVSPropertyOp53
 70
     1
102
RTVSPropertyOp54
 70
     1
102
RTVSPropertyOp55
 70
     1
102
RTVSPropertyOp56
 70
     1
102
RTVSPropertyOp57
 70
     1
102
RTVSPropertyOp58
 70
     1
102
RTVSPropertyOp59
 70
     1
102
RTVSPropertyOp60
 70
     1
102
RTVSPropertyOp61
 70
     1
102
RTVSPropertyOp62
 70
     1
  0
XRECORD
  5
3253
102
{ACAD_REACTORS
330
3252
102
}
330
3252
100
AcDbXrecord
280
     1
102
RTVSPost2010Prop28
280
     0
102
RTVSPost2010PropOp28
 70
     1
102
RTVSPost2010Prop29
280
     1
102
RTVSPost2010PropOp29
 70
     1
102
RTVSPost2010Prop30
280
     1
102
RTVSPost2010PropOp30
 70
     1
102
RTVSPost2010Prop31
280
     0
102
RTVSPost2010PropOp31
 70
     1
102
RTVSPost2010Prop32
280
     0
102
RTVSPost2010PropOp32
 70
     1
102
RTVSPost2010Prop33
280
     0
102
RTVSPost2010PropOp33
 70
     1
102
RTVSPost2010Prop34
280
     0
102
RTVSPost2010PropOp34
 70
     1
102
RTVSPost2010Prop35
280
     0
102
RTVSPost2010PropOp35
 70
     1
102
RTVSPost2010Prop36
280
     0
102
RTVSPost2010PropOp36
 70
     1
102
RTVSPost2010Prop37
 90
       50
102
RTVSPost2010PropOp37
 70
     1
102
RTVSPost2010Prop38
140
0.0
102
RTVSPost2010PropOp38
 70
     1
102
RTVSPost2010Prop39
140
1.0
102
RTVSPost2010PropOp39
 70
     1
102
RTVSPost2010Prop40
 90
        0
102
RTVSPost2010PropOp40
 70
     1
102
RTVSPost2010Prop41ColorIndex
 90
       18
102
RTVSPost2010Prop41ColorRGB
 90
        0
102
RTVSPost2010PropOp41
 70
     1
102
RTVSPost2010Prop42
 90
       50
102
RTVSPost2010PropOp42
 70
     1
102
RTVSPost2010Prop43
 90
        3
102
RTVSPost2010PropOp43
 70
     1
102
RTVSPost2010Prop44ColorIndex
 90
        5
102
RTVSPost2010Prop44ColorRGB
 90
      255
102
RTVSPost2010PropOp44
 70
     1
102
RTVSPost2010Prop45
280
     0
102
RTVSPost2010PropOp45
 70
     1
102
RTVSPost2010Prop46
 90
       50
102
RTVSPost2010PropOp46
 70
     1
102
RTVSPost2010Prop47
 90
       50
102
RTVSPost2010PropOp47
 70
     1
102
RTVSPost2010Prop48
 90
       50
102
RTVSPost2010PropOp48
 70
     1
102
RTVSPost2010Prop49
280
     0
102
RTVSPost2010PropOp49
 70
     1
102
RTVSPost2010Prop50
 90
       50
102
RTVSPost2010PropOp50
 70
     1
102
RTVSPost2010Prop51ColorIndex
 90
      256
102
RTVSPost2010Prop51ColorRGB
 90
-16777216
102
RTVSPost2010PropOp51
 70
     0
102
RTVSPost2010Prop52
140
1.0
102
RTVSPost2010PropOp52
 70
     0
102
RTVSPost2010Prop53
 90
        2
102
RTVSPost2010PropOp53
 70
     1
102
RTVSPost2010Prop54
  1
strokes_ogs.tif
102
RTVSPost2010PropOp54
 70
     1
102
RTVSPost2010Prop55
280
     0
102
RTVSPost2010PropOp55
 70
     1
102
RTVSPost2010Prop56
140
1.0
102
RTVSPost2010PropOp56
 70
     1
102
RTVSPost2010Prop57
140
1.0
102
RTVSPost2010PropOp57
 70
     1
102
RTVSPropertyOp0
 70
     1
102
RTVSPropertyOp1
 70
     1
102
RTVSPropertyOp2
 70
     1
102
RTVSPropertyOp3
 70
     1
102
RTVSPropertyOp4
 70
     1
102
RTVSPropertyOp5
 70
     1
102
RTVSPropertyOp6
 70
     1
102
RTVSPropertyOp7
 70
     1
102
RTVSPropertyOp8
 70
     1
102
RTVSPropertyOp9
 70
     1
102
RTVSPropertyOp10
 70
     1
102
RTVSPropertyOp11
 70
     1
102
RTVSPropertyOp12
 70
     1
102
RTVSPropertyOp13
 70
     1
102
RTVSPropertyOp14
 70
     1
102
RTVSPropertyOp15
 70
     1
102
RTVSPropertyOp16
 70
     1
102
RTVSPropertyOp17
 70
     1
102
RTVSPropertyOp18
 70
     1
102
RTVSPropertyOp19
 70
     1
102
RTVSPropertyOp20
 70
     1
102
RTVSPropertyOp21
 70
     1
102
RTVSPropertyOp22
 70
     1
102
RTVSPropertyOp23
 70
     1
102
RTVSPropertyOp24
 70
     1
102
RTVSPropertyOp25
 70
     1
102
RTVSPropertyOp26
 70
     1
102
RTVSPropertyOp27
 70
     1
102
RTVSPropertyOp28
 70
     1
102
RTVSPropertyOp29
 70
     1
102
RTVSPropertyOp30
 70
     1
102
RTVSPropertyOp31
 70
     1
102
RTVSPropertyOp32
 70
     1
102
RTVSPropertyOp33
 70
     1
102
RTVSPropertyOp34
 70
     1
102
RTVSPropertyOp35
 70
     1
102
RTVSPropertyOp36
 70
     1
102
RTVSPropertyOp37
 70
     1
102
RTVSPropertyOp38
 70
     1
102
RTVSPropertyOp39
 70
     1
102
RTVSPropertyOp40
 70
     1
102
RTVSPropertyOp41
 70
     1
102
RTVSPropertyOp42
 70
     1
102
RTVSPropertyOp43
 70
     1
102
RTVSPropertyOp44
 70
     1
102
RTVSPropertyOp45
 70
     1
102
RTVSPropertyOp46
 70
     1
102
RTVSPropertyOp47
 70
     1
102
RTVSPropertyOp48
 70
     1
102
RTVSPropertyOp49
 70
     1
102
RTVSPropertyOp50
 70
     1
102
RTVSPropertyOp51
 70
     0
102
RTVSPropertyOp52
 70
     0
102
RTVSPropertyOp53
 70
     1
102
RTVSPropertyOp54
 70
     1
102
RTVSPropertyOp55
 70
     1
102
RTVSPropertyOp56
 70
     1
102
RTVSPropertyOp57
 70
     1
102
RTVSPropertyOp58
 70
     1
102
RTVSPropertyOp59
 70
     1
102
RTVSPropertyOp60
 70
     1
102
RTVSPropertyOp61
 70
     1
102
RTVSPropertyOp62
 70
     1
  0
XRECORD
  5
3261
102
{ACAD_REACTORS
330
3260
102
}
330
3260
100
AcDbXrecord
280
     1
102
RTVSPost2010Prop28
280
     0
102
RTVSPost2010PropOp28
 70
     1
102
RTVSPost2010Prop29
280
     1
102
RTVSPost2010PropOp29
 70
     1
102
RTVSPost2010Prop30
280
     1
102
RTVSPost2010PropOp30
 70
     1
102
RTVSPost2010Prop31
280
     0
102
RTVSPost2010PropOp31
 70
     1
102
RTVSPost2010Prop32
280
     0
102
RTVSPost2010PropOp32
 70
     1
102
RTVSPost2010Prop33
280
     0
102
RTVSPost2010PropOp33
 70
     1
102
RTVSPost2010Prop34
280
     0
102
RTVSPost2010PropOp34
 70
     1
102
RTVSPost2010Prop35
280
     0
102
RTVSPost2010PropOp35
 70
     1
102
RTVSPost2010Prop36
280
     0
102
RTVSPost2010PropOp36
 70
     1
102
RTVSPost2010Prop37
 90
       50
102
RTVSPost2010PropOp37
 70
     1
102
RTVSPost2010Prop38
140
0.0
102
RTVSPost2010PropOp38
 70
     1
102
RTVSPost2010Prop39
140
1.0
102
RTVSPost2010PropOp39
 70
     1
102
RTVSPost2010Prop40
 90
        0
102
RTVSPost2010PropOp40
 70
     1
102
RTVSPost2010Prop41ColorIndex
 90
       18
102
RTVSPost2010Prop41ColorRGB
 90
        0
102
RTVSPost2010PropOp41
 70
     1
102
RTVSPost2010Prop42
 90
       50
102
RTVSPost2010PropOp42
 70
     1
102
RTVSPost2010Prop43
 90
        3
102
RTVSPost2010PropOp43
 70
     1
102
RTVSPost2010Prop44ColorIndex
 90
        5
102
RTVSPost2010Prop44ColorRGB
 90
      255
102
RTVSPost2010PropOp44
 70
     1
102
RTVSPost2010Prop45
280
     0
102
RTVSPost2010PropOp45
 70
     1
102
RTVSPost2010Prop46
 90
       50
102
RTVSPost2010PropOp46
 70
     1
102
RTVSPost2010Prop47
 90
       50
102
RTVSPost2010PropOp47
 70
     1
102
RTVSPost2010Prop48
 90
       50
102
RTVSPost2010PropOp48
 70
     1
102
RTVSPost2010Prop49
280
     0
102
RTVSPost2010PropOp49
 70
     1
102
RTVSPost2010Prop50
 90
       50
102
RTVSPost2010PropOp50
 70
     1
102
RTVSPost2010Prop51ColorIndex
 90
      256
102
RTVSPost2010Prop51ColorRGB
 90
-16777216
102
RTVSPost2010PropOp51
 70
     0
102
RTVSPost2010Prop52
140
1.0
102
RTVSPost2010PropOp52
 70
     0
102
RTVSPost2010Prop53
 90
        2
102
RTVSPost2010PropOp53
 70
     1
102
RTVSPost2010Prop54
  1
strokes_ogs.tif
102
RTVSPost2010PropOp54
 70
     1
102
RTVSPost2010Prop55
280
     0
102
RTVSPost2010PropOp55
 70
     1
102
RTVSPost2010Prop56
140
1.0
102
RTVSPost2010PropOp56
 70
     1
102
RTVSPost2010Prop57
140
1.0
102
RTVSPost2010PropOp57
 70
     1
102
RTVSPropertyOp0
 70
     1
102
RTVSPropertyOp1
 70
     1
102
RTVSPropertyOp2
 70
     1
102
RTVSPropertyOp3
 70
     1
102
RTVSPropertyOp4
 70
     1
102
RTVSPropertyOp5
 70
     1
102
RTVSPropertyOp6
 70
     1
102
RTVSPropertyOp7
 70
     1
102
RTVSPropertyOp8
 70
     1
102
RTVSPropertyOp9
 70
     1
102
RTVSPropertyOp10
 70
     1
102
RTVSPropertyOp11
 70
     1
102
RTVSPropertyOp12
 70
     1
102
RTVSPropertyOp13
 70
     1
102
RTVSPropertyOp14
 70
     1
102
RTVSPropertyOp15
 70
     1
102
RTVSPropertyOp16
 70
     1
102
RTVSPropertyOp17
 70
     1
102
RTVSPropertyOp18
 70
     1
102
RTVSPropertyOp19
 70
     1
102
RTVSPropertyOp20
 70
     1
102
RTVSPropertyOp21
 70
     1
102
RTVSPropertyOp22
 70
     1
102
RTVSPropertyOp23
 70
     1
102
RTVSPropertyOp24
 70
     1
102
RTVSPropertyOp25
 70
     1
102
RTVSPropertyOp26
 70
     1
102
RTVSPropertyOp27
 70
     1
102
RTVSPropertyOp28
 70
     1
102
RTVSPropertyOp29
 70
     1
102
RTVSPropertyOp30
 70
     1
102
RTVSPropertyOp31
 70
     1
102
RTVSPropertyOp32
 70
     1
102
RTVSPropertyOp33
 70
     1
102
RTVSPropertyOp34
 70
     1
102
RTVSPropertyOp35
 70
     1
102
RTVSPropertyOp36
 70
     1
102
RTVSPropertyOp37
 70
     1
102
RTVSPropertyOp38
 70
     1
102
RTVSPropertyOp39
 70
     1
102
RTVSPropertyOp40
 70
     1
102
RTVSPropertyOp41
 70
     1
102
RTVSPropertyOp42
 70
     1
102
RTVSPropertyOp43
 70
     1
102
RTVSPropertyOp44
 70
     1
102
RTVSPropertyOp45
 70
     1
102
RTVSPropertyOp46
 70
     1
102
RTVSPropertyOp47
 70
     1
102
RTVSPropertyOp48
 70
     1
102
RTVSPropertyOp49
 70
     1
102
RTVSPropertyOp50
 70
     1
102
RTVSPropertyOp51
 70
     0
102
RTVSPropertyOp52
 70
     0
102
RTVSPropertyOp53
 70
     1
102
RTVSPropertyOp54
 70
     1
102
RTVSPropertyOp55
 70
     1
102
RTVSPropertyOp56
 70
     1
102
RTVSPropertyOp57
 70
     1
102
RTVSPropertyOp58
 70
     1
102
RTVSPropertyOp59
 70
     1
102
RTVSPropertyOp60
 70
     1
102
RTVSPropertyOp61
 70
     1
102
RTVSPropertyOp62
 70
     1
  0
XRECORD
  5
3269
102
{ACAD_REACTORS
330
3268
102
}
330
3268
100
AcDbXrecord
280
     1
102
RTVSPost2010Prop28
280
     0
102
RTVSPost2010PropOp28
 70
     1
102
RTVSPost2010Prop29
280
     1
102
RTVSPost2010PropOp29
 70
     1
102
RTVSPost2010Prop30
280
     1
102
RTVSPost2010PropOp30
 70
     1
102
RTVSPost2010Prop31
280
     0
102
RTVSPost2010PropOp31
 70
     1
102
RTVSPost2010Prop32
280
     0
102
RTVSPost2010PropOp32
 70
     1
102
RTVSPost2010Prop33
280
     0
102
RTVSPost2010PropOp33
 70
     1
102
RTVSPost2010Prop34
280
     0
102
RTVSPost2010PropOp34
 70
     1
102
RTVSPost2010Prop35
280
     0
102
RTVSPost2010PropOp35
 70
     1
102
RTVSPost2010Prop36
280
     0
102
RTVSPost2010PropOp36
 70
     1
102
RTVSPost2010Prop37
 90
       50
102
RTVSPost2010PropOp37
 70
     1
102
RTVSPost2010Prop38
140
0.0
102
RTVSPost2010PropOp38
 70
     1
102
RTVSPost2010Prop39
140
1.0
102
RTVSPost2010PropOp39
 70
     1
102
RTVSPost2010Prop40
 90
        0
102
RTVSPost2010PropOp40
 70
     1
102
RTVSPost2010Prop41ColorIndex
 90
       18
102
RTVSPost2010Prop41ColorRGB
 90
        0
102
RTVSPost2010PropOp41
 70
     1
102
RTVSPost2010Prop42
 90
       50
102
RTVSPost2010PropOp42
 70
     1
102
RTVSPost2010Prop43
 90
        3
102
RTVSPost2010PropOp43
 70
     1
102
RTVSPost2010Prop44ColorIndex
 90
        5
102
RTVSPost2010Prop44ColorRGB
 90
      255
102
RTVSPost2010PropOp44
 70
     1
102
RTVSPost2010Prop45
280
     0
102
RTVSPost2010PropOp45
 70
     1
102
RTVSPost2010Prop46
 90
       50
102
RTVSPost2010PropOp46
 70
     1
102
RTVSPost2010Prop47
 90
       50
102
RTVSPost2010PropOp47
 70
     1
102
RTVSPost2010Prop48
 90
       50
102
RTVSPost2010PropOp48
 70
     1
102
RTVSPost2010Prop49
280
     0
102
RTVSPost2010PropOp49
 70
     1
102
RTVSPost2010Prop50
 90
       50
102
RTVSPost2010PropOp50
 70
     1
102
RTVSPost2010Prop51ColorIndex
 90
      256
102
RTVSPost2010Prop51ColorRGB
 90
-16777216
102
RTVSPost2010PropOp51
 70
     0
102
RTVSPost2010Prop52
140
1.0
102
RTVSPost2010PropOp52
 70
     0
102
RTVSPost2010Prop53
 90
        2
102
RTVSPost2010PropOp53
 70
     1
102
RTVSPost2010Prop54
  1
strokes_ogs.tif
102
RTVSPost2010PropOp54
 70
     1
102
RTVSPost2010Prop55
280
     0
102
RTVSPost2010PropOp55
 70
     1
102
RTVSPost2010Prop56
140
1.0
102
RTVSPost2010PropOp56
 70
     1
102
RTVSPost2010Prop57
140
1.0
102
RTVSPost2010PropOp57
 70
     1
102
RTVSPropertyOp0
 70
     1
102
RTVSPropertyOp1
 70
     1
102
RTVSPropertyOp2
 70
     1
102
RTVSPropertyOp3
 70
     1
102
RTVSPropertyOp4
 70
     1
102
RTVSPropertyOp5
 70
     1
102
RTVSPropertyOp6
 70
     1
102
RTVSPropertyOp7
 70
     1
102
RTVSPropertyOp8
 70
     1
102
RTVSPropertyOp9
 70
     1
102
RTVSPropertyOp10
 70
     1
102
RTVSPropertyOp11
 70
     1
102
RTVSPropertyOp12
 70
     1
102
RTVSPropertyOp13
 70
     1
102
RTVSPropertyOp14
 70
     1
102
RTVSPropertyOp15
 70
     1
102
RTVSPropertyOp16
 70
     1
102
RTVSPropertyOp17
 70
     1
102
RTVSPropertyOp18
 70
     1
102
RTVSPropertyOp19
 70
     1
102
RTVSPropertyOp20
 70
     1
102
RTVSPropertyOp21
 70
     1
102
RTVSPropertyOp22
 70
     1
102
RTVSPropertyOp23
 70
     1
102
RTVSPropertyOp24
 70
     1
102
RTVSPropertyOp25
 70
     1
102
RTVSPropertyOp26
 70
     1
102
RTVSPropertyOp27
 70
     1
102
RTVSPropertyOp28
 70
     1
102
RTVSPropertyOp29
 70
     1
102
RTVSPropertyOp30
 70
     1
102
RTVSPropertyOp31
 70
     1
102
RTVSPropertyOp32
 70
     1
102
RTVSPropertyOp33
 70
     1
102
RTVSPropertyOp34
 70
     1
102
RTVSPropertyOp35
 70
     1
102
RTVSPropertyOp36
 70
     1
102
RTVSPropertyOp37
 70
     1
102
RTVSPropertyOp38
 70
     1
102
RTVSPropertyOp39
 70
     1
102
RTVSPropertyOp40
 70
     1
102
RTVSPropertyOp41
 70
     1
102
RTVSPropertyOp42
 70
     1
102
RTVSPropertyOp43
 70
     1
102
RTVSPropertyOp44
 70
     1
102
RTVSPropertyOp45
 70
     1
102
RTVSPropertyOp46
 70
     1
102
RTVSPropertyOp47
 70
     1
102
RTVSPropertyOp48
 70
     1
102
RTVSPropertyOp49
 70
     1
102
RTVSPropertyOp50
 70
     1
102
RTVSPropertyOp51
 70
     0
102
RTVSPropertyOp52
 70
     0
102
RTVSPropertyOp53
 70
     1
102
RTVSPropertyOp54
 70
     1
102
RTVSPropertyOp55
 70
     1
102
RTVSPropertyOp56
 70
     1
102
RTVSPropertyOp57
 70
     1
102
RTVSPropertyOp58
 70
     1
102
RTVSPropertyOp59
 70
     1
102
RTVSPropertyOp60
 70
     1
102
RTVSPropertyOp61
 70
     1
102
RTVSPropertyOp62
 70
     1
  0
XRECORD
  5
325B
102
{ACAD_REACTORS
330
325A
102
}
330
325A
100
AcDbXrecord
280
     1
102
RTVSPost2010Prop28
280
     0
102
RTVSPost2010PropOp28
 70
     1
102
RTVSPost2010Prop29
280
     1
102
RTVSPost2010PropOp29
 70
     1
102
RTVSPost2010Prop30
280
     1
102
RTVSPost2010PropOp30
 70
     1
102
RTVSPost2010Prop31
280
     0
102
RTVSPost2010PropOp31
 70
     1
102
RTVSPost2010Prop32
280
     0
102
RTVSPost2010PropOp32
 70
     1
102
RTVSPost2010Prop33
280
     0
102
RTVSPost2010PropOp33
 70
     1
102
RTVSPost2010Prop34
280
     0
102
RTVSPost2010PropOp34
 70
     1
102
RTVSPost2010Prop35
280
     0
102
RTVSPost2010PropOp35
 70
     1
102
RTVSPost2010Prop36
280
     0
102
RTVSPost2010PropOp36
 70
     1
102
RTVSPost2010Prop37
 90
       50
102
RTVSPost2010PropOp37
 70
     1
102
RTVSPost2010Prop38
140
0.0
102
RTVSPost2010PropOp38
 70
     1
102
RTVSPost2010Prop39
140
1.0
102
RTVSPost2010PropOp39
 70
     1
102
RTVSPost2010Prop40
 90
        0
102
RTVSPost2010PropOp40
 70
     1
102
RTVSPost2010Prop41ColorIndex
 90
       18
102
RTVSPost2010Prop41ColorRGB
 90
        0
102
RTVSPost2010PropOp41
 70
     1
102
RTVSPost2010Prop42
 90
       50
102
RTVSPost2010PropOp42
 70
     1
102
RTVSPost2010Prop43
 90
        3
102
RTVSPost2010PropOp43
 70
     1
102
RTVSPost2010Prop44ColorIndex
 90
        5
102
RTVSPost2010Prop44ColorRGB
 90
      255
102
RTVSPost2010PropOp44
 70
     1
102
RTVSPost2010Prop45
280
     0
102
RTVSPost2010PropOp45
 70
     1
102
RTVSPost2010Prop46
 90
       50
102
RTVSPost2010PropOp46
 70
     1
102
RTVSPost2010Prop47
 90
       50
102
RTVSPost2010PropOp47
 70
     1
102
RTVSPost2010Prop48
 90
       50
102
RTVSPost2010PropOp48
 70
     1
102
RTVSPost2010Prop49
280
     0
102
RTVSPost2010PropOp49
 70
     1
102
RTVSPost2010Prop50
 90
       50
102
RTVSPost2010PropOp50
 70
     1
102
RTVSPost2010Prop51ColorIndex
 90
      256
102
RTVSPost2010Prop51ColorRGB
 90
-16777216
102
RTVSPost2010PropOp51
 70
     0
102
RTVSPost2010Prop52
140
1.0
102
RTVSPost2010PropOp52
 70
     0
102
RTVSPost2010Prop53
 90
        2
102
RTVSPost2010PropOp53
 70
     1
102
RTVSPost2010Prop54
  1
strokes_ogs.tif
102
RTVSPost2010PropOp54
 70
     1
102
RTVSPost2010Prop55
280
     0
102
RTVSPost2010PropOp55
 70
     1
102
RTVSPost2010Prop56
140
1.0
102
RTVSPost2010PropOp56
 70
     1
102
RTVSPost2010Prop57
140
1.0
102
RTVSPost2010PropOp57
 70
     1
102
RTVSPropertyOp0
 70
     1
102
RTVSPropertyOp1
 70
     1
102
RTVSPropertyOp2
 70
     1
102
RTVSPropertyOp3
 70
     1
102
RTVSPropertyOp4
 70
     1
102
RTVSPropertyOp5
 70
     1
102
RTVSPropertyOp6
 70
     1
102
RTVSPropertyOp7
 70
     1
102
RTVSPropertyOp8
 70
     1
102
RTVSPropertyOp9
 70
     1
102
RTVSPropertyOp10
 70
     1
102
RTVSPropertyOp11
 70
     1
102
RTVSPropertyOp12
 70
     1
102
RTVSPropertyOp13
 70
     1
102
RTVSPropertyOp14
 70
     1
102
RTVSPropertyOp15
 70
     1
102
RTVSPropertyOp16
 70
     1
102
RTVSPropertyOp17
 70
     1
102
RTVSPropertyOp18
 70
     1
102
RTVSPropertyOp19
 70
     1
102
RTVSPropertyOp20
 70
     1
102
RTVSPropertyOp21
 70
     1
102
RTVSPropertyOp22
 70
     1
102
RTVSPropertyOp23
 70
     1
102
RTVSPropertyOp24
 70
     1
102
RTVSPropertyOp25
 70
     1
102
RTVSPropertyOp26
 70
     1
102
RTVSPropertyOp27
 70
     1
102
RTVSPropertyOp28
 70
     1
102
RTVSPropertyOp29
 70
     1
102
RTVSPropertyOp30
 70
     1
102
RTVSPropertyOp31
 70
     1
102
RTVSPropertyOp32
 70
     1
102
RTVSPropertyOp33
 70
     1
102
RTVSPropertyOp34
 70
     1
102
RTVSPropertyOp35
 70
     1
102
RTVSPropertyOp36
 70
     1
102
RTVSPropertyOp37
 70
     1
102
RTVSPropertyOp38
 70
     1
102
RTVSPropertyOp39
 70
     1
102
RTVSPropertyOp40
 70
     1
102
RTVSPropertyOp41
 70
     1
102
RTVSPropertyOp42
 70
     1
102
RTVSPropertyOp43
 70
     1
102
RTVSPropertyOp44
 70
     1
102
RTVSPropertyOp45
 70
     1
102
RTVSPropertyOp46
 70
     1
102
RTVSPropertyOp47
 70
     1
102
RTVSPropertyOp48
 70
     1
102
RTVSPropertyOp49
 70
     1
102
RTVSPropertyOp50
 70
     1
102
RTVSPropertyOp51
 70
     0
102
RTVSPropertyOp52
 70
     0
102
RTVSPropertyOp53
 70
     1
102
RTVSPropertyOp54
 70
     1
102
RTVSPropertyOp55
 70
     1
102
RTVSPropertyOp56
 70
     1
102
RTVSPropertyOp57
 70
     1
102
RTVSPropertyOp58
 70
     1
102
RTVSPropertyOp59
 70
     1
102
RTVSPropertyOp60
 70
     1
102
RTVSPropertyOp61
 70
     1
102
RTVSPropertyOp62
 70
     1
  0
XRECORD
  5
325F
102
{ACAD_REACTORS
330
325E
102
}
330
325E
100
AcDbXrecord
280
     1
102
RTVSPost2010Prop28
280
     0
102
RTVSPost2010PropOp28
 70
     1
102
RTVSPost2010Prop29
280
     1
102
RTVSPost2010PropOp29
 70
     1
102
RTVSPost2010Prop30
280
     1
102
RTVSPost2010PropOp30
 70
     1
102
RTVSPost2010Prop31
280
     0
102
RTVSPost2010PropOp31
 70
     1
102
RTVSPost2010Prop32
280
     0
102
RTVSPost2010PropOp32
 70
     1
102
RTVSPost2010Prop33
280
     0
102
RTVSPost2010PropOp33
 70
     1
102
RTVSPost2010Prop34
280
     0
102
RTVSPost2010PropOp34
 70
     1
102
RTVSPost2010Prop35
280
     0
102
RTVSPost2010PropOp35
 70
     1
102
RTVSPost2010Prop36
280
     0
102
RTVSPost2010PropOp36
 70
     1
102
RTVSPost2010Prop37
 90
       50
102
RTVSPost2010PropOp37
 70
     1
102
RTVSPost2010Prop38
140
0.0
102
RTVSPost2010PropOp38
 70
     1
102
RTVSPost2010Prop39
140
1.0
102
RTVSPost2010PropOp39
 70
     1
102
RTVSPost2010Prop40
 90
        0
102
RTVSPost2010PropOp40
 70
     1
102
RTVSPost2010Prop41ColorIndex
 90
       18
102
RTVSPost2010Prop41ColorRGB
 90
        0
102
RTVSPost2010PropOp41
 70
     1
102
RTVSPost2010Prop42
 90
       50
102
RTVSPost2010PropOp42
 70
     1
102
RTVSPost2010Prop43
 90
        3
102
RTVSPost2010PropOp43
 70
     1
102
RTVSPost2010Prop44ColorIndex
 90
        5
102
RTVSPost2010Prop44ColorRGB
 90
      255
102
RTVSPost2010PropOp44
 70
     1
102
RTVSPost2010Prop45
280
     0
102
RTVSPost2010PropOp45
 70
     1
102
RTVSPost2010Prop46
 90
       50
102
RTVSPost2010PropOp46
 70
     1
102
RTVSPost2010Prop47
 90
       50
102
RTVSPost2010PropOp47
 70
     1
102
RTVSPost2010Prop48
 90
       50
102
RTVSPost2010PropOp48
 70
     1
102
RTVSPost2010Prop49
280
     0
102
RTVSPost2010PropOp49
 70
     1
102
RTVSPost2010Prop50
 90
       50
102
RTVSPost2010PropOp50
 70
     1
102
RTVSPost2010Prop51ColorIndex
 90
      256
102
RTVSPost2010Prop51ColorRGB
 90
-16777216
102
RTVSPost2010PropOp51
 70
     0
102
RTVSPost2010Prop52
140
1.0
102
RTVSPost2010PropOp52
 70
     0
102
RTVSPost2010Prop53
 90
        2
102
RTVSPost2010PropOp53
 70
     1
102
RTVSPost2010Prop54
  1
strokes_ogs.tif
102
RTVSPost2010PropOp54
 70
     1
102
RTVSPost2010Prop55
280
     0
102
RTVSPost2010PropOp55
 70
     1
102
RTVSPost2010Prop56
140
1.0
102
RTVSPost2010PropOp56
 70
     1
102
RTVSPost2010Prop57
140
1.0
102
RTVSPost2010PropOp57
 70
     1
102
RTVSPropertyOp0
 70
     1
102
RTVSPropertyOp1
 70
     1
102
RTVSPropertyOp2
 70
     1
102
RTVSPropertyOp3
 70
     1
102
RTVSPropertyOp4
 70
     1
102
RTVSPropertyOp5
 70
     1
102
RTVSPropertyOp6
 70
     1
102
RTVSPropertyOp7
 70
     1
102
RTVSPropertyOp8
 70
     1
102
RTVSPropertyOp9
 70
     1
102
RTVSPropertyOp10
 70
     1
102
RTVSPropertyOp11
 70
     1
102
RTVSPropertyOp12
 70
     1
102
RTVSPropertyOp13
 70
     1
102
RTVSPropertyOp14
 70
     1
102
RTVSPropertyOp15
 70
     1
102
RTVSPropertyOp16
 70
     1
102
RTVSPropertyOp17
 70
     1
102
RTVSPropertyOp18
 70
     1
102
RTVSPropertyOp19
 70
     1
102
RTVSPropertyOp20
 70
     1
102
RTVSPropertyOp21
 70
     1
102
RTVSPropertyOp22
 70
     1
102
RTVSPropertyOp23
 70
     1
102
RTVSPropertyOp24
 70
     1
102
RTVSPropertyOp25
 70
     1
102
RTVSPropertyOp26
 70
     1
102
RTVSPropertyOp27
 70
     1
102
RTVSPropertyOp28
 70
     1
102
RTVSPropertyOp29
 70
     1
102
RTVSPropertyOp30
 70
     1
102
RTVSPropertyOp31
 70
     1
102
RTVSPropertyOp32
 70
     1
102
RTVSPropertyOp33
 70
     1
102
RTVSPropertyOp34
 70
     1
102
RTVSPropertyOp35
 70
     1
102
RTVSPropertyOp36
 70
     1
102
RTVSPropertyOp37
 70
     1
102
RTVSPropertyOp38
 70
     1
102
RTVSPropertyOp39
 70
     1
102
RTVSPropertyOp40
 70
     1
102
RTVSPropertyOp41
 70
     1
102
RTVSPropertyOp42
 70
     1
102
RTVSPropertyOp43
 70
     1
102
RTVSPropertyOp44
 70
     1
102
RTVSPropertyOp45
 70
     1
102
RTVSPropertyOp46
 70
     1
102
RTVSPropertyOp47
 70
     1
102
RTVSPropertyOp48
 70
     1
102
RTVSPropertyOp49
 70
     1
102
RTVSPropertyOp50
 70
     1
102
RTVSPropertyOp51
 70
     0
102
RTVSPropertyOp52
 70
     0
102
RTVSPropertyOp53
 70
     1
102
RTVSPropertyOp54
 70
     1
102
RTVSPropertyOp55
 70
     1
102
RTVSPropertyOp56
 70
     1
102
RTVSPropertyOp57
 70
     1
102
RTVSPropertyOp58
 70
     1
102
RTVSPropertyOp59
 70
     1
102
RTVSPropertyOp60
 70
     1
102
RTVSPropertyOp61
 70
     1
102
RTVSPropertyOp62
 70
     1
  0
XRECORD
  5
3271
102
{ACAD_REACTORS
330
3270
102
}
330
3270
100
AcDbXrecord
280
     1
102
RTVSPost2010Prop28
280
     0
102
RTVSPost2010PropOp28
 70
     1
102
RTVSPost2010Prop29
280
     1
102
RTVSPost2010PropOp29
 70
     1
102
RTVSPost2010Prop30
280
     1
102
RTVSPost2010PropOp30
 70
     1
102
RTVSPost2010Prop31
280
     0
102
RTVSPost2010PropOp31
 70
     1
102
RTVSPost2010Prop32
280
     0
102
RTVSPost2010PropOp32
 70
     1
102
RTVSPost2010Prop33
280
     0
102
RTVSPost2010PropOp33
 70
     1
102
RTVSPost2010Prop34
280
     0
102
RTVSPost2010PropOp34
 70
     1
102
RTVSPost2010Prop35
280
     0
102
RTVSPost2010PropOp35
 70
     1
102
RTVSPost2010Prop36
280
     0
102
RTVSPost2010PropOp36
 70
     1
102
RTVSPost2010Prop37
 90
       50
102
RTVSPost2010PropOp37
 70
     1
102
RTVSPost2010Prop38
140
0.0
102
RTVSPost2010PropOp38
 70
     1
102
RTVSPost2010Prop39
140
1.0
102
RTVSPost2010PropOp39
 70
     1
102
RTVSPost2010Prop40
 90
        0
102
RTVSPost2010PropOp40
 70
     1
102
RTVSPost2010Prop41ColorIndex
 90
       18
102
RTVSPost2010Prop41ColorRGB
 90
        0
102
RTVSPost2010PropOp41
 70
     1
102
RTVSPost2010Prop42
 90
       50
102
RTVSPost2010PropOp42
 70
     1
102
RTVSPost2010Prop43
 90
        3
102
RTVSPost2010PropOp43
 70
     1
102
RTVSPost2010Prop44ColorIndex
 90
        5
102
RTVSPost2010Prop44ColorRGB
 90
      255
102
RTVSPost2010PropOp44
 70
     1
102
RTVSPost2010Prop45
280
     0
102
RTVSPost2010PropOp45
 70
     1
102
RTVSPost2010Prop46
 90
       50
102
RTVSPost2010PropOp46
 70
     1
102
RTVSPost2010Prop47
 90
       50
102
RTVSPost2010PropOp47
 70
     1
102
RTVSPost2010Prop48
 90
       50
102
RTVSPost2010PropOp48
 70
     1
102
RTVSPost2010Prop49
280
     0
102
RTVSPost2010PropOp49
 70
     1
102
RTVSPost2010Prop50
 90
       50
102
RTVSPost2010PropOp50
 70
     1
102
RTVSPost2010Prop51ColorIndex
 90
      256
102
RTVSPost2010Prop51ColorRGB
 90
-16777216
102
RTVSPost2010PropOp51
 70
     0
102
RTVSPost2010Prop52
140
1.0
102
RTVSPost2010PropOp52
 70
     0
102
RTVSPost2010Prop53
 90
        2
102
RTVSPost2010PropOp53
 70
     1
102
RTVSPost2010Prop54
  1
strokes_ogs.tif
102
RTVSPost2010PropOp54
 70
     1
102
RTVSPost2010Prop55
280
     0
102
RTVSPost2010PropOp55
 70
     1
102
RTVSPost2010Prop56
140
1.0
102
RTVSPost2010PropOp56
 70
     1
102
RTVSPost2010Prop57
140
1.0
102
RTVSPost2010PropOp57
 70
     1
102
RTVSPropertyOp0
 70
     0
102
RTVSPropertyOp1
 70
     0
102
RTVSPropertyOp2
 70
     0
102
RTVSPropertyOp3
 70
     0
102
RTVSPropertyOp4
 70
     0
102
RTVSPropertyOp5
 70
     0
102
RTVSPropertyOp6
 70
     0
102
RTVSPropertyOp7
 70
     0
102
RTVSPropertyOp8
 70
     0
102
RTVSPropertyOp9
 70
     0
102
RTVSPropertyOp10
 70
     0
102
RTVSPropertyOp11
 70
     0
102
RTVSPropertyOp12
 70
     0
102
RTVSPropertyOp13
 70
     0
102
RTVSPropertyOp14
 70
     2
102
RTVSPropertyOp15
 70
     0
102
RTVSPropertyOp16
 70
     0
102
RTVSPropertyOp17
 70
     0
102
RTVSPropertyOp18
 70
     0
102
RTVSPropertyOp19
 70
     0
102
RTVSPropertyOp20
 70
     0
102
RTVSPropertyOp21
 70
     0
102
RTVSPropertyOp22
 70
     0
102
RTVSPropertyOp23
 70
     0
102
RTVSPropertyOp24
 70
     0
102
RTVSPropertyOp25
 70
     0
102
RTVSPropertyOp26
 70
     0
102
RTVSPropertyOp27
 70
     0
102
RTVSPropertyOp28
 70
     1
102
RTVSPropertyOp29
 70
     1
102
RTVSPropertyOp30
 70
     1
102
RTVSPropertyOp31
 70
     1
102
RTVSPropertyOp32
 70
     1
102
RTVSPropertyOp33
 70
     1
102
RTVSPropertyOp34
 70
     1
102
RTVSPropertyOp35
 70
     1
102
RTVSPropertyOp36
 70
     1
102
RTVSPropertyOp37
 70
     1
102
RTVSPropertyOp38
 70
     1
102
RTVSPropertyOp39
 70
     1
102
RTVSPropertyOp40
 70
     1
102
RTVSPropertyOp41
 70
     1
102
RTVSPropertyOp42
 70
     1
102
RTVSPropertyOp43
 70
     1
102
RTVSPropertyOp44
 70
     1
102
RTVSPropertyOp45
 70
     1
102
RTVSPropertyOp46
 70
     1
102
RTVSPropertyOp47
 70
     1
102
RTVSPropertyOp48
 70
     1
102
RTVSPropertyOp49
 70
     1
102
RTVSPropertyOp50
 70
     1
102
RTVSPropertyOp51
 70
     0
102
RTVSPropertyOp52
 70
     0
102
RTVSPropertyOp53
 70
     1
102
RTVSPropertyOp54
 70
     1
102
RTVSPropertyOp55
 70
     1
102
RTVSPropertyOp56
 70
     1
102
RTVSPropertyOp57
 70
     1
102
RTVSPropertyOp58
 70
     1
102
RTVSPropertyOp59
 70
     1
102
RTVSPropertyOp60
 70
     1
102
RTVSPropertyOp61
 70
     1
102
RTVSPropertyOp62
 70
     1
  0
XRECORD
  5
3267
102
{ACAD_REACTORS
330
3266
102
}
330
3266
100
AcDbXrecord
280
     1
102
RTVSPost2010Prop28
280
     0
102
RTVSPost2010PropOp28
 70
     1
102
RTVSPost2010Prop29
280
     1
102
RTVSPost2010PropOp29
 70
     1
102
RTVSPost2010Prop30
280
     1
102
RTVSPost2010PropOp30
 70
     1
102
RTVSPost2010Prop31
280
     0
102
RTVSPost2010PropOp31
 70
     1
102
RTVSPost2010Prop32
280
     0
102
RTVSPost2010PropOp32
 70
     1
102
RTVSPost2010Prop33
280
     0
102
RTVSPost2010PropOp33
 70
     1
102
RTVSPost2010Prop34
280
     0
102
RTVSPost2010PropOp34
 70
     1
102
RTVSPost2010Prop35
280
     0
102
RTVSPost2010PropOp35
 70
     1
102
RTVSPost2010Prop36
280
     0
102
RTVSPost2010PropOp36
 70
     1
102
RTVSPost2010Prop37
 90
       50
102
RTVSPost2010PropOp37
 70
     1
102
RTVSPost2010Prop38
140
0.0
102
RTVSPost2010PropOp38
 70
     1
102
RTVSPost2010Prop39
140
1.0
102
RTVSPost2010PropOp39
 70
     1
102
RTVSPost2010Prop40
 90
        0
102
RTVSPost2010PropOp40
 70
     1
102
RTVSPost2010Prop41ColorIndex
 90
       18
102
RTVSPost2010Prop41ColorRGB
 90
        0
102
RTVSPost2010PropOp41
 70
     1
102
RTVSPost2010Prop42
 90
       50
102
RTVSPost2010PropOp42
 70
     1
102
RTVSPost2010Prop43
 90
        3
102
RTVSPost2010PropOp43
 70
     1
102
RTVSPost2010Prop44ColorIndex
 90
        5
102
RTVSPost2010Prop44ColorRGB
 90
      255
102
RTVSPost2010PropOp44
 70
     1
102
RTVSPost2010Prop45
280
     0
102
RTVSPost2010PropOp45
 70
     1
102
RTVSPost2010Prop46
 90
       50
102
RTVSPost2010PropOp46
 70
     1
102
RTVSPost2010Prop47
 90
       50
102
RTVSPost2010PropOp47
 70
     1
102
RTVSPost2010Prop48
 90
       50
102
RTVSPost2010PropOp48
 70
     1
102
RTVSPost2010Prop49
280
     0
102
RTVSPost2010PropOp49
 70
     1
102
RTVSPost2010Prop50
 90
       50
102
RTVSPost2010PropOp50
 70
     1
102
RTVSPost2010Prop51ColorIndex
 90
      256
102
RTVSPost2010Prop51ColorRGB
 90
-16777216
102
RTVSPost2010PropOp51
 70
     0
102
RTVSPost2010Prop52
140
1.0
102
RTVSPost2010PropOp52
 70
     0
102
RTVSPost2010Prop53
 90
        2
102
RTVSPost2010PropOp53
 70
     1
102
RTVSPost2010Prop54
  1
strokes_ogs.tif
102
RTVSPost2010PropOp54
 70
     1
102
RTVSPost2010Prop55
280
     0
102
RTVSPost2010PropOp55
 70
     1
102
RTVSPost2010Prop56
140
1.0
102
RTVSPost2010PropOp56
 70
     1
102
RTVSPost2010Prop57
140
1.0
102
RTVSPost2010PropOp57
 70
     1
102
RTVSPropertyOp0
 70
     1
102
RTVSPropertyOp1
 70
     1
102
RTVSPropertyOp2
 70
     1
102
RTVSPropertyOp3
 70
     1
102
RTVSPropertyOp4
 70
     1
102
RTVSPropertyOp5
 70
     1
102
RTVSPropertyOp6
 70
     1
102
RTVSPropertyOp7
 70
     1
102
RTVSPropertyOp8
 70
     1
102
RTVSPropertyOp9
 70
     1
102
RTVSPropertyOp10
 70
     1
102
RTVSPropertyOp11
 70
     1
102
RTVSPropertyOp12
 70
     1
102
RTVSPropertyOp13
 70
     1
102
RTVSPropertyOp14
 70
     1
102
RTVSPropertyOp15
 70
     1
102
RTVSPropertyOp16
 70
     1
102
RTVSPropertyOp17
 70
     1
102
RTVSPropertyOp18
 70
     1
102
RTVSPropertyOp19
 70
     1
102
RTVSPropertyOp20
 70
     1
102
RTVSPropertyOp21
 70
     1
102
RTVSPropertyOp22
 70
     1
102
RTVSPropertyOp23
 70
     1
102
RTVSPropertyOp24
 70
     1
102
RTVSPropertyOp25
 70
     1
102
RTVSPropertyOp26
 70
     1
102
RTVSPropertyOp27
 70
     1
102
RTVSPropertyOp28
 70
     1
102
RTVSPropertyOp29
 70
     1
102
RTVSPropertyOp30
 70
     1
102
RTVSPropertyOp31
 70
     1
102
RTVSPropertyOp32
 70
     1
102
RTVSPropertyOp33
 70
     1
102
RTVSPropertyOp34
 70
     1
102
RTVSPropertyOp35
 70
     1
102
RTVSPropertyOp36
 70
     1
102
RTVSPropertyOp37
 70
     1
102
RTVSPropertyOp38
 70
     1
102
RTVSPropertyOp39
 70
     1
102
RTVSPropertyOp40
 70
     1
102
RTVSPropertyOp41
 70
     1
102
RTVSPropertyOp42
 70
     1
102
RTVSPropertyOp43
 70
     1
102
RTVSPropertyOp44
 70
     1
102
RTVSPropertyOp45
 70
     1
102
RTVSPropertyOp46
 70
     1
102
RTVSPropertyOp47
 70
     1
102
RTVSPropertyOp48
 70
     1
102
RTVSPropertyOp49
 70
     1
102
RTVSPropertyOp50
 70
     1
102
RTVSPropertyOp51
 70
     0
102
RTVSPropertyOp52
 70
     0
102
RTVSPropertyOp53
 70
     1
102
RTVSPropertyOp54
 70
     1
102
RTVSPropertyOp55
 70
     1
102
RTVSPropertyOp56
 70
     1
102
RTVSPropertyOp57
 70
     1
102
RTVSPropertyOp58
 70
     1
102
RTVSPropertyOp59
 70
     1
102
RTVSPropertyOp60
 70
     1
102
RTVSPropertyOp61
 70
     1
102
RTVSPropertyOp62
 70
     1
  0
XRECORD
  5
324B
102
{ACAD_REACTORS
330
324A
102
}
330
324A
100
AcDbXrecord
280
     1
102
RTVSPost2010Prop28
280
     0
102
RTVSPost2010PropOp28
 70
     1
102
RTVSPost2010Prop29
280
     1
102
RTVSPost2010PropOp29
 70
     1
102
RTVSPost2010Prop30
280
     1
102
RTVSPost2010PropOp30
 70
     1
102
RTVSPost2010Prop31
280
     0
102
RTVSPost2010PropOp31
 70
     1
102
RTVSPost2010Prop32
280
     0
102
RTVSPost2010PropOp32
 70
     1
102
RTVSPost2010Prop33
280
     0
102
RTVSPost2010PropOp33
 70
     1
102
RTVSPost2010Prop34
280
     0
102
RTVSPost2010PropOp34
 70
     1
102
RTVSPost2010Prop35
280
     0
102
RTVSPost2010PropOp35
 70
     1
102
RTVSPost2010Prop36
280
     0
102
RTVSPost2010PropOp36
 70
     1
102
RTVSPost2010Prop37
 90
       50
102
RTVSPost2010PropOp37
 70
     1
102
RTVSPost2010Prop38
140
0.0
102
RTVSPost2010PropOp38
 70
     1
102
RTVSPost2010Prop39
140
1.0
102
RTVSPost2010PropOp39
 70
     1
102
RTVSPost2010Prop40
 90
        0
102
RTVSPost2010PropOp40
 70
     1
102
RTVSPost2010Prop41ColorIndex
 90
       18
102
RTVSPost2010Prop41ColorRGB
 90
        0
102
RTVSPost2010PropOp41
 70
     1
102
RTVSPost2010Prop42
 90
       50
102
RTVSPost2010PropOp42
 70
     1
102
RTVSPost2010Prop43
 90
        3
102
RTVSPost2010PropOp43
 70
     1
102
RTVSPost2010Prop44ColorIndex
 90
        5
102
RTVSPost2010Prop44ColorRGB
 90
      255
102
RTVSPost2010PropOp44
 70
     1
102
RTVSPost2010Prop45
280
     0
102
RTVSPost2010PropOp45
 70
     1
102
RTVSPost2010Prop46
 90
       50
102
RTVSPost2010PropOp46
 70
     1
102
RTVSPost2010Prop47
 90
       50
102
RTVSPost2010PropOp47
 70
     1
102
RTVSPost2010Prop48
 90
       50
102
RTVSPost2010PropOp48
 70
     1
102
RTVSPost2010Prop49
280
     0
102
RTVSPost2010PropOp49
 70
     1
102
RTVSPost2010Prop50
 90
       50
102
RTVSPost2010PropOp50
 70
     1
102
RTVSPost2010Prop51ColorIndex
 90
      256
102
RTVSPost2010Prop51ColorRGB
 90
-16777216
102
RTVSPost2010PropOp51
 70
     0
102
RTVSPost2010Prop52
140
1.0
102
RTVSPost2010PropOp52
 70
     0
102
RTVSPost2010Prop53
 90
        2
102
RTVSPost2010PropOp53
 70
     1
102
RTVSPost2010Prop54
  1
strokes_ogs.tif
102
RTVSPost2010PropOp54
 70
     1
102
RTVSPost2010Prop55
280
     0
102
RTVSPost2010PropOp55
 70
     1
102
RTVSPost2010Prop56
140
1.0
102
RTVSPost2010PropOp56
 70
     1
102
RTVSPost2010Prop57
140
1.0
102
RTVSPost2010PropOp57
 70
     1
102
RTVSPropertyOp0
 70
     1
102
RTVSPropertyOp1
 70
     1
102
RTVSPropertyOp2
 70
     1
102
RTVSPropertyOp3
 70
     1
102
RTVSPropertyOp4
 70
     1
102
RTVSPropertyOp5
 70
     1
102
RTVSPropertyOp6
 70
     1
102
RTVSPropertyOp7
 70
     1
102
RTVSPropertyOp8
 70
     1
102
RTVSPropertyOp9
 70
     1
102
RTVSPropertyOp10
 70
     1
102
RTVSPropertyOp11
 70
     1
102
RTVSPropertyOp12
 70
     1
102
RTVSPropertyOp13
 70
     1
102
RTVSPropertyOp14
 70
     1
102
RTVSPropertyOp15
 70
     1
102
RTVSPropertyOp16
 70
     1
102
RTVSPropertyOp17
 70
     1
102
RTVSPropertyOp18
 70
     1
102
RTVSPropertyOp19
 70
     1
102
RTVSPropertyOp20
 70
     1
102
RTVSPropertyOp21
 70
     1
102
RTVSPropertyOp22
 70
     1
102
RTVSPropertyOp23
 70
     1
102
RTVSPropertyOp24
 70
     1
102
RTVSPropertyOp25
 70
     1
102
RTVSPropertyOp26
 70
     1
102
RTVSPropertyOp27
 70
     1
102
RTVSPropertyOp28
 70
     1
102
RTVSPropertyOp29
 70
     1
102
RTVSPropertyOp30
 70
     1
102
RTVSPropertyOp31
 70
     1
102
RTVSPropertyOp32
 70
     1
102
RTVSPropertyOp33
 70
     1
102
RTVSPropertyOp34
 70
     1
102
RTVSPropertyOp35
 70
     1
102
RTVSPropertyOp36
 70
     1
102
RTVSPropertyOp37
 70
     1
102
RTVSPropertyOp38
 70
     1
102
RTVSPropertyOp39
 70
     1
102
RTVSPropertyOp40
 70
     1
102
RTVSPropertyOp41
 70
     1
102
RTVSPropertyOp42
 70
     1
102
RTVSPropertyOp43
 70
     1
102
RTVSPropertyOp44
 70
     1
102
RTVSPropertyOp45
 70
     1
102
RTVSPropertyOp46
 70
     1
102
RTVSPropertyOp47
 70
     1
102
RTVSPropertyOp48
 70
     1
102
RTVSPropertyOp49
 70
     1
102
RTVSPropertyOp50
 70
     1
102
RTVSPropertyOp51
 70
     0
102
RTVSPropertyOp52
 70
     0
102
RTVSPropertyOp53
 70
     1
102
RTVSPropertyOp54
 70
     1
102
RTVSPropertyOp55
 70
     1
102
RTVSPropertyOp56
 70
     1
102
RTVSPropertyOp57
 70
     1
102
RTVSPropertyOp58
 70
     1
102
RTVSPropertyOp59
 70
     1
102
RTVSPropertyOp60
 70
     1
102
RTVSPropertyOp61
 70
     1
102
RTVSPropertyOp62
 70
     1
  0
XRECORD
  5
324D
102
{ACAD_REACTORS
330
324C
102
}
330
324C
100
AcDbXrecord
280
     1
102
RTVSPost2010Prop28
280
     0
102
RTVSPost2010PropOp28
 70
     1
102
RTVSPost2010Prop29
280
     1
102
RTVSPost2010PropOp29
 70
     1
102
RTVSPost2010Prop30
280
     1
102
RTVSPost2010PropOp30
 70
     1
102
RTVSPost2010Prop31
280
     0
102
RTVSPost2010PropOp31
 70
     1
102
RTVSPost2010Prop32
280
     0
102
RTVSPost2010PropOp32
 70
     1
102
RTVSPost2010Prop33
280
     0
102
RTVSPost2010PropOp33
 70
     1
102
RTVSPost2010Prop34
280
     0
102
RTVSPost2010PropOp34
 70
     1
102
RTVSPost2010Prop35
280
     0
102
RTVSPost2010PropOp35
 70
     1
102
RTVSPost2010Prop36
280
     0
102
RTVSPost2010PropOp36
 70
     1
102
RTVSPost2010Prop37
 90
       50
102
RTVSPost2010PropOp37
 70
     1
102
RTVSPost2010Prop38
140
0.0
102
RTVSPost2010PropOp38
 70
     1
102
RTVSPost2010Prop39
140
1.0
102
RTVSPost2010PropOp39
 70
     1
102
RTVSPost2010Prop40
 90
        0
102
RTVSPost2010PropOp40
 70
     1
102
RTVSPost2010Prop41ColorIndex
 90
       18
102
RTVSPost2010Prop41ColorRGB
 90
        0
102
RTVSPost2010PropOp41
 70
     1
102
RTVSPost2010Prop42
 90
       50
102
RTVSPost2010PropOp42
 70
     1
102
RTVSPost2010Prop43
 90
        3
102
RTVSPost2010PropOp43
 70
     1
102
RTVSPost2010Prop44ColorIndex
 90
        5
102
RTVSPost2010Prop44ColorRGB
 90
      255
102
RTVSPost2010PropOp44
 70
     1
102
RTVSPost2010Prop45
280
     0
102
RTVSPost2010PropOp45
 70
     1
102
RTVSPost2010Prop46
 90
       50
102
RTVSPost2010PropOp46
 70
     1
102
RTVSPost2010Prop47
 90
       50
102
RTVSPost2010PropOp47
 70
     1
102
RTVSPost2010Prop48
 90
       50
102
RTVSPost2010PropOp48
 70
     1
102
RTVSPost2010Prop49
280
     0
102
RTVSPost2010PropOp49
 70
     1
102
RTVSPost2010Prop50
 90
       50
102
RTVSPost2010PropOp50
 70
     1
102
RTVSPost2010Prop51ColorIndex
 90
      256
102
RTVSPost2010Prop51ColorRGB
 90
-16777216
102
RTVSPost2010PropOp51
 70
     0
102
RTVSPost2010Prop52
140
1.0
102
RTVSPost2010PropOp52
 70
     0
102
RTVSPost2010Prop53
 90
        2
102
RTVSPost2010PropOp53
 70
     1
102
RTVSPost2010Prop54
  1
strokes_ogs.tif
102
RTVSPost2010PropOp54
 70
     1
102
RTVSPost2010Prop55
280
     0
102
RTVSPost2010PropOp55
 70
     1
102
RTVSPost2010Prop56
140
1.0
102
RTVSPost2010PropOp56
 70
     1
102
RTVSPost2010Prop57
140
1.0
102
RTVSPost2010PropOp57
 70
     1
102
RTVSPropertyOp0
 70
     1
102
RTVSPropertyOp1
 70
     1
102
RTVSPropertyOp2
 70
     1
102
RTVSPropertyOp3
 70
     1
102
RTVSPropertyOp4
 70
     1
102
RTVSPropertyOp5
 70
     1
102
RTVSPropertyOp6
 70
     1
102
RTVSPropertyOp7
 70
     1
102
RTVSPropertyOp8
 70
     1
102
RTVSPropertyOp9
 70
     1
102
RTVSPropertyOp10
 70
     1
102
RTVSPropertyOp11
 70
     1
102
RTVSPropertyOp12
 70
     1
102
RTVSPropertyOp13
 70
     1
102
RTVSPropertyOp14
 70
     1
102
RTVSPropertyOp15
 70
     1
102
RTVSPropertyOp16
 70
     1
102
RTVSPropertyOp17
 70
     1
102
RTVSPropertyOp18
 70
     1
102
RTVSPropertyOp19
 70
     1
102
RTVSPropertyOp20
 70
     1
102
RTVSPropertyOp21
 70
     1
102
RTVSPropertyOp22
 70
     1
102
RTVSPropertyOp23
 70
     1
102
RTVSPropertyOp24
 70
     1
102
RTVSPropertyOp25
 70
     1
102
RTVSPropertyOp26
 70
     1
102
RTVSPropertyOp27
 70
     1
102
RTVSPropertyOp28
 70
     1
102
RTVSPropertyOp29
 70
     1
102
RTVSPropertyOp30
 70
     1
102
RTVSPropertyOp31
 70
     1
102
RTVSPropertyOp32
 70
     1
102
RTVSPropertyOp33
 70
     1
102
RTVSPropertyOp34
 70
     1
102
RTVSPropertyOp35
 70
     1
102
RTVSPropertyOp36
 70
     1
102
RTVSPropertyOp37
 70
     1
102
RTVSPropertyOp38
 70
     1
102
RTVSPropertyOp39
 70
     1
102
RTVSPropertyOp40
 70
     1
102
RTVSPropertyOp41
 70
     1
102
RTVSPropertyOp42
 70
     1
102
RTVSPropertyOp43
 70
     1
102
RTVSPropertyOp44
 70
     1
102
RTVSPropertyOp45
 70
     1
102
RTVSPropertyOp46
 70
     1
102
RTVSPropertyOp47
 70
     1
102
RTVSPropertyOp48
 70
     1
102
RTVSPropertyOp49
 70
     1
102
RTVSPropertyOp50
 70
     1
102
RTVSPropertyOp51
 70
     0
102
RTVSPropertyOp52
 70
     0
102
RTVSPropertyOp53
 70
     1
102
RTVSPropertyOp54
 70
     1
102
RTVSPropertyOp55
 70
     1
102
RTVSPropertyOp56
 70
     1
102
RTVSPropertyOp57
 70
     1
102
RTVSPropertyOp58
 70
     1
102
RTVSPropertyOp59
 70
     1
102
RTVSPropertyOp60
 70
     1
102
RTVSPropertyOp61
 70
     1
102
RTVSPropertyOp62
 70
     1
  0
XRECORD
  5
324F
102
{ACAD_REACTORS
330
324E
102
}
330
324E
100
AcDbXrecord
280
     1
102
RTVSPost2010Prop28
280
     0
102
RTVSPost2010PropOp28
 70
     1
102
RTVSPost2010Prop29
280
     1
102
RTVSPost2010PropOp29
 70
     1
102
RTVSPost2010Prop30
280
     1
102
RTVSPost2010PropOp30
 70
     1
102
RTVSPost2010Prop31
280
     0
102
RTVSPost2010PropOp31
 70
     1
102
RTVSPost2010Prop32
280
     0
102
RTVSPost2010PropOp32
 70
     1
102
RTVSPost2010Prop33
280
     0
102
RTVSPost2010PropOp33
 70
     1
102
RTVSPost2010Prop34
280
     0
102
RTVSPost2010PropOp34
 70
     1
102
RTVSPost2010Prop35
280
     0
102
RTVSPost2010PropOp35
 70
     1
102
RTVSPost2010Prop36
280
     0
102
RTVSPost2010PropOp36
 70
     1
102
RTVSPost2010Prop37
 90
       50
102
RTVSPost2010PropOp37
 70
     1
102
RTVSPost2010Prop38
140
0.0
102
RTVSPost2010PropOp38
 70
     1
102
RTVSPost2010Prop39
140
1.0
102
RTVSPost2010PropOp39
 70
     1
102
RTVSPost2010Prop40
 90
        0
102
RTVSPost2010PropOp40
 70
     1
102
RTVSPost2010Prop41ColorIndex
 90
       18
102
RTVSPost2010Prop41ColorRGB
 90
        0
102
RTVSPost2010PropOp41
 70
     1
102
RTVSPost2010Prop42
 90
       50
102
RTVSPost2010PropOp42
 70
     1
102
RTVSPost2010Prop43
 90
        3
102
RTVSPost2010PropOp43
 70
     1
102
RTVSPost2010Prop44ColorIndex
 90
        5
102
RTVSPost2010Prop44ColorRGB
 90
      255
102
RTVSPost2010PropOp44
 70
     1
102
RTVSPost2010Prop45
280
     0
102
RTVSPost2010PropOp45
 70
     1
102
RTVSPost2010Prop46
 90
       50
102
RTVSPost2010PropOp46
 70
     1
102
RTVSPost2010Prop47
 90
       50
102
RTVSPost2010PropOp47
 70
     1
102
RTVSPost2010Prop48
 90
       50
102
RTVSPost2010PropOp48
 70
     1
102
RTVSPost2010Prop49
280
     0
102
RTVSPost2010PropOp49
 70
     1
102
RTVSPost2010Prop50
 90
       50
102
RTVSPost2010PropOp50
 70
     1
102
RTVSPost2010Prop51ColorIndex
 90
      256
102
RTVSPost2010Prop51ColorRGB
 90
-16777216
102
RTVSPost2010PropOp51
 70
     0
102
RTVSPost2010Prop52
140
1.0
102
RTVSPost2010PropOp52
 70
     0
102
RTVSPost2010Prop53
 90
        2
102
RTVSPost2010PropOp53
 70
     1
102
RTVSPost2010Prop54
  1
strokes_ogs.tif
102
RTVSPost2010PropOp54
 70
     1
102
RTVSPost2010Prop55
280
     0
102
RTVSPost2010PropOp55
 70
     1
102
RTVSPost2010Prop56
140
1.0
102
RTVSPost2010PropOp56
 70
     1
102
RTVSPost2010Prop57
140
1.0
102
RTVSPost2010PropOp57
 70
     1
102
RTVSPropertyOp0
 70
     1
102
RTVSPropertyOp1
 70
     1
102
RTVSPropertyOp2
 70
     1
102
RTVSPropertyOp3
 70
     1
102
RTVSPropertyOp4
 70
     1
102
RTVSPropertyOp5
 70
     1
102
RTVSPropertyOp6
 70
     1
102
RTVSPropertyOp7
 70
     1
102
RTVSPropertyOp8
 70
     1
102
RTVSPropertyOp9
 70
     1
102
RTVSPropertyOp10
 70
     1
102
RTVSPropertyOp11
 70
     1
102
RTVSPropertyOp12
 70
     1
102
RTVSPropertyOp13
 70
     1
102
RTVSPropertyOp14
 70
     1
102
RTVSPropertyOp15
 70
     1
102
RTVSPropertyOp16
 70
     1
102
RTVSPropertyOp17
 70
     1
102
RTVSPropertyOp18
 70
     1
102
RTVSPropertyOp19
 70
     1
102
RTVSPropertyOp20
 70
     1
102
RTVSPropertyOp21
 70
     1
102
RTVSPropertyOp22
 70
     1
102
RTVSPropertyOp23
 70
     1
102
RTVSPropertyOp24
 70
     1
102
RTVSPropertyOp25
 70
     1
102
RTVSPropertyOp26
 70
     1
102
RTVSPropertyOp27
 70
     1
102
RTVSPropertyOp28
 70
     1
102
RTVSPropertyOp29
 70
     1
102
RTVSPropertyOp30
 70
     1
102
RTVSPropertyOp31
 70
     1
102
RTVSPropertyOp32
 70
     1
102
RTVSPropertyOp33
 70
     1
102
RTVSPropertyOp34
 70
     1
102
RTVSPropertyOp35
 70
     1
102
RTVSPropertyOp36
 70
     1
102
RTVSPropertyOp37
 70
     1
102
RTVSPropertyOp38
 70
     1
102
RTVSPropertyOp39
 70
     1
102
RTVSPropertyOp40
 70
     1
102
RTVSPropertyOp41
 70
     1
102
RTVSPropertyOp42
 70
     1
102
RTVSPropertyOp43
 70
     1
102
RTVSPropertyOp44
 70
     1
102
RTVSPropertyOp45
 70
     1
102
RTVSPropertyOp46
 70
     1
102
RTVSPropertyOp47
 70
     1
102
RTVSPropertyOp48
 70
     1
102
RTVSPropertyOp49
 70
     1
102
RTVSPropertyOp50
 70
     1
102
RTVSPropertyOp51
 70
     0
102
RTVSPropertyOp52
 70
     0
102
RTVSPropertyOp53
 70
     1
102
RTVSPropertyOp54
 70
     1
102
RTVSPropertyOp55
 70
     1
102
RTVSPropertyOp56
 70
     1
102
RTVSPropertyOp57
 70
     1
102
RTVSPropertyOp58
 70
     1
102
RTVSPropertyOp59
 70
     1
102
RTVSPropertyOp60
 70
     1
102
RTVSPropertyOp61
 70
     1
102
RTVSPropertyOp62
 70
     1
  0
XRECORD
  5
3251
102
{ACAD_REACTORS
330
3250
102
}
330
3250
100
AcDbXrecord
280
     1
102
RTVSPost2010Prop28
280
     0
102
RTVSPost2010PropOp28
 70
     1
102
RTVSPost2010Prop29
280
     1
102
RTVSPost2010PropOp29
 70
     1
102
RTVSPost2010Prop30
280
     1
102
RTVSPost2010PropOp30
 70
     1
102
RTVSPost2010Prop31
280
     0
102
RTVSPost2010PropOp31
 70
     1
102
RTVSPost2010Prop32
280
     0
102
RTVSPost2010PropOp32
 70
     1
102
RTVSPost2010Prop33
280
     0
102
RTVSPost2010PropOp33
 70
     1
102
RTVSPost2010Prop34
280
     0
102
RTVSPost2010PropOp34
 70
     1
102
RTVSPost2010Prop35
280
     0
102
RTVSPost2010PropOp35
 70
     1
102
RTVSPost2010Prop36
280
     0
102
RTVSPost2010PropOp36
 70
     1
102
RTVSPost2010Prop37
 90
       50
102
RTVSPost2010PropOp37
 70
     1
102
RTVSPost2010Prop38
140
0.0
102
RTVSPost2010PropOp38
 70
     1
102
RTVSPost2010Prop39
140
1.0
102
RTVSPost2010PropOp39
 70
     1
102
RTVSPost2010Prop40
 90
        0
102
RTVSPost2010PropOp40
 70
     1
102
RTVSPost2010Prop41ColorIndex
 90
       18
102
RTVSPost2010Prop41ColorRGB
 90
        0
102
RTVSPost2010PropOp41
 70
     1
102
RTVSPost2010Prop42
 90
       50
102
RTVSPost2010PropOp42
 70
     1
102
RTVSPost2010Prop43
 90
        3
102
RTVSPost2010PropOp43
 70
     1
102
RTVSPost2010Prop44ColorIndex
 90
        5
102
RTVSPost2010Prop44ColorRGB
 90
      255
102
RTVSPost2010PropOp44
 70
     1
102
RTVSPost2010Prop45
280
     0
102
RTVSPost2010PropOp45
 70
     1
102
RTVSPost2010Prop46
 90
       50
102
RTVSPost2010PropOp46
 70
     1
102
RTVSPost2010Prop47
 90
       50
102
RTVSPost2010PropOp47
 70
     1
102
RTVSPost2010Prop48
 90
       50
102
RTVSPost2010PropOp48
 70
     1
102
RTVSPost2010Prop49
280
     0
102
RTVSPost2010PropOp49
 70
     1
102
RTVSPost2010Prop50
 90
       50
102
RTVSPost2010PropOp50
 70
     1
102
RTVSPost2010Prop51ColorIndex
 90
      256
102
RTVSPost2010Prop51ColorRGB
 90
-16777216
102
RTVSPost2010PropOp51
 70
     0
102
RTVSPost2010Prop52
140
1.0
102
RTVSPost2010PropOp52
 70
     0
102
RTVSPost2010Prop53
 90
        2
102
RTVSPost2010PropOp53
 70
     1
102
RTVSPost2010Prop54
  1
strokes_ogs.tif
102
RTVSPost2010PropOp54
 70
     1
102
RTVSPost2010Prop55
280
     0
102
RTVSPost2010PropOp55
 70
     1
102
RTVSPost2010Prop56
140
1.0
102
RTVSPost2010PropOp56
 70
     1
102
RTVSPost2010Prop57
140
1.0
102
RTVSPost2010PropOp57
 70
     1
102
RTVSPropertyOp0
 70
     1
102
RTVSPropertyOp1
 70
     1
102
RTVSPropertyOp2
 70
     1
102
RTVSPropertyOp3
 70
     1
102
RTVSPropertyOp4
 70
     1
102
RTVSPropertyOp5
 70
     1
102
RTVSPropertyOp6
 70
     1
102
RTVSPropertyOp7
 70
     1
102
RTVSPropertyOp8
 70
     1
102
RTVSPropertyOp9
 70
     1
102
RTVSPropertyOp10
 70
     1
102
RTVSPropertyOp11
 70
     1
102
RTVSPropertyOp12
 70
     1
102
RTVSPropertyOp13
 70
     1
102
RTVSPropertyOp14
 70
     1
102
RTVSPropertyOp15
 70
     1
102
RTVSPropertyOp16
 70
     1
102
RTVSPropertyOp17
 70
     1
102
RTVSPropertyOp18
 70
     1
102
RTVSPropertyOp19
 70
     1
102
RTVSPropertyOp20
 70
     1
102
RTVSPropertyOp21
 70
     1
102
RTVSPropertyOp22
 70
     1
102
RTVSPropertyOp23
 70
     1
102
RTVSPropertyOp24
 70
     1
102
RTVSPropertyOp25
 70
     1
102
RTVSPropertyOp26
 70
     1
102
RTVSPropertyOp27
 70
     1
102
RTVSPropertyOp28
 70
     1
102
RTVSPropertyOp29
 70
     1
102
RTVSPropertyOp30
 70
     1
102
RTVSPropertyOp31
 70
     1
102
RTVSPropertyOp32
 70
     1
102
RTVSPropertyOp33
 70
     1
102
RTVSPropertyOp34
 70
     1
102
RTVSPropertyOp35
 70
     1
102
RTVSPropertyOp36
 70
     1
102
RTVSPropertyOp37
 70
     1
102
RTVSPropertyOp38
 70
     1
102
RTVSPropertyOp39
 70
     1
102
RTVSPropertyOp40
 70
     1
102
RTVSPropertyOp41
 70
     1
102
RTVSPropertyOp42
 70
     1
102
RTVSPropertyOp43
 70
     1
102
RTVSPropertyOp44
 70
     1
102
RTVSPropertyOp45
 70
     1
102
RTVSPropertyOp46
 70
     1
102
RTVSPropertyOp47
 70
     1
102
RTVSPropertyOp48
 70
     1
102
RTVSPropertyOp49
 70
     1
102
RTVSPropertyOp50
 70
     1
102
RTVSPropertyOp51
 70
     0
102
RTVSPropertyOp52
 70
     0
102
RTVSPropertyOp53
 70
     1
102
RTVSPropertyOp54
 70
     1
102
RTVSPropertyOp55
 70
     1
102
RTVSPropertyOp56
 70
     1
102
RTVSPropertyOp57
 70
     1
102
RTVSPropertyOp58
 70
     1
102
RTVSPropertyOp59
 70
     1
102
RTVSPropertyOp60
 70
     1
102
RTVSPropertyOp61
 70
     1
102
RTVSPropertyOp62
 70
     1
  0
XRECORD
  5
3259
102
{ACAD_REACTORS
330
3258
102
}
330
3258
100
AcDbXrecord
280
     1
102
RTVSPost2010Prop28
280
     0
102
RTVSPost2010PropOp28
 70
     1
102
RTVSPost2010Prop29
280
     1
102
RTVSPost2010PropOp29
 70
     1
102
RTVSPost2010Prop30
280
     1
102
RTVSPost2010PropOp30
 70
     1
102
RTVSPost2010Prop31
280
     0
102
RTVSPost2010PropOp31
 70
     1
102
RTVSPost2010Prop32
280
     0
102
RTVSPost2010PropOp32
 70
     1
102
RTVSPost2010Prop33
280
     0
102
RTVSPost2010PropOp33
 70
     1
102
RTVSPost2010Prop34
280
     0
102
RTVSPost2010PropOp34
 70
     1
102
RTVSPost2010Prop35
280
     0
102
RTVSPost2010PropOp35
 70
     1
102
RTVSPost2010Prop36
280
     0
102
RTVSPost2010PropOp36
 70
     1
102
RTVSPost2010Prop37
 90
       50
102
RTVSPost2010PropOp37
 70
     1
102
RTVSPost2010Prop38
140
0.0
102
RTVSPost2010PropOp38
 70
     1
102
RTVSPost2010Prop39
140
1.0
102
RTVSPost2010PropOp39
 70
     1
102
RTVSPost2010Prop40
 90
        0
102
RTVSPost2010PropOp40
 70
     1
102
RTVSPost2010Prop41ColorIndex
 90
       18
102
RTVSPost2010Prop41ColorRGB
 90
        0
102
RTVSPost2010PropOp41
 70
     1
102
RTVSPost2010Prop42
 90
       50
102
RTVSPost2010PropOp42
 70
     1
102
RTVSPost2010Prop43
 90
        3
102
RTVSPost2010PropOp43
 70
     1
102
RTVSPost2010Prop44ColorIndex
 90
        5
102
RTVSPost2010Prop44ColorRGB
 90
      255
102
RTVSPost2010PropOp44
 70
     1
102
RTVSPost2010Prop45
280
     0
102
RTVSPost2010PropOp45
 70
     1
102
RTVSPost2010Prop46
 90
       50
102
RTVSPost2010PropOp46
 70
     1
102
RTVSPost2010Prop47
 90
       50
102
RTVSPost2010PropOp47
 70
     1
102
RTVSPost2010Prop48
 90
       50
102
RTVSPost2010PropOp48
 70
     1
102
RTVSPost2010Prop49
280
     0
102
RTVSPost2010PropOp49
 70
     1
102
RTVSPost2010Prop50
 90
       50
102
RTVSPost2010PropOp50
 70
     1
102
RTVSPost2010Prop51ColorIndex
 90
      256
102
RTVSPost2010Prop51ColorRGB
 90
-16777216
102
RTVSPost2010PropOp51
 70
     0
102
RTVSPost2010Prop52
140
1.0
102
RTVSPost2010PropOp52
 70
     0
102
RTVSPost2010Prop53
 90
        2
102
RTVSPost2010PropOp53
 70
     1
102
RTVSPost2010Prop54
  1
strokes_ogs.tif
102
RTVSPost2010PropOp54
 70
     1
102
RTVSPost2010Prop55
280
     0
102
RTVSPost2010PropOp55
 70
     1
102
RTVSPost2010Prop56
140
1.0
102
RTVSPost2010PropOp56
 70
     1
102
RTVSPost2010Prop57
140
1.0
102
RTVSPost2010PropOp57
 70
     1
102
RTVSPropertyOp0
 70
     1
102
RTVSPropertyOp1
 70
     1
102
RTVSPropertyOp2
 70
     1
102
RTVSPropertyOp3
 70
     1
102
RTVSPropertyOp4
 70
     1
102
RTVSPropertyOp5
 70
     1
102
RTVSPropertyOp6
 70
     1
102
RTVSPropertyOp7
 70
     1
102
RTVSPropertyOp8
 70
     1
102
RTVSPropertyOp9
 70
     1
102
RTVSPropertyOp10
 70
     1
102
RTVSPropertyOp11
 70
     1
102
RTVSPropertyOp12
 70
     1
102
RTVSPropertyOp13
 70
     1
102
RTVSPropertyOp14
 70
     1
102
RTVSPropertyOp15
 70
     1
102
RTVSPropertyOp16
 70
     1
102
RTVSPropertyOp17
 70
     1
102
RTVSPropertyOp18
 70
     1
102
RTVSPropertyOp19
 70
     1
102
RTVSPropertyOp20
 70
     1
102
RTVSPropertyOp21
 70
     1
102
RTVSPropertyOp22
 70
     1
102
RTVSPropertyOp23
 70
     1
102
RTVSPropertyOp24
 70
     1
102
RTVSPropertyOp25
 70
     1
102
RTVSPropertyOp26
 70
     1
102
RTVSPropertyOp27
 70
     1
102
RTVSPropertyOp28
 70
     1
102
RTVSPropertyOp29
 70
     1
102
RTVSPropertyOp30
 70
     1
102
RTVSPropertyOp31
 70
     1
102
RTVSPropertyOp32
 70
     1
102
RTVSPropertyOp33
 70
     1
102
RTVSPropertyOp34
 70
     1
102
RTVSPropertyOp35
 70
     1
102
RTVSPropertyOp36
 70
     1
102
RTVSPropertyOp37
 70
     1
102
RTVSPropertyOp38
 70
     1
102
RTVSPropertyOp39
 70
     1
102
RTVSPropertyOp40
 70
     1
102
RTVSPropertyOp41
 70
     1
102
RTVSPropertyOp42
 70
     1
102
RTVSPropertyOp43
 70
     1
102
RTVSPropertyOp44
 70
     1
102
RTVSPropertyOp45
 70
     1
102
RTVSPropertyOp46
 70
     1
102
RTVSPropertyOp47
 70
     1
102
RTVSPropertyOp48
 70
     1
102
RTVSPropertyOp49
 70
     1
102
RTVSPropertyOp50
 70
     1
102
RTVSPropertyOp51
 70
     0
102
RTVSPropertyOp52
 70
     0
102
RTVSPropertyOp53
 70
     1
102
RTVSPropertyOp54
 70
     1
102
RTVSPropertyOp55
 70
     1
102
RTVSPropertyOp56
 70
     1
102
RTVSPropertyOp57
 70
     1
102
RTVSPropertyOp58
 70
     1
102
RTVSPropertyOp59
 70
     1
102
RTVSPropertyOp60
 70
     1
102
RTVSPropertyOp61
 70
     1
102
RTVSPropertyOp62
 70
     1
  0
XRECORD
  5
326D
102
{ACAD_REACTORS
330
326C
102
}
330
326C
100
AcDbXrecord
280
     1
102
RTVSPost2010Prop28
280
     0
102
RTVSPost2010PropOp28
 70
     1
102
RTVSPost2010Prop29
280
     1
102
RTVSPost2010PropOp29
 70
     1
102
RTVSPost2010Prop30
280
     1
102
RTVSPost2010PropOp30
 70
     1
102
RTVSPost2010Prop31
280
     0
102
RTVSPost2010PropOp31
 70
     1
102
RTVSPost2010Prop32
280
     0
102
RTVSPost2010PropOp32
 70
     1
102
RTVSPost2010Prop33
280
     0
102
RTVSPost2010PropOp33
 70
     1
102
RTVSPost2010Prop34
280
     0
102
RTVSPost2010PropOp34
 70
     1
102
RTVSPost2010Prop35
280
     0
102
RTVSPost2010PropOp35
 70
     1
102
RTVSPost2010Prop36
280
     0
102
RTVSPost2010PropOp36
 70
     1
102
RTVSPost2010Prop37
 90
       50
102
RTVSPost2010PropOp37
 70
     1
102
RTVSPost2010Prop38
140
0.0
102
RTVSPost2010PropOp38
 70
     1
102
RTVSPost2010Prop39
140
1.0
102
RTVSPost2010PropOp39
 70
     1
102
RTVSPost2010Prop40
 90
        0
102
RTVSPost2010PropOp40
 70
     1
102
RTVSPost2010Prop41ColorIndex
 90
       18
102
RTVSPost2010Prop41ColorRGB
 90
        0
102
RTVSPost2010PropOp41
 70
     1
102
RTVSPost2010Prop42
 90
       50
102
RTVSPost2010PropOp42
 70
     1
102
RTVSPost2010Prop43
 90
        3
102
RTVSPost2010PropOp43
 70
     1
102
RTVSPost2010Prop44ColorIndex
 90
        5
102
RTVSPost2010Prop44ColorRGB
 90
      255
102
RTVSPost2010PropOp44
 70
     1
102
RTVSPost2010Prop45
280
     0
102
RTVSPost2010PropOp45
 70
     1
102
RTVSPost2010Prop46
 90
       50
102
RTVSPost2010PropOp46
 70
     1
102
RTVSPost2010Prop47
 90
       50
102
RTVSPost2010PropOp47
 70
     1
102
RTVSPost2010Prop48
 90
       50
102
RTVSPost2010PropOp48
 70
     1
102
RTVSPost2010Prop49
280
     0
102
RTVSPost2010PropOp49
 70
     1
102
RTVSPost2010Prop50
 90
       50
102
RTVSPost2010PropOp50
 70
     1
102
RTVSPost2010Prop51ColorIndex
 90
      256
102
RTVSPost2010Prop51ColorRGB
 90
-16777216
102
RTVSPost2010PropOp51
 70
     0
102
RTVSPost2010Prop52
140
1.0
102
RTVSPost2010PropOp52
 70
     0
102
RTVSPost2010Prop53
 90
        2
102
RTVSPost2010PropOp53
 70
     1
102
RTVSPost2010Prop54
  1
strokes_ogs.tif
102
RTVSPost2010PropOp54
 70
     1
102
RTVSPost2010Prop55
280
     0
102
RTVSPost2010PropOp55
 70
     1
102
RTVSPost2010Prop56
140
1.0
102
RTVSPost2010PropOp56
 70
     1
102
RTVSPost2010Prop57
140
1.0
102
RTVSPost2010PropOp57
 70
     1
102
RTVSPropertyOp0
 70
     0
102
RTVSPropertyOp1
 70
     0
102
RTVSPropertyOp2
 70
     0
102
RTVSPropertyOp3
 70
     0
102
RTVSPropertyOp4
 70
     0
102
RTVSPropertyOp5
 70
     0
102
RTVSPropertyOp6
 70
     0
102
RTVSPropertyOp7
 70
     0
102
RTVSPropertyOp8
 70
     0
102
RTVSPropertyOp9
 70
     0
102
RTVSPropertyOp10
 70
     0
102
RTVSPropertyOp11
 70
     0
102
RTVSPropertyOp12
 70
     0
102
RTVSPropertyOp13
 70
     0
102
RTVSPropertyOp14
 70
     2
102
RTVSPropertyOp15
 70
     0
102
RTVSPropertyOp16
 70
     0
102
RTVSPropertyOp17
 70
     0
102
RTVSPropertyOp18
 70
     0
102
RTVSPropertyOp19
 70
     0
102
RTVSPropertyOp20
 70
     0
102
RTVSPropertyOp21
 70
     0
102
RTVSPropertyOp22
 70
     0
102
RTVSPropertyOp23
 70
     0
102
RTVSPropertyOp24
 70
     0
102
RTVSPropertyOp25
 70
     0
102
RTVSPropertyOp26
 70
     0
102
RTVSPropertyOp27
 70
     0
102
RTVSPropertyOp28
 70
     1
102
RTVSPropertyOp29
 70
     1
102
RTVSPropertyOp30
 70
     1
102
RTVSPropertyOp31
 70
     1
102
RTVSPropertyOp32
 70
     1
102
RTVSPropertyOp33
 70
     1
102
RTVSPropertyOp34
 70
     1
102
RTVSPropertyOp35
 70
     1
102
RTVSPropertyOp36
 70
     1
102
RTVSPropertyOp37
 70
     1
102
RTVSPropertyOp38
 70
     1
102
RTVSPropertyOp39
 70
     1
102
RTVSPropertyOp40
 70
     1
102
RTVSPropertyOp41
 70
     1
102
RTVSPropertyOp42
 70
     1
102
RTVSPropertyOp43
 70
     1
102
RTVSPropertyOp44
 70
     1
102
RTVSPropertyOp45
 70
     1
102
RTVSPropertyOp46
 70
     1
102
RTVSPropertyOp47
 70
     1
102
RTVSPropertyOp48
 70
     1
102
RTVSPropertyOp49
 70
     1
102
RTVSPropertyOp50
 70
     1
102
RTVSPropertyOp51
 70
     0
102
RTVSPropertyOp52
 70
     0
102
RTVSPropertyOp53
 70
     1
102
RTVSPropertyOp54
 70
     1
102
RTVSPropertyOp55
 70
     1
102
RTVSPropertyOp56
 70
     1
102
RTVSPropertyOp57
 70
     1
102
RTVSPropertyOp58
 70
     1
102
RTVSPropertyOp59
 70
     1
102
RTVSPropertyOp60
 70
     1
102
RTVSPropertyOp61
 70
     1
102
RTVSPropertyOp62
 70
     1
  0
XRECORD
  5
3265
102
{ACAD_REACTORS
330
3264
102
}
330
3264
100
AcDbXrecord
280
     1
102
RTVSPost2010Prop28
280
     0
102
RTVSPost2010PropOp28
 70
     1
102
RTVSPost2010Prop29
280
     1
102
RTVSPost2010PropOp29
 70
     1
102
RTVSPost2010Prop30
280
     1
102
RTVSPost2010PropOp30
 70
     1
102
RTVSPost2010Prop31
280
     0
102
RTVSPost2010PropOp31
 70
     1
102
RTVSPost2010Prop32
280
     0
102
RTVSPost2010PropOp32
 70
     1
102
RTVSPost2010Prop33
280
     0
102
RTVSPost2010PropOp33
 70
     1
102
RTVSPost2010Prop34
280
     0
102
RTVSPost2010PropOp34
 70
     1
102
RTVSPost2010Prop35
280
     0
102
RTVSPost2010PropOp35
 70
     1
102
RTVSPost2010Prop36
280
     0
102
RTVSPost2010PropOp36
 70
     1
102
RTVSPost2010Prop37
 90
       50
102
RTVSPost2010PropOp37
 70
     1
102
RTVSPost2010Prop38
140
0.0
102
RTVSPost2010PropOp38
 70
     1
102
RTVSPost2010Prop39
140
1.0
102
RTVSPost2010PropOp39
 70
     1
102
RTVSPost2010Prop40
 90
        0
102
RTVSPost2010PropOp40
 70
     1
102
RTVSPost2010Prop41ColorIndex
 90
       18
102
RTVSPost2010Prop41ColorRGB
 90
        0
102
RTVSPost2010PropOp41
 70
     1
102
RTVSPost2010Prop42
 90
       50
102
RTVSPost2010PropOp42
 70
     1
102
RTVSPost2010Prop43
 90
        3
102
RTVSPost2010PropOp43
 70
     1
102
RTVSPost2010Prop44ColorIndex
 90
        5
102
RTVSPost2010Prop44ColorRGB
 90
      255
102
RTVSPost2010PropOp44
 70
     1
102
RTVSPost2010Prop45
280
     0
102
RTVSPost2010PropOp45
 70
     1
102
RTVSPost2010Prop46
 90
       50
102
RTVSPost2010PropOp46
 70
     1
102
RTVSPost2010Prop47
 90
       50
102
RTVSPost2010PropOp47
 70
     1
102
RTVSPost2010Prop48
 90
       50
102
RTVSPost2010PropOp48
 70
     1
102
RTVSPost2010Prop49
280
     0
102
RTVSPost2010PropOp49
 70
     1
102
RTVSPost2010Prop50
 90
       50
102
RTVSPost2010PropOp50
 70
     1
102
RTVSPost2010Prop51ColorIndex
 90
      256
102
RTVSPost2010Prop51ColorRGB
 90
-16777216
102
RTVSPost2010PropOp51
 70
     0
102
RTVSPost2010Prop52
140
1.0
102
RTVSPost2010PropOp52
 70
     0
102
RTVSPost2010Prop53
 90
        2
102
RTVSPost2010PropOp53
 70
     1
102
RTVSPost2010Prop54
  1
strokes_ogs.tif
102
RTVSPost2010PropOp54
 70
     1
102
RTVSPost2010Prop55
280
     0
102
RTVSPost2010PropOp55
 70
     1
102
RTVSPost2010Prop56
140
1.0
102
RTVSPost2010PropOp56
 70
     1
102
RTVSPost2010Prop57
140
1.0
102
RTVSPost2010PropOp57
 70
     1
102
RTVSPropertyOp0
 70
     1
102
RTVSPropertyOp1
 70
     1
102
RTVSPropertyOp2
 70
     1
102
RTVSPropertyOp3
 70
     1
102
RTVSPropertyOp4
 70
     1
102
RTVSPropertyOp5
 70
     1
102
RTVSPropertyOp6
 70
     1
102
RTVSPropertyOp7
 70
     1
102
RTVSPropertyOp8
 70
     1
102
RTVSPropertyOp9
 70
     1
102
RTVSPropertyOp10
 70
     1
102
RTVSPropertyOp11
 70
     1
102
RTVSPropertyOp12
 70
     1
102
RTVSPropertyOp13
 70
     1
102
RTVSPropertyOp14
 70
     1
102
RTVSPropertyOp15
 70
     1
102
RTVSPropertyOp16
 70
     1
102
RTVSPropertyOp17
 70
     1
102
RTVSPropertyOp18
 70
     1
102
RTVSPropertyOp19
 70
     1
102
RTVSPropertyOp20
 70
     1
102
RTVSPropertyOp21
 70
     1
102
RTVSPropertyOp22
 70
     1
102
RTVSPropertyOp23
 70
     1
102
RTVSPropertyOp24
 70
     1
102
RTVSPropertyOp25
 70
     1
102
RTVSPropertyOp26
 70
     1
102
RTVSPropertyOp27
 70
     1
102
RTVSPropertyOp28
 70
     1
102
RTVSPropertyOp29
 70
     1
102
RTVSPropertyOp30
 70
     1
102
RTVSPropertyOp31
 70
     1
102
RTVSPropertyOp32
 70
     1
102
RTVSPropertyOp33
 70
     1
102
RTVSPropertyOp34
 70
     1
102
RTVSPropertyOp35
 70
     1
102
RTVSPropertyOp36
 70
     1
102
RTVSPropertyOp37
 70
     1
102
RTVSPropertyOp38
 70
     1
102
RTVSPropertyOp39
 70
     1
102
RTVSPropertyOp40
 70
     1
102
RTVSPropertyOp41
 70
     1
102
RTVSPropertyOp42
 70
     1
102
RTVSPropertyOp43
 70
     1
102
RTVSPropertyOp44
 70
     1
102
RTVSPropertyOp45
 70
     1
102
RTVSPropertyOp46
 70
     1
102
RTVSPropertyOp47
 70
     1
102
RTVSPropertyOp48
 70
     1
102
RTVSPropertyOp49
 70
     1
102
RTVSPropertyOp50
 70
     1
102
RTVSPropertyOp51
 70
     0
102
RTVSPropertyOp52
 70
     0
102
RTVSPropertyOp53
 70
     1
102
RTVSPropertyOp54
 70
     1
102
RTVSPropertyOp55
 70
     1
102
RTVSPropertyOp56
 70
     1
102
RTVSPropertyOp57
 70
     1
102
RTVSPropertyOp58
 70
     1
102
RTVSPropertyOp59
 70
     1
102
RTVSPropertyOp60
 70
     1
102
RTVSPropertyOp61
 70
     1
102
RTVSPropertyOp62
 70
     1
  0
XRECORD
  5
326F
102
{ACAD_REACTORS
330
326E
102
}
330
326E
100
AcDbXrecord
280
     1
102
RTVSPost2010Prop28
280
     0
102
RTVSPost2010PropOp28
 70
     1
102
RTVSPost2010Prop29
280
     1
102
RTVSPost2010PropOp29
 70
     1
102
RTVSPost2010Prop30
280
     1
102
RTVSPost2010PropOp30
 70
     1
102
RTVSPost2010Prop31
280
     0
102
RTVSPost2010PropOp31
 70
     1
102
RTVSPost2010Prop32
280
     0
102
RTVSPost2010PropOp32
 70
     1
102
RTVSPost2010Prop33
280
     0
102
RTVSPost2010PropOp33
 70
     1
102
RTVSPost2010Prop34
280
     0
102
RTVSPost2010PropOp34
 70
     1
102
RTVSPost2010Prop35
280
     0
102
RTVSPost2010PropOp35
 70
     1
102
RTVSPost2010Prop36
280
     0
102
RTVSPost2010PropOp36
 70
     1
102
RTVSPost2010Prop37
 90
       50
102
RTVSPost2010PropOp37
 70
     1
102
RTVSPost2010Prop38
140
0.0
102
RTVSPost2010PropOp38
 70
     1
102
RTVSPost2010Prop39
140
1.0
102
RTVSPost2010PropOp39
 70
     1
102
RTVSPost2010Prop40
 90
        0
102
RTVSPost2010PropOp40
 70
     1
102
RTVSPost2010Prop41ColorIndex
 90
       18
102
RTVSPost2010Prop41ColorRGB
 90
        0
102
RTVSPost2010PropOp41
 70
     1
102
RTVSPost2010Prop42
 90
       50
102
RTVSPost2010PropOp42
 70
     1
102
RTVSPost2010Prop43
 90
        3
102
RTVSPost2010PropOp43
 70
     1
102
RTVSPost2010Prop44ColorIndex
 90
        5
102
RTVSPost2010Prop44ColorRGB
 90
      255
102
RTVSPost2010PropOp44
 70
     1
102
RTVSPost2010Prop45
280
     0
102
RTVSPost2010PropOp45
 70
     1
102
RTVSPost2010Prop46
 90
       50
102
RTVSPost2010PropOp46
 70
     1
102
RTVSPost2010Prop47
 90
       50
102
RTVSPost2010PropOp47
 70
     1
102
RTVSPost2010Prop48
 90
       50
102
RTVSPost2010PropOp48
 70
     1
102
RTVSPost2010Prop49
280
     0
102
RTVSPost2010PropOp49
 70
     1
102
RTVSPost2010Prop50
 90
       50
102
RTVSPost2010PropOp50
 70
     1
102
RTVSPost2010Prop51ColorIndex
 90
      256
102
RTVSPost2010Prop51ColorRGB
 90
-16777216
102
RTVSPost2010PropOp51
 70
     0
102
RTVSPost2010Prop52
140
1.0
102
RTVSPost2010PropOp52
 70
     0
102
RTVSPost2010Prop53
 90
        2
102
RTVSPost2010PropOp53
 70
     1
102
RTVSPost2010Prop54
  1
strokes_ogs.tif
102
RTVSPost2010PropOp54
 70
     1
102
RTVSPost2010Prop55
280
     0
102
RTVSPost2010PropOp55
 70
     1
102
RTVSPost2010Prop56
140
1.0
102
RTVSPost2010PropOp56
 70
     1
102
RTVSPost2010Prop57
140
1.0
102
RTVSPost2010PropOp57
 70
     1
102
RTVSPropertyOp0
 70
     0
102
RTVSPropertyOp1
 70
     0
102
RTVSPropertyOp2
 70
     0
102
RTVSPropertyOp3
 70
     0
102
RTVSPropertyOp4
 70
     0
102
RTVSPropertyOp5
 70
     0
102
RTVSPropertyOp6
 70
     0
102
RTVSPropertyOp7
 70
     0
102
RTVSPropertyOp8
 70
     0
102
RTVSPropertyOp9
 70
     0
102
RTVSPropertyOp10
 70
     0
102
RTVSPropertyOp11
 70
     0
102
RTVSPropertyOp12
 70
     0
102
RTVSPropertyOp13
 70
     0
102
RTVSPropertyOp14
 70
     2
102
RTVSPropertyOp15
 70
     0
102
RTVSPropertyOp16
 70
     0
102
RTVSPropertyOp17
 70
     0
102
RTVSPropertyOp18
 70
     0
102
RTVSPropertyOp19
 70
     0
102
RTVSPropertyOp20
 70
     0
102
RTVSPropertyOp21
 70
     0
102
RTVSPropertyOp22
 70
     0
102
RTVSPropertyOp23
 70
     0
102
RTVSPropertyOp24
 70
     0
102
RTVSPropertyOp25
 70
     0
102
RTVSPropertyOp26
 70
     0
102
RTVSPropertyOp27
 70
     0
102
RTVSPropertyOp28
 70
     1
102
RTVSPropertyOp29
 70
     1
102
RTVSPropertyOp30
 70
     1
102
RTVSPropertyOp31
 70
     1
102
RTVSPropertyOp32
 70
     1
102
RTVSPropertyOp33
 70
     1
102
RTVSPropertyOp34
 70
     1
102
RTVSPropertyOp35
 70
     1
102
RTVSPropertyOp36
 70
     1
102
RTVSPropertyOp37
 70
     1
102
RTVSPropertyOp38
 70
     1
102
RTVSPropertyOp39
 70
     1
102
RTVSPropertyOp40
 70
     1
102
RTVSPropertyOp41
 70
     1
102
RTVSPropertyOp42
 70
     1
102
RTVSPropertyOp43
 70
     1
102
RTVSPropertyOp44
 70
     1
102
RTVSPropertyOp45
 70
     1
102
RTVSPropertyOp46
 70
     1
102
RTVSPropertyOp47
 70
     1
102
RTVSPropertyOp48
 70
     1
102
RTVSPropertyOp49
 70
     1
102
RTVSPropertyOp50
 70
     1
102
RTVSPropertyOp51
 70
     0
102
RTVSPropertyOp52
 70
     0
102
RTVSPropertyOp53
 70
     1
102
RTVSPropertyOp54
 70
     1
102
RTVSPropertyOp55
 70
     1
102
RTVSPropertyOp56
 70
     1
102
RTVSPropertyOp57
 70
     1
102
RTVSPropertyOp58
 70
     1
102
RTVSPropertyOp59
 70
     1
102
RTVSPropertyOp60
 70
     1
102
RTVSPropertyOp61
 70
     1
102
RTVSPropertyOp62
 70
     1
  0
XRECORD
  5
325D
102
{ACAD_REACTORS
330
325C
102
}
330
325C
100
AcDbXrecord
280
     1
102
RTVSPost2010Prop28
280
     0
102
RTVSPost2010PropOp28
 70
     1
102
RTVSPost2010Prop29
280
     1
102
RTVSPost2010PropOp29
 70
     1
102
RTVSPost2010Prop30
280
     1
102
RTVSPost2010PropOp30
 70
     1
102
RTVSPost2010Prop31
280
     0
102
RTVSPost2010PropOp31
 70
     1
102
RTVSPost2010Prop32
280
     0
102
RTVSPost2010PropOp32
 70
     1
102
RTVSPost2010Prop33
280
     0
102
RTVSPost2010PropOp33
 70
     1
102
RTVSPost2010Prop34
280
     0
102
RTVSPost2010PropOp34
 70
     1
102
RTVSPost2010Prop35
280
     0
102
RTVSPost2010PropOp35
 70
     1
102
RTVSPost2010Prop36
280
     0
102
RTVSPost2010PropOp36
 70
     1
102
RTVSPost2010Prop37
 90
       50
102
RTVSPost2010PropOp37
 70
     1
102
RTVSPost2010Prop38
140
0.0
102
RTVSPost2010PropOp38
 70
     1
102
RTVSPost2010Prop39
140
1.0
102
RTVSPost2010PropOp39
 70
     1
102
RTVSPost2010Prop40
 90
        0
102
RTVSPost2010PropOp40
 70
     1
102
RTVSPost2010Prop41ColorIndex
 90
       18
102
RTVSPost2010Prop41ColorRGB
 90
        0
102
RTVSPost2010PropOp41
 70
     1
102
RTVSPost2010Prop42
 90
       50
102
RTVSPost2010PropOp42
 70
     1
102
RTVSPost2010Prop43
 90
        3
102
RTVSPost2010PropOp43
 70
     1
102
RTVSPost2010Prop44ColorIndex
 90
        5
102
RTVSPost2010Prop44ColorRGB
 90
      255
102
RTVSPost2010PropOp44
 70
     1
102
RTVSPost2010Prop45
280
     0
102
RTVSPost2010PropOp45
 70
     1
102
RTVSPost2010Prop46
 90
       50
102
RTVSPost2010PropOp46
 70
     1
102
RTVSPost2010Prop47
 90
       50
102
RTVSPost2010PropOp47
 70
     1
102
RTVSPost2010Prop48
 90
       50
102
RTVSPost2010PropOp48
 70
     1
102
RTVSPost2010Prop49
280
     0
102
RTVSPost2010PropOp49
 70
     1
102
RTVSPost2010Prop50
 90
       50
102
RTVSPost2010PropOp50
 70
     1
102
RTVSPost2010Prop51ColorIndex
 90
      256
102
RTVSPost2010Prop51ColorRGB
 90
-16777216
102
RTVSPost2010PropOp51
 70
     0
102
RTVSPost2010Prop52
140
1.0
102
RTVSPost2010PropOp52
 70
     0
102
RTVSPost2010Prop53
 90
        2
102
RTVSPost2010PropOp53
 70
     1
102
RTVSPost2010Prop54
  1
strokes_ogs.tif
102
RTVSPost2010PropOp54
 70
     1
102
RTVSPost2010Prop55
280
     0
102
RTVSPost2010PropOp55
 70
     1
102
RTVSPost2010Prop56
140
1.0
102
RTVSPost2010PropOp56
 70
     1
102
RTVSPost2010Prop57
140
1.0
102
RTVSPost2010PropOp57
 70
     1
102
RTVSPropertyOp0
 70
     1
102
RTVSPropertyOp1
 70
     1
102
RTVSPropertyOp2
 70
     1
102
RTVSPropertyOp3
 70
     1
102
RTVSPropertyOp4
 70
     1
102
RTVSPropertyOp5
 70
     1
102
RTVSPropertyOp6
 70
     1
102
RTVSPropertyOp7
 70
     1
102
RTVSPropertyOp8
 70
     1
102
RTVSPropertyOp9
 70
     1
102
RTVSPropertyOp10
 70
     1
102
RTVSPropertyOp11
 70
     1
102
RTVSPropertyOp12
 70
     1
102
RTVSPropertyOp13
 70
     1
102
RTVSPropertyOp14
 70
     1
102
RTVSPropertyOp15
 70
     1
102
RTVSPropertyOp16
 70
     1
102
RTVSPropertyOp17
 70
     1
102
RTVSPropertyOp18
 70
     1
102
RTVSPropertyOp19
 70
     1
102
RTVSPropertyOp20
 70
     1
102
RTVSPropertyOp21
 70
     1
102
RTVSPropertyOp22
 70
     1
102
RTVSPropertyOp23
 70
     1
102
RTVSPropertyOp24
 70
     1
102
RTVSPropertyOp25
 70
     1
102
RTVSPropertyOp26
 70
     1
102
RTVSPropertyOp27
 70
     1
102
RTVSPropertyOp28
 70
     1
102
RTVSPropertyOp29
 70
     1
102
RTVSPropertyOp30
 70
     1
102
RTVSPropertyOp31
 70
     1
102
RTVSPropertyOp32
 70
     1
102
RTVSPropertyOp33
 70
     1
102
RTVSPropertyOp34
 70
     1
102
RTVSPropertyOp35
 70
     1
102
RTVSPropertyOp36
 70
     1
102
RTVSPropertyOp37
 70
     1
102
RTVSPropertyOp38
 70
     1
102
RTVSPropertyOp39
 70
     1
102
RTVSPropertyOp40
 70
     1
102
RTVSPropertyOp41
 70
     1
102
RTVSPropertyOp42
 70
     1
102
RTVSPropertyOp43
 70
     1
102
RTVSPropertyOp44
 70
     1
102
RTVSPropertyOp45
 70
     1
102
RTVSPropertyOp46
 70
     1
102
RTVSPropertyOp47
 70
     1
102
RTVSPropertyOp48
 70
     1
102
RTVSPropertyOp49
 70
     1
102
RTVSPropertyOp50
 70
     1
102
RTVSPropertyOp51
 70
     0
102
RTVSPropertyOp52
 70
     0
102
RTVSPropertyOp53
 70
     1
102
RTVSPropertyOp54
 70
     1
102
RTVSPropertyOp55
 70
     1
102
RTVSPropertyOp56
 70
     1
102
RTVSPropertyOp57
 70
     1
102
RTVSPropertyOp58
 70
     1
102
RTVSPropertyOp59
 70
     1
102
RTVSPropertyOp60
 70
     1
102
RTVSPropertyOp61
 70
     1
102
RTVSPropertyOp62
 70
     1
  0
XRECORD
  5
327B
102
{ACAD_REACTORS
330
327A
102
}
330
327A
100
AcDbXrecord
280
     1
102
RTVSPost2010Prop28
280
     0
102
RTVSPost2010PropOp28
 70
     1
102
RTVSPost2010Prop29
280
     1
102
RTVSPost2010PropOp29
 70
     1
102
RTVSPost2010Prop30
280
     1
102
RTVSPost2010PropOp30
 70
     1
102
RTVSPost2010Prop31
280
     0
102
RTVSPost2010PropOp31
 70
     1
102
RTVSPost2010Prop32
280
     0
102
RTVSPost2010PropOp32
 70
     1
102
RTVSPost2010Prop33
280
     0
102
RTVSPost2010PropOp33
 70
     1
102
RTVSPost2010Prop34
280
     0
102
RTVSPost2010PropOp34
 70
     1
102
RTVSPost2010Prop35
280
     0
102
RTVSPost2010PropOp35
 70
     1
102
RTVSPost2010Prop36
280
     0
102
RTVSPost2010PropOp36
 70
     1
102
RTVSPost2010Prop37
 90
       50
102
RTVSPost2010PropOp37
 70
     1
102
RTVSPost2010Prop38
140
0.0
102
RTVSPost2010PropOp38
 70
     1
102
RTVSPost2010Prop39
140
1.0
102
RTVSPost2010PropOp39
 70
     1
102
RTVSPost2010Prop40
 90
        0
102
RTVSPost2010PropOp40
 70
     1
102
RTVSPost2010Prop41ColorIndex
 90
       18
102
RTVSPost2010Prop41ColorRGB
 90
        0
102
RTVSPost2010PropOp41
 70
     1
102
RTVSPost2010Prop42
 90
       50
102
RTVSPost2010PropOp42
 70
     1
102
RTVSPost2010Prop43
 90
        3
102
RTVSPost2010PropOp43
 70
     1
102
RTVSPost2010Prop44ColorIndex
 90
        5
102
RTVSPost2010Prop44ColorRGB
 90
      255
102
RTVSPost2010PropOp44
 70
     1
102
RTVSPost2010Prop45
280
     0
102
RTVSPost2010PropOp45
 70
     1
102
RTVSPost2010Prop46
 90
       50
102
RTVSPost2010PropOp46
 70
     1
102
RTVSPost2010Prop47
 90
       50
102
RTVSPost2010PropOp47
 70
     1
102
RTVSPost2010Prop48
 90
       50
102
RTVSPost2010PropOp48
 70
     1
102
RTVSPost2010Prop49
280
     0
102
RTVSPost2010PropOp49
 70
     1
102
RTVSPost2010Prop50
 90
       50
102
RTVSPost2010PropOp50
 70
     1
102
RTVSPost2010Prop51ColorIndex
 90
      256
102
RTVSPost2010Prop51ColorRGB
 90
-16777216
102
RTVSPost2010PropOp51
 70
     0
102
RTVSPost2010Prop52
140
1.0
102
RTVSPost2010PropOp52
 70
     0
102
RTVSPost2010Prop53
 90
        2
102
RTVSPost2010PropOp53
 70
     1
102
RTVSPost2010Prop54
  1
strokes_ogs.tif
102
RTVSPost2010PropOp54
 70
     1
102
RTVSPost2010Prop55
280
     0
102
RTVSPost2010PropOp55
 70
     1
102
RTVSPost2010Prop56
140
1.0
102
RTVSPost2010PropOp56
 70
     1
102
RTVSPost2010Prop57
140
1.0
102
RTVSPost2010PropOp57
 70
     1
102
RTVSPropertyOp0
 70
     1
102
RTVSPropertyOp1
 70
     1
102
RTVSPropertyOp2
 70
     1
102
RTVSPropertyOp3
 70
     1
102
RTVSPropertyOp4
 70
     1
102
RTVSPropertyOp5
 70
     1
102
RTVSPropertyOp6
 70
     1
102
RTVSPropertyOp7
 70
     1
102
RTVSPropertyOp8
 70
     1
102
RTVSPropertyOp9
 70
     1
102
RTVSPropertyOp10
 70
     1
102
RTVSPropertyOp11
 70
     1
102
RTVSPropertyOp12
 70
     1
102
RTVSPropertyOp13
 70
     1
102
RTVSPropertyOp14
 70
     1
102
RTVSPropertyOp15
 70
     1
102
RTVSPropertyOp16
 70
     1
102
RTVSPropertyOp17
 70
     1
102
RTVSPropertyOp18
 70
     1
102
RTVSPropertyOp19
 70
     1
102
RTVSPropertyOp20
 70
     1
102
RTVSPropertyOp21
 70
     1
102
RTVSPropertyOp22
 70
     1
102
RTVSPropertyOp23
 70
     1
102
RTVSPropertyOp24
 70
     1
102
RTVSPropertyOp25
 70
     1
102
RTVSPropertyOp26
 70
     1
102
RTVSPropertyOp27
 70
     1
102
RTVSPropertyOp28
 70
     1
102
RTVSPropertyOp29
 70
     1
102
RTVSPropertyOp30
 70
     1
102
RTVSPropertyOp31
 70
     1
102
RTVSPropertyOp32
 70
     1
102
RTVSPropertyOp33
 70
     1
102
RTVSPropertyOp34
 70
     1
102
RTVSPropertyOp35
 70
     1
102
RTVSPropertyOp36
 70
     1
102
RTVSPropertyOp37
 70
     1
102
RTVSPropertyOp38
 70
     1
102
RTVSPropertyOp39
 70
     1
102
RTVSPropertyOp40
 70
     1
102
RTVSPropertyOp41
 70
     1
102
RTVSPropertyOp42
 70
     1
102
RTVSPropertyOp43
 70
     1
102
RTVSPropertyOp44
 70
     1
102
RTVSPropertyOp45
 70
     1
102
RTVSPropertyOp46
 70
     1
102
RTVSPropertyOp47
 70
     1
102
RTVSPropertyOp48
 70
     1
102
RTVSPropertyOp49
 70
     1
102
RTVSPropertyOp50
 70
     1
102
RTVSPropertyOp51
 70
     0
102
RTVSPropertyOp52
 70
     0
102
RTVSPropertyOp53
 70
     1
102
RTVSPropertyOp54
 70
     1
102
RTVSPropertyOp55
 70
     1
102
RTVSPropertyOp56
 70
     1
102
RTVSPropertyOp57
 70
     1
102
RTVSPropertyOp58
 70
     1
102
RTVSPropertyOp59
 70
     1
102
RTVSPropertyOp60
 70
     1
102
RTVSPropertyOp61
 70
     1
102
RTVSPropertyOp62
 70
     1
  0
XRECORD
  5
3279
102
{ACAD_REACTORS
330
3278
102
}
330
3278
100
AcDbXrecord
280
     1
102
RTVSPost2010Prop28
280
     0
102
RTVSPost2010PropOp28
 70
     1
102
RTVSPost2010Prop29
280
     1
102
RTVSPost2010PropOp29
 70
     1
102
RTVSPost2010Prop30
280
     1
102
RTVSPost2010PropOp30
 70
     1
102
RTVSPost2010Prop31
280
     0
102
RTVSPost2010PropOp31
 70
     1
102
RTVSPost2010Prop32
280
     0
102
RTVSPost2010PropOp32
 70
     1
102
RTVSPost2010Prop33
280
     0
102
RTVSPost2010PropOp33
 70
     1
102
RTVSPost2010Prop34
280
     0
102
RTVSPost2010PropOp34
 70
     1
102
RTVSPost2010Prop35
280
     0
102
RTVSPost2010PropOp35
 70
     1
102
RTVSPost2010Prop36
280
     0
102
RTVSPost2010PropOp36
 70
     1
102
RTVSPost2010Prop37
 90
       50
102
RTVSPost2010PropOp37
 70
     1
102
RTVSPost2010Prop38
140
0.0
102
RTVSPost2010PropOp38
 70
     1
102
RTVSPost2010Prop39
140
1.0
102
RTVSPost2010PropOp39
 70
     1
102
RTVSPost2010Prop40
 90
        0
102
RTVSPost2010PropOp40
 70
     1
102
RTVSPost2010Prop41ColorIndex
 90
       18
102
RTVSPost2010Prop41ColorRGB
 90
        0
102
RTVSPost2010PropOp41
 70
     1
102
RTVSPost2010Prop42
 90
       50
102
RTVSPost2010PropOp42
 70
     1
102
RTVSPost2010Prop43
 90
        3
102
RTVSPost2010PropOp43
 70
     1
102
RTVSPost2010Prop44ColorIndex
 90
        5
102
RTVSPost2010Prop44ColorRGB
 90
      255
102
RTVSPost2010PropOp44
 70
     1
102
RTVSPost2010Prop45
280
     0
102
RTVSPost2010PropOp45
 70
     1
102
RTVSPost2010Prop46
 90
       50
102
RTVSPost2010PropOp46
 70
     1
102
RTVSPost2010Prop47
 90
       50
102
RTVSPost2010PropOp47
 70
     1
102
RTVSPost2010Prop48
 90
       50
102
RTVSPost2010PropOp48
 70
     1
102
RTVSPost2010Prop49
280
     0
102
RTVSPost2010PropOp49
 70
     1
102
RTVSPost2010Prop50
 90
       50
102
RTVSPost2010PropOp50
 70
     1
102
RTVSPost2010Prop51ColorIndex
 90
      256
102
RTVSPost2010Prop51ColorRGB
 90
-16777216
102
RTVSPost2010PropOp51
 70
     0
102
RTVSPost2010Prop52
140
1.0
102
RTVSPost2010PropOp52
 70
     0
102
RTVSPost2010Prop53
 90
        2
102
RTVSPost2010PropOp53
 70
     1
102
RTVSPost2010Prop54
  1
strokes_ogs.tif
102
RTVSPost2010PropOp54
 70
     1
102
RTVSPost2010Prop55
280
     0
102
RTVSPost2010PropOp55
 70
     1
102
RTVSPost2010Prop56
140
1.0
102
RTVSPost2010PropOp56
 70
     1
102
RTVSPost2010Prop57
140
1.0
102
RTVSPost2010PropOp57
 70
     1
102
RTVSPropertyOp0
 70
     1
102
RTVSPropertyOp1
 70
     1
102
RTVSPropertyOp2
 70
     1
102
RTVSPropertyOp3
 70
     1
102
RTVSPropertyOp4
 70
     1
102
RTVSPropertyOp5
 70
     1
102
RTVSPropertyOp6
 70
     1
102
RTVSPropertyOp7
 70
     1
102
RTVSPropertyOp8
 70
     1
102
RTVSPropertyOp9
 70
     1
102
RTVSPropertyOp10
 70
     1
102
RTVSPropertyOp11
 70
     1
102
RTVSPropertyOp12
 70
     1
102
RTVSPropertyOp13
 70
     1
102
RTVSPropertyOp14
 70
     1
102
RTVSPropertyOp15
 70
     1
102
RTVSPropertyOp16
 70
     1
102
RTVSPropertyOp17
 70
     1
102
RTVSPropertyOp18
 70
     1
102
RTVSPropertyOp19
 70
     1
102
RTVSPropertyOp20
 70
     1
102
RTVSPropertyOp21
 70
     1
102
RTVSPropertyOp22
 70
     1
102
RTVSPropertyOp23
 70
     1
102
RTVSPropertyOp24
 70
     1
102
RTVSPropertyOp25
 70
     1
102
RTVSPropertyOp26
 70
     1
102
RTVSPropertyOp27
 70
     1
102
RTVSPropertyOp28
 70
     1
102
RTVSPropertyOp29
 70
     1
102
RTVSPropertyOp30
 70
     1
102
RTVSPropertyOp31
 70
     1
102
RTVSPropertyOp32
 70
     1
102
RTVSPropertyOp33
 70
     1
102
RTVSPropertyOp34
 70
     1
102
RTVSPropertyOp35
 70
     1
102
RTVSPropertyOp36
 70
     1
102
RTVSPropertyOp37
 70
     1
102
RTVSPropertyOp38
 70
     1
102
RTVSPropertyOp39
 70
     1
102
RTVSPropertyOp40
 70
     1
102
RTVSPropertyOp41
 70
     1
102
RTVSPropertyOp42
 70
     1
102
RTVSPropertyOp43
 70
     1
102
RTVSPropertyOp44
 70
     1
102
RTVSPropertyOp45
 70
     1
102
RTVSPropertyOp46
 70
     1
102
RTVSPropertyOp47
 70
     1
102
RTVSPropertyOp48
 70
     1
102
RTVSPropertyOp49
 70
     1
102
RTVSPropertyOp50
 70
     1
102
RTVSPropertyOp51
 70
     0
102
RTVSPropertyOp52
 70
     0
102
RTVSPropertyOp53
 70
     1
102
RTVSPropertyOp54
 70
     1
102
RTVSPropertyOp55
 70
     1
102
RTVSPropertyOp56
 70
     1
102
RTVSPropertyOp57
 70
     1
102
RTVSPropertyOp58
 70
     1
102
RTVSPropertyOp59
 70
     1
102
RTVSPropertyOp60
 70
     1
102
RTVSPropertyOp61
 70
     1
102
RTVSPropertyOp62
 70
     1
  0
XRECORD
  5
3273
102
{ACAD_REACTORS
330
3272
102
}
330
3272
100
AcDbXrecord
280
     1
102
RTVSPost2010Prop28
280
     0
102
RTVSPost2010PropOp28
 70
     1
102
RTVSPost2010Prop29
280
     1
102
RTVSPost2010PropOp29
 70
     1
102
RTVSPost2010Prop30
280
     1
102
RTVSPost2010PropOp30
 70
     1
102
RTVSPost2010Prop31
280
     0
102
RTVSPost2010PropOp31
 70
     1
102
RTVSPost2010Prop32
280
     0
102
RTVSPost2010PropOp32
 70
     1
102
RTVSPost2010Prop33
280
     0
102
RTVSPost2010PropOp33
 70
     1
102
RTVSPost2010Prop34
280
     0
102
RTVSPost2010PropOp34
 70
     1
102
RTVSPost2010Prop35
280
     0
102
RTVSPost2010PropOp35
 70
     1
102
RTVSPost2010Prop36
280
     0
102
RTVSPost2010PropOp36
 70
     1
102
RTVSPost2010Prop37
 90
       50
102
RTVSPost2010PropOp37
 70
     1
102
RTVSPost2010Prop38
140
0.0
102
RTVSPost2010PropOp38
 70
     1
102
RTVSPost2010Prop39
140
1.0
102
RTVSPost2010PropOp39
 70
     1
102
RTVSPost2010Prop40
 90
        0
102
RTVSPost2010PropOp40
 70
     1
102
RTVSPost2010Prop41ColorIndex
 90
       18
102
RTVSPost2010Prop41ColorRGB
 90
        0
102
RTVSPost2010PropOp41
 70
     1
102
RTVSPost2010Prop42
 90
       50
102
RTVSPost2010PropOp42
 70
     1
102
RTVSPost2010Prop43
 90
        3
102
RTVSPost2010PropOp43
 70
     1
102
RTVSPost2010Prop44ColorIndex
 90
        5
102
RTVSPost2010Prop44ColorRGB
 90
      255
102
RTVSPost2010PropOp44
 70
     1
102
RTVSPost2010Prop45
280
     0
102
RTVSPost2010PropOp45
 70
     1
102
RTVSPost2010Prop46
 90
       50
102
RTVSPost2010PropOp46
 70
     1
102
RTVSPost2010Prop47
 90
       50
102
RTVSPost2010PropOp47
 70
     1
102
RTVSPost2010Prop48
 90
       50
102
RTVSPost2010PropOp48
 70
     1
102
RTVSPost2010Prop49
280
     0
102
RTVSPost2010PropOp49
 70
     1
102
RTVSPost2010Prop50
 90
       50
102
RTVSPost2010PropOp50
 70
     1
102
RTVSPost2010Prop51ColorIndex
 90
      256
102
RTVSPost2010Prop51ColorRGB
 90
-16777216
102
RTVSPost2010PropOp51
 70
     0
102
RTVSPost2010Prop52
140
1.0
102
RTVSPost2010PropOp52
 70
     0
102
RTVSPost2010Prop53
 90
        2
102
RTVSPost2010PropOp53
 70
     1
102
RTVSPost2010Prop54
  1
strokes_ogs.tif
102
RTVSPost2010PropOp54
 70
     1
102
RTVSPost2010Prop55
280
     0
102
RTVSPost2010PropOp55
 70
     1
102
RTVSPost2010Prop56
140
1.0
102
RTVSPost2010PropOp56
 70
     1
102
RTVSPost2010Prop57
140
1.0
102
RTVSPost2010PropOp57
 70
     1
102
RTVSPropertyOp0
 70
     1
102
RTVSPropertyOp1
 70
     1
102
RTVSPropertyOp2
 70
     1
102
RTVSPropertyOp3
 70
     1
102
RTVSPropertyOp4
 70
     1
102
RTVSPropertyOp5
 70
     1
102
RTVSPropertyOp6
 70
     1
102
RTVSPropertyOp7
 70
     1
102
RTVSPropertyOp8
 70
     1
102
RTVSPropertyOp9
 70
     1
102
RTVSPropertyOp10
 70
     1
102
RTVSPropertyOp11
 70
     1
102
RTVSPropertyOp12
 70
     1
102
RTVSPropertyOp13
 70
     1
102
RTVSPropertyOp14
 70
     1
102
RTVSPropertyOp15
 70
     1
102
RTVSPropertyOp16
 70
     1
102
RTVSPropertyOp17
 70
     1
102
RTVSPropertyOp18
 70
     1
102
RTVSPropertyOp19
 70
     1
102
RTVSPropertyOp20
 70
     1
102
RTVSPropertyOp21
 70
     1
102
RTVSPropertyOp22
 70
     1
102
RTVSPropertyOp23
 70
     1
102
RTVSPropertyOp24
 70
     1
102
RTVSPropertyOp25
 70
     1
102
RTVSPropertyOp26
 70
     1
102
RTVSPropertyOp27
 70
     1
102
RTVSPropertyOp28
 70
     1
102
RTVSPropertyOp29
 70
     1
102
RTVSPropertyOp30
 70
     1
102
RTVSPropertyOp31
 70
     1
102
RTVSPropertyOp32
 70
     1
102
RTVSPropertyOp33
 70
     1
102
RTVSPropertyOp34
 70
     1
102
RTVSPropertyOp35
 70
     1
102
RTVSPropertyOp36
 70
     1
102
RTVSPropertyOp37
 70
     1
102
RTVSPropertyOp38
 70
     1
102
RTVSPropertyOp39
 70
     1
102
RTVSPropertyOp40
 70
     1
102
RTVSPropertyOp41
 70
     1
102
RTVSPropertyOp42
 70
     1
102
RTVSPropertyOp43
 70
     1
102
RTVSPropertyOp44
 70
     1
102
RTVSPropertyOp45
 70
     1
102
RTVSPropertyOp46
 70
     1
102
RTVSPropertyOp47
 70
     1
102
RTVSPropertyOp48
 70
     1
102
RTVSPropertyOp49
 70
     1
102
RTVSPropertyOp50
 70
     1
102
RTVSPropertyOp51
 70
     0
102
RTVSPropertyOp52
 70
     0
102
RTVSPropertyOp53
 70
     1
102
RTVSPropertyOp54
 70
     1
102
RTVSPropertyOp55
 70
     1
102
RTVSPropertyOp56
 70
     1
102
RTVSPropertyOp57
 70
     1
102
RTVSPropertyOp58
 70
     1
102
RTVSPropertyOp59
 70
     1
102
RTVSPropertyOp60
 70
     1
102
RTVSPropertyOp61
 70
     1
102
RTVSPropertyOp62
 70
     1
  0
XRECORD
  5
3275
102
{ACAD_REACTORS
330
3274
102
}
330
3274
100
AcDbXrecord
280
     1
102
RTVSPost2010Prop28
280
     0
102
RTVSPost2010PropOp28
 70
     1
102
RTVSPost2010Prop29
280
     1
102
RTVSPost2010PropOp29
 70
     1
102
RTVSPost2010Prop30
280
     1
102
RTVSPost2010PropOp30
 70
     1
102
RTVSPost2010Prop31
280
     0
102
RTVSPost2010PropOp31
 70
     1
102
RTVSPost2010Prop32
280
     0
102
RTVSPost2010PropOp32
 70
     1
102
RTVSPost2010Prop33
280
     0
102
RTVSPost2010PropOp33
 70
     1
102
RTVSPost2010Prop34
280
     0
102
RTVSPost2010PropOp34
 70
     1
102
RTVSPost2010Prop35
280
     0
102
RTVSPost2010PropOp35
 70
     1
102
RTVSPost2010Prop36
280
     0
102
RTVSPost2010PropOp36
 70
     1
102
RTVSPost2010Prop37
 90
       50
102
RTVSPost2010PropOp37
 70
     1
102
RTVSPost2010Prop38
140
0.0
102
RTVSPost2010PropOp38
 70
     1
102
RTVSPost2010Prop39
140
1.0
102
RTVSPost2010PropOp39
 70
     1
102
RTVSPost2010Prop40
 90
        0
102
RTVSPost2010PropOp40
 70
     1
102
RTVSPost2010Prop41ColorIndex
 90
       18
102
RTVSPost2010Prop41ColorRGB
 90
        0
102
RTVSPost2010PropOp41
 70
     1
102
RTVSPost2010Prop42
 90
       50
102
RTVSPost2010PropOp42
 70
     1
102
RTVSPost2010Prop43
 90
        3
102
RTVSPost2010PropOp43
 70
     1
102
RTVSPost2010Prop44ColorIndex
 90
        5
102
RTVSPost2010Prop44ColorRGB
 90
      255
102
RTVSPost2010PropOp44
 70
     1
102
RTVSPost2010Prop45
280
     0
102
RTVSPost2010PropOp45
 70
     1
102
RTVSPost2010Prop46
 90
       50
102
RTVSPost2010PropOp46
 70
     1
102
RTVSPost2010Prop47
 90
       50
102
RTVSPost2010PropOp47
 70
     1
102
RTVSPost2010Prop48
 90
       50
102
RTVSPost2010PropOp48
 70
     1
102
RTVSPost2010Prop49
280
     0
102
RTVSPost2010PropOp49
 70
     1
102
RTVSPost2010Prop50
 90
       50
102
RTVSPost2010PropOp50
 70
     1
102
RTVSPost2010Prop51ColorIndex
 90
      256
102
RTVSPost2010Prop51ColorRGB
 90
-16777216
102
RTVSPost2010PropOp51
 70
     0
102
RTVSPost2010Prop52
140
1.0
102
RTVSPost2010PropOp52
 70
     0
102
RTVSPost2010Prop53
 90
        2
102
RTVSPost2010PropOp53
 70
     1
102
RTVSPost2010Prop54
  1
strokes_ogs.tif
102
RTVSPost2010PropOp54
 70
     1
102
RTVSPost2010Prop55
280
     0
102
RTVSPost2010PropOp55
 70
     1
102
RTVSPost2010Prop56
140
1.0
102
RTVSPost2010PropOp56
 70
     1
102
RTVSPost2010Prop57
140
1.0
102
RTVSPost2010PropOp57
 70
     1
102
RTVSPropertyOp0
 70
     1
102
RTVSPropertyOp1
 70
     1
102
RTVSPropertyOp2
 70
     1
102
RTVSPropertyOp3
 70
     1
102
RTVSPropertyOp4
 70
     1
102
RTVSPropertyOp5
 70
     1
102
RTVSPropertyOp6
 70
     1
102
RTVSPropertyOp7
 70
     1
102
RTVSPropertyOp8
 70
     1
102
RTVSPropertyOp9
 70
     1
102
RTVSPropertyOp10
 70
     1
102
RTVSPropertyOp11
 70
     1
102
RTVSPropertyOp12
 70
     1
102
RTVSPropertyOp13
 70
     1
102
RTVSPropertyOp14
 70
     1
102
RTVSPropertyOp15
 70
     1
102
RTVSPropertyOp16
 70
     1
102
RTVSPropertyOp17
 70
     1
102
RTVSPropertyOp18
 70
     1
102
RTVSPropertyOp19
 70
     1
102
RTVSPropertyOp20
 70
     1
102
RTVSPropertyOp21
 70
     1
102
RTVSPropertyOp22
 70
     1
102
RTVSPropertyOp23
 70
     1
102
RTVSPropertyOp24
 70
     1
102
RTVSPropertyOp25
 70
     1
102
RTVSPropertyOp26
 70
     1
102
RTVSPropertyOp27
 70
     1
102
RTVSPropertyOp28
 70
     1
102
RTVSPropertyOp29
 70
     1
102
RTVSPropertyOp30
 70
     1
102
RTVSPropertyOp31
 70
     1
102
RTVSPropertyOp32
 70
     1
102
RTVSPropertyOp33
 70
     1
102
RTVSPropertyOp34
 70
     1
102
RTVSPropertyOp35
 70
     1
102
RTVSPropertyOp36
 70
     1
102
RTVSPropertyOp37
 70
     1
102
RTVSPropertyOp38
 70
     1
102
RTVSPropertyOp39
 70
     1
102
RTVSPropertyOp40
 70
     1
102
RTVSPropertyOp41
 70
     1
102
RTVSPropertyOp42
 70
     1
102
RTVSPropertyOp43
 70
     1
102
RTVSPropertyOp44
 70
     1
102
RTVSPropertyOp45
 70
     1
102
RTVSPropertyOp46
 70
     1
102
RTVSPropertyOp47
 70
     1
102
RTVSPropertyOp48
 70
     1
102
RTVSPropertyOp49
 70
     1
102
RTVSPropertyOp50
 70
     1
102
RTVSPropertyOp51
 70
     0
102
RTVSPropertyOp52
 70
     0
102
RTVSPropertyOp53
 70
     1
102
RTVSPropertyOp54
 70
     1
102
RTVSPropertyOp55
 70
     1
102
RTVSPropertyOp56
 70
     1
102
RTVSPropertyOp57
 70
     1
102
RTVSPropertyOp58
 70
     1
102
RTVSPropertyOp59
 70
     1
102
RTVSPropertyOp60
 70
     1
102
RTVSPropertyOp61
 70
     1
102
RTVSPropertyOp62
 70
     1
  0
XRECORD
  5
3263
102
{ACAD_REACTORS
330
3262
102
}
330
3262
100
AcDbXrecord
280
     1
102
RTVSPost2010Prop28
280
     0
102
RTVSPost2010PropOp28
 70
     1
102
RTVSPost2010Prop29
280
     1
102
RTVSPost2010PropOp29
 70
     1
102
RTVSPost2010Prop30
280
     1
102
RTVSPost2010PropOp30
 70
     1
102
RTVSPost2010Prop31
280
     0
102
RTVSPost2010PropOp31
 70
     1
102
RTVSPost2010Prop32
280
     0
102
RTVSPost2010PropOp32
 70
     1
102
RTVSPost2010Prop33
280
     0
102
RTVSPost2010PropOp33
 70
     1
102
RTVSPost2010Prop34
280
     0
102
RTVSPost2010PropOp34
 70
     1
102
RTVSPost2010Prop35
280
     0
102
RTVSPost2010PropOp35
 70
     1
102
RTVSPost2010Prop36
280
     0
102
RTVSPost2010PropOp36
 70
     1
102
RTVSPost2010Prop37
 90
       50
102
RTVSPost2010PropOp37
 70
     1
102
RTVSPost2010Prop38
140
0.0
102
RTVSPost2010PropOp38
 70
     1
102
RTVSPost2010Prop39
140
1.0
102
RTVSPost2010PropOp39
 70
     1
102
RTVSPost2010Prop40
 90
        0
102
RTVSPost2010PropOp40
 70
     1
102
RTVSPost2010Prop41ColorIndex
 90
       18
102
RTVSPost2010Prop41ColorRGB
 90
        0
102
RTVSPost2010PropOp41
 70
     1
102
RTVSPost2010Prop42
 90
       50
102
RTVSPost2010PropOp42
 70
     1
102
RTVSPost2010Prop43
 90
        3
102
RTVSPost2010PropOp43
 70
     1
102
RTVSPost2010Prop44ColorIndex
 90
        5
102
RTVSPost2010Prop44ColorRGB
 90
      255
102
RTVSPost2010PropOp44
 70
     1
102
RTVSPost2010Prop45
280
     0
102
RTVSPost2010PropOp45
 70
     1
102
RTVSPost2010Prop46
 90
       50
102
RTVSPost2010PropOp46
 70
     1
102
RTVSPost2010Prop47
 90
       50
102
RTVSPost2010PropOp47
 70
     1
102
RTVSPost2010Prop48
 90
       50
102
RTVSPost2010PropOp48
 70
     1
102
RTVSPost2010Prop49
280
     0
102
RTVSPost2010PropOp49
 70
     1
102
RTVSPost2010Prop50
 90
       50
102
RTVSPost2010PropOp50
 70
     1
102
RTVSPost2010Prop51ColorIndex
 90
      256
102
RTVSPost2010Prop51ColorRGB
 90
-16777216
102
RTVSPost2010PropOp51
 70
     0
102
RTVSPost2010Prop52
140
1.0
102
RTVSPost2010PropOp52
 70
     0
102
RTVSPost2010Prop53
 90
        2
102
RTVSPost2010PropOp53
 70
     1
102
RTVSPost2010Prop54
  1
strokes_ogs.tif
102
RTVSPost2010PropOp54
 70
     1
102
RTVSPost2010Prop55
280
     0
102
RTVSPost2010PropOp55
 70
     1
102
RTVSPost2010Prop56
140
1.0
102
RTVSPost2010PropOp56
 70
     1
102
RTVSPost2010Prop57
140
1.0
102
RTVSPost2010PropOp57
 70
     1
102
RTVSPropertyOp0
 70
     1
102
RTVSPropertyOp1
 70
     1
102
RTVSPropertyOp2
 70
     1
102
RTVSPropertyOp3
 70
     1
102
RTVSPropertyOp4
 70
     1
102
RTVSPropertyOp5
 70
     1
102
RTVSPropertyOp6
 70
     1
102
RTVSPropertyOp7
 70
     1
102
RTVSPropertyOp8
 70
     1
102
RTVSPropertyOp9
 70
     1
102
RTVSPropertyOp10
 70
     1
102
RTVSPropertyOp11
 70
     1
102
RTVSPropertyOp12
 70
     1
102
RTVSPropertyOp13
 70
     1
102
RTVSPropertyOp14
 70
     1
102
RTVSPropertyOp15
 70
     1
102
RTVSPropertyOp16
 70
     1
102
RTVSPropertyOp17
 70
     1
102
RTVSPropertyOp18
 70
     1
102
RTVSPropertyOp19
 70
     1
102
RTVSPropertyOp20
 70
     1
102
RTVSPropertyOp21
 70
     1
102
RTVSPropertyOp22
 70
     1
102
RTVSPropertyOp23
 70
     1
102
RTVSPropertyOp24
 70
     1
102
RTVSPropertyOp25
 70
     1
102
RTVSPropertyOp26
 70
     1
102
RTVSPropertyOp27
 70
     1
102
RTVSPropertyOp28
 70
     1
102
RTVSPropertyOp29
 70
     1
102
RTVSPropertyOp30
 70
     1
102
RTVSPropertyOp31
 70
     1
102
RTVSPropertyOp32
 70
     1
102
RTVSPropertyOp33
 70
     1
102
RTVSPropertyOp34
 70
     1
102
RTVSPropertyOp35
 70
     1
102
RTVSPropertyOp36
 70
     1
102
RTVSPropertyOp37
 70
     1
102
RTVSPropertyOp38
 70
     1
102
RTVSPropertyOp39
 70
     1
102
RTVSPropertyOp40
 70
     1
102
RTVSPropertyOp41
 70
     1
102
RTVSPropertyOp42
 70
     1
102
RTVSPropertyOp43
 70
     1
102
RTVSPropertyOp44
 70
     1
102
RTVSPropertyOp45
 70
     1
102
RTVSPropertyOp46
 70
     1
102
RTVSPropertyOp47
 70
     1
102
RTVSPropertyOp48
 70
     1
102
RTVSPropertyOp49
 70
     1
102
RTVSPropertyOp50
 70
     1
102
RTVSPropertyOp51
 70
     0
102
RTVSPropertyOp52
 70
     0
102
RTVSPropertyOp53
 70
     1
102
RTVSPropertyOp54
 70
     1
102
RTVSPropertyOp55
 70
     1
102
RTVSPropertyOp56
 70
     1
102
RTVSPropertyOp57
 70
     1
102
RTVSPropertyOp58
 70
     1
102
RTVSPropertyOp59
 70
     1
102
RTVSPropertyOp60
 70
     1
102
RTVSPropertyOp61
 70
     1
102
RTVSPropertyOp62
 70
     1
  0
XRECORD
  5
3257
102
{ACAD_REACTORS
330
3256
102
}
330
3256
100
AcDbXrecord
280
     1
102
RTVSPost2010Prop28
280
     0
102
RTVSPost2010PropOp28
 70
     1
102
RTVSPost2010Prop29
280
     1
102
RTVSPost2010PropOp29
 70
     1
102
RTVSPost2010Prop30
280
     1
102
RTVSPost2010PropOp30
 70
     1
102
RTVSPost2010Prop31
280
     0
102
RTVSPost2010PropOp31
 70
     1
102
RTVSPost2010Prop32
280
     0
102
RTVSPost2010PropOp32
 70
     1
102
RTVSPost2010Prop33
280
     0
102
RTVSPost2010PropOp33
 70
     1
102
RTVSPost2010Prop34
280
     0
102
RTVSPost2010PropOp34
 70
     1
102
RTVSPost2010Prop35
280
     0
102
RTVSPost2010PropOp35
 70
     1
102
RTVSPost2010Prop36
280
     0
102
RTVSPost2010PropOp36
 70
     1
102
RTVSPost2010Prop37
 90
       50
102
RTVSPost2010PropOp37
 70
     1
102
RTVSPost2010Prop38
140
0.0
102
RTVSPost2010PropOp38
 70
     1
102
RTVSPost2010Prop39
140
1.0
102
RTVSPost2010PropOp39
 70
     1
102
RTVSPost2010Prop40
 90
        0
102
RTVSPost2010PropOp40
 70
     1
102
RTVSPost2010Prop41ColorIndex
 90
       18
102
RTVSPost2010Prop41ColorRGB
 90
        0
102
RTVSPost2010PropOp41
 70
     1
102
RTVSPost2010Prop42
 90
       50
102
RTVSPost2010PropOp42
 70
     1
102
RTVSPost2010Prop43
 90
        3
102
RTVSPost2010PropOp43
 70
     1
102
RTVSPost2010Prop44ColorIndex
 90
        5
102
RTVSPost2010Prop44ColorRGB
 90
      255
102
RTVSPost2010PropOp44
 70
     1
102
RTVSPost2010Prop45
280
     0
102
RTVSPost2010PropOp45
 70
     1
102
RTVSPost2010Prop46
 90
       50
102
RTVSPost2010PropOp46
 70
     1
102
RTVSPost2010Prop47
 90
       50
102
RTVSPost2010PropOp47
 70
     1
102
RTVSPost2010Prop48
 90
       50
102
RTVSPost2010PropOp48
 70
     1
102
RTVSPost2010Prop49
280
     0
102
RTVSPost2010PropOp49
 70
     1
102
RTVSPost2010Prop50
 90
       50
102
RTVSPost2010PropOp50
 70
     1
102
RTVSPost2010Prop51ColorIndex
 90
      256
102
RTVSPost2010Prop51ColorRGB
 90
-16777216
102
RTVSPost2010PropOp51
 70
     0
102
RTVSPost2010Prop52
140
1.0
102
RTVSPost2010PropOp52
 70
     0
102
RTVSPost2010Prop53
 90
        2
102
RTVSPost2010PropOp53
 70
     1
102
RTVSPost2010Prop54
  1
strokes_ogs.tif
102
RTVSPost2010PropOp54
 70
     1
102
RTVSPost2010Prop55
280
     0
102
RTVSPost2010PropOp55
 70
     1
102
RTVSPost2010Prop56
140
1.0
102
RTVSPost2010PropOp56
 70
     1
102
RTVSPost2010Prop57
140
1.0
102
RTVSPost2010PropOp57
 70
     1
102
RTVSPropertyOp0
 70
     1
102
RTVSPropertyOp1
 70
     1
102
RTVSPropertyOp2
 70
     1
102
RTVSPropertyOp3
 70
     1
102
RTVSPropertyOp4
 70
     1
102
RTVSPropertyOp5
 70
     1
102
RTVSPropertyOp6
 70
     1
102
RTVSPropertyOp7
 70
     1
102
RTVSPropertyOp8
 70
     1
102
RTVSPropertyOp9
 70
     1
102
RTVSPropertyOp10
 70
     1
102
RTVSPropertyOp11
 70
     1
102
RTVSPropertyOp12
 70
     1
102
RTVSPropertyOp13
 70
     1
102
RTVSPropertyOp14
 70
     1
102
RTVSPropertyOp15
 70
     1
102
RTVSPropertyOp16
 70
     1
102
RTVSPropertyOp17
 70
     1
102
RTVSPropertyOp18
 70
     1
102
RTVSPropertyOp19
 70
     1
102
RTVSPropertyOp20
 70
     1
102
RTVSPropertyOp21
 70
     1
102
RTVSPropertyOp22
 70
     1
102
RTVSPropertyOp23
 70
     1
102
RTVSPropertyOp24
 70
     1
102
RTVSPropertyOp25
 70
     1
102
RTVSPropertyOp26
 70
     1
102
RTVSPropertyOp27
 70
     1
102
RTVSPropertyOp28
 70
     1
102
RTVSPropertyOp29
 70
     1
102
RTVSPropertyOp30
 70
     1
102
RTVSPropertyOp31
 70
     1
102
RTVSPropertyOp32
 70
     1
102
RTVSPropertyOp33
 70
     1
102
RTVSPropertyOp34
 70
     1
102
RTVSPropertyOp35
 70
     1
102
RTVSPropertyOp36
 70
     1
102
RTVSPropertyOp37
 70
     1
102
RTVSPropertyOp38
 70
     1
102
RTVSPropertyOp39
 70
     1
102
RTVSPropertyOp40
 70
     1
102
RTVSPropertyOp41
 70
     1
102
RTVSPropertyOp42
 70
     1
102
RTVSPropertyOp43
 70
     1
102
RTVSPropertyOp44
 70
     1
102
RTVSPropertyOp45
 70
     1
102
RTVSPropertyOp46
 70
     1
102
RTVSPropertyOp47
 70
     1
102
RTVSPropertyOp48
 70
     1
102
RTVSPropertyOp49
 70
     1
102
RTVSPropertyOp50
 70
     1
102
RTVSPropertyOp51
 70
     0
102
RTVSPropertyOp52
 70
     0
102
RTVSPropertyOp53
 70
     1
102
RTVSPropertyOp54
 70
     1
102
RTVSPropertyOp55
 70
     1
102
RTVSPropertyOp56
 70
     1
102
RTVSPropertyOp57
 70
     1
102
RTVSPropertyOp58
 70
     1
102
RTVSPropertyOp59
 70
     1
102
RTVSPropertyOp60
 70
     1
102
RTVSPropertyOp61
 70
     1
102
RTVSPropertyOp62
 70
     1
  0
XRECORD
  5
3277
102
{ACAD_REACTORS
330
3276
102
}
330
3276
100
AcDbXrecord
280
     1
102
RTVSPost2010Prop28
280
     0
102
RTVSPost2010PropOp28
 70
     1
102
RTVSPost2010Prop29
280
     1
102
RTVSPost2010PropOp29
 70
     1
102
RTVSPost2010Prop30
280
     1
102
RTVSPost2010PropOp30
 70
     1
102
RTVSPost2010Prop31
280
     0
102
RTVSPost2010PropOp31
 70
     1
102
RTVSPost2010Prop32
280
     0
102
RTVSPost2010PropOp32
 70
     1
102
RTVSPost2010Prop33
280
     0
102
RTVSPost2010PropOp33
 70
     1
102
RTVSPost2010Prop34
280
     0
102
RTVSPost2010PropOp34
 70
     1
102
RTVSPost2010Prop35
280
     0
102
RTVSPost2010PropOp35
 70
     1
102
RTVSPost2010Prop36
280
     0
102
RTVSPost2010PropOp36
 70
     1
102
RTVSPost2010Prop37
 90
       50
102
RTVSPost2010PropOp37
 70
     1
102
RTVSPost2010Prop38
140
0.0
102
RTVSPost2010PropOp38
 70
     1
102
RTVSPost2010Prop39
140
1.0
102
RTVSPost2010PropOp39
 70
     1
102
RTVSPost2010Prop40
 90
        0
102
RTVSPost2010PropOp40
 70
     1
102
RTVSPost2010Prop41ColorIndex
 90
       18
102
RTVSPost2010Prop41ColorRGB
 90
        0
102
RTVSPost2010PropOp41
 70
     1
102
RTVSPost2010Prop42
 90
       50
102
RTVSPost2010PropOp42
 70
     1
102
RTVSPost2010Prop43
 90
        3
102
RTVSPost2010PropOp43
 70
     1
102
RTVSPost2010Prop44ColorIndex
 90
        5
102
RTVSPost2010Prop44ColorRGB
 90
      255
102
RTVSPost2010PropOp44
 70
     1
102
RTVSPost2010Prop45
280
     0
102
RTVSPost2010PropOp45
 70
     1
102
RTVSPost2010Prop46
 90
       50
102
RTVSPost2010PropOp46
 70
     1
102
RTVSPost2010Prop47
 90
       50
102
RTVSPost2010PropOp47
 70
     1
102
RTVSPost2010Prop48
 90
       50
102
RTVSPost2010PropOp48
 70
     1
102
RTVSPost2010Prop49
280
     0
102
RTVSPost2010PropOp49
 70
     1
102
RTVSPost2010Prop50
 90
       50
102
RTVSPost2010PropOp50
 70
     1
102
RTVSPost2010Prop51ColorIndex
 90
      256
102
RTVSPost2010Prop51ColorRGB
 90
-16777216
102
RTVSPost2010PropOp51
 70
     0
102
RTVSPost2010Prop52
140
1.0
102
RTVSPost2010PropOp52
 70
     0
102
RTVSPost2010Prop53
 90
        2
102
RTVSPost2010PropOp53
 70
     1
102
RTVSPost2010Prop54
  1
strokes_ogs.tif
102
RTVSPost2010PropOp54
 70
     1
102
RTVSPost2010Prop55
280
     0
102
RTVSPost2010PropOp55
 70
     1
102
RTVSPost2010Prop56
140
1.0
102
RTVSPost2010PropOp56
 70
     1
102
RTVSPost2010Prop57
140
1.0
102
RTVSPost2010PropOp57
 70
     1
102
RTVSPropertyOp0
 70
     1
102
RTVSPropertyOp1
 70
     1
102
RTVSPropertyOp2
 70
     1
102
RTVSPropertyOp3
 70
     1
102
RTVSPropertyOp4
 70
     1
102
RTVSPropertyOp5
 70
     1
102
RTVSPropertyOp6
 70
     1
102
RTVSPropertyOp7
 70
     1
102
RTVSPropertyOp8
 70
     1
102
RTVSPropertyOp9
 70
     1
102
RTVSPropertyOp10
 70
     1
102
RTVSPropertyOp11
 70
     1
102
RTVSPropertyOp12
 70
     1
102
RTVSPropertyOp13
 70
     1
102
RTVSPropertyOp14
 70
     1
102
RTVSPropertyOp15
 70
     1
102
RTVSPropertyOp16
 70
     1
102
RTVSPropertyOp17
 70
     1
102
RTVSPropertyOp18
 70
     1
102
RTVSPropertyOp19
 70
     1
102
RTVSPropertyOp20
 70
     1
102
RTVSPropertyOp21
 70
     1
102
RTVSPropertyOp22
 70
     1
102
RTVSPropertyOp23
 70
     1
102
RTVSPropertyOp24
 70
     1
102
RTVSPropertyOp25
 70
     1
102
RTVSPropertyOp26
 70
     1
102
RTVSPropertyOp27
 70
     1
102
RTVSPropertyOp28
 70
     1
102
RTVSPropertyOp29
 70
     1
102
RTVSPropertyOp30
 70
     1
102
RTVSPropertyOp31
 70
     1
102
RTVSPropertyOp32
 70
     1
102
RTVSPropertyOp33
 70
     1
102
RTVSPropertyOp34
 70
     1
102
RTVSPropertyOp35
 70
     1
102
RTVSPropertyOp36
 70
     1
102
RTVSPropertyOp37
 70
     1
102
RTVSPropertyOp38
 70
     1
102
RTVSPropertyOp39
 70
     1
102
RTVSPropertyOp40
 70
     1
102
RTVSPropertyOp41
 70
     1
102
RTVSPropertyOp42
 70
     1
102
RTVSPropertyOp43
 70
     1
102
RTVSPropertyOp44
 70
     1
102
RTVSPropertyOp45
 70
     1
102
RTVSPropertyOp46
 70
     1
102
RTVSPropertyOp47
 70
     1
102
RTVSPropertyOp48
 70
     1
102
RTVSPropertyOp49
 70
     1
102
RTVSPropertyOp50
 70
     1
102
RTVSPropertyOp51
 70
     0
102
RTVSPropertyOp52
 70
     0
102
RTVSPropertyOp53
 70
     1
102
RTVSPropertyOp54
 70
     1
102
RTVSPropertyOp55
 70
     1
102
RTVSPropertyOp56
 70
     1
102
RTVSPropertyOp57
 70
     1
102
RTVSPropertyOp58
 70
     1
102
RTVSPropertyOp59
 70
     1
102
RTVSPropertyOp60
 70
     1
102
RTVSPropertyOp61
 70
     1
102
RTVSPropertyOp62
 70
     1
  0
ENDSEC
  0
EOF
