  0
SECTION
  2
HEADER
  9
$ACADVER
  1
AC1015
  9
$ACADMAINTVER
 70
    18
  9
$DWGCODEPAGE
  3
ANSI_1252
  9
$INSBASE
 10
0.0
 20
0.0
 30
0.0
  9
$EXTMIN
 10
-8.728636727585239
 20
-85.16271913419791
 30
-0.0015258207003583
  9
$EXTMAX
 10
22.51373342531008
 20
1.509109844580621
 30
0.0000000349246037
  9
$LIMMIN
 10
0.0
 20
0.0
  9
$LIMMAX
 10
420.0
 20
297.0
  9
$ORTHOMODE
 70
     0
  9
$REGENMODE
 70
     1
  9
$FILLMODE
 70
     1
  9
$QTEXTMODE
 70
     0
  9
$MIRRTEXT
 70
     0
  9
$LTSCALE
 40
1.0
  9
$ATTMODE
 70
     1
  9
$TEXTSIZE
 40
2.5
  9
$TRACEWID
 40
1.0
  9
$TEXTSTYLE
  7
Standard
  9
$CLAYER
  8
0
  9
$CELTYPE
  6
ByLayer
  9
$CECOLOR
 62
   256
  9
$CELTSCALE
 40
1.0
  9
$DISPSILH
 70
     0
  9
$DIMSCALE
 40
1.0
  9
$DIMASZ
 40
2.5
  9
$DIMEXO
 40
0.625
  9
$DIMDLI
 40
3.75
  9
$DIMRND
 40
0.0
  9
$DIMDLE
 40
0.0
  9
$DIMEXE
 40
1.25
  9
$DIMTP
 40
0.0
  9
$DIMTM
 40
0.0
  9
$DIMTXT
 40
2.5
  9
$DIMCEN
 40
2.5
  9
$DIMTSZ
 40
0.0
  9
$DIMTOL
 70
     0
  9
$DIMLIM
 70
     0
  9
$DIMTIH
 70
     0
  9
$DIMTOH
 70
     0
  9
$DIMSE1
 70
     0
  9
$DIMSE2
 70
     0
  9
$DIMTAD
 70
     1
  9
$DIMZIN
 70
     8
  9
$DIMBLK
  1

  9
$DIMASO
 70
     1
  9
$DIMSHO
 70
     1
  9
$DIMPOST
  1

  9
$DIMAPOST
  1

  9
$DIMALT
 70
     0
  9
$DIMALTD
 70
     3
  9
$DIMALTF
 40
0.03937007874016
  9
$DIMLFAC
 40
1.0
  9
$DIMTOFL
 70
     1
  9
$DIMTVP
 40
0.0
  9
$DIMTIX
 70
     0
  9
$DIMSOXD
 70
     0
  9
$DIMSAH
 70
     0
  9
$DIMBLK1
  1

  9
$DIMBLK2
  1

  9
$DIMSTYLE
  2
ISO-25
  9
$DIMCLRD
 70
     0
  9
$DIMCLRE
 70
     0
  9
$DIMCLRT
 70
     0
  9
$DIMTFAC
 40
1.0
  9
$DIMGAP
 40
0.625
  9
$DIMJUST
 70
     0
  9
$DIMSD1
 70
     0
  9
$DIMSD2
 70
     0
  9
$DIMTOLJ
 70
     0
  9
$DIMTZIN
 70
     8
  9
$DIMALTZ
 70
     0
  9
$DIMALTTZ
 70
     0
  9
$DIMUPT
 70
     0
  9
$DIMDEC
 70
     2
  9
$DIMTDEC
 70
     2
  9
$DIMALTU
 70
     2
  9
$DIMALTTD
 70
     3
  9
$DIMTXSTY
  7
Standard
  9
$DIMAUNIT
 70
     0
  9
$DIMADEC
 70
     0
  9
$DIMALTRND
 40
0.0
  9
$DIMAZIN
 70
     0
  9
$DIMDSEP
 70
    44
  9
$DIMATFIT
 70
     3
  9
$DIMFRAC
 70
     0
  9
$DIMLDRBLK
  1

  9
$DIMLUNIT
 70
     2
  9
$DIMLWD
 70
    -2
  9
$DIMLWE
 70
    -2
  9
$DIMTMOVE
 70
     0
  9
$LUNITS
 70
     2
  9
$LUPREC
 70
     4
  9
$SKETCHINC
 40
1.0
  9
$FILLETRAD
 40
0.0
  9
$AUNITS
 70
     0
  9
$AUPREC
 70
     0
  9
$MENU
  1
.
  9
$ELEVATION
 40
0.0
  9
$PELEVATION
 40
0.0
  9
$THICKNESS
 40
0.0
  9
$LIMCHECK
 70
     0
  9
$CHAMFERA
 40
0.0
  9
$CHAMFERB
 40
0.0
  9
$CHAMFERC
 40
0.0
  9
$CHAMFERD
 40
0.0
  9
$SKPOLY
 70
     0
  9
$TDCREATE
 40
2460693.556458334
  9
$TDUCREATE
 40
2460693.264791667
  9
$TDUPDATE
 40
2460693.607395834
  9
$TDUUPDATE
 40
2460693.315729167
  9
$TDINDWG
 40
0.0489930556
  9
$TDUSRTIMER
 40
0.0489930556
  9
$USRTIMER
 70
     1
  9
$ANGBASE
 50
0.0
  9
$ANGDIR
 70
     0
  9
$PDMODE
 70
     0
  9
$PDSIZE
 40
0.0
  9
$PLINEWID
 40
0.0
  9
$SPLFRAME
 70
     0
  9
$SPLINETYPE
 70
     6
  9
$SPLINESEGS
 70
     8
  9
$HANDSEED
  5
2E02
  9
$SURFTAB1
 70
     6
  9
$SURFTAB2
 70
     6
  9
$SURFTYPE
 70
     6
  9
$SURFU
 70
     6
  9
$SURFV
 70
     6
  9
$UCSBASE
  2

  9
$UCSNAME
  2

  9
$UCSORG
 10
0.0
 20
0.0
 30
0.0
  9
$UCSXDIR
 10
1.0
 20
0.0
 30
0.0
  9
$UCSYDIR
 10
0.0
 20
1.0
 30
0.0
  9
$UCSORTHOREF
  2

  9
$UCSORTHOVIEW
 70
     0
  9
$UCSORGTOP
 10
0.0
 20
0.0
 30
0.0
  9
$UCSORGBOTTOM
 10
0.0
 20
0.0
 30
0.0
  9
$UCSORGLEFT
 10
0.0
 20
0.0
 30
0.0
  9
$UCSORGRIGHT
 10
0.0
 20
0.0
 30
0.0
  9
$UCSORGFRONT
 10
0.0
 20
0.0
 30
0.0
  9
$UCSORGBACK
 10
0.0
 20
0.0
 30
0.0
  9
$PUCSBASE
  2

  9
$PUCSNAME
  2

  9
$PUCSORG
 10
0.0
 20
0.0
 30
0.0
  9
$PUCSXDIR
 10
1.0
 20
0.0
 30
0.0
  9
$PUCSYDIR
 10
0.0
 20
1.0
 30
0.0
  9
$PUCSORTHOREF
  2

  9
$PUCSORTHOVIEW
 70
     0
  9
$PUCSORGTOP
 10
0.0
 20
0.0
 30
0.0
  9
$PUCSORGBOTTOM
 10
0.0
 20
0.0
 30
0.0
  9
$PUCSORGLEFT
 10
0.0
 20
0.0
 30
0.0
  9
$PUCSORGRIGHT
 10
0.0
 20
0.0
 30
0.0
  9
$PUCSORGFRONT
 10
0.0
 20
0.0
 30
0.0
  9
$PUCSORGBACK
 10
0.0
 20
0.0
 30
0.0
  9
$USERI1
 70
     0
  9
$USERI2
 70
     0
  9
$USERI3
 70
     0
  9
$USERI4
 70
     0
  9
$USERI5
 70
     0
  9
$USERR1
 40
0.0
  9
$USERR2
 40
0.0
  9
$USERR3
 40
0.0
  9
$USERR4
 40
0.0
  9
$USERR5
 40
0.0
  9
$WORLDVIEW
 70
     1
  9
$SHADEDGE
 70
     3
  9
$SHADEDIF
 70
    70
  9
$TILEMODE
 70
     1
  9
$MAXACTVP
 70
    48
  9
$PINSBASE
 10
0.0
 20
0.0
 30
0.0
  9
$PLIMCHECK
 70
     0
  9
$PEXTMIN
 10
0.0
 20
0.0
 30
0.0
  9
$PEXTMAX
 10
0.0
 20
0.0
 30
0.0
  9
$PLIMMIN
 10
0.0
 20
0.0
  9
$PLIMMAX
 10
12.0
 20
9.0
  9
$UNITMODE
 70
     0
  9
$VISRETAIN
 70
     1
  9
$PLINEGEN
 70
     0
  9
$PSLTSCALE
 70
     1
  9
$TREEDEPTH
 70
  3020
  9
$CMLSTYLE
  2
Standard
  9
$CMLJUST
 70
     0
  9
$CMLSCALE
 40
20.0
  9
$PROXYGRAPHICS
 70
     1
  9
$MEASUREMENT
 70
     1
  9
$CELWEIGHT
370
    -1
  9
$ENDCAPS
280
     0
  9
$JOINSTYLE
280
     0
  9
$LWDISPLAY
290
     0
  9
$INSUNITS
 70
     4
  9
$HYPERLINKBASE
  1

  9
$STYLESHEET
  1

  9
$XEDIT
290
     1
  9
$CEPSNTYPE
380
     0
  9
$PSTYLEMODE
290
     1
  9
$FINGERPRINTGUID
  2
{6BB7EA54-E3A6-D244-889C-0863075C46A9}
  9
$VERSIONGUID
  2
{8419ECDE-32F7-F649-A47A-AE0C8C881D93}
  9
$EXTNAMES
290
     1
  9
$PSVPSCALE
 40
0.0
  9
$OLESTARTUP
290
     0
  0
ENDSEC
  0
SECTION
  2
CLASSES
  0
CLASS
  1
ACDBDICTIONARYWDFLT
  2
AcDbDictionaryWithDefault
  3
ObjectDBX Classes
 90
        0
280
     0
281
     0
  0
CLASS
  1
ACDBPLACEHOLDER
  2
AcDbPlaceHolder
  3
ObjectDBX Classes
 90
        0
280
     0
281
     0
  0
CLASS
  1
LAYOUT
  2
AcDbLayout
  3
ObjectDBX Classes
 90
        0
280
     0
281
     0
  0
CLASS
  1
DICTIONARYVAR
  2
AcDbDictionaryVar
  3
ObjectDBX Classes
 90
        0
280
     0
281
     0
  0
CLASS
  1
TABLESTYLE
  2
AcDbTableStyle
  3
ObjectDBX Classes
 90
     4095
280
     0
281
     0
  0
CLASS
  1
MATERIAL
  2
AcDbMaterial
  3
ObjectDBX Classes
 90
     1153
280
     0
281
     0
  0
CLASS
  1
VISUALSTYLE
  2
AcDbVisualStyle
  3
ObjectDBX Classes
 90
     4095
280
     0
281
     0
  0
CLASS
  1
SCALE
  2
AcDbScale
  3
ObjectDBX Classes
 90
     1153
280
     0
281
     0
  0
CLASS
  1
MLEADERSTYLE
  2
AcDbMLeaderStyle
  3
ACDB_MLEADERSTYLE_CLASS
 90
     4095
280
     0
281
     0
  0
CLASS
  1
CELLSTYLEMAP
  2
AcDbCellStyleMap
  3
ObjectDBX Classes
 90
     1152
280
     0
281
     0
  0
CLASS
  1
EXACXREFPANELOBJECT
  2
ExAcXREFPanelObject
  3
EXAC_ESW
 90
    33793
280
     0
281
     0
  0
CLASS
  1
NPOCOLLECTION
  2
AcDbImpNonPersistentObjectsCollection
  3
ObjectDBX Classes
 90
    33921
280
     0
281
     0
  0
CLASS
  1
LAYER_INDEX
  2
AcDbLayerIndex
  3
ObjectDBX Classes
 90
    32768
280
     0
281
     0
  0
CLASS
  1
SPATIAL_INDEX
  2
AcDbSpatialIndex
  3
ObjectDBX Classes
 90
    32768
280
     0
281
     0
  0
CLASS
  1
IDBUFFER
  2
AcDbIdBuffer
  3
ObjectDBX Classes
 90
    32768
280
     0
281
     0
  0
CLASS
  1
ACDBSECTIONVIEWSTYLE
  2
AcDbSectionViewStyle
  3
ObjectDBX Classes
 90
     1025
280
     0
281
     0
  0
CLASS
  1
ACDBDETAILVIEWSTYLE
  2
AcDbDetailViewStyle
  3
ObjectDBX Classes
 90
     1025
280
     0
281
     0
  0
CLASS
  1
XRECORD
  2
AcDbXrecord
  3
ObjectDBX Classes
 90
        0
280
     0
281
     0
  0
ENDSEC
  0
SECTION
  2
TABLES
  0
TABLE
  2
VPORT
  5
8
102
{ACAD_XDICTIONARY
360
2D0E
102
}
330
0
100
AcDbSymbolTable
 70
     1
  0
VPORT
  5
EA
330
8
100
AcDbSymbolTableRecord
100
AcDbViewportTableRecord
  2
*Active
 70
     0
 10
0.0
 20
0.0
 11
1.0
 21
1.0
 12
6.892548348862415
 22
-41.82680464480864
 13
0.0
 23
0.0
 14
10.0
 24
10.0
 15
10.0
 25
10.0
 16
0.0
 26
0.0
 36
1.0
 17
0.0
 27
0.0
 37
0.0
 40
92.16763563038782
 41
0.9846153846153844
 42
50.0
 43
0.0
 44
0.0
 50
0.0
 51
0.0
 71
     0
 72
  1000
 73
     1
 74
     3
 75
     0
 76
     1
 77
     0
 78
     0
281
     0
 65
     1
110
0.0
120
0.0
130
0.0
111
1.0
121
0.0
131
0.0
112
0.0
122
1.0
132
0.0
 79
     0
146
0.0
1001
ACAD_NAV_VCDISPLAY
1070
     3
  0
ENDTAB
  0
TABLE
  2
LTYPE
  5
5
330
0
100
AcDbSymbolTable
 70
     1
  0
LTYPE
  5
14
330
5
100
AcDbSymbolTableRecord
100
AcDbLinetypeTableRecord
  2
ByBlock
 70
     0
  3

 72
    65
 73
     0
 40
0.0
  0
LTYPE
  5
15
330
5
100
AcDbSymbolTableRecord
100
AcDbLinetypeTableRecord
  2
ByLayer
 70
     0
  3

 72
    65
 73
     0
 40
0.0
  0
LTYPE
  5
16
330
5
100
AcDbSymbolTableRecord
100
AcDbLinetypeTableRecord
  2
Continuous
 70
     0
  3
Solid line
 72
    65
 73
     0
 40
0.0
  0
ENDTAB
  0
TABLE
  2
LAYER
  5
2
102
{ACAD_XDICTIONARY
360
1FF
102
}
330
0
100
AcDbSymbolTable
 70
     1
  0
LAYER
  5
10
102
{ACAD_XDICTIONARY
360
13C
102
}
330
2
100
AcDbSymbolTableRecord
100
AcDbLayerTableRecord
  2
0
 70
     0
 62
     7
  6
Continuous
370
    -3
390
F
  0
ENDTAB
  0
TABLE
  2
STYLE
  5
3
330
0
100
AcDbSymbolTable
 70
     1
  0
STYLE
  5
11
330
3
100
AcDbSymbolTableRecord
100
AcDbTextStyleTableRecord
  2
Standard
 70
     0
 40
0.0
 41
1.0
 50
0.0
 71
     0
 42
2.5
  3
arial.ttf
  4

1001
ACAD
1000
Arial
1071
       34
  0
ENDTAB
  0
TABLE
  2
VIEW
  5
6
330
0
100
AcDbSymbolTable
 70
     0
  0
ENDTAB
  0
TABLE
  2
UCS
  5
7
330
0
100
AcDbSymbolTable
 70
     0
  0
ENDTAB
  0
TABLE
  2
APPID
  5
9
330
0
100
AcDbSymbolTable
 70
     8
  0
APPID
  5
12
330
9
100
AcDbSymbolTableRecord
100
AcDbRegAppTableRecord
  2
ACAD
 70
     0
  0
APPID
  5
9E
330
9
100
AcDbSymbolTableRecord
100
AcDbRegAppTableRecord
  2
ACAD_PSEXT
 70
     0
  0
APPID
  5
133
330
9
100
AcDbSymbolTableRecord
100
AcDbRegAppTableRecord
  2
AcadAnnoPO
 70
     0
  0
APPID
  5
134
330
9
100
AcDbSymbolTableRecord
100
AcDbRegAppTableRecord
  2
AcadAnnotative
 70
     0
  0
APPID
  5
135
330
9
100
AcDbSymbolTableRecord
100
AcDbRegAppTableRecord
  2
ACAD_DSTYLE_DIMJAG
 70
     0
  0
APPID
  5
136
330
9
100
AcDbSymbolTableRecord
100
AcDbRegAppTableRecord
  2
ACAD_DSTYLE_DIMTALN
 70
     0
  0
APPID
  5
165
330
9
100
AcDbSymbolTableRecord
100
AcDbRegAppTableRecord
  2
ACAD_MLEADERVER
 70
     0
  0
APPID
  5
217
330
9
100
AcDbSymbolTableRecord
100
AcDbRegAppTableRecord
  2
ACAD_NAV_VCDISPLAY
 70
     0
  0
ENDTAB
  0
TABLE
  2
DIMSTYLE
  5
A
330
0
100
AcDbSymbolTable
 70
     1
100
AcDbDimStyleTable
 71
     0
  0
DIMSTYLE
105
27
330
A
100
AcDbSymbolTableRecord
100
AcDbDimStyleTableRecord
  2
ISO-25
 70
     0
 41
2.5
 42
0.625
 43
3.75
 44
1.25
 73
     0
 74
     0
 77
     1
 78
     8
140
2.5
141
2.5
143
0.03937007874016
147
0.625
171
     3
172
     1
271
     2
272
     2
274
     3
278
    44
283
     0
284
     8
340
11
  0
ENDTAB
  0
TABLE
  2
BLOCK_RECORD
  5
1
330
0
100
AcDbSymbolTable
 70
     4
  0
BLOCK_RECORD
  5
1F
102
{ACAD_XDICTIONARY
360
1CE
102
}
330
1
100
AcDbSymbolTableRecord
100
AcDbBlockTableRecord
  2
*Model_Space
340
22
  0
BLOCK_RECORD
  5
D2
102
{ACAD_XDICTIONARY
360
2CC1
102
}
330
1
100
AcDbSymbolTableRecord
100
AcDbBlockTableRecord
  2
*Paper_Space
340
D3
  0
BLOCK_RECORD
  5
D6
102
{ACAD_XDICTIONARY
360
2CC3
102
}
330
1
100
AcDbSymbolTableRecord
100
AcDbBlockTableRecord
  2
*Paper_Space0
340
D7
  0
BLOCK_RECORD
  5
28CF
330
1
100
AcDbSymbolTableRecord
100
AcDbBlockTableRecord
  2
CNA40X40G-Front
340
0
102
{BLKREFS
331
2CBA
102
}
  0
BLOCK_RECORD
  5
2B51
330
1
100
AcDbSymbolTableRecord
100
AcDbBlockTableRecord
  2
CNA40X40G-Top
340
0
102
{BLKREFS
331
2CBB
102
}
  0
BLOCK_RECORD
  5
2BAC
330
1
100
AcDbSymbolTableRecord
100
AcDbBlockTableRecord
  2
CNA40X40G-ISO
340
0
102
{BLKREFS
331
2CBC
102
}
  0
ENDTAB
  0
ENDSEC
  0
SECTION
  2
BLOCKS
  0
BLOCK
  5
20
330
1F
100
AcDbEntity
  8
0
100
AcDbBlockBegin
  2
*Model_Space
 70
     0
 10
0.0
 20
0.0
 30
0.0
  3
*Model_Space
  1

  0
ENDBLK
  5
21
330
1F
100
AcDbEntity
  8
0
100
AcDbBlockEnd
  0
BLOCK
  5
D4
330
D2
100
AcDbEntity
 67
     1
  8
0
100
AcDbBlockBegin
  2
*Paper_Space
 70
     0
 10
0.0
 20
0.0
 30
0.0
  3
*Paper_Space
  1

  0
ENDBLK
  5
D5
330
D2
100
AcDbEntity
 67
     1
  8
0
100
AcDbBlockEnd
  0
BLOCK
  5
D8
330
D6
100
AcDbEntity
 67
     1
  8
0
100
AcDbBlockBegin
  2
*Paper_Space0
 70
     0
 10
0.0
 20
0.0
 30
0.0
  3
*Paper_Space0
  1

  0
ENDBLK
  5
D9
330
D6
100
AcDbEntity
 67
     1
  8
0
100
AcDbBlockEnd
  0
BLOCK
  5
28D0
330
28CF
100
AcDbEntity
  8
0
100
AcDbBlockBegin
  2
CNA40X40G-Front
 70
     0
 10
0.0
 20
0.0
 30
0.0
  3
CNA40X40G-Front
  1

  0
LINE
  5
28D2
330
28CF
100
AcDbEntity
  8
0
100
AcDbLine
 10
-3.250000000000003
 20
1.500000000000001
 30
0.0
 11
3.250000000000015
 21
1.5
 31
0.0
  0
LINE
  5
28D3
330
28CF
100
AcDbEntity
  8
0
100
AcDbLine
 10
-0.029979246179031
 20
-38.5
 30
0.0
 11
0.0299792461790303
 21
-38.5
 31
0.0
  0
ARC
  5
28D4
330
28CF
100
AcDbEntity
  8
0
100
AcDbCircle
 10
0.0299792461790303
 20
-38.4
 30
0.0
 40
0.1000000000000007
100
AcDbArc
 50
270.0
 51
340.0000000000013
  0
LINE
  5
28D5
330
28CF
100
AcDbEntity
  8
0
100
AcDbLine
 10
0.1239485082576213
 20
-38.43420201433256
 30
0.0
 11
-0.1239485082576218
 21
-38.43420201433256
 31
0.0
  0
ARC
  5
28D6
330
28CF
100
AcDbEntity
  8
0
100
AcDbCircle
 10
-0.029979246179031
 20
-38.4
 30
0.0
 40
0.1000000000000005
100
AcDbArc
 50
199.9999999999987
 51
270.0
  0
LINE
  5
28D7
330
28CF
100
AcDbEntity
  8
0
100
AcDbLine
 10
3.000000000000015
 20
0.0
 30
0.0
 11
-3.000000000000004
 21
0.0
 31
0.0
  0
LINE
  5
28D8
330
28CF
100
AcDbEntity
  8
0
100
AcDbLine
 10
-3.500000000000004
 20
0.5000000000000011
 30
0.0
 11
3.500000000000015
 21
0.5000000000000001
 31
0.0
  0
LINE
  5
28D9
330
28CF
100
AcDbEntity
  8
0
100
AcDbLine
 10
3.500000000000015
 20
1.25
 30
0.0
 11
-3.500000000000004
 21
1.250000000000001
 31
0.0
  0
ARC
  5
28DA
330
28CF
100
AcDbEntity
  8
0
100
AcDbCircle
 10
3.000000000000015
 20
0.5000000000000002
 30
0.0
 40
0.5
100
AcDbArc
 50
270.0
 51
0.0
  0
ARC
  5
28DB
330
28CF
100
AcDbEntity
  8
0
100
AcDbCircle
 10
-3.000000000000004
 20
0.500000000000001
 30
0.0
 40
0.5
100
AcDbArc
 50
180.0
 51
270.0
  0
ARC
  5
28DC
330
28CF
100
AcDbEntity
  8
0
100
AcDbCircle
 10
3.250000000000015
 20
1.25
 30
0.0
 40
0.25
100
AcDbArc
 50
0.0
 51
90.0
  0
ARC
  5
28DD
330
28CF
100
AcDbEntity
  8
0
100
AcDbCircle
 10
-3.250000000000003
 20
1.250000000000001
 30
0.0
 40
0.25
100
AcDbArc
 50
90.0
 51
180.0
  0
LINE
  5
28DE
330
28CF
100
AcDbEntity
  8
0
100
AcDbLine
 10
-1.555634918610405
 20
-34.50067593014824
 30
0.0
 11
-0.1239485082576217
 21
-38.43420201433256
 31
0.0
  0
LINE
  5
28DF
330
28CF
100
AcDbEntity
  8
0
100
AcDbLine
 10
-1.555634918610405
 20
-34.50067593014824
 30
0.0
 11
-2.075733183164497
 21
-33.07171769238834
 31
0.0
  0
LINE
  5
28E0
330
28CF
100
AcDbEntity
  8
0
100
AcDbLine
 10
1.555634918610404
 20
-34.50067593014824
 30
0.0
 11
0.1239485082576214
 21
-38.43420201433256
 31
0.0
  0
ELLIPSE
  5
28E1
330
28CF
100
AcDbEntity
  8
0
100
AcDbEllipse
 10
-0.0000000000000003
 20
-38.77474774194546
 30
0.0
 11
0.0
 21
-6.04445032280017
 31
0.0
210
0.0
220
0.0
230
1.0
 40
0.3639702342662022
 41
2.356194490192344
 42
2.803880253866767
  0
LINE
  5
28E2
330
28CF
100
AcDbEntity
  8
0
100
AcDbLine
 10
0.7289250663201149
 20
-33.07171769238834
 30
0.0
 11
-0.7289250663201157
 21
-33.07171769238834
 31
0.0
  0
ELLIPSE
  5
28E3
330
28CF
100
AcDbEntity
  8
0
100
AcDbEllipse
 10
-0.0000000000000003
 20
-38.77474774194546
 30
0.0
 11
0.0
 21
-6.04445032280017
 31
0.0
210
0.0
220
0.0
230
1.0
 40
0.3639702342662022
 41
3.479305053312819
 42
3.926990816987241
  0
LINE
  5
28E4
330
28CF
100
AcDbEntity
  8
0
100
AcDbLine
 10
1.75
 20
-31.82171769238834
 30
0.0
 11
-1.75
 21
-31.82171769238834
 31
0.0
  0
LINE
  5
28E5
330
28CF
100
AcDbEntity
  8
0
100
AcDbLine
 10
2.126524613390195
 20
-31.9252996189555
 30
0.0
 11
-2.126524613390195
 21
-31.9252996189555
 31
0.0
  0
LINE
  5
28E6
330
28CF
100
AcDbEntity
  8
0
100
AcDbLine
 10
2.191623175793065
 20
-32.06178256050983
 30
0.0
 11
-2.191623175793066
 21
-32.06178256050983
 31
0.0
  0
LINE
  5
28E7
330
28CF
100
AcDbEntity
  8
0
100
AcDbLine
 10
-2.075733183164497
 20
-33.07171769238834
 30
0.0
 11
-0.7289250663201161
 21
-33.07171769238834
 31
0.0
  0
LINE
  5
28E8
330
28CF
100
AcDbEntity
  8
0
100
AcDbLine
 10
0.7289250663201149
 20
-33.07171769238834
 30
0.0
 11
2.075733183164496
 21
-33.07171769238834
 31
0.0
  0
LINE
  5
28E9
330
28CF
100
AcDbEntity
  8
0
100
AcDbLine
 10
1.75
 20
-30.57171769238834
 30
0.0
 11
-1.75
 21
-30.57171769238834
 31
0.0
  0
LINE
  5
28EA
330
28CF
100
AcDbEntity
  8
0
100
AcDbLine
 10
2.126524613390195
 20
-30.6752996189555
 30
0.0
 11
-2.126524613390195
 21
-30.6752996189555
 31
0.0
  0
LINE
  5
28EB
330
28CF
100
AcDbEntity
  8
0
100
AcDbLine
 10
2.191623175793065
 20
-30.81178256050983
 30
0.0
 11
-2.191623175793066
 21
-30.81178256050983
 31
0.0
  0
LINE
  5
28EC
330
28CF
100
AcDbEntity
  8
0
100
AcDbLine
 10
1.75
 20
-29.32171769238834
 30
0.0
 11
-1.75
 21
-29.32171769238834
 31
0.0
  0
LINE
  5
28ED
330
28CF
100
AcDbEntity
  8
0
100
AcDbLine
 10
2.126524613390195
 20
-29.4252996189555
 30
0.0
 11
-2.126524613390195
 21
-29.4252996189555
 31
0.0
  0
LINE
  5
28EE
330
28CF
100
AcDbEntity
  8
0
100
AcDbLine
 10
2.191623175793065
 20
-29.56178256050984
 30
0.0
 11
-2.191623175793066
 21
-29.56178256050984
 31
0.0
  0
LINE
  5
28EF
330
28CF
100
AcDbEntity
  8
0
100
AcDbLine
 10
1.75
 20
-28.07171769238834
 30
0.0
 11
-1.75
 21
-28.07171769238834
 31
0.0
  0
LINE
  5
28F0
330
28CF
100
AcDbEntity
  8
0
100
AcDbLine
 10
2.126524613390195
 20
-28.1752996189555
 30
0.0
 11
-2.126524613390195
 21
-28.1752996189555
 31
0.0
  0
LINE
  5
28F1
330
28CF
100
AcDbEntity
  8
0
100
AcDbLine
 10
2.191623175793065
 20
-28.31178256050984
 30
0.0
 11
-2.191623175793066
 21
-28.31178256050984
 31
0.0
  0
LINE
  5
28F2
330
28CF
100
AcDbEntity
  8
0
100
AcDbLine
 10
1.75
 20
-26.82171769238834
 30
0.0
 11
-1.75
 21
-26.82171769238834
 31
0.0
  0
LINE
  5
28F3
330
28CF
100
AcDbEntity
  8
0
100
AcDbLine
 10
2.126524613390195
 20
-26.9252996189555
 30
0.0
 11
-2.126524613390195
 21
-26.9252996189555
 31
0.0
  0
LINE
  5
28F4
330
28CF
100
AcDbEntity
  8
0
100
AcDbLine
 10
2.191623175793065
 20
-27.06178256050983
 30
0.0
 11
-2.191623175793066
 21
-27.06178256050983
 31
0.0
  0
LINE
  5
28F5
330
28CF
100
AcDbEntity
  8
0
100
AcDbLine
 10
1.75
 20
-25.57171769238834
 30
0.0
 11
-1.75
 21
-25.57171769238834
 31
0.0
  0
LINE
  5
28F6
330
28CF
100
AcDbEntity
  8
0
100
AcDbLine
 10
2.126524613390195
 20
-25.6752996189555
 30
0.0
 11
-2.126524613390195
 21
-25.6752996189555
 31
0.0
  0
LINE
  5
28F7
330
28CF
100
AcDbEntity
  8
0
100
AcDbLine
 10
2.191623175793065
 20
-25.81178256050983
 30
0.0
 11
-2.191623175793066
 21
-25.81178256050983
 31
0.0
  0
LINE
  5
28F8
330
28CF
100
AcDbEntity
  8
0
100
AcDbLine
 10
1.75
 20
-24.32171769238834
 30
0.0
 11
-1.75
 21
-24.32171769238834
 31
0.0
  0
LINE
  5
28F9
330
28CF
100
AcDbEntity
  8
0
100
AcDbLine
 10
2.126524613390195
 20
-24.4252996189555
 30
0.0
 11
-2.126524613390195
 21
-24.4252996189555
 31
0.0
  0
LINE
  5
28FA
330
28CF
100
AcDbEntity
  8
0
100
AcDbLine
 10
2.191623175793065
 20
-24.56178256050983
 30
0.0
 11
-2.191623175793066
 21
-24.56178256050983
 31
0.0
  0
LINE
  5
28FB
330
28CF
100
AcDbEntity
  8
0
100
AcDbLine
 10
1.75
 20
-23.07171769238834
 30
0.0
 11
-1.75
 21
-23.07171769238834
 31
0.0
  0
LINE
  5
28FC
330
28CF
100
AcDbEntity
  8
0
100
AcDbLine
 10
2.126524613390195
 20
-23.1752996189555
 30
0.0
 11
-2.126524613390195
 21
-23.1752996189555
 31
0.0
  0
LINE
  5
28FD
330
28CF
100
AcDbEntity
  8
0
100
AcDbLine
 10
2.191623175793065
 20
-23.31178256050983
 30
0.0
 11
-2.191623175793066
 21
-23.31178256050983
 31
0.0
  0
LINE
  5
28FE
330
28CF
100
AcDbEntity
  8
0
100
AcDbLine
 10
1.75
 20
-21.82171769238834
 30
0.0
 11
-1.75
 21
-21.82171769238834
 31
0.0
  0
LINE
  5
28FF
330
28CF
100
AcDbEntity
  8
0
100
AcDbLine
 10
2.126524613390195
 20
-21.9252996189555
 30
0.0
 11
-2.126524613390195
 21
-21.9252996189555
 31
0.0
  0
LINE
  5
2900
330
28CF
100
AcDbEntity
  8
0
100
AcDbLine
 10
2.191623175793065
 20
-22.06178256050983
 30
0.0
 11
-2.191623175793066
 21
-22.06178256050983
 31
0.0
  0
LINE
  5
2901
330
28CF
100
AcDbEntity
  8
0
100
AcDbLine
 10
1.75
 20
-20.57171769238834
 30
0.0
 11
-1.75
 21
-20.57171769238834
 31
0.0
  0
LINE
  5
2902
330
28CF
100
AcDbEntity
  8
0
100
AcDbLine
 10
2.126524613390195
 20
-20.6752996189555
 30
0.0
 11
-2.126524613390195
 21
-20.6752996189555
 31
0.0
  0
LINE
  5
2903
330
28CF
100
AcDbEntity
  8
0
100
AcDbLine
 10
2.191623175793065
 20
-20.81178256050983
 30
0.0
 11
-2.191623175793066
 21
-20.81178256050983
 31
0.0
  0
LINE
  5
2904
330
28CF
100
AcDbEntity
  8
0
100
AcDbLine
 10
1.75
 20
-19.32171769238834
 30
0.0
 11
-1.75
 21
-19.32171769238834
 31
0.0
  0
LINE
  5
2905
330
28CF
100
AcDbEntity
  8
0
100
AcDbLine
 10
2.126524613390195
 20
-19.4252996189555
 30
0.0
 11
-2.126524613390195
 21
-19.4252996189555
 31
0.0
  0
LINE
  5
2906
330
28CF
100
AcDbEntity
  8
0
100
AcDbLine
 10
2.191623175793065
 20
-19.56178256050983
 30
0.0
 11
-2.191623175793066
 21
-19.56178256050983
 31
0.0
  0
LINE
  5
2907
330
28CF
100
AcDbEntity
  8
0
100
AcDbLine
 10
1.75
 20
-18.07171769238834
 30
0.0
 11
-1.75
 21
-18.07171769238834
 31
0.0
  0
LINE
  5
2908
330
28CF
100
AcDbEntity
  8
0
100
AcDbLine
 10
2.126524613390195
 20
-18.1752996189555
 30
0.0
 11
-2.126524613390195
 21
-18.1752996189555
 31
0.0
  0
LINE
  5
2909
330
28CF
100
AcDbEntity
  8
0
100
AcDbLine
 10
2.191623175793065
 20
-18.31178256050983
 30
0.0
 11
-2.191623175793066
 21
-18.31178256050983
 31
0.0
  0
LINE
  5
290A
330
28CF
100
AcDbEntity
  8
0
100
AcDbLine
 10
1.75
 20
-16.82171769238834
 30
0.0
 11
-1.75
 21
-16.82171769238834
 31
0.0
  0
LINE
  5
290B
330
28CF
100
AcDbEntity
  8
0
100
AcDbLine
 10
2.126524613390195
 20
-16.9252996189555
 30
0.0
 11
-2.126524613390195
 21
-16.9252996189555
 31
0.0
  0
LINE
  5
290C
330
28CF
100
AcDbEntity
  8
0
100
AcDbLine
 10
2.191623175793065
 20
-17.06178256050983
 30
0.0
 11
-2.191623175793066
 21
-17.06178256050983
 31
0.0
  0
LINE
  5
290D
330
28CF
100
AcDbEntity
  8
0
100
AcDbLine
 10
1.75
 20
-15.57171769238834
 30
0.0
 11
-1.75
 21
-15.57171769238834
 31
0.0
  0
LINE
  5
290E
330
28CF
100
AcDbEntity
  8
0
100
AcDbLine
 10
2.126524613390195
 20
-15.6752996189555
 30
0.0
 11
-2.126524613390195
 21
-15.6752996189555
 31
0.0
  0
LINE
  5
290F
330
28CF
100
AcDbEntity
  8
0
100
AcDbLine
 10
2.191623175793065
 20
-15.81178256050983
 30
0.0
 11
-2.191623175793066
 21
-15.81178256050983
 31
0.0
  0
LINE
  5
2910
330
28CF
100
AcDbEntity
  8
0
100
AcDbLine
 10
1.75
 20
-14.32171769238834
 30
0.0
 11
-1.75
 21
-14.32171769238834
 31
0.0
  0
LINE
  5
2911
330
28CF
100
AcDbEntity
  8
0
100
AcDbLine
 10
2.126524613390195
 20
-14.4252996189555
 30
0.0
 11
-2.126524613390195
 21
-14.4252996189555
 31
0.0
  0
LINE
  5
2912
330
28CF
100
AcDbEntity
  8
0
100
AcDbLine
 10
2.191623175793065
 20
-14.56178256050983
 30
0.0
 11
-2.191623175793066
 21
-14.56178256050983
 31
0.0
  0
LINE
  5
2913
330
28CF
100
AcDbEntity
  8
0
100
AcDbLine
 10
1.75
 20
-13.07171769238834
 30
0.0
 11
-1.75
 21
-13.07171769238834
 31
0.0
  0
LINE
  5
2914
330
28CF
100
AcDbEntity
  8
0
100
AcDbLine
 10
2.126524613390195
 20
-13.1752996189555
 30
0.0
 11
-2.126524613390195
 21
-13.1752996189555
 31
0.0
  0
LINE
  5
2915
330
28CF
100
AcDbEntity
  8
0
100
AcDbLine
 10
2.191623175793065
 20
-13.31178256050983
 30
0.0
 11
-2.191623175793066
 21
-13.31178256050983
 31
0.0
  0
LINE
  5
2916
330
28CF
100
AcDbEntity
  8
0
100
AcDbLine
 10
1.75
 20
-11.82171769238834
 30
0.0
 11
-1.75
 21
-11.82171769238834
 31
0.0
  0
LINE
  5
2917
330
28CF
100
AcDbEntity
  8
0
100
AcDbLine
 10
2.126524613390195
 20
-11.9252996189555
 30
0.0
 11
-2.126524613390195
 21
-11.9252996189555
 31
0.0
  0
LINE
  5
2918
330
28CF
100
AcDbEntity
  8
0
100
AcDbLine
 10
2.191623175793065
 20
-12.06178256050983
 30
0.0
 11
-2.191623175793066
 21
-12.06178256050983
 31
0.0
  0
LINE
  5
2919
330
28CF
100
AcDbEntity
  8
0
100
AcDbLine
 10
1.75
 20
-10.57171769238834
 30
0.0
 11
-1.75
 21
-10.57171769238834
 31
0.0
  0
LINE
  5
291A
330
28CF
100
AcDbEntity
  8
0
100
AcDbLine
 10
2.126524613390195
 20
-10.6752996189555
 30
0.0
 11
-2.126524613390195
 21
-10.6752996189555
 31
0.0
  0
LINE
  5
291B
330
28CF
100
AcDbEntity
  8
0
100
AcDbLine
 10
2.191623175793065
 20
-10.81178256050983
 30
0.0
 11
-2.191623175793066
 21
-10.81178256050983
 31
0.0
  0
LINE
  5
291C
330
28CF
100
AcDbEntity
  8
0
100
AcDbLine
 10
1.75
 20
-9.321717692388338
 30
0.0
 11
-1.75
 21
-9.321717692388338
 31
0.0
  0
LINE
  5
291D
330
28CF
100
AcDbEntity
  8
0
100
AcDbLine
 10
2.126524613390195
 20
-9.425299618955497
 30
0.0
 11
-2.126524613390195
 21
-9.425299618955497
 31
0.0
  0
LINE
  5
291E
330
28CF
100
AcDbEntity
  8
0
100
AcDbLine
 10
2.191623175793065
 20
-9.561782560509836
 30
0.0
 11
-2.191623175793066
 21
-9.561782560509836
 31
0.0
  0
LINE
  5
291F
330
28CF
100
AcDbEntity
  8
0
100
AcDbLine
 10
1.75
 20
-8.071717692388338
 30
0.0
 11
-1.75
 21
-8.071717692388338
 31
0.0
  0
LINE
  5
2920
330
28CF
100
AcDbEntity
  8
0
100
AcDbLine
 10
2.126524613390195
 20
-8.175299618955497
 30
0.0
 11
-2.126524613390195
 21
-8.175299618955497
 31
0.0
  0
LINE
  5
2921
330
28CF
100
AcDbEntity
  8
0
100
AcDbLine
 10
2.191623175793065
 20
-8.311782560509836
 30
0.0
 11
-2.191623175793066
 21
-8.311782560509836
 31
0.0
  0
LINE
  5
2922
330
28CF
100
AcDbEntity
  8
0
100
AcDbLine
 10
1.75
 20
-31.82171769238834
 30
0.0
 11
2.126524613390195
 21
-31.92529961895549
 31
0.0
  0
LINE
  5
2923
330
28CF
100
AcDbEntity
  8
0
100
AcDbLine
 10
-1.75
 20
-31.82171769238834
 30
0.0
 11
-2.126524613390197
 21
-31.92529961895549
 31
0.0
  0
ARC
  5
2924
330
28CF
100
AcDbEntity
  8
0
100
AcDbCircle
 10
2.1
 20
-32.02171769238834
 30
0.0
 40
0.1
100
AcDbArc
 50
336.3812630634782
 51
74.61842137712746
  0
ARC
  5
2925
330
28CF
100
AcDbEntity
  8
0
100
AcDbCircle
 10
-2.1
 20
-32.02171769238834
 30
0.0
 40
0.1
100
AcDbArc
 50
105.3815786228722
 51
203.6187369365218
  0
LINE
  5
2926
330
28CF
100
AcDbEntity
  8
0
100
AcDbLine
 10
-1.75
 20
-33.07171769238834
 30
0.0
 11
-2.191623175793066
 21
-32.06178256050983
 31
0.0
  0
LINE
  5
2927
330
28CF
100
AcDbEntity
  8
0
100
AcDbLine
 10
1.75
 20
-33.07171769238834
 30
0.0
 11
2.191623175793066
 21
-32.06178256050983
 31
0.0
  0
LINE
  5
2928
330
28CF
100
AcDbEntity
  8
0
100
AcDbLine
 10
1.75
 20
-30.57171769238834
 30
0.0
 11
2.126524613390195
 21
-30.67529961895549
 31
0.0
  0
LINE
  5
2929
330
28CF
100
AcDbEntity
  8
0
100
AcDbLine
 10
-1.75
 20
-30.57171769238834
 30
0.0
 11
-2.126524613390197
 21
-30.67529961895549
 31
0.0
  0
ARC
  5
292A
330
28CF
100
AcDbEntity
  8
0
100
AcDbCircle
 10
2.1
 20
-30.77171769238834
 30
0.0
 40
0.1
100
AcDbArc
 50
336.3812630634782
 51
74.61842137712746
  0
ARC
  5
292B
330
28CF
100
AcDbEntity
  8
0
100
AcDbCircle
 10
-2.1
 20
-30.77171769238834
 30
0.0
 40
0.1
100
AcDbArc
 50
105.3815786228722
 51
203.6187369365218
  0
LINE
  5
292C
330
28CF
100
AcDbEntity
  8
0
100
AcDbLine
 10
-1.75
 20
-31.82171769238834
 30
0.0
 11
-2.191623175793066
 21
-30.81178256050983
 31
0.0
  0
LINE
  5
292D
330
28CF
100
AcDbEntity
  8
0
100
AcDbLine
 10
1.75
 20
-31.82171769238834
 30
0.0
 11
2.191623175793066
 21
-30.81178256050983
 31
0.0
  0
LINE
  5
292E
330
28CF
100
AcDbEntity
  8
0
100
AcDbLine
 10
1.75
 20
-29.32171769238834
 30
0.0
 11
2.126524613390195
 21
-29.42529961895549
 31
0.0
  0
LINE
  5
292F
330
28CF
100
AcDbEntity
  8
0
100
AcDbLine
 10
-1.75
 20
-29.32171769238834
 30
0.0
 11
-2.126524613390197
 21
-29.42529961895549
 31
0.0
  0
ARC
  5
2930
330
28CF
100
AcDbEntity
  8
0
100
AcDbCircle
 10
2.1
 20
-29.52171769238834
 30
0.0
 40
0.1
100
AcDbArc
 50
336.3812630634782
 51
74.61842137712746
  0
ARC
  5
2931
330
28CF
100
AcDbEntity
  8
0
100
AcDbCircle
 10
-2.1
 20
-29.52171769238834
 30
0.0
 40
0.1
100
AcDbArc
 50
105.3815786228722
 51
203.6187369365218
  0
LINE
  5
2932
330
28CF
100
AcDbEntity
  8
0
100
AcDbLine
 10
-1.75
 20
-30.57171769238834
 30
0.0
 11
-2.191623175793066
 21
-29.56178256050984
 31
0.0
  0
LINE
  5
2933
330
28CF
100
AcDbEntity
  8
0
100
AcDbLine
 10
1.75
 20
-30.57171769238834
 30
0.0
 11
2.191623175793066
 21
-29.56178256050984
 31
0.0
  0
LINE
  5
2934
330
28CF
100
AcDbEntity
  8
0
100
AcDbLine
 10
1.75
 20
-28.07171769238834
 30
0.0
 11
2.126524613390195
 21
-28.17529961895549
 31
0.0
  0
LINE
  5
2935
330
28CF
100
AcDbEntity
  8
0
100
AcDbLine
 10
-1.75
 20
-28.07171769238834
 30
0.0
 11
-2.126524613390197
 21
-28.17529961895549
 31
0.0
  0
ARC
  5
2936
330
28CF
100
AcDbEntity
  8
0
100
AcDbCircle
 10
2.1
 20
-28.27171769238834
 30
0.0
 40
0.1
100
AcDbArc
 50
336.3812630634782
 51
74.61842137712746
  0
ARC
  5
2937
330
28CF
100
AcDbEntity
  8
0
100
AcDbCircle
 10
-2.1
 20
-28.27171769238834
 30
0.0
 40
0.1
100
AcDbArc
 50
105.3815786228722
 51
203.6187369365218
  0
LINE
  5
2938
330
28CF
100
AcDbEntity
  8
0
100
AcDbLine
 10
-1.75
 20
-29.32171769238834
 30
0.0
 11
-2.191623175793066
 21
-28.31178256050984
 31
0.0
  0
LINE
  5
2939
330
28CF
100
AcDbEntity
  8
0
100
AcDbLine
 10
1.75
 20
-29.32171769238834
 30
0.0
 11
2.191623175793066
 21
-28.31178256050984
 31
0.0
  0
LINE
  5
293A
330
28CF
100
AcDbEntity
  8
0
100
AcDbLine
 10
1.75
 20
-26.82171769238834
 30
0.0
 11
2.126524613390195
 21
-26.92529961895549
 31
0.0
  0
LINE
  5
293B
330
28CF
100
AcDbEntity
  8
0
100
AcDbLine
 10
-1.75
 20
-26.82171769238834
 30
0.0
 11
-2.126524613390197
 21
-26.92529961895549
 31
0.0
  0
ARC
  5
293C
330
28CF
100
AcDbEntity
  8
0
100
AcDbCircle
 10
2.1
 20
-27.02171769238834
 30
0.0
 40
0.1
100
AcDbArc
 50
336.3812630634782
 51
74.61842137712746
  0
ARC
  5
293D
330
28CF
100
AcDbEntity
  8
0
100
AcDbCircle
 10
-2.1
 20
-27.02171769238834
 30
0.0
 40
0.1
100
AcDbArc
 50
105.3815786228722
 51
203.6187369365218
  0
LINE
  5
293E
330
28CF
100
AcDbEntity
  8
0
100
AcDbLine
 10
-1.75
 20
-28.07171769238834
 30
0.0
 11
-2.191623175793066
 21
-27.06178256050983
 31
0.0
  0
LINE
  5
293F
330
28CF
100
AcDbEntity
  8
0
100
AcDbLine
 10
1.75
 20
-28.07171769238834
 30
0.0
 11
2.191623175793066
 21
-27.06178256050983
 31
0.0
  0
LINE
  5
2940
330
28CF
100
AcDbEntity
  8
0
100
AcDbLine
 10
1.75
 20
-25.57171769238834
 30
0.0
 11
2.126524613390195
 21
-25.67529961895549
 31
0.0
  0
LINE
  5
2941
330
28CF
100
AcDbEntity
  8
0
100
AcDbLine
 10
-1.75
 20
-25.57171769238834
 30
0.0
 11
-2.126524613390197
 21
-25.67529961895549
 31
0.0
  0
ARC
  5
2942
330
28CF
100
AcDbEntity
  8
0
100
AcDbCircle
 10
2.1
 20
-25.77171769238834
 30
0.0
 40
0.1
100
AcDbArc
 50
336.3812630634782
 51
74.61842137712746
  0
ARC
  5
2943
330
28CF
100
AcDbEntity
  8
0
100
AcDbCircle
 10
-2.1
 20
-25.77171769238834
 30
0.0
 40
0.1
100
AcDbArc
 50
105.3815786228722
 51
203.6187369365218
  0
LINE
  5
2944
330
28CF
100
AcDbEntity
  8
0
100
AcDbLine
 10
-1.75
 20
-26.82171769238834
 30
0.0
 11
-2.191623175793066
 21
-25.81178256050983
 31
0.0
  0
LINE
  5
2945
330
28CF
100
AcDbEntity
  8
0
100
AcDbLine
 10
1.75
 20
-26.82171769238834
 30
0.0
 11
2.191623175793066
 21
-25.81178256050983
 31
0.0
  0
LINE
  5
2946
330
28CF
100
AcDbEntity
  8
0
100
AcDbLine
 10
1.75
 20
-24.32171769238834
 30
0.0
 11
2.126524613390195
 21
-24.42529961895549
 31
0.0
  0
LINE
  5
2947
330
28CF
100
AcDbEntity
  8
0
100
AcDbLine
 10
-1.75
 20
-24.32171769238834
 30
0.0
 11
-2.126524613390197
 21
-24.42529961895549
 31
0.0
  0
ARC
  5
2948
330
28CF
100
AcDbEntity
  8
0
100
AcDbCircle
 10
2.1
 20
-24.52171769238834
 30
0.0
 40
0.1
100
AcDbArc
 50
336.3812630634782
 51
74.61842137712746
  0
ARC
  5
2949
330
28CF
100
AcDbEntity
  8
0
100
AcDbCircle
 10
-2.1
 20
-24.52171769238834
 30
0.0
 40
0.1
100
AcDbArc
 50
105.3815786228722
 51
203.6187369365218
  0
LINE
  5
294A
330
28CF
100
AcDbEntity
  8
0
100
AcDbLine
 10
-1.75
 20
-25.57171769238834
 30
0.0
 11
-2.191623175793066
 21
-24.56178256050983
 31
0.0
  0
LINE
  5
294B
330
28CF
100
AcDbEntity
  8
0
100
AcDbLine
 10
1.75
 20
-25.57171769238834
 30
0.0
 11
2.191623175793066
 21
-24.56178256050983
 31
0.0
  0
LINE
  5
294C
330
28CF
100
AcDbEntity
  8
0
100
AcDbLine
 10
1.75
 20
-23.07171769238834
 30
0.0
 11
2.126524613390195
 21
-23.17529961895549
 31
0.0
  0
LINE
  5
294D
330
28CF
100
AcDbEntity
  8
0
100
AcDbLine
 10
-1.75
 20
-23.07171769238834
 30
0.0
 11
-2.126524613390197
 21
-23.17529961895549
 31
0.0
  0
ARC
  5
294E
330
28CF
100
AcDbEntity
  8
0
100
AcDbCircle
 10
2.1
 20
-23.27171769238834
 30
0.0
 40
0.1
100
AcDbArc
 50
336.3812630634782
 51
74.61842137712746
  0
ARC
  5
294F
330
28CF
100
AcDbEntity
  8
0
100
AcDbCircle
 10
-2.1
 20
-23.27171769238834
 30
0.0
 40
0.1
100
AcDbArc
 50
105.3815786228722
 51
203.6187369365218
  0
LINE
  5
2950
330
28CF
100
AcDbEntity
  8
0
100
AcDbLine
 10
-1.75
 20
-24.32171769238834
 30
0.0
 11
-2.191623175793066
 21
-23.31178256050983
 31
0.0
  0
LINE
  5
2951
330
28CF
100
AcDbEntity
  8
0
100
AcDbLine
 10
1.75
 20
-24.32171769238834
 30
0.0
 11
2.191623175793066
 21
-23.31178256050983
 31
0.0
  0
LINE
  5
2952
330
28CF
100
AcDbEntity
  8
0
100
AcDbLine
 10
1.75
 20
-21.82171769238834
 30
0.0
 11
2.126524613390195
 21
-21.92529961895549
 31
0.0
  0
LINE
  5
2953
330
28CF
100
AcDbEntity
  8
0
100
AcDbLine
 10
-1.75
 20
-21.82171769238834
 30
0.0
 11
-2.126524613390197
 21
-21.92529961895549
 31
0.0
  0
ARC
  5
2954
330
28CF
100
AcDbEntity
  8
0
100
AcDbCircle
 10
2.1
 20
-22.02171769238834
 30
0.0
 40
0.1
100
AcDbArc
 50
336.3812630634782
 51
74.61842137712746
  0
ARC
  5
2955
330
28CF
100
AcDbEntity
  8
0
100
AcDbCircle
 10
-2.1
 20
-22.02171769238834
 30
0.0
 40
0.1
100
AcDbArc
 50
105.3815786228722
 51
203.6187369365218
  0
LINE
  5
2956
330
28CF
100
AcDbEntity
  8
0
100
AcDbLine
 10
-1.75
 20
-23.07171769238834
 30
0.0
 11
-2.191623175793066
 21
-22.06178256050983
 31
0.0
  0
LINE
  5
2957
330
28CF
100
AcDbEntity
  8
0
100
AcDbLine
 10
1.75
 20
-23.07171769238834
 30
0.0
 11
2.191623175793066
 21
-22.06178256050983
 31
0.0
  0
LINE
  5
2958
330
28CF
100
AcDbEntity
  8
0
100
AcDbLine
 10
1.75
 20
-20.57171769238834
 30
0.0
 11
2.126524613390195
 21
-20.67529961895549
 31
0.0
  0
LINE
  5
2959
330
28CF
100
AcDbEntity
  8
0
100
AcDbLine
 10
-1.75
 20
-20.57171769238834
 30
0.0
 11
-2.126524613390197
 21
-20.67529961895549
 31
0.0
  0
ARC
  5
295A
330
28CF
100
AcDbEntity
  8
0
100
AcDbCircle
 10
2.1
 20
-20.77171769238834
 30
0.0
 40
0.1
100
AcDbArc
 50
336.3812630634782
 51
74.61842137712746
  0
ARC
  5
295B
330
28CF
100
AcDbEntity
  8
0
100
AcDbCircle
 10
-2.1
 20
-20.77171769238834
 30
0.0
 40
0.1
100
AcDbArc
 50
105.3815786228722
 51
203.6187369365218
  0
LINE
  5
295C
330
28CF
100
AcDbEntity
  8
0
100
AcDbLine
 10
-1.75
 20
-21.82171769238834
 30
0.0
 11
-2.191623175793066
 21
-20.81178256050983
 31
0.0
  0
LINE
  5
295D
330
28CF
100
AcDbEntity
  8
0
100
AcDbLine
 10
1.75
 20
-21.82171769238834
 30
0.0
 11
2.191623175793066
 21
-20.81178256050983
 31
0.0
  0
LINE
  5
295E
330
28CF
100
AcDbEntity
  8
0
100
AcDbLine
 10
1.75
 20
-19.32171769238834
 30
0.0
 11
2.126524613390195
 21
-19.4252996189555
 31
0.0
  0
LINE
  5
295F
330
28CF
100
AcDbEntity
  8
0
100
AcDbLine
 10
-1.75
 20
-19.32171769238834
 30
0.0
 11
-2.126524613390195
 21
-19.4252996189555
 31
0.0
  0
ARC
  5
2960
330
28CF
100
AcDbEntity
  8
0
100
AcDbCircle
 10
2.1
 20
-19.52171769238834
 30
0.0
 40
0.1
100
AcDbArc
 50
336.3812630634782
 51
74.61842137712746
  0
ARC
  5
2961
330
28CF
100
AcDbEntity
  8
0
100
AcDbCircle
 10
-2.1
 20
-19.52171769238834
 30
0.0
 40
0.1
100
AcDbArc
 50
105.3815786228719
 51
203.6187369365218
  0
LINE
  5
2962
330
28CF
100
AcDbEntity
  8
0
100
AcDbLine
 10
-1.75
 20
-20.57171769238834
 30
0.0
 11
-2.191623175793066
 21
-19.56178256050983
 31
0.0
  0
LINE
  5
2963
330
28CF
100
AcDbEntity
  8
0
100
AcDbLine
 10
1.75
 20
-20.57171769238834
 30
0.0
 11
2.191623175793066
 21
-19.56178256050983
 31
0.0
  0
LINE
  5
2964
330
28CF
100
AcDbEntity
  8
0
100
AcDbLine
 10
1.75
 20
-18.07171769238834
 30
0.0
 11
2.126524613390195
 21
-18.1752996189555
 31
0.0
  0
LINE
  5
2965
330
28CF
100
AcDbEntity
  8
0
100
AcDbLine
 10
-1.75
 20
-18.07171769238834
 30
0.0
 11
-2.126524613390195
 21
-18.1752996189555
 31
0.0
  0
ARC
  5
2966
330
28CF
100
AcDbEntity
  8
0
100
AcDbCircle
 10
2.1
 20
-18.27171769238834
 30
0.0
 40
0.1
100
AcDbArc
 50
336.3812630634782
 51
74.61842137712746
  0
ARC
  5
2967
330
28CF
100
AcDbEntity
  8
0
100
AcDbCircle
 10
-2.1
 20
-18.27171769238834
 30
0.0
 40
0.1
100
AcDbArc
 50
105.3815786228719
 51
203.6187369365218
  0
LINE
  5
2968
330
28CF
100
AcDbEntity
  8
0
100
AcDbLine
 10
-1.75
 20
-19.32171769238834
 30
0.0
 11
-2.191623175793066
 21
-18.31178256050983
 31
0.0
  0
LINE
  5
2969
330
28CF
100
AcDbEntity
  8
0
100
AcDbLine
 10
1.75
 20
-19.32171769238834
 30
0.0
 11
2.191623175793066
 21
-18.31178256050983
 31
0.0
  0
LINE
  5
296A
330
28CF
100
AcDbEntity
  8
0
100
AcDbLine
 10
1.75
 20
-16.82171769238834
 30
0.0
 11
2.126524613390195
 21
-16.9252996189555
 31
0.0
  0
LINE
  5
296B
330
28CF
100
AcDbEntity
  8
0
100
AcDbLine
 10
-1.75
 20
-16.82171769238834
 30
0.0
 11
-2.126524613390195
 21
-16.9252996189555
 31
0.0
  0
ARC
  5
296C
330
28CF
100
AcDbEntity
  8
0
100
AcDbCircle
 10
2.1
 20
-17.02171769238834
 30
0.0
 40
0.1
100
AcDbArc
 50
336.3812630634782
 51
74.61842137712746
  0
ARC
  5
296D
330
28CF
100
AcDbEntity
  8
0
100
AcDbCircle
 10
-2.1
 20
-17.02171769238834
 30
0.0
 40
0.1
100
AcDbArc
 50
105.3815786228719
 51
203.6187369365218
  0
LINE
  5
296E
330
28CF
100
AcDbEntity
  8
0
100
AcDbLine
 10
-1.75
 20
-18.07171769238834
 30
0.0
 11
-2.191623175793066
 21
-17.06178256050983
 31
0.0
  0
LINE
  5
296F
330
28CF
100
AcDbEntity
  8
0
100
AcDbLine
 10
1.75
 20
-18.07171769238834
 30
0.0
 11
2.191623175793066
 21
-17.06178256050983
 31
0.0
  0
LINE
  5
2970
330
28CF
100
AcDbEntity
  8
0
100
AcDbLine
 10
1.75
 20
-15.57171769238834
 30
0.0
 11
2.126524613390195
 21
-15.6752996189555
 31
0.0
  0
LINE
  5
2971
330
28CF
100
AcDbEntity
  8
0
100
AcDbLine
 10
-1.75
 20
-15.57171769238834
 30
0.0
 11
-2.126524613390195
 21
-15.6752996189555
 31
0.0
  0
ARC
  5
2972
330
28CF
100
AcDbEntity
  8
0
100
AcDbCircle
 10
2.1
 20
-15.77171769238834
 30
0.0
 40
0.1
100
AcDbArc
 50
336.3812630634782
 51
74.61842137712746
  0
ARC
  5
2973
330
28CF
100
AcDbEntity
  8
0
100
AcDbCircle
 10
-2.1
 20
-15.77171769238834
 30
0.0
 40
0.1
100
AcDbArc
 50
105.3815786228719
 51
203.6187369365218
  0
LINE
  5
2974
330
28CF
100
AcDbEntity
  8
0
100
AcDbLine
 10
-1.75
 20
-16.82171769238834
 30
0.0
 11
-2.191623175793066
 21
-15.81178256050983
 31
0.0
  0
LINE
  5
2975
330
28CF
100
AcDbEntity
  8
0
100
AcDbLine
 10
1.75
 20
-16.82171769238834
 30
0.0
 11
2.191623175793066
 21
-15.81178256050983
 31
0.0
  0
LINE
  5
2976
330
28CF
100
AcDbEntity
  8
0
100
AcDbLine
 10
1.75
 20
-14.32171769238834
 30
0.0
 11
2.126524613390195
 21
-14.4252996189555
 31
0.0
  0
LINE
  5
2977
330
28CF
100
AcDbEntity
  8
0
100
AcDbLine
 10
-1.75
 20
-14.32171769238834
 30
0.0
 11
-2.126524613390195
 21
-14.4252996189555
 31
0.0
  0
ARC
  5
2978
330
28CF
100
AcDbEntity
  8
0
100
AcDbCircle
 10
2.1
 20
-14.52171769238834
 30
0.0
 40
0.1
100
AcDbArc
 50
336.3812630634782
 51
74.61842137712746
  0
ARC
  5
2979
330
28CF
100
AcDbEntity
  8
0
100
AcDbCircle
 10
-2.1
 20
-14.52171769238834
 30
0.0
 40
0.1
100
AcDbArc
 50
105.3815786228719
 51
203.6187369365218
  0
LINE
  5
297A
330
28CF
100
AcDbEntity
  8
0
100
AcDbLine
 10
-1.75
 20
-15.57171769238834
 30
0.0
 11
-2.191623175793066
 21
-14.56178256050983
 31
0.0
  0
LINE
  5
297B
330
28CF
100
AcDbEntity
  8
0
100
AcDbLine
 10
1.75
 20
-15.57171769238834
 30
0.0
 11
2.191623175793066
 21
-14.56178256050983
 31
0.0
  0
LINE
  5
297C
330
28CF
100
AcDbEntity
  8
0
100
AcDbLine
 10
1.75
 20
-13.07171769238834
 30
0.0
 11
2.126524613390195
 21
-13.1752996189555
 31
0.0
  0
LINE
  5
297D
330
28CF
100
AcDbEntity
  8
0
100
AcDbLine
 10
-1.75
 20
-13.07171769238834
 30
0.0
 11
-2.126524613390195
 21
-13.1752996189555
 31
0.0
  0
ARC
  5
297E
330
28CF
100
AcDbEntity
  8
0
100
AcDbCircle
 10
2.1
 20
-13.27171769238834
 30
0.0
 40
0.1
100
AcDbArc
 50
336.3812630634782
 51
74.61842137712746
  0
ARC
  5
297F
330
28CF
100
AcDbEntity
  8
0
100
AcDbCircle
 10
-2.1
 20
-13.27171769238834
 30
0.0
 40
0.1
100
AcDbArc
 50
105.3815786228719
 51
203.6187369365218
  0
LINE
  5
2980
330
28CF
100
AcDbEntity
  8
0
100
AcDbLine
 10
-1.75
 20
-14.32171769238834
 30
0.0
 11
-2.191623175793066
 21
-13.31178256050983
 31
0.0
  0
LINE
  5
2981
330
28CF
100
AcDbEntity
  8
0
100
AcDbLine
 10
1.75
 20
-14.32171769238834
 30
0.0
 11
2.191623175793066
 21
-13.31178256050983
 31
0.0
  0
LINE
  5
2982
330
28CF
100
AcDbEntity
  8
0
100
AcDbLine
 10
1.75
 20
-11.82171769238834
 30
0.0
 11
2.126524613390195
 21
-11.9252996189555
 31
0.0
  0
LINE
  5
2983
330
28CF
100
AcDbEntity
  8
0
100
AcDbLine
 10
-1.75
 20
-11.82171769238834
 30
0.0
 11
-2.126524613390195
 21
-11.9252996189555
 31
0.0
  0
ARC
  5
2984
330
28CF
100
AcDbEntity
  8
0
100
AcDbCircle
 10
2.1
 20
-12.02171769238834
 30
0.0
 40
0.1
100
AcDbArc
 50
336.3812630634782
 51
74.61842137712746
  0
ARC
  5
2985
330
28CF
100
AcDbEntity
  8
0
100
AcDbCircle
 10
-2.1
 20
-12.02171769238834
 30
0.0
 40
0.1
100
AcDbArc
 50
105.3815786228719
 51
203.6187369365218
  0
LINE
  5
2986
330
28CF
100
AcDbEntity
  8
0
100
AcDbLine
 10
-1.75
 20
-13.07171769238834
 30
0.0
 11
-2.191623175793066
 21
-12.06178256050983
 31
0.0
  0
LINE
  5
2987
330
28CF
100
AcDbEntity
  8
0
100
AcDbLine
 10
1.75
 20
-13.07171769238834
 30
0.0
 11
2.191623175793066
 21
-12.06178256050983
 31
0.0
  0
LINE
  5
2988
330
28CF
100
AcDbEntity
  8
0
100
AcDbLine
 10
1.75
 20
-10.57171769238834
 30
0.0
 11
2.126524613390195
 21
-10.6752996189555
 31
0.0
  0
LINE
  5
2989
330
28CF
100
AcDbEntity
  8
0
100
AcDbLine
 10
-1.75
 20
-10.57171769238834
 30
0.0
 11
-2.126524613390195
 21
-10.6752996189555
 31
0.0
  0
ARC
  5
298A
330
28CF
100
AcDbEntity
  8
0
100
AcDbCircle
 10
2.1
 20
-10.77171769238834
 30
0.0
 40
0.1
100
AcDbArc
 50
336.3812630634782
 51
74.61842137712746
  0
ARC
  5
298B
330
28CF
100
AcDbEntity
  8
0
100
AcDbCircle
 10
-2.1
 20
-10.77171769238834
 30
0.0
 40
0.1
100
AcDbArc
 50
105.3815786228719
 51
203.6187369365218
  0
LINE
  5
298C
330
28CF
100
AcDbEntity
  8
0
100
AcDbLine
 10
-1.75
 20
-11.82171769238834
 30
0.0
 11
-2.191623175793066
 21
-10.81178256050983
 31
0.0
  0
LINE
  5
298D
330
28CF
100
AcDbEntity
  8
0
100
AcDbLine
 10
1.75
 20
-11.82171769238834
 30
0.0
 11
2.191623175793066
 21
-10.81178256050983
 31
0.0
  0
LINE
  5
298E
330
28CF
100
AcDbEntity
  8
0
100
AcDbLine
 10
1.75
 20
-9.321717692388338
 30
0.0
 11
2.126524613390195
 21
-9.425299618955497
 31
0.0
  0
LINE
  5
298F
330
28CF
100
AcDbEntity
  8
0
100
AcDbLine
 10
-1.75
 20
-9.321717692388338
 30
0.0
 11
-2.126524613390195
 21
-9.425299618955497
 31
0.0
  0
ARC
  5
2990
330
28CF
100
AcDbEntity
  8
0
100
AcDbCircle
 10
2.1
 20
-9.521717692388339
 30
0.0
 40
0.1000000000000001
100
AcDbArc
 50
336.3812630634775
 51
74.61842137712809
  0
ARC
  5
2991
330
28CF
100
AcDbEntity
  8
0
100
AcDbCircle
 10
-2.1
 20
-9.521717692388339
 30
0.0
 40
0.1
100
AcDbArc
 50
105.3815786228719
 51
203.6187369365218
  0
LINE
  5
2992
330
28CF
100
AcDbEntity
  8
0
100
AcDbLine
 10
-1.75
 20
-10.57171769238834
 30
0.0
 11
-2.191623175793066
 21
-9.561782560509834
 31
0.0
  0
LINE
  5
2993
330
28CF
100
AcDbEntity
  8
0
100
AcDbLine
 10
1.75
 20
-10.57171769238834
 30
0.0
 11
2.191623175793065
 21
-9.561782560509836
 31
0.0
  0
LINE
  5
2994
330
28CF
100
AcDbEntity
  8
0
100
AcDbLine
 10
1.75
 20
-8.071717692388338
 30
0.0
 11
2.126524613390195
 21
-8.175299618955497
 31
0.0
  0
LINE
  5
2995
330
28CF
100
AcDbEntity
  8
0
100
AcDbLine
 10
-1.75
 20
-8.071717692388338
 30
0.0
 11
-2.126524613390195
 21
-8.175299618955497
 31
0.0
  0
ARC
  5
2996
330
28CF
100
AcDbEntity
  8
0
100
AcDbCircle
 10
2.1
 20
-8.271717692388339
 30
0.0
 40
0.1000000000000001
100
AcDbArc
 50
336.3812630634775
 51
74.61842137712809
  0
ARC
  5
2997
330
28CF
100
AcDbEntity
  8
0
100
AcDbCircle
 10
-2.1
 20
-8.271717692388339
 30
0.0
 40
0.1
100
AcDbArc
 50
105.3815786228719
 51
203.6187369365218
  0
LINE
  5
2998
330
28CF
100
AcDbEntity
  8
0
100
AcDbLine
 10
-1.75
 20
-9.321717692388338
 30
0.0
 11
-2.191623175793066
 21
-8.311782560509834
 31
0.0
  0
LINE
  5
2999
330
28CF
100
AcDbEntity
  8
0
100
AcDbLine
 10
1.75
 20
-9.321717692388338
 30
0.0
 11
2.191623175793065
 21
-8.311782560509836
 31
0.0
  0
LINE
  5
299A
330
28CF
100
AcDbEntity
  8
0
100
AcDbLine
 10
2.075733183164496
 20
-33.07171769238834
 30
0.0
 11
1.555634918610402
 21
-34.50067593014825
 31
0.0
  0
LINE
  5
299B
330
28CF
100
AcDbEntity
  8
0
100
AcDbLine
 10
1.999999999999996
 20
-7.5
 30
0.0
 11
-1.999999999999987
 21
-7.5
 31
0.0
  0
LINE
  5
299C
330
28CF
100
AcDbEntity
  8
0
100
AcDbLine
 10
-1.75
 20
-8.071717692388338
 30
0.0
 11
-1.999999999999995
 21
-7.500000000000003
 31
0.0
  0
LINE
  5
299D
330
28CF
100
AcDbEntity
  8
0
100
AcDbLine
 10
1.75
 20
-8.071717692388338
 30
0.0
 11
1.999999999999996
 21
-7.499999999999999
 31
0.0
  0
LINE
  5
299E
330
28CF
100
AcDbEntity
  8
0
100
AcDbLine
 10
1.999999999999997
 20
-3.5
 30
0.0
 11
-1.999999999999987
 21
-3.5
 31
0.0
  0
LINE
  5
299F
330
28CF
100
AcDbEntity
  8
0
100
AcDbLine
 10
-3.500000000000004
 20
0.5000000000000011
 30
0.0
 11
-3.500000000000004
 21
1.250000000000001
 31
0.0
  0
LINE
  5
29A0
330
28CF
100
AcDbEntity
  8
0
100
AcDbLine
 10
3.500000000000015
 20
0.5000000000000001
 30
0.0
 11
3.500000000000015
 21
1.25
 31
0.0
  0
LINE
  5
29A1
330
28CF
100
AcDbEntity
  8
0
100
AcDbLine
 10
-1.999999999999987
 20
-7.5
 30
0.0
 11
-1.999999999999987
 21
-3.5
 31
0.0
  0
LINE
  5
29A2
330
28CF
100
AcDbEntity
  8
0
100
AcDbLine
 10
1.999999999999996
 20
-7.5
 30
0.0
 11
1.999999999999996
 21
-3.5
 31
0.0
  0
LINE
  5
29A3
330
28CF
100
AcDbEntity
  8
0
100
AcDbLine
 10
-1.999999999999988
 20
-3.499999999999999
 30
0.0
 11
-2.775931319250277
 21
0.0
 31
0.0
  0
LINE
  5
29A4
330
28CF
100
AcDbEntity
  8
0
100
AcDbLine
 10
1.999999999999997
 20
-3.5
 30
0.0
 11
2.775931319250287
 21
0.0
 31
0.0
  0
ENDBLK
  5
28D1
330
28CF
100
AcDbEntity
  8
0
100
AcDbBlockEnd
  0
BLOCK
  5
2B52
330
2B51
100
AcDbEntity
  8
0
100
AcDbBlockBegin
  2
CNA40X40G-Top
 70
     0
 10
0.0
 20
0.0
 30
0.0
  3
CNA40X40G-Top
  1

  0
LINE
  5
2B54
330
2B51
100
AcDbEntity
  8
0
100
AcDbLine
 10
-1.15405824279582
 20
1.279668714579575
 30
0.0
 11
-1.623951554150629
 21
0.6028394193921136
 31
0.0
  0
LINE
  5
2B55
330
2B51
100
AcDbEntity
  8
0
100
AcDbLine
 10
-1.623951554150629
 20
0.6028394193921136
 30
0.0
 11
-1.15405824279582
 21
0.6028394193921136
 31
0.0
  0
LINE
  5
2B56
330
2B51
100
AcDbEntity
  8
0
100
AcDbLine
 10
-0.7676253006110877
 20
0.6028394193921136
 30
0.0
 11
-0.7676253006110877
 21
0.4336320955952481
 31
0.0
  0
LINE
  5
2B57
330
2B51
100
AcDbEntity
  8
0
100
AcDbLine
 10
-0.7676253006110877
 20
0.4336320955952481
 30
0.0
 11
-0.9699881135303117
 21
0.4336320955952481
 31
0.0
  0
LINE
  5
2B58
330
2B51
100
AcDbEntity
  8
0
100
AcDbLine
 10
-0.9699881135303117
 20
0.4336320955952481
 30
0.0
 11
-0.9699881135303117
 21
0.0746381788910877
 31
0.0
  0
LINE
  5
2B59
330
2B51
100
AcDbEntity
  8
0
100
AcDbLine
 10
-0.9699881135303117
 20
0.0746381788910877
 30
0.0
 11
-1.15405824279582
 21
0.0746381788910877
 31
0.0
  0
LINE
  5
2B5A
330
2B51
100
AcDbEntity
  8
0
100
AcDbLine
 10
-1.15405824279582
 20
0.0746381788910877
 30
0.0
 11
-1.15405824279582
 21
0.4336320955952481
 31
0.0
  0
LINE
  5
2B5B
330
2B51
100
AcDbEntity
  8
0
100
AcDbLine
 10
-1.15405824279582
 20
0.4336320955952481
 30
0.0
 11
-1.804591805231066
 21
0.4336320955952481
 31
0.0
  0
LINE
  5
2B5C
330
2B51
100
AcDbEntity
  8
0
100
AcDbLine
 10
-1.15405824279582
 20
0.6028394193921136
 30
0.0
 11
-1.15405824279582
 21
1.279668714579575
 31
0.0
  0
LINE
  5
2B5D
330
2B51
100
AcDbEntity
  8
0
100
AcDbLine
 10
-1.804591805231066
 20
0.4336320955952481
 30
0.0
 11
-1.804591805231066
 21
0.6028394193921136
 31
0.0
  0
LINE
  5
2B5E
330
2B51
100
AcDbEntity
  8
0
100
AcDbLine
 10
-1.804591805231066
 20
0.6028394193921136
 30
0.0
 11
-1.120902753673461
 21
1.574638238495732
 31
0.0
  0
LINE
  5
2B5F
330
2B51
100
AcDbEntity
  8
0
100
AcDbLine
 10
-1.120902753673461
 20
1.574638238495732
 30
0.0
 11
-0.9699881135303117
 21
1.574638238495732
 31
0.0
  0
LINE
  5
2B60
330
2B51
100
AcDbEntity
  8
0
100
AcDbLine
 10
-0.9699881135303117
 20
1.574638238495732
 30
0.0
 11
-0.9699881135303117
 21
0.6028394193921136
 31
0.0
  0
LINE
  5
2B61
330
2B51
100
AcDbEntity
  8
0
100
AcDbLine
 10
-0.9699881135303117
 20
0.6028394193921136
 30
0.0
 11
-0.7676253006110877
 21
0.6028394193921136
 31
0.0
  0
SPLINE
  5
2B62
330
2B51
100
AcDbEntity
  8
0
100
AcDbSpline
210
0.0
220
0.0
230
1.0
 70
     8
 71
     2
 72
     6
 73
     3
 74
     0
 42
0.000000001
 43
0.0000000001
 40
0.0
 40
0.0
 40
0.0
 40
1.0
 40
1.0
 40
1.0
 10
-0.0896527126952686
 20
0.0494857388672293
 30
0.0
 10
-0.3068783310831364
 20
0.0494857388672293
 30
0.0
 10
-0.4303539457457137
 20
0.2038302571954512
 30
0.0
  0
SPLINE
  5
2B63
330
2B51
100
AcDbEntity
  8
0
100
AcDbSpline
210
0.0
220
0.0
230
1.0
 70
     8
 71
     2
 72
     8
 73
     5
 74
     0
 42
0.000000001
 43
0.0000000001
 40
0.0
 40
0.0
 40
0.0
 40
1.0
 40
2.0
 40
3.0
 40
3.0
 40
3.0
 10
0.3985332823132554
 20
0.8143485741381953
 30
0.0
 10
0.3985332823132554
 20
0.5502479538876825
 30
0.0
 10
0.2899204731193215
 20
0.2255528190342379
 30
0.0
 10
0.0738381474598109
 20
0.0494857388672293
 30
0.0
 10
-0.0896527126952686
 20
0.0494857388672293
 30
0.0
  0
SPLINE
  5
2B64
330
2B51
100
AcDbEntity
  8
0
100
AcDbSpline
210
0.0
220
0.0
230
1.0
 70
     8
 71
     2
 72
     7
 73
     4
 74
     0
 42
0.000000001
 43
0.0000000001
 40
0.0
 40
0.0
 40
0.0
 40
1.0
 40
2.0
 40
2.0
 40
2.0
 10
-0.3891954075248545
 20
0.8143485741381953
 30
0.0
 10
-0.3891954075248545
 20
0.4439217301504629
 30
0.0
 10
-0.2165582055429177
 20
0.2004003790103796
 30
0.0
 10
-0.0896527126952686
 20
0.2004003790103796
 30
0.0
  0
SPLINE
  5
2B65
330
2B51
100
AcDbEntity
  8
0
100
AcDbSpline
210
0.0
220
0.0
230
1.0
 70
     8
 71
     2
 72
     7
 73
     4
 74
     0
 42
0.000000001
 43
0.0000000001
 40
0.0
 40
0.0
 40
0.0
 40
1.0
 40
2.0
 40
2.0
 40
2.0
 10
-0.0896527126952686
 20
0.2004003790103796
 30
0.0
 10
0.0361094874240233
 20
0.2004003790103796
 30
0.0
 10
0.2087466894059603
 20
0.4450650228788201
 30
0.0
 10
0.2087466894059603
 20
0.8143485741381953
 30
0.0
  0
SPLINE
  5
2B66
330
2B51
100
AcDbEntity
  8
0
100
AcDbSpline
210
0.0
220
0.0
230
1.0
 70
     8
 71
     2
 72
     9
 73
     6
 74
     0
 42
0.000000001
 43
0.0000000001
 40
0.0
 40
0.0
 40
0.0
 40
1.0
 40
2.0
 40
3.0
 40
4.0
 40
4.0
 40
4.0
 10
-0.0896527126952686
 20
1.580354702137518
 30
0.0
 10
0.0303930237822373
 20
1.580354702137518
 30
0.0
 10
0.2133198603193891
 20
1.483174820227156
 30
0.0
 10
0.3310790113401807
 20
1.300247983690004
 30
0.0
 10
0.3985332823132554
 20
1.037290656167848
 30
0.0
 10
0.3985332823132554
 20
0.8143485741381953
 30
0.0
  0
SPLINE
  5
2B67
330
2B51
100
AcDbEntity
  8
0
100
AcDbSpline
210
0.0
220
0.0
230
1.0
 70
     8
 71
     2
 72
     8
 73
     5
 74
     0
 42
0.000000001
 43
0.0000000001
 40
0.0
 40
0.0
 40
0.0
 40
1.0
 40
2.0
 40
3.0
 40
3.0
 40
3.0
 10
-0.5789820004321495
 20
0.8143485741381953
 30
0.0
 10
-0.5789820004321495
 20
1.080735779845422
 30
0.0
 10
-0.4692258985098585
 20
1.405430914698866
 30
0.0
 10
-0.2542868655787052
 20
1.580354702137518
 30
0.0
 10
-0.0896527126952686
 20
1.580354702137518
 30
0.0
  0
SPLINE
  5
2B68
330
2B51
100
AcDbEntity
  8
0
100
AcDbSpline
210
0.0
220
0.0
230
1.0
 70
     8
 71
     2
 72
     6
 73
     3
 74
     0
 42
0.000000001
 43
0.0000000001
 40
0.0
 40
0.0
 40
0.0
 40
1.0
 40
1.0
 40
1.0
 10
-0.4303539457457137
 20
0.2038302571954512
 30
0.0
 10
-0.5789820004321495
 20
0.3924735573743889
 30
0.0
 10
-0.5789820004321495
 20
0.8143485741381953
 30
0.0
  0
SPLINE
  5
2B69
330
2B51
100
AcDbEntity
  8
0
100
AcDbSpline
210
0.0
220
0.0
230
1.0
 70
     8
 71
     2
 72
     6
 73
     3
 74
     0
 42
0.000000001
 43
0.0000000001
 40
0.0
 40
0.0
 40
0.0
 40
1.0
 40
1.0
 40
1.0
 10
-0.2943021110712072
 20
1.320827252800434
 30
0.0
 10
-0.3891954075248545
 20
1.18363212539757
 30
0.0
 10
-0.3891954075248545
 20
0.8143485741381953
 30
0.0
  0
SPLINE
  5
2B6A
330
2B51
100
AcDbEntity
  8
0
100
AcDbSpline
210
0.0
220
0.0
230
1.0
 70
     8
 71
     2
 72
     6
 73
     3
 74
     0
 42
0.000000001
 43
0.0000000001
 40
0.0
 40
0.0
 40
0.0
 40
1.0
 40
1.0
 40
1.0
 10
-0.091939298151983
 20
1.42829676926601
 30
0.0
 10
-0.218844790999632
 20
1.42829676926601
 30
0.0
 10
-0.2943021110712072
 20
1.320827252800434
 30
0.0
  0
SPLINE
  5
2B6B
330
2B51
100
AcDbEntity
  8
0
100
AcDbSpline
210
0.0
220
0.0
230
1.0
 70
     8
 71
     2
 72
     7
 73
     4
 74
     0
 42
0.000000001
 43
0.0000000001
 40
0.0
 40
0.0
 40
0.0
 40
1.0
 40
2.0
 40
2.0
 40
2.0
 10
0.2087466894059603
 20
0.8143485741381953
 30
0.0
 10
0.2087466894059603
 20
1.184775418125927
 30
0.0
 10
0.0361094874240233
 20
1.42829676926601
 30
0.0
 10
-0.091939298151983
 20
1.42829676926601
 30
0.0
  0
CIRCLE
  5
2B6C
330
2B51
100
AcDbEntity
  8
0
100
AcDbCircle
 10
0.0000000000000056
 20
0.0
 30
0.0
 40
3.250000000000009
  0
CIRCLE
  5
2B6D
330
2B51
100
AcDbEntity
  8
0
100
AcDbCircle
 10
0.0000000000000056
 20
0.0
 30
0.0
 40
3.500000000000009
  0
LINE
  5
2B6E
330
2B51
100
AcDbEntity
  8
0
100
AcDbLine
 10
0.2114195845729008
 20
-1.466773692787436
 30
0.0
 11
-0.6755677135348783
 21
-1.466773692787437
 31
0.0
  0
LINE
  5
2B6F
330
2B51
100
AcDbEntity
  8
0
100
AcDbLine
 10
-0.6755677135348783
 20
-1.466773692787437
 30
0.0
 11
-0.6755677135348783
 21
-1.166773692787436
 31
0.0
  0
LINE
  5
2B70
330
2B51
100
AcDbEntity
  8
0
100
AcDbLine
 10
-0.6755677135348783
 20
-1.166773692787436
 30
0.0
 11
0.3846246653297886
 21
-1.166773692787436
 31
0.0
  0
LINE
  5
2B71
330
2B51
100
AcDbEntity
  8
0
100
AcDbLine
 10
0.3846246653297886
 20
-1.166773692787436
 30
0.0
 11
0.5578297460866752
 21
-0.8667736927874386
 31
0.0
  0
LINE
  5
2B72
330
2B51
100
AcDbEntity
  8
0
100
AcDbLine
 10
0.5578297460866752
 20
-0.8667736927874386
 30
0.0
 11
-0.6755677135348783
 21
-0.8667736927874386
 31
0.0
  0
LINE
  5
2B73
330
2B51
100
AcDbEntity
  8
0
100
AcDbLine
 10
-0.6755677135348783
 20
-0.8667736927874386
 30
0.0
 11
-0.6755677135348783
 21
-0.5667736927874369
 31
0.0
  0
LINE
  5
2B74
330
2B51
100
AcDbEntity
  8
0
100
AcDbLine
 10
-0.6755677135348783
 20
-0.5667736927874369
 30
0.0
 11
0.731034826843564
 21
-0.5667736927874369
 31
0.0
  0
LINE
  5
2B75
330
2B51
100
AcDbEntity
  8
0
100
AcDbLine
 10
0.7310348268435641
 20
-0.5667736927874369
 30
0.0
 11
1.174528475897453
 21
0.2013798402080209
 31
0.0
  0
LINE
  5
2B76
330
2B51
100
AcDbEntity
  8
0
100
AcDbLine
 10
1.174528475897453
 20
0.2013798402080209
 30
0.0
 11
1.434336097032785
 21
0.0513798402080214
 31
0.0
  0
LINE
  5
2B77
330
2B51
100
AcDbEntity
  8
0
100
AcDbLine
 10
1.434336097032785
 20
0.0513798402080214
 30
0.0
 11
1.077444988357339
 21
-0.5667736927874369
 31
0.0
  0
LINE
  5
2B78
330
2B51
100
AcDbEntity
  8
0
100
AcDbLine
 10
1.077444988357339
 20
-0.5667736927874369
 30
0.0
 11
1.964432286465117
 21
-0.5667736927874369
 31
0.0
  0
LINE
  5
2B79
330
2B51
100
AcDbEntity
  8
0
100
AcDbLine
 10
1.964432286465117
 20
-0.5667736927874369
 30
0.0
 11
1.964432286465117
 21
-0.8667736927874386
 31
0.0
  0
LINE
  5
2B7A
330
2B51
100
AcDbEntity
  8
0
100
AcDbLine
 10
1.964432286465117
 20
-0.8667736927874386
 30
0.0
 11
0.9042399076004505
 21
-0.8667736927874386
 31
0.0
  0
LINE
  5
2B7B
330
2B51
100
AcDbEntity
  8
0
100
AcDbLine
 10
0.9042399076004505
 20
-0.8667736927874386
 30
0.0
 11
0.7310348268435638
 21
-1.166773692787436
 31
0.0
  0
LINE
  5
2B7C
330
2B51
100
AcDbEntity
  8
0
100
AcDbLine
 10
0.7310348268435638
 20
-1.166773692787436
 30
0.0
 11
1.964432286465117
 21
-1.166773692787436
 31
0.0
  0
LINE
  5
2B7D
330
2B51
100
AcDbEntity
  8
0
100
AcDbLine
 10
1.964432286465117
 20
-1.166773692787436
 30
0.0
 11
1.964432286465117
 21
-1.466773692787435
 31
0.0
  0
LINE
  5
2B7E
330
2B51
100
AcDbEntity
  8
0
100
AcDbLine
 10
1.964432286465117
 20
-1.466773692787435
 30
0.0
 11
0.557829746086676
 21
-1.466773692787436
 31
0.0
  0
LINE
  5
2B7F
330
2B51
100
AcDbEntity
  8
0
100
AcDbLine
 10
0.557829746086676
 20
-1.466773692787436
 30
0.0
 11
0.1143360970327862
 21
-2.234927225782894
 31
0.0
  0
LINE
  5
2B80
330
2B51
100
AcDbEntity
  8
0
100
AcDbLine
 10
0.1143360970327862
 20
-2.234927225782894
 30
0.0
 11
-0.1454715241025449
 21
-2.084927225782894
 31
0.0
  0
LINE
  5
2B81
330
2B51
100
AcDbEntity
  8
0
100
AcDbLine
 10
-0.1454715241025449
 20
-2.084927225782894
 30
0.0
 11
0.2114195845729008
 21
-1.466773692787436
 31
0.0
  0
ENDBLK
  5
2B53
330
2B51
100
AcDbEntity
  8
0
100
AcDbBlockEnd
  0
BLOCK
  5
2BAD
330
2BAC
100
AcDbEntity
  8
0
100
AcDbBlockBegin
  2
CNA40X40G-ISO
 70
     0
 10
0.0
 20
0.0
 30
0.0
  3
CNA40X40G-ISO
  1

  0
LINE
  5
2BAF
330
2BAC
100
AcDbEntity
  8
0
100
AcDbLine
 10
-0.6925545688172043
 20
16.79042612261916
 30
0.0
 11
-0.5094182140296316
 21
16.89615994635418
 31
0.0
  0
LINE
  5
2BB0
330
2BAC
100
AcDbEntity
  8
0
100
AcDbLine
 10
-0.2596133313289142
 20
16.8900922314301
 30
0.0
 11
-0.1872318921724003
 21
16.84830278804876
 31
0.0
  0
LINE
  5
2BB1
330
2BAC
100
AcDbEntity
  8
0
100
AcDbLine
 10
0.3208394381827845
 20
17.34843808184837
 30
0.0
 11
0.356841525489676
 21
17.32765226705035
 31
0.0
  0
LINE
  5
2BB2
330
2BAC
100
AcDbEntity
  8
0
100
AcDbLine
 10
-0.8497672613338446
 20
17.23081776178177
 30
0.0
 11
0.3208394381827845
 21
17.34843808184837
 31
0.0
  0
LINE
  5
2BB3
330
2BAC
100
AcDbEntity
  8
0
100
AcDbLine
 10
-0.8987042292983781
 20
17.20256399015412
 30
0.0
 11
-0.8497672613338446
 21
17.23081776178177
 31
0.0
  0
LINE
  5
2BB4
330
2BAC
100
AcDbEntity
  8
0
100
AcDbLine
 10
-0.7220353148396269
 20
17.15707168808922
 30
0.0
 11
-0.3897705679464401
 21
16.96523854702821
 31
0.0
  0
LINE
  5
2BB5
330
2BAC
100
AcDbEntity
  8
0
100
AcDbLine
 10
-0.3897705679464401
 20
16.96523854702821
 30
0.0
 11
0.0888200163863254
 21
17.24155294972436
 31
0.0
  0
LINE
  5
2BB6
330
2BAC
100
AcDbEntity
  8
0
100
AcDbLine
 10
0.0888200163863255
 20
17.32320260781713
 30
0.0
 11
-0.7220353148396269
 21
17.238721346182
 31
0.0
  0
LINE
  5
2BB7
330
2BAC
100
AcDbEntity
  8
0
100
AcDbLine
 10
0.0888200163863254
 20
17.24155294972436
 30
0.0
 11
0.0888200163863255
 21
17.32320260781713
 31
0.0
  0
LINE
  5
2BB8
330
2BAC
100
AcDbEntity
  8
0
100
AcDbLine
 10
-0.7220353148396269
 20
17.15707168808922
 30
0.0
 11
-0.7220353148396269
 21
17.238721346182
 31
0.0
  0
LINE
  5
2BB9
330
2BAC
100
AcDbEntity
  8
0
100
AcDbLine
 10
-0.7220353148396269
 20
17.238721346182
 30
0.0
 11
-0.38977056794644
 21
17.04688820512099
 31
0.0
  0
LINE
  5
2BBA
330
2BAC
100
AcDbEntity
  8
0
100
AcDbLine
 10
-0.3897705679464401
 20
16.96523854702821
 30
0.0
 11
-0.38977056794644
 21
17.04688820512099
 31
0.0
  0
LINE
  5
2BBB
330
2BAC
100
AcDbEntity
  8
0
100
AcDbLine
 10
-0.1165212140537461
 20
16.88912761709515
 30
0.0
 11
-0.2361688601369376
 21
16.82004901642111
 31
0.0
  0
LINE
  5
2BBC
330
2BAC
100
AcDbEntity
  8
0
100
AcDbLine
 10
-0.2361688601369376
 20
16.82004901642111
 30
0.0
 11
-0.3792609774121058
 21
16.90266328884885
 31
0.0
  0
LINE
  5
2BBD
330
2BAC
100
AcDbEntity
  8
0
100
AcDbLine
 10
-0.3792609774121058
 20
16.90266328884885
 30
0.0
 11
-0.6331080103183361
 21
16.75610463606745
 31
0.0
  0
LINE
  5
2BBE
330
2BAC
100
AcDbEntity
  8
0
100
AcDbLine
 10
-0.6331080103183361
 20
16.75610463606745
 30
0.0
 11
-0.7632652469358618
 21
16.83125095166555
 31
0.0
  0
LINE
  5
2BBF
330
2BAC
100
AcDbEntity
  8
0
100
AcDbLine
 10
-0.7632652469358618
 20
16.83125095166555
 30
0.0
 11
-0.5094182140296315
 21
16.97780960444696
 31
0.0
  0
LINE
  5
2BC0
330
2BAC
100
AcDbEntity
  8
0
100
AcDbLine
 10
-0.5094182140296316
 20
16.89615994635418
 30
0.0
 11
-0.5094182140296315
 21
16.97780960444696
 31
0.0
  0
LINE
  5
2BC1
330
2BAC
100
AcDbEntity
  8
0
100
AcDbLine
 10
-0.5094182140296315
 20
16.97780960444696
 30
0.0
 11
-0.9694149074170359
 21
17.24338881920051
 31
0.0
  0
LINE
  5
2BC2
330
2BAC
100
AcDbEntity
  8
0
100
AcDbLine
 10
-0.38977056794644
 20
17.04688820512099
 30
0.0
 11
0.0888200163863255
 21
17.32320260781713
 31
0.0
  0
LINE
  5
2BC3
330
2BAC
100
AcDbEntity
  8
0
100
AcDbLine
 10
-0.9694149074170359
 20
17.24338881920051
 30
0.0
 11
-0.8497672613338446
 21
17.31246741987455
 31
0.0
  0
LINE
  5
2BC4
330
2BAC
100
AcDbEntity
  8
0
100
AcDbLine
 10
-0.8497672613338446
 20
17.23081776178177
 30
0.0
 11
-0.8497672613338446
 21
17.31246741987455
 31
0.0
  0
LINE
  5
2BC5
330
2BAC
100
AcDbEntity
  8
0
100
AcDbLine
 10
-0.8497672613338446
 20
17.31246741987455
 30
0.0
 11
0.3208394381827845
 21
17.43008773994115
 31
0.0
  0
LINE
  5
2BC6
330
2BAC
100
AcDbEntity
  8
0
100
AcDbLine
 10
0.3208394381827845
 20
17.34843808184837
 30
0.0
 11
0.3208394381827845
 21
17.43008773994115
 31
0.0
  0
LINE
  5
2BC7
330
2BAC
100
AcDbEntity
  8
0
100
AcDbLine
 10
0.3208394381827845
 20
17.43008773994115
 30
0.0
 11
0.4275522036083336
 21
17.36847709609674
 31
0.0
  0
LINE
  5
2BC8
330
2BAC
100
AcDbEntity
  8
0
100
AcDbLine
 10
0.4275522036083336
 20
17.36847709609674
 30
0.0
 11
-0.2596133313289142
 21
16.97174188952288
 31
0.0
  0
LINE
  5
2BC9
330
2BAC
100
AcDbEntity
  8
0
100
AcDbLine
 10
-0.2596133313289142
 20
16.8900922314301
 30
0.0
 11
-0.2596133313289142
 21
16.97174188952288
 31
0.0
  0
LINE
  5
2BCA
330
2BAC
100
AcDbEntity
  8
0
100
AcDbLine
 10
-0.2596133313289142
 20
16.97174188952288
 30
0.0
 11
-0.1165212140537461
 21
16.88912761709515
 31
0.0
  0
SPLINE
  5
2BCB
330
2BAC
100
AcDbEntity
  8
0
100
AcDbSpline
210
0.0
220
0.0
230
1.0
 70
     8
 71
     2
 72
     6
 73
     3
 74
     0
 42
0.000000001
 43
0.0000000001
 40
0.0
 40
0.0
 40
0.0
 40
1.0
 40
1.0
 40
1.0
 10
-0.0284023395735578
 20
16.38644077300099
 30
0.0
 10
-0.1820040473830603
 20
16.47512276035279
 30
0.0
 10
-0.1601764362732888
 20
16.58854235470273
 30
0.0
  0
LINE
  5
2BCC
330
2BAC
100
AcDbEntity
  8
0
100
AcDbLine
 10
-0.1601764362732888
 20
16.53362577649597
 30
0.0
 11
-0.1601764362732888
 21
16.58854235470272
 31
0.0
  0
SPLINE
  5
2BCD
330
2BAC
100
AcDbEntity
  8
0
100
AcDbSpline
210
0.0
220
0.0
230
1.0
 70
     8
 71
     2
 72
     8
 73
     5
 74
     0
 42
0.000000001
 43
0.0000000001
 40
0.0
 40
0.0
 40
0.0
 40
1.0
 40
2.0
 40
3.0
 40
3.0
 40
3.0
 10
0.8576369854749408
 20
16.49939362004907
 30
0.0
 10
0.6708896459802299
 20
16.39157499332136
 30
0.0
 10
0.3644946604023275
 20
16.30335975327141
 30
0.0
 10
0.0872031563041204
 20
16.31969590883621
 30
0.0
 10
-0.0284023395735578
 20
16.38644077300099
 30
0.0
  0
SPLINE
  5
2BCE
330
2BAC
100
AcDbEntity
  8
0
100
AcDbSpline
210
0.0
220
0.0
230
1.0
 70
     8
 71
     2
 72
     7
 73
     4
 74
     0
 42
0.000000001
 43
0.0000000001
 40
0.0
 40
0.0
 40
0.0
 40
1.0
 40
2.0
 40
2.0
 40
2.0
 10
0.3006286871552187
 20
16.82098251102482
 30
0.0
 10
0.0386973538379618
 20
16.6697563852249
 30
0.0
 10
-0.0114253087104023
 20
16.49986036735093
 30
0.0
 10
0.0783104258519913
 20
16.4480514168454
 30
0.0
  0
SPLINE
  5
2BCF
330
2BAC
100
AcDbEntity
  8
0
100
AcDbSpline
210
0.0
220
0.0
230
1.0
 70
     8
 71
     3
 72
    12
 73
     8
 74
     0
 42
0.000000001
 43
0.0000000001
 40
-0.0195887520481805
 40
-0.0195887520481805
 40
-0.0195887520481805
 40
-0.0195887520481805
 40
-0.0187359721154918
 40
-0.0187359721154918
 40
-0.0094511780382718
 40
-0.0094511780382718
 40
0.0
 40
0.0
 40
0.0
 40
0.0
 10
0.0081079149704068
 20
16.46764773063022
 30
0.0
 10
0.0081430299552984
 20
16.46594945627995
 30
0.0
 10
0.0082059831196078
 20
16.46428135353265
 30
0.0
 10
0.0091535703269002
 20
16.44478055541144
 30
0.0
 10
0.0147425334569498
 20
16.42734350354411
 30
0.0
 10
0.0384815092568537
 20
16.39399205484576
 30
0.0
 10
0.0560337855817801
 20
16.37926318300927
 30
0.0
 10
0.0783104258519913
 20
16.36640175875262
 30
0.0
  0
LINE
  5
2BD0
330
2BAC
100
AcDbEntity
  8
0
100
AcDbLine
 10
0.0783104258519913
 20
16.36640175875262
 30
0.0
 11
0.0783104258519913
 21
16.44805141684539
 31
0.0
  0
SPLINE
  5
2BD1
330
2BAC
100
AcDbEntity
  8
0
100
AcDbSpline
210
0.0
220
0.0
230
1.0
 70
     8
 71
     2
 72
     7
 73
     4
 74
     0
 42
0.000000001
 43
0.0000000001
 40
0.0
 40
0.0
 40
0.0
 40
1.0
 40
2.0
 40
2.0
 40
2.0
 10
0.0783104258519913
 20
16.4480514168454
 30
0.0
 10
0.1672377303732822
 20
16.39670921364173
 30
0.0
 10
0.4623146953757474
 20
16.42611429365838
 30
0.0
 10
0.7234375986519018
 20
16.57687367215644
 30
0.0
  0
SPLINE
  5
2BD2
330
2BAC
100
AcDbEntity
  8
0
100
AcDbSpline
210
0.0
220
0.0
230
1.0
 70
     8
 71
     3
 72
    16
 73
    12
 74
     0
 42
0.000000001
 43
0.0000000001
 40
-0.1316439447214695
 40
-0.1316439447214695
 40
-0.1316439447214695
 40
-0.1316439447214695
 40
-0.1146389982537619
 40
-0.1146389982537619
 40
-0.0978612385826379
 40
-0.0978612385826379
 40
-0.0652893432516137
 40
-0.0652893432516137
 40
-0.0388214793591702
 40
-0.0388214793591702
 40
0.0
 40
0.0
 40
0.0
 40
0.0
 10
0.0783104258519913
 20
16.36640175875262
 30
0.0
 10
0.0926899766107061
 20
16.35809972125125
 30
0.0
 10
0.1085782640579005
 20
16.35088535619977
 30
0.0
 10
0.1434568761344084
 20
16.33911447129288
 30
0.0
 10
0.1618374971935881
 20
16.33471452836399
 30
0.0
 10
0.2187907817420113
 20
16.32578392905811
 30
0.0
 10
0.2580845590572486
 20
16.32534589784356
 30
0.0
 10
0.3280900416911358
 20
16.33050621514554
 30
0.0
 10
0.3695389059114384
 20
16.3357633285656
 30
0.0
 10
0.528672206279744
 20
16.38917748590037
 30
0.0
 10
0.6319344942833592
 20
16.4423946721248
 30
0.0
 10
0.7234375986519018
 20
16.49522401406366
 30
0.0
  0
LINE
  5
2BD3
330
2BAC
100
AcDbEntity
  8
0
100
AcDbLine
 10
0.7234375986519016
 20
16.49522401406366
 30
0.0
 11
0.7234375986519016
 21
16.57687367215643
 31
0.0
  0
SPLINE
  5
2BD4
330
2BAC
100
AcDbEntity
  8
0
100
AcDbSpline
210
0.0
220
0.0
230
1.0
 70
     8
 71
     2
 72
     9
 73
     6
 74
     0
 42
0.000000001
 43
0.0000000001
 40
0.0
 40
0.0
 40
0.0
 40
1.0
 40
2.0
 40
3.0
 40
4.0
 40
4.0
 40
4.0
 10
1.054085485462883
 20
17.01141541018028
 30
0.0
 10
1.13897063977866
 20
16.96240694348586
 30
0.0
 10
1.199602892861359
 20
16.84805385453222
 30
0.0
 10
1.153522380518508
 20
16.72529931414525
 30
0.0
 10
1.015280843489956
 20
16.59040934391014
 30
0.0
 10
0.8576369854749408
 20
16.49939362004908
 30
0.0
  0
LINE
  5
2BD5
330
2BAC
100
AcDbEntity
  8
0
100
AcDbLine
 10
1.054085485462883
 20
16.92976575208749
 30
0.0
 11
1.054085485462883
 21
17.01141541018026
 31
0.0
  0
SPLINE
  5
2BD6
330
2BAC
100
AcDbEntity
  8
0
100
AcDbSpline
210
0.0
220
0.0
230
1.0
 70
     8
 71
     3
 72
    12
 73
     8
 74
     0
 42
0.000000001
 43
0.0000000001
 40
-0.1489082982956959
 40
-0.1489082982956959
 40
-0.1489082982956959
 40
-0.1489082982956959
 40
-0.1296906340609297
 40
-0.1296906340609297
 40
-0.1117996883946023
 40
-0.1117996883946023
 40
-0.1021225654270244
 40
-0.1021225654270244
 40
-0.1021225654270244
 40
-0.1021225654270244
 10
1.054085485462883
 20
16.92976575208749
 30
0.0
 10
1.079293415038458
 20
16.91521194716132
 30
0.0
 10
1.102209210522285
 20
16.89935745183071
 30
0.0
 10
1.139664416039565
 20
16.86600834511374
 30
0.0
 10
1.154399804553758
 20
16.84894607326085
 30
0.0
 10
1.171050890111844
 20
16.82102665436782
 30
0.0
 10
1.176402365258548
 20
16.80992822698282
 30
0.0
 10
1.180280515289901
 20
16.79758642398325
 30
0.0
  0
SPLINE
  5
2BD7
330
2BAC
100
AcDbEntity
  8
0
100
AcDbSpline
210
0.0
220
0.0
230
1.0
 70
     8
 71
     2
 72
     8
 73
     5
 74
     0
 42
0.000000001
 43
0.0000000001
 40
0.0
 40
0.0
 40
0.0
 40
1.0
 40
2.0
 40
3.0
 40
3.0
 40
3.0
 10
0.1664293003321796
 20
16.89846256313219
 30
0.0
 10
0.3547934999090958
 20
17.00721468446361
 30
0.0
 10
0.6619969155281006
 20
17.09496317721171
 30
0.0
 10
0.9376715595441023
 20
17.0786270216469
 30
0.0
 10
1.054085485462883
 20
17.01141541018027
 30
0.0
  0
LINE
  5
2BD8
330
2BAC
100
AcDbEntity
  8
0
100
AcDbLine
 10
0.1664293003321795
 20
16.81681290503941
 30
0.0
 11
0.1664293003321796
 21
16.89846256313218
 31
0.0
  0
SPLINE
  5
2BD9
330
2BAC
100
AcDbEntity
  8
0
100
AcDbSpline
210
0.0
220
0.0
230
1.0
 70
     8
 71
     3
 72
    16
 73
    12
 74
     0
 42
0.000000001
 43
0.0000000001
 40
-0.0904804890000758
 40
-0.0904804890000758
 40
-0.0904804890000758
 40
-0.0904804890000758
 40
-0.0609286449548603
 40
-0.0609286449548603
 40
-0.0430076776619329
 40
-0.0430076776619329
 40
-0.0305742077581273
 40
-0.0305742077581273
 40
-0.0182470383319731
 40
-0.0182470383319731
 40
0.0
 40
0.0
 40
0.0
 40
0.0
 10
0.1664293003321795
 20
16.81681290503941
 30
0.0
 10
0.2346221292335334
 20
16.85618405316241
 30
0.0
 10
0.311078124270809
 20
16.89592145887435
 30
0.0
 10
0.4378377788717237
 20
16.94760857131954
 30
0.0
 10
0.5059877980888832
 20
16.97225484175794
 30
0.0
 10
0.6435946339319198
 20
17.00017955706666
 30
0.0
 10
0.7021804743502807
 20
17.00686136390317
 30
0.0
 10
0.8211704813420482
 20
17.00595355114873
 30
0.0
 10
0.8680464588134238
 20
16.99860556033512
 30
0.0
 10
0.9619316836522811
 20
16.97566044570396
 30
0.0
 10
1.011076803659186
 20
16.95459682610435
 30
0.0
 10
1.054085485462883
 20
16.92976575208749
 30
0.0
  0
SPLINE
  5
2BDA
330
2BAC
100
AcDbEntity
  8
0
100
AcDbSpline
210
0.0
220
0.0
230
1.0
 70
     8
 71
     2
 72
     6
 73
     3
 74
     0
 42
0.000000001
 43
0.0000000001
 40
0.0
 40
0.0
 40
0.0
 40
1.0
 40
1.0
 40
1.0
 10
-0.1601764362732888
 20
16.58854235470273
 30
0.0
 10
-0.1318813848346963
 20
16.72623280874895
 30
0.0
 10
0.1664293003321796
 20
16.89846256313219
 30
0.0
  0
SPLINE
  5
2BDB
330
2BAC
100
AcDbEntity
  8
0
100
AcDbSpline
210
0.0
220
0.0
230
1.0
 70
     8
 71
     3
 72
    12
 73
     8
 74
     0
 42
0.000000001
 43
0.0000000001
 40
-0.0605813861930637
 40
-0.0605813861930637
 40
-0.0605813861930637
 40
-0.0605813861930637
 40
-0.050251012952018
 40
-0.050251012952018
 40
-0.035758791167233
 40
-0.035758791167233
 40
0.0
 40
0.0
 40
0.0
 40
0.0
 10
-0.1567823305337153
 20
16.52037794823194
 30
0.0
 10
-0.150945695161469
 20
16.54000861938012
 30
0.0
 10
-0.1413593727825906
 20
16.55925226627501
 30
0.0
 10
-0.1120288255419267
 20
16.6040523404912
 30
0.0
 10
-0.0895440578081036
 20
16.62933709650142
 30
0.0
 10
-0.0022802671385169
 20
16.71214278287346
 30
0.0
 10
0.0821450212608994
 20
16.76815135382915
 30
0.0
 10
0.1664293003321795
 20
16.81681290503941
 30
0.0
  0
SPLINE
  5
2BDC
330
2BAC
100
AcDbEntity
  8
0
100
AcDbSpline
210
0.0
220
0.0
230
1.0
 70
     8
 71
     2
 72
     6
 73
     3
 74
     0
 42
0.000000001
 43
0.0000000001
 40
0.0
 40
0.0
 40
0.0
 40
1.0
 40
1.0
 40
1.0
 10
0.7258628887752097
 20
16.9890115396914
 30
0.0
 10
0.5617515904313729
 20
16.97174188952289
 30
0.0
 10
0.3006286871552187
 20
16.82098251102482
 30
0.0
  0
SPLINE
  5
2BDD
330
2BAC
100
AcDbEntity
  8
0
100
AcDbSpline
210
0.0
220
0.0
230
1.0
 70
     8
 71
     2
 72
     6
 73
     3
 74
     0
 42
0.000000001
 43
0.0000000001
 40
0.0
 40
0.0
 40
0.0
 40
1.0
 40
1.0
 40
1.0
 10
0.9449474299140261
 20
16.95027151363771
 30
0.0
 10
0.8552116953516327
 20
17.00208046414324
 30
0.0
 10
0.7258628887752097
 20
16.9890115396914
 30
0.0
  0
SPLINE
  5
2BDE
330
2BAC
100
AcDbEntity
  8
0
100
AcDbSpline
210
0.0
220
0.0
230
1.0
 70
     8
 71
     2
 72
     7
 73
     4
 74
     0
 42
0.000000001
 43
0.0000000001
 40
0.0
 40
0.0
 40
0.0
 40
1.0
 40
2.0
 40
2.0
 40
2.0
 10
0.7234375986519018
 20
16.57687367215644
 30
0.0
 10
0.9853689319691584
 20
16.72809979795635
 30
0.0
 10
1.035491594517522
 20
16.89799581583034
 30
0.0
 10
0.9449474299140261
 20
16.95027151363771
 30
0.0
  0
SPLINE
  5
2BDF
330
2BAC
100
AcDbEntity
  8
0
100
AcDbSpline
210
0.0
220
0.0
230
1.0
 70
     8
 71
     3
 72
    12
 73
     8
 74
     0
 42
0.000000001
 43
0.0000000001
 40
-0.0525844939629557
 40
-0.0525844939629557
 40
-0.0525844939629557
 40
-0.0525844939629557
 40
-0.0380086084305596
 40
-0.0380086084305596
 40
-0.0286865702032854
 40
-0.0286865702032854
 40
-0.0197365609350677
 40
-0.0197365609350677
 40
-0.0197365609350677
 40
-0.0197365609350677
 10
0.7234375986519018
 20
16.49522401406366
 30
0.0
 10
0.7877173640763877
 20
16.53233595393494
 30
0.0
 10
0.8567693445883451
 20
16.57538655160606
 30
0.0
 10
0.9457026494384299
 20
16.64484632360877
 30
0.0
 10
0.9771703993836398
 20
16.67382856096097
 30
0.0
 10
1.013564758539356
 20
16.72826513119448
 30
0.0
 10
1.016264168863767
 20
16.74895778088283
 30
0.0
 10
1.015915137643515
 20
16.7666936611175
 30
0.0
  0
LINE
  5
2BE0
330
2BAC
100
AcDbEntity
  8
0
100
AcDbLine
 10
0.008164886863078
 20
16.46764812329687
 30
0.0
 11
0.008164886863078
 21
16.54929778138965
 31
0.0
  0
LINE
  5
2BE1
330
2BAC
100
AcDbEntity
  8
0
100
AcDbLine
 10
1.015863139253827
 20
16.76669332001871
 30
0.0
 11
1.015863139253827
 21
16.84834297811149
 31
0.0
  0
ELLIPSE
  5
2BE2
330
2BAC
100
AcDbEntity
  8
0
100
AcDbEllipse
 10
-0.0000000000000047
 20
16.3296377380128
 30
0.0
 11
3.250000000000009
 21
-0.0000000000001946
 31
0.0
210
0.0
220
0.0
230
1.0
 40
0.5773502691896259
 41
0.0
 42
6.283185307179586
  0
LINE
  5
2BE3
330
2BAC
100
AcDbEntity
  8
0
100
AcDbLine
 10
0.0
 20
-16.37770520197028
 30
0.0
 11
0.0
 21
-16.38852384684535
 31
0.0
  0
LINE
  5
2BE4
330
2BAC
100
AcDbEntity
  8
0
100
AcDbLine
 10
0.0
 20
-16.37770520197028
 30
0.0
 11
-0.1752896614138504
 21
-16.27650166876684
 31
0.0
  0
ELLIPSE
  5
2BE5
330
2BAC
100
AcDbEntity
  8
0
100
AcDbEllipse
 10
-0.0423970565361158
 20
-16.24857584100346
 30
0.0
 11
0.1414213562373098
 21
-0.0000000000000002
 31
0.0
210
0.0
220
0.0
230
1.0
 40
0.5773502691896243
 41
3.490658503988631
 42
3.92699081698722
  0
LINE
  5
2BE6
330
2BAC
100
AcDbEntity
  8
0
100
AcDbLine
 10
0.1752896614138326
 20
-16.27650166876684
 30
0.0
 11
0.0
 21
-16.37770520197028
 31
0.0
  0
ELLIPSE
  5
2BE7
330
2BAC
100
AcDbEntity
  8
0
100
AcDbEllipse
 10
0.042397056536098
 20
-16.24857584100346
 30
0.0
 11
0.141421356237309
 21
-0.0000000000000003
 31
0.0
210
0.0
220
0.0
230
1.0
 40
0.5773502691896279
 41
5.49778714378216
 42
5.934119456780747
  0
ELLIPSE
  5
2BE8
330
2BAC
100
AcDbEntity
  8
0
100
AcDbEllipse
 10
-0.0000000000000048
 20
15.51314115708508
 30
0.0
 11
3.500000000000009
 21
-0.0000000000000003
 31
0.0
210
0.0
220
0.0
230
1.0
 40
0.5773502691896261
 41
3.141592653589793
 42
6.283185307179586
  0
ELLIPSE
  5
2BE9
330
2BAC
100
AcDbEntity
  8
0
100
AcDbEllipse
 10
-0.0000000000000048
 20
16.12551359278087
 30
0.0
 11
-3.500000000000009
 21
0.0000000000000002
 31
0.0
210
0.0
220
0.0
230
1.0
 40
0.5773502691896261
 41
0.0000000000000003
 42
3.141592653589793
  0
LINE
  5
2BEA
330
2BAC
100
AcDbEntity
  8
0
100
AcDbLine
 10
0.0
 20
-16.38852384684536
 30
0.0
 11
-0.1423970565361161
 21
-16.30631086792242
 31
0.0
  0
LINE
  5
2BEB
330
2BAC
100
AcDbEntity
  8
0
100
AcDbLine
 10
0.1423970565360977
 20
-16.30631086792242
 30
0.0
 11
0.0
 21
-16.38852384684536
 31
0.0
  0
SPLINE
  5
2BEC
330
2BAC
100
AcDbEntity
  8
0
100
AcDbSpline
210
0.0
220
0.0
230
1.0
 70
     8
 71
     3
 72
    26
 73
    22
 74
     0
 42
0.000000001
 43
0.0000000001
 40
3.926990816987241
 40
3.926990816987241
 40
3.926990816987241
 40
3.926990816987241
 40
4.18090827222432
 40
4.18090827222432
 40
4.459612473143646
 40
4.459612473143646
 40
4.785810895217632
 40
4.785810895217632
 40
5.130298550732668
 40
5.130298550732668
 40
5.472112732357818
 40
5.472112732357818
 40
5.811686729235356
 40
5.811686729235356
 40
6.152929357162729
 40
6.152929357162729
 40
6.497508216313473
 40
6.497508216313473
 40
6.828212222362012
 40
6.828212222362012
 40
7.068583470577034
 40
7.068583470577034
 40
7.068583470577034
 40
7.068583470577034
 10
-3.500000000000014
 20
15.51314115708508
 30
0.0
 10
-3.500000000000014
 20
15.29324219038547
 30
0.0
 10
-3.450321130804012
 20
15.07432416581656
 30
0.0
 10
-3.260554486137474
 20
14.65215150537261
 30
0.0
 10
-3.113751303736344
 20
14.45218131721414
 30
0.0
 10
-2.724281983716076
 20
14.07070287935342
 30
0.0
 10
-2.469193435707718
 20
13.89693231178947
 30
0.0
 10
-1.880696172589285
 20
13.60372154110116
 30
0.0
 10
-1.543196767270724
 20
13.48797118547653
 30
0.0
 10
-0.8321816023514555
 20
13.32993638307543
 30
0.0
 10
-0.4590306071528466
 20
13.28727014269552
 30
0.0
 10
0.2877212257028125
 20
13.27619851161112
 30
0.0
 10
0.6611420980562169
 20
13.30731806098233
 30
0.0
 10
1.37745257584207
 20
13.44157379412407
 30
0.0
 10
1.720087385915318
 20
13.54491380835758
 30
0.0
 10
2.344079496730382
 20
13.82172122266935
 30
0.0
 10
2.625202989652616
 20
13.99566249750709
 30
0.0
 10
3.081735018131619
 20
14.40591056341106
 30
0.0
 10
3.261753084570155
 20
14.64104020902433
 30
0.0
 10
3.455569187820959
 20
15.0975686217271
 30
0.0
 10
3.500000000000004
 20
15.30497354979149
 30
0.0
 10
3.500000000000004
 20
15.51314115708508
 30
0.0
  0
SPLINE
  5
2BED
330
2BAC
100
AcDbEntity
  8
0
100
AcDbSpline
210
0.0
220
0.0
230
1.0
 70
     8
 71
     3
 72
    26
 73
    22
 74
     0
 42
0.000000001
 43
0.0000000001
 40
0.7853981633974483
 40
0.7853981633974483
 40
0.7853981633974483
 40
0.7853981633974483
 40
1.066823108986854
 40
1.066823108986854
 40
1.368550437254481
 40
1.368550437254481
 40
1.696076798797079
 40
1.696076798797079
 40
2.028186960742127
 40
2.028186960742127
 40
2.358377837585618
 40
2.358377837585618
 40
2.687644070884362
 40
2.687644070884362
 40
3.017853549584236
 40
3.017853549584236
 40
3.349968623515759
 40
3.349968623515759
 40
3.677219723477697
 40
3.677219723477697
 40
3.926990816987241
 40
3.926990816987241
 40
3.926990816987241
 40
3.926990816987241
 10
3.500000000000005
 20
16.12551359278087
 30
0.0
 10
3.500000000000005
 20
16.3421546169045
 30
0.0
 10
3.446116938667893
 20
16.55800420493671
 30
0.0
 10
3.238014997220562
 20
16.97359969207673
 30
0.0
 10
3.077916978986689
 20
17.1715039814712
 30
0.0
 10
2.659993220554673
 20
17.53726804587995
 30
0.0
 10
2.39465049932681
 20
17.70162422110843
 30
0.0
 10
1.791518772665574
 20
17.97194380063799
 30
0.0
 10
1.452657098569416
 20
18.07694576299809
 30
0.0
 10
0.7398252301111047
 20
18.21699753867132
 30
0.0
 10
0.366181271794366
 20
18.25236823146689
 30
0.0
 10
-0.3799571153534167
 20
18.25142768059846
 30
0.0
 10
-0.7523078184649555
 20
18.21531863520064
 30
0.0
 10
-1.461339032481581
 20
18.07443952503812
 30
0.0
 10
-1.797805419115575
 20
17.9695538101025
 30
0.0
 10
-2.402746979093274
 20
17.69755927556256
 30
0.0
 10
-2.670927597751324
 20
17.53020433150414
 30
0.0
 10
-3.10524086611118
 20
17.14497940318743
 30
0.0
 10
-3.273179797892225
 20
16.92719326725363
 30
0.0
 10
-3.457689951015868
 20
16.50960103610327
 30
0.0
 10
-3.500000000000014
 20
16.31778747021224
 30
0.0
 10
-3.500000000000014
 20
16.12551359278087
 30
0.0
  0
LINE
  5
2BEE
330
2BAC
100
AcDbEntity
  8
0
100
AcDbLine
 10
-0.8876694027088978
 20
15.6445182014625
 30
0.0
 11
-1.514864136027242
 21
16.00662924957816
 31
0.0
  0
LINE
  5
2BEF
330
2BAC
100
AcDbEntity
  8
0
100
AcDbLine
 10
-1.514864136027242
 20
16.00662924957816
 30
0.0
 11
-1.302732101671278
 21
16.12910373671732
 31
0.0
  0
LINE
  5
2BF0
330
2BAC
100
AcDbEntity
  8
0
100
AcDbLine
 10
-1.302732101671278
 20
16.12910373671732
 30
0.0
 11
-0.553062881213775
 21
15.696282010483
 31
0.0
  0
LINE
  5
2BF1
330
2BAC
100
AcDbEntity
  8
0
100
AcDbLine
 10
-0.553062881213775
 20
15.696282010483
 30
0.0
 11
-0.218456359718654
 21
15.74804581950351
 31
0.0
  0
LINE
  5
2BF2
330
2BAC
100
AcDbEntity
  8
0
100
AcDbLine
 10
-0.218456359718654
 20
15.74804581950351
 30
0.0
 11
-1.090600067315315
 21
16.25157822385648
 31
0.0
  0
LINE
  5
2BF3
330
2BAC
100
AcDbEntity
  8
0
100
AcDbLine
 10
-1.090600067315315
 20
16.25157822385648
 30
0.0
 11
-0.8784680329593497
 21
16.37405271099564
 31
0.0
  0
LINE
  5
2BF4
330
2BAC
100
AcDbEntity
  8
0
100
AcDbLine
 10
-0.8784680329593497
 20
16.37405271099564
 30
0.0
 11
0.1161501617764713
 21
15.79980962852401
 31
0.0
  0
LINE
  5
2BF5
330
2BAC
100
AcDbEntity
  8
0
100
AcDbLine
 10
0.1161501617764713
 20
15.79980962852401
 30
0.0
 11
0.972914100609136
 21
15.93235147112535
 31
0.0
  0
LINE
  5
2BF6
330
2BAC
100
AcDbEntity
  8
0
100
AcDbLine
 10
0.9729141006091362
 20
15.93235147112535
 30
0.0
 11
1.050559814139893
 21
15.76504821037779
 31
0.0
  0
LINE
  5
2BF7
330
2BAC
100
AcDbEntity
  8
0
100
AcDbLine
 10
1.050559814139893
 20
15.76504821037779
 30
0.0
 11
0.3610991360547894
 21
15.6583882722867
 31
0.0
  0
LINE
  5
2BF8
330
2BAC
100
AcDbEntity
  8
0
100
AcDbLine
 10
0.3610991360547893
 20
15.6583882722867
 30
0.0
 11
0.9882938693731329
 21
15.29627722417104
 31
0.0
  0
LINE
  5
2BF9
330
2BAC
100
AcDbEntity
  8
0
100
AcDbLine
 10
0.9882938693731329
 20
15.29627722417104
 30
0.0
 11
0.7761618350171674
 21
15.17380273703188
 31
0.0
  0
LINE
  5
2BFA
330
2BAC
100
AcDbEntity
  8
0
100
AcDbLine
 10
0.7761618350171674
 20
15.17380273703188
 30
0.0
 11
0.0264926145596636
 21
15.6066244632662
 31
0.0
  0
LINE
  5
2BFB
330
2BAC
100
AcDbEntity
  8
0
100
AcDbLine
 10
0.0264926145596637
 20
15.6066244632662
 30
0.0
 11
-0.3081139069354574
 21
15.5548606542457
 31
0.0
  0
LINE
  5
2BFC
330
2BAC
100
AcDbEntity
  8
0
100
AcDbLine
 10
-0.3081139069354574
 20
15.5548606542457
 30
0.0
 11
0.5640298006612045
 21
15.05132824989273
 31
0.0
  0
LINE
  5
2BFD
330
2BAC
100
AcDbEntity
  8
0
100
AcDbLine
 10
0.5640298006612045
 20
15.05132824989273
 30
0.0
 11
0.3518977663052414
 21
14.92885376275357
 31
0.0
  0
LINE
  5
2BFE
330
2BAC
100
AcDbEntity
  8
0
100
AcDbLine
 10
0.3518977663052414
 20
14.92885376275357
 30
0.0
 11
-0.6427204284305801
 21
15.50309684522519
 31
0.0
  0
LINE
  5
2BFF
330
2BAC
100
AcDbEntity
  8
0
100
AcDbLine
 10
-0.6427204284305801
 20
15.50309684522519
 30
0.0
 11
-1.499484367263244
 21
15.37055500262385
 31
0.0
  0
LINE
  5
2C00
330
2BAC
100
AcDbEntity
  8
0
100
AcDbLine
 10
-1.499484367263244
 20
15.37055500262385
 30
0.0
 11
-1.577130080794
 21
15.53785826337141
 31
0.0
  0
LINE
  5
2C01
330
2BAC
100
AcDbEntity
  8
0
100
AcDbLine
 10
-1.577130080794
 20
15.53785826337141
 30
0.0
 11
-0.8876694027088978
 21
15.6445182014625
 31
0.0
  0
LINE
  5
2C02
330
2BAC
100
AcDbEntity
  8
0
100
AcDbLine
 10
0.1161501617764715
 20
15.71815997043124
 30
0.0
 11
0.1161501617764713
 21
15.79980962852401
 31
0.0
  0
LINE
  5
2C03
330
2BAC
100
AcDbEntity
  8
0
100
AcDbLine
 10
-0.8784680329593497
 20
16.37405271099564
 30
0.0
 11
-0.8784680329593497
 21
16.29240305290287
 31
0.0
  0
LINE
  5
2C04
330
2BAC
100
AcDbEntity
  8
0
100
AcDbLine
 10
0.1161501617764715
 20
15.71815997043124
 30
0.0
 11
-0.8784680329593495
 21
16.29240305290287
 31
0.0
  0
LINE
  5
2C05
330
2BAC
100
AcDbEntity
  8
0
100
AcDbLine
 10
-0.218456359718654
 20
15.74804581950351
 30
0.0
 11
-0.2184563597186538
 21
15.66639616141074
 31
0.0
  0
LINE
  5
2C06
330
2BAC
100
AcDbEntity
  8
0
100
AcDbLine
 10
0.3610991360547893
 20
15.6583882722867
 30
0.0
 11
0.3610991360547891
 21
15.57673861419393
 31
0.0
  0
LINE
  5
2C07
330
2BAC
100
AcDbEntity
  8
0
100
AcDbLine
 10
0.9175831912544772
 20
15.25545239512466
 30
0.0
 11
0.3610991360547891
 21
15.57673861419393
 31
0.0
  0
LINE
  5
2C08
330
2BAC
100
AcDbEntity
  8
0
100
AcDbLine
 10
-0.8784680329593497
 20
16.29240305290287
 30
0.0
 11
-1.01988938919666
 21
16.21075339481009
 31
0.0
  0
LINE
  5
2C09
330
2BAC
100
AcDbEntity
  8
0
100
AcDbLine
 10
-0.3081139069354574
 20
15.5548606542457
 30
0.0
 11
-0.3081139069354574
 21
15.47321099615292
 31
0.0
  0
LINE
  5
2C0A
330
2BAC
100
AcDbEntity
  8
0
100
AcDbLine
 10
-0.553062881213775
 20
15.61463235239023
 30
0.0
 11
-0.553062881213775
 21
15.696282010483
 31
0.0
  0
LINE
  5
2C0B
330
2BAC
100
AcDbEntity
  8
0
100
AcDbLine
 10
-0.2184563597186538
 20
15.66639616141074
 30
0.0
 11
-0.553062881213775
 21
15.61463235239023
 31
0.0
  0
LINE
  5
2C0C
330
2BAC
100
AcDbEntity
  8
0
100
AcDbLine
 10
-1.302732101671278
 20
16.12910373671732
 30
0.0
 11
-1.302732101671278
 21
16.04745407862455
 31
0.0
  0
LINE
  5
2C0D
330
2BAC
100
AcDbEntity
  8
0
100
AcDbLine
 10
-0.553062881213775
 20
15.61463235239023
 30
0.0
 11
-1.302732101671278
 21
16.04745407862455
 31
0.0
  0
LINE
  5
2C0E
330
2BAC
100
AcDbEntity
  8
0
100
AcDbLine
 10
0.4933191225425481
 20
15.01050342084634
 30
0.0
 11
-0.3081139069354573
 21
15.47321099615292
 31
0.0
  0
LINE
  5
2C0F
330
2BAC
100
AcDbEntity
  8
0
100
AcDbLine
 10
-0.8876694027088978
 20
15.6445182014625
 30
0.0
 11
-0.8876694027088978
 21
15.56286854336973
 31
0.0
  0
LINE
  5
2C10
330
2BAC
100
AcDbEntity
  8
0
100
AcDbLine
 10
-1.302732101671278
 20
16.04745407862455
 30
0.0
 11
-1.444153457908587
 21
15.96580442053177
 31
0.0
  0
LINE
  5
2C11
330
2BAC
100
AcDbEntity
  8
0
100
AcDbLine
 10
0.9729141006091362
 20
15.85070181303258
 30
0.0
 11
0.1161501617764714
 21
15.71815997043124
 31
0.0
  0
LINE
  5
2C12
330
2BAC
100
AcDbEntity
  8
0
100
AcDbLine
 10
-0.8876694027088978
 20
15.56286854336973
 30
0.0
 11
-1.541774741734673
 21
15.4616780952657
 31
0.0
  0
LINE
  5
2C13
330
2BAC
100
AcDbEntity
  8
0
100
AcDbLine
 10
1.015204475080565
 20
15.75957872039073
 30
0.0
 11
0.9729141006091362
 21
15.85070181303258
 31
0.0
  0
LINE
  5
2C14
330
2BAC
100
AcDbEntity
  8
0
100
AcDbLine
 10
0.9729141006091362
 20
15.93235147112535
 30
0.0
 11
0.9729141006091362
 21
15.85070181303258
 31
0.0
  0
LINE
  5
2C15
330
2BAC
100
AcDbEntity
  8
0
100
AcDbLine
 10
-2.200000000000009
 20
-13.06479107004032
 30
0.0
 11
-0.1752896614138502
 21
-16.27650166876684
 31
0.0
  0
LINE
  5
2C16
330
2BAC
100
AcDbEntity
  8
0
100
AcDbLine
 10
0.0
 20
-14.33496166225749
 30
0.0
 11
0.0
 21
-16.37770520197028
 31
0.0
  0
ELLIPSE
  5
2C17
330
2BAC
100
AcDbEntity
  8
0
100
AcDbEllipse
 10
-0.0000000000000089
 20
-16.55455609101232
 30
0.0
 11
1.977122509811719
 21
-4.10969426810152
 31
0.0
210
0.0
220
0.0
230
1.0
 40
0.2347805934183503
 41
2.024814548144748
 42
2.472500311819171
  0
LINE
  5
2C18
330
2BAC
100
AcDbEntity
  8
0
100
AcDbLine
 10
-0.9523371523777555
 20
-13.04304849030831
 30
0.0
 11
-1.98319286712137
 21
-12.44788366590542
 31
0.0
  0
ELLIPSE
  5
2C19
330
2BAC
100
AcDbEntity
  8
0
100
AcDbEllipse
 10
-0.0000000000000089
 20
-16.55455609101232
 30
0.0
 11
1.977122509811719
 21
-4.10969426810152
 31
0.0
210
0.0
220
0.0
230
1.0
 40
0.2347805934183503
 41
3.147925111265223
 42
3.595610874939646
  0
LINE
  5
2C1A
330
2BAC
100
AcDbEntity
  8
0
100
AcDbLine
 10
0.1752896614138326
 20
-16.27650166876684
 30
0.0
 11
2.199999999999991
 21
-13.06479107004032
 31
0.0
  0
ELLIPSE
  5
2C1B
330
2BAC
100
AcDbEntity
  8
0
100
AcDbEllipse
 10
-0.0000000000000089
 20
-10.87743082846119
 30
0.0
 11
-1.75
 21
0.0
 31
0.0
210
0.0
220
0.0
230
1.0
 40
0.5773502691896259
 41
0.3143546097304777
 42
2.827238043859316
  0
ELLIPSE
  5
2C1C
330
2BAC
100
AcDbEntity
  8
0
100
AcDbEllipse
 10
-0.0000000000000089
 20
-10.96200511734918
 30
0.0
 11
-2.126524613390195
 21
0.0
 31
0.0
210
0.0
220
0.0
230
1.0
 40
0.5773502691896259
 41
5.956776068670667
 42
9.751187199278296
  0
ELLIPSE
  5
2C1D
330
2BAC
100
AcDbEntity
  8
0
100
AcDbEllipse
 10
-0.0000000000000089
 20
-11.07344297248326
 30
0.0
 11
-2.191623175793064
 21
0.0
 31
0.0
210
0.0
220
0.0
230
1.0
 40
0.5773502691896262
 41
0.3143546097304637
 42
2.827238043859327
  0
ELLIPSE
  5
2C1E
330
2BAC
100
AcDbEntity
  8
0
100
AcDbEllipse
 10
-0.0000000000000089
 20
-11.89805155462084
 30
0.0
 11
-1.75
 21
0.0
 31
0.0
210
0.0
220
0.0
230
1.0
 40
0.5773502691896259
 41
0.3143546097304777
 42
2.827238043859316
  0
ELLIPSE
  5
2C1F
330
2BAC
100
AcDbEntity
  8
0
100
AcDbEllipse
 10
-0.0000000000000089
 20
-11.89805155462084
 30
0.0
 11
-2.2
 21
-0.0000000000000001
 31
0.0
210
0.0
220
0.0
230
1.0
 40
0.5773502691896259
 41
5.946500859423642
 42
6.730871070854008
  0
ELLIPSE
  5
2C20
330
2BAC
100
AcDbEntity
  8
0
100
AcDbEllipse
 10
-0.0000000000000089
 20
-11.89805155462084
 30
0.0
 11
-2.2
 21
0.0000000000001315
 31
0.0
210
0.0
220
0.0
230
1.0
 40
0.577350269189626
 41
1.12311056312054
 42
2.018482090469387
  0
ELLIPSE
  5
2C21
330
2BAC
100
AcDbEntity
  8
0
100
AcDbEllipse
 10
-0.0000000000000089
 20
-11.89805155462084
 30
0.0
 11
2.2
 21
0.0
 31
0.0
210
0.0
220
0.0
230
1.0
 40
0.577350269189626
 41
5.835499543505163
 42
6.619869754935528
  0
ELLIPSE
  5
2C22
330
2BAC
100
AcDbEntity
  8
0
100
AcDbEllipse
 10
-0.0000000000000089
 20
-9.856810102301531
 30
0.0
 11
-1.75
 21
0.0
 31
0.0
210
0.0
220
0.0
230
1.0
 40
0.5773502691896259
 41
0.3143546097304777
 42
2.827238043859316
  0
ELLIPSE
  5
2C23
330
2BAC
100
AcDbEntity
  8
0
100
AcDbEllipse
 10
-0.0000000000000089
 20
-9.941384391189526
 30
0.0
 11
-2.126524613390195
 21
0.0
 31
0.0
210
0.0
220
0.0
230
1.0
 40
0.5773502691896259
 41
5.956776068670667
 42
9.751187199278296
  0
ELLIPSE
  5
2C24
330
2BAC
100
AcDbEntity
  8
0
100
AcDbEllipse
 10
-0.0000000000000089
 20
-10.0528222463236
 30
0.0
 11
-2.191623175793064
 21
0.0
 31
0.0
210
0.0
220
0.0
230
1.0
 40
0.5773502691896262
 41
0.3143546097304637
 42
2.827238043859327
  0
ELLIPSE
  5
2C25
330
2BAC
100
AcDbEntity
  8
0
100
AcDbEllipse
 10
-0.0000000000000089
 20
-8.836189376141877
 30
0.0
 11
-1.75
 21
0.0
 31
0.0
210
0.0
220
0.0
230
1.0
 40
0.5773502691896259
 41
0.3143546097304765
 42
2.827238043859316
  0
ELLIPSE
  5
2C26
330
2BAC
100
AcDbEntity
  8
0
100
AcDbEllipse
 10
-0.0000000000000089
 20
-8.92076366502987
 30
0.0
 11
-2.126524613390195
 21
0.0
 31
0.0
210
0.0
220
0.0
230
1.0
 40
0.5773502691896259
 41
5.956776068670667
 42
9.751187199278296
  0
ELLIPSE
  5
2C27
330
2BAC
100
AcDbEntity
  8
0
100
AcDbEllipse
 10
-0.0000000000000089
 20
-9.032201520163942
 30
0.0
 11
-2.191623175793064
 21
0.0
 31
0.0
210
0.0
220
0.0
230
1.0
 40
0.5773502691896262
 41
0.3143546097304637
 42
2.827238043859327
  0
ELLIPSE
  5
2C28
330
2BAC
100
AcDbEntity
  8
0
100
AcDbEllipse
 10
-0.0000000000000089
 20
-7.81556864998222
 30
0.0
 11
-1.75
 21
0.0
 31
0.0
210
0.0
220
0.0
230
1.0
 40
0.5773502691896259
 41
0.3143546097304765
 42
2.827238043859316
  0
ELLIPSE
  5
2C29
330
2BAC
100
AcDbEntity
  8
0
100
AcDbEllipse
 10
-0.0000000000000089
 20
-7.900142938870211
 30
0.0
 11
-2.126524613390195
 21
0.0
 31
0.0
210
0.0
220
0.0
230
1.0
 40
0.5773502691896259
 41
5.956776068670667
 42
9.751187199278296
  0
ELLIPSE
  5
2C2A
330
2BAC
100
AcDbEntity
  8
0
100
AcDbEllipse
 10
-0.0000000000000089
 20
-8.011580794004284
 30
0.0
 11
-2.191623175793064
 21
0.0
 31
0.0
210
0.0
220
0.0
230
1.0
 40
0.5773502691896262
 41
0.3143546097304637
 42
2.827238043859327
  0
ELLIPSE
  5
2C2B
330
2BAC
100
AcDbEntity
  8
0
100
AcDbEllipse
 10
-0.0000000000000089
 20
-6.794947923822562
 30
0.0
 11
-1.75
 21
0.0
 31
0.0
210
0.0
220
0.0
230
1.0
 40
0.5773502691896259
 41
0.3143546097304765
 42
2.827238043859316
  0
ELLIPSE
  5
2C2C
330
2BAC
100
AcDbEntity
  8
0
100
AcDbEllipse
 10
-0.0000000000000089
 20
-6.879522212710553
 30
0.0
 11
-2.126524613390195
 21
0.0
 31
0.0
210
0.0
220
0.0
230
1.0
 40
0.5773502691896259
 41
5.956776068670667
 42
9.751187199278296
  0
ELLIPSE
  5
2C2D
330
2BAC
100
AcDbEntity
  8
0
100
AcDbEllipse
 10
-0.0000000000000089
 20
-6.990960067844627
 30
0.0
 11
-2.191623175793064
 21
0.0
 31
0.0
210
0.0
220
0.0
230
1.0
 40
0.5773502691896262
 41
0.3143546097304637
 42
2.827238043859327
  0
ELLIPSE
  5
2C2E
330
2BAC
100
AcDbEntity
  8
0
100
AcDbEllipse
 10
-0.0000000000000089
 20
-5.774327197662905
 30
0.0
 11
-1.75
 21
0.0
 31
0.0
210
0.0
220
0.0
230
1.0
 40
0.5773502691896259
 41
0.3143546097304765
 42
2.827238043859316
  0
ELLIPSE
  5
2C2F
330
2BAC
100
AcDbEntity
  8
0
100
AcDbEllipse
 10
-0.0000000000000089
 20
-5.858901486550895
 30
0.0
 11
-2.126524613390195
 21
0.0
 31
0.0
210
0.0
220
0.0
230
1.0
 40
0.5773502691896259
 41
5.956776068670667
 42
9.751187199278296
  0
ELLIPSE
  5
2C30
330
2BAC
100
AcDbEntity
  8
0
100
AcDbEllipse
 10
-0.0000000000000089
 20
-5.970339341684969
 30
0.0
 11
-2.191623175793064
 21
0.0
 31
0.0
210
0.0
220
0.0
230
1.0
 40
0.5773502691896262
 41
0.3143546097304637
 42
2.827238043859327
  0
ELLIPSE
  5
2C31
330
2BAC
100
AcDbEntity
  8
0
100
AcDbEllipse
 10
-0.0000000000000089
 20
-4.753706471503244
 30
0.0
 11
-1.75
 21
0.0
 31
0.0
210
0.0
220
0.0
230
1.0
 40
0.5773502691896259
 41
0.3143546097304765
 42
2.827238043859316
  0
ELLIPSE
  5
2C32
330
2BAC
100
AcDbEntity
  8
0
100
AcDbEllipse
 10
-0.0000000000000089
 20
-4.838280760391238
 30
0.0
 11
-2.126524613390195
 21
0.0
 31
0.0
210
0.0
220
0.0
230
1.0
 40
0.5773502691896259
 41
5.956776068670667
 42
9.751187199278296
  0
ELLIPSE
  5
2C33
330
2BAC
100
AcDbEntity
  8
0
100
AcDbEllipse
 10
-0.0000000000000089
 20
-4.949718615525311
 30
0.0
 11
-2.191623175793064
 21
0.0
 31
0.0
210
0.0
220
0.0
230
1.0
 40
0.5773502691896262
 41
0.3143546097304637
 42
2.827238043859327
  0
ELLIPSE
  5
2C34
330
2BAC
100
AcDbEntity
  8
0
100
AcDbEllipse
 10
-0.0000000000000089
 20
-3.733085745343587
 30
0.0
 11
-1.75
 21
0.0
 31
0.0
210
0.0
220
0.0
230
1.0
 40
0.5773502691896259
 41
0.3143546097304765
 42
2.827238043859316
  0
ELLIPSE
  5
2C35
330
2BAC
100
AcDbEntity
  8
0
100
AcDbEllipse
 10
-0.0000000000000089
 20
-3.81766003423158
 30
0.0
 11
-2.126524613390195
 21
0.0
 31
0.0
210
0.0
220
0.0
230
1.0
 40
0.5773502691896259
 41
5.956776068670667
 42
9.751187199278296
  0
ELLIPSE
  5
2C36
330
2BAC
100
AcDbEntity
  8
0
100
AcDbEllipse
 10
-0.0000000000000089
 20
-3.929097889365655
 30
0.0
 11
-2.191623175793064
 21
0.0
 31
0.0
210
0.0
220
0.0
230
1.0
 40
0.5773502691896262
 41
0.3143546097304637
 42
2.827238043859327
  0
ELLIPSE
  5
2C37
330
2BAC
100
AcDbEntity
  8
0
100
AcDbEllipse
 10
-0.0000000000000089
 20
-2.712465019183929
 30
0.0
 11
-1.75
 21
0.0
 31
0.0
210
0.0
220
0.0
230
1.0
 40
0.5773502691896259
 41
0.3143546097304765
 42
2.827238043859316
  0
ELLIPSE
  5
2C38
330
2BAC
100
AcDbEntity
  8
0
100
AcDbEllipse
 10
-0.0000000000000089
 20
-2.797039308071922
 30
0.0
 11
-2.126524613390195
 21
0.0
 31
0.0
210
0.0
220
0.0
230
1.0
 40
0.5773502691896259
 41
5.956776068670667
 42
9.751187199278296
  0
ELLIPSE
  5
2C39
330
2BAC
100
AcDbEntity
  8
0
100
AcDbEllipse
 10
-0.0000000000000089
 20
-2.908477163205997
 30
0.0
 11
-2.191623175793064
 21
0.0
 31
0.0
210
0.0
220
0.0
230
1.0
 40
0.5773502691896262
 41
0.3143546097304637
 42
2.827238043859327
  0
ELLIPSE
  5
2C3A
330
2BAC
100
AcDbEntity
  8
0
100
AcDbEllipse
 10
-0.0000000000000089
 20
-1.691844293024271
 30
0.0
 11
-1.75
 21
0.0
 31
0.0
210
0.0
220
0.0
230
1.0
 40
0.5773502691896259
 41
0.3143546097304767
 42
2.827238043859316
  0
ELLIPSE
  5
2C3B
330
2BAC
100
AcDbEntity
  8
0
100
AcDbEllipse
 10
-0.0000000000000089
 20
-1.776418581912264
 30
0.0
 11
-2.126524613390195
 21
0.0
 31
0.0
210
0.0
220
0.0
230
1.0
 40
0.5773502691896259
 41
5.956776068670667
 42
9.751187199278296
  0
ELLIPSE
  5
2C3C
330
2BAC
100
AcDbEntity
  8
0
100
AcDbEllipse
 10
-0.0000000000000089
 20
-1.88785643704634
 30
0.0
 11
-2.191623175793064
 21
0.0000000000000002
 31
0.0
210
0.0
220
0.0
230
1.0
 40
0.577350269189626
 41
0.3143546097304664
 42
2.827238043859327
  0
ELLIPSE
  5
2C3D
330
2BAC
100
AcDbEntity
  8
0
100
AcDbEllipse
 10
-0.0000000000000089
 20
-0.6712235668646161
 30
0.0
 11
-1.75
 21
0.0
 31
0.0
210
0.0
220
0.0
230
1.0
 40
0.5773502691896259
 41
0.3143546097304768
 42
2.827238043859315
  0
ELLIPSE
  5
2C3E
330
2BAC
100
AcDbEntity
  8
0
100
AcDbEllipse
 10
-0.0000000000000089
 20
-0.7557978557526091
 30
0.0
 11
-2.126524613390195
 21
0.0
 31
0.0
210
0.0
220
0.0
230
1.0
 40
0.5773502691896259
 41
5.956776068670667
 42
9.751187199278296
  0
ELLIPSE
  5
2C3F
330
2BAC
100
AcDbEntity
  8
0
100
AcDbEllipse
 10
-0.0000000000000089
 20
-0.8672357108866822
 30
0.0
 11
-2.191623175793064
 21
0.0000000000000002
 31
0.0
210
0.0
220
0.0
230
1.0
 40
0.577350269189626
 41
0.3143546097304664
 42
2.827238043859327
  0
ELLIPSE
  5
2C40
330
2BAC
100
AcDbEntity
  8
0
100
AcDbEllipse
 10
-0.0000000000000089
 20
0.3493971592950418
 30
0.0
 11
-1.75
 21
0.0
 31
0.0
210
0.0
220
0.0
230
1.0
 40
0.5773502691896259
 41
0.3143546097304767
 42
2.827238043859315
  0
ELLIPSE
  5
2C41
330
2BAC
100
AcDbEntity
  8
0
100
AcDbEllipse
 10
-0.0000000000000089
 20
0.2648228704070488
 30
0.0
 11
-2.126524613390195
 21
0.0
 31
0.0
210
0.0
220
0.0
230
1.0
 40
0.5773502691896259
 41
5.956776068670667
 42
9.751187199278296
  0
ELLIPSE
  5
2C42
330
2BAC
100
AcDbEntity
  8
0
100
AcDbEllipse
 10
-0.0000000000000089
 20
0.1533850152729754
 30
0.0
 11
-2.191623175793064
 21
0.0000000000000002
 31
0.0
210
0.0
220
0.0
230
1.0
 40
0.577350269189626
 41
0.3143546097304664
 42
2.827238043859327
  0
ELLIPSE
  5
2C43
330
2BAC
100
AcDbEntity
  8
0
100
AcDbEllipse
 10
-0.0000000000000089
 20
1.370017885454699
 30
0.0
 11
-1.75
 21
0.0
 31
0.0
210
0.0
220
0.0
230
1.0
 40
0.5773502691896259
 41
0.3143546097304768
 42
2.827238043859315
  0
ELLIPSE
  5
2C44
330
2BAC
100
AcDbEntity
  8
0
100
AcDbEllipse
 10
-0.0000000000000089
 20
1.285443596566706
 30
0.0
 11
-2.126524613390195
 21
0.0
 31
0.0
210
0.0
220
0.0
230
1.0
 40
0.5773502691896259
 41
5.956776068670667
 42
9.751187199278296
  0
ELLIPSE
  5
2C45
330
2BAC
100
AcDbEntity
  8
0
100
AcDbEllipse
 10
-0.0000000000000089
 20
1.174005741432633
 30
0.0
 11
-2.191623175793064
 21
0.0000000000000002
 31
0.0
210
0.0
220
0.0
230
1.0
 40
0.577350269189626
 41
0.3143546097304664
 42
2.827238043859327
  0
ELLIPSE
  5
2C46
330
2BAC
100
AcDbEntity
  8
0
100
AcDbEllipse
 10
-0.0000000000000089
 20
2.390638611614357
 30
0.0
 11
-1.75
 21
0.0
 31
0.0
210
0.0
220
0.0
230
1.0
 40
0.5773502691896259
 41
0.3143546097304767
 42
2.827238043859316
  0
ELLIPSE
  5
2C47
330
2BAC
100
AcDbEntity
  8
0
100
AcDbEllipse
 10
-0.0000000000000089
 20
2.306064322726364
 30
0.0
 11
-2.126524613390195
 21
0.0
 31
0.0
210
0.0
220
0.0
230
1.0
 40
0.5773502691896259
 41
5.956776068670667
 42
9.751187199278296
  0
ELLIPSE
  5
2C48
330
2BAC
100
AcDbEntity
  8
0
100
AcDbEllipse
 10
-0.0000000000000089
 20
2.194626467592291
 30
0.0
 11
-2.191623175793064
 21
0.0000000000000002
 31
0.0
210
0.0
220
0.0
230
1.0
 40
0.577350269189626
 41
0.3143546097304664
 42
2.827238043859327
  0
ELLIPSE
  5
2C49
330
2BAC
100
AcDbEntity
  8
0
100
AcDbEllipse
 10
-0.0000000000000089
 20
3.411259337774015
 30
0.0
 11
-1.75
 21
0.0
 31
0.0
210
0.0
220
0.0
230
1.0
 40
0.5773502691896259
 41
0.3143546097304765
 42
2.827238043859316
  0
ELLIPSE
  5
2C4A
330
2BAC
100
AcDbEntity
  8
0
100
AcDbEllipse
 10
-0.0000000000000089
 20
3.326685048886022
 30
0.0
 11
-2.126524613390195
 21
0.0
 31
0.0
210
0.0
220
0.0
230
1.0
 40
0.5773502691896259
 41
5.956776068670667
 42
9.751187199278296
  0
ELLIPSE
  5
2C4B
330
2BAC
100
AcDbEntity
  8
0
100
AcDbEllipse
 10
-0.0000000000000089
 20
3.215247193751948
 30
0.0
 11
-2.191623175793064
 21
0.0000000000000002
 31
0.0
210
0.0
220
0.0
230
1.0
 40
0.577350269189626
 41
0.3143546097304666
 42
2.827238043859327
  0
ELLIPSE
  5
2C4C
330
2BAC
100
AcDbEntity
  8
0
100
AcDbEllipse
 10
-0.0000000000000089
 20
4.431880063933673
 30
0.0
 11
-1.75
 21
0.0
 31
0.0
210
0.0
220
0.0
230
1.0
 40
0.5773502691896259
 41
0.3143546097304765
 42
2.827238043859316
  0
ELLIPSE
  5
2C4D
330
2BAC
100
AcDbEntity
  8
0
100
AcDbEllipse
 10
-0.0000000000000089
 20
4.347305775045679
 30
0.0
 11
-2.126524613390195
 21
0.0
 31
0.0
210
0.0
220
0.0
230
1.0
 40
0.5773502691896259
 41
5.956776068670667
 42
9.751187199278296
  0
ELLIPSE
  5
2C4E
330
2BAC
100
AcDbEntity
  8
0
100
AcDbEllipse
 10
-0.0000000000000089
 20
4.235867919911607
 30
0.0
 11
-2.191623175793064
 21
0.0000000000000002
 31
0.0
210
0.0
220
0.0
230
1.0
 40
0.577350269189626
 41
0.3143546097304666
 42
2.827238043859327
  0
ELLIPSE
  5
2C4F
330
2BAC
100
AcDbEntity
  8
0
100
AcDbEllipse
 10
-0.0000000000000089
 20
5.45250079009333
 30
0.0
 11
-1.75
 21
0.0
 31
0.0
210
0.0
220
0.0
230
1.0
 40
0.5773502691896259
 41
0.3143546097304765
 42
2.827238043859316
  0
ELLIPSE
  5
2C50
330
2BAC
100
AcDbEntity
  8
0
100
AcDbEllipse
 10
-0.0000000000000089
 20
5.367926501205337
 30
0.0
 11
-2.126524613390195
 21
0.0
 31
0.0
210
0.0
220
0.0
230
1.0
 40
0.5773502691896259
 41
5.956776068670667
 42
9.751187199278296
  0
ELLIPSE
  5
2C51
330
2BAC
100
AcDbEntity
  8
0
100
AcDbEllipse
 10
-0.0000000000000089
 20
5.256488646071263
 30
0.0
 11
-2.191623175793064
 21
0.0000000000000002
 31
0.0
210
0.0
220
0.0
230
1.0
 40
0.577350269189626
 41
0.3143546097304666
 42
2.827238043859327
  0
ELLIPSE
  5
2C52
330
2BAC
100
AcDbEntity
  8
0
100
AcDbEllipse
 10
-0.0000000000000089
 20
6.473121516252988
 30
0.0
 11
-1.75
 21
0.0
 31
0.0
210
0.0
220
0.0
230
1.0
 40
0.5773502691896259
 41
0.3143546097304765
 42
2.827238043859316
  0
ELLIPSE
  5
2C53
330
2BAC
100
AcDbEntity
  8
0
100
AcDbEllipse
 10
-0.0000000000000089
 20
6.388547227364995
 30
0.0
 11
-2.126524613390195
 21
0.0
 31
0.0
210
0.0
220
0.0
230
1.0
 40
0.5773502691896259
 41
5.956776068670667
 42
9.751187199278296
  0
ELLIPSE
  5
2C54
330
2BAC
100
AcDbEntity
  8
0
100
AcDbEllipse
 10
-0.0000000000000089
 20
6.277109372230921
 30
0.0
 11
-2.191623175793064
 21
0.0000000000000002
 31
0.0
210
0.0
220
0.0
230
1.0
 40
0.577350269189626
 41
0.3143546097304663
 42
2.827238043859327
  0
ELLIPSE
  5
2C55
330
2BAC
100
AcDbEntity
  8
0
100
AcDbEllipse
 10
-0.0000000000000089
 20
7.493742242412646
 30
0.0
 11
-1.75
 21
0.0
 31
0.0
210
0.0
220
0.0
230
1.0
 40
0.5773502691896259
 41
0.3143546097304765
 42
2.827238043859316
  0
ELLIPSE
  5
2C56
330
2BAC
100
AcDbEntity
  8
0
100
AcDbEllipse
 10
-0.0000000000000089
 20
7.409167953524654
 30
0.0
 11
-2.126524613390195
 21
0.0
 31
0.0
210
0.0
220
0.0
230
1.0
 40
0.577350269189626
 41
5.956776068670667
 42
9.751187199278295
  0
ELLIPSE
  5
2C57
330
2BAC
100
AcDbEntity
  8
0
100
AcDbEllipse
 10
-0.0000000000000089
 20
7.297730098390577
 30
0.0
 11
-2.191623175793066
 21
0.0000000000000001
 31
0.0
210
0.0
220
0.0
230
1.0
 40
0.5773502691896259
 41
0.314354609730475
 42
2.827238043859318
  0
ELLIPSE
  5
2C58
330
2BAC
100
AcDbEntity
  8
0
100
AcDbEllipse
 10
-0.0000000000000089
 20
8.514362968572303
 30
0.0
 11
-1.75
 21
0.0
 31
0.0
210
0.0
220
0.0
230
1.0
 40
0.5773502691896258
 41
0.3143546097304784
 42
2.827238043859314
  0
ELLIPSE
  5
2C59
330
2BAC
100
AcDbEntity
  8
0
100
AcDbEllipse
 10
-0.0000000000000089
 20
8.429788679684312
 30
0.0
 11
-2.126524613390194
 21
-0.0000000000000003
 31
0.0
210
0.0
220
0.0
230
1.0
 40
0.5773502691896261
 41
5.922311682320284
 42
9.78565158562867
  0
ELLIPSE
  5
2C5A
330
2BAC
100
AcDbEntity
  8
0
100
AcDbEllipse
 10
-0.0000000000000089
 20
8.318350824550236
 30
0.0
 11
-2.191623175793066
 21
0.0000000000000001
 31
0.0
210
0.0
220
0.0
230
1.0
 40
0.5773502691896259
 41
0.314354609730475
 42
2.827238043859318
  0
SPLINE
  5
2C5B
330
2BAC
100
AcDbEntity
  8
0
100
AcDbSpline
210
0.0
220
0.0
230
1.0
 70
     8
 71
     3
 72
    12
 73
     8
 74
     0
 42
0.000000001
 43
0.0000000001
 40
0.4710435536669835
 40
0.4710435536669835
 40
0.4710435536669835
 40
0.4710435536669835
 40
0.7820503547189987
 40
0.7820503547189987
 40
1.075991789023973
 40
1.075991789023973
 40
1.164704273717283
 40
1.164704273717283
 40
1.164704273717283
 40
1.164704273717283
 10
2.084225166090905
 20
-11.46468782408158
 30
0.0
 10
2.158936633132994
 20
-11.33202109874018
 30
0.0
 10
2.199153602695842
 20
-11.18901546879923
 30
0.0
 10
2.200773793621862
 20
-10.90960458769668
 30
0.0
 10
2.166409101712247
 20
-10.77410571138925
 30
0.0
 10
2.080933970507197
 20
-10.60909136381307
 30
0.0
 10
2.058305425268155
 20
-10.57159118787726
 30
0.0
 10
2.033027998263423
 20
-10.53497898697102
 30
0.0
  0
SPLINE
  5
2C5C
330
2BAC
100
AcDbEntity
  8
0
100
AcDbSpline
210
0.0
220
0.0
230
1.0
 70
     8
 71
     3
 72
    12
 73
     8
 74
     0
 42
0.000000001
 43
0.0000000001
 40
3.547684706667406
 40
3.547684706667406
 40
3.547684706667406
 40
3.547684706667406
 40
3.669602340872376
 40
3.669602340872376
 40
3.976209328623902
 40
3.976209328623902
 40
4.241345426717705
 40
4.241345426717705
 40
4.241345426717705
 40
4.241345426717705
 10
-2.033027998263442
 20
-10.53497898697102
 30
0.0
 10
-2.067766785141746
 20
-10.5852951621177
 30
0.0
 10
-2.097501870127342
 20
-10.63729419115382
 30
0.0
 10
-2.182946322891844
 20
-10.82470411190668
 30
0.0
 10
-2.209151776725336
 20
-10.96756463971457
 30
0.0
 10
-2.186668892840647
 20
-11.2310836968836
 30
0.0
 10
-2.147917364420343
 20
-11.35158824624303
 30
0.0
 10
-2.084225166090923
 20
-11.46468782408158
 30
0.0
  0
LINE
  5
2C5D
330
2BAC
100
AcDbEntity
  8
0
100
AcDbLine
 10
-1.664243233483442
 20
-12.21045858602091
 30
0.0
 11
-2.084225166090914
 21
-11.4646878240816
 31
0.0
  0
LINE
  5
2C5E
330
2BAC
100
AcDbEntity
  8
0
100
AcDbLine
 10
1.664243233483424
 20
-12.21045858602091
 30
0.0
 11
2.084225166090896
 21
-11.4646878240816
 31
0.0
  0
SPLINE
  5
2C5F
330
2BAC
100
AcDbEntity
  8
0
100
AcDbSpline
210
0.0
220
0.0
230
1.0
 70
     8
 71
     3
 72
    12
 73
     8
 74
     0
 42
0.000000001
 43
0.0000000001
 40
0.4710435536669835
 40
0.4710435536669835
 40
0.4710435536669835
 40
0.4710435536669835
 40
0.7820503547189987
 40
0.7820503547189987
 40
1.075991789023973
 40
1.075991789023973
 40
1.164704273717283
 40
1.164704273717283
 40
1.164704273717283
 40
1.164704273717283
 10
2.084225166090905
 20
-10.44406709792192
 30
0.0
 10
2.158936633132994
 20
-10.31140037258053
 30
0.0
 10
2.199153602695842
 20
-10.16839474263958
 30
0.0
 10
2.200773793621862
 20
-9.888983861537026
 30
0.0
 10
2.166409101712247
 20
-9.753484985229597
 30
0.0
 10
2.080933970507197
 20
-9.588470637653415
 30
0.0
 10
2.058305425268155
 20
-9.550970461717609
 30
0.0
 10
2.033027998263423
 20
-9.514358260811363
 30
0.0
  0
SPLINE
  5
2C60
330
2BAC
100
AcDbEntity
  8
0
100
AcDbSpline
210
0.0
220
0.0
230
1.0
 70
     8
 71
     3
 72
    12
 73
     8
 74
     0
 42
0.000000001
 43
0.0000000001
 40
3.547684706667406
 40
3.547684706667406
 40
3.547684706667406
 40
3.547684706667406
 40
3.669602340872376
 40
3.669602340872376
 40
3.976209328623902
 40
3.976209328623902
 40
4.241345426717705
 40
4.241345426717705
 40
4.241345426717705
 40
4.241345426717705
 10
-2.033027998263442
 20
-9.514358260811363
 30
0.0
 10
-2.067766785141746
 20
-9.56467443595805
 30
0.0
 10
-2.097501870127342
 20
-9.61667346499416
 30
0.0
 10
-2.182946322891844
 20
-9.804083385747027
 30
0.0
 10
-2.209151776725336
 20
-9.94694391355491
 30
0.0
 10
-2.186668892840647
 20
-10.21046297072394
 30
0.0
 10
-2.147917364420343
 20
-10.33096752008338
 30
0.0
 10
-2.084225166090923
 20
-10.44406709792192
 30
0.0
  0
LINE
  5
2C61
330
2BAC
100
AcDbEntity
  8
0
100
AcDbLine
 10
-1.664243233483442
 20
-11.18983785986126
 30
0.0
 11
-2.084225166090914
 21
-10.44406709792194
 31
0.0
  0
LINE
  5
2C62
330
2BAC
100
AcDbEntity
  8
0
100
AcDbLine
 10
1.664243233483424
 20
-11.18983785986126
 30
0.0
 11
2.084225166090896
 21
-10.44406709792194
 31
0.0
  0
SPLINE
  5
2C63
330
2BAC
100
AcDbEntity
  8
0
100
AcDbSpline
210
0.0
220
0.0
230
1.0
 70
     8
 71
     3
 72
    12
 73
     8
 74
     0
 42
0.000000001
 43
0.0000000001
 40
0.4710435536669835
 40
0.4710435536669835
 40
0.4710435536669835
 40
0.4710435536669835
 40
0.7820503547189987
 40
0.7820503547189987
 40
1.075991789023973
 40
1.075991789023973
 40
1.164704273717283
 40
1.164704273717283
 40
1.164704273717283
 40
1.164704273717283
 10
2.084225166090905
 20
-9.423446371762267
 30
0.0
 10
2.158936633132994
 20
-9.290779646420869
 30
0.0
 10
2.199153602695842
 20
-9.147774016479921
 30
0.0
 10
2.200773793621862
 20
-8.868363135377368
 30
0.0
 10
2.166409101712247
 20
-8.732864259069938
 30
0.0
 10
2.080933970507197
 20
-8.567849911493755
 30
0.0
 10
2.058305425268155
 20
-8.530349735557951
 30
0.0
 10
2.033027998263423
 20
-8.493737534651707
 30
0.0
  0
SPLINE
  5
2C64
330
2BAC
100
AcDbEntity
  8
0
100
AcDbSpline
210
0.0
220
0.0
230
1.0
 70
     8
 71
     3
 72
    12
 73
     8
 74
     0
 42
0.000000001
 43
0.0000000001
 40
3.547684706667406
 40
3.547684706667406
 40
3.547684706667406
 40
3.547684706667406
 40
3.669602340872376
 40
3.669602340872376
 40
3.976209328623902
 40
3.976209328623902
 40
4.241345426717705
 40
4.241345426717705
 40
4.241345426717705
 40
4.241345426717705
 10
-2.033027998263442
 20
-8.493737534651707
 30
0.0
 10
-2.067766785141746
 20
-8.544053709798395
 30
0.0
 10
-2.097501870127342
 20
-8.596052738834503
 30
0.0
 10
-2.182946322891844
 20
-8.783462659587367
 30
0.0
 10
-2.209151776725336
 20
-8.926323187395253
 30
0.0
 10
-2.186668892840647
 20
-9.189842244564282
 30
0.0
 10
-2.147917364420343
 20
-9.31034679392372
 30
0.0
 10
-2.084225166090923
 20
-9.423446371762267
 30
0.0
  0
LINE
  5
2C65
330
2BAC
100
AcDbEntity
  8
0
100
AcDbLine
 10
-1.664243233483442
 20
-10.1692171337016
 30
0.0
 11
-2.084225166090914
 21
-9.423446371762285
 31
0.0
  0
LINE
  5
2C66
330
2BAC
100
AcDbEntity
  8
0
100
AcDbLine
 10
1.664243233483424
 20
-10.1692171337016
 30
0.0
 11
2.084225166090896
 21
-9.423446371762285
 31
0.0
  0
SPLINE
  5
2C67
330
2BAC
100
AcDbEntity
  8
0
100
AcDbSpline
210
0.0
220
0.0
230
1.0
 70
     8
 71
     3
 72
    12
 73
     8
 74
     0
 42
0.000000001
 43
0.0000000001
 40
0.4710435536669835
 40
0.4710435536669835
 40
0.4710435536669835
 40
0.4710435536669835
 40
0.7820503547189987
 40
0.7820503547189987
 40
1.075991789023973
 40
1.075991789023973
 40
1.164704273717283
 40
1.164704273717283
 40
1.164704273717283
 40
1.164704273717283
 10
2.084225166090905
 20
-8.402825645602609
 30
0.0
 10
2.158936633132994
 20
-8.270158920261213
 30
0.0
 10
2.199153602695842
 20
-8.127153290320263
 30
0.0
 10
2.200773793621862
 20
-7.84774240921771
 30
0.0
 10
2.166409101712247
 20
-7.712243532910281
 30
0.0
 10
2.080933970507197
 20
-7.547229185334098
 30
0.0
 10
2.058305425268155
 20
-7.509729009398293
 30
0.0
 10
2.033027998263423
 20
-7.473116808492048
 30
0.0
  0
SPLINE
  5
2C68
330
2BAC
100
AcDbEntity
  8
0
100
AcDbSpline
210
0.0
220
0.0
230
1.0
 70
     8
 71
     3
 72
    12
 73
     8
 74
     0
 42
0.000000001
 43
0.0000000001
 40
3.547684706667406
 40
3.547684706667406
 40
3.547684706667406
 40
3.547684706667406
 40
3.669602340872376
 40
3.669602340872376
 40
3.976209328623902
 40
3.976209328623902
 40
4.241345426717705
 40
4.241345426717705
 40
4.241345426717705
 40
4.241345426717705
 10
-2.033027998263442
 20
-7.473116808492048
 30
0.0
 10
-2.067766785141746
 20
-7.523432983638738
 30
0.0
 10
-2.097501870127342
 20
-7.575432012674845
 30
0.0
 10
-2.182946322891844
 20
-7.762841933427711
 30
0.0
 10
-2.209151776725336
 20
-7.905702461235595
 30
0.0
 10
-2.186668892840647
 20
-8.169221518404622
 30
0.0
 10
-2.147917364420343
 20
-8.289726067764062
 30
0.0
 10
-2.084225166090923
 20
-8.402825645602609
 30
0.0
  0
LINE
  5
2C69
330
2BAC
100
AcDbEntity
  8
0
100
AcDbLine
 10
-1.664243233483442
 20
-9.148596407541944
 30
0.0
 11
-2.084225166090914
 21
-8.402825645602627
 31
0.0
  0
LINE
  5
2C6A
330
2BAC
100
AcDbEntity
  8
0
100
AcDbLine
 10
1.664243233483424
 20
-9.148596407541944
 30
0.0
 11
2.084225166090896
 21
-8.402825645602627
 31
0.0
  0
SPLINE
  5
2C6B
330
2BAC
100
AcDbEntity
  8
0
100
AcDbSpline
210
0.0
220
0.0
230
1.0
 70
     8
 71
     3
 72
    12
 73
     8
 74
     0
 42
0.000000001
 43
0.0000000001
 40
0.4710435536669835
 40
0.4710435536669835
 40
0.4710435536669835
 40
0.4710435536669835
 40
0.7820503547189987
 40
0.7820503547189987
 40
1.075991789023973
 40
1.075991789023973
 40
1.164704273717283
 40
1.164704273717283
 40
1.164704273717283
 40
1.164704273717283
 10
2.084225166090905
 20
-7.382204919442951
 30
0.0
 10
2.158936633132994
 20
-7.249538194101554
 30
0.0
 10
2.199153602695842
 20
-7.106532564160605
 30
0.0
 10
2.200773793621862
 20
-6.827121683058052
 30
0.0
 10
2.166409101712247
 20
-6.691622806750623
 30
0.0
 10
2.080933970507197
 20
-6.526608459174441
 30
0.0
 10
2.058305425268155
 20
-6.489108283238635
 30
0.0
 10
2.033027998263423
 20
-6.452496082332395
 30
0.0
  0
SPLINE
  5
2C6C
330
2BAC
100
AcDbEntity
  8
0
100
AcDbSpline
210
0.0
220
0.0
230
1.0
 70
     8
 71
     3
 72
    12
 73
     8
 74
     0
 42
0.000000001
 43
0.0000000001
 40
3.547684706667406
 40
3.547684706667406
 40
3.547684706667406
 40
3.547684706667406
 40
3.669602340872376
 40
3.669602340872376
 40
3.976209328623902
 40
3.976209328623902
 40
4.241345426717705
 40
4.241345426717705
 40
4.241345426717705
 40
4.241345426717705
 10
-2.033027998263442
 20
-6.45249608233239
 30
0.0
 10
-2.067766785141746
 20
-6.50281225747908
 30
0.0
 10
-2.097501870127342
 20
-6.554811286515187
 30
0.0
 10
-2.182946322891844
 20
-6.742221207268053
 30
0.0
 10
-2.209151776725336
 20
-6.885081735075937
 30
0.0
 10
-2.186668892840647
 20
-7.148600792244965
 30
0.0
 10
-2.147917364420343
 20
-7.269105341604404
 30
0.0
 10
-2.084225166090923
 20
-7.382204919442951
 30
0.0
  0
LINE
  5
2C6D
330
2BAC
100
AcDbEntity
  8
0
100
AcDbLine
 10
-1.664243233483442
 20
-8.127975681382286
 30
0.0
 11
-2.084225166090914
 21
-7.382204919442969
 31
0.0
  0
LINE
  5
2C6E
330
2BAC
100
AcDbEntity
  8
0
100
AcDbLine
 10
1.664243233483424
 20
-8.127975681382286
 30
0.0
 11
2.084225166090896
 21
-7.382204919442969
 31
0.0
  0
SPLINE
  5
2C6F
330
2BAC
100
AcDbEntity
  8
0
100
AcDbSpline
210
0.0
220
0.0
230
1.0
 70
     8
 71
     3
 72
    12
 73
     8
 74
     0
 42
0.000000001
 43
0.0000000001
 40
0.4710435536669835
 40
0.4710435536669835
 40
0.4710435536669835
 40
0.4710435536669835
 40
0.7820503547189987
 40
0.7820503547189987
 40
1.075991789023973
 40
1.075991789023973
 40
1.164704273717283
 40
1.164704273717283
 40
1.164704273717283
 40
1.164704273717283
 10
2.084225166090905
 20
-6.361584193283293
 30
0.0
 10
2.158936633132994
 20
-6.228917467941896
 30
0.0
 10
2.199153602695842
 20
-6.085911838000948
 30
0.0
 10
2.200773793621862
 20
-5.806500956898394
 30
0.0
 10
2.166409101712247
 20
-5.671002080590965
 30
0.0
 10
2.080933970507197
 20
-5.505987733014783
 30
0.0
 10
2.058305425268155
 20
-5.468487557078978
 30
0.0
 10
2.033027998263423
 20
-5.431875356172737
 30
0.0
  0
SPLINE
  5
2C70
330
2BAC
100
AcDbEntity
  8
0
100
AcDbSpline
210
0.0
220
0.0
230
1.0
 70
     8
 71
     3
 72
    12
 73
     8
 74
     0
 42
0.000000001
 43
0.0000000001
 40
3.547684706667406
 40
3.547684706667406
 40
3.547684706667406
 40
3.547684706667406
 40
3.669602340872376
 40
3.669602340872376
 40
3.976209328623902
 40
3.976209328623902
 40
4.241345426717705
 40
4.241345426717705
 40
4.241345426717705
 40
4.241345426717705
 10
-2.033027998263442
 20
-5.431875356172732
 30
0.0
 10
-2.067766785141746
 20
-5.482191531319422
 30
0.0
 10
-2.097501870127342
 20
-5.534190560355529
 30
0.0
 10
-2.182946322891844
 20
-5.721600481108395
 30
0.0
 10
-2.209151776725336
 20
-5.864461008916279
 30
0.0
 10
-2.186668892840647
 20
-6.127980066085307
 30
0.0
 10
-2.147917364420343
 20
-6.248484615444747
 30
0.0
 10
-2.084225166090923
 20
-6.361584193283293
 30
0.0
  0
LINE
  5
2C71
330
2BAC
100
AcDbEntity
  8
0
100
AcDbLine
 10
-1.664243233483442
 20
-7.107354955222628
 30
0.0
 11
-2.084225166090914
 21
-6.361584193283311
 31
0.0
  0
LINE
  5
2C72
330
2BAC
100
AcDbEntity
  8
0
100
AcDbLine
 10
1.664243233483424
 20
-7.107354955222628
 30
0.0
 11
2.084225166090896
 21
-6.361584193283311
 31
0.0
  0
SPLINE
  5
2C73
330
2BAC
100
AcDbEntity
  8
0
100
AcDbSpline
210
0.0
220
0.0
230
1.0
 70
     8
 71
     3
 72
    12
 73
     8
 74
     0
 42
0.000000001
 43
0.0000000001
 40
0.4710435536669835
 40
0.4710435536669835
 40
0.4710435536669835
 40
0.4710435536669835
 40
0.7820503547189987
 40
0.7820503547189987
 40
1.075991789023973
 40
1.075991789023973
 40
1.164704273717283
 40
1.164704273717283
 40
1.164704273717283
 40
1.164704273717283
 10
2.084225166090905
 20
-5.340963467123636
 30
0.0
 10
2.158936633132994
 20
-5.208296741782239
 30
0.0
 10
2.199153602695842
 20
-5.06529111184129
 30
0.0
 10
2.200773793621862
 20
-4.785880230738735
 30
0.0
 10
2.166409101712247
 20
-4.650381354431312
 30
0.0
 10
2.080933970507197
 20
-4.485367006855125
 30
0.0
 10
2.058305425268155
 20
-4.447866830919322
 30
0.0
 10
2.033027998263423
 20
-4.411254630013077
 30
0.0
  0
SPLINE
  5
2C74
330
2BAC
100
AcDbEntity
  8
0
100
AcDbSpline
210
0.0
220
0.0
230
1.0
 70
     8
 71
     3
 72
    12
 73
     8
 74
     0
 42
0.000000001
 43
0.0000000001
 40
3.547684706667406
 40
3.547684706667406
 40
3.547684706667406
 40
3.547684706667406
 40
3.669602340872376
 40
3.669602340872376
 40
3.976209328623902
 40
3.976209328623902
 40
4.241345426717705
 40
4.241345426717705
 40
4.241345426717705
 40
4.241345426717705
 10
-2.033027998263442
 20
-4.411254630013075
 30
0.0
 10
-2.067766785141746
 20
-4.461570805159762
 30
0.0
 10
-2.097501870127342
 20
-4.513569834195873
 30
0.0
 10
-2.182946322891844
 20
-4.70097975494874
 30
0.0
 10
-2.209151776725336
 20
-4.843840282756621
 30
0.0
 10
-2.186668892840647
 20
-5.10735933992565
 30
0.0
 10
-2.147917364420343
 20
-5.227863889285089
 30
0.0
 10
-2.084225166090923
 20
-5.340963467123636
 30
0.0
  0
LINE
  5
2C75
330
2BAC
100
AcDbEntity
  8
0
100
AcDbLine
 10
-1.664243233483442
 20
-6.086734229062971
 30
0.0
 11
-2.084225166090914
 21
-5.340963467123653
 31
0.0
  0
LINE
  5
2C76
330
2BAC
100
AcDbEntity
  8
0
100
AcDbLine
 10
1.664243233483424
 20
-6.086734229062971
 30
0.0
 11
2.084225166090896
 21
-5.340963467123653
 31
0.0
  0
SPLINE
  5
2C77
330
2BAC
100
AcDbEntity
  8
0
100
AcDbSpline
210
0.0
220
0.0
230
1.0
 70
     8
 71
     3
 72
    12
 73
     8
 74
     0
 42
0.000000001
 43
0.0000000001
 40
0.4710435536669835
 40
0.4710435536669835
 40
0.4710435536669835
 40
0.4710435536669835
 40
0.7820503547189987
 40
0.7820503547189987
 40
1.075991789023973
 40
1.075991789023973
 40
1.164704273717283
 40
1.164704273717283
 40
1.164704273717283
 40
1.164704273717283
 10
2.084225166090905
 20
-4.320342740963982
 30
0.0
 10
2.158936633132994
 20
-4.187676015622581
 30
0.0
 10
2.199153602695842
 20
-4.044670385681634
 30
0.0
 10
2.200773793621862
 20
-3.765259504579077
 30
0.0
 10
2.166409101712247
 20
-3.629760628271654
 30
0.0
 10
2.080933970507197
 20
-3.464746280695467
 30
0.0
 10
2.058305425268155
 20
-3.427246104759664
 30
0.0
 10
2.033027998263423
 20
-3.390633903853419
 30
0.0
  0
SPLINE
  5
2C78
330
2BAC
100
AcDbEntity
  8
0
100
AcDbSpline
210
0.0
220
0.0
230
1.0
 70
     8
 71
     3
 72
    12
 73
     8
 74
     0
 42
0.000000001
 43
0.0000000001
 40
3.547684706667406
 40
3.547684706667406
 40
3.547684706667406
 40
3.547684706667406
 40
3.669602340872376
 40
3.669602340872376
 40
3.976209328623902
 40
3.976209328623902
 40
4.241345426717705
 40
4.241345426717705
 40
4.241345426717705
 40
4.241345426717705
 10
-2.033027998263442
 20
-3.390633903853421
 30
0.0
 10
-2.067766785141746
 20
-3.440950079000104
 30
0.0
 10
-2.097501870127342
 20
-3.492949108036218
 30
0.0
 10
-2.182946322891844
 20
-3.680359028789081
 30
0.0
 10
-2.209151776725336
 20
-3.823219556596963
 30
0.0
 10
-2.186668892840647
 20
-4.086738613765994
 30
0.0
 10
-2.147917364420343
 20
-4.207243163125429
 30
0.0
 10
-2.084225166090923
 20
-4.32034274096398
 30
0.0
  0
LINE
  5
2C79
330
2BAC
100
AcDbEntity
  8
0
100
AcDbLine
 10
-1.664243233483442
 20
-5.066113502903313
 30
0.0
 11
-2.084225166090914
 21
-4.320342740963996
 31
0.0
  0
LINE
  5
2C7A
330
2BAC
100
AcDbEntity
  8
0
100
AcDbLine
 10
1.664243233483424
 20
-5.066113502903313
 30
0.0
 11
2.084225166090896
 21
-4.320342740963997
 31
0.0
  0
SPLINE
  5
2C7B
330
2BAC
100
AcDbEntity
  8
0
100
AcDbSpline
210
0.0
220
0.0
230
1.0
 70
     8
 71
     3
 72
    12
 73
     8
 74
     0
 42
0.000000001
 43
0.0000000001
 40
0.4710435536669835
 40
0.4710435536669835
 40
0.4710435536669835
 40
0.4710435536669835
 40
0.7820503547189987
 40
0.7820503547189987
 40
1.075991789023973
 40
1.075991789023973
 40
1.164704273717283
 40
1.164704273717283
 40
1.164704273717283
 40
1.164704273717283
 10
2.084225166090905
 20
-3.299722014804324
 30
0.0
 10
2.158936633132994
 20
-3.167055289462923
 30
0.0
 10
2.199153602695842
 20
-3.024049659521976
 30
0.0
 10
2.200773793621862
 20
-2.744638778419419
 30
0.0
 10
2.166409101712247
 20
-2.609139902111996
 30
0.0
 10
2.080933970507197
 20
-2.444125554535812
 30
0.0
 10
2.058305425268155
 20
-2.406625378600006
 30
0.0
 10
2.033027998263423
 20
-2.370013177693761
 30
0.0
  0
SPLINE
  5
2C7C
330
2BAC
100
AcDbEntity
  8
0
100
AcDbSpline
210
0.0
220
0.0
230
1.0
 70
     8
 71
     3
 72
    12
 73
     8
 74
     0
 42
0.000000001
 43
0.0000000001
 40
3.547684706667406
 40
3.547684706667406
 40
3.547684706667406
 40
3.547684706667406
 40
3.669602340872376
 40
3.669602340872376
 40
3.976209328623902
 40
3.976209328623902
 40
4.241345426717705
 40
4.241345426717705
 40
4.241345426717705
 40
4.241345426717705
 10
-2.033027998263442
 20
-2.370013177693761
 30
0.0
 10
-2.067766785141746
 20
-2.420329352840446
 30
0.0
 10
-2.097501870127342
 20
-2.47232838187656
 30
0.0
 10
-2.182946322891844
 20
-2.659738302629424
 30
0.0
 10
-2.209151776725336
 20
-2.802598830437306
 30
0.0
 10
-2.186668892840647
 20
-3.066117887606336
 30
0.0
 10
-2.147917364420343
 20
-3.186622436965773
 30
0.0
 10
-2.084225166090923
 20
-3.299722014804322
 30
0.0
  0
LINE
  5
2C7D
330
2BAC
100
AcDbEntity
  8
0
100
AcDbLine
 10
-1.664243233483442
 20
-4.045492776743653
 30
0.0
 11
-2.084225166090914
 21
-3.299722014804338
 31
0.0
  0
LINE
  5
2C7E
330
2BAC
100
AcDbEntity
  8
0
100
AcDbLine
 10
1.664243233483424
 20
-4.045492776743653
 30
0.0
 11
2.084225166090896
 21
-3.29972201480434
 31
0.0
  0
SPLINE
  5
2C7F
330
2BAC
100
AcDbEntity
  8
0
100
AcDbSpline
210
0.0
220
0.0
230
1.0
 70
     8
 71
     3
 72
    12
 73
     8
 74
     0
 42
0.000000001
 43
0.0000000001
 40
0.4710435536669828
 40
0.4710435536669828
 40
0.4710435536669828
 40
0.4710435536669828
 40
0.7820503547189981
 40
0.7820503547189981
 40
1.075991789023972
 40
1.075991789023972
 40
1.164704273717283
 40
1.164704273717283
 40
1.164704273717283
 40
1.164704273717283
 10
2.084225166090905
 20
-2.279101288644667
 30
0.0
 10
2.158936633132994
 20
-2.146434563303267
 30
0.0
 10
2.199153602695842
 20
-2.003428933362318
 30
0.0
 10
2.200773793621863
 20
-1.724018052259763
 30
0.0
 10
2.166409101712247
 20
-1.588519175952338
 30
0.0
 10
2.080933970507197
 20
-1.423504828376154
 30
0.0
 10
2.058305425268155
 20
-1.386004652440349
 30
0.0
 10
2.033027998263423
 20
-1.349392451534108
 30
0.0
  0
SPLINE
  5
2C80
330
2BAC
100
AcDbEntity
  8
0
100
AcDbSpline
210
0.0
220
0.0
230
1.0
 70
     8
 71
     3
 72
    12
 73
     8
 74
     0
 42
0.000000001
 43
0.0000000001
 40
3.547684706667406
 40
3.547684706667406
 40
3.547684706667406
 40
3.547684706667406
 40
3.669602340872375
 40
3.669602340872375
 40
3.976209328623901
 40
3.976209328623901
 40
4.241345426717707
 40
4.241345426717707
 40
4.241345426717707
 40
4.241345426717707
 10
-2.033027998263442
 20
-1.349392451534106
 30
0.0
 10
-2.067766785141746
 20
-1.399708626680788
 30
0.0
 10
-2.097501870127342
 20
-1.451707655716902
 30
0.0
 10
-2.182946322891843
 20
-1.639117576469764
 30
0.0
 10
-2.209151776725336
 20
-1.781978104277648
 30
0.0
 10
-2.186668892840647
 20
-2.045497161446678
 30
0.0
 10
-2.147917364420343
 20
-2.166001710806118
 30
0.0
 10
-2.084225166090922
 20
-2.279101288644667
 30
0.0
  0
LINE
  5
2C81
330
2BAC
100
AcDbEntity
  8
0
100
AcDbLine
 10
-1.664243233483442
 20
-3.024872050583995
 30
0.0
 11
-2.084225166090914
 21
-2.27910128864468
 31
0.0
  0
LINE
  5
2C82
330
2BAC
100
AcDbEntity
  8
0
100
AcDbLine
 10
1.664243233483424
 20
-3.024872050583995
 30
0.0
 11
2.084225166090896
 21
-2.279101288644682
 31
0.0
  0
SPLINE
  5
2C83
330
2BAC
100
AcDbEntity
  8
0
100
AcDbSpline
210
0.0
220
0.0
230
1.0
 70
     8
 71
     3
 72
    12
 73
     8
 74
     0
 42
0.000000001
 43
0.0000000001
 40
0.4710435536669828
 40
0.4710435536669828
 40
0.4710435536669828
 40
0.4710435536669828
 40
0.7820503547189981
 40
0.7820503547189981
 40
1.075991789023972
 40
1.075991789023972
 40
1.164704273717283
 40
1.164704273717283
 40
1.164704273717283
 40
1.164704273717283
 10
2.084225166090905
 20
-1.258480562485009
 30
0.0
 10
2.158936633132994
 20
-1.125813837143609
 30
0.0
 10
2.199153602695842
 20
-0.9828082072026633
 30
0.0
 10
2.200773793621863
 20
-0.7033973261001081
 30
0.0
 10
2.166409101712247
 20
-0.5678984497926809
 30
0.0
 10
2.080933970507197
 20
-0.4028841022164964
 30
0.0
 10
2.058305425268155
 20
-0.365383926280689
 30
0.0
 10
2.033027998263423
 20
-0.328771725374446
 30
0.0
  0
SPLINE
  5
2C84
330
2BAC
100
AcDbEntity
  8
0
100
AcDbSpline
210
0.0
220
0.0
230
1.0
 70
     8
 71
     3
 72
    12
 73
     8
 74
     0
 42
0.000000001
 43
0.0000000001
 40
3.547684706667406
 40
3.547684706667406
 40
3.547684706667406
 40
3.547684706667406
 40
3.669602340872375
 40
3.669602340872375
 40
3.976209328623901
 40
3.976209328623901
 40
4.241345426717707
 40
4.241345426717707
 40
4.241345426717707
 40
4.241345426717707
 10
-2.033027998263441
 20
-0.328771725374446
 30
0.0
 10
-2.067766785141745
 20
-0.3790879005211334
 30
0.0
 10
-2.097501870127342
 20
-0.4310869295572451
 30
0.0
 10
-2.182946322891843
 20
-0.6184968503101085
 30
0.0
 10
-2.209151776725336
 20
-0.7613573781179861
 30
0.0
 10
-2.186668892840647
 20
-1.02487643528702
 30
0.0
 10
-2.147917364420343
 20
-1.145380984646457
 30
0.0
 10
-2.084225166090922
 20
-1.258480562485009
 30
0.0
  0
LINE
  5
2C85
330
2BAC
100
AcDbEntity
  8
0
100
AcDbLine
 10
-1.664243233483442
 20
-2.004251324424337
 30
0.0
 11
-2.084225166090914
 21
-1.258480562485022
 31
0.0
  0
LINE
  5
2C86
330
2BAC
100
AcDbEntity
  8
0
100
AcDbLine
 10
1.664243233483424
 20
-2.004251324424337
 30
0.0
 11
2.084225166090896
 21
-1.258480562485024
 31
0.0
  0
SPLINE
  5
2C87
330
2BAC
100
AcDbEntity
  8
0
100
AcDbSpline
210
0.0
220
0.0
230
1.0
 70
     8
 71
     3
 72
    12
 73
     8
 74
     0
 42
0.000000001
 43
0.0000000001
 40
0.4710435536669828
 40
0.4710435536669828
 40
0.4710435536669828
 40
0.4710435536669828
 40
0.7820503547189981
 40
0.7820503547189981
 40
1.075991789023972
 40
1.075991789023972
 40
1.164704273717283
 40
1.164704273717283
 40
1.164704273717283
 40
1.164704273717283
 10
2.084225166090905
 20
-0.2378598363253515
 30
0.0
 10
2.158936633132994
 20
-0.1051931109839521
 30
0.0
 10
2.199153602695842
 20
0.0378125189569922
 30
0.0
 10
2.200773793621863
 20
0.3172234000595497
 30
0.0
 10
2.166409101712247
 20
0.452722276366977
 30
0.0
 10
2.080933970507197
 20
0.6177366239431615
 30
0.0
 10
2.058305425268155
 20
0.6552367998789688
 30
0.0
 10
2.033027998263423
 20
0.6918490007852119
 30
0.0
  0
SPLINE
  5
2C88
330
2BAC
100
AcDbEntity
  8
0
100
AcDbSpline
210
0.0
220
0.0
230
1.0
 70
     8
 71
     3
 72
    12
 73
     8
 74
     0
 42
0.000000001
 43
0.0000000001
 40
3.547684706667406
 40
3.547684706667406
 40
3.547684706667406
 40
3.547684706667406
 40
3.669602340872375
 40
3.669602340872375
 40
3.976209328623901
 40
3.976209328623901
 40
4.241345426717707
 40
4.241345426717707
 40
4.241345426717707
 40
4.241345426717707
 10
-2.033027998263441
 20
0.6918490007852119
 30
0.0
 10
-2.067766785141745
 20
0.6415328256385245
 30
0.0
 10
-2.097501870127342
 20
0.5895337966024128
 30
0.0
 10
-2.182946322891843
 20
0.4021238758495494
 30
0.0
 10
-2.209151776725336
 20
0.2592633480416717
 30
0.0
 10
-2.186668892840647
 20
-0.0042557091273632
 30
0.0
 10
-2.147917364420343
 20
-0.1247602584868002
 30
0.0
 10
-2.084225166090922
 20
-0.2378598363253515
 30
0.0
  0
LINE
  5
2C89
330
2BAC
100
AcDbEntity
  8
0
100
AcDbLine
 10
-1.664243233483442
 20
-0.983630598264682
 30
0.0
 11
-2.084225166090914
 21
-0.2378598363253648
 31
0.0
  0
LINE
  5
2C8A
330
2BAC
100
AcDbEntity
  8
0
100
AcDbLine
 10
1.664243233483424
 20
-0.983630598264682
 30
0.0
 11
2.084225166090896
 21
-0.237859836325367
 31
0.0
  0
SPLINE
  5
2C8B
330
2BAC
100
AcDbEntity
  8
0
100
AcDbSpline
210
0.0
220
0.0
230
1.0
 70
     8
 71
     3
 72
    12
 73
     8
 74
     0
 42
0.000000001
 43
0.0000000001
 40
0.4710435536669828
 40
0.4710435536669828
 40
0.4710435536669828
 40
0.4710435536669828
 40
0.7820503547189981
 40
0.7820503547189981
 40
1.075991789023972
 40
1.075991789023972
 40
1.164704273717283
 40
1.164704273717283
 40
1.164704273717283
 40
1.164704273717283
 10
2.084225166090905
 20
0.7827608898343064
 30
0.0
 10
2.158936633132994
 20
0.9154276151757056
 30
0.0
 10
2.199153602695842
 20
1.05843324511665
 30
0.0
 10
2.200773793621863
 20
1.337844126219207
 30
0.0
 10
2.166409101712247
 20
1.473343002526634
 30
0.0
 10
2.080933970507197
 20
1.638357350102819
 30
0.0
 10
2.058305425268155
 20
1.675857526038626
 30
0.0
 10
2.033027998263423
 20
1.712469726944869
 30
0.0
  0
SPLINE
  5
2C8C
330
2BAC
100
AcDbEntity
  8
0
100
AcDbSpline
210
0.0
220
0.0
230
1.0
 70
     8
 71
     3
 72
    12
 73
     8
 74
     0
 42
0.000000001
 43
0.0000000001
 40
3.547684706667406
 40
3.547684706667406
 40
3.547684706667406
 40
3.547684706667406
 40
3.669602340872375
 40
3.669602340872375
 40
3.976209328623901
 40
3.976209328623901
 40
4.241345426717707
 40
4.241345426717707
 40
4.241345426717707
 40
4.241345426717707
 10
-2.033027998263441
 20
1.712469726944869
 30
0.0
 10
-2.067766785141745
 20
1.662153551798182
 30
0.0
 10
-2.097501870127342
 20
1.61015452276207
 30
0.0
 10
-2.182946322891843
 20
1.422744602009207
 30
0.0
 10
-2.209151776725336
 20
1.279884074201329
 30
0.0
 10
-2.186668892840647
 20
1.016365017032294
 30
0.0
 10
-2.147917364420343
 20
0.8958604676728576
 30
0.0
 10
-2.084225166090922
 20
0.7827608898343064
 30
0.0
  0
LINE
  5
2C8D
330
2BAC
100
AcDbEntity
  8
0
100
AcDbLine
 10
-1.664243233483442
 20
0.0369901278949758
 30
0.0
 11
-2.084225166090914
 21
0.7827608898342931
 31
0.0
  0
LINE
  5
2C8E
330
2BAC
100
AcDbEntity
  8
0
100
AcDbLine
 10
1.664243233483424
 20
0.0369901278949758
 30
0.0
 11
2.084225166090896
 21
0.7827608898342909
 31
0.0
  0
SPLINE
  5
2C8F
330
2BAC
100
AcDbEntity
  8
0
100
AcDbSpline
210
0.0
220
0.0
230
1.0
 70
     8
 71
     3
 72
    12
 73
     8
 74
     0
 42
0.000000001
 43
0.0000000001
 40
0.4710435536669828
 40
0.4710435536669828
 40
0.4710435536669828
 40
0.4710435536669828
 40
0.7820503547189981
 40
0.7820503547189981
 40
1.075991789023972
 40
1.075991789023972
 40
1.164704273717283
 40
1.164704273717283
 40
1.164704273717283
 40
1.164704273717283
 10
2.084225166090905
 20
1.803381615993964
 30
0.0
 10
2.158936633132994
 20
1.936048341335363
 30
0.0
 10
2.199153602695842
 20
2.079053971276307
 30
0.0
 10
2.200773793621863
 20
2.358464852378865
 30
0.0
 10
2.166409101712247
 20
2.493963728686292
 30
0.0
 10
2.080933970507197
 20
2.658978076262477
 30
0.0
 10
2.058305425268155
 20
2.696478252198284
 30
0.0
 10
2.033027998263423
 20
2.733090453104527
 30
0.0
  0
SPLINE
  5
2C90
330
2BAC
100
AcDbEntity
  8
0
100
AcDbSpline
210
0.0
220
0.0
230
1.0
 70
     8
 71
     3
 72
    12
 73
     8
 74
     0
 42
0.000000001
 43
0.0000000001
 40
3.547684706667406
 40
3.547684706667406
 40
3.547684706667406
 40
3.547684706667406
 40
3.669602340872375
 40
3.669602340872375
 40
3.976209328623901
 40
3.976209328623901
 40
4.241345426717707
 40
4.241345426717707
 40
4.241345426717707
 40
4.241345426717707
 10
-2.033027998263441
 20
2.733090453104527
 30
0.0
 10
-2.067766785141745
 20
2.68277427795784
 30
0.0
 10
-2.097501870127342
 20
2.630775248921728
 30
0.0
 10
-2.182946322891843
 20
2.443365328168864
 30
0.0
 10
-2.209151776725336
 20
2.300504800360987
 30
0.0
 10
-2.186668892840647
 20
2.036985743191952
 30
0.0
 10
-2.147917364420343
 20
1.916481193832515
 30
0.0
 10
-2.084225166090922
 20
1.803381615993964
 30
0.0
  0
LINE
  5
2C91
330
2BAC
100
AcDbEntity
  8
0
100
AcDbLine
 10
-1.664243233483442
 20
1.057610854054633
 30
0.0
 11
-2.084225166090914
 21
1.80338161599395
 31
0.0
  0
LINE
  5
2C92
330
2BAC
100
AcDbEntity
  8
0
100
AcDbLine
 10
1.664243233483424
 20
1.057610854054633
 30
0.0
 11
2.084225166090896
 21
1.803381615993948
 31
0.0
  0
SPLINE
  5
2C93
330
2BAC
100
AcDbEntity
  8
0
100
AcDbSpline
210
0.0
220
0.0
230
1.0
 70
     8
 71
     3
 72
    12
 73
     8
 74
     0
 42
0.000000001
 43
0.0000000001
 40
0.4710435536669828
 40
0.4710435536669828
 40
0.4710435536669828
 40
0.4710435536669828
 40
0.7820503547189981
 40
0.7820503547189981
 40
1.075991789023972
 40
1.075991789023972
 40
1.164704273717283
 40
1.164704273717283
 40
1.164704273717283
 40
1.164704273717283
 10
2.084225166090905
 20
2.824002342153622
 30
0.0
 10
2.158936633132994
 20
2.956669067495021
 30
0.0
 10
2.199153602695842
 20
3.099674697435965
 30
0.0
 10
2.200773793621863
 20
3.379085578538523
 30
0.0
 10
2.166409101712247
 20
3.51458445484595
 30
0.0
 10
2.080933970507197
 20
3.679598802422134
 30
0.0
 10
2.058305425268155
 20
3.71709897835794
 30
0.0
 10
2.033027998263423
 20
3.753711179264185
 30
0.0
  0
SPLINE
  5
2C94
330
2BAC
100
AcDbEntity
  8
0
100
AcDbSpline
210
0.0
220
0.0
230
1.0
 70
     8
 71
     3
 72
    12
 73
     8
 74
     0
 42
0.000000001
 43
0.0000000001
 40
3.547684706667406
 40
3.547684706667406
 40
3.547684706667406
 40
3.547684706667406
 40
3.669602340872375
 40
3.669602340872375
 40
3.976209328623901
 40
3.976209328623901
 40
4.241345426717707
 40
4.241345426717707
 40
4.241345426717707
 40
4.241345426717707
 10
-2.033027998263441
 20
3.753711179264183
 30
0.0
 10
-2.067766785141745
 20
3.703395004117497
 30
0.0
 10
-2.097501870127342
 20
3.651395975081386
 30
0.0
 10
-2.182946322891843
 20
3.463986054328522
 30
0.0
 10
-2.209151776725336
 20
3.321125526520642
 30
0.0
 10
-2.186668892840647
 20
3.05760646935161
 30
0.0
 10
-2.147917364420343
 20
2.937101919992173
 30
0.0
 10
-2.084225166090922
 20
2.824002342153622
 30
0.0
  0
LINE
  5
2C95
330
2BAC
100
AcDbEntity
  8
0
100
AcDbLine
 10
-1.664243233483442
 20
2.078231580214291
 30
0.0
 11
-2.084225166090914
 21
2.824002342153608
 31
0.0
  0
LINE
  5
2C96
330
2BAC
100
AcDbEntity
  8
0
100
AcDbLine
 10
1.664243233483424
 20
2.078231580214291
 30
0.0
 11
2.084225166090896
 21
2.824002342153606
 31
0.0
  0
SPLINE
  5
2C97
330
2BAC
100
AcDbEntity
  8
0
100
AcDbSpline
210
0.0
220
0.0
230
1.0
 70
     8
 71
     3
 72
    12
 73
     8
 74
     0
 42
0.000000001
 43
0.0000000001
 40
0.4710435536669828
 40
0.4710435536669828
 40
0.4710435536669828
 40
0.4710435536669828
 40
0.7820503547189981
 40
0.7820503547189981
 40
1.075991789023972
 40
1.075991789023972
 40
1.164704273717283
 40
1.164704273717283
 40
1.164704273717283
 40
1.164704273717283
 10
2.084225166090905
 20
3.844623068313279
 30
0.0
 10
2.158936633132994
 20
3.977289793654679
 30
0.0
 10
2.199153602695842
 20
4.120295423595623
 30
0.0
 10
2.200773793621863
 20
4.399706304698181
 30
0.0
 10
2.166409101712247
 20
4.535205181005608
 30
0.0
 10
2.080933970507197
 20
4.700219528581792
 30
0.0
 10
2.058305425268155
 20
4.737719704517598
 30
0.0
 10
2.033027998263423
 20
4.77433190542384
 30
0.0
  0
SPLINE
  5
2C98
330
2BAC
100
AcDbEntity
  8
0
100
AcDbSpline
210
0.0
220
0.0
230
1.0
 70
     8
 71
     3
 72
    12
 73
     8
 74
     0
 42
0.000000001
 43
0.0000000001
 40
3.547684706667406
 40
3.547684706667406
 40
3.547684706667406
 40
3.547684706667406
 40
3.669602340872375
 40
3.669602340872375
 40
3.976209328623901
 40
3.976209328623901
 40
4.241345426717707
 40
4.241345426717707
 40
4.241345426717707
 40
4.241345426717707
 10
-2.033027998263441
 20
4.77433190542384
 30
0.0
 10
-2.067766785141745
 20
4.724015730277155
 30
0.0
 10
-2.097501870127342
 20
4.672016701241044
 30
0.0
 10
-2.182946322891843
 20
4.484606780488178
 30
0.0
 10
-2.209151776725336
 20
4.3417462526803
 30
0.0
 10
-2.186668892840647
 20
4.078227195511267
 30
0.0
 10
-2.147917364420343
 20
3.957722646151831
 30
0.0
 10
-2.084225166090922
 20
3.844623068313279
 30
0.0
  0
LINE
  5
2C99
330
2BAC
100
AcDbEntity
  8
0
100
AcDbLine
 10
-1.664243233483442
 20
3.098852306373949
 30
0.0
 11
-2.084225166090914
 21
3.844623068313266
 31
0.0
  0
LINE
  5
2C9A
330
2BAC
100
AcDbEntity
  8
0
100
AcDbLine
 10
1.664243233483424
 20
3.098852306373949
 30
0.0
 11
2.084225166090896
 21
3.844623068313264
 31
0.0
  0
SPLINE
  5
2C9B
330
2BAC
100
AcDbEntity
  8
0
100
AcDbSpline
210
0.0
220
0.0
230
1.0
 70
     8
 71
     3
 72
    12
 73
     8
 74
     0
 42
0.000000001
 43
0.0000000001
 40
0.4710435536669828
 40
0.4710435536669828
 40
0.4710435536669828
 40
0.4710435536669828
 40
0.7820503547189981
 40
0.7820503547189981
 40
1.075991789023972
 40
1.075991789023972
 40
1.164704273717283
 40
1.164704273717283
 40
1.164704273717283
 40
1.164704273717283
 10
2.084225166090905
 20
4.865243794472937
 30
0.0
 10
2.158936633132994
 20
4.997910519814336
 30
0.0
 10
2.199153602695842
 20
5.14091614975528
 30
0.0
 10
2.200773793621863
 20
5.420327030857839
 30
0.0
 10
2.166409101712247
 20
5.555825907165266
 30
0.0
 10
2.080933970507197
 20
5.72084025474145
 30
0.0
 10
2.058305425268155
 20
5.758340430677256
 30
0.0
 10
2.033027998263423
 20
5.794952631583499
 30
0.0
  0
SPLINE
  5
2C9C
330
2BAC
100
AcDbEntity
  8
0
100
AcDbSpline
210
0.0
220
0.0
230
1.0
 70
     8
 71
     3
 72
    12
 73
     8
 74
     0
 42
0.000000001
 43
0.0000000001
 40
3.547684706667406
 40
3.547684706667406
 40
3.547684706667406
 40
3.547684706667406
 40
3.669602340872375
 40
3.669602340872375
 40
3.976209328623901
 40
3.976209328623901
 40
4.241345426717707
 40
4.241345426717707
 40
4.241345426717707
 40
4.241345426717707
 10
-2.033027998263441
 20
5.794952631583498
 30
0.0
 10
-2.067766785141745
 20
5.744636456436814
 30
0.0
 10
-2.097501870127342
 20
5.692637427400702
 30
0.0
 10
-2.182946322891843
 20
5.505227506647837
 30
0.0
 10
-2.209151776725336
 20
5.36236697883996
 30
0.0
 10
-2.186668892840647
 20
5.098847921670923
 30
0.0
 10
-2.147917364420343
 20
4.978343372311488
 30
0.0
 10
-2.084225166090922
 20
4.865243794472934
 30
0.0
  0
LINE
  5
2C9D
330
2BAC
100
AcDbEntity
  8
0
100
AcDbLine
 10
-1.664243233483442
 20
4.119473032533607
 30
0.0
 11
-2.084225166090914
 21
4.865243794472922
 31
0.0
  0
LINE
  5
2C9E
330
2BAC
100
AcDbEntity
  8
0
100
AcDbLine
 10
1.664243233483424
 20
4.119473032533607
 30
0.0
 11
2.084225166090896
 21
4.865243794472922
 31
0.0
  0
SPLINE
  5
2C9F
330
2BAC
100
AcDbEntity
  8
0
100
AcDbSpline
210
0.0
220
0.0
230
1.0
 70
     8
 71
     3
 72
    12
 73
     8
 74
     0
 42
0.000000001
 43
0.0000000001
 40
0.4710435536669828
 40
0.4710435536669828
 40
0.4710435536669828
 40
0.4710435536669828
 40
0.7820503547189981
 40
0.7820503547189981
 40
1.075991789023972
 40
1.075991789023972
 40
1.164704273717283
 40
1.164704273717283
 40
1.164704273717283
 40
1.164704273717283
 10
2.084225166090905
 20
5.885864520632594
 30
0.0
 10
2.158936633132994
 20
6.018531245973994
 30
0.0
 10
2.199153602695842
 20
6.161536875914938
 30
0.0
 10
2.200773793621863
 20
6.440947757017497
 30
0.0
 10
2.166409101712247
 20
6.576446633324923
 30
0.0
 10
2.080933970507197
 20
6.741460980901107
 30
0.0
 10
2.058305425268155
 20
6.778961156836914
 30
0.0
 10
2.033027998263423
 20
6.815573357743157
 30
0.0
  0
SPLINE
  5
2CA0
330
2BAC
100
AcDbEntity
  8
0
100
AcDbSpline
210
0.0
220
0.0
230
1.0
 70
     8
 71
     3
 72
    12
 73
     8
 74
     0
 42
0.000000001
 43
0.0000000001
 40
3.547684706667406
 40
3.547684706667406
 40
3.547684706667406
 40
3.547684706667406
 40
3.669602340872375
 40
3.669602340872375
 40
3.976209328623901
 40
3.976209328623901
 40
4.241345426717707
 40
4.241345426717707
 40
4.241345426717707
 40
4.241345426717707
 10
-2.033027998263441
 20
6.815573357743156
 30
0.0
 10
-2.067766785141745
 20
6.765257182596472
 30
0.0
 10
-2.097501870127342
 20
6.71325815356036
 30
0.0
 10
-2.182946322891843
 20
6.525848232807494
 30
0.0
 10
-2.209151776725336
 20
6.382987704999618
 30
0.0
 10
-2.186668892840647
 20
6.119468647830581
 30
0.0
 10
-2.147917364420343
 20
5.998964098471145
 30
0.0
 10
-2.084225166090922
 20
5.885864520632594
 30
0.0
  0
LINE
  5
2CA1
330
2BAC
100
AcDbEntity
  8
0
100
AcDbLine
 10
-1.664243233483442
 20
5.140093758693264
 30
0.0
 11
-2.084225166090914
 21
5.88586452063258
 31
0.0
  0
LINE
  5
2CA2
330
2BAC
100
AcDbEntity
  8
0
100
AcDbLine
 10
1.664243233483424
 20
5.140093758693264
 30
0.0
 11
2.084225166090896
 21
5.88586452063258
 31
0.0
  0
SPLINE
  5
2CA3
330
2BAC
100
AcDbEntity
  8
0
100
AcDbSpline
210
0.0
220
0.0
230
1.0
 70
     8
 71
     3
 72
    12
 73
     8
 74
     0
 42
0.000000001
 43
0.0000000001
 40
0.4710435536669737
 40
0.4710435536669737
 40
0.4710435536669737
 40
0.4710435536669737
 40
0.7820503547189896
 40
0.7820503547189896
 40
1.075991789023964
 40
1.075991789023964
 40
1.164704273717283
 40
1.164704273717283
 40
1.164704273717283
 40
1.164704273717283
 10
2.084225166090898
 20
6.906485246792239
 30
0.0
 10
2.158936633132989
 20
7.039151972133639
 30
0.0
 10
2.19915360269584
 20
7.182157602074585
 30
0.0
 10
2.200773793621864
 20
7.461568483177142
 30
0.0
 10
2.166409101712251
 20
7.597067359484568
 30
0.0
 10
2.080933970507202
 20
7.762081707060759
 30
0.0
 10
2.058305425268158
 20
7.799581882996568
 30
0.0
 10
2.033027998263424
 20
7.836194083902813
 30
0.0
  0
SPLINE
  5
2CA4
330
2BAC
100
AcDbEntity
  8
0
100
AcDbSpline
210
0.0
220
0.0
230
1.0
 70
     8
 71
     3
 72
    12
 73
     8
 74
     0
 42
0.000000001
 43
0.0000000001
 40
3.547684706667405
 40
3.547684706667405
 40
3.547684706667405
 40
3.547684706667405
 40
3.669602340872366
 40
3.669602340872366
 40
3.976209328623892
 40
3.976209328623892
 40
4.241345426717716
 40
4.241345426717716
 40
4.241345426717716
 40
4.241345426717716
 10
-2.033027998263441
 20
7.836194083902814
 30
0.0
 10
-2.067766785141742
 20
7.785877908756133
 30
0.0
 10
-2.097501870127338
 20
7.733878879720026
 30
0.0
 10
-2.18294632289184
 20
7.546468958967165
 30
0.0
 10
-2.209151776725335
 20
7.403608431159288
 30
0.0
 10
-2.186668892840649
 20
7.140089373990243
 30
0.0
 10
-2.147917364420342
 20
7.019584824630799
 30
0.0
 10
-2.084225166090916
 20
6.906485246792239
 30
0.0
  0
LINE
  5
2CA5
330
2BAC
100
AcDbEntity
  8
0
100
AcDbLine
 10
-1.664243233483442
 20
6.160714484852922
 30
0.0
 11
-2.084225166090914
 21
6.906485246792238
 31
0.0
  0
LINE
  5
2CA6
330
2BAC
100
AcDbEntity
  8
0
100
AcDbLine
 10
1.664243233483424
 20
6.160714484852922
 30
0.0
 11
2.084225166090896
 21
6.906485246792238
 31
0.0
  0
SPLINE
  5
2CA7
330
2BAC
100
AcDbEntity
  8
0
100
AcDbSpline
210
0.0
220
0.0
230
1.0
 70
     8
 71
     3
 72
    12
 73
     8
 74
     0
 42
0.000000001
 43
0.0000000001
 40
0.4710435536669737
 40
0.4710435536669737
 40
0.4710435536669737
 40
0.4710435536669737
 40
0.7820503547189896
 40
0.7820503547189896
 40
1.075991789023964
 40
1.075991789023964
 40
1.206105402486821
 40
1.206105402486821
 40
1.206105402486821
 40
1.206105402486821
 10
2.084225166090898
 20
7.927105972951897
 30
0.0
 10
2.158936633132989
 20
8.059772698293297
 30
0.0
 10
2.19915360269584
 20
8.202778328234243
 30
0.0
 10
2.200773793621864
 20
8.482189209336798
 30
0.0
 10
2.166409101712251
 20
8.617688085644225
 30
0.0
 10
2.071686013703631
 20
8.800556112259448
 30
0.0
 10
2.036571803740093
 20
8.855032844890368
 30
0.0
 10
1.995923874905538
 20
8.907484758442244
 30
0.0
  0
SPLINE
  5
2CA8
330
2BAC
100
AcDbEntity
  8
0
100
AcDbSpline
210
0.0
220
0.0
230
1.0
 70
     8
 71
     3
 72
    12
 73
     8
 74
     0
 42
0.000000001
 43
0.0000000001
 40
3.506283577897867
 40
3.506283577897867
 40
3.506283577897867
 40
3.506283577897867
 40
3.669602340872366
 40
3.669602340872366
 40
3.976209328623892
 40
3.976209328623892
 40
4.241345426717716
 40
4.241345426717716
 40
4.241345426717716
 40
4.241345426717716
 10
-1.995923874905555
 20
8.907484758442246
 30
0.0
 10
-2.046945203712398
 20
8.841647053924237
 30
0.0
 10
-2.089246809367013
 20
8.772605875307922
 30
0.0
 10
-2.18294632289184
 20
8.567089685126823
 30
0.0
 10
-2.209151776725335
 20
8.424229157318945
 30
0.0
 10
-2.186668892840649
 20
8.160710100149902
 30
0.0
 10
-2.147917364420342
 20
8.040205550790455
 30
0.0
 10
-2.084225166090916
 20
7.927105972951897
 30
0.0
  0
LINE
  5
2CA9
330
2BAC
100
AcDbEntity
  8
0
100
AcDbLine
 10
-1.664243233483442
 20
7.18133521101258
 30
0.0
 11
-2.084225166090914
 21
7.927105972951896
 31
0.0
  0
LINE
  5
2CAA
330
2BAC
100
AcDbEntity
  8
0
100
AcDbLine
 10
1.664243233483424
 20
7.18133521101258
 30
0.0
 11
2.084225166090896
 21
7.927105972951896
 31
0.0
  0
LINE
  5
2CAB
330
2BAC
100
AcDbEntity
  8
0
100
AcDbLine
 10
1.983192867121352
 20
-12.44788366590542
 30
0.0
 11
0.9523371523777374
 21
-13.04304849030831
 31
0.0
  0
ELLIPSE
  5
2CAC
330
2BAC
100
AcDbEntity
  8
0
100
AcDbEllipse
 10
-0.0000000000000089
 20
-16.55455609101232
 30
0.0
 11
1.97712250981172
 21
4.109694268101521
 31
0.0
210
0.0
220
0.0
230
1.0
 40
0.2347805934183503
 41
5.829167085829734
 42
6.276852849504155
  0
ELLIPSE
  5
2CAD
330
2BAC
100
AcDbEntity
  8
0
100
AcDbEllipse
 10
-0.0000000000000089
 20
-16.55455609101232
 30
0.0
 11
1.97712250981172
 21
4.109694268101521
 31
0.0
210
0.0
220
0.0
230
1.0
 40
0.2347805934183503
 41
0.6690923417706225
 42
1.116778105445045
  0
ELLIPSE
  5
2CAE
330
2BAC
100
AcDbEntity
  8
0
100
AcDbEllipse
 10
-0.0000000000000057
 20
8.98116850966327
 30
0.0
 11
-1.999999999999991
 21
0.0000000000000001
 31
0.0
210
0.0
220
0.0
230
1.0
 40
0.577350269189626
 41
0.0000000000000016
 42
3.141592653589793
  0
LINE
  5
2CAF
330
2BAC
100
AcDbEntity
  8
0
100
AcDbLine
 10
-1.664243233483442
 20
8.201955937172236
 30
0.0
 11
-1.901992266838213
 21
8.624131902348908
 31
0.0
  0
LINE
  5
2CB0
330
2BAC
100
AcDbEntity
  8
0
100
AcDbLine
 10
1.664243233483424
 20
8.201955937172236
 30
0.0
 11
1.901992266838196
 21
8.62413190234891
 31
0.0
  0
ELLIPSE
  5
2CB1
330
2BAC
100
AcDbEntity
  8
0
100
AcDbEllipse
 10
-0.0000000000000052
 20
12.24715483337417
 30
0.0
 11
-1.999999999999992
 21
0.0
 31
0.0
210
0.0
220
0.0
230
1.0
 40
0.5773502691896261
 41
0.1574110559144119
 42
2.984181597675379
  0
LINE
  5
2CB2
330
2BAC
100
AcDbEntity
  8
0
100
AcDbLine
 10
-3.500000000000014
 20
15.51314115708508
 30
0.0
 11
-3.500000000000014
 21
16.12551359278087
 31
0.0
  0
LINE
  5
2CB3
330
2BAC
100
AcDbEntity
  8
0
100
AcDbLine
 10
3.500000000000004
 20
15.51314115708508
 30
0.0
 11
3.500000000000004
 21
16.12551359278087
 31
0.0
  0
LINE
  5
2CB4
330
2BAC
100
AcDbEntity
  8
0
100
AcDbLine
 10
-1.999999999999997
 20
8.98116850966327
 30
0.0
 11
-1.999999999999996
 21
12.15608539512852
 31
0.0
  0
LINE
  5
2CB5
330
2BAC
100
AcDbEntity
  8
0
100
AcDbLine
 10
1.999999999999985
 20
8.98116850966327
 30
0.0
 11
1.999999999999986
 21
12.15608539512852
 31
0.0
  0
LINE
  5
2CB6
330
2BAC
100
AcDbEntity
  8
0
100
AcDbLine
 10
-1.975272880670226
 20
12.06614189931629
 30
0.0
 11
-2.486296602459293
 21
13.92496173868812
 31
0.0
  0
LINE
  5
2CB7
330
2BAC
100
AcDbEntity
  8
0
100
AcDbLine
 10
1.975272880670216
 20
12.06614189931628
 30
0.0
 11
2.486296602459284
 21
13.92496173868812
 31
0.0
  0
LINE
  5
2CB8
330
2BAC
100
AcDbEntity
  8
0
100
AcDbLine
 10
-2.200000000000009
 20
-13.06479107004032
 30
0.0
 11
-2.200000000000009
 21
-11.89805155462084
 31
0.0
  0
LINE
  5
2CB9
330
2BAC
100
AcDbEntity
  8
0
100
AcDbLine
 10
2.199999999999991
 20
-13.06479107004032
 30
0.0
 11
2.199999999999991
 21
-11.89805155462084
 31
0.0
  0
ENDBLK
  5
2BAE
330
2BAC
100
AcDbEntity
  8
0
100
AcDbBlockEnd
  0
ENDSEC
  0
SECTION
  2
ENTITIES
  0
INSERT
  5
2CBA
330
1F
100
AcDbEntity
  8
0
100
AcDbBlockReference
  2
CNA40X40G-Front
 10
0.0
 20
0.0
 30
0.0
  0
INSERT
  5
2CBB
330
1F
100
AcDbEntity
  8
0
100
AcDbBlockReference
  2
CNA40X40G-Top
 10
0.0
 20
-54.00000000000001
 30
0.0
  0
INSERT
  5
2CBC
330
1F
100
AcDbEntity
  8
0
100
AcDbBlockReference
  2
CNA40X40G-ISO
 10
19.00000000000003
 20
-68.75236823146689
 30
0.0
  0
MTEXT
  5
2CBD
330
1F
100
AcDbEntity
  8
0
100
AcDbMText
 10
0.0
 20
-69.50000000000001
 30
0.0
 40
2.066666666666668
 41
0.0
 71
     5
 72
     5
  1
CNA4.0X40G
 73
     1
 44
1.0
1001
ACAD
1000
MTEXTBEGIN
1070
    73
1070
     1
1070
    44
1040
1.0
1070
    74
1070
     0
1000
MTEXTEND
  0
ENDSEC
  0
SECTION
  2
OBJECTS
  0
DICTIONARY
  5
C
330
0
100
AcDbDictionary
281
     1
  3
ACAD_CIP_PREVIOUS_PRODUCT_INFO
350
216
  3
ACAD_COLOR
350
6B
  3
ACAD_DETAILVIEWSTYLE
350
21B
  3
ACAD_GROUP
350
D
  3
ACAD_LAYOUT
350
1A
  3
ACAD_MATERIAL
350
6A
  3
ACAD_MLEADERSTYLE
350
12D
  3
ACAD_MLINESTYLE
350
17
  3
ACAD_PLOTSETTINGS
350
19
  3
ACAD_PLOTSTYLENAME
350
E
  3
ACAD_SCALELIST
350
10C
  3
ACAD_SECTIONVIEWSTYLE
350
219
  3
ACAD_TABLESTYLE
350
7E
  3
ACAD_VISUALSTYLE
350
EF
  3
ACDB_RECOMPOSE_DATA
350
2DC0
  3
AcDbVariableDictionary
350
5E
  3
DWGPROPS
350
2DC1
  0
DICTIONARY
  5
2D0E
330
8
100
AcDbDictionary
280
     1
281
     1
  0
DICTIONARY
  5
1FF
330
2
100
AcDbDictionary
280
     1
281
     1
  3
ACAD_LAYERSTATES
360
200
  0
DICTIONARY
  5
13C
330
10
100
AcDbDictionary
280
     1
281
     1
  0
DICTIONARY
  5
1CE
330
1F
100
AcDbDictionary
280
     1
281
     1
  3
ACAD_LAYOUTSELFREF
360
2D16
  0
DICTIONARY
  5
2CC1
330
D2
100
AcDbDictionary
280
     1
281
     1
  3
ACAD_LAYOUTSELFREF
360
2D1F
  0
DICTIONARY
  5
2CC3
330
D6
100
AcDbDictionary
280
     1
281
     1
  3
ACAD_LAYOUTSELFREF
360
2D22
  0
XRECORD
  5
216
102
{ACAD_REACTORS
330
C
102
}
330
C
100
AcDbXrecord
280
     1
300
ACD
300
2021
300
87393ACD_2021_0F
  0
DICTIONARY
  5
6B
102
{ACAD_REACTORS
330
C
102
}
330
C
100
AcDbDictionary
281
     1
  0
DICTIONARY
  5
21B
102
{ACAD_REACTORS
330
C
102
}
330
C
100
AcDbDictionary
281
     1
  3
Metric50
350
21C
  0
DICTIONARY
  5
D
102
{ACAD_REACTORS
330
C
102
}
330
C
100
AcDbDictionary
281
     1
  0
DICTIONARY
  5
1A
102
{ACAD_REACTORS
330
C
102
}
330
C
100
AcDbDictionary
281
     1
  3
Layout1
350
D3
  3
Layout2
350
D7
  3
Model
350
22
  0
DICTIONARY
  5
6A
102
{ACAD_REACTORS
330
C
102
}
330
C
100
AcDbDictionary
281
     1
  3
ByBlock
350
ED
  3
ByLayer
350
EC
  3
Global
350
EE
  0
DICTIONARY
  5
12D
102
{ACAD_REACTORS
330
C
102
}
330
C
100
AcDbDictionary
281
     1
  3
Standard
350
12E
  0
DICTIONARY
  5
17
102
{ACAD_REACTORS
330
C
102
}
330
C
100
AcDbDictionary
281
     1
  3
Standard
350
18
  0
DICTIONARY
  5
19
102
{ACAD_REACTORS
330
C
102
}
330
C
100
AcDbDictionary
281
     1
  0
ACDBDICTIONARYWDFLT
  5
E
102
{ACAD_REACTORS
330
C
102
}
330
C
100
AcDbDictionary
281
     1
  3
Normal
350
F
100
AcDbDictionaryWithDefault
340
F
  0
DICTIONARY
  5
10C
102
{ACAD_REACTORS
330
C
102
}
330
C
100
AcDbDictionary
281
     1
  3
A0
350
10D
  3
A1
350
1BE
  3
A2
350
1BF
  3
A3
350
1C0
  3
A4
350
1C1
  3
A5
350
1C2
  3
A6
350
1C3
  3
A7
350
1C4
  3
A8
350
1C5
  3
A9
350
1C6
  3
B0
350
1C7
  3
B1
350
1C8
  3
B2
350
1C9
  3
B3
350
1CA
  3
B4
350
1CB
  3
B5
350
1CC
  3
B6
350
1CD
  0
DICTIONARY
  5
219
102
{ACAD_REACTORS
330
C
102
}
330
C
100
AcDbDictionary
281
     1
  3
Metric50
350
21A
  0
DICTIONARY
  5
7E
102
{ACAD_REACTORS
330
C
102
}
330
C
100
AcDbDictionary
281
     1
  3
Standard
350
7F
  0
DICTIONARY
  5
EF
102
{ACAD_REACTORS
330
C
102
}
330
C
100
AcDbDictionary
281
     1
  3
2dWireframe
350
F5
  3
Basic
350
F4
  3
Brighten
350
FB
  3
ColorChange
350
FF
  3
Conceptual
350
F8
  3
Dim
350
FA
  3
EdgeColorOff
350
1E6
  3
Facepattern
350
FE
  3
Flat
350
F0
  3
FlatWithEdges
350
F1
  3
Gouraud
350
F2
  3
GouraudWithEdges
350
F3
  3
Hidden
350
F7
  3
JitterOff
350
1E4
  3
Linepattern
350
FD
  3
OverhangOff
350
1E5
  3
Realistic
350
F9
  3
Shaded
350
1F3
  3
Shaded with edges
350
1F2
  3
Shades of Gray
350
1EF
  3
Sketchy
350
1F0
  3
Thicken
350
FC
  3
Wireframe
350
F6
  3
X-Ray
350
1F1
  0
XRECORD
  5
2DC0
102
{ACAD_REACTORS
330
C
102
}
330
C
100
AcDbXrecord
280
     1
 90
        1
330
7F
  0
DICTIONARY
  5
5E
102
{ACAD_REACTORS
330
C
102
}
330
C
100
AcDbDictionary
281
     1
  3
CANNOSCALE
350
146
  3
CENTEREXE
350
259
  3
CENTERLTYPEFILE
350
25A
  3
CMLEADERSTYLE
350
145
  3
CTABLESTYLE
350
84
  3
CVIEWDETAILSTYLE
350
227
  3
CVIEWSECTIONSTYLE
350
228
  3
DIMASSOC
350
5F
  3
HIDETEXT
350
63
  3
INDEXCTL
350
2D6B
  3
LAYEREVAL
350
1AE
  3
LAYERNOTIFY
350
1AF
  3
LIGHTINGUNITS
350
2D69
  3
MSLTSCALE
350
2D68
  3
PSOLHEIGHT
350
2DBD
  3
PSOLWIDTH
350
2DBC
  3
SORTENTS
350
2D6A
  3
XCLIPFRAME
350
2DBE
  0
XRECORD
  5
2DC1
102
{ACAD_REACTORS
330
C
102
}
330
C
100
AcDbXrecord
280
     1
  1
DWGPROPS COOKIE
  2

  3

  4

  6

  7

  8
tronnguyen
  9

300
=
301
=
302
=
303
=
304
=
305
=
306
=
307
=
308
=
309
=
 40
0.0489930555555556
 41
2460693.556458334
 42
2460693.607395834
  1

 90
        0
  0
DICTIONARY
  5
200
102
{ACAD_REACTORS
330
1FF
102
}
330
1FF
100
AcDbDictionary
281
     1
  0
XRECORD
  5
2D16
102
{ACAD_REACTORS
330
1CE
102
}
330
1CE
100
AcDbXrecord
280
     1
340
1F
  0
XRECORD
  5
2D1F
102
{ACAD_REACTORS
330
2CC1
102
}
330
2CC1
100
AcDbXrecord
280
     1
340
D2
  0
XRECORD
  5
2D22
102
{ACAD_REACTORS
330
2CC3
102
}
330
2CC3
100
AcDbXrecord
280
     1
340
D6
  0
ACDBDETAILVIEWSTYLE
  5
21C
102
{ACAD_XDICTIONARY
360
2E00
102
}
102
{ACAD_REACTORS
330
21B
102
}
330
21B
100
AcDbModelDocViewStyle
 70
     0
  3
Metric50
290
     0
100
AcDbDetailViewStyle
 70
     0
 71
     0
 90
        3
 71
     1
340
11
 40
5.0
340
0
 40
5.0
300

 40
0.0
280
     1
 71
     2
340
16
 90
       25
 71
     3
340
11
 40
5.0
 90
        0
 40
15.0
 90
        1
300
%<\AcVar ViewDetailId>% (%<\AcVar ViewScale \f "%sn">%)
 71
     4
340
16
 90
       25
340
16
 90
       25
280
     0
  0
LAYOUT
  5
D3
102
{ACAD_XDICTIONARY
360
2DC5
102
}
102
{ACAD_REACTORS
330
1A
102
}
330
1A
100
AcDbPlotSettings
  1

  2
C:\Documents and Settings\basas\Application Data\Autodesk\AutoCAD 2005\R16.1\enu\plotters\Default Windows System Printer.pc3
  4

  6

 40
0.0
 41
0.0
 42
0.0
 43
0.0
 44
0.0
 45
0.0
 46
0.0
 47
0.0
 48
0.0
 49
0.0
140
0.0
141
0.0
142
1.0
143
1.0
 70
   688
 72
     0
 73
     0
 74
     5
  7

 75
    16
147
1.0
148
0.0
149
0.0
100
AcDbLayout
  1
Layout1
 70
     1
 71
     1
 10
0.0
 20
0.0
 11
12.0
 21
9.0
 12
0.0
 22
0.0
 32
0.0
 14
0.0
 24
0.0
 34
0.0
 15
0.0
 25
0.0
 35
0.0
146
0.0
 13
0.0
 23
0.0
 33
0.0
 16
1.0
 26
0.0
 36
0.0
 17
0.0
 27
1.0
 37
0.0
 76
     0
330
D2
  0
LAYOUT
  5
D7
102
{ACAD_XDICTIONARY
360
2DC7
102
}
102
{ACAD_REACTORS
330
1A
102
}
330
1A
100
AcDbPlotSettings
  1

  2
C:\Documents and Settings\basas\Application Data\Autodesk\AutoCAD 2005\R16.1\enu\plotters\Default Windows System Printer.pc3
  4

  6

 40
0.0
 41
0.0
 42
0.0
 43
0.0
 44
0.0
 45
0.0
 46
0.0
 47
0.0
 48
0.0
 49
0.0
140
0.0
141
0.0
142
1.0
143
1.0
 70
   688
 72
     0
 73
     0
 74
     5
  7

 75
    16
147
1.0
148
0.0
149
0.0
100
AcDbLayout
  1
Layout2
 70
     1
 71
     2
 10
0.0
 20
0.0
 11
12.0
 21
9.0
 12
0.0
 22
0.0
 32
0.0
 14
0.0
 24
0.0
 34
0.0
 15
0.0
 25
0.0
 35
0.0
146
0.0
 13
0.0
 23
0.0
 33
0.0
 16
1.0
 26
0.0
 36
0.0
 17
0.0
 27
1.0
 37
0.0
 76
     0
330
D6
  0
LAYOUT
  5
22
102
{ACAD_XDICTIONARY
360
2DC2
102
}
102
{ACAD_REACTORS
330
1A
102
}
330
1A
100
AcDbPlotSettings
  1

  2
none_device
  4
ISO_A4_(210.00_x_297.00_MM)
  6

 40
7.5
 41
20.0
 42
7.5
 43
20.0
 44
210.0
 45
297.0
 46
11.54999923706054
 47
-13.65000009536743
 48
0.0
 49
0.0
140
0.0
141
0.0
142
1.0
143
8.704084754739808
 70
 11952
 72
     1
 73
     0
 74
     0
  7

 75
     0
147
0.1148885871608098
148
0.0
149
0.0
100
AcDbLayout
  1
Model
 70
     1
 71
     0
 10
0.0
 20
0.0
 11
12.0
 21
9.0
 12
0.0
 22
0.0
 32
0.0
 14
0.0
 24
0.0
 34
0.0
 15
0.0
 25
0.0
 35
0.0
146
0.0
 13
0.0
 23
0.0
 33
0.0
 16
1.0
 26
0.0
 36
0.0
 17
0.0
 27
1.0
 37
0.0
 76
     0
330
1F
331
EA
1001
ACAD_PSEXT
1000
None
1000
None
1000
Not applicable
1000
The layout will not be plotted unless a new plotter configuration name is selected.
1070
     0
  0
MATERIAL
  5
ED
102
{ACAD_XDICTIONARY
360
1F9
102
}
102
{ACAD_REACTORS
330
6A
102
}
330
6A
100
AcDbMaterial
  1
ByBlock
  0
MATERIAL
  5
EC
102
{ACAD_XDICTIONARY
360
1F7
102
}
102
{ACAD_REACTORS
330
6A
102
}
330
6A
100
AcDbMaterial
  1
ByLayer
  0
MATERIAL
  5
EE
102
{ACAD_XDICTIONARY
360
173
102
}
102
{ACAD_REACTORS
330
6A
102
}
330
6A
100
AcDbMaterial
  1
Global
 43
0.0007999999797903
 43
0.0
 43
0.0
 43
0.0
 43
0.0
 43
0.0007999999797903
 43
0.0
 43
0.0
 43
0.0
 43
0.0
 43
1.0
 43
0.0
 43
0.0
 43
0.0
 43
0.0
 43
1.0
 49
0.0007999999797903
 49
0.0
 49
0.0
 49
0.0
 49
0.0
 49
0.0007999999797903
 49
0.0
 49
0.0
 49
0.0
 49
0.0
 49
1.0
 49
0.0
 49
0.0
 49
0.0
 49
0.0
 49
1.0
142
0.0007999999797903
142
0.0
142
0.0
142
0.0
142
0.0
142
0.0007999999797903
142
0.0
142
0.0
142
0.0
142
0.0
142
1.0
142
0.0
142
0.0
142
0.0
142
0.0
142
1.0
144
0.0007999999797903
144
0.0
144
0.0
144
0.0
144
0.0
144
0.0007999999797903
144
0.0
144
0.0
144
0.0
144
0.0
144
1.0
144
0.0
144
0.0
144
0.0
144
0.0
144
1.0
1001
ACAD
1070
    -1
1070
     3
1070
     0
1000

1071
        0
1070
     0
  0
MLEADERSTYLE
  5
12E
102
{ACAD_XDICTIONARY
360
2DEC
102
}
102
{ACAD_REACTORS
330
12D
102
}
330
12D
100
AcDbMLeaderStyle
170
     2
171
     1
172
     0
 90
        2
 40
0.0
 41
0.0
173
     1
 91
-1056964608
340
14
 92
       -2
290
     1
 42
2.0
291
     1
 43
8.0
  3
Standard
 44
4.0
300

342
11
174
     1
178
     1
175
     1
176
     0
 93
-1056964608
 45
4.0
292
     0
297
     0
 46
4.0
 94
-1056964608
 47
1.0
 49
1.0
140
1.0
293
     1
141
0.0
294
     1
177
     0
142
1.0
295
     0
296
     0
143
3.75
1001
ACAD_MLEADERVER
1070
     2
  0
MLINESTYLE
  5
18
102
{ACAD_REACTORS
330
17
102
}
330
17
100
AcDbMlineStyle
  2
STANDARD
 70
     0
  3

 62
   256
 51
90.0
 52
90.0
 71
     2
 49
0.5
 62
   256
  6
BYLAYER
 49
-0.5
 62
   256
  6
BYLAYER
  0
ACDBPLACEHOLDER
  5
F
102
{ACAD_REACTORS
330
E
102
}
330
E
  0
SCALE
  5
10D
102
{ACAD_REACTORS
330
10C
102
}
330
10C
100
AcDbScale
 70
     0
300
1:1
140
1.0
141
1.0
290
     1
  0
SCALE
  5
1BE
102
{ACAD_REACTORS
330
10C
102
}
330
10C
100
AcDbScale
 70
     0
300
1:2
140
1.0
141
2.0
290
     0
  0
SCALE
  5
1BF
102
{ACAD_REACTORS
330
10C
102
}
330
10C
100
AcDbScale
 70
     0
300
1:4
140
1.0
141
4.0
290
     0
  0
SCALE
  5
1C0
102
{ACAD_REACTORS
330
10C
102
}
330
10C
100
AcDbScale
 70
     0
300
1:5
140
1.0
141
5.0
290
     0
  0
SCALE
  5
1C1
102
{ACAD_REACTORS
330
10C
102
}
330
10C
100
AcDbScale
 70
     0
300
1:8
140
1.0
141
8.0
290
     0
  0
SCALE
  5
1C2
102
{ACAD_REACTORS
330
10C
102
}
330
10C
100
AcDbScale
 70
     0
300
1:10
140
1.0
141
10.0
290
     0
  0
SCALE
  5
1C3
102
{ACAD_REACTORS
330
10C
102
}
330
10C
100
AcDbScale
 70
     0
300
1:16
140
1.0
141
16.0
290
     0
  0
SCALE
  5
1C4
102
{ACAD_REACTORS
330
10C
102
}
330
10C
100
AcDbScale
 70
     0
300
1:20
140
1.0
141
20.0
290
     0
  0
SCALE
  5
1C5
102
{ACAD_REACTORS
330
10C
102
}
330
10C
100
AcDbScale
 70
     0
300
1:30
140
1.0
141
30.0
290
     0
  0
SCALE
  5
1C6
102
{ACAD_REACTORS
330
10C
102
}
330
10C
100
AcDbScale
 70
     0
300
1:40
140
1.0
141
40.0
290
     0
  0
SCALE
  5
1C7
102
{ACAD_REACTORS
330
10C
102
}
330
10C
100
AcDbScale
 70
     0
300
1:50
140
1.0
141
50.0
290
     0
  0
SCALE
  5
1C8
102
{ACAD_REACTORS
330
10C
102
}
330
10C
100
AcDbScale
 70
     0
300
1:100
140
1.0
141
100.0
290
     0
  0
SCALE
  5
1C9
102
{ACAD_REACTORS
330
10C
102
}
330
10C
100
AcDbScale
 70
     0
300
2:1
140
2.0
141
1.0
290
     0
  0
SCALE
  5
1CA
102
{ACAD_REACTORS
330
10C
102
}
330
10C
100
AcDbScale
 70
     0
300
4:1
140
4.0
141
1.0
290
     0
  0
SCALE
  5
1CB
102
{ACAD_REACTORS
330
10C
102
}
330
10C
100
AcDbScale
 70
     0
300
8:1
140
8.0
141
1.0
290
     0
  0
SCALE
  5
1CC
102
{ACAD_REACTORS
330
10C
102
}
330
10C
100
AcDbScale
 70
     0
300
10:1
140
10.0
141
1.0
290
     0
  0
SCALE
  5
1CD
102
{ACAD_REACTORS
330
10C
102
}
330
10C
100
AcDbScale
 70
     0
300
100:1
140
100.0
141
1.0
290
     0
  0
ACDBSECTIONVIEWSTYLE
  5
21A
102
{ACAD_XDICTIONARY
360
2DFE
102
}
102
{ACAD_REACTORS
330
219
102
}
330
219
100
AcDbModelDocViewStyle
 70
     0
  3
Metric50
290
     0
100
AcDbSectionViewStyle
 70
     0
 71
     0
 90
      102
 71
     1
340
11
 40
5.0
340
0
340
0
 40
5.0
300
I, O, Q, S, X, Z
 40
10.0
 90
        0
 40
2.5
 90
        0
 71
     2
340
16
 90
       25
340
16
 90
       50
 40
5.0
 40
2.5
 40
5.0
 71
     3
340
11
 40
5.0
 90
        0
 40
15.0
 90
        1
300
%<\AcVar ViewSectionStartId>%-%<\AcVar ViewSectionEndId>% (%<\AcVar ViewScale \f "%sn">%)
 71
     4
300
ANSI31
 40
1.0
 90
        0
290
     0
290
     0
 90
        6
 40
0.0
 40
1.570796326794896
 40
0.2617993877991494
 40
1.308996938995747
 40
-0.2617993877991494
 40
1.832595714594046
  0
TABLESTYLE
  5
7F
102
{ACAD_XDICTIONARY
360
162
102
}
102
{ACAD_REACTORS
330
7E
102
}
330
7E
100
AcDbTableStyle
  3
Standard
 70
     0
 71
     0
 40
1.5
 41
1.5
280
     0
281
     0
  7
Standard
140
4.5
170
     2
 62
     0
 63
     7
283
     0
274
    -2
284
     1
 64
     0
275
    -2
285
     1
 65
     0
276
    -2
286
     1
 66
     0
277
    -2
287
     1
 67
     0
278
    -2
288
     1
 68
     0
279
    -2
289
     1
 69
     0
  7
Standard
140
6.0
170
     5
 62
     0
 63
     7
283
     0
274
    -2
284
     1
 64
     0
275
    -2
285
     1
 65
     0
276
    -2
286
     1
 66
     0
277
    -2
287
     1
 67
     0
278
    -2
288
     1
 68
     0
279
    -2
289
     1
 69
     0
  7
Standard
140
4.5
170
     5
 62
     0
 63
     7
283
     0
274
    -2
284
     1
 64
     0
275
    -2
285
     1
 65
     0
276
    -2
286
     1
 66
     0
277
    -2
287
     1
 67
     0
278
    -2
288
     1
 68
     0
279
    -2
289
     1
 69
     0
  0
VISUALSTYLE
  5
F5
102
{ACAD_XDICTIONARY
360
2DD6
102
}
102
{ACAD_REACTORS
330
EF
102
}
330
EF
100
AcDbVisualStyle
  2
2dWireframe
 70
     4
 71
     0
 72
     2
 73
     1
 90
        0
 40
-0.6
 41
-30.0
 62
     5
 63
     7
 74
     1
 91
        4
 64
     7
 65
   257
 75
     1
175
     1
 42
1.0
 92
        0
 66
   257
 43
1.0
 76
     1
 77
     6
 78
     2
 67
     7
 79
     5
170
     0
171
     0
290
     0
174
     0
 93
        1
 44
0.0
173
     0
291
     0
 45
0.0
1001
ACAD
1000
AcDbSavedByObjectVersion
1070
     0
  0
VISUALSTYLE
  5
F4
102
{ACAD_XDICTIONARY
360
2DD4
102
}
102
{ACAD_REACTORS
330
EF
102
}
330
EF
100
AcDbVisualStyle
  2
Basic
 70
     7
 71
     1
 72
     0
 73
     1
 90
        0
 40
-0.6
 41
-30.0
 62
     5
 63
     7
 74
     0
 91
        4
 64
     7
 65
   257
 75
     1
175
     1
 42
1.0
 92
        8
 66
     7
 43
1.0
 76
     1
 77
     6
 78
     2
 67
     7
 79
     5
170
     0
171
     0
290
     0
174
     0
 93
        1
 44
0.0
173
     0
291
     1
 45
0.0
1001
ACAD
1000
AcDbSavedByObjectVersion
1070
     0
  0
VISUALSTYLE
  5
FB
102
{ACAD_XDICTIONARY
360
2DE2
102
}
102
{ACAD_REACTORS
330
EF
102
}
330
EF
100
AcDbVisualStyle
  2
Brighten
 70
    12
 71
     2
 72
     2
 73
     1
 90
        0
 40
-0.6
 41
-30.0
 62
     5
 63
     7
 74
     1
 91
        4
 64
     7
 65
   257
 75
     1
175
     1
 42
1.0
 92
        8
 66
     7
 43
1.0
 76
     1
 77
     6
 78
     2
 67
     7
 79
     5
170
     0
171
     0
290
     0
174
     0
 93
        1
 44
50.0
173
     0
291
     1
 45
0.0
1001
ACAD
1000
AcDbSavedByObjectVersion
1070
     0
  0
VISUALSTYLE
  5
FF
102
{ACAD_XDICTIONARY
360
2DEA
102
}
102
{ACAD_REACTORS
330
EF
102
}
330
EF
100
AcDbVisualStyle
  2
ColorChange
 70
    16
 71
     2
 72
     2
 73
     3
 90
        0
 40
-0.6
 41
-30.0
 62
     5
 63
     8
 74
     1
 91
        4
 64
     7
 65
   257
 75
     1
175
     1
 42
1.0
 92
        8
 66
     8
 43
1.0
 76
     1
 77
     6
 78
     2
 67
     7
 79
     5
170
     0
171
     0
290
     0
174
     0
 93
        1
 44
0.0
173
     0
291
     1
 45
0.0
1001
ACAD
1000
AcDbSavedByObjectVersion
1070
     0
  0
VISUALSTYLE
  5
F8
102
{ACAD_XDICTIONARY
360
2DDC
102
}
102
{ACAD_REACTORS
330
EF
102
}
330
EF
100
AcDbVisualStyle
  2
Conceptual
 70
     9
 71
     3
 72
     2
 73
     1
 90
        0
 40
-0.6
 41
-30.0
 62
     5
 63
     7
 74
     2
 91
        2
 64
     7
 65
   257
 75
     1
175
     1
 42
40.0
 92
        8
 66
     7
 43
1.0
 76
     1
 77
     6
 78
     2
 67
     7
 79
     3
170
     0
171
     0
290
     0
174
     0
 93
        1
 44
0.0
173
     0
291
     0
 45
0.0
1001
ACAD
1000
AcDbSavedByObjectVersion
1070
     0
  0
VISUALSTYLE
  5
FA
102
{ACAD_XDICTIONARY
360
2DE0
102
}
102
{ACAD_REACTORS
330
EF
102
}
330
EF
100
AcDbVisualStyle
  2
Dim
 70
    11
 71
     2
 72
     2
 73
     1
 90
        0
 40
-0.6
 41
-30.0
 62
     5
 63
     7
 74
     1
 91
        4
 64
     7
 65
   257
 75
     1
175
     1
 42
1.0
 92
        8
 66
     7
 43
1.0
 76
     1
 77
     6
 78
     2
 67
     7
 79
     5
170
     0
171
     0
290
     0
174
     0
 93
        1
 44
-50.0
173
     0
291
     1
 45
0.0
1001
ACAD
1000
AcDbSavedByObjectVersion
1070
     0
  0
VISUALSTYLE
  5
1E6
102
{ACAD_XDICTIONARY
360
2DF2
102
}
102
{ACAD_REACTORS
330
EF
102
}
330
EF
100
AcDbVisualStyle
  2
EdgeColorOff
 70
    22
 71
     2
 72
     2
 73
     0
 90
        0
 40
-0.6
 41
-30.0
 62
     5
 63
     7
 74
     1
 91
        4
 64
     7
 65
   257
 75
     1
175
     1
 42
1.0
 92
        8
 66
     7
 43
1.0
 76
     1
 77
     6
 78
     2
 67
     7
 79
     5
170
     0
171
     0
290
     0
174
     0
 93
        1
 44
0.0
173
     0
291
     1
 45
0.0
1001
ACAD
1000
AcDbSavedByObjectVersion
1070
     0
  0
VISUALSTYLE
  5
FE
102
{ACAD_XDICTIONARY
360
2DE8
102
}
102
{ACAD_REACTORS
330
EF
102
}
330
EF
100
AcDbVisualStyle
  2
Facepattern
 70
    15
 71
     2
 72
     2
 73
     1
 90
        0
 40
-0.6
 41
-30.0
 62
     5
 63
     7
 74
     1
 91
        4
 64
     7
 65
   257
 75
     1
175
     1
 42
1.0
 92
        8
 66
     7
 43
1.0
 76
     1
 77
     6
 78
     2
 67
     7
 79
     5
170
     0
171
     0
290
     0
174
     0
 93
        1
 44
0.0
173
     0
291
     1
 45
0.0
1001
ACAD
1000
AcDbSavedByObjectVersion
1070
     0
  0
VISUALSTYLE
  5
F0
102
{ACAD_XDICTIONARY
360
2DCC
102
}
102
{ACAD_REACTORS
330
EF
102
}
330
EF
100
AcDbVisualStyle
  2
Flat
 70
     0
 71
     2
 72
     1
 73
     1
 90
        2
 40
-0.6
 41
30.0
 62
     5
 63
     7
 74
     0
 91
        0
 64
     7
 65
   257
 75
     1
175
     1
 42
1.0
 92
        8
 66
     7
 43
1.0
 76
     1
 77
     6
 78
     2
 67
     7
 79
     5
170
     0
171
     0
290
     0
174
     0
 93
       13
 44
0.0
173
     0
291
     1
 45
0.0
1001
ACAD
1000
AcDbSavedByObjectVersion
1070
     0
  0
VISUALSTYLE
  5
F1
102
{ACAD_XDICTIONARY
360
2DCE
102
}
102
{ACAD_REACTORS
330
EF
102
}
330
EF
100
AcDbVisualStyle
  2
FlatWithEdges
 70
     1
 71
     2
 72
     1
 73
     1
 90
        2
 40
-0.6
 41
30.0
 62
     5
 63
     7
 74
     1
 91
        0
 64
     7
 65
   257
 75
     1
175
     1
 42
1.0
 92
        0
 66
   257
 43
1.0
 76
     1
 77
     6
 78
     2
 67
     7
 79
     5
170
     0
171
     0
290
     0
174
     0
 93
       13
 44
0.0
173
     0
291
     1
 45
0.0
1001
ACAD
1000
AcDbSavedByObjectVersion
1070
     0
  0
VISUALSTYLE
  5
F2
102
{ACAD_XDICTIONARY
360
2DD0
102
}
102
{ACAD_REACTORS
330
EF
102
}
330
EF
100
AcDbVisualStyle
  2
Gouraud
 70
     2
 71
     2
 72
     2
 73
     1
 90
        2
 40
-0.6
 41
30.0
 62
     5
 63
     7
 74
     0
 91
        0
 64
     7
 65
   257
 75
     1
175
     1
 42
1.0
 92
        0
 66
     7
 43
1.0
 76
     1
 77
     6
 78
     2
 67
     7
 79
     5
170
     0
171
     0
290
     0
174
     0
 93
       13
 44
0.0
173
     0
291
     1
 45
0.0
1001
ACAD
1000
AcDbSavedByObjectVersion
1070
     0
  0
VISUALSTYLE
  5
F3
102
{ACAD_XDICTIONARY
360
2DD2
102
}
102
{ACAD_REACTORS
330
EF
102
}
330
EF
100
AcDbVisualStyle
  2
GouraudWithEdges
 70
     3
 71
     2
 72
     2
 73
     1
 90
        2
 40
-0.6
 41
30.0
 62
     5
 63
     7
 74
     1
 91
        0
 64
     7
 65
   257
 75
     1
175
     1
 42
1.0
 92
        0
 66
   257
 43
1.0
 76
     1
 77
     6
 78
     2
 67
     7
 79
     5
170
     0
171
     0
290
     0
174
     0
 93
       13
 44
0.0
173
     0
291
     1
 45
0.0
1001
ACAD
1000
AcDbSavedByObjectVersion
1070
     0
  0
VISUALSTYLE
  5
F7
102
{ACAD_XDICTIONARY
360
2DDA
102
}
102
{ACAD_REACTORS
330
EF
102
}
330
EF
100
AcDbVisualStyle
  2
Hidden
 70
     6
 71
     1
 72
     2
 73
     2
 90
        0
 40
-0.6
 41
-30.0
 62
     5
 63
     7
 74
     2
 91
        2
 64
     7
 65
   257
 75
     2
175
     1
 42
40.0
 92
        0
 66
   257
 43
1.0
 76
     1
 77
     6
 78
     2
 67
     7
 79
     3
170
     0
171
     0
290
     0
174
     0
 93
        1
 44
0.0
173
     0
291
     0
 45
0.0
1001
ACAD
1000
AcDbSavedByObjectVersion
1070
     0
  0
VISUALSTYLE
  5
1E4
102
{ACAD_XDICTIONARY
360
2DEE
102
}
102
{ACAD_REACTORS
330
EF
102
}
330
EF
100
AcDbVisualStyle
  2
JitterOff
 70
    20
 71
     2
 72
     2
 73
     0
 90
        0
 40
-0.6
 41
-30.0
 62
     5
 63
     7
 74
     1
 91
        4
 64
     7
 65
   257
 75
     1
175
     1
 42
1.0
 92
       10
 66
     7
 43
1.0
 76
     1
 77
     6
 78
     2
 67
     7
 79
     5
170
     0
171
     0
290
     0
174
     0
 93
        1
 44
0.0
173
     0
291
     1
 45
0.0
1001
ACAD
1000
AcDbSavedByObjectVersion
1070
     0
  0
VISUALSTYLE
  5
FD
102
{ACAD_XDICTIONARY
360
2DE6
102
}
102
{ACAD_REACTORS
330
EF
102
}
330
EF
100
AcDbVisualStyle
  2
Linepattern
 70
    14
 71
     2
 72
     2
 73
     1
 90
        0
 40
-0.6
 41
-30.0
 62
     5
 63
     7
 74
     1
 91
        4
 64
     7
 65
   257
 75
     7
175
     7
 42
1.0
 92
        8
 66
     7
 43
1.0
 76
     1
 77
     6
 78
     2
 67
     7
 79
     5
170
     0
171
     0
290
     0
174
     0
 93
        1
 44
0.0
173
     0
291
     1
 45
0.0
1001
ACAD
1000
AcDbSavedByObjectVersion
1070
     0
  0
VISUALSTYLE
  5
1E5
102
{ACAD_XDICTIONARY
360
2DF0
102
}
102
{ACAD_REACTORS
330
EF
102
}
330
EF
100
AcDbVisualStyle
  2
OverhangOff
 70
    21
 71
     2
 72
     2
 73
     0
 90
        0
 40
-0.6
 41
-30.0
 62
     5
 63
     7
 74
     1
 91
        4
 64
     7
 65
   257
 75
     1
175
     1
 42
1.0
 92
        9
 66
     7
 43
1.0
 76
     1
 77
     6
 78
     2
 67
     7
 79
     5
170
     0
171
     0
290
     0
174
     0
 93
        1
 44
0.0
173
     0
291
     1
 45
0.0
1001
ACAD
1000
AcDbSavedByObjectVersion
1070
     0
  0
VISUALSTYLE
  5
F9
102
{ACAD_XDICTIONARY
360
2DDE
102
}
102
{ACAD_REACTORS
330
EF
102
}
330
EF
100
AcDbVisualStyle
  2
Realistic
 70
     8
 71
     2
 72
     2
 73
     0
 90
        2
 40
-0.6
 41
30.0
 62
     5
 63
     7
 74
     0
 91
        0
 64
     7
 65
   257
 75
     1
175
     1
 42
1.0
 92
        8
 66
   257
 43
1.0
 76
     1
 77
     6
 78
     2
 67
     7
 79
     3
170
     0
171
     0
290
     0
174
     0
 93
       13
 44
0.0
173
     0
291
     0
 45
0.0
1001
ACAD
1000
AcDbSavedByObjectVersion
1070
     0
  0
VISUALSTYLE
  5
1F3
102
{ACAD_XDICTIONARY
360
2DFC
102
}
102
{ACAD_REACTORS
330
EF
102
}
330
EF
100
AcDbVisualStyle
  2
Shaded
 70
    27
 71
     2
 72
     2
 73
     1
 90
        2
 40
-0.6
 41
30.0
 62
     5
 63
     7
 74
     0
 91
        4
 64
     7
 65
   257
 75
     1
175
     1
 42
1.0
 92
        8
 66
   257
 43
1.0
 76
     1
 77
     6
 78
     2
 67
     8
 79
     3
170
     0
171
     0
290
     0
174
     0
 93
        5
 44
0.0
173
     0
291
     0
 45
0.0
1001
ACAD
1000
AcDbSavedByObjectVersion
1070
     0
  0
VISUALSTYLE
  5
1F2
102
{ACAD_XDICTIONARY
360
2DFA
102
}
102
{ACAD_REACTORS
330
EF
102
}
330
EF
100
AcDbVisualStyle
  2
Shaded with edges
 70
    26
 71
     2
 72
     2
 73
     1
 90
        2
 40
-0.6
 41
30.0
 62
     5
 63
     7
 74
     1
 91
        2
 64
     7
 65
   257
 75
     2
175
     1
 42
1.0
 92
        8
 66
   257
 43
1.0
 76
     1
 77
     6
 78
     2
 67
     7
 79
     3
170
     0
171
     0
290
     0
174
     0
 93
        5
 44
0.0
173
     0
291
     0
 45
0.0
1001
ACAD
1000
AcDbSavedByObjectVersion
1070
     0
  0
VISUALSTYLE
  5
1EF
102
{ACAD_XDICTIONARY
360
2DF4
102
}
102
{ACAD_REACTORS
330
EF
102
}
330
EF
100
AcDbVisualStyle
  2
Shades of Gray
 70
    23
 71
     2
 72
     2
 73
     3
 90
        0
 40
-0.6
 41
-30.0
 62
     5
 63
     7
 74
     2
 91
        2
 64
     7
 65
     7
 75
     1
175
     1
 42
40.0
 92
        8
 66
     7
 43
1.0
 76
     1
 77
     6
 78
     2
 67
     7
 79
     3
170
     0
171
     0
290
     0
174
     0
 93
        1
 44
0.0
173
     0
291
     0
 45
0.0
1001
ACAD
1000
AcDbSavedByObjectVersion
1070
     0
  0
VISUALSTYLE
  5
1F0
102
{ACAD_XDICTIONARY
360
2DF6
102
}
102
{ACAD_REACTORS
330
EF
102
}
330
EF
100
AcDbVisualStyle
  2
Sketchy
 70
    24
 71
     1
 72
     2
 73
     2
 90
        0
 40
-0.6
 41
-30.0
 62
     5
 63
     7
 74
     2
 91
        2
 64
     7
 65
     7
 75
     1
175
     1
 42
40.0
 92
       11
 66
     7
 43
1.0
 76
     1
 77
     6
 78
     2
 67
     7
 79
     6
170
     0
171
     0
290
     0
174
     0
 93
        1
 44
0.0
173
     0
291
     0
 45
0.0
1001
ACAD
1000
AcDbSavedByObjectVersion
1070
     0
  0
VISUALSTYLE
  5
FC
102
{ACAD_XDICTIONARY
360
2DE4
102
}
102
{ACAD_REACTORS
330
EF
102
}
330
EF
100
AcDbVisualStyle
  2
Thicken
 70
    13
 71
     2
 72
     2
 73
     1
 90
        0
 40
-0.6
 41
-30.0
 62
     5
 63
     7
 74
     1
 91
        4
 64
     7
 65
   257
 75
     1
175
     1
 42
1.0
 92
       12
 66
     7
 43
1.0
 76
     1
 77
     6
 78
     2
 67
     7
 79
     5
170
     0
171
     0
290
     0
174
     0
 93
        1
 44
0.0
173
     0
291
     1
 45
0.0
1001
ACAD
1000
AcDbSavedByObjectVersion
1070
     0
  0
VISUALSTYLE
  5
F6
102
{ACAD_XDICTIONARY
360
2DD8
102
}
102
{ACAD_REACTORS
330
EF
102
}
330
EF
100
AcDbVisualStyle
  2
Wireframe
 70
     5
 71
     0
 72
     2
 73
     0
 90
        0
 40
-0.6
 41
-30.0
 62
     5
 63
     7
 74
     1
 91
        4
 64
     7
 65
   257
 75
     1
175
     1
 42
1.0
 92
        0
 66
   257
 43
1.0
 76
     1
 77
     6
 78
     2
 67
     7
 79
     3
170
     0
171
     0
290
     0
174
     0
 93
        1
 44
0.0
173
     0
291
     0
 45
0.0
1001
ACAD
1000
AcDbSavedByObjectVersion
1070
     0
  0
VISUALSTYLE
  5
1F1
102
{ACAD_XDICTIONARY
360
2DF8
102
}
102
{ACAD_REACTORS
330
EF
102
}
330
EF
100
AcDbVisualStyle
  2
X-Ray
 70
    25
 71
     2
 72
     2
 73
     1
 90
        1
 40
0.5
 41
-30.0
 62
     5
 63
     7
 74
     1
 91
        0
 64
     7
 65
   257
 75
     1
175
     1
 42
1.0
 92
        8
 66
     7
 43
1.0
 76
     1
 77
     6
 78
     2
 67
     7
 79
     3
170
     0
171
     0
290
     0
174
     0
 93
       13
 44
0.0
173
     0
291
     0
 45
0.0
1001
ACAD
1000
AcDbSavedByObjectVersion
1070
     0
  0
DICTIONARYVAR
  5
146
102
{ACAD_REACTORS
330
5E
102
}
330
5E
100
DictionaryVariables
280
     0
  1
1:1
  0
DICTIONARYVAR
  5
259
102
{ACAD_REACTORS
330
5E
102
}
330
5E
100
DictionaryVariables
280
     0
  1
3.500000
  0
DICTIONARYVAR
  5
25A
102
{ACAD_REACTORS
330
5E
102
}
330
5E
100
DictionaryVariables
280
     0
  1
acadiso.lin
  0
DICTIONARYVAR
  5
145
102
{ACAD_REACTORS
330
5E
102
}
330
5E
100
DictionaryVariables
280
     0
  1
STANDARD
  0
DICTIONARYVAR
  5
84
102
{ACAD_REACTORS
330
5E
102
}
330
5E
100
DictionaryVariables
280
     0
  1
STANDARD
  0
DICTIONARYVAR
  5
227
102
{ACAD_REACTORS
330
5E
102
}
330
5E
100
DictionaryVariables
280
     0
  1
Metric50
  0
DICTIONARYVAR
  5
228
102
{ACAD_REACTORS
330
5E
102
}
330
5E
100
DictionaryVariables
280
     0
  1
Metric50
  0
DICTIONARYVAR
  5
5F
102
{ACAD_REACTORS
330
5E
102
}
330
5E
100
DictionaryVariables
280
     0
  1
2
  0
DICTIONARYVAR
  5
63
102
{ACAD_REACTORS
330
5E
102
}
330
5E
100
DictionaryVariables
280
     0
  1
1
  0
DICTIONARYVAR
  5
2D6B
102
{ACAD_REACTORS
330
5E
102
}
330
5E
100
DictionaryVariables
280
     0
  1
0
  0
DICTIONARYVAR
  5
1AE
102
{ACAD_REACTORS
330
5E
102
}
330
5E
100
DictionaryVariables
280
     0
  1
0
  0
DICTIONARYVAR
  5
1AF
102
{ACAD_REACTORS
330
5E
102
}
330
5E
100
DictionaryVariables
280
     0
  1
0
  0
DICTIONARYVAR
  5
2D69
102
{ACAD_REACTORS
330
5E
102
}
330
5E
100
DictionaryVariables
280
     0
  1
2
  0
DICTIONARYVAR
  5
2D68
102
{ACAD_REACTORS
330
5E
102
}
330
5E
100
DictionaryVariables
280
     0
  1
1
  0
DICTIONARYVAR
  5
2DBD
102
{ACAD_REACTORS
330
5E
102
}
330
5E
100
DictionaryVariables
280
     0
  1
80.000000
  0
DICTIONARYVAR
  5
2DBC
102
{ACAD_REACTORS
330
5E
102
}
330
5E
100
DictionaryVariables
280
     0
  1
5.000000
  0
DICTIONARYVAR
  5
2D6A
102
{ACAD_REACTORS
330
5E
102
}
330
5E
100
DictionaryVariables
280
     0
  1
127
  0
DICTIONARYVAR
  5
2DBE
102
{ACAD_REACTORS
330
5E
102
}
330
5E
100
DictionaryVariables
280
     0
  1
2
  0
DICTIONARY
  5
2E00
330
21C
100
AcDbDictionary
280
     1
281
     1
  3
ACAD_XREC_ROUNDTRIP
360
2E01
  0
DICTIONARY
  5
2DC5
330
D3
100
AcDbDictionary
280
     1
281
     1
  3
ACAD_XREC_ROUNDTRIP
360
2DC6
  0
DICTIONARY
  5
2DC7
330
D7
100
AcDbDictionary
280
     1
281
     1
  3
ACAD_XREC_ROUNDTRIP
360
2DC8
  0
DICTIONARY
  5
2DC2
330
22
100
AcDbDictionary
280
     1
281
     1
  3
ACAD_XREC_ROUNDTRIP
360
2DC3
  0
DICTIONARY
  5
1F9
330
ED
100
AcDbDictionary
280
     1
281
     1
  3
ACAD_XREC_ROUNDTRIP
360
2DCA
  3
FBXASSET
360
1FA
  0
DICTIONARY
  5
1F7
330
EC
100
AcDbDictionary
280
     1
281
     1
  3
ACAD_XREC_ROUNDTRIP
360
2DC9
  3
FBXASSET
360
1F8
  0
DICTIONARY
  5
173
330
EE
100
AcDbDictionary
280
     1
281
     1
  3
ACAD_XREC_ROUNDTRIP
360
2DCB
  3
BUMPTILE
360
175
  3
DIFFUSETILE
360
174
  3
FBXASSET
360
1FB
  3
OPACITYTILE
360
176
  3
REFLECTIONTILE
360
177
  0
DICTIONARY
  5
2DEC
330
12E
100
AcDbDictionary
280
     1
281
     1
  3
ACAD_XREC_ROUNDTRIP
360
2DED
  0
DICTIONARY
  5
2DFE
330
21A
100
AcDbDictionary
280
     1
281
     1
  3
ACAD_XREC_ROUNDTRIP
360
2DFF
  0
DICTIONARY
  5
162
330
7F
100
AcDbDictionary
280
     1
281
     1
  3
ACAD_ROUNDTRIP_2008_TABLESTYLE_CELLSTYLEMAP
360
2DBF
  3
ACAD_XREC_ROUNDTRIP
360
2DC4
  0
DICTIONARY
  5
2DD6
330
F5
100
AcDbDictionary
280
     1
281
     1
  3
ACAD_XREC_ROUNDTRIP
360
2DD7
  0
DICTIONARY
  5
2DD4
330
F4
100
AcDbDictionary
280
     1
281
     1
  3
ACAD_XREC_ROUNDTRIP
360
2DD5
  0
DICTIONARY
  5
2DE2
330
FB
100
AcDbDictionary
280
     1
281
     1
  3
ACAD_XREC_ROUNDTRIP
360
2DE3
  0
DICTIONARY
  5
2DEA
330
FF
100
AcDbDictionary
280
     1
281
     1
  3
ACAD_XREC_ROUNDTRIP
360
2DEB
  0
DICTIONARY
  5
2DDC
330
F8
100
AcDbDictionary
280
     1
281
     1
  3
ACAD_XREC_ROUNDTRIP
360
2DDD
  0
DICTIONARY
  5
2DE0
330
FA
100
AcDbDictionary
280
     1
281
     1
  3
ACAD_XREC_ROUNDTRIP
360
2DE1
  0
DICTIONARY
  5
2DF2
330
1E6
100
AcDbDictionary
280
     1
281
     1
  3
ACAD_XREC_ROUNDTRIP
360
2DF3
  0
DICTIONARY
  5
2DE8
330
FE
100
AcDbDictionary
280
     1
281
     1
  3
ACAD_XREC_ROUNDTRIP
360
2DE9
  0
DICTIONARY
  5
2DCC
330
F0
100
AcDbDictionary
280
     1
281
     1
  3
ACAD_XREC_ROUNDTRIP
360
2DCD
  0
DICTIONARY
  5
2DCE
330
F1
100
AcDbDictionary
280
     1
281
     1
  3
ACAD_XREC_ROUNDTRIP
360
2DCF
  0
DICTIONARY
  5
2DD0
330
F2
100
AcDbDictionary
280
     1
281
     1
  3
ACAD_XREC_ROUNDTRIP
360
2DD1
  0
DICTIONARY
  5
2DD2
330
F3
100
AcDbDictionary
280
     1
281
     1
  3
ACAD_XREC_ROUNDTRIP
360
2DD3
  0
DICTIONARY
  5
2DDA
330
F7
100
AcDbDictionary
280
     1
281
     1
  3
ACAD_XREC_ROUNDTRIP
360
2DDB
  0
DICTIONARY
  5
2DEE
330
1E4
100
AcDbDictionary
280
     1
281
     1
  3
ACAD_XREC_ROUNDTRIP
360
2DEF
  0
DICTIONARY
  5
2DE6
330
FD
100
AcDbDictionary
280
     1
281
     1
  3
ACAD_XREC_ROUNDTRIP
360
2DE7
  0
DICTIONARY
  5
2DF0
330
1E5
100
AcDbDictionary
280
     1
281
     1
  3
ACAD_XREC_ROUNDTRIP
360
2DF1
  0
DICTIONARY
  5
2DDE
330
F9
100
AcDbDictionary
280
     1
281
     1
  3
ACAD_XREC_ROUNDTRIP
360
2DDF
  0
DICTIONARY
  5
2DFC
330
1F3
100
AcDbDictionary
280
     1
281
     1
  3
ACAD_XREC_ROUNDTRIP
360
2DFD
  0
DICTIONARY
  5
2DFA
330
1F2
100
AcDbDictionary
280
     1
281
     1
  3
ACAD_XREC_ROUNDTRIP
360
2DFB
  0
DICTIONARY
  5
2DF4
330
1EF
100
AcDbDictionary
280
     1
281
     1
  3
ACAD_XREC_ROUNDTRIP
360
2DF5
  0
DICTIONARY
  5
2DF6
330
1F0
100
AcDbDictionary
280
     1
281
     1
  3
ACAD_XREC_ROUNDTRIP
360
2DF7
  0
DICTIONARY
  5
2DE4
330
FC
100
AcDbDictionary
280
     1
281
     1
  3
ACAD_XREC_ROUNDTRIP
360
2DE5
  0
DICTIONARY
  5
2DD8
330
F6
100
AcDbDictionary
280
     1
281
     1
  3
ACAD_XREC_ROUNDTRIP
360
2DD9
  0
DICTIONARY
  5
2DF8
330
1F1
100
AcDbDictionary
280
     1
281
     1
  3
ACAD_XREC_ROUNDTRIP
360
2DF9
  0
XRECORD
  5
2E01
102
{ACAD_REACTORS
330
2E00
102
}
330
2E00
100
AcDbXrecord
280
     1
102
DISPLAYNAME
  1
Metric50
102
FLAGS
 90
        0
  0
XRECORD
  5
2DC6
102
{ACAD_REACTORS
330
2DC5
102
}
330
2DC5
100
AcDbXrecord
280
     1
102
SHADEPLOT
 70
     0
102
SHADEPLOTRESLEVEL
 70
     2
102
SHADEPLOTCUSTOMDPI
 70
   300
  0
XRECORD
  5
2DC8
102
{ACAD_REACTORS
330
2DC7
102
}
330
2DC7
100
AcDbXrecord
280
     1
102
SHADEPLOT
 70
     0
102
SHADEPLOTRESLEVEL
 70
     2
102
SHADEPLOTCUSTOMDPI
 70
   300
  0
XRECORD
  5
2DC3
102
{ACAD_REACTORS
330
2DC2
102
}
330
2DC2
100
AcDbXrecord
280
     1
102
SHADEPLOT
 70
     0
102
SHADEPLOTRESLEVEL
 70
     2
102
SHADEPLOTCUSTOMDPI
 70
   300
  0
XRECORD
  5
2DCA
102
{ACAD_REACTORS
330
1F9
102
}
330
1F9
100
AcDbXrecord
280
     1
102
MATERIAL
148
0.0
149
0.0
149
0.0
 93
        0
 94
       63
282
     0
 72
     1
 77
     1
171
     1
175
     1
179
     1
273
     0
  0
XRECORD
  5
1FA
102
{ACAD_REACTORS
330
1F9
102
}
330
1F9
100
AcDbXrecord
280
     1
 70
     1
 90
429727718
  1
D62C5603-E3A1-4AEA-B7FB-FE5D8D0755AF
310
504B03040A0000080000CC70623B3DEE336E79000000790000001B0000006175746F6465736B2D64657369676E2D7061636B6167652E786D6C3C3F786D6C2076657273696F6E3D22312E302220656E636F64696E673D227574662D3822203F3E3C666F726D6174733E3C666F726D61743E687474703A2F2F736368656D612E
310
6175746F6465736B2E636F6D2F64657369676E2D7061636B6167652F323030393C2F666F726D61743E3C2F666F726D6174733E504B0304140006080800CC70623BD486FD9CA0000000F4000000130000005B436F6E74656E745F54797065735D2E786D6C7D8EC10E82300C865F65E91D8A1E8C310C0EEA1BF002731658846E
310
D98AC1B77784ABF1D8FE5FBFBF75BBCE937A534CCEB38643598122B6FEE978D0B0485F9C41B54DDD7D022595594E1A469170414C76A4D9A4D207E29CF43ECE46F218070CC6BECC4078ACAA135ACF422C856C0E68EA1BF5669944DDD7BCDE7B1F8E415D77AECB980613C2E4AC91FC167A2B244592486606FC29C8FD7F045B9A
310
EF7053A7E60B504B0304140006080800CC70623B853B8169EB0000007C01000008000000636F72652E786D6C8D90416EC3201045AF62CDB6C206821CC7C244919D9CA01740401C94182C03558F5F9C3852BBEB6A467FFE9B197D7EFC9E1EC5975982F5AE035262288C535E5B377690E21535501C055FBC8FBF6C503839990E
310
5619041F179FE64D52DE45E362569DD7661365082642A11EB9E920A89B99642953CC8E702F67A9EE7234257977194EC9EAE275C4EABCCF5EAD5940D4AC6F0E35A568B8F43562CD7046CD199FD07E60174276A7BE677B5EADB0E0D14EEFFB6A31321A0D82627C4084204C3F096B71DD52F6819B16635EADF63F509AF53FA164
310
5DDCD1EDDD17164090FCC8732078B56691CB33A85CD7DCC40F504B0304140006080800CC70623B55019EA25F0000007C00000007000000636E782E786D6C4DCB3B0E80201045D1AD90E915ED2CF8AC45050C11660C8261F98AB1B07AC9C97D42D718D865D3E909258CFD00CCE24AC6E326A164D74DC0B4128928FF32603847
310
2BA13128B1252AC747C6BAB984FC68F0B87FE8960A5C09FE86CFB69FBA01504B0304140006080800CC70623BDBABAAF470010000D40300000C0000006662782F636F72652E786D6CC553D16E823014FD95A6AF4B694182CC941A83FA05FB810A9511A125A5257EFE2E82712ECEB8A7F100CD39F7F69E734AF9FADC366850B6
310
AF8DCE7018308C942E4C59EB2AC3DE1D498AD15A706B8CFB56869196ADCAF00863C12B6B7C374385D14E6907A836A59A41D9F7CA615434B0C8705F7CAA5606D23BA8E84F41278B93AC54100640439DE0BDB320004D43C63716C7C399D30917DCFBBA9CD9BA8469F5B156168B24CED3F7248AC8769F27244EB73B92EED8862C
310
B7F13E0C179B3C8F979C8ECD82BBBABDAA2BAC924E9558448CBD9330242CFA08E3154B5651FCC6D215639C8EE5774DBE2B5F6CF2B5768B68963BB5F5588420E442FC700B1139D4CB01F450C1E918227C2E09DF070D8140C84E1E9AAB8F1340832A9CB13130A5F1376A908D57309505ECF2A0DF179C4E9D30F5B239B87E3823
310
7A79C6F31DE1A8A5AEC08474B03C7837EAE4938639B44E5932B833D2C6B6B279CDC613877FA26EE21F4A2A4C63EC7F29A2F301D1F9F7A0E37D145F504B0304140006080800CC70623B9C113CC27E0000009D0000000B0000006662782F636E782E786D6C4DCCDF0A83201C86E15B91DFB94BFB330DD428C8FB886521330DA7
310
6397BF1A1DECE883878F57749FCDA1B7892F1BBC047A23808C7F84D9FA55424E0BE6803A256208E9EF06C84F9B91703228B1C690F78B66B34CD9A5439DF5CF0BFBF65E35BCA1B8D6A5C6F540381E886698B5741C695F9503EBA150A2F8958E3DC3EA0B504B0304140006080800CC70623B7DF2F77C2A010000120200003100
310
00006662782F41393633353835312D344632462D344230382D423046372D3739314545314133324237412F636F72652E786D6C8D51DB8EC22014FC15C2939B0D2DB4B45643319AE817EC0F6041255A68B86CFCFC856D4D76DF7CE190393373060EDB3DC707F856CE6B6B7A480A0C81328395DA5C7B18C3057510EC3873D686
310
3F34088C18550F330C39BB3A1BA7051AAC09CA84841A2BD5020AEF55806078A44B0FFD7053A328440C89E1EFC52486BBB8AA8214A99D789CF9E05200300FC927E4FB4D5B375D43103D5527440FB843077C5AA3F5861C8F645F5787F59E95B390B318B55CE45AA638FAA2957BD7248B390B7A7CC51F9C124149C82B8C378810
310
84AB2F42B7B8DD56F413775B8C5999E9FF4471926F8AA236A1AE96B8B3CC434E5839373893369E1FAF30EA395917409EB7F26AF8801C171837A4A6AC9C89E9F9C9B1A58BA30FD6A5EF5DDDCF894B9AD9B6A59C957943A9FCAE2FD5BC4DFE03504B0304140006080800CC70623BAD7543B64E01000033030000300000006662
310
782F41393633353835312D344632462D344230382D423046372D3739314545314133324237412F636E782E786D6CD593CD6EC32010845F0571AD6CE3D48AD20813A9873E410FBD12D82434182C7EAAE6EDBB2424CD25871E7B41D6EC30B3FA84F9E67BB2E40B4234DE8DB46F1925E094D7C6ED479AD3AE5951B2113C789FEE
310
6C943839C1488B4C05DF079FE72A69D8C96C13AAD6B8631503449F83828872B949AC57D26200B826A308D316B4064D6E46FCDA41C05550DC9E483A00797BFD207EFB092A45DE9514C1BBD22178396BD39D891265658C238DEA00936C654E5E433CB65A26D9F6EDB5EBC14EBF49A45CB856E66048291F6939A9A81BB5C89177
310
38143CA680F4AA299D66A042CEB3354A2684DC9D8D178FE0D9B8B41CAAD720F880EE7EF93C0C18769E099ECC04D5A102C8049A8A05632F4DDF376CF1DE0F6BB65C2F8627B65A33C6BB62177CEBBDAD973006829F89F22E814B54F4BC2BE347F8AA8F681390B50FA73F804400B5F542E796F19FF974E7F78DB802FE05E20750
310
4B0304140006080800CC70623BE75B7789680500003C100000340000006662782F41393633353835312D344632462D344230382D423046372D3739314545314133324237412F6F626A656374732E786D6CAD575B8F9B3818FD2B887D06C22499CB8AA1CA655245D5B455A356FB305264C061D8018C6C3393D95FBFC7600890
310
A4CD5EF210B0B1BFEBF98E3F7B1FF6596ABC522E1296DF9BAE3D320D9A872C4AF2F8DE2CE5CEBA358D0FBEC719939D65A691938CDE9B6ADAF4BD98B3B2D05311DD91329583D9D5FC0F438434A7A611A644887B5384CF34233629258BA878B12322891DEFF6B66BD70BFB62634E8AE781D082709A4B588AF91C528CDA28B73F
310
1C998EEF39EABBEFA97FBD6A7C7E9553F9D3D79FE442923C3C523610337627CB87ABE99D359D4CC6D6E4FACAB5E6ABF9D2726FC6A3C5F56271377BB88362213924694B38DD99FE47C48627A1E7D49F5A8BB5E1A74C0A599ED3B0F21F1E56366B89112D681E218F0915D0D6F17AD41FBA2A369DCF6335D62ABBD39779D5DDD1
310
11D4D8DE3CBB96B2E04FB8202E41051754A1AA8E8F76B4C6DFE810B580B1547F4B84911149794252234D024EF8BBE963A95AE27B3D310A9D5C215C7960FAEE415ED75694C6AFB17BCACA5D99A60A9AA65F217B0BFC53292ACB92BF283FAD0D3621576592CB5BED907C2FA8E9DF794E35E97BEA31BED21FEB401ABB94C44839
310
DCACBF0E1C5DA8DA5B2F4DFFD32AD86F543D9E565E7056502E157C00AD2671CD534549AB752FCA9CDA00677A313F04E51B22FF19E57B300579E3C97EB29F682D92935CEC18CF901B7B54FD8C51F362B56FC72FE0B3C1EAE335EDCCBF5AEC39ADB17DC238973F804BA5E6F6BFE7AF1FB32E523BE9F3BD571418E3631DCA4D48
310
5250CF639223210A9446CA30052EDF057BD35F8329C1ECD84552BF0DC8D18BE7BCE23BFE6BD960AB4A7DE79923A103BEBD80F911CBAA2C60DB19B01CF164A5583B772EE6D3FFA56666CBCDA74DC97724A48F9A58967497E489C4D979006FD7A05E227A1EBDD0F737C623387A9C844D3709995625106D157315F8B8392CD4E0
310
A0B9A720C4BE9829CEF37EA1E13111214D53925356365ADA634861B52519DD27A00AEB808EAF0628E6F435519D446F45CF2C9CF5214F0A15B2F6D06B79DA3EE3CBF7F56780D2F4E7EF73A0F5E5B02A38D07DC852C6B7C1FBB6664213E0C39E3EBA7FF4E1AD23EA2829407C85E586727488B751B2DB9502BC7B228A3FD68B6E
310
A65A22397E690AA8D158D7E404EC8CDA235CC3B7D1898680131CEC2CDF2638C65196279577750F15884AEE19F94199155B92B13297978469D4F8D358DF0AEF7631E28DC8F0D9F437D5D39A83B2231A1D52D543813A824EF8D44BCFF2FA6A31BD1E8DAD87F1CCB526B3879935BF59CDADD5C37479BB1CDD4CA7B3556B516589
310
EF352754B706114D9C885EC9131DE6EFEB43D99AFE2391C2F958179413D7CFEF6B1B6DB1E7600F00DE6E5C67454A339A4BA2E0FBA85ED26F045D454F463DBFCE484C2F90F2E5E3666003662ED8F755951A7D1BECD5B30B550B2785C8E7320B7292A4838DDA71BBC863ED7613CAF659337A3354231D4FF4A182A54904C2898C
310
98B28C4AD0CE056CCF332A80986E571EE9DBC305BB5FEB7E509220A58D25CF042D712A806AC0AD0C657FDEF80D2D9CEAA2EE4D1C76F60BFE74219A06527D6F82DF6412526107381E55E353090704D085B52408A8913C4ED159D79BDA71BB4BC506F4831350EB6F975CD22D69BF7AC49B91A2C0A9DDA3D5CA36AD20FC478E37
310
E61844E2352865EBCB61A275A65283CAAA9DD27703B4102F5AF51EF5F573B75CBB5AD38BC845F7A49F82A0966A49C2E3EA5EA0ECD326CD965F1DB402C6FA8B51A4658C5C5E2EC9E214602E55810345408596591009A82E7E7FFACA19EEA299B14A0081A705CB3296EBC14CDF658DCD336EA6D1136881AAEB87B81AB9EE53D5
310
F5EB8BC8362082DA24122F98680A4E7930C01A0079749CEA14382A0783E5EBA5A10F8C098456A03D6A4AEB6BB881E2513747552A5DB22C7EDAF83BD5528081A365F7FF06504B0304140006080000CC70623B000000000000000000000000350000006662782F41393633353835312D344632462D344230382D423046372D37
310
39314545314133324237412F76657274696365732E62696E504B0304140006080800CC70623BF270F1330600000004000000360000006662782F41393633353835312D344632462D344230382D423046372D3739314545314133324237412F747269616E676C65732E62696E636660600000504B0304140006080000CC7062
310
3B000000000000000000000000370000006662782F41393633353835312D344632462D344230382D423046372D3739314545314133324237412F617474726962757465732E62696E504B0304140006080800CC70623B08DA0BD19000000041010000360000006662782F41393633353835312D344632462D344230382D4230
310
46372D3739314545314133324237412F6469726563746F72792E786D6C858F410AC3201045AF22B36F53E9A60B35CBEEBAE80D244E44489C6234F4F835464A48035D0DF398FF9F8AF63D0E6CC63039F212F8F9020C7D47C6792B21C5FE7403D62A1188E2E60C98D7234A5830286103A55745067B9D86B8A3CF9C7F90C11DE6
310
07FB144396D7B6A82D282E9A152AD114D5EF2CB866EEE831B8EEA07A7BB5A8D7D61A2BAAEB7FD5F70921FF497D00504B0304140006080800CC70623BEDD1DC58FD000000A00100003B0000006662782F41393633353835312D344632462D344230382D423046372D3739314545314133324237412F7265736F75726365732F
310
636F72652E786D6C8D504B6E833010BD0A9A6D65B00922041947112427E8052C33A156828DFCA97AFC9A40A576D7CDCCE87D344F8F9FBFE667F689CE6B6B3A6039850C8DB2A336530731DC4903D95970676DF82583CCC8193B5861107C72362E3BA4AC096842428D1D7107A5F7182053CF7474E0D507CE32973124857FE48B
310
540F3961CEF244279DE03EB81420DB9EAC1384436FA353E879B1B182C7A8C75DA3C7F453DF353A1075D537A7BA6464B8F535A99AE14A9A2BBD90E350DD183B5CFABE3AF262350B1EF4FC9351399401471025A527C218A1E53BAB5A5AB765F5469B96525EACF23FA6B88CFF34456DC2A1DCE36E360F82A5202F42F062ED2BAD
310
579969AFDD8A6F504B010214000A0000080000CC70623B3DEE336E79000000790000001B00000000000000000000000000000000006175746F6465736B2D64657369676E2D7061636B6167652E786D6C504B01021400140006080800CC70623BD486FD9CA0000000F40000001300000000000000000000000000B20000005B
310
436F6E74656E745F54797065735D2E786D6C504B01021400140006080800CC70623B853B8169EB0000007C010000080000000000000000000000000083010000636F72652E786D6C504B01021400140006080800CC70623B55019EA25F0000007C000000070000000000000000000000000094020000636E782E786D6C504B
310
01021400140006080800CC70623BDBABAAF470010000D40300000C00000000000000000000000000180300006662782F636F72652E786D6C504B01021400140006080800CC70623B9C113CC27E0000009D0000000B00000000000000000000000000B20400006662782F636E782E786D6C504B01021400140006080800CC70
310
623B7DF2F77C2A010000120200003100000000000000000000000000590500006662782F41393633353835312D344632462D344230382D423046372D3739314545314133324237412F636F72652E786D6C504B01021400140006080800CC70623BAD7543B64E010000330300003000000000000000000000000000D2060000
310
6662782F41393633353835312D344632462D344230382D423046372D3739314545314133324237412F636E782E786D6C504B01021400140006080800CC70623BE75B7789680500003C10000034000000000000000000000000006E0800006662782F41393633353835312D344632462D344230382D423046372D3739314545
310
314133324237412F6F626A656374732E786D6C504B01021400140006080000CC70623B0000000000000000000000003500000000000000000000000000280E00006662782F41393633353835312D344632462D344230382D423046372D3739314545314133324237412F76657274696365732E62696E504B01021400140006
310
080800CC70623BF270F133060000000400000036000000000000000000000000007B0E00006662782F41393633353835312D344632462D344230382D423046372D3739314545314133324237412F747269616E676C65732E62696E504B01021400140006080000CC70623B0000000000000000000000003700000000000000
310
000000000000D50E00006662782F41393633353835312D344632462D344230382D423046372D3739314545314133324237412F617474726962757465732E62696E504B01021400140006080800CC70623B08DA0BD1900000004101000036000000000000000000000000002A0F00006662782F41393633353835312D344632
310
462D344230382D423046372D3739314545314133324237412F6469726563746F72792E786D6C504B01021400140006080800CC70623BEDD1DC58FD000000A00100003B000000000000000000000000000E1000006662782F41393633353835312D344632462D344230382D423046372D3739314545314133324237412F7265
310
736F75726365732F636F72652E786D6C504B0506000000000E000E0080040000641100000000
  0
XRECORD
  5
2DC9
102
{ACAD_REACTORS
330
1F7
102
}
330
1F7
100
AcDbXrecord
280
     1
102
MATERIAL
148
0.0
149
0.0
149
0.0
 93
        0
 94
       63
282
     0
 72
     1
 77
     1
171
     1
175
     1
179
     1
273
     0
  0
XRECORD
  5
1F8
102
{ACAD_REACTORS
330
1F7
102
}
330
1F7
100
AcDbXrecord
280
     1
 70
     1
 90
429727718
  1
30362254-06B7-45E0-A893-8CFA70E3D6BC
310
504B03040A0000080000CC70623B3DEE336E79000000790000001B0000006175746F6465736B2D64657369676E2D7061636B6167652E786D6C3C3F786D6C2076657273696F6E3D22312E302220656E636F64696E673D227574662D3822203F3E3C666F726D6174733E3C666F726D61743E687474703A2F2F736368656D612E
310
6175746F6465736B2E636F6D2F64657369676E2D7061636B6167652F323030393C2F666F726D61743E3C2F666F726D6174733E504B0304140006080800CC70623BD486FD9CA0000000F4000000130000005B436F6E74656E745F54797065735D2E786D6C7D8EC10E82300C865F65E91D8A1E8C310C0EEA1BF002731658846E
310
D98AC1B77784ABF1D8FE5FBFBF75BBCE937A534CCEB38643598122B6FEE978D0B0485F9C41B54DDD7D022595594E1A469170414C76A4D9A4D207E29CF43ECE46F218070CC6BECC4078ACAA135ACF422C856C0E68EA1BF5669944DDD7BCDE7B1F8E415D77AECB980613C2E4AC91FC167A2B244592486606FC29C8FD7F045B9A
310
EF7053A7E60B504B0304140006080800CC70623B1EC5D7A3EB0000007C01000008000000636F72652E786D6C8D90416EC3201045AF82665B6103C6756C6122AB4D4ED00B204C5C94182C03558F5F9C3852BBEB6A467FFE9B197D71FC9E6FE8CBACC17AD7032D0820E3B41FAD9B7A48F1820F808E52ACDEC75F36404ECDA687
310
4D0629A6D5A76597B477D1B89855E747B38B2A041301E95B6E7A08FAD3CCAA50296647B8168BD2573599823EBB0CA76447F43862C7BCCF5EAC59410E4DDD9C7973C2755553CCCFA4C603E3040F1565ED3B1FDE4E432BCA0D9622DAF9795FAF464533826484B498524CD807E51D79ED187F21878E10516EF63F505AC67F42C9
310
BA58B1FDDD071640D2FCC87D2045B96591CB3DA85CB7DCE40F504B0304140006080800CC70623B55019EA25F0000007C00000007000000636E782E786D6C4DCB3B0E80201045D1AD90E915ED2CF8AC45050C11660C8261F98AB1B07AC9C97D42D718D865D3E909258CFD00CCE24AC6E326A164D74DC0B4128928FF32603847
310
2BA13128B1252AC747C6BAB984FC68F0B87FE8960A5C09FE86CFB69FBA01504B0304140006080800CC70623B8C9102E971010000D40300000C0000006662782F636F72652E786D6CC5535B6E833010BC8AE5DF0A6C08340F1947A84D4ED00B38C6A128602363A31CBFCB234A53A551FA553EC09AD9F5CE8C31DB9E9B1AF5CA
310
7695D1198E428A91D2D214952E33ECDD315861B4E5CC1AE3BE9561A445A3323CC098B3D21ADFCE9034DA29ED00D5A6503328BA4E398C640D8B0C77F253352214DE4145770A5B214FA2546114020D759C75CE8200340D19DE981F0F6746269C33EFAB6266AB02A655C74A59CCF365BADC27CB5D902ED22848F6340DF238A141
310
BE88E2F57B92BFEDF23523433367AE6A2EEAA455C2A902F398D2751045018D3FA264435F3771F242571B4A1919CA6F9A7C5B3CD9E42BED16F12C776AEB308F40C848FC700B1139D4891EF410CEC810227CC6846F8386402064270EF5C5C709A05E49676C024C61FC95EA45ED154CA5211D1FF4FB8291A913A68E9B83EBBB33
310
E2A7673CDE118E5AE8124C0807CB8377834E366998436B950D7A7746DAD846D4CFD978E0F04FD455FC5D49D2D4C6FE9722321F10997F0F32DC47FE05504B0304140006080800CC70623BFFEA85907E0000009D0000000B0000006662782F636E782E786D6C4DCCD10A83201886E15B91FFDC95D95A811AB6F23E625948A6C3
310
E9D8E5AF46073BFAE0E1E365ED67B3E8ADC3CB78C7815C7240DA3DFC64DCC221C519D7805AC182F7F1EF06C88D9BE6703008B6049F9E274D7A1E938DBB5AE3D6131B2589BA0D3D965551E0B2EA732C9B9A624AAEB41E3A557677029960D9AFB4EF11165F504B0304140006080800CC70623B4FEEA4082C0100001202000031
310
0000006662782F39464131463745442D413632322D343644302D413938332D3331353338454246344243312F636F72652E786D6C8D515B6EC32010BC0AE2AB55850DD871ED0813254D72825EC00192A2C460F1A872FC42ED48ED5F7E00CDCECCCEB26C731F6FE05B39AFADE921293004CA082BB5B9F43086336A21D870E6AC
310
0D7F68109861543DCC30E4ECE26C9C164858139409093556AA051CBC570102714B8F1E7AF1A5C6A11862480C7F2DA6415C878B2A4891CA89C7990F2E050073937C42DE1DB7E4F87ED8A36D4329AA9B3D46DBAEAD504556557BD81DEBDD0761E52CE42C462D17B996298E3E6BE59E35C962CE821E1FF18553435012728A7187
310
0841987E927A8D9B35ADDF70BBC6989599FE4F1427F9A4286A132ABAC49D651EF234CD5CE04CDA78BA3DC2A8FB645D00B9DF8B57E215725C60BCA2A463E54C4CE327C7A65E1C7DB02E7DEFCBF594B864C5CA6CDBD49C957943E9FA5D5FBAF336F90F504B0304140006080800CC70623BAD7543B64E01000033030000300000
310
006662782F39464131463745442D413632322D343644302D413938332D3331353338454246344243312F636E782E786D6CD593CD6EC32010845F0571AD6CE3D48AD20813A9873E410FBD12D82434182C7EAAE6EDBB2424CD25871E7B41D6EC30B3FA84F9E67BB2E40B4234DE8DB46F1925E094D7C6ED479AD3AE5951B2113C
310
789FEE6C943839C1488B4C05DF079FE72A69D8C96C13AAD6B8631503449F83828872B949AC57D26200B826A308D316B4064D6E46FCDA41C05550DC9E483A00797BFD207EFB092A45DE9514C1BBD22178396BD39D891265658C238DEA00936C654E5E433CB65A26D9F6EDB5EBC14EBF49A45CB856E66048291F6939A9A81BB5
310
C8917738143CA680F4AA299D66A042CEB3354A2684DC9D8D178FE0D9B8B41CAAD720F880EE7EF93C0C18769E099ECC04D5A102C8049A8A05632F4DDF376CF1DE0F6BB65C2F8627B65A33C6BB62177CEBBDAD973006829F89F22E814B54F4BC2BE347F8AA8F681390B50FA73F804400B5F542E796F19FF974E7F78DB802FE05
310
E207504B0304140006080800CC70623B16AB87BA640500003C100000340000006662782F39464131463745442D413632322D343644302D413938332D3331353338454246344243312F6F626A656374732E786D6CAD575B6FA33818FD2B887DE6924B3BED8A326A92B68A663B534DD4D13E548A0C38942D60649B369D5FBFC7
310
600890A493BDE42160637FD7F31D7FF63E6FB3D478A55C242CBF3247B66B1A340F5994E4F19559CA8D75611A9F7D8F33263BCB4C232719BD32D5B4E97B316765A1A722BA21652A07B3B7B33F0D11D29C9A46981221AE4C113ED38CD8A4942CA2E2C58E882476BCD9DA23BB5ED8171B73523C0F841684D35CC252CCE79062D4
310
468DFA43D7747CCF51DF7D4FFDEB5593E3AB9CCA9FBEFE241792E4E19EB28198C968BAB8199F5D5A67D3E9C49A9E8F47D6EC76B6B0469F26EEFC7C3EBFBCBEB98462213924694B38DD98FE1D62C393D073EA4FADC5DAF04326852CCF6958F90F0F2B9BB5C48816348F90C7840A68EB78EDF68723159BCEE7891A6B95DDE9D3
310
BCEAEEE8086A6C6F9E5D4B59F0175C10A7A0820BAA5055C7473B5AE3CFDD452D602CD5DF12616444529E90D448938013FE6EFA58AA96F85E4F8C42275708571E98FE6827AF6B2B4AE3D7D83D64E5A64C53054DD3AF90BD06FEA9149565C94FCA0F6B834DC85599E4F2423B24DF0B6AFA979E534DFA9E7A4CC6FA631D486393
310
921829879BF5D781A373557BCB85E97FB90DB62B558F8795179C15944B051F40AB495CF35451D26A4727654E6D8033BD98EF82F21D91FF8AF2DD9982BCF1643BDD4EB516C9492E368C67C88DED563FC36D5EACF66DFF057C3658BDBFA69DF9578B3DA735B64F18C7F20770A9D45CFCF7FCF563D6456A277DBEF78A02637CA2
310
43B90A490AEAB94F72244481D24819A6C0E59B606BFA4B3025981DBB48EAB701D97BF19C577CC77F2D1B6C55A9EF3C732474C0B727303F625995056C3B02963D9EAC146BE78EC5FCEC7FA999EBC5EACBAAE41B12D27B4D2C0BBA49F244E2ECDC81B76B502F113D8F5EE8FB1BE3111CDD4FC2AA9B844CAB1288B68AB90A7CDC
310
1C166AB0D3DC5310625FCC14E779BFD0709F8890A629C9292B1B2DED31A4B0DA928CEE135085754027E3018A397D4D5427D15BD1330B677DC8934285AC3DF45A9EB68FF8F2B8FC0A509AFEECFD0FF2DE25CC6047F7214B195F07EFEB9A094D800F7BFAE8FED187B78EA8A3A400F115961BCAD1215E47C966530AF0EE8128FE
310
58CEBB996A8964FFA529A046635D9353B0336A8F700DDF46271A024E70B0B37C9DE01847591E54DED53D54202AB947E4076556AC49C6CA5C9E1226B7F1A7B1BE15DEED62C41B91E1B3E9AFAAA735036547343A925075041DF0A9979E893B391F8FCFA6967B3EFB644DCF6E5CEBFAE272625DCC6FAF3FB93793C5F90CE1EF57
310
407342756B10D1C489E8953CD1617E5CEECAD6F4EF8914CE5D5D504E5C3F1F9736DA62CFC11E00BCDDB8CC8A9466349744C1F75EBDA4DF09BA8A9E8C7A7E9991989E20E5DBDD6A6003664ED8F7A04A8DBE0DF6EAD9B9AA858342E47399053949D2C146EDB85DE4B176BB0965FBAC19BD19AA918E27FA50C1D22402E144464C
310
59462568E704B6E71915404CB72B8FF4EDE184DDAF753F284990D2C6926782963815403548A70C657FDEF80D2D9CEAA2AE4C1C76F60BFE74219A06527D6582DF6412526107381E55E353090704D085B52408D0933C4ED159D79BDA71BB4BC506F4831350EB6F979CD22D69BF7AC49B91A2C0A9DDA3D5CA36AD20FC478E37E6
310
1844E2352865EBCB6EA275A652E3836BE04EFB400BF1A2556F515F1FBB35B2AB35BD889C744FFA1004B5544B121E57F70215746DD2F5E2C1412B602CBF19455AC6C8E5E9922C4E01E65215385004546899059180EAFCF7A707CE7017CD8CDB0410789AB32C63B91E5CEBBBACB17AC6CD347A022D5075FD106377347AAABA7E
310
7D11590744509B44E205134DC1290F06580320F78E537D3D73540E06CB970B431F185308AD40BBD794D6D77003C5A36E8EAA54BA64597CD8F83BD552A080A365F7FF06504B0304140006080000CC70623B000000000000000000000000350000006662782F39464131463745442D413632322D343644302D413938332D3331
310
353338454246344243312F76657274696365732E62696E504B0304140006080800CC70623BF270F1330600000004000000360000006662782F39464131463745442D413632322D343644302D413938332D3331353338454246344243312F747269616E676C65732E62696E636660600000504B0304140006080000CC70623B
310
000000000000000000000000370000006662782F39464131463745442D413632322D343644302D413938332D3331353338454246344243312F617474726962757465732E62696E504B0304140006080800CC70623B08DA0BD19000000041010000360000006662782F39464131463745442D413632322D343644302D413938
310
332D3331353338454246344243312F6469726563746F72792E786D6C858F410AC3201045AF22B36F53E9A60B35CBEEBAE80D244E44489C6234F4F835464A48035D0DF398FF9F8AF63D0E6CC63039F212F8F9020C7D47C6792B21C5FE7403D62A1188E2E60C98D7234A5830286103A55745067B9D86B8A3CF9C7F90C11DE607
310
FB144396D7B6A82D282E9A152AD114D5EF2CB866EEE831B8EEA07A7BB5A8D7D61A2BAAEB7FD5F70921FF497D00504B0304140006080800CC70623B0D6EF93BFE000000A00100003B0000006662782F39464131463745442D413632322D343644302D413938332D3331353338454246344243312F7265736F75726365732F63
310
6F72652E786D6C8D50596E833010BD0A9ADFCA60B334011947A8694ED00B586642AC041B79A97AFC9A40A5F6AF3F33A3B7689E1E3F7DCD8FEC139DD7D6F4C0720A191A65476DA61E62B892236427C19DB5E1970C322367EC618541F0C9D9B8EC90B226A009093576C41D94DE63804C3DD2D18357379C652E63480A7FCF17A9
310
EE72C29CE5894E3AC17D702940B63D59270887DE46A7D0F36263058F518FBB468FE9A7BE6A7420864373B8D4873369AA8691FA421B3294352543C5CAF65C0F6FEF43CB8BD52C78D0F34F46E550061C419494B6843142CB0F5677F4B52BEB177AEC28E5C52AFF638ACBF84F53D42654E51E77B379102C05791282176B5F693D
310
CB4C7BED567C03504B010214000A0000080000CC70623B3DEE336E79000000790000001B00000000000000000000000000000000006175746F6465736B2D64657369676E2D7061636B6167652E786D6C504B01021400140006080800CC70623BD486FD9CA0000000F40000001300000000000000000000000000B20000005B
310
436F6E74656E745F54797065735D2E786D6C504B01021400140006080800CC70623B1EC5D7A3EB0000007C010000080000000000000000000000000083010000636F72652E786D6C504B01021400140006080800CC70623B55019EA25F0000007C000000070000000000000000000000000094020000636E782E786D6C504B
310
01021400140006080800CC70623B8C9102E971010000D40300000C00000000000000000000000000180300006662782F636F72652E786D6C504B01021400140006080800CC70623BFFEA85907E0000009D0000000B00000000000000000000000000B30400006662782F636E782E786D6C504B01021400140006080800CC70
310
623B4FEEA4082C0100001202000031000000000000000000000000005A0500006662782F39464131463745442D413632322D343644302D413938332D3331353338454246344243312F636F72652E786D6C504B01021400140006080800CC70623BAD7543B64E010000330300003000000000000000000000000000D5060000
310
6662782F39464131463745442D413632322D343644302D413938332D3331353338454246344243312F636E782E786D6C504B01021400140006080800CC70623B16AB87BA640500003C1000003400000000000000000000000000710800006662782F39464131463745442D413632322D343644302D413938332D3331353338
310
454246344243312F6F626A656374732E786D6C504B01021400140006080000CC70623B0000000000000000000000003500000000000000000000000000270E00006662782F39464131463745442D413632322D343644302D413938332D3331353338454246344243312F76657274696365732E62696E504B01021400140006
310
080800CC70623BF270F133060000000400000036000000000000000000000000007A0E00006662782F39464131463745442D413632322D343644302D413938332D3331353338454246344243312F747269616E676C65732E62696E504B01021400140006080000CC70623B0000000000000000000000003700000000000000
310
000000000000D40E00006662782F39464131463745442D413632322D343644302D413938332D3331353338454246344243312F617474726962757465732E62696E504B01021400140006080800CC70623B08DA0BD190000000410100003600000000000000000000000000290F00006662782F39464131463745442D413632
310
322D343644302D413938332D3331353338454246344243312F6469726563746F72792E786D6C504B01021400140006080800CC70623B0D6EF93BFE000000A00100003B000000000000000000000000000D1000006662782F39464131463745442D413632322D343644302D413938332D3331353338454246344243312F7265
310
736F75726365732F636F72652E786D6C504B0506000000000E000E0080040000641100000000
  0
XRECORD
  5
2DCB
102
{ACAD_REACTORS
330
173
102
}
330
173
100
AcDbXrecord
280
     1
102
MATERIAL
148
0.0
149
0.0
149
0.0
 93
        0
 94
       63
282
     0
 72
     1
 77
     1
171
     1
175
     1
179
     1
273
     0
  0
XRECORD
  5
175
102
{ACAD_REACTORS
330
173
102
}
330
173
100
AcDbXrecord
280
     1
270
     1
271
     1
  0
XRECORD
  5
174
102
{ACAD_REACTORS
330
173
102
}
330
173
100
AcDbXrecord
280
     1
270
     1
271
     1
  0
XRECORD
  5
1FB
102
{ACAD_REACTORS
330
173
102
}
330
173
100
AcDbXrecord
280
     1
 70
     0
 90
1673772943
  1
ECE7A1D2-D628-4531-984C-D00F80459256
310
504B03040A0000080000CC70623B3DEE336E79000000790000001B0000006175746F6465736B2D64657369676E2D7061636B6167652E786D6C3C3F786D6C2076657273696F6E3D22312E302220656E636F64696E673D227574662D3822203F3E3C666F726D6174733E3C666F726D61743E687474703A2F2F736368656D612E
310
6175746F6465736B2E636F6D2F64657369676E2D7061636B6167652F323030393C2F666F726D61743E3C2F666F726D6174733E504B0304140006080800CC70623BD486FD9CA0000000F4000000130000005B436F6E74656E745F54797065735D2E786D6C7D8EC10E82300C865F65E91D8A1E8C310C0EEA1BF002731658846E
310
D98AC1B77784ABF1D8FE5FBFBF75BBCE937A534CCEB38643598122B6FEE978D0B0485F9C41B54DDD7D022595594E1A469170414C76A4D9A4D207E29CF43ECE46F218070CC6BECC4078ACAA135ACF422C856C0E68EA1BF5669944DDD7BCDE7B1F8E415D77AECB980613C2E4AC91FC167A2B244592486606FC29C8FD7F045B9A
310
EF7053A7E60B504B0304140006080800CC70623BD9DDAED0EC0000007C01000008000000636F72652E786D6C8D90416EC3201045AF82665B61836D9CD8C2444DD39CA01740405C94182C03558F5F9C3852BBEB6A467FFE9B197D7EF89E6EE8CB2CC17A37002D0820E394D7D68D03A478C17B4007C117EFE32F1B20272733C0
310
2A83E0E3E2D3BC49CABB685CCCAAF3DA6CA20CC14440EA969B0182FA34932C648AD911AEC52CD5558EA6A0CF2EC329598D1E47ACCEFBECC59A050463A7EA5833865FEBDD0E37353BE3EE8DBDE3F6786A48D375FBF6CC78B9C282473B3DEFABC5C86834888A900E538A49F5419B9EB47DD5BC907D4F082F57FB1F28CDFA9F50
310
B22ED6D5F6EE030B20687EE43E10BC5CB3C8E51E54AE6B6EE207504B0304140006080800CC70623B55019EA25F0000007C00000007000000636E782E786D6C4DCB3B0E80201045D1AD90E915ED2CF8AC45050C11660C8261F98AB1B07AC9C97D42D718D865D3E909258CFD00CCE24AC6E326A164D74DC0B4128928FF326038
310
472BA13128B1252AC747C6BAB984FC68F0B87FE8960A5C09FE86CFB69FBA01504B0304140006080800CC70623BA24EB22D72010000D40300000C0000006662782F636F72652E786D6CC5535B6E833010BC8AE5DF0A6C5E49888CA3A6694ED00B38E05014B091B1518EDFE511A5A9D228FD2A1F60CDEC7A67C6986DCE4D8D7A
310
69BA4AAB0C073EC548AA5C17952A33ECECD15B61B4E1CC686DBF9561A44423333CC098B3D268D7CE50AE9595CA02AA74216750749DB418E5352C32DCE59FB211BE70162ABA93DF8AFC244AE9073ED050C759670D0840D390E18DF9F1706664C23973AE2A66B62A605A75ACA4C13C4976E1364A12EF355A2EBD384AF65EFA96
310
BC7B8BED2EA6719AAE16FB8491A199335B351775B991C2CA02F390D2D40B028F861F41BCA68B7518BFD0D59A524686F29B26D7164F36B94AD9289CE54E6D1DE6010819891F6E21228B3AD1831EC219194284CF98F06DD01008846CC5A1BEF83801D4CBDC6A1303536877A57A513B0953A94FC707FDBE6064EA84A9E3E6E0FA
310
EE8CF0E9198F7784A316AA0413C2C2F2E0ECA0934D1AE6D05A69BCDE9E91D2A611F573361E38FC1375157F5752AE6B6DFE4B11990F88CCBF0719EE23FF02504B0304140006080800CC70623B408A7D3B7C0000009D0000000B0000006662782F636E782E786D6C4DCCD10A83201886E15B91FFDC552A92A0064DBC8F581632
310
D3703A76F9ABD1C18E3E78F878E5F0D9027ABBFCF2292AE86E2D20171F69F6715550CB827B40839639A5F2770314A7CD293819B45C73AAFB45B35BA61ACAA1C1C7E7855C58C15BC331339661262CC762340413D68D77DA5B42298546CBE6573AF60CEB2F504B0304140006080800CC70623B449FB9BD290100001202000031
310
0000006662782F36394639363044362D344446342D343946362D394244322D3234314243333846323333332F636F72652E786D6C8D515B6EC32010BC0AE22B55850D98B871848994463E412FE002495162B07854397EA176A4F62F3F2C9A9D991D587EB84F37F0AD7D30CEF6905418026DA553C65E7A98E219ED203808EE9D
310
8B7F6810D871D23D2C3014FCE25D9A57483A1BB58D19B54EE9151C43D0110279CB971E06F9A5A7B11A53CC8C70ADE6515EC78BAE4895DB992778883E0700CB907242D17643D7E2538BD869608875438BBAE38922CAC8F1BDD90DB4691A5E2F42C153326A951B95E398B3D1FE599322163C9AE9115F7A3D46ADA0A018778810
310
84E907617BDCEE297BC5BB3DC6BC2EF47FA234AB2745C9D8D8D035EE220B50105E2F0DC1954B9FB747187D9F9D8FA0CCDB042D5FA0C015C65B42DF78BD10F3F3B363CB56C7109DCFDFBBB97E662ED92EB62D13BC2E1BCAE5777DB9966D8A1F504B0304140006080800CC70623BAD7543B64E01000033030000300000006662
310
782F36394639363044362D344446342D343946362D394244322D3234314243333846323333332F636E782E786D6CD593CD6EC32010845F0571AD6CE3D48AD20813A9873E410FBD12D82434182C7EAAE6EDBB2424CD25871E7B41D6EC30B3FA84F9E67BB2E40B4234DE8DB46F1925E094D7C6ED479AD3AE5951B2113C789FEE
310
6C943839C1488B4C05DF079FE72A69D8C96C13AAD6B8631503449F83828872B949AC57D26200B826A308D316B4064D6E46FCDA41C05550DC9E483A00797BFD207EFB092A45DE9514C1BBD22178396BD39D891265658C238DEA00936C654E5E433CB65A26D9F6EDB5EBC14EBF49A45CB856E66048291F6939A9A81BB5C89177
310
38143CA680F4AA299D66A042CEB3354A2684DC9D8D178FE0D9B8B41CAAD720F880EE7EF93C0C18769E099ECC04D5A102C8049A8A05632F4DDF376CF1DE0F6BB65C2F8627B65A33C6BB62177CEBBDAD973006829F89F22E814B54F4BC2BE347F8AA8F681390B50FA73F804400B5F542E796F19FF974E7F78DB802FE05E20750
310
4B0304140006080800CC70623B8D05915C650500003B100000340000006662782F36394639363044362D344446342D343946362D394244322D3234314243333846323333332F6F626A656374732E786D6CAD575B6FA33814FE2B887D06429276DA1565D4266D158D3A339A6846FB502932E050B66023DB74D2FDF5FB190C01
310
9276B2973C046C8ECFF53B17071F77456EBD502133CEAE6CDF9DD81665314F32965ED995DA3A17B6F5310C04E7AA47665B8C14F4CAD6DB7618A48257A5D94AE89654B91AEDDEDDFC61C998326A5B714EA4BCB265FC440BE2924AF184CA6737218AB8E976E7FA6E4338649B0A523E8D98964450A6A029F619B8588D52FE7039
310
B1BD30F0F4F730D0FF866AF6369557DB33949F31A9088B0F848DD8CCFCF9F2767A76E99CCDE733677E3EF59D9BBB9BA5E37F984D16E78BC5E5F5ED25044B25C0C96822E8D60EEFE11B91C581D77CEA34368A1F5329E68CD1B8B61F16D63A1B8E092D294B10C78C4A48EB593D192E7DED9BDEE7995E1B91FDEDD3ACEA9FE831
310
6A756F9F7D4D79F4274C90A7A04248AA51D5F8C718DAE06FB2F75AC4796EBE65D22A88A22223B995679120E2D50E41AA49C260C046A35368846B0BECD0DFF3EBEB8AD4F835768F69B9ADF25C43D30E6B646F807FAA64AD59F61715C7A54127C4AACA98BA3006A9D792DAE165E0D59B61A01FB3A9F9D838D2DAE62445C86166
310
F37564E842E7DE6A69879FEEA2DD5AE7E371E1A5E025154AC307D06A03D73EB5978C58FFA4C8E9033066E0F3BD53BEC1F39F91BE7B55103791EDE6BBB991A2046172CB4581D8B893FA674DDA17A77B3B7C413D1B511FD2743BFF8A38F03A658705E3ADF8015C3A3417FF3D7E439FF591DA0B5F18BC20C1B8981957AE6392A3
310
F43C640C01D1A0B4728E2DD4F26DB4B3C3152A252A3B4E913CEC1C72F012782FF88EFF8637AA552DBEF76408E8A8DE9E50F9E1CB3A2DA0DB1B6039A893B56063DC5B3E3FFB5F72E67AB9FEB4AEC496C4F4C1149625DD662C53E89D7BF0F6151A046260D1337DFDC94502430F83B0EE07A130A224BCAD7DAE1D9FB6CD422FF6
310
920702629C4BB9AE79C12F243C6432A6794E18E5552BA56B431AAB5D91317302B2B071E86C3A42B1A02F999E24061403B5D0EB639195DA655DD3EBEAB4FB862DDF579F014AD0E73C22F99E28DA57FB98E75C6CA2D74D53086D600F4786E0FE3144B771A8A7B900F03594DB8A633CBC49B2EDB69228BB479CF863B5E807AAAB
310
23872F6DFEB4129B949CA33823F58830E86D65621E10047D9DB34D862E8EAC3C2ABC2F7B2C40D67CDFE01F5545B92105AF983AC54D93D69E56FB8E797F88913F898A9FEC705D3F9D1B54EC8426FB500D40A03BD0119B06E1B95DDC7EB8F6975367793EBD70E66733DFB9BC982F9CE564727731999F5D4ECFCE3B8D6A4DC2A0
310
6D50FD148437D110834A64C6CDDF57FBACB5C307A2A477DFE4939736CFEF2B175371E0E10CF0DD1D5C15654E0BCA14D1E87DD02FF93782A162C0A3D95F1524A52770F972BF1EE9809D13CE7DD599467F8ECE9ADD85CE85A34CD45355448C64F9E8A031DC2D596ACC6E5DD93D9B82DE2EF5CAF81363A8E47996A0DE24564A79
310
4115AACE09C55E14540231FDA13C319787134EBF34E3A022514E5B4D9E0826E25C02D5805B15ABE1BEF51B26383D445DD9E875EE33FE4C22DA16427D65A3BCA92CA6D28DD01DF5DC53330704308475351050232CCD31583787BA75774AFB06E5070DD0C8EF484E19968C5D83BA5B90B244D31E54D55A372320FE4786B7EA58
310
44E135AA5467CB7EA333A61683CC6A8C3257034C10CF46F40EF9F5BE59BE5BD30C3C72D235E95D10345C1D45445A5F0BB47E46A5EBE5570F9380B5FA629579952296A773720405982B9DE04011506178964401AA8BDF1FBF0A8EAB6861DD6580C0E38217056766716DAEB2D6FA0917D3E4116581EADB879C4E7CFFB11EFACD
310
3D641311495D92C8676CB409A72D18610D803CE8A626049E8EC1887CB5B44CC39883690DDA8399B4B9855B481E7D71D4A9D22F96E5BB73BF5793020C02137BF837504B0304140006080000CC70623B000000000000000000000000350000006662782F36394639363044362D344446342D343946362D394244322D32343142
310
43333846323333332F76657274696365732E62696E504B0304140006080800CC70623BF270F1330600000004000000360000006662782F36394639363044362D344446342D343946362D394244322D3234314243333846323333332F747269616E676C65732E62696E636660600000504B0304140006080000CC70623B0000
310
00000000000000000000370000006662782F36394639363044362D344446342D343946362D394244322D3234314243333846323333332F617474726962757465732E62696E504B0304140006080800CC70623B08DA0BD19000000041010000360000006662782F36394639363044362D344446342D343946362D394244322D
310
3234314243333846323333332F6469726563746F72792E786D6C858F410AC3201045AF22B36F53E9A60B35CBEEBAE80D244E44489C6234F4F835464A48035D0DF398FF9F8AF63D0E6CC63039F212F8F9020C7D47C6792B21C5FE7403D62A1188E2E60C98D7234A5830286103A55745067B9D86B8A3CF9C7F90C11DE607FB14
310
4396D7B6A82D282E9A152AD114D5EF2CB866EEE831B8EEA07A7BB5A8D7D61A2BAAEB7FD5F70921FF497D00504B0304140006080800CC70623BCA768048FE000000A00100003B0000006662782F36394639363044362D344446342D343946362D394244322D3234314243333846323333332F7265736F75726365732F636F72
310
652E786D6C8D50596E833010BD0A9ADFCA60D600328E9AA639412F609909B1126CE4A5EAF16B0295DABFFECC8CDEA2797AECF8353F924FB44E193D409E5248504B332A3D0D10FC95B4901C39B3C6F85F3248B49871801506CE266BC2B243D2688FDA47549B11775038871E12F988C7004EDE7016A9083E2ADC3D5D84BC8B09
310
D33C8D74D471E6BC8D0192EDC93A815B742658898E651BCB59086ADC356A8C3FD555A1055ED7E7E254D615792D0F075295F585746FF53B694EE78A565DD736979A65AB9933AFE69F8CD2A2F038022F28ED489E135A7CE4554F9BBEA85E68DB53CAB255FEC71496F19FA6A0B42F8B3DEE6673C0F318E4497096AD7DC5F52C33
310
EEB55BFE0D504B010214000A0000080000CC70623B3DEE336E79000000790000001B00000000000000000000000000000000006175746F6465736B2D64657369676E2D7061636B6167652E786D6C504B01021400140006080800CC70623BD486FD9CA0000000F40000001300000000000000000000000000B20000005B436F
310
6E74656E745F54797065735D2E786D6C504B01021400140006080800CC70623BD9DDAED0EC0000007C010000080000000000000000000000000083010000636F72652E786D6C504B01021400140006080800CC70623B55019EA25F0000007C000000070000000000000000000000000095020000636E782E786D6C504B0102
310
1400140006080800CC70623BA24EB22D72010000D40300000C00000000000000000000000000190300006662782F636F72652E786D6C504B01021400140006080800CC70623B408A7D3B7C0000009D0000000B00000000000000000000000000B50400006662782F636E782E786D6C504B01021400140006080800CC70623B
310
449FB9BD290100001202000031000000000000000000000000005A0500006662782F36394639363044362D344446342D343946362D394244322D3234314243333846323333332F636F72652E786D6C504B01021400140006080800CC70623BAD7543B64E010000330300003000000000000000000000000000D20600006662
310
782F36394639363044362D344446342D343946362D394244322D3234314243333846323333332F636E782E786D6C504B01021400140006080800CC70623B8D05915C650500003B10000034000000000000000000000000006E0800006662782F36394639363044362D344446342D343946362D394244322D32343142433338
310
46323333332F6F626A656374732E786D6C504B01021400140006080000CC70623B0000000000000000000000003500000000000000000000000000250E00006662782F36394639363044362D344446342D343946362D394244322D3234314243333846323333332F76657274696365732E62696E504B010214001400060808
310
00CC70623BF270F13306000000040000003600000000000000000000000000780E00006662782F36394639363044362D344446342D343946362D394244322D3234314243333846323333332F747269616E676C65732E62696E504B01021400140006080000CC70623B00000000000000000000000037000000000000000000
310
00000000D20E00006662782F36394639363044362D344446342D343946362D394244322D3234314243333846323333332F617474726962757465732E62696E504B01021400140006080800CC70623B08DA0BD190000000410100003600000000000000000000000000270F00006662782F36394639363044362D344446342D
310
343946362D394244322D3234314243333846323333332F6469726563746F72792E786D6C504B01021400140006080800CC70623BCA768048FE000000A00100003B000000000000000000000000000B1000006662782F36394639363044362D344446342D343946362D394244322D3234314243333846323333332F7265736F
310
75726365732F636F72652E786D6C504B0506000000000E000E0080040000621100000000
  0
XRECORD
  5
176
102
{ACAD_REACTORS
330
173
102
}
330
173
100
AcDbXrecord
280
     1
270
     1
271
     1
  0
XRECORD
  5
177
102
{ACAD_REACTORS
330
173
102
}
330
173
100
AcDbXrecord
280
     1
270
     1
271
     1
  0
XRECORD
  5
2DED
102
{ACAD_REACTORS
330
2DEC
102
}
330
2DEC
100
AcDbXrecord
280
     1
102
ACAD_ROUNDTRIP_2012_MLEADER_STYLE
298
     1
  0
XRECORD
  5
2DFF
102
{ACAD_REACTORS
330
2DFE
102
}
330
2DFE
100
AcDbXrecord
280
     1
102
DISPLAYNAME
  1
Metric50
102
FLAGS
 90
        0
  0
CELLSTYLEMAP
  5
2DBF
102
{ACAD_REACTORS
330
162
102
}
330
162
100
AcDbCellStyleMap
 90
        3
300
CELLSTYLE
  1
TABLEFORMAT_BEGIN
 90
        5
170
     1
 91
        0
 92
    32768
 62
   257
 93
        1
300
CONTENTFORMAT
  1
CONTENTFORMAT_BEGIN
 90
        0
 91
        0
 92
      512
 93
        0
300

 40
0.0
140
1.0
 94
        5
 62
     0
340
11
144
6.0
309
CONTENTFORMAT_END
171
     1
301
MARGIN
  1
CELLMARGIN_BEGIN
 40
1.5
 40
1.5
 40
1.5
 40
1.5
 40
4.5
 40
4.5
309
CELLMARGIN_END
 94
        6
 95
        1
302
GRIDFORMAT
  1
GRIDFORMAT_BEGIN
 90
        0
 91
        1
 62
     0
 92
       -2
340
14
 93
        0
 40
1.125
309
GRIDFORMAT_END
 95
        2
302
GRIDFORMAT
  1
GRIDFORMAT_BEGIN
 90
        0
 91
        1
 62
     0
 92
       -2
340
14
 93
        0
 40
1.125
309
GRIDFORMAT_END
 95
        4
302
GRIDFORMAT
  1
GRIDFORMAT_BEGIN
 90
        0
 91
        1
 62
     0
 92
       -2
340
14
 93
        0
 40
1.125
309
GRIDFORMAT_END
 95
        8
302
GRIDFORMAT
  1
GRIDFORMAT_BEGIN
 90
        0
 91
        1
 62
     0
 92
       -2
340
14
 93
        0
 40
1.125
309
GRIDFORMAT_END
 95
       16
302
GRIDFORMAT
  1
GRIDFORMAT_BEGIN
 90
        0
 91
        1
 62
     0
 92
       -2
340
14
 93
        0
 40
1.125
309
GRIDFORMAT_END
 95
       32
302
GRIDFORMAT
  1
GRIDFORMAT_BEGIN
 90
        0
 91
        1
 62
     0
 92
       -2
340
14
 93
        0
 40
1.125
309
GRIDFORMAT_END
309
TABLEFORMAT_END
  1
CELLSTYLE_BEGIN
 90
        1
 91
        1
300
_TITLE
309
CELLSTYLE_END
300
CELLSTYLE
  1
TABLEFORMAT_BEGIN
 90
        5
170
     1
 91
        0
 92
        0
 62
   257
 93
        1
300
CONTENTFORMAT
  1
CONTENTFORMAT_BEGIN
 90
        0
 91
        0
 92
      512
 93
        0
300

 40
0.0
140
1.0
 94
        5
 62
     0
340
11
144
4.5
309
CONTENTFORMAT_END
171
     1
301
MARGIN
  1
CELLMARGIN_BEGIN
 40
1.5
 40
1.5
 40
1.5
 40
1.5
 40
4.5
 40
4.5
309
CELLMARGIN_END
 94
        6
 95
        1
302
GRIDFORMAT
  1
GRIDFORMAT_BEGIN
 90
        0
 91
        1
 62
     0
 92
       -2
340
14
 93
        0
 40
1.125
309
GRIDFORMAT_END
 95
        2
302
GRIDFORMAT
  1
GRIDFORMAT_BEGIN
 90
        0
 91
        1
 62
     0
 92
       -2
340
14
 93
        0
 40
1.125
309
GRIDFORMAT_END
 95
        4
302
GRIDFORMAT
  1
GRIDFORMAT_BEGIN
 90
        0
 91
        1
 62
     0
 92
       -2
340
14
 93
        0
 40
1.125
309
GRIDFORMAT_END
 95
        8
302
GRIDFORMAT
  1
GRIDFORMAT_BEGIN
 90
        0
 91
        1
 62
     0
 92
       -2
340
14
 93
        0
 40
1.125
309
GRIDFORMAT_END
 95
       16
302
GRIDFORMAT
  1
GRIDFORMAT_BEGIN
 90
        0
 91
        1
 62
     0
 92
       -2
340
14
 93
        0
 40
1.125
309
GRIDFORMAT_END
 95
       32
302
GRIDFORMAT
  1
GRIDFORMAT_BEGIN
 90
        0
 91
        1
 62
     0
 92
       -2
340
14
 93
        0
 40
1.125
309
GRIDFORMAT_END
309
TABLEFORMAT_END
  1
CELLSTYLE_BEGIN
 90
        2
 91
        1
300
_HEADER
309
CELLSTYLE_END
300
CELLSTYLE
  1
TABLEFORMAT_BEGIN
 90
        5
170
     1
 91
        0
 92
        0
 62
   257
 93
        1
300
CONTENTFORMAT
  1
CONTENTFORMAT_BEGIN
 90
        0
 91
        0
 92
      512
 93
        0
300

 40
0.0
140
1.0
 94
        2
 62
     0
340
11
144
4.5
309
CONTENTFORMAT_END
171
     1
301
MARGIN
  1
CELLMARGIN_BEGIN
 40
1.5
 40
1.5
 40
1.5
 40
1.5
 40
4.5
 40
4.5
309
CELLMARGIN_END
 94
        6
 95
        1
302
GRIDFORMAT
  1
GRIDFORMAT_BEGIN
 90
        0
 91
        1
 62
     0
 92
       -2
340
14
 93
        0
 40
1.125
309
GRIDFORMAT_END
 95
        2
302
GRIDFORMAT
  1
GRIDFORMAT_BEGIN
 90
        0
 91
        1
 62
     0
 92
       -2
340
14
 93
        0
 40
1.125
309
GRIDFORMAT_END
 95
        4
302
GRIDFORMAT
  1
GRIDFORMAT_BEGIN
 90
        0
 91
        1
 62
     0
 92
       -2
340
14
 93
        0
 40
1.125
309
GRIDFORMAT_END
 95
        8
302
GRIDFORMAT
  1
GRIDFORMAT_BEGIN
 90
        0
 91
        1
 62
     0
 92
       -2
340
14
 93
        0
 40
1.125
309
GRIDFORMAT_END
 95
       16
302
GRIDFORMAT
  1
GRIDFORMAT_BEGIN
 90
        0
 91
        1
 62
     0
 92
       -2
340
14
 93
        0
 40
1.125
309
GRIDFORMAT_END
 95
       32
302
GRIDFORMAT
  1
GRIDFORMAT_BEGIN
 90
        0
 91
        1
 62
     0
 92
       -2
340
14
 93
        0
 40
1.125
309
GRIDFORMAT_END
309
TABLEFORMAT_END
  1
CELLSTYLE_BEGIN
 90
        3
 91
        2
300
_DATA
309
CELLSTYLE_END
  0
XRECORD
  5
2DC4
102
{ACAD_REACTORS
330
162
102
}
330
162
100
AcDbXrecord
280
     1
102
ACAD_ROUNDTRIP_PRE2007_TABLESTYLE
 90
      512
 91
        0
  1

 92
      512
 93
        0
  2

 94
      512
 95
        0
  3

  0
XRECORD
  5
2DD7
102
{ACAD_REACTORS
330
2DD6
102
}
330
2DD6
100
AcDbXrecord
280
     1
102
RTVSPost2010Prop28
280
     1
102
RTVSPost2010PropOp28
 70
     1
102
RTVSPost2010Prop29
280
     1
102
RTVSPost2010PropOp29
 70
     1
102
RTVSPost2010Prop30
280
     0
102
RTVSPost2010PropOp30
 70
     1
102
RTVSPost2010Prop31
280
     0
102
RTVSPost2010PropOp31
 70
     1
102
RTVSPost2010Prop32
280
     0
102
RTVSPost2010PropOp32
 70
     1
102
RTVSPost2010Prop33
280
     0
102
RTVSPost2010PropOp33
 70
     1
102
RTVSPost2010Prop34
280
     0
102
RTVSPost2010PropOp34
 70
     1
102
RTVSPost2010Prop35
280
     0
102
RTVSPost2010PropOp35
 70
     1
102
RTVSPost2010Prop36
280
     0
102
RTVSPost2010PropOp36
 70
     1
102
RTVSPost2010Prop37
 90
       50
102
RTVSPost2010PropOp37
 70
     1
102
RTVSPost2010Prop38
140
0.0
102
RTVSPost2010PropOp38
 70
     1
102
RTVSPost2010Prop39
140
1.0
102
RTVSPost2010PropOp39
 70
     1
102
RTVSPost2010Prop40
 90
        0
102
RTVSPost2010PropOp40
 70
     1
102
RTVSPost2010Prop41ColorIndex
 90
       18
102
RTVSPost2010Prop41ColorRGB
 90
        0
102
RTVSPost2010PropOp41
 70
     1
102
RTVSPost2010Prop42
 90
       50
102
RTVSPost2010PropOp42
 70
     1
102
RTVSPost2010Prop43
 90
        3
102
RTVSPost2010PropOp43
 70
     1
102
RTVSPost2010Prop44ColorIndex
 90
        5
102
RTVSPost2010Prop44ColorRGB
 90
      255
102
RTVSPost2010PropOp44
 70
     1
102
RTVSPost2010Prop45
280
     0
102
RTVSPost2010PropOp45
 70
     1
102
RTVSPost2010Prop46
 90
       50
102
RTVSPost2010PropOp46
 70
     1
102
RTVSPost2010Prop47
 90
       50
102
RTVSPost2010PropOp47
 70
     1
102
RTVSPost2010Prop48
 90
       50
102
RTVSPost2010PropOp48
 70
     1
102
RTVSPost2010Prop49
280
     0
102
RTVSPost2010PropOp49
 70
     1
102
RTVSPost2010Prop50
 90
       50
102
RTVSPost2010PropOp50
 70
     1
102
RTVSPost2010Prop51ColorIndex
 90
      256
102
RTVSPost2010Prop51ColorRGB
 90
-16777216
102
RTVSPost2010PropOp51
 70
     0
102
RTVSPost2010Prop52
140
1.0
102
RTVSPost2010PropOp52
 70
     0
102
RTVSPost2010Prop53
 90
        2
102
RTVSPost2010PropOp53
 70
     1
102
RTVSPost2010Prop54
  1
strokes_ogs.tif
102
RTVSPost2010PropOp54
 70
     1
102
RTVSPost2010Prop55
280
     0
102
RTVSPost2010PropOp55
 70
     1
102
RTVSPost2010Prop56
140
1.0
102
RTVSPost2010PropOp56
 70
     1
102
RTVSPost2010Prop57
140
1.0
102
RTVSPost2010PropOp57
 70
     1
102
RTVSPropertyOp0
 70
     1
102
RTVSPropertyOp1
 70
     1
102
RTVSPropertyOp2
 70
     1
102
RTVSPropertyOp3
 70
     1
102
RTVSPropertyOp4
 70
     1
102
RTVSPropertyOp5
 70
     1
102
RTVSPropertyOp6
 70
     1
102
RTVSPropertyOp7
 70
     1
102
RTVSPropertyOp8
 70
     1
102
RTVSPropertyOp9
 70
     1
102
RTVSPropertyOp10
 70
     1
102
RTVSPropertyOp11
 70
     1
102
RTVSPropertyOp12
 70
     1
102
RTVSPropertyOp13
 70
     1
102
RTVSPropertyOp14
 70
     1
102
RTVSPropertyOp15
 70
     1
102
RTVSPropertyOp16
 70
     1
102
RTVSPropertyOp17
 70
     1
102
RTVSPropertyOp18
 70
     1
102
RTVSPropertyOp19
 70
     1
102
RTVSPropertyOp20
 70
     1
102
RTVSPropertyOp21
 70
     1
102
RTVSPropertyOp22
 70
     1
102
RTVSPropertyOp23
 70
     1
102
RTVSPropertyOp24
 70
     1
102
RTVSPropertyOp25
 70
     1
102
RTVSPropertyOp26
 70
     1
102
RTVSPropertyOp27
 70
     1
102
RTVSPropertyOp28
 70
     1
102
RTVSPropertyOp29
 70
     1
102
RTVSPropertyOp30
 70
     1
102
RTVSPropertyOp31
 70
     1
102
RTVSPropertyOp32
 70
     1
102
RTVSPropertyOp33
 70
     1
102
RTVSPropertyOp34
 70
     1
102
RTVSPropertyOp35
 70
     1
102
RTVSPropertyOp36
 70
     1
102
RTVSPropertyOp37
 70
     1
102
RTVSPropertyOp38
 70
     1
102
RTVSPropertyOp39
 70
     1
102
RTVSPropertyOp40
 70
     1
102
RTVSPropertyOp41
 70
     1
102
RTVSPropertyOp42
 70
     1
102
RTVSPropertyOp43
 70
     1
102
RTVSPropertyOp44
 70
     1
102
RTVSPropertyOp45
 70
     1
102
RTVSPropertyOp46
 70
     1
102
RTVSPropertyOp47
 70
     1
102
RTVSPropertyOp48
 70
     1
102
RTVSPropertyOp49
 70
     1
102
RTVSPropertyOp50
 70
     1
102
RTVSPropertyOp51
 70
     0
102
RTVSPropertyOp52
 70
     0
102
RTVSPropertyOp53
 70
     1
102
RTVSPropertyOp54
 70
     1
102
RTVSPropertyOp55
 70
     1
102
RTVSPropertyOp56
 70
     1
102
RTVSPropertyOp57
 70
     1
102
RTVSPropertyOp58
 70
     1
102
RTVSPropertyOp59
 70
     1
102
RTVSPropertyOp60
 70
     1
102
RTVSPropertyOp61
 70
     1
102
RTVSPropertyOp62
 70
     1
  0
XRECORD
  5
2DD5
102
{ACAD_REACTORS
330
2DD4
102
}
330
2DD4
100
AcDbXrecord
280
     1
102
RTVSPost2010Prop28
280
     0
102
RTVSPost2010PropOp28
 70
     1
102
RTVSPost2010Prop29
280
     1
102
RTVSPost2010PropOp29
 70
     1
102
RTVSPost2010Prop30
280
     1
102
RTVSPost2010PropOp30
 70
     1
102
RTVSPost2010Prop31
280
     0
102
RTVSPost2010PropOp31
 70
     1
102
RTVSPost2010Prop32
280
     0
102
RTVSPost2010PropOp32
 70
     1
102
RTVSPost2010Prop33
280
     0
102
RTVSPost2010PropOp33
 70
     1
102
RTVSPost2010Prop34
280
     0
102
RTVSPost2010PropOp34
 70
     1
102
RTVSPost2010Prop35
280
     0
102
RTVSPost2010PropOp35
 70
     1
102
RTVSPost2010Prop36
280
     0
102
RTVSPost2010PropOp36
 70
     1
102
RTVSPost2010Prop37
 90
       50
102
RTVSPost2010PropOp37
 70
     1
102
RTVSPost2010Prop38
140
0.0
102
RTVSPost2010PropOp38
 70
     1
102
RTVSPost2010Prop39
140
1.0
102
RTVSPost2010PropOp39
 70
     1
102
RTVSPost2010Prop40
 90
        0
102
RTVSPost2010PropOp40
 70
     1
102
RTVSPost2010Prop41ColorIndex
 90
       18
102
RTVSPost2010Prop41ColorRGB
 90
        0
102
RTVSPost2010PropOp41
 70
     1
102
RTVSPost2010Prop42
 90
       50
102
RTVSPost2010PropOp42
 70
     1
102
RTVSPost2010Prop43
 90
        3
102
RTVSPost2010PropOp43
 70
     1
102
RTVSPost2010Prop44ColorIndex
 90
        5
102
RTVSPost2010Prop44ColorRGB
 90
      255
102
RTVSPost2010PropOp44
 70
     1
102
RTVSPost2010Prop45
280
     0
102
RTVSPost2010PropOp45
 70
     1
102
RTVSPost2010Prop46
 90
       50
102
RTVSPost2010PropOp46
 70
     1
102
RTVSPost2010Prop47
 90
       50
102
RTVSPost2010PropOp47
 70
     1
102
RTVSPost2010Prop48
 90
       50
102
RTVSPost2010PropOp48
 70
     1
102
RTVSPost2010Prop49
280
     0
102
RTVSPost2010PropOp49
 70
     1
102
RTVSPost2010Prop50
 90
       50
102
RTVSPost2010PropOp50
 70
     1
102
RTVSPost2010Prop51ColorIndex
 90
      256
102
RTVSPost2010Prop51ColorRGB
 90
-16777216
102
RTVSPost2010PropOp51
 70
     0
102
RTVSPost2010Prop52
140
1.0
102
RTVSPost2010PropOp52
 70
     0
102
RTVSPost2010Prop53
 90
        2
102
RTVSPost2010PropOp53
 70
     1
102
RTVSPost2010Prop54
  1
strokes_ogs.tif
102
RTVSPost2010PropOp54
 70
     1
102
RTVSPost2010Prop55
280
     0
102
RTVSPost2010PropOp55
 70
     1
102
RTVSPost2010Prop56
140
1.0
102
RTVSPost2010PropOp56
 70
     1
102
RTVSPost2010Prop57
140
1.0
102
RTVSPost2010PropOp57
 70
     1
102
RTVSPropertyOp0
 70
     1
102
RTVSPropertyOp1
 70
     1
102
RTVSPropertyOp2
 70
     1
102
RTVSPropertyOp3
 70
     1
102
RTVSPropertyOp4
 70
     1
102
RTVSPropertyOp5
 70
     1
102
RTVSPropertyOp6
 70
     1
102
RTVSPropertyOp7
 70
     1
102
RTVSPropertyOp8
 70
     1
102
RTVSPropertyOp9
 70
     1
102
RTVSPropertyOp10
 70
     1
102
RTVSPropertyOp11
 70
     1
102
RTVSPropertyOp12
 70
     1
102
RTVSPropertyOp13
 70
     1
102
RTVSPropertyOp14
 70
     1
102
RTVSPropertyOp15
 70
     1
102
RTVSPropertyOp16
 70
     1
102
RTVSPropertyOp17
 70
     1
102
RTVSPropertyOp18
 70
     1
102
RTVSPropertyOp19
 70
     1
102
RTVSPropertyOp20
 70
     1
102
RTVSPropertyOp21
 70
     1
102
RTVSPropertyOp22
 70
     1
102
RTVSPropertyOp23
 70
     1
102
RTVSPropertyOp24
 70
     1
102
RTVSPropertyOp25
 70
     1
102
RTVSPropertyOp26
 70
     1
102
RTVSPropertyOp27
 70
     1
102
RTVSPropertyOp28
 70
     1
102
RTVSPropertyOp29
 70
     1
102
RTVSPropertyOp30
 70
     1
102
RTVSPropertyOp31
 70
     1
102
RTVSPropertyOp32
 70
     1
102
RTVSPropertyOp33
 70
     1
102
RTVSPropertyOp34
 70
     1
102
RTVSPropertyOp35
 70
     1
102
RTVSPropertyOp36
 70
     1
102
RTVSPropertyOp37
 70
     1
102
RTVSPropertyOp38
 70
     1
102
RTVSPropertyOp39
 70
     1
102
RTVSPropertyOp40
 70
     1
102
RTVSPropertyOp41
 70
     1
102
RTVSPropertyOp42
 70
     1
102
RTVSPropertyOp43
 70
     1
102
RTVSPropertyOp44
 70
     1
102
RTVSPropertyOp45
 70
     1
102
RTVSPropertyOp46
 70
     1
102
RTVSPropertyOp47
 70
     1
102
RTVSPropertyOp48
 70
     1
102
RTVSPropertyOp49
 70
     1
102
RTVSPropertyOp50
 70
     1
102
RTVSPropertyOp51
 70
     0
102
RTVSPropertyOp52
 70
     0
102
RTVSPropertyOp53
 70
     1
102
RTVSPropertyOp54
 70
     1
102
RTVSPropertyOp55
 70
     1
102
RTVSPropertyOp56
 70
     1
102
RTVSPropertyOp57
 70
     1
102
RTVSPropertyOp58
 70
     1
102
RTVSPropertyOp59
 70
     1
102
RTVSPropertyOp60
 70
     1
102
RTVSPropertyOp61
 70
     1
102
RTVSPropertyOp62
 70
     1
  0
XRECORD
  5
2DE3
102
{ACAD_REACTORS
330
2DE2
102
}
330
2DE2
100
AcDbXrecord
280
     1
102
RTVSPost2010Prop28
280
     0
102
RTVSPost2010PropOp28
 70
     1
102
RTVSPost2010Prop29
280
     1
102
RTVSPost2010PropOp29
 70
     1
102
RTVSPost2010Prop30
280
     1
102
RTVSPost2010PropOp30
 70
     1
102
RTVSPost2010Prop31
280
     0
102
RTVSPost2010PropOp31
 70
     1
102
RTVSPost2010Prop32
280
     0
102
RTVSPost2010PropOp32
 70
     1
102
RTVSPost2010Prop33
280
     0
102
RTVSPost2010PropOp33
 70
     1
102
RTVSPost2010Prop34
280
     0
102
RTVSPost2010PropOp34
 70
     1
102
RTVSPost2010Prop35
280
     0
102
RTVSPost2010PropOp35
 70
     1
102
RTVSPost2010Prop36
280
     0
102
RTVSPost2010PropOp36
 70
     1
102
RTVSPost2010Prop37
 90
       50
102
RTVSPost2010PropOp37
 70
     1
102
RTVSPost2010Prop38
140
0.0
102
RTVSPost2010PropOp38
 70
     1
102
RTVSPost2010Prop39
140
1.0
102
RTVSPost2010PropOp39
 70
     1
102
RTVSPost2010Prop40
 90
        0
102
RTVSPost2010PropOp40
 70
     1
102
RTVSPost2010Prop41ColorIndex
 90
       18
102
RTVSPost2010Prop41ColorRGB
 90
        0
102
RTVSPost2010PropOp41
 70
     1
102
RTVSPost2010Prop42
 90
       50
102
RTVSPost2010PropOp42
 70
     1
102
RTVSPost2010Prop43
 90
        3
102
RTVSPost2010PropOp43
 70
     1
102
RTVSPost2010Prop44ColorIndex
 90
        5
102
RTVSPost2010Prop44ColorRGB
 90
      255
102
RTVSPost2010PropOp44
 70
     1
102
RTVSPost2010Prop45
280
     0
102
RTVSPost2010PropOp45
 70
     1
102
RTVSPost2010Prop46
 90
       50
102
RTVSPost2010PropOp46
 70
     1
102
RTVSPost2010Prop47
 90
       50
102
RTVSPost2010PropOp47
 70
     1
102
RTVSPost2010Prop48
 90
       50
102
RTVSPost2010PropOp48
 70
     1
102
RTVSPost2010Prop49
280
     0
102
RTVSPost2010PropOp49
 70
     1
102
RTVSPost2010Prop50
 90
       50
102
RTVSPost2010PropOp50
 70
     1
102
RTVSPost2010Prop51ColorIndex
 90
      256
102
RTVSPost2010Prop51ColorRGB
 90
-16777216
102
RTVSPost2010PropOp51
 70
     0
102
RTVSPost2010Prop52
140
1.0
102
RTVSPost2010PropOp52
 70
     0
102
RTVSPost2010Prop53
 90
        2
102
RTVSPost2010PropOp53
 70
     1
102
RTVSPost2010Prop54
  1
strokes_ogs.tif
102
RTVSPost2010PropOp54
 70
     1
102
RTVSPost2010Prop55
280
     0
102
RTVSPost2010PropOp55
 70
     1
102
RTVSPost2010Prop56
140
1.0
102
RTVSPost2010PropOp56
 70
     1
102
RTVSPost2010Prop57
140
1.0
102
RTVSPost2010PropOp57
 70
     1
102
RTVSPropertyOp0
 70
     1
102
RTVSPropertyOp1
 70
     1
102
RTVSPropertyOp2
 70
     1
102
RTVSPropertyOp3
 70
     1
102
RTVSPropertyOp4
 70
     1
102
RTVSPropertyOp5
 70
     1
102
RTVSPropertyOp6
 70
     1
102
RTVSPropertyOp7
 70
     1
102
RTVSPropertyOp8
 70
     1
102
RTVSPropertyOp9
 70
     1
102
RTVSPropertyOp10
 70
     1
102
RTVSPropertyOp11
 70
     1
102
RTVSPropertyOp12
 70
     1
102
RTVSPropertyOp13
 70
     1
102
RTVSPropertyOp14
 70
     1
102
RTVSPropertyOp15
 70
     1
102
RTVSPropertyOp16
 70
     1
102
RTVSPropertyOp17
 70
     1
102
RTVSPropertyOp18
 70
     1
102
RTVSPropertyOp19
 70
     1
102
RTVSPropertyOp20
 70
     1
102
RTVSPropertyOp21
 70
     1
102
RTVSPropertyOp22
 70
     1
102
RTVSPropertyOp23
 70
     1
102
RTVSPropertyOp24
 70
     1
102
RTVSPropertyOp25
 70
     1
102
RTVSPropertyOp26
 70
     1
102
RTVSPropertyOp27
 70
     1
102
RTVSPropertyOp28
 70
     1
102
RTVSPropertyOp29
 70
     1
102
RTVSPropertyOp30
 70
     1
102
RTVSPropertyOp31
 70
     1
102
RTVSPropertyOp32
 70
     1
102
RTVSPropertyOp33
 70
     1
102
RTVSPropertyOp34
 70
     1
102
RTVSPropertyOp35
 70
     1
102
RTVSPropertyOp36
 70
     1
102
RTVSPropertyOp37
 70
     1
102
RTVSPropertyOp38
 70
     1
102
RTVSPropertyOp39
 70
     1
102
RTVSPropertyOp40
 70
     1
102
RTVSPropertyOp41
 70
     1
102
RTVSPropertyOp42
 70
     1
102
RTVSPropertyOp43
 70
     1
102
RTVSPropertyOp44
 70
     1
102
RTVSPropertyOp45
 70
     1
102
RTVSPropertyOp46
 70
     1
102
RTVSPropertyOp47
 70
     1
102
RTVSPropertyOp48
 70
     1
102
RTVSPropertyOp49
 70
     1
102
RTVSPropertyOp50
 70
     1
102
RTVSPropertyOp51
 70
     0
102
RTVSPropertyOp52
 70
     0
102
RTVSPropertyOp53
 70
     1
102
RTVSPropertyOp54
 70
     1
102
RTVSPropertyOp55
 70
     1
102
RTVSPropertyOp56
 70
     1
102
RTVSPropertyOp57
 70
     1
102
RTVSPropertyOp58
 70
     1
102
RTVSPropertyOp59
 70
     1
102
RTVSPropertyOp60
 70
     1
102
RTVSPropertyOp61
 70
     1
102
RTVSPropertyOp62
 70
     1
  0
XRECORD
  5
2DEB
102
{ACAD_REACTORS
330
2DEA
102
}
330
2DEA
100
AcDbXrecord
280
     1
102
RTVSPost2010Prop28
280
     0
102
RTVSPost2010PropOp28
 70
     1
102
RTVSPost2010Prop29
280
     1
102
RTVSPost2010PropOp29
 70
     1
102
RTVSPost2010Prop30
280
     1
102
RTVSPost2010PropOp30
 70
     1
102
RTVSPost2010Prop31
280
     0
102
RTVSPost2010PropOp31
 70
     1
102
RTVSPost2010Prop32
280
     0
102
RTVSPost2010PropOp32
 70
     1
102
RTVSPost2010Prop33
280
     0
102
RTVSPost2010PropOp33
 70
     1
102
RTVSPost2010Prop34
280
     0
102
RTVSPost2010PropOp34
 70
     1
102
RTVSPost2010Prop35
280
     0
102
RTVSPost2010PropOp35
 70
     1
102
RTVSPost2010Prop36
280
     0
102
RTVSPost2010PropOp36
 70
     1
102
RTVSPost2010Prop37
 90
       50
102
RTVSPost2010PropOp37
 70
     1
102
RTVSPost2010Prop38
140
0.0
102
RTVSPost2010PropOp38
 70
     1
102
RTVSPost2010Prop39
140
1.0
102
RTVSPost2010PropOp39
 70
     1
102
RTVSPost2010Prop40
 90
        0
102
RTVSPost2010PropOp40
 70
     1
102
RTVSPost2010Prop41ColorIndex
 90
       18
102
RTVSPost2010Prop41ColorRGB
 90
        0
102
RTVSPost2010PropOp41
 70
     1
102
RTVSPost2010Prop42
 90
       50
102
RTVSPost2010PropOp42
 70
     1
102
RTVSPost2010Prop43
 90
        3
102
RTVSPost2010PropOp43
 70
     1
102
RTVSPost2010Prop44ColorIndex
 90
        5
102
RTVSPost2010Prop44ColorRGB
 90
      255
102
RTVSPost2010PropOp44
 70
     1
102
RTVSPost2010Prop45
280
     0
102
RTVSPost2010PropOp45
 70
     1
102
RTVSPost2010Prop46
 90
       50
102
RTVSPost2010PropOp46
 70
     1
102
RTVSPost2010Prop47
 90
       50
102
RTVSPost2010PropOp47
 70
     1
102
RTVSPost2010Prop48
 90
       50
102
RTVSPost2010PropOp48
 70
     1
102
RTVSPost2010Prop49
280
     0
102
RTVSPost2010PropOp49
 70
     1
102
RTVSPost2010Prop50
 90
       50
102
RTVSPost2010PropOp50
 70
     1
102
RTVSPost2010Prop51ColorIndex
 90
      256
102
RTVSPost2010Prop51ColorRGB
 90
-16777216
102
RTVSPost2010PropOp51
 70
     0
102
RTVSPost2010Prop52
140
1.0
102
RTVSPost2010PropOp52
 70
     0
102
RTVSPost2010Prop53
 90
        2
102
RTVSPost2010PropOp53
 70
     1
102
RTVSPost2010Prop54
  1
strokes_ogs.tif
102
RTVSPost2010PropOp54
 70
     1
102
RTVSPost2010Prop55
280
     0
102
RTVSPost2010PropOp55
 70
     1
102
RTVSPost2010Prop56
140
1.0
102
RTVSPost2010PropOp56
 70
     1
102
RTVSPost2010Prop57
140
1.0
102
RTVSPost2010PropOp57
 70
     1
102
RTVSPropertyOp0
 70
     1
102
RTVSPropertyOp1
 70
     1
102
RTVSPropertyOp2
 70
     1
102
RTVSPropertyOp3
 70
     1
102
RTVSPropertyOp4
 70
     1
102
RTVSPropertyOp5
 70
     1
102
RTVSPropertyOp6
 70
     1
102
RTVSPropertyOp7
 70
     1
102
RTVSPropertyOp8
 70
     1
102
RTVSPropertyOp9
 70
     1
102
RTVSPropertyOp10
 70
     1
102
RTVSPropertyOp11
 70
     1
102
RTVSPropertyOp12
 70
     1
102
RTVSPropertyOp13
 70
     1
102
RTVSPropertyOp14
 70
     1
102
RTVSPropertyOp15
 70
     1
102
RTVSPropertyOp16
 70
     1
102
RTVSPropertyOp17
 70
     1
102
RTVSPropertyOp18
 70
     1
102
RTVSPropertyOp19
 70
     1
102
RTVSPropertyOp20
 70
     1
102
RTVSPropertyOp21
 70
     1
102
RTVSPropertyOp22
 70
     1
102
RTVSPropertyOp23
 70
     1
102
RTVSPropertyOp24
 70
     1
102
RTVSPropertyOp25
 70
     1
102
RTVSPropertyOp26
 70
     1
102
RTVSPropertyOp27
 70
     1
102
RTVSPropertyOp28
 70
     1
102
RTVSPropertyOp29
 70
     1
102
RTVSPropertyOp30
 70
     1
102
RTVSPropertyOp31
 70
     1
102
RTVSPropertyOp32
 70
     1
102
RTVSPropertyOp33
 70
     1
102
RTVSPropertyOp34
 70
     1
102
RTVSPropertyOp35
 70
     1
102
RTVSPropertyOp36
 70
     1
102
RTVSPropertyOp37
 70
     1
102
RTVSPropertyOp38
 70
     1
102
RTVSPropertyOp39
 70
     1
102
RTVSPropertyOp40
 70
     1
102
RTVSPropertyOp41
 70
     1
102
RTVSPropertyOp42
 70
     1
102
RTVSPropertyOp43
 70
     1
102
RTVSPropertyOp44
 70
     1
102
RTVSPropertyOp45
 70
     1
102
RTVSPropertyOp46
 70
     1
102
RTVSPropertyOp47
 70
     1
102
RTVSPropertyOp48
 70
     1
102
RTVSPropertyOp49
 70
     1
102
RTVSPropertyOp50
 70
     1
102
RTVSPropertyOp51
 70
     0
102
RTVSPropertyOp52
 70
     0
102
RTVSPropertyOp53
 70
     1
102
RTVSPropertyOp54
 70
     1
102
RTVSPropertyOp55
 70
     1
102
RTVSPropertyOp56
 70
     1
102
RTVSPropertyOp57
 70
     1
102
RTVSPropertyOp58
 70
     1
102
RTVSPropertyOp59
 70
     1
102
RTVSPropertyOp60
 70
     1
102
RTVSPropertyOp61
 70
     1
102
RTVSPropertyOp62
 70
     1
  0
XRECORD
  5
2DDD
102
{ACAD_REACTORS
330
2DDC
102
}
330
2DDC
100
AcDbXrecord
280
     1
102
RTVSPost2010Prop28
280
     0
102
RTVSPost2010PropOp28
 70
     1
102
RTVSPost2010Prop29
280
     1
102
RTVSPost2010PropOp29
 70
     1
102
RTVSPost2010Prop30
280
     1
102
RTVSPost2010PropOp30
 70
     1
102
RTVSPost2010Prop31
280
     0
102
RTVSPost2010PropOp31
 70
     1
102
RTVSPost2010Prop32
280
     0
102
RTVSPost2010PropOp32
 70
     1
102
RTVSPost2010Prop33
280
     0
102
RTVSPost2010PropOp33
 70
     1
102
RTVSPost2010Prop34
280
     0
102
RTVSPost2010PropOp34
 70
     1
102
RTVSPost2010Prop35
280
     0
102
RTVSPost2010PropOp35
 70
     1
102
RTVSPost2010Prop36
280
     0
102
RTVSPost2010PropOp36
 70
     1
102
RTVSPost2010Prop37
 90
       50
102
RTVSPost2010PropOp37
 70
     1
102
RTVSPost2010Prop38
140
0.0
102
RTVSPost2010PropOp38
 70
     1
102
RTVSPost2010Prop39
140
1.0
102
RTVSPost2010PropOp39
 70
     1
102
RTVSPost2010Prop40
 90
        0
102
RTVSPost2010PropOp40
 70
     1
102
RTVSPost2010Prop41ColorIndex
 90
       18
102
RTVSPost2010Prop41ColorRGB
 90
        0
102
RTVSPost2010PropOp41
 70
     1
102
RTVSPost2010Prop42
 90
       50
102
RTVSPost2010PropOp42
 70
     1
102
RTVSPost2010Prop43
 90
        3
102
RTVSPost2010PropOp43
 70
     1
102
RTVSPost2010Prop44ColorIndex
 90
        5
102
RTVSPost2010Prop44ColorRGB
 90
      255
102
RTVSPost2010PropOp44
 70
     1
102
RTVSPost2010Prop45
280
     0
102
RTVSPost2010PropOp45
 70
     1
102
RTVSPost2010Prop46
 90
       50
102
RTVSPost2010PropOp46
 70
     1
102
RTVSPost2010Prop47
 90
       50
102
RTVSPost2010PropOp47
 70
     1
102
RTVSPost2010Prop48
 90
       50
102
RTVSPost2010PropOp48
 70
     1
102
RTVSPost2010Prop49
280
     0
102
RTVSPost2010PropOp49
 70
     1
102
RTVSPost2010Prop50
 90
       50
102
RTVSPost2010PropOp50
 70
     1
102
RTVSPost2010Prop51ColorIndex
 90
      256
102
RTVSPost2010Prop51ColorRGB
 90
-16777216
102
RTVSPost2010PropOp51
 70
     0
102
RTVSPost2010Prop52
140
1.0
102
RTVSPost2010PropOp52
 70
     0
102
RTVSPost2010Prop53
 90
        2
102
RTVSPost2010PropOp53
 70
     1
102
RTVSPost2010Prop54
  1
strokes_ogs.tif
102
RTVSPost2010PropOp54
 70
     1
102
RTVSPost2010Prop55
280
     0
102
RTVSPost2010PropOp55
 70
     1
102
RTVSPost2010Prop56
140
1.0
102
RTVSPost2010PropOp56
 70
     1
102
RTVSPost2010Prop57
140
1.0
102
RTVSPost2010PropOp57
 70
     1
102
RTVSPropertyOp0
 70
     1
102
RTVSPropertyOp1
 70
     1
102
RTVSPropertyOp2
 70
     1
102
RTVSPropertyOp3
 70
     1
102
RTVSPropertyOp4
 70
     1
102
RTVSPropertyOp5
 70
     1
102
RTVSPropertyOp6
 70
     1
102
RTVSPropertyOp7
 70
     1
102
RTVSPropertyOp8
 70
     1
102
RTVSPropertyOp9
 70
     1
102
RTVSPropertyOp10
 70
     1
102
RTVSPropertyOp11
 70
     1
102
RTVSPropertyOp12
 70
     1
102
RTVSPropertyOp13
 70
     1
102
RTVSPropertyOp14
 70
     1
102
RTVSPropertyOp15
 70
     1
102
RTVSPropertyOp16
 70
     1
102
RTVSPropertyOp17
 70
     1
102
RTVSPropertyOp18
 70
     1
102
RTVSPropertyOp19
 70
     1
102
RTVSPropertyOp20
 70
     1
102
RTVSPropertyOp21
 70
     1
102
RTVSPropertyOp22
 70
     1
102
RTVSPropertyOp23
 70
     1
102
RTVSPropertyOp24
 70
     1
102
RTVSPropertyOp25
 70
     1
102
RTVSPropertyOp26
 70
     1
102
RTVSPropertyOp27
 70
     1
102
RTVSPropertyOp28
 70
     1
102
RTVSPropertyOp29
 70
     1
102
RTVSPropertyOp30
 70
     1
102
RTVSPropertyOp31
 70
     1
102
RTVSPropertyOp32
 70
     1
102
RTVSPropertyOp33
 70
     1
102
RTVSPropertyOp34
 70
     1
102
RTVSPropertyOp35
 70
     1
102
RTVSPropertyOp36
 70
     1
102
RTVSPropertyOp37
 70
     1
102
RTVSPropertyOp38
 70
     1
102
RTVSPropertyOp39
 70
     1
102
RTVSPropertyOp40
 70
     1
102
RTVSPropertyOp41
 70
     1
102
RTVSPropertyOp42
 70
     1
102
RTVSPropertyOp43
 70
     1
102
RTVSPropertyOp44
 70
     1
102
RTVSPropertyOp45
 70
     1
102
RTVSPropertyOp46
 70
     1
102
RTVSPropertyOp47
 70
     1
102
RTVSPropertyOp48
 70
     1
102
RTVSPropertyOp49
 70
     1
102
RTVSPropertyOp50
 70
     1
102
RTVSPropertyOp51
 70
     0
102
RTVSPropertyOp52
 70
     0
102
RTVSPropertyOp53
 70
     1
102
RTVSPropertyOp54
 70
     1
102
RTVSPropertyOp55
 70
     1
102
RTVSPropertyOp56
 70
     1
102
RTVSPropertyOp57
 70
     1
102
RTVSPropertyOp58
 70
     1
102
RTVSPropertyOp59
 70
     1
102
RTVSPropertyOp60
 70
     1
102
RTVSPropertyOp61
 70
     1
102
RTVSPropertyOp62
 70
     1
  0
XRECORD
  5
2DE1
102
{ACAD_REACTORS
330
2DE0
102
}
330
2DE0
100
AcDbXrecord
280
     1
102
RTVSPost2010Prop28
280
     0
102
RTVSPost2010PropOp28
 70
     1
102
RTVSPost2010Prop29
280
     1
102
RTVSPost2010PropOp29
 70
     1
102
RTVSPost2010Prop30
280
     1
102
RTVSPost2010PropOp30
 70
     1
102
RTVSPost2010Prop31
280
     0
102
RTVSPost2010PropOp31
 70
     1
102
RTVSPost2010Prop32
280
     0
102
RTVSPost2010PropOp32
 70
     1
102
RTVSPost2010Prop33
280
     0
102
RTVSPost2010PropOp33
 70
     1
102
RTVSPost2010Prop34
280
     0
102
RTVSPost2010PropOp34
 70
     1
102
RTVSPost2010Prop35
280
     0
102
RTVSPost2010PropOp35
 70
     1
102
RTVSPost2010Prop36
280
     0
102
RTVSPost2010PropOp36
 70
     1
102
RTVSPost2010Prop37
 90
       50
102
RTVSPost2010PropOp37
 70
     1
102
RTVSPost2010Prop38
140
0.0
102
RTVSPost2010PropOp38
 70
     1
102
RTVSPost2010Prop39
140
1.0
102
RTVSPost2010PropOp39
 70
     1
102
RTVSPost2010Prop40
 90
        0
102
RTVSPost2010PropOp40
 70
     1
102
RTVSPost2010Prop41ColorIndex
 90
       18
102
RTVSPost2010Prop41ColorRGB
 90
        0
102
RTVSPost2010PropOp41
 70
     1
102
RTVSPost2010Prop42
 90
       50
102
RTVSPost2010PropOp42
 70
     1
102
RTVSPost2010Prop43
 90
        3
102
RTVSPost2010PropOp43
 70
     1
102
RTVSPost2010Prop44ColorIndex
 90
        5
102
RTVSPost2010Prop44ColorRGB
 90
      255
102
RTVSPost2010PropOp44
 70
     1
102
RTVSPost2010Prop45
280
     0
102
RTVSPost2010PropOp45
 70
     1
102
RTVSPost2010Prop46
 90
       50
102
RTVSPost2010PropOp46
 70
     1
102
RTVSPost2010Prop47
 90
       50
102
RTVSPost2010PropOp47
 70
     1
102
RTVSPost2010Prop48
 90
       50
102
RTVSPost2010PropOp48
 70
     1
102
RTVSPost2010Prop49
280
     0
102
RTVSPost2010PropOp49
 70
     1
102
RTVSPost2010Prop50
 90
       50
102
RTVSPost2010PropOp50
 70
     1
102
RTVSPost2010Prop51ColorIndex
 90
      256
102
RTVSPost2010Prop51ColorRGB
 90
-16777216
102
RTVSPost2010PropOp51
 70
     0
102
RTVSPost2010Prop52
140
1.0
102
RTVSPost2010PropOp52
 70
     0
102
RTVSPost2010Prop53
 90
        2
102
RTVSPost2010PropOp53
 70
     1
102
RTVSPost2010Prop54
  1
strokes_ogs.tif
102
RTVSPost2010PropOp54
 70
     1
102
RTVSPost2010Prop55
280
     0
102
RTVSPost2010PropOp55
 70
     1
102
RTVSPost2010Prop56
140
1.0
102
RTVSPost2010PropOp56
 70
     1
102
RTVSPost2010Prop57
140
1.0
102
RTVSPost2010PropOp57
 70
     1
102
RTVSPropertyOp0
 70
     1
102
RTVSPropertyOp1
 70
     1
102
RTVSPropertyOp2
 70
     1
102
RTVSPropertyOp3
 70
     1
102
RTVSPropertyOp4
 70
     1
102
RTVSPropertyOp5
 70
     1
102
RTVSPropertyOp6
 70
     1
102
RTVSPropertyOp7
 70
     1
102
RTVSPropertyOp8
 70
     1
102
RTVSPropertyOp9
 70
     1
102
RTVSPropertyOp10
 70
     1
102
RTVSPropertyOp11
 70
     1
102
RTVSPropertyOp12
 70
     1
102
RTVSPropertyOp13
 70
     1
102
RTVSPropertyOp14
 70
     1
102
RTVSPropertyOp15
 70
     1
102
RTVSPropertyOp16
 70
     1
102
RTVSPropertyOp17
 70
     1
102
RTVSPropertyOp18
 70
     1
102
RTVSPropertyOp19
 70
     1
102
RTVSPropertyOp20
 70
     1
102
RTVSPropertyOp21
 70
     1
102
RTVSPropertyOp22
 70
     1
102
RTVSPropertyOp23
 70
     1
102
RTVSPropertyOp24
 70
     1
102
RTVSPropertyOp25
 70
     1
102
RTVSPropertyOp26
 70
     1
102
RTVSPropertyOp27
 70
     1
102
RTVSPropertyOp28
 70
     1
102
RTVSPropertyOp29
 70
     1
102
RTVSPropertyOp30
 70
     1
102
RTVSPropertyOp31
 70
     1
102
RTVSPropertyOp32
 70
     1
102
RTVSPropertyOp33
 70
     1
102
RTVSPropertyOp34
 70
     1
102
RTVSPropertyOp35
 70
     1
102
RTVSPropertyOp36
 70
     1
102
RTVSPropertyOp37
 70
     1
102
RTVSPropertyOp38
 70
     1
102
RTVSPropertyOp39
 70
     1
102
RTVSPropertyOp40
 70
     1
102
RTVSPropertyOp41
 70
     1
102
RTVSPropertyOp42
 70
     1
102
RTVSPropertyOp43
 70
     1
102
RTVSPropertyOp44
 70
     1
102
RTVSPropertyOp45
 70
     1
102
RTVSPropertyOp46
 70
     1
102
RTVSPropertyOp47
 70
     1
102
RTVSPropertyOp48
 70
     1
102
RTVSPropertyOp49
 70
     1
102
RTVSPropertyOp50
 70
     1
102
RTVSPropertyOp51
 70
     0
102
RTVSPropertyOp52
 70
     0
102
RTVSPropertyOp53
 70
     1
102
RTVSPropertyOp54
 70
     1
102
RTVSPropertyOp55
 70
     1
102
RTVSPropertyOp56
 70
     1
102
RTVSPropertyOp57
 70
     1
102
RTVSPropertyOp58
 70
     1
102
RTVSPropertyOp59
 70
     1
102
RTVSPropertyOp60
 70
     1
102
RTVSPropertyOp61
 70
     1
102
RTVSPropertyOp62
 70
     1
  0
XRECORD
  5
2DF3
102
{ACAD_REACTORS
330
2DF2
102
}
330
2DF2
100
AcDbXrecord
280
     1
102
RTVSPost2010Prop28
280
     0
102
RTVSPost2010PropOp28
 70
     1
102
RTVSPost2010Prop29
280
     1
102
RTVSPost2010PropOp29
 70
     1
102
RTVSPost2010Prop30
280
     1
102
RTVSPost2010PropOp30
 70
     1
102
RTVSPost2010Prop31
280
     0
102
RTVSPost2010PropOp31
 70
     1
102
RTVSPost2010Prop32
280
     0
102
RTVSPost2010PropOp32
 70
     1
102
RTVSPost2010Prop33
280
     0
102
RTVSPost2010PropOp33
 70
     1
102
RTVSPost2010Prop34
280
     0
102
RTVSPost2010PropOp34
 70
     1
102
RTVSPost2010Prop35
280
     0
102
RTVSPost2010PropOp35
 70
     1
102
RTVSPost2010Prop36
280
     0
102
RTVSPost2010PropOp36
 70
     1
102
RTVSPost2010Prop37
 90
       50
102
RTVSPost2010PropOp37
 70
     1
102
RTVSPost2010Prop38
140
0.0
102
RTVSPost2010PropOp38
 70
     1
102
RTVSPost2010Prop39
140
1.0
102
RTVSPost2010PropOp39
 70
     1
102
RTVSPost2010Prop40
 90
        0
102
RTVSPost2010PropOp40
 70
     1
102
RTVSPost2010Prop41ColorIndex
 90
       18
102
RTVSPost2010Prop41ColorRGB
 90
        0
102
RTVSPost2010PropOp41
 70
     1
102
RTVSPost2010Prop42
 90
       50
102
RTVSPost2010PropOp42
 70
     1
102
RTVSPost2010Prop43
 90
        3
102
RTVSPost2010PropOp43
 70
     1
102
RTVSPost2010Prop44ColorIndex
 90
        5
102
RTVSPost2010Prop44ColorRGB
 90
      255
102
RTVSPost2010PropOp44
 70
     1
102
RTVSPost2010Prop45
280
     0
102
RTVSPost2010PropOp45
 70
     1
102
RTVSPost2010Prop46
 90
       50
102
RTVSPost2010PropOp46
 70
     1
102
RTVSPost2010Prop47
 90
       50
102
RTVSPost2010PropOp47
 70
     1
102
RTVSPost2010Prop48
 90
       50
102
RTVSPost2010PropOp48
 70
     1
102
RTVSPost2010Prop49
280
     0
102
RTVSPost2010PropOp49
 70
     1
102
RTVSPost2010Prop50
 90
       50
102
RTVSPost2010PropOp50
 70
     1
102
RTVSPost2010Prop51ColorIndex
 90
      256
102
RTVSPost2010Prop51ColorRGB
 90
-16777216
102
RTVSPost2010PropOp51
 70
     0
102
RTVSPost2010Prop52
140
1.0
102
RTVSPost2010PropOp52
 70
     0
102
RTVSPost2010Prop53
 90
        2
102
RTVSPost2010PropOp53
 70
     1
102
RTVSPost2010Prop54
  1
strokes_ogs.tif
102
RTVSPost2010PropOp54
 70
     1
102
RTVSPost2010Prop55
280
     0
102
RTVSPost2010PropOp55
 70
     1
102
RTVSPost2010Prop56
140
1.0
102
RTVSPost2010PropOp56
 70
     1
102
RTVSPost2010Prop57
140
1.0
102
RTVSPost2010PropOp57
 70
     1
102
RTVSPropertyOp0
 70
     0
102
RTVSPropertyOp1
 70
     0
102
RTVSPropertyOp2
 70
     0
102
RTVSPropertyOp3
 70
     0
102
RTVSPropertyOp4
 70
     0
102
RTVSPropertyOp5
 70
     0
102
RTVSPropertyOp6
 70
     0
102
RTVSPropertyOp7
 70
     0
102
RTVSPropertyOp8
 70
     0
102
RTVSPropertyOp9
 70
     0
102
RTVSPropertyOp10
 70
     0
102
RTVSPropertyOp11
 70
     0
102
RTVSPropertyOp12
 70
     0
102
RTVSPropertyOp13
 70
     0
102
RTVSPropertyOp14
 70
     2
102
RTVSPropertyOp15
 70
     0
102
RTVSPropertyOp16
 70
     0
102
RTVSPropertyOp17
 70
     0
102
RTVSPropertyOp18
 70
     0
102
RTVSPropertyOp19
 70
     0
102
RTVSPropertyOp20
 70
     0
102
RTVSPropertyOp21
 70
     0
102
RTVSPropertyOp22
 70
     0
102
RTVSPropertyOp23
 70
     0
102
RTVSPropertyOp24
 70
     0
102
RTVSPropertyOp25
 70
     0
102
RTVSPropertyOp26
 70
     0
102
RTVSPropertyOp27
 70
     0
102
RTVSPropertyOp28
 70
     1
102
RTVSPropertyOp29
 70
     1
102
RTVSPropertyOp30
 70
     1
102
RTVSPropertyOp31
 70
     1
102
RTVSPropertyOp32
 70
     1
102
RTVSPropertyOp33
 70
     1
102
RTVSPropertyOp34
 70
     1
102
RTVSPropertyOp35
 70
     1
102
RTVSPropertyOp36
 70
     1
102
RTVSPropertyOp37
 70
     1
102
RTVSPropertyOp38
 70
     1
102
RTVSPropertyOp39
 70
     1
102
RTVSPropertyOp40
 70
     1
102
RTVSPropertyOp41
 70
     1
102
RTVSPropertyOp42
 70
     1
102
RTVSPropertyOp43
 70
     1
102
RTVSPropertyOp44
 70
     1
102
RTVSPropertyOp45
 70
     1
102
RTVSPropertyOp46
 70
     1
102
RTVSPropertyOp47
 70
     1
102
RTVSPropertyOp48
 70
     1
102
RTVSPropertyOp49
 70
     1
102
RTVSPropertyOp50
 70
     1
102
RTVSPropertyOp51
 70
     0
102
RTVSPropertyOp52
 70
     0
102
RTVSPropertyOp53
 70
     1
102
RTVSPropertyOp54
 70
     1
102
RTVSPropertyOp55
 70
     1
102
RTVSPropertyOp56
 70
     1
102
RTVSPropertyOp57
 70
     1
102
RTVSPropertyOp58
 70
     1
102
RTVSPropertyOp59
 70
     1
102
RTVSPropertyOp60
 70
     1
102
RTVSPropertyOp61
 70
     1
102
RTVSPropertyOp62
 70
     1
  0
XRECORD
  5
2DE9
102
{ACAD_REACTORS
330
2DE8
102
}
330
2DE8
100
AcDbXrecord
280
     1
102
RTVSPost2010Prop28
280
     0
102
RTVSPost2010PropOp28
 70
     1
102
RTVSPost2010Prop29
280
     1
102
RTVSPost2010PropOp29
 70
     1
102
RTVSPost2010Prop30
280
     1
102
RTVSPost2010PropOp30
 70
     1
102
RTVSPost2010Prop31
280
     0
102
RTVSPost2010PropOp31
 70
     1
102
RTVSPost2010Prop32
280
     0
102
RTVSPost2010PropOp32
 70
     1
102
RTVSPost2010Prop33
280
     0
102
RTVSPost2010PropOp33
 70
     1
102
RTVSPost2010Prop34
280
     0
102
RTVSPost2010PropOp34
 70
     1
102
RTVSPost2010Prop35
280
     0
102
RTVSPost2010PropOp35
 70
     1
102
RTVSPost2010Prop36
280
     0
102
RTVSPost2010PropOp36
 70
     1
102
RTVSPost2010Prop37
 90
       50
102
RTVSPost2010PropOp37
 70
     1
102
RTVSPost2010Prop38
140
0.0
102
RTVSPost2010PropOp38
 70
     1
102
RTVSPost2010Prop39
140
1.0
102
RTVSPost2010PropOp39
 70
     1
102
RTVSPost2010Prop40
 90
        0
102
RTVSPost2010PropOp40
 70
     1
102
RTVSPost2010Prop41ColorIndex
 90
       18
102
RTVSPost2010Prop41ColorRGB
 90
        0
102
RTVSPost2010PropOp41
 70
     1
102
RTVSPost2010Prop42
 90
       50
102
RTVSPost2010PropOp42
 70
     1
102
RTVSPost2010Prop43
 90
        3
102
RTVSPost2010PropOp43
 70
     1
102
RTVSPost2010Prop44ColorIndex
 90
        5
102
RTVSPost2010Prop44ColorRGB
 90
      255
102
RTVSPost2010PropOp44
 70
     1
102
RTVSPost2010Prop45
280
     0
102
RTVSPost2010PropOp45
 70
     1
102
RTVSPost2010Prop46
 90
       50
102
RTVSPost2010PropOp46
 70
     1
102
RTVSPost2010Prop47
 90
       50
102
RTVSPost2010PropOp47
 70
     1
102
RTVSPost2010Prop48
 90
       50
102
RTVSPost2010PropOp48
 70
     1
102
RTVSPost2010Prop49
280
     0
102
RTVSPost2010PropOp49
 70
     1
102
RTVSPost2010Prop50
 90
       50
102
RTVSPost2010PropOp50
 70
     1
102
RTVSPost2010Prop51ColorIndex
 90
      256
102
RTVSPost2010Prop51ColorRGB
 90
-16777216
102
RTVSPost2010PropOp51
 70
     0
102
RTVSPost2010Prop52
140
1.0
102
RTVSPost2010PropOp52
 70
     0
102
RTVSPost2010Prop53
 90
        2
102
RTVSPost2010PropOp53
 70
     1
102
RTVSPost2010Prop54
  1
strokes_ogs.tif
102
RTVSPost2010PropOp54
 70
     1
102
RTVSPost2010Prop55
280
     0
102
RTVSPost2010PropOp55
 70
     1
102
RTVSPost2010Prop56
140
1.0
102
RTVSPost2010PropOp56
 70
     1
102
RTVSPost2010Prop57
140
1.0
102
RTVSPost2010PropOp57
 70
     1
102
RTVSPropertyOp0
 70
     1
102
RTVSPropertyOp1
 70
     1
102
RTVSPropertyOp2
 70
     1
102
RTVSPropertyOp3
 70
     1
102
RTVSPropertyOp4
 70
     1
102
RTVSPropertyOp5
 70
     1
102
RTVSPropertyOp6
 70
     1
102
RTVSPropertyOp7
 70
     1
102
RTVSPropertyOp8
 70
     1
102
RTVSPropertyOp9
 70
     1
102
RTVSPropertyOp10
 70
     1
102
RTVSPropertyOp11
 70
     1
102
RTVSPropertyOp12
 70
     1
102
RTVSPropertyOp13
 70
     1
102
RTVSPropertyOp14
 70
     1
102
RTVSPropertyOp15
 70
     1
102
RTVSPropertyOp16
 70
     1
102
RTVSPropertyOp17
 70
     1
102
RTVSPropertyOp18
 70
     1
102
RTVSPropertyOp19
 70
     1
102
RTVSPropertyOp20
 70
     1
102
RTVSPropertyOp21
 70
     1
102
RTVSPropertyOp22
 70
     1
102
RTVSPropertyOp23
 70
     1
102
RTVSPropertyOp24
 70
     1
102
RTVSPropertyOp25
 70
     1
102
RTVSPropertyOp26
 70
     1
102
RTVSPropertyOp27
 70
     1
102
RTVSPropertyOp28
 70
     1
102
RTVSPropertyOp29
 70
     1
102
RTVSPropertyOp30
 70
     1
102
RTVSPropertyOp31
 70
     1
102
RTVSPropertyOp32
 70
     1
102
RTVSPropertyOp33
 70
     1
102
RTVSPropertyOp34
 70
     1
102
RTVSPropertyOp35
 70
     1
102
RTVSPropertyOp36
 70
     1
102
RTVSPropertyOp37
 70
     1
102
RTVSPropertyOp38
 70
     1
102
RTVSPropertyOp39
 70
     1
102
RTVSPropertyOp40
 70
     1
102
RTVSPropertyOp41
 70
     1
102
RTVSPropertyOp42
 70
     1
102
RTVSPropertyOp43
 70
     1
102
RTVSPropertyOp44
 70
     1
102
RTVSPropertyOp45
 70
     1
102
RTVSPropertyOp46
 70
     1
102
RTVSPropertyOp47
 70
     1
102
RTVSPropertyOp48
 70
     1
102
RTVSPropertyOp49
 70
     1
102
RTVSPropertyOp50
 70
     1
102
RTVSPropertyOp51
 70
     0
102
RTVSPropertyOp52
 70
     0
102
RTVSPropertyOp53
 70
     1
102
RTVSPropertyOp54
 70
     1
102
RTVSPropertyOp55
 70
     1
102
RTVSPropertyOp56
 70
     1
102
RTVSPropertyOp57
 70
     1
102
RTVSPropertyOp58
 70
     1
102
RTVSPropertyOp59
 70
     1
102
RTVSPropertyOp60
 70
     1
102
RTVSPropertyOp61
 70
     1
102
RTVSPropertyOp62
 70
     1
  0
XRECORD
  5
2DCD
102
{ACAD_REACTORS
330
2DCC
102
}
330
2DCC
100
AcDbXrecord
280
     1
102
RTVSPost2010Prop28
280
     0
102
RTVSPost2010PropOp28
 70
     1
102
RTVSPost2010Prop29
280
     1
102
RTVSPost2010PropOp29
 70
     1
102
RTVSPost2010Prop30
280
     1
102
RTVSPost2010PropOp30
 70
     1
102
RTVSPost2010Prop31
280
     0
102
RTVSPost2010PropOp31
 70
     1
102
RTVSPost2010Prop32
280
     0
102
RTVSPost2010PropOp32
 70
     1
102
RTVSPost2010Prop33
280
     0
102
RTVSPost2010PropOp33
 70
     1
102
RTVSPost2010Prop34
280
     0
102
RTVSPost2010PropOp34
 70
     1
102
RTVSPost2010Prop35
280
     0
102
RTVSPost2010PropOp35
 70
     1
102
RTVSPost2010Prop36
280
     0
102
RTVSPost2010PropOp36
 70
     1
102
RTVSPost2010Prop37
 90
       50
102
RTVSPost2010PropOp37
 70
     1
102
RTVSPost2010Prop38
140
0.0
102
RTVSPost2010PropOp38
 70
     1
102
RTVSPost2010Prop39
140
1.0
102
RTVSPost2010PropOp39
 70
     1
102
RTVSPost2010Prop40
 90
        0
102
RTVSPost2010PropOp40
 70
     1
102
RTVSPost2010Prop41ColorIndex
 90
       18
102
RTVSPost2010Prop41ColorRGB
 90
        0
102
RTVSPost2010PropOp41
 70
     1
102
RTVSPost2010Prop42
 90
       50
102
RTVSPost2010PropOp42
 70
     1
102
RTVSPost2010Prop43
 90
        3
102
RTVSPost2010PropOp43
 70
     1
102
RTVSPost2010Prop44ColorIndex
 90
        5
102
RTVSPost2010Prop44ColorRGB
 90
      255
102
RTVSPost2010PropOp44
 70
     1
102
RTVSPost2010Prop45
280
     0
102
RTVSPost2010PropOp45
 70
     1
102
RTVSPost2010Prop46
 90
       50
102
RTVSPost2010PropOp46
 70
     1
102
RTVSPost2010Prop47
 90
       50
102
RTVSPost2010PropOp47
 70
     1
102
RTVSPost2010Prop48
 90
       50
102
RTVSPost2010PropOp48
 70
     1
102
RTVSPost2010Prop49
280
     0
102
RTVSPost2010PropOp49
 70
     1
102
RTVSPost2010Prop50
 90
       50
102
RTVSPost2010PropOp50
 70
     1
102
RTVSPost2010Prop51ColorIndex
 90
      256
102
RTVSPost2010Prop51ColorRGB
 90
-16777216
102
RTVSPost2010PropOp51
 70
     0
102
RTVSPost2010Prop52
140
1.0
102
RTVSPost2010PropOp52
 70
     0
102
RTVSPost2010Prop53
 90
        2
102
RTVSPost2010PropOp53
 70
     1
102
RTVSPost2010Prop54
  1
strokes_ogs.tif
102
RTVSPost2010PropOp54
 70
     1
102
RTVSPost2010Prop55
280
     0
102
RTVSPost2010PropOp55
 70
     1
102
RTVSPost2010Prop56
140
1.0
102
RTVSPost2010PropOp56
 70
     1
102
RTVSPost2010Prop57
140
1.0
102
RTVSPost2010PropOp57
 70
     1
102
RTVSPropertyOp0
 70
     1
102
RTVSPropertyOp1
 70
     1
102
RTVSPropertyOp2
 70
     1
102
RTVSPropertyOp3
 70
     1
102
RTVSPropertyOp4
 70
     1
102
RTVSPropertyOp5
 70
     1
102
RTVSPropertyOp6
 70
     1
102
RTVSPropertyOp7
 70
     1
102
RTVSPropertyOp8
 70
     1
102
RTVSPropertyOp9
 70
     1
102
RTVSPropertyOp10
 70
     1
102
RTVSPropertyOp11
 70
     1
102
RTVSPropertyOp12
 70
     1
102
RTVSPropertyOp13
 70
     1
102
RTVSPropertyOp14
 70
     1
102
RTVSPropertyOp15
 70
     1
102
RTVSPropertyOp16
 70
     1
102
RTVSPropertyOp17
 70
     1
102
RTVSPropertyOp18
 70
     1
102
RTVSPropertyOp19
 70
     1
102
RTVSPropertyOp20
 70
     1
102
RTVSPropertyOp21
 70
     1
102
RTVSPropertyOp22
 70
     1
102
RTVSPropertyOp23
 70
     1
102
RTVSPropertyOp24
 70
     1
102
RTVSPropertyOp25
 70
     1
102
RTVSPropertyOp26
 70
     1
102
RTVSPropertyOp27
 70
     1
102
RTVSPropertyOp28
 70
     1
102
RTVSPropertyOp29
 70
     1
102
RTVSPropertyOp30
 70
     1
102
RTVSPropertyOp31
 70
     1
102
RTVSPropertyOp32
 70
     1
102
RTVSPropertyOp33
 70
     1
102
RTVSPropertyOp34
 70
     1
102
RTVSPropertyOp35
 70
     1
102
RTVSPropertyOp36
 70
     1
102
RTVSPropertyOp37
 70
     1
102
RTVSPropertyOp38
 70
     1
102
RTVSPropertyOp39
 70
     1
102
RTVSPropertyOp40
 70
     1
102
RTVSPropertyOp41
 70
     1
102
RTVSPropertyOp42
 70
     1
102
RTVSPropertyOp43
 70
     1
102
RTVSPropertyOp44
 70
     1
102
RTVSPropertyOp45
 70
     1
102
RTVSPropertyOp46
 70
     1
102
RTVSPropertyOp47
 70
     1
102
RTVSPropertyOp48
 70
     1
102
RTVSPropertyOp49
 70
     1
102
RTVSPropertyOp50
 70
     1
102
RTVSPropertyOp51
 70
     0
102
RTVSPropertyOp52
 70
     0
102
RTVSPropertyOp53
 70
     1
102
RTVSPropertyOp54
 70
     1
102
RTVSPropertyOp55
 70
     1
102
RTVSPropertyOp56
 70
     1
102
RTVSPropertyOp57
 70
     1
102
RTVSPropertyOp58
 70
     1
102
RTVSPropertyOp59
 70
     1
102
RTVSPropertyOp60
 70
     1
102
RTVSPropertyOp61
 70
     1
102
RTVSPropertyOp62
 70
     1
  0
XRECORD
  5
2DCF
102
{ACAD_REACTORS
330
2DCE
102
}
330
2DCE
100
AcDbXrecord
280
     1
102
RTVSPost2010Prop28
280
     0
102
RTVSPost2010PropOp28
 70
     1
102
RTVSPost2010Prop29
280
     1
102
RTVSPost2010PropOp29
 70
     1
102
RTVSPost2010Prop30
280
     1
102
RTVSPost2010PropOp30
 70
     1
102
RTVSPost2010Prop31
280
     0
102
RTVSPost2010PropOp31
 70
     1
102
RTVSPost2010Prop32
280
     0
102
RTVSPost2010PropOp32
 70
     1
102
RTVSPost2010Prop33
280
     0
102
RTVSPost2010PropOp33
 70
     1
102
RTVSPost2010Prop34
280
     0
102
RTVSPost2010PropOp34
 70
     1
102
RTVSPost2010Prop35
280
     0
102
RTVSPost2010PropOp35
 70
     1
102
RTVSPost2010Prop36
280
     0
102
RTVSPost2010PropOp36
 70
     1
102
RTVSPost2010Prop37
 90
       50
102
RTVSPost2010PropOp37
 70
     1
102
RTVSPost2010Prop38
140
0.0
102
RTVSPost2010PropOp38
 70
     1
102
RTVSPost2010Prop39
140
1.0
102
RTVSPost2010PropOp39
 70
     1
102
RTVSPost2010Prop40
 90
        0
102
RTVSPost2010PropOp40
 70
     1
102
RTVSPost2010Prop41ColorIndex
 90
       18
102
RTVSPost2010Prop41ColorRGB
 90
        0
102
RTVSPost2010PropOp41
 70
     1
102
RTVSPost2010Prop42
 90
       50
102
RTVSPost2010PropOp42
 70
     1
102
RTVSPost2010Prop43
 90
        3
102
RTVSPost2010PropOp43
 70
     1
102
RTVSPost2010Prop44ColorIndex
 90
        5
102
RTVSPost2010Prop44ColorRGB
 90
      255
102
RTVSPost2010PropOp44
 70
     1
102
RTVSPost2010Prop45
280
     0
102
RTVSPost2010PropOp45
 70
     1
102
RTVSPost2010Prop46
 90
       50
102
RTVSPost2010PropOp46
 70
     1
102
RTVSPost2010Prop47
 90
       50
102
RTVSPost2010PropOp47
 70
     1
102
RTVSPost2010Prop48
 90
       50
102
RTVSPost2010PropOp48
 70
     1
102
RTVSPost2010Prop49
280
     0
102
RTVSPost2010PropOp49
 70
     1
102
RTVSPost2010Prop50
 90
       50
102
RTVSPost2010PropOp50
 70
     1
102
RTVSPost2010Prop51ColorIndex
 90
      256
102
RTVSPost2010Prop51ColorRGB
 90
-16777216
102
RTVSPost2010PropOp51
 70
     0
102
RTVSPost2010Prop52
140
1.0
102
RTVSPost2010PropOp52
 70
     0
102
RTVSPost2010Prop53
 90
        2
102
RTVSPost2010PropOp53
 70
     1
102
RTVSPost2010Prop54
  1
strokes_ogs.tif
102
RTVSPost2010PropOp54
 70
     1
102
RTVSPost2010Prop55
280
     0
102
RTVSPost2010PropOp55
 70
     1
102
RTVSPost2010Prop56
140
1.0
102
RTVSPost2010PropOp56
 70
     1
102
RTVSPost2010Prop57
140
1.0
102
RTVSPost2010PropOp57
 70
     1
102
RTVSPropertyOp0
 70
     1
102
RTVSPropertyOp1
 70
     1
102
RTVSPropertyOp2
 70
     1
102
RTVSPropertyOp3
 70
     1
102
RTVSPropertyOp4
 70
     1
102
RTVSPropertyOp5
 70
     1
102
RTVSPropertyOp6
 70
     1
102
RTVSPropertyOp7
 70
     1
102
RTVSPropertyOp8
 70
     1
102
RTVSPropertyOp9
 70
     1
102
RTVSPropertyOp10
 70
     1
102
RTVSPropertyOp11
 70
     1
102
RTVSPropertyOp12
 70
     1
102
RTVSPropertyOp13
 70
     1
102
RTVSPropertyOp14
 70
     1
102
RTVSPropertyOp15
 70
     1
102
RTVSPropertyOp16
 70
     1
102
RTVSPropertyOp17
 70
     1
102
RTVSPropertyOp18
 70
     1
102
RTVSPropertyOp19
 70
     1
102
RTVSPropertyOp20
 70
     1
102
RTVSPropertyOp21
 70
     1
102
RTVSPropertyOp22
 70
     1
102
RTVSPropertyOp23
 70
     1
102
RTVSPropertyOp24
 70
     1
102
RTVSPropertyOp25
 70
     1
102
RTVSPropertyOp26
 70
     1
102
RTVSPropertyOp27
 70
     1
102
RTVSPropertyOp28
 70
     1
102
RTVSPropertyOp29
 70
     1
102
RTVSPropertyOp30
 70
     1
102
RTVSPropertyOp31
 70
     1
102
RTVSPropertyOp32
 70
     1
102
RTVSPropertyOp33
 70
     1
102
RTVSPropertyOp34
 70
     1
102
RTVSPropertyOp35
 70
     1
102
RTVSPropertyOp36
 70
     1
102
RTVSPropertyOp37
 70
     1
102
RTVSPropertyOp38
 70
     1
102
RTVSPropertyOp39
 70
     1
102
RTVSPropertyOp40
 70
     1
102
RTVSPropertyOp41
 70
     1
102
RTVSPropertyOp42
 70
     1
102
RTVSPropertyOp43
 70
     1
102
RTVSPropertyOp44
 70
     1
102
RTVSPropertyOp45
 70
     1
102
RTVSPropertyOp46
 70
     1
102
RTVSPropertyOp47
 70
     1
102
RTVSPropertyOp48
 70
     1
102
RTVSPropertyOp49
 70
     1
102
RTVSPropertyOp50
 70
     1
102
RTVSPropertyOp51
 70
     0
102
RTVSPropertyOp52
 70
     0
102
RTVSPropertyOp53
 70
     1
102
RTVSPropertyOp54
 70
     1
102
RTVSPropertyOp55
 70
     1
102
RTVSPropertyOp56
 70
     1
102
RTVSPropertyOp57
 70
     1
102
RTVSPropertyOp58
 70
     1
102
RTVSPropertyOp59
 70
     1
102
RTVSPropertyOp60
 70
     1
102
RTVSPropertyOp61
 70
     1
102
RTVSPropertyOp62
 70
     1
  0
XRECORD
  5
2DD1
102
{ACAD_REACTORS
330
2DD0
102
}
330
2DD0
100
AcDbXrecord
280
     1
102
RTVSPost2010Prop28
280
     0
102
RTVSPost2010PropOp28
 70
     1
102
RTVSPost2010Prop29
280
     1
102
RTVSPost2010PropOp29
 70
     1
102
RTVSPost2010Prop30
280
     1
102
RTVSPost2010PropOp30
 70
     1
102
RTVSPost2010Prop31
280
     0
102
RTVSPost2010PropOp31
 70
     1
102
RTVSPost2010Prop32
280
     0
102
RTVSPost2010PropOp32
 70
     1
102
RTVSPost2010Prop33
280
     0
102
RTVSPost2010PropOp33
 70
     1
102
RTVSPost2010Prop34
280
     0
102
RTVSPost2010PropOp34
 70
     1
102
RTVSPost2010Prop35
280
     0
102
RTVSPost2010PropOp35
 70
     1
102
RTVSPost2010Prop36
280
     0
102
RTVSPost2010PropOp36
 70
     1
102
RTVSPost2010Prop37
 90
       50
102
RTVSPost2010PropOp37
 70
     1
102
RTVSPost2010Prop38
140
0.0
102
RTVSPost2010PropOp38
 70
     1
102
RTVSPost2010Prop39
140
1.0
102
RTVSPost2010PropOp39
 70
     1
102
RTVSPost2010Prop40
 90
        0
102
RTVSPost2010PropOp40
 70
     1
102
RTVSPost2010Prop41ColorIndex
 90
       18
102
RTVSPost2010Prop41ColorRGB
 90
        0
102
RTVSPost2010PropOp41
 70
     1
102
RTVSPost2010Prop42
 90
       50
102
RTVSPost2010PropOp42
 70
     1
102
RTVSPost2010Prop43
 90
        3
102
RTVSPost2010PropOp43
 70
     1
102
RTVSPost2010Prop44ColorIndex
 90
        5
102
RTVSPost2010Prop44ColorRGB
 90
      255
102
RTVSPost2010PropOp44
 70
     1
102
RTVSPost2010Prop45
280
     0
102
RTVSPost2010PropOp45
 70
     1
102
RTVSPost2010Prop46
 90
       50
102
RTVSPost2010PropOp46
 70
     1
102
RTVSPost2010Prop47
 90
       50
102
RTVSPost2010PropOp47
 70
     1
102
RTVSPost2010Prop48
 90
       50
102
RTVSPost2010PropOp48
 70
     1
102
RTVSPost2010Prop49
280
     0
102
RTVSPost2010PropOp49
 70
     1
102
RTVSPost2010Prop50
 90
       50
102
RTVSPost2010PropOp50
 70
     1
102
RTVSPost2010Prop51ColorIndex
 90
      256
102
RTVSPost2010Prop51ColorRGB
 90
-16777216
102
RTVSPost2010PropOp51
 70
     0
102
RTVSPost2010Prop52
140
1.0
102
RTVSPost2010PropOp52
 70
     0
102
RTVSPost2010Prop53
 90
        2
102
RTVSPost2010PropOp53
 70
     1
102
RTVSPost2010Prop54
  1
strokes_ogs.tif
102
RTVSPost2010PropOp54
 70
     1
102
RTVSPost2010Prop55
280
     0
102
RTVSPost2010PropOp55
 70
     1
102
RTVSPost2010Prop56
140
1.0
102
RTVSPost2010PropOp56
 70
     1
102
RTVSPost2010Prop57
140
1.0
102
RTVSPost2010PropOp57
 70
     1
102
RTVSPropertyOp0
 70
     1
102
RTVSPropertyOp1
 70
     1
102
RTVSPropertyOp2
 70
     1
102
RTVSPropertyOp3
 70
     1
102
RTVSPropertyOp4
 70
     1
102
RTVSPropertyOp5
 70
     1
102
RTVSPropertyOp6
 70
     1
102
RTVSPropertyOp7
 70
     1
102
RTVSPropertyOp8
 70
     1
102
RTVSPropertyOp9
 70
     1
102
RTVSPropertyOp10
 70
     1
102
RTVSPropertyOp11
 70
     1
102
RTVSPropertyOp12
 70
     1
102
RTVSPropertyOp13
 70
     1
102
RTVSPropertyOp14
 70
     1
102
RTVSPropertyOp15
 70
     1
102
RTVSPropertyOp16
 70
     1
102
RTVSPropertyOp17
 70
     1
102
RTVSPropertyOp18
 70
     1
102
RTVSPropertyOp19
 70
     1
102
RTVSPropertyOp20
 70
     1
102
RTVSPropertyOp21
 70
     1
102
RTVSPropertyOp22
 70
     1
102
RTVSPropertyOp23
 70
     1
102
RTVSPropertyOp24
 70
     1
102
RTVSPropertyOp25
 70
     1
102
RTVSPropertyOp26
 70
     1
102
RTVSPropertyOp27
 70
     1
102
RTVSPropertyOp28
 70
     1
102
RTVSPropertyOp29
 70
     1
102
RTVSPropertyOp30
 70
     1
102
RTVSPropertyOp31
 70
     1
102
RTVSPropertyOp32
 70
     1
102
RTVSPropertyOp33
 70
     1
102
RTVSPropertyOp34
 70
     1
102
RTVSPropertyOp35
 70
     1
102
RTVSPropertyOp36
 70
     1
102
RTVSPropertyOp37
 70
     1
102
RTVSPropertyOp38
 70
     1
102
RTVSPropertyOp39
 70
     1
102
RTVSPropertyOp40
 70
     1
102
RTVSPropertyOp41
 70
     1
102
RTVSPropertyOp42
 70
     1
102
RTVSPropertyOp43
 70
     1
102
RTVSPropertyOp44
 70
     1
102
RTVSPropertyOp45
 70
     1
102
RTVSPropertyOp46
 70
     1
102
RTVSPropertyOp47
 70
     1
102
RTVSPropertyOp48
 70
     1
102
RTVSPropertyOp49
 70
     1
102
RTVSPropertyOp50
 70
     1
102
RTVSPropertyOp51
 70
     0
102
RTVSPropertyOp52
 70
     0
102
RTVSPropertyOp53
 70
     1
102
RTVSPropertyOp54
 70
     1
102
RTVSPropertyOp55
 70
     1
102
RTVSPropertyOp56
 70
     1
102
RTVSPropertyOp57
 70
     1
102
RTVSPropertyOp58
 70
     1
102
RTVSPropertyOp59
 70
     1
102
RTVSPropertyOp60
 70
     1
102
RTVSPropertyOp61
 70
     1
102
RTVSPropertyOp62
 70
     1
  0
XRECORD
  5
2DD3
102
{ACAD_REACTORS
330
2DD2
102
}
330
2DD2
100
AcDbXrecord
280
     1
102
RTVSPost2010Prop28
280
     0
102
RTVSPost2010PropOp28
 70
     1
102
RTVSPost2010Prop29
280
     1
102
RTVSPost2010PropOp29
 70
     1
102
RTVSPost2010Prop30
280
     1
102
RTVSPost2010PropOp30
 70
     1
102
RTVSPost2010Prop31
280
     0
102
RTVSPost2010PropOp31
 70
     1
102
RTVSPost2010Prop32
280
     0
102
RTVSPost2010PropOp32
 70
     1
102
RTVSPost2010Prop33
280
     0
102
RTVSPost2010PropOp33
 70
     1
102
RTVSPost2010Prop34
280
     0
102
RTVSPost2010PropOp34
 70
     1
102
RTVSPost2010Prop35
280
     0
102
RTVSPost2010PropOp35
 70
     1
102
RTVSPost2010Prop36
280
     0
102
RTVSPost2010PropOp36
 70
     1
102
RTVSPost2010Prop37
 90
       50
102
RTVSPost2010PropOp37
 70
     1
102
RTVSPost2010Prop38
140
0.0
102
RTVSPost2010PropOp38
 70
     1
102
RTVSPost2010Prop39
140
1.0
102
RTVSPost2010PropOp39
 70
     1
102
RTVSPost2010Prop40
 90
        0
102
RTVSPost2010PropOp40
 70
     1
102
RTVSPost2010Prop41ColorIndex
 90
       18
102
RTVSPost2010Prop41ColorRGB
 90
        0
102
RTVSPost2010PropOp41
 70
     1
102
RTVSPost2010Prop42
 90
       50
102
RTVSPost2010PropOp42
 70
     1
102
RTVSPost2010Prop43
 90
        3
102
RTVSPost2010PropOp43
 70
     1
102
RTVSPost2010Prop44ColorIndex
 90
        5
102
RTVSPost2010Prop44ColorRGB
 90
      255
102
RTVSPost2010PropOp44
 70
     1
102
RTVSPost2010Prop45
280
     0
102
RTVSPost2010PropOp45
 70
     1
102
RTVSPost2010Prop46
 90
       50
102
RTVSPost2010PropOp46
 70
     1
102
RTVSPost2010Prop47
 90
       50
102
RTVSPost2010PropOp47
 70
     1
102
RTVSPost2010Prop48
 90
       50
102
RTVSPost2010PropOp48
 70
     1
102
RTVSPost2010Prop49
280
     0
102
RTVSPost2010PropOp49
 70
     1
102
RTVSPost2010Prop50
 90
       50
102
RTVSPost2010PropOp50
 70
     1
102
RTVSPost2010Prop51ColorIndex
 90
      256
102
RTVSPost2010Prop51ColorRGB
 90
-16777216
102
RTVSPost2010PropOp51
 70
     0
102
RTVSPost2010Prop52
140
1.0
102
RTVSPost2010PropOp52
 70
     0
102
RTVSPost2010Prop53
 90
        2
102
RTVSPost2010PropOp53
 70
     1
102
RTVSPost2010Prop54
  1
strokes_ogs.tif
102
RTVSPost2010PropOp54
 70
     1
102
RTVSPost2010Prop55
280
     0
102
RTVSPost2010PropOp55
 70
     1
102
RTVSPost2010Prop56
140
1.0
102
RTVSPost2010PropOp56
 70
     1
102
RTVSPost2010Prop57
140
1.0
102
RTVSPost2010PropOp57
 70
     1
102
RTVSPropertyOp0
 70
     1
102
RTVSPropertyOp1
 70
     1
102
RTVSPropertyOp2
 70
     1
102
RTVSPropertyOp3
 70
     1
102
RTVSPropertyOp4
 70
     1
102
RTVSPropertyOp5
 70
     1
102
RTVSPropertyOp6
 70
     1
102
RTVSPropertyOp7
 70
     1
102
RTVSPropertyOp8
 70
     1
102
RTVSPropertyOp9
 70
     1
102
RTVSPropertyOp10
 70
     1
102
RTVSPropertyOp11
 70
     1
102
RTVSPropertyOp12
 70
     1
102
RTVSPropertyOp13
 70
     1
102
RTVSPropertyOp14
 70
     1
102
RTVSPropertyOp15
 70
     1
102
RTVSPropertyOp16
 70
     1
102
RTVSPropertyOp17
 70
     1
102
RTVSPropertyOp18
 70
     1
102
RTVSPropertyOp19
 70
     1
102
RTVSPropertyOp20
 70
     1
102
RTVSPropertyOp21
 70
     1
102
RTVSPropertyOp22
 70
     1
102
RTVSPropertyOp23
 70
     1
102
RTVSPropertyOp24
 70
     1
102
RTVSPropertyOp25
 70
     1
102
RTVSPropertyOp26
 70
     1
102
RTVSPropertyOp27
 70
     1
102
RTVSPropertyOp28
 70
     1
102
RTVSPropertyOp29
 70
     1
102
RTVSPropertyOp30
 70
     1
102
RTVSPropertyOp31
 70
     1
102
RTVSPropertyOp32
 70
     1
102
RTVSPropertyOp33
 70
     1
102
RTVSPropertyOp34
 70
     1
102
RTVSPropertyOp35
 70
     1
102
RTVSPropertyOp36
 70
     1
102
RTVSPropertyOp37
 70
     1
102
RTVSPropertyOp38
 70
     1
102
RTVSPropertyOp39
 70
     1
102
RTVSPropertyOp40
 70
     1
102
RTVSPropertyOp41
 70
     1
102
RTVSPropertyOp42
 70
     1
102
RTVSPropertyOp43
 70
     1
102
RTVSPropertyOp44
 70
     1
102
RTVSPropertyOp45
 70
     1
102
RTVSPropertyOp46
 70
     1
102
RTVSPropertyOp47
 70
     1
102
RTVSPropertyOp48
 70
     1
102
RTVSPropertyOp49
 70
     1
102
RTVSPropertyOp50
 70
     1
102
RTVSPropertyOp51
 70
     0
102
RTVSPropertyOp52
 70
     0
102
RTVSPropertyOp53
 70
     1
102
RTVSPropertyOp54
 70
     1
102
RTVSPropertyOp55
 70
     1
102
RTVSPropertyOp56
 70
     1
102
RTVSPropertyOp57
 70
     1
102
RTVSPropertyOp58
 70
     1
102
RTVSPropertyOp59
 70
     1
102
RTVSPropertyOp60
 70
     1
102
RTVSPropertyOp61
 70
     1
102
RTVSPropertyOp62
 70
     1
  0
XRECORD
  5
2DDB
102
{ACAD_REACTORS
330
2DDA
102
}
330
2DDA
100
AcDbXrecord
280
     1
102
RTVSPost2010Prop28
280
     0
102
RTVSPost2010PropOp28
 70
     1
102
RTVSPost2010Prop29
280
     1
102
RTVSPost2010PropOp29
 70
     1
102
RTVSPost2010Prop30
280
     1
102
RTVSPost2010PropOp30
 70
     1
102
RTVSPost2010Prop31
280
     0
102
RTVSPost2010PropOp31
 70
     1
102
RTVSPost2010Prop32
280
     0
102
RTVSPost2010PropOp32
 70
     1
102
RTVSPost2010Prop33
280
     0
102
RTVSPost2010PropOp33
 70
     1
102
RTVSPost2010Prop34
280
     0
102
RTVSPost2010PropOp34
 70
     1
102
RTVSPost2010Prop35
280
     0
102
RTVSPost2010PropOp35
 70
     1
102
RTVSPost2010Prop36
280
     0
102
RTVSPost2010PropOp36
 70
     1
102
RTVSPost2010Prop37
 90
       50
102
RTVSPost2010PropOp37
 70
     1
102
RTVSPost2010Prop38
140
0.0
102
RTVSPost2010PropOp38
 70
     1
102
RTVSPost2010Prop39
140
1.0
102
RTVSPost2010PropOp39
 70
     1
102
RTVSPost2010Prop40
 90
        0
102
RTVSPost2010PropOp40
 70
     1
102
RTVSPost2010Prop41ColorIndex
 90
       18
102
RTVSPost2010Prop41ColorRGB
 90
        0
102
RTVSPost2010PropOp41
 70
     1
102
RTVSPost2010Prop42
 90
       50
102
RTVSPost2010PropOp42
 70
     1
102
RTVSPost2010Prop43
 90
        3
102
RTVSPost2010PropOp43
 70
     1
102
RTVSPost2010Prop44ColorIndex
 90
        5
102
RTVSPost2010Prop44ColorRGB
 90
      255
102
RTVSPost2010PropOp44
 70
     1
102
RTVSPost2010Prop45
280
     0
102
RTVSPost2010PropOp45
 70
     1
102
RTVSPost2010Prop46
 90
       50
102
RTVSPost2010PropOp46
 70
     1
102
RTVSPost2010Prop47
 90
       50
102
RTVSPost2010PropOp47
 70
     1
102
RTVSPost2010Prop48
 90
       50
102
RTVSPost2010PropOp48
 70
     1
102
RTVSPost2010Prop49
280
     0
102
RTVSPost2010PropOp49
 70
     1
102
RTVSPost2010Prop50
 90
       50
102
RTVSPost2010PropOp50
 70
     1
102
RTVSPost2010Prop51ColorIndex
 90
      256
102
RTVSPost2010Prop51ColorRGB
 90
-16777216
102
RTVSPost2010PropOp51
 70
     0
102
RTVSPost2010Prop52
140
1.0
102
RTVSPost2010PropOp52
 70
     0
102
RTVSPost2010Prop53
 90
        2
102
RTVSPost2010PropOp53
 70
     1
102
RTVSPost2010Prop54
  1
strokes_ogs.tif
102
RTVSPost2010PropOp54
 70
     1
102
RTVSPost2010Prop55
280
     0
102
RTVSPost2010PropOp55
 70
     1
102
RTVSPost2010Prop56
140
1.0
102
RTVSPost2010PropOp56
 70
     1
102
RTVSPost2010Prop57
140
1.0
102
RTVSPost2010PropOp57
 70
     1
102
RTVSPropertyOp0
 70
     1
102
RTVSPropertyOp1
 70
     1
102
RTVSPropertyOp2
 70
     1
102
RTVSPropertyOp3
 70
     1
102
RTVSPropertyOp4
 70
     1
102
RTVSPropertyOp5
 70
     1
102
RTVSPropertyOp6
 70
     1
102
RTVSPropertyOp7
 70
     1
102
RTVSPropertyOp8
 70
     1
102
RTVSPropertyOp9
 70
     1
102
RTVSPropertyOp10
 70
     1
102
RTVSPropertyOp11
 70
     1
102
RTVSPropertyOp12
 70
     1
102
RTVSPropertyOp13
 70
     1
102
RTVSPropertyOp14
 70
     1
102
RTVSPropertyOp15
 70
     1
102
RTVSPropertyOp16
 70
     1
102
RTVSPropertyOp17
 70
     1
102
RTVSPropertyOp18
 70
     1
102
RTVSPropertyOp19
 70
     1
102
RTVSPropertyOp20
 70
     1
102
RTVSPropertyOp21
 70
     1
102
RTVSPropertyOp22
 70
     1
102
RTVSPropertyOp23
 70
     1
102
RTVSPropertyOp24
 70
     1
102
RTVSPropertyOp25
 70
     1
102
RTVSPropertyOp26
 70
     1
102
RTVSPropertyOp27
 70
     1
102
RTVSPropertyOp28
 70
     1
102
RTVSPropertyOp29
 70
     1
102
RTVSPropertyOp30
 70
     1
102
RTVSPropertyOp31
 70
     1
102
RTVSPropertyOp32
 70
     1
102
RTVSPropertyOp33
 70
     1
102
RTVSPropertyOp34
 70
     1
102
RTVSPropertyOp35
 70
     1
102
RTVSPropertyOp36
 70
     1
102
RTVSPropertyOp37
 70
     1
102
RTVSPropertyOp38
 70
     1
102
RTVSPropertyOp39
 70
     1
102
RTVSPropertyOp40
 70
     1
102
RTVSPropertyOp41
 70
     1
102
RTVSPropertyOp42
 70
     1
102
RTVSPropertyOp43
 70
     1
102
RTVSPropertyOp44
 70
     1
102
RTVSPropertyOp45
 70
     1
102
RTVSPropertyOp46
 70
     1
102
RTVSPropertyOp47
 70
     1
102
RTVSPropertyOp48
 70
     1
102
RTVSPropertyOp49
 70
     1
102
RTVSPropertyOp50
 70
     1
102
RTVSPropertyOp51
 70
     0
102
RTVSPropertyOp52
 70
     0
102
RTVSPropertyOp53
 70
     1
102
RTVSPropertyOp54
 70
     1
102
RTVSPropertyOp55
 70
     1
102
RTVSPropertyOp56
 70
     1
102
RTVSPropertyOp57
 70
     1
102
RTVSPropertyOp58
 70
     1
102
RTVSPropertyOp59
 70
     1
102
RTVSPropertyOp60
 70
     1
102
RTVSPropertyOp61
 70
     1
102
RTVSPropertyOp62
 70
     1
  0
XRECORD
  5
2DEF
102
{ACAD_REACTORS
330
2DEE
102
}
330
2DEE
100
AcDbXrecord
280
     1
102
RTVSPost2010Prop28
280
     0
102
RTVSPost2010PropOp28
 70
     1
102
RTVSPost2010Prop29
280
     1
102
RTVSPost2010PropOp29
 70
     1
102
RTVSPost2010Prop30
280
     1
102
RTVSPost2010PropOp30
 70
     1
102
RTVSPost2010Prop31
280
     0
102
RTVSPost2010PropOp31
 70
     1
102
RTVSPost2010Prop32
280
     0
102
RTVSPost2010PropOp32
 70
     1
102
RTVSPost2010Prop33
280
     0
102
RTVSPost2010PropOp33
 70
     1
102
RTVSPost2010Prop34
280
     0
102
RTVSPost2010PropOp34
 70
     1
102
RTVSPost2010Prop35
280
     0
102
RTVSPost2010PropOp35
 70
     1
102
RTVSPost2010Prop36
280
     0
102
RTVSPost2010PropOp36
 70
     1
102
RTVSPost2010Prop37
 90
       50
102
RTVSPost2010PropOp37
 70
     1
102
RTVSPost2010Prop38
140
0.0
102
RTVSPost2010PropOp38
 70
     1
102
RTVSPost2010Prop39
140
1.0
102
RTVSPost2010PropOp39
 70
     1
102
RTVSPost2010Prop40
 90
        0
102
RTVSPost2010PropOp40
 70
     1
102
RTVSPost2010Prop41ColorIndex
 90
       18
102
RTVSPost2010Prop41ColorRGB
 90
        0
102
RTVSPost2010PropOp41
 70
     1
102
RTVSPost2010Prop42
 90
       50
102
RTVSPost2010PropOp42
 70
     1
102
RTVSPost2010Prop43
 90
        3
102
RTVSPost2010PropOp43
 70
     1
102
RTVSPost2010Prop44ColorIndex
 90
        5
102
RTVSPost2010Prop44ColorRGB
 90
      255
102
RTVSPost2010PropOp44
 70
     1
102
RTVSPost2010Prop45
280
     0
102
RTVSPost2010PropOp45
 70
     1
102
RTVSPost2010Prop46
 90
       50
102
RTVSPost2010PropOp46
 70
     1
102
RTVSPost2010Prop47
 90
       50
102
RTVSPost2010PropOp47
 70
     1
102
RTVSPost2010Prop48
 90
       50
102
RTVSPost2010PropOp48
 70
     1
102
RTVSPost2010Prop49
280
     0
102
RTVSPost2010PropOp49
 70
     1
102
RTVSPost2010Prop50
 90
       50
102
RTVSPost2010PropOp50
 70
     1
102
RTVSPost2010Prop51ColorIndex
 90
      256
102
RTVSPost2010Prop51ColorRGB
 90
-16777216
102
RTVSPost2010PropOp51
 70
     0
102
RTVSPost2010Prop52
140
1.0
102
RTVSPost2010PropOp52
 70
     0
102
RTVSPost2010Prop53
 90
        2
102
RTVSPost2010PropOp53
 70
     1
102
RTVSPost2010Prop54
  1
strokes_ogs.tif
102
RTVSPost2010PropOp54
 70
     1
102
RTVSPost2010Prop55
280
     0
102
RTVSPost2010PropOp55
 70
     1
102
RTVSPost2010Prop56
140
1.0
102
RTVSPost2010PropOp56
 70
     1
102
RTVSPost2010Prop57
140
1.0
102
RTVSPost2010PropOp57
 70
     1
102
RTVSPropertyOp0
 70
     0
102
RTVSPropertyOp1
 70
     0
102
RTVSPropertyOp2
 70
     0
102
RTVSPropertyOp3
 70
     0
102
RTVSPropertyOp4
 70
     0
102
RTVSPropertyOp5
 70
     0
102
RTVSPropertyOp6
 70
     0
102
RTVSPropertyOp7
 70
     0
102
RTVSPropertyOp8
 70
     0
102
RTVSPropertyOp9
 70
     0
102
RTVSPropertyOp10
 70
     0
102
RTVSPropertyOp11
 70
     0
102
RTVSPropertyOp12
 70
     0
102
RTVSPropertyOp13
 70
     0
102
RTVSPropertyOp14
 70
     2
102
RTVSPropertyOp15
 70
     0
102
RTVSPropertyOp16
 70
     0
102
RTVSPropertyOp17
 70
     0
102
RTVSPropertyOp18
 70
     0
102
RTVSPropertyOp19
 70
     0
102
RTVSPropertyOp20
 70
     0
102
RTVSPropertyOp21
 70
     0
102
RTVSPropertyOp22
 70
     0
102
RTVSPropertyOp23
 70
     0
102
RTVSPropertyOp24
 70
     0
102
RTVSPropertyOp25
 70
     0
102
RTVSPropertyOp26
 70
     0
102
RTVSPropertyOp27
 70
     0
102
RTVSPropertyOp28
 70
     1
102
RTVSPropertyOp29
 70
     1
102
RTVSPropertyOp30
 70
     1
102
RTVSPropertyOp31
 70
     1
102
RTVSPropertyOp32
 70
     1
102
RTVSPropertyOp33
 70
     1
102
RTVSPropertyOp34
 70
     1
102
RTVSPropertyOp35
 70
     1
102
RTVSPropertyOp36
 70
     1
102
RTVSPropertyOp37
 70
     1
102
RTVSPropertyOp38
 70
     1
102
RTVSPropertyOp39
 70
     1
102
RTVSPropertyOp40
 70
     1
102
RTVSPropertyOp41
 70
     1
102
RTVSPropertyOp42
 70
     1
102
RTVSPropertyOp43
 70
     1
102
RTVSPropertyOp44
 70
     1
102
RTVSPropertyOp45
 70
     1
102
RTVSPropertyOp46
 70
     1
102
RTVSPropertyOp47
 70
     1
102
RTVSPropertyOp48
 70
     1
102
RTVSPropertyOp49
 70
     1
102
RTVSPropertyOp50
 70
     1
102
RTVSPropertyOp51
 70
     0
102
RTVSPropertyOp52
 70
     0
102
RTVSPropertyOp53
 70
     1
102
RTVSPropertyOp54
 70
     1
102
RTVSPropertyOp55
 70
     1
102
RTVSPropertyOp56
 70
     1
102
RTVSPropertyOp57
 70
     1
102
RTVSPropertyOp58
 70
     1
102
RTVSPropertyOp59
 70
     1
102
RTVSPropertyOp60
 70
     1
102
RTVSPropertyOp61
 70
     1
102
RTVSPropertyOp62
 70
     1
  0
XRECORD
  5
2DE7
102
{ACAD_REACTORS
330
2DE6
102
}
330
2DE6
100
AcDbXrecord
280
     1
102
RTVSPost2010Prop28
280
     0
102
RTVSPost2010PropOp28
 70
     1
102
RTVSPost2010Prop29
280
     1
102
RTVSPost2010PropOp29
 70
     1
102
RTVSPost2010Prop30
280
     1
102
RTVSPost2010PropOp30
 70
     1
102
RTVSPost2010Prop31
280
     0
102
RTVSPost2010PropOp31
 70
     1
102
RTVSPost2010Prop32
280
     0
102
RTVSPost2010PropOp32
 70
     1
102
RTVSPost2010Prop33
280
     0
102
RTVSPost2010PropOp33
 70
     1
102
RTVSPost2010Prop34
280
     0
102
RTVSPost2010PropOp34
 70
     1
102
RTVSPost2010Prop35
280
     0
102
RTVSPost2010PropOp35
 70
     1
102
RTVSPost2010Prop36
280
     0
102
RTVSPost2010PropOp36
 70
     1
102
RTVSPost2010Prop37
 90
       50
102
RTVSPost2010PropOp37
 70
     1
102
RTVSPost2010Prop38
140
0.0
102
RTVSPost2010PropOp38
 70
     1
102
RTVSPost2010Prop39
140
1.0
102
RTVSPost2010PropOp39
 70
     1
102
RTVSPost2010Prop40
 90
        0
102
RTVSPost2010PropOp40
 70
     1
102
RTVSPost2010Prop41ColorIndex
 90
       18
102
RTVSPost2010Prop41ColorRGB
 90
        0
102
RTVSPost2010PropOp41
 70
     1
102
RTVSPost2010Prop42
 90
       50
102
RTVSPost2010PropOp42
 70
     1
102
RTVSPost2010Prop43
 90
        3
102
RTVSPost2010PropOp43
 70
     1
102
RTVSPost2010Prop44ColorIndex
 90
        5
102
RTVSPost2010Prop44ColorRGB
 90
      255
102
RTVSPost2010PropOp44
 70
     1
102
RTVSPost2010Prop45
280
     0
102
RTVSPost2010PropOp45
 70
     1
102
RTVSPost2010Prop46
 90
       50
102
RTVSPost2010PropOp46
 70
     1
102
RTVSPost2010Prop47
 90
       50
102
RTVSPost2010PropOp47
 70
     1
102
RTVSPost2010Prop48
 90
       50
102
RTVSPost2010PropOp48
 70
     1
102
RTVSPost2010Prop49
280
     0
102
RTVSPost2010PropOp49
 70
     1
102
RTVSPost2010Prop50
 90
       50
102
RTVSPost2010PropOp50
 70
     1
102
RTVSPost2010Prop51ColorIndex
 90
      256
102
RTVSPost2010Prop51ColorRGB
 90
-16777216
102
RTVSPost2010PropOp51
 70
     0
102
RTVSPost2010Prop52
140
1.0
102
RTVSPost2010PropOp52
 70
     0
102
RTVSPost2010Prop53
 90
        2
102
RTVSPost2010PropOp53
 70
     1
102
RTVSPost2010Prop54
  1
strokes_ogs.tif
102
RTVSPost2010PropOp54
 70
     1
102
RTVSPost2010Prop55
280
     0
102
RTVSPost2010PropOp55
 70
     1
102
RTVSPost2010Prop56
140
1.0
102
RTVSPost2010PropOp56
 70
     1
102
RTVSPost2010Prop57
140
1.0
102
RTVSPost2010PropOp57
 70
     1
102
RTVSPropertyOp0
 70
     1
102
RTVSPropertyOp1
 70
     1
102
RTVSPropertyOp2
 70
     1
102
RTVSPropertyOp3
 70
     1
102
RTVSPropertyOp4
 70
     1
102
RTVSPropertyOp5
 70
     1
102
RTVSPropertyOp6
 70
     1
102
RTVSPropertyOp7
 70
     1
102
RTVSPropertyOp8
 70
     1
102
RTVSPropertyOp9
 70
     1
102
RTVSPropertyOp10
 70
     1
102
RTVSPropertyOp11
 70
     1
102
RTVSPropertyOp12
 70
     1
102
RTVSPropertyOp13
 70
     1
102
RTVSPropertyOp14
 70
     1
102
RTVSPropertyOp15
 70
     1
102
RTVSPropertyOp16
 70
     1
102
RTVSPropertyOp17
 70
     1
102
RTVSPropertyOp18
 70
     1
102
RTVSPropertyOp19
 70
     1
102
RTVSPropertyOp20
 70
     1
102
RTVSPropertyOp21
 70
     1
102
RTVSPropertyOp22
 70
     1
102
RTVSPropertyOp23
 70
     1
102
RTVSPropertyOp24
 70
     1
102
RTVSPropertyOp25
 70
     1
102
RTVSPropertyOp26
 70
     1
102
RTVSPropertyOp27
 70
     1
102
RTVSPropertyOp28
 70
     1
102
RTVSPropertyOp29
 70
     1
102
RTVSPropertyOp30
 70
     1
102
RTVSPropertyOp31
 70
     1
102
RTVSPropertyOp32
 70
     1
102
RTVSPropertyOp33
 70
     1
102
RTVSPropertyOp34
 70
     1
102
RTVSPropertyOp35
 70
     1
102
RTVSPropertyOp36
 70
     1
102
RTVSPropertyOp37
 70
     1
102
RTVSPropertyOp38
 70
     1
102
RTVSPropertyOp39
 70
     1
102
RTVSPropertyOp40
 70
     1
102
RTVSPropertyOp41
 70
     1
102
RTVSPropertyOp42
 70
     1
102
RTVSPropertyOp43
 70
     1
102
RTVSPropertyOp44
 70
     1
102
RTVSPropertyOp45
 70
     1
102
RTVSPropertyOp46
 70
     1
102
RTVSPropertyOp47
 70
     1
102
RTVSPropertyOp48
 70
     1
102
RTVSPropertyOp49
 70
     1
102
RTVSPropertyOp50
 70
     1
102
RTVSPropertyOp51
 70
     0
102
RTVSPropertyOp52
 70
     0
102
RTVSPropertyOp53
 70
     1
102
RTVSPropertyOp54
 70
     1
102
RTVSPropertyOp55
 70
     1
102
RTVSPropertyOp56
 70
     1
102
RTVSPropertyOp57
 70
     1
102
RTVSPropertyOp58
 70
     1
102
RTVSPropertyOp59
 70
     1
102
RTVSPropertyOp60
 70
     1
102
RTVSPropertyOp61
 70
     1
102
RTVSPropertyOp62
 70
     1
  0
XRECORD
  5
2DF1
102
{ACAD_REACTORS
330
2DF0
102
}
330
2DF0
100
AcDbXrecord
280
     1
102
RTVSPost2010Prop28
280
     0
102
RTVSPost2010PropOp28
 70
     1
102
RTVSPost2010Prop29
280
     1
102
RTVSPost2010PropOp29
 70
     1
102
RTVSPost2010Prop30
280
     1
102
RTVSPost2010PropOp30
 70
     1
102
RTVSPost2010Prop31
280
     0
102
RTVSPost2010PropOp31
 70
     1
102
RTVSPost2010Prop32
280
     0
102
RTVSPost2010PropOp32
 70
     1
102
RTVSPost2010Prop33
280
     0
102
RTVSPost2010PropOp33
 70
     1
102
RTVSPost2010Prop34
280
     0
102
RTVSPost2010PropOp34
 70
     1
102
RTVSPost2010Prop35
280
     0
102
RTVSPost2010PropOp35
 70
     1
102
RTVSPost2010Prop36
280
     0
102
RTVSPost2010PropOp36
 70
     1
102
RTVSPost2010Prop37
 90
       50
102
RTVSPost2010PropOp37
 70
     1
102
RTVSPost2010Prop38
140
0.0
102
RTVSPost2010PropOp38
 70
     1
102
RTVSPost2010Prop39
140
1.0
102
RTVSPost2010PropOp39
 70
     1
102
RTVSPost2010Prop40
 90
        0
102
RTVSPost2010PropOp40
 70
     1
102
RTVSPost2010Prop41ColorIndex
 90
       18
102
RTVSPost2010Prop41ColorRGB
 90
        0
102
RTVSPost2010PropOp41
 70
     1
102
RTVSPost2010Prop42
 90
       50
102
RTVSPost2010PropOp42
 70
     1
102
RTVSPost2010Prop43
 90
        3
102
RTVSPost2010PropOp43
 70
     1
102
RTVSPost2010Prop44ColorIndex
 90
        5
102
RTVSPost2010Prop44ColorRGB
 90
      255
102
RTVSPost2010PropOp44
 70
     1
102
RTVSPost2010Prop45
280
     0
102
RTVSPost2010PropOp45
 70
     1
102
RTVSPost2010Prop46
 90
       50
102
RTVSPost2010PropOp46
 70
     1
102
RTVSPost2010Prop47
 90
       50
102
RTVSPost2010PropOp47
 70
     1
102
RTVSPost2010Prop48
 90
       50
102
RTVSPost2010PropOp48
 70
     1
102
RTVSPost2010Prop49
280
     0
102
RTVSPost2010PropOp49
 70
     1
102
RTVSPost2010Prop50
 90
       50
102
RTVSPost2010PropOp50
 70
     1
102
RTVSPost2010Prop51ColorIndex
 90
      256
102
RTVSPost2010Prop51ColorRGB
 90
-16777216
102
RTVSPost2010PropOp51
 70
     0
102
RTVSPost2010Prop52
140
1.0
102
RTVSPost2010PropOp52
 70
     0
102
RTVSPost2010Prop53
 90
        2
102
RTVSPost2010PropOp53
 70
     1
102
RTVSPost2010Prop54
  1
strokes_ogs.tif
102
RTVSPost2010PropOp54
 70
     1
102
RTVSPost2010Prop55
280
     0
102
RTVSPost2010PropOp55
 70
     1
102
RTVSPost2010Prop56
140
1.0
102
RTVSPost2010PropOp56
 70
     1
102
RTVSPost2010Prop57
140
1.0
102
RTVSPost2010PropOp57
 70
     1
102
RTVSPropertyOp0
 70
     0
102
RTVSPropertyOp1
 70
     0
102
RTVSPropertyOp2
 70
     0
102
RTVSPropertyOp3
 70
     0
102
RTVSPropertyOp4
 70
     0
102
RTVSPropertyOp5
 70
     0
102
RTVSPropertyOp6
 70
     0
102
RTVSPropertyOp7
 70
     0
102
RTVSPropertyOp8
 70
     0
102
RTVSPropertyOp9
 70
     0
102
RTVSPropertyOp10
 70
     0
102
RTVSPropertyOp11
 70
     0
102
RTVSPropertyOp12
 70
     0
102
RTVSPropertyOp13
 70
     0
102
RTVSPropertyOp14
 70
     2
102
RTVSPropertyOp15
 70
     0
102
RTVSPropertyOp16
 70
     0
102
RTVSPropertyOp17
 70
     0
102
RTVSPropertyOp18
 70
     0
102
RTVSPropertyOp19
 70
     0
102
RTVSPropertyOp20
 70
     0
102
RTVSPropertyOp21
 70
     0
102
RTVSPropertyOp22
 70
     0
102
RTVSPropertyOp23
 70
     0
102
RTVSPropertyOp24
 70
     0
102
RTVSPropertyOp25
 70
     0
102
RTVSPropertyOp26
 70
     0
102
RTVSPropertyOp27
 70
     0
102
RTVSPropertyOp28
 70
     1
102
RTVSPropertyOp29
 70
     1
102
RTVSPropertyOp30
 70
     1
102
RTVSPropertyOp31
 70
     1
102
RTVSPropertyOp32
 70
     1
102
RTVSPropertyOp33
 70
     1
102
RTVSPropertyOp34
 70
     1
102
RTVSPropertyOp35
 70
     1
102
RTVSPropertyOp36
 70
     1
102
RTVSPropertyOp37
 70
     1
102
RTVSPropertyOp38
 70
     1
102
RTVSPropertyOp39
 70
     1
102
RTVSPropertyOp40
 70
     1
102
RTVSPropertyOp41
 70
     1
102
RTVSPropertyOp42
 70
     1
102
RTVSPropertyOp43
 70
     1
102
RTVSPropertyOp44
 70
     1
102
RTVSPropertyOp45
 70
     1
102
RTVSPropertyOp46
 70
     1
102
RTVSPropertyOp47
 70
     1
102
RTVSPropertyOp48
 70
     1
102
RTVSPropertyOp49
 70
     1
102
RTVSPropertyOp50
 70
     1
102
RTVSPropertyOp51
 70
     0
102
RTVSPropertyOp52
 70
     0
102
RTVSPropertyOp53
 70
     1
102
RTVSPropertyOp54
 70
     1
102
RTVSPropertyOp55
 70
     1
102
RTVSPropertyOp56
 70
     1
102
RTVSPropertyOp57
 70
     1
102
RTVSPropertyOp58
 70
     1
102
RTVSPropertyOp59
 70
     1
102
RTVSPropertyOp60
 70
     1
102
RTVSPropertyOp61
 70
     1
102
RTVSPropertyOp62
 70
     1
  0
XRECORD
  5
2DDF
102
{ACAD_REACTORS
330
2DDE
102
}
330
2DDE
100
AcDbXrecord
280
     1
102
RTVSPost2010Prop28
280
     0
102
RTVSPost2010PropOp28
 70
     1
102
RTVSPost2010Prop29
280
     1
102
RTVSPost2010PropOp29
 70
     1
102
RTVSPost2010Prop30
280
     1
102
RTVSPost2010PropOp30
 70
     1
102
RTVSPost2010Prop31
280
     0
102
RTVSPost2010PropOp31
 70
     1
102
RTVSPost2010Prop32
280
     0
102
RTVSPost2010PropOp32
 70
     1
102
RTVSPost2010Prop33
280
     0
102
RTVSPost2010PropOp33
 70
     1
102
RTVSPost2010Prop34
280
     0
102
RTVSPost2010PropOp34
 70
     1
102
RTVSPost2010Prop35
280
     0
102
RTVSPost2010PropOp35
 70
     1
102
RTVSPost2010Prop36
280
     0
102
RTVSPost2010PropOp36
 70
     1
102
RTVSPost2010Prop37
 90
       50
102
RTVSPost2010PropOp37
 70
     1
102
RTVSPost2010Prop38
140
0.0
102
RTVSPost2010PropOp38
 70
     1
102
RTVSPost2010Prop39
140
1.0
102
RTVSPost2010PropOp39
 70
     1
102
RTVSPost2010Prop40
 90
        0
102
RTVSPost2010PropOp40
 70
     1
102
RTVSPost2010Prop41ColorIndex
 90
       18
102
RTVSPost2010Prop41ColorRGB
 90
        0
102
RTVSPost2010PropOp41
 70
     1
102
RTVSPost2010Prop42
 90
       50
102
RTVSPost2010PropOp42
 70
     1
102
RTVSPost2010Prop43
 90
        3
102
RTVSPost2010PropOp43
 70
     1
102
RTVSPost2010Prop44ColorIndex
 90
        5
102
RTVSPost2010Prop44ColorRGB
 90
      255
102
RTVSPost2010PropOp44
 70
     1
102
RTVSPost2010Prop45
280
     0
102
RTVSPost2010PropOp45
 70
     1
102
RTVSPost2010Prop46
 90
       50
102
RTVSPost2010PropOp46
 70
     1
102
RTVSPost2010Prop47
 90
       50
102
RTVSPost2010PropOp47
 70
     1
102
RTVSPost2010Prop48
 90
       50
102
RTVSPost2010PropOp48
 70
     1
102
RTVSPost2010Prop49
280
     0
102
RTVSPost2010PropOp49
 70
     1
102
RTVSPost2010Prop50
 90
       50
102
RTVSPost2010PropOp50
 70
     1
102
RTVSPost2010Prop51ColorIndex
 90
      256
102
RTVSPost2010Prop51ColorRGB
 90
-16777216
102
RTVSPost2010PropOp51
 70
     0
102
RTVSPost2010Prop52
140
1.0
102
RTVSPost2010PropOp52
 70
     0
102
RTVSPost2010Prop53
 90
        2
102
RTVSPost2010PropOp53
 70
     1
102
RTVSPost2010Prop54
  1
strokes_ogs.tif
102
RTVSPost2010PropOp54
 70
     1
102
RTVSPost2010Prop55
280
     0
102
RTVSPost2010PropOp55
 70
     1
102
RTVSPost2010Prop56
140
1.0
102
RTVSPost2010PropOp56
 70
     1
102
RTVSPost2010Prop57
140
1.0
102
RTVSPost2010PropOp57
 70
     1
102
RTVSPropertyOp0
 70
     1
102
RTVSPropertyOp1
 70
     1
102
RTVSPropertyOp2
 70
     1
102
RTVSPropertyOp3
 70
     1
102
RTVSPropertyOp4
 70
     1
102
RTVSPropertyOp5
 70
     1
102
RTVSPropertyOp6
 70
     1
102
RTVSPropertyOp7
 70
     1
102
RTVSPropertyOp8
 70
     1
102
RTVSPropertyOp9
 70
     1
102
RTVSPropertyOp10
 70
     1
102
RTVSPropertyOp11
 70
     1
102
RTVSPropertyOp12
 70
     1
102
RTVSPropertyOp13
 70
     1
102
RTVSPropertyOp14
 70
     1
102
RTVSPropertyOp15
 70
     1
102
RTVSPropertyOp16
 70
     1
102
RTVSPropertyOp17
 70
     1
102
RTVSPropertyOp18
 70
     1
102
RTVSPropertyOp19
 70
     1
102
RTVSPropertyOp20
 70
     1
102
RTVSPropertyOp21
 70
     1
102
RTVSPropertyOp22
 70
     1
102
RTVSPropertyOp23
 70
     1
102
RTVSPropertyOp24
 70
     1
102
RTVSPropertyOp25
 70
     1
102
RTVSPropertyOp26
 70
     1
102
RTVSPropertyOp27
 70
     1
102
RTVSPropertyOp28
 70
     1
102
RTVSPropertyOp29
 70
     1
102
RTVSPropertyOp30
 70
     1
102
RTVSPropertyOp31
 70
     1
102
RTVSPropertyOp32
 70
     1
102
RTVSPropertyOp33
 70
     1
102
RTVSPropertyOp34
 70
     1
102
RTVSPropertyOp35
 70
     1
102
RTVSPropertyOp36
 70
     1
102
RTVSPropertyOp37
 70
     1
102
RTVSPropertyOp38
 70
     1
102
RTVSPropertyOp39
 70
     1
102
RTVSPropertyOp40
 70
     1
102
RTVSPropertyOp41
 70
     1
102
RTVSPropertyOp42
 70
     1
102
RTVSPropertyOp43
 70
     1
102
RTVSPropertyOp44
 70
     1
102
RTVSPropertyOp45
 70
     1
102
RTVSPropertyOp46
 70
     1
102
RTVSPropertyOp47
 70
     1
102
RTVSPropertyOp48
 70
     1
102
RTVSPropertyOp49
 70
     1
102
RTVSPropertyOp50
 70
     1
102
RTVSPropertyOp51
 70
     0
102
RTVSPropertyOp52
 70
     0
102
RTVSPropertyOp53
 70
     1
102
RTVSPropertyOp54
 70
     1
102
RTVSPropertyOp55
 70
     1
102
RTVSPropertyOp56
 70
     1
102
RTVSPropertyOp57
 70
     1
102
RTVSPropertyOp58
 70
     1
102
RTVSPropertyOp59
 70
     1
102
RTVSPropertyOp60
 70
     1
102
RTVSPropertyOp61
 70
     1
102
RTVSPropertyOp62
 70
     1
  0
XRECORD
  5
2DFD
102
{ACAD_REACTORS
330
2DFC
102
}
330
2DFC
100
AcDbXrecord
280
     1
102
RTVSPost2010Prop28
280
     0
102
RTVSPost2010PropOp28
 70
     1
102
RTVSPost2010Prop29
280
     1
102
RTVSPost2010PropOp29
 70
     1
102
RTVSPost2010Prop30
280
     1
102
RTVSPost2010PropOp30
 70
     1
102
RTVSPost2010Prop31
280
     0
102
RTVSPost2010PropOp31
 70
     1
102
RTVSPost2010Prop32
280
     0
102
RTVSPost2010PropOp32
 70
     1
102
RTVSPost2010Prop33
280
     0
102
RTVSPost2010PropOp33
 70
     1
102
RTVSPost2010Prop34
280
     0
102
RTVSPost2010PropOp34
 70
     1
102
RTVSPost2010Prop35
280
     0
102
RTVSPost2010PropOp35
 70
     1
102
RTVSPost2010Prop36
280
     0
102
RTVSPost2010PropOp36
 70
     1
102
RTVSPost2010Prop37
 90
       50
102
RTVSPost2010PropOp37
 70
     1
102
RTVSPost2010Prop38
140
0.0
102
RTVSPost2010PropOp38
 70
     1
102
RTVSPost2010Prop39
140
1.0
102
RTVSPost2010PropOp39
 70
     1
102
RTVSPost2010Prop40
 90
        0
102
RTVSPost2010PropOp40
 70
     1
102
RTVSPost2010Prop41ColorIndex
 90
       18
102
RTVSPost2010Prop41ColorRGB
 90
        0
102
RTVSPost2010PropOp41
 70
     1
102
RTVSPost2010Prop42
 90
       50
102
RTVSPost2010PropOp42
 70
     1
102
RTVSPost2010Prop43
 90
        3
102
RTVSPost2010PropOp43
 70
     1
102
RTVSPost2010Prop44ColorIndex
 90
        5
102
RTVSPost2010Prop44ColorRGB
 90
      255
102
RTVSPost2010PropOp44
 70
     1
102
RTVSPost2010Prop45
280
     0
102
RTVSPost2010PropOp45
 70
     1
102
RTVSPost2010Prop46
 90
       50
102
RTVSPost2010PropOp46
 70
     1
102
RTVSPost2010Prop47
 90
       50
102
RTVSPost2010PropOp47
 70
     1
102
RTVSPost2010Prop48
 90
       50
102
RTVSPost2010PropOp48
 70
     1
102
RTVSPost2010Prop49
280
     0
102
RTVSPost2010PropOp49
 70
     1
102
RTVSPost2010Prop50
 90
       50
102
RTVSPost2010PropOp50
 70
     1
102
RTVSPost2010Prop51ColorIndex
 90
      256
102
RTVSPost2010Prop51ColorRGB
 90
-16777216
102
RTVSPost2010PropOp51
 70
     0
102
RTVSPost2010Prop52
140
1.0
102
RTVSPost2010PropOp52
 70
     0
102
RTVSPost2010Prop53
 90
        2
102
RTVSPost2010PropOp53
 70
     1
102
RTVSPost2010Prop54
  1
strokes_ogs.tif
102
RTVSPost2010PropOp54
 70
     1
102
RTVSPost2010Prop55
280
     0
102
RTVSPost2010PropOp55
 70
     1
102
RTVSPost2010Prop56
140
1.0
102
RTVSPost2010PropOp56
 70
     1
102
RTVSPost2010Prop57
140
1.0
102
RTVSPost2010PropOp57
 70
     1
102
RTVSPropertyOp0
 70
     1
102
RTVSPropertyOp1
 70
     1
102
RTVSPropertyOp2
 70
     1
102
RTVSPropertyOp3
 70
     1
102
RTVSPropertyOp4
 70
     1
102
RTVSPropertyOp5
 70
     1
102
RTVSPropertyOp6
 70
     1
102
RTVSPropertyOp7
 70
     1
102
RTVSPropertyOp8
 70
     1
102
RTVSPropertyOp9
 70
     1
102
RTVSPropertyOp10
 70
     1
102
RTVSPropertyOp11
 70
     1
102
RTVSPropertyOp12
 70
     1
102
RTVSPropertyOp13
 70
     1
102
RTVSPropertyOp14
 70
     1
102
RTVSPropertyOp15
 70
     1
102
RTVSPropertyOp16
 70
     1
102
RTVSPropertyOp17
 70
     1
102
RTVSPropertyOp18
 70
     1
102
RTVSPropertyOp19
 70
     1
102
RTVSPropertyOp20
 70
     1
102
RTVSPropertyOp21
 70
     1
102
RTVSPropertyOp22
 70
     1
102
RTVSPropertyOp23
 70
     1
102
RTVSPropertyOp24
 70
     1
102
RTVSPropertyOp25
 70
     1
102
RTVSPropertyOp26
 70
     1
102
RTVSPropertyOp27
 70
     1
102
RTVSPropertyOp28
 70
     1
102
RTVSPropertyOp29
 70
     1
102
RTVSPropertyOp30
 70
     1
102
RTVSPropertyOp31
 70
     1
102
RTVSPropertyOp32
 70
     1
102
RTVSPropertyOp33
 70
     1
102
RTVSPropertyOp34
 70
     1
102
RTVSPropertyOp35
 70
     1
102
RTVSPropertyOp36
 70
     1
102
RTVSPropertyOp37
 70
     1
102
RTVSPropertyOp38
 70
     1
102
RTVSPropertyOp39
 70
     1
102
RTVSPropertyOp40
 70
     1
102
RTVSPropertyOp41
 70
     1
102
RTVSPropertyOp42
 70
     1
102
RTVSPropertyOp43
 70
     1
102
RTVSPropertyOp44
 70
     1
102
RTVSPropertyOp45
 70
     1
102
RTVSPropertyOp46
 70
     1
102
RTVSPropertyOp47
 70
     1
102
RTVSPropertyOp48
 70
     1
102
RTVSPropertyOp49
 70
     1
102
RTVSPropertyOp50
 70
     1
102
RTVSPropertyOp51
 70
     0
102
RTVSPropertyOp52
 70
     0
102
RTVSPropertyOp53
 70
     1
102
RTVSPropertyOp54
 70
     1
102
RTVSPropertyOp55
 70
     1
102
RTVSPropertyOp56
 70
     1
102
RTVSPropertyOp57
 70
     1
102
RTVSPropertyOp58
 70
     1
102
RTVSPropertyOp59
 70
     1
102
RTVSPropertyOp60
 70
     1
102
RTVSPropertyOp61
 70
     1
102
RTVSPropertyOp62
 70
     1
  0
XRECORD
  5
2DFB
102
{ACAD_REACTORS
330
2DFA
102
}
330
2DFA
100
AcDbXrecord
280
     1
102
RTVSPost2010Prop28
280
     0
102
RTVSPost2010PropOp28
 70
     1
102
RTVSPost2010Prop29
280
     1
102
RTVSPost2010PropOp29
 70
     1
102
RTVSPost2010Prop30
280
     1
102
RTVSPost2010PropOp30
 70
     1
102
RTVSPost2010Prop31
280
     0
102
RTVSPost2010PropOp31
 70
     1
102
RTVSPost2010Prop32
280
     0
102
RTVSPost2010PropOp32
 70
     1
102
RTVSPost2010Prop33
280
     0
102
RTVSPost2010PropOp33
 70
     1
102
RTVSPost2010Prop34
280
     0
102
RTVSPost2010PropOp34
 70
     1
102
RTVSPost2010Prop35
280
     0
102
RTVSPost2010PropOp35
 70
     1
102
RTVSPost2010Prop36
280
     0
102
RTVSPost2010PropOp36
 70
     1
102
RTVSPost2010Prop37
 90
       50
102
RTVSPost2010PropOp37
 70
     1
102
RTVSPost2010Prop38
140
0.0
102
RTVSPost2010PropOp38
 70
     1
102
RTVSPost2010Prop39
140
1.0
102
RTVSPost2010PropOp39
 70
     1
102
RTVSPost2010Prop40
 90
        0
102
RTVSPost2010PropOp40
 70
     1
102
RTVSPost2010Prop41ColorIndex
 90
       18
102
RTVSPost2010Prop41ColorRGB
 90
        0
102
RTVSPost2010PropOp41
 70
     1
102
RTVSPost2010Prop42
 90
       50
102
RTVSPost2010PropOp42
 70
     1
102
RTVSPost2010Prop43
 90
        3
102
RTVSPost2010PropOp43
 70
     1
102
RTVSPost2010Prop44ColorIndex
 90
        5
102
RTVSPost2010Prop44ColorRGB
 90
      255
102
RTVSPost2010PropOp44
 70
     1
102
RTVSPost2010Prop45
280
     0
102
RTVSPost2010PropOp45
 70
     1
102
RTVSPost2010Prop46
 90
       50
102
RTVSPost2010PropOp46
 70
     1
102
RTVSPost2010Prop47
 90
       50
102
RTVSPost2010PropOp47
 70
     1
102
RTVSPost2010Prop48
 90
       50
102
RTVSPost2010PropOp48
 70
     1
102
RTVSPost2010Prop49
280
     0
102
RTVSPost2010PropOp49
 70
     1
102
RTVSPost2010Prop50
 90
       50
102
RTVSPost2010PropOp50
 70
     1
102
RTVSPost2010Prop51ColorIndex
 90
      256
102
RTVSPost2010Prop51ColorRGB
 90
-16777216
102
RTVSPost2010PropOp51
 70
     0
102
RTVSPost2010Prop52
140
1.0
102
RTVSPost2010PropOp52
 70
     0
102
RTVSPost2010Prop53
 90
        2
102
RTVSPost2010PropOp53
 70
     1
102
RTVSPost2010Prop54
  1
strokes_ogs.tif
102
RTVSPost2010PropOp54
 70
     1
102
RTVSPost2010Prop55
280
     0
102
RTVSPost2010PropOp55
 70
     1
102
RTVSPost2010Prop56
140
1.0
102
RTVSPost2010PropOp56
 70
     1
102
RTVSPost2010Prop57
140
1.0
102
RTVSPost2010PropOp57
 70
     1
102
RTVSPropertyOp0
 70
     1
102
RTVSPropertyOp1
 70
     1
102
RTVSPropertyOp2
 70
     1
102
RTVSPropertyOp3
 70
     1
102
RTVSPropertyOp4
 70
     1
102
RTVSPropertyOp5
 70
     1
102
RTVSPropertyOp6
 70
     1
102
RTVSPropertyOp7
 70
     1
102
RTVSPropertyOp8
 70
     1
102
RTVSPropertyOp9
 70
     1
102
RTVSPropertyOp10
 70
     1
102
RTVSPropertyOp11
 70
     1
102
RTVSPropertyOp12
 70
     1
102
RTVSPropertyOp13
 70
     1
102
RTVSPropertyOp14
 70
     1
102
RTVSPropertyOp15
 70
     1
102
RTVSPropertyOp16
 70
     1
102
RTVSPropertyOp17
 70
     1
102
RTVSPropertyOp18
 70
     1
102
RTVSPropertyOp19
 70
     1
102
RTVSPropertyOp20
 70
     1
102
RTVSPropertyOp21
 70
     1
102
RTVSPropertyOp22
 70
     1
102
RTVSPropertyOp23
 70
     1
102
RTVSPropertyOp24
 70
     1
102
RTVSPropertyOp25
 70
     1
102
RTVSPropertyOp26
 70
     1
102
RTVSPropertyOp27
 70
     1
102
RTVSPropertyOp28
 70
     1
102
RTVSPropertyOp29
 70
     1
102
RTVSPropertyOp30
 70
     1
102
RTVSPropertyOp31
 70
     1
102
RTVSPropertyOp32
 70
     1
102
RTVSPropertyOp33
 70
     1
102
RTVSPropertyOp34
 70
     1
102
RTVSPropertyOp35
 70
     1
102
RTVSPropertyOp36
 70
     1
102
RTVSPropertyOp37
 70
     1
102
RTVSPropertyOp38
 70
     1
102
RTVSPropertyOp39
 70
     1
102
RTVSPropertyOp40
 70
     1
102
RTVSPropertyOp41
 70
     1
102
RTVSPropertyOp42
 70
     1
102
RTVSPropertyOp43
 70
     1
102
RTVSPropertyOp44
 70
     1
102
RTVSPropertyOp45
 70
     1
102
RTVSPropertyOp46
 70
     1
102
RTVSPropertyOp47
 70
     1
102
RTVSPropertyOp48
 70
     1
102
RTVSPropertyOp49
 70
     1
102
RTVSPropertyOp50
 70
     1
102
RTVSPropertyOp51
 70
     0
102
RTVSPropertyOp52
 70
     0
102
RTVSPropertyOp53
 70
     1
102
RTVSPropertyOp54
 70
     1
102
RTVSPropertyOp55
 70
     1
102
RTVSPropertyOp56
 70
     1
102
RTVSPropertyOp57
 70
     1
102
RTVSPropertyOp58
 70
     1
102
RTVSPropertyOp59
 70
     1
102
RTVSPropertyOp60
 70
     1
102
RTVSPropertyOp61
 70
     1
102
RTVSPropertyOp62
 70
     1
  0
XRECORD
  5
2DF5
102
{ACAD_REACTORS
330
2DF4
102
}
330
2DF4
100
AcDbXrecord
280
     1
102
RTVSPost2010Prop28
280
     0
102
RTVSPost2010PropOp28
 70
     1
102
RTVSPost2010Prop29
280
     1
102
RTVSPost2010PropOp29
 70
     1
102
RTVSPost2010Prop30
280
     1
102
RTVSPost2010PropOp30
 70
     1
102
RTVSPost2010Prop31
280
     0
102
RTVSPost2010PropOp31
 70
     1
102
RTVSPost2010Prop32
280
     0
102
RTVSPost2010PropOp32
 70
     1
102
RTVSPost2010Prop33
280
     0
102
RTVSPost2010PropOp33
 70
     1
102
RTVSPost2010Prop34
280
     0
102
RTVSPost2010PropOp34
 70
     1
102
RTVSPost2010Prop35
280
     0
102
RTVSPost2010PropOp35
 70
     1
102
RTVSPost2010Prop36
280
     0
102
RTVSPost2010PropOp36
 70
     1
102
RTVSPost2010Prop37
 90
       50
102
RTVSPost2010PropOp37
 70
     1
102
RTVSPost2010Prop38
140
0.0
102
RTVSPost2010PropOp38
 70
     1
102
RTVSPost2010Prop39
140
1.0
102
RTVSPost2010PropOp39
 70
     1
102
RTVSPost2010Prop40
 90
        0
102
RTVSPost2010PropOp40
 70
     1
102
RTVSPost2010Prop41ColorIndex
 90
       18
102
RTVSPost2010Prop41ColorRGB
 90
        0
102
RTVSPost2010PropOp41
 70
     1
102
RTVSPost2010Prop42
 90
       50
102
RTVSPost2010PropOp42
 70
     1
102
RTVSPost2010Prop43
 90
        3
102
RTVSPost2010PropOp43
 70
     1
102
RTVSPost2010Prop44ColorIndex
 90
        5
102
RTVSPost2010Prop44ColorRGB
 90
      255
102
RTVSPost2010PropOp44
 70
     1
102
RTVSPost2010Prop45
280
     0
102
RTVSPost2010PropOp45
 70
     1
102
RTVSPost2010Prop46
 90
       50
102
RTVSPost2010PropOp46
 70
     1
102
RTVSPost2010Prop47
 90
       50
102
RTVSPost2010PropOp47
 70
     1
102
RTVSPost2010Prop48
 90
       50
102
RTVSPost2010PropOp48
 70
     1
102
RTVSPost2010Prop49
280
     0
102
RTVSPost2010PropOp49
 70
     1
102
RTVSPost2010Prop50
 90
       50
102
RTVSPost2010PropOp50
 70
     1
102
RTVSPost2010Prop51ColorIndex
 90
      256
102
RTVSPost2010Prop51ColorRGB
 90
-16777216
102
RTVSPost2010PropOp51
 70
     0
102
RTVSPost2010Prop52
140
1.0
102
RTVSPost2010PropOp52
 70
     0
102
RTVSPost2010Prop53
 90
        2
102
RTVSPost2010PropOp53
 70
     1
102
RTVSPost2010Prop54
  1
strokes_ogs.tif
102
RTVSPost2010PropOp54
 70
     1
102
RTVSPost2010Prop55
280
     0
102
RTVSPost2010PropOp55
 70
     1
102
RTVSPost2010Prop56
140
1.0
102
RTVSPost2010PropOp56
 70
     1
102
RTVSPost2010Prop57
140
1.0
102
RTVSPost2010PropOp57
 70
     1
102
RTVSPropertyOp0
 70
     1
102
RTVSPropertyOp1
 70
     1
102
RTVSPropertyOp2
 70
     1
102
RTVSPropertyOp3
 70
     1
102
RTVSPropertyOp4
 70
     1
102
RTVSPropertyOp5
 70
     1
102
RTVSPropertyOp6
 70
     1
102
RTVSPropertyOp7
 70
     1
102
RTVSPropertyOp8
 70
     1
102
RTVSPropertyOp9
 70
     1
102
RTVSPropertyOp10
 70
     1
102
RTVSPropertyOp11
 70
     1
102
RTVSPropertyOp12
 70
     1
102
RTVSPropertyOp13
 70
     1
102
RTVSPropertyOp14
 70
     1
102
RTVSPropertyOp15
 70
     1
102
RTVSPropertyOp16
 70
     1
102
RTVSPropertyOp17
 70
     1
102
RTVSPropertyOp18
 70
     1
102
RTVSPropertyOp19
 70
     1
102
RTVSPropertyOp20
 70
     1
102
RTVSPropertyOp21
 70
     1
102
RTVSPropertyOp22
 70
     1
102
RTVSPropertyOp23
 70
     1
102
RTVSPropertyOp24
 70
     1
102
RTVSPropertyOp25
 70
     1
102
RTVSPropertyOp26
 70
     1
102
RTVSPropertyOp27
 70
     1
102
RTVSPropertyOp28
 70
     1
102
RTVSPropertyOp29
 70
     1
102
RTVSPropertyOp30
 70
     1
102
RTVSPropertyOp31
 70
     1
102
RTVSPropertyOp32
 70
     1
102
RTVSPropertyOp33
 70
     1
102
RTVSPropertyOp34
 70
     1
102
RTVSPropertyOp35
 70
     1
102
RTVSPropertyOp36
 70
     1
102
RTVSPropertyOp37
 70
     1
102
RTVSPropertyOp38
 70
     1
102
RTVSPropertyOp39
 70
     1
102
RTVSPropertyOp40
 70
     1
102
RTVSPropertyOp41
 70
     1
102
RTVSPropertyOp42
 70
     1
102
RTVSPropertyOp43
 70
     1
102
RTVSPropertyOp44
 70
     1
102
RTVSPropertyOp45
 70
     1
102
RTVSPropertyOp46
 70
     1
102
RTVSPropertyOp47
 70
     1
102
RTVSPropertyOp48
 70
     1
102
RTVSPropertyOp49
 70
     1
102
RTVSPropertyOp50
 70
     1
102
RTVSPropertyOp51
 70
     0
102
RTVSPropertyOp52
 70
     0
102
RTVSPropertyOp53
 70
     1
102
RTVSPropertyOp54
 70
     1
102
RTVSPropertyOp55
 70
     1
102
RTVSPropertyOp56
 70
     1
102
RTVSPropertyOp57
 70
     1
102
RTVSPropertyOp58
 70
     1
102
RTVSPropertyOp59
 70
     1
102
RTVSPropertyOp60
 70
     1
102
RTVSPropertyOp61
 70
     1
102
RTVSPropertyOp62
 70
     1
  0
XRECORD
  5
2DF7
102
{ACAD_REACTORS
330
2DF6
102
}
330
2DF6
100
AcDbXrecord
280
     1
102
RTVSPost2010Prop28
280
     0
102
RTVSPost2010PropOp28
 70
     1
102
RTVSPost2010Prop29
280
     1
102
RTVSPost2010PropOp29
 70
     1
102
RTVSPost2010Prop30
280
     1
102
RTVSPost2010PropOp30
 70
     1
102
RTVSPost2010Prop31
280
     0
102
RTVSPost2010PropOp31
 70
     1
102
RTVSPost2010Prop32
280
     0
102
RTVSPost2010PropOp32
 70
     1
102
RTVSPost2010Prop33
280
     0
102
RTVSPost2010PropOp33
 70
     1
102
RTVSPost2010Prop34
280
     0
102
RTVSPost2010PropOp34
 70
     1
102
RTVSPost2010Prop35
280
     0
102
RTVSPost2010PropOp35
 70
     1
102
RTVSPost2010Prop36
280
     0
102
RTVSPost2010PropOp36
 70
     1
102
RTVSPost2010Prop37
 90
       50
102
RTVSPost2010PropOp37
 70
     1
102
RTVSPost2010Prop38
140
0.0
102
RTVSPost2010PropOp38
 70
     1
102
RTVSPost2010Prop39
140
1.0
102
RTVSPost2010PropOp39
 70
     1
102
RTVSPost2010Prop40
 90
        0
102
RTVSPost2010PropOp40
 70
     1
102
RTVSPost2010Prop41ColorIndex
 90
       18
102
RTVSPost2010Prop41ColorRGB
 90
        0
102
RTVSPost2010PropOp41
 70
     1
102
RTVSPost2010Prop42
 90
       50
102
RTVSPost2010PropOp42
 70
     1
102
RTVSPost2010Prop43
 90
        3
102
RTVSPost2010PropOp43
 70
     1
102
RTVSPost2010Prop44ColorIndex
 90
        5
102
RTVSPost2010Prop44ColorRGB
 90
      255
102
RTVSPost2010PropOp44
 70
     1
102
RTVSPost2010Prop45
280
     0
102
RTVSPost2010PropOp45
 70
     1
102
RTVSPost2010Prop46
 90
       50
102
RTVSPost2010PropOp46
 70
     1
102
RTVSPost2010Prop47
 90
       50
102
RTVSPost2010PropOp47
 70
     1
102
RTVSPost2010Prop48
 90
       50
102
RTVSPost2010PropOp48
 70
     1
102
RTVSPost2010Prop49
280
     0
102
RTVSPost2010PropOp49
 70
     1
102
RTVSPost2010Prop50
 90
       50
102
RTVSPost2010PropOp50
 70
     1
102
RTVSPost2010Prop51ColorIndex
 90
      256
102
RTVSPost2010Prop51ColorRGB
 90
-16777216
102
RTVSPost2010PropOp51
 70
     0
102
RTVSPost2010Prop52
140
1.0
102
RTVSPost2010PropOp52
 70
     0
102
RTVSPost2010Prop53
 90
        2
102
RTVSPost2010PropOp53
 70
     1
102
RTVSPost2010Prop54
  1
strokes_ogs.tif
102
RTVSPost2010PropOp54
 70
     1
102
RTVSPost2010Prop55
280
     0
102
RTVSPost2010PropOp55
 70
     1
102
RTVSPost2010Prop56
140
1.0
102
RTVSPost2010PropOp56
 70
     1
102
RTVSPost2010Prop57
140
1.0
102
RTVSPost2010PropOp57
 70
     1
102
RTVSPropertyOp0
 70
     1
102
RTVSPropertyOp1
 70
     1
102
RTVSPropertyOp2
 70
     1
102
RTVSPropertyOp3
 70
     1
102
RTVSPropertyOp4
 70
     1
102
RTVSPropertyOp5
 70
     1
102
RTVSPropertyOp6
 70
     1
102
RTVSPropertyOp7
 70
     1
102
RTVSPropertyOp8
 70
     1
102
RTVSPropertyOp9
 70
     1
102
RTVSPropertyOp10
 70
     1
102
RTVSPropertyOp11
 70
     1
102
RTVSPropertyOp12
 70
     1
102
RTVSPropertyOp13
 70
     1
102
RTVSPropertyOp14
 70
     1
102
RTVSPropertyOp15
 70
     1
102
RTVSPropertyOp16
 70
     1
102
RTVSPropertyOp17
 70
     1
102
RTVSPropertyOp18
 70
     1
102
RTVSPropertyOp19
 70
     1
102
RTVSPropertyOp20
 70
     1
102
RTVSPropertyOp21
 70
     1
102
RTVSPropertyOp22
 70
     1
102
RTVSPropertyOp23
 70
     1
102
RTVSPropertyOp24
 70
     1
102
RTVSPropertyOp25
 70
     1
102
RTVSPropertyOp26
 70
     1
102
RTVSPropertyOp27
 70
     1
102
RTVSPropertyOp28
 70
     1
102
RTVSPropertyOp29
 70
     1
102
RTVSPropertyOp30
 70
     1
102
RTVSPropertyOp31
 70
     1
102
RTVSPropertyOp32
 70
     1
102
RTVSPropertyOp33
 70
     1
102
RTVSPropertyOp34
 70
     1
102
RTVSPropertyOp35
 70
     1
102
RTVSPropertyOp36
 70
     1
102
RTVSPropertyOp37
 70
     1
102
RTVSPropertyOp38
 70
     1
102
RTVSPropertyOp39
 70
     1
102
RTVSPropertyOp40
 70
     1
102
RTVSPropertyOp41
 70
     1
102
RTVSPropertyOp42
 70
     1
102
RTVSPropertyOp43
 70
     1
102
RTVSPropertyOp44
 70
     1
102
RTVSPropertyOp45
 70
     1
102
RTVSPropertyOp46
 70
     1
102
RTVSPropertyOp47
 70
     1
102
RTVSPropertyOp48
 70
     1
102
RTVSPropertyOp49
 70
     1
102
RTVSPropertyOp50
 70
     1
102
RTVSPropertyOp51
 70
     0
102
RTVSPropertyOp52
 70
     0
102
RTVSPropertyOp53
 70
     1
102
RTVSPropertyOp54
 70
     1
102
RTVSPropertyOp55
 70
     1
102
RTVSPropertyOp56
 70
     1
102
RTVSPropertyOp57
 70
     1
102
RTVSPropertyOp58
 70
     1
102
RTVSPropertyOp59
 70
     1
102
RTVSPropertyOp60
 70
     1
102
RTVSPropertyOp61
 70
     1
102
RTVSPropertyOp62
 70
     1
  0
XRECORD
  5
2DE5
102
{ACAD_REACTORS
330
2DE4
102
}
330
2DE4
100
AcDbXrecord
280
     1
102
RTVSPost2010Prop28
280
     0
102
RTVSPost2010PropOp28
 70
     1
102
RTVSPost2010Prop29
280
     1
102
RTVSPost2010PropOp29
 70
     1
102
RTVSPost2010Prop30
280
     1
102
RTVSPost2010PropOp30
 70
     1
102
RTVSPost2010Prop31
280
     0
102
RTVSPost2010PropOp31
 70
     1
102
RTVSPost2010Prop32
280
     0
102
RTVSPost2010PropOp32
 70
     1
102
RTVSPost2010Prop33
280
     0
102
RTVSPost2010PropOp33
 70
     1
102
RTVSPost2010Prop34
280
     0
102
RTVSPost2010PropOp34
 70
     1
102
RTVSPost2010Prop35
280
     0
102
RTVSPost2010PropOp35
 70
     1
102
RTVSPost2010Prop36
280
     0
102
RTVSPost2010PropOp36
 70
     1
102
RTVSPost2010Prop37
 90
       50
102
RTVSPost2010PropOp37
 70
     1
102
RTVSPost2010Prop38
140
0.0
102
RTVSPost2010PropOp38
 70
     1
102
RTVSPost2010Prop39
140
1.0
102
RTVSPost2010PropOp39
 70
     1
102
RTVSPost2010Prop40
 90
        0
102
RTVSPost2010PropOp40
 70
     1
102
RTVSPost2010Prop41ColorIndex
 90
       18
102
RTVSPost2010Prop41ColorRGB
 90
        0
102
RTVSPost2010PropOp41
 70
     1
102
RTVSPost2010Prop42
 90
       50
102
RTVSPost2010PropOp42
 70
     1
102
RTVSPost2010Prop43
 90
        3
102
RTVSPost2010PropOp43
 70
     1
102
RTVSPost2010Prop44ColorIndex
 90
        5
102
RTVSPost2010Prop44ColorRGB
 90
      255
102
RTVSPost2010PropOp44
 70
     1
102
RTVSPost2010Prop45
280
     0
102
RTVSPost2010PropOp45
 70
     1
102
RTVSPost2010Prop46
 90
       50
102
RTVSPost2010PropOp46
 70
     1
102
RTVSPost2010Prop47
 90
       50
102
RTVSPost2010PropOp47
 70
     1
102
RTVSPost2010Prop48
 90
       50
102
RTVSPost2010PropOp48
 70
     1
102
RTVSPost2010Prop49
280
     0
102
RTVSPost2010PropOp49
 70
     1
102
RTVSPost2010Prop50
 90
       50
102
RTVSPost2010PropOp50
 70
     1
102
RTVSPost2010Prop51ColorIndex
 90
      256
102
RTVSPost2010Prop51ColorRGB
 90
-16777216
102
RTVSPost2010PropOp51
 70
     0
102
RTVSPost2010Prop52
140
1.0
102
RTVSPost2010PropOp52
 70
     0
102
RTVSPost2010Prop53
 90
        2
102
RTVSPost2010PropOp53
 70
     1
102
RTVSPost2010Prop54
  1
strokes_ogs.tif
102
RTVSPost2010PropOp54
 70
     1
102
RTVSPost2010Prop55
280
     0
102
RTVSPost2010PropOp55
 70
     1
102
RTVSPost2010Prop56
140
1.0
102
RTVSPost2010PropOp56
 70
     1
102
RTVSPost2010Prop57
140
1.0
102
RTVSPost2010PropOp57
 70
     1
102
RTVSPropertyOp0
 70
     1
102
RTVSPropertyOp1
 70
     1
102
RTVSPropertyOp2
 70
     1
102
RTVSPropertyOp3
 70
     1
102
RTVSPropertyOp4
 70
     1
102
RTVSPropertyOp5
 70
     1
102
RTVSPropertyOp6
 70
     1
102
RTVSPropertyOp7
 70
     1
102
RTVSPropertyOp8
 70
     1
102
RTVSPropertyOp9
 70
     1
102
RTVSPropertyOp10
 70
     1
102
RTVSPropertyOp11
 70
     1
102
RTVSPropertyOp12
 70
     1
102
RTVSPropertyOp13
 70
     1
102
RTVSPropertyOp14
 70
     1
102
RTVSPropertyOp15
 70
     1
102
RTVSPropertyOp16
 70
     1
102
RTVSPropertyOp17
 70
     1
102
RTVSPropertyOp18
 70
     1
102
RTVSPropertyOp19
 70
     1
102
RTVSPropertyOp20
 70
     1
102
RTVSPropertyOp21
 70
     1
102
RTVSPropertyOp22
 70
     1
102
RTVSPropertyOp23
 70
     1
102
RTVSPropertyOp24
 70
     1
102
RTVSPropertyOp25
 70
     1
102
RTVSPropertyOp26
 70
     1
102
RTVSPropertyOp27
 70
     1
102
RTVSPropertyOp28
 70
     1
102
RTVSPropertyOp29
 70
     1
102
RTVSPropertyOp30
 70
     1
102
RTVSPropertyOp31
 70
     1
102
RTVSPropertyOp32
 70
     1
102
RTVSPropertyOp33
 70
     1
102
RTVSPropertyOp34
 70
     1
102
RTVSPropertyOp35
 70
     1
102
RTVSPropertyOp36
 70
     1
102
RTVSPropertyOp37
 70
     1
102
RTVSPropertyOp38
 70
     1
102
RTVSPropertyOp39
 70
     1
102
RTVSPropertyOp40
 70
     1
102
RTVSPropertyOp41
 70
     1
102
RTVSPropertyOp42
 70
     1
102
RTVSPropertyOp43
 70
     1
102
RTVSPropertyOp44
 70
     1
102
RTVSPropertyOp45
 70
     1
102
RTVSPropertyOp46
 70
     1
102
RTVSPropertyOp47
 70
     1
102
RTVSPropertyOp48
 70
     1
102
RTVSPropertyOp49
 70
     1
102
RTVSPropertyOp50
 70
     1
102
RTVSPropertyOp51
 70
     0
102
RTVSPropertyOp52
 70
     0
102
RTVSPropertyOp53
 70
     1
102
RTVSPropertyOp54
 70
     1
102
RTVSPropertyOp55
 70
     1
102
RTVSPropertyOp56
 70
     1
102
RTVSPropertyOp57
 70
     1
102
RTVSPropertyOp58
 70
     1
102
RTVSPropertyOp59
 70
     1
102
RTVSPropertyOp60
 70
     1
102
RTVSPropertyOp61
 70
     1
102
RTVSPropertyOp62
 70
     1
  0
XRECORD
  5
2DD9
102
{ACAD_REACTORS
330
2DD8
102
}
330
2DD8
100
AcDbXrecord
280
     1
102
RTVSPost2010Prop28
280
     0
102
RTVSPost2010PropOp28
 70
     1
102
RTVSPost2010Prop29
280
     1
102
RTVSPost2010PropOp29
 70
     1
102
RTVSPost2010Prop30
280
     1
102
RTVSPost2010PropOp30
 70
     1
102
RTVSPost2010Prop31
280
     0
102
RTVSPost2010PropOp31
 70
     1
102
RTVSPost2010Prop32
280
     0
102
RTVSPost2010PropOp32
 70
     1
102
RTVSPost2010Prop33
280
     0
102
RTVSPost2010PropOp33
 70
     1
102
RTVSPost2010Prop34
280
     0
102
RTVSPost2010PropOp34
 70
     1
102
RTVSPost2010Prop35
280
     0
102
RTVSPost2010PropOp35
 70
     1
102
RTVSPost2010Prop36
280
     0
102
RTVSPost2010PropOp36
 70
     1
102
RTVSPost2010Prop37
 90
       50
102
RTVSPost2010PropOp37
 70
     1
102
RTVSPost2010Prop38
140
0.0
102
RTVSPost2010PropOp38
 70
     1
102
RTVSPost2010Prop39
140
1.0
102
RTVSPost2010PropOp39
 70
     1
102
RTVSPost2010Prop40
 90
        0
102
RTVSPost2010PropOp40
 70
     1
102
RTVSPost2010Prop41ColorIndex
 90
       18
102
RTVSPost2010Prop41ColorRGB
 90
        0
102
RTVSPost2010PropOp41
 70
     1
102
RTVSPost2010Prop42
 90
       50
102
RTVSPost2010PropOp42
 70
     1
102
RTVSPost2010Prop43
 90
        3
102
RTVSPost2010PropOp43
 70
     1
102
RTVSPost2010Prop44ColorIndex
 90
        5
102
RTVSPost2010Prop44ColorRGB
 90
      255
102
RTVSPost2010PropOp44
 70
     1
102
RTVSPost2010Prop45
280
     0
102
RTVSPost2010PropOp45
 70
     1
102
RTVSPost2010Prop46
 90
       50
102
RTVSPost2010PropOp46
 70
     1
102
RTVSPost2010Prop47
 90
       50
102
RTVSPost2010PropOp47
 70
     1
102
RTVSPost2010Prop48
 90
       50
102
RTVSPost2010PropOp48
 70
     1
102
RTVSPost2010Prop49
280
     0
102
RTVSPost2010PropOp49
 70
     1
102
RTVSPost2010Prop50
 90
       50
102
RTVSPost2010PropOp50
 70
     1
102
RTVSPost2010Prop51ColorIndex
 90
      256
102
RTVSPost2010Prop51ColorRGB
 90
-16777216
102
RTVSPost2010PropOp51
 70
     0
102
RTVSPost2010Prop52
140
1.0
102
RTVSPost2010PropOp52
 70
     0
102
RTVSPost2010Prop53
 90
        2
102
RTVSPost2010PropOp53
 70
     1
102
RTVSPost2010Prop54
  1
strokes_ogs.tif
102
RTVSPost2010PropOp54
 70
     1
102
RTVSPost2010Prop55
280
     0
102
RTVSPost2010PropOp55
 70
     1
102
RTVSPost2010Prop56
140
1.0
102
RTVSPost2010PropOp56
 70
     1
102
RTVSPost2010Prop57
140
1.0
102
RTVSPost2010PropOp57
 70
     1
102
RTVSPropertyOp0
 70
     1
102
RTVSPropertyOp1
 70
     1
102
RTVSPropertyOp2
 70
     1
102
RTVSPropertyOp3
 70
     1
102
RTVSPropertyOp4
 70
     1
102
RTVSPropertyOp5
 70
     1
102
RTVSPropertyOp6
 70
     1
102
RTVSPropertyOp7
 70
     1
102
RTVSPropertyOp8
 70
     1
102
RTVSPropertyOp9
 70
     1
102
RTVSPropertyOp10
 70
     1
102
RTVSPropertyOp11
 70
     1
102
RTVSPropertyOp12
 70
     1
102
RTVSPropertyOp13
 70
     1
102
RTVSPropertyOp14
 70
     1
102
RTVSPropertyOp15
 70
     1
102
RTVSPropertyOp16
 70
     1
102
RTVSPropertyOp17
 70
     1
102
RTVSPropertyOp18
 70
     1
102
RTVSPropertyOp19
 70
     1
102
RTVSPropertyOp20
 70
     1
102
RTVSPropertyOp21
 70
     1
102
RTVSPropertyOp22
 70
     1
102
RTVSPropertyOp23
 70
     1
102
RTVSPropertyOp24
 70
     1
102
RTVSPropertyOp25
 70
     1
102
RTVSPropertyOp26
 70
     1
102
RTVSPropertyOp27
 70
     1
102
RTVSPropertyOp28
 70
     1
102
RTVSPropertyOp29
 70
     1
102
RTVSPropertyOp30
 70
     1
102
RTVSPropertyOp31
 70
     1
102
RTVSPropertyOp32
 70
     1
102
RTVSPropertyOp33
 70
     1
102
RTVSPropertyOp34
 70
     1
102
RTVSPropertyOp35
 70
     1
102
RTVSPropertyOp36
 70
     1
102
RTVSPropertyOp37
 70
     1
102
RTVSPropertyOp38
 70
     1
102
RTVSPropertyOp39
 70
     1
102
RTVSPropertyOp40
 70
     1
102
RTVSPropertyOp41
 70
     1
102
RTVSPropertyOp42
 70
     1
102
RTVSPropertyOp43
 70
     1
102
RTVSPropertyOp44
 70
     1
102
RTVSPropertyOp45
 70
     1
102
RTVSPropertyOp46
 70
     1
102
RTVSPropertyOp47
 70
     1
102
RTVSPropertyOp48
 70
     1
102
RTVSPropertyOp49
 70
     1
102
RTVSPropertyOp50
 70
     1
102
RTVSPropertyOp51
 70
     0
102
RTVSPropertyOp52
 70
     0
102
RTVSPropertyOp53
 70
     1
102
RTVSPropertyOp54
 70
     1
102
RTVSPropertyOp55
 70
     1
102
RTVSPropertyOp56
 70
     1
102
RTVSPropertyOp57
 70
     1
102
RTVSPropertyOp58
 70
     1
102
RTVSPropertyOp59
 70
     1
102
RTVSPropertyOp60
 70
     1
102
RTVSPropertyOp61
 70
     1
102
RTVSPropertyOp62
 70
     1
  0
XRECORD
  5
2DF9
102
{ACAD_REACTORS
330
2DF8
102
}
330
2DF8
100
AcDbXrecord
280
     1
102
RTVSPost2010Prop28
280
     0
102
RTVSPost2010PropOp28
 70
     1
102
RTVSPost2010Prop29
280
     1
102
RTVSPost2010PropOp29
 70
     1
102
RTVSPost2010Prop30
280
     1
102
RTVSPost2010PropOp30
 70
     1
102
RTVSPost2010Prop31
280
     0
102
RTVSPost2010PropOp31
 70
     1
102
RTVSPost2010Prop32
280
     0
102
RTVSPost2010PropOp32
 70
     1
102
RTVSPost2010Prop33
280
     0
102
RTVSPost2010PropOp33
 70
     1
102
RTVSPost2010Prop34
280
     0
102
RTVSPost2010PropOp34
 70
     1
102
RTVSPost2010Prop35
280
     0
102
RTVSPost2010PropOp35
 70
     1
102
RTVSPost2010Prop36
280
     0
102
RTVSPost2010PropOp36
 70
     1
102
RTVSPost2010Prop37
 90
       50
102
RTVSPost2010PropOp37
 70
     1
102
RTVSPost2010Prop38
140
0.0
102
RTVSPost2010PropOp38
 70
     1
102
RTVSPost2010Prop39
140
1.0
102
RTVSPost2010PropOp39
 70
     1
102
RTVSPost2010Prop40
 90
        0
102
RTVSPost2010PropOp40
 70
     1
102
RTVSPost2010Prop41ColorIndex
 90
       18
102
RTVSPost2010Prop41ColorRGB
 90
        0
102
RTVSPost2010PropOp41
 70
     1
102
RTVSPost2010Prop42
 90
       50
102
RTVSPost2010PropOp42
 70
     1
102
RTVSPost2010Prop43
 90
        3
102
RTVSPost2010PropOp43
 70
     1
102
RTVSPost2010Prop44ColorIndex
 90
        5
102
RTVSPost2010Prop44ColorRGB
 90
      255
102
RTVSPost2010PropOp44
 70
     1
102
RTVSPost2010Prop45
280
     0
102
RTVSPost2010PropOp45
 70
     1
102
RTVSPost2010Prop46
 90
       50
102
RTVSPost2010PropOp46
 70
     1
102
RTVSPost2010Prop47
 90
       50
102
RTVSPost2010PropOp47
 70
     1
102
RTVSPost2010Prop48
 90
       50
102
RTVSPost2010PropOp48
 70
     1
102
RTVSPost2010Prop49
280
     0
102
RTVSPost2010PropOp49
 70
     1
102
RTVSPost2010Prop50
 90
       50
102
RTVSPost2010PropOp50
 70
     1
102
RTVSPost2010Prop51ColorIndex
 90
      256
102
RTVSPost2010Prop51ColorRGB
 90
-16777216
102
RTVSPost2010PropOp51
 70
     0
102
RTVSPost2010Prop52
140
1.0
102
RTVSPost2010PropOp52
 70
     0
102
RTVSPost2010Prop53
 90
        2
102
RTVSPost2010PropOp53
 70
     1
102
RTVSPost2010Prop54
  1
strokes_ogs.tif
102
RTVSPost2010PropOp54
 70
     1
102
RTVSPost2010Prop55
280
     0
102
RTVSPost2010PropOp55
 70
     1
102
RTVSPost2010Prop56
140
1.0
102
RTVSPost2010PropOp56
 70
     1
102
RTVSPost2010Prop57
140
1.0
102
RTVSPost2010PropOp57
 70
     1
102
RTVSPropertyOp0
 70
     1
102
RTVSPropertyOp1
 70
     1
102
RTVSPropertyOp2
 70
     1
102
RTVSPropertyOp3
 70
     1
102
RTVSPropertyOp4
 70
     1
102
RTVSPropertyOp5
 70
     1
102
RTVSPropertyOp6
 70
     1
102
RTVSPropertyOp7
 70
     1
102
RTVSPropertyOp8
 70
     1
102
RTVSPropertyOp9
 70
     1
102
RTVSPropertyOp10
 70
     1
102
RTVSPropertyOp11
 70
     1
102
RTVSPropertyOp12
 70
     1
102
RTVSPropertyOp13
 70
     1
102
RTVSPropertyOp14
 70
     1
102
RTVSPropertyOp15
 70
     1
102
RTVSPropertyOp16
 70
     1
102
RTVSPropertyOp17
 70
     1
102
RTVSPropertyOp18
 70
     1
102
RTVSPropertyOp19
 70
     1
102
RTVSPropertyOp20
 70
     1
102
RTVSPropertyOp21
 70
     1
102
RTVSPropertyOp22
 70
     1
102
RTVSPropertyOp23
 70
     1
102
RTVSPropertyOp24
 70
     1
102
RTVSPropertyOp25
 70
     1
102
RTVSPropertyOp26
 70
     1
102
RTVSPropertyOp27
 70
     1
102
RTVSPropertyOp28
 70
     1
102
RTVSPropertyOp29
 70
     1
102
RTVSPropertyOp30
 70
     1
102
RTVSPropertyOp31
 70
     1
102
RTVSPropertyOp32
 70
     1
102
RTVSPropertyOp33
 70
     1
102
RTVSPropertyOp34
 70
     1
102
RTVSPropertyOp35
 70
     1
102
RTVSPropertyOp36
 70
     1
102
RTVSPropertyOp37
 70
     1
102
RTVSPropertyOp38
 70
     1
102
RTVSPropertyOp39
 70
     1
102
RTVSPropertyOp40
 70
     1
102
RTVSPropertyOp41
 70
     1
102
RTVSPropertyOp42
 70
     1
102
RTVSPropertyOp43
 70
     1
102
RTVSPropertyOp44
 70
     1
102
RTVSPropertyOp45
 70
     1
102
RTVSPropertyOp46
 70
     1
102
RTVSPropertyOp47
 70
     1
102
RTVSPropertyOp48
 70
     1
102
RTVSPropertyOp49
 70
     1
102
RTVSPropertyOp50
 70
     1
102
RTVSPropertyOp51
 70
     0
102
RTVSPropertyOp52
 70
     0
102
RTVSPropertyOp53
 70
     1
102
RTVSPropertyOp54
 70
     1
102
RTVSPropertyOp55
 70
     1
102
RTVSPropertyOp56
 70
     1
102
RTVSPropertyOp57
 70
     1
102
RTVSPropertyOp58
 70
     1
102
RTVSPropertyOp59
 70
     1
102
RTVSPropertyOp60
 70
     1
102
RTVSPropertyOp61
 70
     1
102
RTVSPropertyOp62
 70
     1
  0
ENDSEC
  0
EOF
