  0
SECTION
  2
HEADER
  9
$ACADVER
  1
AC1015
  9
$ACADMAINTVER
 70
    18
  9
$DWGCODEPAGE
  3
ANSI_1252
  9
$INSBASE
 10
0.0
 20
0.0
 30
0.0
  9
$EXTMIN
 10
-8.023680672077034
 20
-77.75312745076735
 30
-0.0015258207003583
  9
$EXTMAX
 10
21.45629934204783
 20
1.509109844580621
 30
0.0000000349246037
  9
$LIMMIN
 10
0.0
 20
0.0
  9
$LIMMAX
 10
420.0
 20
297.0
  9
$ORTHOMODE
 70
     0
  9
$REGENMODE
 70
     1
  9
$FILLMODE
 70
     1
  9
$QTEXTMODE
 70
     0
  9
$MIRRTEXT
 70
     0
  9
$LTSCALE
 40
1.0
  9
$ATTMODE
 70
     1
  9
$TEXTSIZE
 40
2.5
  9
$TRACEWID
 40
1.0
  9
$TEXTSTYLE
  7
Standard
  9
$CLAYER
  8
0
  9
$CELTYPE
  6
ByLayer
  9
$CECOLOR
 62
   256
  9
$CELTSCALE
 40
1.0
  9
$DISPSILH
 70
     0
  9
$DIMSCALE
 40
1.0
  9
$DIMASZ
 40
2.5
  9
$DIMEXO
 40
0.625
  9
$DIMDLI
 40
3.75
  9
$DIMRND
 40
0.0
  9
$DIMDLE
 40
0.0
  9
$DIMEXE
 40
1.25
  9
$DIMTP
 40
0.0
  9
$DIMTM
 40
0.0
  9
$DIMTXT
 40
2.5
  9
$DIMCEN
 40
2.5
  9
$DIMTSZ
 40
0.0
  9
$DIMTOL
 70
     0
  9
$DIMLIM
 70
     0
  9
$DIMTIH
 70
     0
  9
$DIMTOH
 70
     0
  9
$DIMSE1
 70
     0
  9
$DIMSE2
 70
     0
  9
$DIMTAD
 70
     1
  9
$DIMZIN
 70
     8
  9
$DIMBLK
  1

  9
$DIMASO
 70
     1
  9
$DIMSHO
 70
     1
  9
$DIMPOST
  1

  9
$DIMAPOST
  1

  9
$DIMALT
 70
     0
  9
$DIMALTD
 70
     3
  9
$DIMALTF
 40
0.03937007874016
  9
$DIMLFAC
 40
1.0
  9
$DIMTOFL
 70
     1
  9
$DIMTVP
 40
0.0
  9
$DIMTIX
 70
     0
  9
$DIMSOXD
 70
     0
  9
$DIMSAH
 70
     0
  9
$DIMBLK1
  1

  9
$DIMBLK2
  1

  9
$DIMSTYLE
  2
ISO-25
  9
$DIMCLRD
 70
     0
  9
$DIMCLRE
 70
     0
  9
$DIMCLRT
 70
     0
  9
$DIMTFAC
 40
1.0
  9
$DIMGAP
 40
0.625
  9
$DIMJUST
 70
     0
  9
$DIMSD1
 70
     0
  9
$DIMSD2
 70
     0
  9
$DIMTOLJ
 70
     0
  9
$DIMTZIN
 70
     8
  9
$DIMALTZ
 70
     0
  9
$DIMALTTZ
 70
     0
  9
$DIMUPT
 70
     0
  9
$DIMDEC
 70
     2
  9
$DIMTDEC
 70
     2
  9
$DIMALTU
 70
     2
  9
$DIMALTTD
 70
     3
  9
$DIMTXSTY
  7
Standard
  9
$DIMAUNIT
 70
     0
  9
$DIMADEC
 70
     0
  9
$DIMALTRND
 40
0.0
  9
$DIMAZIN
 70
     0
  9
$DIMDSEP
 70
    44
  9
$DIMATFIT
 70
     3
  9
$DIMFRAC
 70
     0
  9
$DIMLDRBLK
  1

  9
$DIMLUNIT
 70
     2
  9
$DIMLWD
 70
    -2
  9
$DIMLWE
 70
    -2
  9
$DIMTMOVE
 70
     0
  9
$LUNITS
 70
     2
  9
$LUPREC
 70
     4
  9
$SKETCHINC
 40
1.0
  9
$FILLETRAD
 40
0.0
  9
$AUNITS
 70
     0
  9
$AUPREC
 70
     0
  9
$MENU
  1
.
  9
$ELEVATION
 40
0.0
  9
$PELEVATION
 40
0.0
  9
$THICKNESS
 40
0.0
  9
$LIMCHECK
 70
     0
  9
$CHAMFERA
 40
0.0
  9
$CHAMFERB
 40
0.0
  9
$CHAMFERC
 40
0.0
  9
$CHAMFERD
 40
0.0
  9
$SKPOLY
 70
     0
  9
$TDCREATE
 40
2460693.556458334
  9
$TDUCREATE
 40
2460693.264791667
  9
$TDUPDATE
 40
2460693.607326389
  9
$TDUUPDATE
 40
2460693.315659722
  9
$TDINDWG
 40
0.0490046296
  9
$TDUSRTIMER
 40
0.0490046296
  9
$USRTIMER
 70
     1
  9
$ANGBASE
 50
0.0
  9
$ANGDIR
 70
     0
  9
$PDMODE
 70
     0
  9
$PDSIZE
 40
0.0
  9
$PLINEWID
 40
0.0
  9
$SPLFRAME
 70
     0
  9
$SPLINETYPE
 70
     6
  9
$SPLINESEGS
 70
     8
  9
$HANDSEED
  5
2962
  9
$SURFTAB1
 70
     6
  9
$SURFTAB2
 70
     6
  9
$SURFTYPE
 70
     6
  9
$SURFU
 70
     6
  9
$SURFV
 70
     6
  9
$UCSBASE
  2

  9
$UCSNAME
  2

  9
$UCSORG
 10
0.0
 20
0.0
 30
0.0
  9
$UCSXDIR
 10
1.0
 20
0.0
 30
0.0
  9
$UCSYDIR
 10
0.0
 20
1.0
 30
0.0
  9
$UCSORTHOREF
  2

  9
$UCSORTHOVIEW
 70
     0
  9
$UCSORGTOP
 10
0.0
 20
0.0
 30
0.0
  9
$UCSORGBOTTOM
 10
0.0
 20
0.0
 30
0.0
  9
$UCSORGLEFT
 10
0.0
 20
0.0
 30
0.0
  9
$UCSORGRIGHT
 10
0.0
 20
0.0
 30
0.0
  9
$UCSORGFRONT
 10
0.0
 20
0.0
 30
0.0
  9
$UCSORGBACK
 10
0.0
 20
0.0
 30
0.0
  9
$PUCSBASE
  2

  9
$PUCSNAME
  2

  9
$PUCSORG
 10
0.0
 20
0.0
 30
0.0
  9
$PUCSXDIR
 10
1.0
 20
0.0
 30
0.0
  9
$PUCSYDIR
 10
0.0
 20
1.0
 30
0.0
  9
$PUCSORTHOREF
  2

  9
$PUCSORTHOVIEW
 70
     0
  9
$PUCSORGTOP
 10
0.0
 20
0.0
 30
0.0
  9
$PUCSORGBOTTOM
 10
0.0
 20
0.0
 30
0.0
  9
$PUCSORGLEFT
 10
0.0
 20
0.0
 30
0.0
  9
$PUCSORGRIGHT
 10
0.0
 20
0.0
 30
0.0
  9
$PUCSORGFRONT
 10
0.0
 20
0.0
 30
0.0
  9
$PUCSORGBACK
 10
0.0
 20
0.0
 30
0.0
  9
$USERI1
 70
     0
  9
$USERI2
 70
     0
  9
$USERI3
 70
     0
  9
$USERI4
 70
     0
  9
$USERI5
 70
     0
  9
$USERR1
 40
0.0
  9
$USERR2
 40
0.0
  9
$USERR3
 40
0.0
  9
$USERR4
 40
0.0
  9
$USERR5
 40
0.0
  9
$WORLDVIEW
 70
     1
  9
$SHADEDGE
 70
     3
  9
$SHADEDIF
 70
    70
  9
$TILEMODE
 70
     1
  9
$MAXACTVP
 70
    48
  9
$PINSBASE
 10
0.0
 20
0.0
 30
0.0
  9
$PLIMCHECK
 70
     0
  9
$PEXTMIN
 10
0.0
 20
0.0
 30
0.0
  9
$PEXTMAX
 10
0.0
 20
0.0
 30
0.0
  9
$PLIMMIN
 10
0.0
 20
0.0
  9
$PLIMMAX
 10
12.0
 20
9.0
  9
$UNITMODE
 70
     0
  9
$VISRETAIN
 70
     1
  9
$PLINEGEN
 70
     0
  9
$PSLTSCALE
 70
     1
  9
$TREEDEPTH
 70
  3020
  9
$CMLSTYLE
  2
Standard
  9
$CMLJUST
 70
     0
  9
$CMLSCALE
 40
20.0
  9
$PROXYGRAPHICS
 70
     1
  9
$MEASUREMENT
 70
     1
  9
$CELWEIGHT
370
    -1
  9
$ENDCAPS
280
     0
  9
$JOINSTYLE
280
     0
  9
$LWDISPLAY
290
     0
  9
$INSUNITS
 70
     4
  9
$HYPERLINKBASE
  1

  9
$STYLESHEET
  1

  9
$XEDIT
290
     1
  9
$CEPSNTYPE
380
     0
  9
$PSTYLEMODE
290
     1
  9
$FINGERPRINTGUID
  2
{6BB7EA54-E3A6-D244-889C-0863075C46A9}
  9
$VERSIONGUID
  2
{9CD753AD-54BE-8F4C-B2F2-DC79D4F36891}
  9
$EXTNAMES
290
     1
  9
$PSVPSCALE
 40
0.0
  9
$OLESTARTUP
290
     0
  0
ENDSEC
  0
SECTION
  2
CLASSES
  0
CLASS
  1
ACDBDICTIONARYWDFLT
  2
AcDbDictionaryWithDefault
  3
ObjectDBX Classes
 90
        0
280
     0
281
     0
  0
CLASS
  1
ACDBPLACEHOLDER
  2
AcDbPlaceHolder
  3
ObjectDBX Classes
 90
        0
280
     0
281
     0
  0
CLASS
  1
LAYOUT
  2
AcDbLayout
  3
ObjectDBX Classes
 90
        0
280
     0
281
     0
  0
CLASS
  1
DICTIONARYVAR
  2
AcDbDictionaryVar
  3
ObjectDBX Classes
 90
        0
280
     0
281
     0
  0
CLASS
  1
TABLESTYLE
  2
AcDbTableStyle
  3
ObjectDBX Classes
 90
     4095
280
     0
281
     0
  0
CLASS
  1
MATERIAL
  2
AcDbMaterial
  3
ObjectDBX Classes
 90
     1153
280
     0
281
     0
  0
CLASS
  1
VISUALSTYLE
  2
AcDbVisualStyle
  3
ObjectDBX Classes
 90
     4095
280
     0
281
     0
  0
CLASS
  1
SCALE
  2
AcDbScale
  3
ObjectDBX Classes
 90
     1153
280
     0
281
     0
  0
CLASS
  1
MLEADERSTYLE
  2
AcDbMLeaderStyle
  3
ACDB_MLEADERSTYLE_CLASS
 90
     4095
280
     0
281
     0
  0
CLASS
  1
CELLSTYLEMAP
  2
AcDbCellStyleMap
  3
ObjectDBX Classes
 90
     1152
280
     0
281
     0
  0
CLASS
  1
EXACXREFPANELOBJECT
  2
ExAcXREFPanelObject
  3
EXAC_ESW
 90
    33793
280
     0
281
     0
  0
CLASS
  1
NPOCOLLECTION
  2
AcDbImpNonPersistentObjectsCollection
  3
ObjectDBX Classes
 90
    33921
280
     0
281
     0
  0
CLASS
  1
LAYER_INDEX
  2
AcDbLayerIndex
  3
ObjectDBX Classes
 90
    32768
280
     0
281
     0
  0
CLASS
  1
SPATIAL_INDEX
  2
AcDbSpatialIndex
  3
ObjectDBX Classes
 90
    32768
280
     0
281
     0
  0
CLASS
  1
IDBUFFER
  2
AcDbIdBuffer
  3
ObjectDBX Classes
 90
    32768
280
     0
281
     0
  0
CLASS
  1
ACDBSECTIONVIEWSTYLE
  2
AcDbSectionViewStyle
  3
ObjectDBX Classes
 90
     1025
280
     0
281
     0
  0
CLASS
  1
ACDBDETAILVIEWSTYLE
  2
AcDbDetailViewStyle
  3
ObjectDBX Classes
 90
     1025
280
     0
281
     0
  0
CLASS
  1
XRECORD
  2
AcDbXrecord
  3
ObjectDBX Classes
 90
        0
280
     0
281
     0
  0
ENDSEC
  0
SECTION
  2
TABLES
  0
TABLE
  2
VPORT
  5
8
102
{ACAD_XDICTIONARY
360
286E
102
}
330
0
100
AcDbSymbolTable
 70
     1
  0
VPORT
  5
EA
330
8
100
AcDbSymbolTableRecord
100
AcDbViewportTableRecord
  2
*Active
 70
     0
 10
0.0
 20
0.0
 11
1.0
 21
1.0
 12
6.7163093349854
 22
-38.12200880309337
 13
0.0
 23
0.0
 14
10.0
 24
10.0
 15
10.0
 25
10.0
 16
0.0
 26
0.0
 36
1.0
 17
0.0
 27
0.0
 37
0.0
 40
84.28820635682773
 41
0.9846153846153846
 42
50.0
 43
0.0
 44
0.0
 50
0.0
 51
0.0
 71
     0
 72
  1000
 73
     1
 74
     3
 75
     0
 76
     1
 77
     0
 78
     0
281
     0
 65
     1
110
0.0
120
0.0
130
0.0
111
1.0
121
0.0
131
0.0
112
0.0
122
1.0
132
0.0
 79
     0
146
0.0
1001
ACAD_NAV_VCDISPLAY
1070
     3
  0
ENDTAB
  0
TABLE
  2
LTYPE
  5
5
330
0
100
AcDbSymbolTable
 70
     1
  0
LTYPE
  5
14
330
5
100
AcDbSymbolTableRecord
100
AcDbLinetypeTableRecord
  2
ByBlock
 70
     0
  3

 72
    65
 73
     0
 40
0.0
  0
LTYPE
  5
15
330
5
100
AcDbSymbolTableRecord
100
AcDbLinetypeTableRecord
  2
ByLayer
 70
     0
  3

 72
    65
 73
     0
 40
0.0
  0
LTYPE
  5
16
330
5
100
AcDbSymbolTableRecord
100
AcDbLinetypeTableRecord
  2
Continuous
 70
     0
  3
Solid line
 72
    65
 73
     0
 40
0.0
  0
ENDTAB
  0
TABLE
  2
LAYER
  5
2
102
{ACAD_XDICTIONARY
360
1FF
102
}
330
0
100
AcDbSymbolTable
 70
     1
  0
LAYER
  5
10
102
{ACAD_XDICTIONARY
360
13C
102
}
330
2
100
AcDbSymbolTableRecord
100
AcDbLayerTableRecord
  2
0
 70
     0
 62
     7
  6
Continuous
370
    -3
390
F
  0
ENDTAB
  0
TABLE
  2
STYLE
  5
3
330
0
100
AcDbSymbolTable
 70
     1
  0
STYLE
  5
11
330
3
100
AcDbSymbolTableRecord
100
AcDbTextStyleTableRecord
  2
Standard
 70
     0
 40
0.0
 41
1.0
 50
0.0
 71
     0
 42
2.5
  3
arial.ttf
  4

1001
ACAD
1000
Arial
1071
       34
  0
ENDTAB
  0
TABLE
  2
VIEW
  5
6
330
0
100
AcDbSymbolTable
 70
     0
  0
ENDTAB
  0
TABLE
  2
UCS
  5
7
330
0
100
AcDbSymbolTable
 70
     0
  0
ENDTAB
  0
TABLE
  2
APPID
  5
9
330
0
100
AcDbSymbolTable
 70
     8
  0
APPID
  5
12
330
9
100
AcDbSymbolTableRecord
100
AcDbRegAppTableRecord
  2
ACAD
 70
     0
  0
APPID
  5
9E
330
9
100
AcDbSymbolTableRecord
100
AcDbRegAppTableRecord
  2
ACAD_PSEXT
 70
     0
  0
APPID
  5
133
330
9
100
AcDbSymbolTableRecord
100
AcDbRegAppTableRecord
  2
AcadAnnoPO
 70
     0
  0
APPID
  5
134
330
9
100
AcDbSymbolTableRecord
100
AcDbRegAppTableRecord
  2
AcadAnnotative
 70
     0
  0
APPID
  5
135
330
9
100
AcDbSymbolTableRecord
100
AcDbRegAppTableRecord
  2
ACAD_DSTYLE_DIMJAG
 70
     0
  0
APPID
  5
136
330
9
100
AcDbSymbolTableRecord
100
AcDbRegAppTableRecord
  2
ACAD_DSTYLE_DIMTALN
 70
     0
  0
APPID
  5
165
330
9
100
AcDbSymbolTableRecord
100
AcDbRegAppTableRecord
  2
ACAD_MLEADERVER
 70
     0
  0
APPID
  5
217
330
9
100
AcDbSymbolTableRecord
100
AcDbRegAppTableRecord
  2
ACAD_NAV_VCDISPLAY
 70
     0
  0
ENDTAB
  0
TABLE
  2
DIMSTYLE
  5
A
330
0
100
AcDbSymbolTable
 70
     1
100
AcDbDimStyleTable
 71
     0
  0
DIMSTYLE
105
27
330
A
100
AcDbSymbolTableRecord
100
AcDbDimStyleTableRecord
  2
ISO-25
 70
     0
 41
2.5
 42
0.625
 43
3.75
 44
1.25
 73
     0
 74
     0
 77
     1
 78
     8
140
2.5
141
2.5
143
0.03937007874016
147
0.625
171
     3
172
     1
271
     2
272
     2
274
     3
278
    44
283
     0
284
     8
340
11
  0
ENDTAB
  0
TABLE
  2
BLOCK_RECORD
  5
1
330
0
100
AcDbSymbolTable
 70
     4
  0
BLOCK_RECORD
  5
1F
102
{ACAD_XDICTIONARY
360
1CE
102
}
330
1
100
AcDbSymbolTableRecord
100
AcDbBlockTableRecord
  2
*Model_Space
340
22
  0
BLOCK_RECORD
  5
D2
102
{ACAD_XDICTIONARY
360
2821
102
}
330
1
100
AcDbSymbolTableRecord
100
AcDbBlockTableRecord
  2
*Paper_Space
340
D3
  0
BLOCK_RECORD
  5
D6
102
{ACAD_XDICTIONARY
360
2823
102
}
330
1
100
AcDbSymbolTableRecord
100
AcDbBlockTableRecord
  2
*Paper_Space0
340
D7
  0
BLOCK_RECORD
  5
24BA
330
1
100
AcDbSymbolTableRecord
100
AcDbBlockTableRecord
  2
CNA40X35S-Front
340
0
102
{BLKREFS
331
281A
102
}
  0
BLOCK_RECORD
  5
26B5
330
1
100
AcDbSymbolTableRecord
100
AcDbBlockTableRecord
  2
CNA40X35S-Top
340
0
102
{BLKREFS
331
281B
102
}
  0
BLOCK_RECORD
  5
2719
330
1
100
AcDbSymbolTableRecord
100
AcDbBlockTableRecord
  2
CNA40X35S-ISO
340
0
102
{BLKREFS
331
281C
102
}
  0
ENDTAB
  0
ENDSEC
  0
SECTION
  2
BLOCKS
  0
BLOCK
  5
20
330
1F
100
AcDbEntity
  8
0
100
AcDbBlockBegin
  2
*Model_Space
 70
     0
 10
0.0
 20
0.0
 30
0.0
  3
*Model_Space
  1

  0
ENDBLK
  5
21
330
1F
100
AcDbEntity
  8
0
100
AcDbBlockEnd
  0
BLOCK
  5
D4
330
D2
100
AcDbEntity
 67
     1
  8
0
100
AcDbBlockBegin
  2
*Paper_Space
 70
     0
 10
0.0
 20
0.0
 30
0.0
  3
*Paper_Space
  1

  0
ENDBLK
  5
D5
330
D2
100
AcDbEntity
 67
     1
  8
0
100
AcDbBlockEnd
  0
BLOCK
  5
D8
330
D6
100
AcDbEntity
 67
     1
  8
0
100
AcDbBlockBegin
  2
*Paper_Space0
 70
     0
 10
0.0
 20
0.0
 30
0.0
  3
*Paper_Space0
  1

  0
ENDBLK
  5
D9
330
D6
100
AcDbEntity
 67
     1
  8
0
100
AcDbBlockEnd
  0
BLOCK
  5
24BB
330
24BA
100
AcDbEntity
  8
0
100
AcDbBlockBegin
  2
CNA40X35S-Front
 70
     0
 10
0.0
 20
0.0
 30
0.0
  3
CNA40X35S-Front
  1

  0
LINE
  5
24BD
330
24BA
100
AcDbEntity
  8
0
100
AcDbLine
 10
-0.0299792461790293
 20
-35.0
 30
0.0
 11
0.0299792461790286
 21
-35.0
 31
0.0
  0
ARC
  5
24BE
330
24BA
100
AcDbEntity
  8
0
100
AcDbCircle
 10
0.0299792461790286
 20
-34.90000000000001
 30
0.0
 40
0.1000000000000007
100
AcDbArc
 50
270.0
 51
340.0000000000013
  0
LINE
  5
24BF
330
24BA
100
AcDbEntity
  8
0
100
AcDbLine
 10
0.1239485082576196
 20
-34.93420201433257
 30
0.0
 11
-0.1239485082576201
 21
-34.93420201433257
 31
0.0
  0
ARC
  5
24C0
330
24BA
100
AcDbEntity
  8
0
100
AcDbCircle
 10
-0.0299792461790293
 20
-34.90000000000001
 30
0.0
 40
0.1000000000000005
100
AcDbArc
 50
199.9999999999987
 51
270.0
  0
LINE
  5
24C1
330
24BA
100
AcDbEntity
  8
0
100
AcDbLine
 10
3.000000000000015
 20
0.0
 30
0.0
 11
-3.000000000000004
 21
0.0
 31
0.0
  0
LINE
  5
24C2
330
24BA
100
AcDbEntity
  8
0
100
AcDbLine
 10
-3.500000000000004
 20
0.5000000000000011
 30
0.0
 11
3.500000000000015
 21
0.5
 31
0.0
  0
LINE
  5
24C3
330
24BA
100
AcDbEntity
  8
0
100
AcDbLine
 10
3.500000000000015
 20
1.25
 30
0.0
 11
-3.500000000000004
 21
1.250000000000001
 31
0.0
  0
LINE
  5
24C4
330
24BA
100
AcDbEntity
  8
0
100
AcDbLine
 10
-3.250000000000003
 20
1.500000000000001
 30
0.0
 11
3.250000000000015
 21
1.5
 31
0.0
  0
ARC
  5
24C5
330
24BA
100
AcDbEntity
  8
0
100
AcDbCircle
 10
3.000000000000015
 20
0.5000000000000001
 30
0.0
 40
0.5
100
AcDbArc
 50
270.0
 51
0.0
  0
ARC
  5
24C6
330
24BA
100
AcDbEntity
  8
0
100
AcDbCircle
 10
-3.000000000000004
 20
0.5000000000000011
 30
0.0
 40
0.5
100
AcDbArc
 50
180.0
 51
270.0
  0
ARC
  5
24C7
330
24BA
100
AcDbEntity
  8
0
100
AcDbCircle
 10
3.250000000000015
 20
1.25
 30
0.0
 40
0.25
100
AcDbArc
 50
0.0
 51
90.0
  0
ARC
  5
24C8
330
24BA
100
AcDbEntity
  8
0
100
AcDbCircle
 10
-3.250000000000003
 20
1.250000000000001
 30
0.0
 40
0.25
100
AcDbArc
 50
90.0
 51
180.0
  0
LINE
  5
24C9
330
24BA
100
AcDbEntity
  8
0
100
AcDbLine
 10
-1.555634918610404
 20
-31.00067593014824
 30
0.0
 11
-0.12394850825762
 21
-34.93420201433257
 31
0.0
  0
LINE
  5
24CA
330
24BA
100
AcDbEntity
  8
0
100
AcDbLine
 10
-1.555634918610405
 20
-31.00067593014824
 30
0.0
 11
-2.166725741731043
 21
-29.32171769238835
 31
0.0
  0
LINE
  5
24CB
330
24BA
100
AcDbEntity
  8
0
100
AcDbLine
 10
1.555634918610404
 20
-31.00067593014824
 30
0.0
 11
0.1239485082576197
 21
-34.93420201433257
 31
0.0
  0
ELLIPSE
  5
24CC
330
24BA
100
AcDbEntity
  8
0
100
AcDbEllipse
 10
-0.0000000000000003
 20
-35.27474774194546
 30
0.0
 11
0.0
 21
-6.044450322800174
 31
0.0
210
0.0
220
0.0
230
1.0
 40
0.3639702342662021
 41
2.356194490192344
 42
2.967449360428296
  0
LINE
  5
24CD
330
24BA
100
AcDbEntity
  8
0
100
AcDbLine
 10
0.3811817940564072
 20
-29.32171769238835
 30
0.0
 11
-0.3811817940564082
 21
-29.32171769238835
 31
0.0
  0
ELLIPSE
  5
24CE
330
24BA
100
AcDbEntity
  8
0
100
AcDbEllipse
 10
-0.0000000000000003
 20
-35.27474774194546
 30
0.0
 11
0.0
 21
-6.044450322800174
 31
0.0
210
0.0
220
0.0
230
1.0
 40
0.3639702342662021
 41
3.315735946751289
 42
3.926990816987241
  0
LINE
  5
24CF
330
24BA
100
AcDbEntity
  8
0
100
AcDbLine
 10
1.750000000000002
 20
-28.07171769238835
 30
0.0
 11
-1.750000000000003
 21
-28.07171769238835
 31
0.0
  0
LINE
  5
24D0
330
24BA
100
AcDbEntity
  8
0
100
AcDbLine
 10
2.126524613390194
 20
-28.17529961895552
 30
0.0
 11
-2.126524613390194
 21
-28.17529961895552
 31
0.0
  0
LINE
  5
24D1
330
24BA
100
AcDbEntity
  8
0
100
AcDbLine
 10
2.191623175793066
 20
-28.31178256050986
 30
0.0
 11
-2.191623175793066
 21
-28.31178256050986
 31
0.0
  0
LINE
  5
24D2
330
24BA
100
AcDbEntity
  8
0
100
AcDbLine
 10
-2.166725741731043
 20
-29.32171769238835
 30
0.0
 11
-0.381181794056408
 21
-29.32171769238835
 31
0.0
  0
LINE
  5
24D3
330
24BA
100
AcDbEntity
  8
0
100
AcDbLine
 10
0.3811817940564072
 20
-29.32171769238835
 30
0.0
 11
2.166725741731043
 21
-29.32171769238835
 31
0.0
  0
LINE
  5
24D4
330
24BA
100
AcDbEntity
  8
0
100
AcDbLine
 10
1.750000000000002
 20
-26.82171769238835
 30
0.0
 11
-1.750000000000003
 21
-26.82171769238835
 31
0.0
  0
LINE
  5
24D5
330
24BA
100
AcDbEntity
  8
0
100
AcDbLine
 10
2.126524613390194
 20
-26.92529961895552
 30
0.0
 11
-2.126524613390194
 21
-26.92529961895552
 31
0.0
  0
LINE
  5
24D6
330
24BA
100
AcDbEntity
  8
0
100
AcDbLine
 10
2.191623175793066
 20
-27.06178256050986
 30
0.0
 11
-2.191623175793066
 21
-27.06178256050986
 31
0.0
  0
LINE
  5
24D7
330
24BA
100
AcDbEntity
  8
0
100
AcDbLine
 10
1.750000000000002
 20
-25.57171769238835
 30
0.0
 11
-1.750000000000003
 21
-25.57171769238835
 31
0.0
  0
LINE
  5
24D8
330
24BA
100
AcDbEntity
  8
0
100
AcDbLine
 10
2.126524613390194
 20
-25.67529961895552
 30
0.0
 11
-2.126524613390194
 21
-25.67529961895552
 31
0.0
  0
LINE
  5
24D9
330
24BA
100
AcDbEntity
  8
0
100
AcDbLine
 10
2.191623175793066
 20
-25.81178256050986
 30
0.0
 11
-2.191623175793066
 21
-25.81178256050986
 31
0.0
  0
LINE
  5
24DA
330
24BA
100
AcDbEntity
  8
0
100
AcDbLine
 10
1.750000000000002
 20
-24.32171769238835
 30
0.0
 11
-1.750000000000003
 21
-24.32171769238835
 31
0.0
  0
LINE
  5
24DB
330
24BA
100
AcDbEntity
  8
0
100
AcDbLine
 10
2.126524613390194
 20
-24.42529961895552
 30
0.0
 11
-2.126524613390194
 21
-24.42529961895552
 31
0.0
  0
LINE
  5
24DC
330
24BA
100
AcDbEntity
  8
0
100
AcDbLine
 10
2.191623175793066
 20
-24.56178256050986
 30
0.0
 11
-2.191623175793066
 21
-24.56178256050986
 31
0.0
  0
LINE
  5
24DD
330
24BA
100
AcDbEntity
  8
0
100
AcDbLine
 10
1.750000000000002
 20
-23.07171769238835
 30
0.0
 11
-1.750000000000003
 21
-23.07171769238835
 31
0.0
  0
LINE
  5
24DE
330
24BA
100
AcDbEntity
  8
0
100
AcDbLine
 10
2.126524613390194
 20
-23.17529961895552
 30
0.0
 11
-2.126524613390194
 21
-23.17529961895552
 31
0.0
  0
LINE
  5
24DF
330
24BA
100
AcDbEntity
  8
0
100
AcDbLine
 10
2.191623175793066
 20
-23.31178256050986
 30
0.0
 11
-2.191623175793066
 21
-23.31178256050986
 31
0.0
  0
LINE
  5
24E0
330
24BA
100
AcDbEntity
  8
0
100
AcDbLine
 10
1.750000000000002
 20
-21.82171769238835
 30
0.0
 11
-1.750000000000003
 21
-21.82171769238835
 31
0.0
  0
LINE
  5
24E1
330
24BA
100
AcDbEntity
  8
0
100
AcDbLine
 10
2.126524613390194
 20
-21.92529961895552
 30
0.0
 11
-2.126524613390194
 21
-21.92529961895552
 31
0.0
  0
LINE
  5
24E2
330
24BA
100
AcDbEntity
  8
0
100
AcDbLine
 10
2.191623175793066
 20
-22.06178256050986
 30
0.0
 11
-2.191623175793066
 21
-22.06178256050986
 31
0.0
  0
LINE
  5
24E3
330
24BA
100
AcDbEntity
  8
0
100
AcDbLine
 10
1.750000000000002
 20
-20.57171769238835
 30
0.0
 11
-1.750000000000003
 21
-20.57171769238835
 31
0.0
  0
LINE
  5
24E4
330
24BA
100
AcDbEntity
  8
0
100
AcDbLine
 10
2.126524613390194
 20
-20.67529961895552
 30
0.0
 11
-2.126524613390194
 21
-20.67529961895552
 31
0.0
  0
LINE
  5
24E5
330
24BA
100
AcDbEntity
  8
0
100
AcDbLine
 10
2.191623175793066
 20
-20.81178256050986
 30
0.0
 11
-2.191623175793066
 21
-20.81178256050986
 31
0.0
  0
LINE
  5
24E6
330
24BA
100
AcDbEntity
  8
0
100
AcDbLine
 10
1.750000000000002
 20
-19.32171769238835
 30
0.0
 11
-1.750000000000003
 21
-19.32171769238835
 31
0.0
  0
LINE
  5
24E7
330
24BA
100
AcDbEntity
  8
0
100
AcDbLine
 10
2.126524613390194
 20
-19.42529961895551
 30
0.0
 11
-2.126524613390194
 21
-19.42529961895551
 31
0.0
  0
LINE
  5
24E8
330
24BA
100
AcDbEntity
  8
0
100
AcDbLine
 10
2.191623175793066
 20
-19.56178256050985
 30
0.0
 11
-2.191623175793066
 21
-19.56178256050985
 31
0.0
  0
LINE
  5
24E9
330
24BA
100
AcDbEntity
  8
0
100
AcDbLine
 10
1.750000000000002
 20
-18.07171769238835
 30
0.0
 11
-1.750000000000003
 21
-18.07171769238835
 31
0.0
  0
LINE
  5
24EA
330
24BA
100
AcDbEntity
  8
0
100
AcDbLine
 10
2.126524613390194
 20
-18.17529961895551
 30
0.0
 11
-2.126524613390194
 21
-18.17529961895551
 31
0.0
  0
LINE
  5
24EB
330
24BA
100
AcDbEntity
  8
0
100
AcDbLine
 10
2.191623175793066
 20
-18.31178256050985
 30
0.0
 11
-2.191623175793066
 21
-18.31178256050985
 31
0.0
  0
LINE
  5
24EC
330
24BA
100
AcDbEntity
  8
0
100
AcDbLine
 10
1.750000000000002
 20
-16.82171769238835
 30
0.0
 11
-1.750000000000003
 21
-16.82171769238835
 31
0.0
  0
LINE
  5
24ED
330
24BA
100
AcDbEntity
  8
0
100
AcDbLine
 10
2.126524613390194
 20
-16.92529961895551
 30
0.0
 11
-2.126524613390194
 21
-16.92529961895551
 31
0.0
  0
LINE
  5
24EE
330
24BA
100
AcDbEntity
  8
0
100
AcDbLine
 10
2.191623175793066
 20
-17.06178256050985
 30
0.0
 11
-2.191623175793066
 21
-17.06178256050985
 31
0.0
  0
LINE
  5
24EF
330
24BA
100
AcDbEntity
  8
0
100
AcDbLine
 10
1.750000000000002
 20
-15.57171769238835
 30
0.0
 11
-1.750000000000003
 21
-15.57171769238835
 31
0.0
  0
LINE
  5
24F0
330
24BA
100
AcDbEntity
  8
0
100
AcDbLine
 10
2.126524613390194
 20
-15.67529961895551
 30
0.0
 11
-2.126524613390194
 21
-15.67529961895551
 31
0.0
  0
LINE
  5
24F1
330
24BA
100
AcDbEntity
  8
0
100
AcDbLine
 10
2.191623175793066
 20
-15.81178256050985
 30
0.0
 11
-2.191623175793066
 21
-15.81178256050985
 31
0.0
  0
LINE
  5
24F2
330
24BA
100
AcDbEntity
  8
0
100
AcDbLine
 10
1.750000000000002
 20
-14.32171769238835
 30
0.0
 11
-1.750000000000003
 21
-14.32171769238835
 31
0.0
  0
LINE
  5
24F3
330
24BA
100
AcDbEntity
  8
0
100
AcDbLine
 10
2.126524613390194
 20
-14.42529961895551
 30
0.0
 11
-2.126524613390194
 21
-14.42529961895551
 31
0.0
  0
LINE
  5
24F4
330
24BA
100
AcDbEntity
  8
0
100
AcDbLine
 10
2.191623175793066
 20
-14.56178256050985
 30
0.0
 11
-2.191623175793066
 21
-14.56178256050985
 31
0.0
  0
LINE
  5
24F5
330
24BA
100
AcDbEntity
  8
0
100
AcDbLine
 10
1.750000000000002
 20
-13.07171769238835
 30
0.0
 11
-1.750000000000003
 21
-13.07171769238835
 31
0.0
  0
LINE
  5
24F6
330
24BA
100
AcDbEntity
  8
0
100
AcDbLine
 10
2.126524613390194
 20
-13.17529961895551
 30
0.0
 11
-2.126524613390194
 21
-13.17529961895551
 31
0.0
  0
LINE
  5
24F7
330
24BA
100
AcDbEntity
  8
0
100
AcDbLine
 10
2.191623175793066
 20
-13.31178256050985
 30
0.0
 11
-2.191623175793066
 21
-13.31178256050985
 31
0.0
  0
LINE
  5
24F8
330
24BA
100
AcDbEntity
  8
0
100
AcDbLine
 10
1.750000000000002
 20
-11.82171769238835
 30
0.0
 11
-1.750000000000003
 21
-11.82171769238835
 31
0.0
  0
LINE
  5
24F9
330
24BA
100
AcDbEntity
  8
0
100
AcDbLine
 10
2.126524613390194
 20
-11.92529961895551
 30
0.0
 11
-2.126524613390194
 21
-11.92529961895551
 31
0.0
  0
LINE
  5
24FA
330
24BA
100
AcDbEntity
  8
0
100
AcDbLine
 10
2.191623175793066
 20
-12.06178256050985
 30
0.0
 11
-2.191623175793066
 21
-12.06178256050985
 31
0.0
  0
LINE
  5
24FB
330
24BA
100
AcDbEntity
  8
0
100
AcDbLine
 10
1.749999999999997
 20
-10.57171769238835
 30
0.0
 11
-1.749999999999998
 21
-10.57171769238835
 31
0.0
  0
LINE
  5
24FC
330
24BA
100
AcDbEntity
  8
0
100
AcDbLine
 10
2.126524613390194
 20
-10.67529961895551
 30
0.0
 11
-2.126524613390194
 21
-10.67529961895551
 31
0.0
  0
LINE
  5
24FD
330
24BA
100
AcDbEntity
  8
0
100
AcDbLine
 10
2.191623175793066
 20
-10.81178256050985
 30
0.0
 11
-2.191623175793066
 21
-10.81178256050985
 31
0.0
  0
LINE
  5
24FE
330
24BA
100
AcDbEntity
  8
0
100
AcDbLine
 10
1.750000000000001
 20
-28.07171769238836
 30
0.0
 11
2.126524613390193
 21
-28.17529961895552
 31
0.0
  0
LINE
  5
24FF
330
24BA
100
AcDbEntity
  8
0
100
AcDbLine
 10
-1.750000000000001
 20
-28.07171769238836
 30
0.0
 11
-2.126524613390194
 21
-28.17529961895552
 31
0.0
  0
ARC
  5
2500
330
24BA
100
AcDbEntity
  8
0
100
AcDbCircle
 10
2.1
 20
-28.27171769238835
 30
0.0
 40
0.1
100
AcDbArc
 50
336.3812630634754
 51
74.61842137712794
  0
ARC
  5
2501
330
24BA
100
AcDbEntity
  8
0
100
AcDbCircle
 10
-2.1
 20
-28.27171769238835
 30
0.0
 40
0.1
100
AcDbArc
 50
105.381578622872
 51
203.6187369365246
  0
LINE
  5
2502
330
24BA
100
AcDbEntity
  8
0
100
AcDbLine
 10
-1.750000000000002
 20
-29.32171769238835
 30
0.0
 11
-2.191623175793065
 21
-28.31178256050986
 31
0.0
  0
LINE
  5
2503
330
24BA
100
AcDbEntity
  8
0
100
AcDbLine
 10
1.750000000000002
 20
-29.32171769238835
 30
0.0
 11
2.191623175793064
 21
-28.31178256050986
 31
0.0
  0
LINE
  5
2504
330
24BA
100
AcDbEntity
  8
0
100
AcDbLine
 10
1.750000000000001
 20
-26.82171769238836
 30
0.0
 11
2.126524613390193
 21
-26.92529961895552
 31
0.0
  0
LINE
  5
2505
330
24BA
100
AcDbEntity
  8
0
100
AcDbLine
 10
-1.750000000000001
 20
-26.82171769238836
 30
0.0
 11
-2.126524613390194
 21
-26.92529961895552
 31
0.0
  0
ARC
  5
2506
330
24BA
100
AcDbEntity
  8
0
100
AcDbCircle
 10
2.1
 20
-27.02171769238835
 30
0.0
 40
0.1
100
AcDbArc
 50
336.3812630634754
 51
74.61842137712794
  0
ARC
  5
2507
330
24BA
100
AcDbEntity
  8
0
100
AcDbCircle
 10
-2.1
 20
-27.02171769238835
 30
0.0
 40
0.1
100
AcDbArc
 50
105.381578622872
 51
203.6187369365246
  0
LINE
  5
2508
330
24BA
100
AcDbEntity
  8
0
100
AcDbLine
 10
-1.750000000000002
 20
-28.07171769238835
 30
0.0
 11
-2.191623175793065
 21
-27.06178256050986
 31
0.0
  0
LINE
  5
2509
330
24BA
100
AcDbEntity
  8
0
100
AcDbLine
 10
1.750000000000002
 20
-28.07171769238835
 30
0.0
 11
2.191623175793064
 21
-27.06178256050986
 31
0.0
  0
LINE
  5
250A
330
24BA
100
AcDbEntity
  8
0
100
AcDbLine
 10
1.750000000000001
 20
-25.57171769238836
 30
0.0
 11
2.126524613390193
 21
-25.67529961895552
 31
0.0
  0
LINE
  5
250B
330
24BA
100
AcDbEntity
  8
0
100
AcDbLine
 10
-1.750000000000001
 20
-25.57171769238836
 30
0.0
 11
-2.126524613390194
 21
-25.67529961895552
 31
0.0
  0
ARC
  5
250C
330
24BA
100
AcDbEntity
  8
0
100
AcDbCircle
 10
2.1
 20
-25.77171769238835
 30
0.0
 40
0.1
100
AcDbArc
 50
336.3812630634754
 51
74.61842137712794
  0
ARC
  5
250D
330
24BA
100
AcDbEntity
  8
0
100
AcDbCircle
 10
-2.1
 20
-25.77171769238835
 30
0.0
 40
0.1
100
AcDbArc
 50
105.381578622872
 51
203.6187369365246
  0
LINE
  5
250E
330
24BA
100
AcDbEntity
  8
0
100
AcDbLine
 10
-1.750000000000002
 20
-26.82171769238835
 30
0.0
 11
-2.191623175793065
 21
-25.81178256050986
 31
0.0
  0
LINE
  5
250F
330
24BA
100
AcDbEntity
  8
0
100
AcDbLine
 10
1.750000000000002
 20
-26.82171769238835
 30
0.0
 11
2.191623175793064
 21
-25.81178256050986
 31
0.0
  0
LINE
  5
2510
330
24BA
100
AcDbEntity
  8
0
100
AcDbLine
 10
1.750000000000001
 20
-24.32171769238836
 30
0.0
 11
2.126524613390193
 21
-24.42529961895552
 31
0.0
  0
LINE
  5
2511
330
24BA
100
AcDbEntity
  8
0
100
AcDbLine
 10
-1.750000000000001
 20
-24.32171769238836
 30
0.0
 11
-2.126524613390194
 21
-24.42529961895552
 31
0.0
  0
ARC
  5
2512
330
24BA
100
AcDbEntity
  8
0
100
AcDbCircle
 10
2.1
 20
-24.52171769238835
 30
0.0
 40
0.1
100
AcDbArc
 50
336.3812630634754
 51
74.61842137712794
  0
ARC
  5
2513
330
24BA
100
AcDbEntity
  8
0
100
AcDbCircle
 10
-2.1
 20
-24.52171769238835
 30
0.0
 40
0.1
100
AcDbArc
 50
105.381578622872
 51
203.6187369365246
  0
LINE
  5
2514
330
24BA
100
AcDbEntity
  8
0
100
AcDbLine
 10
-1.750000000000002
 20
-25.57171769238835
 30
0.0
 11
-2.191623175793065
 21
-24.56178256050986
 31
0.0
  0
LINE
  5
2515
330
24BA
100
AcDbEntity
  8
0
100
AcDbLine
 10
1.750000000000002
 20
-25.57171769238835
 30
0.0
 11
2.191623175793064
 21
-24.56178256050986
 31
0.0
  0
LINE
  5
2516
330
24BA
100
AcDbEntity
  8
0
100
AcDbLine
 10
1.750000000000001
 20
-23.07171769238836
 30
0.0
 11
2.126524613390193
 21
-23.17529961895552
 31
0.0
  0
LINE
  5
2517
330
24BA
100
AcDbEntity
  8
0
100
AcDbLine
 10
-1.750000000000001
 20
-23.07171769238836
 30
0.0
 11
-2.126524613390194
 21
-23.17529961895552
 31
0.0
  0
ARC
  5
2518
330
24BA
100
AcDbEntity
  8
0
100
AcDbCircle
 10
2.1
 20
-23.27171769238835
 30
0.0
 40
0.1
100
AcDbArc
 50
336.3812630634754
 51
74.61842137712794
  0
ARC
  5
2519
330
24BA
100
AcDbEntity
  8
0
100
AcDbCircle
 10
-2.1
 20
-23.27171769238835
 30
0.0
 40
0.1
100
AcDbArc
 50
105.381578622872
 51
203.6187369365246
  0
LINE
  5
251A
330
24BA
100
AcDbEntity
  8
0
100
AcDbLine
 10
-1.750000000000002
 20
-24.32171769238835
 30
0.0
 11
-2.191623175793065
 21
-23.31178256050986
 31
0.0
  0
LINE
  5
251B
330
24BA
100
AcDbEntity
  8
0
100
AcDbLine
 10
1.750000000000002
 20
-24.32171769238835
 30
0.0
 11
2.191623175793064
 21
-23.31178256050986
 31
0.0
  0
LINE
  5
251C
330
24BA
100
AcDbEntity
  8
0
100
AcDbLine
 10
1.750000000000001
 20
-21.82171769238836
 30
0.0
 11
2.126524613390193
 21
-21.92529961895552
 31
0.0
  0
LINE
  5
251D
330
24BA
100
AcDbEntity
  8
0
100
AcDbLine
 10
-1.750000000000001
 20
-21.82171769238836
 30
0.0
 11
-2.126524613390194
 21
-21.92529961895552
 31
0.0
  0
ARC
  5
251E
330
24BA
100
AcDbEntity
  8
0
100
AcDbCircle
 10
2.1
 20
-22.02171769238835
 30
0.0
 40
0.1
100
AcDbArc
 50
336.3812630634754
 51
74.61842137712794
  0
ARC
  5
251F
330
24BA
100
AcDbEntity
  8
0
100
AcDbCircle
 10
-2.1
 20
-22.02171769238835
 30
0.0
 40
0.1
100
AcDbArc
 50
105.381578622872
 51
203.6187369365246
  0
LINE
  5
2520
330
24BA
100
AcDbEntity
  8
0
100
AcDbLine
 10
-1.750000000000002
 20
-23.07171769238835
 30
0.0
 11
-2.191623175793065
 21
-22.06178256050986
 31
0.0
  0
LINE
  5
2521
330
24BA
100
AcDbEntity
  8
0
100
AcDbLine
 10
1.750000000000002
 20
-23.07171769238835
 30
0.0
 11
2.191623175793064
 21
-22.06178256050986
 31
0.0
  0
LINE
  5
2522
330
24BA
100
AcDbEntity
  8
0
100
AcDbLine
 10
1.750000000000001
 20
-20.57171769238836
 30
0.0
 11
2.126524613390193
 21
-20.67529961895552
 31
0.0
  0
LINE
  5
2523
330
24BA
100
AcDbEntity
  8
0
100
AcDbLine
 10
-1.750000000000001
 20
-20.57171769238836
 30
0.0
 11
-2.126524613390194
 21
-20.67529961895552
 31
0.0
  0
ARC
  5
2524
330
24BA
100
AcDbEntity
  8
0
100
AcDbCircle
 10
2.1
 20
-20.77171769238835
 30
0.0
 40
0.1
100
AcDbArc
 50
336.3812630634754
 51
74.61842137712794
  0
ARC
  5
2525
330
24BA
100
AcDbEntity
  8
0
100
AcDbCircle
 10
-2.1
 20
-20.77171769238835
 30
0.0
 40
0.1
100
AcDbArc
 50
105.381578622872
 51
203.6187369365246
  0
LINE
  5
2526
330
24BA
100
AcDbEntity
  8
0
100
AcDbLine
 10
-1.750000000000002
 20
-21.82171769238835
 30
0.0
 11
-2.191623175793065
 21
-20.81178256050986
 31
0.0
  0
LINE
  5
2527
330
24BA
100
AcDbEntity
  8
0
100
AcDbLine
 10
1.750000000000002
 20
-21.82171769238835
 30
0.0
 11
2.191623175793064
 21
-20.81178256050986
 31
0.0
  0
LINE
  5
2528
330
24BA
100
AcDbEntity
  8
0
100
AcDbLine
 10
1.750000000000002
 20
-19.32171769238835
 30
0.0
 11
2.126524613390194
 21
-19.42529961895551
 31
0.0
  0
LINE
  5
2529
330
24BA
100
AcDbEntity
  8
0
100
AcDbLine
 10
-1.750000000000002
 20
-19.32171769238835
 30
0.0
 11
-2.126524613390194
 21
-19.42529961895551
 31
0.0
  0
ARC
  5
252A
330
24BA
100
AcDbEntity
  8
0
100
AcDbCircle
 10
2.1
 20
-19.52171769238835
 30
0.0
 40
0.1
100
AcDbArc
 50
336.3812630634768
 51
74.61842137712794
  0
ARC
  5
252B
330
24BA
100
AcDbEntity
  8
0
100
AcDbCircle
 10
-2.1
 20
-19.52171769238835
 30
0.0
 40
0.1
100
AcDbArc
 50
105.381578622872
 51
203.6187369365246
  0
LINE
  5
252C
330
24BA
100
AcDbEntity
  8
0
100
AcDbLine
 10
-1.750000000000002
 20
-20.57171769238835
 30
0.0
 11
-2.191623175793066
 21
-19.56178256050985
 31
0.0
  0
LINE
  5
252D
330
24BA
100
AcDbEntity
  8
0
100
AcDbLine
 10
1.750000000000002
 20
-20.57171769238835
 30
0.0
 11
2.191623175793065
 21
-19.56178256050985
 31
0.0
  0
LINE
  5
252E
330
24BA
100
AcDbEntity
  8
0
100
AcDbLine
 10
1.750000000000002
 20
-18.07171769238835
 30
0.0
 11
2.126524613390194
 21
-18.17529961895551
 31
0.0
  0
LINE
  5
252F
330
24BA
100
AcDbEntity
  8
0
100
AcDbLine
 10
-1.750000000000002
 20
-18.07171769238835
 30
0.0
 11
-2.126524613390194
 21
-18.17529961895551
 31
0.0
  0
ARC
  5
2530
330
24BA
100
AcDbEntity
  8
0
100
AcDbCircle
 10
2.1
 20
-18.27171769238835
 30
0.0
 40
0.1
100
AcDbArc
 50
336.3812630634768
 51
74.61842137712794
  0
ARC
  5
2531
330
24BA
100
AcDbEntity
  8
0
100
AcDbCircle
 10
-2.1
 20
-18.27171769238835
 30
0.0
 40
0.1
100
AcDbArc
 50
105.381578622872
 51
203.6187369365246
  0
LINE
  5
2532
330
24BA
100
AcDbEntity
  8
0
100
AcDbLine
 10
-1.750000000000002
 20
-19.32171769238835
 30
0.0
 11
-2.191623175793066
 21
-18.31178256050985
 31
0.0
  0
LINE
  5
2533
330
24BA
100
AcDbEntity
  8
0
100
AcDbLine
 10
1.750000000000002
 20
-19.32171769238835
 30
0.0
 11
2.191623175793065
 21
-18.31178256050985
 31
0.0
  0
LINE
  5
2534
330
24BA
100
AcDbEntity
  8
0
100
AcDbLine
 10
1.750000000000002
 20
-16.82171769238835
 30
0.0
 11
2.126524613390194
 21
-16.92529961895551
 31
0.0
  0
LINE
  5
2535
330
24BA
100
AcDbEntity
  8
0
100
AcDbLine
 10
-1.750000000000002
 20
-16.82171769238835
 30
0.0
 11
-2.126524613390194
 21
-16.92529961895551
 31
0.0
  0
ARC
  5
2536
330
24BA
100
AcDbEntity
  8
0
100
AcDbCircle
 10
2.1
 20
-17.02171769238835
 30
0.0
 40
0.1
100
AcDbArc
 50
336.3812630634768
 51
74.61842137712794
  0
ARC
  5
2537
330
24BA
100
AcDbEntity
  8
0
100
AcDbCircle
 10
-2.1
 20
-17.02171769238835
 30
0.0
 40
0.1
100
AcDbArc
 50
105.381578622872
 51
203.6187369365246
  0
LINE
  5
2538
330
24BA
100
AcDbEntity
  8
0
100
AcDbLine
 10
-1.750000000000002
 20
-18.07171769238835
 30
0.0
 11
-2.191623175793066
 21
-17.06178256050985
 31
0.0
  0
LINE
  5
2539
330
24BA
100
AcDbEntity
  8
0
100
AcDbLine
 10
1.750000000000002
 20
-18.07171769238835
 30
0.0
 11
2.191623175793065
 21
-17.06178256050985
 31
0.0
  0
LINE
  5
253A
330
24BA
100
AcDbEntity
  8
0
100
AcDbLine
 10
1.750000000000002
 20
-15.57171769238835
 30
0.0
 11
2.126524613390194
 21
-15.67529961895551
 31
0.0
  0
LINE
  5
253B
330
24BA
100
AcDbEntity
  8
0
100
AcDbLine
 10
-1.750000000000002
 20
-15.57171769238835
 30
0.0
 11
-2.126524613390194
 21
-15.67529961895551
 31
0.0
  0
ARC
  5
253C
330
24BA
100
AcDbEntity
  8
0
100
AcDbCircle
 10
2.1
 20
-15.77171769238835
 30
0.0
 40
0.1
100
AcDbArc
 50
336.3812630634768
 51
74.61842137712794
  0
ARC
  5
253D
330
24BA
100
AcDbEntity
  8
0
100
AcDbCircle
 10
-2.1
 20
-15.77171769238835
 30
0.0
 40
0.1
100
AcDbArc
 50
105.381578622872
 51
203.6187369365246
  0
LINE
  5
253E
330
24BA
100
AcDbEntity
  8
0
100
AcDbLine
 10
-1.750000000000002
 20
-16.82171769238835
 30
0.0
 11
-2.191623175793066
 21
-15.81178256050985
 31
0.0
  0
LINE
  5
253F
330
24BA
100
AcDbEntity
  8
0
100
AcDbLine
 10
1.750000000000002
 20
-16.82171769238835
 30
0.0
 11
2.191623175793065
 21
-15.81178256050985
 31
0.0
  0
LINE
  5
2540
330
24BA
100
AcDbEntity
  8
0
100
AcDbLine
 10
1.750000000000002
 20
-14.32171769238835
 30
0.0
 11
2.126524613390194
 21
-14.42529961895551
 31
0.0
  0
LINE
  5
2541
330
24BA
100
AcDbEntity
  8
0
100
AcDbLine
 10
-1.750000000000002
 20
-14.32171769238835
 30
0.0
 11
-2.126524613390194
 21
-14.42529961895551
 31
0.0
  0
ARC
  5
2542
330
24BA
100
AcDbEntity
  8
0
100
AcDbCircle
 10
2.1
 20
-14.52171769238835
 30
0.0
 40
0.1
100
AcDbArc
 50
336.3812630634768
 51
74.61842137712794
  0
ARC
  5
2543
330
24BA
100
AcDbEntity
  8
0
100
AcDbCircle
 10
-2.1
 20
-14.52171769238835
 30
0.0
 40
0.1
100
AcDbArc
 50
105.381578622872
 51
203.6187369365246
  0
LINE
  5
2544
330
24BA
100
AcDbEntity
  8
0
100
AcDbLine
 10
-1.750000000000002
 20
-15.57171769238835
 30
0.0
 11
-2.191623175793066
 21
-14.56178256050985
 31
0.0
  0
LINE
  5
2545
330
24BA
100
AcDbEntity
  8
0
100
AcDbLine
 10
1.750000000000002
 20
-15.57171769238835
 30
0.0
 11
2.191623175793065
 21
-14.56178256050985
 31
0.0
  0
LINE
  5
2546
330
24BA
100
AcDbEntity
  8
0
100
AcDbLine
 10
1.750000000000002
 20
-13.07171769238835
 30
0.0
 11
2.126524613390194
 21
-13.17529961895551
 31
0.0
  0
LINE
  5
2547
330
24BA
100
AcDbEntity
  8
0
100
AcDbLine
 10
-1.750000000000002
 20
-13.07171769238835
 30
0.0
 11
-2.126524613390194
 21
-13.17529961895551
 31
0.0
  0
ARC
  5
2548
330
24BA
100
AcDbEntity
  8
0
100
AcDbCircle
 10
2.1
 20
-13.27171769238835
 30
0.0
 40
0.1
100
AcDbArc
 50
336.3812630634768
 51
74.61842137712794
  0
ARC
  5
2549
330
24BA
100
AcDbEntity
  8
0
100
AcDbCircle
 10
-2.1
 20
-13.27171769238835
 30
0.0
 40
0.1
100
AcDbArc
 50
105.381578622872
 51
203.6187369365246
  0
LINE
  5
254A
330
24BA
100
AcDbEntity
  8
0
100
AcDbLine
 10
-1.750000000000002
 20
-14.32171769238835
 30
0.0
 11
-2.191623175793066
 21
-13.31178256050985
 31
0.0
  0
LINE
  5
254B
330
24BA
100
AcDbEntity
  8
0
100
AcDbLine
 10
1.750000000000002
 20
-14.32171769238835
 30
0.0
 11
2.191623175793065
 21
-13.31178256050985
 31
0.0
  0
LINE
  5
254C
330
24BA
100
AcDbEntity
  8
0
100
AcDbLine
 10
1.750000000000002
 20
-11.82171769238835
 30
0.0
 11
2.126524613390194
 21
-11.92529961895551
 31
0.0
  0
LINE
  5
254D
330
24BA
100
AcDbEntity
  8
0
100
AcDbLine
 10
-1.750000000000002
 20
-11.82171769238835
 30
0.0
 11
-2.126524613390194
 21
-11.92529961895551
 31
0.0
  0
ARC
  5
254E
330
24BA
100
AcDbEntity
  8
0
100
AcDbCircle
 10
2.1
 20
-12.02171769238835
 30
0.0
 40
0.1
100
AcDbArc
 50
336.3812630634768
 51
74.61842137712794
  0
ARC
  5
254F
330
24BA
100
AcDbEntity
  8
0
100
AcDbCircle
 10
-2.1
 20
-12.02171769238835
 30
0.0
 40
0.1
100
AcDbArc
 50
105.381578622872
 51
203.6187369365246
  0
LINE
  5
2550
330
24BA
100
AcDbEntity
  8
0
100
AcDbLine
 10
-1.750000000000002
 20
-13.07171769238835
 30
0.0
 11
-2.191623175793066
 21
-12.06178256050985
 31
0.0
  0
LINE
  5
2551
330
24BA
100
AcDbEntity
  8
0
100
AcDbLine
 10
1.750000000000002
 20
-13.07171769238835
 30
0.0
 11
2.191623175793065
 21
-12.06178256050985
 31
0.0
  0
LINE
  5
2552
330
24BA
100
AcDbEntity
  8
0
100
AcDbLine
 10
1.749999999999997
 20
-10.57171769238835
 30
0.0
 11
2.126524613390194
 21
-10.67529961895551
 31
0.0
  0
LINE
  5
2553
330
24BA
100
AcDbEntity
  8
0
100
AcDbLine
 10
-1.749999999999998
 20
-10.57171769238835
 30
0.0
 11
-2.126524613390194
 21
-10.67529961895551
 31
0.0
  0
ARC
  5
2554
330
24BA
100
AcDbEntity
  8
0
100
AcDbCircle
 10
2.1
 20
-10.77171769238835
 30
0.0
 40
0.1
100
AcDbArc
 50
336.3812630634768
 51
74.61842137712794
  0
ARC
  5
2555
330
24BA
100
AcDbEntity
  8
0
100
AcDbCircle
 10
-2.1
 20
-10.77171769238835
 30
0.0
 40
0.1
100
AcDbArc
 50
105.381578622872
 51
203.6187369365246
  0
LINE
  5
2556
330
24BA
100
AcDbEntity
  8
0
100
AcDbLine
 10
-1.750000000000002
 20
-11.82171769238835
 30
0.0
 11
-2.191623175793066
 21
-10.81178256050985
 31
0.0
  0
LINE
  5
2557
330
24BA
100
AcDbEntity
  8
0
100
AcDbLine
 10
1.750000000000002
 20
-11.82171769238835
 30
0.0
 11
2.191623175793065
 21
-10.81178256050985
 31
0.0
  0
LINE
  5
2558
330
24BA
100
AcDbEntity
  8
0
100
AcDbLine
 10
2.166725741731042
 20
-29.32171769238835
 30
0.0
 11
1.555634918610404
 21
-31.00067593014824
 31
0.0
  0
LINE
  5
2559
330
24BA
100
AcDbEntity
  8
0
100
AcDbLine
 10
1.999999999999996
 20
-10.0
 30
0.0
 11
-1.999999999999988
 21
-10.0
 31
0.0
  0
LINE
  5
255A
330
24BA
100
AcDbEntity
  8
0
100
AcDbLine
 10
-1.749999999999998
 20
-10.57171769238835
 30
0.0
 11
-1.999999999999996
 21
-10.0
 31
0.0
  0
LINE
  5
255B
330
24BA
100
AcDbEntity
  8
0
100
AcDbLine
 10
1.749999999999997
 20
-10.57171769238835
 30
0.0
 11
1.999999999999996
 21
-9.999999999999998
 31
0.0
  0
LINE
  5
255C
330
24BA
100
AcDbEntity
  8
0
100
AcDbLine
 10
1.999999999999997
 20
-3.5
 30
0.0
 11
-1.999999999999988
 21
-3.5
 31
0.0
  0
LINE
  5
255D
330
24BA
100
AcDbEntity
  8
0
100
AcDbLine
 10
-3.500000000000004
 20
0.5000000000000011
 30
0.0
 11
-3.500000000000004
 21
1.250000000000001
 31
0.0
  0
LINE
  5
255E
330
24BA
100
AcDbEntity
  8
0
100
AcDbLine
 10
3.500000000000015
 20
0.5
 30
0.0
 11
3.500000000000015
 21
1.25
 31
0.0
  0
LINE
  5
255F
330
24BA
100
AcDbEntity
  8
0
100
AcDbLine
 10
-1.999999999999988
 20
-10.0
 30
0.0
 11
-1.999999999999987
 21
-3.5
 31
0.0
  0
LINE
  5
2560
330
24BA
100
AcDbEntity
  8
0
100
AcDbLine
 10
1.999999999999996
 20
-10.0
 30
0.0
 11
1.999999999999997
 21
-3.5
 31
0.0
  0
LINE
  5
2561
330
24BA
100
AcDbEntity
  8
0
100
AcDbLine
 10
-1.999999999999988
 20
-3.499999999999999
 30
0.0
 11
-2.775931319250277
 21
0.0
 31
0.0
  0
LINE
  5
2562
330
24BA
100
AcDbEntity
  8
0
100
AcDbLine
 10
1.999999999999997
 20
-3.5
 30
0.0
 11
2.775931319250287
 21
0.0
 31
0.0
  0
ENDBLK
  5
24BC
330
24BA
100
AcDbEntity
  8
0
100
AcDbBlockEnd
  0
BLOCK
  5
26B6
330
26B5
100
AcDbEntity
  8
0
100
AcDbBlockBegin
  2
CNA40X35S-Top
 70
     0
 10
0.0
 20
0.0
 30
0.0
  3
CNA40X35S-Top
  1

  0
LINE
  5
26B8
330
26B5
100
AcDbEntity
  8
0
100
AcDbLine
 10
-0.2531435728503481
 20
1.379135181946651
 30
0.0
 11
-0.3343173565637091
 21
0.9766961415649175
 31
0.0
  0
SPLINE
  5
26B9
330
26B5
100
AcDbEntity
  8
0
100
AcDbSpline
210
0.0
220
0.0
230
1.0
 70
     8
 71
     2
 72
     6
 73
     3
 74
     0
 42
0.000000001
 43
0.0000000001
 40
0.0
 40
0.0
 40
0.0
 40
1.0
 40
1.0
 40
1.0
 10
-0.3343173565637091
 20
0.9766961415649175
 30
0.0
 10
-0.1994088146175596
 20
1.070446145290207
 30
0.0
 10
-0.0507807599311238
 20
1.070446145290207
 30
0.0
  0
SPLINE
  5
26BA
330
26B5
100
AcDbEntity
  8
0
100
AcDbSpline
210
0.0
220
0.0
230
1.0
 70
     8
 71
     2
 72
     7
 73
     4
 74
     0
 42
0.000000001
 43
0.0000000001
 40
0.0
 40
0.0
 40
0.0
 40
1.0
 40
2.0
 40
2.0
 40
2.0
 10
-0.0507807599311238
 20
1.070446145290207
 30
0.0
 10
0.1458655893463143
 20
1.070446145290207
 30
0.0
 10
0.4156826732386133
 20
0.7983424759411945
 30
0.0
 10
0.4156826732386133
 20
0.5845467357383983
 30
0.0
  0
SPLINE
  5
26BB
330
26B5
100
AcDbEntity
  8
0
100
AcDbSpline
210
0.0
220
0.0
230
1.0
 70
     8
 71
     2
 72
     6
 73
     3
 74
     0
 42
0.000000001
 43
0.0000000001
 40
0.0
 40
0.0
 40
0.0
 40
1.0
 40
1.0
 40
1.0
 10
0.4156826732386133
 20
0.5845467357383983
 30
0.0
 10
0.4156826732386133
 20
0.3798973373624598
 30
0.0
 10
0.2967802294894646
 20
0.2312692826760239
 30
0.0
  0
SPLINE
  5
26BC
330
26B5
100
AcDbEntity
  8
0
100
AcDbSpline
210
0.0
220
0.0
230
1.0
 70
     8
 71
     2
 72
     6
 73
     3
 74
     0
 42
0.000000001
 43
0.0000000001
 40
0.0
 40
0.0
 40
0.0
 40
1.0
 40
1.0
 40
1.0
 10
0.2967802294894646
 20
0.2312692826760239
 30
0.0
 10
0.1527253457164576
 20
0.0494857388672293
 30
0.0
 10
-0.0965124690654118
 20
0.0494857388672293
 30
0.0
  0
SPLINE
  5
26BD
330
26B5
100
AcDbEntity
  8
0
100
AcDbSpline
210
0.0
220
0.0
230
1.0
 70
     8
 71
     2
 72
     7
 73
     4
 74
     0
 42
0.000000001
 43
0.0000000001
 40
0.0
 40
0.0
 40
0.0
 40
1.0
 40
2.0
 40
2.0
 40
2.0
 10
-0.0965124690654118
 20
0.0494857388672293
 30
0.0
 10
-0.3011618674413504
 20
0.0494857388672293
 30
0.0
 10
-0.5606893167784345
 20
0.2781442845386691
 30
0.0
 10
-0.5789820004321497
 20
0.4679308774459641
 30
0.0
  0
LINE
  5
26BE
330
26B5
100
AcDbEntity
  8
0
100
AcDbLine
 10
-0.5789820004321497
 20
0.4679308774459641
 30
0.0
 11
-0.385765529339783
 21
0.4839369756429649
 31
0.0
  0
SPLINE
  5
26BF
330
26B5
100
AcDbEntity
  8
0
100
AcDbSpline
210
0.0
220
0.0
230
1.0
 70
     8
 71
     2
 72
     7
 73
     4
 74
     0
 42
0.000000001
 43
0.0000000001
 40
0.0
 40
0.0
 40
0.0
 40
1.0
 40
2.0
 40
2.0
 40
2.0
 10
-0.385765529339783
 20
0.4839369756429649
 30
0.0
 10
-0.3640429675009962
 20
0.3421686773266721
 30
0.0
 10
-0.2085551564444172
 20
0.2004003790103796
 30
0.0
 10
-0.097655761793769
 20
0.2004003790103796
 30
0.0
  0
SPLINE
  5
26C0
330
26B5
100
AcDbEntity
  8
0
100
AcDbSpline
210
0.0
220
0.0
230
1.0
 70
     8
 71
     2
 72
     7
 73
     4
 74
     0
 42
0.000000001
 43
0.0000000001
 40
0.0
 40
0.0
 40
0.0
 40
1.0
 40
2.0
 40
2.0
 40
2.0
 10
-0.097655761793769
 20
0.2004003790103796
 30
0.0
 10
0.0372527801523805
 20
0.2004003790103796
 30
0.0
 10
0.2201796166895323
 20
0.4016198992012466
 30
0.0
 10
0.2201796166895323
 20
0.5673973448130404
 30
0.0
  0
SPLINE
  5
26C1
330
26B5
100
AcDbEntity
  8
0
100
AcDbSpline
210
0.0
220
0.0
230
1.0
 70
     8
 71
     2
 72
     7
 73
     4
 74
     0
 42
0.000000001
 43
0.0000000001
 40
0.0
 40
0.0
 40
0.0
 40
1.0
 40
2.0
 40
2.0
 40
2.0
 10
0.2201796166895323
 20
0.5673973448130404
 30
0.0
 10
0.2201796166895323
 20
0.7251717413263338
 30
0.0
 10
0.0441125365225237
 20
0.9080985778634856
 30
0.0
 10
-0.0999423472504834
 20
0.9080985778634856
 30
0.0
  0
SPLINE
  5
26C2
330
26B5
100
AcDbEntity
  8
0
100
AcDbSpline
210
0.0
220
0.0
230
1.0
 70
     8
 71
     2
 72
     7
 73
     4
 74
     0
 42
0.000000001
 43
0.0000000001
 40
0.0
 40
0.0
 40
0.0
 40
1.0
 40
2.0
 40
2.0
 40
2.0
 10
-0.0999423472504834
 20
0.9080985778634856
 30
0.0
 10
-0.1891191800623449
 20
0.9080985778634856
 30
0.0
 10
-0.3320307711069947
 20
0.8269247941501244
 30
0.0
 10
-0.3731893093278538
 20
0.7617571086337643
 30
0.0
  0
LINE
  5
26C3
330
26B5
100
AcDbEntity
  8
0
100
AcDbLine
 10
-0.3731893093278538
 20
0.7617571086337643
 30
0.0
 11
-0.5458265113097909
 21
0.7846229632009082
 31
0.0
  0
LINE
  5
26C4
330
26B5
100
AcDbEntity
  8
0
100
AcDbLine
 10
-0.5458265113097909
 20
0.7846229632009082
 30
0.0
 11
-0.4006283348084267
 21
1.55520226211366
 31
0.0
  0
LINE
  5
26C5
330
26B5
100
AcDbEntity
  8
0
100
AcDbLine
 10
-0.4006283348084267
 20
1.55520226211366
 30
0.0
 11
0.3447985240804669
 21
1.55520226211366
 31
0.0
  0
LINE
  5
26C6
330
26B5
100
AcDbEntity
  8
0
100
AcDbLine
 10
0.3447985240804669
 20
1.55520226211366
 30
0.0
 11
0.3447985240804669
 21
1.379135181946651
 31
0.0
  0
LINE
  5
26C7
330
26B5
100
AcDbEntity
  8
0
100
AcDbLine
 10
0.3447985240804669
 20
1.379135181946651
 30
0.0
 11
-0.2531435728503481
 21
1.379135181946651
 31
0.0
  0
SPLINE
  5
26C8
330
26B5
100
AcDbEntity
  8
0
100
AcDbSpline
210
0.0
220
0.0
230
1.0
 70
     8
 71
     2
 72
     7
 73
     4
 74
     0
 42
0.000000001
 43
0.0000000001
 40
0.0
 40
0.0
 40
0.0
 40
1.0
 40
2.0
 40
2.0
 40
2.0
 10
-1.269530808359897
 20
1.429440061994368
 30
0.0
 10
-1.377000324825474
 20
1.429440061994368
 30
0.0
 10
-1.519911915870124
 20
1.294531520048218
 30
0.0
 10
-1.540491184980553
 20
1.158479685373712
 30
0.0
  0
SPLINE
  5
26C9
330
26B5
100
AcDbEntity
  8
0
100
AcDbSpline
210
0.0
220
0.0
230
1.0
 70
     8
 71
     2
 72
     7
 73
     4
 74
     0
 42
0.000000001
 43
0.0000000001
 40
0.0
 40
0.0
 40
0.0
 40
1.0
 40
2.0
 40
2.0
 40
2.0
 10
-1.023722871763099
 20
1.195065052681142
 30
0.0
 10
-1.023722871763099
 20
1.296818105504933
 30
0.0
 10
-1.160917999165963
 20
1.429440061994368
 30
0.0
 10
-1.269530808359897
 20
1.429440061994368
 30
0.0
  0
SPLINE
  5
26CA
330
26B5
100
AcDbEntity
  8
0
100
AcDbSpline
210
0.0
220
0.0
230
1.0
 70
     8
 71
     2
 72
     7
 73
     4
 74
     0
 42
0.000000001
 43
0.0000000001
 40
0.0
 40
0.0
 40
0.0
 40
1.0
 40
2.0
 40
2.0
 40
2.0
 10
-1.330125322962829
 20
0.9446839451709159
 30
0.0
 10
-1.212366171942037
 20
0.9446839451709159
 30
0.0
 10
-1.023722871763099
 20
1.068159559833493
 30
0.0
 10
-1.023722871763099
 20
1.195065052681142
 30
0.0
  0
SPLINE
  5
26CB
330
26B5
100
AcDbEntity
  8
0
100
AcDbSpline
210
0.0
220
0.0
230
1.0
 70
     8
 71
     2
 72
     6
 73
     3
 74
     0
 42
0.000000001
 43
0.0000000001
 40
0.0
 40
0.0
 40
0.0
 40
1.0
 40
1.0
 40
1.0
 10
-1.359850933900116
 20
0.9469705306276303
 30
0.0
 10
-1.340414957518043
 20
0.9446839451709159
 30
0.0
 10
-1.330125322962829
 20
0.9446839451709159
 30
0.0
  0
LINE
  5
26CC
330
26B5
100
AcDbEntity
  8
0
100
AcDbLine
 10
-1.379286910282188
 20
0.7857662559292655
 30
0.0
 11
-1.359850933900116
 21
0.9469705306276303
 31
0.0
  0
SPLINE
  5
26CD
330
26B5
100
AcDbEntity
  8
0
100
AcDbSpline
210
0.0
220
0.0
230
1.0
 70
     8
 71
     2
 72
     6
 73
     3
 74
     0
 42
0.000000001
 43
0.0000000001
 40
0.0
 40
0.0
 40
0.0
 40
1.0
 40
1.0
 40
1.0
 10
-1.250094831977825
 20
0.8063455250396948
 30
0.0
 10
-1.301543004753899
 20
0.8063455250396948
 30
0.0
 10
-1.379286910282188
 20
0.7857662559292655
 30
0.0
  0
SPLINE
  5
26CE
330
26B5
100
AcDbEntity
  8
0
100
AcDbSpline
210
0.0
220
0.0
230
1.0
 70
     8
 71
     2
 72
     7
 73
     4
 74
     0
 42
0.000000001
 43
0.0000000001
 40
0.0
 40
0.0
 40
0.0
 40
1.0
 40
2.0
 40
2.0
 40
2.0
 10
-0.9562686007900252
 20
0.5148058793086092
 30
0.0
 10
-0.9562686007900252
 20
0.6417113721562583
 30
0.0
 10
-1.122046046401819
 20
0.8063455250396948
 30
0.0
 10
-1.250094831977825
 20
0.8063455250396948
 30
0.0
  0
SPLINE
  5
26CF
330
26B5
100
AcDbEntity
  8
0
100
AcDbSpline
210
0.0
220
0.0
230
1.0
 70
     8
 71
     2
 72
     7
 73
     4
 74
     0
 42
0.000000001
 43
0.0000000001
 40
0.0
 40
0.0
 40
0.0
 40
1.0
 40
2.0
 40
2.0
 40
2.0
 10
-1.264957637446468
 20
0.2015436717387367
 30
0.0
 10
-1.134622266413748
 20
0.2015436717387367
 30
0.0
 10
-0.9562686007900252
 20
0.3821839228191742
 30
0.0
 10
-0.9562686007900252
 20
0.5148058793086092
 30
0.0
  0
SPLINE
  5
26D0
330
26B5
100
AcDbEntity
  8
0
100
AcDbSpline
210
0.0
220
0.0
230
1.0
 70
     8
 71
     2
 72
     7
 73
     4
 74
     0
 42
0.000000001
 43
0.0000000001
 40
0.0
 40
0.0
 40
0.0
 40
1.0
 40
2.0
 40
2.0
 40
2.0
 10
-1.558783868634268
 20
0.4965131956548941
 30
0.0
 10
-1.526771672240267
 20
0.3398820918699579
 30
0.0
 10
-1.37471373936876
 20
0.2015436717387367
 30
0.0
 10
-1.264957637446468
 20
0.2015436717387367
 30
0.0
  0
LINE
  5
26D1
330
26B5
100
AcDbEntity
  8
0
100
AcDbLine
 10
-1.742853997899778
 20
0.4725040483593929
 30
0.0
 11
-1.558783868634268
 21
0.4965131956548941
 31
0.0
  0
SPLINE
  5
26D2
330
26B5
100
AcDbEntity
  8
0
100
AcDbSpline
210
0.0
220
0.0
230
1.0
 70
     8
 71
     2
 72
     7
 73
     4
 74
     0
 42
0.000000001
 43
0.0000000001
 40
0.0
 40
0.0
 40
0.0
 40
1.0
 40
2.0
 40
2.0
 40
2.0
 10
-1.266100930174826
 20
0.0494857388672293
 30
0.0
 10
-1.463890572180621
 20
0.0494857388672293
 30
0.0
 10
-1.724561314246062
 20
0.2850040409088122
 30
0.0
 10
-1.742853997899778
 20
0.4725040483593929
 30
0.0
  0
SPLINE
  5
26D3
330
26B5
100
AcDbEntity
  8
0
100
AcDbSpline
210
0.0
220
0.0
230
1.0
 70
     8
 71
     2
 72
     7
 73
     4
 74
     0
 42
0.000000001
 43
0.0000000001
 40
0.0
 40
0.0
 40
0.0
 40
1.0
 40
2.0
 40
2.0
 40
2.0
 10
-0.7607655442409444
 20
0.5182357574936808
 30
0.0
 10
-0.7607655442409444
 20
0.3227327009445998
 30
0.0
 10
-1.047732019058601
 20
0.0494857388672293
 30
0.0
 10
-1.266100930174826
 20
0.0494857388672293
 30
0.0
  0
SPLINE
  5
26D4
330
26B5
100
AcDbEntity
  8
0
100
AcDbSpline
210
0.0
220
0.0
230
1.0
 70
     8
 71
     2
 72
     7
 73
     4
 74
     0
 42
0.000000001
 43
0.0000000001
 40
0.0
 40
0.0
 40
0.0
 40
1.0
 40
2.0
 40
2.0
 40
2.0
 10
-1.040872262688457
 20
0.887519308753056
 30
0.0
 10
-0.9071070134706658
 20
0.8566504050874115
 30
0.0
 10
-0.7607655442409444
 20
0.6634339339950452
 30
0.0
 10
-0.7607655442409444
 20
0.5182357574936808
 30
0.0
  0
SPLINE
  5
26D5
330
26B5
100
AcDbEntity
  8
0
100
AcDbSpline
210
0.0
220
0.0
230
1.0
 70
     8
 71
     2
 72
     7
 73
     4
 74
     0
 42
0.000000001
 43
0.0000000001
 40
0.0
 40
0.0
 40
0.0
 40
1.0
 40
2.0
 40
2.0
 40
2.0
 10
-0.8339362788558048
 20
1.19163517449607
 30
0.0
 10
-0.8339362788558048
 20
1.094455292585708
 30
0.0
 10
-0.9379759171363101
 20
0.9343943106157011
 30
0.0
 10
-1.040872262688457
 20
0.887519308753056
 30
0.0
  0
SPLINE
  5
26D6
330
26B5
100
AcDbEntity
  8
0
100
AcDbSpline
210
0.0
220
0.0
230
1.0
 70
     8
 71
     2
 72
     8
 73
     5
 74
     0
 42
0.000000001
 43
0.0000000001
 40
0.0
 40
0.0
 40
0.0
 40
1.0
 40
2.0
 40
3.0
 40
3.0
 40
3.0
 10
-1.272960686544969
 20
1.580354702137518
 30
0.0
 10
-1.150628364610748
 20
1.580354702137518
 30
0.0
 10
-0.943692380778096
 20
1.475171771128656
 30
0.0
 10
-0.8339362788558048
 20
1.293388227319861
 30
0.0
 10
-0.8339362788558048
 20
1.19163517449607
 30
0.0
  0
SPLINE
  5
26D7
330
26B5
100
AcDbEntity
  8
0
100
AcDbSpline
210
0.0
220
0.0
230
1.0
 70
     8
 71
     2
 72
     7
 73
     4
 74
     0
 42
0.000000001
 43
0.0000000001
 40
0.0
 40
0.0
 40
0.0
 40
1.0
 40
2.0
 40
2.0
 40
2.0
 10
-1.724561314246062
 20
1.19163517449607
 30
0.0
 10
-1.690262532395346
 20
1.376848596489937
 30
0.0
 10
-1.451314352168692
 20
1.580354702137518
 30
0.0
 10
-1.272960686544969
 20
1.580354702137518
 30
0.0
  0
LINE
  5
26D8
330
26B5
100
AcDbEntity
  8
0
100
AcDbLine
 10
-1.540491184980554
 20
1.158479685373712
 30
0.0
 11
-1.724561314246062
 21
1.19163517449607
 31
0.0
  0
CIRCLE
  5
26D9
330
26B5
100
AcDbEntity
  8
0
100
AcDbCircle
 10
0.0000000000000056
 20
0.0
 30
0.0
 40
3.500000000000009
  0
CIRCLE
  5
26DA
330
26B5
100
AcDbEntity
  8
0
100
AcDbCircle
 10
0.0000000000000056
 20
0.0
 30
0.0
 40
3.250000000000009
  0
LINE
  5
26DB
330
26B5
100
AcDbEntity
  8
0
100
AcDbLine
 10
0.2114195845729008
 20
-1.466773692787436
 30
0.0
 11
-0.6755677135348783
 21
-1.466773692787437
 31
0.0
  0
LINE
  5
26DC
330
26B5
100
AcDbEntity
  8
0
100
AcDbLine
 10
-0.6755677135348783
 20
-1.466773692787437
 30
0.0
 11
-0.6755677135348783
 21
-1.166773692787436
 31
0.0
  0
LINE
  5
26DD
330
26B5
100
AcDbEntity
  8
0
100
AcDbLine
 10
-0.6755677135348783
 20
-1.166773692787436
 30
0.0
 11
0.3846246653297886
 21
-1.166773692787436
 31
0.0
  0
LINE
  5
26DE
330
26B5
100
AcDbEntity
  8
0
100
AcDbLine
 10
0.3846246653297886
 20
-1.166773692787436
 30
0.0
 11
0.5578297460866752
 21
-0.8667736927874386
 31
0.0
  0
LINE
  5
26DF
330
26B5
100
AcDbEntity
  8
0
100
AcDbLine
 10
0.5578297460866752
 20
-0.8667736927874386
 30
0.0
 11
-0.6755677135348783
 21
-0.8667736927874386
 31
0.0
  0
LINE
  5
26E0
330
26B5
100
AcDbEntity
  8
0
100
AcDbLine
 10
-0.6755677135348783
 20
-0.8667736927874386
 30
0.0
 11
-0.6755677135348783
 21
-0.5667736927874369
 31
0.0
  0
LINE
  5
26E1
330
26B5
100
AcDbEntity
  8
0
100
AcDbLine
 10
-0.6755677135348783
 20
-0.5667736927874369
 30
0.0
 11
0.731034826843564
 21
-0.5667736927874369
 31
0.0
  0
LINE
  5
26E2
330
26B5
100
AcDbEntity
  8
0
100
AcDbLine
 10
0.7310348268435641
 20
-0.5667736927874369
 30
0.0
 11
1.174528475897453
 21
0.2013798402080209
 31
0.0
  0
LINE
  5
26E3
330
26B5
100
AcDbEntity
  8
0
100
AcDbLine
 10
1.174528475897453
 20
0.2013798402080209
 30
0.0
 11
1.434336097032785
 21
0.0513798402080214
 31
0.0
  0
LINE
  5
26E4
330
26B5
100
AcDbEntity
  8
0
100
AcDbLine
 10
1.434336097032785
 20
0.0513798402080214
 30
0.0
 11
1.077444988357339
 21
-0.5667736927874369
 31
0.0
  0
LINE
  5
26E5
330
26B5
100
AcDbEntity
  8
0
100
AcDbLine
 10
1.077444988357339
 20
-0.5667736927874369
 30
0.0
 11
1.964432286465117
 21
-0.5667736927874369
 31
0.0
  0
LINE
  5
26E6
330
26B5
100
AcDbEntity
  8
0
100
AcDbLine
 10
1.964432286465117
 20
-0.5667736927874369
 30
0.0
 11
1.964432286465117
 21
-0.8667736927874386
 31
0.0
  0
LINE
  5
26E7
330
26B5
100
AcDbEntity
  8
0
100
AcDbLine
 10
1.964432286465117
 20
-0.8667736927874386
 30
0.0
 11
0.9042399076004505
 21
-0.8667736927874386
 31
0.0
  0
LINE
  5
26E8
330
26B5
100
AcDbEntity
  8
0
100
AcDbLine
 10
0.9042399076004505
 20
-0.8667736927874386
 30
0.0
 11
0.7310348268435638
 21
-1.166773692787436
 31
0.0
  0
LINE
  5
26E9
330
26B5
100
AcDbEntity
  8
0
100
AcDbLine
 10
0.7310348268435638
 20
-1.166773692787436
 30
0.0
 11
1.964432286465117
 21
-1.166773692787436
 31
0.0
  0
LINE
  5
26EA
330
26B5
100
AcDbEntity
  8
0
100
AcDbLine
 10
1.964432286465117
 20
-1.166773692787436
 30
0.0
 11
1.964432286465117
 21
-1.466773692787435
 31
0.0
  0
LINE
  5
26EB
330
26B5
100
AcDbEntity
  8
0
100
AcDbLine
 10
1.964432286465117
 20
-1.466773692787435
 30
0.0
 11
0.557829746086676
 21
-1.466773692787436
 31
0.0
  0
LINE
  5
26EC
330
26B5
100
AcDbEntity
  8
0
100
AcDbLine
 10
0.557829746086676
 20
-1.466773692787436
 30
0.0
 11
0.1143360970327862
 21
-2.234927225782894
 31
0.0
  0
LINE
  5
26ED
330
26B5
100
AcDbEntity
  8
0
100
AcDbLine
 10
0.1143360970327862
 20
-2.234927225782894
 30
0.0
 11
-0.1454715241025449
 21
-2.084927225782894
 31
0.0
  0
LINE
  5
26EE
330
26B5
100
AcDbEntity
  8
0
100
AcDbLine
 10
-0.1454715241025449
 20
-2.084927225782894
 30
0.0
 11
0.2114195845729008
 21
-1.466773692787436
 31
0.0
  0
ENDBLK
  5
26B7
330
26B5
100
AcDbEntity
  8
0
100
AcDbBlockEnd
  0
BLOCK
  5
271A
330
2719
100
AcDbEntity
  8
0
100
AcDbBlockBegin
  2
CNA40X35S-ISO
 70
     0
 10
0.0
 20
0.0
 30
0.0
  3
CNA40X35S-ISO
  1

  0
SPLINE
  5
271C
330
2719
100
AcDbEntity
  8
0
100
AcDbSpline
210
0.0
220
0.0
230
1.0
 70
     8
 71
     3
 72
    12
 73
     8
 74
     0
 42
0.000000001
 43
0.0000000001
 40
-0.0251181849689023
 40
-0.0251181849689023
 40
-0.0251181849689023
 40
-0.0251181849689023
 40
-0.0246958190877801
 40
-0.0246958190877801
 40
-0.0114451714174098
 40
-0.0114451714174098
 40
0.0
 40
0.0
 40
0.0
 40
0.0
 10
-0.0108790709527664
 20
15.05349325582843
 30
0.0
 10
-0.0108790717547441
 20
15.05307686695369
 30
0.0
 10
-0.0108759368021663
 20
15.05266025785103
 30
0.0
 10
-0.010672304001844
 20
15.03916654434329
 30
0.0
 10
-0.0077151211548139
 20
15.0182269379817
 30
0.0
 10
0.0237868217721934
 20
14.97431317137803
 30
0.0
 10
0.0456748878273009
 20
14.9565391030682
 30
0.0
 10
0.0726514155642772
 20
14.94096419751745
 30
0.0
  0
LINE
  5
271D
330
2719
100
AcDbEntity
  8
0
100
AcDbLine
 10
-0.0785250021219174
 20
15.24668368023025
 30
0.0
 11
0.0141999206620158
 21
15.2013400317869
 31
0.0
  0
SPLINE
  5
271E
330
2719
100
AcDbEntity
  8
0
100
AcDbSpline
210
0.0
220
0.0
230
1.0
 70
     8
 71
     3
 72
    10
 73
     6
 74
     0
 42
0.000000001
 43
0.0000000001
 40
-0.0252090339838937
 40
-0.0252090339838937
 40
-0.0252090339838937
 40
-0.0252090339838937
 40
-0.019360994420705
 40
-0.019360994420705
 40
0.0
 40
0.0
 40
0.0
 40
0.0
 10
-0.1839958953896011
 20
15.11891387911222
 30
0.0
 10
-0.181064070493418
 20
15.12905431045189
 30
0.0
 10
-0.1768782330921984
 20
15.13955343345351
 30
0.0
 10
-0.152104235464131
 20
15.18592052348931
 30
0.0
 10
-0.1195705971542689
 20
15.21793048868319
 30
0.0
 10
-0.0785250021219174
 20
15.24668368023025
 30
0.0
  0
SPLINE
  5
271F
330
2719
100
AcDbEntity
  8
0
100
AcDbSpline
210
0.0
220
0.0
230
1.0
 70
     8
 71
     3
 72
    10
 73
     6
 74
     0
 42
0.000000001
 43
0.0000000001
 40
-0.0662996595873179
 40
-0.0662996595873179
 40
-0.0662996595873179
 40
-0.0662996595873179
 40
-0.0533248606596352
 40
-0.0533248606596352
 40
-0.045474170802999
 40
-0.045474170802999
 40
-0.045474170802999
 40
-0.045474170802999
 10
0.7210123085285982
 20
15.2770222548506
 30
0.0
 10
0.7658941758689392
 20
15.25110969665992
 30
0.0
 10
0.8021194812084962
 20
15.22151499955296
 30
0.0
 10
0.8407846216160182
 20
15.16709180728297
 30
0.0
 10
0.8493414529424377
 20
15.14714287714337
 30
0.0
 10
0.8540817357499884
 20
15.12872080713718
 30
0.0
  0
SPLINE
  5
2720
330
2719
100
AcDbEntity
  8
0
100
AcDbSpline
210
0.0
220
0.0
230
1.0
 70
     8
 71
     3
 72
    10
 73
     6
 74
     0
 42
0.000000001
 43
0.0000000001
 40
-0.0286338016973754
 40
-0.0286338016973754
 40
-0.0286338016973754
 40
-0.0286338016973754
 40
-0.014897144843495
 40
-0.014897144843495
 40
0.0
 40
0.0
 40
0.0
 40
0.0
 10
0.4728462371882283
 20
15.35239938944716
 30
0.0
 10
0.5175453164088912
 20
15.34693749182928
 30
0.0
 10
0.5608637818198044
 20
15.33861069184658
 30
0.0
 10
0.6461296809103296
 20
15.31384737031454
 30
0.0
 10
0.6858994013980866
 20
15.29729470123443
 30
0.0
 10
0.7210123085285982
 20
15.2770222548506
 30
0.0
  0
LINE
  5
2721
330
2719
100
AcDbEntity
  8
0
100
AcDbLine
 10
0.8164070533787104
 20
15.61774778520226
 30
0.0
 11
1.272792762058981
 21
15.35425337344141
 31
0.0
  0
LINE
  5
2722
330
2719
100
AcDbEntity
  8
0
100
AcDbLine
 10
0.2399835105013955
 20
15.3904810394555
 30
0.0
 11
0.8164070533787104
 21
15.61774778520226
 31
0.0
  0
SPLINE
  5
2723
330
2719
100
AcDbEntity
  8
0
100
AcDbSpline
210
0.0
220
0.0
230
1.0
 70
     8
 71
     3
 72
    10
 73
     6
 74
     0
 42
0.000000001
 43
0.0000000001
 40
-0.0450264857570363
 40
-0.0450264857570363
 40
-0.0450264857570363
 40
-0.0450264857570363
 40
-0.034514499753608
 40
-0.034514499753608
 40
-0.0253057639777983
 40
-0.0253057639777983
 40
-0.0253057639777983
 40
-0.0253057639777983
 10
0.5569010101847614
 20
14.96103433149707
 30
0.0
 10
0.594877445229312
 20
14.9829600364929
 30
0.0
 10
0.6277206787358298
 20
15.00816876432231
 30
0.0
 10
0.6662605395871866
 20
15.06195563818103
 30
0.0
 10
0.6709464498068925
 20
15.08427673091629
 30
0.0
 10
0.6709460592451798
 20
15.10212530090508
 30
0.0
  0
SPLINE
  5
2724
330
2719
100
AcDbEntity
  8
0
100
AcDbSpline
210
0.0
220
0.0
230
1.0
 70
     8
 71
     3
 72
    14
 73
    10
 74
     0
 42
0.000000001
 43
0.0000000001
 40
-0.0549000980012464
 40
-0.0549000980012464
 40
-0.0549000980012464
 40
-0.0549000980012464
 40
-0.0426887129401486
 40
-0.0426887129401486
 40
-0.0305308375627006
 40
-0.0305308375627006
 40
-0.0170548697686429
 40
-0.0170548697686429
 40
0.0
 40
0.0
 40
0.0
 40
0.0
 10
0.0726514155642772
 20
14.94096419751745
 30
0.0
 10
0.1014475434379218
 20
14.92433874533799
 30
0.0
 10
0.1343327096612701
 20
14.91096651969142
 30
0.0
 10
0.2094766143883757
 20
14.89308881895336
 30
0.0
 10
0.2488812189280065
 20
14.88921374354119
 30
0.0
 10
0.3343667473966991
 20
14.88958684551833
 30
0.0
 10
0.3770700942610147
 20
14.89474537338699
 30
0.0
 10
0.4706952584386264
 20
14.91785009624603
 30
0.0
 10
0.5167022966325585
 20
14.93782559340663
 30
0.0
 10
0.5569010101847614
 20
14.96103433149707
 30
0.0
  0
LINE
  5
2725
330
2719
100
AcDbEntity
  8
0
100
AcDbLine
 10
0.7961963023511443
 20
15.56730795687103
 30
0.0
 11
0.4542303949647256
 21
15.43615196505073
 31
0.0
  0
LINE
  5
2726
330
2719
100
AcDbEntity
  8
0
100
AcDbLine
 10
0.4542303949647256
 20
15.35680398453064
 30
0.0
 11
0.4542303949647256
 21
15.43615196505073
 31
0.0
  0
SPLINE
  5
2727
330
2719
100
AcDbEntity
  8
0
100
AcDbSpline
210
0.0
220
0.0
230
1.0
 70
     8
 71
     2
 72
     6
 73
     3
 74
     0
 42
0.000000001
 43
0.0000000001
 40
0.0
 40
0.0
 40
0.0
 40
1.0
 40
1.0
 40
1.0
 10
0.4542303949647256
 20
15.43615196505073
 30
0.0
 10
0.6159164031852545
 20
15.41934906218408
 30
0.0
 10
0.7210123085285983
 20
15.35867191294337
 30
0.0
  0
LINE
  5
2728
330
2719
100
AcDbEntity
  8
0
100
AcDbLine
 10
0.7210123085285982
 20
15.2770222548506
 30
0.0
 11
0.7210123085285982
 21
15.35867191294337
 31
0.0
  0
SPLINE
  5
2729
330
2719
100
AcDbEntity
  8
0
100
AcDbSpline
210
0.0
220
0.0
230
1.0
 70
     8
 71
     2
 72
     7
 73
     4
 74
     0
 42
0.000000001
 43
0.0000000001
 40
0.0
 40
0.0
 40
0.0
 40
1.0
 40
2.0
 40
2.0
 40
2.0
 10
0.7210123085285983
 20
15.35867191294337
 30
0.0
 10
0.8600622755982529
 20
15.2783913770249
 30
0.0
 10
0.8584454155160477
 20
15.05715315594725
 30
0.0
 10
0.7072689978298533
 20
14.969871410501
 30
0.0
  0
SPLINE
  5
272A
330
2719
100
AcDbEntity
  8
0
100
AcDbSpline
210
0.0
220
0.0
230
1.0
 70
     8
 71
     2
 72
     6
 73
     3
 74
     0
 42
0.000000001
 43
0.0000000001
 40
0.0
 40
0.0
 40
0.0
 40
1.0
 40
1.0
 40
1.0
 10
0.7072689978298533
 20
14.96987141050099
 30
0.0
 10
0.56256002047248
 20
14.88632364346956
 30
0.0
 10
0.373387390854461
 20
14.87418821362142
 30
0.0
  0
SPLINE
  5
272B
330
2719
100
AcDbEntity
  8
0
100
AcDbSpline
210
0.0
220
0.0
230
1.0
 70
     8
 71
     2
 72
     6
 73
     3
 74
     0
 42
0.000000001
 43
0.0000000001
 40
0.0
 40
0.0
 40
0.0
 40
1.0
 40
1.0
 40
1.0
 10
0.373387390854461
 20
14.87418821362142
 30
0.0
 10
0.1429848291402073
 20
14.85878555266032
 30
0.0
 10
-0.0332529198201693
 20
14.96053646446396
 30
0.0
  0
SPLINE
  5
272C
330
2719
100
AcDbEntity
  8
0
100
AcDbSpline
210
0.0
220
0.0
230
1.0
 70
     8
 71
     2
 72
     7
 73
     4
 74
     0
 42
0.000000001
 43
0.0000000001
 40
0.0
 40
0.0
 40
0.0
 40
1.0
 40
2.0
 40
2.0
 40
2.0
 10
-0.0332529198201693
 20
14.96053646446396
 30
0.0
 10
-0.1779618971775426
 20
15.0440842314954
 30
0.0
 10
-0.199789508287314
 20
15.24338532938603
 30
0.0
 10
-0.0785250021219174
 20
15.32833333832302
 30
0.0
  0
LINE
  5
272D
330
2719
100
AcDbEntity
  8
0
100
AcDbLine
 10
-0.0785250021219174
 20
15.24668368023025
 30
0.0
 11
-0.0785250021219174
 21
15.32833333832302
 31
0.0
  0
LINE
  5
272E
330
2719
100
AcDbEntity
  8
0
100
AcDbLine
 10
-0.0785250021219174
 20
15.32833333832302
 30
0.0
 11
0.0694176953998666
 21
15.25598750653602
 31
0.0
  0
SPLINE
  5
272F
330
2719
100
AcDbEntity
  8
0
100
AcDbSpline
210
0.0
220
0.0
230
1.0
 70
     8
 71
     2
 72
     7
 73
     4
 74
     0
 42
0.000000001
 43
0.0000000001
 40
0.0
 40
0.0
 40
0.0
 40
1.0
 40
2.0
 40
2.0
 40
2.0
 10
0.0694176953998666
 20
15.25598750653603
 30
0.0
 10
-0.0154674589159111
 20
15.18924264237124
 30
0.0
 10
-0.0057662984226793
 20
15.06788834388983
 30
0.0
 10
0.0726514155642772
 20
15.02261385561023
 30
0.0
  0
LINE
  5
2730
330
2719
100
AcDbEntity
  8
0
100
AcDbLine
 10
0.0726514155642772
 20
14.94096419751745
 30
0.0
 11
0.0726514155642772
 21
15.02261385561022
 31
0.0
  0
SPLINE
  5
2731
330
2719
100
AcDbEntity
  8
0
100
AcDbSpline
210
0.0
220
0.0
230
1.0
 70
     8
 71
     2
 72
     7
 73
     4
 74
     0
 42
0.000000001
 43
0.0000000001
 40
0.0
 40
0.0
 40
0.0
 40
1.0
 40
2.0
 40
2.0
 40
2.0
 10
0.0726514155642772
 20
15.02261385561023
 30
0.0
 10
0.1680461604143893
 20
14.96753767399174
 30
0.0
 10
0.4396786542248779
 20
14.97500563082137
 30
0.0
 10
0.5569010101847614
 20
15.04268398958985
 30
0.0
  0
LINE
  5
2732
330
2719
100
AcDbEntity
  8
0
100
AcDbLine
 10
0.5569010101847615
 20
14.96103433149707
 30
0.0
 11
0.5569010101847615
 21
15.04268398958984
 31
0.0
  0
SPLINE
  5
2733
330
2719
100
AcDbEntity
  8
0
100
AcDbSpline
210
0.0
220
0.0
230
1.0
 70
     8
 71
     2
 72
     7
 73
     4
 74
     0
 42
0.000000001
 43
0.0000000001
 40
0.0
 40
0.0
 40
0.0
 40
1.0
 40
2.0
 40
2.0
 40
2.0
 10
0.5569010101847614
 20
15.04268398958985
 30
0.0
 10
0.6684643558569264
 20
15.10709511724537
 30
0.0
 10
0.6733149361035423
 20
15.25365377002677
 30
0.0
 10
0.571452750924609
 20
15.31246393006006
 30
0.0
  0
SPLINE
  5
2734
330
2719
100
AcDbEntity
  8
0
100
AcDbSpline
210
0.0
220
0.0
230
1.0
 70
     8
 71
     2
 72
     7
 73
     4
 74
     0
 42
0.000000001
 43
0.0000000001
 40
0.0
 40
0.0
 40
0.0
 40
1.0
 40
2.0
 40
2.0
 40
2.0
 10
0.571452750924609
 20
15.31246393006006
 30
0.0
 10
0.5083952077186027
 20
15.34887021960449
 30
0.0
 10
0.3499429196624843
 20
15.37407457390448
 30
0.0
 10
0.2747589258399384
 20
15.36427288056559
 30
0.0
  0
LINE
  5
2735
330
2719
100
AcDbEntity
  8
0
100
AcDbLine
 10
0.2747589258399384
 20
15.36427288056559
 30
0.0
 11
0.1688545904554919
 21
15.44408666918221
 31
0.0
  0
LINE
  5
2736
330
2719
100
AcDbEntity
  8
0
100
AcDbLine
 10
0.1688545904554919
 20
15.44408666918221
 30
0.0
 11
0.8164070533787104
 21
15.69939744329503
 31
0.0
  0
LINE
  5
2737
330
2719
100
AcDbEntity
  8
0
100
AcDbLine
 10
0.8164070533787104
 20
15.61774778520226
 30
0.0
 11
0.8164070533787104
 21
15.69939744329503
 31
0.0
  0
LINE
  5
2738
330
2719
100
AcDbEntity
  8
0
100
AcDbLine
 10
0.8164070533787104
 20
15.69939744329503
 30
0.0
 11
1.343503440177634
 21
15.39507820248779
 31
0.0
  0
LINE
  5
2739
330
2719
100
AcDbEntity
  8
0
100
AcDbLine
 10
1.343503440177634
 20
15.39507820248779
 30
0.0
 11
1.219005213847827
 21
15.32319911800265
 31
0.0
  0
LINE
  5
273A
330
2719
100
AcDbEntity
  8
0
100
AcDbLine
 10
1.219005213847827
 20
15.32319911800265
 30
0.0
 11
0.7961963023511443
 21
15.56730795687103
 31
0.0
  0
SPLINE
  5
273B
330
2719
100
AcDbEntity
  8
0
100
AcDbSpline
210
0.0
220
0.0
230
1.0
 70
     8
 71
     2
 72
     7
 73
     4
 74
     0
 42
0.000000001
 43
0.0000000001
 40
0.0
 40
0.0
 40
0.0
 40
1.0
 40
2.0
 40
2.0
 40
2.0
 10
0.1130729176194094
 20
16.00278318949857
 30
0.0
 10
0.0370804937557608
 20
16.04665743587262
 30
0.0
 10
-0.1593680062321817
 20
16.04992466698558
 30
0.0
 10
-0.2701229218632442
 20
16.00278318949857
 30
0.0
  0
SPLINE
  5
273C
330
2719
100
AcDbEntity
  8
0
100
AcDbSpline
210
0.0
220
0.0
230
1.0
 70
     8
 71
     2
 72
     7
 73
     4
 74
     0
 42
0.000000001
 43
0.0000000001
 40
0.0
 40
0.0
 40
0.0
 40
1.0
 40
2.0
 40
2.0
 40
2.0
 10
0.1211572180304359
 20
15.8067493227209
 30
0.0
 10
0.1931074916885714
 20
15.84828983258569
 30
0.0
 10
0.1898737715241606
 20
15.95844219582267
 30
0.0
 10
0.1130729176194094
 20
16.00278318949857
 30
0.0
  0
LINE
  5
273D
330
2719
100
AcDbEntity
  8
0
100
AcDbLine
 10
0.1211572180304359
 20
15.72509966462813
 30
0.0
 11
0.1211572180304359
 21
15.8067493227209
 31
0.0
  0
SPLINE
  5
273E
330
2719
100
AcDbEntity
  8
0
100
AcDbSpline
210
0.0
220
0.0
230
1.0
 70
     8
 71
     3
 72
    10
 73
     6
 74
     0
 42
0.000000001
 43
0.0000000001
 40
-0.0535041853017298
 40
-0.0535041853017298
 40
-0.0535041853017298
 40
-0.0535041853017298
 40
-0.0370327452861533
 40
-0.0370327452861533
 40
-0.022316248746458
 40
-0.022316248746458
 40
-0.022316248746458
 40
-0.022316248746458
 10
0.1211572180304359
 20
15.72509966462813
 30
0.0
 10
0.1441320193726674
 20
15.73836417236764
 30
0.0
 10
0.1629440505840116
 20
15.75350845040622
 30
0.0
 10
0.1863694147634207
 20
15.7863570349019
 30
0.0
 10
0.1915261669525735
 20
15.80255534422511
 30
0.0
 10
0.1915261669922219
 20
15.81930196323359
 30
0.0
  0
SPLINE
  5
273F
330
2719
100
AcDbEntity
  8
0
100
AcDbSpline
210
0.0
220
0.0
230
1.0
 70
     8
 71
     2
 72
     7
 73
     4
 74
     0
 42
0.000000001
 43
0.0000000001
 40
0.0
 40
0.0
 40
0.0
 40
1.0
 40
2.0
 40
2.0
 40
2.0
 10
-0.2725482119865521
 20
15.82961994051163
 30
0.0
 10
-0.1892799177529798
 20
15.78154496842092
 30
0.0
 10
0.0314214834680424
 20
15.75494037221537
 30
0.0
 10
0.1211572180304359
 20
15.8067493227209
 30
0.0
  0
LINE
  5
2740
330
2719
100
AcDbEntity
  8
0
100
AcDbLine
 10
-0.2725482119865521
 20
15.74797028241886
 30
0.0
 11
-0.2725482119865521
 21
15.82961994051163
 31
0.0
  0
SPLINE
  5
2741
330
2719
100
AcDbEntity
  8
0
100
AcDbSpline
210
0.0
220
0.0
230
1.0
 70
     8
 71
     3
 72
    16
 73
    12
 74
     0
 42
0.000000001
 43
0.0000000001
 40
-0.0233678010070335
 40
-0.0233678010070335
 40
-0.0233678010070335
 40
-0.0233678010070335
 40
-0.0216566018240619
 40
-0.0216566018240619
 40
-0.0199943136632002
 40
-0.0199943136632002
 40
-0.0176120699318763
 40
-0.0176120699318763
 40
-0.0098230611982069
 40
-0.0098230611982069
 40
0.0
 40
0.0
 40
0.0
 40
0.0
 10
-0.2725482119865521
 20
15.74797028241886
 30
0.0
 10
-0.2498036305438192
 20
15.73483869220029
 30
0.0
 10
-0.2248315588241522
 20
15.72324180207748
 30
0.0
 10
-0.1707105242081321
 20
15.70416171146602
 30
0.0
 10
-0.1424330863576027
 20
15.69682830778639
 30
0.0
 10
-0.0697165553710458
 20
15.68401633104435
 30
0.0
 10
-0.04135635776451
 20
15.68384811886704
 30
0.0
 10
-0.0074380443952096
 20
15.68397458065442
 30
0.0
 10
0.0174853598233953
 20
15.68700237057501
 30
0.0
 10
0.071522263180276
 20
15.70028809627171
 30
0.0
 10
0.0980040407462275
 20
15.71173217149049
 30
0.0
 10
0.1211572180304359
 20
15.72509966462813
 30
0.0
  0
SPLINE
  5
2742
330
2719
100
AcDbEntity
  8
0
100
AcDbSpline
210
0.0
220
0.0
230
1.0
 70
     8
 71
     2
 72
     6
 73
     3
 74
     0
 42
0.000000001
 43
0.0000000001
 40
0.0
 40
0.0
 40
0.0
 40
1.0
 40
1.0
 40
1.0
 10
-0.2919505329730155
 20
15.84268886496348
 30
0.0
 10
-0.279824082356476
 20
15.8338206662283
 30
0.0
 10
-0.2725482119865521
 20
15.82961994051163
 30
0.0
  0
LINE
  5
2743
330
2719
100
AcDbEntity
  8
0
100
AcDbLine
 10
-0.2919505329730155
 20
15.7610392068707
 30
0.0
 11
-0.2919505329730155
 21
15.84268886496347
 31
0.0
  0
SPLINE
  5
2744
330
2719
100
AcDbEntity
  8
0
100
AcDbSpline
210
0.0
220
0.0
230
1.0
 70
     8
 71
     3
 72
    10
 73
     6
 74
     0
 42
0.000000001
 43
0.0000000001
 40
-0.0029015007588548
 40
-0.0029015007588548
 40
-0.0029015007588548
 40
-0.0029015007588548
 40
-0.0012084426583146
 40
-0.0012084426583146
 40
0.0
 40
0.0
 40
0.0
 40
0.0
 10
-0.2919505329730155
 20
15.7610392068707
 30
0.0
 10
-0.2884758692998034
 20
15.75849814939507
 30
0.0
 10
-0.2846925685256141
 20
15.75580036071226
 30
0.0
 10
-0.2784273223747386
 20
15.75158024556855
 30
0.0
 10
-0.2753965386477835
 20
15.74961476458346
 30
0.0
 10
-0.2725482119865521
 20
15.74797028241886
 30
0.0
  0
LINE
  5
2745
330
2719
100
AcDbEntity
  8
0
100
AcDbLine
 10
-0.4196824794672333
 20
15.78481219953387
 30
0.0
 11
-0.2919505329730155
 21
15.84268886496347
 31
0.0
  0
LINE
  5
2746
330
2719
100
AcDbEntity
  8
0
100
AcDbLine
 10
-0.3244507682240696
 20
15.74631301429605
 30
0.0
 11
-0.2919505329730155
 21
15.7610392068707
 31
0.0
  0
SPLINE
  5
2747
330
2719
100
AcDbEntity
  8
0
100
AcDbSpline
210
0.0
220
0.0
230
1.0
 70
     8
 71
     2
 72
     6
 73
     3
 74
     0
 42
0.000000001
 43
0.0000000001
 40
0.0
 40
0.0
 40
0.0
 40
1.0
 40
1.0
 40
1.0
 10
-0.313778144082787
 20
15.74047120585798
 30
0.0
 10
-0.3501574959324059
 20
15.7614748344413
 30
0.0
 10
-0.4196824794672333
 20
15.78481219953388
 30
0.0
  0
SPLINE
  5
2748
330
2719
100
AcDbEntity
  8
0
100
AcDbSpline
210
0.0
220
0.0
230
1.0
 70
     8
 71
     2
 72
     7
 73
     4
 74
     0
 42
0.000000001
 43
0.0000000001
 40
0.0
 40
0.0
 40
0.0
 40
1.0
 40
2.0
 40
2.0
 40
2.0
 10
-0.3121612840005816
 20
15.50149658730996
 30
0.0
 10
-0.222425549438188
 20
15.55330553781549
 30
0.0
 10
-0.2232339794792907
 20
15.6881955080506
 30
0.0
 10
-0.313778144082787
 20
15.74047120585798
 30
0.0
  0
LINE
  5
2749
330
2719
100
AcDbEntity
  8
0
100
AcDbLine
 10
-0.3121612840005816
 20
15.41984692921719
 30
0.0
 11
-0.3121612840005816
 21
15.50149658730996
 31
0.0
  0
SPLINE
  5
274A
330
2719
100
AcDbEntity
  8
0
100
AcDbSpline
210
0.0
220
0.0
230
1.0
 70
     8
 71
     3
 72
    10
 73
     6
 74
     0
 42
0.000000001
 43
0.0000000001
 40
-0.0501073064779838
 40
-0.0501073064779838
 40
-0.0501073064779838
 40
-0.0501073064779838
 40
-0.0353254662010438
 40
-0.0353254662010438
 40
-0.0235959519334831
 40
-0.0235959519334831
 40
-0.0235959519334831
 40
-0.0235959519334831
 10
-0.3121612840005816
 20
15.41984692921719
 30
0.0
 10
-0.2826847053934511
 20
15.4368652398108
 30
0.0
 10
-0.2584874867697904
 20
15.45631240509369
 30
0.0
 10
-0.230262545336973
 20
15.49629124987444
 30
0.0
 10
-0.2228232412864528
 20
15.51604201650083
 30
0.0
 10
-0.2228277711439472
 20
15.53849629149369
 30
0.0
  0
SPLINE
  5
274B
330
2719
100
AcDbEntity
  8
0
100
AcDbSpline
210
0.0
220
0.0
230
1.0
 70
     8
 71
     2
 72
     7
 73
     4
 74
     0
 42
0.000000001
 43
0.0000000001
 40
0.0
 40
0.0
 40
0.0
 40
1.0
 40
2.0
 40
2.0
 40
2.0
 10
-0.7519472263604204
 20
15.49962959810256
 30
0.0
 10
-0.659786201674719
 20
15.44642040569147
 30
0.0
 10
-0.4059391687684883
 20
15.44735390029518
 30
0.0
 10
-0.3121612840005816
 20
15.50149658730996
 30
0.0
  0
LINE
  5
274C
330
2719
100
AcDbEntity
  8
0
100
AcDbLine
 10
-0.7519472263604199
 20
15.41797994000978
 30
0.0
 11
-0.7519472263604199
 21
15.49962959810255
 31
0.0
  0
SPLINE
  5
274D
330
2719
100
AcDbEntity
  8
0
100
AcDbSpline
210
0.0
220
0.0
230
1.0
 70
     8
 71
     3
 72
    16
 73
    12
 74
     0
 42
0.000000001
 43
0.0000000001
 40
-0.0514737679903153
 40
-0.0514737679903153
 40
-0.0514737679903153
 40
-0.0514737679903153
 40
-0.0442850810562389
 40
-0.0442850810562389
 40
-0.0374221064768531
 40
-0.0374221064768531
 40
-0.0246320739269206
 40
-0.0246320739269206
 40
-0.0129586787041323
 40
-0.0129586787041323
 40
0.0
 40
0.0
 40
0.0
 40
0.0
 10
-0.7519472263604204
 20
15.41797994000978
 30
0.0
 10
-0.7365723132445858
 20
15.40910322978359
 30
0.0
 10
-0.7199289887241348
 20
15.40103352899899
 30
0.0
 10
-0.6846689903297798
 20
15.38733170845182
 30
0.0
 10
-0.6664492569764031
 20
15.38171188647198
 30
0.0
 10
-0.6112469336092687
 20
15.36897766598282
 30
0.0
 10
-0.5726098712076805
 20
15.36489201945846
 30
0.0
 10
-0.4910677361070225
 20
15.36558642951916
 30
0.0
 10
-0.4534183684620994
 20
15.36973304185235
 30
0.0
 10
-0.3775595050581427
 20
15.3878824117311
 30
0.0
 10
-0.3427051826236138
 20
15.40221240112508
 30
0.0
 10
-0.3121612840005816
 20
15.41984692921719
 30
0.0
  0
SPLINE
  5
274E
330
2719
100
AcDbEntity
  8
0
100
AcDbSpline
210
0.0
220
0.0
230
1.0
 70
     8
 71
     2
 72
     7
 73
     4
 74
     0
 42
0.000000001
 43
0.0000000001
 40
0.0
 40
0.0
 40
0.0
 40
1.0
 40
2.0
 40
2.0
 40
2.0
 10
-0.7511387963193177
 20
15.74000445855612
 30
0.0
 10
-0.8392576707995058
 20
15.66299115375061
 30
0.0
 10
-0.8295565103062742
 20
15.54443733908031
 30
0.0
 10
-0.7519472263604204
 20
15.49962959810256
 30
0.0
  0
SPLINE
  5
274F
330
2719
100
AcDbEntity
  8
0
100
AcDbSpline
210
0.0
220
0.0
230
1.0
 70
     8
 71
     3
 72
    12
 73
     8
 74
     0
 42
0.000000001
 43
0.0000000001
 40
-0.0246867264720178
 40
-0.0246867264720178
 40
-0.0246867264720178
 40
-0.0246867264720178
 40
-0.0244776819917737
 40
-0.0244776819917737
 40
-0.0113515575309618
 40
-0.0113515575309618
 40
0.0
 40
0.0
 40
0.0
 40
0.0
 10
-0.8346601629763789
 20
15.52829828554633
 30
0.0
 10
-0.8346601638480722
 20
15.52809950633903
 30
0.0
 10
-0.8346594041241374
 20
15.52790071484598
 30
0.0
 10
-0.8345621883346268
 20
15.51521887110493
 30
0.0
 10
-0.8317816580247024
 20
15.49456887000711
 30
0.0
 10
-0.8005118871250662
 20
15.45105306471289
 30
0.0
 10
-0.7787031040509947
 20
15.43342745319684
 30
0.0
 10
-0.7519472263604204
 20
15.41797994000978
 30
0.0
  0
LINE
  5
2750
330
2719
100
AcDbEntity
  8
0
100
AcDbLine
 10
-0.8982730637999992
 20
15.80534908081534
 30
0.0
 11
-0.7511387963193177
 21
15.74000445855612
 31
0.0
  0
LINE
  5
2751
330
2719
100
AcDbEntity
  8
0
100
AcDbLine
 10
-0.8982730637999992
 20
15.72369942272257
 30
0.0
 11
-0.8982730637999992
 21
15.80534908081534
 31
0.0
  0
LINE
  5
2752
330
2719
100
AcDbEntity
  8
0
100
AcDbLine
 10
-0.8982730637999992
 20
15.72369942272257
 30
0.0
 11
-0.8057485699899999
 21
15.68260785240885
 31
0.0
  0
SPLINE
  5
2753
330
2719
100
AcDbEntity
  8
0
100
AcDbSpline
210
0.0
220
0.0
230
1.0
 70
     8
 71
     2
 72
     7
 73
     4
 74
     0
 42
0.000000001
 43
0.0000000001
 40
0.0
 40
0.0
 40
0.0
 40
1.0
 40
2.0
 40
2.0
 40
2.0
 10
-0.8602768518681747
 20
15.43801895425814
 30
0.0
 10
-1.000135248978932
 20
15.51876623747847
 30
0.0
 10
-1.01792070988319
 20
15.72133456648206
 30
0.0
 10
-0.8982730637999992
 20
15.80534908081535
 30
0.0
  0
SPLINE
  5
2754
330
2719
100
AcDbEntity
  8
0
100
AcDbSpline
210
0.0
220
0.0
230
1.0
 70
     8
 71
     3
 72
    10
 73
     6
 74
     0
 42
0.000000001
 43
0.0000000001
 40
-0.0257983985701769
 40
-0.0257983985701769
 40
-0.0257983985701769
 40
-0.0257983985701769
 40
-0.0194714499075342
 40
-0.0194714499075342
 40
0.0
 40
0.0
 40
0.0
 40
0.0
 10
-1.004170052542103
 20
15.59286042764712
 30
0.0
 10
-1.001184407702063
 20
15.60373562489339
 30
0.0
 10
-0.9968118759503889
 20
15.61507293816359
 30
0.0
 10
-0.9717047589534512
 20
15.66256452316078
 30
0.0
 10
-0.9394944737139027
 20
15.69475445934534
 30
0.0
 10
-0.8982730637999992
 20
15.72369942272257
 30
0.0
  0
SPLINE
  5
2755
330
2719
100
AcDbEntity
  8
0
100
AcDbSpline
210
0.0
220
0.0
230
1.0
 70
     8
 71
     2
 72
     7
 73
     4
 74
     0
 42
0.000000001
 43
0.0000000001
 40
0.0
 40
0.0
 40
0.0
 40
1.0
 40
2.0
 40
2.0
 40
2.0
 10
-0.1714944568487215
 20
15.42308304059889
 30
0.0
 10
-0.3097359938772737
 20
15.34326925198227
 30
0.0
 10
-0.7058667140175697
 20
15.34887021960449
 30
0.0
 10
-0.8602768518681747
 20
15.43801895425814
 30
0.0
  0
SPLINE
  5
2756
330
2719
100
AcDbEntity
  8
0
100
AcDbSpline
210
0.0
220
0.0
230
1.0
 70
     8
 71
     2
 72
     7
 73
     4
 74
     0
 42
0.000000001
 43
0.0000000001
 40
0.0
 40
0.0
 40
0.0
 40
1.0
 40
2.0
 40
2.0
 40
2.0
 10
-0.1084369136427152
 20
15.6881955080506
 30
0.0
 10
-0.0356782099434773
 20
15.62098389658397
 30
0.0
 10
-0.0688238416286856
 20
15.48235994793405
 30
0.0
 10
-0.1714944568487215
 20
15.42308304059889
 30
0.0
  0
LINE
  5
2757
330
2719
100
AcDbEntity
  8
0
100
AcDbLine
 10
-0.1084369136427152
 20
15.60654584995782
 30
0.0
 11
-0.1084369136427152
 21
15.68819550805059
 31
0.0
  0
SPLINE
  5
2758
330
2719
100
AcDbEntity
  8
0
100
AcDbSpline
210
0.0
220
0.0
230
1.0
 70
     8
 71
     3
 72
    10
 73
     6
 74
     0
 42
0.000000001
 43
0.0000000001
 40
-0.0769275276214927
 40
-0.0769275276214927
 40
-0.0769275276214927
 40
-0.0769275276214927
 40
-0.0549824786561754
 40
-0.0549824786561754
 40
-0.04955913253072
 40
-0.04955913253072
 40
-0.04955913253072
 40
-0.04955913253072
 10
-0.1084369136427152
 20
15.60654584995782
 30
0.0
 10
-0.0895953368914116
 20
15.58914074690291
 30
0.0
 10
-0.0741330700164315
 20
15.57060127890399
 30
0.0
 10
-0.0611644824457066
 20
15.54612053415232
 30
0.0
 10
-0.0589236314485225
 20
15.54124022356911
 30
0.0
 10
-0.0570207835744425
 20
15.53633065382803
 30
0.0
  0
SPLINE
  5
2759
330
2719
100
AcDbEntity
  8
0
100
AcDbSpline
210
0.0
220
0.0
230
1.0
 70
     8
 71
     2
 72
     7
 73
     4
 74
     0
 42
0.000000001
 43
0.0000000001
 40
0.0
 40
0.0
 40
0.0
 40
1.0
 40
2.0
 40
2.0
 40
2.0
 10
0.252931314730167
 20
15.72786902870798
 30
0.0
 10
0.1842147612364421
 20
15.6881955080506
 30
0.0
 10
-0.0025325782582687
 20
15.66532489025987
 30
0.0
 10
-0.1084369136427152
 20
15.6881955080506
 30
0.0
  0
SPLINE
  5
275A
330
2719
100
AcDbEntity
  8
0
100
AcDbSpline
210
0.0
220
0.0
230
1.0
 70
     8
 71
     2
 72
     8
 73
     5
 74
     0
 42
0.000000001
 43
0.0000000001
 40
0.0
 40
0.0
 40
0.0
 40
1.0
 40
2.0
 40
3.0
 40
3.0
 40
3.0
 10
0.2173603929216503
 20
16.06579407524854
 30
0.0
 10
0.3038624073196334
 20
16.01585211395041
 30
0.0
 10
0.3758126809777689
 20
15.88843010054493
 30
0.0
 10
0.3248815883883023
 20
15.76940953857278
 30
0.0
 10
0.252931314730167
 20
15.72786902870798
 30
0.0
  0
LINE
  5
275B
330
2719
100
AcDbEntity
  8
0
100
AcDbLine
 10
0.2173603929216503
 20
15.98414441715576
 30
0.0
 11
0.2173603929216503
 21
16.06579407524853
 31
0.0
  0
SPLINE
  5
275C
330
2719
100
AcDbEntity
  8
0
100
AcDbSpline
210
0.0
220
0.0
230
1.0
 70
     8
 71
     3
 72
    12
 73
     8
 74
     0
 42
0.000000001
 43
0.0000000001
 40
-0.0623705443400065
 40
-0.0623705443400065
 40
-0.0623705443400065
 40
-0.0623705443400065
 40
-0.0500395803221195
 40
-0.0500395803221195
 40
-0.0380535146533124
 40
-0.0380535146533124
 40
-0.0308396099780171
 40
-0.0308396099780171
 40
-0.0308396099780171
 40
-0.0308396099780171
 10
0.2173603929216503
 20
15.98414441715576
 30
0.0
 10
0.2425083801842047
 20
15.96962521994015
 30
0.0
 10
0.2651187476032714
 20
15.95384913823604
 30
0.0
 10
0.3036505324389642
 20
15.92001490119884
 30
0.0
 10
0.3193622683324806
 20
15.90236584587836
 30
0.0
 10
0.3391595390051617
 20
15.87250703988834
 30
0.0
 10
0.3480999872948232
 20
15.8570737609939
 30
0.0
 10
0.3541079478088055
 20
15.83861726211585
 30
0.0
  0
SPLINE
  5
275D
330
2719
100
AcDbEntity
  8
0
100
AcDbSpline
210
0.0
220
0.0
230
1.0
 70
     8
 71
     2
 72
     7
 73
     4
 74
     0
 42
0.000000001
 43
0.0000000001
 40
0.0
 40
0.0
 40
0.0
 40
1.0
 40
2.0
 40
2.0
 40
2.0
 10
-0.3768356872887932
 20
16.09146517685037
 30
0.0
 10
-0.2216171193970853
 20
16.15307582069479
 30
0.0
 10
0.0912453065096379
 20
16.13860665433739
 30
0.0
 10
0.2173603929216503
 20
16.06579407524854
 30
0.0
  0
SPLINE
  5
275E
330
2719
100
AcDbEntity
  8
0
100
AcDbSpline
210
0.0
220
0.0
230
1.0
 70
     8
 71
     3
 72
    14
 73
    10
 74
     0
 42
0.000000001
 43
0.0000000001
 40
-0.0856460595557963
 40
-0.0856460595557963
 40
-0.0856460595557963
 40
-0.0856460595557963
 40
-0.0700129070579721
 40
-0.0700129070579721
 40
-0.0406780834905014
 40
-0.0406780834905014
 40
-0.019277826071803
 40
-0.019277826071803
 40
0.0
 40
0.0
 40
0.0
 40
0.0
 10
-0.3075350616702741
 20
16.03387393833518
 30
0.0
 10
-0.2848020854697741
 20
16.04063656798306
 30
0.0
 10
-0.261306152227082
 20
16.04651678394538
 30
0.0
 10
-0.1916248892418115
 20
16.06023791832921
 30
0.0
 10
-0.1448653548090149
 20
16.06503281936374
 30
0.0
 10
-0.0618000434821198
 20
16.06489094554325
 30
0.0
 10
-0.0050236477465893
 20
16.06248381295907
 30
0.0
 10
0.1200665577698465
 20
16.03222845305196
 30
0.0
 10
0.1719221211152946
 20
16.01037821561467
 30
0.0
 10
0.2173603929216503
 20
15.98414441715576
 30
0.0
  0
LINE
  5
275F
330
2719
100
AcDbEntity
  8
0
100
AcDbLine
 10
-0.2701229218632445
 20
16.00278318949857
 30
0.0
 11
-0.3768356872887932
 21
16.09146517685037
 31
0.0
  0
LINE
  5
2760
330
2719
100
AcDbEntity
  8
0
100
AcDbLine
 10
-0.0108790721961393
 20
15.05349325574435
 30
0.0
 11
-0.0108790721961393
 21
15.13514291383713
 31
0.0
  0
LINE
  5
2761
330
2719
100
AcDbEntity
  8
0
100
AcDbLine
 10
0.6709460480761252
 20
15.1021253009047
 30
0.0
 11
0.6709460480761252
 21
15.18377495899747
 31
0.0
  0
LINE
  5
2762
330
2719
100
AcDbEntity
  8
0
100
AcDbLine
 10
0.191526166992788
 20
15.81930196323348
 30
0.0
 11
0.191526166992788
 21
15.90095162132626
 31
0.0
  0
LINE
  5
2763
330
2719
100
AcDbEntity
  8
0
100
AcDbLine
 10
-0.222827951835329
 20
15.53849629150624
 30
0.0
 11
-0.222827951835329
 21
15.62014594959902
 31
0.0
  0
LINE
  5
2764
330
2719
100
AcDbEntity
  8
0
100
AcDbLine
 10
-0.8346601643048874
 20
15.52829828529288
 30
0.0
 11
-0.8346601643048874
 21
15.60994794338566
 31
0.0
  0
LINE
  5
2765
330
2719
100
AcDbEntity
  8
0
100
AcDbLine
 10
0.0
 20
-14.94867196107137
 30
0.0
 11
0.0
 21
-14.95949060594644
 31
0.0
  0
LINE
  5
2766
330
2719
100
AcDbEntity
  8
0
100
AcDbLine
 10
0.0
 20
-14.94867196107137
 30
0.0
 11
-0.1752896614138435
 21
-14.84746842786793
 31
0.0
  0
ELLIPSE
  5
2767
330
2719
100
AcDbEntity
  8
0
100
AcDbEllipse
 10
-0.042397056536109
 20
-14.81954260010455
 30
0.0
 11
0.1414213562373098
 21
-0.0000000000000002
 31
0.0
210
0.0
220
0.0
230
1.0
 40
0.5773502691896243
 41
3.490658503988631
 42
3.92699081698722
  0
LINE
  5
2768
330
2719
100
AcDbEntity
  8
0
100
AcDbLine
 10
0.1752896614138346
 20
-14.84746842786793
 30
0.0
 11
0.0
 21
-14.94867196107137
 31
0.0
  0
ELLIPSE
  5
2769
330
2719
100
AcDbEntity
  8
0
100
AcDbEllipse
 10
0.0423970565361
 20
-14.81954260010455
 30
0.0
 11
0.1414213562373091
 21
-0.0000000000000003
 31
0.0
210
0.0
220
0.0
230
1.0
 40
0.5773502691896275
 41
5.497787143782159
 42
5.934119456780747
  0
ELLIPSE
  5
276A
330
2719
100
AcDbEntity
  8
0
100
AcDbEllipse
 10
-0.0000000000000004
 20
14.08443636473695
 30
0.0
 11
3.500000000000009
 21
-0.0000000000000005
 31
0.0
210
0.0
220
0.0
230
1.0
 40
0.577350269189626
 41
3.141592653589793
 42
6.283185307179586
  0
ELLIPSE
  5
276B
330
2719
100
AcDbEntity
  8
0
100
AcDbEllipse
 10
-0.0000000000000003
 20
14.69680880043274
 30
0.0
 11
-3.500000000000009
 21
0.0000000000000004
 31
0.0
210
0.0
220
0.0
230
1.0
 40
0.577350269189626
 41
0.0000000000000003
 42
3.141592653589793
  0
ELLIPSE
  5
276C
330
2719
100
AcDbEntity
  8
0
100
AcDbEllipse
 10
-0.0000000000000003
 20
14.90093294566467
 30
0.0
 11
3.250000000000009
 21
-0.0000000000001944
 31
0.0
210
0.0
220
0.0
230
1.0
 40
0.5773502691896259
 41
0.0
 42
6.283185307179586
  0
LINE
  5
276D
330
2719
100
AcDbEntity
  8
0
100
AcDbLine
 10
0.0
 20
-14.95949060594644
 30
0.0
 11
-0.1423970565361093
 21
-14.87727762702351
 31
0.0
  0
LINE
  5
276E
330
2719
100
AcDbEntity
  8
0
100
AcDbLine
 10
0.1423970565360997
 20
-14.87727762702351
 30
0.0
 11
0.0
 21
-14.95949060594644
 31
0.0
  0
SPLINE
  5
276F
330
2719
100
AcDbEntity
  8
0
100
AcDbSpline
210
0.0
220
0.0
230
1.0
 70
     8
 71
     3
 72
    26
 73
    22
 74
     0
 42
0.000000001
 43
0.0000000001
 40
3.926990816987241
 40
3.926990816987241
 40
3.926990816987241
 40
3.926990816987241
 40
4.18090827222432
 40
4.18090827222432
 40
4.459612473143646
 40
4.459612473143646
 40
4.785810895217632
 40
4.785810895217632
 40
5.130298550732668
 40
5.130298550732668
 40
5.472112732357818
 40
5.472112732357818
 40
5.811686729235356
 40
5.811686729235356
 40
6.152929357162729
 40
6.152929357162729
 40
6.497508216313473
 40
6.497508216313473
 40
6.828212222362012
 40
6.828212222362012
 40
7.068583470577034
 40
7.068583470577034
 40
7.068583470577034
 40
7.068583470577034
 10
-3.500000000000009
 20
14.08443636473695
 30
0.0
 10
-3.500000000000009
 20
13.86453739803734
 30
0.0
 10
-3.450321130804008
 20
13.64561937346843
 30
0.0
 10
-3.26055448613747
 20
13.22344671302448
 30
0.0
 10
-3.11375130373634
 20
13.02347652486601
 30
0.0
 10
-2.724281983716072
 20
12.64199808700529
 30
0.0
 10
-2.469193435707713
 20
12.46822751944134
 30
0.0
 10
-1.88069617258928
 20
12.17501674875303
 30
0.0
 10
-1.543196767270719
 20
12.0592663931284
 30
0.0
 10
-0.8321816023514511
 20
11.9012315907273
 30
0.0
 10
-0.4590306071528422
 20
11.85856535034739
 30
0.0
 10
0.2877212257028169
 20
11.84749371926299
 30
0.0
 10
0.6611420980562213
 20
11.8786132686342
 30
0.0
 10
1.377452575842074
 20
12.01286900177594
 30
0.0
 10
1.720087385915322
 20
12.11620901600945
 30
0.0
 10
2.344079496730386
 20
12.39301643032122
 30
0.0
 10
2.62520298965262
 20
12.56695770515896
 30
0.0
 10
3.081735018131624
 20
12.97720577106293
 30
0.0
 10
3.261753084570159
 20
13.2123354166762
 30
0.0
 10
3.455569187820964
 20
13.66886382937897
 30
0.0
 10
3.500000000000008
 20
13.87626875744336
 30
0.0
 10
3.500000000000008
 20
14.08443636473695
 30
0.0
  0
SPLINE
  5
2770
330
2719
100
AcDbEntity
  8
0
100
AcDbSpline
210
0.0
220
0.0
230
1.0
 70
     8
 71
     3
 72
    26
 73
    22
 74
     0
 42
0.000000001
 43
0.0000000001
 40
0.7853981633974483
 40
0.7853981633974483
 40
0.7853981633974483
 40
0.7853981633974483
 40
1.066823108986854
 40
1.066823108986854
 40
1.368550437254481
 40
1.368550437254481
 40
1.696076798797079
 40
1.696076798797079
 40
2.028186960742127
 40
2.028186960742127
 40
2.358377837585618
 40
2.358377837585618
 40
2.687644070884362
 40
2.687644070884362
 40
3.017853549584236
 40
3.017853549584236
 40
3.349968623515759
 40
3.349968623515759
 40
3.677219723477697
 40
3.677219723477697
 40
3.926990816987241
 40
3.926990816987241
 40
3.926990816987241
 40
3.926990816987241
 10
3.500000000000009
 20
14.69680880043274
 30
0.0
 10
3.500000000000009
 20
14.91344982455637
 30
0.0
 10
3.446116938667898
 20
15.12929941258858
 30
0.0
 10
3.238014997220567
 20
15.5448948997286
 30
0.0
 10
3.077916978986694
 20
15.74279918912307
 30
0.0
 10
2.659993220554677
 20
16.10856325353182
 30
0.0
 10
2.394650499326815
 20
16.2729194287603
 30
0.0
 10
1.791518772665578
 20
16.54323900828985
 30
0.0
 10
1.452657098569421
 20
16.64824097064996
 30
0.0
 10
0.7398252301111091
 20
16.78829274632319
 30
0.0
 10
0.3661812717943705
 20
16.82366343911876
 30
0.0
 10
-0.3799571153534123
 20
16.82272288825033
 30
0.0
 10
-0.752307818464951
 20
16.78661384285251
 30
0.0
 10
-1.461339032481576
 20
16.64573473268999
 30
0.0
 10
-1.79780541911557
 20
16.54084901775437
 30
0.0
 10
-2.40274697909327
 20
16.26885448321443
 30
0.0
 10
-2.670927597751319
 20
16.10149953915601
 30
0.0
 10
-3.105240866111176
 20
15.7162746108393
 30
0.0
 10
-3.273179797892221
 20
15.4984884749055
 30
0.0
 10
-3.457689951015864
 20
15.08089624375514
 30
0.0
 10
-3.500000000000009
 20
14.8890826778641
 30
0.0
 10
-3.500000000000009
 20
14.69680880043274
 30
0.0
  0
LINE
  5
2771
330
2719
100
AcDbEntity
  8
0
100
AcDbLine
 10
-2.200000000000004
 20
-11.63575782914141
 30
0.0
 11
-0.1752896614138435
 21
-14.84746842786793
 31
0.0
  0
LINE
  5
2772
330
2719
100
AcDbEntity
  8
0
100
AcDbLine
 10
0.0
 20
-12.90592842135858
 30
0.0
 11
0.0
 21
-14.94867196107137
 31
0.0
  0
ELLIPSE
  5
2773
330
2719
100
AcDbEntity
  8
0
100
AcDbEllipse
 10
-0.0000000000000044
 20
-15.1255228501134
 30
0.0
 11
1.977122509811719
 21
-4.10969426810152
 31
0.0
210
0.0
220
0.0
230
1.0
 40
0.2347805934183503
 41
2.024814548144746
 42
2.636069418380696
  0
LINE
  5
2774
330
2719
100
AcDbEntity
  8
0
100
AcDbLine
 10
-1.262570233507337
 20
-11.30507306423523
 30
0.0
 11
-1.801642696391617
 21
-10.99383943267628
 31
0.0
  0
ELLIPSE
  5
2775
330
2719
100
AcDbEntity
  8
0
100
AcDbEllipse
 10
-0.0000000000000044
 20
-15.1255228501134
 30
0.0
 11
1.977122509811719
 21
-4.10969426810152
 31
0.0
210
0.0
220
0.0
230
1.0
 40
0.2347805934183503
 41
2.984356004703688
 42
3.595610874939641
  0
LINE
  5
2776
330
2719
100
AcDbEntity
  8
0
100
AcDbLine
 10
0.1752896614138346
 20
-14.84746842786793
 30
0.0
 11
2.199999999999995
 21
-11.63575782914141
 31
0.0
  0
LINE
  5
2777
330
2719
100
AcDbEntity
  8
0
100
AcDbLine
 10
-0.8876694027088934
 20
14.21581340911437
 30
0.0
 11
-1.514864136027238
 21
14.57792445723003
 31
0.0
  0
LINE
  5
2778
330
2719
100
AcDbEntity
  8
0
100
AcDbLine
 10
-1.514864136027238
 20
14.57792445723003
 30
0.0
 11
-1.302732101671273
 21
14.70039894436919
 31
0.0
  0
LINE
  5
2779
330
2719
100
AcDbEntity
  8
0
100
AcDbLine
 10
-1.302732101671273
 20
14.70039894436919
 30
0.0
 11
-0.5530628812137706
 21
14.26757721813487
 31
0.0
  0
LINE
  5
277A
330
2719
100
AcDbEntity
  8
0
100
AcDbLine
 10
-0.5530628812137705
 20
14.26757721813487
 30
0.0
 11
-0.2184563597186495
 21
14.31934102715538
 31
0.0
  0
LINE
  5
277B
330
2719
100
AcDbEntity
  8
0
100
AcDbLine
 10
-0.2184563597186495
 20
14.31934102715538
 30
0.0
 11
-1.09060006731531
 21
14.82287343150835
 31
0.0
  0
LINE
  5
277C
330
2719
100
AcDbEntity
  8
0
100
AcDbLine
 10
-1.09060006731531
 20
14.82287343150835
 30
0.0
 11
-0.8784680329593452
 21
14.94534791864751
 31
0.0
  0
LINE
  5
277D
330
2719
100
AcDbEntity
  8
0
100
AcDbLine
 10
-0.8784680329593452
 20
14.94534791864751
 30
0.0
 11
0.1161501617764757
 21
14.37110483617588
 31
0.0
  0
LINE
  5
277E
330
2719
100
AcDbEntity
  8
0
100
AcDbLine
 10
0.1161501617764758
 20
14.37110483617588
 30
0.0
 11
0.9729141006091403
 21
14.50364667877722
 31
0.0
  0
LINE
  5
277F
330
2719
100
AcDbEntity
  8
0
100
AcDbLine
 10
0.9729141006091406
 20
14.50364667877722
 30
0.0
 11
1.050559814139897
 21
14.33634341802966
 31
0.0
  0
LINE
  5
2780
330
2719
100
AcDbEntity
  8
0
100
AcDbLine
 10
1.050559814139897
 20
14.33634341802966
 30
0.0
 11
0.3610991360547938
 21
14.22968347993857
 31
0.0
  0
LINE
  5
2781
330
2719
100
AcDbEntity
  8
0
100
AcDbLine
 10
0.3610991360547938
 20
14.22968347993857
 30
0.0
 11
0.9882938693731373
 21
13.86757243182291
 31
0.0
  0
LINE
  5
2782
330
2719
100
AcDbEntity
  8
0
100
AcDbLine
 10
0.9882938693731373
 20
13.86757243182291
 30
0.0
 11
0.7761618350171718
 21
13.74509794468375
 31
0.0
  0
LINE
  5
2783
330
2719
100
AcDbEntity
  8
0
100
AcDbLine
 10
0.7761618350171718
 20
13.74509794468375
 30
0.0
 11
0.0264926145596681
 21
14.17791967091807
 31
0.0
  0
LINE
  5
2784
330
2719
100
AcDbEntity
  8
0
100
AcDbLine
 10
0.0264926145596681
 20
14.17791967091807
 30
0.0
 11
-0.3081139069354529
 21
14.12615586189757
 31
0.0
  0
LINE
  5
2785
330
2719
100
AcDbEntity
  8
0
100
AcDbLine
 10
-0.3081139069354529
 20
14.12615586189757
 30
0.0
 11
0.564029800661209
 21
13.62262345754459
 31
0.0
  0
LINE
  5
2786
330
2719
100
AcDbEntity
  8
0
100
AcDbLine
 10
0.564029800661209
 20
13.62262345754459
 30
0.0
 11
0.3518977663052458
 21
13.50014897040544
 31
0.0
  0
LINE
  5
2787
330
2719
100
AcDbEntity
  8
0
100
AcDbLine
 10
0.3518977663052458
 20
13.50014897040544
 30
0.0
 11
-0.6427204284305757
 21
14.07439205287706
 31
0.0
  0
LINE
  5
2788
330
2719
100
AcDbEntity
  8
0
100
AcDbLine
 10
-0.6427204284305757
 20
14.07439205287706
 30
0.0
 11
-1.49948436726324
 21
13.94185021027572
 31
0.0
  0
LINE
  5
2789
330
2719
100
AcDbEntity
  8
0
100
AcDbLine
 10
-1.49948436726324
 20
13.94185021027572
 30
0.0
 11
-1.577130080793996
 21
14.10915347102328
 31
0.0
  0
LINE
  5
278A
330
2719
100
AcDbEntity
  8
0
100
AcDbLine
 10
-1.577130080793996
 20
14.10915347102328
 30
0.0
 11
-0.8876694027088934
 21
14.21581340911437
 31
0.0
  0
LINE
  5
278B
330
2719
100
AcDbEntity
  8
0
100
AcDbLine
 10
0.1161501617764759
 20
14.28945517808311
 30
0.0
 11
0.1161501617764758
 21
14.37110483617588
 31
0.0
  0
LINE
  5
278C
330
2719
100
AcDbEntity
  8
0
100
AcDbLine
 10
-0.8784680329593452
 20
14.94534791864751
 30
0.0
 11
-0.8784680329593452
 21
14.86369826055474
 31
0.0
  0
LINE
  5
278D
330
2719
100
AcDbEntity
  8
0
100
AcDbLine
 10
0.1161501617764759
 20
14.28945517808311
 30
0.0
 11
-0.8784680329593451
 21
14.86369826055474
 31
0.0
  0
LINE
  5
278E
330
2719
100
AcDbEntity
  8
0
100
AcDbLine
 10
-0.2184563597186495
 20
14.31934102715538
 30
0.0
 11
-0.2184563597186494
 21
14.23769136906261
 31
0.0
  0
LINE
  5
278F
330
2719
100
AcDbEntity
  8
0
100
AcDbLine
 10
0.3610991360547938
 20
14.22968347993857
 30
0.0
 11
0.3610991360547936
 21
14.1480338218458
 31
0.0
  0
LINE
  5
2790
330
2719
100
AcDbEntity
  8
0
100
AcDbLine
 10
0.9175831912544827
 20
13.82674760277653
 30
0.0
 11
0.3610991360547936
 21
14.1480338218458
 31
0.0
  0
LINE
  5
2791
330
2719
100
AcDbEntity
  8
0
100
AcDbLine
 10
-0.8784680329593452
 20
14.86369826055474
 30
0.0
 11
-1.019889389196655
 21
14.78204860246196
 31
0.0
  0
LINE
  5
2792
330
2719
100
AcDbEntity
  8
0
100
AcDbLine
 10
-0.3081139069354529
 20
14.12615586189757
 30
0.0
 11
-0.3081139069354529
 21
14.04450620380479
 31
0.0
  0
LINE
  5
2793
330
2719
100
AcDbEntity
  8
0
100
AcDbLine
 10
-0.5530628812137705
 20
14.1859275600421
 30
0.0
 11
-0.5530628812137705
 21
14.26757721813487
 31
0.0
  0
LINE
  5
2794
330
2719
100
AcDbEntity
  8
0
100
AcDbLine
 10
-0.2184563597186494
 20
14.23769136906261
 30
0.0
 11
-0.5530628812137705
 21
14.1859275600421
 31
0.0
  0
LINE
  5
2795
330
2719
100
AcDbEntity
  8
0
100
AcDbLine
 10
-1.302732101671273
 20
14.70039894436919
 30
0.0
 11
-1.302732101671273
 21
14.61874928627642
 31
0.0
  0
LINE
  5
2796
330
2719
100
AcDbEntity
  8
0
100
AcDbLine
 10
-0.5530628812137705
 20
14.1859275600421
 30
0.0
 11
-1.302732101671273
 21
14.61874928627642
 31
0.0
  0
LINE
  5
2797
330
2719
100
AcDbEntity
  8
0
100
AcDbLine
 10
0.4933191225425543
 20
13.58179862849821
 30
0.0
 11
-0.3081139069354528
 21
14.04450620380479
 31
0.0
  0
LINE
  5
2798
330
2719
100
AcDbEntity
  8
0
100
AcDbLine
 10
-0.8876694027088934
 20
14.21581340911437
 30
0.0
 11
-0.8876694027088934
 21
14.1341637510216
 31
0.0
  0
LINE
  5
2799
330
2719
100
AcDbEntity
  8
0
100
AcDbLine
 10
-1.302732101671273
 20
14.61874928627642
 30
0.0
 11
-1.444153457908583
 21
14.53709962818364
 31
0.0
  0
LINE
  5
279A
330
2719
100
AcDbEntity
  8
0
100
AcDbLine
 10
0.9729141006091406
 20
14.42199702068445
 30
0.0
 11
0.1161501617764758
 21
14.28945517808311
 31
0.0
  0
LINE
  5
279B
330
2719
100
AcDbEntity
  8
0
100
AcDbLine
 10
-0.8876694027088934
 20
14.1341637510216
 30
0.0
 11
-1.541774741734669
 21
14.03297330291757
 31
0.0
  0
LINE
  5
279C
330
2719
100
AcDbEntity
  8
0
100
AcDbLine
 10
1.015204475080569
 20
14.3308739280426
 30
0.0
 11
0.9729141006091406
 21
14.42199702068445
 31
0.0
  0
LINE
  5
279D
330
2719
100
AcDbEntity
  8
0
100
AcDbLine
 10
0.9729141006091406
 20
14.50364667877722
 30
0.0
 11
0.9729141006091406
 21
14.42199702068445
 31
0.0
  0
ELLIPSE
  5
279E
330
2719
100
AcDbEntity
  8
0
100
AcDbEllipse
 10
-0.0000000000000044
 20
-9.244273442330355
 30
0.0
 11
-1.750000000000003
 21
0.0000000000000001
 31
0.0
210
0.0
220
0.0
230
1.0
 40
0.577350269189626
 41
0.3143546097304749
 42
2.827238043859317
  0
ELLIPSE
  5
279F
330
2719
100
AcDbEntity
  8
0
100
AcDbEllipse
 10
-0.0000000000000044
 20
-9.328847731218349
 30
0.0
 11
-2.126524613390194
 21
-0.0000000000000001
 31
0.0
210
0.0
220
0.0
230
1.0
 40
0.5773502691896258
 41
5.956776068670669
 42
9.751187199278295
  0
ELLIPSE
  5
27A0
330
2719
100
AcDbEntity
  8
0
100
AcDbEllipse
 10
-0.0000000000000044
 20
-9.440285586352427
 30
0.0
 11
-2.191623175793066
 21
0.0000000000000001
 31
0.0
210
0.0
220
0.0
230
1.0
 40
0.5773502691896258
 41
0.3143546097304754
 42
2.827238043859318
  0
ELLIPSE
  5
27A1
330
2719
100
AcDbEntity
  8
0
100
AcDbEllipse
 10
-0.0000000000000044
 20
-10.26489416849001
 30
0.0
 11
-1.750000000000003
 21
0.0000000000000001
 31
0.0
210
0.0
220
0.0
230
1.0
 40
0.577350269189626
 41
0.3143546097304749
 42
2.827238043859317
  0
ELLIPSE
  5
27A2
330
2719
100
AcDbEntity
  8
0
100
AcDbEllipse
 10
-0.0000000000000044
 20
-10.26489416849001
 30
0.0
 11
-2.199999999999999
 21
0.0000000000000001
 31
0.0
210
0.0
220
0.0
230
1.0
 40
0.577350269189626
 41
5.946500859423642
 42
6.894440177415537
  0
ELLIPSE
  5
27A3
330
2719
100
AcDbEntity
  8
0
100
AcDbEllipse
 10
-0.0000000000000044
 20
-10.26489416849001
 30
0.0
 11
-2.2
 21
0.0000000000001314
 31
0.0
210
0.0
220
0.0
230
1.0
 40
0.577350269189626
 41
0.9595414565590916
 42
2.182051197030993
  0
ELLIPSE
  5
27A4
330
2719
100
AcDbEntity
  8
0
100
AcDbEllipse
 10
-0.0000000000000044
 20
-10.26489416849001
 30
0.0
 11
2.2
 21
-0.0000000000000001
 31
0.0
210
0.0
220
0.0
230
1.0
 40
0.5773502691896258
 41
5.671930436943634
 42
6.619869754935529
  0
ELLIPSE
  5
27A5
330
2719
100
AcDbEntity
  8
0
100
AcDbEllipse
 10
-0.0000000000000044
 20
-8.223652716170697
 30
0.0
 11
-1.750000000000003
 21
0.0000000000000001
 31
0.0
210
0.0
220
0.0
230
1.0
 40
0.577350269189626
 41
0.3143546097304749
 42
2.827238043859317
  0
ELLIPSE
  5
27A6
330
2719
100
AcDbEntity
  8
0
100
AcDbEllipse
 10
-0.0000000000000044
 20
-8.308227005058693
 30
0.0
 11
-2.126524613390194
 21
-0.0000000000000001
 31
0.0
210
0.0
220
0.0
230
1.0
 40
0.5773502691896258
 41
5.956776068670669
 42
9.751187199278295
  0
ELLIPSE
  5
27A7
330
2719
100
AcDbEntity
  8
0
100
AcDbEllipse
 10
-0.0000000000000044
 20
-8.419664860192771
 30
0.0
 11
-2.191623175793066
 21
0.0000000000000001
 31
0.0
210
0.0
220
0.0
230
1.0
 40
0.5773502691896258
 41
0.3143546097304754
 42
2.827238043859318
  0
ELLIPSE
  5
27A8
330
2719
100
AcDbEntity
  8
0
100
AcDbEllipse
 10
-0.0000000000000044
 20
-7.203031990011039
 30
0.0
 11
-1.750000000000003
 21
0.0000000000000001
 31
0.0
210
0.0
220
0.0
230
1.0
 40
0.577350269189626
 41
0.3143546097304749
 42
2.827238043859317
  0
ELLIPSE
  5
27A9
330
2719
100
AcDbEntity
  8
0
100
AcDbEllipse
 10
-0.0000000000000044
 20
-7.287606278899034
 30
0.0
 11
-2.126524613390194
 21
-0.0000000000000001
 31
0.0
210
0.0
220
0.0
230
1.0
 40
0.5773502691896258
 41
5.956776068670669
 42
9.751187199278295
  0
ELLIPSE
  5
27AA
330
2719
100
AcDbEntity
  8
0
100
AcDbEllipse
 10
-0.0000000000000044
 20
-7.399044134033112
 30
0.0
 11
-2.191623175793066
 21
0.0000000000000001
 31
0.0
210
0.0
220
0.0
230
1.0
 40
0.5773502691896258
 41
0.3143546097304754
 42
2.827238043859318
  0
ELLIPSE
  5
27AB
330
2719
100
AcDbEntity
  8
0
100
AcDbEllipse
 10
-0.0000000000000044
 20
-6.182411263851383
 30
0.0
 11
-1.750000000000003
 21
0.0000000000000001
 31
0.0
210
0.0
220
0.0
230
1.0
 40
0.577350269189626
 41
0.3143546097304749
 42
2.827238043859317
  0
ELLIPSE
  5
27AC
330
2719
100
AcDbEntity
  8
0
100
AcDbEllipse
 10
-0.0000000000000044
 20
-6.266985552739376
 30
0.0
 11
-2.126524613390194
 21
-0.0000000000000001
 31
0.0
210
0.0
220
0.0
230
1.0
 40
0.5773502691896258
 41
5.956776068670669
 42
9.751187199278295
  0
ELLIPSE
  5
27AD
330
2719
100
AcDbEntity
  8
0
100
AcDbEllipse
 10
-0.0000000000000044
 20
-6.378423407873454
 30
0.0
 11
-2.191623175793066
 21
0.0000000000000001
 31
0.0
210
0.0
220
0.0
230
1.0
 40
0.5773502691896258
 41
0.3143546097304754
 42
2.827238043859318
  0
ELLIPSE
  5
27AE
330
2719
100
AcDbEntity
  8
0
100
AcDbEllipse
 10
-0.0000000000000044
 20
-5.161790537691725
 30
0.0
 11
-1.750000000000003
 21
0.0000000000000001
 31
0.0
210
0.0
220
0.0
230
1.0
 40
0.577350269189626
 41
0.3143546097304749
 42
2.827238043859317
  0
ELLIPSE
  5
27AF
330
2719
100
AcDbEntity
  8
0
100
AcDbEllipse
 10
-0.0000000000000044
 20
-5.246364826579719
 30
0.0
 11
-2.126524613390194
 21
-0.0000000000000001
 31
0.0
210
0.0
220
0.0
230
1.0
 40
0.5773502691896258
 41
5.956776068670669
 42
9.751187199278295
  0
ELLIPSE
  5
27B0
330
2719
100
AcDbEntity
  8
0
100
AcDbEllipse
 10
-0.0000000000000044
 20
-5.357802681713796
 30
0.0
 11
-2.191623175793066
 21
0.0000000000000001
 31
0.0
210
0.0
220
0.0
230
1.0
 40
0.5773502691896258
 41
0.3143546097304754
 42
2.827238043859318
  0
ELLIPSE
  5
27B1
330
2719
100
AcDbEntity
  8
0
100
AcDbEllipse
 10
-0.0000000000000044
 20
-4.141169811532067
 30
0.0
 11
-1.750000000000003
 21
0.0000000000000001
 31
0.0
210
0.0
220
0.0
230
1.0
 40
0.577350269189626
 41
0.3143546097304755
 42
2.827238043859317
  0
ELLIPSE
  5
27B2
330
2719
100
AcDbEntity
  8
0
100
AcDbEllipse
 10
-0.0000000000000044
 20
-4.225744100420061
 30
0.0
 11
-2.126524613390194
 21
-0.0000000000000001
 31
0.0
210
0.0
220
0.0
230
1.0
 40
0.5773502691896258
 41
5.956776068670669
 42
9.751187199278295
  0
ELLIPSE
  5
27B3
330
2719
100
AcDbEntity
  8
0
100
AcDbEllipse
 10
-0.0000000000000044
 20
-4.337181955554139
 30
0.0
 11
-2.191623175793066
 21
0.0000000000000001
 31
0.0
210
0.0
220
0.0
230
1.0
 40
0.5773502691896258
 41
0.3143546097304753
 42
2.827238043859317
  0
ELLIPSE
  5
27B4
330
2719
100
AcDbEntity
  8
0
100
AcDbEllipse
 10
-0.0000000000000044
 20
-3.12054908537241
 30
0.0
 11
-1.750000000000003
 21
0.0000000000000001
 31
0.0
210
0.0
220
0.0
230
1.0
 40
0.577350269189626
 41
0.3143546097304755
 42
2.827238043859317
  0
ELLIPSE
  5
27B5
330
2719
100
AcDbEntity
  8
0
100
AcDbEllipse
 10
-0.0000000000000044
 20
-3.205123374260403
 30
0.0
 11
-2.126524613390194
 21
-0.0000000000000001
 31
0.0
210
0.0
220
0.0
230
1.0
 40
0.5773502691896258
 41
5.956776068670669
 42
9.751187199278295
  0
ELLIPSE
  5
27B6
330
2719
100
AcDbEntity
  8
0
100
AcDbEllipse
 10
-0.0000000000000044
 20
-3.316561229394483
 30
0.0
 11
-2.191623175793066
 21
0.0000000000000001
 31
0.0
210
0.0
220
0.0
230
1.0
 40
0.5773502691896258
 41
0.3143546097304753
 42
2.827238043859317
  0
ELLIPSE
  5
27B7
330
2719
100
AcDbEntity
  8
0
100
AcDbEllipse
 10
-0.0000000000000044
 20
-2.099928359212752
 30
0.0
 11
-1.750000000000003
 21
0.0000000000000001
 31
0.0
210
0.0
220
0.0
230
1.0
 40
0.577350269189626
 41
0.3143546097304752
 42
2.827238043859317
  0
ELLIPSE
  5
27B8
330
2719
100
AcDbEntity
  8
0
100
AcDbEllipse
 10
-0.0000000000000044
 20
-2.184502648100745
 30
0.0
 11
-2.126524613390194
 21
-0.0000000000000001
 31
0.0
210
0.0
220
0.0
230
1.0
 40
0.5773502691896258
 41
5.956776068670669
 42
9.751187199278295
  0
ELLIPSE
  5
27B9
330
2719
100
AcDbEntity
  8
0
100
AcDbEllipse
 10
-0.0000000000000044
 20
-2.295940503234823
 30
0.0
 11
-2.191623175793066
 21
0.0000000000000001
 31
0.0
210
0.0
220
0.0
230
1.0
 40
0.5773502691896258
 41
0.3143546097304753
 42
2.827238043859317
  0
ELLIPSE
  5
27BA
330
2719
100
AcDbEntity
  8
0
100
AcDbEllipse
 10
-0.0000000000000044
 20
-1.079307633053097
 30
0.0
 11
-1.750000000000003
 21
0.0000000000000001
 31
0.0
210
0.0
220
0.0
230
1.0
 40
0.577350269189626
 41
0.3143546097304752
 42
2.827238043859317
  0
ELLIPSE
  5
27BB
330
2719
100
AcDbEntity
  8
0
100
AcDbEllipse
 10
-0.0000000000000044
 20
-1.16388192194109
 30
0.0
 11
-2.126524613390194
 21
-0.0000000000000001
 31
0.0
210
0.0
220
0.0
230
1.0
 40
0.5773502691896258
 41
5.956776068670669
 42
9.751187199278295
  0
ELLIPSE
  5
27BC
330
2719
100
AcDbEntity
  8
0
100
AcDbEllipse
 10
-0.0000000000000044
 20
-1.275319777075165
 30
0.0
 11
-2.191623175793066
 21
0.0000000000000001
 31
0.0
210
0.0
220
0.0
230
1.0
 40
0.5773502691896258
 41
0.3143546097304753
 42
2.827238043859317
  0
ELLIPSE
  5
27BD
330
2719
100
AcDbEntity
  8
0
100
AcDbEllipse
 10
-0.0000000000000044
 20
-0.0586869068934393
 30
0.0
 11
-1.750000000000003
 21
0.0000000000000001
 31
0.0
210
0.0
220
0.0
230
1.0
 40
0.577350269189626
 41
0.3143546097304752
 42
2.827238043859317
  0
ELLIPSE
  5
27BE
330
2719
100
AcDbEntity
  8
0
100
AcDbEllipse
 10
-0.0000000000000044
 20
-0.1432611957814323
 30
0.0
 11
-2.126524613390194
 21
-0.0000000000000001
 31
0.0
210
0.0
220
0.0
230
1.0
 40
0.5773502691896258
 41
5.956776068670669
 42
9.751187199278295
  0
ELLIPSE
  5
27BF
330
2719
100
AcDbEntity
  8
0
100
AcDbEllipse
 10
-0.0000000000000044
 20
-0.2546990509155078
 30
0.0
 11
-2.191623175793066
 21
0.0000000000000001
 31
0.0
210
0.0
220
0.0
230
1.0
 40
0.5773502691896258
 41
0.3143546097304753
 42
2.827238043859317
  0
ELLIPSE
  5
27C0
330
2719
100
AcDbEntity
  8
0
100
AcDbEllipse
 10
-0.0000000000000044
 20
0.9619338192662185
 30
0.0
 11
-1.750000000000003
 21
0.0000000000000001
 31
0.0
210
0.0
220
0.0
230
1.0
 40
0.577350269189626
 41
0.3143546097304753
 42
2.827238043859317
  0
ELLIPSE
  5
27C1
330
2719
100
AcDbEntity
  8
0
100
AcDbEllipse
 10
-0.0000000000000044
 20
0.8773595303782254
 30
0.0
 11
-2.126524613390194
 21
-0.0000000000000001
 31
0.0
210
0.0
220
0.0
230
1.0
 40
0.5773502691896258
 41
5.956776068670669
 42
9.751187199278295
  0
ELLIPSE
  5
27C2
330
2719
100
AcDbEntity
  8
0
100
AcDbEllipse
 10
-0.0000000000000044
 20
0.76592167524415
 30
0.0
 11
-2.191623175793066
 21
0.0000000000000001
 31
0.0
210
0.0
220
0.0
230
1.0
 40
0.5773502691896258
 41
0.3143546097304753
 42
2.827238043859317
  0
ELLIPSE
  5
27C3
330
2719
100
AcDbEntity
  8
0
100
AcDbEllipse
 10
-0.0000000000000044
 20
1.982554545425876
 30
0.0
 11
-1.750000000000003
 21
0.0000000000000001
 31
0.0
210
0.0
220
0.0
230
1.0
 40
0.577350269189626
 41
0.3143546097304752
 42
2.827238043859317
  0
ELLIPSE
  5
27C4
330
2719
100
AcDbEntity
  8
0
100
AcDbEllipse
 10
-0.0000000000000044
 20
1.897980256537883
 30
0.0
 11
-2.126524613390194
 21
-0.0000000000000001
 31
0.0
210
0.0
220
0.0
230
1.0
 40
0.5773502691896258
 41
5.956776068670669
 42
9.751187199278295
  0
ELLIPSE
  5
27C5
330
2719
100
AcDbEntity
  8
0
100
AcDbEllipse
 10
-0.0000000000000044
 20
1.786542401403807
 30
0.0
 11
-2.191623175793066
 21
0.0000000000000001
 31
0.0
210
0.0
220
0.0
230
1.0
 40
0.5773502691896258
 41
0.3143546097304753
 42
2.827238043859317
  0
ELLIPSE
  5
27C6
330
2719
100
AcDbEntity
  8
0
100
AcDbEllipse
 10
-0.0000000000000044
 20
3.003175271585534
 30
0.0
 11
-1.750000000000003
 21
0.0000000000000001
 31
0.0
210
0.0
220
0.0
230
1.0
 40
0.577350269189626
 41
0.3143546097304755
 42
2.827238043859317
  0
ELLIPSE
  5
27C7
330
2719
100
AcDbEntity
  8
0
100
AcDbEllipse
 10
-0.0000000000000044
 20
2.918600982697541
 30
0.0
 11
-2.126524613390194
 21
-0.0000000000000001
 31
0.0
210
0.0
220
0.0
230
1.0
 40
0.5773502691896258
 41
5.956776068670669
 42
9.751187199278295
  0
ELLIPSE
  5
27C8
330
2719
100
AcDbEntity
  8
0
100
AcDbEllipse
 10
-0.0000000000000044
 20
2.807163127563465
 30
0.0
 11
-2.191623175793066
 21
0.0000000000000001
 31
0.0
210
0.0
220
0.0
230
1.0
 40
0.5773502691896258
 41
0.3143546097304753
 42
2.827238043859317
  0
ELLIPSE
  5
27C9
330
2719
100
AcDbEntity
  8
0
100
AcDbEllipse
 10
-0.0000000000000044
 20
4.023795997745192
 30
0.0
 11
-1.750000000000003
 21
0.0000000000000001
 31
0.0
210
0.0
220
0.0
230
1.0
 40
0.577350269189626
 41
0.3143546097304755
 42
2.827238043859317
  0
ELLIPSE
  5
27CA
330
2719
100
AcDbEntity
  8
0
100
AcDbEllipse
 10
-0.0000000000000044
 20
3.939221708857198
 30
0.0
 11
-2.126524613390194
 21
-0.0000000000000001
 31
0.0
210
0.0
220
0.0
230
1.0
 40
0.5773502691896258
 41
5.956776068670669
 42
9.751187199278295
  0
ELLIPSE
  5
27CB
330
2719
100
AcDbEntity
  8
0
100
AcDbEllipse
 10
-0.0000000000000044
 20
3.827783853723122
 30
0.0
 11
-2.191623175793066
 21
0.0000000000000001
 31
0.0
210
0.0
220
0.0
230
1.0
 40
0.5773502691896258
 41
0.3143546097304753
 42
2.827238043859317
  0
ELLIPSE
  5
27CC
330
2719
100
AcDbEntity
  8
0
100
AcDbEllipse
 10
-0.0000000000000044
 20
5.044416723904848
 30
0.0
 11
-1.749999999999997
 21
0.0000000000000001
 31
0.0
210
0.0
220
0.0
230
1.0
 40
0.577350269189626
 41
0.3143546097304747
 42
2.827238043859319
  0
ELLIPSE
  5
27CD
330
2719
100
AcDbEntity
  8
0
100
AcDbEllipse
 10
-0.0000000000000044
 20
4.959842435016855
 30
0.0
 11
-2.126524613390194
 21
-0.0000000000000002
 31
0.0
210
0.0
220
0.0
230
1.0
 40
0.577350269189626
 41
5.922311682320284
 42
9.785651585628674
  0
ELLIPSE
  5
27CE
330
2719
100
AcDbEntity
  8
0
100
AcDbEllipse
 10
-0.0000000000000044
 20
4.84840457988278
 30
0.0
 11
-2.191623175793066
 21
0.0000000000000001
 31
0.0
210
0.0
220
0.0
230
1.0
 40
0.5773502691896258
 41
0.3143546097304753
 42
2.827238043859317
  0
SPLINE
  5
27CF
330
2719
100
AcDbEntity
  8
0
100
AcDbSpline
210
0.0
220
0.0
230
1.0
 70
     8
 71
     3
 72
    12
 73
     8
 74
     0
 42
0.000000001
 43
0.0000000001
 40
0.4710435536669474
 40
0.4710435536669474
 40
0.4710435536669474
 40
0.4710435536669474
 40
0.7820503547189653
 40
0.7820503547189653
 40
1.07599178902394
 40
1.07599178902394
 40
1.164704273717283
 40
1.164704273717283
 40
1.164704273717283
 40
1.164704273717283
 10
2.084225166090883
 20
-9.831530437950796
 30
0.0
 10
2.158936633132981
 20
-9.6988637126094
 30
0.0
 10
2.199153602695838
 20
-9.55585808266845
 30
0.0
 10
2.200773793621874
 20
-9.276447201565893
 30
0.0
 10
2.166409101712267
 20
-9.140948325258468
 30
0.0
 10
2.080933970507219
 20
-8.975933977682268
 30
0.0
 10
2.058305425268169
 20
-8.938433801746445
 30
0.0
 10
2.033027998263428
 20
-8.901821600840186
 30
0.0
  0
SPLINE
  5
27D0
330
2719
100
AcDbEntity
  8
0
100
AcDbSpline
210
0.0
220
0.0
230
1.0
 70
     8
 71
     3
 72
    12
 73
     8
 74
     0
 42
0.000000001
 43
0.0000000001
 40
3.547684706667407
 40
3.547684706667407
 40
3.547684706667407
 40
3.547684706667407
 40
3.669602340872341
 40
3.669602340872341
 40
3.976209328623869
 40
3.976209328623869
 40
4.241345426717742
 40
4.241345426717742
 40
4.241345426717742
 40
4.241345426717742
 10
-2.033027998263437
 20
-8.901821600840186
 30
0.0
 10
-2.067766785141731
 20
-8.952137775986859
 30
0.0
 10
-2.09750187012732
 20
-9.004136805022952
 30
0.0
 10
-2.182946322891827
 20
-9.191546725775804
 30
0.0
 10
-2.209151776725327
 20
-9.33440725358368
 30
0.0
 10
-2.186668892840651
 20
-9.597926310752754
 30
0.0
 10
-2.147917364420335
 20
-9.718430860112214
 30
0.0
 10
-2.084225166090892
 20
-9.831530437950796
 30
0.0
  0
LINE
  5
27D1
330
2719
100
AcDbEntity
  8
0
100
AcDbLine
 10
-1.664243233483441
 20
-10.57730119989008
 30
0.0
 11
-2.084225166090909
 21
-9.831530437950766
 31
0.0
  0
LINE
  5
27D2
330
2719
100
AcDbEntity
  8
0
100
AcDbLine
 10
1.664243233483432
 20
-10.57730119989008
 30
0.0
 11
2.0842251660909
 21
-9.831530437950766
 31
0.0
  0
SPLINE
  5
27D3
330
2719
100
AcDbEntity
  8
0
100
AcDbSpline
210
0.0
220
0.0
230
1.0
 70
     8
 71
     3
 72
    12
 73
     8
 74
     0
 42
0.000000001
 43
0.0000000001
 40
0.4710435536669474
 40
0.4710435536669474
 40
0.4710435536669474
 40
0.4710435536669474
 40
0.7820503547189653
 40
0.7820503547189653
 40
1.07599178902394
 40
1.07599178902394
 40
1.164704273717283
 40
1.164704273717283
 40
1.164704273717283
 40
1.164704273717283
 10
2.084225166090883
 20
-8.81090971179114
 30
0.0
 10
2.158936633132981
 20
-8.678242986449742
 30
0.0
 10
2.199153602695838
 20
-8.535237356508794
 30
0.0
 10
2.200773793621874
 20
-8.255826475406236
 30
0.0
 10
2.166409101712267
 20
-8.120327599098811
 30
0.0
 10
2.080933970507219
 20
-7.955313251522611
 30
0.0
 10
2.058305425268169
 20
-7.917813075586788
 30
0.0
 10
2.033027998263428
 20
-7.881200874680529
 30
0.0
  0
SPLINE
  5
27D4
330
2719
100
AcDbEntity
  8
0
100
AcDbSpline
210
0.0
220
0.0
230
1.0
 70
     8
 71
     3
 72
    12
 73
     8
 74
     0
 42
0.000000001
 43
0.0000000001
 40
3.547684706667407
 40
3.547684706667407
 40
3.547684706667407
 40
3.547684706667407
 40
3.669602340872341
 40
3.669602340872341
 40
3.976209328623869
 40
3.976209328623869
 40
4.241345426717742
 40
4.241345426717742
 40
4.241345426717742
 40
4.241345426717742
 10
-2.033027998263437
 20
-7.881200874680529
 30
0.0
 10
-2.067766785141731
 20
-7.931517049827201
 30
0.0
 10
-2.09750187012732
 20
-7.983516078863295
 30
0.0
 10
-2.182946322891827
 20
-8.170925999616148
 30
0.0
 10
-2.209151776725327
 20
-8.313786527424023
 30
0.0
 10
-2.186668892840651
 20
-8.577305584593094
 30
0.0
 10
-2.147917364420335
 20
-8.697810133952557
 30
0.0
 10
-2.084225166090892
 20
-8.81090971179114
 30
0.0
  0
LINE
  5
27D5
330
2719
100
AcDbEntity
  8
0
100
AcDbLine
 10
-1.664243233483441
 20
-9.55668047373042
 30
0.0
 11
-2.084225166090909
 21
-8.810909711791108
 31
0.0
  0
LINE
  5
27D6
330
2719
100
AcDbEntity
  8
0
100
AcDbLine
 10
1.664243233483432
 20
-9.55668047373042
 30
0.0
 11
2.0842251660909
 21
-8.810909711791108
 31
0.0
  0
SPLINE
  5
27D7
330
2719
100
AcDbEntity
  8
0
100
AcDbSpline
210
0.0
220
0.0
230
1.0
 70
     8
 71
     3
 72
    12
 73
     8
 74
     0
 42
0.000000001
 43
0.0000000001
 40
0.4710435536669474
 40
0.4710435536669474
 40
0.4710435536669474
 40
0.4710435536669474
 40
0.7820503547189653
 40
0.7820503547189653
 40
1.07599178902394
 40
1.07599178902394
 40
1.164704273717283
 40
1.164704273717283
 40
1.164704273717283
 40
1.164704273717283
 10
2.084225166090883
 20
-7.790288985631481
 30
0.0
 10
2.158936633132981
 20
-7.657622260290084
 30
0.0
 10
2.199153602695838
 20
-7.514616630349135
 30
0.0
 10
2.200773793621874
 20
-7.235205749246578
 30
0.0
 10
2.166409101712267
 20
-7.099706872939153
 30
0.0
 10
2.080933970507219
 20
-6.934692525362953
 30
0.0
 10
2.058305425268169
 20
-6.89719234942713
 30
0.0
 10
2.033027998263428
 20
-6.860580148520871
 30
0.0
  0
SPLINE
  5
27D8
330
2719
100
AcDbEntity
  8
0
100
AcDbSpline
210
0.0
220
0.0
230
1.0
 70
     8
 71
     3
 72
    12
 73
     8
 74
     0
 42
0.000000001
 43
0.0000000001
 40
3.547684706667407
 40
3.547684706667407
 40
3.547684706667407
 40
3.547684706667407
 40
3.669602340872341
 40
3.669602340872341
 40
3.976209328623869
 40
3.976209328623869
 40
4.241345426717742
 40
4.241345426717742
 40
4.241345426717742
 40
4.241345426717742
 10
-2.033027998263437
 20
-6.860580148520871
 30
0.0
 10
-2.067766785141731
 20
-6.910896323667543
 30
0.0
 10
-2.09750187012732
 20
-6.962895352703637
 30
0.0
 10
-2.182946322891827
 20
-7.150305273456489
 30
0.0
 10
-2.209151776725327
 20
-7.293165801264365
 30
0.0
 10
-2.186668892840651
 20
-7.556684858433437
 30
0.0
 10
-2.147917364420335
 20
-7.677189407792899
 30
0.0
 10
-2.084225166090892
 20
-7.790288985631481
 30
0.0
  0
LINE
  5
27D9
330
2719
100
AcDbEntity
  8
0
100
AcDbLine
 10
-1.664243233483441
 20
-8.536059747570764
 30
0.0
 11
-2.084225166090909
 21
-7.79028898563145
 31
0.0
  0
LINE
  5
27DA
330
2719
100
AcDbEntity
  8
0
100
AcDbLine
 10
1.664243233483432
 20
-8.536059747570764
 30
0.0
 11
2.0842251660909
 21
-7.79028898563145
 31
0.0
  0
SPLINE
  5
27DB
330
2719
100
AcDbEntity
  8
0
100
AcDbSpline
210
0.0
220
0.0
230
1.0
 70
     8
 71
     3
 72
    12
 73
     8
 74
     0
 42
0.000000001
 43
0.0000000001
 40
0.4710435536669474
 40
0.4710435536669474
 40
0.4710435536669474
 40
0.4710435536669474
 40
0.7820503547189653
 40
0.7820503547189653
 40
1.07599178902394
 40
1.07599178902394
 40
1.164704273717283
 40
1.164704273717283
 40
1.164704273717283
 40
1.164704273717283
 10
2.084225166090883
 20
-6.769668259471823
 30
0.0
 10
2.158936633132981
 20
-6.637001534130426
 30
0.0
 10
2.199153602695838
 20
-6.493995904189477
 30
0.0
 10
2.200773793621874
 20
-6.21458502308692
 30
0.0
 10
2.166409101712267
 20
-6.079086146779495
 30
0.0
 10
2.080933970507219
 20
-5.914071799203295
 30
0.0
 10
2.058305425268169
 20
-5.876571623267475
 30
0.0
 10
2.033027998263428
 20
-5.839959422361216
 30
0.0
  0
SPLINE
  5
27DC
330
2719
100
AcDbEntity
  8
0
100
AcDbSpline
210
0.0
220
0.0
230
1.0
 70
     8
 71
     3
 72
    12
 73
     8
 74
     0
 42
0.000000001
 43
0.0000000001
 40
3.547684706667407
 40
3.547684706667407
 40
3.547684706667407
 40
3.547684706667407
 40
3.669602340872341
 40
3.669602340872341
 40
3.976209328623869
 40
3.976209328623869
 40
4.241345426717742
 40
4.241345426717742
 40
4.241345426717742
 40
4.241345426717742
 10
-2.033027998263437
 20
-5.839959422361218
 30
0.0
 10
-2.067766785141731
 20
-5.890275597507887
 30
0.0
 10
-2.09750187012732
 20
-5.942274626543982
 30
0.0
 10
-2.182946322891827
 20
-6.129684547296829
 30
0.0
 10
-2.209151776725327
 20
-6.272545075104709
 30
0.0
 10
-2.186668892840651
 20
-6.53606413227378
 30
0.0
 10
-2.147917364420335
 20
-6.656568681633245
 30
0.0
 10
-2.084225166090892
 20
-6.769668259471823
 30
0.0
  0
LINE
  5
27DD
330
2719
100
AcDbEntity
  8
0
100
AcDbLine
 10
-1.664243233483441
 20
-7.515439021411105
 30
0.0
 11
-2.084225166090909
 21
-6.769668259471792
 31
0.0
  0
LINE
  5
27DE
330
2719
100
AcDbEntity
  8
0
100
AcDbLine
 10
1.664243233483432
 20
-7.515439021411105
 30
0.0
 11
2.0842251660909
 21
-6.769668259471792
 31
0.0
  0
SPLINE
  5
27DF
330
2719
100
AcDbEntity
  8
0
100
AcDbSpline
210
0.0
220
0.0
230
1.0
 70
     8
 71
     3
 72
    12
 73
     8
 74
     0
 42
0.000000001
 43
0.0000000001
 40
0.4710435536669474
 40
0.4710435536669474
 40
0.4710435536669474
 40
0.4710435536669474
 40
0.7820503547189653
 40
0.7820503547189653
 40
1.07599178902394
 40
1.07599178902394
 40
1.164704273717283
 40
1.164704273717283
 40
1.164704273717283
 40
1.164704273717283
 10
2.084225166090883
 20
-5.749047533312166
 30
0.0
 10
2.158936633132981
 20
-5.616380807970767
 30
0.0
 10
2.199153602695838
 20
-5.473375178029822
 30
0.0
 10
2.200773793621874
 20
-5.193964296927264
 30
0.0
 10
2.166409101712267
 20
-5.058465420619837
 30
0.0
 10
2.080933970507219
 20
-4.893451073043637
 30
0.0
 10
2.058305425268169
 20
-4.855950897107817
 30
0.0
 10
2.033027998263428
 20
-4.819338696201558
 30
0.0
  0
SPLINE
  5
27E0
330
2719
100
AcDbEntity
  8
0
100
AcDbSpline
210
0.0
220
0.0
230
1.0
 70
     8
 71
     3
 72
    12
 73
     8
 74
     0
 42
0.000000001
 43
0.0000000001
 40
3.547684706667407
 40
3.547684706667407
 40
3.547684706667407
 40
3.547684706667407
 40
3.669602340872341
 40
3.669602340872341
 40
3.976209328623869
 40
3.976209328623869
 40
4.241345426717742
 40
4.241345426717742
 40
4.241345426717742
 40
4.241345426717742
 10
-2.033027998263437
 20
-4.81933869620156
 30
0.0
 10
-2.067766785141731
 20
-4.869654871348229
 30
0.0
 10
-2.09750187012732
 20
-4.921653900384324
 30
0.0
 10
-2.182946322891827
 20
-5.109063821137171
 30
0.0
 10
-2.209151776725327
 20
-5.251924348945051
 30
0.0
 10
-2.186668892840651
 20
-5.515443406114119
 30
0.0
 10
-2.147917364420335
 20
-5.635947955473588
 30
0.0
 10
-2.084225166090892
 20
-5.749047533312166
 30
0.0
  0
LINE
  5
27E1
330
2719
100
AcDbEntity
  8
0
100
AcDbLine
 10
-1.664243233483441
 20
-6.494818295251447
 30
0.0
 11
-2.084225166090909
 21
-5.749047533312136
 31
0.0
  0
LINE
  5
27E2
330
2719
100
AcDbEntity
  8
0
100
AcDbLine
 10
1.664243233483432
 20
-6.494818295251447
 30
0.0
 11
2.0842251660909
 21
-5.749047533312134
 31
0.0
  0
SPLINE
  5
27E3
330
2719
100
AcDbEntity
  8
0
100
AcDbSpline
210
0.0
220
0.0
230
1.0
 70
     8
 71
     3
 72
    12
 73
     8
 74
     0
 42
0.000000001
 43
0.0000000001
 40
0.4710435536669474
 40
0.4710435536669474
 40
0.4710435536669474
 40
0.4710435536669474
 40
0.7820503547189653
 40
0.7820503547189653
 40
1.07599178902394
 40
1.07599178902394
 40
1.164704273717283
 40
1.164704273717283
 40
1.164704273717283
 40
1.164704273717283
 10
2.084225166090883
 20
-4.728426807152508
 30
0.0
 10
2.158936633132981
 20
-4.595760081811109
 30
0.0
 10
2.199153602695838
 20
-4.452754451870164
 30
0.0
 10
2.200773793621874
 20
-4.173343570767606
 30
0.0
 10
2.166409101712267
 20
-4.037844694460179
 30
0.0
 10
2.080933970507219
 20
-3.872830346883979
 30
0.0
 10
2.058305425268169
 20
-3.835330170948159
 30
0.0
 10
2.033027998263428
 20
-3.7987179700419
 30
0.0
  0
SPLINE
  5
27E4
330
2719
100
AcDbEntity
  8
0
100
AcDbSpline
210
0.0
220
0.0
230
1.0
 70
     8
 71
     3
 72
    12
 73
     8
 74
     0
 42
0.000000001
 43
0.0000000001
 40
3.547684706667407
 40
3.547684706667407
 40
3.547684706667407
 40
3.547684706667407
 40
3.669602340872341
 40
3.669602340872341
 40
3.976209328623869
 40
3.976209328623869
 40
4.241345426717742
 40
4.241345426717742
 40
4.241345426717742
 40
4.241345426717742
 10
-2.033027998263437
 20
-3.798717970041902
 30
0.0
 10
-2.067766785141731
 20
-3.849034145188572
 30
0.0
 10
-2.09750187012732
 20
-3.901033174224666
 30
0.0
 10
-2.182946322891827
 20
-4.088443094977513
 30
0.0
 10
-2.209151776725327
 20
-4.231303622785393
 30
0.0
 10
-2.186668892840651
 20
-4.494822679954464
 30
0.0
 10
-2.147917364420335
 20
-4.61532722931393
 30
0.0
 10
-2.084225166090892
 20
-4.728426807152508
 30
0.0
  0
LINE
  5
27E5
330
2719
100
AcDbEntity
  8
0
100
AcDbLine
 10
-1.664243233483441
 20
-5.474197569091792
 30
0.0
 11
-2.084225166090909
 21
-4.728426807152478
 31
0.0
  0
LINE
  5
27E6
330
2719
100
AcDbEntity
  8
0
100
AcDbLine
 10
1.664243233483432
 20
-5.474197569091792
 30
0.0
 11
2.0842251660909
 21
-4.728426807152477
 31
0.0
  0
SPLINE
  5
27E7
330
2719
100
AcDbEntity
  8
0
100
AcDbSpline
210
0.0
220
0.0
230
1.0
 70
     8
 71
     3
 72
    12
 73
     8
 74
     0
 42
0.000000001
 43
0.0000000001
 40
0.4710435536669474
 40
0.4710435536669474
 40
0.4710435536669474
 40
0.4710435536669474
 40
0.7820503547189653
 40
0.7820503547189653
 40
1.07599178902394
 40
1.07599178902394
 40
1.164704273717283
 40
1.164704273717283
 40
1.164704273717283
 40
1.164704273717283
 10
2.084225166090883
 20
-3.707806080992852
 30
0.0
 10
2.158936633132981
 20
-3.575139355651451
 30
0.0
 10
2.199153602695838
 20
-3.432133725710506
 30
0.0
 10
2.200773793621874
 20
-3.152722844607949
 30
0.0
 10
2.166409101712267
 20
-3.017223968300521
 30
0.0
 10
2.080933970507219
 20
-2.852209620724321
 30
0.0
 10
2.058305425268169
 20
-2.814709444788501
 30
0.0
 10
2.033027998263428
 20
-2.778097243882242
 30
0.0
  0
SPLINE
  5
27E8
330
2719
100
AcDbEntity
  8
0
100
AcDbSpline
210
0.0
220
0.0
230
1.0
 70
     8
 71
     3
 72
    12
 73
     8
 74
     0
 42
0.000000001
 43
0.0000000001
 40
3.547684706667407
 40
3.547684706667407
 40
3.547684706667407
 40
3.547684706667407
 40
3.669602340872341
 40
3.669602340872341
 40
3.976209328623869
 40
3.976209328623869
 40
4.241345426717742
 40
4.241345426717742
 40
4.241345426717742
 40
4.241345426717742
 10
-2.033027998263437
 20
-2.778097243882244
 30
0.0
 10
-2.067766785141731
 20
-2.828413419028914
 30
0.0
 10
-2.09750187012732
 20
-2.880412448065008
 30
0.0
 10
-2.182946322891827
 20
-3.067822368817858
 30
0.0
 10
-2.209151776725327
 20
-3.210682896625736
 30
0.0
 10
-2.186668892840651
 20
-3.474201953794806
 30
0.0
 10
-2.147917364420335
 20
-3.594706503154272
 30
0.0
 10
-2.084225166090892
 20
-3.707806080992852
 30
0.0
  0
LINE
  5
27E9
330
2719
100
AcDbEntity
  8
0
100
AcDbLine
 10
-1.664243233483441
 20
-4.453576842932134
 30
0.0
 11
-2.084225166090909
 21
-3.707806080992823
 31
0.0
  0
LINE
  5
27EA
330
2719
100
AcDbEntity
  8
0
100
AcDbLine
 10
1.664243233483432
 20
-4.453576842932134
 30
0.0
 11
2.0842251660909
 21
-3.707806080992823
 31
0.0
  0
SPLINE
  5
27EB
330
2719
100
AcDbEntity
  8
0
100
AcDbSpline
210
0.0
220
0.0
230
1.0
 70
     8
 71
     3
 72
    12
 73
     8
 74
     0
 42
0.000000001
 43
0.0000000001
 40
0.4710435536669654
 40
0.4710435536669654
 40
0.4710435536669654
 40
0.4710435536669654
 40
0.782050354718982
 40
0.782050354718982
 40
1.075991789023956
 40
1.075991789023956
 40
1.164704273717283
 40
1.164704273717283
 40
1.164704273717283
 40
1.164704273717283
 10
2.084225166090896
 20
-2.68718535483317
 30
0.0
 10
2.15893663313299
 20
-2.55451862949177
 30
0.0
 10
2.199153602695842
 20
-2.411512999550826
 30
0.0
 10
2.200773793621871
 20
-2.132102118448269
 30
0.0
 10
2.166409101712259
 20
-1.996603242140841
 30
0.0
 10
2.08093397050721
 20
-1.831588894564648
 30
0.0
 10
2.058305425268164
 20
-1.794088718628836
 30
0.0
 10
2.033027998263428
 20
-1.757476517722584
 30
0.0
  0
SPLINE
  5
27EC
330
2719
100
AcDbEntity
  8
0
100
AcDbSpline
210
0.0
220
0.0
230
1.0
 70
     8
 71
     3
 72
    12
 73
     8
 74
     0
 42
0.000000001
 43
0.0000000001
 40
3.547684706667406
 40
3.547684706667406
 40
3.547684706667406
 40
3.547684706667406
 40
3.669602340872358
 40
3.669602340872358
 40
3.976209328623884
 40
3.976209328623884
 40
4.241345426717724
 40
4.241345426717724
 40
4.241345426717724
 40
4.241345426717724
 10
-2.033027998263437
 20
-1.757476517722587
 30
0.0
 10
-2.067766785141736
 20
-1.807792692869263
 30
0.0
 10
-2.097501870127329
 20
-1.859791721905366
 30
0.0
 10
-2.182946322891833
 20
-2.047201642658222
 30
0.0
 10
-2.209151776725329
 20
-2.1900621704661
 30
0.0
 10
-2.186668892840647
 20
-2.453581227635153
 30
0.0
 10
-2.147917364420337
 20
-2.574085776994605
 30
0.0
 10
-2.084225166090905
 20
-2.68718535483317
 30
0.0
  0
LINE
  5
27ED
330
2719
100
AcDbEntity
  8
0
100
AcDbLine
 10
-1.664243233483441
 20
-3.432956116772476
 30
0.0
 11
-2.084225166090911
 21
-2.687185354833161
 31
0.0
  0
LINE
  5
27EE
330
2719
100
AcDbEntity
  8
0
100
AcDbLine
 10
1.664243233483432
 20
-3.432956116772476
 30
0.0
 11
2.084225166090902
 21
-2.687185354833161
 31
0.0
  0
SPLINE
  5
27EF
330
2719
100
AcDbEntity
  8
0
100
AcDbSpline
210
0.0
220
0.0
230
1.0
 70
     8
 71
     3
 72
    12
 73
     8
 74
     0
 42
0.000000001
 43
0.0000000001
 40
0.4710435536669654
 40
0.4710435536669654
 40
0.4710435536669654
 40
0.4710435536669654
 40
0.782050354718982
 40
0.782050354718982
 40
1.075991789023956
 40
1.075991789023956
 40
1.164704273717283
 40
1.164704273717283
 40
1.164704273717283
 40
1.164704273717283
 10
2.084225166090896
 20
-1.666564628673512
 30
0.0
 10
2.15893663313299
 20
-1.533897903332113
 30
0.0
 10
2.199153602695842
 20
-1.390892273391168
 30
0.0
 10
2.200773793621871
 20
-1.111481392288611
 30
0.0
 10
2.166409101712259
 20
-0.9759825159811841
 30
0.0
 10
2.08093397050721
 20
-0.8109681684049906
 30
0.0
 10
2.058305425268164
 20
-0.773467992469179
 30
0.0
 10
2.033027998263428
 20
-0.7368557915629293
 30
0.0
  0
SPLINE
  5
27F0
330
2719
100
AcDbEntity
  8
0
100
AcDbSpline
210
0.0
220
0.0
230
1.0
 70
     8
 71
     3
 72
    12
 73
     8
 74
     0
 42
0.000000001
 43
0.0000000001
 40
3.547684706667406
 40
3.547684706667406
 40
3.547684706667406
 40
3.547684706667406
 40
3.669602340872358
 40
3.669602340872358
 40
3.976209328623884
 40
3.976209328623884
 40
4.241345426717724
 40
4.241345426717724
 40
4.241345426717724
 40
4.241345426717724
 10
-2.033027998263437
 20
-0.7368557915629293
 30
0.0
 10
-2.067766785141736
 20
-0.7871719667096078
 30
0.0
 10
-2.097501870127329
 20
-0.8391709957457083
 30
0.0
 10
-2.182946322891833
 20
-1.026580916498565
 30
0.0
 10
-2.209151776725329
 20
-1.169441444306442
 30
0.0
 10
-2.186668892840647
 20
-1.432960501475495
 30
0.0
 10
-2.147917364420337
 20
-1.553465050834947
 30
0.0
 10
-2.084225166090905
 20
-1.666564628673512
 30
0.0
  0
LINE
  5
27F1
330
2719
100
AcDbEntity
  8
0
100
AcDbLine
 10
-1.664243233483441
 20
-2.412335390612818
 30
0.0
 11
-2.084225166090911
 21
-1.666564628673503
 31
0.0
  0
LINE
  5
27F2
330
2719
100
AcDbEntity
  8
0
100
AcDbLine
 10
1.664243233483432
 20
-2.412335390612818
 30
0.0
 11
2.084225166090902
 21
-1.666564628673503
 31
0.0
  0
SPLINE
  5
27F3
330
2719
100
AcDbEntity
  8
0
100
AcDbSpline
210
0.0
220
0.0
230
1.0
 70
     8
 71
     3
 72
    12
 73
     8
 74
     0
 42
0.000000001
 43
0.0000000001
 40
0.4710435536669654
 40
0.4710435536669654
 40
0.4710435536669654
 40
0.4710435536669654
 40
0.782050354718982
 40
0.782050354718982
 40
1.075991789023956
 40
1.075991789023956
 40
1.164704273717283
 40
1.164704273717283
 40
1.164704273717283
 40
1.164704273717283
 10
2.084225166090896
 20
-0.6459439025138547
 30
0.0
 10
2.15893663313299
 20
-0.5132771771724576
 30
0.0
 10
2.199153602695842
 20
-0.370271547231511
 30
0.0
 10
2.200773793621871
 20
-0.0908606661289535
 30
0.0
 10
2.166409101712259
 20
0.0446382101784715
 30
0.0
 10
2.08093397050721
 20
0.2096525577546671
 30
0.0
 10
2.058305425268164
 20
0.2471527336904788
 30
0.0
 10
2.033027998263428
 20
0.2837649345967308
 30
0.0
  0
SPLINE
  5
27F4
330
2719
100
AcDbEntity
  8
0
100
AcDbSpline
210
0.0
220
0.0
230
1.0
 70
     8
 71
     3
 72
    12
 73
     8
 74
     0
 42
0.000000001
 43
0.0000000001
 40
3.547684706667406
 40
3.547684706667406
 40
3.547684706667406
 40
3.547684706667406
 40
3.669602340872358
 40
3.669602340872358
 40
3.976209328623884
 40
3.976209328623884
 40
4.241345426717724
 40
4.241345426717724
 40
4.241345426717724
 40
4.241345426717724
 10
-2.033027998263437
 20
0.2837649345967286
 30
0.0
 10
-2.067766785141736
 20
0.2334487594500501
 30
0.0
 10
-2.097501870127329
 20
0.1814497304139495
 30
0.0
 10
-2.182946322891833
 20
-0.0059601903389095
 30
0.0
 10
-2.209151776725329
 20
-0.1488207181467871
 30
0.0
 10
-2.186668892840647
 20
-0.4123397753158376
 30
0.0
 10
-2.147917364420337
 20
-0.5328443246752901
 30
0.0
 10
-2.084225166090905
 20
-0.6459439025138547
 30
0.0
  0
LINE
  5
27F5
330
2719
100
AcDbEntity
  8
0
100
AcDbLine
 10
-1.664243233483441
 20
-1.391714664453163
 30
0.0
 11
-2.084225166090911
 21
-0.6459439025138459
 31
0.0
  0
LINE
  5
27F6
330
2719
100
AcDbEntity
  8
0
100
AcDbLine
 10
1.664243233483432
 20
-1.391714664453163
 30
0.0
 11
2.084225166090902
 21
-0.6459439025138459
 31
0.0
  0
SPLINE
  5
27F7
330
2719
100
AcDbEntity
  8
0
100
AcDbSpline
210
0.0
220
0.0
230
1.0
 70
     8
 71
     3
 72
    12
 73
     8
 74
     0
 42
0.000000001
 43
0.0000000001
 40
0.4710435536669654
 40
0.4710435536669654
 40
0.4710435536669654
 40
0.4710435536669654
 40
0.782050354718982
 40
0.782050354718982
 40
1.075991789023956
 40
1.075991789023956
 40
1.164704273717283
 40
1.164704273717283
 40
1.164704273717283
 40
1.164704273717283
 10
2.084225166090896
 20
0.3746768236458031
 30
0.0
 10
2.15893663313299
 20
0.5073435489872003
 30
0.0
 10
2.199153602695842
 20
0.6503491789281446
 30
0.0
 10
2.200773793621871
 20
0.9297600600307042
 30
0.0
 10
2.166409101712259
 20
1.065258936338129
 30
0.0
 10
2.08093397050721
 20
1.230273283914324
 30
0.0
 10
2.058305425268164
 20
1.267773459850136
 30
0.0
 10
2.033027998263428
 20
1.304385660756386
 30
0.0
  0
SPLINE
  5
27F8
330
2719
100
AcDbEntity
  8
0
100
AcDbSpline
210
0.0
220
0.0
230
1.0
 70
     8
 71
     3
 72
    12
 73
     8
 74
     0
 42
0.000000001
 43
0.0000000001
 40
3.547684706667406
 40
3.547684706667406
 40
3.547684706667406
 40
3.547684706667406
 40
3.669602340872358
 40
3.669602340872358
 40
3.976209328623884
 40
3.976209328623884
 40
4.241345426717724
 40
4.241345426717724
 40
4.241345426717724
 40
4.241345426717724
 10
-2.033027998263437
 20
1.304385660756384
 30
0.0
 10
-2.067766785141736
 20
1.254069485609707
 30
0.0
 10
-2.097501870127329
 20
1.202070456573607
 30
0.0
 10
-2.182946322891833
 20
1.014660535820748
 30
0.0
 10
-2.209151776725329
 20
0.8718000080128707
 30
0.0
 10
-2.186668892840647
 20
0.6082809508438203
 30
0.0
 10
-2.147917364420337
 20
0.4877764014843678
 30
0.0
 10
-2.084225166090905
 20
0.3746768236458031
 30
0.0
  0
LINE
  5
27F9
330
2719
100
AcDbEntity
  8
0
100
AcDbLine
 10
-1.664243233483441
 20
-0.3710939382935052
 30
0.0
 11
-2.084225166090911
 21
0.374676823645812
 31
0.0
  0
LINE
  5
27FA
330
2719
100
AcDbEntity
  8
0
100
AcDbLine
 10
1.664243233483432
 20
-0.3710939382935052
 30
0.0
 11
2.084225166090902
 21
0.374676823645812
 31
0.0
  0
SPLINE
  5
27FB
330
2719
100
AcDbEntity
  8
0
100
AcDbSpline
210
0.0
220
0.0
230
1.0
 70
     8
 71
     3
 72
    12
 73
     8
 74
     0
 42
0.000000001
 43
0.0000000001
 40
0.4710435536669654
 40
0.4710435536669654
 40
0.4710435536669654
 40
0.4710435536669654
 40
0.782050354718982
 40
0.782050354718982
 40
1.075991789023956
 40
1.075991789023956
 40
1.164704273717283
 40
1.164704273717283
 40
1.164704273717283
 40
1.164704273717283
 10
2.084225166090896
 20
1.39529754980546
 30
0.0
 10
2.15893663313299
 20
1.527964275146858
 30
0.0
 10
2.199153602695842
 20
1.670969905087802
 30
0.0
 10
2.200773793621871
 20
1.950380786190362
 30
0.0
 10
2.166409101712259
 20
2.085879662497787
 30
0.0
 10
2.08093397050721
 20
2.250894010073982
 30
0.0
 10
2.058305425268164
 20
2.288394186009792
 30
0.0
 10
2.033027998263428
 20
2.325006386916042
 30
0.0
  0
SPLINE
  5
27FC
330
2719
100
AcDbEntity
  8
0
100
AcDbSpline
210
0.0
220
0.0
230
1.0
 70
     8
 71
     3
 72
    12
 73
     8
 74
     0
 42
0.000000001
 43
0.0000000001
 40
3.547684706667406
 40
3.547684706667406
 40
3.547684706667406
 40
3.547684706667406
 40
3.669602340872358
 40
3.669602340872358
 40
3.976209328623884
 40
3.976209328623884
 40
4.241345426717724
 40
4.241345426717724
 40
4.241345426717724
 40
4.241345426717724
 10
-2.033027998263437
 20
2.325006386916042
 30
0.0
 10
-2.067766785141736
 20
2.274690211769365
 30
0.0
 10
-2.097501870127329
 20
2.222691182733265
 30
0.0
 10
-2.182946322891833
 20
2.035281261980406
 30
0.0
 10
-2.209151776725329
 20
1.892420734172528
 30
0.0
 10
-2.186668892840647
 20
1.628901677003478
 30
0.0
 10
-2.147917364420337
 20
1.508397127644025
 30
0.0
 10
-2.084225166090905
 20
1.39529754980546
 30
0.0
  0
LINE
  5
27FD
330
2719
100
AcDbEntity
  8
0
100
AcDbLine
 10
-1.664243233483441
 20
0.6495267878661526
 30
0.0
 11
-2.084225166090911
 21
1.395297549805467
 31
0.0
  0
LINE
  5
27FE
330
2719
100
AcDbEntity
  8
0
100
AcDbLine
 10
1.664243233483432
 20
0.6495267878661526
 30
0.0
 11
2.084225166090902
 21
1.395297549805467
 31
0.0
  0
SPLINE
  5
27FF
330
2719
100
AcDbEntity
  8
0
100
AcDbSpline
210
0.0
220
0.0
230
1.0
 70
     8
 71
     3
 72
    12
 73
     8
 74
     0
 42
0.000000001
 43
0.0000000001
 40
0.4710435536669654
 40
0.4710435536669654
 40
0.4710435536669654
 40
0.4710435536669654
 40
0.782050354718982
 40
0.782050354718982
 40
1.075991789023956
 40
1.075991789023956
 40
1.164704273717283
 40
1.164704273717283
 40
1.164704273717283
 40
1.164704273717283
 10
2.084225166090896
 20
2.415918275965118
 30
0.0
 10
2.15893663313299
 20
2.548585001306515
 30
0.0
 10
2.199153602695842
 20
2.69159063124746
 30
0.0
 10
2.200773793621871
 20
2.971001512350019
 30
0.0
 10
2.166409101712259
 20
3.106500388657444
 30
0.0
 10
2.08093397050721
 20
3.27151473623364
 30
0.0
 10
2.058305425268164
 20
3.30901491216945
 30
0.0
 10
2.033027998263428
 20
3.345627113075702
 30
0.0
  0
SPLINE
  5
2800
330
2719
100
AcDbEntity
  8
0
100
AcDbSpline
210
0.0
220
0.0
230
1.0
 70
     8
 71
     3
 72
    12
 73
     8
 74
     0
 42
0.000000001
 43
0.0000000001
 40
3.547684706667406
 40
3.547684706667406
 40
3.547684706667406
 40
3.547684706667406
 40
3.669602340872358
 40
3.669602340872358
 40
3.976209328623884
 40
3.976209328623884
 40
4.241345426717724
 40
4.241345426717724
 40
4.241345426717724
 40
4.241345426717724
 10
-2.033027998263437
 20
3.345627113075699
 30
0.0
 10
-2.067766785141736
 20
3.295310937929023
 30
0.0
 10
-2.097501870127329
 20
3.243311908892922
 30
0.0
 10
-2.182946322891833
 20
3.055901988140063
 30
0.0
 10
-2.209151776725329
 20
2.913041460332186
 30
0.0
 10
-2.186668892840647
 20
2.649522403163135
 30
0.0
 10
-2.147917364420337
 20
2.529017853803683
 30
0.0
 10
-2.084225166090905
 20
2.415918275965118
 30
0.0
  0
LINE
  5
2801
330
2719
100
AcDbEntity
  8
0
100
AcDbLine
 10
-1.664243233483441
 20
1.67014751402581
 30
0.0
 11
-2.084225166090911
 21
2.415918275965125
 31
0.0
  0
LINE
  5
2802
330
2719
100
AcDbEntity
  8
0
100
AcDbLine
 10
1.664243233483432
 20
1.67014751402581
 30
0.0
 11
2.084225166090902
 21
2.415918275965125
 31
0.0
  0
SPLINE
  5
2803
330
2719
100
AcDbEntity
  8
0
100
AcDbSpline
210
0.0
220
0.0
230
1.0
 70
     8
 71
     3
 72
    12
 73
     8
 74
     0
 42
0.000000001
 43
0.0000000001
 40
0.4710435536669654
 40
0.4710435536669654
 40
0.4710435536669654
 40
0.4710435536669654
 40
0.782050354718982
 40
0.782050354718982
 40
1.075991789023956
 40
1.075991789023956
 40
1.164704273717283
 40
1.164704273717283
 40
1.164704273717283
 40
1.164704273717283
 10
2.084225166090896
 20
3.436539002124774
 30
0.0
 10
2.15893663313299
 20
3.569205727466173
 30
0.0
 10
2.199153602695842
 20
3.712211357407118
 30
0.0
 10
2.200773793621871
 20
3.991622238509676
 30
0.0
 10
2.166409101712259
 20
4.127121114817102
 30
0.0
 10
2.08093397050721
 20
4.292135462393297
 30
0.0
 10
2.058305425268164
 20
4.329635638329108
 30
0.0
 10
2.033027998263428
 20
4.366247839235358
 30
0.0
  0
SPLINE
  5
2804
330
2719
100
AcDbEntity
  8
0
100
AcDbSpline
210
0.0
220
0.0
230
1.0
 70
     8
 71
     3
 72
    12
 73
     8
 74
     0
 42
0.000000001
 43
0.0000000001
 40
3.547684706667406
 40
3.547684706667406
 40
3.547684706667406
 40
3.547684706667406
 40
3.669602340872358
 40
3.669602340872358
 40
3.976209328623884
 40
3.976209328623884
 40
4.241345426717724
 40
4.241345426717724
 40
4.241345426717724
 40
4.241345426717724
 10
-2.033027998263437
 20
4.366247839235358
 30
0.0
 10
-2.067766785141736
 20
4.315931664088681
 30
0.0
 10
-2.097501870127329
 20
4.263932635052579
 30
0.0
 10
-2.182946322891833
 20
4.07652271429972
 30
0.0
 10
-2.209151776725329
 20
3.933662186491844
 30
0.0
 10
-2.186668892840647
 20
3.670143129322793
 30
0.0
 10
-2.147917364420337
 20
3.549638579963338
 30
0.0
 10
-2.084225166090905
 20
3.436539002124774
 30
0.0
  0
LINE
  5
2805
330
2719
100
AcDbEntity
  8
0
100
AcDbLine
 10
-1.664243233483441
 20
2.690768240185468
 30
0.0
 11
-2.084225166090911
 21
3.436539002124783
 31
0.0
  0
LINE
  5
2806
330
2719
100
AcDbEntity
  8
0
100
AcDbLine
 10
1.664243233483432
 20
2.690768240185468
 30
0.0
 11
2.084225166090902
 21
3.436539002124783
 31
0.0
  0
SPLINE
  5
2807
330
2719
100
AcDbEntity
  8
0
100
AcDbSpline
210
0.0
220
0.0
230
1.0
 70
     8
 71
     3
 72
    12
 73
     8
 74
     0
 42
0.000000001
 43
0.0000000001
 40
0.4710435536669659
 40
0.4710435536669659
 40
0.4710435536669659
 40
0.4710435536669659
 40
0.7820503547189823
 40
0.7820503547189823
 40
1.075991789023956
 40
1.075991789023956
 40
1.206105402486822
 40
1.206105402486822
 40
1.206105402486822
 40
1.206105402486822
 10
2.084225166090896
 20
4.457159728284433
 30
0.0
 10
2.15893663313299
 20
4.589826453625832
 30
0.0
 10
2.199153602695842
 20
4.732832083566778
 30
0.0
 10
2.200773793621871
 20
5.012242964669335
 30
0.0
 10
2.166409101712259
 20
5.14774184097676
 30
0.0
 10
2.071686013703639
 20
5.330609867591986
 30
0.0
 10
2.036571803740099
 20
5.385086600222908
 30
0.0
 10
1.995923874905543
 20
5.437538513774789
 30
0.0
  0
SPLINE
  5
2808
330
2719
100
AcDbEntity
  8
0
100
AcDbSpline
210
0.0
220
0.0
230
1.0
 70
     8
 71
     3
 72
    12
 73
     8
 74
     0
 42
0.000000001
 43
0.0000000001
 40
3.506283577897867
 40
3.506283577897867
 40
3.506283577897867
 40
3.506283577897867
 40
3.669602340872359
 40
3.669602340872359
 40
3.976209328623886
 40
3.976209328623886
 40
4.241345426717723
 40
4.241345426717723
 40
4.241345426717723
 40
4.241345426717723
 10
-1.995923874905551
 20
5.437538513774791
 30
0.0
 10
-2.046945203712391
 20
5.371700809256784
 30
0.0
 10
-2.089246809367004
 20
5.302659630640473
 30
0.0
 10
-2.182946322891833
 20
5.097143440459377
 30
0.0
 10
-2.20915177672533
 20
4.9542829126515
 30
0.0
 10
-2.186668892840647
 20
4.690763855482449
 30
0.0
 10
-2.147917364420337
 20
4.570259306122998
 30
0.0
 10
-2.084225166090906
 20
4.457159728284434
 30
0.0
  0
LINE
  5
2809
330
2719
100
AcDbEntity
  8
0
100
AcDbLine
 10
-1.664243233483441
 20
3.711388966345126
 30
0.0
 11
-2.084225166090911
 21
4.457159728284442
 31
0.0
  0
LINE
  5
280A
330
2719
100
AcDbEntity
  8
0
100
AcDbLine
 10
1.664243233483432
 20
3.711388966345126
 30
0.0
 11
2.084225166090902
 21
4.457159728284442
 31
0.0
  0
LINE
  5
280B
330
2719
100
AcDbEntity
  8
0
100
AcDbLine
 10
1.801642696391607
 20
-10.99383943267628
 30
0.0
 11
1.262570233507328
 21
-11.30507306423523
 31
0.0
  0
ELLIPSE
  5
280C
330
2719
100
AcDbEntity
  8
0
100
AcDbEllipse
 10
-0.0000000000000044
 20
-15.1255228501134
 30
0.0
 11
1.977122509811719
 21
4.10969426810152
 31
0.0
210
0.0
220
0.0
230
1.0
 40
0.2347805934183504
 41
5.82916708582973
 42
6.440421956065683
  0
ELLIPSE
  5
280D
330
2719
100
AcDbEntity
  8
0
100
AcDbEllipse
 10
-0.0000000000000044
 20
-15.1255228501134
 30
0.0
 11
1.977122509811719
 21
4.10969426810152
 31
0.0
210
0.0
220
0.0
230
1.0
 40
0.2347805934183504
 41
0.5055232352090897
 42
1.116778105445043
  0
ELLIPSE
  5
280E
330
2719
100
AcDbEntity
  8
0
100
AcDbEllipse
 10
-0.0000000000000016
 20
5.511222264995826
 30
0.0
 11
-1.999999999999992
 21
0.0000000000000006
 31
0.0
210
0.0
220
0.0
230
1.0
 40
0.5773502691896258
 41
0.0000000000000023
 42
3.141592653589796
  0
LINE
  5
280F
330
2719
100
AcDbEntity
  8
0
100
AcDbLine
 10
-1.664243233483437
 20
4.732009692504785
 30
0.0
 11
-1.901992266838212
 21
5.154185657681471
 31
0.0
  0
LINE
  5
2810
330
2719
100
AcDbEntity
  8
0
100
AcDbLine
 10
1.664243233483428
 20
4.732009692504785
 30
0.0
 11
1.901992266838204
 21
5.154185657681471
 31
0.0
  0
ELLIPSE
  5
2811
330
2719
100
AcDbEntity
  8
0
100
AcDbEllipse
 10
-0.0000000000000009
 20
10.81845004102604
 30
0.0
 11
-1.999999999999992
 21
0.0000000000000002
 31
0.0
210
0.0
220
0.0
230
1.0
 40
0.5773502691896259
 41
0.1574110559144123
 42
2.984181597675381
  0
LINE
  5
2812
330
2719
100
AcDbEntity
  8
0
100
AcDbLine
 10
-3.500000000000009
 20
14.08443636473695
 30
0.0
 11
-3.500000000000009
 21
14.69680880043274
 31
0.0
  0
LINE
  5
2813
330
2719
100
AcDbEntity
  8
0
100
AcDbLine
 10
3.500000000000009
 20
14.08443636473695
 30
0.0
 11
3.500000000000009
 21
14.69680880043274
 31
0.0
  0
LINE
  5
2814
330
2719
100
AcDbEntity
  8
0
100
AcDbLine
 10
-1.999999999999993
 20
5.511222264995826
 30
0.0
 11
-1.999999999999993
 21
10.7273806027804
 31
0.0
  0
LINE
  5
2815
330
2719
100
AcDbEntity
  8
0
100
AcDbLine
 10
1.99999999999999
 20
5.511222264995825
 30
0.0
 11
1.999999999999991
 21
10.7273806027804
 31
0.0
  0
LINE
  5
2816
330
2719
100
AcDbEntity
  8
0
100
AcDbLine
 10
-1.975272880670222
 20
10.63743710696816
 30
0.0
 11
-2.486296602459288
 21
12.49625694633999
 31
0.0
  0
LINE
  5
2817
330
2719
100
AcDbEntity
  8
0
100
AcDbLine
 10
1.975272880670221
 20
10.63743710696816
 30
0.0
 11
2.486296602459288
 21
12.49625694633999
 31
0.0
  0
LINE
  5
2818
330
2719
100
AcDbEntity
  8
0
100
AcDbLine
 10
-2.200000000000004
 20
-11.63575782914141
 30
0.0
 11
-2.200000000000004
 21
-10.26489416849001
 31
0.0
  0
LINE
  5
2819
330
2719
100
AcDbEntity
  8
0
100
AcDbLine
 10
2.199999999999995
 20
-11.63575782914141
 30
0.0
 11
2.199999999999995
 21
-10.26489416849001
 31
0.0
  0
ENDBLK
  5
271B
330
2719
100
AcDbEntity
  8
0
100
AcDbBlockEnd
  0
ENDSEC
  0
SECTION
  2
ENTITIES
  0
INSERT
  5
281A
330
1F
100
AcDbEntity
  8
0
100
AcDbBlockReference
  2
CNA40X35S-Front
 10
0.0
 20
0.0
 30
0.0
  0
INSERT
  5
281B
330
1F
100
AcDbEntity
  8
0
100
AcDbBlockReference
  2
CNA40X35S-Top
 10
0.0
 20
-49.45000000000002
 30
0.0
  0
INSERT
  5
281C
330
1F
100
AcDbEntity
  8
0
100
AcDbBlockReference
  2
CNA40X35S-ISO
 10
17.95000000000003
 20
-62.77366343911877
 30
0.0
  0
MTEXT
  5
281D
330
1F
100
AcDbEntity
  8
0
100
AcDbMText
 10
0.0
 20
-63.90000000000003
 30
0.0
 40
1.926666666666668
 41
0.0
 71
     5
 72
     5
  1
CNA4.0X35S
 73
     1
 44
1.0
1001
ACAD
1000
MTEXTBEGIN
1070
    73
1070
     1
1070
    44
1040
1.0
1070
    74
1070
     0
1000
MTEXTEND
  0
ENDSEC
  0
SECTION
  2
OBJECTS
  0
DICTIONARY
  5
C
330
0
100
AcDbDictionary
281
     1
  3
ACAD_CIP_PREVIOUS_PRODUCT_INFO
350
216
  3
ACAD_COLOR
350
6B
  3
ACAD_DETAILVIEWSTYLE
350
21B
  3
ACAD_GROUP
350
D
  3
ACAD_LAYOUT
350
1A
  3
ACAD_MATERIAL
350
6A
  3
ACAD_MLEADERSTYLE
350
12D
  3
ACAD_MLINESTYLE
350
17
  3
ACAD_PLOTSETTINGS
350
19
  3
ACAD_PLOTSTYLENAME
350
E
  3
ACAD_SCALELIST
350
10C
  3
ACAD_SECTIONVIEWSTYLE
350
219
  3
ACAD_TABLESTYLE
350
7E
  3
ACAD_VISUALSTYLE
350
EF
  3
ACDB_RECOMPOSE_DATA
350
2920
  3
AcDbVariableDictionary
350
5E
  3
DWGPROPS
350
2921
  0
DICTIONARY
  5
286E
330
8
100
AcDbDictionary
280
     1
281
     1
  0
DICTIONARY
  5
1FF
330
2
100
AcDbDictionary
280
     1
281
     1
  3
ACAD_LAYERSTATES
360
200
  0
DICTIONARY
  5
13C
330
10
100
AcDbDictionary
280
     1
281
     1
  0
DICTIONARY
  5
1CE
330
1F
100
AcDbDictionary
280
     1
281
     1
  3
ACAD_LAYOUTSELFREF
360
2876
  0
DICTIONARY
  5
2821
330
D2
100
AcDbDictionary
280
     1
281
     1
  3
ACAD_LAYOUTSELFREF
360
287F
  0
DICTIONARY
  5
2823
330
D6
100
AcDbDictionary
280
     1
281
     1
  3
ACAD_LAYOUTSELFREF
360
2882
  0
XRECORD
  5
216
102
{ACAD_REACTORS
330
C
102
}
330
C
100
AcDbXrecord
280
     1
300
ACD
300
2021
300
87393ACD_2021_0F
  0
DICTIONARY
  5
6B
102
{ACAD_REACTORS
330
C
102
}
330
C
100
AcDbDictionary
281
     1
  0
DICTIONARY
  5
21B
102
{ACAD_REACTORS
330
C
102
}
330
C
100
AcDbDictionary
281
     1
  3
Metric50
350
21C
  0
DICTIONARY
  5
D
102
{ACAD_REACTORS
330
C
102
}
330
C
100
AcDbDictionary
281
     1
  0
DICTIONARY
  5
1A
102
{ACAD_REACTORS
330
C
102
}
330
C
100
AcDbDictionary
281
     1
  3
Layout1
350
D3
  3
Layout2
350
D7
  3
Model
350
22
  0
DICTIONARY
  5
6A
102
{ACAD_REACTORS
330
C
102
}
330
C
100
AcDbDictionary
281
     1
  3
ByBlock
350
ED
  3
ByLayer
350
EC
  3
Global
350
EE
  0
DICTIONARY
  5
12D
102
{ACAD_REACTORS
330
C
102
}
330
C
100
AcDbDictionary
281
     1
  3
Standard
350
12E
  0
DICTIONARY
  5
17
102
{ACAD_REACTORS
330
C
102
}
330
C
100
AcDbDictionary
281
     1
  3
Standard
350
18
  0
DICTIONARY
  5
19
102
{ACAD_REACTORS
330
C
102
}
330
C
100
AcDbDictionary
281
     1
  0
ACDBDICTIONARYWDFLT
  5
E
102
{ACAD_REACTORS
330
C
102
}
330
C
100
AcDbDictionary
281
     1
  3
Normal
350
F
100
AcDbDictionaryWithDefault
340
F
  0
DICTIONARY
  5
10C
102
{ACAD_REACTORS
330
C
102
}
330
C
100
AcDbDictionary
281
     1
  3
A0
350
10D
  3
A1
350
1BE
  3
A2
350
1BF
  3
A3
350
1C0
  3
A4
350
1C1
  3
A5
350
1C2
  3
A6
350
1C3
  3
A7
350
1C4
  3
A8
350
1C5
  3
A9
350
1C6
  3
B0
350
1C7
  3
B1
350
1C8
  3
B2
350
1C9
  3
B3
350
1CA
  3
B4
350
1CB
  3
B5
350
1CC
  3
B6
350
1CD
  0
DICTIONARY
  5
219
102
{ACAD_REACTORS
330
C
102
}
330
C
100
AcDbDictionary
281
     1
  3
Metric50
350
21A
  0
DICTIONARY
  5
7E
102
{ACAD_REACTORS
330
C
102
}
330
C
100
AcDbDictionary
281
     1
  3
Standard
350
7F
  0
DICTIONARY
  5
EF
102
{ACAD_REACTORS
330
C
102
}
330
C
100
AcDbDictionary
281
     1
  3
2dWireframe
350
F5
  3
Basic
350
F4
  3
Brighten
350
FB
  3
ColorChange
350
FF
  3
Conceptual
350
F8
  3
Dim
350
FA
  3
EdgeColorOff
350
1E6
  3
Facepattern
350
FE
  3
Flat
350
F0
  3
FlatWithEdges
350
F1
  3
Gouraud
350
F2
  3
GouraudWithEdges
350
F3
  3
Hidden
350
F7
  3
JitterOff
350
1E4
  3
Linepattern
350
FD
  3
OverhangOff
350
1E5
  3
Realistic
350
F9
  3
Shaded
350
1F3
  3
Shaded with edges
350
1F2
  3
Shades of Gray
350
1EF
  3
Sketchy
350
1F0
  3
Thicken
350
FC
  3
Wireframe
350
F6
  3
X-Ray
350
1F1
  0
XRECORD
  5
2920
102
{ACAD_REACTORS
330
C
102
}
330
C
100
AcDbXrecord
280
     1
 90
        1
330
7F
  0
DICTIONARY
  5
5E
102
{ACAD_REACTORS
330
C
102
}
330
C
100
AcDbDictionary
281
     1
  3
CANNOSCALE
350
146
  3
CENTEREXE
350
259
  3
CENTERLTYPEFILE
350
25A
  3
CMLEADERSTYLE
350
145
  3
CTABLESTYLE
350
84
  3
CVIEWDETAILSTYLE
350
227
  3
CVIEWSECTIONSTYLE
350
228
  3
DIMASSOC
350
5F
  3
HIDETEXT
350
63
  3
INDEXCTL
350
28CB
  3
LAYEREVAL
350
1AE
  3
LAYERNOTIFY
350
1AF
  3
LIGHTINGUNITS
350
28C9
  3
MSLTSCALE
350
28C8
  3
PSOLHEIGHT
350
291D
  3
PSOLWIDTH
350
291C
  3
SORTENTS
350
28CA
  3
XCLIPFRAME
350
291E
  0
XRECORD
  5
2921
102
{ACAD_REACTORS
330
C
102
}
330
C
100
AcDbXrecord
280
     1
  1
DWGPROPS COOKIE
  2

  3

  4

  6

  7

  8
tronnguyen
  9

300
=
301
=
302
=
303
=
304
=
305
=
306
=
307
=
308
=
309
=
 40
0.0489930555555556
 41
2460693.556458334
 42
2460693.607326389
  1

 90
        0
  0
DICTIONARY
  5
200
102
{ACAD_REACTORS
330
1FF
102
}
330
1FF
100
AcDbDictionary
281
     1
  0
XRECORD
  5
2876
102
{ACAD_REACTORS
330
1CE
102
}
330
1CE
100
AcDbXrecord
280
     1
340
1F
  0
XRECORD
  5
287F
102
{ACAD_REACTORS
330
2821
102
}
330
2821
100
AcDbXrecord
280
     1
340
D2
  0
XRECORD
  5
2882
102
{ACAD_REACTORS
330
2823
102
}
330
2823
100
AcDbXrecord
280
     1
340
D6
  0
ACDBDETAILVIEWSTYLE
  5
21C
102
{ACAD_XDICTIONARY
360
2960
102
}
102
{ACAD_REACTORS
330
21B
102
}
330
21B
100
AcDbModelDocViewStyle
 70
     0
  3
Metric50
290
     0
100
AcDbDetailViewStyle
 70
     0
 71
     0
 90
        3
 71
     1
340
11
 40
5.0
340
0
 40
5.0
300

 40
0.0
280
     1
 71
     2
340
16
 90
       25
 71
     3
340
11
 40
5.0
 90
        0
 40
15.0
 90
        1
300
%<\AcVar ViewDetailId>% (%<\AcVar ViewScale \f "%sn">%)
 71
     4
340
16
 90
       25
340
16
 90
       25
280
     0
  0
LAYOUT
  5
D3
102
{ACAD_XDICTIONARY
360
2925
102
}
102
{ACAD_REACTORS
330
1A
102
}
330
1A
100
AcDbPlotSettings
  1

  2
C:\Documents and Settings\basas\Application Data\Autodesk\AutoCAD 2005\R16.1\enu\plotters\Default Windows System Printer.pc3
  4

  6

 40
0.0
 41
0.0
 42
0.0
 43
0.0
 44
0.0
 45
0.0
 46
0.0
 47
0.0
 48
0.0
 49
0.0
140
0.0
141
0.0
142
1.0
143
1.0
 70
   688
 72
     0
 73
     0
 74
     5
  7

 75
    16
147
1.0
148
0.0
149
0.0
100
AcDbLayout
  1
Layout1
 70
     1
 71
     1
 10
0.0
 20
0.0
 11
12.0
 21
9.0
 12
0.0
 22
0.0
 32
0.0
 14
0.0
 24
0.0
 34
0.0
 15
0.0
 25
0.0
 35
0.0
146
0.0
 13
0.0
 23
0.0
 33
0.0
 16
1.0
 26
0.0
 36
0.0
 17
0.0
 27
1.0
 37
0.0
 76
     0
330
D2
  0
LAYOUT
  5
D7
102
{ACAD_XDICTIONARY
360
2927
102
}
102
{ACAD_REACTORS
330
1A
102
}
330
1A
100
AcDbPlotSettings
  1

  2
C:\Documents and Settings\basas\Application Data\Autodesk\AutoCAD 2005\R16.1\enu\plotters\Default Windows System Printer.pc3
  4

  6

 40
0.0
 41
0.0
 42
0.0
 43
0.0
 44
0.0
 45
0.0
 46
0.0
 47
0.0
 48
0.0
 49
0.0
140
0.0
141
0.0
142
1.0
143
1.0
 70
   688
 72
     0
 73
     0
 74
     5
  7

 75
    16
147
1.0
148
0.0
149
0.0
100
AcDbLayout
  1
Layout2
 70
     1
 71
     2
 10
0.0
 20
0.0
 11
12.0
 21
9.0
 12
0.0
 22
0.0
 32
0.0
 14
0.0
 24
0.0
 34
0.0
 15
0.0
 25
0.0
 35
0.0
146
0.0
 13
0.0
 23
0.0
 33
0.0
 16
1.0
 26
0.0
 36
0.0
 17
0.0
 27
1.0
 37
0.0
 76
     0
330
D6
  0
LAYOUT
  5
22
102
{ACAD_XDICTIONARY
360
2922
102
}
102
{ACAD_REACTORS
330
1A
102
}
330
1A
100
AcDbPlotSettings
  1

  2
none_device
  4
ISO_A4_(210.00_x_297.00_MM)
  6

 40
7.5
 41
20.0
 42
7.5
 43
20.0
 44
210.0
 45
297.0
 46
11.54999923706054
 47
-13.65000009536743
 48
0.0
 49
0.0
140
0.0
141
0.0
142
1.0
143
8.704084754739808
 70
 11952
 72
     1
 73
     0
 74
     0
  7

 75
     0
147
0.1148885871608098
148
0.0
149
0.0
100
AcDbLayout
  1
Model
 70
     1
 71
     0
 10
0.0
 20
0.0
 11
12.0
 21
9.0
 12
0.0
 22
0.0
 32
0.0
 14
0.0
 24
0.0
 34
0.0
 15
0.0
 25
0.0
 35
0.0
146
0.0
 13
0.0
 23
0.0
 33
0.0
 16
1.0
 26
0.0
 36
0.0
 17
0.0
 27
1.0
 37
0.0
 76
     0
330
1F
331
EA
1001
ACAD_PSEXT
1000
None
1000
None
1000
Not applicable
1000
The layout will not be plotted unless a new plotter configuration name is selected.
1070
     0
  0
MATERIAL
  5
ED
102
{ACAD_XDICTIONARY
360
1F9
102
}
102
{ACAD_REACTORS
330
6A
102
}
330
6A
100
AcDbMaterial
  1
ByBlock
  0
MATERIAL
  5
EC
102
{ACAD_XDICTIONARY
360
1F7
102
}
102
{ACAD_REACTORS
330
6A
102
}
330
6A
100
AcDbMaterial
  1
ByLayer
  0
MATERIAL
  5
EE
102
{ACAD_XDICTIONARY
360
173
102
}
102
{ACAD_REACTORS
330
6A
102
}
330
6A
100
AcDbMaterial
  1
Global
 43
0.0007999999797903
 43
0.0
 43
0.0
 43
0.0
 43
0.0
 43
0.0007999999797903
 43
0.0
 43
0.0
 43
0.0
 43
0.0
 43
1.0
 43
0.0
 43
0.0
 43
0.0
 43
0.0
 43
1.0
 49
0.0007999999797903
 49
0.0
 49
0.0
 49
0.0
 49
0.0
 49
0.0007999999797903
 49
0.0
 49
0.0
 49
0.0
 49
0.0
 49
1.0
 49
0.0
 49
0.0
 49
0.0
 49
0.0
 49
1.0
142
0.0007999999797903
142
0.0
142
0.0
142
0.0
142
0.0
142
0.0007999999797903
142
0.0
142
0.0
142
0.0
142
0.0
142
1.0
142
0.0
142
0.0
142
0.0
142
0.0
142
1.0
144
0.0007999999797903
144
0.0
144
0.0
144
0.0
144
0.0
144
0.0007999999797903
144
0.0
144
0.0
144
0.0
144
0.0
144
1.0
144
0.0
144
0.0
144
0.0
144
0.0
144
1.0
1001
ACAD
1070
    -1
1070
     3
1070
     0
1000

1071
        0
1070
     0
  0
MLEADERSTYLE
  5
12E
102
{ACAD_XDICTIONARY
360
294C
102
}
102
{ACAD_REACTORS
330
12D
102
}
330
12D
100
AcDbMLeaderStyle
170
     2
171
     1
172
     0
 90
        2
 40
0.0
 41
0.0
173
     1
 91
-1056964608
340
14
 92
       -2
290
     1
 42
2.0
291
     1
 43
8.0
  3
Standard
 44
4.0
300

342
11
174
     1
178
     1
175
     1
176
     0
 93
-1056964608
 45
4.0
292
     0
297
     0
 46
4.0
 94
-1056964608
 47
1.0
 49
1.0
140
1.0
293
     1
141
0.0
294
     1
177
     0
142
1.0
295
     0
296
     0
143
3.75
1001
ACAD_MLEADERVER
1070
     2
  0
MLINESTYLE
  5
18
102
{ACAD_REACTORS
330
17
102
}
330
17
100
AcDbMlineStyle
  2
STANDARD
 70
     0
  3

 62
   256
 51
90.0
 52
90.0
 71
     2
 49
0.5
 62
   256
  6
BYLAYER
 49
-0.5
 62
   256
  6
BYLAYER
  0
ACDBPLACEHOLDER
  5
F
102
{ACAD_REACTORS
330
E
102
}
330
E
  0
SCALE
  5
10D
102
{ACAD_REACTORS
330
10C
102
}
330
10C
100
AcDbScale
 70
     0
300
1:1
140
1.0
141
1.0
290
     1
  0
SCALE
  5
1BE
102
{ACAD_REACTORS
330
10C
102
}
330
10C
100
AcDbScale
 70
     0
300
1:2
140
1.0
141
2.0
290
     0
  0
SCALE
  5
1BF
102
{ACAD_REACTORS
330
10C
102
}
330
10C
100
AcDbScale
 70
     0
300
1:4
140
1.0
141
4.0
290
     0
  0
SCALE
  5
1C0
102
{ACAD_REACTORS
330
10C
102
}
330
10C
100
AcDbScale
 70
     0
300
1:5
140
1.0
141
5.0
290
     0
  0
SCALE
  5
1C1
102
{ACAD_REACTORS
330
10C
102
}
330
10C
100
AcDbScale
 70
     0
300
1:8
140
1.0
141
8.0
290
     0
  0
SCALE
  5
1C2
102
{ACAD_REACTORS
330
10C
102
}
330
10C
100
AcDbScale
 70
     0
300
1:10
140
1.0
141
10.0
290
     0
  0
SCALE
  5
1C3
102
{ACAD_REACTORS
330
10C
102
}
330
10C
100
AcDbScale
 70
     0
300
1:16
140
1.0
141
16.0
290
     0
  0
SCALE
  5
1C4
102
{ACAD_REACTORS
330
10C
102
}
330
10C
100
AcDbScale
 70
     0
300
1:20
140
1.0
141
20.0
290
     0
  0
SCALE
  5
1C5
102
{ACAD_REACTORS
330
10C
102
}
330
10C
100
AcDbScale
 70
     0
300
1:30
140
1.0
141
30.0
290
     0
  0
SCALE
  5
1C6
102
{ACAD_REACTORS
330
10C
102
}
330
10C
100
AcDbScale
 70
     0
300
1:40
140
1.0
141
40.0
290
     0
  0
SCALE
  5
1C7
102
{ACAD_REACTORS
330
10C
102
}
330
10C
100
AcDbScale
 70
     0
300
1:50
140
1.0
141
50.0
290
     0
  0
SCALE
  5
1C8
102
{ACAD_REACTORS
330
10C
102
}
330
10C
100
AcDbScale
 70
     0
300
1:100
140
1.0
141
100.0
290
     0
  0
SCALE
  5
1C9
102
{ACAD_REACTORS
330
10C
102
}
330
10C
100
AcDbScale
 70
     0
300
2:1
140
2.0
141
1.0
290
     0
  0
SCALE
  5
1CA
102
{ACAD_REACTORS
330
10C
102
}
330
10C
100
AcDbScale
 70
     0
300
4:1
140
4.0
141
1.0
290
     0
  0
SCALE
  5
1CB
102
{ACAD_REACTORS
330
10C
102
}
330
10C
100
AcDbScale
 70
     0
300
8:1
140
8.0
141
1.0
290
     0
  0
SCALE
  5
1CC
102
{ACAD_REACTORS
330
10C
102
}
330
10C
100
AcDbScale
 70
     0
300
10:1
140
10.0
141
1.0
290
     0
  0
SCALE
  5
1CD
102
{ACAD_REACTORS
330
10C
102
}
330
10C
100
AcDbScale
 70
     0
300
100:1
140
100.0
141
1.0
290
     0
  0
ACDBSECTIONVIEWSTYLE
  5
21A
102
{ACAD_XDICTIONARY
360
295E
102
}
102
{ACAD_REACTORS
330
219
102
}
330
219
100
AcDbModelDocViewStyle
 70
     0
  3
Metric50
290
     0
100
AcDbSectionViewStyle
 70
     0
 71
     0
 90
      102
 71
     1
340
11
 40
5.0
340
0
340
0
 40
5.0
300
I, O, Q, S, X, Z
 40
10.0
 90
        0
 40
2.5
 90
        0
 71
     2
340
16
 90
       25
340
16
 90
       50
 40
5.0
 40
2.5
 40
5.0
 71
     3
340
11
 40
5.0
 90
        0
 40
15.0
 90
        1
300
%<\AcVar ViewSectionStartId>%-%<\AcVar ViewSectionEndId>% (%<\AcVar ViewScale \f "%sn">%)
 71
     4
300
ANSI31
 40
1.0
 90
        0
290
     0
290
     0
 90
        6
 40
0.0
 40
1.570796326794896
 40
0.2617993877991494
 40
1.308996938995747
 40
-0.2617993877991494
 40
1.832595714594046
  0
TABLESTYLE
  5
7F
102
{ACAD_XDICTIONARY
360
162
102
}
102
{ACAD_REACTORS
330
7E
102
}
330
7E
100
AcDbTableStyle
  3
Standard
 70
     0
 71
     0
 40
1.5
 41
1.5
280
     0
281
     0
  7
Standard
140
4.5
170
     2
 62
     0
 63
     7
283
     0
274
    -2
284
     1
 64
     0
275
    -2
285
     1
 65
     0
276
    -2
286
     1
 66
     0
277
    -2
287
     1
 67
     0
278
    -2
288
     1
 68
     0
279
    -2
289
     1
 69
     0
  7
Standard
140
6.0
170
     5
 62
     0
 63
     7
283
     0
274
    -2
284
     1
 64
     0
275
    -2
285
     1
 65
     0
276
    -2
286
     1
 66
     0
277
    -2
287
     1
 67
     0
278
    -2
288
     1
 68
     0
279
    -2
289
     1
 69
     0
  7
Standard
140
4.5
170
     5
 62
     0
 63
     7
283
     0
274
    -2
284
     1
 64
     0
275
    -2
285
     1
 65
     0
276
    -2
286
     1
 66
     0
277
    -2
287
     1
 67
     0
278
    -2
288
     1
 68
     0
279
    -2
289
     1
 69
     0
  0
VISUALSTYLE
  5
F5
102
{ACAD_XDICTIONARY
360
2936
102
}
102
{ACAD_REACTORS
330
EF
102
}
330
EF
100
AcDbVisualStyle
  2
2dWireframe
 70
     4
 71
     0
 72
     2
 73
     1
 90
        0
 40
-0.6
 41
-30.0
 62
     5
 63
     7
 74
     1
 91
        4
 64
     7
 65
   257
 75
     1
175
     1
 42
1.0
 92
        0
 66
   257
 43
1.0
 76
     1
 77
     6
 78
     2
 67
     7
 79
     5
170
     0
171
     0
290
     0
174
     0
 93
        1
 44
0.0
173
     0
291
     0
 45
0.0
1001
ACAD
1000
AcDbSavedByObjectVersion
1070
     0
  0
VISUALSTYLE
  5
F4
102
{ACAD_XDICTIONARY
360
2934
102
}
102
{ACAD_REACTORS
330
EF
102
}
330
EF
100
AcDbVisualStyle
  2
Basic
 70
     7
 71
     1
 72
     0
 73
     1
 90
        0
 40
-0.6
 41
-30.0
 62
     5
 63
     7
 74
     0
 91
        4
 64
     7
 65
   257
 75
     1
175
     1
 42
1.0
 92
        8
 66
     7
 43
1.0
 76
     1
 77
     6
 78
     2
 67
     7
 79
     5
170
     0
171
     0
290
     0
174
     0
 93
        1
 44
0.0
173
     0
291
     1
 45
0.0
1001
ACAD
1000
AcDbSavedByObjectVersion
1070
     0
  0
VISUALSTYLE
  5
FB
102
{ACAD_XDICTIONARY
360
2942
102
}
102
{ACAD_REACTORS
330
EF
102
}
330
EF
100
AcDbVisualStyle
  2
Brighten
 70
    12
 71
     2
 72
     2
 73
     1
 90
        0
 40
-0.6
 41
-30.0
 62
     5
 63
     7
 74
     1
 91
        4
 64
     7
 65
   257
 75
     1
175
     1
 42
1.0
 92
        8
 66
     7
 43
1.0
 76
     1
 77
     6
 78
     2
 67
     7
 79
     5
170
     0
171
     0
290
     0
174
     0
 93
        1
 44
50.0
173
     0
291
     1
 45
0.0
1001
ACAD
1000
AcDbSavedByObjectVersion
1070
     0
  0
VISUALSTYLE
  5
FF
102
{ACAD_XDICTIONARY
360
294A
102
}
102
{ACAD_REACTORS
330
EF
102
}
330
EF
100
AcDbVisualStyle
  2
ColorChange
 70
    16
 71
     2
 72
     2
 73
     3
 90
        0
 40
-0.6
 41
-30.0
 62
     5
 63
     8
 74
     1
 91
        4
 64
     7
 65
   257
 75
     1
175
     1
 42
1.0
 92
        8
 66
     8
 43
1.0
 76
     1
 77
     6
 78
     2
 67
     7
 79
     5
170
     0
171
     0
290
     0
174
     0
 93
        1
 44
0.0
173
     0
291
     1
 45
0.0
1001
ACAD
1000
AcDbSavedByObjectVersion
1070
     0
  0
VISUALSTYLE
  5
F8
102
{ACAD_XDICTIONARY
360
293C
102
}
102
{ACAD_REACTORS
330
EF
102
}
330
EF
100
AcDbVisualStyle
  2
Conceptual
 70
     9
 71
     3
 72
     2
 73
     1
 90
        0
 40
-0.6
 41
-30.0
 62
     5
 63
     7
 74
     2
 91
        2
 64
     7
 65
   257
 75
     1
175
     1
 42
40.0
 92
        8
 66
     7
 43
1.0
 76
     1
 77
     6
 78
     2
 67
     7
 79
     3
170
     0
171
     0
290
     0
174
     0
 93
        1
 44
0.0
173
     0
291
     0
 45
0.0
1001
ACAD
1000
AcDbSavedByObjectVersion
1070
     0
  0
VISUALSTYLE
  5
FA
102
{ACAD_XDICTIONARY
360
2940
102
}
102
{ACAD_REACTORS
330
EF
102
}
330
EF
100
AcDbVisualStyle
  2
Dim
 70
    11
 71
     2
 72
     2
 73
     1
 90
        0
 40
-0.6
 41
-30.0
 62
     5
 63
     7
 74
     1
 91
        4
 64
     7
 65
   257
 75
     1
175
     1
 42
1.0
 92
        8
 66
     7
 43
1.0
 76
     1
 77
     6
 78
     2
 67
     7
 79
     5
170
     0
171
     0
290
     0
174
     0
 93
        1
 44
-50.0
173
     0
291
     1
 45
0.0
1001
ACAD
1000
AcDbSavedByObjectVersion
1070
     0
  0
VISUALSTYLE
  5
1E6
102
{ACAD_XDICTIONARY
360
2952
102
}
102
{ACAD_REACTORS
330
EF
102
}
330
EF
100
AcDbVisualStyle
  2
EdgeColorOff
 70
    22
 71
     2
 72
     2
 73
     0
 90
        0
 40
-0.6
 41
-30.0
 62
     5
 63
     7
 74
     1
 91
        4
 64
     7
 65
   257
 75
     1
175
     1
 42
1.0
 92
        8
 66
     7
 43
1.0
 76
     1
 77
     6
 78
     2
 67
     7
 79
     5
170
     0
171
     0
290
     0
174
     0
 93
        1
 44
0.0
173
     0
291
     1
 45
0.0
1001
ACAD
1000
AcDbSavedByObjectVersion
1070
     0
  0
VISUALSTYLE
  5
FE
102
{ACAD_XDICTIONARY
360
2948
102
}
102
{ACAD_REACTORS
330
EF
102
}
330
EF
100
AcDbVisualStyle
  2
Facepattern
 70
    15
 71
     2
 72
     2
 73
     1
 90
        0
 40
-0.6
 41
-30.0
 62
     5
 63
     7
 74
     1
 91
        4
 64
     7
 65
   257
 75
     1
175
     1
 42
1.0
 92
        8
 66
     7
 43
1.0
 76
     1
 77
     6
 78
     2
 67
     7
 79
     5
170
     0
171
     0
290
     0
174
     0
 93
        1
 44
0.0
173
     0
291
     1
 45
0.0
1001
ACAD
1000
AcDbSavedByObjectVersion
1070
     0
  0
VISUALSTYLE
  5
F0
102
{ACAD_XDICTIONARY
360
292C
102
}
102
{ACAD_REACTORS
330
EF
102
}
330
EF
100
AcDbVisualStyle
  2
Flat
 70
     0
 71
     2
 72
     1
 73
     1
 90
        2
 40
-0.6
 41
30.0
 62
     5
 63
     7
 74
     0
 91
        0
 64
     7
 65
   257
 75
     1
175
     1
 42
1.0
 92
        8
 66
     7
 43
1.0
 76
     1
 77
     6
 78
     2
 67
     7
 79
     5
170
     0
171
     0
290
     0
174
     0
 93
       13
 44
0.0
173
     0
291
     1
 45
0.0
1001
ACAD
1000
AcDbSavedByObjectVersion
1070
     0
  0
VISUALSTYLE
  5
F1
102
{ACAD_XDICTIONARY
360
292E
102
}
102
{ACAD_REACTORS
330
EF
102
}
330
EF
100
AcDbVisualStyle
  2
FlatWithEdges
 70
     1
 71
     2
 72
     1
 73
     1
 90
        2
 40
-0.6
 41
30.0
 62
     5
 63
     7
 74
     1
 91
        0
 64
     7
 65
   257
 75
     1
175
     1
 42
1.0
 92
        0
 66
   257
 43
1.0
 76
     1
 77
     6
 78
     2
 67
     7
 79
     5
170
     0
171
     0
290
     0
174
     0
 93
       13
 44
0.0
173
     0
291
     1
 45
0.0
1001
ACAD
1000
AcDbSavedByObjectVersion
1070
     0
  0
VISUALSTYLE
  5
F2
102
{ACAD_XDICTIONARY
360
2930
102
}
102
{ACAD_REACTORS
330
EF
102
}
330
EF
100
AcDbVisualStyle
  2
Gouraud
 70
     2
 71
     2
 72
     2
 73
     1
 90
        2
 40
-0.6
 41
30.0
 62
     5
 63
     7
 74
     0
 91
        0
 64
     7
 65
   257
 75
     1
175
     1
 42
1.0
 92
        0
 66
     7
 43
1.0
 76
     1
 77
     6
 78
     2
 67
     7
 79
     5
170
     0
171
     0
290
     0
174
     0
 93
       13
 44
0.0
173
     0
291
     1
 45
0.0
1001
ACAD
1000
AcDbSavedByObjectVersion
1070
     0
  0
VISUALSTYLE
  5
F3
102
{ACAD_XDICTIONARY
360
2932
102
}
102
{ACAD_REACTORS
330
EF
102
}
330
EF
100
AcDbVisualStyle
  2
GouraudWithEdges
 70
     3
 71
     2
 72
     2
 73
     1
 90
        2
 40
-0.6
 41
30.0
 62
     5
 63
     7
 74
     1
 91
        0
 64
     7
 65
   257
 75
     1
175
     1
 42
1.0
 92
        0
 66
   257
 43
1.0
 76
     1
 77
     6
 78
     2
 67
     7
 79
     5
170
     0
171
     0
290
     0
174
     0
 93
       13
 44
0.0
173
     0
291
     1
 45
0.0
1001
ACAD
1000
AcDbSavedByObjectVersion
1070
     0
  0
VISUALSTYLE
  5
F7
102
{ACAD_XDICTIONARY
360
293A
102
}
102
{ACAD_REACTORS
330
EF
102
}
330
EF
100
AcDbVisualStyle
  2
Hidden
 70
     6
 71
     1
 72
     2
 73
     2
 90
        0
 40
-0.6
 41
-30.0
 62
     5
 63
     7
 74
     2
 91
        2
 64
     7
 65
   257
 75
     2
175
     1
 42
40.0
 92
        0
 66
   257
 43
1.0
 76
     1
 77
     6
 78
     2
 67
     7
 79
     3
170
     0
171
     0
290
     0
174
     0
 93
        1
 44
0.0
173
     0
291
     0
 45
0.0
1001
ACAD
1000
AcDbSavedByObjectVersion
1070
     0
  0
VISUALSTYLE
  5
1E4
102
{ACAD_XDICTIONARY
360
294E
102
}
102
{ACAD_REACTORS
330
EF
102
}
330
EF
100
AcDbVisualStyle
  2
JitterOff
 70
    20
 71
     2
 72
     2
 73
     0
 90
        0
 40
-0.6
 41
-30.0
 62
     5
 63
     7
 74
     1
 91
        4
 64
     7
 65
   257
 75
     1
175
     1
 42
1.0
 92
       10
 66
     7
 43
1.0
 76
     1
 77
     6
 78
     2
 67
     7
 79
     5
170
     0
171
     0
290
     0
174
     0
 93
        1
 44
0.0
173
     0
291
     1
 45
0.0
1001
ACAD
1000
AcDbSavedByObjectVersion
1070
     0
  0
VISUALSTYLE
  5
FD
102
{ACAD_XDICTIONARY
360
2946
102
}
102
{ACAD_REACTORS
330
EF
102
}
330
EF
100
AcDbVisualStyle
  2
Linepattern
 70
    14
 71
     2
 72
     2
 73
     1
 90
        0
 40
-0.6
 41
-30.0
 62
     5
 63
     7
 74
     1
 91
        4
 64
     7
 65
   257
 75
     7
175
     7
 42
1.0
 92
        8
 66
     7
 43
1.0
 76
     1
 77
     6
 78
     2
 67
     7
 79
     5
170
     0
171
     0
290
     0
174
     0
 93
        1
 44
0.0
173
     0
291
     1
 45
0.0
1001
ACAD
1000
AcDbSavedByObjectVersion
1070
     0
  0
VISUALSTYLE
  5
1E5
102
{ACAD_XDICTIONARY
360
2950
102
}
102
{ACAD_REACTORS
330
EF
102
}
330
EF
100
AcDbVisualStyle
  2
OverhangOff
 70
    21
 71
     2
 72
     2
 73
     0
 90
        0
 40
-0.6
 41
-30.0
 62
     5
 63
     7
 74
     1
 91
        4
 64
     7
 65
   257
 75
     1
175
     1
 42
1.0
 92
        9
 66
     7
 43
1.0
 76
     1
 77
     6
 78
     2
 67
     7
 79
     5
170
     0
171
     0
290
     0
174
     0
 93
        1
 44
0.0
173
     0
291
     1
 45
0.0
1001
ACAD
1000
AcDbSavedByObjectVersion
1070
     0
  0
VISUALSTYLE
  5
F9
102
{ACAD_XDICTIONARY
360
293E
102
}
102
{ACAD_REACTORS
330
EF
102
}
330
EF
100
AcDbVisualStyle
  2
Realistic
 70
     8
 71
     2
 72
     2
 73
     0
 90
        2
 40
-0.6
 41
30.0
 62
     5
 63
     7
 74
     0
 91
        0
 64
     7
 65
   257
 75
     1
175
     1
 42
1.0
 92
        8
 66
   257
 43
1.0
 76
     1
 77
     6
 78
     2
 67
     7
 79
     3
170
     0
171
     0
290
     0
174
     0
 93
       13
 44
0.0
173
     0
291
     0
 45
0.0
1001
ACAD
1000
AcDbSavedByObjectVersion
1070
     0
  0
VISUALSTYLE
  5
1F3
102
{ACAD_XDICTIONARY
360
295C
102
}
102
{ACAD_REACTORS
330
EF
102
}
330
EF
100
AcDbVisualStyle
  2
Shaded
 70
    27
 71
     2
 72
     2
 73
     1
 90
        2
 40
-0.6
 41
30.0
 62
     5
 63
     7
 74
     0
 91
        4
 64
     7
 65
   257
 75
     1
175
     1
 42
1.0
 92
        8
 66
   257
 43
1.0
 76
     1
 77
     6
 78
     2
 67
     8
 79
     3
170
     0
171
     0
290
     0
174
     0
 93
        5
 44
0.0
173
     0
291
     0
 45
0.0
1001
ACAD
1000
AcDbSavedByObjectVersion
1070
     0
  0
VISUALSTYLE
  5
1F2
102
{ACAD_XDICTIONARY
360
295A
102
}
102
{ACAD_REACTORS
330
EF
102
}
330
EF
100
AcDbVisualStyle
  2
Shaded with edges
 70
    26
 71
     2
 72
     2
 73
     1
 90
        2
 40
-0.6
 41
30.0
 62
     5
 63
     7
 74
     1
 91
        2
 64
     7
 65
   257
 75
     2
175
     1
 42
1.0
 92
        8
 66
   257
 43
1.0
 76
     1
 77
     6
 78
     2
 67
     7
 79
     3
170
     0
171
     0
290
     0
174
     0
 93
        5
 44
0.0
173
     0
291
     0
 45
0.0
1001
ACAD
1000
AcDbSavedByObjectVersion
1070
     0
  0
VISUALSTYLE
  5
1EF
102
{ACAD_XDICTIONARY
360
2954
102
}
102
{ACAD_REACTORS
330
EF
102
}
330
EF
100
AcDbVisualStyle
  2
Shades of Gray
 70
    23
 71
     2
 72
     2
 73
     3
 90
        0
 40
-0.6
 41
-30.0
 62
     5
 63
     7
 74
     2
 91
        2
 64
     7
 65
     7
 75
     1
175
     1
 42
40.0
 92
        8
 66
     7
 43
1.0
 76
     1
 77
     6
 78
     2
 67
     7
 79
     3
170
     0
171
     0
290
     0
174
     0
 93
        1
 44
0.0
173
     0
291
     0
 45
0.0
1001
ACAD
1000
AcDbSavedByObjectVersion
1070
     0
  0
VISUALSTYLE
  5
1F0
102
{ACAD_XDICTIONARY
360
2956
102
}
102
{ACAD_REACTORS
330
EF
102
}
330
EF
100
AcDbVisualStyle
  2
Sketchy
 70
    24
 71
     1
 72
     2
 73
     2
 90
        0
 40
-0.6
 41
-30.0
 62
     5
 63
     7
 74
     2
 91
        2
 64
     7
 65
     7
 75
     1
175
     1
 42
40.0
 92
       11
 66
     7
 43
1.0
 76
     1
 77
     6
 78
     2
 67
     7
 79
     6
170
     0
171
     0
290
     0
174
     0
 93
        1
 44
0.0
173
     0
291
     0
 45
0.0
1001
ACAD
1000
AcDbSavedByObjectVersion
1070
     0
  0
VISUALSTYLE
  5
FC
102
{ACAD_XDICTIONARY
360
2944
102
}
102
{ACAD_REACTORS
330
EF
102
}
330
EF
100
AcDbVisualStyle
  2
Thicken
 70
    13
 71
     2
 72
     2
 73
     1
 90
        0
 40
-0.6
 41
-30.0
 62
     5
 63
     7
 74
     1
 91
        4
 64
     7
 65
   257
 75
     1
175
     1
 42
1.0
 92
       12
 66
     7
 43
1.0
 76
     1
 77
     6
 78
     2
 67
     7
 79
     5
170
     0
171
     0
290
     0
174
     0
 93
        1
 44
0.0
173
     0
291
     1
 45
0.0
1001
ACAD
1000
AcDbSavedByObjectVersion
1070
     0
  0
VISUALSTYLE
  5
F6
102
{ACAD_XDICTIONARY
360
2938
102
}
102
{ACAD_REACTORS
330
EF
102
}
330
EF
100
AcDbVisualStyle
  2
Wireframe
 70
     5
 71
     0
 72
     2
 73
     0
 90
        0
 40
-0.6
 41
-30.0
 62
     5
 63
     7
 74
     1
 91
        4
 64
     7
 65
   257
 75
     1
175
     1
 42
1.0
 92
        0
 66
   257
 43
1.0
 76
     1
 77
     6
 78
     2
 67
     7
 79
     3
170
     0
171
     0
290
     0
174
     0
 93
        1
 44
0.0
173
     0
291
     0
 45
0.0
1001
ACAD
1000
AcDbSavedByObjectVersion
1070
     0
  0
VISUALSTYLE
  5
1F1
102
{ACAD_XDICTIONARY
360
2958
102
}
102
{ACAD_REACTORS
330
EF
102
}
330
EF
100
AcDbVisualStyle
  2
X-Ray
 70
    25
 71
     2
 72
     2
 73
     1
 90
        1
 40
0.5
 41
-30.0
 62
     5
 63
     7
 74
     1
 91
        0
 64
     7
 65
   257
 75
     1
175
     1
 42
1.0
 92
        8
 66
     7
 43
1.0
 76
     1
 77
     6
 78
     2
 67
     7
 79
     3
170
     0
171
     0
290
     0
174
     0
 93
       13
 44
0.0
173
     0
291
     0
 45
0.0
1001
ACAD
1000
AcDbSavedByObjectVersion
1070
     0
  0
DICTIONARYVAR
  5
146
102
{ACAD_REACTORS
330
5E
102
}
330
5E
100
DictionaryVariables
280
     0
  1
1:1
  0
DICTIONARYVAR
  5
259
102
{ACAD_REACTORS
330
5E
102
}
330
5E
100
DictionaryVariables
280
     0
  1
3.500000
  0
DICTIONARYVAR
  5
25A
102
{ACAD_REACTORS
330
5E
102
}
330
5E
100
DictionaryVariables
280
     0
  1
acadiso.lin
  0
DICTIONARYVAR
  5
145
102
{ACAD_REACTORS
330
5E
102
}
330
5E
100
DictionaryVariables
280
     0
  1
STANDARD
  0
DICTIONARYVAR
  5
84
102
{ACAD_REACTORS
330
5E
102
}
330
5E
100
DictionaryVariables
280
     0
  1
STANDARD
  0
DICTIONARYVAR
  5
227
102
{ACAD_REACTORS
330
5E
102
}
330
5E
100
DictionaryVariables
280
     0
  1
Metric50
  0
DICTIONARYVAR
  5
228
102
{ACAD_REACTORS
330
5E
102
}
330
5E
100
DictionaryVariables
280
     0
  1
Metric50
  0
DICTIONARYVAR
  5
5F
102
{ACAD_REACTORS
330
5E
102
}
330
5E
100
DictionaryVariables
280
     0
  1
2
  0
DICTIONARYVAR
  5
63
102
{ACAD_REACTORS
330
5E
102
}
330
5E
100
DictionaryVariables
280
     0
  1
1
  0
DICTIONARYVAR
  5
28CB
102
{ACAD_REACTORS
330
5E
102
}
330
5E
100
DictionaryVariables
280
     0
  1
0
  0
DICTIONARYVAR
  5
1AE
102
{ACAD_REACTORS
330
5E
102
}
330
5E
100
DictionaryVariables
280
     0
  1
0
  0
DICTIONARYVAR
  5
1AF
102
{ACAD_REACTORS
330
5E
102
}
330
5E
100
DictionaryVariables
280
     0
  1
0
  0
DICTIONARYVAR
  5
28C9
102
{ACAD_REACTORS
330
5E
102
}
330
5E
100
DictionaryVariables
280
     0
  1
2
  0
DICTIONARYVAR
  5
28C8
102
{ACAD_REACTORS
330
5E
102
}
330
5E
100
DictionaryVariables
280
     0
  1
1
  0
DICTIONARYVAR
  5
291D
102
{ACAD_REACTORS
330
5E
102
}
330
5E
100
DictionaryVariables
280
     0
  1
80.000000
  0
DICTIONARYVAR
  5
291C
102
{ACAD_REACTORS
330
5E
102
}
330
5E
100
DictionaryVariables
280
     0
  1
5.000000
  0
DICTIONARYVAR
  5
28CA
102
{ACAD_REACTORS
330
5E
102
}
330
5E
100
DictionaryVariables
280
     0
  1
127
  0
DICTIONARYVAR
  5
291E
102
{ACAD_REACTORS
330
5E
102
}
330
5E
100
DictionaryVariables
280
     0
  1
2
  0
DICTIONARY
  5
2960
330
21C
100
AcDbDictionary
280
     1
281
     1
  3
ACAD_XREC_ROUNDTRIP
360
2961
  0
DICTIONARY
  5
2925
330
D3
100
AcDbDictionary
280
     1
281
     1
  3
ACAD_XREC_ROUNDTRIP
360
2926
  0
DICTIONARY
  5
2927
330
D7
100
AcDbDictionary
280
     1
281
     1
  3
ACAD_XREC_ROUNDTRIP
360
2928
  0
DICTIONARY
  5
2922
330
22
100
AcDbDictionary
280
     1
281
     1
  3
ACAD_XREC_ROUNDTRIP
360
2923
  0
DICTIONARY
  5
1F9
330
ED
100
AcDbDictionary
280
     1
281
     1
  3
ACAD_XREC_ROUNDTRIP
360
292A
  3
FBXASSET
360
1FA
  0
DICTIONARY
  5
1F7
330
EC
100
AcDbDictionary
280
     1
281
     1
  3
ACAD_XREC_ROUNDTRIP
360
2929
  3
FBXASSET
360
1F8
  0
DICTIONARY
  5
173
330
EE
100
AcDbDictionary
280
     1
281
     1
  3
ACAD_XREC_ROUNDTRIP
360
292B
  3
BUMPTILE
360
175
  3
DIFFUSETILE
360
174
  3
FBXASSET
360
1FB
  3
OPACITYTILE
360
176
  3
REFLECTIONTILE
360
177
  0
DICTIONARY
  5
294C
330
12E
100
AcDbDictionary
280
     1
281
     1
  3
ACAD_XREC_ROUNDTRIP
360
294D
  0
DICTIONARY
  5
295E
330
21A
100
AcDbDictionary
280
     1
281
     1
  3
ACAD_XREC_ROUNDTRIP
360
295F
  0
DICTIONARY
  5
162
330
7F
100
AcDbDictionary
280
     1
281
     1
  3
ACAD_ROUNDTRIP_2008_TABLESTYLE_CELLSTYLEMAP
360
291F
  3
ACAD_XREC_ROUNDTRIP
360
2924
  0
DICTIONARY
  5
2936
330
F5
100
AcDbDictionary
280
     1
281
     1
  3
ACAD_XREC_ROUNDTRIP
360
2937
  0
DICTIONARY
  5
2934
330
F4
100
AcDbDictionary
280
     1
281
     1
  3
ACAD_XREC_ROUNDTRIP
360
2935
  0
DICTIONARY
  5
2942
330
FB
100
AcDbDictionary
280
     1
281
     1
  3
ACAD_XREC_ROUNDTRIP
360
2943
  0
DICTIONARY
  5
294A
330
FF
100
AcDbDictionary
280
     1
281
     1
  3
ACAD_XREC_ROUNDTRIP
360
294B
  0
DICTIONARY
  5
293C
330
F8
100
AcDbDictionary
280
     1
281
     1
  3
ACAD_XREC_ROUNDTRIP
360
293D
  0
DICTIONARY
  5
2940
330
FA
100
AcDbDictionary
280
     1
281
     1
  3
ACAD_XREC_ROUNDTRIP
360
2941
  0
DICTIONARY
  5
2952
330
1E6
100
AcDbDictionary
280
     1
281
     1
  3
ACAD_XREC_ROUNDTRIP
360
2953
  0
DICTIONARY
  5
2948
330
FE
100
AcDbDictionary
280
     1
281
     1
  3
ACAD_XREC_ROUNDTRIP
360
2949
  0
DICTIONARY
  5
292C
330
F0
100
AcDbDictionary
280
     1
281
     1
  3
ACAD_XREC_ROUNDTRIP
360
292D
  0
DICTIONARY
  5
292E
330
F1
100
AcDbDictionary
280
     1
281
     1
  3
ACAD_XREC_ROUNDTRIP
360
292F
  0
DICTIONARY
  5
2930
330
F2
100
AcDbDictionary
280
     1
281
     1
  3
ACAD_XREC_ROUNDTRIP
360
2931
  0
DICTIONARY
  5
2932
330
F3
100
AcDbDictionary
280
     1
281
     1
  3
ACAD_XREC_ROUNDTRIP
360
2933
  0
DICTIONARY
  5
293A
330
F7
100
AcDbDictionary
280
     1
281
     1
  3
ACAD_XREC_ROUNDTRIP
360
293B
  0
DICTIONARY
  5
294E
330
1E4
100
AcDbDictionary
280
     1
281
     1
  3
ACAD_XREC_ROUNDTRIP
360
294F
  0
DICTIONARY
  5
2946
330
FD
100
AcDbDictionary
280
     1
281
     1
  3
ACAD_XREC_ROUNDTRIP
360
2947
  0
DICTIONARY
  5
2950
330
1E5
100
AcDbDictionary
280
     1
281
     1
  3
ACAD_XREC_ROUNDTRIP
360
2951
  0
DICTIONARY
  5
293E
330
F9
100
AcDbDictionary
280
     1
281
     1
  3
ACAD_XREC_ROUNDTRIP
360
293F
  0
DICTIONARY
  5
295C
330
1F3
100
AcDbDictionary
280
     1
281
     1
  3
ACAD_XREC_ROUNDTRIP
360
295D
  0
DICTIONARY
  5
295A
330
1F2
100
AcDbDictionary
280
     1
281
     1
  3
ACAD_XREC_ROUNDTRIP
360
295B
  0
DICTIONARY
  5
2954
330
1EF
100
AcDbDictionary
280
     1
281
     1
  3
ACAD_XREC_ROUNDTRIP
360
2955
  0
DICTIONARY
  5
2956
330
1F0
100
AcDbDictionary
280
     1
281
     1
  3
ACAD_XREC_ROUNDTRIP
360
2957
  0
DICTIONARY
  5
2944
330
FC
100
AcDbDictionary
280
     1
281
     1
  3
ACAD_XREC_ROUNDTRIP
360
2945
  0
DICTIONARY
  5
2938
330
F6
100
AcDbDictionary
280
     1
281
     1
  3
ACAD_XREC_ROUNDTRIP
360
2939
  0
DICTIONARY
  5
2958
330
1F1
100
AcDbDictionary
280
     1
281
     1
  3
ACAD_XREC_ROUNDTRIP
360
2959
  0
XRECORD
  5
2961
102
{ACAD_REACTORS
330
2960
102
}
330
2960
100
AcDbXrecord
280
     1
102
DISPLAYNAME
  1
Metric50
102
FLAGS
 90
        0
  0
XRECORD
  5
2926
102
{ACAD_REACTORS
330
2925
102
}
330
2925
100
AcDbXrecord
280
     1
102
SHADEPLOT
 70
     0
102
SHADEPLOTRESLEVEL
 70
     2
102
SHADEPLOTCUSTOMDPI
 70
   300
  0
XRECORD
  5
2928
102
{ACAD_REACTORS
330
2927
102
}
330
2927
100
AcDbXrecord
280
     1
102
SHADEPLOT
 70
     0
102
SHADEPLOTRESLEVEL
 70
     2
102
SHADEPLOTCUSTOMDPI
 70
   300
  0
XRECORD
  5
2923
102
{ACAD_REACTORS
330
2922
102
}
330
2922
100
AcDbXrecord
280
     1
102
SHADEPLOT
 70
     0
102
SHADEPLOTRESLEVEL
 70
     2
102
SHADEPLOTCUSTOMDPI
 70
   300
  0
XRECORD
  5
292A
102
{ACAD_REACTORS
330
1F9
102
}
330
1F9
100
AcDbXrecord
280
     1
102
MATERIAL
148
0.0
149
0.0
149
0.0
 93
        0
 94
       63
282
     0
 72
     1
 77
     1
171
     1
175
     1
179
     1
273
     0
  0
XRECORD
  5
1FA
102
{ACAD_REACTORS
330
1F9
102
}
330
1F9
100
AcDbXrecord
280
     1
 70
     1
 90
429727718
  1
D62C5603-E3A1-4AEA-B7FB-FE5D8D0755AF
310
504B03040A0000080000CC70623B3DEE336E79000000790000001B0000006175746F6465736B2D64657369676E2D7061636B6167652E786D6C3C3F786D6C2076657273696F6E3D22312E302220656E636F64696E673D227574662D3822203F3E3C666F726D6174733E3C666F726D61743E687474703A2F2F736368656D612E
310
6175746F6465736B2E636F6D2F64657369676E2D7061636B6167652F323030393C2F666F726D61743E3C2F666F726D6174733E504B0304140006080800CC70623BD486FD9CA0000000F4000000130000005B436F6E74656E745F54797065735D2E786D6C7D8EC10E82300C865F65E91D8A1E8C310C0EEA1BF002731658846E
310
D98AC1B77784ABF1D8FE5FBFBF75BBCE937A534CCEB38643598122B6FEE978D0B0485F9C41B54DDD7D022595594E1A469170414C76A4D9A4D207E29CF43ECE46F218070CC6BECC4078ACAA135ACF422C856C0E68EA1BF5669944DDD7BCDE7B1F8E415D77AECB980613C2E4AC91FC167A2B244592486606FC29C8FD7F045B9A
310
EF7053A7E60B504B0304140006080800CC70623B853B8169EB0000007C01000008000000636F72652E786D6C8D90416EC3201045AF62CDB6C206821CC7C244919D9CA01740401C94182C03558F5F9C3852BBEB6A467FFE9B197D7EFC9E1EC5975982F5AE035262288C535E5B377690E21535501C055FBC8FBF6C503839990E
310
5619041F179FE64D52DE45E362569DD7661365082642A11EB9E920A89B99642953CC8E702F67A9EE7234257977194EC9EAE275C4EABCCF5EAD5940D4AC6F0E35A568B8F43562CD7046CD199FD07E60174276A7BE677B5EADB0E0D14EEFFB6A31321A0D82627C4084204C3F096B71DD52F6819B16635EADF63F509AF53FA164
310
5DDCD1EDDD17164090FCC8732078B56691CB33A85CD7DCC40F504B0304140006080800CC70623B55019EA25F0000007C00000007000000636E782E786D6C4DCB3B0E80201045D1AD90E915ED2CF8AC45050C11660C8261F98AB1B07AC9C97D42D718D865D3E909258CFD00CCE24AC6E326A164D74DC0B4128928FF32603847
310
2BA13128B1252AC747C6BAB984FC68F0B87FE8960A5C09FE86CFB69FBA01504B0304140006080800CC70623BDBABAAF470010000D40300000C0000006662782F636F72652E786D6CC553D16E823014FD95A6AF4B694182CC941A83FA05FB810A9511A125A5257EFE2E82712ECEB8A7F100CD39F7F69E734AF9FADC366850B6
310
AF8DCE7018308C942E4C59EB2AC3DE1D498AD15A706B8CFB56869196ADCAF00863C12B6B7C374385D14E6907A836A59A41D9F7CA615434B0C8705F7CAA5606D23BA8E84F41278B93AC54100640439DE0BDB320004D43C63716C7C399D30917DCFBBA9CD9BA8469F5B156168B24CED3F7248AC8769F27244EB73B92EED8862C
310
B7F13E0C179B3C8F979C8ECD82BBBABDAA2BAC924E9558448CBD9330242CFA08E3154B5651FCC6D215639C8EE5774DBE2B5F6CF2B5768B68963BB5F5588420E442FC700B1139D4CB01F450C1E918227C2E09DF070D8140C84E1E9AAB8F1340832A9CB13130A5F1376A908D57309505ECF2A0DF179C4E9D30F5B239B87E3823
310
7A79C6F31DE1A8A5AEC08474B03C7837EAE4938639B44E5932B833D2C6B6B279CDC613877FA26EE21F4A2A4C63EC7F29A2F301D1F9F7A0E37D145F504B0304140006080800CC70623B9C113CC27E0000009D0000000B0000006662782F636E782E786D6C4DCCDF0A83201C86E15B91DFB94BFB330DD428C8FB886521330DA7
310
6397BF1A1DECE883878F57749FCDA1B7892F1BBC047A23808C7F84D9FA55424E0BE6803A256208E9EF06C84F9B91703228B1C690F78B66B34CD9A5439DF5CF0BFBF65E35BCA1B8D6A5C6F540381E886698B5741C695F9503EBA150A2F8958E3DC3EA0B504B0304140006080800CC70623B7DF2F77C2A010000120200003100
310
00006662782F41393633353835312D344632462D344230382D423046372D3739314545314133324237412F636F72652E786D6C8D51DB8EC22014FC15C2939B0D2DB4B45643319AE817EC0F6041255A68B86CFCFC856D4D76DF7CE190393373060EDB3DC707F856CE6B6B7A480A0C81328395DA5C7B18C3057510EC3873D686
310
3F34088C18550F330C39BB3A1BA7051AAC09CA84841A2BD5020AEF55806078A44B0FFD7053A328440C89E1EFC52486BBB8AA8214A99D789CF9E05200300FC927E4FB4D5B375D43103D5527440FB843077C5AA3F5861C8F645F5787F59E95B390B318B55CE45AA638FAA2957BD7248B390B7A7CC51F9C124149C82B8C378810
310
84AB2F42B7B8DD56F413775B8C5999E9FF4471926F8AA236A1AE96B8B3CC434E5839373893369E1FAF30EA395917409EB7F26AF8801C171837A4A6AC9C89E9F9C9B1A58BA30FD6A5EF5DDDCF894B9AD9B6A59C957943A9FCAE2FD5BC4DFE03504B0304140006080800CC70623BAD7543B64E01000033030000300000006662
310
782F41393633353835312D344632462D344230382D423046372D3739314545314133324237412F636E782E786D6CD593CD6EC32010845F0571AD6CE3D48AD20813A9873E410FBD12D82434182C7EAAE6EDBB2424CD25871E7B41D6EC30B3FA84F9E67BB2E40B4234DE8DB46F1925E094D7C6ED479AD3AE5951B2113C789FEE
310
6C943839C1488B4C05DF079FE72A69D8C96C13AAD6B8631503449F83828872B949AC57D26200B826A308D316B4064D6E46FCDA41C05550DC9E483A00797BFD207EFB092A45DE9514C1BBD22178396BD39D891265658C238DEA00936C654E5E433CB65A26D9F6EDB5EBC14EBF49A45CB856E66048291F6939A9A81BB5C89177
310
38143CA680F4AA299D66A042CEB3354A2684DC9D8D178FE0D9B8B41CAAD720F880EE7EF93C0C18769E099ECC04D5A102C8049A8A05632F4DDF376CF1DE0F6BB65C2F8627B65A33C6BB62177CEBBDAD973006829F89F22E814B54F4BC2BE347F8AA8F681390B50FA73F804400B5F542E796F19FF974E7F78DB802FE05E20750
310
4B0304140006080800CC70623BE75B7789680500003C100000340000006662782F41393633353835312D344632462D344230382D423046372D3739314545314133324237412F6F626A656374732E786D6CAD575B8F9B3818FD2B887D06C22499CB8AA1CA655245D5B455A356FB305264C061D8018C6C3393D95FBFC7600890
310
A4CD5EF210B0B1BFEBF98E3F7B1FF6596ABC522E1296DF9BAE3D320D9A872C4AF2F8DE2CE5CEBA358D0FBEC719939D65A691938CDE9B6ADAF4BD98B3B2D05311DD91329583D9D5FC0F438434A7A611A644887B5384CF34233629258BA878B12322891DEFF6B66BD70BFB62634E8AE781D082709A4B588AF91C528CDA28B73F
310
1C998EEF39EABBEFA97FBD6A7C7E9553F9D3D79FE442923C3C523610337627CB87ABE99D359D4CC6D6E4FACAB5E6ABF9D2726FC6A3C5F56271377BB88362213924694B38DD99FE47C48627A1E7D49F5A8BB5E1A74C0A599ED3B0F21F1E56366B89112D681E218F0915D0D6F17AD41FBA2A369DCF6335D62ABBD39779D5DDD1
310
11D4D8DE3CBB96B2E04FB8202E41051754A1AA8E8F76B4C6DFE810B580B1547F4B84911149794252234D024EF8BBE963A95AE27B3D310A9D5C215C7960FAEE415ED75694C6AFB17BCACA5D99A60A9AA65F217B0BFC53292ACB92BF283FAD0D3621576592CB5BED907C2FA8E9DF794E35E97BEA31BED21FEB401ABB94C44839
310
DCACBF0E1C5DA8DA5B2F4DFFD32AD86F543D9E565E7056502E157C00AD2671CD534549AB752FCA9CDA00677A313F04E51B22FF19E57B300579E3C97EB29F682D92935CEC18CF901B7B54FD8C51F362B56FC72FE0B3C1EAE335EDCCBF5AEC39ADB17DC238973F804BA5E6F6BFE7AF1FB32E523BE9F3BD571418E3631DCA4D48
310
5250CF639223210A9446CA30052EDF057BD35F8329C1ECD84552BF0DC8D18BE7BCE23BFE6BD960AB4A7DE79923A103BEBD80F911CBAA2C60DB19B01CF164A5583B772EE6D3FFA56666CBCDA74DC97724A48F9A58967497E489C4D979006FD7A05E227A1EBDD0F737C623387A9C844D3709995625106D157315F8B8392CD4E0
310
A0B9A720C4BE9829CEF37EA1E13111214D53925356365ADA634861B52519DD27A00AEB808EAF0628E6F435519D446F45CF2C9CF5214F0A15B2F6D06B79DA3EE3CBF7F56780D2F4E7EF73A0F5E5B02A38D07DC852C6B7C1FBB6664213E0C39E3EBA7FF4E1AD23EA2829407C85E586727488B751B2DB9502BC7B228A3FD68B6E
310
A65A22397E690AA8D158D7E404EC8CDA235CC3B7D1898680131CEC2CDF2638C65196279577750F15884AEE19F94199155B92B13297978469D4F8D358DF0AEF7631E28DC8F0D9F437D5D39A83B2231A1D52D543813A824EF8D44BCFF2FA6A31BD1E8DAD87F1CCB526B3879935BF59CDADD5C37479BB1CDD4CA7B3556B516589
310
EF352754B706114D9C885EC9131DE6EFEB43D99AFE2391C2F958179413D7CFEF6B1B6DB1E7600F00DE6E5C67454A339A4BA2E0FBA85ED26F045D454F463DBFCE484C2F90F2E5E3666003662ED8F755951A7D1BECD5B30B550B2785C8E7320B7292A4838DDA71BBC863ED7613CAF659337A3354231D4FF4A182A54904C2898C
310
98B28C4AD0CE056CCF332A80986E571EE9DBC305BB5FEB7E509220A58D25CF042D712A806AC0AD0C657FDEF80D2D9CEAA2EE4D1C76F60BFE74219A06527D6F82DF6412526107381E55E353090704D085B52408A8913C4ED159D79BDA71BB4BC506F4831350EB6F975CD22D69BF7AC49B91A2C0A9DDA3D5CA36AD20FC478E37
310
E61844E2352865EBCB61A275A65283CAAA9DD27703B4102F5AF51EF5F573B75CBB5AD38BC845F7A49F82A0966A49C2E3EA5EA0ECD326CD965F1DB402C6FA8B51A4658C5C5E2EC9E214602E55810345408596591009A82E7E7FFACA19EEA299B14A0081A705CB3296EBC14CDF658DCD336EA6D1136881AAEB87B81AB9EE53D5
310
F5EB8BC8362082DA24122F98680A4E7930C01A0079749CEA14382A0783E5EBA5A10F8C098456A03D6A4AEB6BB881E2513747552A5DB22C7EDAF83BD5528081A365F7FF06504B0304140006080000CC70623B000000000000000000000000350000006662782F41393633353835312D344632462D344230382D423046372D37
310
39314545314133324237412F76657274696365732E62696E504B0304140006080800CC70623BF270F1330600000004000000360000006662782F41393633353835312D344632462D344230382D423046372D3739314545314133324237412F747269616E676C65732E62696E636660600000504B0304140006080000CC7062
310
3B000000000000000000000000370000006662782F41393633353835312D344632462D344230382D423046372D3739314545314133324237412F617474726962757465732E62696E504B0304140006080800CC70623B08DA0BD19000000041010000360000006662782F41393633353835312D344632462D344230382D4230
310
46372D3739314545314133324237412F6469726563746F72792E786D6C858F410AC3201045AF22B36F53E9A60B35CBEEBAE80D244E44489C6234F4F835464A48035D0DF398FF9F8AF63D0E6CC63039F212F8F9020C7D47C6792B21C5FE7403D62A1188E2E60C98D7234A5830286103A55745067B9D86B8A3CF9C7F90C11DE6
310
07FB144396D7B6A82D282E9A152AD114D5EF2CB866EEE831B8EEA07A7BB5A8D7D61A2BAAEB7FD5F70921FF497D00504B0304140006080800CC70623BEDD1DC58FD000000A00100003B0000006662782F41393633353835312D344632462D344230382D423046372D3739314545314133324237412F7265736F75726365732F
310
636F72652E786D6C8D504B6E833010BD0A9A6D65B00922041947112427E8052C33A156828DFCA97AFC9A40A576D7CDCCE87D344F8F9FBFE667F689CE6B6B3A6039850C8DB2A336530731DC4903D95970676DF82583CCC8193B5861107C72362E3BA4AC096842428D1D7107A5F7182053CF7474E0D507CE32973124857FE48B
310
540F3961CEF244279DE03EB81420DB9EAC1384436FA353E879B1B182C7A8C75DA3C7F453DF353A1075D537A7BA6464B8F535A99AE14A9A2BBD90E350DD183B5CFABE3AF262350B1EF4FC9351399401471025A527C218A1E53BAB5A5AB765F5469B96525EACF23FA6B88CFF34456DC2A1DCE36E360F82A5202F42F062ED2BAD
310
579969AFDD8A6F504B010214000A0000080000CC70623B3DEE336E79000000790000001B00000000000000000000000000000000006175746F6465736B2D64657369676E2D7061636B6167652E786D6C504B01021400140006080800CC70623BD486FD9CA0000000F40000001300000000000000000000000000B20000005B
310
436F6E74656E745F54797065735D2E786D6C504B01021400140006080800CC70623B853B8169EB0000007C010000080000000000000000000000000083010000636F72652E786D6C504B01021400140006080800CC70623B55019EA25F0000007C000000070000000000000000000000000094020000636E782E786D6C504B
310
01021400140006080800CC70623BDBABAAF470010000D40300000C00000000000000000000000000180300006662782F636F72652E786D6C504B01021400140006080800CC70623B9C113CC27E0000009D0000000B00000000000000000000000000B20400006662782F636E782E786D6C504B01021400140006080800CC70
310
623B7DF2F77C2A010000120200003100000000000000000000000000590500006662782F41393633353835312D344632462D344230382D423046372D3739314545314133324237412F636F72652E786D6C504B01021400140006080800CC70623BAD7543B64E010000330300003000000000000000000000000000D2060000
310
6662782F41393633353835312D344632462D344230382D423046372D3739314545314133324237412F636E782E786D6C504B01021400140006080800CC70623BE75B7789680500003C10000034000000000000000000000000006E0800006662782F41393633353835312D344632462D344230382D423046372D3739314545
310
314133324237412F6F626A656374732E786D6C504B01021400140006080000CC70623B0000000000000000000000003500000000000000000000000000280E00006662782F41393633353835312D344632462D344230382D423046372D3739314545314133324237412F76657274696365732E62696E504B01021400140006
310
080800CC70623BF270F133060000000400000036000000000000000000000000007B0E00006662782F41393633353835312D344632462D344230382D423046372D3739314545314133324237412F747269616E676C65732E62696E504B01021400140006080000CC70623B0000000000000000000000003700000000000000
310
000000000000D50E00006662782F41393633353835312D344632462D344230382D423046372D3739314545314133324237412F617474726962757465732E62696E504B01021400140006080800CC70623B08DA0BD1900000004101000036000000000000000000000000002A0F00006662782F41393633353835312D344632
310
462D344230382D423046372D3739314545314133324237412F6469726563746F72792E786D6C504B01021400140006080800CC70623BEDD1DC58FD000000A00100003B000000000000000000000000000E1000006662782F41393633353835312D344632462D344230382D423046372D3739314545314133324237412F7265
310
736F75726365732F636F72652E786D6C504B0506000000000E000E0080040000641100000000
  0
XRECORD
  5
2929
102
{ACAD_REACTORS
330
1F7
102
}
330
1F7
100
AcDbXrecord
280
     1
102
MATERIAL
148
0.0
149
0.0
149
0.0
 93
        0
 94
       63
282
     0
 72
     1
 77
     1
171
     1
175
     1
179
     1
273
     0
  0
XRECORD
  5
1F8
102
{ACAD_REACTORS
330
1F7
102
}
330
1F7
100
AcDbXrecord
280
     1
 70
     1
 90
429727718
  1
30362254-06B7-45E0-A893-8CFA70E3D6BC
310
504B03040A0000080000CC70623B3DEE336E79000000790000001B0000006175746F6465736B2D64657369676E2D7061636B6167652E786D6C3C3F786D6C2076657273696F6E3D22312E302220656E636F64696E673D227574662D3822203F3E3C666F726D6174733E3C666F726D61743E687474703A2F2F736368656D612E
310
6175746F6465736B2E636F6D2F64657369676E2D7061636B6167652F323030393C2F666F726D61743E3C2F666F726D6174733E504B0304140006080800CC70623BD486FD9CA0000000F4000000130000005B436F6E74656E745F54797065735D2E786D6C7D8EC10E82300C865F65E91D8A1E8C310C0EEA1BF002731658846E
310
D98AC1B77784ABF1D8FE5FBFBF75BBCE937A534CCEB38643598122B6FEE978D0B0485F9C41B54DDD7D022595594E1A469170414C76A4D9A4D207E29CF43ECE46F218070CC6BECC4078ACAA135ACF422C856C0E68EA1BF5669944DDD7BCDE7B1F8E415D77AECB980613C2E4AC91FC167A2B244592486606FC29C8FD7F045B9A
310
EF7053A7E60B504B0304140006080800CC70623B1EC5D7A3EB0000007C01000008000000636F72652E786D6C8D90416EC3201045AF82665B6103C6756C6122AB4D4ED00B204C5C94182C03558F5F9C3852BBEB6A467FFE9B197D71FC9E6FE8CBACC17AD7032D0820E3B41FAD9B7A48F1820F808E52ACDEC75F36404ECDA687
310
4D0629A6D5A76597B477D1B89855E747B38B2A041301E95B6E7A08FAD3CCAA50296647B8168BD2573599823EBB0CA76447F43862C7BCCF5EAC59410E4DDD9C7973C2755553CCCFA4C603E3040F1565ED3B1FDE4E432BCA0D9622DAF9795FAF464533826484B498524CD807E51D79ED187F21878E10516EF63F505AC67F42C9
310
BA58B1FDDD071640D2FCC87D2045B96591CB3DA85CB7DCE40F504B0304140006080800CC70623B55019EA25F0000007C00000007000000636E782E786D6C4DCB3B0E80201045D1AD90E915ED2CF8AC45050C11660C8261F98AB1B07AC9C97D42D718D865D3E909258CFD00CCE24AC6E326A164D74DC0B4128928FF32603847
310
2BA13128B1252AC747C6BAB984FC68F0B87FE8960A5C09FE86CFB69FBA01504B0304140006080800CC70623B8C9102E971010000D40300000C0000006662782F636F72652E786D6CC5535B6E833010BC8AE5DF0A6C08340F1947A84D4ED00B38C6A128602363A31CBFCB234A53A551FA553EC09AD9F5CE8C31DB9E9B1AF5CA
310
7695D1198E428A91D2D214952E33ECDD315861B4E5CC1AE3BE9561A445A3323CC098B3D21ADFCE9034DA29ED00D5A6503328BA4E398C640D8B0C77F253352214DE4145770A5B214FA2546114020D759C75CE8200340D19DE981F0F6746269C33EFAB6266AB02A655C74A59CCF365BADC27CB5D902ED22848F6340DF238A141
310
BE88E2F57B92BFEDF23523433367AE6A2EEAA455C2A902F398D2751045018D3FA264435F3771F242571B4A1919CA6F9A7C5B3CD9E42BED16F12C776AEB308F40C848FC700B1139D4891EF410CEC810227CC6846F8386402064270EF5C5C709A05E49676C024C61FC95EA45ED154CA5211D1FF4FB8291A913A68E9B83EBBB33
310
E2A7673CDE118E5AE8124C0807CB8377834E366998436B950D7A7746DAD846D4CFD978E0F04FD455FC5D49D2D4C6FE9722321F10997F0F32DC47FE05504B0304140006080800CC70623BFFEA85907E0000009D0000000B0000006662782F636E782E786D6C4DCCD10A83201886E15B91FFDC95D95A811AB6F23E625948A6C3
310
E9D8E5AF46073BFAE0E1E365ED67B3E8ADC3CB78C7815C7240DA3DFC64DCC221C519D7805AC182F7F1EF06C88D9BE6703008B6049F9E274D7A1E938DBB5AE3D6131B2589BA0D3D965551E0B2EA732C9B9A624AAEB41E3A557677029960D9AFB4EF11165F504B0304140006080800CC70623B4FEEA4082C0100001202000031
310
0000006662782F39464131463745442D413632322D343644302D413938332D3331353338454246344243312F636F72652E786D6C8D515B6EC32010BC0AE2AB55850DD871ED0813254D72825EC00192A2C460F1A872FC42ED48ED5F7E00CDCECCCEB26C731F6FE05B39AFADE921293004CA082BB5B9F43086336A21D870E6AC
310
0D7F68109861543DCC30E4ECE26C9C164858139409093556AA051CBC570102714B8F1E7AF1A5C6A11862480C7F2DA6415C878B2A4891CA89C7990F2E050073937C42DE1DB7E4F87ED8A36D4329AA9B3D46DBAEAD504556557BD81DEBDD0761E52CE42C462D17B996298E3E6BE59E35C962CE821E1FF18553435012728A7187
310
0841987E927A8D9B35ADDF70BBC6989599FE4F1427F9A4286A132ABAC49D651EF234CD5CE04CDA78BA3DC2A8FB645D00B9DF8B57E215725C60BCA2A463E54C4CE327C7A65E1C7DB02E7DEFCBF594B864C5CA6CDBD49C957943E9FA5D5FBAF336F90F504B0304140006080800CC70623BAD7543B64E01000033030000300000
310
006662782F39464131463745442D413632322D343644302D413938332D3331353338454246344243312F636E782E786D6CD593CD6EC32010845F0571AD6CE3D48AD20813A9873E410FBD12D82434182C7EAAE6EDBB2424CD25871E7B41D6EC30B3FA84F9E67BB2E40B4234DE8DB46F1925E094D7C6ED479AD3AE5951B2113C
310
789FEE6C943839C1488B4C05DF079FE72A69D8C96C13AAD6B8631503449F83828872B949AC57D26200B826A308D316B4064D6E46FCDA41C05550DC9E483A00797BFD207EFB092A45DE9514C1BBD22178396BD39D891265658C238DEA00936C654E5E433CB65A26D9F6EDB5EBC14EBF49A45CB856E66048291F6939A9A81BB5
310
C8917738143CA680F4AA299D66A042CEB3354A2684DC9D8D178FE0D9B8B41CAAD720F880EE7EF93C0C18769E099ECC04D5A102C8049A8A05632F4DDF376CF1DE0F6BB65C2F8627B65A33C6BB62177CEBBDAD973006829F89F22E814B54F4BC2BE347F8AA8F681390B50FA73F804400B5F542E796F19FF974E7F78DB802FE05
310
E207504B0304140006080800CC70623B16AB87BA640500003C100000340000006662782F39464131463745442D413632322D343644302D413938332D3331353338454246344243312F6F626A656374732E786D6CAD575B6FA33818FD2B887DE6924B3BED8A326A92B68A663B534DD4D13E548A0C38942D60649B369D5FBFC7
310
600890A493BDE42160637FD7F31D7FF63E6FB3D478A55C242CBF3247B66B1A340F5994E4F19559CA8D75611A9F7D8F33263BCB4C232719BD32D5B4E97B316765A1A722BA21652A07B3B7B33F0D11D29C9A46981221AE4C113ED38CD8A4942CA2E2C58E882476BCD9DA23BB5ED8171B73523C0F841684D35CC252CCE79062D4
310
468DFA43D7747CCF51DF7D4FFDEB5593E3AB9CCA9FBEFE241792E4E19EB28198C968BAB8199F5D5A67D3E9C49A9E8F47D6EC76B6B0469F26EEFC7C3EBFBCBEB98462213924694B38DD98FE1D62C393D073EA4FADC5DAF04326852CCF6958F90F0F2B9BB5C48816348F90C7840A68EB78EDF68723159BCEE7891A6B95DDE9D3
310
BCEAEEE8086A6C6F9E5D4B59F0175C10A7A0820BAA5055C7473B5AE3CFDD452D602CD5DF12616444529E90D448938013FE6EFA58AA96F85E4F8C42275708571E98FE6827AF6B2B4AE3D7D83D64E5A64C53054DD3AF90BD06FEA9149565C94FCA0F6B834DC85599E4F2423B24DF0B6AFA979E534DFA9E7A4CC6FA631D486393
310
921829879BF5D781A373557BCB85E97FB90DB62B558F8795179C15944B051F40AB495CF35451D26A4727654E6D8033BD98EF82F21D91FF8AF2DD9982BCF1643BDD4EB516C9492E368C67C88DED563FC36D5EACF66DFF057C3658BDBFA69DF9578B3DA735B64F18C7F20770A9D45CFCF7FCF563D6456A277DBEF78A02637CA2
310
43B90A490AEAB94F72244481D24819A6C0E59B606BFA4B3025981DBB48EAB701D97BF19C577CC77F2D1B6C55A9EF3C732474C0B727303F625995056C3B02963D9EAC146BE78EC5FCEC7FA999EBC5EACBAAE41B12D27B4D2C0BBA49F244E2ECDC81B76B502F113D8F5EE8FB1BE3111CDD4FC2AA9B844CAB1288B68AB90A7CDC
310
1C166AB0D3DC5310625FCC14E779BFD0709F8890A629C9292B1B2DED31A4B0DA928CEE135085754027E3018A397D4D5427D15BD1330B677DC8934285AC3DF45A9EB68FF8F2B8FC0A509AFEECFD0FF2DE25CC6047F7214B195F07EFEB9A094D800F7BFAE8FED187B78EA8A3A400F115961BCAD1215E47C966530AF0EE8128FE
310
58CEBB996A8964FFA529A046635D9353B0336A8F700DDF46271A024E70B0B37C9DE01847591E54DED53D54202AB947E4076556AC49C6CA5C9E1226B7F1A7B1BE15DEED62C41B91E1B3E9AFAAA735036547343A925075041DF0A9979E893B391F8FCFA6967B3EFB644DCF6E5CEBFAE272625DCC6FAF3FB93793C5F90CE1EF57
310
407342756B10D1C489E8953CD1617E5CEECAD6F4EF8914CE5D5D504E5C3F1F9736DA62CFC11E00BCDDB8CC8A9466349744C1F75EBDA4DF09BA8A9E8C7A7E9991989E20E5DBDD6A6003664ED8F7A04A8DBE0DF6EAD9B9AA858342E47399053949D2C146EDB85DE4B176BB0965FBAC19BD19AA918E27FA50C1D22402E144464C
310
59462568E704B6E71915404CB72B8FF4EDE184DDAF753F284990D2C6926782963815403548A70C657FDEF80D2D9CEAA2AE4C1C76F60BFE74219A06527D6582DF6412526107381E55E353090704D085B52408D0933C4ED159D79BDA71BB4BC506F4831350EB6F979CD22D69BF7AC49B91A2C0A9DDA3D5CA36AD20FC478E37E6
310
1844E2352865EBCB6EA275A652E3836BE04EFB400BF1A2556F515F1FBB35B2AB35BD889C744FFA1004B5544B121E57F70215746DD2F5E2C1412B602CBF19455AC6C8E5E9922C4E01E65215385004546899059180EAFCF7A707CE7017CD8CDB0410789AB32C63B91E5CEBBBACB17AC6CD347A022D5075FD106377347AAABA7E
310
7D11590744509B44E205134DC1290F06580320F78E537D3D73540E06CB970B431F185308AD40BBD794D6D77003C5A36E8EAA54BA64597CD8F83BD552A080A365F7FF06504B0304140006080000CC70623B000000000000000000000000350000006662782F39464131463745442D413632322D343644302D413938332D3331
310
353338454246344243312F76657274696365732E62696E504B0304140006080800CC70623BF270F1330600000004000000360000006662782F39464131463745442D413632322D343644302D413938332D3331353338454246344243312F747269616E676C65732E62696E636660600000504B0304140006080000CC70623B
310
000000000000000000000000370000006662782F39464131463745442D413632322D343644302D413938332D3331353338454246344243312F617474726962757465732E62696E504B0304140006080800CC70623B08DA0BD19000000041010000360000006662782F39464131463745442D413632322D343644302D413938
310
332D3331353338454246344243312F6469726563746F72792E786D6C858F410AC3201045AF22B36F53E9A60B35CBEEBAE80D244E44489C6234F4F835464A48035D0DF398FF9F8AF63D0E6CC63039F212F8F9020C7D47C6792B21C5FE7403D62A1188E2E60C98D7234A5830286103A55745067B9D86B8A3CF9C7F90C11DE607
310
FB144396D7B6A82D282E9A152AD114D5EF2CB866EEE831B8EEA07A7BB5A8D7D61A2BAAEB7FD5F70921FF497D00504B0304140006080800CC70623B0D6EF93BFE000000A00100003B0000006662782F39464131463745442D413632322D343644302D413938332D3331353338454246344243312F7265736F75726365732F63
310
6F72652E786D6C8D50596E833010BD0A9ADFCA60B334011947A8694ED00B586642AC041B79A97AFC9A40A5F6AF3F33A3B7689E1E3F7DCD8FEC139DD7D6F4C0720A191A65476DA61E62B892236427C19DB5E1970C322367EC618541F0C9D9B8EC90B226A009093576C41D94DE63804C3DD2D18357379C652E63480A7FCF17A9
310
EE72C29CE5894E3AC17D702940B63D59270887DE46A7D0F36263058F518FBB468FE9A7BE6A7420864373B8D4873369AA8691FA421B3294352543C5CAF65C0F6FEF43CB8BD52C78D0F34F46E550061C419494B6843142CB0F5677F4B52BEB177AEC28E5C52AFF638ACBF84F53D42654E51E77B379102C05791282176B5F693D
310
CB4C7BED567C03504B010214000A0000080000CC70623B3DEE336E79000000790000001B00000000000000000000000000000000006175746F6465736B2D64657369676E2D7061636B6167652E786D6C504B01021400140006080800CC70623BD486FD9CA0000000F40000001300000000000000000000000000B20000005B
310
436F6E74656E745F54797065735D2E786D6C504B01021400140006080800CC70623B1EC5D7A3EB0000007C010000080000000000000000000000000083010000636F72652E786D6C504B01021400140006080800CC70623B55019EA25F0000007C000000070000000000000000000000000094020000636E782E786D6C504B
310
01021400140006080800CC70623B8C9102E971010000D40300000C00000000000000000000000000180300006662782F636F72652E786D6C504B01021400140006080800CC70623BFFEA85907E0000009D0000000B00000000000000000000000000B30400006662782F636E782E786D6C504B01021400140006080800CC70
310
623B4FEEA4082C0100001202000031000000000000000000000000005A0500006662782F39464131463745442D413632322D343644302D413938332D3331353338454246344243312F636F72652E786D6C504B01021400140006080800CC70623BAD7543B64E010000330300003000000000000000000000000000D5060000
310
6662782F39464131463745442D413632322D343644302D413938332D3331353338454246344243312F636E782E786D6C504B01021400140006080800CC70623B16AB87BA640500003C1000003400000000000000000000000000710800006662782F39464131463745442D413632322D343644302D413938332D3331353338
310
454246344243312F6F626A656374732E786D6C504B01021400140006080000CC70623B0000000000000000000000003500000000000000000000000000270E00006662782F39464131463745442D413632322D343644302D413938332D3331353338454246344243312F76657274696365732E62696E504B01021400140006
310
080800CC70623BF270F133060000000400000036000000000000000000000000007A0E00006662782F39464131463745442D413632322D343644302D413938332D3331353338454246344243312F747269616E676C65732E62696E504B01021400140006080000CC70623B0000000000000000000000003700000000000000
310
000000000000D40E00006662782F39464131463745442D413632322D343644302D413938332D3331353338454246344243312F617474726962757465732E62696E504B01021400140006080800CC70623B08DA0BD190000000410100003600000000000000000000000000290F00006662782F39464131463745442D413632
310
322D343644302D413938332D3331353338454246344243312F6469726563746F72792E786D6C504B01021400140006080800CC70623B0D6EF93BFE000000A00100003B000000000000000000000000000D1000006662782F39464131463745442D413632322D343644302D413938332D3331353338454246344243312F7265
310
736F75726365732F636F72652E786D6C504B0506000000000E000E0080040000641100000000
  0
XRECORD
  5
292B
102
{ACAD_REACTORS
330
173
102
}
330
173
100
AcDbXrecord
280
     1
102
MATERIAL
148
0.0
149
0.0
149
0.0
 93
        0
 94
       63
282
     0
 72
     1
 77
     1
171
     1
175
     1
179
     1
273
     0
  0
XRECORD
  5
175
102
{ACAD_REACTORS
330
173
102
}
330
173
100
AcDbXrecord
280
     1
270
     1
271
     1
  0
XRECORD
  5
174
102
{ACAD_REACTORS
330
173
102
}
330
173
100
AcDbXrecord
280
     1
270
     1
271
     1
  0
XRECORD
  5
1FB
102
{ACAD_REACTORS
330
173
102
}
330
173
100
AcDbXrecord
280
     1
 70
     0
 90
1673772943
  1
ECE7A1D2-D628-4531-984C-D00F80459256
310
504B03040A0000080000CC70623B3DEE336E79000000790000001B0000006175746F6465736B2D64657369676E2D7061636B6167652E786D6C3C3F786D6C2076657273696F6E3D22312E302220656E636F64696E673D227574662D3822203F3E3C666F726D6174733E3C666F726D61743E687474703A2F2F736368656D612E
310
6175746F6465736B2E636F6D2F64657369676E2D7061636B6167652F323030393C2F666F726D61743E3C2F666F726D6174733E504B0304140006080800CC70623BD486FD9CA0000000F4000000130000005B436F6E74656E745F54797065735D2E786D6C7D8EC10E82300C865F65E91D8A1E8C310C0EEA1BF002731658846E
310
D98AC1B77784ABF1D8FE5FBFBF75BBCE937A534CCEB38643598122B6FEE978D0B0485F9C41B54DDD7D022595594E1A469170414C76A4D9A4D207E29CF43ECE46F218070CC6BECC4078ACAA135ACF422C856C0E68EA1BF5669944DDD7BCDE7B1F8E415D77AECB980613C2E4AC91FC167A2B244592486606FC29C8FD7F045B9A
310
EF7053A7E60B504B0304140006080800CC70623BD9DDAED0EC0000007C01000008000000636F72652E786D6C8D90416EC3201045AF82665B61836D9CD8C2444DD39CA01740405C94182C03558F5F9C3852BBEB6A467FFE9B197D7EF89E6EE8CB2CC17A37002D0820E394D7D68D03A478C17B4007C117EFE32F1B20272733C0
310
2A83E0E3E2D3BC49CABB685CCCAAF3DA6CA20CC14440EA969B0182FA34932C648AD911AEC52CD5558EA6A0CF2EC329598D1E47ACCEFBECC59A050463A7EA5833865FEBDD0E37353BE3EE8DBDE3F6786A48D375FBF6CC78B9C282473B3DEFABC5C86834888A900E538A49F5419B9EB47DD5BC907D4F082F57FB1F28CDFA9F50
310
B22ED6D5F6EE030B20687EE43E10BC5CB3C8E51E54AE6B6EE207504B0304140006080800CC70623B55019EA25F0000007C00000007000000636E782E786D6C4DCB3B0E80201045D1AD90E915ED2CF8AC45050C11660C8261F98AB1B07AC9C97D42D718D865D3E909258CFD00CCE24AC6E326A164D74DC0B4128928FF326038
310
472BA13128B1252AC747C6BAB984FC68F0B87FE8960A5C09FE86CFB69FBA01504B0304140006080800CC70623BA24EB22D72010000D40300000C0000006662782F636F72652E786D6CC5535B6E833010BC8AE5DF0A6C5E49888CA3A6694ED00B38E05014B091B1518EDFE511A5A9D228FD2A1F60CDEC7A67C6986DCE4D8D7A
310
69BA4AAB0C073EC548AA5C17952A33ECECD15B61B4E1CC686DBF9561A44423333CC098B3D268D7CE50AE9595CA02AA74216750749DB418E5352C32DCE59FB211BE70162ABA93DF8AFC244AE9073ED050C759670D0840D390E18DF9F1706664C23973AE2A66B62A605A75ACA4C13C4976E1364A12EF355A2EBD384AF65EFA96
310
BC7B8BED2EA6719AAE16FB8491A199335B351775B991C2CA02F390D2D40B028F861F41BCA68B7518BFD0D59A524686F29B26D7164F36B94AD9289CE54E6D1DE6010819891F6E21228B3AD1831EC219194284CF98F06DD01008846CC5A1BEF83801D4CBDC6A1303536877A57A513B0953A94FC707FDBE6064EA84A9E3E6E0FA
310
EE8CF0E9198F7784A316AA0413C2C2F2E0ECA0934D1AE6D05A69BCDE9E91D2A611F573361E38FC1375157F5752AE6B6DFE4B11990F88CCBF0719EE23FF02504B0304140006080800CC70623B408A7D3B7C0000009D0000000B0000006662782F636E782E786D6C4DCCD10A83201886E15B91FFDC552A92A0064DBC8F581632
310
D3703A76F9ABD1C18E3E78F878E5F0D9027ABBFCF2292AE86E2D20171F69F6715550CB827B40839639A5F2770314A7CD293819B45C73AAFB45B35BA61ACAA1C1C7E7855C58C15BC331339661262CC762340413D68D77DA5B42298546CBE6573AF60CEB2F504B0304140006080800CC70623B449FB9BD290100001202000031
310
0000006662782F36394639363044362D344446342D343946362D394244322D3234314243333846323333332F636F72652E786D6C8D515B6EC32010BC0AE22B55850D98B871848994463E412FE002495162B07854397EA176A4F62F3F2C9A9D991D587EB84F37F0AD7D30CEF6905418026DA553C65E7A98E219ED203808EE9D
310
8B7F6810D871D23D2C3014FCE25D9A57483A1BB58D19B54EE9151C43D0110279CB971E06F9A5A7B11A53CC8C70ADE6515EC78BAE4895DB992778883E0700CB907242D17643D7E2538BD869608875438BBAE38922CAC8F1BDD90DB4691A5E2F42C153326A951B95E398B3D1FE599322163C9AE9115F7A3D46ADA0A018778810
310
84E907617BDCEE297BC5BB3DC6BC2EF47FA234AB2745C9D8D8D035EE220B50105E2F0DC1954B9FB747187D9F9D8FA0CCDB042D5FA0C015C65B42DF78BD10F3F3B363CB56C7109DCFDFBBB97E662ED92EB62D13BC2E1BCAE5777DB9966D8A1F504B0304140006080800CC70623BAD7543B64E01000033030000300000006662
310
782F36394639363044362D344446342D343946362D394244322D3234314243333846323333332F636E782E786D6CD593CD6EC32010845F0571AD6CE3D48AD20813A9873E410FBD12D82434182C7EAAE6EDBB2424CD25871E7B41D6EC30B3FA84F9E67BB2E40B4234DE8DB46F1925E094D7C6ED479AD3AE5951B2113C789FEE
310
6C943839C1488B4C05DF079FE72A69D8C96C13AAD6B8631503449F83828872B949AC57D26200B826A308D316B4064D6E46FCDA41C05550DC9E483A00797BFD207EFB092A45DE9514C1BBD22178396BD39D891265658C238DEA00936C654E5E433CB65A26D9F6EDB5EBC14EBF49A45CB856E66048291F6939A9A81BB5C89177
310
38143CA680F4AA299D66A042CEB3354A2684DC9D8D178FE0D9B8B41CAAD720F880EE7EF93C0C18769E099ECC04D5A102C8049A8A05632F4DDF376CF1DE0F6BB65C2F8627B65A33C6BB62177CEBBDAD973006829F89F22E814B54F4BC2BE347F8AA8F681390B50FA73F804400B5F542E796F19FF974E7F78DB802FE05E20750
310
4B0304140006080800CC70623B8D05915C650500003B100000340000006662782F36394639363044362D344446342D343946362D394244322D3234314243333846323333332F6F626A656374732E786D6CAD575B6FA33814FE2B887D06429276DA1565D4266D158D3A339A6846FB502932E050B66023DB74D2FDF5FB190C01
310
9276B2973C046C8ECFF53B17071F77456EBD502133CEAE6CDF9DD81665314F32965ED995DA3A17B6F5310C04E7AA47665B8C14F4CAD6DB7618A48257A5D94AE89654B91AEDDEDDFC61C998326A5B714EA4BCB265FC440BE2924AF184CA6737218AB8E976E7FA6E4338649B0A523E8D98964450A6A029F619B8588D52FE7039
310
B1BD30F0F4F730D0FF866AF6369557DB33949F31A9088B0F848DD8CCFCF9F2767A76E99CCDE733677E3EF59D9BBB9BA5E37F984D16E78BC5E5F5ED25044B25C0C96822E8D60EEFE11B91C581D77CEA34368A1F5329E68CD1B8B61F16D63A1B8E092D294B10C78C4A48EB593D192E7DED9BDEE7995E1B91FDEDD3ACEA9FE831
310
6A756F9F7D4D79F4274C90A7A04248AA51D5F8C718DAE06FB2F75AC4796EBE65D22A88A22223B995679120E2D50E41AA49C260C046A35368846B0BECD0DFF3EBEB8AD4F835768F69B9ADF25C43D30E6B646F807FAA64AD59F61715C7A54127C4AACA98BA3006A9D792DAE165E0D59B61A01FB3A9F9D838D2DAE62445C86166
310
F37564E842E7DE6A69879FEEA2DD5AE7E371E1A5E025154AC307D06A03D73EB5978C58FFA4C8E9033066E0F3BD53BEC1F39F91BE7B55103791EDE6BBB991A2046172CB4581D8B893FA674DDA17A77B3B7C413D1B511FD2743BFF8A38F03A658705E3ADF8015C3A3417FF3D7E439FF591DA0B5F18BC20C1B8981957AE6392A3
310
F43C640C01D1A0B4728E2DD4F26DB4B3C3152A252A3B4E913CEC1C72F012782FF88EFF8637AA552DBEF76408E8A8DE9E50F9E1CB3A2DA0DB1B6039A893B56063DC5B3E3FFB5F72E67AB9FEB4AEC496C4F4C1149625DD662C53E89D7BF0F6151A046260D1337DFDC94502430F83B0EE07A130A224BCAD7DAE1D9FB6CD422FF6
310
920702629C4BB9AE79C12F243C6432A6794E18E5552BA56B431AAB5D91317302B2B071E86C3A42B1A02F999E24061403B5D0EB639195DA655DD3EBEAB4FB862DDF579F014AD0E73C22F99E28DA57FB98E75C6CA2D74D53086D600F4786E0FE3144B771A8A7B900F03594DB8A633CBC49B2EDB69228BB479CF863B5E807AAAB
310
23872F6DFEB4129B949CA33823F58830E86D65621E10047D9DB34D862E8EAC3C2ABC2F7B2C40D67CDFE01F5545B92105AF983AC54D93D69E56FB8E797F88913F898A9FEC705D3F9D1B54EC8426FB500D40A03BD0119B06E1B95DDC7EB8F6975367793EBD70E66733DFB9BC982F9CE564727731999F5D4ECFCE3B8D6A4DC2A0
310
6D50FD148437D110834A64C6CDDF57FBACB5C307A2A477DFE4939736CFEF2B175371E0E10CF0DD1D5C15654E0BCA14D1E87DD02FF93782A162C0A3D95F1524A52770F972BF1EE9809D13CE7DD599467F8ECE9ADD85CE85A34CD45355448C64F9E8A031DC2D596ACC6E5DD93D9B82DE2EF5CAF81363A8E47996A0DE24564A79
310
4115AACE09C55E14540231FDA13C319787134EBF34E3A022514E5B4D9E0826E25C02D5805B15ABE1BEF51B26383D445DD9E875EE33FE4C22DA16427D65A3BCA92CA6D28DD01DF5DC53330704308475351050232CCD31583787BA75774AFB06E5070DD0C8EF484E19968C5D83BA5B90B244D31E54D55A372320FE4786B7EA58
310
44E135AA5467CB7EA333A61683CC6A8C3257034C10CF46F40EF9F5BE59BE5BD30C3C72D235E95D10345C1D45445A5F0BB47E46A5EBE5570F9380B5FA629579952296A773720405982B9DE04011506178964401AA8BDF1FBF0A8EAB6861DD6580C0E38217056766716DAEB2D6FA0917D3E4116581EADB879C4E7CFFB11EFACD
310
3D641311495D92C8676CB409A72D18610D803CE8A626049E8EC1887CB5B44CC39883690DDA8399B4B9855B481E7D71D4A9D22F96E5BB73BF5793020C02137BF837504B0304140006080000CC70623B000000000000000000000000350000006662782F36394639363044362D344446342D343946362D394244322D32343142
310
43333846323333332F76657274696365732E62696E504B0304140006080800CC70623BF270F1330600000004000000360000006662782F36394639363044362D344446342D343946362D394244322D3234314243333846323333332F747269616E676C65732E62696E636660600000504B0304140006080000CC70623B0000
310
00000000000000000000370000006662782F36394639363044362D344446342D343946362D394244322D3234314243333846323333332F617474726962757465732E62696E504B0304140006080800CC70623B08DA0BD19000000041010000360000006662782F36394639363044362D344446342D343946362D394244322D
310
3234314243333846323333332F6469726563746F72792E786D6C858F410AC3201045AF22B36F53E9A60B35CBEEBAE80D244E44489C6234F4F835464A48035D0DF398FF9F8AF63D0E6CC63039F212F8F9020C7D47C6792B21C5FE7403D62A1188E2E60C98D7234A5830286103A55745067B9D86B8A3CF9C7F90C11DE607FB14
310
4396D7B6A82D282E9A152AD114D5EF2CB866EEE831B8EEA07A7BB5A8D7D61A2BAAEB7FD5F70921FF497D00504B0304140006080800CC70623BCA768048FE000000A00100003B0000006662782F36394639363044362D344446342D343946362D394244322D3234314243333846323333332F7265736F75726365732F636F72
310
652E786D6C8D50596E833010BD0A9ADFCA60D600328E9AA639412F609909B1126CE4A5EAF16B0295DABFFECC8CDEA2797AECF8353F924FB44E193D409E5248504B332A3D0D10FC95B4901C39B3C6F85F3248B49871801506CE266BC2B243D2688FDA47549B11775038871E12F988C7004EDE7016A9083E2ADC3D5D84BC8B09
310
D33C8D74D471E6BC8D0192EDC93A815B742658898E651BCB59086ADC356A8C3FD555A1055ED7E7E254D615792D0F075295F585746FF53B694EE78A565DD736979A65AB9933AFE69F8CD2A2F038022F28ED489E135A7CE4554F9BBEA85E68DB53CAB255FEC71496F19FA6A0B42F8B3DEE6673C0F318E4497096AD7DC5F52C33
310
EEB55BFE0D504B010214000A0000080000CC70623B3DEE336E79000000790000001B00000000000000000000000000000000006175746F6465736B2D64657369676E2D7061636B6167652E786D6C504B01021400140006080800CC70623BD486FD9CA0000000F40000001300000000000000000000000000B20000005B436F
310
6E74656E745F54797065735D2E786D6C504B01021400140006080800CC70623BD9DDAED0EC0000007C010000080000000000000000000000000083010000636F72652E786D6C504B01021400140006080800CC70623B55019EA25F0000007C000000070000000000000000000000000095020000636E782E786D6C504B0102
310
1400140006080800CC70623BA24EB22D72010000D40300000C00000000000000000000000000190300006662782F636F72652E786D6C504B01021400140006080800CC70623B408A7D3B7C0000009D0000000B00000000000000000000000000B50400006662782F636E782E786D6C504B01021400140006080800CC70623B
310
449FB9BD290100001202000031000000000000000000000000005A0500006662782F36394639363044362D344446342D343946362D394244322D3234314243333846323333332F636F72652E786D6C504B01021400140006080800CC70623BAD7543B64E010000330300003000000000000000000000000000D20600006662
310
782F36394639363044362D344446342D343946362D394244322D3234314243333846323333332F636E782E786D6C504B01021400140006080800CC70623B8D05915C650500003B10000034000000000000000000000000006E0800006662782F36394639363044362D344446342D343946362D394244322D32343142433338
310
46323333332F6F626A656374732E786D6C504B01021400140006080000CC70623B0000000000000000000000003500000000000000000000000000250E00006662782F36394639363044362D344446342D343946362D394244322D3234314243333846323333332F76657274696365732E62696E504B010214001400060808
310
00CC70623BF270F13306000000040000003600000000000000000000000000780E00006662782F36394639363044362D344446342D343946362D394244322D3234314243333846323333332F747269616E676C65732E62696E504B01021400140006080000CC70623B00000000000000000000000037000000000000000000
310
00000000D20E00006662782F36394639363044362D344446342D343946362D394244322D3234314243333846323333332F617474726962757465732E62696E504B01021400140006080800CC70623B08DA0BD190000000410100003600000000000000000000000000270F00006662782F36394639363044362D344446342D
310
343946362D394244322D3234314243333846323333332F6469726563746F72792E786D6C504B01021400140006080800CC70623BCA768048FE000000A00100003B000000000000000000000000000B1000006662782F36394639363044362D344446342D343946362D394244322D3234314243333846323333332F7265736F
310
75726365732F636F72652E786D6C504B0506000000000E000E0080040000621100000000
  0
XRECORD
  5
176
102
{ACAD_REACTORS
330
173
102
}
330
173
100
AcDbXrecord
280
     1
270
     1
271
     1
  0
XRECORD
  5
177
102
{ACAD_REACTORS
330
173
102
}
330
173
100
AcDbXrecord
280
     1
270
     1
271
     1
  0
XRECORD
  5
294D
102
{ACAD_REACTORS
330
294C
102
}
330
294C
100
AcDbXrecord
280
     1
102
ACAD_ROUNDTRIP_2012_MLEADER_STYLE
298
     1
  0
XRECORD
  5
295F
102
{ACAD_REACTORS
330
295E
102
}
330
295E
100
AcDbXrecord
280
     1
102
DISPLAYNAME
  1
Metric50
102
FLAGS
 90
        0
  0
CELLSTYLEMAP
  5
291F
102
{ACAD_REACTORS
330
162
102
}
330
162
100
AcDbCellStyleMap
 90
        3
300
CELLSTYLE
  1
TABLEFORMAT_BEGIN
 90
        5
170
     1
 91
        0
 92
    32768
 62
   257
 93
        1
300
CONTENTFORMAT
  1
CONTENTFORMAT_BEGIN
 90
        0
 91
        0
 92
      512
 93
        0
300

 40
0.0
140
1.0
 94
        5
 62
     0
340
11
144
6.0
309
CONTENTFORMAT_END
171
     1
301
MARGIN
  1
CELLMARGIN_BEGIN
 40
1.5
 40
1.5
 40
1.5
 40
1.5
 40
4.5
 40
4.5
309
CELLMARGIN_END
 94
        6
 95
        1
302
GRIDFORMAT
  1
GRIDFORMAT_BEGIN
 90
        0
 91
        1
 62
     0
 92
       -2
340
14
 93
        0
 40
1.125
309
GRIDFORMAT_END
 95
        2
302
GRIDFORMAT
  1
GRIDFORMAT_BEGIN
 90
        0
 91
        1
 62
     0
 92
       -2
340
14
 93
        0
 40
1.125
309
GRIDFORMAT_END
 95
        4
302
GRIDFORMAT
  1
GRIDFORMAT_BEGIN
 90
        0
 91
        1
 62
     0
 92
       -2
340
14
 93
        0
 40
1.125
309
GRIDFORMAT_END
 95
        8
302
GRIDFORMAT
  1
GRIDFORMAT_BEGIN
 90
        0
 91
        1
 62
     0
 92
       -2
340
14
 93
        0
 40
1.125
309
GRIDFORMAT_END
 95
       16
302
GRIDFORMAT
  1
GRIDFORMAT_BEGIN
 90
        0
 91
        1
 62
     0
 92
       -2
340
14
 93
        0
 40
1.125
309
GRIDFORMAT_END
 95
       32
302
GRIDFORMAT
  1
GRIDFORMAT_BEGIN
 90
        0
 91
        1
 62
     0
 92
       -2
340
14
 93
        0
 40
1.125
309
GRIDFORMAT_END
309
TABLEFORMAT_END
  1
CELLSTYLE_BEGIN
 90
        1
 91
        1
300
_TITLE
309
CELLSTYLE_END
300
CELLSTYLE
  1
TABLEFORMAT_BEGIN
 90
        5
170
     1
 91
        0
 92
        0
 62
   257
 93
        1
300
CONTENTFORMAT
  1
CONTENTFORMAT_BEGIN
 90
        0
 91
        0
 92
      512
 93
        0
300

 40
0.0
140
1.0
 94
        5
 62
     0
340
11
144
4.5
309
CONTENTFORMAT_END
171
     1
301
MARGIN
  1
CELLMARGIN_BEGIN
 40
1.5
 40
1.5
 40
1.5
 40
1.5
 40
4.5
 40
4.5
309
CELLMARGIN_END
 94
        6
 95
        1
302
GRIDFORMAT
  1
GRIDFORMAT_BEGIN
 90
        0
 91
        1
 62
     0
 92
       -2
340
14
 93
        0
 40
1.125
309
GRIDFORMAT_END
 95
        2
302
GRIDFORMAT
  1
GRIDFORMAT_BEGIN
 90
        0
 91
        1
 62
     0
 92
       -2
340
14
 93
        0
 40
1.125
309
GRIDFORMAT_END
 95
        4
302
GRIDFORMAT
  1
GRIDFORMAT_BEGIN
 90
        0
 91
        1
 62
     0
 92
       -2
340
14
 93
        0
 40
1.125
309
GRIDFORMAT_END
 95
        8
302
GRIDFORMAT
  1
GRIDFORMAT_BEGIN
 90
        0
 91
        1
 62
     0
 92
       -2
340
14
 93
        0
 40
1.125
309
GRIDFORMAT_END
 95
       16
302
GRIDFORMAT
  1
GRIDFORMAT_BEGIN
 90
        0
 91
        1
 62
     0
 92
       -2
340
14
 93
        0
 40
1.125
309
GRIDFORMAT_END
 95
       32
302
GRIDFORMAT
  1
GRIDFORMAT_BEGIN
 90
        0
 91
        1
 62
     0
 92
       -2
340
14
 93
        0
 40
1.125
309
GRIDFORMAT_END
309
TABLEFORMAT_END
  1
CELLSTYLE_BEGIN
 90
        2
 91
        1
300
_HEADER
309
CELLSTYLE_END
300
CELLSTYLE
  1
TABLEFORMAT_BEGIN
 90
        5
170
     1
 91
        0
 92
        0
 62
   257
 93
        1
300
CONTENTFORMAT
  1
CONTENTFORMAT_BEGIN
 90
        0
 91
        0
 92
      512
 93
        0
300

 40
0.0
140
1.0
 94
        2
 62
     0
340
11
144
4.5
309
CONTENTFORMAT_END
171
     1
301
MARGIN
  1
CELLMARGIN_BEGIN
 40
1.5
 40
1.5
 40
1.5
 40
1.5
 40
4.5
 40
4.5
309
CELLMARGIN_END
 94
        6
 95
        1
302
GRIDFORMAT
  1
GRIDFORMAT_BEGIN
 90
        0
 91
        1
 62
     0
 92
       -2
340
14
 93
        0
 40
1.125
309
GRIDFORMAT_END
 95
        2
302
GRIDFORMAT
  1
GRIDFORMAT_BEGIN
 90
        0
 91
        1
 62
     0
 92
       -2
340
14
 93
        0
 40
1.125
309
GRIDFORMAT_END
 95
        4
302
GRIDFORMAT
  1
GRIDFORMAT_BEGIN
 90
        0
 91
        1
 62
     0
 92
       -2
340
14
 93
        0
 40
1.125
309
GRIDFORMAT_END
 95
        8
302
GRIDFORMAT
  1
GRIDFORMAT_BEGIN
 90
        0
 91
        1
 62
     0
 92
       -2
340
14
 93
        0
 40
1.125
309
GRIDFORMAT_END
 95
       16
302
GRIDFORMAT
  1
GRIDFORMAT_BEGIN
 90
        0
 91
        1
 62
     0
 92
       -2
340
14
 93
        0
 40
1.125
309
GRIDFORMAT_END
 95
       32
302
GRIDFORMAT
  1
GRIDFORMAT_BEGIN
 90
        0
 91
        1
 62
     0
 92
       -2
340
14
 93
        0
 40
1.125
309
GRIDFORMAT_END
309
TABLEFORMAT_END
  1
CELLSTYLE_BEGIN
 90
        3
 91
        2
300
_DATA
309
CELLSTYLE_END
  0
XRECORD
  5
2924
102
{ACAD_REACTORS
330
162
102
}
330
162
100
AcDbXrecord
280
     1
102
ACAD_ROUNDTRIP_PRE2007_TABLESTYLE
 90
      512
 91
        0
  1

 92
      512
 93
        0
  2

 94
      512
 95
        0
  3

  0
XRECORD
  5
2937
102
{ACAD_REACTORS
330
2936
102
}
330
2936
100
AcDbXrecord
280
     1
102
RTVSPost2010Prop28
280
     1
102
RTVSPost2010PropOp28
 70
     1
102
RTVSPost2010Prop29
280
     1
102
RTVSPost2010PropOp29
 70
     1
102
RTVSPost2010Prop30
280
     0
102
RTVSPost2010PropOp30
 70
     1
102
RTVSPost2010Prop31
280
     0
102
RTVSPost2010PropOp31
 70
     1
102
RTVSPost2010Prop32
280
     0
102
RTVSPost2010PropOp32
 70
     1
102
RTVSPost2010Prop33
280
     0
102
RTVSPost2010PropOp33
 70
     1
102
RTVSPost2010Prop34
280
     0
102
RTVSPost2010PropOp34
 70
     1
102
RTVSPost2010Prop35
280
     0
102
RTVSPost2010PropOp35
 70
     1
102
RTVSPost2010Prop36
280
     0
102
RTVSPost2010PropOp36
 70
     1
102
RTVSPost2010Prop37
 90
       50
102
RTVSPost2010PropOp37
 70
     1
102
RTVSPost2010Prop38
140
0.0
102
RTVSPost2010PropOp38
 70
     1
102
RTVSPost2010Prop39
140
1.0
102
RTVSPost2010PropOp39
 70
     1
102
RTVSPost2010Prop40
 90
        0
102
RTVSPost2010PropOp40
 70
     1
102
RTVSPost2010Prop41ColorIndex
 90
       18
102
RTVSPost2010Prop41ColorRGB
 90
        0
102
RTVSPost2010PropOp41
 70
     1
102
RTVSPost2010Prop42
 90
       50
102
RTVSPost2010PropOp42
 70
     1
102
RTVSPost2010Prop43
 90
        3
102
RTVSPost2010PropOp43
 70
     1
102
RTVSPost2010Prop44ColorIndex
 90
        5
102
RTVSPost2010Prop44ColorRGB
 90
      255
102
RTVSPost2010PropOp44
 70
     1
102
RTVSPost2010Prop45
280
     0
102
RTVSPost2010PropOp45
 70
     1
102
RTVSPost2010Prop46
 90
       50
102
RTVSPost2010PropOp46
 70
     1
102
RTVSPost2010Prop47
 90
       50
102
RTVSPost2010PropOp47
 70
     1
102
RTVSPost2010Prop48
 90
       50
102
RTVSPost2010PropOp48
 70
     1
102
RTVSPost2010Prop49
280
     0
102
RTVSPost2010PropOp49
 70
     1
102
RTVSPost2010Prop50
 90
       50
102
RTVSPost2010PropOp50
 70
     1
102
RTVSPost2010Prop51ColorIndex
 90
      256
102
RTVSPost2010Prop51ColorRGB
 90
-16777216
102
RTVSPost2010PropOp51
 70
     0
102
RTVSPost2010Prop52
140
1.0
102
RTVSPost2010PropOp52
 70
     0
102
RTVSPost2010Prop53
 90
        2
102
RTVSPost2010PropOp53
 70
     1
102
RTVSPost2010Prop54
  1
strokes_ogs.tif
102
RTVSPost2010PropOp54
 70
     1
102
RTVSPost2010Prop55
280
     0
102
RTVSPost2010PropOp55
 70
     1
102
RTVSPost2010Prop56
140
1.0
102
RTVSPost2010PropOp56
 70
     1
102
RTVSPost2010Prop57
140
1.0
102
RTVSPost2010PropOp57
 70
     1
102
RTVSPropertyOp0
 70
     1
102
RTVSPropertyOp1
 70
     1
102
RTVSPropertyOp2
 70
     1
102
RTVSPropertyOp3
 70
     1
102
RTVSPropertyOp4
 70
     1
102
RTVSPropertyOp5
 70
     1
102
RTVSPropertyOp6
 70
     1
102
RTVSPropertyOp7
 70
     1
102
RTVSPropertyOp8
 70
     1
102
RTVSPropertyOp9
 70
     1
102
RTVSPropertyOp10
 70
     1
102
RTVSPropertyOp11
 70
     1
102
RTVSPropertyOp12
 70
     1
102
RTVSPropertyOp13
 70
     1
102
RTVSPropertyOp14
 70
     1
102
RTVSPropertyOp15
 70
     1
102
RTVSPropertyOp16
 70
     1
102
RTVSPropertyOp17
 70
     1
102
RTVSPropertyOp18
 70
     1
102
RTVSPropertyOp19
 70
     1
102
RTVSPropertyOp20
 70
     1
102
RTVSPropertyOp21
 70
     1
102
RTVSPropertyOp22
 70
     1
102
RTVSPropertyOp23
 70
     1
102
RTVSPropertyOp24
 70
     1
102
RTVSPropertyOp25
 70
     1
102
RTVSPropertyOp26
 70
     1
102
RTVSPropertyOp27
 70
     1
102
RTVSPropertyOp28
 70
     1
102
RTVSPropertyOp29
 70
     1
102
RTVSPropertyOp30
 70
     1
102
RTVSPropertyOp31
 70
     1
102
RTVSPropertyOp32
 70
     1
102
RTVSPropertyOp33
 70
     1
102
RTVSPropertyOp34
 70
     1
102
RTVSPropertyOp35
 70
     1
102
RTVSPropertyOp36
 70
     1
102
RTVSPropertyOp37
 70
     1
102
RTVSPropertyOp38
 70
     1
102
RTVSPropertyOp39
 70
     1
102
RTVSPropertyOp40
 70
     1
102
RTVSPropertyOp41
 70
     1
102
RTVSPropertyOp42
 70
     1
102
RTVSPropertyOp43
 70
     1
102
RTVSPropertyOp44
 70
     1
102
RTVSPropertyOp45
 70
     1
102
RTVSPropertyOp46
 70
     1
102
RTVSPropertyOp47
 70
     1
102
RTVSPropertyOp48
 70
     1
102
RTVSPropertyOp49
 70
     1
102
RTVSPropertyOp50
 70
     1
102
RTVSPropertyOp51
 70
     0
102
RTVSPropertyOp52
 70
     0
102
RTVSPropertyOp53
 70
     1
102
RTVSPropertyOp54
 70
     1
102
RTVSPropertyOp55
 70
     1
102
RTVSPropertyOp56
 70
     1
102
RTVSPropertyOp57
 70
     1
102
RTVSPropertyOp58
 70
     1
102
RTVSPropertyOp59
 70
     1
102
RTVSPropertyOp60
 70
     1
102
RTVSPropertyOp61
 70
     1
102
RTVSPropertyOp62
 70
     1
  0
XRECORD
  5
2935
102
{ACAD_REACTORS
330
2934
102
}
330
2934
100
AcDbXrecord
280
     1
102
RTVSPost2010Prop28
280
     0
102
RTVSPost2010PropOp28
 70
     1
102
RTVSPost2010Prop29
280
     1
102
RTVSPost2010PropOp29
 70
     1
102
RTVSPost2010Prop30
280
     1
102
RTVSPost2010PropOp30
 70
     1
102
RTVSPost2010Prop31
280
     0
102
RTVSPost2010PropOp31
 70
     1
102
RTVSPost2010Prop32
280
     0
102
RTVSPost2010PropOp32
 70
     1
102
RTVSPost2010Prop33
280
     0
102
RTVSPost2010PropOp33
 70
     1
102
RTVSPost2010Prop34
280
     0
102
RTVSPost2010PropOp34
 70
     1
102
RTVSPost2010Prop35
280
     0
102
RTVSPost2010PropOp35
 70
     1
102
RTVSPost2010Prop36
280
     0
102
RTVSPost2010PropOp36
 70
     1
102
RTVSPost2010Prop37
 90
       50
102
RTVSPost2010PropOp37
 70
     1
102
RTVSPost2010Prop38
140
0.0
102
RTVSPost2010PropOp38
 70
     1
102
RTVSPost2010Prop39
140
1.0
102
RTVSPost2010PropOp39
 70
     1
102
RTVSPost2010Prop40
 90
        0
102
RTVSPost2010PropOp40
 70
     1
102
RTVSPost2010Prop41ColorIndex
 90
       18
102
RTVSPost2010Prop41ColorRGB
 90
        0
102
RTVSPost2010PropOp41
 70
     1
102
RTVSPost2010Prop42
 90
       50
102
RTVSPost2010PropOp42
 70
     1
102
RTVSPost2010Prop43
 90
        3
102
RTVSPost2010PropOp43
 70
     1
102
RTVSPost2010Prop44ColorIndex
 90
        5
102
RTVSPost2010Prop44ColorRGB
 90
      255
102
RTVSPost2010PropOp44
 70
     1
102
RTVSPost2010Prop45
280
     0
102
RTVSPost2010PropOp45
 70
     1
102
RTVSPost2010Prop46
 90
       50
102
RTVSPost2010PropOp46
 70
     1
102
RTVSPost2010Prop47
 90
       50
102
RTVSPost2010PropOp47
 70
     1
102
RTVSPost2010Prop48
 90
       50
102
RTVSPost2010PropOp48
 70
     1
102
RTVSPost2010Prop49
280
     0
102
RTVSPost2010PropOp49
 70
     1
102
RTVSPost2010Prop50
 90
       50
102
RTVSPost2010PropOp50
 70
     1
102
RTVSPost2010Prop51ColorIndex
 90
      256
102
RTVSPost2010Prop51ColorRGB
 90
-16777216
102
RTVSPost2010PropOp51
 70
     0
102
RTVSPost2010Prop52
140
1.0
102
RTVSPost2010PropOp52
 70
     0
102
RTVSPost2010Prop53
 90
        2
102
RTVSPost2010PropOp53
 70
     1
102
RTVSPost2010Prop54
  1
strokes_ogs.tif
102
RTVSPost2010PropOp54
 70
     1
102
RTVSPost2010Prop55
280
     0
102
RTVSPost2010PropOp55
 70
     1
102
RTVSPost2010Prop56
140
1.0
102
RTVSPost2010PropOp56
 70
     1
102
RTVSPost2010Prop57
140
1.0
102
RTVSPost2010PropOp57
 70
     1
102
RTVSPropertyOp0
 70
     1
102
RTVSPropertyOp1
 70
     1
102
RTVSPropertyOp2
 70
     1
102
RTVSPropertyOp3
 70
     1
102
RTVSPropertyOp4
 70
     1
102
RTVSPropertyOp5
 70
     1
102
RTVSPropertyOp6
 70
     1
102
RTVSPropertyOp7
 70
     1
102
RTVSPropertyOp8
 70
     1
102
RTVSPropertyOp9
 70
     1
102
RTVSPropertyOp10
 70
     1
102
RTVSPropertyOp11
 70
     1
102
RTVSPropertyOp12
 70
     1
102
RTVSPropertyOp13
 70
     1
102
RTVSPropertyOp14
 70
     1
102
RTVSPropertyOp15
 70
     1
102
RTVSPropertyOp16
 70
     1
102
RTVSPropertyOp17
 70
     1
102
RTVSPropertyOp18
 70
     1
102
RTVSPropertyOp19
 70
     1
102
RTVSPropertyOp20
 70
     1
102
RTVSPropertyOp21
 70
     1
102
RTVSPropertyOp22
 70
     1
102
RTVSPropertyOp23
 70
     1
102
RTVSPropertyOp24
 70
     1
102
RTVSPropertyOp25
 70
     1
102
RTVSPropertyOp26
 70
     1
102
RTVSPropertyOp27
 70
     1
102
RTVSPropertyOp28
 70
     1
102
RTVSPropertyOp29
 70
     1
102
RTVSPropertyOp30
 70
     1
102
RTVSPropertyOp31
 70
     1
102
RTVSPropertyOp32
 70
     1
102
RTVSPropertyOp33
 70
     1
102
RTVSPropertyOp34
 70
     1
102
RTVSPropertyOp35
 70
     1
102
RTVSPropertyOp36
 70
     1
102
RTVSPropertyOp37
 70
     1
102
RTVSPropertyOp38
 70
     1
102
RTVSPropertyOp39
 70
     1
102
RTVSPropertyOp40
 70
     1
102
RTVSPropertyOp41
 70
     1
102
RTVSPropertyOp42
 70
     1
102
RTVSPropertyOp43
 70
     1
102
RTVSPropertyOp44
 70
     1
102
RTVSPropertyOp45
 70
     1
102
RTVSPropertyOp46
 70
     1
102
RTVSPropertyOp47
 70
     1
102
RTVSPropertyOp48
 70
     1
102
RTVSPropertyOp49
 70
     1
102
RTVSPropertyOp50
 70
     1
102
RTVSPropertyOp51
 70
     0
102
RTVSPropertyOp52
 70
     0
102
RTVSPropertyOp53
 70
     1
102
RTVSPropertyOp54
 70
     1
102
RTVSPropertyOp55
 70
     1
102
RTVSPropertyOp56
 70
     1
102
RTVSPropertyOp57
 70
     1
102
RTVSPropertyOp58
 70
     1
102
RTVSPropertyOp59
 70
     1
102
RTVSPropertyOp60
 70
     1
102
RTVSPropertyOp61
 70
     1
102
RTVSPropertyOp62
 70
     1
  0
XRECORD
  5
2943
102
{ACAD_REACTORS
330
2942
102
}
330
2942
100
AcDbXrecord
280
     1
102
RTVSPost2010Prop28
280
     0
102
RTVSPost2010PropOp28
 70
     1
102
RTVSPost2010Prop29
280
     1
102
RTVSPost2010PropOp29
 70
     1
102
RTVSPost2010Prop30
280
     1
102
RTVSPost2010PropOp30
 70
     1
102
RTVSPost2010Prop31
280
     0
102
RTVSPost2010PropOp31
 70
     1
102
RTVSPost2010Prop32
280
     0
102
RTVSPost2010PropOp32
 70
     1
102
RTVSPost2010Prop33
280
     0
102
RTVSPost2010PropOp33
 70
     1
102
RTVSPost2010Prop34
280
     0
102
RTVSPost2010PropOp34
 70
     1
102
RTVSPost2010Prop35
280
     0
102
RTVSPost2010PropOp35
 70
     1
102
RTVSPost2010Prop36
280
     0
102
RTVSPost2010PropOp36
 70
     1
102
RTVSPost2010Prop37
 90
       50
102
RTVSPost2010PropOp37
 70
     1
102
RTVSPost2010Prop38
140
0.0
102
RTVSPost2010PropOp38
 70
     1
102
RTVSPost2010Prop39
140
1.0
102
RTVSPost2010PropOp39
 70
     1
102
RTVSPost2010Prop40
 90
        0
102
RTVSPost2010PropOp40
 70
     1
102
RTVSPost2010Prop41ColorIndex
 90
       18
102
RTVSPost2010Prop41ColorRGB
 90
        0
102
RTVSPost2010PropOp41
 70
     1
102
RTVSPost2010Prop42
 90
       50
102
RTVSPost2010PropOp42
 70
     1
102
RTVSPost2010Prop43
 90
        3
102
RTVSPost2010PropOp43
 70
     1
102
RTVSPost2010Prop44ColorIndex
 90
        5
102
RTVSPost2010Prop44ColorRGB
 90
      255
102
RTVSPost2010PropOp44
 70
     1
102
RTVSPost2010Prop45
280
     0
102
RTVSPost2010PropOp45
 70
     1
102
RTVSPost2010Prop46
 90
       50
102
RTVSPost2010PropOp46
 70
     1
102
RTVSPost2010Prop47
 90
       50
102
RTVSPost2010PropOp47
 70
     1
102
RTVSPost2010Prop48
 90
       50
102
RTVSPost2010PropOp48
 70
     1
102
RTVSPost2010Prop49
280
     0
102
RTVSPost2010PropOp49
 70
     1
102
RTVSPost2010Prop50
 90
       50
102
RTVSPost2010PropOp50
 70
     1
102
RTVSPost2010Prop51ColorIndex
 90
      256
102
RTVSPost2010Prop51ColorRGB
 90
-16777216
102
RTVSPost2010PropOp51
 70
     0
102
RTVSPost2010Prop52
140
1.0
102
RTVSPost2010PropOp52
 70
     0
102
RTVSPost2010Prop53
 90
        2
102
RTVSPost2010PropOp53
 70
     1
102
RTVSPost2010Prop54
  1
strokes_ogs.tif
102
RTVSPost2010PropOp54
 70
     1
102
RTVSPost2010Prop55
280
     0
102
RTVSPost2010PropOp55
 70
     1
102
RTVSPost2010Prop56
140
1.0
102
RTVSPost2010PropOp56
 70
     1
102
RTVSPost2010Prop57
140
1.0
102
RTVSPost2010PropOp57
 70
     1
102
RTVSPropertyOp0
 70
     1
102
RTVSPropertyOp1
 70
     1
102
RTVSPropertyOp2
 70
     1
102
RTVSPropertyOp3
 70
     1
102
RTVSPropertyOp4
 70
     1
102
RTVSPropertyOp5
 70
     1
102
RTVSPropertyOp6
 70
     1
102
RTVSPropertyOp7
 70
     1
102
RTVSPropertyOp8
 70
     1
102
RTVSPropertyOp9
 70
     1
102
RTVSPropertyOp10
 70
     1
102
RTVSPropertyOp11
 70
     1
102
RTVSPropertyOp12
 70
     1
102
RTVSPropertyOp13
 70
     1
102
RTVSPropertyOp14
 70
     1
102
RTVSPropertyOp15
 70
     1
102
RTVSPropertyOp16
 70
     1
102
RTVSPropertyOp17
 70
     1
102
RTVSPropertyOp18
 70
     1
102
RTVSPropertyOp19
 70
     1
102
RTVSPropertyOp20
 70
     1
102
RTVSPropertyOp21
 70
     1
102
RTVSPropertyOp22
 70
     1
102
RTVSPropertyOp23
 70
     1
102
RTVSPropertyOp24
 70
     1
102
RTVSPropertyOp25
 70
     1
102
RTVSPropertyOp26
 70
     1
102
RTVSPropertyOp27
 70
     1
102
RTVSPropertyOp28
 70
     1
102
RTVSPropertyOp29
 70
     1
102
RTVSPropertyOp30
 70
     1
102
RTVSPropertyOp31
 70
     1
102
RTVSPropertyOp32
 70
     1
102
RTVSPropertyOp33
 70
     1
102
RTVSPropertyOp34
 70
     1
102
RTVSPropertyOp35
 70
     1
102
RTVSPropertyOp36
 70
     1
102
RTVSPropertyOp37
 70
     1
102
RTVSPropertyOp38
 70
     1
102
RTVSPropertyOp39
 70
     1
102
RTVSPropertyOp40
 70
     1
102
RTVSPropertyOp41
 70
     1
102
RTVSPropertyOp42
 70
     1
102
RTVSPropertyOp43
 70
     1
102
RTVSPropertyOp44
 70
     1
102
RTVSPropertyOp45
 70
     1
102
RTVSPropertyOp46
 70
     1
102
RTVSPropertyOp47
 70
     1
102
RTVSPropertyOp48
 70
     1
102
RTVSPropertyOp49
 70
     1
102
RTVSPropertyOp50
 70
     1
102
RTVSPropertyOp51
 70
     0
102
RTVSPropertyOp52
 70
     0
102
RTVSPropertyOp53
 70
     1
102
RTVSPropertyOp54
 70
     1
102
RTVSPropertyOp55
 70
     1
102
RTVSPropertyOp56
 70
     1
102
RTVSPropertyOp57
 70
     1
102
RTVSPropertyOp58
 70
     1
102
RTVSPropertyOp59
 70
     1
102
RTVSPropertyOp60
 70
     1
102
RTVSPropertyOp61
 70
     1
102
RTVSPropertyOp62
 70
     1
  0
XRECORD
  5
294B
102
{ACAD_REACTORS
330
294A
102
}
330
294A
100
AcDbXrecord
280
     1
102
RTVSPost2010Prop28
280
     0
102
RTVSPost2010PropOp28
 70
     1
102
RTVSPost2010Prop29
280
     1
102
RTVSPost2010PropOp29
 70
     1
102
RTVSPost2010Prop30
280
     1
102
RTVSPost2010PropOp30
 70
     1
102
RTVSPost2010Prop31
280
     0
102
RTVSPost2010PropOp31
 70
     1
102
RTVSPost2010Prop32
280
     0
102
RTVSPost2010PropOp32
 70
     1
102
RTVSPost2010Prop33
280
     0
102
RTVSPost2010PropOp33
 70
     1
102
RTVSPost2010Prop34
280
     0
102
RTVSPost2010PropOp34
 70
     1
102
RTVSPost2010Prop35
280
     0
102
RTVSPost2010PropOp35
 70
     1
102
RTVSPost2010Prop36
280
     0
102
RTVSPost2010PropOp36
 70
     1
102
RTVSPost2010Prop37
 90
       50
102
RTVSPost2010PropOp37
 70
     1
102
RTVSPost2010Prop38
140
0.0
102
RTVSPost2010PropOp38
 70
     1
102
RTVSPost2010Prop39
140
1.0
102
RTVSPost2010PropOp39
 70
     1
102
RTVSPost2010Prop40
 90
        0
102
RTVSPost2010PropOp40
 70
     1
102
RTVSPost2010Prop41ColorIndex
 90
       18
102
RTVSPost2010Prop41ColorRGB
 90
        0
102
RTVSPost2010PropOp41
 70
     1
102
RTVSPost2010Prop42
 90
       50
102
RTVSPost2010PropOp42
 70
     1
102
RTVSPost2010Prop43
 90
        3
102
RTVSPost2010PropOp43
 70
     1
102
RTVSPost2010Prop44ColorIndex
 90
        5
102
RTVSPost2010Prop44ColorRGB
 90
      255
102
RTVSPost2010PropOp44
 70
     1
102
RTVSPost2010Prop45
280
     0
102
RTVSPost2010PropOp45
 70
     1
102
RTVSPost2010Prop46
 90
       50
102
RTVSPost2010PropOp46
 70
     1
102
RTVSPost2010Prop47
 90
       50
102
RTVSPost2010PropOp47
 70
     1
102
RTVSPost2010Prop48
 90
       50
102
RTVSPost2010PropOp48
 70
     1
102
RTVSPost2010Prop49
280
     0
102
RTVSPost2010PropOp49
 70
     1
102
RTVSPost2010Prop50
 90
       50
102
RTVSPost2010PropOp50
 70
     1
102
RTVSPost2010Prop51ColorIndex
 90
      256
102
RTVSPost2010Prop51ColorRGB
 90
-16777216
102
RTVSPost2010PropOp51
 70
     0
102
RTVSPost2010Prop52
140
1.0
102
RTVSPost2010PropOp52
 70
     0
102
RTVSPost2010Prop53
 90
        2
102
RTVSPost2010PropOp53
 70
     1
102
RTVSPost2010Prop54
  1
strokes_ogs.tif
102
RTVSPost2010PropOp54
 70
     1
102
RTVSPost2010Prop55
280
     0
102
RTVSPost2010PropOp55
 70
     1
102
RTVSPost2010Prop56
140
1.0
102
RTVSPost2010PropOp56
 70
     1
102
RTVSPost2010Prop57
140
1.0
102
RTVSPost2010PropOp57
 70
     1
102
RTVSPropertyOp0
 70
     1
102
RTVSPropertyOp1
 70
     1
102
RTVSPropertyOp2
 70
     1
102
RTVSPropertyOp3
 70
     1
102
RTVSPropertyOp4
 70
     1
102
RTVSPropertyOp5
 70
     1
102
RTVSPropertyOp6
 70
     1
102
RTVSPropertyOp7
 70
     1
102
RTVSPropertyOp8
 70
     1
102
RTVSPropertyOp9
 70
     1
102
RTVSPropertyOp10
 70
     1
102
RTVSPropertyOp11
 70
     1
102
RTVSPropertyOp12
 70
     1
102
RTVSPropertyOp13
 70
     1
102
RTVSPropertyOp14
 70
     1
102
RTVSPropertyOp15
 70
     1
102
RTVSPropertyOp16
 70
     1
102
RTVSPropertyOp17
 70
     1
102
RTVSPropertyOp18
 70
     1
102
RTVSPropertyOp19
 70
     1
102
RTVSPropertyOp20
 70
     1
102
RTVSPropertyOp21
 70
     1
102
RTVSPropertyOp22
 70
     1
102
RTVSPropertyOp23
 70
     1
102
RTVSPropertyOp24
 70
     1
102
RTVSPropertyOp25
 70
     1
102
RTVSPropertyOp26
 70
     1
102
RTVSPropertyOp27
 70
     1
102
RTVSPropertyOp28
 70
     1
102
RTVSPropertyOp29
 70
     1
102
RTVSPropertyOp30
 70
     1
102
RTVSPropertyOp31
 70
     1
102
RTVSPropertyOp32
 70
     1
102
RTVSPropertyOp33
 70
     1
102
RTVSPropertyOp34
 70
     1
102
RTVSPropertyOp35
 70
     1
102
RTVSPropertyOp36
 70
     1
102
RTVSPropertyOp37
 70
     1
102
RTVSPropertyOp38
 70
     1
102
RTVSPropertyOp39
 70
     1
102
RTVSPropertyOp40
 70
     1
102
RTVSPropertyOp41
 70
     1
102
RTVSPropertyOp42
 70
     1
102
RTVSPropertyOp43
 70
     1
102
RTVSPropertyOp44
 70
     1
102
RTVSPropertyOp45
 70
     1
102
RTVSPropertyOp46
 70
     1
102
RTVSPropertyOp47
 70
     1
102
RTVSPropertyOp48
 70
     1
102
RTVSPropertyOp49
 70
     1
102
RTVSPropertyOp50
 70
     1
102
RTVSPropertyOp51
 70
     0
102
RTVSPropertyOp52
 70
     0
102
RTVSPropertyOp53
 70
     1
102
RTVSPropertyOp54
 70
     1
102
RTVSPropertyOp55
 70
     1
102
RTVSPropertyOp56
 70
     1
102
RTVSPropertyOp57
 70
     1
102
RTVSPropertyOp58
 70
     1
102
RTVSPropertyOp59
 70
     1
102
RTVSPropertyOp60
 70
     1
102
RTVSPropertyOp61
 70
     1
102
RTVSPropertyOp62
 70
     1
  0
XRECORD
  5
293D
102
{ACAD_REACTORS
330
293C
102
}
330
293C
100
AcDbXrecord
280
     1
102
RTVSPost2010Prop28
280
     0
102
RTVSPost2010PropOp28
 70
     1
102
RTVSPost2010Prop29
280
     1
102
RTVSPost2010PropOp29
 70
     1
102
RTVSPost2010Prop30
280
     1
102
RTVSPost2010PropOp30
 70
     1
102
RTVSPost2010Prop31
280
     0
102
RTVSPost2010PropOp31
 70
     1
102
RTVSPost2010Prop32
280
     0
102
RTVSPost2010PropOp32
 70
     1
102
RTVSPost2010Prop33
280
     0
102
RTVSPost2010PropOp33
 70
     1
102
RTVSPost2010Prop34
280
     0
102
RTVSPost2010PropOp34
 70
     1
102
RTVSPost2010Prop35
280
     0
102
RTVSPost2010PropOp35
 70
     1
102
RTVSPost2010Prop36
280
     0
102
RTVSPost2010PropOp36
 70
     1
102
RTVSPost2010Prop37
 90
       50
102
RTVSPost2010PropOp37
 70
     1
102
RTVSPost2010Prop38
140
0.0
102
RTVSPost2010PropOp38
 70
     1
102
RTVSPost2010Prop39
140
1.0
102
RTVSPost2010PropOp39
 70
     1
102
RTVSPost2010Prop40
 90
        0
102
RTVSPost2010PropOp40
 70
     1
102
RTVSPost2010Prop41ColorIndex
 90
       18
102
RTVSPost2010Prop41ColorRGB
 90
        0
102
RTVSPost2010PropOp41
 70
     1
102
RTVSPost2010Prop42
 90
       50
102
RTVSPost2010PropOp42
 70
     1
102
RTVSPost2010Prop43
 90
        3
102
RTVSPost2010PropOp43
 70
     1
102
RTVSPost2010Prop44ColorIndex
 90
        5
102
RTVSPost2010Prop44ColorRGB
 90
      255
102
RTVSPost2010PropOp44
 70
     1
102
RTVSPost2010Prop45
280
     0
102
RTVSPost2010PropOp45
 70
     1
102
RTVSPost2010Prop46
 90
       50
102
RTVSPost2010PropOp46
 70
     1
102
RTVSPost2010Prop47
 90
       50
102
RTVSPost2010PropOp47
 70
     1
102
RTVSPost2010Prop48
 90
       50
102
RTVSPost2010PropOp48
 70
     1
102
RTVSPost2010Prop49
280
     0
102
RTVSPost2010PropOp49
 70
     1
102
RTVSPost2010Prop50
 90
       50
102
RTVSPost2010PropOp50
 70
     1
102
RTVSPost2010Prop51ColorIndex
 90
      256
102
RTVSPost2010Prop51ColorRGB
 90
-16777216
102
RTVSPost2010PropOp51
 70
     0
102
RTVSPost2010Prop52
140
1.0
102
RTVSPost2010PropOp52
 70
     0
102
RTVSPost2010Prop53
 90
        2
102
RTVSPost2010PropOp53
 70
     1
102
RTVSPost2010Prop54
  1
strokes_ogs.tif
102
RTVSPost2010PropOp54
 70
     1
102
RTVSPost2010Prop55
280
     0
102
RTVSPost2010PropOp55
 70
     1
102
RTVSPost2010Prop56
140
1.0
102
RTVSPost2010PropOp56
 70
     1
102
RTVSPost2010Prop57
140
1.0
102
RTVSPost2010PropOp57
 70
     1
102
RTVSPropertyOp0
 70
     1
102
RTVSPropertyOp1
 70
     1
102
RTVSPropertyOp2
 70
     1
102
RTVSPropertyOp3
 70
     1
102
RTVSPropertyOp4
 70
     1
102
RTVSPropertyOp5
 70
     1
102
RTVSPropertyOp6
 70
     1
102
RTVSPropertyOp7
 70
     1
102
RTVSPropertyOp8
 70
     1
102
RTVSPropertyOp9
 70
     1
102
RTVSPropertyOp10
 70
     1
102
RTVSPropertyOp11
 70
     1
102
RTVSPropertyOp12
 70
     1
102
RTVSPropertyOp13
 70
     1
102
RTVSPropertyOp14
 70
     1
102
RTVSPropertyOp15
 70
     1
102
RTVSPropertyOp16
 70
     1
102
RTVSPropertyOp17
 70
     1
102
RTVSPropertyOp18
 70
     1
102
RTVSPropertyOp19
 70
     1
102
RTVSPropertyOp20
 70
     1
102
RTVSPropertyOp21
 70
     1
102
RTVSPropertyOp22
 70
     1
102
RTVSPropertyOp23
 70
     1
102
RTVSPropertyOp24
 70
     1
102
RTVSPropertyOp25
 70
     1
102
RTVSPropertyOp26
 70
     1
102
RTVSPropertyOp27
 70
     1
102
RTVSPropertyOp28
 70
     1
102
RTVSPropertyOp29
 70
     1
102
RTVSPropertyOp30
 70
     1
102
RTVSPropertyOp31
 70
     1
102
RTVSPropertyOp32
 70
     1
102
RTVSPropertyOp33
 70
     1
102
RTVSPropertyOp34
 70
     1
102
RTVSPropertyOp35
 70
     1
102
RTVSPropertyOp36
 70
     1
102
RTVSPropertyOp37
 70
     1
102
RTVSPropertyOp38
 70
     1
102
RTVSPropertyOp39
 70
     1
102
RTVSPropertyOp40
 70
     1
102
RTVSPropertyOp41
 70
     1
102
RTVSPropertyOp42
 70
     1
102
RTVSPropertyOp43
 70
     1
102
RTVSPropertyOp44
 70
     1
102
RTVSPropertyOp45
 70
     1
102
RTVSPropertyOp46
 70
     1
102
RTVSPropertyOp47
 70
     1
102
RTVSPropertyOp48
 70
     1
102
RTVSPropertyOp49
 70
     1
102
RTVSPropertyOp50
 70
     1
102
RTVSPropertyOp51
 70
     0
102
RTVSPropertyOp52
 70
     0
102
RTVSPropertyOp53
 70
     1
102
RTVSPropertyOp54
 70
     1
102
RTVSPropertyOp55
 70
     1
102
RTVSPropertyOp56
 70
     1
102
RTVSPropertyOp57
 70
     1
102
RTVSPropertyOp58
 70
     1
102
RTVSPropertyOp59
 70
     1
102
RTVSPropertyOp60
 70
     1
102
RTVSPropertyOp61
 70
     1
102
RTVSPropertyOp62
 70
     1
  0
XRECORD
  5
2941
102
{ACAD_REACTORS
330
2940
102
}
330
2940
100
AcDbXrecord
280
     1
102
RTVSPost2010Prop28
280
     0
102
RTVSPost2010PropOp28
 70
     1
102
RTVSPost2010Prop29
280
     1
102
RTVSPost2010PropOp29
 70
     1
102
RTVSPost2010Prop30
280
     1
102
RTVSPost2010PropOp30
 70
     1
102
RTVSPost2010Prop31
280
     0
102
RTVSPost2010PropOp31
 70
     1
102
RTVSPost2010Prop32
280
     0
102
RTVSPost2010PropOp32
 70
     1
102
RTVSPost2010Prop33
280
     0
102
RTVSPost2010PropOp33
 70
     1
102
RTVSPost2010Prop34
280
     0
102
RTVSPost2010PropOp34
 70
     1
102
RTVSPost2010Prop35
280
     0
102
RTVSPost2010PropOp35
 70
     1
102
RTVSPost2010Prop36
280
     0
102
RTVSPost2010PropOp36
 70
     1
102
RTVSPost2010Prop37
 90
       50
102
RTVSPost2010PropOp37
 70
     1
102
RTVSPost2010Prop38
140
0.0
102
RTVSPost2010PropOp38
 70
     1
102
RTVSPost2010Prop39
140
1.0
102
RTVSPost2010PropOp39
 70
     1
102
RTVSPost2010Prop40
 90
        0
102
RTVSPost2010PropOp40
 70
     1
102
RTVSPost2010Prop41ColorIndex
 90
       18
102
RTVSPost2010Prop41ColorRGB
 90
        0
102
RTVSPost2010PropOp41
 70
     1
102
RTVSPost2010Prop42
 90
       50
102
RTVSPost2010PropOp42
 70
     1
102
RTVSPost2010Prop43
 90
        3
102
RTVSPost2010PropOp43
 70
     1
102
RTVSPost2010Prop44ColorIndex
 90
        5
102
RTVSPost2010Prop44ColorRGB
 90
      255
102
RTVSPost2010PropOp44
 70
     1
102
RTVSPost2010Prop45
280
     0
102
RTVSPost2010PropOp45
 70
     1
102
RTVSPost2010Prop46
 90
       50
102
RTVSPost2010PropOp46
 70
     1
102
RTVSPost2010Prop47
 90
       50
102
RTVSPost2010PropOp47
 70
     1
102
RTVSPost2010Prop48
 90
       50
102
RTVSPost2010PropOp48
 70
     1
102
RTVSPost2010Prop49
280
     0
102
RTVSPost2010PropOp49
 70
     1
102
RTVSPost2010Prop50
 90
       50
102
RTVSPost2010PropOp50
 70
     1
102
RTVSPost2010Prop51ColorIndex
 90
      256
102
RTVSPost2010Prop51ColorRGB
 90
-16777216
102
RTVSPost2010PropOp51
 70
     0
102
RTVSPost2010Prop52
140
1.0
102
RTVSPost2010PropOp52
 70
     0
102
RTVSPost2010Prop53
 90
        2
102
RTVSPost2010PropOp53
 70
     1
102
RTVSPost2010Prop54
  1
strokes_ogs.tif
102
RTVSPost2010PropOp54
 70
     1
102
RTVSPost2010Prop55
280
     0
102
RTVSPost2010PropOp55
 70
     1
102
RTVSPost2010Prop56
140
1.0
102
RTVSPost2010PropOp56
 70
     1
102
RTVSPost2010Prop57
140
1.0
102
RTVSPost2010PropOp57
 70
     1
102
RTVSPropertyOp0
 70
     1
102
RTVSPropertyOp1
 70
     1
102
RTVSPropertyOp2
 70
     1
102
RTVSPropertyOp3
 70
     1
102
RTVSPropertyOp4
 70
     1
102
RTVSPropertyOp5
 70
     1
102
RTVSPropertyOp6
 70
     1
102
RTVSPropertyOp7
 70
     1
102
RTVSPropertyOp8
 70
     1
102
RTVSPropertyOp9
 70
     1
102
RTVSPropertyOp10
 70
     1
102
RTVSPropertyOp11
 70
     1
102
RTVSPropertyOp12
 70
     1
102
RTVSPropertyOp13
 70
     1
102
RTVSPropertyOp14
 70
     1
102
RTVSPropertyOp15
 70
     1
102
RTVSPropertyOp16
 70
     1
102
RTVSPropertyOp17
 70
     1
102
RTVSPropertyOp18
 70
     1
102
RTVSPropertyOp19
 70
     1
102
RTVSPropertyOp20
 70
     1
102
RTVSPropertyOp21
 70
     1
102
RTVSPropertyOp22
 70
     1
102
RTVSPropertyOp23
 70
     1
102
RTVSPropertyOp24
 70
     1
102
RTVSPropertyOp25
 70
     1
102
RTVSPropertyOp26
 70
     1
102
RTVSPropertyOp27
 70
     1
102
RTVSPropertyOp28
 70
     1
102
RTVSPropertyOp29
 70
     1
102
RTVSPropertyOp30
 70
     1
102
RTVSPropertyOp31
 70
     1
102
RTVSPropertyOp32
 70
     1
102
RTVSPropertyOp33
 70
     1
102
RTVSPropertyOp34
 70
     1
102
RTVSPropertyOp35
 70
     1
102
RTVSPropertyOp36
 70
     1
102
RTVSPropertyOp37
 70
     1
102
RTVSPropertyOp38
 70
     1
102
RTVSPropertyOp39
 70
     1
102
RTVSPropertyOp40
 70
     1
102
RTVSPropertyOp41
 70
     1
102
RTVSPropertyOp42
 70
     1
102
RTVSPropertyOp43
 70
     1
102
RTVSPropertyOp44
 70
     1
102
RTVSPropertyOp45
 70
     1
102
RTVSPropertyOp46
 70
     1
102
RTVSPropertyOp47
 70
     1
102
RTVSPropertyOp48
 70
     1
102
RTVSPropertyOp49
 70
     1
102
RTVSPropertyOp50
 70
     1
102
RTVSPropertyOp51
 70
     0
102
RTVSPropertyOp52
 70
     0
102
RTVSPropertyOp53
 70
     1
102
RTVSPropertyOp54
 70
     1
102
RTVSPropertyOp55
 70
     1
102
RTVSPropertyOp56
 70
     1
102
RTVSPropertyOp57
 70
     1
102
RTVSPropertyOp58
 70
     1
102
RTVSPropertyOp59
 70
     1
102
RTVSPropertyOp60
 70
     1
102
RTVSPropertyOp61
 70
     1
102
RTVSPropertyOp62
 70
     1
  0
XRECORD
  5
2953
102
{ACAD_REACTORS
330
2952
102
}
330
2952
100
AcDbXrecord
280
     1
102
RTVSPost2010Prop28
280
     0
102
RTVSPost2010PropOp28
 70
     1
102
RTVSPost2010Prop29
280
     1
102
RTVSPost2010PropOp29
 70
     1
102
RTVSPost2010Prop30
280
     1
102
RTVSPost2010PropOp30
 70
     1
102
RTVSPost2010Prop31
280
     0
102
RTVSPost2010PropOp31
 70
     1
102
RTVSPost2010Prop32
280
     0
102
RTVSPost2010PropOp32
 70
     1
102
RTVSPost2010Prop33
280
     0
102
RTVSPost2010PropOp33
 70
     1
102
RTVSPost2010Prop34
280
     0
102
RTVSPost2010PropOp34
 70
     1
102
RTVSPost2010Prop35
280
     0
102
RTVSPost2010PropOp35
 70
     1
102
RTVSPost2010Prop36
280
     0
102
RTVSPost2010PropOp36
 70
     1
102
RTVSPost2010Prop37
 90
       50
102
RTVSPost2010PropOp37
 70
     1
102
RTVSPost2010Prop38
140
0.0
102
RTVSPost2010PropOp38
 70
     1
102
RTVSPost2010Prop39
140
1.0
102
RTVSPost2010PropOp39
 70
     1
102
RTVSPost2010Prop40
 90
        0
102
RTVSPost2010PropOp40
 70
     1
102
RTVSPost2010Prop41ColorIndex
 90
       18
102
RTVSPost2010Prop41ColorRGB
 90
        0
102
RTVSPost2010PropOp41
 70
     1
102
RTVSPost2010Prop42
 90
       50
102
RTVSPost2010PropOp42
 70
     1
102
RTVSPost2010Prop43
 90
        3
102
RTVSPost2010PropOp43
 70
     1
102
RTVSPost2010Prop44ColorIndex
 90
        5
102
RTVSPost2010Prop44ColorRGB
 90
      255
102
RTVSPost2010PropOp44
 70
     1
102
RTVSPost2010Prop45
280
     0
102
RTVSPost2010PropOp45
 70
     1
102
RTVSPost2010Prop46
 90
       50
102
RTVSPost2010PropOp46
 70
     1
102
RTVSPost2010Prop47
 90
       50
102
RTVSPost2010PropOp47
 70
     1
102
RTVSPost2010Prop48
 90
       50
102
RTVSPost2010PropOp48
 70
     1
102
RTVSPost2010Prop49
280
     0
102
RTVSPost2010PropOp49
 70
     1
102
RTVSPost2010Prop50
 90
       50
102
RTVSPost2010PropOp50
 70
     1
102
RTVSPost2010Prop51ColorIndex
 90
      256
102
RTVSPost2010Prop51ColorRGB
 90
-16777216
102
RTVSPost2010PropOp51
 70
     0
102
RTVSPost2010Prop52
140
1.0
102
RTVSPost2010PropOp52
 70
     0
102
RTVSPost2010Prop53
 90
        2
102
RTVSPost2010PropOp53
 70
     1
102
RTVSPost2010Prop54
  1
strokes_ogs.tif
102
RTVSPost2010PropOp54
 70
     1
102
RTVSPost2010Prop55
280
     0
102
RTVSPost2010PropOp55
 70
     1
102
RTVSPost2010Prop56
140
1.0
102
RTVSPost2010PropOp56
 70
     1
102
RTVSPost2010Prop57
140
1.0
102
RTVSPost2010PropOp57
 70
     1
102
RTVSPropertyOp0
 70
     0
102
RTVSPropertyOp1
 70
     0
102
RTVSPropertyOp2
 70
     0
102
RTVSPropertyOp3
 70
     0
102
RTVSPropertyOp4
 70
     0
102
RTVSPropertyOp5
 70
     0
102
RTVSPropertyOp6
 70
     0
102
RTVSPropertyOp7
 70
     0
102
RTVSPropertyOp8
 70
     0
102
RTVSPropertyOp9
 70
     0
102
RTVSPropertyOp10
 70
     0
102
RTVSPropertyOp11
 70
     0
102
RTVSPropertyOp12
 70
     0
102
RTVSPropertyOp13
 70
     0
102
RTVSPropertyOp14
 70
     2
102
RTVSPropertyOp15
 70
     0
102
RTVSPropertyOp16
 70
     0
102
RTVSPropertyOp17
 70
     0
102
RTVSPropertyOp18
 70
     0
102
RTVSPropertyOp19
 70
     0
102
RTVSPropertyOp20
 70
     0
102
RTVSPropertyOp21
 70
     0
102
RTVSPropertyOp22
 70
     0
102
RTVSPropertyOp23
 70
     0
102
RTVSPropertyOp24
 70
     0
102
RTVSPropertyOp25
 70
     0
102
RTVSPropertyOp26
 70
     0
102
RTVSPropertyOp27
 70
     0
102
RTVSPropertyOp28
 70
     1
102
RTVSPropertyOp29
 70
     1
102
RTVSPropertyOp30
 70
     1
102
RTVSPropertyOp31
 70
     1
102
RTVSPropertyOp32
 70
     1
102
RTVSPropertyOp33
 70
     1
102
RTVSPropertyOp34
 70
     1
102
RTVSPropertyOp35
 70
     1
102
RTVSPropertyOp36
 70
     1
102
RTVSPropertyOp37
 70
     1
102
RTVSPropertyOp38
 70
     1
102
RTVSPropertyOp39
 70
     1
102
RTVSPropertyOp40
 70
     1
102
RTVSPropertyOp41
 70
     1
102
RTVSPropertyOp42
 70
     1
102
RTVSPropertyOp43
 70
     1
102
RTVSPropertyOp44
 70
     1
102
RTVSPropertyOp45
 70
     1
102
RTVSPropertyOp46
 70
     1
102
RTVSPropertyOp47
 70
     1
102
RTVSPropertyOp48
 70
     1
102
RTVSPropertyOp49
 70
     1
102
RTVSPropertyOp50
 70
     1
102
RTVSPropertyOp51
 70
     0
102
RTVSPropertyOp52
 70
     0
102
RTVSPropertyOp53
 70
     1
102
RTVSPropertyOp54
 70
     1
102
RTVSPropertyOp55
 70
     1
102
RTVSPropertyOp56
 70
     1
102
RTVSPropertyOp57
 70
     1
102
RTVSPropertyOp58
 70
     1
102
RTVSPropertyOp59
 70
     1
102
RTVSPropertyOp60
 70
     1
102
RTVSPropertyOp61
 70
     1
102
RTVSPropertyOp62
 70
     1
  0
XRECORD
  5
2949
102
{ACAD_REACTORS
330
2948
102
}
330
2948
100
AcDbXrecord
280
     1
102
RTVSPost2010Prop28
280
     0
102
RTVSPost2010PropOp28
 70
     1
102
RTVSPost2010Prop29
280
     1
102
RTVSPost2010PropOp29
 70
     1
102
RTVSPost2010Prop30
280
     1
102
RTVSPost2010PropOp30
 70
     1
102
RTVSPost2010Prop31
280
     0
102
RTVSPost2010PropOp31
 70
     1
102
RTVSPost2010Prop32
280
     0
102
RTVSPost2010PropOp32
 70
     1
102
RTVSPost2010Prop33
280
     0
102
RTVSPost2010PropOp33
 70
     1
102
RTVSPost2010Prop34
280
     0
102
RTVSPost2010PropOp34
 70
     1
102
RTVSPost2010Prop35
280
     0
102
RTVSPost2010PropOp35
 70
     1
102
RTVSPost2010Prop36
280
     0
102
RTVSPost2010PropOp36
 70
     1
102
RTVSPost2010Prop37
 90
       50
102
RTVSPost2010PropOp37
 70
     1
102
RTVSPost2010Prop38
140
0.0
102
RTVSPost2010PropOp38
 70
     1
102
RTVSPost2010Prop39
140
1.0
102
RTVSPost2010PropOp39
 70
     1
102
RTVSPost2010Prop40
 90
        0
102
RTVSPost2010PropOp40
 70
     1
102
RTVSPost2010Prop41ColorIndex
 90
       18
102
RTVSPost2010Prop41ColorRGB
 90
        0
102
RTVSPost2010PropOp41
 70
     1
102
RTVSPost2010Prop42
 90
       50
102
RTVSPost2010PropOp42
 70
     1
102
RTVSPost2010Prop43
 90
        3
102
RTVSPost2010PropOp43
 70
     1
102
RTVSPost2010Prop44ColorIndex
 90
        5
102
RTVSPost2010Prop44ColorRGB
 90
      255
102
RTVSPost2010PropOp44
 70
     1
102
RTVSPost2010Prop45
280
     0
102
RTVSPost2010PropOp45
 70
     1
102
RTVSPost2010Prop46
 90
       50
102
RTVSPost2010PropOp46
 70
     1
102
RTVSPost2010Prop47
 90
       50
102
RTVSPost2010PropOp47
 70
     1
102
RTVSPost2010Prop48
 90
       50
102
RTVSPost2010PropOp48
 70
     1
102
RTVSPost2010Prop49
280
     0
102
RTVSPost2010PropOp49
 70
     1
102
RTVSPost2010Prop50
 90
       50
102
RTVSPost2010PropOp50
 70
     1
102
RTVSPost2010Prop51ColorIndex
 90
      256
102
RTVSPost2010Prop51ColorRGB
 90
-16777216
102
RTVSPost2010PropOp51
 70
     0
102
RTVSPost2010Prop52
140
1.0
102
RTVSPost2010PropOp52
 70
     0
102
RTVSPost2010Prop53
 90
        2
102
RTVSPost2010PropOp53
 70
     1
102
RTVSPost2010Prop54
  1
strokes_ogs.tif
102
RTVSPost2010PropOp54
 70
     1
102
RTVSPost2010Prop55
280
     0
102
RTVSPost2010PropOp55
 70
     1
102
RTVSPost2010Prop56
140
1.0
102
RTVSPost2010PropOp56
 70
     1
102
RTVSPost2010Prop57
140
1.0
102
RTVSPost2010PropOp57
 70
     1
102
RTVSPropertyOp0
 70
     1
102
RTVSPropertyOp1
 70
     1
102
RTVSPropertyOp2
 70
     1
102
RTVSPropertyOp3
 70
     1
102
RTVSPropertyOp4
 70
     1
102
RTVSPropertyOp5
 70
     1
102
RTVSPropertyOp6
 70
     1
102
RTVSPropertyOp7
 70
     1
102
RTVSPropertyOp8
 70
     1
102
RTVSPropertyOp9
 70
     1
102
RTVSPropertyOp10
 70
     1
102
RTVSPropertyOp11
 70
     1
102
RTVSPropertyOp12
 70
     1
102
RTVSPropertyOp13
 70
     1
102
RTVSPropertyOp14
 70
     1
102
RTVSPropertyOp15
 70
     1
102
RTVSPropertyOp16
 70
     1
102
RTVSPropertyOp17
 70
     1
102
RTVSPropertyOp18
 70
     1
102
RTVSPropertyOp19
 70
     1
102
RTVSPropertyOp20
 70
     1
102
RTVSPropertyOp21
 70
     1
102
RTVSPropertyOp22
 70
     1
102
RTVSPropertyOp23
 70
     1
102
RTVSPropertyOp24
 70
     1
102
RTVSPropertyOp25
 70
     1
102
RTVSPropertyOp26
 70
     1
102
RTVSPropertyOp27
 70
     1
102
RTVSPropertyOp28
 70
     1
102
RTVSPropertyOp29
 70
     1
102
RTVSPropertyOp30
 70
     1
102
RTVSPropertyOp31
 70
     1
102
RTVSPropertyOp32
 70
     1
102
RTVSPropertyOp33
 70
     1
102
RTVSPropertyOp34
 70
     1
102
RTVSPropertyOp35
 70
     1
102
RTVSPropertyOp36
 70
     1
102
RTVSPropertyOp37
 70
     1
102
RTVSPropertyOp38
 70
     1
102
RTVSPropertyOp39
 70
     1
102
RTVSPropertyOp40
 70
     1
102
RTVSPropertyOp41
 70
     1
102
RTVSPropertyOp42
 70
     1
102
RTVSPropertyOp43
 70
     1
102
RTVSPropertyOp44
 70
     1
102
RTVSPropertyOp45
 70
     1
102
RTVSPropertyOp46
 70
     1
102
RTVSPropertyOp47
 70
     1
102
RTVSPropertyOp48
 70
     1
102
RTVSPropertyOp49
 70
     1
102
RTVSPropertyOp50
 70
     1
102
RTVSPropertyOp51
 70
     0
102
RTVSPropertyOp52
 70
     0
102
RTVSPropertyOp53
 70
     1
102
RTVSPropertyOp54
 70
     1
102
RTVSPropertyOp55
 70
     1
102
RTVSPropertyOp56
 70
     1
102
RTVSPropertyOp57
 70
     1
102
RTVSPropertyOp58
 70
     1
102
RTVSPropertyOp59
 70
     1
102
RTVSPropertyOp60
 70
     1
102
RTVSPropertyOp61
 70
     1
102
RTVSPropertyOp62
 70
     1
  0
XRECORD
  5
292D
102
{ACAD_REACTORS
330
292C
102
}
330
292C
100
AcDbXrecord
280
     1
102
RTVSPost2010Prop28
280
     0
102
RTVSPost2010PropOp28
 70
     1
102
RTVSPost2010Prop29
280
     1
102
RTVSPost2010PropOp29
 70
     1
102
RTVSPost2010Prop30
280
     1
102
RTVSPost2010PropOp30
 70
     1
102
RTVSPost2010Prop31
280
     0
102
RTVSPost2010PropOp31
 70
     1
102
RTVSPost2010Prop32
280
     0
102
RTVSPost2010PropOp32
 70
     1
102
RTVSPost2010Prop33
280
     0
102
RTVSPost2010PropOp33
 70
     1
102
RTVSPost2010Prop34
280
     0
102
RTVSPost2010PropOp34
 70
     1
102
RTVSPost2010Prop35
280
     0
102
RTVSPost2010PropOp35
 70
     1
102
RTVSPost2010Prop36
280
     0
102
RTVSPost2010PropOp36
 70
     1
102
RTVSPost2010Prop37
 90
       50
102
RTVSPost2010PropOp37
 70
     1
102
RTVSPost2010Prop38
140
0.0
102
RTVSPost2010PropOp38
 70
     1
102
RTVSPost2010Prop39
140
1.0
102
RTVSPost2010PropOp39
 70
     1
102
RTVSPost2010Prop40
 90
        0
102
RTVSPost2010PropOp40
 70
     1
102
RTVSPost2010Prop41ColorIndex
 90
       18
102
RTVSPost2010Prop41ColorRGB
 90
        0
102
RTVSPost2010PropOp41
 70
     1
102
RTVSPost2010Prop42
 90
       50
102
RTVSPost2010PropOp42
 70
     1
102
RTVSPost2010Prop43
 90
        3
102
RTVSPost2010PropOp43
 70
     1
102
RTVSPost2010Prop44ColorIndex
 90
        5
102
RTVSPost2010Prop44ColorRGB
 90
      255
102
RTVSPost2010PropOp44
 70
     1
102
RTVSPost2010Prop45
280
     0
102
RTVSPost2010PropOp45
 70
     1
102
RTVSPost2010Prop46
 90
       50
102
RTVSPost2010PropOp46
 70
     1
102
RTVSPost2010Prop47
 90
       50
102
RTVSPost2010PropOp47
 70
     1
102
RTVSPost2010Prop48
 90
       50
102
RTVSPost2010PropOp48
 70
     1
102
RTVSPost2010Prop49
280
     0
102
RTVSPost2010PropOp49
 70
     1
102
RTVSPost2010Prop50
 90
       50
102
RTVSPost2010PropOp50
 70
     1
102
RTVSPost2010Prop51ColorIndex
 90
      256
102
RTVSPost2010Prop51ColorRGB
 90
-16777216
102
RTVSPost2010PropOp51
 70
     0
102
RTVSPost2010Prop52
140
1.0
102
RTVSPost2010PropOp52
 70
     0
102
RTVSPost2010Prop53
 90
        2
102
RTVSPost2010PropOp53
 70
     1
102
RTVSPost2010Prop54
  1
strokes_ogs.tif
102
RTVSPost2010PropOp54
 70
     1
102
RTVSPost2010Prop55
280
     0
102
RTVSPost2010PropOp55
 70
     1
102
RTVSPost2010Prop56
140
1.0
102
RTVSPost2010PropOp56
 70
     1
102
RTVSPost2010Prop57
140
1.0
102
RTVSPost2010PropOp57
 70
     1
102
RTVSPropertyOp0
 70
     1
102
RTVSPropertyOp1
 70
     1
102
RTVSPropertyOp2
 70
     1
102
RTVSPropertyOp3
 70
     1
102
RTVSPropertyOp4
 70
     1
102
RTVSPropertyOp5
 70
     1
102
RTVSPropertyOp6
 70
     1
102
RTVSPropertyOp7
 70
     1
102
RTVSPropertyOp8
 70
     1
102
RTVSPropertyOp9
 70
     1
102
RTVSPropertyOp10
 70
     1
102
RTVSPropertyOp11
 70
     1
102
RTVSPropertyOp12
 70
     1
102
RTVSPropertyOp13
 70
     1
102
RTVSPropertyOp14
 70
     1
102
RTVSPropertyOp15
 70
     1
102
RTVSPropertyOp16
 70
     1
102
RTVSPropertyOp17
 70
     1
102
RTVSPropertyOp18
 70
     1
102
RTVSPropertyOp19
 70
     1
102
RTVSPropertyOp20
 70
     1
102
RTVSPropertyOp21
 70
     1
102
RTVSPropertyOp22
 70
     1
102
RTVSPropertyOp23
 70
     1
102
RTVSPropertyOp24
 70
     1
102
RTVSPropertyOp25
 70
     1
102
RTVSPropertyOp26
 70
     1
102
RTVSPropertyOp27
 70
     1
102
RTVSPropertyOp28
 70
     1
102
RTVSPropertyOp29
 70
     1
102
RTVSPropertyOp30
 70
     1
102
RTVSPropertyOp31
 70
     1
102
RTVSPropertyOp32
 70
     1
102
RTVSPropertyOp33
 70
     1
102
RTVSPropertyOp34
 70
     1
102
RTVSPropertyOp35
 70
     1
102
RTVSPropertyOp36
 70
     1
102
RTVSPropertyOp37
 70
     1
102
RTVSPropertyOp38
 70
     1
102
RTVSPropertyOp39
 70
     1
102
RTVSPropertyOp40
 70
     1
102
RTVSPropertyOp41
 70
     1
102
RTVSPropertyOp42
 70
     1
102
RTVSPropertyOp43
 70
     1
102
RTVSPropertyOp44
 70
     1
102
RTVSPropertyOp45
 70
     1
102
RTVSPropertyOp46
 70
     1
102
RTVSPropertyOp47
 70
     1
102
RTVSPropertyOp48
 70
     1
102
RTVSPropertyOp49
 70
     1
102
RTVSPropertyOp50
 70
     1
102
RTVSPropertyOp51
 70
     0
102
RTVSPropertyOp52
 70
     0
102
RTVSPropertyOp53
 70
     1
102
RTVSPropertyOp54
 70
     1
102
RTVSPropertyOp55
 70
     1
102
RTVSPropertyOp56
 70
     1
102
RTVSPropertyOp57
 70
     1
102
RTVSPropertyOp58
 70
     1
102
RTVSPropertyOp59
 70
     1
102
RTVSPropertyOp60
 70
     1
102
RTVSPropertyOp61
 70
     1
102
RTVSPropertyOp62
 70
     1
  0
XRECORD
  5
292F
102
{ACAD_REACTORS
330
292E
102
}
330
292E
100
AcDbXrecord
280
     1
102
RTVSPost2010Prop28
280
     0
102
RTVSPost2010PropOp28
 70
     1
102
RTVSPost2010Prop29
280
     1
102
RTVSPost2010PropOp29
 70
     1
102
RTVSPost2010Prop30
280
     1
102
RTVSPost2010PropOp30
 70
     1
102
RTVSPost2010Prop31
280
     0
102
RTVSPost2010PropOp31
 70
     1
102
RTVSPost2010Prop32
280
     0
102
RTVSPost2010PropOp32
 70
     1
102
RTVSPost2010Prop33
280
     0
102
RTVSPost2010PropOp33
 70
     1
102
RTVSPost2010Prop34
280
     0
102
RTVSPost2010PropOp34
 70
     1
102
RTVSPost2010Prop35
280
     0
102
RTVSPost2010PropOp35
 70
     1
102
RTVSPost2010Prop36
280
     0
102
RTVSPost2010PropOp36
 70
     1
102
RTVSPost2010Prop37
 90
       50
102
RTVSPost2010PropOp37
 70
     1
102
RTVSPost2010Prop38
140
0.0
102
RTVSPost2010PropOp38
 70
     1
102
RTVSPost2010Prop39
140
1.0
102
RTVSPost2010PropOp39
 70
     1
102
RTVSPost2010Prop40
 90
        0
102
RTVSPost2010PropOp40
 70
     1
102
RTVSPost2010Prop41ColorIndex
 90
       18
102
RTVSPost2010Prop41ColorRGB
 90
        0
102
RTVSPost2010PropOp41
 70
     1
102
RTVSPost2010Prop42
 90
       50
102
RTVSPost2010PropOp42
 70
     1
102
RTVSPost2010Prop43
 90
        3
102
RTVSPost2010PropOp43
 70
     1
102
RTVSPost2010Prop44ColorIndex
 90
        5
102
RTVSPost2010Prop44ColorRGB
 90
      255
102
RTVSPost2010PropOp44
 70
     1
102
RTVSPost2010Prop45
280
     0
102
RTVSPost2010PropOp45
 70
     1
102
RTVSPost2010Prop46
 90
       50
102
RTVSPost2010PropOp46
 70
     1
102
RTVSPost2010Prop47
 90
       50
102
RTVSPost2010PropOp47
 70
     1
102
RTVSPost2010Prop48
 90
       50
102
RTVSPost2010PropOp48
 70
     1
102
RTVSPost2010Prop49
280
     0
102
RTVSPost2010PropOp49
 70
     1
102
RTVSPost2010Prop50
 90
       50
102
RTVSPost2010PropOp50
 70
     1
102
RTVSPost2010Prop51ColorIndex
 90
      256
102
RTVSPost2010Prop51ColorRGB
 90
-16777216
102
RTVSPost2010PropOp51
 70
     0
102
RTVSPost2010Prop52
140
1.0
102
RTVSPost2010PropOp52
 70
     0
102
RTVSPost2010Prop53
 90
        2
102
RTVSPost2010PropOp53
 70
     1
102
RTVSPost2010Prop54
  1
strokes_ogs.tif
102
RTVSPost2010PropOp54
 70
     1
102
RTVSPost2010Prop55
280
     0
102
RTVSPost2010PropOp55
 70
     1
102
RTVSPost2010Prop56
140
1.0
102
RTVSPost2010PropOp56
 70
     1
102
RTVSPost2010Prop57
140
1.0
102
RTVSPost2010PropOp57
 70
     1
102
RTVSPropertyOp0
 70
     1
102
RTVSPropertyOp1
 70
     1
102
RTVSPropertyOp2
 70
     1
102
RTVSPropertyOp3
 70
     1
102
RTVSPropertyOp4
 70
     1
102
RTVSPropertyOp5
 70
     1
102
RTVSPropertyOp6
 70
     1
102
RTVSPropertyOp7
 70
     1
102
RTVSPropertyOp8
 70
     1
102
RTVSPropertyOp9
 70
     1
102
RTVSPropertyOp10
 70
     1
102
RTVSPropertyOp11
 70
     1
102
RTVSPropertyOp12
 70
     1
102
RTVSPropertyOp13
 70
     1
102
RTVSPropertyOp14
 70
     1
102
RTVSPropertyOp15
 70
     1
102
RTVSPropertyOp16
 70
     1
102
RTVSPropertyOp17
 70
     1
102
RTVSPropertyOp18
 70
     1
102
RTVSPropertyOp19
 70
     1
102
RTVSPropertyOp20
 70
     1
102
RTVSPropertyOp21
 70
     1
102
RTVSPropertyOp22
 70
     1
102
RTVSPropertyOp23
 70
     1
102
RTVSPropertyOp24
 70
     1
102
RTVSPropertyOp25
 70
     1
102
RTVSPropertyOp26
 70
     1
102
RTVSPropertyOp27
 70
     1
102
RTVSPropertyOp28
 70
     1
102
RTVSPropertyOp29
 70
     1
102
RTVSPropertyOp30
 70
     1
102
RTVSPropertyOp31
 70
     1
102
RTVSPropertyOp32
 70
     1
102
RTVSPropertyOp33
 70
     1
102
RTVSPropertyOp34
 70
     1
102
RTVSPropertyOp35
 70
     1
102
RTVSPropertyOp36
 70
     1
102
RTVSPropertyOp37
 70
     1
102
RTVSPropertyOp38
 70
     1
102
RTVSPropertyOp39
 70
     1
102
RTVSPropertyOp40
 70
     1
102
RTVSPropertyOp41
 70
     1
102
RTVSPropertyOp42
 70
     1
102
RTVSPropertyOp43
 70
     1
102
RTVSPropertyOp44
 70
     1
102
RTVSPropertyOp45
 70
     1
102
RTVSPropertyOp46
 70
     1
102
RTVSPropertyOp47
 70
     1
102
RTVSPropertyOp48
 70
     1
102
RTVSPropertyOp49
 70
     1
102
RTVSPropertyOp50
 70
     1
102
RTVSPropertyOp51
 70
     0
102
RTVSPropertyOp52
 70
     0
102
RTVSPropertyOp53
 70
     1
102
RTVSPropertyOp54
 70
     1
102
RTVSPropertyOp55
 70
     1
102
RTVSPropertyOp56
 70
     1
102
RTVSPropertyOp57
 70
     1
102
RTVSPropertyOp58
 70
     1
102
RTVSPropertyOp59
 70
     1
102
RTVSPropertyOp60
 70
     1
102
RTVSPropertyOp61
 70
     1
102
RTVSPropertyOp62
 70
     1
  0
XRECORD
  5
2931
102
{ACAD_REACTORS
330
2930
102
}
330
2930
100
AcDbXrecord
280
     1
102
RTVSPost2010Prop28
280
     0
102
RTVSPost2010PropOp28
 70
     1
102
RTVSPost2010Prop29
280
     1
102
RTVSPost2010PropOp29
 70
     1
102
RTVSPost2010Prop30
280
     1
102
RTVSPost2010PropOp30
 70
     1
102
RTVSPost2010Prop31
280
     0
102
RTVSPost2010PropOp31
 70
     1
102
RTVSPost2010Prop32
280
     0
102
RTVSPost2010PropOp32
 70
     1
102
RTVSPost2010Prop33
280
     0
102
RTVSPost2010PropOp33
 70
     1
102
RTVSPost2010Prop34
280
     0
102
RTVSPost2010PropOp34
 70
     1
102
RTVSPost2010Prop35
280
     0
102
RTVSPost2010PropOp35
 70
     1
102
RTVSPost2010Prop36
280
     0
102
RTVSPost2010PropOp36
 70
     1
102
RTVSPost2010Prop37
 90
       50
102
RTVSPost2010PropOp37
 70
     1
102
RTVSPost2010Prop38
140
0.0
102
RTVSPost2010PropOp38
 70
     1
102
RTVSPost2010Prop39
140
1.0
102
RTVSPost2010PropOp39
 70
     1
102
RTVSPost2010Prop40
 90
        0
102
RTVSPost2010PropOp40
 70
     1
102
RTVSPost2010Prop41ColorIndex
 90
       18
102
RTVSPost2010Prop41ColorRGB
 90
        0
102
RTVSPost2010PropOp41
 70
     1
102
RTVSPost2010Prop42
 90
       50
102
RTVSPost2010PropOp42
 70
     1
102
RTVSPost2010Prop43
 90
        3
102
RTVSPost2010PropOp43
 70
     1
102
RTVSPost2010Prop44ColorIndex
 90
        5
102
RTVSPost2010Prop44ColorRGB
 90
      255
102
RTVSPost2010PropOp44
 70
     1
102
RTVSPost2010Prop45
280
     0
102
RTVSPost2010PropOp45
 70
     1
102
RTVSPost2010Prop46
 90
       50
102
RTVSPost2010PropOp46
 70
     1
102
RTVSPost2010Prop47
 90
       50
102
RTVSPost2010PropOp47
 70
     1
102
RTVSPost2010Prop48
 90
       50
102
RTVSPost2010PropOp48
 70
     1
102
RTVSPost2010Prop49
280
     0
102
RTVSPost2010PropOp49
 70
     1
102
RTVSPost2010Prop50
 90
       50
102
RTVSPost2010PropOp50
 70
     1
102
RTVSPost2010Prop51ColorIndex
 90
      256
102
RTVSPost2010Prop51ColorRGB
 90
-16777216
102
RTVSPost2010PropOp51
 70
     0
102
RTVSPost2010Prop52
140
1.0
102
RTVSPost2010PropOp52
 70
     0
102
RTVSPost2010Prop53
 90
        2
102
RTVSPost2010PropOp53
 70
     1
102
RTVSPost2010Prop54
  1
strokes_ogs.tif
102
RTVSPost2010PropOp54
 70
     1
102
RTVSPost2010Prop55
280
     0
102
RTVSPost2010PropOp55
 70
     1
102
RTVSPost2010Prop56
140
1.0
102
RTVSPost2010PropOp56
 70
     1
102
RTVSPost2010Prop57
140
1.0
102
RTVSPost2010PropOp57
 70
     1
102
RTVSPropertyOp0
 70
     1
102
RTVSPropertyOp1
 70
     1
102
RTVSPropertyOp2
 70
     1
102
RTVSPropertyOp3
 70
     1
102
RTVSPropertyOp4
 70
     1
102
RTVSPropertyOp5
 70
     1
102
RTVSPropertyOp6
 70
     1
102
RTVSPropertyOp7
 70
     1
102
RTVSPropertyOp8
 70
     1
102
RTVSPropertyOp9
 70
     1
102
RTVSPropertyOp10
 70
     1
102
RTVSPropertyOp11
 70
     1
102
RTVSPropertyOp12
 70
     1
102
RTVSPropertyOp13
 70
     1
102
RTVSPropertyOp14
 70
     1
102
RTVSPropertyOp15
 70
     1
102
RTVSPropertyOp16
 70
     1
102
RTVSPropertyOp17
 70
     1
102
RTVSPropertyOp18
 70
     1
102
RTVSPropertyOp19
 70
     1
102
RTVSPropertyOp20
 70
     1
102
RTVSPropertyOp21
 70
     1
102
RTVSPropertyOp22
 70
     1
102
RTVSPropertyOp23
 70
     1
102
RTVSPropertyOp24
 70
     1
102
RTVSPropertyOp25
 70
     1
102
RTVSPropertyOp26
 70
     1
102
RTVSPropertyOp27
 70
     1
102
RTVSPropertyOp28
 70
     1
102
RTVSPropertyOp29
 70
     1
102
RTVSPropertyOp30
 70
     1
102
RTVSPropertyOp31
 70
     1
102
RTVSPropertyOp32
 70
     1
102
RTVSPropertyOp33
 70
     1
102
RTVSPropertyOp34
 70
     1
102
RTVSPropertyOp35
 70
     1
102
RTVSPropertyOp36
 70
     1
102
RTVSPropertyOp37
 70
     1
102
RTVSPropertyOp38
 70
     1
102
RTVSPropertyOp39
 70
     1
102
RTVSPropertyOp40
 70
     1
102
RTVSPropertyOp41
 70
     1
102
RTVSPropertyOp42
 70
     1
102
RTVSPropertyOp43
 70
     1
102
RTVSPropertyOp44
 70
     1
102
RTVSPropertyOp45
 70
     1
102
RTVSPropertyOp46
 70
     1
102
RTVSPropertyOp47
 70
     1
102
RTVSPropertyOp48
 70
     1
102
RTVSPropertyOp49
 70
     1
102
RTVSPropertyOp50
 70
     1
102
RTVSPropertyOp51
 70
     0
102
RTVSPropertyOp52
 70
     0
102
RTVSPropertyOp53
 70
     1
102
RTVSPropertyOp54
 70
     1
102
RTVSPropertyOp55
 70
     1
102
RTVSPropertyOp56
 70
     1
102
RTVSPropertyOp57
 70
     1
102
RTVSPropertyOp58
 70
     1
102
RTVSPropertyOp59
 70
     1
102
RTVSPropertyOp60
 70
     1
102
RTVSPropertyOp61
 70
     1
102
RTVSPropertyOp62
 70
     1
  0
XRECORD
  5
2933
102
{ACAD_REACTORS
330
2932
102
}
330
2932
100
AcDbXrecord
280
     1
102
RTVSPost2010Prop28
280
     0
102
RTVSPost2010PropOp28
 70
     1
102
RTVSPost2010Prop29
280
     1
102
RTVSPost2010PropOp29
 70
     1
102
RTVSPost2010Prop30
280
     1
102
RTVSPost2010PropOp30
 70
     1
102
RTVSPost2010Prop31
280
     0
102
RTVSPost2010PropOp31
 70
     1
102
RTVSPost2010Prop32
280
     0
102
RTVSPost2010PropOp32
 70
     1
102
RTVSPost2010Prop33
280
     0
102
RTVSPost2010PropOp33
 70
     1
102
RTVSPost2010Prop34
280
     0
102
RTVSPost2010PropOp34
 70
     1
102
RTVSPost2010Prop35
280
     0
102
RTVSPost2010PropOp35
 70
     1
102
RTVSPost2010Prop36
280
     0
102
RTVSPost2010PropOp36
 70
     1
102
RTVSPost2010Prop37
 90
       50
102
RTVSPost2010PropOp37
 70
     1
102
RTVSPost2010Prop38
140
0.0
102
RTVSPost2010PropOp38
 70
     1
102
RTVSPost2010Prop39
140
1.0
102
RTVSPost2010PropOp39
 70
     1
102
RTVSPost2010Prop40
 90
        0
102
RTVSPost2010PropOp40
 70
     1
102
RTVSPost2010Prop41ColorIndex
 90
       18
102
RTVSPost2010Prop41ColorRGB
 90
        0
102
RTVSPost2010PropOp41
 70
     1
102
RTVSPost2010Prop42
 90
       50
102
RTVSPost2010PropOp42
 70
     1
102
RTVSPost2010Prop43
 90
        3
102
RTVSPost2010PropOp43
 70
     1
102
RTVSPost2010Prop44ColorIndex
 90
        5
102
RTVSPost2010Prop44ColorRGB
 90
      255
102
RTVSPost2010PropOp44
 70
     1
102
RTVSPost2010Prop45
280
     0
102
RTVSPost2010PropOp45
 70
     1
102
RTVSPost2010Prop46
 90
       50
102
RTVSPost2010PropOp46
 70
     1
102
RTVSPost2010Prop47
 90
       50
102
RTVSPost2010PropOp47
 70
     1
102
RTVSPost2010Prop48
 90
       50
102
RTVSPost2010PropOp48
 70
     1
102
RTVSPost2010Prop49
280
     0
102
RTVSPost2010PropOp49
 70
     1
102
RTVSPost2010Prop50
 90
       50
102
RTVSPost2010PropOp50
 70
     1
102
RTVSPost2010Prop51ColorIndex
 90
      256
102
RTVSPost2010Prop51ColorRGB
 90
-16777216
102
RTVSPost2010PropOp51
 70
     0
102
RTVSPost2010Prop52
140
1.0
102
RTVSPost2010PropOp52
 70
     0
102
RTVSPost2010Prop53
 90
        2
102
RTVSPost2010PropOp53
 70
     1
102
RTVSPost2010Prop54
  1
strokes_ogs.tif
102
RTVSPost2010PropOp54
 70
     1
102
RTVSPost2010Prop55
280
     0
102
RTVSPost2010PropOp55
 70
     1
102
RTVSPost2010Prop56
140
1.0
102
RTVSPost2010PropOp56
 70
     1
102
RTVSPost2010Prop57
140
1.0
102
RTVSPost2010PropOp57
 70
     1
102
RTVSPropertyOp0
 70
     1
102
RTVSPropertyOp1
 70
     1
102
RTVSPropertyOp2
 70
     1
102
RTVSPropertyOp3
 70
     1
102
RTVSPropertyOp4
 70
     1
102
RTVSPropertyOp5
 70
     1
102
RTVSPropertyOp6
 70
     1
102
RTVSPropertyOp7
 70
     1
102
RTVSPropertyOp8
 70
     1
102
RTVSPropertyOp9
 70
     1
102
RTVSPropertyOp10
 70
     1
102
RTVSPropertyOp11
 70
     1
102
RTVSPropertyOp12
 70
     1
102
RTVSPropertyOp13
 70
     1
102
RTVSPropertyOp14
 70
     1
102
RTVSPropertyOp15
 70
     1
102
RTVSPropertyOp16
 70
     1
102
RTVSPropertyOp17
 70
     1
102
RTVSPropertyOp18
 70
     1
102
RTVSPropertyOp19
 70
     1
102
RTVSPropertyOp20
 70
     1
102
RTVSPropertyOp21
 70
     1
102
RTVSPropertyOp22
 70
     1
102
RTVSPropertyOp23
 70
     1
102
RTVSPropertyOp24
 70
     1
102
RTVSPropertyOp25
 70
     1
102
RTVSPropertyOp26
 70
     1
102
RTVSPropertyOp27
 70
     1
102
RTVSPropertyOp28
 70
     1
102
RTVSPropertyOp29
 70
     1
102
RTVSPropertyOp30
 70
     1
102
RTVSPropertyOp31
 70
     1
102
RTVSPropertyOp32
 70
     1
102
RTVSPropertyOp33
 70
     1
102
RTVSPropertyOp34
 70
     1
102
RTVSPropertyOp35
 70
     1
102
RTVSPropertyOp36
 70
     1
102
RTVSPropertyOp37
 70
     1
102
RTVSPropertyOp38
 70
     1
102
RTVSPropertyOp39
 70
     1
102
RTVSPropertyOp40
 70
     1
102
RTVSPropertyOp41
 70
     1
102
RTVSPropertyOp42
 70
     1
102
RTVSPropertyOp43
 70
     1
102
RTVSPropertyOp44
 70
     1
102
RTVSPropertyOp45
 70
     1
102
RTVSPropertyOp46
 70
     1
102
RTVSPropertyOp47
 70
     1
102
RTVSPropertyOp48
 70
     1
102
RTVSPropertyOp49
 70
     1
102
RTVSPropertyOp50
 70
     1
102
RTVSPropertyOp51
 70
     0
102
RTVSPropertyOp52
 70
     0
102
RTVSPropertyOp53
 70
     1
102
RTVSPropertyOp54
 70
     1
102
RTVSPropertyOp55
 70
     1
102
RTVSPropertyOp56
 70
     1
102
RTVSPropertyOp57
 70
     1
102
RTVSPropertyOp58
 70
     1
102
RTVSPropertyOp59
 70
     1
102
RTVSPropertyOp60
 70
     1
102
RTVSPropertyOp61
 70
     1
102
RTVSPropertyOp62
 70
     1
  0
XRECORD
  5
293B
102
{ACAD_REACTORS
330
293A
102
}
330
293A
100
AcDbXrecord
280
     1
102
RTVSPost2010Prop28
280
     0
102
RTVSPost2010PropOp28
 70
     1
102
RTVSPost2010Prop29
280
     1
102
RTVSPost2010PropOp29
 70
     1
102
RTVSPost2010Prop30
280
     1
102
RTVSPost2010PropOp30
 70
     1
102
RTVSPost2010Prop31
280
     0
102
RTVSPost2010PropOp31
 70
     1
102
RTVSPost2010Prop32
280
     0
102
RTVSPost2010PropOp32
 70
     1
102
RTVSPost2010Prop33
280
     0
102
RTVSPost2010PropOp33
 70
     1
102
RTVSPost2010Prop34
280
     0
102
RTVSPost2010PropOp34
 70
     1
102
RTVSPost2010Prop35
280
     0
102
RTVSPost2010PropOp35
 70
     1
102
RTVSPost2010Prop36
280
     0
102
RTVSPost2010PropOp36
 70
     1
102
RTVSPost2010Prop37
 90
       50
102
RTVSPost2010PropOp37
 70
     1
102
RTVSPost2010Prop38
140
0.0
102
RTVSPost2010PropOp38
 70
     1
102
RTVSPost2010Prop39
140
1.0
102
RTVSPost2010PropOp39
 70
     1
102
RTVSPost2010Prop40
 90
        0
102
RTVSPost2010PropOp40
 70
     1
102
RTVSPost2010Prop41ColorIndex
 90
       18
102
RTVSPost2010Prop41ColorRGB
 90
        0
102
RTVSPost2010PropOp41
 70
     1
102
RTVSPost2010Prop42
 90
       50
102
RTVSPost2010PropOp42
 70
     1
102
RTVSPost2010Prop43
 90
        3
102
RTVSPost2010PropOp43
 70
     1
102
RTVSPost2010Prop44ColorIndex
 90
        5
102
RTVSPost2010Prop44ColorRGB
 90
      255
102
RTVSPost2010PropOp44
 70
     1
102
RTVSPost2010Prop45
280
     0
102
RTVSPost2010PropOp45
 70
     1
102
RTVSPost2010Prop46
 90
       50
102
RTVSPost2010PropOp46
 70
     1
102
RTVSPost2010Prop47
 90
       50
102
RTVSPost2010PropOp47
 70
     1
102
RTVSPost2010Prop48
 90
       50
102
RTVSPost2010PropOp48
 70
     1
102
RTVSPost2010Prop49
280
     0
102
RTVSPost2010PropOp49
 70
     1
102
RTVSPost2010Prop50
 90
       50
102
RTVSPost2010PropOp50
 70
     1
102
RTVSPost2010Prop51ColorIndex
 90
      256
102
RTVSPost2010Prop51ColorRGB
 90
-16777216
102
RTVSPost2010PropOp51
 70
     0
102
RTVSPost2010Prop52
140
1.0
102
RTVSPost2010PropOp52
 70
     0
102
RTVSPost2010Prop53
 90
        2
102
RTVSPost2010PropOp53
 70
     1
102
RTVSPost2010Prop54
  1
strokes_ogs.tif
102
RTVSPost2010PropOp54
 70
     1
102
RTVSPost2010Prop55
280
     0
102
RTVSPost2010PropOp55
 70
     1
102
RTVSPost2010Prop56
140
1.0
102
RTVSPost2010PropOp56
 70
     1
102
RTVSPost2010Prop57
140
1.0
102
RTVSPost2010PropOp57
 70
     1
102
RTVSPropertyOp0
 70
     1
102
RTVSPropertyOp1
 70
     1
102
RTVSPropertyOp2
 70
     1
102
RTVSPropertyOp3
 70
     1
102
RTVSPropertyOp4
 70
     1
102
RTVSPropertyOp5
 70
     1
102
RTVSPropertyOp6
 70
     1
102
RTVSPropertyOp7
 70
     1
102
RTVSPropertyOp8
 70
     1
102
RTVSPropertyOp9
 70
     1
102
RTVSPropertyOp10
 70
     1
102
RTVSPropertyOp11
 70
     1
102
RTVSPropertyOp12
 70
     1
102
RTVSPropertyOp13
 70
     1
102
RTVSPropertyOp14
 70
     1
102
RTVSPropertyOp15
 70
     1
102
RTVSPropertyOp16
 70
     1
102
RTVSPropertyOp17
 70
     1
102
RTVSPropertyOp18
 70
     1
102
RTVSPropertyOp19
 70
     1
102
RTVSPropertyOp20
 70
     1
102
RTVSPropertyOp21
 70
     1
102
RTVSPropertyOp22
 70
     1
102
RTVSPropertyOp23
 70
     1
102
RTVSPropertyOp24
 70
     1
102
RTVSPropertyOp25
 70
     1
102
RTVSPropertyOp26
 70
     1
102
RTVSPropertyOp27
 70
     1
102
RTVSPropertyOp28
 70
     1
102
RTVSPropertyOp29
 70
     1
102
RTVSPropertyOp30
 70
     1
102
RTVSPropertyOp31
 70
     1
102
RTVSPropertyOp32
 70
     1
102
RTVSPropertyOp33
 70
     1
102
RTVSPropertyOp34
 70
     1
102
RTVSPropertyOp35
 70
     1
102
RTVSPropertyOp36
 70
     1
102
RTVSPropertyOp37
 70
     1
102
RTVSPropertyOp38
 70
     1
102
RTVSPropertyOp39
 70
     1
102
RTVSPropertyOp40
 70
     1
102
RTVSPropertyOp41
 70
     1
102
RTVSPropertyOp42
 70
     1
102
RTVSPropertyOp43
 70
     1
102
RTVSPropertyOp44
 70
     1
102
RTVSPropertyOp45
 70
     1
102
RTVSPropertyOp46
 70
     1
102
RTVSPropertyOp47
 70
     1
102
RTVSPropertyOp48
 70
     1
102
RTVSPropertyOp49
 70
     1
102
RTVSPropertyOp50
 70
     1
102
RTVSPropertyOp51
 70
     0
102
RTVSPropertyOp52
 70
     0
102
RTVSPropertyOp53
 70
     1
102
RTVSPropertyOp54
 70
     1
102
RTVSPropertyOp55
 70
     1
102
RTVSPropertyOp56
 70
     1
102
RTVSPropertyOp57
 70
     1
102
RTVSPropertyOp58
 70
     1
102
RTVSPropertyOp59
 70
     1
102
RTVSPropertyOp60
 70
     1
102
RTVSPropertyOp61
 70
     1
102
RTVSPropertyOp62
 70
     1
  0
XRECORD
  5
294F
102
{ACAD_REACTORS
330
294E
102
}
330
294E
100
AcDbXrecord
280
     1
102
RTVSPost2010Prop28
280
     0
102
RTVSPost2010PropOp28
 70
     1
102
RTVSPost2010Prop29
280
     1
102
RTVSPost2010PropOp29
 70
     1
102
RTVSPost2010Prop30
280
     1
102
RTVSPost2010PropOp30
 70
     1
102
RTVSPost2010Prop31
280
     0
102
RTVSPost2010PropOp31
 70
     1
102
RTVSPost2010Prop32
280
     0
102
RTVSPost2010PropOp32
 70
     1
102
RTVSPost2010Prop33
280
     0
102
RTVSPost2010PropOp33
 70
     1
102
RTVSPost2010Prop34
280
     0
102
RTVSPost2010PropOp34
 70
     1
102
RTVSPost2010Prop35
280
     0
102
RTVSPost2010PropOp35
 70
     1
102
RTVSPost2010Prop36
280
     0
102
RTVSPost2010PropOp36
 70
     1
102
RTVSPost2010Prop37
 90
       50
102
RTVSPost2010PropOp37
 70
     1
102
RTVSPost2010Prop38
140
0.0
102
RTVSPost2010PropOp38
 70
     1
102
RTVSPost2010Prop39
140
1.0
102
RTVSPost2010PropOp39
 70
     1
102
RTVSPost2010Prop40
 90
        0
102
RTVSPost2010PropOp40
 70
     1
102
RTVSPost2010Prop41ColorIndex
 90
       18
102
RTVSPost2010Prop41ColorRGB
 90
        0
102
RTVSPost2010PropOp41
 70
     1
102
RTVSPost2010Prop42
 90
       50
102
RTVSPost2010PropOp42
 70
     1
102
RTVSPost2010Prop43
 90
        3
102
RTVSPost2010PropOp43
 70
     1
102
RTVSPost2010Prop44ColorIndex
 90
        5
102
RTVSPost2010Prop44ColorRGB
 90
      255
102
RTVSPost2010PropOp44
 70
     1
102
RTVSPost2010Prop45
280
     0
102
RTVSPost2010PropOp45
 70
     1
102
RTVSPost2010Prop46
 90
       50
102
RTVSPost2010PropOp46
 70
     1
102
RTVSPost2010Prop47
 90
       50
102
RTVSPost2010PropOp47
 70
     1
102
RTVSPost2010Prop48
 90
       50
102
RTVSPost2010PropOp48
 70
     1
102
RTVSPost2010Prop49
280
     0
102
RTVSPost2010PropOp49
 70
     1
102
RTVSPost2010Prop50
 90
       50
102
RTVSPost2010PropOp50
 70
     1
102
RTVSPost2010Prop51ColorIndex
 90
      256
102
RTVSPost2010Prop51ColorRGB
 90
-16777216
102
RTVSPost2010PropOp51
 70
     0
102
RTVSPost2010Prop52
140
1.0
102
RTVSPost2010PropOp52
 70
     0
102
RTVSPost2010Prop53
 90
        2
102
RTVSPost2010PropOp53
 70
     1
102
RTVSPost2010Prop54
  1
strokes_ogs.tif
102
RTVSPost2010PropOp54
 70
     1
102
RTVSPost2010Prop55
280
     0
102
RTVSPost2010PropOp55
 70
     1
102
RTVSPost2010Prop56
140
1.0
102
RTVSPost2010PropOp56
 70
     1
102
RTVSPost2010Prop57
140
1.0
102
RTVSPost2010PropOp57
 70
     1
102
RTVSPropertyOp0
 70
     0
102
RTVSPropertyOp1
 70
     0
102
RTVSPropertyOp2
 70
     0
102
RTVSPropertyOp3
 70
     0
102
RTVSPropertyOp4
 70
     0
102
RTVSPropertyOp5
 70
     0
102
RTVSPropertyOp6
 70
     0
102
RTVSPropertyOp7
 70
     0
102
RTVSPropertyOp8
 70
     0
102
RTVSPropertyOp9
 70
     0
102
RTVSPropertyOp10
 70
     0
102
RTVSPropertyOp11
 70
     0
102
RTVSPropertyOp12
 70
     0
102
RTVSPropertyOp13
 70
     0
102
RTVSPropertyOp14
 70
     2
102
RTVSPropertyOp15
 70
     0
102
RTVSPropertyOp16
 70
     0
102
RTVSPropertyOp17
 70
     0
102
RTVSPropertyOp18
 70
     0
102
RTVSPropertyOp19
 70
     0
102
RTVSPropertyOp20
 70
     0
102
RTVSPropertyOp21
 70
     0
102
RTVSPropertyOp22
 70
     0
102
RTVSPropertyOp23
 70
     0
102
RTVSPropertyOp24
 70
     0
102
RTVSPropertyOp25
 70
     0
102
RTVSPropertyOp26
 70
     0
102
RTVSPropertyOp27
 70
     0
102
RTVSPropertyOp28
 70
     1
102
RTVSPropertyOp29
 70
     1
102
RTVSPropertyOp30
 70
     1
102
RTVSPropertyOp31
 70
     1
102
RTVSPropertyOp32
 70
     1
102
RTVSPropertyOp33
 70
     1
102
RTVSPropertyOp34
 70
     1
102
RTVSPropertyOp35
 70
     1
102
RTVSPropertyOp36
 70
     1
102
RTVSPropertyOp37
 70
     1
102
RTVSPropertyOp38
 70
     1
102
RTVSPropertyOp39
 70
     1
102
RTVSPropertyOp40
 70
     1
102
RTVSPropertyOp41
 70
     1
102
RTVSPropertyOp42
 70
     1
102
RTVSPropertyOp43
 70
     1
102
RTVSPropertyOp44
 70
     1
102
RTVSPropertyOp45
 70
     1
102
RTVSPropertyOp46
 70
     1
102
RTVSPropertyOp47
 70
     1
102
RTVSPropertyOp48
 70
     1
102
RTVSPropertyOp49
 70
     1
102
RTVSPropertyOp50
 70
     1
102
RTVSPropertyOp51
 70
     0
102
RTVSPropertyOp52
 70
     0
102
RTVSPropertyOp53
 70
     1
102
RTVSPropertyOp54
 70
     1
102
RTVSPropertyOp55
 70
     1
102
RTVSPropertyOp56
 70
     1
102
RTVSPropertyOp57
 70
     1
102
RTVSPropertyOp58
 70
     1
102
RTVSPropertyOp59
 70
     1
102
RTVSPropertyOp60
 70
     1
102
RTVSPropertyOp61
 70
     1
102
RTVSPropertyOp62
 70
     1
  0
XRECORD
  5
2947
102
{ACAD_REACTORS
330
2946
102
}
330
2946
100
AcDbXrecord
280
     1
102
RTVSPost2010Prop28
280
     0
102
RTVSPost2010PropOp28
 70
     1
102
RTVSPost2010Prop29
280
     1
102
RTVSPost2010PropOp29
 70
     1
102
RTVSPost2010Prop30
280
     1
102
RTVSPost2010PropOp30
 70
     1
102
RTVSPost2010Prop31
280
     0
102
RTVSPost2010PropOp31
 70
     1
102
RTVSPost2010Prop32
280
     0
102
RTVSPost2010PropOp32
 70
     1
102
RTVSPost2010Prop33
280
     0
102
RTVSPost2010PropOp33
 70
     1
102
RTVSPost2010Prop34
280
     0
102
RTVSPost2010PropOp34
 70
     1
102
RTVSPost2010Prop35
280
     0
102
RTVSPost2010PropOp35
 70
     1
102
RTVSPost2010Prop36
280
     0
102
RTVSPost2010PropOp36
 70
     1
102
RTVSPost2010Prop37
 90
       50
102
RTVSPost2010PropOp37
 70
     1
102
RTVSPost2010Prop38
140
0.0
102
RTVSPost2010PropOp38
 70
     1
102
RTVSPost2010Prop39
140
1.0
102
RTVSPost2010PropOp39
 70
     1
102
RTVSPost2010Prop40
 90
        0
102
RTVSPost2010PropOp40
 70
     1
102
RTVSPost2010Prop41ColorIndex
 90
       18
102
RTVSPost2010Prop41ColorRGB
 90
        0
102
RTVSPost2010PropOp41
 70
     1
102
RTVSPost2010Prop42
 90
       50
102
RTVSPost2010PropOp42
 70
     1
102
RTVSPost2010Prop43
 90
        3
102
RTVSPost2010PropOp43
 70
     1
102
RTVSPost2010Prop44ColorIndex
 90
        5
102
RTVSPost2010Prop44ColorRGB
 90
      255
102
RTVSPost2010PropOp44
 70
     1
102
RTVSPost2010Prop45
280
     0
102
RTVSPost2010PropOp45
 70
     1
102
RTVSPost2010Prop46
 90
       50
102
RTVSPost2010PropOp46
 70
     1
102
RTVSPost2010Prop47
 90
       50
102
RTVSPost2010PropOp47
 70
     1
102
RTVSPost2010Prop48
 90
       50
102
RTVSPost2010PropOp48
 70
     1
102
RTVSPost2010Prop49
280
     0
102
RTVSPost2010PropOp49
 70
     1
102
RTVSPost2010Prop50
 90
       50
102
RTVSPost2010PropOp50
 70
     1
102
RTVSPost2010Prop51ColorIndex
 90
      256
102
RTVSPost2010Prop51ColorRGB
 90
-16777216
102
RTVSPost2010PropOp51
 70
     0
102
RTVSPost2010Prop52
140
1.0
102
RTVSPost2010PropOp52
 70
     0
102
RTVSPost2010Prop53
 90
        2
102
RTVSPost2010PropOp53
 70
     1
102
RTVSPost2010Prop54
  1
strokes_ogs.tif
102
RTVSPost2010PropOp54
 70
     1
102
RTVSPost2010Prop55
280
     0
102
RTVSPost2010PropOp55
 70
     1
102
RTVSPost2010Prop56
140
1.0
102
RTVSPost2010PropOp56
 70
     1
102
RTVSPost2010Prop57
140
1.0
102
RTVSPost2010PropOp57
 70
     1
102
RTVSPropertyOp0
 70
     1
102
RTVSPropertyOp1
 70
     1
102
RTVSPropertyOp2
 70
     1
102
RTVSPropertyOp3
 70
     1
102
RTVSPropertyOp4
 70
     1
102
RTVSPropertyOp5
 70
     1
102
RTVSPropertyOp6
 70
     1
102
RTVSPropertyOp7
 70
     1
102
RTVSPropertyOp8
 70
     1
102
RTVSPropertyOp9
 70
     1
102
RTVSPropertyOp10
 70
     1
102
RTVSPropertyOp11
 70
     1
102
RTVSPropertyOp12
 70
     1
102
RTVSPropertyOp13
 70
     1
102
RTVSPropertyOp14
 70
     1
102
RTVSPropertyOp15
 70
     1
102
RTVSPropertyOp16
 70
     1
102
RTVSPropertyOp17
 70
     1
102
RTVSPropertyOp18
 70
     1
102
RTVSPropertyOp19
 70
     1
102
RTVSPropertyOp20
 70
     1
102
RTVSPropertyOp21
 70
     1
102
RTVSPropertyOp22
 70
     1
102
RTVSPropertyOp23
 70
     1
102
RTVSPropertyOp24
 70
     1
102
RTVSPropertyOp25
 70
     1
102
RTVSPropertyOp26
 70
     1
102
RTVSPropertyOp27
 70
     1
102
RTVSPropertyOp28
 70
     1
102
RTVSPropertyOp29
 70
     1
102
RTVSPropertyOp30
 70
     1
102
RTVSPropertyOp31
 70
     1
102
RTVSPropertyOp32
 70
     1
102
RTVSPropertyOp33
 70
     1
102
RTVSPropertyOp34
 70
     1
102
RTVSPropertyOp35
 70
     1
102
RTVSPropertyOp36
 70
     1
102
RTVSPropertyOp37
 70
     1
102
RTVSPropertyOp38
 70
     1
102
RTVSPropertyOp39
 70
     1
102
RTVSPropertyOp40
 70
     1
102
RTVSPropertyOp41
 70
     1
102
RTVSPropertyOp42
 70
     1
102
RTVSPropertyOp43
 70
     1
102
RTVSPropertyOp44
 70
     1
102
RTVSPropertyOp45
 70
     1
102
RTVSPropertyOp46
 70
     1
102
RTVSPropertyOp47
 70
     1
102
RTVSPropertyOp48
 70
     1
102
RTVSPropertyOp49
 70
     1
102
RTVSPropertyOp50
 70
     1
102
RTVSPropertyOp51
 70
     0
102
RTVSPropertyOp52
 70
     0
102
RTVSPropertyOp53
 70
     1
102
RTVSPropertyOp54
 70
     1
102
RTVSPropertyOp55
 70
     1
102
RTVSPropertyOp56
 70
     1
102
RTVSPropertyOp57
 70
     1
102
RTVSPropertyOp58
 70
     1
102
RTVSPropertyOp59
 70
     1
102
RTVSPropertyOp60
 70
     1
102
RTVSPropertyOp61
 70
     1
102
RTVSPropertyOp62
 70
     1
  0
XRECORD
  5
2951
102
{ACAD_REACTORS
330
2950
102
}
330
2950
100
AcDbXrecord
280
     1
102
RTVSPost2010Prop28
280
     0
102
RTVSPost2010PropOp28
 70
     1
102
RTVSPost2010Prop29
280
     1
102
RTVSPost2010PropOp29
 70
     1
102
RTVSPost2010Prop30
280
     1
102
RTVSPost2010PropOp30
 70
     1
102
RTVSPost2010Prop31
280
     0
102
RTVSPost2010PropOp31
 70
     1
102
RTVSPost2010Prop32
280
     0
102
RTVSPost2010PropOp32
 70
     1
102
RTVSPost2010Prop33
280
     0
102
RTVSPost2010PropOp33
 70
     1
102
RTVSPost2010Prop34
280
     0
102
RTVSPost2010PropOp34
 70
     1
102
RTVSPost2010Prop35
280
     0
102
RTVSPost2010PropOp35
 70
     1
102
RTVSPost2010Prop36
280
     0
102
RTVSPost2010PropOp36
 70
     1
102
RTVSPost2010Prop37
 90
       50
102
RTVSPost2010PropOp37
 70
     1
102
RTVSPost2010Prop38
140
0.0
102
RTVSPost2010PropOp38
 70
     1
102
RTVSPost2010Prop39
140
1.0
102
RTVSPost2010PropOp39
 70
     1
102
RTVSPost2010Prop40
 90
        0
102
RTVSPost2010PropOp40
 70
     1
102
RTVSPost2010Prop41ColorIndex
 90
       18
102
RTVSPost2010Prop41ColorRGB
 90
        0
102
RTVSPost2010PropOp41
 70
     1
102
RTVSPost2010Prop42
 90
       50
102
RTVSPost2010PropOp42
 70
     1
102
RTVSPost2010Prop43
 90
        3
102
RTVSPost2010PropOp43
 70
     1
102
RTVSPost2010Prop44ColorIndex
 90
        5
102
RTVSPost2010Prop44ColorRGB
 90
      255
102
RTVSPost2010PropOp44
 70
     1
102
RTVSPost2010Prop45
280
     0
102
RTVSPost2010PropOp45
 70
     1
102
RTVSPost2010Prop46
 90
       50
102
RTVSPost2010PropOp46
 70
     1
102
RTVSPost2010Prop47
 90
       50
102
RTVSPost2010PropOp47
 70
     1
102
RTVSPost2010Prop48
 90
       50
102
RTVSPost2010PropOp48
 70
     1
102
RTVSPost2010Prop49
280
     0
102
RTVSPost2010PropOp49
 70
     1
102
RTVSPost2010Prop50
 90
       50
102
RTVSPost2010PropOp50
 70
     1
102
RTVSPost2010Prop51ColorIndex
 90
      256
102
RTVSPost2010Prop51ColorRGB
 90
-16777216
102
RTVSPost2010PropOp51
 70
     0
102
RTVSPost2010Prop52
140
1.0
102
RTVSPost2010PropOp52
 70
     0
102
RTVSPost2010Prop53
 90
        2
102
RTVSPost2010PropOp53
 70
     1
102
RTVSPost2010Prop54
  1
strokes_ogs.tif
102
RTVSPost2010PropOp54
 70
     1
102
RTVSPost2010Prop55
280
     0
102
RTVSPost2010PropOp55
 70
     1
102
RTVSPost2010Prop56
140
1.0
102
RTVSPost2010PropOp56
 70
     1
102
RTVSPost2010Prop57
140
1.0
102
RTVSPost2010PropOp57
 70
     1
102
RTVSPropertyOp0
 70
     0
102
RTVSPropertyOp1
 70
     0
102
RTVSPropertyOp2
 70
     0
102
RTVSPropertyOp3
 70
     0
102
RTVSPropertyOp4
 70
     0
102
RTVSPropertyOp5
 70
     0
102
RTVSPropertyOp6
 70
     0
102
RTVSPropertyOp7
 70
     0
102
RTVSPropertyOp8
 70
     0
102
RTVSPropertyOp9
 70
     0
102
RTVSPropertyOp10
 70
     0
102
RTVSPropertyOp11
 70
     0
102
RTVSPropertyOp12
 70
     0
102
RTVSPropertyOp13
 70
     0
102
RTVSPropertyOp14
 70
     2
102
RTVSPropertyOp15
 70
     0
102
RTVSPropertyOp16
 70
     0
102
RTVSPropertyOp17
 70
     0
102
RTVSPropertyOp18
 70
     0
102
RTVSPropertyOp19
 70
     0
102
RTVSPropertyOp20
 70
     0
102
RTVSPropertyOp21
 70
     0
102
RTVSPropertyOp22
 70
     0
102
RTVSPropertyOp23
 70
     0
102
RTVSPropertyOp24
 70
     0
102
RTVSPropertyOp25
 70
     0
102
RTVSPropertyOp26
 70
     0
102
RTVSPropertyOp27
 70
     0
102
RTVSPropertyOp28
 70
     1
102
RTVSPropertyOp29
 70
     1
102
RTVSPropertyOp30
 70
     1
102
RTVSPropertyOp31
 70
     1
102
RTVSPropertyOp32
 70
     1
102
RTVSPropertyOp33
 70
     1
102
RTVSPropertyOp34
 70
     1
102
RTVSPropertyOp35
 70
     1
102
RTVSPropertyOp36
 70
     1
102
RTVSPropertyOp37
 70
     1
102
RTVSPropertyOp38
 70
     1
102
RTVSPropertyOp39
 70
     1
102
RTVSPropertyOp40
 70
     1
102
RTVSPropertyOp41
 70
     1
102
RTVSPropertyOp42
 70
     1
102
RTVSPropertyOp43
 70
     1
102
RTVSPropertyOp44
 70
     1
102
RTVSPropertyOp45
 70
     1
102
RTVSPropertyOp46
 70
     1
102
RTVSPropertyOp47
 70
     1
102
RTVSPropertyOp48
 70
     1
102
RTVSPropertyOp49
 70
     1
102
RTVSPropertyOp50
 70
     1
102
RTVSPropertyOp51
 70
     0
102
RTVSPropertyOp52
 70
     0
102
RTVSPropertyOp53
 70
     1
102
RTVSPropertyOp54
 70
     1
102
RTVSPropertyOp55
 70
     1
102
RTVSPropertyOp56
 70
     1
102
RTVSPropertyOp57
 70
     1
102
RTVSPropertyOp58
 70
     1
102
RTVSPropertyOp59
 70
     1
102
RTVSPropertyOp60
 70
     1
102
RTVSPropertyOp61
 70
     1
102
RTVSPropertyOp62
 70
     1
  0
XRECORD
  5
293F
102
{ACAD_REACTORS
330
293E
102
}
330
293E
100
AcDbXrecord
280
     1
102
RTVSPost2010Prop28
280
     0
102
RTVSPost2010PropOp28
 70
     1
102
RTVSPost2010Prop29
280
     1
102
RTVSPost2010PropOp29
 70
     1
102
RTVSPost2010Prop30
280
     1
102
RTVSPost2010PropOp30
 70
     1
102
RTVSPost2010Prop31
280
     0
102
RTVSPost2010PropOp31
 70
     1
102
RTVSPost2010Prop32
280
     0
102
RTVSPost2010PropOp32
 70
     1
102
RTVSPost2010Prop33
280
     0
102
RTVSPost2010PropOp33
 70
     1
102
RTVSPost2010Prop34
280
     0
102
RTVSPost2010PropOp34
 70
     1
102
RTVSPost2010Prop35
280
     0
102
RTVSPost2010PropOp35
 70
     1
102
RTVSPost2010Prop36
280
     0
102
RTVSPost2010PropOp36
 70
     1
102
RTVSPost2010Prop37
 90
       50
102
RTVSPost2010PropOp37
 70
     1
102
RTVSPost2010Prop38
140
0.0
102
RTVSPost2010PropOp38
 70
     1
102
RTVSPost2010Prop39
140
1.0
102
RTVSPost2010PropOp39
 70
     1
102
RTVSPost2010Prop40
 90
        0
102
RTVSPost2010PropOp40
 70
     1
102
RTVSPost2010Prop41ColorIndex
 90
       18
102
RTVSPost2010Prop41ColorRGB
 90
        0
102
RTVSPost2010PropOp41
 70
     1
102
RTVSPost2010Prop42
 90
       50
102
RTVSPost2010PropOp42
 70
     1
102
RTVSPost2010Prop43
 90
        3
102
RTVSPost2010PropOp43
 70
     1
102
RTVSPost2010Prop44ColorIndex
 90
        5
102
RTVSPost2010Prop44ColorRGB
 90
      255
102
RTVSPost2010PropOp44
 70
     1
102
RTVSPost2010Prop45
280
     0
102
RTVSPost2010PropOp45
 70
     1
102
RTVSPost2010Prop46
 90
       50
102
RTVSPost2010PropOp46
 70
     1
102
RTVSPost2010Prop47
 90
       50
102
RTVSPost2010PropOp47
 70
     1
102
RTVSPost2010Prop48
 90
       50
102
RTVSPost2010PropOp48
 70
     1
102
RTVSPost2010Prop49
280
     0
102
RTVSPost2010PropOp49
 70
     1
102
RTVSPost2010Prop50
 90
       50
102
RTVSPost2010PropOp50
 70
     1
102
RTVSPost2010Prop51ColorIndex
 90
      256
102
RTVSPost2010Prop51ColorRGB
 90
-16777216
102
RTVSPost2010PropOp51
 70
     0
102
RTVSPost2010Prop52
140
1.0
102
RTVSPost2010PropOp52
 70
     0
102
RTVSPost2010Prop53
 90
        2
102
RTVSPost2010PropOp53
 70
     1
102
RTVSPost2010Prop54
  1
strokes_ogs.tif
102
RTVSPost2010PropOp54
 70
     1
102
RTVSPost2010Prop55
280
     0
102
RTVSPost2010PropOp55
 70
     1
102
RTVSPost2010Prop56
140
1.0
102
RTVSPost2010PropOp56
 70
     1
102
RTVSPost2010Prop57
140
1.0
102
RTVSPost2010PropOp57
 70
     1
102
RTVSPropertyOp0
 70
     1
102
RTVSPropertyOp1
 70
     1
102
RTVSPropertyOp2
 70
     1
102
RTVSPropertyOp3
 70
     1
102
RTVSPropertyOp4
 70
     1
102
RTVSPropertyOp5
 70
     1
102
RTVSPropertyOp6
 70
     1
102
RTVSPropertyOp7
 70
     1
102
RTVSPropertyOp8
 70
     1
102
RTVSPropertyOp9
 70
     1
102
RTVSPropertyOp10
 70
     1
102
RTVSPropertyOp11
 70
     1
102
RTVSPropertyOp12
 70
     1
102
RTVSPropertyOp13
 70
     1
102
RTVSPropertyOp14
 70
     1
102
RTVSPropertyOp15
 70
     1
102
RTVSPropertyOp16
 70
     1
102
RTVSPropertyOp17
 70
     1
102
RTVSPropertyOp18
 70
     1
102
RTVSPropertyOp19
 70
     1
102
RTVSPropertyOp20
 70
     1
102
RTVSPropertyOp21
 70
     1
102
RTVSPropertyOp22
 70
     1
102
RTVSPropertyOp23
 70
     1
102
RTVSPropertyOp24
 70
     1
102
RTVSPropertyOp25
 70
     1
102
RTVSPropertyOp26
 70
     1
102
RTVSPropertyOp27
 70
     1
102
RTVSPropertyOp28
 70
     1
102
RTVSPropertyOp29
 70
     1
102
RTVSPropertyOp30
 70
     1
102
RTVSPropertyOp31
 70
     1
102
RTVSPropertyOp32
 70
     1
102
RTVSPropertyOp33
 70
     1
102
RTVSPropertyOp34
 70
     1
102
RTVSPropertyOp35
 70
     1
102
RTVSPropertyOp36
 70
     1
102
RTVSPropertyOp37
 70
     1
102
RTVSPropertyOp38
 70
     1
102
RTVSPropertyOp39
 70
     1
102
RTVSPropertyOp40
 70
     1
102
RTVSPropertyOp41
 70
     1
102
RTVSPropertyOp42
 70
     1
102
RTVSPropertyOp43
 70
     1
102
RTVSPropertyOp44
 70
     1
102
RTVSPropertyOp45
 70
     1
102
RTVSPropertyOp46
 70
     1
102
RTVSPropertyOp47
 70
     1
102
RTVSPropertyOp48
 70
     1
102
RTVSPropertyOp49
 70
     1
102
RTVSPropertyOp50
 70
     1
102
RTVSPropertyOp51
 70
     0
102
RTVSPropertyOp52
 70
     0
102
RTVSPropertyOp53
 70
     1
102
RTVSPropertyOp54
 70
     1
102
RTVSPropertyOp55
 70
     1
102
RTVSPropertyOp56
 70
     1
102
RTVSPropertyOp57
 70
     1
102
RTVSPropertyOp58
 70
     1
102
RTVSPropertyOp59
 70
     1
102
RTVSPropertyOp60
 70
     1
102
RTVSPropertyOp61
 70
     1
102
RTVSPropertyOp62
 70
     1
  0
XRECORD
  5
295D
102
{ACAD_REACTORS
330
295C
102
}
330
295C
100
AcDbXrecord
280
     1
102
RTVSPost2010Prop28
280
     0
102
RTVSPost2010PropOp28
 70
     1
102
RTVSPost2010Prop29
280
     1
102
RTVSPost2010PropOp29
 70
     1
102
RTVSPost2010Prop30
280
     1
102
RTVSPost2010PropOp30
 70
     1
102
RTVSPost2010Prop31
280
     0
102
RTVSPost2010PropOp31
 70
     1
102
RTVSPost2010Prop32
280
     0
102
RTVSPost2010PropOp32
 70
     1
102
RTVSPost2010Prop33
280
     0
102
RTVSPost2010PropOp33
 70
     1
102
RTVSPost2010Prop34
280
     0
102
RTVSPost2010PropOp34
 70
     1
102
RTVSPost2010Prop35
280
     0
102
RTVSPost2010PropOp35
 70
     1
102
RTVSPost2010Prop36
280
     0
102
RTVSPost2010PropOp36
 70
     1
102
RTVSPost2010Prop37
 90
       50
102
RTVSPost2010PropOp37
 70
     1
102
RTVSPost2010Prop38
140
0.0
102
RTVSPost2010PropOp38
 70
     1
102
RTVSPost2010Prop39
140
1.0
102
RTVSPost2010PropOp39
 70
     1
102
RTVSPost2010Prop40
 90
        0
102
RTVSPost2010PropOp40
 70
     1
102
RTVSPost2010Prop41ColorIndex
 90
       18
102
RTVSPost2010Prop41ColorRGB
 90
        0
102
RTVSPost2010PropOp41
 70
     1
102
RTVSPost2010Prop42
 90
       50
102
RTVSPost2010PropOp42
 70
     1
102
RTVSPost2010Prop43
 90
        3
102
RTVSPost2010PropOp43
 70
     1
102
RTVSPost2010Prop44ColorIndex
 90
        5
102
RTVSPost2010Prop44ColorRGB
 90
      255
102
RTVSPost2010PropOp44
 70
     1
102
RTVSPost2010Prop45
280
     0
102
RTVSPost2010PropOp45
 70
     1
102
RTVSPost2010Prop46
 90
       50
102
RTVSPost2010PropOp46
 70
     1
102
RTVSPost2010Prop47
 90
       50
102
RTVSPost2010PropOp47
 70
     1
102
RTVSPost2010Prop48
 90
       50
102
RTVSPost2010PropOp48
 70
     1
102
RTVSPost2010Prop49
280
     0
102
RTVSPost2010PropOp49
 70
     1
102
RTVSPost2010Prop50
 90
       50
102
RTVSPost2010PropOp50
 70
     1
102
RTVSPost2010Prop51ColorIndex
 90
      256
102
RTVSPost2010Prop51ColorRGB
 90
-16777216
102
RTVSPost2010PropOp51
 70
     0
102
RTVSPost2010Prop52
140
1.0
102
RTVSPost2010PropOp52
 70
     0
102
RTVSPost2010Prop53
 90
        2
102
RTVSPost2010PropOp53
 70
     1
102
RTVSPost2010Prop54
  1
strokes_ogs.tif
102
RTVSPost2010PropOp54
 70
     1
102
RTVSPost2010Prop55
280
     0
102
RTVSPost2010PropOp55
 70
     1
102
RTVSPost2010Prop56
140
1.0
102
RTVSPost2010PropOp56
 70
     1
102
RTVSPost2010Prop57
140
1.0
102
RTVSPost2010PropOp57
 70
     1
102
RTVSPropertyOp0
 70
     1
102
RTVSPropertyOp1
 70
     1
102
RTVSPropertyOp2
 70
     1
102
RTVSPropertyOp3
 70
     1
102
RTVSPropertyOp4
 70
     1
102
RTVSPropertyOp5
 70
     1
102
RTVSPropertyOp6
 70
     1
102
RTVSPropertyOp7
 70
     1
102
RTVSPropertyOp8
 70
     1
102
RTVSPropertyOp9
 70
     1
102
RTVSPropertyOp10
 70
     1
102
RTVSPropertyOp11
 70
     1
102
RTVSPropertyOp12
 70
     1
102
RTVSPropertyOp13
 70
     1
102
RTVSPropertyOp14
 70
     1
102
RTVSPropertyOp15
 70
     1
102
RTVSPropertyOp16
 70
     1
102
RTVSPropertyOp17
 70
     1
102
RTVSPropertyOp18
 70
     1
102
RTVSPropertyOp19
 70
     1
102
RTVSPropertyOp20
 70
     1
102
RTVSPropertyOp21
 70
     1
102
RTVSPropertyOp22
 70
     1
102
RTVSPropertyOp23
 70
     1
102
RTVSPropertyOp24
 70
     1
102
RTVSPropertyOp25
 70
     1
102
RTVSPropertyOp26
 70
     1
102
RTVSPropertyOp27
 70
     1
102
RTVSPropertyOp28
 70
     1
102
RTVSPropertyOp29
 70
     1
102
RTVSPropertyOp30
 70
     1
102
RTVSPropertyOp31
 70
     1
102
RTVSPropertyOp32
 70
     1
102
RTVSPropertyOp33
 70
     1
102
RTVSPropertyOp34
 70
     1
102
RTVSPropertyOp35
 70
     1
102
RTVSPropertyOp36
 70
     1
102
RTVSPropertyOp37
 70
     1
102
RTVSPropertyOp38
 70
     1
102
RTVSPropertyOp39
 70
     1
102
RTVSPropertyOp40
 70
     1
102
RTVSPropertyOp41
 70
     1
102
RTVSPropertyOp42
 70
     1
102
RTVSPropertyOp43
 70
     1
102
RTVSPropertyOp44
 70
     1
102
RTVSPropertyOp45
 70
     1
102
RTVSPropertyOp46
 70
     1
102
RTVSPropertyOp47
 70
     1
102
RTVSPropertyOp48
 70
     1
102
RTVSPropertyOp49
 70
     1
102
RTVSPropertyOp50
 70
     1
102
RTVSPropertyOp51
 70
     0
102
RTVSPropertyOp52
 70
     0
102
RTVSPropertyOp53
 70
     1
102
RTVSPropertyOp54
 70
     1
102
RTVSPropertyOp55
 70
     1
102
RTVSPropertyOp56
 70
     1
102
RTVSPropertyOp57
 70
     1
102
RTVSPropertyOp58
 70
     1
102
RTVSPropertyOp59
 70
     1
102
RTVSPropertyOp60
 70
     1
102
RTVSPropertyOp61
 70
     1
102
RTVSPropertyOp62
 70
     1
  0
XRECORD
  5
295B
102
{ACAD_REACTORS
330
295A
102
}
330
295A
100
AcDbXrecord
280
     1
102
RTVSPost2010Prop28
280
     0
102
RTVSPost2010PropOp28
 70
     1
102
RTVSPost2010Prop29
280
     1
102
RTVSPost2010PropOp29
 70
     1
102
RTVSPost2010Prop30
280
     1
102
RTVSPost2010PropOp30
 70
     1
102
RTVSPost2010Prop31
280
     0
102
RTVSPost2010PropOp31
 70
     1
102
RTVSPost2010Prop32
280
     0
102
RTVSPost2010PropOp32
 70
     1
102
RTVSPost2010Prop33
280
     0
102
RTVSPost2010PropOp33
 70
     1
102
RTVSPost2010Prop34
280
     0
102
RTVSPost2010PropOp34
 70
     1
102
RTVSPost2010Prop35
280
     0
102
RTVSPost2010PropOp35
 70
     1
102
RTVSPost2010Prop36
280
     0
102
RTVSPost2010PropOp36
 70
     1
102
RTVSPost2010Prop37
 90
       50
102
RTVSPost2010PropOp37
 70
     1
102
RTVSPost2010Prop38
140
0.0
102
RTVSPost2010PropOp38
 70
     1
102
RTVSPost2010Prop39
140
1.0
102
RTVSPost2010PropOp39
 70
     1
102
RTVSPost2010Prop40
 90
        0
102
RTVSPost2010PropOp40
 70
     1
102
RTVSPost2010Prop41ColorIndex
 90
       18
102
RTVSPost2010Prop41ColorRGB
 90
        0
102
RTVSPost2010PropOp41
 70
     1
102
RTVSPost2010Prop42
 90
       50
102
RTVSPost2010PropOp42
 70
     1
102
RTVSPost2010Prop43
 90
        3
102
RTVSPost2010PropOp43
 70
     1
102
RTVSPost2010Prop44ColorIndex
 90
        5
102
RTVSPost2010Prop44ColorRGB
 90
      255
102
RTVSPost2010PropOp44
 70
     1
102
RTVSPost2010Prop45
280
     0
102
RTVSPost2010PropOp45
 70
     1
102
RTVSPost2010Prop46
 90
       50
102
RTVSPost2010PropOp46
 70
     1
102
RTVSPost2010Prop47
 90
       50
102
RTVSPost2010PropOp47
 70
     1
102
RTVSPost2010Prop48
 90
       50
102
RTVSPost2010PropOp48
 70
     1
102
RTVSPost2010Prop49
280
     0
102
RTVSPost2010PropOp49
 70
     1
102
RTVSPost2010Prop50
 90
       50
102
RTVSPost2010PropOp50
 70
     1
102
RTVSPost2010Prop51ColorIndex
 90
      256
102
RTVSPost2010Prop51ColorRGB
 90
-16777216
102
RTVSPost2010PropOp51
 70
     0
102
RTVSPost2010Prop52
140
1.0
102
RTVSPost2010PropOp52
 70
     0
102
RTVSPost2010Prop53
 90
        2
102
RTVSPost2010PropOp53
 70
     1
102
RTVSPost2010Prop54
  1
strokes_ogs.tif
102
RTVSPost2010PropOp54
 70
     1
102
RTVSPost2010Prop55
280
     0
102
RTVSPost2010PropOp55
 70
     1
102
RTVSPost2010Prop56
140
1.0
102
RTVSPost2010PropOp56
 70
     1
102
RTVSPost2010Prop57
140
1.0
102
RTVSPost2010PropOp57
 70
     1
102
RTVSPropertyOp0
 70
     1
102
RTVSPropertyOp1
 70
     1
102
RTVSPropertyOp2
 70
     1
102
RTVSPropertyOp3
 70
     1
102
RTVSPropertyOp4
 70
     1
102
RTVSPropertyOp5
 70
     1
102
RTVSPropertyOp6
 70
     1
102
RTVSPropertyOp7
 70
     1
102
RTVSPropertyOp8
 70
     1
102
RTVSPropertyOp9
 70
     1
102
RTVSPropertyOp10
 70
     1
102
RTVSPropertyOp11
 70
     1
102
RTVSPropertyOp12
 70
     1
102
RTVSPropertyOp13
 70
     1
102
RTVSPropertyOp14
 70
     1
102
RTVSPropertyOp15
 70
     1
102
RTVSPropertyOp16
 70
     1
102
RTVSPropertyOp17
 70
     1
102
RTVSPropertyOp18
 70
     1
102
RTVSPropertyOp19
 70
     1
102
RTVSPropertyOp20
 70
     1
102
RTVSPropertyOp21
 70
     1
102
RTVSPropertyOp22
 70
     1
102
RTVSPropertyOp23
 70
     1
102
RTVSPropertyOp24
 70
     1
102
RTVSPropertyOp25
 70
     1
102
RTVSPropertyOp26
 70
     1
102
RTVSPropertyOp27
 70
     1
102
RTVSPropertyOp28
 70
     1
102
RTVSPropertyOp29
 70
     1
102
RTVSPropertyOp30
 70
     1
102
RTVSPropertyOp31
 70
     1
102
RTVSPropertyOp32
 70
     1
102
RTVSPropertyOp33
 70
     1
102
RTVSPropertyOp34
 70
     1
102
RTVSPropertyOp35
 70
     1
102
RTVSPropertyOp36
 70
     1
102
RTVSPropertyOp37
 70
     1
102
RTVSPropertyOp38
 70
     1
102
RTVSPropertyOp39
 70
     1
102
RTVSPropertyOp40
 70
     1
102
RTVSPropertyOp41
 70
     1
102
RTVSPropertyOp42
 70
     1
102
RTVSPropertyOp43
 70
     1
102
RTVSPropertyOp44
 70
     1
102
RTVSPropertyOp45
 70
     1
102
RTVSPropertyOp46
 70
     1
102
RTVSPropertyOp47
 70
     1
102
RTVSPropertyOp48
 70
     1
102
RTVSPropertyOp49
 70
     1
102
RTVSPropertyOp50
 70
     1
102
RTVSPropertyOp51
 70
     0
102
RTVSPropertyOp52
 70
     0
102
RTVSPropertyOp53
 70
     1
102
RTVSPropertyOp54
 70
     1
102
RTVSPropertyOp55
 70
     1
102
RTVSPropertyOp56
 70
     1
102
RTVSPropertyOp57
 70
     1
102
RTVSPropertyOp58
 70
     1
102
RTVSPropertyOp59
 70
     1
102
RTVSPropertyOp60
 70
     1
102
RTVSPropertyOp61
 70
     1
102
RTVSPropertyOp62
 70
     1
  0
XRECORD
  5
2955
102
{ACAD_REACTORS
330
2954
102
}
330
2954
100
AcDbXrecord
280
     1
102
RTVSPost2010Prop28
280
     0
102
RTVSPost2010PropOp28
 70
     1
102
RTVSPost2010Prop29
280
     1
102
RTVSPost2010PropOp29
 70
     1
102
RTVSPost2010Prop30
280
     1
102
RTVSPost2010PropOp30
 70
     1
102
RTVSPost2010Prop31
280
     0
102
RTVSPost2010PropOp31
 70
     1
102
RTVSPost2010Prop32
280
     0
102
RTVSPost2010PropOp32
 70
     1
102
RTVSPost2010Prop33
280
     0
102
RTVSPost2010PropOp33
 70
     1
102
RTVSPost2010Prop34
280
     0
102
RTVSPost2010PropOp34
 70
     1
102
RTVSPost2010Prop35
280
     0
102
RTVSPost2010PropOp35
 70
     1
102
RTVSPost2010Prop36
280
     0
102
RTVSPost2010PropOp36
 70
     1
102
RTVSPost2010Prop37
 90
       50
102
RTVSPost2010PropOp37
 70
     1
102
RTVSPost2010Prop38
140
0.0
102
RTVSPost2010PropOp38
 70
     1
102
RTVSPost2010Prop39
140
1.0
102
RTVSPost2010PropOp39
 70
     1
102
RTVSPost2010Prop40
 90
        0
102
RTVSPost2010PropOp40
 70
     1
102
RTVSPost2010Prop41ColorIndex
 90
       18
102
RTVSPost2010Prop41ColorRGB
 90
        0
102
RTVSPost2010PropOp41
 70
     1
102
RTVSPost2010Prop42
 90
       50
102
RTVSPost2010PropOp42
 70
     1
102
RTVSPost2010Prop43
 90
        3
102
RTVSPost2010PropOp43
 70
     1
102
RTVSPost2010Prop44ColorIndex
 90
        5
102
RTVSPost2010Prop44ColorRGB
 90
      255
102
RTVSPost2010PropOp44
 70
     1
102
RTVSPost2010Prop45
280
     0
102
RTVSPost2010PropOp45
 70
     1
102
RTVSPost2010Prop46
 90
       50
102
RTVSPost2010PropOp46
 70
     1
102
RTVSPost2010Prop47
 90
       50
102
RTVSPost2010PropOp47
 70
     1
102
RTVSPost2010Prop48
 90
       50
102
RTVSPost2010PropOp48
 70
     1
102
RTVSPost2010Prop49
280
     0
102
RTVSPost2010PropOp49
 70
     1
102
RTVSPost2010Prop50
 90
       50
102
RTVSPost2010PropOp50
 70
     1
102
RTVSPost2010Prop51ColorIndex
 90
      256
102
RTVSPost2010Prop51ColorRGB
 90
-16777216
102
RTVSPost2010PropOp51
 70
     0
102
RTVSPost2010Prop52
140
1.0
102
RTVSPost2010PropOp52
 70
     0
102
RTVSPost2010Prop53
 90
        2
102
RTVSPost2010PropOp53
 70
     1
102
RTVSPost2010Prop54
  1
strokes_ogs.tif
102
RTVSPost2010PropOp54
 70
     1
102
RTVSPost2010Prop55
280
     0
102
RTVSPost2010PropOp55
 70
     1
102
RTVSPost2010Prop56
140
1.0
102
RTVSPost2010PropOp56
 70
     1
102
RTVSPost2010Prop57
140
1.0
102
RTVSPost2010PropOp57
 70
     1
102
RTVSPropertyOp0
 70
     1
102
RTVSPropertyOp1
 70
     1
102
RTVSPropertyOp2
 70
     1
102
RTVSPropertyOp3
 70
     1
102
RTVSPropertyOp4
 70
     1
102
RTVSPropertyOp5
 70
     1
102
RTVSPropertyOp6
 70
     1
102
RTVSPropertyOp7
 70
     1
102
RTVSPropertyOp8
 70
     1
102
RTVSPropertyOp9
 70
     1
102
RTVSPropertyOp10
 70
     1
102
RTVSPropertyOp11
 70
     1
102
RTVSPropertyOp12
 70
     1
102
RTVSPropertyOp13
 70
     1
102
RTVSPropertyOp14
 70
     1
102
RTVSPropertyOp15
 70
     1
102
RTVSPropertyOp16
 70
     1
102
RTVSPropertyOp17
 70
     1
102
RTVSPropertyOp18
 70
     1
102
RTVSPropertyOp19
 70
     1
102
RTVSPropertyOp20
 70
     1
102
RTVSPropertyOp21
 70
     1
102
RTVSPropertyOp22
 70
     1
102
RTVSPropertyOp23
 70
     1
102
RTVSPropertyOp24
 70
     1
102
RTVSPropertyOp25
 70
     1
102
RTVSPropertyOp26
 70
     1
102
RTVSPropertyOp27
 70
     1
102
RTVSPropertyOp28
 70
     1
102
RTVSPropertyOp29
 70
     1
102
RTVSPropertyOp30
 70
     1
102
RTVSPropertyOp31
 70
     1
102
RTVSPropertyOp32
 70
     1
102
RTVSPropertyOp33
 70
     1
102
RTVSPropertyOp34
 70
     1
102
RTVSPropertyOp35
 70
     1
102
RTVSPropertyOp36
 70
     1
102
RTVSPropertyOp37
 70
     1
102
RTVSPropertyOp38
 70
     1
102
RTVSPropertyOp39
 70
     1
102
RTVSPropertyOp40
 70
     1
102
RTVSPropertyOp41
 70
     1
102
RTVSPropertyOp42
 70
     1
102
RTVSPropertyOp43
 70
     1
102
RTVSPropertyOp44
 70
     1
102
RTVSPropertyOp45
 70
     1
102
RTVSPropertyOp46
 70
     1
102
RTVSPropertyOp47
 70
     1
102
RTVSPropertyOp48
 70
     1
102
RTVSPropertyOp49
 70
     1
102
RTVSPropertyOp50
 70
     1
102
RTVSPropertyOp51
 70
     0
102
RTVSPropertyOp52
 70
     0
102
RTVSPropertyOp53
 70
     1
102
RTVSPropertyOp54
 70
     1
102
RTVSPropertyOp55
 70
     1
102
RTVSPropertyOp56
 70
     1
102
RTVSPropertyOp57
 70
     1
102
RTVSPropertyOp58
 70
     1
102
RTVSPropertyOp59
 70
     1
102
RTVSPropertyOp60
 70
     1
102
RTVSPropertyOp61
 70
     1
102
RTVSPropertyOp62
 70
     1
  0
XRECORD
  5
2957
102
{ACAD_REACTORS
330
2956
102
}
330
2956
100
AcDbXrecord
280
     1
102
RTVSPost2010Prop28
280
     0
102
RTVSPost2010PropOp28
 70
     1
102
RTVSPost2010Prop29
280
     1
102
RTVSPost2010PropOp29
 70
     1
102
RTVSPost2010Prop30
280
     1
102
RTVSPost2010PropOp30
 70
     1
102
RTVSPost2010Prop31
280
     0
102
RTVSPost2010PropOp31
 70
     1
102
RTVSPost2010Prop32
280
     0
102
RTVSPost2010PropOp32
 70
     1
102
RTVSPost2010Prop33
280
     0
102
RTVSPost2010PropOp33
 70
     1
102
RTVSPost2010Prop34
280
     0
102
RTVSPost2010PropOp34
 70
     1
102
RTVSPost2010Prop35
280
     0
102
RTVSPost2010PropOp35
 70
     1
102
RTVSPost2010Prop36
280
     0
102
RTVSPost2010PropOp36
 70
     1
102
RTVSPost2010Prop37
 90
       50
102
RTVSPost2010PropOp37
 70
     1
102
RTVSPost2010Prop38
140
0.0
102
RTVSPost2010PropOp38
 70
     1
102
RTVSPost2010Prop39
140
1.0
102
RTVSPost2010PropOp39
 70
     1
102
RTVSPost2010Prop40
 90
        0
102
RTVSPost2010PropOp40
 70
     1
102
RTVSPost2010Prop41ColorIndex
 90
       18
102
RTVSPost2010Prop41ColorRGB
 90
        0
102
RTVSPost2010PropOp41
 70
     1
102
RTVSPost2010Prop42
 90
       50
102
RTVSPost2010PropOp42
 70
     1
102
RTVSPost2010Prop43
 90
        3
102
RTVSPost2010PropOp43
 70
     1
102
RTVSPost2010Prop44ColorIndex
 90
        5
102
RTVSPost2010Prop44ColorRGB
 90
      255
102
RTVSPost2010PropOp44
 70
     1
102
RTVSPost2010Prop45
280
     0
102
RTVSPost2010PropOp45
 70
     1
102
RTVSPost2010Prop46
 90
       50
102
RTVSPost2010PropOp46
 70
     1
102
RTVSPost2010Prop47
 90
       50
102
RTVSPost2010PropOp47
 70
     1
102
RTVSPost2010Prop48
 90
       50
102
RTVSPost2010PropOp48
 70
     1
102
RTVSPost2010Prop49
280
     0
102
RTVSPost2010PropOp49
 70
     1
102
RTVSPost2010Prop50
 90
       50
102
RTVSPost2010PropOp50
 70
     1
102
RTVSPost2010Prop51ColorIndex
 90
      256
102
RTVSPost2010Prop51ColorRGB
 90
-16777216
102
RTVSPost2010PropOp51
 70
     0
102
RTVSPost2010Prop52
140
1.0
102
RTVSPost2010PropOp52
 70
     0
102
RTVSPost2010Prop53
 90
        2
102
RTVSPost2010PropOp53
 70
     1
102
RTVSPost2010Prop54
  1
strokes_ogs.tif
102
RTVSPost2010PropOp54
 70
     1
102
RTVSPost2010Prop55
280
     0
102
RTVSPost2010PropOp55
 70
     1
102
RTVSPost2010Prop56
140
1.0
102
RTVSPost2010PropOp56
 70
     1
102
RTVSPost2010Prop57
140
1.0
102
RTVSPost2010PropOp57
 70
     1
102
RTVSPropertyOp0
 70
     1
102
RTVSPropertyOp1
 70
     1
102
RTVSPropertyOp2
 70
     1
102
RTVSPropertyOp3
 70
     1
102
RTVSPropertyOp4
 70
     1
102
RTVSPropertyOp5
 70
     1
102
RTVSPropertyOp6
 70
     1
102
RTVSPropertyOp7
 70
     1
102
RTVSPropertyOp8
 70
     1
102
RTVSPropertyOp9
 70
     1
102
RTVSPropertyOp10
 70
     1
102
RTVSPropertyOp11
 70
     1
102
RTVSPropertyOp12
 70
     1
102
RTVSPropertyOp13
 70
     1
102
RTVSPropertyOp14
 70
     1
102
RTVSPropertyOp15
 70
     1
102
RTVSPropertyOp16
 70
     1
102
RTVSPropertyOp17
 70
     1
102
RTVSPropertyOp18
 70
     1
102
RTVSPropertyOp19
 70
     1
102
RTVSPropertyOp20
 70
     1
102
RTVSPropertyOp21
 70
     1
102
RTVSPropertyOp22
 70
     1
102
RTVSPropertyOp23
 70
     1
102
RTVSPropertyOp24
 70
     1
102
RTVSPropertyOp25
 70
     1
102
RTVSPropertyOp26
 70
     1
102
RTVSPropertyOp27
 70
     1
102
RTVSPropertyOp28
 70
     1
102
RTVSPropertyOp29
 70
     1
102
RTVSPropertyOp30
 70
     1
102
RTVSPropertyOp31
 70
     1
102
RTVSPropertyOp32
 70
     1
102
RTVSPropertyOp33
 70
     1
102
RTVSPropertyOp34
 70
     1
102
RTVSPropertyOp35
 70
     1
102
RTVSPropertyOp36
 70
     1
102
RTVSPropertyOp37
 70
     1
102
RTVSPropertyOp38
 70
     1
102
RTVSPropertyOp39
 70
     1
102
RTVSPropertyOp40
 70
     1
102
RTVSPropertyOp41
 70
     1
102
RTVSPropertyOp42
 70
     1
102
RTVSPropertyOp43
 70
     1
102
RTVSPropertyOp44
 70
     1
102
RTVSPropertyOp45
 70
     1
102
RTVSPropertyOp46
 70
     1
102
RTVSPropertyOp47
 70
     1
102
RTVSPropertyOp48
 70
     1
102
RTVSPropertyOp49
 70
     1
102
RTVSPropertyOp50
 70
     1
102
RTVSPropertyOp51
 70
     0
102
RTVSPropertyOp52
 70
     0
102
RTVSPropertyOp53
 70
     1
102
RTVSPropertyOp54
 70
     1
102
RTVSPropertyOp55
 70
     1
102
RTVSPropertyOp56
 70
     1
102
RTVSPropertyOp57
 70
     1
102
RTVSPropertyOp58
 70
     1
102
RTVSPropertyOp59
 70
     1
102
RTVSPropertyOp60
 70
     1
102
RTVSPropertyOp61
 70
     1
102
RTVSPropertyOp62
 70
     1
  0
XRECORD
  5
2945
102
{ACAD_REACTORS
330
2944
102
}
330
2944
100
AcDbXrecord
280
     1
102
RTVSPost2010Prop28
280
     0
102
RTVSPost2010PropOp28
 70
     1
102
RTVSPost2010Prop29
280
     1
102
RTVSPost2010PropOp29
 70
     1
102
RTVSPost2010Prop30
280
     1
102
RTVSPost2010PropOp30
 70
     1
102
RTVSPost2010Prop31
280
     0
102
RTVSPost2010PropOp31
 70
     1
102
RTVSPost2010Prop32
280
     0
102
RTVSPost2010PropOp32
 70
     1
102
RTVSPost2010Prop33
280
     0
102
RTVSPost2010PropOp33
 70
     1
102
RTVSPost2010Prop34
280
     0
102
RTVSPost2010PropOp34
 70
     1
102
RTVSPost2010Prop35
280
     0
102
RTVSPost2010PropOp35
 70
     1
102
RTVSPost2010Prop36
280
     0
102
RTVSPost2010PropOp36
 70
     1
102
RTVSPost2010Prop37
 90
       50
102
RTVSPost2010PropOp37
 70
     1
102
RTVSPost2010Prop38
140
0.0
102
RTVSPost2010PropOp38
 70
     1
102
RTVSPost2010Prop39
140
1.0
102
RTVSPost2010PropOp39
 70
     1
102
RTVSPost2010Prop40
 90
        0
102
RTVSPost2010PropOp40
 70
     1
102
RTVSPost2010Prop41ColorIndex
 90
       18
102
RTVSPost2010Prop41ColorRGB
 90
        0
102
RTVSPost2010PropOp41
 70
     1
102
RTVSPost2010Prop42
 90
       50
102
RTVSPost2010PropOp42
 70
     1
102
RTVSPost2010Prop43
 90
        3
102
RTVSPost2010PropOp43
 70
     1
102
RTVSPost2010Prop44ColorIndex
 90
        5
102
RTVSPost2010Prop44ColorRGB
 90
      255
102
RTVSPost2010PropOp44
 70
     1
102
RTVSPost2010Prop45
280
     0
102
RTVSPost2010PropOp45
 70
     1
102
RTVSPost2010Prop46
 90
       50
102
RTVSPost2010PropOp46
 70
     1
102
RTVSPost2010Prop47
 90
       50
102
RTVSPost2010PropOp47
 70
     1
102
RTVSPost2010Prop48
 90
       50
102
RTVSPost2010PropOp48
 70
     1
102
RTVSPost2010Prop49
280
     0
102
RTVSPost2010PropOp49
 70
     1
102
RTVSPost2010Prop50
 90
       50
102
RTVSPost2010PropOp50
 70
     1
102
RTVSPost2010Prop51ColorIndex
 90
      256
102
RTVSPost2010Prop51ColorRGB
 90
-16777216
102
RTVSPost2010PropOp51
 70
     0
102
RTVSPost2010Prop52
140
1.0
102
RTVSPost2010PropOp52
 70
     0
102
RTVSPost2010Prop53
 90
        2
102
RTVSPost2010PropOp53
 70
     1
102
RTVSPost2010Prop54
  1
strokes_ogs.tif
102
RTVSPost2010PropOp54
 70
     1
102
RTVSPost2010Prop55
280
     0
102
RTVSPost2010PropOp55
 70
     1
102
RTVSPost2010Prop56
140
1.0
102
RTVSPost2010PropOp56
 70
     1
102
RTVSPost2010Prop57
140
1.0
102
RTVSPost2010PropOp57
 70
     1
102
RTVSPropertyOp0
 70
     1
102
RTVSPropertyOp1
 70
     1
102
RTVSPropertyOp2
 70
     1
102
RTVSPropertyOp3
 70
     1
102
RTVSPropertyOp4
 70
     1
102
RTVSPropertyOp5
 70
     1
102
RTVSPropertyOp6
 70
     1
102
RTVSPropertyOp7
 70
     1
102
RTVSPropertyOp8
 70
     1
102
RTVSPropertyOp9
 70
     1
102
RTVSPropertyOp10
 70
     1
102
RTVSPropertyOp11
 70
     1
102
RTVSPropertyOp12
 70
     1
102
RTVSPropertyOp13
 70
     1
102
RTVSPropertyOp14
 70
     1
102
RTVSPropertyOp15
 70
     1
102
RTVSPropertyOp16
 70
     1
102
RTVSPropertyOp17
 70
     1
102
RTVSPropertyOp18
 70
     1
102
RTVSPropertyOp19
 70
     1
102
RTVSPropertyOp20
 70
     1
102
RTVSPropertyOp21
 70
     1
102
RTVSPropertyOp22
 70
     1
102
RTVSPropertyOp23
 70
     1
102
RTVSPropertyOp24
 70
     1
102
RTVSPropertyOp25
 70
     1
102
RTVSPropertyOp26
 70
     1
102
RTVSPropertyOp27
 70
     1
102
RTVSPropertyOp28
 70
     1
102
RTVSPropertyOp29
 70
     1
102
RTVSPropertyOp30
 70
     1
102
RTVSPropertyOp31
 70
     1
102
RTVSPropertyOp32
 70
     1
102
RTVSPropertyOp33
 70
     1
102
RTVSPropertyOp34
 70
     1
102
RTVSPropertyOp35
 70
     1
102
RTVSPropertyOp36
 70
     1
102
RTVSPropertyOp37
 70
     1
102
RTVSPropertyOp38
 70
     1
102
RTVSPropertyOp39
 70
     1
102
RTVSPropertyOp40
 70
     1
102
RTVSPropertyOp41
 70
     1
102
RTVSPropertyOp42
 70
     1
102
RTVSPropertyOp43
 70
     1
102
RTVSPropertyOp44
 70
     1
102
RTVSPropertyOp45
 70
     1
102
RTVSPropertyOp46
 70
     1
102
RTVSPropertyOp47
 70
     1
102
RTVSPropertyOp48
 70
     1
102
RTVSPropertyOp49
 70
     1
102
RTVSPropertyOp50
 70
     1
102
RTVSPropertyOp51
 70
     0
102
RTVSPropertyOp52
 70
     0
102
RTVSPropertyOp53
 70
     1
102
RTVSPropertyOp54
 70
     1
102
RTVSPropertyOp55
 70
     1
102
RTVSPropertyOp56
 70
     1
102
RTVSPropertyOp57
 70
     1
102
RTVSPropertyOp58
 70
     1
102
RTVSPropertyOp59
 70
     1
102
RTVSPropertyOp60
 70
     1
102
RTVSPropertyOp61
 70
     1
102
RTVSPropertyOp62
 70
     1
  0
XRECORD
  5
2939
102
{ACAD_REACTORS
330
2938
102
}
330
2938
100
AcDbXrecord
280
     1
102
RTVSPost2010Prop28
280
     0
102
RTVSPost2010PropOp28
 70
     1
102
RTVSPost2010Prop29
280
     1
102
RTVSPost2010PropOp29
 70
     1
102
RTVSPost2010Prop30
280
     1
102
RTVSPost2010PropOp30
 70
     1
102
RTVSPost2010Prop31
280
     0
102
RTVSPost2010PropOp31
 70
     1
102
RTVSPost2010Prop32
280
     0
102
RTVSPost2010PropOp32
 70
     1
102
RTVSPost2010Prop33
280
     0
102
RTVSPost2010PropOp33
 70
     1
102
RTVSPost2010Prop34
280
     0
102
RTVSPost2010PropOp34
 70
     1
102
RTVSPost2010Prop35
280
     0
102
RTVSPost2010PropOp35
 70
     1
102
RTVSPost2010Prop36
280
     0
102
RTVSPost2010PropOp36
 70
     1
102
RTVSPost2010Prop37
 90
       50
102
RTVSPost2010PropOp37
 70
     1
102
RTVSPost2010Prop38
140
0.0
102
RTVSPost2010PropOp38
 70
     1
102
RTVSPost2010Prop39
140
1.0
102
RTVSPost2010PropOp39
 70
     1
102
RTVSPost2010Prop40
 90
        0
102
RTVSPost2010PropOp40
 70
     1
102
RTVSPost2010Prop41ColorIndex
 90
       18
102
RTVSPost2010Prop41ColorRGB
 90
        0
102
RTVSPost2010PropOp41
 70
     1
102
RTVSPost2010Prop42
 90
       50
102
RTVSPost2010PropOp42
 70
     1
102
RTVSPost2010Prop43
 90
        3
102
RTVSPost2010PropOp43
 70
     1
102
RTVSPost2010Prop44ColorIndex
 90
        5
102
RTVSPost2010Prop44ColorRGB
 90
      255
102
RTVSPost2010PropOp44
 70
     1
102
RTVSPost2010Prop45
280
     0
102
RTVSPost2010PropOp45
 70
     1
102
RTVSPost2010Prop46
 90
       50
102
RTVSPost2010PropOp46
 70
     1
102
RTVSPost2010Prop47
 90
       50
102
RTVSPost2010PropOp47
 70
     1
102
RTVSPost2010Prop48
 90
       50
102
RTVSPost2010PropOp48
 70
     1
102
RTVSPost2010Prop49
280
     0
102
RTVSPost2010PropOp49
 70
     1
102
RTVSPost2010Prop50
 90
       50
102
RTVSPost2010PropOp50
 70
     1
102
RTVSPost2010Prop51ColorIndex
 90
      256
102
RTVSPost2010Prop51ColorRGB
 90
-16777216
102
RTVSPost2010PropOp51
 70
     0
102
RTVSPost2010Prop52
140
1.0
102
RTVSPost2010PropOp52
 70
     0
102
RTVSPost2010Prop53
 90
        2
102
RTVSPost2010PropOp53
 70
     1
102
RTVSPost2010Prop54
  1
strokes_ogs.tif
102
RTVSPost2010PropOp54
 70
     1
102
RTVSPost2010Prop55
280
     0
102
RTVSPost2010PropOp55
 70
     1
102
RTVSPost2010Prop56
140
1.0
102
RTVSPost2010PropOp56
 70
     1
102
RTVSPost2010Prop57
140
1.0
102
RTVSPost2010PropOp57
 70
     1
102
RTVSPropertyOp0
 70
     1
102
RTVSPropertyOp1
 70
     1
102
RTVSPropertyOp2
 70
     1
102
RTVSPropertyOp3
 70
     1
102
RTVSPropertyOp4
 70
     1
102
RTVSPropertyOp5
 70
     1
102
RTVSPropertyOp6
 70
     1
102
RTVSPropertyOp7
 70
     1
102
RTVSPropertyOp8
 70
     1
102
RTVSPropertyOp9
 70
     1
102
RTVSPropertyOp10
 70
     1
102
RTVSPropertyOp11
 70
     1
102
RTVSPropertyOp12
 70
     1
102
RTVSPropertyOp13
 70
     1
102
RTVSPropertyOp14
 70
     1
102
RTVSPropertyOp15
 70
     1
102
RTVSPropertyOp16
 70
     1
102
RTVSPropertyOp17
 70
     1
102
RTVSPropertyOp18
 70
     1
102
RTVSPropertyOp19
 70
     1
102
RTVSPropertyOp20
 70
     1
102
RTVSPropertyOp21
 70
     1
102
RTVSPropertyOp22
 70
     1
102
RTVSPropertyOp23
 70
     1
102
RTVSPropertyOp24
 70
     1
102
RTVSPropertyOp25
 70
     1
102
RTVSPropertyOp26
 70
     1
102
RTVSPropertyOp27
 70
     1
102
RTVSPropertyOp28
 70
     1
102
RTVSPropertyOp29
 70
     1
102
RTVSPropertyOp30
 70
     1
102
RTVSPropertyOp31
 70
     1
102
RTVSPropertyOp32
 70
     1
102
RTVSPropertyOp33
 70
     1
102
RTVSPropertyOp34
 70
     1
102
RTVSPropertyOp35
 70
     1
102
RTVSPropertyOp36
 70
     1
102
RTVSPropertyOp37
 70
     1
102
RTVSPropertyOp38
 70
     1
102
RTVSPropertyOp39
 70
     1
102
RTVSPropertyOp40
 70
     1
102
RTVSPropertyOp41
 70
     1
102
RTVSPropertyOp42
 70
     1
102
RTVSPropertyOp43
 70
     1
102
RTVSPropertyOp44
 70
     1
102
RTVSPropertyOp45
 70
     1
102
RTVSPropertyOp46
 70
     1
102
RTVSPropertyOp47
 70
     1
102
RTVSPropertyOp48
 70
     1
102
RTVSPropertyOp49
 70
     1
102
RTVSPropertyOp50
 70
     1
102
RTVSPropertyOp51
 70
     0
102
RTVSPropertyOp52
 70
     0
102
RTVSPropertyOp53
 70
     1
102
RTVSPropertyOp54
 70
     1
102
RTVSPropertyOp55
 70
     1
102
RTVSPropertyOp56
 70
     1
102
RTVSPropertyOp57
 70
     1
102
RTVSPropertyOp58
 70
     1
102
RTVSPropertyOp59
 70
     1
102
RTVSPropertyOp60
 70
     1
102
RTVSPropertyOp61
 70
     1
102
RTVSPropertyOp62
 70
     1
  0
XRECORD
  5
2959
102
{ACAD_REACTORS
330
2958
102
}
330
2958
100
AcDbXrecord
280
     1
102
RTVSPost2010Prop28
280
     0
102
RTVSPost2010PropOp28
 70
     1
102
RTVSPost2010Prop29
280
     1
102
RTVSPost2010PropOp29
 70
     1
102
RTVSPost2010Prop30
280
     1
102
RTVSPost2010PropOp30
 70
     1
102
RTVSPost2010Prop31
280
     0
102
RTVSPost2010PropOp31
 70
     1
102
RTVSPost2010Prop32
280
     0
102
RTVSPost2010PropOp32
 70
     1
102
RTVSPost2010Prop33
280
     0
102
RTVSPost2010PropOp33
 70
     1
102
RTVSPost2010Prop34
280
     0
102
RTVSPost2010PropOp34
 70
     1
102
RTVSPost2010Prop35
280
     0
102
RTVSPost2010PropOp35
 70
     1
102
RTVSPost2010Prop36
280
     0
102
RTVSPost2010PropOp36
 70
     1
102
RTVSPost2010Prop37
 90
       50
102
RTVSPost2010PropOp37
 70
     1
102
RTVSPost2010Prop38
140
0.0
102
RTVSPost2010PropOp38
 70
     1
102
RTVSPost2010Prop39
140
1.0
102
RTVSPost2010PropOp39
 70
     1
102
RTVSPost2010Prop40
 90
        0
102
RTVSPost2010PropOp40
 70
     1
102
RTVSPost2010Prop41ColorIndex
 90
       18
102
RTVSPost2010Prop41ColorRGB
 90
        0
102
RTVSPost2010PropOp41
 70
     1
102
RTVSPost2010Prop42
 90
       50
102
RTVSPost2010PropOp42
 70
     1
102
RTVSPost2010Prop43
 90
        3
102
RTVSPost2010PropOp43
 70
     1
102
RTVSPost2010Prop44ColorIndex
 90
        5
102
RTVSPost2010Prop44ColorRGB
 90
      255
102
RTVSPost2010PropOp44
 70
     1
102
RTVSPost2010Prop45
280
     0
102
RTVSPost2010PropOp45
 70
     1
102
RTVSPost2010Prop46
 90
       50
102
RTVSPost2010PropOp46
 70
     1
102
RTVSPost2010Prop47
 90
       50
102
RTVSPost2010PropOp47
 70
     1
102
RTVSPost2010Prop48
 90
       50
102
RTVSPost2010PropOp48
 70
     1
102
RTVSPost2010Prop49
280
     0
102
RTVSPost2010PropOp49
 70
     1
102
RTVSPost2010Prop50
 90
       50
102
RTVSPost2010PropOp50
 70
     1
102
RTVSPost2010Prop51ColorIndex
 90
      256
102
RTVSPost2010Prop51ColorRGB
 90
-16777216
102
RTVSPost2010PropOp51
 70
     0
102
RTVSPost2010Prop52
140
1.0
102
RTVSPost2010PropOp52
 70
     0
102
RTVSPost2010Prop53
 90
        2
102
RTVSPost2010PropOp53
 70
     1
102
RTVSPost2010Prop54
  1
strokes_ogs.tif
102
RTVSPost2010PropOp54
 70
     1
102
RTVSPost2010Prop55
280
     0
102
RTVSPost2010PropOp55
 70
     1
102
RTVSPost2010Prop56
140
1.0
102
RTVSPost2010PropOp56
 70
     1
102
RTVSPost2010Prop57
140
1.0
102
RTVSPost2010PropOp57
 70
     1
102
RTVSPropertyOp0
 70
     1
102
RTVSPropertyOp1
 70
     1
102
RTVSPropertyOp2
 70
     1
102
RTVSPropertyOp3
 70
     1
102
RTVSPropertyOp4
 70
     1
102
RTVSPropertyOp5
 70
     1
102
RTVSPropertyOp6
 70
     1
102
RTVSPropertyOp7
 70
     1
102
RTVSPropertyOp8
 70
     1
102
RTVSPropertyOp9
 70
     1
102
RTVSPropertyOp10
 70
     1
102
RTVSPropertyOp11
 70
     1
102
RTVSPropertyOp12
 70
     1
102
RTVSPropertyOp13
 70
     1
102
RTVSPropertyOp14
 70
     1
102
RTVSPropertyOp15
 70
     1
102
RTVSPropertyOp16
 70
     1
102
RTVSPropertyOp17
 70
     1
102
RTVSPropertyOp18
 70
     1
102
RTVSPropertyOp19
 70
     1
102
RTVSPropertyOp20
 70
     1
102
RTVSPropertyOp21
 70
     1
102
RTVSPropertyOp22
 70
     1
102
RTVSPropertyOp23
 70
     1
102
RTVSPropertyOp24
 70
     1
102
RTVSPropertyOp25
 70
     1
102
RTVSPropertyOp26
 70
     1
102
RTVSPropertyOp27
 70
     1
102
RTVSPropertyOp28
 70
     1
102
RTVSPropertyOp29
 70
     1
102
RTVSPropertyOp30
 70
     1
102
RTVSPropertyOp31
 70
     1
102
RTVSPropertyOp32
 70
     1
102
RTVSPropertyOp33
 70
     1
102
RTVSPropertyOp34
 70
     1
102
RTVSPropertyOp35
 70
     1
102
RTVSPropertyOp36
 70
     1
102
RTVSPropertyOp37
 70
     1
102
RTVSPropertyOp38
 70
     1
102
RTVSPropertyOp39
 70
     1
102
RTVSPropertyOp40
 70
     1
102
RTVSPropertyOp41
 70
     1
102
RTVSPropertyOp42
 70
     1
102
RTVSPropertyOp43
 70
     1
102
RTVSPropertyOp44
 70
     1
102
RTVSPropertyOp45
 70
     1
102
RTVSPropertyOp46
 70
     1
102
RTVSPropertyOp47
 70
     1
102
RTVSPropertyOp48
 70
     1
102
RTVSPropertyOp49
 70
     1
102
RTVSPropertyOp50
 70
     1
102
RTVSPropertyOp51
 70
     0
102
RTVSPropertyOp52
 70
     0
102
RTVSPropertyOp53
 70
     1
102
RTVSPropertyOp54
 70
     1
102
RTVSPropertyOp55
 70
     1
102
RTVSPropertyOp56
 70
     1
102
RTVSPropertyOp57
 70
     1
102
RTVSPropertyOp58
 70
     1
102
RTVSPropertyOp59
 70
     1
102
RTVSPropertyOp60
 70
     1
102
RTVSPropertyOp61
 70
     1
102
RTVSPropertyOp62
 70
     1
  0
ENDSEC
  0
EOF
