  0
SECTION
  2
HEADER
  9
$ACADVER
  1
AC1015
  9
$ACADMAINTVER
 70
    18
  9
$DWGCODEPAGE
  3
ANSI_1252
  9
$INSBASE
 10
0.0
 20
0.0
 30
0.0
  9
$EXTMIN
 10
-8.760680184653779
 20
-87.54194582153804
 30
-0.0015258207003583
  9
$EXTMAX
 10
21.61651662739052
 20
1.010605205328488
 30
0.0000000349246037
  9
$LIMMIN
 10
0.0
 20
0.0
  9
$LIMMAX
 10
420.0
 20
297.0
  9
$ORTHOMODE
 70
     0
  9
$REGENMODE
 70
     1
  9
$FILLMODE
 70
     1
  9
$QTEXTMODE
 70
     0
  9
$MIRRTEXT
 70
     0
  9
$LTSCALE
 40
1.0
  9
$ATTMODE
 70
     1
  9
$TEXTSIZE
 40
2.5
  9
$TRACEWID
 40
1.0
  9
$TEXTSTYLE
  7
Standard
  9
$CLAYER
  8
0
  9
$CELTYPE
  6
ByLayer
  9
$CECOLOR
 62
   256
  9
$CELTSCALE
 40
1.0
  9
$DISPSILH
 70
     0
  9
$DIMSCALE
 40
1.0
  9
$DIMASZ
 40
2.5
  9
$DIMEXO
 40
0.625
  9
$DIMDLI
 40
3.75
  9
$DIMRND
 40
0.0
  9
$DIMDLE
 40
0.0
  9
$DIMEXE
 40
1.25
  9
$DIMTP
 40
0.0
  9
$DIMTM
 40
0.0
  9
$DIMTXT
 40
2.5
  9
$DIMCEN
 40
2.5
  9
$DIMTSZ
 40
0.0
  9
$DIMTOL
 70
     0
  9
$DIMLIM
 70
     0
  9
$DIMTIH
 70
     0
  9
$DIMTOH
 70
     0
  9
$DIMSE1
 70
     0
  9
$DIMSE2
 70
     0
  9
$DIMTAD
 70
     1
  9
$DIMZIN
 70
     8
  9
$DIMBLK
  1

  9
$DIMASO
 70
     1
  9
$DIMSHO
 70
     1
  9
$DIMPOST
  1

  9
$DIMAPOST
  1

  9
$DIMALT
 70
     0
  9
$DIMALTD
 70
     3
  9
$DIMALTF
 40
0.03937007874016
  9
$DIMLFAC
 40
1.0
  9
$DIMTOFL
 70
     1
  9
$DIMTVP
 40
0.0
  9
$DIMTIX
 70
     0
  9
$DIMSOXD
 70
     0
  9
$DIMSAH
 70
     0
  9
$DIMBLK1
  1

  9
$DIMBLK2
  1

  9
$DIMSTYLE
  2
ISO-25
  9
$DIMCLRD
 70
     0
  9
$DIMCLRE
 70
     0
  9
$DIMCLRT
 70
     0
  9
$DIMTFAC
 40
1.0
  9
$DIMGAP
 40
0.625
  9
$DIMJUST
 70
     0
  9
$DIMSD1
 70
     0
  9
$DIMSD2
 70
     0
  9
$DIMTOLJ
 70
     0
  9
$DIMTZIN
 70
     8
  9
$DIMALTZ
 70
     0
  9
$DIMALTTZ
 70
     0
  9
$DIMUPT
 70
     0
  9
$DIMDEC
 70
     2
  9
$DIMTDEC
 70
     2
  9
$DIMALTU
 70
     2
  9
$DIMALTTD
 70
     3
  9
$DIMTXSTY
  7
Standard
  9
$DIMAUNIT
 70
     0
  9
$DIMADEC
 70
     0
  9
$DIMALTRND
 40
0.0
  9
$DIMAZIN
 70
     0
  9
$DIMDSEP
 70
    44
  9
$DIMATFIT
 70
     3
  9
$DIMFRAC
 70
     0
  9
$DIMLDRBLK
  1

  9
$DIMLUNIT
 70
     2
  9
$DIMLWD
 70
    -2
  9
$DIMLWE
 70
    -2
  9
$DIMTMOVE
 70
     0
  9
$LUNITS
 70
     2
  9
$LUPREC
 70
     4
  9
$SKETCHINC
 40
1.0
  9
$FILLETRAD
 40
0.0
  9
$AUNITS
 70
     0
  9
$AUPREC
 70
     0
  9
$MENU
  1
.
  9
$ELEVATION
 40
0.0
  9
$PELEVATION
 40
0.0
  9
$THICKNESS
 40
0.0
  9
$LIMCHECK
 70
     0
  9
$CHAMFERA
 40
0.0
  9
$CHAMFERB
 40
0.0
  9
$CHAMFERC
 40
0.0
  9
$CHAMFERD
 40
0.0
  9
$SKPOLY
 70
     0
  9
$TDCREATE
 40
2460693.556458334
  9
$TDUCREATE
 40
2460693.264791667
  9
$TDUPDATE
 40
2460693.606921296
  9
$TDUUPDATE
 40
2460693.315254629
  9
$TDINDWG
 40
0.0489236111
  9
$TDUSRTIMER
 40
0.0489236111
  9
$USRTIMER
 70
     1
  9
$ANGBASE
 50
0.0
  9
$ANGDIR
 70
     0
  9
$PDMODE
 70
     0
  9
$PDSIZE
 40
0.0
  9
$PLINEWID
 40
0.0
  9
$SPLFRAME
 70
     0
  9
$SPLINETYPE
 70
     6
  9
$SPLINESEGS
 70
     8
  9
$HANDSEED
  5
A66
  9
$SURFTAB1
 70
     6
  9
$SURFTAB2
 70
     6
  9
$SURFTYPE
 70
     6
  9
$SURFU
 70
     6
  9
$SURFV
 70
     6
  9
$UCSBASE
  2

  9
$UCSNAME
  2

  9
$UCSORG
 10
0.0
 20
0.0
 30
0.0
  9
$UCSXDIR
 10
1.0
 20
0.0
 30
0.0
  9
$UCSYDIR
 10
0.0
 20
1.0
 30
0.0
  9
$UCSORTHOREF
  2

  9
$UCSORTHOVIEW
 70
     0
  9
$UCSORGTOP
 10
0.0
 20
0.0
 30
0.0
  9
$UCSORGBOTTOM
 10
0.0
 20
0.0
 30
0.0
  9
$UCSORGLEFT
 10
0.0
 20
0.0
 30
0.0
  9
$UCSORGRIGHT
 10
0.0
 20
0.0
 30
0.0
  9
$UCSORGFRONT
 10
0.0
 20
0.0
 30
0.0
  9
$UCSORGBACK
 10
0.0
 20
0.0
 30
0.0
  9
$PUCSBASE
  2

  9
$PUCSNAME
  2

  9
$PUCSORG
 10
0.0
 20
0.0
 30
0.0
  9
$PUCSXDIR
 10
1.0
 20
0.0
 30
0.0
  9
$PUCSYDIR
 10
0.0
 20
1.0
 30
0.0
  9
$PUCSORTHOREF
  2

  9
$PUCSORTHOVIEW
 70
     0
  9
$PUCSORGTOP
 10
0.0
 20
0.0
 30
0.0
  9
$PUCSORGBOTTOM
 10
0.0
 20
0.0
 30
0.0
  9
$PUCSORGLEFT
 10
0.0
 20
0.0
 30
0.0
  9
$PUCSORGRIGHT
 10
0.0
 20
0.0
 30
0.0
  9
$PUCSORGFRONT
 10
0.0
 20
0.0
 30
0.0
  9
$PUCSORGBACK
 10
0.0
 20
0.0
 30
0.0
  9
$USERI1
 70
     0
  9
$USERI2
 70
     0
  9
$USERI3
 70
     0
  9
$USERI4
 70
     0
  9
$USERI5
 70
     0
  9
$USERR1
 40
0.0
  9
$USERR2
 40
0.0
  9
$USERR3
 40
0.0
  9
$USERR4
 40
0.0
  9
$USERR5
 40
0.0
  9
$WORLDVIEW
 70
     1
  9
$SHADEDGE
 70
     3
  9
$SHADEDIF
 70
    70
  9
$TILEMODE
 70
     1
  9
$MAXACTVP
 70
    48
  9
$PINSBASE
 10
0.0
 20
0.0
 30
0.0
  9
$PLIMCHECK
 70
     0
  9
$PEXTMIN
 10
0.0
 20
0.0
 30
0.0
  9
$PEXTMAX
 10
0.0
 20
0.0
 30
0.0
  9
$PLIMMIN
 10
0.0
 20
0.0
  9
$PLIMMAX
 10
12.0
 20
9.0
  9
$UNITMODE
 70
     0
  9
$VISRETAIN
 70
     1
  9
$PLINEGEN
 70
     0
  9
$PSLTSCALE
 70
     1
  9
$TREEDEPTH
 70
  3020
  9
$CMLSTYLE
  2
Standard
  9
$CMLJUST
 70
     0
  9
$CMLSCALE
 40
20.0
  9
$PROXYGRAPHICS
 70
     1
  9
$MEASUREMENT
 70
     1
  9
$CELWEIGHT
370
    -1
  9
$ENDCAPS
280
     0
  9
$JOINSTYLE
280
     0
  9
$LWDISPLAY
290
     0
  9
$INSUNITS
 70
     4
  9
$HYPERLINKBASE
  1

  9
$STYLESHEET
  1

  9
$XEDIT
290
     1
  9
$CEPSNTYPE
380
     0
  9
$PSTYLEMODE
290
     1
  9
$FINGERPRINTGUID
  2
{6BB7EA54-E3A6-D244-889C-0863075C46A9}
  9
$VERSIONGUID
  2
{5A90FC86-0151-3347-92DE-F226E62924EF}
  9
$EXTNAMES
290
     1
  9
$PSVPSCALE
 40
0.0
  9
$OLESTARTUP
290
     0
  0
ENDSEC
  0
SECTION
  2
CLASSES
  0
CLASS
  1
ACDBDICTIONARYWDFLT
  2
AcDbDictionaryWithDefault
  3
ObjectDBX Classes
 90
        0
280
     0
281
     0
  0
CLASS
  1
ACDBPLACEHOLDER
  2
AcDbPlaceHolder
  3
ObjectDBX Classes
 90
        0
280
     0
281
     0
  0
CLASS
  1
LAYOUT
  2
AcDbLayout
  3
ObjectDBX Classes
 90
        0
280
     0
281
     0
  0
CLASS
  1
DICTIONARYVAR
  2
AcDbDictionaryVar
  3
ObjectDBX Classes
 90
        0
280
     0
281
     0
  0
CLASS
  1
TABLESTYLE
  2
AcDbTableStyle
  3
ObjectDBX Classes
 90
     4095
280
     0
281
     0
  0
CLASS
  1
MATERIAL
  2
AcDbMaterial
  3
ObjectDBX Classes
 90
     1153
280
     0
281
     0
  0
CLASS
  1
VISUALSTYLE
  2
AcDbVisualStyle
  3
ObjectDBX Classes
 90
     4095
280
     0
281
     0
  0
CLASS
  1
SCALE
  2
AcDbScale
  3
ObjectDBX Classes
 90
     1153
280
     0
281
     0
  0
CLASS
  1
MLEADERSTYLE
  2
AcDbMLeaderStyle
  3
ACDB_MLEADERSTYLE_CLASS
 90
     4095
280
     0
281
     0
  0
CLASS
  1
CELLSTYLEMAP
  2
AcDbCellStyleMap
  3
ObjectDBX Classes
 90
     1152
280
     0
281
     0
  0
CLASS
  1
EXACXREFPANELOBJECT
  2
ExAcXREFPanelObject
  3
EXAC_ESW
 90
    33793
280
     0
281
     0
  0
CLASS
  1
NPOCOLLECTION
  2
AcDbImpNonPersistentObjectsCollection
  3
ObjectDBX Classes
 90
    33921
280
     0
281
     0
  0
CLASS
  1
LAYER_INDEX
  2
AcDbLayerIndex
  3
ObjectDBX Classes
 90
    32768
280
     0
281
     0
  0
CLASS
  1
SPATIAL_INDEX
  2
AcDbSpatialIndex
  3
ObjectDBX Classes
 90
    32768
280
     0
281
     0
  0
CLASS
  1
IDBUFFER
  2
AcDbIdBuffer
  3
ObjectDBX Classes
 90
    32768
280
     0
281
     0
  0
CLASS
  1
ACDBSECTIONVIEWSTYLE
  2
AcDbSectionViewStyle
  3
ObjectDBX Classes
 90
     1025
280
     0
281
     0
  0
CLASS
  1
ACDBDETAILVIEWSTYLE
  2
AcDbDetailViewStyle
  3
ObjectDBX Classes
 90
     1025
280
     0
281
     0
  0
CLASS
  1
XRECORD
  2
AcDbXrecord
  3
ObjectDBX Classes
 90
        0
280
     0
281
     0
  0
ENDSEC
  0
SECTION
  2
TABLES
  0
TABLE
  2
VPORT
  5
8
102
{ACAD_XDICTIONARY
360
972
102
}
330
0
100
AcDbSymbolTable
 70
     1
  0
VPORT
  5
EA
330
8
100
AcDbSymbolTableRecord
100
AcDbViewportTableRecord
  2
*Active
 70
     0
 10
0.0
 20
0.0
 11
1.0
 21
1.0
 12
6.427918221368376
 22
-43.26567030810477
 13
0.0
 23
0.0
 14
10.0
 24
10.0
 15
10.0
 25
10.0
 16
0.0
 26
0.0
 36
1.0
 17
0.0
 27
0.0
 37
0.0
 40
94.16761309126099
 41
0.9846153846153846
 42
50.0
 43
0.0
 44
0.0
 50
0.0
 51
0.0
 71
     0
 72
  1000
 73
     1
 74
     3
 75
     0
 76
     1
 77
     0
 78
     0
281
     0
 65
     1
110
0.0
120
0.0
130
0.0
111
1.0
121
0.0
131
0.0
112
0.0
122
1.0
132
0.0
 79
     0
146
0.0
1001
ACAD_NAV_VCDISPLAY
1070
     3
  0
ENDTAB
  0
TABLE
  2
LTYPE
  5
5
330
0
100
AcDbSymbolTable
 70
     1
  0
LTYPE
  5
14
330
5
100
AcDbSymbolTableRecord
100
AcDbLinetypeTableRecord
  2
ByBlock
 70
     0
  3

 72
    65
 73
     0
 40
0.0
  0
LTYPE
  5
15
330
5
100
AcDbSymbolTableRecord
100
AcDbLinetypeTableRecord
  2
ByLayer
 70
     0
  3

 72
    65
 73
     0
 40
0.0
  0
LTYPE
  5
16
330
5
100
AcDbSymbolTableRecord
100
AcDbLinetypeTableRecord
  2
Continuous
 70
     0
  3
Solid line
 72
    65
 73
     0
 40
0.0
  0
ENDTAB
  0
TABLE
  2
LAYER
  5
2
102
{ACAD_XDICTIONARY
360
1FF
102
}
330
0
100
AcDbSymbolTable
 70
     1
  0
LAYER
  5
10
102
{ACAD_XDICTIONARY
360
13C
102
}
330
2
100
AcDbSymbolTableRecord
100
AcDbLayerTableRecord
  2
0
 70
     0
 62
     7
  6
Continuous
370
    -3
390
F
  0
ENDTAB
  0
TABLE
  2
STYLE
  5
3
330
0
100
AcDbSymbolTable
 70
     1
  0
STYLE
  5
11
330
3
100
AcDbSymbolTableRecord
100
AcDbTextStyleTableRecord
  2
Standard
 70
     0
 40
0.0
 41
1.0
 50
0.0
 71
     0
 42
2.5
  3
arial.ttf
  4

1001
ACAD
1000
Arial
1071
       34
  0
ENDTAB
  0
TABLE
  2
VIEW
  5
6
330
0
100
AcDbSymbolTable
 70
     0
  0
ENDTAB
  0
TABLE
  2
UCS
  5
7
330
0
100
AcDbSymbolTable
 70
     0
  0
ENDTAB
  0
TABLE
  2
APPID
  5
9
330
0
100
AcDbSymbolTable
 70
     8
  0
APPID
  5
12
330
9
100
AcDbSymbolTableRecord
100
AcDbRegAppTableRecord
  2
ACAD
 70
     0
  0
APPID
  5
9E
330
9
100
AcDbSymbolTableRecord
100
AcDbRegAppTableRecord
  2
ACAD_PSEXT
 70
     0
  0
APPID
  5
133
330
9
100
AcDbSymbolTableRecord
100
AcDbRegAppTableRecord
  2
AcadAnnoPO
 70
     0
  0
APPID
  5
134
330
9
100
AcDbSymbolTableRecord
100
AcDbRegAppTableRecord
  2
AcadAnnotative
 70
     0
  0
APPID
  5
135
330
9
100
AcDbSymbolTableRecord
100
AcDbRegAppTableRecord
  2
ACAD_DSTYLE_DIMJAG
 70
     0
  0
APPID
  5
136
330
9
100
AcDbSymbolTableRecord
100
AcDbRegAppTableRecord
  2
ACAD_DSTYLE_DIMTALN
 70
     0
  0
APPID
  5
165
330
9
100
AcDbSymbolTableRecord
100
AcDbRegAppTableRecord
  2
ACAD_MLEADERVER
 70
     0
  0
APPID
  5
217
330
9
100
AcDbSymbolTableRecord
100
AcDbRegAppTableRecord
  2
ACAD_NAV_VCDISPLAY
 70
     0
  0
ENDTAB
  0
TABLE
  2
DIMSTYLE
  5
A
330
0
100
AcDbSymbolTable
 70
     1
100
AcDbDimStyleTable
 71
     0
  0
DIMSTYLE
105
27
330
A
100
AcDbSymbolTableRecord
100
AcDbDimStyleTableRecord
  2
ISO-25
 70
     0
 41
2.5
 42
0.625
 43
3.75
 44
1.25
 73
     0
 74
     0
 77
     1
 78
     8
140
2.5
141
2.5
143
0.03937007874016
147
0.625
171
     3
172
     1
271
     2
272
     2
274
     3
278
    44
283
     0
284
     8
340
11
  0
ENDTAB
  0
TABLE
  2
BLOCK_RECORD
  5
1
330
0
100
AcDbSymbolTable
 70
     4
  0
BLOCK_RECORD
  5
1F
102
{ACAD_XDICTIONARY
360
1CE
102
}
330
1
100
AcDbSymbolTableRecord
100
AcDbBlockTableRecord
  2
*Model_Space
340
22
  0
BLOCK_RECORD
  5
D2
102
{ACAD_XDICTIONARY
360
925
102
}
330
1
100
AcDbSymbolTableRecord
100
AcDbBlockTableRecord
  2
*Paper_Space
340
D3
  0
BLOCK_RECORD
  5
D6
102
{ACAD_XDICTIONARY
360
927
102
}
330
1
100
AcDbSymbolTableRecord
100
AcDbBlockTableRecord
  2
*Paper_Space0
340
D7
  0
BLOCK_RECORD
  5
57C
330
1
100
AcDbSymbolTableRecord
100
AcDbBlockTableRecord
  2
CNA31X40-Front
340
0
102
{BLKREFS
331
91E
102
}
  0
BLOCK_RECORD
  5
7FE
330
1
100
AcDbSymbolTableRecord
100
AcDbBlockTableRecord
  2
CNA31X40-Top
340
0
102
{BLKREFS
331
91F
102
}
  0
BLOCK_RECORD
  5
841
330
1
100
AcDbSymbolTableRecord
100
AcDbBlockTableRecord
  2
CNA31X40-ISO
340
0
102
{BLKREFS
331
920
102
}
  0
ENDTAB
  0
ENDSEC
  0
SECTION
  2
BLOCKS
  0
BLOCK
  5
20
330
1F
100
AcDbEntity
  8
0
100
AcDbBlockBegin
  2
*Model_Space
 70
     0
 10
0.0
 20
0.0
 30
0.0
  3
*Model_Space
  1

  0
ENDBLK
  5
21
330
1F
100
AcDbEntity
  8
0
100
AcDbBlockEnd
  0
BLOCK
  5
D4
330
D2
100
AcDbEntity
 67
     1
  8
0
100
AcDbBlockBegin
  2
*Paper_Space
 70
     0
 10
0.0
 20
0.0
 30
0.0
  3
*Paper_Space
  1

  0
ENDBLK
  5
D5
330
D2
100
AcDbEntity
 67
     1
  8
0
100
AcDbBlockEnd
  0
BLOCK
  5
D8
330
D6
100
AcDbEntity
 67
     1
  8
0
100
AcDbBlockBegin
  2
*Paper_Space0
 70
     0
 10
0.0
 20
0.0
 30
0.0
  3
*Paper_Space0
  1

  0
ENDBLK
  5
D9
330
D6
100
AcDbEntity
 67
     1
  8
0
100
AcDbBlockEnd
  0
BLOCK
  5
57D
330
57C
100
AcDbEntity
  8
0
100
AcDbBlockBegin
  2
CNA31X40-Front
 70
     0
 10
0.0
 20
0.0
 30
0.0
  3
CNA31X40-Front
  1

  0
LINE
  5
57F
330
57C
100
AcDbEntity
  8
0
100
AcDbLine
 10
-0.0299792461790291
 20
-40.0
 30
0.0
 11
0.0299792461790289
 21
-40.0
 31
0.0
  0
ARC
  5
580
330
57C
100
AcDbEntity
  8
0
100
AcDbCircle
 10
0.029979246179029
 20
-39.90000000000001
 30
0.0
 40
0.1000000000000007
100
AcDbArc
 50
270.0
 51
340.0000000000013
  0
LINE
  5
581
330
57C
100
AcDbEntity
  8
0
100
AcDbLine
 10
0.1239485082576185
 20
-39.93420201433256
 30
0.0
 11
-0.1239485082576184
 21
-39.93420201433256
 31
0.0
  0
ARC
  5
582
330
57C
100
AcDbEntity
  8
0
100
AcDbCircle
 10
-0.0299792461790291
 20
-39.90000000000001
 30
0.0
 40
0.1000000000000005
100
AcDbArc
 50
199.9999999999987
 51
270.0
  0
LINE
  5
583
330
57C
100
AcDbEntity
  8
0
100
AcDbLine
 10
2.600000000000015
 20
0.0
 30
0.0
 11
-2.600000000000004
 21
0.0
 31
0.0
  0
LINE
  5
584
330
57C
100
AcDbEntity
  8
0
100
AcDbLine
 10
-3.100000000000004
 20
0.5000000000000031
 30
0.0
 11
3.100000000000015
 21
0.5000000000000023
 31
0.0
  0
LINE
  5
585
330
57C
100
AcDbEntity
  8
0
100
AcDbLine
 10
3.100000000000015
 20
0.7500000000000028
 30
0.0
 11
-3.100000000000004
 21
0.7500000000000036
 31
0.0
  0
LINE
  5
586
330
57C
100
AcDbEntity
  8
0
100
AcDbLine
 10
-2.850000000000004
 20
1.000000000000003
 30
0.0
 11
2.850000000000015
 21
1.000000000000002
 31
0.0
  0
ARC
  5
587
330
57C
100
AcDbEntity
  8
0
100
AcDbCircle
 10
2.600000000000015
 20
0.5000000000000023
 30
0.0
 40
0.5
100
AcDbArc
 50
270.0
 51
0.0
  0
ARC
  5
588
330
57C
100
AcDbEntity
  8
0
100
AcDbCircle
 10
-2.600000000000004
 20
0.5000000000000031
 30
0.0
 40
0.5
100
AcDbArc
 50
180.0
 51
270.0
  0
ARC
  5
589
330
57C
100
AcDbEntity
  8
0
100
AcDbCircle
 10
2.850000000000015
 20
0.7500000000000028
 30
0.0
 40
0.25
100
AcDbArc
 50
0.0
 51
90.0
  0
ARC
  5
58A
330
57C
100
AcDbEntity
  8
0
100
AcDbCircle
 10
-2.850000000000004
 20
0.7500000000000036
 30
0.0
 40
0.25
100
AcDbArc
 50
90.0
 51
180.0
  0
LINE
  5
58B
330
57C
100
AcDbEntity
  8
0
100
AcDbLine
 10
-1.20208152801713
 20
-36.97205588737489
 30
0.0
 11
-0.1239485082576185
 21
-39.93420201433256
 31
0.0
  0
LINE
  5
58C
330
57C
100
AcDbEntity
  8
0
100
AcDbLine
 10
-1.202081528017131
 20
-36.97205588737489
 30
0.0
 11
-1.555084742026653
 21
-36.00218752788882
 31
0.0
  0
LINE
  5
58D
330
57C
100
AcDbEntity
  8
0
100
AcDbLine
 10
1.202081528017129
 20
-36.97205588737489
 30
0.0
 11
0.1239485082576185
 21
-39.93420201433256
 31
0.0
  0
ELLIPSE
  5
58E
330
57C
100
AcDbEntity
  8
0
100
AcDbEllipse
 10
0.0
 20
-40.27474774194546
 30
0.0
 11
0.0
 21
-4.670711613072859
 31
0.0
210
0.0
220
0.0
230
1.0
 40
0.3639702342662022
 41
2.356194490192344
 42
2.725699216836492
  0
LINE
  5
58F
330
57C
100
AcDbEntity
  8
0
100
AcDbLine
 10
0.6868125254506492
 20
-36.00218752788882
 30
0.0
 11
-0.6868125254506492
 21
-36.00218752788882
 31
0.0
  0
ELLIPSE
  5
590
330
57C
100
AcDbEntity
  8
0
100
AcDbEllipse
 10
0.0
 20
-40.27474774194546
 30
0.0
 11
0.0
 21
-4.670711613072859
 31
0.0
210
0.0
220
0.0
230
1.0
 40
0.3639702342662022
 41
3.557486090343093
 42
3.926990816987241
  0
LINE
  5
591
330
57C
100
AcDbEntity
  8
0
100
AcDbLine
 10
1.35
 20
-34.73218752788881
 30
0.0
 11
-1.35
 21
-34.73218752788881
 31
0.0
  0
LINE
  5
592
330
57C
100
AcDbEntity
  8
0
100
AcDbLine
 10
1.634953780783396
 20
-34.83849530190957
 30
0.0
 11
-1.634953780783396
 21
-34.83849530190957
 31
0.0
  0
LINE
  5
593
330
57C
100
AcDbEntity
  8
0
100
AcDbLine
 10
1.69490274813999
 20
-34.96370686156639
 30
0.0
 11
-1.69490274813999
 21
-34.96370686156639
 31
0.0
  0
LINE
  5
594
330
57C
100
AcDbEntity
  8
0
100
AcDbLine
 10
-1.555084742026652
 20
-36.00218752788882
 30
0.0
 11
-0.6868125254506491
 21
-36.00218752788882
 31
0.0
  0
LINE
  5
595
330
57C
100
AcDbEntity
  8
0
100
AcDbLine
 10
0.6868125254506492
 20
-36.00218752788882
 30
0.0
 11
1.555084742026652
 21
-36.00218752788882
 31
0.0
  0
LINE
  5
596
330
57C
100
AcDbEntity
  8
0
100
AcDbLine
 10
1.35
 20
-33.46218752788882
 30
0.0
 11
-1.35
 21
-33.46218752788882
 31
0.0
  0
LINE
  5
597
330
57C
100
AcDbEntity
  8
0
100
AcDbLine
 10
1.634953780783396
 20
-33.56849530190956
 30
0.0
 11
-1.634953780783396
 21
-33.56849530190956
 31
0.0
  0
LINE
  5
598
330
57C
100
AcDbEntity
  8
0
100
AcDbLine
 10
1.69490274813999
 20
-33.69370686156639
 30
0.0
 11
-1.69490274813999
 21
-33.69370686156639
 31
0.0
  0
LINE
  5
599
330
57C
100
AcDbEntity
  8
0
100
AcDbLine
 10
1.35
 20
-32.19218752788882
 30
0.0
 11
-1.35
 21
-32.19218752788882
 31
0.0
  0
LINE
  5
59A
330
57C
100
AcDbEntity
  8
0
100
AcDbLine
 10
1.634953780783396
 20
-32.29849530190957
 30
0.0
 11
-1.634953780783396
 21
-32.29849530190957
 31
0.0
  0
LINE
  5
59B
330
57C
100
AcDbEntity
  8
0
100
AcDbLine
 10
1.69490274813999
 20
-32.42370686156639
 30
0.0
 11
-1.69490274813999
 21
-32.42370686156639
 31
0.0
  0
LINE
  5
59C
330
57C
100
AcDbEntity
  8
0
100
AcDbLine
 10
1.35
 20
-30.92218752788882
 30
0.0
 11
-1.35
 21
-30.92218752788882
 31
0.0
  0
LINE
  5
59D
330
57C
100
AcDbEntity
  8
0
100
AcDbLine
 10
1.634953780783396
 20
-31.02849530190957
 30
0.0
 11
-1.634953780783396
 21
-31.02849530190957
 31
0.0
  0
LINE
  5
59E
330
57C
100
AcDbEntity
  8
0
100
AcDbLine
 10
1.69490274813999
 20
-31.15370686156639
 30
0.0
 11
-1.69490274813999
 21
-31.15370686156639
 31
0.0
  0
LINE
  5
59F
330
57C
100
AcDbEntity
  8
0
100
AcDbLine
 10
1.35
 20
-29.65218752788882
 30
0.0
 11
-1.35
 21
-29.65218752788882
 31
0.0
  0
LINE
  5
5A0
330
57C
100
AcDbEntity
  8
0
100
AcDbLine
 10
1.634953780783396
 20
-29.75849530190957
 30
0.0
 11
-1.634953780783396
 21
-29.75849530190957
 31
0.0
  0
LINE
  5
5A1
330
57C
100
AcDbEntity
  8
0
100
AcDbLine
 10
1.69490274813999
 20
-29.88370686156638
 30
0.0
 11
-1.69490274813999
 21
-29.88370686156638
 31
0.0
  0
LINE
  5
5A2
330
57C
100
AcDbEntity
  8
0
100
AcDbLine
 10
1.35
 20
-28.38218752788881
 30
0.0
 11
-1.35
 21
-28.38218752788881
 31
0.0
  0
LINE
  5
5A3
330
57C
100
AcDbEntity
  8
0
100
AcDbLine
 10
1.634953780783396
 20
-28.48849530190957
 30
0.0
 11
-1.634953780783396
 21
-28.48849530190957
 31
0.0
  0
LINE
  5
5A4
330
57C
100
AcDbEntity
  8
0
100
AcDbLine
 10
1.69490274813999
 20
-28.61370686156638
 30
0.0
 11
-1.69490274813999
 21
-28.61370686156638
 31
0.0
  0
LINE
  5
5A5
330
57C
100
AcDbEntity
  8
0
100
AcDbLine
 10
1.35
 20
-27.11218752788882
 30
0.0
 11
-1.35
 21
-27.11218752788882
 31
0.0
  0
LINE
  5
5A6
330
57C
100
AcDbEntity
  8
0
100
AcDbLine
 10
1.634953780783396
 20
-27.21849530190957
 30
0.0
 11
-1.634953780783396
 21
-27.21849530190957
 31
0.0
  0
LINE
  5
5A7
330
57C
100
AcDbEntity
  8
0
100
AcDbLine
 10
1.69490274813999
 20
-27.34370686156638
 30
0.0
 11
-1.69490274813999
 21
-27.34370686156638
 31
0.0
  0
LINE
  5
5A8
330
57C
100
AcDbEntity
  8
0
100
AcDbLine
 10
1.35
 20
-25.84218752788882
 30
0.0
 11
-1.35
 21
-25.84218752788882
 31
0.0
  0
LINE
  5
5A9
330
57C
100
AcDbEntity
  8
0
100
AcDbLine
 10
1.634953780783396
 20
-25.94849530190957
 30
0.0
 11
-1.634953780783396
 21
-25.94849530190957
 31
0.0
  0
LINE
  5
5AA
330
57C
100
AcDbEntity
  8
0
100
AcDbLine
 10
1.69490274813999
 20
-26.07370686156639
 30
0.0
 11
-1.69490274813999
 21
-26.07370686156639
 31
0.0
  0
LINE
  5
5AB
330
57C
100
AcDbEntity
  8
0
100
AcDbLine
 10
1.35
 20
-24.57218752788881
 30
0.0
 11
-1.35
 21
-24.57218752788881
 31
0.0
  0
LINE
  5
5AC
330
57C
100
AcDbEntity
  8
0
100
AcDbLine
 10
1.634953780783396
 20
-24.67849530190957
 30
0.0
 11
-1.634953780783396
 21
-24.67849530190957
 31
0.0
  0
LINE
  5
5AD
330
57C
100
AcDbEntity
  8
0
100
AcDbLine
 10
1.69490274813999
 20
-24.80370686156638
 30
0.0
 11
-1.69490274813999
 21
-24.80370686156638
 31
0.0
  0
LINE
  5
5AE
330
57C
100
AcDbEntity
  8
0
100
AcDbLine
 10
1.35
 20
-23.30218752788881
 30
0.0
 11
-1.35
 21
-23.30218752788881
 31
0.0
  0
LINE
  5
5AF
330
57C
100
AcDbEntity
  8
0
100
AcDbLine
 10
1.634953780783396
 20
-23.40849530190958
 30
0.0
 11
-1.634953780783396
 21
-23.40849530190958
 31
0.0
  0
LINE
  5
5B0
330
57C
100
AcDbEntity
  8
0
100
AcDbLine
 10
1.69490274813999
 20
-23.53370686156638
 30
0.0
 11
-1.69490274813999
 21
-23.53370686156638
 31
0.0
  0
LINE
  5
5B1
330
57C
100
AcDbEntity
  8
0
100
AcDbLine
 10
1.35
 20
-22.03218752788882
 30
0.0
 11
-1.35
 21
-22.03218752788882
 31
0.0
  0
LINE
  5
5B2
330
57C
100
AcDbEntity
  8
0
100
AcDbLine
 10
1.634953780783396
 20
-22.13849530190957
 30
0.0
 11
-1.634953780783396
 21
-22.13849530190957
 31
0.0
  0
LINE
  5
5B3
330
57C
100
AcDbEntity
  8
0
100
AcDbLine
 10
1.69490274813999
 20
-22.26370686156638
 30
0.0
 11
-1.69490274813999
 21
-22.26370686156638
 31
0.0
  0
LINE
  5
5B4
330
57C
100
AcDbEntity
  8
0
100
AcDbLine
 10
1.35
 20
-20.76218752788882
 30
0.0
 11
-1.35
 21
-20.76218752788882
 31
0.0
  0
LINE
  5
5B5
330
57C
100
AcDbEntity
  8
0
100
AcDbLine
 10
1.634953780783396
 20
-20.86849530190957
 30
0.0
 11
-1.634953780783396
 21
-20.86849530190957
 31
0.0
  0
LINE
  5
5B6
330
57C
100
AcDbEntity
  8
0
100
AcDbLine
 10
1.69490274813999
 20
-20.99370686156639
 30
0.0
 11
-1.69490274813999
 21
-20.99370686156639
 31
0.0
  0
LINE
  5
5B7
330
57C
100
AcDbEntity
  8
0
100
AcDbLine
 10
1.35
 20
-19.49218752788881
 30
0.0
 11
-1.35
 21
-19.49218752788881
 31
0.0
  0
LINE
  5
5B8
330
57C
100
AcDbEntity
  8
0
100
AcDbLine
 10
1.634953780783396
 20
-19.59849530190957
 30
0.0
 11
-1.634953780783396
 21
-19.59849530190957
 31
0.0
  0
LINE
  5
5B9
330
57C
100
AcDbEntity
  8
0
100
AcDbLine
 10
1.69490274813999
 20
-19.72370686156638
 30
0.0
 11
-1.69490274813999
 21
-19.72370686156638
 31
0.0
  0
LINE
  5
5BA
330
57C
100
AcDbEntity
  8
0
100
AcDbLine
 10
1.35
 20
-18.22218752788881
 30
0.0
 11
-1.35
 21
-18.22218752788881
 31
0.0
  0
LINE
  5
5BB
330
57C
100
AcDbEntity
  8
0
100
AcDbLine
 10
1.634953780783396
 20
-18.32849530190957
 30
0.0
 11
-1.634953780783396
 21
-18.32849530190957
 31
0.0
  0
LINE
  5
5BC
330
57C
100
AcDbEntity
  8
0
100
AcDbLine
 10
1.69490274813999
 20
-18.45370686156638
 30
0.0
 11
-1.69490274813999
 21
-18.45370686156638
 31
0.0
  0
LINE
  5
5BD
330
57C
100
AcDbEntity
  8
0
100
AcDbLine
 10
1.35
 20
-16.95218752788881
 30
0.0
 11
-1.35
 21
-16.95218752788881
 31
0.0
  0
LINE
  5
5BE
330
57C
100
AcDbEntity
  8
0
100
AcDbLine
 10
1.634953780783396
 20
-17.05849530190957
 30
0.0
 11
-1.634953780783396
 21
-17.05849530190957
 31
0.0
  0
LINE
  5
5BF
330
57C
100
AcDbEntity
  8
0
100
AcDbLine
 10
1.69490274813999
 20
-17.18370686156638
 30
0.0
 11
-1.69490274813999
 21
-17.18370686156638
 31
0.0
  0
LINE
  5
5C0
330
57C
100
AcDbEntity
  8
0
100
AcDbLine
 10
1.35
 20
-15.68218752788881
 30
0.0
 11
-1.35
 21
-15.68218752788881
 31
0.0
  0
LINE
  5
5C1
330
57C
100
AcDbEntity
  8
0
100
AcDbLine
 10
1.634953780783396
 20
-15.78849530190957
 30
0.0
 11
-1.634953780783396
 21
-15.78849530190957
 31
0.0
  0
LINE
  5
5C2
330
57C
100
AcDbEntity
  8
0
100
AcDbLine
 10
1.69490274813999
 20
-15.91370686156638
 30
0.0
 11
-1.69490274813999
 21
-15.91370686156638
 31
0.0
  0
LINE
  5
5C3
330
57C
100
AcDbEntity
  8
0
100
AcDbLine
 10
1.35
 20
-14.41218752788881
 30
0.0
 11
-1.35
 21
-14.41218752788881
 31
0.0
  0
LINE
  5
5C4
330
57C
100
AcDbEntity
  8
0
100
AcDbLine
 10
1.634953780783396
 20
-14.51849530190957
 30
0.0
 11
-1.634953780783396
 21
-14.51849530190957
 31
0.0
  0
LINE
  5
5C5
330
57C
100
AcDbEntity
  8
0
100
AcDbLine
 10
1.69490274813999
 20
-14.64370686156638
 30
0.0
 11
-1.69490274813999
 21
-14.64370686156638
 31
0.0
  0
LINE
  5
5C6
330
57C
100
AcDbEntity
  8
0
100
AcDbLine
 10
1.35
 20
-13.14218752788881
 30
0.0
 11
-1.35
 21
-13.14218752788881
 31
0.0
  0
LINE
  5
5C7
330
57C
100
AcDbEntity
  8
0
100
AcDbLine
 10
1.634953780783396
 20
-13.24849530190957
 30
0.0
 11
-1.634953780783396
 21
-13.24849530190957
 31
0.0
  0
LINE
  5
5C8
330
57C
100
AcDbEntity
  8
0
100
AcDbLine
 10
1.69490274813999
 20
-13.37370686156638
 30
0.0
 11
-1.69490274813999
 21
-13.37370686156638
 31
0.0
  0
LINE
  5
5C9
330
57C
100
AcDbEntity
  8
0
100
AcDbLine
 10
1.35
 20
-11.87218752788881
 30
0.0
 11
-1.35
 21
-11.87218752788881
 31
0.0
  0
LINE
  5
5CA
330
57C
100
AcDbEntity
  8
0
100
AcDbLine
 10
1.634953780783396
 20
-11.97849530190957
 30
0.0
 11
-1.634953780783396
 21
-11.97849530190957
 31
0.0
  0
LINE
  5
5CB
330
57C
100
AcDbEntity
  8
0
100
AcDbLine
 10
1.69490274813999
 20
-12.10370686156638
 30
0.0
 11
-1.69490274813999
 21
-12.10370686156638
 31
0.0
  0
LINE
  5
5CC
330
57C
100
AcDbEntity
  8
0
100
AcDbLine
 10
1.35
 20
-10.60218752788881
 30
0.0
 11
-1.35
 21
-10.60218752788881
 31
0.0
  0
LINE
  5
5CD
330
57C
100
AcDbEntity
  8
0
100
AcDbLine
 10
1.634953780783396
 20
-10.70849530190957
 30
0.0
 11
-1.634953780783396
 21
-10.70849530190957
 31
0.0
  0
LINE
  5
5CE
330
57C
100
AcDbEntity
  8
0
100
AcDbLine
 10
1.69490274813999
 20
-10.83370686156638
 30
0.0
 11
-1.69490274813999
 21
-10.83370686156638
 31
0.0
  0
LINE
  5
5CF
330
57C
100
AcDbEntity
  8
0
100
AcDbLine
 10
1.349999999999996
 20
-34.73218752788882
 30
0.0
 11
1.634953780783394
 21
-34.83849530190957
 31
0.0
  0
LINE
  5
5D0
330
57C
100
AcDbEntity
  8
0
100
AcDbLine
 10
-1.349999999999996
 20
-34.73218752788882
 30
0.0
 11
-1.634953780783394
 21
-34.83849530190957
 31
0.0
  0
ARC
  5
5D1
330
57C
100
AcDbEntity
  8
0
100
AcDbCircle
 10
1.6
 20
-34.93218752788882
 30
0.0
 40
0.1
100
AcDbArc
 50
341.6275142504718
 51
69.5409520104425
  0
ARC
  5
5D2
330
57C
100
AcDbEntity
  8
0
100
AcDbCircle
 10
-1.6
 20
-34.93218752788882
 30
0.0
 40
0.1
100
AcDbArc
 50
110.4590479895572
 51
198.3724857495257
  0
LINE
  5
5D3
330
57C
100
AcDbEntity
  8
0
100
AcDbLine
 10
-1.350000000000001
 20
-36.00218752788882
 30
0.0
 11
-1.694902748139991
 21
-34.96370686156639
 31
0.0
  0
LINE
  5
5D4
330
57C
100
AcDbEntity
  8
0
100
AcDbLine
 10
1.350000000000001
 20
-36.00218752788882
 30
0.0
 11
1.694902748139991
 21
-34.96370686156639
 31
0.0
  0
LINE
  5
5D5
330
57C
100
AcDbEntity
  8
0
100
AcDbLine
 10
1.349999999999999
 20
-33.46218752788882
 30
0.0
 11
1.634953780783394
 21
-33.56849530190956
 31
0.0
  0
LINE
  5
5D6
330
57C
100
AcDbEntity
  8
0
100
AcDbLine
 10
-1.349999999999999
 20
-33.46218752788882
 30
0.0
 11
-1.634953780783394
 21
-33.56849530190956
 31
0.0
  0
ARC
  5
5D7
330
57C
100
AcDbEntity
  8
0
100
AcDbCircle
 10
1.6
 20
-33.66218752788881
 30
0.0
 40
0.1
100
AcDbArc
 50
341.6275142504718
 51
69.5409520104425
  0
ARC
  5
5D8
330
57C
100
AcDbEntity
  8
0
100
AcDbCircle
 10
-1.6
 20
-33.66218752788881
 30
0.0
 40
0.1
100
AcDbArc
 50
110.4590479895572
 51
198.3724857495257
  0
LINE
  5
5D9
330
57C
100
AcDbEntity
  8
0
100
AcDbLine
 10
-1.350000000000001
 20
-34.73218752788881
 30
0.0
 11
-1.694902748139991
 21
-33.69370686156639
 31
0.0
  0
LINE
  5
5DA
330
57C
100
AcDbEntity
  8
0
100
AcDbLine
 10
1.350000000000001
 20
-34.73218752788881
 30
0.0
 11
1.694902748139991
 21
-33.69370686156639
 31
0.0
  0
LINE
  5
5DB
330
57C
100
AcDbEntity
  8
0
100
AcDbLine
 10
1.349999999999999
 20
-32.19218752788882
 30
0.0
 11
1.634953780783394
 21
-32.29849530190957
 31
0.0
  0
LINE
  5
5DC
330
57C
100
AcDbEntity
  8
0
100
AcDbLine
 10
-1.349999999999999
 20
-32.19218752788882
 30
0.0
 11
-1.634953780783394
 21
-32.29849530190957
 31
0.0
  0
ARC
  5
5DD
330
57C
100
AcDbEntity
  8
0
100
AcDbCircle
 10
1.6
 20
-32.39218752788881
 30
0.0
 40
0.1
100
AcDbArc
 50
341.6275142504718
 51
69.5409520104425
  0
ARC
  5
5DE
330
57C
100
AcDbEntity
  8
0
100
AcDbCircle
 10
-1.6
 20
-32.39218752788881
 30
0.0
 40
0.1
100
AcDbArc
 50
110.4590479895572
 51
198.3724857495257
  0
LINE
  5
5DF
330
57C
100
AcDbEntity
  8
0
100
AcDbLine
 10
-1.350000000000001
 20
-33.46218752788882
 30
0.0
 11
-1.694902748139991
 21
-32.42370686156639
 31
0.0
  0
LINE
  5
5E0
330
57C
100
AcDbEntity
  8
0
100
AcDbLine
 10
1.350000000000001
 20
-33.46218752788882
 30
0.0
 11
1.694902748139991
 21
-32.42370686156639
 31
0.0
  0
LINE
  5
5E1
330
57C
100
AcDbEntity
  8
0
100
AcDbLine
 10
1.350000000000002
 20
-30.92218752788881
 30
0.0
 11
1.634953780783397
 21
-31.02849530190957
 31
0.0
  0
LINE
  5
5E2
330
57C
100
AcDbEntity
  8
0
100
AcDbLine
 10
-1.350000000000002
 20
-30.92218752788881
 30
0.0
 11
-1.634953780783397
 21
-31.02849530190957
 31
0.0
  0
ARC
  5
5E3
330
57C
100
AcDbEntity
  8
0
100
AcDbCircle
 10
1.6
 20
-31.12218752788881
 30
0.0
 40
0.1
100
AcDbArc
 50
341.6275142504718
 51
69.5409520104425
  0
ARC
  5
5E4
330
57C
100
AcDbEntity
  8
0
100
AcDbCircle
 10
-1.6
 20
-31.12218752788881
 30
0.0
 40
0.1
100
AcDbArc
 50
110.4590479895572
 51
198.3724857495257
  0
LINE
  5
5E5
330
57C
100
AcDbEntity
  8
0
100
AcDbLine
 10
-1.349999999999998
 20
-32.19218752788882
 30
0.0
 11
-1.694902748139988
 21
-31.15370686156639
 31
0.0
  0
LINE
  5
5E6
330
57C
100
AcDbEntity
  8
0
100
AcDbLine
 10
1.349999999999998
 20
-32.19218752788882
 30
0.0
 11
1.694902748139988
 21
-31.15370686156639
 31
0.0
  0
LINE
  5
5E7
330
57C
100
AcDbEntity
  8
0
100
AcDbLine
 10
1.349999999999999
 20
-29.65218752788882
 30
0.0
 11
1.634953780783397
 21
-29.75849530190957
 31
0.0
  0
LINE
  5
5E8
330
57C
100
AcDbEntity
  8
0
100
AcDbLine
 10
-1.349999999999999
 20
-29.65218752788882
 30
0.0
 11
-1.634953780783397
 21
-29.75849530190957
 31
0.0
  0
ARC
  5
5E9
330
57C
100
AcDbEntity
  8
0
100
AcDbCircle
 10
1.6
 20
-29.85218752788881
 30
0.0
 40
0.1
100
AcDbArc
 50
341.6275142504796
 51
69.5409520104425
  0
ARC
  5
5EA
330
57C
100
AcDbEntity
  8
0
100
AcDbCircle
 10
-1.6
 20
-29.85218752788881
 30
0.0
 40
0.1
100
AcDbArc
 50
110.4590479895563
 51
198.3724857495204
  0
LINE
  5
5EB
330
57C
100
AcDbEntity
  8
0
100
AcDbLine
 10
-1.349999999999998
 20
-30.92218752788882
 30
0.0
 11
-1.694902748139991
 21
-29.88370686156638
 31
0.0
  0
LINE
  5
5EC
330
57C
100
AcDbEntity
  8
0
100
AcDbLine
 10
1.349999999999998
 20
-30.92218752788882
 30
0.0
 11
1.694902748139991
 21
-29.88370686156638
 31
0.0
  0
LINE
  5
5ED
330
57C
100
AcDbEntity
  8
0
100
AcDbLine
 10
1.349999999999999
 20
-28.38218752788881
 30
0.0
 11
1.634953780783397
 21
-28.48849530190957
 31
0.0
  0
LINE
  5
5EE
330
57C
100
AcDbEntity
  8
0
100
AcDbLine
 10
-1.349999999999999
 20
-28.38218752788881
 30
0.0
 11
-1.634953780783397
 21
-28.48849530190957
 31
0.0
  0
ARC
  5
5EF
330
57C
100
AcDbEntity
  8
0
100
AcDbCircle
 10
1.6
 20
-28.58218752788882
 30
0.0
 40
0.1
100
AcDbArc
 50
341.6275142504796
 51
69.5409520104425
  0
ARC
  5
5F0
330
57C
100
AcDbEntity
  8
0
100
AcDbCircle
 10
-1.6
 20
-28.58218752788882
 30
0.0
 40
0.1
100
AcDbArc
 50
110.4590479895563
 51
198.3724857495204
  0
LINE
  5
5F1
330
57C
100
AcDbEntity
  8
0
100
AcDbLine
 10
-1.350000000000001
 20
-29.65218752788882
 30
0.0
 11
-1.694902748139991
 21
-28.61370686156638
 31
0.0
  0
LINE
  5
5F2
330
57C
100
AcDbEntity
  8
0
100
AcDbLine
 10
1.350000000000001
 20
-29.65218752788882
 30
0.0
 11
1.694902748139991
 21
-28.61370686156638
 31
0.0
  0
LINE
  5
5F3
330
57C
100
AcDbEntity
  8
0
100
AcDbLine
 10
1.349999999999999
 20
-27.11218752788882
 30
0.0
 11
1.634953780783394
 21
-27.21849530190957
 31
0.0
  0
LINE
  5
5F4
330
57C
100
AcDbEntity
  8
0
100
AcDbLine
 10
-1.349999999999999
 20
-27.11218752788882
 30
0.0
 11
-1.634953780783394
 21
-27.21849530190957
 31
0.0
  0
ARC
  5
5F5
330
57C
100
AcDbEntity
  8
0
100
AcDbCircle
 10
1.6
 20
-27.31218752788881
 30
0.0
 40
0.1
100
AcDbArc
 50
341.6275142504718
 51
69.5409520104425
  0
ARC
  5
5F6
330
57C
100
AcDbEntity
  8
0
100
AcDbCircle
 10
-1.6
 20
-27.31218752788881
 30
0.0
 40
0.1
100
AcDbArc
 50
110.4590479895572
 51
198.3724857495257
  0
LINE
  5
5F7
330
57C
100
AcDbEntity
  8
0
100
AcDbLine
 10
-1.350000000000001
 20
-28.38218752788881
 30
0.0
 11
-1.694902748139991
 21
-27.34370686156638
 31
0.0
  0
LINE
  5
5F8
330
57C
100
AcDbEntity
  8
0
100
AcDbLine
 10
1.350000000000001
 20
-28.38218752788881
 30
0.0
 11
1.694902748139991
 21
-27.34370686156638
 31
0.0
  0
LINE
  5
5F9
330
57C
100
AcDbEntity
  8
0
100
AcDbLine
 10
1.350000000000002
 20
-25.84218752788881
 30
0.0
 11
1.634953780783397
 21
-25.94849530190957
 31
0.0
  0
LINE
  5
5FA
330
57C
100
AcDbEntity
  8
0
100
AcDbLine
 10
-1.350000000000002
 20
-25.84218752788881
 30
0.0
 11
-1.634953780783397
 21
-25.94849530190957
 31
0.0
  0
ARC
  5
5FB
330
57C
100
AcDbEntity
  8
0
100
AcDbCircle
 10
1.6
 20
-26.04218752788881
 30
0.0
 40
0.1
100
AcDbArc
 50
341.6275142504718
 51
69.5409520104425
  0
ARC
  5
5FC
330
57C
100
AcDbEntity
  8
0
100
AcDbCircle
 10
-1.6
 20
-26.04218752788881
 30
0.0
 40
0.1
100
AcDbArc
 50
110.4590479895572
 51
198.3724857495257
  0
LINE
  5
5FD
330
57C
100
AcDbEntity
  8
0
100
AcDbLine
 10
-1.349999999999998
 20
-27.11218752788882
 30
0.0
 11
-1.694902748139988
 21
-26.07370686156639
 31
0.0
  0
LINE
  5
5FE
330
57C
100
AcDbEntity
  8
0
100
AcDbLine
 10
1.349999999999998
 20
-27.11218752788882
 30
0.0
 11
1.694902748139988
 21
-26.07370686156639
 31
0.0
  0
LINE
  5
5FF
330
57C
100
AcDbEntity
  8
0
100
AcDbLine
 10
1.349999999999999
 20
-24.57218752788881
 30
0.0
 11
1.634953780783397
 21
-24.67849530190957
 31
0.0
  0
LINE
  5
600
330
57C
100
AcDbEntity
  8
0
100
AcDbLine
 10
-1.349999999999999
 20
-24.57218752788881
 30
0.0
 11
-1.634953780783397
 21
-24.67849530190957
 31
0.0
  0
ARC
  5
601
330
57C
100
AcDbEntity
  8
0
100
AcDbCircle
 10
1.6
 20
-24.77218752788882
 30
0.0
 40
0.1
100
AcDbArc
 50
341.6275142504796
 51
69.5409520104425
  0
ARC
  5
602
330
57C
100
AcDbEntity
  8
0
100
AcDbCircle
 10
-1.6
 20
-24.77218752788882
 30
0.0
 40
0.1
100
AcDbArc
 50
110.4590479895563
 51
198.3724857495204
  0
LINE
  5
603
330
57C
100
AcDbEntity
  8
0
100
AcDbLine
 10
-1.349999999999998
 20
-25.84218752788882
 30
0.0
 11
-1.694902748139991
 21
-24.80370686156638
 31
0.0
  0
LINE
  5
604
330
57C
100
AcDbEntity
  8
0
100
AcDbLine
 10
1.349999999999998
 20
-25.84218752788882
 30
0.0
 11
1.694902748139991
 21
-24.80370686156638
 31
0.0
  0
LINE
  5
605
330
57C
100
AcDbEntity
  8
0
100
AcDbLine
 10
1.349999999999999
 20
-23.30218752788881
 30
0.0
 11
1.634953780783397
 21
-23.40849530190958
 31
0.0
  0
LINE
  5
606
330
57C
100
AcDbEntity
  8
0
100
AcDbLine
 10
-1.349999999999999
 20
-23.30218752788881
 30
0.0
 11
-1.634953780783397
 21
-23.40849530190958
 31
0.0
  0
ARC
  5
607
330
57C
100
AcDbEntity
  8
0
100
AcDbCircle
 10
1.6
 20
-23.50218752788882
 30
0.0
 40
0.1
100
AcDbArc
 50
341.6275142504796
 51
69.5409520104425
  0
ARC
  5
608
330
57C
100
AcDbEntity
  8
0
100
AcDbCircle
 10
-1.6
 20
-23.50218752788882
 30
0.0
 40
0.1
100
AcDbArc
 50
110.4590479895563
 51
198.3724857495204
  0
LINE
  5
609
330
57C
100
AcDbEntity
  8
0
100
AcDbLine
 10
-1.350000000000001
 20
-24.57218752788881
 30
0.0
 11
-1.694902748139991
 21
-23.53370686156638
 31
0.0
  0
LINE
  5
60A
330
57C
100
AcDbEntity
  8
0
100
AcDbLine
 10
1.350000000000001
 20
-24.57218752788881
 30
0.0
 11
1.694902748139991
 21
-23.53370686156638
 31
0.0
  0
LINE
  5
60B
330
57C
100
AcDbEntity
  8
0
100
AcDbLine
 10
1.349999999999999
 20
-22.03218752788882
 30
0.0
 11
1.634953780783394
 21
-22.13849530190957
 31
0.0
  0
LINE
  5
60C
330
57C
100
AcDbEntity
  8
0
100
AcDbLine
 10
-1.349999999999999
 20
-22.03218752788882
 30
0.0
 11
-1.634953780783394
 21
-22.13849530190957
 31
0.0
  0
ARC
  5
60D
330
57C
100
AcDbEntity
  8
0
100
AcDbCircle
 10
1.6
 20
-22.23218752788881
 30
0.0
 40
0.1
100
AcDbArc
 50
341.6275142504718
 51
69.5409520104425
  0
ARC
  5
60E
330
57C
100
AcDbEntity
  8
0
100
AcDbCircle
 10
-1.6
 20
-22.23218752788881
 30
0.0
 40
0.1
100
AcDbArc
 50
110.4590479895572
 51
198.3724857495257
  0
LINE
  5
60F
330
57C
100
AcDbEntity
  8
0
100
AcDbLine
 10
-1.350000000000001
 20
-23.30218752788881
 30
0.0
 11
-1.694902748139991
 21
-22.26370686156638
 31
0.0
  0
LINE
  5
610
330
57C
100
AcDbEntity
  8
0
100
AcDbLine
 10
1.350000000000001
 20
-23.30218752788881
 30
0.0
 11
1.694902748139991
 21
-22.26370686156638
 31
0.0
  0
LINE
  5
611
330
57C
100
AcDbEntity
  8
0
100
AcDbLine
 10
1.35
 20
-20.76218752788882
 30
0.0
 11
1.634953780783395
 21
-20.86849530190957
 31
0.0
  0
LINE
  5
612
330
57C
100
AcDbEntity
  8
0
100
AcDbLine
 10
-1.35
 20
-20.76218752788882
 30
0.0
 11
-1.634953780783395
 21
-20.86849530190957
 31
0.0
  0
ARC
  5
613
330
57C
100
AcDbEntity
  8
0
100
AcDbCircle
 10
1.6
 20
-20.96218752788882
 30
0.0
 40
0.1
100
AcDbArc
 50
341.6275142504718
 51
69.5409520104425
  0
ARC
  5
614
330
57C
100
AcDbEntity
  8
0
100
AcDbCircle
 10
-1.6
 20
-20.96218752788882
 30
0.0
 40
0.1
100
AcDbArc
 50
110.4590479895572
 51
198.3724857495257
  0
LINE
  5
615
330
57C
100
AcDbEntity
  8
0
100
AcDbLine
 10
-1.349999999999998
 20
-22.03218752788882
 30
0.0
 11
-1.694902748139988
 21
-20.99370686156639
 31
0.0
  0
LINE
  5
616
330
57C
100
AcDbEntity
  8
0
100
AcDbLine
 10
1.349999999999998
 20
-22.03218752788882
 30
0.0
 11
1.694902748139988
 21
-20.99370686156639
 31
0.0
  0
LINE
  5
617
330
57C
100
AcDbEntity
  8
0
100
AcDbLine
 10
1.35
 20
-19.49218752788881
 30
0.0
 11
1.634953780783396
 21
-19.59849530190957
 31
0.0
  0
LINE
  5
618
330
57C
100
AcDbEntity
  8
0
100
AcDbLine
 10
-1.35
 20
-19.49218752788881
 30
0.0
 11
-1.634953780783396
 21
-19.59849530190957
 31
0.0
  0
ARC
  5
619
330
57C
100
AcDbEntity
  8
0
100
AcDbCircle
 10
1.6
 20
-19.69218752788881
 30
0.0
 40
0.1
100
AcDbArc
 50
341.6275142504769
 51
69.54095201044386
  0
ARC
  5
61A
330
57C
100
AcDbEntity
  8
0
100
AcDbCircle
 10
-1.6
 20
-19.69218752788881
 30
0.0
 40
0.1
100
AcDbArc
 50
110.4590479895563
 51
198.3724857495229
  0
LINE
  5
61B
330
57C
100
AcDbEntity
  8
0
100
AcDbLine
 10
-1.349999999999998
 20
-20.76218752788882
 30
0.0
 11
-1.69490274813999
 21
-19.72370686156638
 31
0.0
  0
LINE
  5
61C
330
57C
100
AcDbEntity
  8
0
100
AcDbLine
 10
1.349999999999998
 20
-20.76218752788882
 30
0.0
 11
1.69490274813999
 21
-19.72370686156638
 31
0.0
  0
LINE
  5
61D
330
57C
100
AcDbEntity
  8
0
100
AcDbLine
 10
1.35
 20
-18.22218752788881
 30
0.0
 11
1.634953780783396
 21
-18.32849530190957
 31
0.0
  0
LINE
  5
61E
330
57C
100
AcDbEntity
  8
0
100
AcDbLine
 10
-1.349999999999999
 20
-18.22218752788881
 30
0.0
 11
-1.634953780783397
 21
-18.32849530190957
 31
0.0
  0
ARC
  5
61F
330
57C
100
AcDbEntity
  8
0
100
AcDbCircle
 10
1.6
 20
-18.42218752788881
 30
0.0
 40
0.1
100
AcDbArc
 50
341.6275142504769
 51
69.54095201044386
  0
ARC
  5
620
330
57C
100
AcDbEntity
  8
0
100
AcDbCircle
 10
-1.6
 20
-18.42218752788881
 30
0.0
 40
0.1
100
AcDbArc
 50
110.4590479895563
 51
198.3724857495229
  0
LINE
  5
621
330
57C
100
AcDbEntity
  8
0
100
AcDbLine
 10
-1.35
 20
-19.49218752788881
 30
0.0
 11
-1.694902748139991
 21
-18.45370686156638
 31
0.0
  0
LINE
  5
622
330
57C
100
AcDbEntity
  8
0
100
AcDbLine
 10
1.35
 20
-19.49218752788881
 30
0.0
 11
1.69490274813999
 21
-18.45370686156638
 31
0.0
  0
LINE
  5
623
330
57C
100
AcDbEntity
  8
0
100
AcDbLine
 10
1.35
 20
-16.95218752788881
 30
0.0
 11
1.634953780783396
 21
-17.05849530190957
 31
0.0
  0
LINE
  5
624
330
57C
100
AcDbEntity
  8
0
100
AcDbLine
 10
-1.35
 20
-16.95218752788881
 30
0.0
 11
-1.634953780783396
 21
-17.05849530190957
 31
0.0
  0
ARC
  5
625
330
57C
100
AcDbEntity
  8
0
100
AcDbCircle
 10
1.6
 20
-17.15218752788881
 30
0.0
 40
0.1
100
AcDbArc
 50
341.6275142504769
 51
69.54095201044386
  0
ARC
  5
626
330
57C
100
AcDbEntity
  8
0
100
AcDbCircle
 10
-1.6
 20
-17.15218752788881
 30
0.0
 40
0.1
100
AcDbArc
 50
110.4590479895563
 51
198.3724857495229
  0
LINE
  5
627
330
57C
100
AcDbEntity
  8
0
100
AcDbLine
 10
-1.35
 20
-18.22218752788881
 30
0.0
 11
-1.69490274813999
 21
-17.18370686156638
 31
0.0
  0
LINE
  5
628
330
57C
100
AcDbEntity
  8
0
100
AcDbLine
 10
1.35
 20
-18.22218752788881
 30
0.0
 11
1.69490274813999
 21
-17.18370686156638
 31
0.0
  0
LINE
  5
629
330
57C
100
AcDbEntity
  8
0
100
AcDbLine
 10
1.35
 20
-15.68218752788881
 30
0.0
 11
1.634953780783396
 21
-15.78849530190957
 31
0.0
  0
LINE
  5
62A
330
57C
100
AcDbEntity
  8
0
100
AcDbLine
 10
-1.349999999999999
 20
-15.68218752788881
 30
0.0
 11
-1.634953780783397
 21
-15.78849530190957
 31
0.0
  0
ARC
  5
62B
330
57C
100
AcDbEntity
  8
0
100
AcDbCircle
 10
1.6
 20
-15.88218752788881
 30
0.0
 40
0.1
100
AcDbArc
 50
341.6275142504769
 51
69.54095201044386
  0
ARC
  5
62C
330
57C
100
AcDbEntity
  8
0
100
AcDbCircle
 10
-1.6
 20
-15.88218752788881
 30
0.0
 40
0.1
100
AcDbArc
 50
110.4590479895563
 51
198.3724857495229
  0
LINE
  5
62D
330
57C
100
AcDbEntity
  8
0
100
AcDbLine
 10
-1.35
 20
-16.95218752788881
 30
0.0
 11
-1.694902748139991
 21
-15.91370686156638
 31
0.0
  0
LINE
  5
62E
330
57C
100
AcDbEntity
  8
0
100
AcDbLine
 10
1.35
 20
-16.95218752788881
 30
0.0
 11
1.69490274813999
 21
-15.91370686156638
 31
0.0
  0
LINE
  5
62F
330
57C
100
AcDbEntity
  8
0
100
AcDbLine
 10
1.35
 20
-14.41218752788881
 30
0.0
 11
1.634953780783396
 21
-14.51849530190957
 31
0.0
  0
LINE
  5
630
330
57C
100
AcDbEntity
  8
0
100
AcDbLine
 10
-1.35
 20
-14.41218752788881
 30
0.0
 11
-1.634953780783396
 21
-14.51849530190957
 31
0.0
  0
ARC
  5
631
330
57C
100
AcDbEntity
  8
0
100
AcDbCircle
 10
1.6
 20
-14.61218752788881
 30
0.0
 40
0.1
100
AcDbArc
 50
341.6275142504769
 51
69.54095201044386
  0
ARC
  5
632
330
57C
100
AcDbEntity
  8
0
100
AcDbCircle
 10
-1.6
 20
-14.61218752788881
 30
0.0
 40
0.1
100
AcDbArc
 50
110.4590479895563
 51
198.3724857495229
  0
LINE
  5
633
330
57C
100
AcDbEntity
  8
0
100
AcDbLine
 10
-1.35
 20
-15.68218752788881
 30
0.0
 11
-1.69490274813999
 21
-14.64370686156638
 31
0.0
  0
LINE
  5
634
330
57C
100
AcDbEntity
  8
0
100
AcDbLine
 10
1.35
 20
-15.68218752788881
 30
0.0
 11
1.69490274813999
 21
-14.64370686156638
 31
0.0
  0
LINE
  5
635
330
57C
100
AcDbEntity
  8
0
100
AcDbLine
 10
1.35
 20
-13.14218752788881
 30
0.0
 11
1.634953780783396
 21
-13.24849530190957
 31
0.0
  0
LINE
  5
636
330
57C
100
AcDbEntity
  8
0
100
AcDbLine
 10
-1.349999999999999
 20
-13.14218752788881
 30
0.0
 11
-1.634953780783397
 21
-13.24849530190957
 31
0.0
  0
ARC
  5
637
330
57C
100
AcDbEntity
  8
0
100
AcDbCircle
 10
1.6
 20
-13.34218752788881
 30
0.0
 40
0.1
100
AcDbArc
 50
341.6275142504769
 51
69.54095201044386
  0
ARC
  5
638
330
57C
100
AcDbEntity
  8
0
100
AcDbCircle
 10
-1.6
 20
-13.34218752788881
 30
0.0
 40
0.1
100
AcDbArc
 50
110.4590479895563
 51
198.3724857495229
  0
LINE
  5
639
330
57C
100
AcDbEntity
  8
0
100
AcDbLine
 10
-1.35
 20
-14.41218752788881
 30
0.0
 11
-1.694902748139991
 21
-13.37370686156638
 31
0.0
  0
LINE
  5
63A
330
57C
100
AcDbEntity
  8
0
100
AcDbLine
 10
1.35
 20
-14.41218752788881
 30
0.0
 11
1.69490274813999
 21
-13.37370686156638
 31
0.0
  0
LINE
  5
63B
330
57C
100
AcDbEntity
  8
0
100
AcDbLine
 10
1.35
 20
-11.87218752788881
 30
0.0
 11
1.634953780783396
 21
-11.97849530190957
 31
0.0
  0
LINE
  5
63C
330
57C
100
AcDbEntity
  8
0
100
AcDbLine
 10
-1.35
 20
-11.87218752788881
 30
0.0
 11
-1.634953780783396
 21
-11.97849530190957
 31
0.0
  0
ARC
  5
63D
330
57C
100
AcDbEntity
  8
0
100
AcDbCircle
 10
1.6
 20
-12.07218752788881
 30
0.0
 40
0.1
100
AcDbArc
 50
341.6275142504769
 51
69.54095201044386
  0
ARC
  5
63E
330
57C
100
AcDbEntity
  8
0
100
AcDbCircle
 10
-1.6
 20
-12.07218752788881
 30
0.0
 40
0.1
100
AcDbArc
 50
110.4590479895563
 51
198.3724857495229
  0
LINE
  5
63F
330
57C
100
AcDbEntity
  8
0
100
AcDbLine
 10
-1.35
 20
-13.14218752788881
 30
0.0
 11
-1.69490274813999
 21
-12.10370686156638
 31
0.0
  0
LINE
  5
640
330
57C
100
AcDbEntity
  8
0
100
AcDbLine
 10
1.35
 20
-13.14218752788881
 30
0.0
 11
1.69490274813999
 21
-12.10370686156638
 31
0.0
  0
LINE
  5
641
330
57C
100
AcDbEntity
  8
0
100
AcDbLine
 10
1.35
 20
-10.60218752788881
 30
0.0
 11
1.634953780783396
 21
-10.70849530190957
 31
0.0
  0
LINE
  5
642
330
57C
100
AcDbEntity
  8
0
100
AcDbLine
 10
-1.349999999999999
 20
-10.60218752788881
 30
0.0
 11
-1.634953780783397
 21
-10.70849530190957
 31
0.0
  0
ARC
  5
643
330
57C
100
AcDbEntity
  8
0
100
AcDbCircle
 10
1.6
 20
-10.80218752788881
 30
0.0
 40
0.1
100
AcDbArc
 50
341.6275142504769
 51
69.54095201044386
  0
ARC
  5
644
330
57C
100
AcDbEntity
  8
0
100
AcDbCircle
 10
-1.6
 20
-10.80218752788881
 30
0.0
 40
0.1
100
AcDbArc
 50
110.4590479895563
 51
198.3724857495229
  0
LINE
  5
645
330
57C
100
AcDbEntity
  8
0
100
AcDbLine
 10
-1.35
 20
-11.87218752788881
 30
0.0
 11
-1.694902748139991
 21
-10.83370686156638
 31
0.0
  0
LINE
  5
646
330
57C
100
AcDbEntity
  8
0
100
AcDbLine
 10
1.35
 20
-11.87218752788881
 30
0.0
 11
1.69490274813999
 21
-10.83370686156638
 31
0.0
  0
LINE
  5
647
330
57C
100
AcDbEntity
  8
0
100
AcDbLine
 10
1.555084742026652
 20
-36.00218752788882
 30
0.0
 11
1.20208152801713
 21
-36.97205588737489
 31
0.0
  0
LINE
  5
648
330
57C
100
AcDbEntity
  8
0
100
AcDbLine
 10
1.549999999999995
 20
-9.999999999999998
 30
0.0
 11
-1.549999999999987
 21
-9.999999999999998
 31
0.0
  0
LINE
  5
649
330
57C
100
AcDbEntity
  8
0
100
AcDbLine
 10
-1.350000000000001
 20
-10.60218752788881
 30
0.0
 11
-1.549999999999995
 21
-10.0
 31
0.0
  0
LINE
  5
64A
330
57C
100
AcDbEntity
  8
0
100
AcDbLine
 10
1.35
 20
-10.60218752788881
 30
0.0
 11
1.549999999999996
 21
-9.999999999999996
 31
0.0
  0
LINE
  5
64B
330
57C
100
AcDbEntity
  8
0
100
AcDbLine
 10
1.549999999999998
 20
-2.099999999999997
 30
0.0
 11
-1.549999999999987
 21
-2.099999999999997
 31
0.0
  0
LINE
  5
64C
330
57C
100
AcDbEntity
  8
0
100
AcDbLine
 10
-3.100000000000004
 20
0.5000000000000031
 30
0.0
 11
-3.100000000000004
 21
0.7500000000000036
 31
0.0
  0
LINE
  5
64D
330
57C
100
AcDbEntity
  8
0
100
AcDbLine
 10
3.100000000000015
 20
0.5000000000000023
 30
0.0
 11
3.100000000000015
 21
0.7500000000000028
 31
0.0
  0
LINE
  5
64E
330
57C
100
AcDbEntity
  8
0
100
AcDbLine
 10
-1.549999999999987
 20
-9.999999999999998
 30
0.0
 11
-1.549999999999986
 21
-2.099999999999997
 31
0.0
  0
LINE
  5
64F
330
57C
100
AcDbEntity
  8
0
100
AcDbLine
 10
1.549999999999995
 20
-9.999999999999998
 30
0.0
 11
1.549999999999996
 21
-2.099999999999997
 31
0.0
  0
LINE
  5
650
330
57C
100
AcDbEntity
  8
0
100
AcDbLine
 10
-1.549999999999987
 20
-2.099999999999996
 30
0.0
 11
-2.314337491959011
 21
0.0
 31
0.0
  0
LINE
  5
651
330
57C
100
AcDbEntity
  8
0
100
AcDbLine
 10
1.549999999999998
 20
-2.099999999999997
 30
0.0
 11
2.314337491959022
 21
0.0
 31
0.0
  0
ENDBLK
  5
57E
330
57C
100
AcDbEntity
  8
0
100
AcDbBlockEnd
  0
BLOCK
  5
7FF
330
7FE
100
AcDbEntity
  8
0
100
AcDbBlockBegin
  2
CNA31X40-Top
 70
     0
 10
0.0
 20
0.0
 30
0.0
  3
CNA31X40-Top
  1

  0
CIRCLE
  5
801
330
7FE
100
AcDbEntity
  8
0
100
AcDbCircle
 10
0.0000000000000056
 20
0.0
 30
0.0
 40
3.100000000000009
  0
CIRCLE
  5
802
330
7FE
100
AcDbEntity
  8
0
100
AcDbCircle
 10
0.0000000000000057
 20
0.0
 30
0.0
 40
2.850000000000009
  0
LINE
  5
803
330
7FE
100
AcDbEntity
  8
0
100
AcDbLine
 10
-0.750555349946514
 20
-0.7999999999999999
 30
0.0
 11
-2.1
 21
-0.7999999999999999
 31
0.0
  0
LINE
  5
804
330
7FE
100
AcDbEntity
  8
0
100
AcDbLine
 10
-2.1
 20
-0.7999999999999999
 30
0.0
 11
-2.1
 21
-0.2999999999999999
 31
0.0
  0
LINE
  5
805
330
7FE
100
AcDbEntity
  8
0
100
AcDbLine
 10
-2.1
 20
-0.2999999999999999
 30
0.0
 11
-0.4618802153517007
 21
-0.2999999999999999
 31
0.0
  0
LINE
  5
806
330
7FE
100
AcDbEntity
  8
0
100
AcDbLine
 10
-0.4618802153517007
 20
-0.2999999999999999
 30
0.0
 11
-0.1154700538379255
 21
0.2999999999999999
 31
0.0
  0
LINE
  5
807
330
7FE
100
AcDbEntity
  8
0
100
AcDbLine
 10
-0.1154700538379255
 20
0.2999999999999999
 30
0.0
 11
-2.1
 21
0.2999999999999999
 31
0.0
  0
LINE
  5
808
330
7FE
100
AcDbEntity
  8
0
100
AcDbLine
 10
-2.1
 20
0.2999999999999999
 30
0.0
 11
-2.1
 21
0.8000000000000001
 31
0.0
  0
LINE
  5
809
330
7FE
100
AcDbEntity
  8
0
100
AcDbLine
 10
-2.1
 20
0.8000000000000001
 30
0.0
 11
0.1732050807568874
 21
0.8000000000000001
 31
0.0
  0
LINE
  5
80A
330
7FE
100
AcDbEntity
  8
0
100
AcDbLine
 10
0.1732050807568874
 20
0.8000000000000001
 30
0.0
 11
0.88349364905389
 21
2.030255888325765
 31
0.0
  0
LINE
  5
80B
330
7FE
100
AcDbEntity
  8
0
100
AcDbLine
 10
0.88349364905389
 20
2.030255888325765
 30
0.0
 11
1.316506350946109
 21
1.780255888325765
 31
0.0
  0
LINE
  5
80C
330
7FE
100
AcDbEntity
  8
0
100
AcDbLine
 10
1.316506350946109
 20
1.780255888325765
 30
0.0
 11
0.750555349946514
 21
0.8000000000000001
 31
0.0
  0
LINE
  5
80D
330
7FE
100
AcDbEntity
  8
0
100
AcDbLine
 10
0.750555349946514
 20
0.8000000000000001
 30
0.0
 11
2.1
 21
0.8000000000000001
 31
0.0
  0
LINE
  5
80E
330
7FE
100
AcDbEntity
  8
0
100
AcDbLine
 10
2.1
 20
0.8000000000000001
 30
0.0
 11
2.1
 21
0.2999999999999999
 31
0.0
  0
LINE
  5
80F
330
7FE
100
AcDbEntity
  8
0
100
AcDbLine
 10
2.1
 20
0.2999999999999999
 30
0.0
 11
0.4618802153517007
 21
0.2999999999999999
 31
0.0
  0
LINE
  5
810
330
7FE
100
AcDbEntity
  8
0
100
AcDbLine
 10
0.4618802153517007
 20
0.2999999999999999
 30
0.0
 11
0.115470053837925
 21
-0.2999999999999999
 31
0.0
  0
LINE
  5
811
330
7FE
100
AcDbEntity
  8
0
100
AcDbLine
 10
0.115470053837925
 20
-0.2999999999999999
 30
0.0
 11
2.1
 21
-0.2999999999999999
 31
0.0
  0
LINE
  5
812
330
7FE
100
AcDbEntity
  8
0
100
AcDbLine
 10
2.1
 20
-0.2999999999999999
 30
0.0
 11
2.1
 21
-0.7999999999999999
 31
0.0
  0
LINE
  5
813
330
7FE
100
AcDbEntity
  8
0
100
AcDbLine
 10
2.1
 20
-0.7999999999999999
 30
0.0
 11
-0.173205080756888
 21
-0.7999999999999999
 31
0.0
  0
LINE
  5
814
330
7FE
100
AcDbEntity
  8
0
100
AcDbLine
 10
-0.173205080756888
 20
-0.7999999999999999
 30
0.0
 11
-0.8834936490538909
 21
-2.030255888325765
 31
0.0
  0
LINE
  5
815
330
7FE
100
AcDbEntity
  8
0
100
AcDbLine
 10
-0.8834936490538909
 20
-2.030255888325765
 30
0.0
 11
-1.31650635094611
 21
-1.780255888325764
 31
0.0
  0
LINE
  5
816
330
7FE
100
AcDbEntity
  8
0
100
AcDbLine
 10
-1.31650635094611
 20
-1.780255888325764
 30
0.0
 11
-0.750555349946514
 21
-0.7999999999999999
 31
0.0
  0
ENDBLK
  5
800
330
7FE
100
AcDbEntity
  8
0
100
AcDbBlockEnd
  0
BLOCK
  5
842
330
841
100
AcDbEntity
  8
0
100
AcDbBlockBegin
  2
CNA31X40-ISO
 70
     0
 10
0.0
 20
0.0
 30
0.0
  3
CNA31X40-ISO
  1

  0
LINE
  5
844
330
841
100
AcDbEntity
  8
0
100
AcDbLine
 10
0.0
 20
-16.78565961189242
 30
0.0
 11
0.0
 21
-16.7964782567675
 31
0.0
  0
LINE
  5
845
330
841
100
AcDbEntity
  8
0
100
AcDbLine
 10
0.0
 20
-16.78565961189242
 30
0.0
 11
-0.1752896614138416
 21
-16.68445607868898
 31
0.0
  0
ELLIPSE
  5
846
330
841
100
AcDbEntity
  8
0
100
AcDbEllipse
 10
-0.0423970565361091
 20
-16.6565302509256
 30
0.0
 11
0.1414213562373098
 21
-0.0000000000000002
 31
0.0
210
0.0
220
0.0
230
1.0
 40
0.5773502691896243
 41
3.490658503988631
 42
3.92699081698722
  0
LINE
  5
847
330
841
100
AcDbEntity
  8
0
100
AcDbLine
 10
0.1752896614138327
 20
-16.68445607868898
 30
0.0
 11
0.0
 21
-16.78565961189242
 31
0.0
  0
ELLIPSE
  5
848
330
841
100
AcDbEntity
  8
0
100
AcDbEllipse
 10
0.0423970565361001
 20
-16.6565302509256
 30
0.0
 11
0.141421356237309
 21
-0.0000000000000003
 31
0.0
210
0.0
220
0.0
230
1.0
 40
0.5773502691896276
 41
5.49778714378216
 42
5.934119456780747
  0
ELLIPSE
  5
849
330
841
100
AcDbEntity
  8
0
100
AcDbEllipse
 10
-0.0000000000000005
 20
16.32993161855453
 30
0.0
 11
3.100000000000009
 21
-0.0000000000000004
 31
0.0
210
0.0
220
0.0
230
1.0
 40
0.577350269189626
 41
3.141592653589793
 42
6.283185307179586
  0
ELLIPSE
  5
84A
330
841
100
AcDbEntity
  8
0
100
AcDbEllipse
 10
-0.0000000000000005
 20
16.53405576378646
 30
0.0
 11
-3.100000000000009
 21
-0.0000000000000001
 31
0.0
210
0.0
220
0.0
230
1.0
 40
0.5773502691896259
 41
0.0
 42
3.141592653589789
  0
ELLIPSE
  5
84B
330
841
100
AcDbEntity
  8
0
100
AcDbEllipse
 10
-0.0000000000000004
 20
16.73817990901839
 30
0.0
 11
2.850000000000008
 21
-0.0000000000001706
 31
0.0
210
0.0
220
0.0
230
0.9999999999999998
 40
0.577350269189626
 41
0.0
 42
6.283185307179586
  0
LINE
  5
84C
330
841
100
AcDbEntity
  8
0
100
AcDbLine
 10
0.0
 20
-16.79647825676749
 30
0.0
 11
-0.1423970565361093
 21
-16.71426527784456
 31
0.0
  0
LINE
  5
84D
330
841
100
AcDbEntity
  8
0
100
AcDbLine
 10
0.1423970565360998
 20
-16.71426527784456
 30
0.0
 11
0.0
 21
-16.79647825676749
 31
0.0
  0
SPLINE
  5
84E
330
841
100
AcDbEntity
  8
0
100
AcDbSpline
210
0.0
220
0.0
230
1.0
 70
     8
 71
     3
 72
    26
 73
    22
 74
     0
 42
0.000000001
 43
0.0000000001
 40
3.926990816987241
 40
3.926990816987241
 40
3.926990816987241
 40
3.926990816987241
 40
4.175156484820758
 40
4.175156484820758
 40
4.448087779497329
 40
4.448087779497329
 40
4.772325351129782
 40
4.772325351129782
 40
5.11981126749016
 40
5.11981126749016
 40
5.464868976654477
 40
5.464868976654477
 40
5.807295775578792
 40
5.807295775578792
 40
6.151537291543693
 40
6.151537291543693
 40
6.499370279825636
 40
6.499370279825636
 40
6.830252161748961
 40
6.830252161748961
 40
7.068583470577034
 40
7.068583470577034
 40
7.068583470577034
 40
7.068583470577034
 10
-3.10000000000001
 20
16.32993161855453
 30
0.0
 10
-3.10000000000001
 20
16.13411764788054
 30
0.0
 10
-3.056712984462783
 20
15.93918571157949
 30
0.0
 10
-2.891839073586257
 20
15.56351812988495
 30
0.0
 10
-2.764384243249055
 20
15.38589888570928
 30
0.0
 10
-2.425469842466489
 20
15.04501781643316
 30
0.0
 10
-2.202466969142801
 20
14.88951752721126
 30
0.0
 10
-1.685466109545587
 20
14.6248227095193
 30
0.0
 10
-1.386972277788798
 20
14.51980457563319
 30
0.0
 10
-0.7576926217873782
 20
14.37554405528387
 30
0.0
 10
-0.4271853386783724
 20
14.33603861234457
 30
0.0
 10
0.234500853422856
 20
14.32345851510249
 30
0.0
 10
0.5655086285923919
 20
14.3498932945378
 30
0.0
 10
1.201603705991141
 20
14.46733452327457
 30
0.0
 10
1.506462619977206
 20
14.55853220446352
 30
0.0
 10
2.063422465607498
 20
14.80489248120066
 30
0.0
 10
2.315372337287736
 20
14.96050809403274
 30
0.0
 10
2.724414401634043
 20
15.32959023251849
 30
0.0
 10
2.886334352519066
 20
15.54152364444624
 30
0.0
 10
3.0601380107654
 20
15.95455548000393
 30
0.0
 10
3.100000000000008
 20
16.14187740329998
 30
0.0
 10
3.100000000000009
 20
16.32993161855452
 30
0.0
  0
SPLINE
  5
84F
330
841
100
AcDbEntity
  8
0
100
AcDbSpline
210
0.0
220
0.0
230
1.0
 70
     8
 71
     3
 72
    26
 73
    22
 74
     0
 42
0.000000001
 43
0.0000000001
 40
0.7853981633974483
 40
0.7853981633974483
 40
0.7853981633974483
 40
0.7853981633974483
 40
1.062740043607629
 40
1.062740043607629
 40
1.361566404623482
 40
1.361566404623482
 40
1.689485867606116
 40
1.689485867606116
 40
2.023211042081277
 40
2.023211042081277
 40
2.354818339334495
 40
2.354818339334495
 40
2.685352125685203
 40
2.685352125685203
 40
3.016936076655154
 40
3.016936076655154
 40
3.350642577207604
 40
3.350642577207604
 40
3.678571571099754
 40
3.678571571099754
 40
3.926990816987241
 40
3.926990816987241
 40
3.926990816987241
 40
3.926990816987241
 10
3.100000000000009
 20
16.53405576378646
 30
0.0
 10
3.100000000000009
 20
16.72620385482274
 30
0.0
 10
3.052850526764957
 20
16.91761298005452
 30
0.0
 10
2.871000739836592
 20
17.2864184398332
 30
0.0
 10
2.730845942835876
 20
17.46197796815139
 30
0.0
 10
2.364026667554121
 20
17.78794591978046
 30
0.0
 10
2.129950277216672
 20
17.93477675216781
 30
0.0
 10
1.597087456180265
 20
18.17686868126074
 30
0.0
 10
1.297094363241919
 20
18.27106664430279
 30
0.0
 10
0.6659485680288674
 20
18.39709597137698
 30
0.0
 10
0.3351017717647731
 20
18.42923942236815
 30
0.0
 10
-0.3257889699333766
 20
18.4297645143177
 30
0.0
 10
-0.6557026818640895
 20
18.39835312312354
 30
0.0
 10
-1.284540310681762
 20
18.27433780135873
 30
0.0
 10
-1.583267489288994
 20
18.18161839434947
 30
0.0
 10
-2.121269325230735
 20
17.94017886648935
 30
0.0
 10
-2.360276457497837
 20
17.79121004867528
 30
0.0
 10
-2.747609225885072
 20
17.44714869020139
 30
0.0
 10
-2.897812603662057
 20
17.25218770664924
 30
0.0
 10
-3.062287593837166
 20
16.87782779058897
 30
0.0
 10
-3.10000000000001
 20
16.70616566596849
 30
0.0
 10
-3.10000000000001
 20
16.53405576378646
 30
0.0
  0
LINE
  5
850
330
841
100
AcDbEntity
  8
0
100
AcDbLine
 10
-1.700000000000004
 20
-14.26587389381973
 30
0.0
 11
-0.1752896614138416
 21
-16.68445607868898
 31
0.0
  0
LINE
  5
851
330
841
100
AcDbEntity
  8
0
100
AcDbLine
 10
-1.585260760556795
 20
-13.11950904627495
 30
0.0
 11
-1.546533785835402
 21
-13.09715001699466
 31
0.0
  0
LINE
  5
852
330
841
100
AcDbEntity
  8
0
100
AcDbLine
 10
0.0
 20
-15.2473693514421
 30
0.0
 11
0.0
 21
-16.78565961189242
 31
0.0
  0
ELLIPSE
  5
853
330
841
100
AcDbEntity
  8
0
100
AcDbEllipse
 10
-0.0000000000000044
 20
-16.96251050093446
 30
0.0
 11
1.52777648485451
 21
-3.175672843532992
 31
0.0
210
0.0
220
0.0
230
0.9999999999999998
 40
0.2347805934183502
 41
2.024814548144747
 42
2.394319274788895
  0
LINE
  5
854
330
841
100
AcDbEntity
  8
0
100
AcDbLine
 10
-0.613961172256771
 20
-14.38923042119259
 30
0.0
 11
-1.585260760556795
 21
-13.82845034242379
 31
0.0
  0
ELLIPSE
  5
855
330
841
100
AcDbEntity
  8
0
100
AcDbEllipse
 10
-0.0000000000000044
 20
-16.96251050093446
 30
0.0
 11
1.52777648485451
 21
-3.175672843532992
 31
0.0
210
0.0
220
0.0
230
0.9999999999999998
 40
0.2347805934183502
 41
3.226106148295496
 42
3.595610874939643
  0
LINE
  5
856
330
841
100
AcDbEntity
  8
0
100
AcDbLine
 10
1.546533785835396
 20
-13.09715001699466
 30
0.0
 11
1.585260760556786
 21
-13.11950904627495
 31
0.0
  0
LINE
  5
857
330
841
100
AcDbEntity
  8
0
100
AcDbLine
 10
0.1752896614138327
 20
-16.68445607868898
 30
0.0
 11
1.699999999999995
 21
-14.26587389381973
 31
0.0
  0
LINE
  5
858
330
841
100
AcDbEntity
  8
0
100
AcDbLine
 10
-1.096408202552264
 20
16.71799421516147
 30
0.0
 11
-2.050609665440992
 21
17.26890268662141
 31
0.0
  0
LINE
  5
859
330
841
100
AcDbEntity
  8
0
100
AcDbLine
 10
-2.050609665440992
 20
17.26890268662141
 30
0.0
 11
-1.697056274847718
 21
17.47302683185334
 31
0.0
  0
LINE
  5
85A
330
841
100
AcDbEntity
  8
0
100
AcDbLine
 10
-1.697056274847718
 20
17.47302683185334
 30
0.0
 11
-0.5387306667270591
 21
16.80426723019564
 31
0.0
  0
LINE
  5
85B
330
841
100
AcDbEntity
  8
0
100
AcDbLine
 10
-0.5387306667270591
 20
16.80426723019564
 30
0.0
 11
0.1304823762631868
 21
16.90779484823665
 31
0.0
  0
LINE
  5
85C
330
841
100
AcDbEntity
  8
0
100
AcDbLine
 10
0.1304823762631869
 20
16.90779484823665
 30
0.0
 11
-1.27279220613579
 21
17.71797580613166
 31
0.0
  0
LINE
  5
85D
330
841
100
AcDbEntity
  8
0
100
AcDbLine
 10
-1.27279220613579
 20
17.71797580613166
 30
0.0
 11
-0.9192388155425161
 21
17.92209995136359
 31
0.0
  0
LINE
  5
85E
330
841
100
AcDbEntity
  8
0
100
AcDbLine
 10
-0.9192388155425161
 20
17.92209995136359
 30
0.0
 11
0.6881599120883923
 21
16.99406786327083
 31
0.0
  0
LINE
  5
85F
330
841
100
AcDbEntity
  8
0
100
AcDbLine
 10
0.6881599120883923
 20
16.99406786327083
 30
0.0
 11
2.060332056560315
 21
17.20634363276965
 31
0.0
  0
LINE
  5
860
330
841
100
AcDbEntity
  8
0
100
AcDbLine
 10
2.060332056560315
 20
17.20634363276965
 30
0.0
 11
2.189741579111576
 21
16.92750486485704
 31
0.0
  0
LINE
  5
861
330
841
100
AcDbEntity
  8
0
100
AcDbLine
 10
2.189741579111576
 20
16.92750486485704
 30
0.0
 11
1.096408202552255
 21
16.75836560287531
 31
0.0
  0
LINE
  5
862
330
841
100
AcDbEntity
  8
0
100
AcDbLine
 10
1.096408202552255
 20
16.75836560287531
 30
0.0
 11
2.050609665440983
 21
16.20745713141537
 31
0.0
  0
LINE
  5
863
330
841
100
AcDbEntity
  8
0
100
AcDbLine
 10
2.050609665440983
 20
16.20745713141537
 30
0.0
 11
1.697056274847709
 21
16.00333298618344
 31
0.0
  0
LINE
  5
864
330
841
100
AcDbEntity
  8
0
100
AcDbLine
 10
1.697056274847709
 20
16.00333298618344
 30
0.0
 11
0.5387306667270502
 21
16.67209258784114
 31
0.0
  0
LINE
  5
865
330
841
100
AcDbEntity
  8
0
100
AcDbLine
 10
0.5387306667270502
 20
16.67209258784114
 30
0.0
 11
-0.1304823762631961
 21
16.56856496980013
 31
0.0
  0
LINE
  5
866
330
841
100
AcDbEntity
  8
0
100
AcDbLine
 10
-0.1304823762631961
 20
16.56856496980013
 30
0.0
 11
1.272792206135781
 21
15.75838401190512
 31
0.0
  0
LINE
  5
867
330
841
100
AcDbEntity
  8
0
100
AcDbLine
 10
1.272792206135781
 20
15.75838401190512
 30
0.0
 11
0.9192388155425074
 21
15.55425986667319
 31
0.0
  0
LINE
  5
868
330
841
100
AcDbEntity
  8
0
100
AcDbLine
 10
0.9192388155425074
 20
15.55425986667319
 30
0.0
 11
-0.6881599120884014
 21
16.48229195476596
 31
0.0
  0
LINE
  5
869
330
841
100
AcDbEntity
  8
0
100
AcDbLine
 10
-0.6881599120884015
 20
16.48229195476596
 30
0.0
 11
-2.060332056560325
 21
16.27001618526714
 31
0.0
  0
LINE
  5
86A
330
841
100
AcDbEntity
  8
0
100
AcDbLine
 10
-2.060332056560325
 20
16.27001618526714
 30
0.0
 11
-2.189741579111585
 21
16.54885495317974
 31
0.0
  0
LINE
  5
86B
330
841
100
AcDbEntity
  8
0
100
AcDbLine
 10
-2.189741579111585
 20
16.54885495317974
 30
0.0
 11
-1.096408202552264
 21
16.71799421516147
 31
0.0
  0
LINE
  5
86C
330
841
100
AcDbEntity
  8
0
100
AcDbLine
 10
0.6881599120883923
 20
16.91241820517805
 30
0.0
 11
0.6881599120883923
 21
16.99406786327083
 31
0.0
  0
LINE
  5
86D
330
841
100
AcDbEntity
  8
0
100
AcDbLine
 10
-0.9192388155425161
 20
17.92209995136359
 30
0.0
 11
-0.9192388155425161
 21
17.84045029327082
 31
0.0
  0
LINE
  5
86E
330
841
100
AcDbEntity
  8
0
100
AcDbLine
 10
0.6881599120883923
 20
16.91241820517805
 30
0.0
 11
-0.9192388155425161
 21
17.84045029327082
 31
0.0
  0
LINE
  5
86F
330
841
100
AcDbEntity
  8
0
100
AcDbLine
 10
0.1304823762631869
 20
16.90779484823665
 30
0.0
 11
0.1304823762631869
 21
16.82614519014388
 31
0.0
  0
LINE
  5
870
330
841
100
AcDbEntity
  8
0
100
AcDbLine
 10
1.096408202552255
 20
16.75836560287531
 30
0.0
 11
1.096408202552255
 21
16.67671594478254
 31
0.0
  0
LINE
  5
871
330
841
100
AcDbEntity
  8
0
100
AcDbLine
 10
1.979898987322328
 20
16.16663230236898
 30
0.0
 11
1.096408202552255
 21
16.67671594478254
 31
0.0
  0
LINE
  5
872
330
841
100
AcDbEntity
  8
0
100
AcDbLine
 10
-0.9192388155425161
 20
17.84045029327082
 30
0.0
 11
-1.202081528017135
 21
17.67715097708528
 31
0.0
  0
LINE
  5
873
330
841
100
AcDbEntity
  8
0
100
AcDbLine
 10
-0.1304823762631961
 20
16.56856496980013
 30
0.0
 11
-0.1304823762631961
 21
16.48691531170736
 31
0.0
  0
LINE
  5
874
330
841
100
AcDbEntity
  8
0
100
AcDbLine
 10
-0.5387306667270591
 20
16.72261757210287
 30
0.0
 11
-0.5387306667270591
 21
16.80426723019564
 31
0.0
  0
LINE
  5
875
330
841
100
AcDbEntity
  8
0
100
AcDbLine
 10
0.1304823762631869
 20
16.82614519014388
 30
0.0
 11
-0.5387306667270591
 21
16.72261757210287
 31
0.0
  0
LINE
  5
876
330
841
100
AcDbEntity
  8
0
100
AcDbLine
 10
-1.697056274847718
 20
17.47302683185334
 30
0.0
 11
-1.697056274847718
 21
17.39137717376057
 31
0.0
  0
LINE
  5
877
330
841
100
AcDbEntity
  8
0
100
AcDbLine
 10
-0.5387306667270591
 20
16.72261757210287
 30
0.0
 11
-1.697056274847718
 21
17.39137717376057
 31
0.0
  0
LINE
  5
878
330
841
100
AcDbEntity
  8
0
100
AcDbLine
 10
1.202081528017126
 20
15.71755918285873
 30
0.0
 11
-0.1304823762631961
 21
16.48691531170736
 31
0.0
  0
LINE
  5
879
330
841
100
AcDbEntity
  8
0
100
AcDbLine
 10
-1.096408202552264
 20
16.71799421516147
 30
0.0
 11
-1.096408202552264
 21
16.6363445570687
 31
0.0
  0
LINE
  5
87A
330
841
100
AcDbEntity
  8
0
100
AcDbLine
 10
-1.697056274847718
 20
17.39137717376057
 30
0.0
 11
-1.979898987322337
 21
17.22807785757503
 31
0.0
  0
LINE
  5
87B
330
841
100
AcDbEntity
  8
0
100
AcDbLine
 10
-1.096408202552264
 20
16.6363445570687
 30
0.0
 11
-2.154386240052257
 21
16.47267478507403
 31
0.0
  0
LINE
  5
87C
330
841
100
AcDbEntity
  8
0
100
AcDbLine
 10
2.154386240052248
 20
16.92203537486998
 30
0.0
 11
2.060332056560315
 21
17.12469397467687
 31
0.0
  0
LINE
  5
87D
330
841
100
AcDbEntity
  8
0
100
AcDbLine
 10
2.060332056560315
 20
17.20634363276965
 30
0.0
 11
2.060332056560315
 21
17.12469397467687
 31
0.0
  0
LINE
  5
87E
330
841
100
AcDbEntity
  8
0
100
AcDbLine
 10
2.060332056560315
 20
17.12469397467687
 30
0.0
 11
0.6881599120883925
 21
16.91241820517805
 31
0.0
  0
ELLIPSE
  5
87F
330
841
100
AcDbEntity
  8
0
100
AcDbEllipse
 10
-0.0000000000000044
 20
-12.43702903657116
 30
0.0
 11
-1.35
 21
0.0000000000000002
 31
0.0
210
0.0
220
0.0
230
1.0
 40
0.5773502691896259
 41
0.2370601752680876
 42
2.904532478321705
  0
ELLIPSE
  5
880
330
841
100
AcDbEntity
  8
0
100
AcDbEllipse
 10
-0.0000000000000044
 20
-12.52382897058514
 30
0.0
 11
-1.634953780783396
 21
0.0
 31
0.0
210
0.0
220
0.0
230
1.0
 40
0.5773502691896258
 41
5.883636407536495
 42
9.824326860412469
  0
ELLIPSE
  5
881
330
841
100
AcDbEntity
  8
0
100
AcDbEllipse
 10
-0.0000000000000044
 20
-12.62606378093757
 30
0.0
 11
-1.69490274813999
 21
0.0000000000000001
 31
0.0
210
0.0
220
0.0
230
1.0
 40
0.5773502691896261
 41
0.2370601752680859
 42
2.904532478321705
  0
ELLIPSE
  5
882
330
841
100
AcDbEntity
  8
0
100
AcDbEllipse
 10
-0.0000000000000044
 20
-13.47397969434937
 30
0.0
 11
-1.35
 21
0.0000000000000002
 31
0.0
210
0.0
220
0.0
230
1.0
 40
0.5773502691896259
 41
0.2370601752680876
 42
2.904532478321705
  0
ELLIPSE
  5
883
330
841
100
AcDbEntity
  8
0
100
AcDbEllipse
 10
-0.0000000000000044
 20
-13.47397969434937
 30
0.0
 11
-1.699999999999999
 21
0.0
 31
0.0
210
0.0
220
0.0
230
1.0
 40
0.5773502691896258
 41
5.91368058053544
 42
6.652690033823734
  0
ELLIPSE
  5
884
330
841
100
AcDbEntity
  8
0
100
AcDbEllipse
 10
-0.0000000000000044
 20
-13.47397969434937
 30
0.0
 11
-1.699999999999999
 21
-0.0000000000000002
 31
0.0
210
0.0
220
0.0
230
1.0
 40
0.5773502691896258
 41
1.201291600150748
 42
1.940301053439043
  0
ELLIPSE
  5
885
330
841
100
AcDbEntity
  8
0
100
AcDbEllipse
 10
-0.0000000000000044
 20
-13.47397969434937
 30
0.0
 11
1.699999999999999
 21
-0.0000000000000001
 31
0.0
210
0.0
220
0.0
230
1.0
 40
0.577350269189626
 41
5.913680580535437
 42
6.652690033823733
  0
ELLIPSE
  5
886
330
841
100
AcDbEntity
  8
0
100
AcDbEllipse
 10
-0.0000000000000044
 20
-11.40007837879294
 30
0.0
 11
-1.35
 21
0.0000000000000002
 31
0.0
210
0.0
220
0.0
230
1.0
 40
0.5773502691896259
 41
0.2370601752680876
 42
2.904532478321705
  0
ELLIPSE
  5
887
330
841
100
AcDbEntity
  8
0
100
AcDbEllipse
 10
-0.0000000000000044
 20
-11.48687831280693
 30
0.0
 11
-1.634953780783396
 21
-0.0000000000000001
 31
0.0
210
0.0
220
0.0
230
1.0
 40
0.5773502691896259
 41
5.883636407536497
 42
9.824326860412465
  0
ELLIPSE
  5
888
330
841
100
AcDbEntity
  8
0
100
AcDbEllipse
 10
-0.0000000000000044
 20
-11.58911312315934
 30
0.0
 11
-1.69490274813999
 21
0.0000000000000001
 31
0.0
210
0.0
220
0.0
230
1.0
 40
0.5773502691896261
 41
0.2370601752680859
 42
2.904532478321705
  0
ELLIPSE
  5
889
330
841
100
AcDbEntity
  8
0
100
AcDbEllipse
 10
-0.0000000000000044
 20
-10.36312772101474
 30
0.0
 11
-1.35
 21
0.0000000000000002
 31
0.0
210
0.0
220
0.0
230
1.0
 40
0.5773502691896259
 41
0.2370601752680876
 42
2.904532478321708
  0
ELLIPSE
  5
88A
330
841
100
AcDbEntity
  8
0
100
AcDbEllipse
 10
-0.0000000000000044
 20
-10.44992765502872
 30
0.0
 11
-1.634953780783396
 21
0.0
 31
0.0
210
0.0
220
0.0
230
1.0
 40
0.5773502691896258
 41
5.883636407536495
 42
9.824326860412469
  0
ELLIPSE
  5
88B
330
841
100
AcDbEntity
  8
0
100
AcDbEllipse
 10
-0.0000000000000044
 20
-10.55216246538114
 30
0.0
 11
-1.69490274813999
 21
0.0000000000000001
 31
0.0
210
0.0
220
0.0
230
1.0
 40
0.5773502691896261
 41
0.2370601752680859
 42
2.904532478321705
  0
ELLIPSE
  5
88C
330
841
100
AcDbEntity
  8
0
100
AcDbEllipse
 10
-0.0000000000000044
 20
-9.326177063236528
 30
0.0
 11
-1.35
 21
0.0000000000000002
 31
0.0
210
0.0
220
0.0
230
1.0
 40
0.5773502691896259
 41
0.2370601752680859
 42
2.904532478321705
  0
ELLIPSE
  5
88D
330
841
100
AcDbEntity
  8
0
100
AcDbEllipse
 10
-0.0000000000000044
 20
-9.412976997250508
 30
0.0
 11
-1.634953780783396
 21
0.0
 31
0.0
210
0.0
220
0.0
230
1.0
 40
0.5773502691896258
 41
5.883636407536496
 42
9.824326860412471
  0
ELLIPSE
  5
88E
330
841
100
AcDbEntity
  8
0
100
AcDbEllipse
 10
-0.0000000000000044
 20
-9.515211807602925
 30
0.0
 11
-1.69490274813999
 21
0.0000000000000001
 31
0.0
210
0.0
220
0.0
230
1.0
 40
0.5773502691896261
 41
0.2370601752680872
 42
2.904532478321706
  0
ELLIPSE
  5
88F
330
841
100
AcDbEntity
  8
0
100
AcDbEllipse
 10
-0.0000000000000044
 20
-8.289226405458309
 30
0.0
 11
-1.35
 21
0.0000000000000002
 31
0.0
210
0.0
220
0.0
230
1.0
 40
0.5773502691896259
 41
0.2370601752680859
 42
2.904532478321705
  0
ELLIPSE
  5
890
330
841
100
AcDbEntity
  8
0
100
AcDbEllipse
 10
-0.0000000000000044
 20
-8.376026339472296
 30
0.0
 11
-1.634953780783396
 21
0.0
 31
0.0
210
0.0
220
0.0
230
1.0
 40
0.5773502691896258
 41
5.883636407536496
 42
9.824326860412471
  0
ELLIPSE
  5
891
330
841
100
AcDbEntity
  8
0
100
AcDbEllipse
 10
-0.0000000000000044
 20
-8.47826114982471
 30
0.0
 11
-1.69490274813999
 21
-0.0000000000000003
 31
0.0
210
0.0
220
0.0
230
1.0
 40
0.5773502691896258
 41
0.2370601752680477
 42
2.90453247832174
  0
ELLIPSE
  5
892
330
841
100
AcDbEntity
  8
0
100
AcDbEllipse
 10
-0.0000000000000044
 20
-7.252275747680099
 30
0.0
 11
-1.35
 21
0.0000000000000002
 31
0.0
210
0.0
220
0.0
230
1.0
 40
0.5773502691896259
 41
0.2370601752680859
 42
2.904532478321705
  0
ELLIPSE
  5
893
330
841
100
AcDbEntity
  8
0
100
AcDbEllipse
 10
-0.0000000000000044
 20
-7.339075681694087
 30
0.0
 11
-1.634953780783396
 21
0.0
 31
0.0
210
0.0
220
0.0
230
1.0
 40
0.5773502691896258
 41
5.883636407536496
 42
9.824326860412471
  0
ELLIPSE
  5
894
330
841
100
AcDbEntity
  8
0
100
AcDbEllipse
 10
-0.0000000000000044
 20
-7.4413104920465
 30
0.0
 11
-1.69490274813999
 21
-0.0000000000000003
 31
0.0
210
0.0
220
0.0
230
1.0
 40
0.5773502691896258
 41
0.2370601752680477
 42
2.90453247832174
  0
ELLIPSE
  5
895
330
841
100
AcDbEntity
  8
0
100
AcDbEllipse
 10
-0.0000000000000044
 20
-6.215325089901888
 30
0.0
 11
-1.35
 21
0.0000000000000002
 31
0.0
210
0.0
220
0.0
230
1.0
 40
0.5773502691896259
 41
0.2370601752680859
 42
2.904532478321705
  0
ELLIPSE
  5
896
330
841
100
AcDbEntity
  8
0
100
AcDbEllipse
 10
-0.0000000000000044
 20
-6.302125023915867
 30
0.0
 11
-1.634953780783396
 21
0.0
 31
0.0
210
0.0
220
0.0
230
1.0
 40
0.5773502691896258
 41
5.883636407536496
 42
9.824326860412471
  0
ELLIPSE
  5
897
330
841
100
AcDbEntity
  8
0
100
AcDbEllipse
 10
-0.0000000000000044
 20
-6.404359834268289
 30
0.0
 11
-1.69490274813999
 21
0.0000000000000001
 31
0.0
210
0.0
220
0.0
230
1.0
 40
0.5773502691896261
 41
0.2370601752680872
 42
2.904532478321706
  0
ELLIPSE
  5
898
330
841
100
AcDbEntity
  8
0
100
AcDbEllipse
 10
-0.0000000000000044
 20
-5.178374432123677
 30
0.0
 11
-1.35
 21
0.0000000000000002
 31
0.0
210
0.0
220
0.0
230
1.0
 40
0.5773502691896259
 41
0.2370601752680859
 42
2.904532478321705
  0
ELLIPSE
  5
899
330
841
100
AcDbEntity
  8
0
100
AcDbEllipse
 10
-0.0000000000000044
 20
-5.265174366137661
 30
0.0
 11
-1.634953780783396
 21
0.0
 31
0.0
210
0.0
220
0.0
230
1.0
 40
0.5773502691896258
 41
5.883636407536495
 42
9.824326860412469
  0
ELLIPSE
  5
89A
330
841
100
AcDbEntity
  8
0
100
AcDbEllipse
 10
-0.0000000000000044
 20
-5.367409176490078
 30
0.0
 11
-1.69490274813999
 21
0.0000000000000001
 31
0.0
210
0.0
220
0.0
230
1.0
 40
0.5773502691896261
 41
0.2370601752680872
 42
2.904532478321706
  0
ELLIPSE
  5
89B
330
841
100
AcDbEntity
  8
0
100
AcDbEllipse
 10
-0.0000000000000044
 20
-4.141423774345462
 30
0.0
 11
-1.35
 21
0.0000000000000002
 31
0.0
210
0.0
220
0.0
230
1.0
 40
0.5773502691896259
 41
0.2370601752680869
 42
2.904532478321705
  0
ELLIPSE
  5
89C
330
841
100
AcDbEntity
  8
0
100
AcDbEllipse
 10
-0.0000000000000044
 20
-4.22822370835945
 30
0.0
 11
-1.634953780783396
 21
0.0
 31
0.0
210
0.0
220
0.0
230
1.0
 40
0.5773502691896258
 41
5.883636407536495
 42
9.824326860412469
  0
ELLIPSE
  5
89D
330
841
100
AcDbEntity
  8
0
100
AcDbEllipse
 10
-0.0000000000000044
 20
-4.330458518711859
 30
0.0
 11
-1.69490274813999
 21
-0.0000000000000003
 31
0.0
210
0.0
220
0.0
230
1.0
 40
0.5773502691896258
 41
0.2370601752680487
 42
2.904532478321741
  0
ELLIPSE
  5
89E
330
841
100
AcDbEntity
  8
0
100
AcDbEllipse
 10
-0.0000000000000044
 20
-3.104473116567252
 30
0.0
 11
-1.35
 21
0.0000000000000002
 31
0.0
210
0.0
220
0.0
230
1.0
 40
0.5773502691896259
 41
0.2370601752680869
 42
2.904532478321705
  0
ELLIPSE
  5
89F
330
841
100
AcDbEntity
  8
0
100
AcDbEllipse
 10
-0.0000000000000044
 20
-3.191273050581238
 30
0.0
 11
-1.634953780783396
 21
0.0
 31
0.0
210
0.0
220
0.0
230
1.0
 40
0.5773502691896258
 41
5.883636407536495
 42
9.824326860412469
  0
ELLIPSE
  5
8A0
330
841
100
AcDbEntity
  8
0
100
AcDbEllipse
 10
-0.0000000000000044
 20
-3.29350786093365
 30
0.0
 11
-1.69490274813999
 21
-0.0000000000000003
 31
0.0
210
0.0
220
0.0
230
1.0
 40
0.5773502691896258
 41
0.2370601752680487
 42
2.904532478321741
  0
ELLIPSE
  5
8A1
330
841
100
AcDbEntity
  8
0
100
AcDbEllipse
 10
-0.0000000000000044
 20
-2.067522458789041
 30
0.0
 11
-1.35
 21
0.0000000000000002
 31
0.0
210
0.0
220
0.0
230
1.0
 40
0.5773502691896259
 41
0.2370601752680859
 42
2.904532478321706
  0
ELLIPSE
  5
8A2
330
841
100
AcDbEntity
  8
0
100
AcDbEllipse
 10
-0.0000000000000044
 20
-2.15432239280302
 30
0.0
 11
-1.634953780783396
 21
0.0
 31
0.0
210
0.0
220
0.0
230
1.0
 40
0.5773502691896258
 41
5.883636407536495
 42
9.824326860412469
  0
ELLIPSE
  5
8A3
330
841
100
AcDbEntity
  8
0
100
AcDbEllipse
 10
-0.0000000000000044
 20
-2.25655720315544
 30
0.0
 11
-1.69490274813999
 21
0.0000000000000001
 31
0.0
210
0.0
220
0.0
230
1.0
 40
0.5773502691896261
 41
0.2370601752680877
 42
2.904532478321707
  0
ELLIPSE
  5
8A4
330
841
100
AcDbEntity
  8
0
100
AcDbEllipse
 10
-0.0000000000000044
 20
-1.030571801010831
 30
0.0
 11
-1.35
 21
0.0000000000000002
 31
0.0
210
0.0
220
0.0
230
1.0
 40
0.5773502691896259
 41
0.2370601752680866
 42
2.904532478321706
  0
ELLIPSE
  5
8A5
330
841
100
AcDbEntity
  8
0
100
AcDbEllipse
 10
-0.0000000000000044
 20
-1.11737173502481
 30
0.0
 11
-1.634953780783396
 21
0.0
 31
0.0
210
0.0
220
0.0
230
1.0
 40
0.5773502691896258
 41
5.883636407536495
 42
9.824326860412469
  0
ELLIPSE
  5
8A6
330
841
100
AcDbEntity
  8
0
100
AcDbEllipse
 10
-0.0000000000000044
 20
-1.219606545377229
 30
0.0
 11
-1.69490274813999
 21
0.0000000000000001
 31
0.0
210
0.0
220
0.0
230
1.0
 40
0.5773502691896261
 41
0.2370601752680875
 42
2.904532478321706
  0
ELLIPSE
  5
8A7
330
841
100
AcDbEntity
  8
0
100
AcDbEllipse
 10
-0.0000000000000044
 20
0.0063788567673839
 30
0.0
 11
-1.35
 21
0.0000000000000002
 31
0.0
210
0.0
220
0.0
230
1.0
 40
0.5773502691896259
 41
0.2370601752680868
 42
2.904532478321706
  0
ELLIPSE
  5
8A8
330
841
100
AcDbEntity
  8
0
100
AcDbEllipse
 10
-0.0000000000000044
 20
-0.0804210772466019
 30
0.0
 11
-1.634953780783396
 21
0.0
 31
0.0
210
0.0
220
0.0
230
1.0
 40
0.5773502691896258
 41
5.883636407536495
 42
9.824326860412469
  0
ELLIPSE
  5
8A9
330
841
100
AcDbEntity
  8
0
100
AcDbEllipse
 10
-0.0000000000000044
 20
-0.1826558875990169
 30
0.0
 11
-1.69490274813999
 21
0.0000000000000001
 31
0.0
210
0.0
220
0.0
230
1.0
 40
0.5773502691896259
 41
0.2370601752680852
 42
2.904532478321708
  0
ELLIPSE
  5
8AA
330
841
100
AcDbEntity
  8
0
100
AcDbEllipse
 10
-0.0000000000000044
 20
1.043329514545594
 30
0.0
 11
-1.35
 21
0.0000000000000002
 31
0.0
210
0.0
220
0.0
230
1.0
 40
0.5773502691896259
 41
0.2370601752680866
 42
2.904532478321706
  0
ELLIPSE
  5
8AB
330
841
100
AcDbEntity
  8
0
100
AcDbEllipse
 10
-0.0000000000000044
 20
0.9565295805316109
 30
0.0
 11
-1.634953780783396
 21
0.0
 31
0.0
210
0.0
220
0.0
230
1.0
 40
0.5773502691896258
 41
5.883636407536495
 42
9.824326860412469
  0
ELLIPSE
  5
8AC
330
841
100
AcDbEntity
  8
0
100
AcDbEllipse
 10
-0.0000000000000044
 20
0.8542947701791959
 30
0.0
 11
-1.69490274813999
 21
0.0000000000000001
 31
0.0
210
0.0
220
0.0
230
1.0
 40
0.5773502691896259
 41
0.2370601752680853
 42
2.904532478321708
  0
ELLIPSE
  5
8AD
330
841
100
AcDbEntity
  8
0
100
AcDbEllipse
 10
-0.0000000000000044
 20
2.080280172323807
 30
0.0
 11
-1.35
 21
0.0000000000000002
 31
0.0
210
0.0
220
0.0
230
1.0
 40
0.5773502691896259
 41
0.2370601752680859
 42
2.904532478321706
  0
ELLIPSE
  5
8AE
330
841
100
AcDbEntity
  8
0
100
AcDbEllipse
 10
-0.0000000000000044
 20
1.993480238309823
 30
0.0
 11
-1.634953780783396
 21
0.0
 31
0.0
210
0.0
220
0.0
230
1.0
 40
0.5773502691896258
 41
5.883636407536495
 42
9.824326860412469
  0
ELLIPSE
  5
8AF
330
841
100
AcDbEntity
  8
0
100
AcDbEllipse
 10
-0.0000000000000044
 20
1.891245427957408
 30
0.0
 11
-1.69490274813999
 21
0.0000000000000001
 31
0.0
210
0.0
220
0.0
230
1.0
 40
0.5773502691896259
 41
0.2370601752680856
 42
2.904532478321708
  0
ELLIPSE
  5
8B0
330
841
100
AcDbEntity
  8
0
100
AcDbEllipse
 10
-0.0000000000000044
 20
3.11723083010202
 30
0.0
 11
-1.35
 21
0.0000000000000002
 31
0.0
210
0.0
220
0.0
230
1.0
 40
0.5773502691896259
 41
0.2370601752680869
 42
2.904532478321706
  0
ELLIPSE
  5
8B1
330
841
100
AcDbEntity
  8
0
100
AcDbEllipse
 10
-0.0000000000000044
 20
3.030430896088034
 30
0.0
 11
-1.634953780783396
 21
0.0
 31
0.0
210
0.0
220
0.0
230
1.0
 40
0.5773502691896258
 41
5.883636407536495
 42
9.824326860412469
  0
ELLIPSE
  5
8B2
330
841
100
AcDbEntity
  8
0
100
AcDbEllipse
 10
-0.0000000000000044
 20
2.928196085735619
 30
0.0
 11
-1.69490274813999
 21
0.0000000000000001
 31
0.0
210
0.0
220
0.0
230
1.0
 40
0.5773502691896259
 41
0.2370601752680852
 42
2.904532478321709
  0
ELLIPSE
  5
8B3
330
841
100
AcDbEntity
  8
0
100
AcDbEllipse
 10
-0.0000000000000044
 20
4.15418148788023
 30
0.0
 11
-1.35
 21
0.0000000000000002
 31
0.0
210
0.0
220
0.0
230
1.0
 40
0.5773502691896259
 41
0.2370601752680869
 42
2.904532478321706
  0
ELLIPSE
  5
8B4
330
841
100
AcDbEntity
  8
0
100
AcDbEllipse
 10
-0.0000000000000044
 20
4.067381553866247
 30
0.0
 11
-1.634953780783396
 21
0.0
 31
0.0
210
0.0
220
0.0
230
1.0
 40
0.5773502691896258
 41
5.883636407536495
 42
9.824326860412469
  0
ELLIPSE
  5
8B5
330
841
100
AcDbEntity
  8
0
100
AcDbEllipse
 10
-0.0000000000000044
 20
3.965146743513832
 30
0.0
 11
-1.69490274813999
 21
0.0000000000000001
 31
0.0
210
0.0
220
0.0
230
1.0
 40
0.5773502691896259
 41
0.2370601752680852
 42
2.904532478321709
  0
ELLIPSE
  5
8B6
330
841
100
AcDbEntity
  8
0
100
AcDbEllipse
 10
-0.0000000000000044
 20
5.191132145658443
 30
0.0
 11
-1.35
 21
0.0000000000000002
 31
0.0
210
0.0
220
0.0
230
1.0
 40
0.5773502691896259
 41
0.2370601752680859
 42
2.904532478321705
  0
ELLIPSE
  5
8B7
330
841
100
AcDbEntity
  8
0
100
AcDbEllipse
 10
-0.0000000000000044
 20
5.104332211644459
 30
0.0
 11
-1.634953780783396
 21
0.0
 31
0.0
210
0.0
220
0.0
230
1.0
 40
0.5773502691896258
 41
5.883636407536496
 42
9.824326860412471
  0
ELLIPSE
  5
8B8
330
841
100
AcDbEntity
  8
0
100
AcDbEllipse
 10
-0.0000000000000044
 20
5.002097401292044
 30
0.0
 11
-1.69490274813999
 21
0.0000000000000001
 31
0.0
210
0.0
220
0.0
230
1.0
 40
0.5773502691896259
 41
0.2370601752680852
 42
2.904532478321709
  0
ELLIPSE
  5
8B9
330
841
100
AcDbEntity
  8
0
100
AcDbEllipse
 10
-0.0000000000000044
 20
6.228082803436655
 30
0.0
 11
-1.35
 21
0.0000000000000002
 31
0.0
210
0.0
220
0.0
230
1.0
 40
0.5773502691896259
 41
0.2370601752680859
 42
2.904532478321705
  0
ELLIPSE
  5
8BA
330
841
100
AcDbEntity
  8
0
100
AcDbEllipse
 10
-0.0000000000000044
 20
6.141282869422671
 30
0.0
 11
-1.634953780783396
 21
0.0
 31
0.0
210
0.0
220
0.0
230
1.0
 40
0.5773502691896258
 41
5.883636407536496
 42
9.824326860412471
  0
ELLIPSE
  5
8BB
330
841
100
AcDbEntity
  8
0
100
AcDbEllipse
 10
-0.0000000000000044
 20
6.039048059070255
 30
0.0
 11
-1.69490274813999
 21
0.0000000000000001
 31
0.0
210
0.0
220
0.0
230
1.0
 40
0.5773502691896259
 41
0.2370601752680847
 42
2.904532478321707
  0
ELLIPSE
  5
8BC
330
841
100
AcDbEntity
  8
0
100
AcDbEllipse
 10
-0.0000000000000044
 20
7.265033461214867
 30
0.0
 11
-1.35
 21
0.0
 31
0.0
210
0.0
220
0.0
230
1.0
 40
0.5773502691896259
 41
0.2370601752680903
 42
2.904532478321704
  0
ELLIPSE
  5
8BD
330
841
100
AcDbEntity
  8
0
100
AcDbEllipse
 10
-0.0000000000000044
 20
7.178233527200883
 30
0.0
 11
-1.634953780783396
 21
0.0000000000000001
 31
0.0
210
0.0
220
0.0
230
1.0
 40
0.5773502691896259
 41
5.883635073234333
 42
9.824328194714624
  0
ELLIPSE
  5
8BE
330
841
100
AcDbEntity
  8
0
100
AcDbEllipse
 10
-0.0000000000000044
 20
7.075998716848468
 30
0.0
 11
-1.69490274813999
 21
0.0000000000000001
 31
0.0
210
0.0
220
0.0
230
1.0
 40
0.5773502691896259
 41
0.2370601752680847
 42
2.904532478321707
  0
SPLINE
  5
8BF
330
841
100
AcDbEntity
  8
0
100
AcDbSpline
210
0.0
220
0.0
230
1.0
 70
     8
 71
     3
 72
    12
 73
     8
 74
     0
 42
0.000000001
 43
0.0000000001
 40
0.5483379881293295
 40
0.5483379881293295
 40
0.5483379881293295
 40
0.5483379881293295
 40
0.8490833238088637
 40
0.8490833238088637
 40
1.137523213522371
 40
1.137523213522371
 40
1.237035588475297
 40
1.237035588475297
 40
1.237035588475297
 40
1.237035588475297
 10
1.647500691938039
 20
-12.85587297404941
 30
0.0
 10
1.691206375448932
 20
-12.75143104862597
 30
0.0
 10
1.708250984855763
 20
-12.64009723192712
 30
0.0
 10
1.68454799224446
 20
-12.4255037071291
 30
0.0
 10
1.646470370362659
 20
-12.32275458432752
 30
0.0
 10
1.565394456475609
 20
-12.1953613157323
 30
0.0
 10
1.541977236482879
 20
-12.16359068647125
 30
0.0
 10
1.516137703235404
 20
-12.13283580228413
 30
0.0
  0
SPLINE
  5
8C0
330
841
100
AcDbEntity
  8
0
100
AcDbSpline
210
0.0
220
0.0
230
1.0
 70
     8
 71
     3
 72
    12
 73
     8
 74
     0
 42
0.000000001
 43
0.0000000001
 40
3.475353391909391
 40
3.475353391909391
 40
3.475353391909391
 40
3.475353391909391
 40
3.744694939194226
 40
3.744694939194226
 40
4.040512967227245
 40
4.040512967227245
 40
4.16405099225536
 40
4.16405099225536
 40
4.16405099225536
 40
4.16405099225536
 10
-1.516137703235411
 20
-12.13283580228412
 30
0.0
 10
-1.586075335306652
 20
-12.21607739005091
 30
0.0
 10
-1.638270196543438
 20
-12.30698406932046
 30
0.0
 10
-1.702226260130821
 20
-12.50729091902946
 30
0.0
 10
-1.70890455871159
 20
-12.61750565876079
 30
0.0
 10
-1.678995858798442
 20
-12.7689611571093
 30
0.0
 10
-1.665453801040272
 20
-12.81297106447269
 30
0.0
 10
-1.647500691938048
 20
-12.85587297404941
 30
0.0
  0
LINE
  5
8C1
330
841
100
AcDbEntity
  8
0
100
AcDbLine
 10
-1.312243983648723
 20
-13.65702406727367
 30
0.0
 11
-1.647500691938064
 21
-12.85587297404938
 31
0.0
  0
LINE
  5
8C2
330
841
100
AcDbEntity
  8
0
100
AcDbLine
 10
1.312243983648714
 20
-13.65702406727367
 30
0.0
 11
1.647500691938055
 21
-12.85587297404938
 31
0.0
  0
SPLINE
  5
8C3
330
841
100
AcDbEntity
  8
0
100
AcDbSpline
210
0.0
220
0.0
230
1.0
 70
     8
 71
     3
 72
    12
 73
     8
 74
     0
 42
0.000000001
 43
0.0000000001
 40
0.5483379881293295
 40
0.5483379881293295
 40
0.5483379881293295
 40
0.5483379881293295
 40
0.8490833238088637
 40
0.8490833238088637
 40
1.137523213522371
 40
1.137523213522371
 40
1.237035588475294
 40
1.237035588475294
 40
1.237035588475294
 40
1.237035588475294
 10
1.647500691938039
 20
-11.81892231627119
 30
0.0
 10
1.691206375448932
 20
-11.71448039084775
 30
0.0
 10
1.708250984855763
 20
-11.6031465741489
 30
0.0
 10
1.68454799224446
 20
-11.38855304935088
 30
0.0
 10
1.646470370362659
 20
-11.2858039265493
 30
0.0
 10
1.56539445647561
 20
-11.15841065795409
 30
0.0
 10
1.54197723648288
 20
-11.12664002869303
 30
0.0
 10
1.516137703235406
 20
-11.09588514450591
 30
0.0
  0
SPLINE
  5
8C4
330
841
100
AcDbEntity
  8
0
100
AcDbSpline
210
0.0
220
0.0
230
1.0
 70
     8
 71
     3
 72
    12
 73
     8
 74
     0
 42
0.000000001
 43
0.0000000001
 40
3.475353391909393
 40
3.475353391909393
 40
3.475353391909393
 40
3.475353391909393
 40
3.744694939194226
 40
3.744694939194226
 40
4.040512967227245
 40
4.040512967227245
 40
4.16405099225536
 40
4.16405099225536
 40
4.16405099225536
 40
4.16405099225536
 10
-1.516137703235414
 20
-11.09588514450591
 30
0.0
 10
-1.586075335306653
 20
-11.17912673227269
 30
0.0
 10
-1.638270196543438
 20
-11.27003341154225
 30
0.0
 10
-1.702226260130821
 20
-11.47034026125125
 30
0.0
 10
-1.70890455871159
 20
-11.58055500098258
 30
0.0
 10
-1.678995858798442
 20
-11.73201049933108
 30
0.0
 10
-1.665453801040272
 20
-11.77602040669446
 30
0.0
 10
-1.647500691938048
 20
-11.81892231627118
 30
0.0
  0
LINE
  5
8C5
330
841
100
AcDbEntity
  8
0
100
AcDbLine
 10
-1.312243983648723
 20
-12.62007340949545
 30
0.0
 11
-1.647500691938064
 21
-11.81892231627116
 31
0.0
  0
LINE
  5
8C6
330
841
100
AcDbEntity
  8
0
100
AcDbLine
 10
1.312243983648714
 20
-12.62007340949545
 30
0.0
 11
1.647500691938055
 21
-11.81892231627116
 31
0.0
  0
SPLINE
  5
8C7
330
841
100
AcDbEntity
  8
0
100
AcDbSpline
210
0.0
220
0.0
230
1.0
 70
     8
 71
     3
 72
    12
 73
     8
 74
     0
 42
0.000000001
 43
0.0000000001
 40
0.5483379881293295
 40
0.5483379881293295
 40
0.5483379881293295
 40
0.5483379881293295
 40
0.8490833238088637
 40
0.8490833238088637
 40
1.137523213522371
 40
1.137523213522371
 40
1.237035588475297
 40
1.237035588475297
 40
1.237035588475297
 40
1.237035588475297
 10
1.647500691938039
 20
-10.78197165849298
 30
0.0
 10
1.691206375448932
 20
-10.67752973306954
 30
0.0
 10
1.708250984855763
 20
-10.56619591637069
 30
0.0
 10
1.68454799224446
 20
-10.35160239157267
 30
0.0
 10
1.646470370362659
 20
-10.2488532687711
 30
0.0
 10
1.565394456475609
 20
-10.12146000017588
 30
0.0
 10
1.541977236482879
 20
-10.08968937091482
 30
0.0
 10
1.516137703235404
 20
-10.0589344867277
 30
0.0
  0
SPLINE
  5
8C8
330
841
100
AcDbEntity
  8
0
100
AcDbSpline
210
0.0
220
0.0
230
1.0
 70
     8
 71
     3
 72
    12
 73
     8
 74
     0
 42
0.000000001
 43
0.0000000001
 40
3.475353391909391
 40
3.475353391909391
 40
3.475353391909391
 40
3.475353391909391
 40
3.744694939194226
 40
3.744694939194226
 40
4.040512967227245
 40
4.040512967227245
 40
4.16405099225536
 40
4.16405099225536
 40
4.16405099225536
 40
4.16405099225536
 10
-1.516137703235411
 20
-10.05893448672769
 30
0.0
 10
-1.586075335306652
 20
-10.14217607449448
 30
0.0
 10
-1.638270196543438
 20
-10.23308275376403
 30
0.0
 10
-1.702226260130821
 20
-10.43338960347304
 30
0.0
 10
-1.70890455871159
 20
-10.54360434320437
 30
0.0
 10
-1.678995858798442
 20
-10.69505984155287
 30
0.0
 10
-1.665453801040272
 20
-10.73906974891626
 30
0.0
 10
-1.647500691938048
 20
-10.78197165849298
 30
0.0
  0
LINE
  5
8C9
330
841
100
AcDbEntity
  8
0
100
AcDbLine
 10
-1.312243983648723
 20
-11.58312275171724
 30
0.0
 11
-1.647500691938064
 21
-10.78197165849295
 31
0.0
  0
LINE
  5
8CA
330
841
100
AcDbEntity
  8
0
100
AcDbLine
 10
1.312243983648714
 20
-11.58312275171724
 30
0.0
 11
1.647500691938055
 21
-10.78197165849295
 31
0.0
  0
SPLINE
  5
8CB
330
841
100
AcDbEntity
  8
0
100
AcDbSpline
210
0.0
220
0.0
230
1.0
 70
     8
 71
     3
 72
    12
 73
     8
 74
     0
 42
0.000000001
 43
0.0000000001
 40
0.5483379881293295
 40
0.5483379881293295
 40
0.5483379881293295
 40
0.5483379881293295
 40
0.8490833238088637
 40
0.8490833238088637
 40
1.137523213522371
 40
1.137523213522371
 40
1.237035588475297
 40
1.237035588475297
 40
1.237035588475297
 40
1.237035588475297
 10
1.647500691938039
 20
-9.745021000714771
 30
0.0
 10
1.691206375448932
 20
-9.640579075291331
 30
0.0
 10
1.708250984855763
 20
-9.529245258592485
 30
0.0
 10
1.68454799224446
 20
-9.314651733794466
 30
0.0
 10
1.646470370362659
 20
-9.21190261099289
 30
0.0
 10
1.565394456475609
 20
-9.084509342397669
 30
0.0
 10
1.541977236482879
 20
-9.052738713136614
 30
0.0
 10
1.516137703235404
 20
-9.021983828949494
 30
0.0
  0
SPLINE
  5
8CC
330
841
100
AcDbEntity
  8
0
100
AcDbSpline
210
0.0
220
0.0
230
1.0
 70
     8
 71
     3
 72
    12
 73
     8
 74
     0
 42
0.000000001
 43
0.0000000001
 40
3.475353391909391
 40
3.475353391909391
 40
3.475353391909391
 40
3.475353391909391
 40
3.744694939194226
 40
3.744694939194226
 40
4.040512967227245
 40
4.040512967227245
 40
4.16405099225536
 40
4.16405099225536
 40
4.16405099225536
 40
4.16405099225536
 10
-1.516137703235411
 20
-9.021983828949489
 30
0.0
 10
-1.586075335306652
 20
-9.105225416716272
 30
0.0
 10
-1.638270196543438
 20
-9.196132095985824
 30
0.0
 10
-1.702226260130821
 20
-9.396438945694827
 30
0.0
 10
-1.70890455871159
 20
-9.506653685426158
 30
0.0
 10
-1.678995858798442
 20
-9.658109183774662
 30
0.0
 10
-1.665453801040272
 20
-9.702119091138051
 30
0.0
 10
-1.647500691938048
 20
-9.745021000714766
 30
0.0
  0
LINE
  5
8CD
330
841
100
AcDbEntity
  8
0
100
AcDbLine
 10
-1.31224398364872
 20
-10.54617209393903
 30
0.0
 11
-1.647500691938061
 21
-9.745021000714739
 31
0.0
  0
LINE
  5
8CE
330
841
100
AcDbEntity
  8
0
100
AcDbLine
 10
1.312243983648712
 20
-10.54617209393903
 30
0.0
 11
1.647500691938052
 21
-9.745021000714739
 31
0.0
  0
SPLINE
  5
8CF
330
841
100
AcDbEntity
  8
0
100
AcDbSpline
210
0.0
220
0.0
230
1.0
 70
     8
 71
     3
 72
    12
 73
     8
 74
     0
 42
0.000000001
 43
0.0000000001
 40
0.5483379881293982
 40
0.5483379881293982
 40
0.5483379881293982
 40
0.5483379881293982
 40
0.849083323808926
 40
0.849083323808926
 40
1.137523213522436
 40
1.137523213522436
 40
1.237035588475297
 40
1.237035588475297
 40
1.237035588475297
 40
1.237035588475297
 10
1.647500691938069
 20
-8.708070342936489
 30
0.0
 10
1.69120637544895
 20
-8.60362841751305
 30
0.0
 10
1.708250984855766
 20
-8.492294600814203
 30
0.0
 10
1.684547992244441
 20
-8.277701076016189
 30
0.0
 10
1.646470370362629
 20
-8.174951953214613
 30
0.0
 10
1.565394456475579
 20
-8.047558684619415
 30
0.0
 10
1.541977236482863
 20
-8.015788055358378
 30
0.0
 10
1.516137703235404
 20
-7.985033171171282
 30
0.0
  0
SPLINE
  5
8D0
330
841
100
AcDbEntity
  8
0
100
AcDbSpline
210
0.0
220
0.0
230
1.0
 70
     8
 71
     3
 72
    12
 73
     8
 74
     0
 42
0.000000001
 43
0.0000000001
 40
3.475353391909391
 40
3.475353391909391
 40
3.475353391909391
 40
3.475353391909391
 40
3.744694939194294
 40
3.744694939194294
 40
4.040512967227307
 40
4.040512967227307
 40
4.16405099225529
 40
4.16405099225529
 40
4.16405099225529
 40
4.16405099225529
 10
-1.516137703235412
 20
-7.985033171171274
 30
0.0
 10
-1.58607533530667
 20
-8.06827475893808
 30
0.0
 10
-1.638270196543465
 20
-8.159181438207664
 30
0.0
 10
-1.702226260130831
 20
-8.359488287916683
 30
0.0
 10
-1.708904558711588
 20
-8.469703027648019
 30
0.0
 10
-1.678995858798433
 20
-8.621158525996467
 30
0.0
 10
-1.665453801040278
 20
-8.665168433359809
 30
0.0
 10
-1.647500691938078
 20
-8.708070342936489
 30
0.0
  0
LINE
  5
8D1
330
841
100
AcDbEntity
  8
0
100
AcDbLine
 10
-1.31224398364872
 20
-9.509221436160824
 30
0.0
 11
-1.647500691938064
 21
-8.708070342936524
 31
0.0
  0
LINE
  5
8D2
330
841
100
AcDbEntity
  8
0
100
AcDbLine
 10
1.312243983648712
 20
-9.509221436160824
 30
0.0
 11
1.647500691938055
 21
-8.708070342936524
 31
0.0
  0
SPLINE
  5
8D3
330
841
100
AcDbEntity
  8
0
100
AcDbSpline
210
0.0
220
0.0
230
1.0
 70
     8
 71
     3
 72
    12
 73
     8
 74
     0
 42
0.000000001
 43
0.0000000001
 40
0.5483379881293982
 40
0.5483379881293982
 40
0.5483379881293982
 40
0.5483379881293982
 40
0.849083323808926
 40
0.849083323808926
 40
1.137523213522436
 40
1.137523213522436
 40
1.237035588475297
 40
1.237035588475297
 40
1.237035588475297
 40
1.237035588475297
 10
1.647500691938069
 20
-7.671119685158278
 30
0.0
 10
1.69120637544895
 20
-7.566677759734838
 30
0.0
 10
1.708250984855766
 20
-7.455343943035992
 30
0.0
 10
1.684547992244441
 20
-7.240750418237977
 30
0.0
 10
1.646470370362629
 20
-7.138001295436402
 30
0.0
 10
1.565394456475579
 20
-7.010608026841205
 30
0.0
 10
1.541977236482863
 20
-6.978837397580166
 30
0.0
 10
1.516137703235404
 20
-6.948082513393072
 30
0.0
  0
SPLINE
  5
8D4
330
841
100
AcDbEntity
  8
0
100
AcDbSpline
210
0.0
220
0.0
230
1.0
 70
     8
 71
     3
 72
    12
 73
     8
 74
     0
 42
0.000000001
 43
0.0000000001
 40
3.475353391909391
 40
3.475353391909391
 40
3.475353391909391
 40
3.475353391909391
 40
3.744694939194294
 40
3.744694939194294
 40
4.040512967227307
 40
4.040512967227307
 40
4.16405099225529
 40
4.16405099225529
 40
4.16405099225529
 40
4.16405099225529
 10
-1.516137703235412
 20
-6.948082513393067
 30
0.0
 10
-1.58607533530667
 20
-7.03132410115987
 30
0.0
 10
-1.638270196543465
 20
-7.122230780429452
 30
0.0
 10
-1.702226260130831
 20
-7.322537630138477
 30
0.0
 10
-1.708904558711588
 20
-7.432752369869812
 30
0.0
 10
-1.678995858798433
 20
-7.584207868218255
 30
0.0
 10
-1.665453801040278
 20
-7.628217775581598
 30
0.0
 10
-1.647500691938078
 20
-7.671119685158278
 30
0.0
  0
LINE
  5
8D5
330
841
100
AcDbEntity
  8
0
100
AcDbLine
 10
-1.312243983648723
 20
-8.472270778382604
 30
0.0
 11
-1.647500691938064
 21
-7.671119685158314
 31
0.0
  0
LINE
  5
8D6
330
841
100
AcDbEntity
  8
0
100
AcDbLine
 10
1.312243983648714
 20
-8.472270778382604
 30
0.0
 11
1.647500691938055
 21
-7.671119685158314
 31
0.0
  0
SPLINE
  5
8D7
330
841
100
AcDbEntity
  8
0
100
AcDbSpline
210
0.0
220
0.0
230
1.0
 70
     8
 71
     3
 72
    12
 73
     8
 74
     0
 42
0.000000001
 43
0.0000000001
 40
0.5483379881293295
 40
0.5483379881293295
 40
0.5483379881293295
 40
0.5483379881293295
 40
0.8490833238088637
 40
0.8490833238088637
 40
1.137523213522371
 40
1.137523213522371
 40
1.237035588475297
 40
1.237035588475297
 40
1.237035588475297
 40
1.237035588475297
 10
1.647500691938039
 20
-6.634169027380134
 30
0.0
 10
1.691206375448932
 20
-6.529727101956694
 30
0.0
 10
1.708250984855763
 20
-6.418393285257848
 30
0.0
 10
1.68454799224446
 20
-6.203799760459829
 30
0.0
 10
1.646470370362659
 20
-6.101050637658249
 30
0.0
 10
1.565394456475609
 20
-5.97365736906303
 30
0.0
 10
1.541977236482879
 20
-5.941886739801978
 30
0.0
 10
1.516137703235404
 20
-5.911131855614852
 30
0.0
  0
SPLINE
  5
8D8
330
841
100
AcDbEntity
  8
0
100
AcDbSpline
210
0.0
220
0.0
230
1.0
 70
     8
 71
     3
 72
    12
 73
     8
 74
     0
 42
0.000000001
 43
0.0000000001
 40
3.475353391909391
 40
3.475353391909391
 40
3.475353391909391
 40
3.475353391909391
 40
3.744694939194226
 40
3.744694939194226
 40
4.040512967227245
 40
4.040512967227245
 40
4.16405099225536
 40
4.16405099225536
 40
4.16405099225536
 40
4.16405099225536
 10
-1.516137703235411
 20
-5.911131855614848
 30
0.0
 10
-1.586075335306652
 20
-5.994373443381637
 30
0.0
 10
-1.638270196543438
 20
-6.085280122651184
 30
0.0
 10
-1.702226260130821
 20
-6.285586972360186
 30
0.0
 10
-1.70890455871159
 20
-6.395801712091522
 30
0.0
 10
-1.678995858798442
 20
-6.547257210440027
 30
0.0
 10
-1.665453801040272
 20
-6.591267117803409
 30
0.0
 10
-1.647500691938048
 20
-6.63416902738013
 30
0.0
  0
LINE
  5
8D9
330
841
100
AcDbEntity
  8
0
100
AcDbLine
 10
-1.312243983648723
 20
-7.435320120604393
 30
0.0
 11
-1.647500691938064
 21
-6.634169027380103
 31
0.0
  0
LINE
  5
8DA
330
841
100
AcDbEntity
  8
0
100
AcDbLine
 10
1.312243983648714
 20
-7.435320120604393
 30
0.0
 11
1.647500691938055
 21
-6.634169027380103
 31
0.0
  0
SPLINE
  5
8DB
330
841
100
AcDbEntity
  8
0
100
AcDbSpline
210
0.0
220
0.0
230
1.0
 70
     8
 71
     3
 72
    12
 73
     8
 74
     0
 42
0.000000001
 43
0.0000000001
 40
0.5483379881293295
 40
0.5483379881293295
 40
0.5483379881293295
 40
0.5483379881293295
 40
0.8490833238088637
 40
0.8490833238088637
 40
1.137523213522371
 40
1.137523213522371
 40
1.237035588475297
 40
1.237035588475297
 40
1.237035588475297
 40
1.237035588475297
 10
1.647500691938039
 20
-5.597218369601923
 30
0.0
 10
1.691206375448932
 20
-5.492776444178484
 30
0.0
 10
1.708250984855763
 20
-5.381442627479637
 30
0.0
 10
1.68454799224446
 20
-5.166849102681618
 30
0.0
 10
1.646470370362659
 20
-5.064099979880039
 30
0.0
 10
1.565394456475609
 20
-4.936706711284819
 30
0.0
 10
1.541977236482879
 20
-4.904936082023767
 30
0.0
 10
1.516137703235404
 20
-4.874181197836642
 30
0.0
  0
SPLINE
  5
8DC
330
841
100
AcDbEntity
  8
0
100
AcDbSpline
210
0.0
220
0.0
230
1.0
 70
     8
 71
     3
 72
    12
 73
     8
 74
     0
 42
0.000000001
 43
0.0000000001
 40
3.475353391909391
 40
3.475353391909391
 40
3.475353391909391
 40
3.475353391909391
 40
3.744694939194226
 40
3.744694939194226
 40
4.040512967227245
 40
4.040512967227245
 40
4.16405099225536
 40
4.16405099225536
 40
4.16405099225536
 40
4.16405099225536
 10
-1.516137703235411
 20
-4.874181197836637
 30
0.0
 10
-1.586075335306652
 20
-4.957422785603426
 30
0.0
 10
-1.638270196543438
 20
-5.048329464872973
 30
0.0
 10
-1.702226260130821
 20
-5.248636314581975
 30
0.0
 10
-1.70890455871159
 20
-5.358851054313311
 30
0.0
 10
-1.678995858798442
 20
-5.510306552661816
 30
0.0
 10
-1.665453801040272
 20
-5.554316460025199
 30
0.0
 10
-1.647500691938048
 20
-5.597218369601919
 30
0.0
  0
LINE
  5
8DD
330
841
100
AcDbEntity
  8
0
100
AcDbLine
 10
-1.31224398364872
 20
-6.398369462826183
 30
0.0
 11
-1.647500691938061
 21
-5.597218369601892
 31
0.0
  0
LINE
  5
8DE
330
841
100
AcDbEntity
  8
0
100
AcDbLine
 10
1.312243983648712
 20
-6.398369462826183
 30
0.0
 11
1.647500691938052
 21
-5.597218369601892
 31
0.0
  0
SPLINE
  5
8DF
330
841
100
AcDbEntity
  8
0
100
AcDbSpline
210
0.0
220
0.0
230
1.0
 70
     8
 71
     3
 72
    12
 73
     8
 74
     0
 42
0.000000001
 43
0.0000000001
 40
0.5483379881293982
 40
0.5483379881293982
 40
0.5483379881293982
 40
0.5483379881293982
 40
0.849083323808926
 40
0.849083323808926
 40
1.137523213522436
 40
1.137523213522436
 40
1.237035588475297
 40
1.237035588475297
 40
1.237035588475297
 40
1.237035588475297
 10
1.647500691938069
 20
-4.560267711823637
 30
0.0
 10
1.69120637544895
 20
-4.455825786400202
 30
0.0
 10
1.708250984855766
 20
-4.344491969701356
 30
0.0
 10
1.684547992244441
 20
-4.129898444903337
 30
0.0
 10
1.646470370362629
 20
-4.027149322101766
 30
0.0
 10
1.565394456475579
 20
-3.899756053506568
 30
0.0
 10
1.541977236482863
 20
-3.867985424245532
 30
0.0
 10
1.516137703235404
 20
-3.837230540058429
 30
0.0
  0
SPLINE
  5
8E0
330
841
100
AcDbEntity
  8
0
100
AcDbSpline
210
0.0
220
0.0
230
1.0
 70
     8
 71
     3
 72
    12
 73
     8
 74
     0
 42
0.000000001
 43
0.0000000001
 40
3.475353391909391
 40
3.475353391909391
 40
3.475353391909391
 40
3.475353391909391
 40
3.744694939194294
 40
3.744694939194294
 40
4.040512967227307
 40
4.040512967227307
 40
4.16405099225529
 40
4.16405099225529
 40
4.16405099225529
 40
4.16405099225529
 10
-1.516137703235412
 20
-3.837230540058429
 30
0.0
 10
-1.58607533530667
 20
-3.920472127825236
 30
0.0
 10
-1.638270196543465
 20
-4.011378807094809
 30
0.0
 10
-1.702226260130831
 20
-4.211685656803836
 30
0.0
 10
-1.708904558711588
 20
-4.321900396535172
 30
0.0
 10
-1.678995858798433
 20
-4.473355894883619
 30
0.0
 10
-1.665453801040278
 20
-4.517365802246957
 30
0.0
 10
-1.647500691938078
 20
-4.560267711823637
 30
0.0
  0
LINE
  5
8E1
330
841
100
AcDbEntity
  8
0
100
AcDbLine
 10
-1.31224398364872
 20
-5.361418805047972
 30
0.0
 11
-1.647500691938064
 21
-4.560267711823673
 31
0.0
  0
LINE
  5
8E2
330
841
100
AcDbEntity
  8
0
100
AcDbLine
 10
1.312243983648712
 20
-5.361418805047972
 30
0.0
 11
1.647500691938055
 21
-4.560267711823673
 31
0.0
  0
SPLINE
  5
8E3
330
841
100
AcDbEntity
  8
0
100
AcDbSpline
210
0.0
220
0.0
230
1.0
 70
     8
 71
     3
 72
    12
 73
     8
 74
     0
 42
0.000000001
 43
0.0000000001
 40
0.5483379881293982
 40
0.5483379881293982
 40
0.5483379881293982
 40
0.5483379881293982
 40
0.849083323808926
 40
0.849083323808926
 40
1.137523213522436
 40
1.137523213522436
 40
1.237035588475297
 40
1.237035588475297
 40
1.237035588475297
 40
1.237035588475297
 10
1.647500691938069
 20
-3.523317054045429
 30
0.0
 10
1.69120637544895
 20
-3.418875128621989
 30
0.0
 10
1.708250984855766
 20
-3.307541311923145
 30
0.0
 10
1.684547992244441
 20
-3.09294778712513
 30
0.0
 10
1.646470370362629
 20
-2.990198664323555
 30
0.0
 10
1.565394456475579
 20
-2.862805395728356
 30
0.0
 10
1.541977236482863
 20
-2.831034766467321
 30
0.0
 10
1.516137703235404
 20
-2.800279882280221
 30
0.0
  0
SPLINE
  5
8E4
330
841
100
AcDbEntity
  8
0
100
AcDbSpline
210
0.0
220
0.0
230
1.0
 70
     8
 71
     3
 72
    12
 73
     8
 74
     0
 42
0.000000001
 43
0.0000000001
 40
3.475353391909391
 40
3.475353391909391
 40
3.475353391909391
 40
3.475353391909391
 40
3.744694939194294
 40
3.744694939194294
 40
4.040512967227307
 40
4.040512967227307
 40
4.16405099225529
 40
4.16405099225529
 40
4.16405099225529
 40
4.16405099225529
 10
-1.516137703235412
 20
-2.800279882280221
 30
0.0
 10
-1.58607533530667
 20
-2.883521470047025
 30
0.0
 10
-1.638270196543465
 20
-2.974428149316601
 30
0.0
 10
-1.702226260130831
 20
-3.174734999025627
 30
0.0
 10
-1.708904558711588
 20
-3.284949738756961
 30
0.0
 10
-1.678995858798433
 20
-3.436405237105411
 30
0.0
 10
-1.665453801040278
 20
-3.480415144468749
 30
0.0
 10
-1.647500691938078
 20
-3.523317054045427
 30
0.0
  0
LINE
  5
8E5
330
841
100
AcDbEntity
  8
0
100
AcDbLine
 10
-1.312243983648723
 20
-4.324468147269757
 30
0.0
 11
-1.647500691938064
 21
-3.523317054045465
 31
0.0
  0
LINE
  5
8E6
330
841
100
AcDbEntity
  8
0
100
AcDbLine
 10
1.312243983648714
 20
-4.324468147269757
 30
0.0
 11
1.647500691938055
 21
-3.523317054045465
 31
0.0
  0
SPLINE
  5
8E7
330
841
100
AcDbEntity
  8
0
100
AcDbSpline
210
0.0
220
0.0
230
1.0
 70
     8
 71
     3
 72
    12
 73
     8
 74
     0
 42
0.000000001
 43
0.0000000001
 40
0.5483379881293295
 40
0.5483379881293295
 40
0.5483379881293295
 40
0.5483379881293295
 40
0.8490833238088637
 40
0.8490833238088637
 40
1.137523213522371
 40
1.137523213522371
 40
1.237035588475297
 40
1.237035588475297
 40
1.237035588475297
 40
1.237035588475297
 10
1.647500691938039
 20
-2.486366396267283
 30
0.0
 10
1.691206375448932
 20
-2.381924470843848
 30
0.0
 10
1.708250984855763
 20
-2.270590654144999
 30
0.0
 10
1.68454799224446
 20
-2.055997129346982
 30
0.0
 10
1.646470370362659
 20
-1.953248006545404
 30
0.0
 10
1.565394456475609
 20
-1.82585473795018
 30
0.0
 10
1.541977236482879
 20
-1.794084108689126
 30
0.0
 10
1.516137703235404
 20
-1.763329224502003
 30
0.0
  0
SPLINE
  5
8E8
330
841
100
AcDbEntity
  8
0
100
AcDbSpline
210
0.0
220
0.0
230
1.0
 70
     8
 71
     3
 72
    12
 73
     8
 74
     0
 42
0.000000001
 43
0.0000000001
 40
3.475353391909391
 40
3.475353391909391
 40
3.475353391909391
 40
3.475353391909391
 40
3.744694939194226
 40
3.744694939194226
 40
4.040512967227245
 40
4.040512967227245
 40
4.16405099225536
 40
4.16405099225536
 40
4.16405099225536
 40
4.16405099225536
 10
-1.516137703235411
 20
-1.763329224502003
 30
0.0
 10
-1.586075335306652
 20
-1.846570812268788
 30
0.0
 10
-1.638270196543438
 20
-1.937477491538337
 30
0.0
 10
-1.702226260130821
 20
-2.137784341247339
 30
0.0
 10
-1.70890455871159
 20
-2.247999080978668
 30
0.0
 10
-1.678995858798442
 20
-2.399454579327173
 30
0.0
 10
-1.665453801040272
 20
-2.44346448669056
 30
0.0
 10
-1.647500691938048
 20
-2.486366396267283
 30
0.0
  0
LINE
  5
8E9
330
841
100
AcDbEntity
  8
0
100
AcDbLine
 10
-1.312243983648723
 20
-3.287517489491547
 30
0.0
 11
-1.647500691938064
 21
-2.486366396267254
 31
0.0
  0
LINE
  5
8EA
330
841
100
AcDbEntity
  8
0
100
AcDbLine
 10
1.312243983648714
 20
-3.287517489491547
 30
0.0
 11
1.647500691938055
 21
-2.486366396267254
 31
0.0
  0
SPLINE
  5
8EB
330
841
100
AcDbEntity
  8
0
100
AcDbSpline
210
0.0
220
0.0
230
1.0
 70
     8
 71
     3
 72
    12
 73
     8
 74
     0
 42
0.000000001
 43
0.0000000001
 40
0.5483379881293295
 40
0.5483379881293295
 40
0.5483379881293295
 40
0.5483379881293295
 40
0.8490833238088637
 40
0.8490833238088637
 40
1.137523213522371
 40
1.137523213522371
 40
1.237035588475297
 40
1.237035588475297
 40
1.237035588475297
 40
1.237035588475297
 10
1.647500691938039
 20
-1.449415738489072
 30
0.0
 10
1.691206375448932
 20
-1.344973813065637
 30
0.0
 10
1.708250984855763
 20
-1.233639996366788
 30
0.0
 10
1.68454799224446
 20
-1.019046471568771
 30
0.0
 10
1.646470370362659
 20
-0.9162973487671944
 30
0.0
 10
1.565394456475609
 20
-0.7889040801719705
 30
0.0
 10
1.541977236482879
 20
-0.7571334509109163
 30
0.0
 10
1.516137703235404
 20
-0.7263785667237932
 30
0.0
  0
SPLINE
  5
8EC
330
841
100
AcDbEntity
  8
0
100
AcDbSpline
210
0.0
220
0.0
230
1.0
 70
     8
 71
     3
 72
    12
 73
     8
 74
     0
 42
0.000000001
 43
0.0000000001
 40
3.475353391909391
 40
3.475353391909391
 40
3.475353391909391
 40
3.475353391909391
 40
3.744694939194226
 40
3.744694939194226
 40
4.040512967227245
 40
4.040512967227245
 40
4.16405099225536
 40
4.16405099225536
 40
4.16405099225536
 40
4.16405099225536
 10
-1.516137703235411
 20
-0.7263785667237932
 30
0.0
 10
-1.586075335306652
 20
-0.8096201544905778
 30
0.0
 10
-1.638270196543438
 20
-0.9005268337601268
 30
0.0
 10
-1.702226260130821
 20
-1.100833683469129
 30
0.0
 10
-1.70890455871159
 20
-1.21104842320046
 30
0.0
 10
-1.678995858798442
 20
-1.362503921548965
 30
0.0
 10
-1.665453801040272
 20
-1.40651382891235
 30
0.0
 10
-1.647500691938048
 20
-1.449415738489072
 30
0.0
  0
LINE
  5
8ED
330
841
100
AcDbEntity
  8
0
100
AcDbLine
 10
-1.31224398364872
 20
-2.250566831713336
 30
0.0
 11
-1.647500691938061
 21
-1.449415738489041
 31
0.0
  0
LINE
  5
8EE
330
841
100
AcDbEntity
  8
0
100
AcDbLine
 10
1.312243983648712
 20
-2.250566831713336
 30
0.0
 11
1.647500691938052
 21
-1.449415738489043
 31
0.0
  0
SPLINE
  5
8EF
330
841
100
AcDbEntity
  8
0
100
AcDbSpline
210
0.0
220
0.0
230
1.0
 70
     8
 71
     3
 72
    12
 73
     8
 74
     0
 42
0.000000001
 43
0.0000000001
 40
0.5483379881293638
 40
0.5483379881293638
 40
0.5483379881293638
 40
0.5483379881293638
 40
0.8490833238088947
 40
0.8490833238088947
 40
1.137523213522403
 40
1.137523213522403
 40
1.237035588475297
 40
1.237035588475297
 40
1.237035588475297
 40
1.237035588475297
 10
1.647500691938054
 20
-0.4124650807108266
 30
0.0
 10
1.691206375448941
 20
-0.3080231552873891
 30
0.0
 10
1.708250984855764
 20
-0.1966893385885449
 30
0.0
 10
1.684547992244451
 20
0.017904186209472
 30
0.0
 10
1.646470370362644
 20
0.1206533090110518
 30
0.0
 10
1.565394456475594
 20
0.2480465776062601
 30
0.0
 10
1.541977236482871
 20
0.2798172068673055
 30
0.0
 10
1.516137703235404
 20
0.3105720910544174
 30
0.0
  0
SPLINE
  5
8F0
330
841
100
AcDbEntity
  8
0
100
AcDbSpline
210
0.0
220
0.0
230
1.0
 70
     8
 71
     3
 72
    12
 73
     8
 74
     0
 42
0.000000001
 43
0.0000000001
 40
3.475353391909391
 40
3.475353391909391
 40
3.475353391909391
 40
3.475353391909391
 40
3.74469493919426
 40
3.74469493919426
 40
4.040512967227276
 40
4.040512967227276
 40
4.164050992255326
 40
4.164050992255326
 40
4.164050992255326
 40
4.164050992255326
 10
-1.516137703235412
 20
0.3105720910544174
 30
0.0
 10
-1.586075335306662
 20
0.2273305032876238
 30
0.0
 10
-1.638270196543451
 20
0.1364238240180593
 30
0.0
 10
-1.702226260130826
 20
-0.0638830256909517
 30
0.0
 10
-1.708904558711589
 20
-0.1740977654222853
 30
0.0
 10
-1.678995858798437
 20
-0.3255532637707637
 30
0.0
 10
-1.665453801040275
 20
-0.3695631711341241
 30
0.0
 10
-1.647500691938063
 20
-0.4124650807108288
 30
0.0
  0
LINE
  5
8F1
330
841
100
AcDbEntity
  8
0
100
AcDbLine
 10
-1.31224398364872
 20
-1.213616173935125
 30
0.0
 11
-1.647500691938063
 21
-0.412465080710831
 31
0.0
  0
LINE
  5
8F2
330
841
100
AcDbEntity
  8
0
100
AcDbLine
 10
1.312243983648712
 20
-1.213616173935125
 30
0.0
 11
1.647500691938054
 21
-0.412465080710831
 31
0.0
  0
SPLINE
  5
8F3
330
841
100
AcDbEntity
  8
0
100
AcDbSpline
210
0.0
220
0.0
230
1.0
 70
     8
 71
     3
 72
    12
 73
     8
 74
     0
 42
0.000000001
 43
0.0000000001
 40
0.5483379881293638
 40
0.5483379881293638
 40
0.5483379881293638
 40
0.5483379881293638
 40
0.8490833238088947
 40
0.8490833238088947
 40
1.137523213522403
 40
1.137523213522403
 40
1.237035588475297
 40
1.237035588475297
 40
1.237035588475297
 40
1.237035588475297
 10
1.647500691938054
 20
0.6244855770673841
 30
0.0
 10
1.691206375448941
 20
0.7289275024908238
 30
0.0
 10
1.708250984855764
 20
0.840261319189668
 30
0.0
 10
1.684547992244451
 20
1.054854843987684
 30
0.0
 10
1.646470370362644
 20
1.157603966789262
 30
0.0
 10
1.565394456475594
 20
1.284997235384472
 30
0.0
 10
1.541977236482871
 20
1.316767864645518
 30
0.0
 10
1.516137703235404
 20
1.347522748832632
 30
0.0
  0
SPLINE
  5
8F4
330
841
100
AcDbEntity
  8
0
100
AcDbSpline
210
0.0
220
0.0
230
1.0
 70
     8
 71
     3
 72
    12
 73
     8
 74
     0
 42
0.000000001
 43
0.0000000001
 40
3.475353391909391
 40
3.475353391909391
 40
3.475353391909391
 40
3.475353391909391
 40
3.74469493919426
 40
3.74469493919426
 40
4.040512967227276
 40
4.040512967227276
 40
4.164050992255326
 40
4.164050992255326
 40
4.164050992255326
 40
4.164050992255326
 10
-1.516137703235412
 20
1.34752274883263
 30
0.0
 10
-1.586075335306662
 20
1.264281161065834
 30
0.0
 10
-1.638270196543451
 20
1.173374481796272
 30
0.0
 10
-1.702226260130826
 20
0.9730676320872589
 30
0.0
 10
-1.708904558711589
 20
0.8628528923559253
 30
0.0
 10
-1.678995858798437
 20
0.7113973940074492
 30
0.0
 10
-1.665453801040275
 20
0.6673874866440866
 30
0.0
 10
-1.647500691938063
 20
0.6244855770673841
 30
0.0
  0
LINE
  5
8F5
330
841
100
AcDbEntity
  8
0
100
AcDbLine
 10
-1.312243983648722
 20
-0.1766655161569108
 30
0.0
 11
-1.647500691938064
 21
0.6244855770673841
 31
0.0
  0
LINE
  5
8F6
330
841
100
AcDbEntity
  8
0
100
AcDbLine
 10
1.312243983648713
 20
-0.1766655161569108
 30
0.0
 11
1.647500691938055
 21
0.6244855770673841
 31
0.0
  0
SPLINE
  5
8F7
330
841
100
AcDbEntity
  8
0
100
AcDbSpline
210
0.0
220
0.0
230
1.0
 70
     8
 71
     3
 72
    12
 73
     8
 74
     0
 42
0.000000001
 43
0.0000000001
 40
0.5483379881293638
 40
0.5483379881293638
 40
0.5483379881293638
 40
0.5483379881293638
 40
0.8490833238088947
 40
0.8490833238088947
 40
1.137523213522403
 40
1.137523213522403
 40
1.237035588475297
 40
1.237035588475297
 40
1.237035588475297
 40
1.237035588475297
 10
1.647500691938054
 20
1.661436234845599
 30
0.0
 10
1.691206375448941
 20
1.765878160269034
 30
0.0
 10
1.708250984855764
 20
1.877211976967878
 30
0.0
 10
1.684547992244451
 20
2.091805501765897
 30
0.0
 10
1.646470370362644
 20
2.194554624567475
 30
0.0
 10
1.565394456475594
 20
2.321947893162685
 30
0.0
 10
1.541977236482871
 20
2.353718522423728
 30
0.0
 10
1.516137703235404
 20
2.384473406610843
 30
0.0
  0
SPLINE
  5
8F8
330
841
100
AcDbEntity
  8
0
100
AcDbSpline
210
0.0
220
0.0
230
1.0
 70
     8
 71
     3
 72
    12
 73
     8
 74
     0
 42
0.000000001
 43
0.0000000001
 40
3.475353391909391
 40
3.475353391909391
 40
3.475353391909391
 40
3.475353391909391
 40
3.74469493919426
 40
3.74469493919426
 40
4.040512967227276
 40
4.040512967227276
 40
4.164050992255326
 40
4.164050992255326
 40
4.164050992255326
 40
4.164050992255326
 10
-1.516137703235412
 20
2.38447340661084
 30
0.0
 10
-1.586075335306662
 20
2.301231818844047
 30
0.0
 10
-1.638270196543451
 20
2.210325139574482
 30
0.0
 10
-1.702226260130826
 20
2.010018289865471
 30
0.0
 10
-1.708904558711589
 20
1.899803550134135
 30
0.0
 10
-1.678995858798437
 20
1.748348051785661
 30
0.0
 10
-1.665453801040275
 20
1.704338144422299
 30
0.0
 10
-1.647500691938063
 20
1.661436234845596
 30
0.0
  0
LINE
  5
8F9
330
841
100
AcDbEntity
  8
0
100
AcDbLine
 10
-1.312243983648722
 20
0.8602851416212997
 30
0.0
 11
-1.647500691938063
 21
1.661436234845594
 31
0.0
  0
LINE
  5
8FA
330
841
100
AcDbEntity
  8
0
100
AcDbLine
 10
1.312243983648713
 20
0.8602851416212997
 30
0.0
 11
1.647500691938054
 21
1.661436234845594
 31
0.0
  0
SPLINE
  5
8FB
330
841
100
AcDbEntity
  8
0
100
AcDbSpline
210
0.0
220
0.0
230
1.0
 70
     8
 71
     3
 72
    12
 73
     8
 74
     0
 42
0.000000001
 43
0.0000000001
 40
0.5483379881293638
 40
0.5483379881293638
 40
0.5483379881293638
 40
0.5483379881293638
 40
0.8490833238088947
 40
0.8490833238088947
 40
1.137523213522403
 40
1.137523213522403
 40
1.237035588475297
 40
1.237035588475297
 40
1.237035588475297
 40
1.237035588475297
 10
1.647500691938054
 20
2.698386892623809
 30
0.0
 10
1.691206375448941
 20
2.802828818047247
 30
0.0
 10
1.708250984855764
 20
2.914162634746091
 30
0.0
 10
1.684547992244451
 20
3.128756159544108
 30
0.0
 10
1.646470370362644
 20
3.231505282345688
 30
0.0
 10
1.565394456475594
 20
3.358898550940896
 30
0.0
 10
1.541977236482871
 20
3.390669180201941
 30
0.0
 10
1.516137703235404
 20
3.421424064389053
 30
0.0
  0
SPLINE
  5
8FC
330
841
100
AcDbEntity
  8
0
100
AcDbSpline
210
0.0
220
0.0
230
1.0
 70
     8
 71
     3
 72
    12
 73
     8
 74
     0
 42
0.000000001
 43
0.0000000001
 40
3.475353391909391
 40
3.475353391909391
 40
3.475353391909391
 40
3.475353391909391
 40
3.74469493919426
 40
3.74469493919426
 40
4.040512967227276
 40
4.040512967227276
 40
4.164050992255326
 40
4.164050992255326
 40
4.164050992255326
 40
4.164050992255326
 10
-1.516137703235412
 20
3.421424064389051
 30
0.0
 10
-1.586075335306662
 20
3.33818247662226
 30
0.0
 10
-1.638270196543451
 20
3.247275797352695
 30
0.0
 10
-1.702226260130826
 20
3.046968947643684
 30
0.0
 10
-1.708904558711589
 20
2.93675420791235
 30
0.0
 10
-1.678995858798437
 20
2.785298709563872
 30
0.0
 10
-1.665453801040275
 20
2.741288802200512
 30
0.0
 10
-1.647500691938063
 20
2.698386892623807
 30
0.0
  0
LINE
  5
8FD
330
841
100
AcDbEntity
  8
0
100
AcDbLine
 10
-1.312243983648722
 20
1.897235799399512
 30
0.0
 11
-1.647500691938064
 21
2.698386892623807
 31
0.0
  0
LINE
  5
8FE
330
841
100
AcDbEntity
  8
0
100
AcDbLine
 10
1.312243983648713
 20
1.897235799399512
 30
0.0
 11
1.647500691938055
 21
2.698386892623807
 31
0.0
  0
SPLINE
  5
8FF
330
841
100
AcDbEntity
  8
0
100
AcDbSpline
210
0.0
220
0.0
230
1.0
 70
     8
 71
     3
 72
    12
 73
     8
 74
     0
 42
0.000000001
 43
0.0000000001
 40
0.5483379881293638
 40
0.5483379881293638
 40
0.5483379881293638
 40
0.5483379881293638
 40
0.8490833238088947
 40
0.8490833238088947
 40
1.137523213522403
 40
1.137523213522403
 40
1.237035588475297
 40
1.237035588475297
 40
1.237035588475297
 40
1.237035588475297
 10
1.647500691938054
 20
3.73533755040202
 30
0.0
 10
1.691206375448941
 20
3.839779475825459
 30
0.0
 10
1.708250984855764
 20
3.951113292524304
 30
0.0
 10
1.684547992244451
 20
4.165706817322321
 30
0.0
 10
1.646470370362644
 20
4.268455940123898
 30
0.0
 10
1.565394456475594
 20
4.395849208719109
 30
0.0
 10
1.541977236482871
 20
4.427619837980154
 30
0.0
 10
1.516137703235404
 20
4.458374722167266
 30
0.0
  0
SPLINE
  5
900
330
841
100
AcDbEntity
  8
0
100
AcDbSpline
210
0.0
220
0.0
230
1.0
 70
     8
 71
     3
 72
    12
 73
     8
 74
     0
 42
0.000000001
 43
0.0000000001
 40
3.475353391909391
 40
3.475353391909391
 40
3.475353391909391
 40
3.475353391909391
 40
3.74469493919426
 40
3.74469493919426
 40
4.040512967227276
 40
4.040512967227276
 40
4.164050992255326
 40
4.164050992255326
 40
4.164050992255326
 40
4.164050992255326
 10
-1.516137703235412
 20
4.458374722167266
 30
0.0
 10
-1.586075335306662
 20
4.375133134400471
 30
0.0
 10
-1.638270196543451
 20
4.284226455130908
 30
0.0
 10
-1.702226260130826
 20
4.083919605421895
 30
0.0
 10
-1.708904558711589
 20
3.973704865690561
 30
0.0
 10
-1.678995858798437
 20
3.822249367342085
 30
0.0
 10
-1.665453801040275
 20
3.778239459978722
 30
0.0
 10
-1.647500691938063
 20
3.73533755040202
 30
0.0
  0
LINE
  5
901
330
841
100
AcDbEntity
  8
0
100
AcDbLine
 10
-1.312243983648722
 20
2.934186457177725
 30
0.0
 11
-1.647500691938063
 21
3.735337550402018
 31
0.0
  0
LINE
  5
902
330
841
100
AcDbEntity
  8
0
100
AcDbLine
 10
1.312243983648713
 20
2.934186457177725
 30
0.0
 11
1.647500691938054
 21
3.735337550402018
 31
0.0
  0
SPLINE
  5
903
330
841
100
AcDbEntity
  8
0
100
AcDbSpline
210
0.0
220
0.0
230
1.0
 70
     8
 71
     3
 72
    12
 73
     8
 74
     0
 42
0.000000001
 43
0.0000000001
 40
0.5483379881293638
 40
0.5483379881293638
 40
0.5483379881293638
 40
0.5483379881293638
 40
0.8490833238088947
 40
0.8490833238088947
 40
1.137523213522403
 40
1.137523213522403
 40
1.237035588475297
 40
1.237035588475297
 40
1.237035588475297
 40
1.237035588475297
 10
1.647500691938054
 20
4.772288208180235
 30
0.0
 10
1.691206375448941
 20
4.87673013360367
 30
0.0
 10
1.708250984855764
 20
4.988063950302514
 30
0.0
 10
1.684547992244451
 20
5.202657475100533
 30
0.0
 10
1.646470370362644
 20
5.305406597902111
 30
0.0
 10
1.565394456475594
 20
5.432799866497322
 30
0.0
 10
1.541977236482871
 20
5.464570495758365
 30
0.0
 10
1.516137703235404
 20
5.495325379945477
 30
0.0
  0
SPLINE
  5
904
330
841
100
AcDbEntity
  8
0
100
AcDbSpline
210
0.0
220
0.0
230
1.0
 70
     8
 71
     3
 72
    12
 73
     8
 74
     0
 42
0.000000001
 43
0.0000000001
 40
3.475353391909391
 40
3.475353391909391
 40
3.475353391909391
 40
3.475353391909391
 40
3.74469493919426
 40
3.74469493919426
 40
4.040512967227276
 40
4.040512967227276
 40
4.164050992255326
 40
4.164050992255326
 40
4.164050992255326
 40
4.164050992255326
 10
-1.516137703235412
 20
5.495325379945477
 30
0.0
 10
-1.586075335306662
 20
5.412083792178683
 30
0.0
 10
-1.638270196543451
 20
5.321177112909118
 30
0.0
 10
-1.702226260130826
 20
5.120870263200107
 30
0.0
 10
-1.708904558711589
 20
5.010655523468772
 30
0.0
 10
-1.678995858798437
 20
4.859200025120298
 30
0.0
 10
-1.665453801040275
 20
4.815190117756936
 30
0.0
 10
-1.647500691938063
 20
4.772288208180233
 30
0.0
  0
LINE
  5
905
330
841
100
AcDbEntity
  8
0
100
AcDbLine
 10
-1.312243983648722
 20
3.971137114955936
 30
0.0
 11
-1.647500691938064
 21
4.77228820818023
 31
0.0
  0
LINE
  5
906
330
841
100
AcDbEntity
  8
0
100
AcDbLine
 10
1.312243983648713
 20
3.971137114955936
 30
0.0
 11
1.647500691938055
 21
4.77228820818023
 31
0.0
  0
SPLINE
  5
907
330
841
100
AcDbEntity
  8
0
100
AcDbSpline
210
0.0
220
0.0
230
1.0
 70
     8
 71
     3
 72
    12
 73
     8
 74
     0
 42
0.000000001
 43
0.0000000001
 40
0.5483379881293638
 40
0.5483379881293638
 40
0.5483379881293638
 40
0.5483379881293638
 40
0.8490833238088947
 40
0.8490833238088947
 40
1.137523213522403
 40
1.137523213522403
 40
1.237035588475297
 40
1.237035588475297
 40
1.237035588475297
 40
1.237035588475297
 10
1.647500691938054
 20
5.809238865958445
 30
0.0
 10
1.691206375448941
 20
5.913680791381883
 30
0.0
 10
1.708250984855764
 20
6.025014608080727
 30
0.0
 10
1.684547992244451
 20
6.239608132878745
 30
0.0
 10
1.646470370362644
 20
6.342357255680322
 30
0.0
 10
1.565394456475594
 20
6.469750524275533
 30
0.0
 10
1.541977236482871
 20
6.501521153536577
 30
0.0
 10
1.516137703235404
 20
6.532276037723688
 30
0.0
  0
SPLINE
  5
908
330
841
100
AcDbEntity
  8
0
100
AcDbSpline
210
0.0
220
0.0
230
1.0
 70
     8
 71
     3
 72
    12
 73
     8
 74
     0
 42
0.000000001
 43
0.0000000001
 40
3.475353391909391
 40
3.475353391909391
 40
3.475353391909391
 40
3.475353391909391
 40
3.74469493919426
 40
3.74469493919426
 40
4.040512967227276
 40
4.040512967227276
 40
4.164050992255326
 40
4.164050992255326
 40
4.164050992255326
 40
4.164050992255326
 10
-1.516137703235412
 20
6.53227603772369
 30
0.0
 10
-1.586075335306662
 20
6.449034449956895
 30
0.0
 10
-1.638270196543451
 20
6.358127770687333
 30
0.0
 10
-1.702226260130826
 20
6.15782092097832
 30
0.0
 10
-1.708904558711589
 20
6.047606181246985
 30
0.0
 10
-1.678995858798437
 20
5.896150682898508
 30
0.0
 10
-1.665453801040275
 20
5.852140775535148
 30
0.0
 10
-1.647500691938063
 20
5.809238865958443
 30
0.0
  0
LINE
  5
909
330
841
100
AcDbEntity
  8
0
100
AcDbLine
 10
-1.312243983648722
 20
5.008087772734148
 30
0.0
 11
-1.647500691938063
 21
5.809238865958441
 31
0.0
  0
LINE
  5
90A
330
841
100
AcDbEntity
  8
0
100
AcDbLine
 10
1.312243983648713
 20
5.008087772734148
 30
0.0
 11
1.647500691938054
 21
5.809238865958441
 31
0.0
  0
SPLINE
  5
90B
330
841
100
AcDbEntity
  8
0
100
AcDbSpline
210
0.0
220
0.0
230
1.0
 70
     8
 71
     3
 72
    12
 73
     8
 74
     0
 42
0.000000001
 43
0.0000000001
 40
0.5483379881293638
 40
0.5483379881293638
 40
0.5483379881293638
 40
0.5483379881293638
 40
0.8490833238088947
 40
0.8490833238088947
 40
1.137523213522403
 40
1.137523213522403
 40
1.237514945200133
 40
1.237514945200133
 40
1.237514945200133
 40
1.237514945200133
 10
1.647500691938054
 20
6.846189523736657
 30
0.0
 10
1.691206375448941
 20
6.950631449160095
 30
0.0
 10
1.708250984855764
 20
7.061965265858939
 30
0.0
 10
1.684547992244451
 20
7.276558790656957
 30
0.0
 10
1.646470370362644
 20
7.379307913458533
 30
0.0
 10
1.565294278468959
 20
7.506858590130876
 30
0.0
 10
1.54175158091563
 20
7.538777842355395
 30
0.0
 10
1.515764123098926
 20
7.569671069033216
 30
0.0
  0
SPLINE
  5
90C
330
841
100
AcDbEntity
  8
0
100
AcDbSpline
210
0.0
220
0.0
230
1.0
 70
     8
 71
     3
 72
    12
 73
     8
 74
     0
 42
0.000000001
 43
0.0000000001
 40
3.474874035184551
 40
3.474874035184551
 40
3.474874035184551
 40
3.474874035184551
 40
3.74469493919426
 40
3.74469493919426
 40
4.040512967227276
 40
4.040512967227276
 40
4.164050992255326
 40
4.164050992255326
 40
4.164050992255326
 40
4.164050992255326
 10
-1.51576412309893
 20
7.569671069033222
 30
0.0
 10
-1.585889514902493
 20
7.486307792789016
 30
0.0
 10
-1.638215950326075
 20
7.395248324614583
 30
0.0
 10
-1.702226260130826
 20
7.194771578756532
 30
0.0
 10
-1.708904558711589
 20
7.084556839025197
 30
0.0
 10
-1.678995858798437
 20
6.933101340676721
 30
0.0
 10
-1.665453801040275
 20
6.889091433313359
 30
0.0
 10
-1.647500691938063
 20
6.846189523736657
 30
0.0
  0
LINE
  5
90D
330
841
100
AcDbEntity
  8
0
100
AcDbLine
 10
-1.312243983648722
 20
6.04503843051236
 30
0.0
 11
-1.647500691938064
 21
6.846189523736656
 31
0.0
  0
LINE
  5
90E
330
841
100
AcDbEntity
  8
0
100
AcDbLine
 10
1.312243983648713
 20
6.04503843051236
 30
0.0
 11
1.647500691938055
 21
6.846189523736656
 31
0.0
  0
LINE
  5
90F
330
841
100
AcDbEntity
  8
0
100
AcDbLine
 10
1.585260760556786
 20
-13.82845034242379
 30
0.0
 11
0.613961172256762
 21
-14.38923042119259
 31
0.0
  0
ELLIPSE
  5
910
330
841
100
AcDbEntity
  8
0
100
AcDbEllipse
 10
-0.0000000000000044
 20
-16.96251050093446
 30
0.0
 11
1.52777648485451
 21
3.175672843532992
 31
0.0
210
0.0
220
0.0
230
0.9999999999999998
 40
0.2347805934183503
 41
5.829167085829735
 42
6.198671812473884
  0
ELLIPSE
  5
911
330
841
100
AcDbEntity
  8
0
100
AcDbEllipse
 10
-0.0000000000000044
 20
-16.96251050093446
 30
0.0
 11
1.52777648485451
 21
3.175672843532992
 31
0.0
210
0.0
220
0.0
230
0.9999999999999998
 40
0.2347805934183503
 41
0.747273378800899
 42
1.116778105445045
  0
ELLIPSE
  5
912
330
841
100
AcDbEntity
  8
0
100
AcDbEllipse
 10
-0.0000000000000015
 20
7.756717518813402
 30
0.0
 11
-1.549999999999991
 21
0.0000000000000001
 31
0.0
210
0.0
220
0.0
230
1.0
 40
0.5773502691896259
 41
0.0000000000000003
 42
3.141592653589793
  0
LINE
  5
913
330
841
100
AcDbEntity
  8
0
100
AcDbLine
 10
-1.312243983648722
 20
7.081989088290572
 30
0.0
 11
-1.506650499744822
 21
7.546555461011434
 31
0.0
  0
LINE
  5
914
330
841
100
AcDbEntity
  8
0
100
AcDbLine
 10
1.312243983648713
 20
7.081989088290572
 30
0.0
 11
1.506650499744814
 21
7.546555461011435
 31
0.0
  0
ELLIPSE
  5
915
330
841
100
AcDbEntity
  8
0
100
AcDbEllipse
 10
-0.0000000000000007
 20
14.20704050814244
 30
0.0
 11
-1.549999999999992
 21
0.0000000000000002
 31
0.0
210
0.0
220
0.0
230
1.0
 40
0.577350269189626
 41
0.2602952018539733
 42
2.88129745173582
  0
LINE
  5
916
330
841
100
AcDbEntity
  8
0
100
AcDbLine
 10
-3.10000000000001
 20
16.32993161855453
 30
0.0
 11
-3.10000000000001
 21
16.53405576378646
 31
0.0
  0
LINE
  5
917
330
841
100
AcDbEntity
  8
0
100
AcDbLine
 10
3.100000000000009
 20
16.32993161855453
 30
0.0
 11
3.100000000000009
 21
16.53405576378646
 31
0.0
  0
LINE
  5
918
330
841
100
AcDbEntity
  8
0
100
AcDbLine
 10
-1.549999999999993
 20
7.756717518813403
 30
0.0
 11
-1.549999999999992
 21
14.08991026095922
 31
0.0
  0
LINE
  5
919
330
841
100
AcDbEntity
  8
0
100
AcDbLine
 10
1.54999999999999
 20
7.756717518813402
 30
0.0
 11
1.54999999999999
 21
14.08991026095922
 31
0.0
  0
LINE
  5
91A
330
841
100
AcDbEntity
  8
0
100
AcDbLine
 10
-1.497786770327318
 20
13.97672565796813
 30
0.0
 11
-1.833035966419167
 21
14.70345808575733
 31
0.0
  0
LINE
  5
91B
330
841
100
AcDbEntity
  8
0
100
AcDbLine
 10
1.497786770327316
 20
13.97672565796813
 30
0.0
 11
1.833035966419165
 21
14.70345808575733
 31
0.0
  0
LINE
  5
91C
330
841
100
AcDbEntity
  8
0
100
AcDbLine
 10
-1.700000000000004
 20
-14.26587389381973
 30
0.0
 11
-1.700000000000004
 21
-13.47397969434937
 31
0.0
  0
LINE
  5
91D
330
841
100
AcDbEntity
  8
0
100
AcDbLine
 10
1.699999999999995
 20
-14.26587389381973
 30
0.0
 11
1.699999999999995
 21
-13.47397969434937
 31
0.0
  0
ENDBLK
  5
843
330
841
100
AcDbEntity
  8
0
100
AcDbBlockEnd
  0
ENDSEC
  0
SECTION
  2
ENTITIES
  0
INSERT
  5
91E
330
1F
100
AcDbEntity
  8
0
100
AcDbBlockReference
  2
CNA31X40-Front
 10
0.0
 20
0.0
 30
0.0
  0
INSERT
  5
91F
330
1F
100
AcDbEntity
  8
0
100
AcDbBlockReference
  2
CNA31X40-Top
 10
0.0
 20
-55.40000000000002
 30
0.0
  0
INSERT
  5
920
330
1F
100
AcDbEntity
  8
0
100
AcDbBlockReference
  2
CNA31X40-ISO
 10
18.50000000000003
 20
-70.7297645143177
 30
0.0
  0
MTEXT
  5
921
330
1F
100
AcDbEntity
  8
0
100
AcDbMText
 10
0.0
 20
-70.80000000000004
 30
0.0
 40
2.369230769230771
 41
0.0
 71
     5
 72
     5
  1
CNA3.1X40
 73
     1
 44
1.0
1001
ACAD
1000
MTEXTBEGIN
1070
    73
1070
     1
1070
    44
1040
1.0
1070
    74
1070
     0
1000
MTEXTEND
  0
ENDSEC
  0
SECTION
  2
OBJECTS
  0
DICTIONARY
  5
C
330
0
100
AcDbDictionary
281
     1
  3
ACAD_CIP_PREVIOUS_PRODUCT_INFO
350
216
  3
ACAD_COLOR
350
6B
  3
ACAD_DETAILVIEWSTYLE
350
21B
  3
ACAD_GROUP
350
D
  3
ACAD_LAYOUT
350
1A
  3
ACAD_MATERIAL
350
6A
  3
ACAD_MLEADERSTYLE
350
12D
  3
ACAD_MLINESTYLE
350
17
  3
ACAD_PLOTSETTINGS
350
19
  3
ACAD_PLOTSTYLENAME
350
E
  3
ACAD_SCALELIST
350
10C
  3
ACAD_SECTIONVIEWSTYLE
350
219
  3
ACAD_TABLESTYLE
350
7E
  3
ACAD_VISUALSTYLE
350
EF
  3
ACDB_RECOMPOSE_DATA
350
A24
  3
AcDbVariableDictionary
350
5E
  3
DWGPROPS
350
A25
  0
DICTIONARY
  5
972
330
8
100
AcDbDictionary
280
     1
281
     1
  0
DICTIONARY
  5
1FF
330
2
100
AcDbDictionary
280
     1
281
     1
  3
ACAD_LAYERSTATES
360
200
  0
DICTIONARY
  5
13C
330
10
100
AcDbDictionary
280
     1
281
     1
  0
DICTIONARY
  5
1CE
330
1F
100
AcDbDictionary
280
     1
281
     1
  3
ACAD_LAYOUTSELFREF
360
97A
  0
DICTIONARY
  5
925
330
D2
100
AcDbDictionary
280
     1
281
     1
  3
ACAD_LAYOUTSELFREF
360
983
  0
DICTIONARY
  5
927
330
D6
100
AcDbDictionary
280
     1
281
     1
  3
ACAD_LAYOUTSELFREF
360
986
  0
XRECORD
  5
216
102
{ACAD_REACTORS
330
C
102
}
330
C
100
AcDbXrecord
280
     1
300
ACD
300
2021
300
87393ACD_2021_0F
  0
DICTIONARY
  5
6B
102
{ACAD_REACTORS
330
C
102
}
330
C
100
AcDbDictionary
281
     1
  0
DICTIONARY
  5
21B
102
{ACAD_REACTORS
330
C
102
}
330
C
100
AcDbDictionary
281
     1
  3
Metric50
350
21C
  0
DICTIONARY
  5
D
102
{ACAD_REACTORS
330
C
102
}
330
C
100
AcDbDictionary
281
     1
  0
DICTIONARY
  5
1A
102
{ACAD_REACTORS
330
C
102
}
330
C
100
AcDbDictionary
281
     1
  3
Layout1
350
D3
  3
Layout2
350
D7
  3
Model
350
22
  0
DICTIONARY
  5
6A
102
{ACAD_REACTORS
330
C
102
}
330
C
100
AcDbDictionary
281
     1
  3
ByBlock
350
ED
  3
ByLayer
350
EC
  3
Global
350
EE
  0
DICTIONARY
  5
12D
102
{ACAD_REACTORS
330
C
102
}
330
C
100
AcDbDictionary
281
     1
  3
Standard
350
12E
  0
DICTIONARY
  5
17
102
{ACAD_REACTORS
330
C
102
}
330
C
100
AcDbDictionary
281
     1
  3
Standard
350
18
  0
DICTIONARY
  5
19
102
{ACAD_REACTORS
330
C
102
}
330
C
100
AcDbDictionary
281
     1
  0
ACDBDICTIONARYWDFLT
  5
E
102
{ACAD_REACTORS
330
C
102
}
330
C
100
AcDbDictionary
281
     1
  3
Normal
350
F
100
AcDbDictionaryWithDefault
340
F
  0
DICTIONARY
  5
10C
102
{ACAD_REACTORS
330
C
102
}
330
C
100
AcDbDictionary
281
     1
  3
A0
350
10D
  3
A1
350
1BE
  3
A2
350
1BF
  3
A3
350
1C0
  3
A4
350
1C1
  3
A5
350
1C2
  3
A6
350
1C3
  3
A7
350
1C4
  3
A8
350
1C5
  3
A9
350
1C6
  3
B0
350
1C7
  3
B1
350
1C8
  3
B2
350
1C9
  3
B3
350
1CA
  3
B4
350
1CB
  3
B5
350
1CC
  3
B6
350
1CD
  0
DICTIONARY
  5
219
102
{ACAD_REACTORS
330
C
102
}
330
C
100
AcDbDictionary
281
     1
  3
Metric50
350
21A
  0
DICTIONARY
  5
7E
102
{ACAD_REACTORS
330
C
102
}
330
C
100
AcDbDictionary
281
     1
  3
Standard
350
7F
  0
DICTIONARY
  5
EF
102
{ACAD_REACTORS
330
C
102
}
330
C
100
AcDbDictionary
281
     1
  3
2dWireframe
350
F5
  3
Basic
350
F4
  3
Brighten
350
FB
  3
ColorChange
350
FF
  3
Conceptual
350
F8
  3
Dim
350
FA
  3
EdgeColorOff
350
1E6
  3
Facepattern
350
FE
  3
Flat
350
F0
  3
FlatWithEdges
350
F1
  3
Gouraud
350
F2
  3
GouraudWithEdges
350
F3
  3
Hidden
350
F7
  3
JitterOff
350
1E4
  3
Linepattern
350
FD
  3
OverhangOff
350
1E5
  3
Realistic
350
F9
  3
Shaded
350
1F3
  3
Shaded with edges
350
1F2
  3
Shades of Gray
350
1EF
  3
Sketchy
350
1F0
  3
Thicken
350
FC
  3
Wireframe
350
F6
  3
X-Ray
350
1F1
  0
XRECORD
  5
A24
102
{ACAD_REACTORS
330
C
102
}
330
C
100
AcDbXrecord
280
     1
 90
        1
330
7F
  0
DICTIONARY
  5
5E
102
{ACAD_REACTORS
330
C
102
}
330
C
100
AcDbDictionary
281
     1
  3
CANNOSCALE
350
146
  3
CENTEREXE
350
259
  3
CENTERLTYPEFILE
350
25A
  3
CMLEADERSTYLE
350
145
  3
CTABLESTYLE
350
84
  3
CVIEWDETAILSTYLE
350
227
  3
CVIEWSECTIONSTYLE
350
228
  3
DIMASSOC
350
5F
  3
HIDETEXT
350
63
  3
INDEXCTL
350
9CF
  3
LAYEREVAL
350
1AE
  3
LAYERNOTIFY
350
1AF
  3
LIGHTINGUNITS
350
9CD
  3
MSLTSCALE
350
9CC
  3
PSOLHEIGHT
350
A21
  3
PSOLWIDTH
350
A20
  3
SORTENTS
350
9CE
  3
XCLIPFRAME
350
A22
  0
XRECORD
  5
A25
102
{ACAD_REACTORS
330
C
102
}
330
C
100
AcDbXrecord
280
     1
  1
DWGPROPS COOKIE
  2

  3

  4

  6

  7

  8
tronnguyen
  9

300
=
301
=
302
=
303
=
304
=
305
=
306
=
307
=
308
=
309
=
 40
0.0489236111111111
 41
2460693.556458334
 42
2460693.606921296
  1

 90
        0
  0
DICTIONARY
  5
200
102
{ACAD_REACTORS
330
1FF
102
}
330
1FF
100
AcDbDictionary
281
     1
  0
XRECORD
  5
97A
102
{ACAD_REACTORS
330
1CE
102
}
330
1CE
100
AcDbXrecord
280
     1
340
1F
  0
XRECORD
  5
983
102
{ACAD_REACTORS
330
925
102
}
330
925
100
AcDbXrecord
280
     1
340
D2
  0
XRECORD
  5
986
102
{ACAD_REACTORS
330
927
102
}
330
927
100
AcDbXrecord
280
     1
340
D6
  0
ACDBDETAILVIEWSTYLE
  5
21C
102
{ACAD_XDICTIONARY
360
A64
102
}
102
{ACAD_REACTORS
330
21B
102
}
330
21B
100
AcDbModelDocViewStyle
 70
     0
  3
Metric50
290
     0
100
AcDbDetailViewStyle
 70
     0
 71
     0
 90
        3
 71
     1
340
11
 40
5.0
340
0
 40
5.0
300

 40
0.0
280
     1
 71
     2
340
16
 90
       25
 71
     3
340
11
 40
5.0
 90
        0
 40
15.0
 90
        1
300
%<\AcVar ViewDetailId>% (%<\AcVar ViewScale \f "%sn">%)
 71
     4
340
16
 90
       25
340
16
 90
       25
280
     0
  0
LAYOUT
  5
D3
102
{ACAD_XDICTIONARY
360
A29
102
}
102
{ACAD_REACTORS
330
1A
102
}
330
1A
100
AcDbPlotSettings
  1

  2
C:\Documents and Settings\basas\Application Data\Autodesk\AutoCAD 2005\R16.1\enu\plotters\Default Windows System Printer.pc3
  4

  6

 40
0.0
 41
0.0
 42
0.0
 43
0.0
 44
0.0
 45
0.0
 46
0.0
 47
0.0
 48
0.0
 49
0.0
140
0.0
141
0.0
142
1.0
143
1.0
 70
   688
 72
     0
 73
     0
 74
     5
  7

 75
    16
147
1.0
148
0.0
149
0.0
100
AcDbLayout
  1
Layout1
 70
     1
 71
     1
 10
0.0
 20
0.0
 11
12.0
 21
9.0
 12
0.0
 22
0.0
 32
0.0
 14
0.0
 24
0.0
 34
0.0
 15
0.0
 25
0.0
 35
0.0
146
0.0
 13
0.0
 23
0.0
 33
0.0
 16
1.0
 26
0.0
 36
0.0
 17
0.0
 27
1.0
 37
0.0
 76
     0
330
D2
  0
LAYOUT
  5
D7
102
{ACAD_XDICTIONARY
360
A2B
102
}
102
{ACAD_REACTORS
330
1A
102
}
330
1A
100
AcDbPlotSettings
  1

  2
C:\Documents and Settings\basas\Application Data\Autodesk\AutoCAD 2005\R16.1\enu\plotters\Default Windows System Printer.pc3
  4

  6

 40
0.0
 41
0.0
 42
0.0
 43
0.0
 44
0.0
 45
0.0
 46
0.0
 47
0.0
 48
0.0
 49
0.0
140
0.0
141
0.0
142
1.0
143
1.0
 70
   688
 72
     0
 73
     0
 74
     5
  7

 75
    16
147
1.0
148
0.0
149
0.0
100
AcDbLayout
  1
Layout2
 70
     1
 71
     2
 10
0.0
 20
0.0
 11
12.0
 21
9.0
 12
0.0
 22
0.0
 32
0.0
 14
0.0
 24
0.0
 34
0.0
 15
0.0
 25
0.0
 35
0.0
146
0.0
 13
0.0
 23
0.0
 33
0.0
 16
1.0
 26
0.0
 36
0.0
 17
0.0
 27
1.0
 37
0.0
 76
     0
330
D6
  0
LAYOUT
  5
22
102
{ACAD_XDICTIONARY
360
A26
102
}
102
{ACAD_REACTORS
330
1A
102
}
330
1A
100
AcDbPlotSettings
  1

  2
none_device
  4
ISO_A4_(210.00_x_297.00_MM)
  6

 40
7.5
 41
20.0
 42
7.5
 43
20.0
 44
210.0
 45
297.0
 46
11.54999923706054
 47
-13.65000009536743
 48
0.0
 49
0.0
140
0.0
141
0.0
142
1.0
143
8.704084754739808
 70
 11952
 72
     1
 73
     0
 74
     0
  7

 75
     0
147
0.1148885871608098
148
0.0
149
0.0
100
AcDbLayout
  1
Model
 70
     1
 71
     0
 10
0.0
 20
0.0
 11
12.0
 21
9.0
 12
0.0
 22
0.0
 32
0.0
 14
0.0
 24
0.0
 34
0.0
 15
0.0
 25
0.0
 35
0.0
146
0.0
 13
0.0
 23
0.0
 33
0.0
 16
1.0
 26
0.0
 36
0.0
 17
0.0
 27
1.0
 37
0.0
 76
     0
330
1F
331
EA
1001
ACAD_PSEXT
1000
None
1000
None
1000
Not applicable
1000
The layout will not be plotted unless a new plotter configuration name is selected.
1070
     0
  0
MATERIAL
  5
ED
102
{ACAD_XDICTIONARY
360
1F9
102
}
102
{ACAD_REACTORS
330
6A
102
}
330
6A
100
AcDbMaterial
  1
ByBlock
  0
MATERIAL
  5
EC
102
{ACAD_XDICTIONARY
360
1F7
102
}
102
{ACAD_REACTORS
330
6A
102
}
330
6A
100
AcDbMaterial
  1
ByLayer
  0
MATERIAL
  5
EE
102
{ACAD_XDICTIONARY
360
173
102
}
102
{ACAD_REACTORS
330
6A
102
}
330
6A
100
AcDbMaterial
  1
Global
 43
0.0007999999797903
 43
0.0
 43
0.0
 43
0.0
 43
0.0
 43
0.0007999999797903
 43
0.0
 43
0.0
 43
0.0
 43
0.0
 43
1.0
 43
0.0
 43
0.0
 43
0.0
 43
0.0
 43
1.0
 49
0.0007999999797903
 49
0.0
 49
0.0
 49
0.0
 49
0.0
 49
0.0007999999797903
 49
0.0
 49
0.0
 49
0.0
 49
0.0
 49
1.0
 49
0.0
 49
0.0
 49
0.0
 49
0.0
 49
1.0
142
0.0007999999797903
142
0.0
142
0.0
142
0.0
142
0.0
142
0.0007999999797903
142
0.0
142
0.0
142
0.0
142
0.0
142
1.0
142
0.0
142
0.0
142
0.0
142
0.0
142
1.0
144
0.0007999999797903
144
0.0
144
0.0
144
0.0
144
0.0
144
0.0007999999797903
144
0.0
144
0.0
144
0.0
144
0.0
144
1.0
144
0.0
144
0.0
144
0.0
144
0.0
144
1.0
1001
ACAD
1070
    -1
1070
     3
1070
     0
1000

1071
        0
1070
     0
  0
MLEADERSTYLE
  5
12E
102
{ACAD_XDICTIONARY
360
A50
102
}
102
{ACAD_REACTORS
330
12D
102
}
330
12D
100
AcDbMLeaderStyle
170
     2
171
     1
172
     0
 90
        2
 40
0.0
 41
0.0
173
     1
 91
-1056964608
340
14
 92
       -2
290
     1
 42
2.0
291
     1
 43
8.0
  3
Standard
 44
4.0
300

342
11
174
     1
178
     1
175
     1
176
     0
 93
-1056964608
 45
4.0
292
     0
297
     0
 46
4.0
 94
-1056964608
 47
1.0
 49
1.0
140
1.0
293
     1
141
0.0
294
     1
177
     0
142
1.0
295
     0
296
     0
143
3.75
1001
ACAD_MLEADERVER
1070
     2
  0
MLINESTYLE
  5
18
102
{ACAD_REACTORS
330
17
102
}
330
17
100
AcDbMlineStyle
  2
STANDARD
 70
     0
  3

 62
   256
 51
90.0
 52
90.0
 71
     2
 49
0.5
 62
   256
  6
BYLAYER
 49
-0.5
 62
   256
  6
BYLAYER
  0
ACDBPLACEHOLDER
  5
F
102
{ACAD_REACTORS
330
E
102
}
330
E
  0
SCALE
  5
10D
102
{ACAD_REACTORS
330
10C
102
}
330
10C
100
AcDbScale
 70
     0
300
1:1
140
1.0
141
1.0
290
     1
  0
SCALE
  5
1BE
102
{ACAD_REACTORS
330
10C
102
}
330
10C
100
AcDbScale
 70
     0
300
1:2
140
1.0
141
2.0
290
     0
  0
SCALE
  5
1BF
102
{ACAD_REACTORS
330
10C
102
}
330
10C
100
AcDbScale
 70
     0
300
1:4
140
1.0
141
4.0
290
     0
  0
SCALE
  5
1C0
102
{ACAD_REACTORS
330
10C
102
}
330
10C
100
AcDbScale
 70
     0
300
1:5
140
1.0
141
5.0
290
     0
  0
SCALE
  5
1C1
102
{ACAD_REACTORS
330
10C
102
}
330
10C
100
AcDbScale
 70
     0
300
1:8
140
1.0
141
8.0
290
     0
  0
SCALE
  5
1C2
102
{ACAD_REACTORS
330
10C
102
}
330
10C
100
AcDbScale
 70
     0
300
1:10
140
1.0
141
10.0
290
     0
  0
SCALE
  5
1C3
102
{ACAD_REACTORS
330
10C
102
}
330
10C
100
AcDbScale
 70
     0
300
1:16
140
1.0
141
16.0
290
     0
  0
SCALE
  5
1C4
102
{ACAD_REACTORS
330
10C
102
}
330
10C
100
AcDbScale
 70
     0
300
1:20
140
1.0
141
20.0
290
     0
  0
SCALE
  5
1C5
102
{ACAD_REACTORS
330
10C
102
}
330
10C
100
AcDbScale
 70
     0
300
1:30
140
1.0
141
30.0
290
     0
  0
SCALE
  5
1C6
102
{ACAD_REACTORS
330
10C
102
}
330
10C
100
AcDbScale
 70
     0
300
1:40
140
1.0
141
40.0
290
     0
  0
SCALE
  5
1C7
102
{ACAD_REACTORS
330
10C
102
}
330
10C
100
AcDbScale
 70
     0
300
1:50
140
1.0
141
50.0
290
     0
  0
SCALE
  5
1C8
102
{ACAD_REACTORS
330
10C
102
}
330
10C
100
AcDbScale
 70
     0
300
1:100
140
1.0
141
100.0
290
     0
  0
SCALE
  5
1C9
102
{ACAD_REACTORS
330
10C
102
}
330
10C
100
AcDbScale
 70
     0
300
2:1
140
2.0
141
1.0
290
     0
  0
SCALE
  5
1CA
102
{ACAD_REACTORS
330
10C
102
}
330
10C
100
AcDbScale
 70
     0
300
4:1
140
4.0
141
1.0
290
     0
  0
SCALE
  5
1CB
102
{ACAD_REACTORS
330
10C
102
}
330
10C
100
AcDbScale
 70
     0
300
8:1
140
8.0
141
1.0
290
     0
  0
SCALE
  5
1CC
102
{ACAD_REACTORS
330
10C
102
}
330
10C
100
AcDbScale
 70
     0
300
10:1
140
10.0
141
1.0
290
     0
  0
SCALE
  5
1CD
102
{ACAD_REACTORS
330
10C
102
}
330
10C
100
AcDbScale
 70
     0
300
100:1
140
100.0
141
1.0
290
     0
  0
ACDBSECTIONVIEWSTYLE
  5
21A
102
{ACAD_XDICTIONARY
360
A62
102
}
102
{ACAD_REACTORS
330
219
102
}
330
219
100
AcDbModelDocViewStyle
 70
     0
  3
Metric50
290
     0
100
AcDbSectionViewStyle
 70
     0
 71
     0
 90
      102
 71
     1
340
11
 40
5.0
340
0
340
0
 40
5.0
300
I, O, Q, S, X, Z
 40
10.0
 90
        0
 40
2.5
 90
        0
 71
     2
340
16
 90
       25
340
16
 90
       50
 40
5.0
 40
2.5
 40
5.0
 71
     3
340
11
 40
5.0
 90
        0
 40
15.0
 90
        1
300
%<\AcVar ViewSectionStartId>%-%<\AcVar ViewSectionEndId>% (%<\AcVar ViewScale \f "%sn">%)
 71
     4
300
ANSI31
 40
1.0
 90
        0
290
     0
290
     0
 90
        6
 40
0.0
 40
1.570796326794896
 40
0.2617993877991494
 40
1.308996938995747
 40
-0.2617993877991494
 40
1.832595714594046
  0
TABLESTYLE
  5
7F
102
{ACAD_XDICTIONARY
360
162
102
}
102
{ACAD_REACTORS
330
7E
102
}
330
7E
100
AcDbTableStyle
  3
Standard
 70
     0
 71
     0
 40
1.5
 41
1.5
280
     0
281
     0
  7
Standard
140
4.5
170
     2
 62
     0
 63
     7
283
     0
274
    -2
284
     1
 64
     0
275
    -2
285
     1
 65
     0
276
    -2
286
     1
 66
     0
277
    -2
287
     1
 67
     0
278
    -2
288
     1
 68
     0
279
    -2
289
     1
 69
     0
  7
Standard
140
6.0
170
     5
 62
     0
 63
     7
283
     0
274
    -2
284
     1
 64
     0
275
    -2
285
     1
 65
     0
276
    -2
286
     1
 66
     0
277
    -2
287
     1
 67
     0
278
    -2
288
     1
 68
     0
279
    -2
289
     1
 69
     0
  7
Standard
140
4.5
170
     5
 62
     0
 63
     7
283
     0
274
    -2
284
     1
 64
     0
275
    -2
285
     1
 65
     0
276
    -2
286
     1
 66
     0
277
    -2
287
     1
 67
     0
278
    -2
288
     1
 68
     0
279
    -2
289
     1
 69
     0
  0
VISUALSTYLE
  5
F5
102
{ACAD_XDICTIONARY
360
A3A
102
}
102
{ACAD_REACTORS
330
EF
102
}
330
EF
100
AcDbVisualStyle
  2
2dWireframe
 70
     4
 71
     0
 72
     2
 73
     1
 90
        0
 40
-0.6
 41
-30.0
 62
     5
 63
     7
 74
     1
 91
        4
 64
     7
 65
   257
 75
     1
175
     1
 42
1.0
 92
        0
 66
   257
 43
1.0
 76
     1
 77
     6
 78
     2
 67
     7
 79
     5
170
     0
171
     0
290
     0
174
     0
 93
        1
 44
0.0
173
     0
291
     0
 45
0.0
1001
ACAD
1000
AcDbSavedByObjectVersion
1070
     0
  0
VISUALSTYLE
  5
F4
102
{ACAD_XDICTIONARY
360
A38
102
}
102
{ACAD_REACTORS
330
EF
102
}
330
EF
100
AcDbVisualStyle
  2
Basic
 70
     7
 71
     1
 72
     0
 73
     1
 90
        0
 40
-0.6
 41
-30.0
 62
     5
 63
     7
 74
     0
 91
        4
 64
     7
 65
   257
 75
     1
175
     1
 42
1.0
 92
        8
 66
     7
 43
1.0
 76
     1
 77
     6
 78
     2
 67
     7
 79
     5
170
     0
171
     0
290
     0
174
     0
 93
        1
 44
0.0
173
     0
291
     1
 45
0.0
1001
ACAD
1000
AcDbSavedByObjectVersion
1070
     0
  0
VISUALSTYLE
  5
FB
102
{ACAD_XDICTIONARY
360
A46
102
}
102
{ACAD_REACTORS
330
EF
102
}
330
EF
100
AcDbVisualStyle
  2
Brighten
 70
    12
 71
     2
 72
     2
 73
     1
 90
        0
 40
-0.6
 41
-30.0
 62
     5
 63
     7
 74
     1
 91
        4
 64
     7
 65
   257
 75
     1
175
     1
 42
1.0
 92
        8
 66
     7
 43
1.0
 76
     1
 77
     6
 78
     2
 67
     7
 79
     5
170
     0
171
     0
290
     0
174
     0
 93
        1
 44
50.0
173
     0
291
     1
 45
0.0
1001
ACAD
1000
AcDbSavedByObjectVersion
1070
     0
  0
VISUALSTYLE
  5
FF
102
{ACAD_XDICTIONARY
360
A4E
102
}
102
{ACAD_REACTORS
330
EF
102
}
330
EF
100
AcDbVisualStyle
  2
ColorChange
 70
    16
 71
     2
 72
     2
 73
     3
 90
        0
 40
-0.6
 41
-30.0
 62
     5
 63
     8
 74
     1
 91
        4
 64
     7
 65
   257
 75
     1
175
     1
 42
1.0
 92
        8
 66
     8
 43
1.0
 76
     1
 77
     6
 78
     2
 67
     7
 79
     5
170
     0
171
     0
290
     0
174
     0
 93
        1
 44
0.0
173
     0
291
     1
 45
0.0
1001
ACAD
1000
AcDbSavedByObjectVersion
1070
     0
  0
VISUALSTYLE
  5
F8
102
{ACAD_XDICTIONARY
360
A40
102
}
102
{ACAD_REACTORS
330
EF
102
}
330
EF
100
AcDbVisualStyle
  2
Conceptual
 70
     9
 71
     3
 72
     2
 73
     1
 90
        0
 40
-0.6
 41
-30.0
 62
     5
 63
     7
 74
     2
 91
        2
 64
     7
 65
   257
 75
     1
175
     1
 42
40.0
 92
        8
 66
     7
 43
1.0
 76
     1
 77
     6
 78
     2
 67
     7
 79
     3
170
     0
171
     0
290
     0
174
     0
 93
        1
 44
0.0
173
     0
291
     0
 45
0.0
1001
ACAD
1000
AcDbSavedByObjectVersion
1070
     0
  0
VISUALSTYLE
  5
FA
102
{ACAD_XDICTIONARY
360
A44
102
}
102
{ACAD_REACTORS
330
EF
102
}
330
EF
100
AcDbVisualStyle
  2
Dim
 70
    11
 71
     2
 72
     2
 73
     1
 90
        0
 40
-0.6
 41
-30.0
 62
     5
 63
     7
 74
     1
 91
        4
 64
     7
 65
   257
 75
     1
175
     1
 42
1.0
 92
        8
 66
     7
 43
1.0
 76
     1
 77
     6
 78
     2
 67
     7
 79
     5
170
     0
171
     0
290
     0
174
     0
 93
        1
 44
-50.0
173
     0
291
     1
 45
0.0
1001
ACAD
1000
AcDbSavedByObjectVersion
1070
     0
  0
VISUALSTYLE
  5
1E6
102
{ACAD_XDICTIONARY
360
A56
102
}
102
{ACAD_REACTORS
330
EF
102
}
330
EF
100
AcDbVisualStyle
  2
EdgeColorOff
 70
    22
 71
     2
 72
     2
 73
     0
 90
        0
 40
-0.6
 41
-30.0
 62
     5
 63
     7
 74
     1
 91
        4
 64
     7
 65
   257
 75
     1
175
     1
 42
1.0
 92
        8
 66
     7
 43
1.0
 76
     1
 77
     6
 78
     2
 67
     7
 79
     5
170
     0
171
     0
290
     0
174
     0
 93
        1
 44
0.0
173
     0
291
     1
 45
0.0
1001
ACAD
1000
AcDbSavedByObjectVersion
1070
     0
  0
VISUALSTYLE
  5
FE
102
{ACAD_XDICTIONARY
360
A4C
102
}
102
{ACAD_REACTORS
330
EF
102
}
330
EF
100
AcDbVisualStyle
  2
Facepattern
 70
    15
 71
     2
 72
     2
 73
     1
 90
        0
 40
-0.6
 41
-30.0
 62
     5
 63
     7
 74
     1
 91
        4
 64
     7
 65
   257
 75
     1
175
     1
 42
1.0
 92
        8
 66
     7
 43
1.0
 76
     1
 77
     6
 78
     2
 67
     7
 79
     5
170
     0
171
     0
290
     0
174
     0
 93
        1
 44
0.0
173
     0
291
     1
 45
0.0
1001
ACAD
1000
AcDbSavedByObjectVersion
1070
     0
  0
VISUALSTYLE
  5
F0
102
{ACAD_XDICTIONARY
360
A30
102
}
102
{ACAD_REACTORS
330
EF
102
}
330
EF
100
AcDbVisualStyle
  2
Flat
 70
     0
 71
     2
 72
     1
 73
     1
 90
        2
 40
-0.6
 41
30.0
 62
     5
 63
     7
 74
     0
 91
        0
 64
     7
 65
   257
 75
     1
175
     1
 42
1.0
 92
        8
 66
     7
 43
1.0
 76
     1
 77
     6
 78
     2
 67
     7
 79
     5
170
     0
171
     0
290
     0
174
     0
 93
       13
 44
0.0
173
     0
291
     1
 45
0.0
1001
ACAD
1000
AcDbSavedByObjectVersion
1070
     0
  0
VISUALSTYLE
  5
F1
102
{ACAD_XDICTIONARY
360
A32
102
}
102
{ACAD_REACTORS
330
EF
102
}
330
EF
100
AcDbVisualStyle
  2
FlatWithEdges
 70
     1
 71
     2
 72
     1
 73
     1
 90
        2
 40
-0.6
 41
30.0
 62
     5
 63
     7
 74
     1
 91
        0
 64
     7
 65
   257
 75
     1
175
     1
 42
1.0
 92
        0
 66
   257
 43
1.0
 76
     1
 77
     6
 78
     2
 67
     7
 79
     5
170
     0
171
     0
290
     0
174
     0
 93
       13
 44
0.0
173
     0
291
     1
 45
0.0
1001
ACAD
1000
AcDbSavedByObjectVersion
1070
     0
  0
VISUALSTYLE
  5
F2
102
{ACAD_XDICTIONARY
360
A34
102
}
102
{ACAD_REACTORS
330
EF
102
}
330
EF
100
AcDbVisualStyle
  2
Gouraud
 70
     2
 71
     2
 72
     2
 73
     1
 90
        2
 40
-0.6
 41
30.0
 62
     5
 63
     7
 74
     0
 91
        0
 64
     7
 65
   257
 75
     1
175
     1
 42
1.0
 92
        0
 66
     7
 43
1.0
 76
     1
 77
     6
 78
     2
 67
     7
 79
     5
170
     0
171
     0
290
     0
174
     0
 93
       13
 44
0.0
173
     0
291
     1
 45
0.0
1001
ACAD
1000
AcDbSavedByObjectVersion
1070
     0
  0
VISUALSTYLE
  5
F3
102
{ACAD_XDICTIONARY
360
A36
102
}
102
{ACAD_REACTORS
330
EF
102
}
330
EF
100
AcDbVisualStyle
  2
GouraudWithEdges
 70
     3
 71
     2
 72
     2
 73
     1
 90
        2
 40
-0.6
 41
30.0
 62
     5
 63
     7
 74
     1
 91
        0
 64
     7
 65
   257
 75
     1
175
     1
 42
1.0
 92
        0
 66
   257
 43
1.0
 76
     1
 77
     6
 78
     2
 67
     7
 79
     5
170
     0
171
     0
290
     0
174
     0
 93
       13
 44
0.0
173
     0
291
     1
 45
0.0
1001
ACAD
1000
AcDbSavedByObjectVersion
1070
     0
  0
VISUALSTYLE
  5
F7
102
{ACAD_XDICTIONARY
360
A3E
102
}
102
{ACAD_REACTORS
330
EF
102
}
330
EF
100
AcDbVisualStyle
  2
Hidden
 70
     6
 71
     1
 72
     2
 73
     2
 90
        0
 40
-0.6
 41
-30.0
 62
     5
 63
     7
 74
     2
 91
        2
 64
     7
 65
   257
 75
     2
175
     1
 42
40.0
 92
        0
 66
   257
 43
1.0
 76
     1
 77
     6
 78
     2
 67
     7
 79
     3
170
     0
171
     0
290
     0
174
     0
 93
        1
 44
0.0
173
     0
291
     0
 45
0.0
1001
ACAD
1000
AcDbSavedByObjectVersion
1070
     0
  0
VISUALSTYLE
  5
1E4
102
{ACAD_XDICTIONARY
360
A52
102
}
102
{ACAD_REACTORS
330
EF
102
}
330
EF
100
AcDbVisualStyle
  2
JitterOff
 70
    20
 71
     2
 72
     2
 73
     0
 90
        0
 40
-0.6
 41
-30.0
 62
     5
 63
     7
 74
     1
 91
        4
 64
     7
 65
   257
 75
     1
175
     1
 42
1.0
 92
       10
 66
     7
 43
1.0
 76
     1
 77
     6
 78
     2
 67
     7
 79
     5
170
     0
171
     0
290
     0
174
     0
 93
        1
 44
0.0
173
     0
291
     1
 45
0.0
1001
ACAD
1000
AcDbSavedByObjectVersion
1070
     0
  0
VISUALSTYLE
  5
FD
102
{ACAD_XDICTIONARY
360
A4A
102
}
102
{ACAD_REACTORS
330
EF
102
}
330
EF
100
AcDbVisualStyle
  2
Linepattern
 70
    14
 71
     2
 72
     2
 73
     1
 90
        0
 40
-0.6
 41
-30.0
 62
     5
 63
     7
 74
     1
 91
        4
 64
     7
 65
   257
 75
     7
175
     7
 42
1.0
 92
        8
 66
     7
 43
1.0
 76
     1
 77
     6
 78
     2
 67
     7
 79
     5
170
     0
171
     0
290
     0
174
     0
 93
        1
 44
0.0
173
     0
291
     1
 45
0.0
1001
ACAD
1000
AcDbSavedByObjectVersion
1070
     0
  0
VISUALSTYLE
  5
1E5
102
{ACAD_XDICTIONARY
360
A54
102
}
102
{ACAD_REACTORS
330
EF
102
}
330
EF
100
AcDbVisualStyle
  2
OverhangOff
 70
    21
 71
     2
 72
     2
 73
     0
 90
        0
 40
-0.6
 41
-30.0
 62
     5
 63
     7
 74
     1
 91
        4
 64
     7
 65
   257
 75
     1
175
     1
 42
1.0
 92
        9
 66
     7
 43
1.0
 76
     1
 77
     6
 78
     2
 67
     7
 79
     5
170
     0
171
     0
290
     0
174
     0
 93
        1
 44
0.0
173
     0
291
     1
 45
0.0
1001
ACAD
1000
AcDbSavedByObjectVersion
1070
     0
  0
VISUALSTYLE
  5
F9
102
{ACAD_XDICTIONARY
360
A42
102
}
102
{ACAD_REACTORS
330
EF
102
}
330
EF
100
AcDbVisualStyle
  2
Realistic
 70
     8
 71
     2
 72
     2
 73
     0
 90
        2
 40
-0.6
 41
30.0
 62
     5
 63
     7
 74
     0
 91
        0
 64
     7
 65
   257
 75
     1
175
     1
 42
1.0
 92
        8
 66
   257
 43
1.0
 76
     1
 77
     6
 78
     2
 67
     7
 79
     3
170
     0
171
     0
290
     0
174
     0
 93
       13
 44
0.0
173
     0
291
     0
 45
0.0
1001
ACAD
1000
AcDbSavedByObjectVersion
1070
     0
  0
VISUALSTYLE
  5
1F3
102
{ACAD_XDICTIONARY
360
A60
102
}
102
{ACAD_REACTORS
330
EF
102
}
330
EF
100
AcDbVisualStyle
  2
Shaded
 70
    27
 71
     2
 72
     2
 73
     1
 90
        2
 40
-0.6
 41
30.0
 62
     5
 63
     7
 74
     0
 91
        4
 64
     7
 65
   257
 75
     1
175
     1
 42
1.0
 92
        8
 66
   257
 43
1.0
 76
     1
 77
     6
 78
     2
 67
     8
 79
     3
170
     0
171
     0
290
     0
174
     0
 93
        5
 44
0.0
173
     0
291
     0
 45
0.0
1001
ACAD
1000
AcDbSavedByObjectVersion
1070
     0
  0
VISUALSTYLE
  5
1F2
102
{ACAD_XDICTIONARY
360
A5E
102
}
102
{ACAD_REACTORS
330
EF
102
}
330
EF
100
AcDbVisualStyle
  2
Shaded with edges
 70
    26
 71
     2
 72
     2
 73
     1
 90
        2
 40
-0.6
 41
30.0
 62
     5
 63
     7
 74
     1
 91
        2
 64
     7
 65
   257
 75
     2
175
     1
 42
1.0
 92
        8
 66
   257
 43
1.0
 76
     1
 77
     6
 78
     2
 67
     7
 79
     3
170
     0
171
     0
290
     0
174
     0
 93
        5
 44
0.0
173
     0
291
     0
 45
0.0
1001
ACAD
1000
AcDbSavedByObjectVersion
1070
     0
  0
VISUALSTYLE
  5
1EF
102
{ACAD_XDICTIONARY
360
A58
102
}
102
{ACAD_REACTORS
330
EF
102
}
330
EF
100
AcDbVisualStyle
  2
Shades of Gray
 70
    23
 71
     2
 72
     2
 73
     3
 90
        0
 40
-0.6
 41
-30.0
 62
     5
 63
     7
 74
     2
 91
        2
 64
     7
 65
     7
 75
     1
175
     1
 42
40.0
 92
        8
 66
     7
 43
1.0
 76
     1
 77
     6
 78
     2
 67
     7
 79
     3
170
     0
171
     0
290
     0
174
     0
 93
        1
 44
0.0
173
     0
291
     0
 45
0.0
1001
ACAD
1000
AcDbSavedByObjectVersion
1070
     0
  0
VISUALSTYLE
  5
1F0
102
{ACAD_XDICTIONARY
360
A5A
102
}
102
{ACAD_REACTORS
330
EF
102
}
330
EF
100
AcDbVisualStyle
  2
Sketchy
 70
    24
 71
     1
 72
     2
 73
     2
 90
        0
 40
-0.6
 41
-30.0
 62
     5
 63
     7
 74
     2
 91
        2
 64
     7
 65
     7
 75
     1
175
     1
 42
40.0
 92
       11
 66
     7
 43
1.0
 76
     1
 77
     6
 78
     2
 67
     7
 79
     6
170
     0
171
     0
290
     0
174
     0
 93
        1
 44
0.0
173
     0
291
     0
 45
0.0
1001
ACAD
1000
AcDbSavedByObjectVersion
1070
     0
  0
VISUALSTYLE
  5
FC
102
{ACAD_XDICTIONARY
360
A48
102
}
102
{ACAD_REACTORS
330
EF
102
}
330
EF
100
AcDbVisualStyle
  2
Thicken
 70
    13
 71
     2
 72
     2
 73
     1
 90
        0
 40
-0.6
 41
-30.0
 62
     5
 63
     7
 74
     1
 91
        4
 64
     7
 65
   257
 75
     1
175
     1
 42
1.0
 92
       12
 66
     7
 43
1.0
 76
     1
 77
     6
 78
     2
 67
     7
 79
     5
170
     0
171
     0
290
     0
174
     0
 93
        1
 44
0.0
173
     0
291
     1
 45
0.0
1001
ACAD
1000
AcDbSavedByObjectVersion
1070
     0
  0
VISUALSTYLE
  5
F6
102
{ACAD_XDICTIONARY
360
A3C
102
}
102
{ACAD_REACTORS
330
EF
102
}
330
EF
100
AcDbVisualStyle
  2
Wireframe
 70
     5
 71
     0
 72
     2
 73
     0
 90
        0
 40
-0.6
 41
-30.0
 62
     5
 63
     7
 74
     1
 91
        4
 64
     7
 65
   257
 75
     1
175
     1
 42
1.0
 92
        0
 66
   257
 43
1.0
 76
     1
 77
     6
 78
     2
 67
     7
 79
     3
170
     0
171
     0
290
     0
174
     0
 93
        1
 44
0.0
173
     0
291
     0
 45
0.0
1001
ACAD
1000
AcDbSavedByObjectVersion
1070
     0
  0
VISUALSTYLE
  5
1F1
102
{ACAD_XDICTIONARY
360
A5C
102
}
102
{ACAD_REACTORS
330
EF
102
}
330
EF
100
AcDbVisualStyle
  2
X-Ray
 70
    25
 71
     2
 72
     2
 73
     1
 90
        1
 40
0.5
 41
-30.0
 62
     5
 63
     7
 74
     1
 91
        0
 64
     7
 65
   257
 75
     1
175
     1
 42
1.0
 92
        8
 66
     7
 43
1.0
 76
     1
 77
     6
 78
     2
 67
     7
 79
     3
170
     0
171
     0
290
     0
174
     0
 93
       13
 44
0.0
173
     0
291
     0
 45
0.0
1001
ACAD
1000
AcDbSavedByObjectVersion
1070
     0
  0
DICTIONARYVAR
  5
146
102
{ACAD_REACTORS
330
5E
102
}
330
5E
100
DictionaryVariables
280
     0
  1
1:1
  0
DICTIONARYVAR
  5
259
102
{ACAD_REACTORS
330
5E
102
}
330
5E
100
DictionaryVariables
280
     0
  1
3.500000
  0
DICTIONARYVAR
  5
25A
102
{ACAD_REACTORS
330
5E
102
}
330
5E
100
DictionaryVariables
280
     0
  1
acadiso.lin
  0
DICTIONARYVAR
  5
145
102
{ACAD_REACTORS
330
5E
102
}
330
5E
100
DictionaryVariables
280
     0
  1
STANDARD
  0
DICTIONARYVAR
  5
84
102
{ACAD_REACTORS
330
5E
102
}
330
5E
100
DictionaryVariables
280
     0
  1
STANDARD
  0
DICTIONARYVAR
  5
227
102
{ACAD_REACTORS
330
5E
102
}
330
5E
100
DictionaryVariables
280
     0
  1
Metric50
  0
DICTIONARYVAR
  5
228
102
{ACAD_REACTORS
330
5E
102
}
330
5E
100
DictionaryVariables
280
     0
  1
Metric50
  0
DICTIONARYVAR
  5
5F
102
{ACAD_REACTORS
330
5E
102
}
330
5E
100
DictionaryVariables
280
     0
  1
2
  0
DICTIONARYVAR
  5
63
102
{ACAD_REACTORS
330
5E
102
}
330
5E
100
DictionaryVariables
280
     0
  1
1
  0
DICTIONARYVAR
  5
9CF
102
{ACAD_REACTORS
330
5E
102
}
330
5E
100
DictionaryVariables
280
     0
  1
0
  0
DICTIONARYVAR
  5
1AE
102
{ACAD_REACTORS
330
5E
102
}
330
5E
100
DictionaryVariables
280
     0
  1
0
  0
DICTIONARYVAR
  5
1AF
102
{ACAD_REACTORS
330
5E
102
}
330
5E
100
DictionaryVariables
280
     0
  1
0
  0
DICTIONARYVAR
  5
9CD
102
{ACAD_REACTORS
330
5E
102
}
330
5E
100
DictionaryVariables
280
     0
  1
2
  0
DICTIONARYVAR
  5
9CC
102
{ACAD_REACTORS
330
5E
102
}
330
5E
100
DictionaryVariables
280
     0
  1
1
  0
DICTIONARYVAR
  5
A21
102
{ACAD_REACTORS
330
5E
102
}
330
5E
100
DictionaryVariables
280
     0
  1
80.000000
  0
DICTIONARYVAR
  5
A20
102
{ACAD_REACTORS
330
5E
102
}
330
5E
100
DictionaryVariables
280
     0
  1
5.000000
  0
DICTIONARYVAR
  5
9CE
102
{ACAD_REACTORS
330
5E
102
}
330
5E
100
DictionaryVariables
280
     0
  1
127
  0
DICTIONARYVAR
  5
A22
102
{ACAD_REACTORS
330
5E
102
}
330
5E
100
DictionaryVariables
280
     0
  1
2
  0
DICTIONARY
  5
A64
330
21C
100
AcDbDictionary
280
     1
281
     1
  3
ACAD_XREC_ROUNDTRIP
360
A65
  0
DICTIONARY
  5
A29
330
D3
100
AcDbDictionary
280
     1
281
     1
  3
ACAD_XREC_ROUNDTRIP
360
A2A
  0
DICTIONARY
  5
A2B
330
D7
100
AcDbDictionary
280
     1
281
     1
  3
ACAD_XREC_ROUNDTRIP
360
A2C
  0
DICTIONARY
  5
A26
330
22
100
AcDbDictionary
280
     1
281
     1
  3
ACAD_XREC_ROUNDTRIP
360
A27
  0
DICTIONARY
  5
1F9
330
ED
100
AcDbDictionary
280
     1
281
     1
  3
ACAD_XREC_ROUNDTRIP
360
A2E
  3
FBXASSET
360
1FA
  0
DICTIONARY
  5
1F7
330
EC
100
AcDbDictionary
280
     1
281
     1
  3
ACAD_XREC_ROUNDTRIP
360
A2D
  3
FBXASSET
360
1F8
  0
DICTIONARY
  5
173
330
EE
100
AcDbDictionary
280
     1
281
     1
  3
ACAD_XREC_ROUNDTRIP
360
A2F
  3
BUMPTILE
360
175
  3
DIFFUSETILE
360
174
  3
FBXASSET
360
1FB
  3
OPACITYTILE
360
176
  3
REFLECTIONTILE
360
177
  0
DICTIONARY
  5
A50
330
12E
100
AcDbDictionary
280
     1
281
     1
  3
ACAD_XREC_ROUNDTRIP
360
A51
  0
DICTIONARY
  5
A62
330
21A
100
AcDbDictionary
280
     1
281
     1
  3
ACAD_XREC_ROUNDTRIP
360
A63
  0
DICTIONARY
  5
162
330
7F
100
AcDbDictionary
280
     1
281
     1
  3
ACAD_ROUNDTRIP_2008_TABLESTYLE_CELLSTYLEMAP
360
A23
  3
ACAD_XREC_ROUNDTRIP
360
A28
  0
DICTIONARY
  5
A3A
330
F5
100
AcDbDictionary
280
     1
281
     1
  3
ACAD_XREC_ROUNDTRIP
360
A3B
  0
DICTIONARY
  5
A38
330
F4
100
AcDbDictionary
280
     1
281
     1
  3
ACAD_XREC_ROUNDTRIP
360
A39
  0
DICTIONARY
  5
A46
330
FB
100
AcDbDictionary
280
     1
281
     1
  3
ACAD_XREC_ROUNDTRIP
360
A47
  0
DICTIONARY
  5
A4E
330
FF
100
AcDbDictionary
280
     1
281
     1
  3
ACAD_XREC_ROUNDTRIP
360
A4F
  0
DICTIONARY
  5
A40
330
F8
100
AcDbDictionary
280
     1
281
     1
  3
ACAD_XREC_ROUNDTRIP
360
A41
  0
DICTIONARY
  5
A44
330
FA
100
AcDbDictionary
280
     1
281
     1
  3
ACAD_XREC_ROUNDTRIP
360
A45
  0
DICTIONARY
  5
A56
330
1E6
100
AcDbDictionary
280
     1
281
     1
  3
ACAD_XREC_ROUNDTRIP
360
A57
  0
DICTIONARY
  5
A4C
330
FE
100
AcDbDictionary
280
     1
281
     1
  3
ACAD_XREC_ROUNDTRIP
360
A4D
  0
DICTIONARY
  5
A30
330
F0
100
AcDbDictionary
280
     1
281
     1
  3
ACAD_XREC_ROUNDTRIP
360
A31
  0
DICTIONARY
  5
A32
330
F1
100
AcDbDictionary
280
     1
281
     1
  3
ACAD_XREC_ROUNDTRIP
360
A33
  0
DICTIONARY
  5
A34
330
F2
100
AcDbDictionary
280
     1
281
     1
  3
ACAD_XREC_ROUNDTRIP
360
A35
  0
DICTIONARY
  5
A36
330
F3
100
AcDbDictionary
280
     1
281
     1
  3
ACAD_XREC_ROUNDTRIP
360
A37
  0
DICTIONARY
  5
A3E
330
F7
100
AcDbDictionary
280
     1
281
     1
  3
ACAD_XREC_ROUNDTRIP
360
A3F
  0
DICTIONARY
  5
A52
330
1E4
100
AcDbDictionary
280
     1
281
     1
  3
ACAD_XREC_ROUNDTRIP
360
A53
  0
DICTIONARY
  5
A4A
330
FD
100
AcDbDictionary
280
     1
281
     1
  3
ACAD_XREC_ROUNDTRIP
360
A4B
  0
DICTIONARY
  5
A54
330
1E5
100
AcDbDictionary
280
     1
281
     1
  3
ACAD_XREC_ROUNDTRIP
360
A55
  0
DICTIONARY
  5
A42
330
F9
100
AcDbDictionary
280
     1
281
     1
  3
ACAD_XREC_ROUNDTRIP
360
A43
  0
DICTIONARY
  5
A60
330
1F3
100
AcDbDictionary
280
     1
281
     1
  3
ACAD_XREC_ROUNDTRIP
360
A61
  0
DICTIONARY
  5
A5E
330
1F2
100
AcDbDictionary
280
     1
281
     1
  3
ACAD_XREC_ROUNDTRIP
360
A5F
  0
DICTIONARY
  5
A58
330
1EF
100
AcDbDictionary
280
     1
281
     1
  3
ACAD_XREC_ROUNDTRIP
360
A59
  0
DICTIONARY
  5
A5A
330
1F0
100
AcDbDictionary
280
     1
281
     1
  3
ACAD_XREC_ROUNDTRIP
360
A5B
  0
DICTIONARY
  5
A48
330
FC
100
AcDbDictionary
280
     1
281
     1
  3
ACAD_XREC_ROUNDTRIP
360
A49
  0
DICTIONARY
  5
A3C
330
F6
100
AcDbDictionary
280
     1
281
     1
  3
ACAD_XREC_ROUNDTRIP
360
A3D
  0
DICTIONARY
  5
A5C
330
1F1
100
AcDbDictionary
280
     1
281
     1
  3
ACAD_XREC_ROUNDTRIP
360
A5D
  0
XRECORD
  5
A65
102
{ACAD_REACTORS
330
A64
102
}
330
A64
100
AcDbXrecord
280
     1
102
DISPLAYNAME
  1
Metric50
102
FLAGS
 90
        0
  0
XRECORD
  5
A2A
102
{ACAD_REACTORS
330
A29
102
}
330
A29
100
AcDbXrecord
280
     1
102
SHADEPLOT
 70
     0
102
SHADEPLOTRESLEVEL
 70
     2
102
SHADEPLOTCUSTOMDPI
 70
   300
  0
XRECORD
  5
A2C
102
{ACAD_REACTORS
330
A2B
102
}
330
A2B
100
AcDbXrecord
280
     1
102
SHADEPLOT
 70
     0
102
SHADEPLOTRESLEVEL
 70
     2
102
SHADEPLOTCUSTOMDPI
 70
   300
  0
XRECORD
  5
A27
102
{ACAD_REACTORS
330
A26
102
}
330
A26
100
AcDbXrecord
280
     1
102
SHADEPLOT
 70
     0
102
SHADEPLOTRESLEVEL
 70
     2
102
SHADEPLOTCUSTOMDPI
 70
   300
  0
XRECORD
  5
A2E
102
{ACAD_REACTORS
330
1F9
102
}
330
1F9
100
AcDbXrecord
280
     1
102
MATERIAL
148
0.0
149
0.0
149
0.0
 93
        0
 94
       63
282
     0
 72
     1
 77
     1
171
     1
175
     1
179
     1
273
     0
  0
XRECORD
  5
1FA
102
{ACAD_REACTORS
330
1F9
102
}
330
1F9
100
AcDbXrecord
280
     1
 70
     1
 90
429727718
  1
D62C5603-E3A1-4AEA-B7FB-FE5D8D0755AF
310
504B03040A0000080000CC70623B3DEE336E79000000790000001B0000006175746F6465736B2D64657369676E2D7061636B6167652E786D6C3C3F786D6C2076657273696F6E3D22312E302220656E636F64696E673D227574662D3822203F3E3C666F726D6174733E3C666F726D61743E687474703A2F2F736368656D612E
310
6175746F6465736B2E636F6D2F64657369676E2D7061636B6167652F323030393C2F666F726D61743E3C2F666F726D6174733E504B0304140006080800CC70623BD486FD9CA0000000F4000000130000005B436F6E74656E745F54797065735D2E786D6C7D8EC10E82300C865F65E91D8A1E8C310C0EEA1BF002731658846E
310
D98AC1B77784ABF1D8FE5FBFBF75BBCE937A534CCEB38643598122B6FEE978D0B0485F9C41B54DDD7D022595594E1A469170414C76A4D9A4D207E29CF43ECE46F218070CC6BECC4078ACAA135ACF422C856C0E68EA1BF5669944DDD7BCDE7B1F8E415D77AECB980613C2E4AC91FC167A2B244592486606FC29C8FD7F045B9A
310
EF7053A7E60B504B0304140006080800CC70623B853B8169EB0000007C01000008000000636F72652E786D6C8D90416EC3201045AF62CDB6C206821CC7C244919D9CA01740401C94182C03558F5F9C3852BBEB6A467FFE9B197D7EFC9E1EC5975982F5AE035262288C535E5B377690E21535501C055FBC8FBF6C503839990E
310
5619041F179FE64D52DE45E362569DD7661365082642A11EB9E920A89B99642953CC8E702F67A9EE7234257977194EC9EAE275C4EABCCF5EAD5940D4AC6F0E35A568B8F43562CD7046CD199FD07E60174276A7BE677B5EADB0E0D14EEFFB6A31321A0D82627C4084204C3F096B71DD52F6819B16635EADF63F509AF53FA164
310
5DDCD1EDDD17164090FCC8732078B56691CB33A85CD7DCC40F504B0304140006080800CC70623B55019EA25F0000007C00000007000000636E782E786D6C4DCB3B0E80201045D1AD90E915ED2CF8AC45050C11660C8261F98AB1B07AC9C97D42D718D865D3E909258CFD00CCE24AC6E326A164D74DC0B4128928FF32603847
310
2BA13128B1252AC747C6BAB984FC68F0B87FE8960A5C09FE86CFB69FBA01504B0304140006080800CC70623BDBABAAF470010000D40300000C0000006662782F636F72652E786D6CC553D16E823014FD95A6AF4B694182CC941A83FA05FB810A9511A125A5257EFE2E82712ECEB8A7F100CD39F7F69E734AF9FADC366850B6
310
AF8DCE7018308C942E4C59EB2AC3DE1D498AD15A706B8CFB56869196ADCAF00863C12B6B7C374385D14E6907A836A59A41D9F7CA615434B0C8705F7CAA5606D23BA8E84F41278B93AC54100640439DE0BDB320004D43C63716C7C399D30917DCFBBA9CD9BA8469F5B156168B24CED3F7248AC8769F27244EB73B92EED8862C
310
B7F13E0C179B3C8F979C8ECD82BBBABDAA2BAC924E9558448CBD9330242CFA08E3154B5651FCC6D215639C8EE5774DBE2B5F6CF2B5768B68963BB5F5588420E442FC700B1139D4CB01F450C1E918227C2E09DF070D8140C84E1E9AAB8F1340832A9CB13130A5F1376A908D57309505ECF2A0DF179C4E9D30F5B239B87E3823
310
7A79C6F31DE1A8A5AEC08474B03C7837EAE4938639B44E5932B833D2C6B6B279CDC613877FA26EE21F4A2A4C63EC7F29A2F301D1F9F7A0E37D145F504B0304140006080800CC70623B9C113CC27E0000009D0000000B0000006662782F636E782E786D6C4DCCDF0A83201C86E15B91DFB94BFB330DD428C8FB886521330DA7
310
6397BF1A1DECE883878F57749FCDA1B7892F1BBC047A23808C7F84D9FA55424E0BE6803A256208E9EF06C84F9B91703228B1C690F78B66B34CD9A5439DF5CF0BFBF65E35BCA1B8D6A5C6F540381E886698B5741C695F9503EBA150A2F8958E3DC3EA0B504B0304140006080800CC70623B7DF2F77C2A010000120200003100
310
00006662782F41393633353835312D344632462D344230382D423046372D3739314545314133324237412F636F72652E786D6C8D51DB8EC22014FC15C2939B0D2DB4B45643319AE817EC0F6041255A68B86CFCFC856D4D76DF7CE190393373060EDB3DC707F856CE6B6B7A480A0C81328395DA5C7B18C3057510EC3873D686
310
3F34088C18550F330C39BB3A1BA7051AAC09CA84841A2BD5020AEF55806078A44B0FFD7053A328440C89E1EFC52486BBB8AA8214A99D789CF9E05200300FC927E4FB4D5B375D43103D5527440FB843077C5AA3F5861C8F645F5787F59E95B390B318B55CE45AA638FAA2957BD7248B390B7A7CC51F9C124149C82B8C378810
310
84AB2F42B7B8DD56F413775B8C5999E9FF4471926F8AA236A1AE96B8B3CC434E5839373893369E1FAF30EA395917409EB7F26AF8801C171837A4A6AC9C89E9F9C9B1A58BA30FD6A5EF5DDDCF894B9AD9B6A59C957943A9FCAE2FD5BC4DFE03504B0304140006080800CC70623BAD7543B64E01000033030000300000006662
310
782F41393633353835312D344632462D344230382D423046372D3739314545314133324237412F636E782E786D6CD593CD6EC32010845F0571AD6CE3D48AD20813A9873E410FBD12D82434182C7EAAE6EDBB2424CD25871E7B41D6EC30B3FA84F9E67BB2E40B4234DE8DB46F1925E094D7C6ED479AD3AE5951B2113C789FEE
310
6C943839C1488B4C05DF079FE72A69D8C96C13AAD6B8631503449F83828872B949AC57D26200B826A308D316B4064D6E46FCDA41C05550DC9E483A00797BFD207EFB092A45DE9514C1BBD22178396BD39D891265658C238DEA00936C654E5E433CB65A26D9F6EDB5EBC14EBF49A45CB856E66048291F6939A9A81BB5C89177
310
38143CA680F4AA299D66A042CEB3354A2684DC9D8D178FE0D9B8B41CAAD720F880EE7EF93C0C18769E099ECC04D5A102C8049A8A05632F4DDF376CF1DE0F6BB65C2F8627B65A33C6BB62177CEBBDAD973006829F89F22E814B54F4BC2BE347F8AA8F681390B50FA73F804400B5F542E796F19FF974E7F78DB802FE05E20750
310
4B0304140006080800CC70623BE75B7789680500003C100000340000006662782F41393633353835312D344632462D344230382D423046372D3739314545314133324237412F6F626A656374732E786D6CAD575B8F9B3818FD2B887D06C22499CB8AA1CA655245D5B455A356FB305264C061D8018C6C3393D95FBFC7600890
310
A4CD5EF210B0B1BFEBF98E3F7B1FF6596ABC522E1296DF9BAE3D320D9A872C4AF2F8DE2CE5CEBA358D0FBEC719939D65A691938CDE9B6ADAF4BD98B3B2D05311DD91329583D9D5FC0F438434A7A611A644887B5384CF34233629258BA878B12322891DEFF6B66BD70BFB62634E8AE781D082709A4B588AF91C528CDA28B73F
310
1C998EEF39EABBEFA97FBD6A7C7E9553F9D3D79FE442923C3C523610337627CB87ABE99D359D4CC6D6E4FACAB5E6ABF9D2726FC6A3C5F56271377BB88362213924694B38DD99FE47C48627A1E7D49F5A8BB5E1A74C0A599ED3B0F21F1E56366B89112D681E218F0915D0D6F17AD41FBA2A369DCF6335D62ABBD39779D5DDD1
310
11D4D8DE3CBB96B2E04FB8202E41051754A1AA8E8F76B4C6DFE810B580B1547F4B84911149794252234D024EF8BBE963A95AE27B3D310A9D5C215C7960FAEE415ED75694C6AFB17BCACA5D99A60A9AA65F217B0BFC53292ACB92BF283FAD0D3621576592CB5BED907C2FA8E9DF794E35E97BEA31BED21FEB401ABB94C44839
310
DCACBF0E1C5DA8DA5B2F4DFFD32AD86F543D9E565E7056502E157C00AD2671CD534549AB752FCA9CDA00677A313F04E51B22FF19E57B300579E3C97EB29F682D92935CEC18CF901B7B54FD8C51F362B56FC72FE0B3C1EAE335EDCCBF5AEC39ADB17DC238973F804BA5E6F6BFE7AF1FB32E523BE9F3BD571418E3631DCA4D48
310
5250CF639223210A9446CA30052EDF057BD35F8329C1ECD84552BF0DC8D18BE7BCE23BFE6BD960AB4A7DE79923A103BEBD80F911CBAA2C60DB19B01CF164A5583B772EE6D3FFA56666CBCDA74DC97724A48F9A58967497E489C4D979006FD7A05E227A1EBDD0F737C623387A9C844D3709995625106D157315F8B8392CD4E0
310
A0B9A720C4BE9829CEF37EA1E13111214D53925356365ADA634861B52519DD27A00AEB808EAF0628E6F435519D446F45CF2C9CF5214F0A15B2F6D06B79DA3EE3CBF7F56780D2F4E7EF73A0F5E5B02A38D07DC852C6B7C1FBB6664213E0C39E3EBA7FF4E1AD23EA2829407C85E586727488B751B2DB9502BC7B228A3FD68B6E
310
A65A22397E690AA8D158D7E404EC8CDA235CC3B7D1898680131CEC2CDF2638C65196279577750F15884AEE19F94199155B92B13297978469D4F8D358DF0AEF7631E28DC8F0D9F437D5D39A83B2231A1D52D543813A824EF8D44BCFF2FA6A31BD1E8DAD87F1CCB526B3879935BF59CDADD5C37479BB1CDD4CA7B3556B516589
310
EF352754B706114D9C885EC9131DE6EFEB43D99AFE2391C2F958179413D7CFEF6B1B6DB1E7600F00DE6E5C67454A339A4BA2E0FBA85ED26F045D454F463DBFCE484C2F90F2E5E3666003662ED8F755951A7D1BECD5B30B550B2785C8E7320B7292A4838DDA71BBC863ED7613CAF659337A3354231D4FF4A182A54904C2898C
310
98B28C4AD0CE056CCF332A80986E571EE9DBC305BB5FEB7E509220A58D25CF042D712A806AC0AD0C657FDEF80D2D9CEAA2EE4D1C76F60BFE74219A06527D6F82DF6412526107381E55E353090704D085B52408A8913C4ED159D79BDA71BB4BC506F4831350EB6F975CD22D69BF7AC49B91A2C0A9DDA3D5CA36AD20FC478E37
310
E61844E2352865EBCB61A275A65283CAAA9DD27703B4102F5AF51EF5F573B75CBB5AD38BC845F7A49F82A0966A49C2E3EA5EA0ECD326CD965F1DB402C6FA8B51A4658C5C5E2EC9E214602E55810345408596591009A82E7E7FFACA19EEA299B14A0081A705CB3296EBC14CDF658DCD336EA6D1136881AAEB87B81AB9EE53D5
310
F5EB8BC8362082DA24122F98680A4E7930C01A0079749CEA14382A0783E5EBA5A10F8C098456A03D6A4AEB6BB881E2513747552A5DB22C7EDAF83BD5528081A365F7FF06504B0304140006080000CC70623B000000000000000000000000350000006662782F41393633353835312D344632462D344230382D423046372D37
310
39314545314133324237412F76657274696365732E62696E504B0304140006080800CC70623BF270F1330600000004000000360000006662782F41393633353835312D344632462D344230382D423046372D3739314545314133324237412F747269616E676C65732E62696E636660600000504B0304140006080000CC7062
310
3B000000000000000000000000370000006662782F41393633353835312D344632462D344230382D423046372D3739314545314133324237412F617474726962757465732E62696E504B0304140006080800CC70623B08DA0BD19000000041010000360000006662782F41393633353835312D344632462D344230382D4230
310
46372D3739314545314133324237412F6469726563746F72792E786D6C858F410AC3201045AF22B36F53E9A60B35CBEEBAE80D244E44489C6234F4F835464A48035D0DF398FF9F8AF63D0E6CC63039F212F8F9020C7D47C6792B21C5FE7403D62A1188E2E60C98D7234A5830286103A55745067B9D86B8A3CF9C7F90C11DE6
310
07FB144396D7B6A82D282E9A152AD114D5EF2CB866EEE831B8EEA07A7BB5A8D7D61A2BAAEB7FD5F70921FF497D00504B0304140006080800CC70623BEDD1DC58FD000000A00100003B0000006662782F41393633353835312D344632462D344230382D423046372D3739314545314133324237412F7265736F75726365732F
310
636F72652E786D6C8D504B6E833010BD0A9A6D65B00922041947112427E8052C33A156828DFCA97AFC9A40A576D7CDCCE87D344F8F9FBFE667F689CE6B6B3A6039850C8DB2A336530731DC4903D95970676DF82583CCC8193B5861107C72362E3BA4AC096842428D1D7107A5F7182053CF7474E0D507CE32973124857FE48B
310
540F3961CEF244279DE03EB81420DB9EAC1384436FA353E879B1B182C7A8C75DA3C7F453DF353A1075D537A7BA6464B8F535A99AE14A9A2BBD90E350DD183B5CFABE3AF262350B1EF4FC9351399401471025A527C218A1E53BAB5A5AB765F5469B96525EACF23FA6B88CFF34456DC2A1DCE36E360F82A5202F42F062ED2BAD
310
579969AFDD8A6F504B010214000A0000080000CC70623B3DEE336E79000000790000001B00000000000000000000000000000000006175746F6465736B2D64657369676E2D7061636B6167652E786D6C504B01021400140006080800CC70623BD486FD9CA0000000F40000001300000000000000000000000000B20000005B
310
436F6E74656E745F54797065735D2E786D6C504B01021400140006080800CC70623B853B8169EB0000007C010000080000000000000000000000000083010000636F72652E786D6C504B01021400140006080800CC70623B55019EA25F0000007C000000070000000000000000000000000094020000636E782E786D6C504B
310
01021400140006080800CC70623BDBABAAF470010000D40300000C00000000000000000000000000180300006662782F636F72652E786D6C504B01021400140006080800CC70623B9C113CC27E0000009D0000000B00000000000000000000000000B20400006662782F636E782E786D6C504B01021400140006080800CC70
310
623B7DF2F77C2A010000120200003100000000000000000000000000590500006662782F41393633353835312D344632462D344230382D423046372D3739314545314133324237412F636F72652E786D6C504B01021400140006080800CC70623BAD7543B64E010000330300003000000000000000000000000000D2060000
310
6662782F41393633353835312D344632462D344230382D423046372D3739314545314133324237412F636E782E786D6C504B01021400140006080800CC70623BE75B7789680500003C10000034000000000000000000000000006E0800006662782F41393633353835312D344632462D344230382D423046372D3739314545
310
314133324237412F6F626A656374732E786D6C504B01021400140006080000CC70623B0000000000000000000000003500000000000000000000000000280E00006662782F41393633353835312D344632462D344230382D423046372D3739314545314133324237412F76657274696365732E62696E504B01021400140006
310
080800CC70623BF270F133060000000400000036000000000000000000000000007B0E00006662782F41393633353835312D344632462D344230382D423046372D3739314545314133324237412F747269616E676C65732E62696E504B01021400140006080000CC70623B0000000000000000000000003700000000000000
310
000000000000D50E00006662782F41393633353835312D344632462D344230382D423046372D3739314545314133324237412F617474726962757465732E62696E504B01021400140006080800CC70623B08DA0BD1900000004101000036000000000000000000000000002A0F00006662782F41393633353835312D344632
310
462D344230382D423046372D3739314545314133324237412F6469726563746F72792E786D6C504B01021400140006080800CC70623BEDD1DC58FD000000A00100003B000000000000000000000000000E1000006662782F41393633353835312D344632462D344230382D423046372D3739314545314133324237412F7265
310
736F75726365732F636F72652E786D6C504B0506000000000E000E0080040000641100000000
  0
XRECORD
  5
A2D
102
{ACAD_REACTORS
330
1F7
102
}
330
1F7
100
AcDbXrecord
280
     1
102
MATERIAL
148
0.0
149
0.0
149
0.0
 93
        0
 94
       63
282
     0
 72
     1
 77
     1
171
     1
175
     1
179
     1
273
     0
  0
XRECORD
  5
1F8
102
{ACAD_REACTORS
330
1F7
102
}
330
1F7
100
AcDbXrecord
280
     1
 70
     1
 90
429727718
  1
30362254-06B7-45E0-A893-8CFA70E3D6BC
310
504B03040A0000080000CC70623B3DEE336E79000000790000001B0000006175746F6465736B2D64657369676E2D7061636B6167652E786D6C3C3F786D6C2076657273696F6E3D22312E302220656E636F64696E673D227574662D3822203F3E3C666F726D6174733E3C666F726D61743E687474703A2F2F736368656D612E
310
6175746F6465736B2E636F6D2F64657369676E2D7061636B6167652F323030393C2F666F726D61743E3C2F666F726D6174733E504B0304140006080800CC70623BD486FD9CA0000000F4000000130000005B436F6E74656E745F54797065735D2E786D6C7D8EC10E82300C865F65E91D8A1E8C310C0EEA1BF002731658846E
310
D98AC1B77784ABF1D8FE5FBFBF75BBCE937A534CCEB38643598122B6FEE978D0B0485F9C41B54DDD7D022595594E1A469170414C76A4D9A4D207E29CF43ECE46F218070CC6BECC4078ACAA135ACF422C856C0E68EA1BF5669944DDD7BCDE7B1F8E415D77AECB980613C2E4AC91FC167A2B244592486606FC29C8FD7F045B9A
310
EF7053A7E60B504B0304140006080800CC70623B1EC5D7A3EB0000007C01000008000000636F72652E786D6C8D90416EC3201045AF82665B6103C6756C6122AB4D4ED00B204C5C94182C03558F5F9C3852BBEB6A467FFE9B197D71FC9E6FE8CBACC17AD7032D0820E3B41FAD9B7A48F1820F808E52ACDEC75F36404ECDA687
310
4D0629A6D5A76597B477D1B89855E747B38B2A041301E95B6E7A08FAD3CCAA50296647B8168BD2573599823EBB0CA76447F43862C7BCCF5EAC59410E4DDD9C7973C2755553CCCFA4C603E3040F1565ED3B1FDE4E432BCA0D9622DAF9795FAF464533826484B498524CD807E51D79ED187F21878E10516EF63F505AC67F42C9
310
BA58B1FDDD071640D2FCC87D2045B96591CB3DA85CB7DCE40F504B0304140006080800CC70623B55019EA25F0000007C00000007000000636E782E786D6C4DCB3B0E80201045D1AD90E915ED2CF8AC45050C11660C8261F98AB1B07AC9C97D42D718D865D3E909258CFD00CCE24AC6E326A164D74DC0B4128928FF32603847
310
2BA13128B1252AC747C6BAB984FC68F0B87FE8960A5C09FE86CFB69FBA01504B0304140006080800CC70623B8C9102E971010000D40300000C0000006662782F636F72652E786D6CC5535B6E833010BC8AE5DF0A6C08340F1947A84D4ED00B38C6A128602363A31CBFCB234A53A551FA553EC09AD9F5CE8C31DB9E9B1AF5CA
310
7695D1198E428A91D2D214952E33ECDD315861B4E5CC1AE3BE9561A445A3323CC098B3D21ADFCE9034DA29ED00D5A6503328BA4E398C640D8B0C77F253352214DE4145770A5B214FA2546114020D759C75CE8200340D19DE981F0F6746269C33EFAB6266AB02A655C74A59CCF365BADC27CB5D902ED22848F6340DF238A141
310
BE88E2F57B92BFEDF23523433367AE6A2EEAA455C2A902F398D2751045018D3FA264435F3771F242571B4A1919CA6F9A7C5B3CD9E42BED16F12C776AEB308F40C848FC700B1139D4891EF410CEC810227CC6846F8386402064270EF5C5C709A05E49676C024C61FC95EA45ED154CA5211D1FF4FB8291A913A68E9B83EBBB33
310
E2A7673CDE118E5AE8124C0807CB8377834E366998436B950D7A7746DAD846D4CFD978E0F04FD455FC5D49D2D4C6FE9722321F10997F0F32DC47FE05504B0304140006080800CC70623BFFEA85907E0000009D0000000B0000006662782F636E782E786D6C4DCCD10A83201886E15B91FFDC95D95A811AB6F23E625948A6C3
310
E9D8E5AF46073BFAE0E1E365ED67B3E8ADC3CB78C7815C7240DA3DFC64DCC221C519D7805AC182F7F1EF06C88D9BE6703008B6049F9E274D7A1E938DBB5AE3D6131B2589BA0D3D965551E0B2EA732C9B9A624AAEB41E3A557677029960D9AFB4EF11165F504B0304140006080800CC70623B4FEEA4082C0100001202000031
310
0000006662782F39464131463745442D413632322D343644302D413938332D3331353338454246344243312F636F72652E786D6C8D515B6EC32010BC0AE2AB55850DD871ED0813254D72825EC00192A2C460F1A872FC42ED48ED5F7E00CDCECCCEB26C731F6FE05B39AFADE921293004CA082BB5B9F43086336A21D870E6AC
310
0D7F68109861543DCC30E4ECE26C9C164858139409093556AA051CBC570102714B8F1E7AF1A5C6A11862480C7F2DA6415C878B2A4891CA89C7990F2E050073937C42DE1DB7E4F87ED8A36D4329AA9B3D46DBAEAD504556557BD81DEBDD0761E52CE42C462D17B996298E3E6BE59E35C962CE821E1FF18553435012728A7187
310
0841987E927A8D9B35ADDF70BBC6989599FE4F1427F9A4286A132ABAC49D651EF234CD5CE04CDA78BA3DC2A8FB645D00B9DF8B57E215725C60BCA2A463E54C4CE327C7A65E1C7DB02E7DEFCBF594B864C5CA6CDBD49C957943E9FA5D5FBAF336F90F504B0304140006080800CC70623BAD7543B64E01000033030000300000
310
006662782F39464131463745442D413632322D343644302D413938332D3331353338454246344243312F636E782E786D6CD593CD6EC32010845F0571AD6CE3D48AD20813A9873E410FBD12D82434182C7EAAE6EDBB2424CD25871E7B41D6EC30B3FA84F9E67BB2E40B4234DE8DB46F1925E094D7C6ED479AD3AE5951B2113C
310
789FEE6C943839C1488B4C05DF079FE72A69D8C96C13AAD6B8631503449F83828872B949AC57D26200B826A308D316B4064D6E46FCDA41C05550DC9E483A00797BFD207EFB092A45DE9514C1BBD22178396BD39D891265658C238DEA00936C654E5E433CB65A26D9F6EDB5EBC14EBF49A45CB856E66048291F6939A9A81BB5
310
C8917738143CA680F4AA299D66A042CEB3354A2684DC9D8D178FE0D9B8B41CAAD720F880EE7EF93C0C18769E099ECC04D5A102C8049A8A05632F4DDF376CF1DE0F6BB65C2F8627B65A33C6BB62177CEBBDAD973006829F89F22E814B54F4BC2BE347F8AA8F681390B50FA73F804400B5F542E796F19FF974E7F78DB802FE05
310
E207504B0304140006080800CC70623B16AB87BA640500003C100000340000006662782F39464131463745442D413632322D343644302D413938332D3331353338454246344243312F6F626A656374732E786D6CAD575B6FA33818FD2B887DE6924B3BED8A326A92B68A663B534DD4D13E548A0C38942D60649B369D5FBFC7
310
600890A493BDE42160637FD7F31D7FF63E6FB3D478A55C242CBF3247B66B1A340F5994E4F19559CA8D75611A9F7D8F33263BCB4C232719BD32D5B4E97B316765A1A722BA21652A07B3B7B33F0D11D29C9A46981221AE4C113ED38CD8A4942CA2E2C58E882476BCD9DA23BB5ED8171B73523C0F841684D35CC252CCE79062D4
310
468DFA43D7747CCF51DF7D4FFDEB5593E3AB9CCA9FBEFE241792E4E19EB28198C968BAB8199F5D5A67D3E9C49A9E8F47D6EC76B6B0469F26EEFC7C3EBFBCBEB98462213924694B38DD98FE1D62C393D073EA4FADC5DAF04326852CCF6958F90F0F2B9BB5C48816348F90C7840A68EB78EDF68723159BCEE7891A6B95DDE9D3
310
BCEAEEE8086A6C6F9E5D4B59F0175C10A7A0820BAA5055C7473B5AE3CFDD452D602CD5DF12616444529E90D448938013FE6EFA58AA96F85E4F8C42275708571E98FE6827AF6B2B4AE3D7D83D64E5A64C53054DD3AF90BD06FEA9149565C94FCA0F6B834DC85599E4F2423B24DF0B6AFA979E534DFA9E7A4CC6FA631D486393
310
921829879BF5D781A373557BCB85E97FB90DB62B558F8795179C15944B051F40AB495CF35451D26A4727654E6D8033BD98EF82F21D91FF8AF2DD9982BCF1643BDD4EB516C9492E368C67C88DED563FC36D5EACF66DFF057C3658BDBFA69DF9578B3DA735B64F18C7F20770A9D45CFCF7FCF563D6456A277DBEF78A02637CA2
310
43B90A490AEAB94F72244481D24819A6C0E59B606BFA4B3025981DBB48EAB701D97BF19C577CC77F2D1B6C55A9EF3C732474C0B727303F625995056C3B02963D9EAC146BE78EC5FCEC7FA999EBC5EACBAAE41B12D27B4D2C0BBA49F244E2ECDC81B76B502F113D8F5EE8FB1BE3111CDD4FC2AA9B844CAB1288B68AB90A7CDC
310
1C166AB0D3DC5310625FCC14E779BFD0709F8890A629C9292B1B2DED31A4B0DA928CEE135085754027E3018A397D4D5427D15BD1330B677DC8934285AC3DF45A9EB68FF8F2B8FC0A509AFEECFD0FF2DE25CC6047F7214B195F07EFEB9A094D800F7BFAE8FED187B78EA8A3A400F115961BCAD1215E47C966530AF0EE8128FE
310
58CEBB996A8964FFA529A046635D9353B0336A8F700DDF46271A024E70B0B37C9DE01847591E54DED53D54202AB947E4076556AC49C6CA5C9E1226B7F1A7B1BE15DEED62C41B91E1B3E9AFAAA735036547343A925075041DF0A9979E893B391F8FCFA6967B3EFB644DCF6E5CEBFAE272625DCC6FAF3FB93793C5F90CE1EF57
310
407342756B10D1C489E8953CD1617E5CEECAD6F4EF8914CE5D5D504E5C3F1F9736DA62CFC11E00BCDDB8CC8A9466349744C1F75EBDA4DF09BA8A9E8C7A7E9991989E20E5DBDD6A6003664ED8F7A04A8DBE0DF6EAD9B9AA858342E47399053949D2C146EDB85DE4B176BB0965FBAC19BD19AA918E27FA50C1D22402E144464C
310
59462568E704B6E71915404CB72B8FF4EDE184DDAF753F284990D2C6926782963815403548A70C657FDEF80D2D9CEAA2AE4C1C76F60BFE74219A06527D6582DF6412526107381E55E353090704D085B52408D0933C4ED159D79BDA71BB4BC506F4831350EB6F979CD22D69BF7AC49B91A2C0A9DDA3D5CA36AD20FC478E37E6
310
1844E2352865EBCB6EA275A652E3836BE04EFB400BF1A2556F515F1FBB35B2AB35BD889C744FFA1004B5544B121E57F70215746DD2F5E2C1412B602CBF19455AC6C8E5E9922C4E01E65215385004546899059180EAFCF7A707CE7017CD8CDB0410789AB32C63B91E5CEBBBACB17AC6CD347A022D5075FD106377347AAABA7E
310
7D11590744509B44E205134DC1290F06580320F78E537D3D73540E06CB970B431F185308AD40BBD794D6D77003C5A36E8EAA54BA64597CD8F83BD552A080A365F7FF06504B0304140006080000CC70623B000000000000000000000000350000006662782F39464131463745442D413632322D343644302D413938332D3331
310
353338454246344243312F76657274696365732E62696E504B0304140006080800CC70623BF270F1330600000004000000360000006662782F39464131463745442D413632322D343644302D413938332D3331353338454246344243312F747269616E676C65732E62696E636660600000504B0304140006080000CC70623B
310
000000000000000000000000370000006662782F39464131463745442D413632322D343644302D413938332D3331353338454246344243312F617474726962757465732E62696E504B0304140006080800CC70623B08DA0BD19000000041010000360000006662782F39464131463745442D413632322D343644302D413938
310
332D3331353338454246344243312F6469726563746F72792E786D6C858F410AC3201045AF22B36F53E9A60B35CBEEBAE80D244E44489C6234F4F835464A48035D0DF398FF9F8AF63D0E6CC63039F212F8F9020C7D47C6792B21C5FE7403D62A1188E2E60C98D7234A5830286103A55745067B9D86B8A3CF9C7F90C11DE607
310
FB144396D7B6A82D282E9A152AD114D5EF2CB866EEE831B8EEA07A7BB5A8D7D61A2BAAEB7FD5F70921FF497D00504B0304140006080800CC70623B0D6EF93BFE000000A00100003B0000006662782F39464131463745442D413632322D343644302D413938332D3331353338454246344243312F7265736F75726365732F63
310
6F72652E786D6C8D50596E833010BD0A9ADFCA60B334011947A8694ED00B586642AC041B79A97AFC9A40A5F6AF3F33A3B7689E1E3F7DCD8FEC139DD7D6F4C0720A191A65476DA61E62B892236427C19DB5E1970C322367EC618541F0C9D9B8EC90B226A009093576C41D94DE63804C3DD2D18357379C652E63480A7FCF17A9
310
EE72C29CE5894E3AC17D702940B63D59270887DE46A7D0F36263058F518FBB468FE9A7BE6A7420864373B8D4873369AA8691FA421B3294352543C5CAF65C0F6FEF43CB8BD52C78D0F34F46E550061C419494B6843142CB0F5677F4B52BEB177AEC28E5C52AFF638ACBF84F53D42654E51E77B379102C05791282176B5F693D
310
CB4C7BED567C03504B010214000A0000080000CC70623B3DEE336E79000000790000001B00000000000000000000000000000000006175746F6465736B2D64657369676E2D7061636B6167652E786D6C504B01021400140006080800CC70623BD486FD9CA0000000F40000001300000000000000000000000000B20000005B
310
436F6E74656E745F54797065735D2E786D6C504B01021400140006080800CC70623B1EC5D7A3EB0000007C010000080000000000000000000000000083010000636F72652E786D6C504B01021400140006080800CC70623B55019EA25F0000007C000000070000000000000000000000000094020000636E782E786D6C504B
310
01021400140006080800CC70623B8C9102E971010000D40300000C00000000000000000000000000180300006662782F636F72652E786D6C504B01021400140006080800CC70623BFFEA85907E0000009D0000000B00000000000000000000000000B30400006662782F636E782E786D6C504B01021400140006080800CC70
310
623B4FEEA4082C0100001202000031000000000000000000000000005A0500006662782F39464131463745442D413632322D343644302D413938332D3331353338454246344243312F636F72652E786D6C504B01021400140006080800CC70623BAD7543B64E010000330300003000000000000000000000000000D5060000
310
6662782F39464131463745442D413632322D343644302D413938332D3331353338454246344243312F636E782E786D6C504B01021400140006080800CC70623B16AB87BA640500003C1000003400000000000000000000000000710800006662782F39464131463745442D413632322D343644302D413938332D3331353338
310
454246344243312F6F626A656374732E786D6C504B01021400140006080000CC70623B0000000000000000000000003500000000000000000000000000270E00006662782F39464131463745442D413632322D343644302D413938332D3331353338454246344243312F76657274696365732E62696E504B01021400140006
310
080800CC70623BF270F133060000000400000036000000000000000000000000007A0E00006662782F39464131463745442D413632322D343644302D413938332D3331353338454246344243312F747269616E676C65732E62696E504B01021400140006080000CC70623B0000000000000000000000003700000000000000
310
000000000000D40E00006662782F39464131463745442D413632322D343644302D413938332D3331353338454246344243312F617474726962757465732E62696E504B01021400140006080800CC70623B08DA0BD190000000410100003600000000000000000000000000290F00006662782F39464131463745442D413632
310
322D343644302D413938332D3331353338454246344243312F6469726563746F72792E786D6C504B01021400140006080800CC70623B0D6EF93BFE000000A00100003B000000000000000000000000000D1000006662782F39464131463745442D413632322D343644302D413938332D3331353338454246344243312F7265
310
736F75726365732F636F72652E786D6C504B0506000000000E000E0080040000641100000000
  0
XRECORD
  5
A2F
102
{ACAD_REACTORS
330
173
102
}
330
173
100
AcDbXrecord
280
     1
102
MATERIAL
148
0.0
149
0.0
149
0.0
 93
        0
 94
       63
282
     0
 72
     1
 77
     1
171
     1
175
     1
179
     1
273
     0
  0
XRECORD
  5
175
102
{ACAD_REACTORS
330
173
102
}
330
173
100
AcDbXrecord
280
     1
270
     1
271
     1
  0
XRECORD
  5
174
102
{ACAD_REACTORS
330
173
102
}
330
173
100
AcDbXrecord
280
     1
270
     1
271
     1
  0
XRECORD
  5
1FB
102
{ACAD_REACTORS
330
173
102
}
330
173
100
AcDbXrecord
280
     1
 70
     0
 90
1673772943
  1
ECE7A1D2-D628-4531-984C-D00F80459256
310
504B03040A0000080000CC70623B3DEE336E79000000790000001B0000006175746F6465736B2D64657369676E2D7061636B6167652E786D6C3C3F786D6C2076657273696F6E3D22312E302220656E636F64696E673D227574662D3822203F3E3C666F726D6174733E3C666F726D61743E687474703A2F2F736368656D612E
310
6175746F6465736B2E636F6D2F64657369676E2D7061636B6167652F323030393C2F666F726D61743E3C2F666F726D6174733E504B0304140006080800CC70623BD486FD9CA0000000F4000000130000005B436F6E74656E745F54797065735D2E786D6C7D8EC10E82300C865F65E91D8A1E8C310C0EEA1BF002731658846E
310
D98AC1B77784ABF1D8FE5FBFBF75BBCE937A534CCEB38643598122B6FEE978D0B0485F9C41B54DDD7D022595594E1A469170414C76A4D9A4D207E29CF43ECE46F218070CC6BECC4078ACAA135ACF422C856C0E68EA1BF5669944DDD7BCDE7B1F8E415D77AECB980613C2E4AC91FC167A2B244592486606FC29C8FD7F045B9A
310
EF7053A7E60B504B0304140006080800CC70623BD9DDAED0EC0000007C01000008000000636F72652E786D6C8D90416EC3201045AF82665B61836D9CD8C2444DD39CA01740405C94182C03558F5F9C3852BBEB6A467FFE9B197D7EF89E6EE8CB2CC17A37002D0820E394D7D68D03A478C17B4007C117EFE32F1B20272733C0
310
2A83E0E3E2D3BC49CABB685CCCAAF3DA6CA20CC14440EA969B0182FA34932C648AD911AEC52CD5558EA6A0CF2EC329598D1E47ACCEFBECC59A050463A7EA5833865FEBDD0E37353BE3EE8DBDE3F6786A48D375FBF6CC78B9C282473B3DEFABC5C86834888A900E538A49F5419B9EB47DD5BC907D4F082F57FB1F28CDFA9F50
310
B22ED6D5F6EE030B20687EE43E10BC5CB3C8E51E54AE6B6EE207504B0304140006080800CC70623B55019EA25F0000007C00000007000000636E782E786D6C4DCB3B0E80201045D1AD90E915ED2CF8AC45050C11660C8261F98AB1B07AC9C97D42D718D865D3E909258CFD00CCE24AC6E326A164D74DC0B4128928FF326038
310
472BA13128B1252AC747C6BAB984FC68F0B87FE8960A5C09FE86CFB69FBA01504B0304140006080800CC70623BA24EB22D72010000D40300000C0000006662782F636F72652E786D6CC5535B6E833010BC8AE5DF0A6C5E49888CA3A6694ED00B38E05014B091B1518EDFE511A5A9D228FD2A1F60CDEC7A67C6986DCE4D8D7A
310
69BA4AAB0C073EC548AA5C17952A33ECECD15B61B4E1CC686DBF9561A44423333CC098B3D268D7CE50AE9595CA02AA74216750749DB418E5352C32DCE59FB211BE70162ABA93DF8AFC244AE9073ED050C759670D0840D390E18DF9F1706664C23973AE2A66B62A605A75ACA4C13C4976E1364A12EF355A2EBD384AF65EFA96
310
BC7B8BED2EA6719AAE16FB8491A199335B351775B991C2CA02F390D2D40B028F861F41BCA68B7518BFD0D59A524686F29B26D7164F36B94AD9289CE54E6D1DE6010819891F6E21228B3AD1831EC219194284CF98F06DD01008846CC5A1BEF83801D4CBDC6A1303536877A57A513B0953A94FC707FDBE6064EA84A9E3E6E0FA
310
EE8CF0E9198F7784A316AA0413C2C2F2E0ECA0934D1AE6D05A69BCDE9E91D2A611F573361E38FC1375157F5752AE6B6DFE4B11990F88CCBF0719EE23FF02504B0304140006080800CC70623B408A7D3B7C0000009D0000000B0000006662782F636E782E786D6C4DCCD10A83201886E15B91FFDC552A92A0064DBC8F581632
310
D3703A76F9ABD1C18E3E78F878E5F0D9027ABBFCF2292AE86E2D20171F69F6715550CB827B40839639A5F2770314A7CD293819B45C73AAFB45B35BA61ACAA1C1C7E7855C58C15BC331339661262CC762340413D68D77DA5B42298546CBE6573AF60CEB2F504B0304140006080800CC70623B449FB9BD290100001202000031
310
0000006662782F36394639363044362D344446342D343946362D394244322D3234314243333846323333332F636F72652E786D6C8D515B6EC32010BC0AE22B55850D98B871848994463E412FE002495162B07854397EA176A4F62F3F2C9A9D991D587EB84F37F0AD7D30CEF6905418026DA553C65E7A98E219ED203808EE9D
310
8B7F6810D871D23D2C3014FCE25D9A57483A1BB58D19B54EE9151C43D0110279CB971E06F9A5A7B11A53CC8C70ADE6515EC78BAE4895DB992778883E0700CB907242D17643D7E2538BD869608875438BBAE38922CAC8F1BDD90DB4691A5E2F42C153326A951B95E398B3D1FE599322163C9AE9115F7A3D46ADA0A018778810
310
84E907617BDCEE297BC5BB3DC6BC2EF47FA234AB2745C9D8D8D035EE220B50105E2F0DC1954B9FB747187D9F9D8FA0CCDB042D5FA0C015C65B42DF78BD10F3F3B363CB56C7109DCFDFBBB97E662ED92EB62D13BC2E1BCAE5777DB9966D8A1F504B0304140006080800CC70623BAD7543B64E01000033030000300000006662
310
782F36394639363044362D344446342D343946362D394244322D3234314243333846323333332F636E782E786D6CD593CD6EC32010845F0571AD6CE3D48AD20813A9873E410FBD12D82434182C7EAAE6EDBB2424CD25871E7B41D6EC30B3FA84F9E67BB2E40B4234DE8DB46F1925E094D7C6ED479AD3AE5951B2113C789FEE
310
6C943839C1488B4C05DF079FE72A69D8C96C13AAD6B8631503449F83828872B949AC57D26200B826A308D316B4064D6E46FCDA41C05550DC9E483A00797BFD207EFB092A45DE9514C1BBD22178396BD39D891265658C238DEA00936C654E5E433CB65A26D9F6EDB5EBC14EBF49A45CB856E66048291F6939A9A81BB5C89177
310
38143CA680F4AA299D66A042CEB3354A2684DC9D8D178FE0D9B8B41CAAD720F880EE7EF93C0C18769E099ECC04D5A102C8049A8A05632F4DDF376CF1DE0F6BB65C2F8627B65A33C6BB62177CEBBDAD973006829F89F22E814B54F4BC2BE347F8AA8F681390B50FA73F804400B5F542E796F19FF974E7F78DB802FE05E20750
310
4B0304140006080800CC70623B8D05915C650500003B100000340000006662782F36394639363044362D344446342D343946362D394244322D3234314243333846323333332F6F626A656374732E786D6CAD575B6FA33814FE2B887D06429276DA1565D4266D158D3A339A6846FB502932E050B66023DB74D2FDF5FB190C01
310
9276B2973C046C8ECFF53B17071F77456EBD502133CEAE6CDF9DD81665314F32965ED995DA3A17B6F5310C04E7AA47665B8C14F4CAD6DB7618A48257A5D94AE89654B91AEDDEDDFC61C998326A5B714EA4BCB265FC440BE2924AF184CA6737218AB8E976E7FA6E4338649B0A523E8D98964450A6A029F619B8588D52FE7039
310
B1BD30F0F4F730D0FF866AF6369557DB33949F31A9088B0F848DD8CCFCF9F2767A76E99CCDE733677E3EF59D9BBB9BA5E37F984D16E78BC5E5F5ED25044B25C0C96822E8D60EEFE11B91C581D77CEA34368A1F5329E68CD1B8B61F16D63A1B8E092D294B10C78C4A48EB593D192E7DED9BDEE7995E1B91FDEDD3ACEA9FE831
310
6A756F9F7D4D79F4274C90A7A04248AA51D5F8C718DAE06FB2F75AC4796EBE65D22A88A22223B995679120E2D50E41AA49C260C046A35368846B0BECD0DFF3EBEB8AD4F835768F69B9ADF25C43D30E6B646F807FAA64AD59F61715C7A54127C4AACA98BA3006A9D792DAE165E0D59B61A01FB3A9F9D838D2DAE62445C86166
310
F37564E842E7DE6A69879FEEA2DD5AE7E371E1A5E025154AC307D06A03D73EB5978C58FFA4C8E9033066E0F3BD53BEC1F39F91BE7B55103791EDE6BBB991A2046172CB4581D8B893FA674DDA17A77B3B7C413D1B511FD2743BFF8A38F03A658705E3ADF8015C3A3417FF3D7E439FF591DA0B5F18BC20C1B8981957AE6392A3
310
F43C640C01D1A0B4728E2DD4F26DB4B3C3152A252A3B4E913CEC1C72F012782FF88EFF8637AA552DBEF76408E8A8DE9E50F9E1CB3A2DA0DB1B6039A893B56063DC5B3E3FFB5F72E67AB9FEB4AEC496C4F4C1149625DD662C53E89D7BF0F6151A046260D1337DFDC94502430F83B0EE07A130A224BCAD7DAE1D9FB6CD422FF6
310
920702629C4BB9AE79C12F243C6432A6794E18E5552BA56B431AAB5D91317302B2B071E86C3A42B1A02F999E24061403B5D0EB639195DA655DD3EBEAB4FB862DDF579F014AD0E73C22F99E28DA57FB98E75C6CA2D74D53086D600F4786E0FE3144B771A8A7B900F03594DB8A633CBC49B2EDB69228BB479CF863B5E807AAAB
310
23872F6DFEB4129B949CA33823F58830E86D65621E10047D9DB34D862E8EAC3C2ABC2F7B2C40D67CDFE01F5545B92105AF983AC54D93D69E56FB8E797F88913F898A9FEC705D3F9D1B54EC8426FB500D40A03BD0119B06E1B95DDC7EB8F6975367793EBD70E66733DFB9BC982F9CE564727731999F5D4ECFCE3B8D6A4DC2A0
310
6D50FD148437D110834A64C6CDDF57FBACB5C307A2A477DFE4939736CFEF2B175371E0E10CF0DD1D5C15654E0BCA14D1E87DD02FF93782A162C0A3D95F1524A52770F972BF1EE9809D13CE7DD599467F8ECE9ADD85CE85A34CD45355448C64F9E8A031DC2D596ACC6E5DD93D9B82DE2EF5CAF81363A8E47996A0DE24564A79
310
4115AACE09C55E14540231FDA13C319787134EBF34E3A022514E5B4D9E0826E25C02D5805B15ABE1BEF51B26383D445DD9E875EE33FE4C22DA16427D65A3BCA92CA6D28DD01DF5DC53330704308475351050232CCD31583787BA75774AFB06E5070DD0C8EF484E19968C5D83BA5B90B244D31E54D55A372320FE4786B7EA58
310
44E135AA5467CB7EA333A61683CC6A8C3257034C10CF46F40EF9F5BE59BE5BD30C3C72D235E95D10345C1D45445A5F0BB47E46A5EBE5570F9380B5FA629579952296A773720405982B9DE04011506178964401AA8BDF1FBF0A8EAB6861DD6580C0E38217056766716DAEB2D6FA0917D3E4116581EADB879C4E7CFFB11EFACD
310
3D641311495D92C8676CB409A72D18610D803CE8A626049E8EC1887CB5B44CC39883690DDA8399B4B9855B481E7D71D4A9D22F96E5BB73BF5793020C02137BF837504B0304140006080000CC70623B000000000000000000000000350000006662782F36394639363044362D344446342D343946362D394244322D32343142
310
43333846323333332F76657274696365732E62696E504B0304140006080800CC70623BF270F1330600000004000000360000006662782F36394639363044362D344446342D343946362D394244322D3234314243333846323333332F747269616E676C65732E62696E636660600000504B0304140006080000CC70623B0000
310
00000000000000000000370000006662782F36394639363044362D344446342D343946362D394244322D3234314243333846323333332F617474726962757465732E62696E504B0304140006080800CC70623B08DA0BD19000000041010000360000006662782F36394639363044362D344446342D343946362D394244322D
310
3234314243333846323333332F6469726563746F72792E786D6C858F410AC3201045AF22B36F53E9A60B35CBEEBAE80D244E44489C6234F4F835464A48035D0DF398FF9F8AF63D0E6CC63039F212F8F9020C7D47C6792B21C5FE7403D62A1188E2E60C98D7234A5830286103A55745067B9D86B8A3CF9C7F90C11DE607FB14
310
4396D7B6A82D282E9A152AD114D5EF2CB866EEE831B8EEA07A7BB5A8D7D61A2BAAEB7FD5F70921FF497D00504B0304140006080800CC70623BCA768048FE000000A00100003B0000006662782F36394639363044362D344446342D343946362D394244322D3234314243333846323333332F7265736F75726365732F636F72
310
652E786D6C8D50596E833010BD0A9ADFCA60D600328E9AA639412F609909B1126CE4A5EAF16B0295DABFFECC8CDEA2797AECF8353F924FB44E193D409E5248504B332A3D0D10FC95B4901C39B3C6F85F3248B49871801506CE266BC2B243D2688FDA47549B11775038871E12F988C7004EDE7016A9083E2ADC3D5D84BC8B09
310
D33C8D74D471E6BC8D0192EDC93A815B742658898E651BCB59086ADC356A8C3FD555A1055ED7E7E254D615792D0F075295F585746FF53B694EE78A565DD736979A65AB9933AFE69F8CD2A2F038022F28ED489E135A7CE4554F9BBEA85E68DB53CAB255FEC71496F19FA6A0B42F8B3DEE6673C0F318E4497096AD7DC5F52C33
310
EEB55BFE0D504B010214000A0000080000CC70623B3DEE336E79000000790000001B00000000000000000000000000000000006175746F6465736B2D64657369676E2D7061636B6167652E786D6C504B01021400140006080800CC70623BD486FD9CA0000000F40000001300000000000000000000000000B20000005B436F
310
6E74656E745F54797065735D2E786D6C504B01021400140006080800CC70623BD9DDAED0EC0000007C010000080000000000000000000000000083010000636F72652E786D6C504B01021400140006080800CC70623B55019EA25F0000007C000000070000000000000000000000000095020000636E782E786D6C504B0102
310
1400140006080800CC70623BA24EB22D72010000D40300000C00000000000000000000000000190300006662782F636F72652E786D6C504B01021400140006080800CC70623B408A7D3B7C0000009D0000000B00000000000000000000000000B50400006662782F636E782E786D6C504B01021400140006080800CC70623B
310
449FB9BD290100001202000031000000000000000000000000005A0500006662782F36394639363044362D344446342D343946362D394244322D3234314243333846323333332F636F72652E786D6C504B01021400140006080800CC70623BAD7543B64E010000330300003000000000000000000000000000D20600006662
310
782F36394639363044362D344446342D343946362D394244322D3234314243333846323333332F636E782E786D6C504B01021400140006080800CC70623B8D05915C650500003B10000034000000000000000000000000006E0800006662782F36394639363044362D344446342D343946362D394244322D32343142433338
310
46323333332F6F626A656374732E786D6C504B01021400140006080000CC70623B0000000000000000000000003500000000000000000000000000250E00006662782F36394639363044362D344446342D343946362D394244322D3234314243333846323333332F76657274696365732E62696E504B010214001400060808
310
00CC70623BF270F13306000000040000003600000000000000000000000000780E00006662782F36394639363044362D344446342D343946362D394244322D3234314243333846323333332F747269616E676C65732E62696E504B01021400140006080000CC70623B00000000000000000000000037000000000000000000
310
00000000D20E00006662782F36394639363044362D344446342D343946362D394244322D3234314243333846323333332F617474726962757465732E62696E504B01021400140006080800CC70623B08DA0BD190000000410100003600000000000000000000000000270F00006662782F36394639363044362D344446342D
310
343946362D394244322D3234314243333846323333332F6469726563746F72792E786D6C504B01021400140006080800CC70623BCA768048FE000000A00100003B000000000000000000000000000B1000006662782F36394639363044362D344446342D343946362D394244322D3234314243333846323333332F7265736F
310
75726365732F636F72652E786D6C504B0506000000000E000E0080040000621100000000
  0
XRECORD
  5
176
102
{ACAD_REACTORS
330
173
102
}
330
173
100
AcDbXrecord
280
     1
270
     1
271
     1
  0
XRECORD
  5
177
102
{ACAD_REACTORS
330
173
102
}
330
173
100
AcDbXrecord
280
     1
270
     1
271
     1
  0
XRECORD
  5
A51
102
{ACAD_REACTORS
330
A50
102
}
330
A50
100
AcDbXrecord
280
     1
102
ACAD_ROUNDTRIP_2012_MLEADER_STYLE
298
     1
  0
XRECORD
  5
A63
102
{ACAD_REACTORS
330
A62
102
}
330
A62
100
AcDbXrecord
280
     1
102
DISPLAYNAME
  1
Metric50
102
FLAGS
 90
        0
  0
CELLSTYLEMAP
  5
A23
102
{ACAD_REACTORS
330
162
102
}
330
162
100
AcDbCellStyleMap
 90
        3
300
CELLSTYLE
  1
TABLEFORMAT_BEGIN
 90
        5
170
     1
 91
        0
 92
    32768
 62
   257
 93
        1
300
CONTENTFORMAT
  1
CONTENTFORMAT_BEGIN
 90
        0
 91
        0
 92
      512
 93
        0
300

 40
0.0
140
1.0
 94
        5
 62
     0
340
11
144
6.0
309
CONTENTFORMAT_END
171
     1
301
MARGIN
  1
CELLMARGIN_BEGIN
 40
1.5
 40
1.5
 40
1.5
 40
1.5
 40
4.5
 40
4.5
309
CELLMARGIN_END
 94
        6
 95
        1
302
GRIDFORMAT
  1
GRIDFORMAT_BEGIN
 90
        0
 91
        1
 62
     0
 92
       -2
340
14
 93
        0
 40
1.125
309
GRIDFORMAT_END
 95
        2
302
GRIDFORMAT
  1
GRIDFORMAT_BEGIN
 90
        0
 91
        1
 62
     0
 92
       -2
340
14
 93
        0
 40
1.125
309
GRIDFORMAT_END
 95
        4
302
GRIDFORMAT
  1
GRIDFORMAT_BEGIN
 90
        0
 91
        1
 62
     0
 92
       -2
340
14
 93
        0
 40
1.125
309
GRIDFORMAT_END
 95
        8
302
GRIDFORMAT
  1
GRIDFORMAT_BEGIN
 90
        0
 91
        1
 62
     0
 92
       -2
340
14
 93
        0
 40
1.125
309
GRIDFORMAT_END
 95
       16
302
GRIDFORMAT
  1
GRIDFORMAT_BEGIN
 90
        0
 91
        1
 62
     0
 92
       -2
340
14
 93
        0
 40
1.125
309
GRIDFORMAT_END
 95
       32
302
GRIDFORMAT
  1
GRIDFORMAT_BEGIN
 90
        0
 91
        1
 62
     0
 92
       -2
340
14
 93
        0
 40
1.125
309
GRIDFORMAT_END
309
TABLEFORMAT_END
  1
CELLSTYLE_BEGIN
 90
        1
 91
        1
300
_TITLE
309
CELLSTYLE_END
300
CELLSTYLE
  1
TABLEFORMAT_BEGIN
 90
        5
170
     1
 91
        0
 92
        0
 62
   257
 93
        1
300
CONTENTFORMAT
  1
CONTENTFORMAT_BEGIN
 90
        0
 91
        0
 92
      512
 93
        0
300

 40
0.0
140
1.0
 94
        5
 62
     0
340
11
144
4.5
309
CONTENTFORMAT_END
171
     1
301
MARGIN
  1
CELLMARGIN_BEGIN
 40
1.5
 40
1.5
 40
1.5
 40
1.5
 40
4.5
 40
4.5
309
CELLMARGIN_END
 94
        6
 95
        1
302
GRIDFORMAT
  1
GRIDFORMAT_BEGIN
 90
        0
 91
        1
 62
     0
 92
       -2
340
14
 93
        0
 40
1.125
309
GRIDFORMAT_END
 95
        2
302
GRIDFORMAT
  1
GRIDFORMAT_BEGIN
 90
        0
 91
        1
 62
     0
 92
       -2
340
14
 93
        0
 40
1.125
309
GRIDFORMAT_END
 95
        4
302
GRIDFORMAT
  1
GRIDFORMAT_BEGIN
 90
        0
 91
        1
 62
     0
 92
       -2
340
14
 93
        0
 40
1.125
309
GRIDFORMAT_END
 95
        8
302
GRIDFORMAT
  1
GRIDFORMAT_BEGIN
 90
        0
 91
        1
 62
     0
 92
       -2
340
14
 93
        0
 40
1.125
309
GRIDFORMAT_END
 95
       16
302
GRIDFORMAT
  1
GRIDFORMAT_BEGIN
 90
        0
 91
        1
 62
     0
 92
       -2
340
14
 93
        0
 40
1.125
309
GRIDFORMAT_END
 95
       32
302
GRIDFORMAT
  1
GRIDFORMAT_BEGIN
 90
        0
 91
        1
 62
     0
 92
       -2
340
14
 93
        0
 40
1.125
309
GRIDFORMAT_END
309
TABLEFORMAT_END
  1
CELLSTYLE_BEGIN
 90
        2
 91
        1
300
_HEADER
309
CELLSTYLE_END
300
CELLSTYLE
  1
TABLEFORMAT_BEGIN
 90
        5
170
     1
 91
        0
 92
        0
 62
   257
 93
        1
300
CONTENTFORMAT
  1
CONTENTFORMAT_BEGIN
 90
        0
 91
        0
 92
      512
 93
        0
300

 40
0.0
140
1.0
 94
        2
 62
     0
340
11
144
4.5
309
CONTENTFORMAT_END
171
     1
301
MARGIN
  1
CELLMARGIN_BEGIN
 40
1.5
 40
1.5
 40
1.5
 40
1.5
 40
4.5
 40
4.5
309
CELLMARGIN_END
 94
        6
 95
        1
302
GRIDFORMAT
  1
GRIDFORMAT_BEGIN
 90
        0
 91
        1
 62
     0
 92
       -2
340
14
 93
        0
 40
1.125
309
GRIDFORMAT_END
 95
        2
302
GRIDFORMAT
  1
GRIDFORMAT_BEGIN
 90
        0
 91
        1
 62
     0
 92
       -2
340
14
 93
        0
 40
1.125
309
GRIDFORMAT_END
 95
        4
302
GRIDFORMAT
  1
GRIDFORMAT_BEGIN
 90
        0
 91
        1
 62
     0
 92
       -2
340
14
 93
        0
 40
1.125
309
GRIDFORMAT_END
 95
        8
302
GRIDFORMAT
  1
GRIDFORMAT_BEGIN
 90
        0
 91
        1
 62
     0
 92
       -2
340
14
 93
        0
 40
1.125
309
GRIDFORMAT_END
 95
       16
302
GRIDFORMAT
  1
GRIDFORMAT_BEGIN
 90
        0
 91
        1
 62
     0
 92
       -2
340
14
 93
        0
 40
1.125
309
GRIDFORMAT_END
 95
       32
302
GRIDFORMAT
  1
GRIDFORMAT_BEGIN
 90
        0
 91
        1
 62
     0
 92
       -2
340
14
 93
        0
 40
1.125
309
GRIDFORMAT_END
309
TABLEFORMAT_END
  1
CELLSTYLE_BEGIN
 90
        3
 91
        2
300
_DATA
309
CELLSTYLE_END
  0
XRECORD
  5
A28
102
{ACAD_REACTORS
330
162
102
}
330
162
100
AcDbXrecord
280
     1
102
ACAD_ROUNDTRIP_PRE2007_TABLESTYLE
 90
      512
 91
        0
  1

 92
      512
 93
        0
  2

 94
      512
 95
        0
  3

  0
XRECORD
  5
A3B
102
{ACAD_REACTORS
330
A3A
102
}
330
A3A
100
AcDbXrecord
280
     1
102
RTVSPost2010Prop28
280
     1
102
RTVSPost2010PropOp28
 70
     1
102
RTVSPost2010Prop29
280
     1
102
RTVSPost2010PropOp29
 70
     1
102
RTVSPost2010Prop30
280
     0
102
RTVSPost2010PropOp30
 70
     1
102
RTVSPost2010Prop31
280
     0
102
RTVSPost2010PropOp31
 70
     1
102
RTVSPost2010Prop32
280
     0
102
RTVSPost2010PropOp32
 70
     1
102
RTVSPost2010Prop33
280
     0
102
RTVSPost2010PropOp33
 70
     1
102
RTVSPost2010Prop34
280
     0
102
RTVSPost2010PropOp34
 70
     1
102
RTVSPost2010Prop35
280
     0
102
RTVSPost2010PropOp35
 70
     1
102
RTVSPost2010Prop36
280
     0
102
RTVSPost2010PropOp36
 70
     1
102
RTVSPost2010Prop37
 90
       50
102
RTVSPost2010PropOp37
 70
     1
102
RTVSPost2010Prop38
140
0.0
102
RTVSPost2010PropOp38
 70
     1
102
RTVSPost2010Prop39
140
1.0
102
RTVSPost2010PropOp39
 70
     1
102
RTVSPost2010Prop40
 90
        0
102
RTVSPost2010PropOp40
 70
     1
102
RTVSPost2010Prop41ColorIndex
 90
       18
102
RTVSPost2010Prop41ColorRGB
 90
        0
102
RTVSPost2010PropOp41
 70
     1
102
RTVSPost2010Prop42
 90
       50
102
RTVSPost2010PropOp42
 70
     1
102
RTVSPost2010Prop43
 90
        3
102
RTVSPost2010PropOp43
 70
     1
102
RTVSPost2010Prop44ColorIndex
 90
        5
102
RTVSPost2010Prop44ColorRGB
 90
      255
102
RTVSPost2010PropOp44
 70
     1
102
RTVSPost2010Prop45
280
     0
102
RTVSPost2010PropOp45
 70
     1
102
RTVSPost2010Prop46
 90
       50
102
RTVSPost2010PropOp46
 70
     1
102
RTVSPost2010Prop47
 90
       50
102
RTVSPost2010PropOp47
 70
     1
102
RTVSPost2010Prop48
 90
       50
102
RTVSPost2010PropOp48
 70
     1
102
RTVSPost2010Prop49
280
     0
102
RTVSPost2010PropOp49
 70
     1
102
RTVSPost2010Prop50
 90
       50
102
RTVSPost2010PropOp50
 70
     1
102
RTVSPost2010Prop51ColorIndex
 90
      256
102
RTVSPost2010Prop51ColorRGB
 90
-16777216
102
RTVSPost2010PropOp51
 70
     0
102
RTVSPost2010Prop52
140
1.0
102
RTVSPost2010PropOp52
 70
     0
102
RTVSPost2010Prop53
 90
        2
102
RTVSPost2010PropOp53
 70
     1
102
RTVSPost2010Prop54
  1
strokes_ogs.tif
102
RTVSPost2010PropOp54
 70
     1
102
RTVSPost2010Prop55
280
     0
102
RTVSPost2010PropOp55
 70
     1
102
RTVSPost2010Prop56
140
1.0
102
RTVSPost2010PropOp56
 70
     1
102
RTVSPost2010Prop57
140
1.0
102
RTVSPost2010PropOp57
 70
     1
102
RTVSPropertyOp0
 70
     1
102
RTVSPropertyOp1
 70
     1
102
RTVSPropertyOp2
 70
     1
102
RTVSPropertyOp3
 70
     1
102
RTVSPropertyOp4
 70
     1
102
RTVSPropertyOp5
 70
     1
102
RTVSPropertyOp6
 70
     1
102
RTVSPropertyOp7
 70
     1
102
RTVSPropertyOp8
 70
     1
102
RTVSPropertyOp9
 70
     1
102
RTVSPropertyOp10
 70
     1
102
RTVSPropertyOp11
 70
     1
102
RTVSPropertyOp12
 70
     1
102
RTVSPropertyOp13
 70
     1
102
RTVSPropertyOp14
 70
     1
102
RTVSPropertyOp15
 70
     1
102
RTVSPropertyOp16
 70
     1
102
RTVSPropertyOp17
 70
     1
102
RTVSPropertyOp18
 70
     1
102
RTVSPropertyOp19
 70
     1
102
RTVSPropertyOp20
 70
     1
102
RTVSPropertyOp21
 70
     1
102
RTVSPropertyOp22
 70
     1
102
RTVSPropertyOp23
 70
     1
102
RTVSPropertyOp24
 70
     1
102
RTVSPropertyOp25
 70
     1
102
RTVSPropertyOp26
 70
     1
102
RTVSPropertyOp27
 70
     1
102
RTVSPropertyOp28
 70
     1
102
RTVSPropertyOp29
 70
     1
102
RTVSPropertyOp30
 70
     1
102
RTVSPropertyOp31
 70
     1
102
RTVSPropertyOp32
 70
     1
102
RTVSPropertyOp33
 70
     1
102
RTVSPropertyOp34
 70
     1
102
RTVSPropertyOp35
 70
     1
102
RTVSPropertyOp36
 70
     1
102
RTVSPropertyOp37
 70
     1
102
RTVSPropertyOp38
 70
     1
102
RTVSPropertyOp39
 70
     1
102
RTVSPropertyOp40
 70
     1
102
RTVSPropertyOp41
 70
     1
102
RTVSPropertyOp42
 70
     1
102
RTVSPropertyOp43
 70
     1
102
RTVSPropertyOp44
 70
     1
102
RTVSPropertyOp45
 70
     1
102
RTVSPropertyOp46
 70
     1
102
RTVSPropertyOp47
 70
     1
102
RTVSPropertyOp48
 70
     1
102
RTVSPropertyOp49
 70
     1
102
RTVSPropertyOp50
 70
     1
102
RTVSPropertyOp51
 70
     0
102
RTVSPropertyOp52
 70
     0
102
RTVSPropertyOp53
 70
     1
102
RTVSPropertyOp54
 70
     1
102
RTVSPropertyOp55
 70
     1
102
RTVSPropertyOp56
 70
     1
102
RTVSPropertyOp57
 70
     1
102
RTVSPropertyOp58
 70
     1
102
RTVSPropertyOp59
 70
     1
102
RTVSPropertyOp60
 70
     1
102
RTVSPropertyOp61
 70
     1
102
RTVSPropertyOp62
 70
     1
  0
XRECORD
  5
A39
102
{ACAD_REACTORS
330
A38
102
}
330
A38
100
AcDbXrecord
280
     1
102
RTVSPost2010Prop28
280
     0
102
RTVSPost2010PropOp28
 70
     1
102
RTVSPost2010Prop29
280
     1
102
RTVSPost2010PropOp29
 70
     1
102
RTVSPost2010Prop30
280
     1
102
RTVSPost2010PropOp30
 70
     1
102
RTVSPost2010Prop31
280
     0
102
RTVSPost2010PropOp31
 70
     1
102
RTVSPost2010Prop32
280
     0
102
RTVSPost2010PropOp32
 70
     1
102
RTVSPost2010Prop33
280
     0
102
RTVSPost2010PropOp33
 70
     1
102
RTVSPost2010Prop34
280
     0
102
RTVSPost2010PropOp34
 70
     1
102
RTVSPost2010Prop35
280
     0
102
RTVSPost2010PropOp35
 70
     1
102
RTVSPost2010Prop36
280
     0
102
RTVSPost2010PropOp36
 70
     1
102
RTVSPost2010Prop37
 90
       50
102
RTVSPost2010PropOp37
 70
     1
102
RTVSPost2010Prop38
140
0.0
102
RTVSPost2010PropOp38
 70
     1
102
RTVSPost2010Prop39
140
1.0
102
RTVSPost2010PropOp39
 70
     1
102
RTVSPost2010Prop40
 90
        0
102
RTVSPost2010PropOp40
 70
     1
102
RTVSPost2010Prop41ColorIndex
 90
       18
102
RTVSPost2010Prop41ColorRGB
 90
        0
102
RTVSPost2010PropOp41
 70
     1
102
RTVSPost2010Prop42
 90
       50
102
RTVSPost2010PropOp42
 70
     1
102
RTVSPost2010Prop43
 90
        3
102
RTVSPost2010PropOp43
 70
     1
102
RTVSPost2010Prop44ColorIndex
 90
        5
102
RTVSPost2010Prop44ColorRGB
 90
      255
102
RTVSPost2010PropOp44
 70
     1
102
RTVSPost2010Prop45
280
     0
102
RTVSPost2010PropOp45
 70
     1
102
RTVSPost2010Prop46
 90
       50
102
RTVSPost2010PropOp46
 70
     1
102
RTVSPost2010Prop47
 90
       50
102
RTVSPost2010PropOp47
 70
     1
102
RTVSPost2010Prop48
 90
       50
102
RTVSPost2010PropOp48
 70
     1
102
RTVSPost2010Prop49
280
     0
102
RTVSPost2010PropOp49
 70
     1
102
RTVSPost2010Prop50
 90
       50
102
RTVSPost2010PropOp50
 70
     1
102
RTVSPost2010Prop51ColorIndex
 90
      256
102
RTVSPost2010Prop51ColorRGB
 90
-16777216
102
RTVSPost2010PropOp51
 70
     0
102
RTVSPost2010Prop52
140
1.0
102
RTVSPost2010PropOp52
 70
     0
102
RTVSPost2010Prop53
 90
        2
102
RTVSPost2010PropOp53
 70
     1
102
RTVSPost2010Prop54
  1
strokes_ogs.tif
102
RTVSPost2010PropOp54
 70
     1
102
RTVSPost2010Prop55
280
     0
102
RTVSPost2010PropOp55
 70
     1
102
RTVSPost2010Prop56
140
1.0
102
RTVSPost2010PropOp56
 70
     1
102
RTVSPost2010Prop57
140
1.0
102
RTVSPost2010PropOp57
 70
     1
102
RTVSPropertyOp0
 70
     1
102
RTVSPropertyOp1
 70
     1
102
RTVSPropertyOp2
 70
     1
102
RTVSPropertyOp3
 70
     1
102
RTVSPropertyOp4
 70
     1
102
RTVSPropertyOp5
 70
     1
102
RTVSPropertyOp6
 70
     1
102
RTVSPropertyOp7
 70
     1
102
RTVSPropertyOp8
 70
     1
102
RTVSPropertyOp9
 70
     1
102
RTVSPropertyOp10
 70
     1
102
RTVSPropertyOp11
 70
     1
102
RTVSPropertyOp12
 70
     1
102
RTVSPropertyOp13
 70
     1
102
RTVSPropertyOp14
 70
     1
102
RTVSPropertyOp15
 70
     1
102
RTVSPropertyOp16
 70
     1
102
RTVSPropertyOp17
 70
     1
102
RTVSPropertyOp18
 70
     1
102
RTVSPropertyOp19
 70
     1
102
RTVSPropertyOp20
 70
     1
102
RTVSPropertyOp21
 70
     1
102
RTVSPropertyOp22
 70
     1
102
RTVSPropertyOp23
 70
     1
102
RTVSPropertyOp24
 70
     1
102
RTVSPropertyOp25
 70
     1
102
RTVSPropertyOp26
 70
     1
102
RTVSPropertyOp27
 70
     1
102
RTVSPropertyOp28
 70
     1
102
RTVSPropertyOp29
 70
     1
102
RTVSPropertyOp30
 70
     1
102
RTVSPropertyOp31
 70
     1
102
RTVSPropertyOp32
 70
     1
102
RTVSPropertyOp33
 70
     1
102
RTVSPropertyOp34
 70
     1
102
RTVSPropertyOp35
 70
     1
102
RTVSPropertyOp36
 70
     1
102
RTVSPropertyOp37
 70
     1
102
RTVSPropertyOp38
 70
     1
102
RTVSPropertyOp39
 70
     1
102
RTVSPropertyOp40
 70
     1
102
RTVSPropertyOp41
 70
     1
102
RTVSPropertyOp42
 70
     1
102
RTVSPropertyOp43
 70
     1
102
RTVSPropertyOp44
 70
     1
102
RTVSPropertyOp45
 70
     1
102
RTVSPropertyOp46
 70
     1
102
RTVSPropertyOp47
 70
     1
102
RTVSPropertyOp48
 70
     1
102
RTVSPropertyOp49
 70
     1
102
RTVSPropertyOp50
 70
     1
102
RTVSPropertyOp51
 70
     0
102
RTVSPropertyOp52
 70
     0
102
RTVSPropertyOp53
 70
     1
102
RTVSPropertyOp54
 70
     1
102
RTVSPropertyOp55
 70
     1
102
RTVSPropertyOp56
 70
     1
102
RTVSPropertyOp57
 70
     1
102
RTVSPropertyOp58
 70
     1
102
RTVSPropertyOp59
 70
     1
102
RTVSPropertyOp60
 70
     1
102
RTVSPropertyOp61
 70
     1
102
RTVSPropertyOp62
 70
     1
  0
XRECORD
  5
A47
102
{ACAD_REACTORS
330
A46
102
}
330
A46
100
AcDbXrecord
280
     1
102
RTVSPost2010Prop28
280
     0
102
RTVSPost2010PropOp28
 70
     1
102
RTVSPost2010Prop29
280
     1
102
RTVSPost2010PropOp29
 70
     1
102
RTVSPost2010Prop30
280
     1
102
RTVSPost2010PropOp30
 70
     1
102
RTVSPost2010Prop31
280
     0
102
RTVSPost2010PropOp31
 70
     1
102
RTVSPost2010Prop32
280
     0
102
RTVSPost2010PropOp32
 70
     1
102
RTVSPost2010Prop33
280
     0
102
RTVSPost2010PropOp33
 70
     1
102
RTVSPost2010Prop34
280
     0
102
RTVSPost2010PropOp34
 70
     1
102
RTVSPost2010Prop35
280
     0
102
RTVSPost2010PropOp35
 70
     1
102
RTVSPost2010Prop36
280
     0
102
RTVSPost2010PropOp36
 70
     1
102
RTVSPost2010Prop37
 90
       50
102
RTVSPost2010PropOp37
 70
     1
102
RTVSPost2010Prop38
140
0.0
102
RTVSPost2010PropOp38
 70
     1
102
RTVSPost2010Prop39
140
1.0
102
RTVSPost2010PropOp39
 70
     1
102
RTVSPost2010Prop40
 90
        0
102
RTVSPost2010PropOp40
 70
     1
102
RTVSPost2010Prop41ColorIndex
 90
       18
102
RTVSPost2010Prop41ColorRGB
 90
        0
102
RTVSPost2010PropOp41
 70
     1
102
RTVSPost2010Prop42
 90
       50
102
RTVSPost2010PropOp42
 70
     1
102
RTVSPost2010Prop43
 90
        3
102
RTVSPost2010PropOp43
 70
     1
102
RTVSPost2010Prop44ColorIndex
 90
        5
102
RTVSPost2010Prop44ColorRGB
 90
      255
102
RTVSPost2010PropOp44
 70
     1
102
RTVSPost2010Prop45
280
     0
102
RTVSPost2010PropOp45
 70
     1
102
RTVSPost2010Prop46
 90
       50
102
RTVSPost2010PropOp46
 70
     1
102
RTVSPost2010Prop47
 90
       50
102
RTVSPost2010PropOp47
 70
     1
102
RTVSPost2010Prop48
 90
       50
102
RTVSPost2010PropOp48
 70
     1
102
RTVSPost2010Prop49
280
     0
102
RTVSPost2010PropOp49
 70
     1
102
RTVSPost2010Prop50
 90
       50
102
RTVSPost2010PropOp50
 70
     1
102
RTVSPost2010Prop51ColorIndex
 90
      256
102
RTVSPost2010Prop51ColorRGB
 90
-16777216
102
RTVSPost2010PropOp51
 70
     0
102
RTVSPost2010Prop52
140
1.0
102
RTVSPost2010PropOp52
 70
     0
102
RTVSPost2010Prop53
 90
        2
102
RTVSPost2010PropOp53
 70
     1
102
RTVSPost2010Prop54
  1
strokes_ogs.tif
102
RTVSPost2010PropOp54
 70
     1
102
RTVSPost2010Prop55
280
     0
102
RTVSPost2010PropOp55
 70
     1
102
RTVSPost2010Prop56
140
1.0
102
RTVSPost2010PropOp56
 70
     1
102
RTVSPost2010Prop57
140
1.0
102
RTVSPost2010PropOp57
 70
     1
102
RTVSPropertyOp0
 70
     1
102
RTVSPropertyOp1
 70
     1
102
RTVSPropertyOp2
 70
     1
102
RTVSPropertyOp3
 70
     1
102
RTVSPropertyOp4
 70
     1
102
RTVSPropertyOp5
 70
     1
102
RTVSPropertyOp6
 70
     1
102
RTVSPropertyOp7
 70
     1
102
RTVSPropertyOp8
 70
     1
102
RTVSPropertyOp9
 70
     1
102
RTVSPropertyOp10
 70
     1
102
RTVSPropertyOp11
 70
     1
102
RTVSPropertyOp12
 70
     1
102
RTVSPropertyOp13
 70
     1
102
RTVSPropertyOp14
 70
     1
102
RTVSPropertyOp15
 70
     1
102
RTVSPropertyOp16
 70
     1
102
RTVSPropertyOp17
 70
     1
102
RTVSPropertyOp18
 70
     1
102
RTVSPropertyOp19
 70
     1
102
RTVSPropertyOp20
 70
     1
102
RTVSPropertyOp21
 70
     1
102
RTVSPropertyOp22
 70
     1
102
RTVSPropertyOp23
 70
     1
102
RTVSPropertyOp24
 70
     1
102
RTVSPropertyOp25
 70
     1
102
RTVSPropertyOp26
 70
     1
102
RTVSPropertyOp27
 70
     1
102
RTVSPropertyOp28
 70
     1
102
RTVSPropertyOp29
 70
     1
102
RTVSPropertyOp30
 70
     1
102
RTVSPropertyOp31
 70
     1
102
RTVSPropertyOp32
 70
     1
102
RTVSPropertyOp33
 70
     1
102
RTVSPropertyOp34
 70
     1
102
RTVSPropertyOp35
 70
     1
102
RTVSPropertyOp36
 70
     1
102
RTVSPropertyOp37
 70
     1
102
RTVSPropertyOp38
 70
     1
102
RTVSPropertyOp39
 70
     1
102
RTVSPropertyOp40
 70
     1
102
RTVSPropertyOp41
 70
     1
102
RTVSPropertyOp42
 70
     1
102
RTVSPropertyOp43
 70
     1
102
RTVSPropertyOp44
 70
     1
102
RTVSPropertyOp45
 70
     1
102
RTVSPropertyOp46
 70
     1
102
RTVSPropertyOp47
 70
     1
102
RTVSPropertyOp48
 70
     1
102
RTVSPropertyOp49
 70
     1
102
RTVSPropertyOp50
 70
     1
102
RTVSPropertyOp51
 70
     0
102
RTVSPropertyOp52
 70
     0
102
RTVSPropertyOp53
 70
     1
102
RTVSPropertyOp54
 70
     1
102
RTVSPropertyOp55
 70
     1
102
RTVSPropertyOp56
 70
     1
102
RTVSPropertyOp57
 70
     1
102
RTVSPropertyOp58
 70
     1
102
RTVSPropertyOp59
 70
     1
102
RTVSPropertyOp60
 70
     1
102
RTVSPropertyOp61
 70
     1
102
RTVSPropertyOp62
 70
     1
  0
XRECORD
  5
A4F
102
{ACAD_REACTORS
330
A4E
102
}
330
A4E
100
AcDbXrecord
280
     1
102
RTVSPost2010Prop28
280
     0
102
RTVSPost2010PropOp28
 70
     1
102
RTVSPost2010Prop29
280
     1
102
RTVSPost2010PropOp29
 70
     1
102
RTVSPost2010Prop30
280
     1
102
RTVSPost2010PropOp30
 70
     1
102
RTVSPost2010Prop31
280
     0
102
RTVSPost2010PropOp31
 70
     1
102
RTVSPost2010Prop32
280
     0
102
RTVSPost2010PropOp32
 70
     1
102
RTVSPost2010Prop33
280
     0
102
RTVSPost2010PropOp33
 70
     1
102
RTVSPost2010Prop34
280
     0
102
RTVSPost2010PropOp34
 70
     1
102
RTVSPost2010Prop35
280
     0
102
RTVSPost2010PropOp35
 70
     1
102
RTVSPost2010Prop36
280
     0
102
RTVSPost2010PropOp36
 70
     1
102
RTVSPost2010Prop37
 90
       50
102
RTVSPost2010PropOp37
 70
     1
102
RTVSPost2010Prop38
140
0.0
102
RTVSPost2010PropOp38
 70
     1
102
RTVSPost2010Prop39
140
1.0
102
RTVSPost2010PropOp39
 70
     1
102
RTVSPost2010Prop40
 90
        0
102
RTVSPost2010PropOp40
 70
     1
102
RTVSPost2010Prop41ColorIndex
 90
       18
102
RTVSPost2010Prop41ColorRGB
 90
        0
102
RTVSPost2010PropOp41
 70
     1
102
RTVSPost2010Prop42
 90
       50
102
RTVSPost2010PropOp42
 70
     1
102
RTVSPost2010Prop43
 90
        3
102
RTVSPost2010PropOp43
 70
     1
102
RTVSPost2010Prop44ColorIndex
 90
        5
102
RTVSPost2010Prop44ColorRGB
 90
      255
102
RTVSPost2010PropOp44
 70
     1
102
RTVSPost2010Prop45
280
     0
102
RTVSPost2010PropOp45
 70
     1
102
RTVSPost2010Prop46
 90
       50
102
RTVSPost2010PropOp46
 70
     1
102
RTVSPost2010Prop47
 90
       50
102
RTVSPost2010PropOp47
 70
     1
102
RTVSPost2010Prop48
 90
       50
102
RTVSPost2010PropOp48
 70
     1
102
RTVSPost2010Prop49
280
     0
102
RTVSPost2010PropOp49
 70
     1
102
RTVSPost2010Prop50
 90
       50
102
RTVSPost2010PropOp50
 70
     1
102
RTVSPost2010Prop51ColorIndex
 90
      256
102
RTVSPost2010Prop51ColorRGB
 90
-16777216
102
RTVSPost2010PropOp51
 70
     0
102
RTVSPost2010Prop52
140
1.0
102
RTVSPost2010PropOp52
 70
     0
102
RTVSPost2010Prop53
 90
        2
102
RTVSPost2010PropOp53
 70
     1
102
RTVSPost2010Prop54
  1
strokes_ogs.tif
102
RTVSPost2010PropOp54
 70
     1
102
RTVSPost2010Prop55
280
     0
102
RTVSPost2010PropOp55
 70
     1
102
RTVSPost2010Prop56
140
1.0
102
RTVSPost2010PropOp56
 70
     1
102
RTVSPost2010Prop57
140
1.0
102
RTVSPost2010PropOp57
 70
     1
102
RTVSPropertyOp0
 70
     1
102
RTVSPropertyOp1
 70
     1
102
RTVSPropertyOp2
 70
     1
102
RTVSPropertyOp3
 70
     1
102
RTVSPropertyOp4
 70
     1
102
RTVSPropertyOp5
 70
     1
102
RTVSPropertyOp6
 70
     1
102
RTVSPropertyOp7
 70
     1
102
RTVSPropertyOp8
 70
     1
102
RTVSPropertyOp9
 70
     1
102
RTVSPropertyOp10
 70
     1
102
RTVSPropertyOp11
 70
     1
102
RTVSPropertyOp12
 70
     1
102
RTVSPropertyOp13
 70
     1
102
RTVSPropertyOp14
 70
     1
102
RTVSPropertyOp15
 70
     1
102
RTVSPropertyOp16
 70
     1
102
RTVSPropertyOp17
 70
     1
102
RTVSPropertyOp18
 70
     1
102
RTVSPropertyOp19
 70
     1
102
RTVSPropertyOp20
 70
     1
102
RTVSPropertyOp21
 70
     1
102
RTVSPropertyOp22
 70
     1
102
RTVSPropertyOp23
 70
     1
102
RTVSPropertyOp24
 70
     1
102
RTVSPropertyOp25
 70
     1
102
RTVSPropertyOp26
 70
     1
102
RTVSPropertyOp27
 70
     1
102
RTVSPropertyOp28
 70
     1
102
RTVSPropertyOp29
 70
     1
102
RTVSPropertyOp30
 70
     1
102
RTVSPropertyOp31
 70
     1
102
RTVSPropertyOp32
 70
     1
102
RTVSPropertyOp33
 70
     1
102
RTVSPropertyOp34
 70
     1
102
RTVSPropertyOp35
 70
     1
102
RTVSPropertyOp36
 70
     1
102
RTVSPropertyOp37
 70
     1
102
RTVSPropertyOp38
 70
     1
102
RTVSPropertyOp39
 70
     1
102
RTVSPropertyOp40
 70
     1
102
RTVSPropertyOp41
 70
     1
102
RTVSPropertyOp42
 70
     1
102
RTVSPropertyOp43
 70
     1
102
RTVSPropertyOp44
 70
     1
102
RTVSPropertyOp45
 70
     1
102
RTVSPropertyOp46
 70
     1
102
RTVSPropertyOp47
 70
     1
102
RTVSPropertyOp48
 70
     1
102
RTVSPropertyOp49
 70
     1
102
RTVSPropertyOp50
 70
     1
102
RTVSPropertyOp51
 70
     0
102
RTVSPropertyOp52
 70
     0
102
RTVSPropertyOp53
 70
     1
102
RTVSPropertyOp54
 70
     1
102
RTVSPropertyOp55
 70
     1
102
RTVSPropertyOp56
 70
     1
102
RTVSPropertyOp57
 70
     1
102
RTVSPropertyOp58
 70
     1
102
RTVSPropertyOp59
 70
     1
102
RTVSPropertyOp60
 70
     1
102
RTVSPropertyOp61
 70
     1
102
RTVSPropertyOp62
 70
     1
  0
XRECORD
  5
A41
102
{ACAD_REACTORS
330
A40
102
}
330
A40
100
AcDbXrecord
280
     1
102
RTVSPost2010Prop28
280
     0
102
RTVSPost2010PropOp28
 70
     1
102
RTVSPost2010Prop29
280
     1
102
RTVSPost2010PropOp29
 70
     1
102
RTVSPost2010Prop30
280
     1
102
RTVSPost2010PropOp30
 70
     1
102
RTVSPost2010Prop31
280
     0
102
RTVSPost2010PropOp31
 70
     1
102
RTVSPost2010Prop32
280
     0
102
RTVSPost2010PropOp32
 70
     1
102
RTVSPost2010Prop33
280
     0
102
RTVSPost2010PropOp33
 70
     1
102
RTVSPost2010Prop34
280
     0
102
RTVSPost2010PropOp34
 70
     1
102
RTVSPost2010Prop35
280
     0
102
RTVSPost2010PropOp35
 70
     1
102
RTVSPost2010Prop36
280
     0
102
RTVSPost2010PropOp36
 70
     1
102
RTVSPost2010Prop37
 90
       50
102
RTVSPost2010PropOp37
 70
     1
102
RTVSPost2010Prop38
140
0.0
102
RTVSPost2010PropOp38
 70
     1
102
RTVSPost2010Prop39
140
1.0
102
RTVSPost2010PropOp39
 70
     1
102
RTVSPost2010Prop40
 90
        0
102
RTVSPost2010PropOp40
 70
     1
102
RTVSPost2010Prop41ColorIndex
 90
       18
102
RTVSPost2010Prop41ColorRGB
 90
        0
102
RTVSPost2010PropOp41
 70
     1
102
RTVSPost2010Prop42
 90
       50
102
RTVSPost2010PropOp42
 70
     1
102
RTVSPost2010Prop43
 90
        3
102
RTVSPost2010PropOp43
 70
     1
102
RTVSPost2010Prop44ColorIndex
 90
        5
102
RTVSPost2010Prop44ColorRGB
 90
      255
102
RTVSPost2010PropOp44
 70
     1
102
RTVSPost2010Prop45
280
     0
102
RTVSPost2010PropOp45
 70
     1
102
RTVSPost2010Prop46
 90
       50
102
RTVSPost2010PropOp46
 70
     1
102
RTVSPost2010Prop47
 90
       50
102
RTVSPost2010PropOp47
 70
     1
102
RTVSPost2010Prop48
 90
       50
102
RTVSPost2010PropOp48
 70
     1
102
RTVSPost2010Prop49
280
     0
102
RTVSPost2010PropOp49
 70
     1
102
RTVSPost2010Prop50
 90
       50
102
RTVSPost2010PropOp50
 70
     1
102
RTVSPost2010Prop51ColorIndex
 90
      256
102
RTVSPost2010Prop51ColorRGB
 90
-16777216
102
RTVSPost2010PropOp51
 70
     0
102
RTVSPost2010Prop52
140
1.0
102
RTVSPost2010PropOp52
 70
     0
102
RTVSPost2010Prop53
 90
        2
102
RTVSPost2010PropOp53
 70
     1
102
RTVSPost2010Prop54
  1
strokes_ogs.tif
102
RTVSPost2010PropOp54
 70
     1
102
RTVSPost2010Prop55
280
     0
102
RTVSPost2010PropOp55
 70
     1
102
RTVSPost2010Prop56
140
1.0
102
RTVSPost2010PropOp56
 70
     1
102
RTVSPost2010Prop57
140
1.0
102
RTVSPost2010PropOp57
 70
     1
102
RTVSPropertyOp0
 70
     1
102
RTVSPropertyOp1
 70
     1
102
RTVSPropertyOp2
 70
     1
102
RTVSPropertyOp3
 70
     1
102
RTVSPropertyOp4
 70
     1
102
RTVSPropertyOp5
 70
     1
102
RTVSPropertyOp6
 70
     1
102
RTVSPropertyOp7
 70
     1
102
RTVSPropertyOp8
 70
     1
102
RTVSPropertyOp9
 70
     1
102
RTVSPropertyOp10
 70
     1
102
RTVSPropertyOp11
 70
     1
102
RTVSPropertyOp12
 70
     1
102
RTVSPropertyOp13
 70
     1
102
RTVSPropertyOp14
 70
     1
102
RTVSPropertyOp15
 70
     1
102
RTVSPropertyOp16
 70
     1
102
RTVSPropertyOp17
 70
     1
102
RTVSPropertyOp18
 70
     1
102
RTVSPropertyOp19
 70
     1
102
RTVSPropertyOp20
 70
     1
102
RTVSPropertyOp21
 70
     1
102
RTVSPropertyOp22
 70
     1
102
RTVSPropertyOp23
 70
     1
102
RTVSPropertyOp24
 70
     1
102
RTVSPropertyOp25
 70
     1
102
RTVSPropertyOp26
 70
     1
102
RTVSPropertyOp27
 70
     1
102
RTVSPropertyOp28
 70
     1
102
RTVSPropertyOp29
 70
     1
102
RTVSPropertyOp30
 70
     1
102
RTVSPropertyOp31
 70
     1
102
RTVSPropertyOp32
 70
     1
102
RTVSPropertyOp33
 70
     1
102
RTVSPropertyOp34
 70
     1
102
RTVSPropertyOp35
 70
     1
102
RTVSPropertyOp36
 70
     1
102
RTVSPropertyOp37
 70
     1
102
RTVSPropertyOp38
 70
     1
102
RTVSPropertyOp39
 70
     1
102
RTVSPropertyOp40
 70
     1
102
RTVSPropertyOp41
 70
     1
102
RTVSPropertyOp42
 70
     1
102
RTVSPropertyOp43
 70
     1
102
RTVSPropertyOp44
 70
     1
102
RTVSPropertyOp45
 70
     1
102
RTVSPropertyOp46
 70
     1
102
RTVSPropertyOp47
 70
     1
102
RTVSPropertyOp48
 70
     1
102
RTVSPropertyOp49
 70
     1
102
RTVSPropertyOp50
 70
     1
102
RTVSPropertyOp51
 70
     0
102
RTVSPropertyOp52
 70
     0
102
RTVSPropertyOp53
 70
     1
102
RTVSPropertyOp54
 70
     1
102
RTVSPropertyOp55
 70
     1
102
RTVSPropertyOp56
 70
     1
102
RTVSPropertyOp57
 70
     1
102
RTVSPropertyOp58
 70
     1
102
RTVSPropertyOp59
 70
     1
102
RTVSPropertyOp60
 70
     1
102
RTVSPropertyOp61
 70
     1
102
RTVSPropertyOp62
 70
     1
  0
XRECORD
  5
A45
102
{ACAD_REACTORS
330
A44
102
}
330
A44
100
AcDbXrecord
280
     1
102
RTVSPost2010Prop28
280
     0
102
RTVSPost2010PropOp28
 70
     1
102
RTVSPost2010Prop29
280
     1
102
RTVSPost2010PropOp29
 70
     1
102
RTVSPost2010Prop30
280
     1
102
RTVSPost2010PropOp30
 70
     1
102
RTVSPost2010Prop31
280
     0
102
RTVSPost2010PropOp31
 70
     1
102
RTVSPost2010Prop32
280
     0
102
RTVSPost2010PropOp32
 70
     1
102
RTVSPost2010Prop33
280
     0
102
RTVSPost2010PropOp33
 70
     1
102
RTVSPost2010Prop34
280
     0
102
RTVSPost2010PropOp34
 70
     1
102
RTVSPost2010Prop35
280
     0
102
RTVSPost2010PropOp35
 70
     1
102
RTVSPost2010Prop36
280
     0
102
RTVSPost2010PropOp36
 70
     1
102
RTVSPost2010Prop37
 90
       50
102
RTVSPost2010PropOp37
 70
     1
102
RTVSPost2010Prop38
140
0.0
102
RTVSPost2010PropOp38
 70
     1
102
RTVSPost2010Prop39
140
1.0
102
RTVSPost2010PropOp39
 70
     1
102
RTVSPost2010Prop40
 90
        0
102
RTVSPost2010PropOp40
 70
     1
102
RTVSPost2010Prop41ColorIndex
 90
       18
102
RTVSPost2010Prop41ColorRGB
 90
        0
102
RTVSPost2010PropOp41
 70
     1
102
RTVSPost2010Prop42
 90
       50
102
RTVSPost2010PropOp42
 70
     1
102
RTVSPost2010Prop43
 90
        3
102
RTVSPost2010PropOp43
 70
     1
102
RTVSPost2010Prop44ColorIndex
 90
        5
102
RTVSPost2010Prop44ColorRGB
 90
      255
102
RTVSPost2010PropOp44
 70
     1
102
RTVSPost2010Prop45
280
     0
102
RTVSPost2010PropOp45
 70
     1
102
RTVSPost2010Prop46
 90
       50
102
RTVSPost2010PropOp46
 70
     1
102
RTVSPost2010Prop47
 90
       50
102
RTVSPost2010PropOp47
 70
     1
102
RTVSPost2010Prop48
 90
       50
102
RTVSPost2010PropOp48
 70
     1
102
RTVSPost2010Prop49
280
     0
102
RTVSPost2010PropOp49
 70
     1
102
RTVSPost2010Prop50
 90
       50
102
RTVSPost2010PropOp50
 70
     1
102
RTVSPost2010Prop51ColorIndex
 90
      256
102
RTVSPost2010Prop51ColorRGB
 90
-16777216
102
RTVSPost2010PropOp51
 70
     0
102
RTVSPost2010Prop52
140
1.0
102
RTVSPost2010PropOp52
 70
     0
102
RTVSPost2010Prop53
 90
        2
102
RTVSPost2010PropOp53
 70
     1
102
RTVSPost2010Prop54
  1
strokes_ogs.tif
102
RTVSPost2010PropOp54
 70
     1
102
RTVSPost2010Prop55
280
     0
102
RTVSPost2010PropOp55
 70
     1
102
RTVSPost2010Prop56
140
1.0
102
RTVSPost2010PropOp56
 70
     1
102
RTVSPost2010Prop57
140
1.0
102
RTVSPost2010PropOp57
 70
     1
102
RTVSPropertyOp0
 70
     1
102
RTVSPropertyOp1
 70
     1
102
RTVSPropertyOp2
 70
     1
102
RTVSPropertyOp3
 70
     1
102
RTVSPropertyOp4
 70
     1
102
RTVSPropertyOp5
 70
     1
102
RTVSPropertyOp6
 70
     1
102
RTVSPropertyOp7
 70
     1
102
RTVSPropertyOp8
 70
     1
102
RTVSPropertyOp9
 70
     1
102
RTVSPropertyOp10
 70
     1
102
RTVSPropertyOp11
 70
     1
102
RTVSPropertyOp12
 70
     1
102
RTVSPropertyOp13
 70
     1
102
RTVSPropertyOp14
 70
     1
102
RTVSPropertyOp15
 70
     1
102
RTVSPropertyOp16
 70
     1
102
RTVSPropertyOp17
 70
     1
102
RTVSPropertyOp18
 70
     1
102
RTVSPropertyOp19
 70
     1
102
RTVSPropertyOp20
 70
     1
102
RTVSPropertyOp21
 70
     1
102
RTVSPropertyOp22
 70
     1
102
RTVSPropertyOp23
 70
     1
102
RTVSPropertyOp24
 70
     1
102
RTVSPropertyOp25
 70
     1
102
RTVSPropertyOp26
 70
     1
102
RTVSPropertyOp27
 70
     1
102
RTVSPropertyOp28
 70
     1
102
RTVSPropertyOp29
 70
     1
102
RTVSPropertyOp30
 70
     1
102
RTVSPropertyOp31
 70
     1
102
RTVSPropertyOp32
 70
     1
102
RTVSPropertyOp33
 70
     1
102
RTVSPropertyOp34
 70
     1
102
RTVSPropertyOp35
 70
     1
102
RTVSPropertyOp36
 70
     1
102
RTVSPropertyOp37
 70
     1
102
RTVSPropertyOp38
 70
     1
102
RTVSPropertyOp39
 70
     1
102
RTVSPropertyOp40
 70
     1
102
RTVSPropertyOp41
 70
     1
102
RTVSPropertyOp42
 70
     1
102
RTVSPropertyOp43
 70
     1
102
RTVSPropertyOp44
 70
     1
102
RTVSPropertyOp45
 70
     1
102
RTVSPropertyOp46
 70
     1
102
RTVSPropertyOp47
 70
     1
102
RTVSPropertyOp48
 70
     1
102
RTVSPropertyOp49
 70
     1
102
RTVSPropertyOp50
 70
     1
102
RTVSPropertyOp51
 70
     0
102
RTVSPropertyOp52
 70
     0
102
RTVSPropertyOp53
 70
     1
102
RTVSPropertyOp54
 70
     1
102
RTVSPropertyOp55
 70
     1
102
RTVSPropertyOp56
 70
     1
102
RTVSPropertyOp57
 70
     1
102
RTVSPropertyOp58
 70
     1
102
RTVSPropertyOp59
 70
     1
102
RTVSPropertyOp60
 70
     1
102
RTVSPropertyOp61
 70
     1
102
RTVSPropertyOp62
 70
     1
  0
XRECORD
  5
A57
102
{ACAD_REACTORS
330
A56
102
}
330
A56
100
AcDbXrecord
280
     1
102
RTVSPost2010Prop28
280
     0
102
RTVSPost2010PropOp28
 70
     1
102
RTVSPost2010Prop29
280
     1
102
RTVSPost2010PropOp29
 70
     1
102
RTVSPost2010Prop30
280
     1
102
RTVSPost2010PropOp30
 70
     1
102
RTVSPost2010Prop31
280
     0
102
RTVSPost2010PropOp31
 70
     1
102
RTVSPost2010Prop32
280
     0
102
RTVSPost2010PropOp32
 70
     1
102
RTVSPost2010Prop33
280
     0
102
RTVSPost2010PropOp33
 70
     1
102
RTVSPost2010Prop34
280
     0
102
RTVSPost2010PropOp34
 70
     1
102
RTVSPost2010Prop35
280
     0
102
RTVSPost2010PropOp35
 70
     1
102
RTVSPost2010Prop36
280
     0
102
RTVSPost2010PropOp36
 70
     1
102
RTVSPost2010Prop37
 90
       50
102
RTVSPost2010PropOp37
 70
     1
102
RTVSPost2010Prop38
140
0.0
102
RTVSPost2010PropOp38
 70
     1
102
RTVSPost2010Prop39
140
1.0
102
RTVSPost2010PropOp39
 70
     1
102
RTVSPost2010Prop40
 90
        0
102
RTVSPost2010PropOp40
 70
     1
102
RTVSPost2010Prop41ColorIndex
 90
       18
102
RTVSPost2010Prop41ColorRGB
 90
        0
102
RTVSPost2010PropOp41
 70
     1
102
RTVSPost2010Prop42
 90
       50
102
RTVSPost2010PropOp42
 70
     1
102
RTVSPost2010Prop43
 90
        3
102
RTVSPost2010PropOp43
 70
     1
102
RTVSPost2010Prop44ColorIndex
 90
        5
102
RTVSPost2010Prop44ColorRGB
 90
      255
102
RTVSPost2010PropOp44
 70
     1
102
RTVSPost2010Prop45
280
     0
102
RTVSPost2010PropOp45
 70
     1
102
RTVSPost2010Prop46
 90
       50
102
RTVSPost2010PropOp46
 70
     1
102
RTVSPost2010Prop47
 90
       50
102
RTVSPost2010PropOp47
 70
     1
102
RTVSPost2010Prop48
 90
       50
102
RTVSPost2010PropOp48
 70
     1
102
RTVSPost2010Prop49
280
     0
102
RTVSPost2010PropOp49
 70
     1
102
RTVSPost2010Prop50
 90
       50
102
RTVSPost2010PropOp50
 70
     1
102
RTVSPost2010Prop51ColorIndex
 90
      256
102
RTVSPost2010Prop51ColorRGB
 90
-16777216
102
RTVSPost2010PropOp51
 70
     0
102
RTVSPost2010Prop52
140
1.0
102
RTVSPost2010PropOp52
 70
     0
102
RTVSPost2010Prop53
 90
        2
102
RTVSPost2010PropOp53
 70
     1
102
RTVSPost2010Prop54
  1
strokes_ogs.tif
102
RTVSPost2010PropOp54
 70
     1
102
RTVSPost2010Prop55
280
     0
102
RTVSPost2010PropOp55
 70
     1
102
RTVSPost2010Prop56
140
1.0
102
RTVSPost2010PropOp56
 70
     1
102
RTVSPost2010Prop57
140
1.0
102
RTVSPost2010PropOp57
 70
     1
102
RTVSPropertyOp0
 70
     0
102
RTVSPropertyOp1
 70
     0
102
RTVSPropertyOp2
 70
     0
102
RTVSPropertyOp3
 70
     0
102
RTVSPropertyOp4
 70
     0
102
RTVSPropertyOp5
 70
     0
102
RTVSPropertyOp6
 70
     0
102
RTVSPropertyOp7
 70
     0
102
RTVSPropertyOp8
 70
     0
102
RTVSPropertyOp9
 70
     0
102
RTVSPropertyOp10
 70
     0
102
RTVSPropertyOp11
 70
     0
102
RTVSPropertyOp12
 70
     0
102
RTVSPropertyOp13
 70
     0
102
RTVSPropertyOp14
 70
     2
102
RTVSPropertyOp15
 70
     0
102
RTVSPropertyOp16
 70
     0
102
RTVSPropertyOp17
 70
     0
102
RTVSPropertyOp18
 70
     0
102
RTVSPropertyOp19
 70
     0
102
RTVSPropertyOp20
 70
     0
102
RTVSPropertyOp21
 70
     0
102
RTVSPropertyOp22
 70
     0
102
RTVSPropertyOp23
 70
     0
102
RTVSPropertyOp24
 70
     0
102
RTVSPropertyOp25
 70
     0
102
RTVSPropertyOp26
 70
     0
102
RTVSPropertyOp27
 70
     0
102
RTVSPropertyOp28
 70
     1
102
RTVSPropertyOp29
 70
     1
102
RTVSPropertyOp30
 70
     1
102
RTVSPropertyOp31
 70
     1
102
RTVSPropertyOp32
 70
     1
102
RTVSPropertyOp33
 70
     1
102
RTVSPropertyOp34
 70
     1
102
RTVSPropertyOp35
 70
     1
102
RTVSPropertyOp36
 70
     1
102
RTVSPropertyOp37
 70
     1
102
RTVSPropertyOp38
 70
     1
102
RTVSPropertyOp39
 70
     1
102
RTVSPropertyOp40
 70
     1
102
RTVSPropertyOp41
 70
     1
102
RTVSPropertyOp42
 70
     1
102
RTVSPropertyOp43
 70
     1
102
RTVSPropertyOp44
 70
     1
102
RTVSPropertyOp45
 70
     1
102
RTVSPropertyOp46
 70
     1
102
RTVSPropertyOp47
 70
     1
102
RTVSPropertyOp48
 70
     1
102
RTVSPropertyOp49
 70
     1
102
RTVSPropertyOp50
 70
     1
102
RTVSPropertyOp51
 70
     0
102
RTVSPropertyOp52
 70
     0
102
RTVSPropertyOp53
 70
     1
102
RTVSPropertyOp54
 70
     1
102
RTVSPropertyOp55
 70
     1
102
RTVSPropertyOp56
 70
     1
102
RTVSPropertyOp57
 70
     1
102
RTVSPropertyOp58
 70
     1
102
RTVSPropertyOp59
 70
     1
102
RTVSPropertyOp60
 70
     1
102
RTVSPropertyOp61
 70
     1
102
RTVSPropertyOp62
 70
     1
  0
XRECORD
  5
A4D
102
{ACAD_REACTORS
330
A4C
102
}
330
A4C
100
AcDbXrecord
280
     1
102
RTVSPost2010Prop28
280
     0
102
RTVSPost2010PropOp28
 70
     1
102
RTVSPost2010Prop29
280
     1
102
RTVSPost2010PropOp29
 70
     1
102
RTVSPost2010Prop30
280
     1
102
RTVSPost2010PropOp30
 70
     1
102
RTVSPost2010Prop31
280
     0
102
RTVSPost2010PropOp31
 70
     1
102
RTVSPost2010Prop32
280
     0
102
RTVSPost2010PropOp32
 70
     1
102
RTVSPost2010Prop33
280
     0
102
RTVSPost2010PropOp33
 70
     1
102
RTVSPost2010Prop34
280
     0
102
RTVSPost2010PropOp34
 70
     1
102
RTVSPost2010Prop35
280
     0
102
RTVSPost2010PropOp35
 70
     1
102
RTVSPost2010Prop36
280
     0
102
RTVSPost2010PropOp36
 70
     1
102
RTVSPost2010Prop37
 90
       50
102
RTVSPost2010PropOp37
 70
     1
102
RTVSPost2010Prop38
140
0.0
102
RTVSPost2010PropOp38
 70
     1
102
RTVSPost2010Prop39
140
1.0
102
RTVSPost2010PropOp39
 70
     1
102
RTVSPost2010Prop40
 90
        0
102
RTVSPost2010PropOp40
 70
     1
102
RTVSPost2010Prop41ColorIndex
 90
       18
102
RTVSPost2010Prop41ColorRGB
 90
        0
102
RTVSPost2010PropOp41
 70
     1
102
RTVSPost2010Prop42
 90
       50
102
RTVSPost2010PropOp42
 70
     1
102
RTVSPost2010Prop43
 90
        3
102
RTVSPost2010PropOp43
 70
     1
102
RTVSPost2010Prop44ColorIndex
 90
        5
102
RTVSPost2010Prop44ColorRGB
 90
      255
102
RTVSPost2010PropOp44
 70
     1
102
RTVSPost2010Prop45
280
     0
102
RTVSPost2010PropOp45
 70
     1
102
RTVSPost2010Prop46
 90
       50
102
RTVSPost2010PropOp46
 70
     1
102
RTVSPost2010Prop47
 90
       50
102
RTVSPost2010PropOp47
 70
     1
102
RTVSPost2010Prop48
 90
       50
102
RTVSPost2010PropOp48
 70
     1
102
RTVSPost2010Prop49
280
     0
102
RTVSPost2010PropOp49
 70
     1
102
RTVSPost2010Prop50
 90
       50
102
RTVSPost2010PropOp50
 70
     1
102
RTVSPost2010Prop51ColorIndex
 90
      256
102
RTVSPost2010Prop51ColorRGB
 90
-16777216
102
RTVSPost2010PropOp51
 70
     0
102
RTVSPost2010Prop52
140
1.0
102
RTVSPost2010PropOp52
 70
     0
102
RTVSPost2010Prop53
 90
        2
102
RTVSPost2010PropOp53
 70
     1
102
RTVSPost2010Prop54
  1
strokes_ogs.tif
102
RTVSPost2010PropOp54
 70
     1
102
RTVSPost2010Prop55
280
     0
102
RTVSPost2010PropOp55
 70
     1
102
RTVSPost2010Prop56
140
1.0
102
RTVSPost2010PropOp56
 70
     1
102
RTVSPost2010Prop57
140
1.0
102
RTVSPost2010PropOp57
 70
     1
102
RTVSPropertyOp0
 70
     1
102
RTVSPropertyOp1
 70
     1
102
RTVSPropertyOp2
 70
     1
102
RTVSPropertyOp3
 70
     1
102
RTVSPropertyOp4
 70
     1
102
RTVSPropertyOp5
 70
     1
102
RTVSPropertyOp6
 70
     1
102
RTVSPropertyOp7
 70
     1
102
RTVSPropertyOp8
 70
     1
102
RTVSPropertyOp9
 70
     1
102
RTVSPropertyOp10
 70
     1
102
RTVSPropertyOp11
 70
     1
102
RTVSPropertyOp12
 70
     1
102
RTVSPropertyOp13
 70
     1
102
RTVSPropertyOp14
 70
     1
102
RTVSPropertyOp15
 70
     1
102
RTVSPropertyOp16
 70
     1
102
RTVSPropertyOp17
 70
     1
102
RTVSPropertyOp18
 70
     1
102
RTVSPropertyOp19
 70
     1
102
RTVSPropertyOp20
 70
     1
102
RTVSPropertyOp21
 70
     1
102
RTVSPropertyOp22
 70
     1
102
RTVSPropertyOp23
 70
     1
102
RTVSPropertyOp24
 70
     1
102
RTVSPropertyOp25
 70
     1
102
RTVSPropertyOp26
 70
     1
102
RTVSPropertyOp27
 70
     1
102
RTVSPropertyOp28
 70
     1
102
RTVSPropertyOp29
 70
     1
102
RTVSPropertyOp30
 70
     1
102
RTVSPropertyOp31
 70
     1
102
RTVSPropertyOp32
 70
     1
102
RTVSPropertyOp33
 70
     1
102
RTVSPropertyOp34
 70
     1
102
RTVSPropertyOp35
 70
     1
102
RTVSPropertyOp36
 70
     1
102
RTVSPropertyOp37
 70
     1
102
RTVSPropertyOp38
 70
     1
102
RTVSPropertyOp39
 70
     1
102
RTVSPropertyOp40
 70
     1
102
RTVSPropertyOp41
 70
     1
102
RTVSPropertyOp42
 70
     1
102
RTVSPropertyOp43
 70
     1
102
RTVSPropertyOp44
 70
     1
102
RTVSPropertyOp45
 70
     1
102
RTVSPropertyOp46
 70
     1
102
RTVSPropertyOp47
 70
     1
102
RTVSPropertyOp48
 70
     1
102
RTVSPropertyOp49
 70
     1
102
RTVSPropertyOp50
 70
     1
102
RTVSPropertyOp51
 70
     0
102
RTVSPropertyOp52
 70
     0
102
RTVSPropertyOp53
 70
     1
102
RTVSPropertyOp54
 70
     1
102
RTVSPropertyOp55
 70
     1
102
RTVSPropertyOp56
 70
     1
102
RTVSPropertyOp57
 70
     1
102
RTVSPropertyOp58
 70
     1
102
RTVSPropertyOp59
 70
     1
102
RTVSPropertyOp60
 70
     1
102
RTVSPropertyOp61
 70
     1
102
RTVSPropertyOp62
 70
     1
  0
XRECORD
  5
A31
102
{ACAD_REACTORS
330
A30
102
}
330
A30
100
AcDbXrecord
280
     1
102
RTVSPost2010Prop28
280
     0
102
RTVSPost2010PropOp28
 70
     1
102
RTVSPost2010Prop29
280
     1
102
RTVSPost2010PropOp29
 70
     1
102
RTVSPost2010Prop30
280
     1
102
RTVSPost2010PropOp30
 70
     1
102
RTVSPost2010Prop31
280
     0
102
RTVSPost2010PropOp31
 70
     1
102
RTVSPost2010Prop32
280
     0
102
RTVSPost2010PropOp32
 70
     1
102
RTVSPost2010Prop33
280
     0
102
RTVSPost2010PropOp33
 70
     1
102
RTVSPost2010Prop34
280
     0
102
RTVSPost2010PropOp34
 70
     1
102
RTVSPost2010Prop35
280
     0
102
RTVSPost2010PropOp35
 70
     1
102
RTVSPost2010Prop36
280
     0
102
RTVSPost2010PropOp36
 70
     1
102
RTVSPost2010Prop37
 90
       50
102
RTVSPost2010PropOp37
 70
     1
102
RTVSPost2010Prop38
140
0.0
102
RTVSPost2010PropOp38
 70
     1
102
RTVSPost2010Prop39
140
1.0
102
RTVSPost2010PropOp39
 70
     1
102
RTVSPost2010Prop40
 90
        0
102
RTVSPost2010PropOp40
 70
     1
102
RTVSPost2010Prop41ColorIndex
 90
       18
102
RTVSPost2010Prop41ColorRGB
 90
        0
102
RTVSPost2010PropOp41
 70
     1
102
RTVSPost2010Prop42
 90
       50
102
RTVSPost2010PropOp42
 70
     1
102
RTVSPost2010Prop43
 90
        3
102
RTVSPost2010PropOp43
 70
     1
102
RTVSPost2010Prop44ColorIndex
 90
        5
102
RTVSPost2010Prop44ColorRGB
 90
      255
102
RTVSPost2010PropOp44
 70
     1
102
RTVSPost2010Prop45
280
     0
102
RTVSPost2010PropOp45
 70
     1
102
RTVSPost2010Prop46
 90
       50
102
RTVSPost2010PropOp46
 70
     1
102
RTVSPost2010Prop47
 90
       50
102
RTVSPost2010PropOp47
 70
     1
102
RTVSPost2010Prop48
 90
       50
102
RTVSPost2010PropOp48
 70
     1
102
RTVSPost2010Prop49
280
     0
102
RTVSPost2010PropOp49
 70
     1
102
RTVSPost2010Prop50
 90
       50
102
RTVSPost2010PropOp50
 70
     1
102
RTVSPost2010Prop51ColorIndex
 90
      256
102
RTVSPost2010Prop51ColorRGB
 90
-16777216
102
RTVSPost2010PropOp51
 70
     0
102
RTVSPost2010Prop52
140
1.0
102
RTVSPost2010PropOp52
 70
     0
102
RTVSPost2010Prop53
 90
        2
102
RTVSPost2010PropOp53
 70
     1
102
RTVSPost2010Prop54
  1
strokes_ogs.tif
102
RTVSPost2010PropOp54
 70
     1
102
RTVSPost2010Prop55
280
     0
102
RTVSPost2010PropOp55
 70
     1
102
RTVSPost2010Prop56
140
1.0
102
RTVSPost2010PropOp56
 70
     1
102
RTVSPost2010Prop57
140
1.0
102
RTVSPost2010PropOp57
 70
     1
102
RTVSPropertyOp0
 70
     1
102
RTVSPropertyOp1
 70
     1
102
RTVSPropertyOp2
 70
     1
102
RTVSPropertyOp3
 70
     1
102
RTVSPropertyOp4
 70
     1
102
RTVSPropertyOp5
 70
     1
102
RTVSPropertyOp6
 70
     1
102
RTVSPropertyOp7
 70
     1
102
RTVSPropertyOp8
 70
     1
102
RTVSPropertyOp9
 70
     1
102
RTVSPropertyOp10
 70
     1
102
RTVSPropertyOp11
 70
     1
102
RTVSPropertyOp12
 70
     1
102
RTVSPropertyOp13
 70
     1
102
RTVSPropertyOp14
 70
     1
102
RTVSPropertyOp15
 70
     1
102
RTVSPropertyOp16
 70
     1
102
RTVSPropertyOp17
 70
     1
102
RTVSPropertyOp18
 70
     1
102
RTVSPropertyOp19
 70
     1
102
RTVSPropertyOp20
 70
     1
102
RTVSPropertyOp21
 70
     1
102
RTVSPropertyOp22
 70
     1
102
RTVSPropertyOp23
 70
     1
102
RTVSPropertyOp24
 70
     1
102
RTVSPropertyOp25
 70
     1
102
RTVSPropertyOp26
 70
     1
102
RTVSPropertyOp27
 70
     1
102
RTVSPropertyOp28
 70
     1
102
RTVSPropertyOp29
 70
     1
102
RTVSPropertyOp30
 70
     1
102
RTVSPropertyOp31
 70
     1
102
RTVSPropertyOp32
 70
     1
102
RTVSPropertyOp33
 70
     1
102
RTVSPropertyOp34
 70
     1
102
RTVSPropertyOp35
 70
     1
102
RTVSPropertyOp36
 70
     1
102
RTVSPropertyOp37
 70
     1
102
RTVSPropertyOp38
 70
     1
102
RTVSPropertyOp39
 70
     1
102
RTVSPropertyOp40
 70
     1
102
RTVSPropertyOp41
 70
     1
102
RTVSPropertyOp42
 70
     1
102
RTVSPropertyOp43
 70
     1
102
RTVSPropertyOp44
 70
     1
102
RTVSPropertyOp45
 70
     1
102
RTVSPropertyOp46
 70
     1
102
RTVSPropertyOp47
 70
     1
102
RTVSPropertyOp48
 70
     1
102
RTVSPropertyOp49
 70
     1
102
RTVSPropertyOp50
 70
     1
102
RTVSPropertyOp51
 70
     0
102
RTVSPropertyOp52
 70
     0
102
RTVSPropertyOp53
 70
     1
102
RTVSPropertyOp54
 70
     1
102
RTVSPropertyOp55
 70
     1
102
RTVSPropertyOp56
 70
     1
102
RTVSPropertyOp57
 70
     1
102
RTVSPropertyOp58
 70
     1
102
RTVSPropertyOp59
 70
     1
102
RTVSPropertyOp60
 70
     1
102
RTVSPropertyOp61
 70
     1
102
RTVSPropertyOp62
 70
     1
  0
XRECORD
  5
A33
102
{ACAD_REACTORS
330
A32
102
}
330
A32
100
AcDbXrecord
280
     1
102
RTVSPost2010Prop28
280
     0
102
RTVSPost2010PropOp28
 70
     1
102
RTVSPost2010Prop29
280
     1
102
RTVSPost2010PropOp29
 70
     1
102
RTVSPost2010Prop30
280
     1
102
RTVSPost2010PropOp30
 70
     1
102
RTVSPost2010Prop31
280
     0
102
RTVSPost2010PropOp31
 70
     1
102
RTVSPost2010Prop32
280
     0
102
RTVSPost2010PropOp32
 70
     1
102
RTVSPost2010Prop33
280
     0
102
RTVSPost2010PropOp33
 70
     1
102
RTVSPost2010Prop34
280
     0
102
RTVSPost2010PropOp34
 70
     1
102
RTVSPost2010Prop35
280
     0
102
RTVSPost2010PropOp35
 70
     1
102
RTVSPost2010Prop36
280
     0
102
RTVSPost2010PropOp36
 70
     1
102
RTVSPost2010Prop37
 90
       50
102
RTVSPost2010PropOp37
 70
     1
102
RTVSPost2010Prop38
140
0.0
102
RTVSPost2010PropOp38
 70
     1
102
RTVSPost2010Prop39
140
1.0
102
RTVSPost2010PropOp39
 70
     1
102
RTVSPost2010Prop40
 90
        0
102
RTVSPost2010PropOp40
 70
     1
102
RTVSPost2010Prop41ColorIndex
 90
       18
102
RTVSPost2010Prop41ColorRGB
 90
        0
102
RTVSPost2010PropOp41
 70
     1
102
RTVSPost2010Prop42
 90
       50
102
RTVSPost2010PropOp42
 70
     1
102
RTVSPost2010Prop43
 90
        3
102
RTVSPost2010PropOp43
 70
     1
102
RTVSPost2010Prop44ColorIndex
 90
        5
102
RTVSPost2010Prop44ColorRGB
 90
      255
102
RTVSPost2010PropOp44
 70
     1
102
RTVSPost2010Prop45
280
     0
102
RTVSPost2010PropOp45
 70
     1
102
RTVSPost2010Prop46
 90
       50
102
RTVSPost2010PropOp46
 70
     1
102
RTVSPost2010Prop47
 90
       50
102
RTVSPost2010PropOp47
 70
     1
102
RTVSPost2010Prop48
 90
       50
102
RTVSPost2010PropOp48
 70
     1
102
RTVSPost2010Prop49
280
     0
102
RTVSPost2010PropOp49
 70
     1
102
RTVSPost2010Prop50
 90
       50
102
RTVSPost2010PropOp50
 70
     1
102
RTVSPost2010Prop51ColorIndex
 90
      256
102
RTVSPost2010Prop51ColorRGB
 90
-16777216
102
RTVSPost2010PropOp51
 70
     0
102
RTVSPost2010Prop52
140
1.0
102
RTVSPost2010PropOp52
 70
     0
102
RTVSPost2010Prop53
 90
        2
102
RTVSPost2010PropOp53
 70
     1
102
RTVSPost2010Prop54
  1
strokes_ogs.tif
102
RTVSPost2010PropOp54
 70
     1
102
RTVSPost2010Prop55
280
     0
102
RTVSPost2010PropOp55
 70
     1
102
RTVSPost2010Prop56
140
1.0
102
RTVSPost2010PropOp56
 70
     1
102
RTVSPost2010Prop57
140
1.0
102
RTVSPost2010PropOp57
 70
     1
102
RTVSPropertyOp0
 70
     1
102
RTVSPropertyOp1
 70
     1
102
RTVSPropertyOp2
 70
     1
102
RTVSPropertyOp3
 70
     1
102
RTVSPropertyOp4
 70
     1
102
RTVSPropertyOp5
 70
     1
102
RTVSPropertyOp6
 70
     1
102
RTVSPropertyOp7
 70
     1
102
RTVSPropertyOp8
 70
     1
102
RTVSPropertyOp9
 70
     1
102
RTVSPropertyOp10
 70
     1
102
RTVSPropertyOp11
 70
     1
102
RTVSPropertyOp12
 70
     1
102
RTVSPropertyOp13
 70
     1
102
RTVSPropertyOp14
 70
     1
102
RTVSPropertyOp15
 70
     1
102
RTVSPropertyOp16
 70
     1
102
RTVSPropertyOp17
 70
     1
102
RTVSPropertyOp18
 70
     1
102
RTVSPropertyOp19
 70
     1
102
RTVSPropertyOp20
 70
     1
102
RTVSPropertyOp21
 70
     1
102
RTVSPropertyOp22
 70
     1
102
RTVSPropertyOp23
 70
     1
102
RTVSPropertyOp24
 70
     1
102
RTVSPropertyOp25
 70
     1
102
RTVSPropertyOp26
 70
     1
102
RTVSPropertyOp27
 70
     1
102
RTVSPropertyOp28
 70
     1
102
RTVSPropertyOp29
 70
     1
102
RTVSPropertyOp30
 70
     1
102
RTVSPropertyOp31
 70
     1
102
RTVSPropertyOp32
 70
     1
102
RTVSPropertyOp33
 70
     1
102
RTVSPropertyOp34
 70
     1
102
RTVSPropertyOp35
 70
     1
102
RTVSPropertyOp36
 70
     1
102
RTVSPropertyOp37
 70
     1
102
RTVSPropertyOp38
 70
     1
102
RTVSPropertyOp39
 70
     1
102
RTVSPropertyOp40
 70
     1
102
RTVSPropertyOp41
 70
     1
102
RTVSPropertyOp42
 70
     1
102
RTVSPropertyOp43
 70
     1
102
RTVSPropertyOp44
 70
     1
102
RTVSPropertyOp45
 70
     1
102
RTVSPropertyOp46
 70
     1
102
RTVSPropertyOp47
 70
     1
102
RTVSPropertyOp48
 70
     1
102
RTVSPropertyOp49
 70
     1
102
RTVSPropertyOp50
 70
     1
102
RTVSPropertyOp51
 70
     0
102
RTVSPropertyOp52
 70
     0
102
RTVSPropertyOp53
 70
     1
102
RTVSPropertyOp54
 70
     1
102
RTVSPropertyOp55
 70
     1
102
RTVSPropertyOp56
 70
     1
102
RTVSPropertyOp57
 70
     1
102
RTVSPropertyOp58
 70
     1
102
RTVSPropertyOp59
 70
     1
102
RTVSPropertyOp60
 70
     1
102
RTVSPropertyOp61
 70
     1
102
RTVSPropertyOp62
 70
     1
  0
XRECORD
  5
A35
102
{ACAD_REACTORS
330
A34
102
}
330
A34
100
AcDbXrecord
280
     1
102
RTVSPost2010Prop28
280
     0
102
RTVSPost2010PropOp28
 70
     1
102
RTVSPost2010Prop29
280
     1
102
RTVSPost2010PropOp29
 70
     1
102
RTVSPost2010Prop30
280
     1
102
RTVSPost2010PropOp30
 70
     1
102
RTVSPost2010Prop31
280
     0
102
RTVSPost2010PropOp31
 70
     1
102
RTVSPost2010Prop32
280
     0
102
RTVSPost2010PropOp32
 70
     1
102
RTVSPost2010Prop33
280
     0
102
RTVSPost2010PropOp33
 70
     1
102
RTVSPost2010Prop34
280
     0
102
RTVSPost2010PropOp34
 70
     1
102
RTVSPost2010Prop35
280
     0
102
RTVSPost2010PropOp35
 70
     1
102
RTVSPost2010Prop36
280
     0
102
RTVSPost2010PropOp36
 70
     1
102
RTVSPost2010Prop37
 90
       50
102
RTVSPost2010PropOp37
 70
     1
102
RTVSPost2010Prop38
140
0.0
102
RTVSPost2010PropOp38
 70
     1
102
RTVSPost2010Prop39
140
1.0
102
RTVSPost2010PropOp39
 70
     1
102
RTVSPost2010Prop40
 90
        0
102
RTVSPost2010PropOp40
 70
     1
102
RTVSPost2010Prop41ColorIndex
 90
       18
102
RTVSPost2010Prop41ColorRGB
 90
        0
102
RTVSPost2010PropOp41
 70
     1
102
RTVSPost2010Prop42
 90
       50
102
RTVSPost2010PropOp42
 70
     1
102
RTVSPost2010Prop43
 90
        3
102
RTVSPost2010PropOp43
 70
     1
102
RTVSPost2010Prop44ColorIndex
 90
        5
102
RTVSPost2010Prop44ColorRGB
 90
      255
102
RTVSPost2010PropOp44
 70
     1
102
RTVSPost2010Prop45
280
     0
102
RTVSPost2010PropOp45
 70
     1
102
RTVSPost2010Prop46
 90
       50
102
RTVSPost2010PropOp46
 70
     1
102
RTVSPost2010Prop47
 90
       50
102
RTVSPost2010PropOp47
 70
     1
102
RTVSPost2010Prop48
 90
       50
102
RTVSPost2010PropOp48
 70
     1
102
RTVSPost2010Prop49
280
     0
102
RTVSPost2010PropOp49
 70
     1
102
RTVSPost2010Prop50
 90
       50
102
RTVSPost2010PropOp50
 70
     1
102
RTVSPost2010Prop51ColorIndex
 90
      256
102
RTVSPost2010Prop51ColorRGB
 90
-16777216
102
RTVSPost2010PropOp51
 70
     0
102
RTVSPost2010Prop52
140
1.0
102
RTVSPost2010PropOp52
 70
     0
102
RTVSPost2010Prop53
 90
        2
102
RTVSPost2010PropOp53
 70
     1
102
RTVSPost2010Prop54
  1
strokes_ogs.tif
102
RTVSPost2010PropOp54
 70
     1
102
RTVSPost2010Prop55
280
     0
102
RTVSPost2010PropOp55
 70
     1
102
RTVSPost2010Prop56
140
1.0
102
RTVSPost2010PropOp56
 70
     1
102
RTVSPost2010Prop57
140
1.0
102
RTVSPost2010PropOp57
 70
     1
102
RTVSPropertyOp0
 70
     1
102
RTVSPropertyOp1
 70
     1
102
RTVSPropertyOp2
 70
     1
102
RTVSPropertyOp3
 70
     1
102
RTVSPropertyOp4
 70
     1
102
RTVSPropertyOp5
 70
     1
102
RTVSPropertyOp6
 70
     1
102
RTVSPropertyOp7
 70
     1
102
RTVSPropertyOp8
 70
     1
102
RTVSPropertyOp9
 70
     1
102
RTVSPropertyOp10
 70
     1
102
RTVSPropertyOp11
 70
     1
102
RTVSPropertyOp12
 70
     1
102
RTVSPropertyOp13
 70
     1
102
RTVSPropertyOp14
 70
     1
102
RTVSPropertyOp15
 70
     1
102
RTVSPropertyOp16
 70
     1
102
RTVSPropertyOp17
 70
     1
102
RTVSPropertyOp18
 70
     1
102
RTVSPropertyOp19
 70
     1
102
RTVSPropertyOp20
 70
     1
102
RTVSPropertyOp21
 70
     1
102
RTVSPropertyOp22
 70
     1
102
RTVSPropertyOp23
 70
     1
102
RTVSPropertyOp24
 70
     1
102
RTVSPropertyOp25
 70
     1
102
RTVSPropertyOp26
 70
     1
102
RTVSPropertyOp27
 70
     1
102
RTVSPropertyOp28
 70
     1
102
RTVSPropertyOp29
 70
     1
102
RTVSPropertyOp30
 70
     1
102
RTVSPropertyOp31
 70
     1
102
RTVSPropertyOp32
 70
     1
102
RTVSPropertyOp33
 70
     1
102
RTVSPropertyOp34
 70
     1
102
RTVSPropertyOp35
 70
     1
102
RTVSPropertyOp36
 70
     1
102
RTVSPropertyOp37
 70
     1
102
RTVSPropertyOp38
 70
     1
102
RTVSPropertyOp39
 70
     1
102
RTVSPropertyOp40
 70
     1
102
RTVSPropertyOp41
 70
     1
102
RTVSPropertyOp42
 70
     1
102
RTVSPropertyOp43
 70
     1
102
RTVSPropertyOp44
 70
     1
102
RTVSPropertyOp45
 70
     1
102
RTVSPropertyOp46
 70
     1
102
RTVSPropertyOp47
 70
     1
102
RTVSPropertyOp48
 70
     1
102
RTVSPropertyOp49
 70
     1
102
RTVSPropertyOp50
 70
     1
102
RTVSPropertyOp51
 70
     0
102
RTVSPropertyOp52
 70
     0
102
RTVSPropertyOp53
 70
     1
102
RTVSPropertyOp54
 70
     1
102
RTVSPropertyOp55
 70
     1
102
RTVSPropertyOp56
 70
     1
102
RTVSPropertyOp57
 70
     1
102
RTVSPropertyOp58
 70
     1
102
RTVSPropertyOp59
 70
     1
102
RTVSPropertyOp60
 70
     1
102
RTVSPropertyOp61
 70
     1
102
RTVSPropertyOp62
 70
     1
  0
XRECORD
  5
A37
102
{ACAD_REACTORS
330
A36
102
}
330
A36
100
AcDbXrecord
280
     1
102
RTVSPost2010Prop28
280
     0
102
RTVSPost2010PropOp28
 70
     1
102
RTVSPost2010Prop29
280
     1
102
RTVSPost2010PropOp29
 70
     1
102
RTVSPost2010Prop30
280
     1
102
RTVSPost2010PropOp30
 70
     1
102
RTVSPost2010Prop31
280
     0
102
RTVSPost2010PropOp31
 70
     1
102
RTVSPost2010Prop32
280
     0
102
RTVSPost2010PropOp32
 70
     1
102
RTVSPost2010Prop33
280
     0
102
RTVSPost2010PropOp33
 70
     1
102
RTVSPost2010Prop34
280
     0
102
RTVSPost2010PropOp34
 70
     1
102
RTVSPost2010Prop35
280
     0
102
RTVSPost2010PropOp35
 70
     1
102
RTVSPost2010Prop36
280
     0
102
RTVSPost2010PropOp36
 70
     1
102
RTVSPost2010Prop37
 90
       50
102
RTVSPost2010PropOp37
 70
     1
102
RTVSPost2010Prop38
140
0.0
102
RTVSPost2010PropOp38
 70
     1
102
RTVSPost2010Prop39
140
1.0
102
RTVSPost2010PropOp39
 70
     1
102
RTVSPost2010Prop40
 90
        0
102
RTVSPost2010PropOp40
 70
     1
102
RTVSPost2010Prop41ColorIndex
 90
       18
102
RTVSPost2010Prop41ColorRGB
 90
        0
102
RTVSPost2010PropOp41
 70
     1
102
RTVSPost2010Prop42
 90
       50
102
RTVSPost2010PropOp42
 70
     1
102
RTVSPost2010Prop43
 90
        3
102
RTVSPost2010PropOp43
 70
     1
102
RTVSPost2010Prop44ColorIndex
 90
        5
102
RTVSPost2010Prop44ColorRGB
 90
      255
102
RTVSPost2010PropOp44
 70
     1
102
RTVSPost2010Prop45
280
     0
102
RTVSPost2010PropOp45
 70
     1
102
RTVSPost2010Prop46
 90
       50
102
RTVSPost2010PropOp46
 70
     1
102
RTVSPost2010Prop47
 90
       50
102
RTVSPost2010PropOp47
 70
     1
102
RTVSPost2010Prop48
 90
       50
102
RTVSPost2010PropOp48
 70
     1
102
RTVSPost2010Prop49
280
     0
102
RTVSPost2010PropOp49
 70
     1
102
RTVSPost2010Prop50
 90
       50
102
RTVSPost2010PropOp50
 70
     1
102
RTVSPost2010Prop51ColorIndex
 90
      256
102
RTVSPost2010Prop51ColorRGB
 90
-16777216
102
RTVSPost2010PropOp51
 70
     0
102
RTVSPost2010Prop52
140
1.0
102
RTVSPost2010PropOp52
 70
     0
102
RTVSPost2010Prop53
 90
        2
102
RTVSPost2010PropOp53
 70
     1
102
RTVSPost2010Prop54
  1
strokes_ogs.tif
102
RTVSPost2010PropOp54
 70
     1
102
RTVSPost2010Prop55
280
     0
102
RTVSPost2010PropOp55
 70
     1
102
RTVSPost2010Prop56
140
1.0
102
RTVSPost2010PropOp56
 70
     1
102
RTVSPost2010Prop57
140
1.0
102
RTVSPost2010PropOp57
 70
     1
102
RTVSPropertyOp0
 70
     1
102
RTVSPropertyOp1
 70
     1
102
RTVSPropertyOp2
 70
     1
102
RTVSPropertyOp3
 70
     1
102
RTVSPropertyOp4
 70
     1
102
RTVSPropertyOp5
 70
     1
102
RTVSPropertyOp6
 70
     1
102
RTVSPropertyOp7
 70
     1
102
RTVSPropertyOp8
 70
     1
102
RTVSPropertyOp9
 70
     1
102
RTVSPropertyOp10
 70
     1
102
RTVSPropertyOp11
 70
     1
102
RTVSPropertyOp12
 70
     1
102
RTVSPropertyOp13
 70
     1
102
RTVSPropertyOp14
 70
     1
102
RTVSPropertyOp15
 70
     1
102
RTVSPropertyOp16
 70
     1
102
RTVSPropertyOp17
 70
     1
102
RTVSPropertyOp18
 70
     1
102
RTVSPropertyOp19
 70
     1
102
RTVSPropertyOp20
 70
     1
102
RTVSPropertyOp21
 70
     1
102
RTVSPropertyOp22
 70
     1
102
RTVSPropertyOp23
 70
     1
102
RTVSPropertyOp24
 70
     1
102
RTVSPropertyOp25
 70
     1
102
RTVSPropertyOp26
 70
     1
102
RTVSPropertyOp27
 70
     1
102
RTVSPropertyOp28
 70
     1
102
RTVSPropertyOp29
 70
     1
102
RTVSPropertyOp30
 70
     1
102
RTVSPropertyOp31
 70
     1
102
RTVSPropertyOp32
 70
     1
102
RTVSPropertyOp33
 70
     1
102
RTVSPropertyOp34
 70
     1
102
RTVSPropertyOp35
 70
     1
102
RTVSPropertyOp36
 70
     1
102
RTVSPropertyOp37
 70
     1
102
RTVSPropertyOp38
 70
     1
102
RTVSPropertyOp39
 70
     1
102
RTVSPropertyOp40
 70
     1
102
RTVSPropertyOp41
 70
     1
102
RTVSPropertyOp42
 70
     1
102
RTVSPropertyOp43
 70
     1
102
RTVSPropertyOp44
 70
     1
102
RTVSPropertyOp45
 70
     1
102
RTVSPropertyOp46
 70
     1
102
RTVSPropertyOp47
 70
     1
102
RTVSPropertyOp48
 70
     1
102
RTVSPropertyOp49
 70
     1
102
RTVSPropertyOp50
 70
     1
102
RTVSPropertyOp51
 70
     0
102
RTVSPropertyOp52
 70
     0
102
RTVSPropertyOp53
 70
     1
102
RTVSPropertyOp54
 70
     1
102
RTVSPropertyOp55
 70
     1
102
RTVSPropertyOp56
 70
     1
102
RTVSPropertyOp57
 70
     1
102
RTVSPropertyOp58
 70
     1
102
RTVSPropertyOp59
 70
     1
102
RTVSPropertyOp60
 70
     1
102
RTVSPropertyOp61
 70
     1
102
RTVSPropertyOp62
 70
     1
  0
XRECORD
  5
A3F
102
{ACAD_REACTORS
330
A3E
102
}
330
A3E
100
AcDbXrecord
280
     1
102
RTVSPost2010Prop28
280
     0
102
RTVSPost2010PropOp28
 70
     1
102
RTVSPost2010Prop29
280
     1
102
RTVSPost2010PropOp29
 70
     1
102
RTVSPost2010Prop30
280
     1
102
RTVSPost2010PropOp30
 70
     1
102
RTVSPost2010Prop31
280
     0
102
RTVSPost2010PropOp31
 70
     1
102
RTVSPost2010Prop32
280
     0
102
RTVSPost2010PropOp32
 70
     1
102
RTVSPost2010Prop33
280
     0
102
RTVSPost2010PropOp33
 70
     1
102
RTVSPost2010Prop34
280
     0
102
RTVSPost2010PropOp34
 70
     1
102
RTVSPost2010Prop35
280
     0
102
RTVSPost2010PropOp35
 70
     1
102
RTVSPost2010Prop36
280
     0
102
RTVSPost2010PropOp36
 70
     1
102
RTVSPost2010Prop37
 90
       50
102
RTVSPost2010PropOp37
 70
     1
102
RTVSPost2010Prop38
140
0.0
102
RTVSPost2010PropOp38
 70
     1
102
RTVSPost2010Prop39
140
1.0
102
RTVSPost2010PropOp39
 70
     1
102
RTVSPost2010Prop40
 90
        0
102
RTVSPost2010PropOp40
 70
     1
102
RTVSPost2010Prop41ColorIndex
 90
       18
102
RTVSPost2010Prop41ColorRGB
 90
        0
102
RTVSPost2010PropOp41
 70
     1
102
RTVSPost2010Prop42
 90
       50
102
RTVSPost2010PropOp42
 70
     1
102
RTVSPost2010Prop43
 90
        3
102
RTVSPost2010PropOp43
 70
     1
102
RTVSPost2010Prop44ColorIndex
 90
        5
102
RTVSPost2010Prop44ColorRGB
 90
      255
102
RTVSPost2010PropOp44
 70
     1
102
RTVSPost2010Prop45
280
     0
102
RTVSPost2010PropOp45
 70
     1
102
RTVSPost2010Prop46
 90
       50
102
RTVSPost2010PropOp46
 70
     1
102
RTVSPost2010Prop47
 90
       50
102
RTVSPost2010PropOp47
 70
     1
102
RTVSPost2010Prop48
 90
       50
102
RTVSPost2010PropOp48
 70
     1
102
RTVSPost2010Prop49
280
     0
102
RTVSPost2010PropOp49
 70
     1
102
RTVSPost2010Prop50
 90
       50
102
RTVSPost2010PropOp50
 70
     1
102
RTVSPost2010Prop51ColorIndex
 90
      256
102
RTVSPost2010Prop51ColorRGB
 90
-16777216
102
RTVSPost2010PropOp51
 70
     0
102
RTVSPost2010Prop52
140
1.0
102
RTVSPost2010PropOp52
 70
     0
102
RTVSPost2010Prop53
 90
        2
102
RTVSPost2010PropOp53
 70
     1
102
RTVSPost2010Prop54
  1
strokes_ogs.tif
102
RTVSPost2010PropOp54
 70
     1
102
RTVSPost2010Prop55
280
     0
102
RTVSPost2010PropOp55
 70
     1
102
RTVSPost2010Prop56
140
1.0
102
RTVSPost2010PropOp56
 70
     1
102
RTVSPost2010Prop57
140
1.0
102
RTVSPost2010PropOp57
 70
     1
102
RTVSPropertyOp0
 70
     1
102
RTVSPropertyOp1
 70
     1
102
RTVSPropertyOp2
 70
     1
102
RTVSPropertyOp3
 70
     1
102
RTVSPropertyOp4
 70
     1
102
RTVSPropertyOp5
 70
     1
102
RTVSPropertyOp6
 70
     1
102
RTVSPropertyOp7
 70
     1
102
RTVSPropertyOp8
 70
     1
102
RTVSPropertyOp9
 70
     1
102
RTVSPropertyOp10
 70
     1
102
RTVSPropertyOp11
 70
     1
102
RTVSPropertyOp12
 70
     1
102
RTVSPropertyOp13
 70
     1
102
RTVSPropertyOp14
 70
     1
102
RTVSPropertyOp15
 70
     1
102
RTVSPropertyOp16
 70
     1
102
RTVSPropertyOp17
 70
     1
102
RTVSPropertyOp18
 70
     1
102
RTVSPropertyOp19
 70
     1
102
RTVSPropertyOp20
 70
     1
102
RTVSPropertyOp21
 70
     1
102
RTVSPropertyOp22
 70
     1
102
RTVSPropertyOp23
 70
     1
102
RTVSPropertyOp24
 70
     1
102
RTVSPropertyOp25
 70
     1
102
RTVSPropertyOp26
 70
     1
102
RTVSPropertyOp27
 70
     1
102
RTVSPropertyOp28
 70
     1
102
RTVSPropertyOp29
 70
     1
102
RTVSPropertyOp30
 70
     1
102
RTVSPropertyOp31
 70
     1
102
RTVSPropertyOp32
 70
     1
102
RTVSPropertyOp33
 70
     1
102
RTVSPropertyOp34
 70
     1
102
RTVSPropertyOp35
 70
     1
102
RTVSPropertyOp36
 70
     1
102
RTVSPropertyOp37
 70
     1
102
RTVSPropertyOp38
 70
     1
102
RTVSPropertyOp39
 70
     1
102
RTVSPropertyOp40
 70
     1
102
RTVSPropertyOp41
 70
     1
102
RTVSPropertyOp42
 70
     1
102
RTVSPropertyOp43
 70
     1
102
RTVSPropertyOp44
 70
     1
102
RTVSPropertyOp45
 70
     1
102
RTVSPropertyOp46
 70
     1
102
RTVSPropertyOp47
 70
     1
102
RTVSPropertyOp48
 70
     1
102
RTVSPropertyOp49
 70
     1
102
RTVSPropertyOp50
 70
     1
102
RTVSPropertyOp51
 70
     0
102
RTVSPropertyOp52
 70
     0
102
RTVSPropertyOp53
 70
     1
102
RTVSPropertyOp54
 70
     1
102
RTVSPropertyOp55
 70
     1
102
RTVSPropertyOp56
 70
     1
102
RTVSPropertyOp57
 70
     1
102
RTVSPropertyOp58
 70
     1
102
RTVSPropertyOp59
 70
     1
102
RTVSPropertyOp60
 70
     1
102
RTVSPropertyOp61
 70
     1
102
RTVSPropertyOp62
 70
     1
  0
XRECORD
  5
A53
102
{ACAD_REACTORS
330
A52
102
}
330
A52
100
AcDbXrecord
280
     1
102
RTVSPost2010Prop28
280
     0
102
RTVSPost2010PropOp28
 70
     1
102
RTVSPost2010Prop29
280
     1
102
RTVSPost2010PropOp29
 70
     1
102
RTVSPost2010Prop30
280
     1
102
RTVSPost2010PropOp30
 70
     1
102
RTVSPost2010Prop31
280
     0
102
RTVSPost2010PropOp31
 70
     1
102
RTVSPost2010Prop32
280
     0
102
RTVSPost2010PropOp32
 70
     1
102
RTVSPost2010Prop33
280
     0
102
RTVSPost2010PropOp33
 70
     1
102
RTVSPost2010Prop34
280
     0
102
RTVSPost2010PropOp34
 70
     1
102
RTVSPost2010Prop35
280
     0
102
RTVSPost2010PropOp35
 70
     1
102
RTVSPost2010Prop36
280
     0
102
RTVSPost2010PropOp36
 70
     1
102
RTVSPost2010Prop37
 90
       50
102
RTVSPost2010PropOp37
 70
     1
102
RTVSPost2010Prop38
140
0.0
102
RTVSPost2010PropOp38
 70
     1
102
RTVSPost2010Prop39
140
1.0
102
RTVSPost2010PropOp39
 70
     1
102
RTVSPost2010Prop40
 90
        0
102
RTVSPost2010PropOp40
 70
     1
102
RTVSPost2010Prop41ColorIndex
 90
       18
102
RTVSPost2010Prop41ColorRGB
 90
        0
102
RTVSPost2010PropOp41
 70
     1
102
RTVSPost2010Prop42
 90
       50
102
RTVSPost2010PropOp42
 70
     1
102
RTVSPost2010Prop43
 90
        3
102
RTVSPost2010PropOp43
 70
     1
102
RTVSPost2010Prop44ColorIndex
 90
        5
102
RTVSPost2010Prop44ColorRGB
 90
      255
102
RTVSPost2010PropOp44
 70
     1
102
RTVSPost2010Prop45
280
     0
102
RTVSPost2010PropOp45
 70
     1
102
RTVSPost2010Prop46
 90
       50
102
RTVSPost2010PropOp46
 70
     1
102
RTVSPost2010Prop47
 90
       50
102
RTVSPost2010PropOp47
 70
     1
102
RTVSPost2010Prop48
 90
       50
102
RTVSPost2010PropOp48
 70
     1
102
RTVSPost2010Prop49
280
     0
102
RTVSPost2010PropOp49
 70
     1
102
RTVSPost2010Prop50
 90
       50
102
RTVSPost2010PropOp50
 70
     1
102
RTVSPost2010Prop51ColorIndex
 90
      256
102
RTVSPost2010Prop51ColorRGB
 90
-16777216
102
RTVSPost2010PropOp51
 70
     0
102
RTVSPost2010Prop52
140
1.0
102
RTVSPost2010PropOp52
 70
     0
102
RTVSPost2010Prop53
 90
        2
102
RTVSPost2010PropOp53
 70
     1
102
RTVSPost2010Prop54
  1
strokes_ogs.tif
102
RTVSPost2010PropOp54
 70
     1
102
RTVSPost2010Prop55
280
     0
102
RTVSPost2010PropOp55
 70
     1
102
RTVSPost2010Prop56
140
1.0
102
RTVSPost2010PropOp56
 70
     1
102
RTVSPost2010Prop57
140
1.0
102
RTVSPost2010PropOp57
 70
     1
102
RTVSPropertyOp0
 70
     0
102
RTVSPropertyOp1
 70
     0
102
RTVSPropertyOp2
 70
     0
102
RTVSPropertyOp3
 70
     0
102
RTVSPropertyOp4
 70
     0
102
RTVSPropertyOp5
 70
     0
102
RTVSPropertyOp6
 70
     0
102
RTVSPropertyOp7
 70
     0
102
RTVSPropertyOp8
 70
     0
102
RTVSPropertyOp9
 70
     0
102
RTVSPropertyOp10
 70
     0
102
RTVSPropertyOp11
 70
     0
102
RTVSPropertyOp12
 70
     0
102
RTVSPropertyOp13
 70
     0
102
RTVSPropertyOp14
 70
     2
102
RTVSPropertyOp15
 70
     0
102
RTVSPropertyOp16
 70
     0
102
RTVSPropertyOp17
 70
     0
102
RTVSPropertyOp18
 70
     0
102
RTVSPropertyOp19
 70
     0
102
RTVSPropertyOp20
 70
     0
102
RTVSPropertyOp21
 70
     0
102
RTVSPropertyOp22
 70
     0
102
RTVSPropertyOp23
 70
     0
102
RTVSPropertyOp24
 70
     0
102
RTVSPropertyOp25
 70
     0
102
RTVSPropertyOp26
 70
     0
102
RTVSPropertyOp27
 70
     0
102
RTVSPropertyOp28
 70
     1
102
RTVSPropertyOp29
 70
     1
102
RTVSPropertyOp30
 70
     1
102
RTVSPropertyOp31
 70
     1
102
RTVSPropertyOp32
 70
     1
102
RTVSPropertyOp33
 70
     1
102
RTVSPropertyOp34
 70
     1
102
RTVSPropertyOp35
 70
     1
102
RTVSPropertyOp36
 70
     1
102
RTVSPropertyOp37
 70
     1
102
RTVSPropertyOp38
 70
     1
102
RTVSPropertyOp39
 70
     1
102
RTVSPropertyOp40
 70
     1
102
RTVSPropertyOp41
 70
     1
102
RTVSPropertyOp42
 70
     1
102
RTVSPropertyOp43
 70
     1
102
RTVSPropertyOp44
 70
     1
102
RTVSPropertyOp45
 70
     1
102
RTVSPropertyOp46
 70
     1
102
RTVSPropertyOp47
 70
     1
102
RTVSPropertyOp48
 70
     1
102
RTVSPropertyOp49
 70
     1
102
RTVSPropertyOp50
 70
     1
102
RTVSPropertyOp51
 70
     0
102
RTVSPropertyOp52
 70
     0
102
RTVSPropertyOp53
 70
     1
102
RTVSPropertyOp54
 70
     1
102
RTVSPropertyOp55
 70
     1
102
RTVSPropertyOp56
 70
     1
102
RTVSPropertyOp57
 70
     1
102
RTVSPropertyOp58
 70
     1
102
RTVSPropertyOp59
 70
     1
102
RTVSPropertyOp60
 70
     1
102
RTVSPropertyOp61
 70
     1
102
RTVSPropertyOp62
 70
     1
  0
XRECORD
  5
A4B
102
{ACAD_REACTORS
330
A4A
102
}
330
A4A
100
AcDbXrecord
280
     1
102
RTVSPost2010Prop28
280
     0
102
RTVSPost2010PropOp28
 70
     1
102
RTVSPost2010Prop29
280
     1
102
RTVSPost2010PropOp29
 70
     1
102
RTVSPost2010Prop30
280
     1
102
RTVSPost2010PropOp30
 70
     1
102
RTVSPost2010Prop31
280
     0
102
RTVSPost2010PropOp31
 70
     1
102
RTVSPost2010Prop32
280
     0
102
RTVSPost2010PropOp32
 70
     1
102
RTVSPost2010Prop33
280
     0
102
RTVSPost2010PropOp33
 70
     1
102
RTVSPost2010Prop34
280
     0
102
RTVSPost2010PropOp34
 70
     1
102
RTVSPost2010Prop35
280
     0
102
RTVSPost2010PropOp35
 70
     1
102
RTVSPost2010Prop36
280
     0
102
RTVSPost2010PropOp36
 70
     1
102
RTVSPost2010Prop37
 90
       50
102
RTVSPost2010PropOp37
 70
     1
102
RTVSPost2010Prop38
140
0.0
102
RTVSPost2010PropOp38
 70
     1
102
RTVSPost2010Prop39
140
1.0
102
RTVSPost2010PropOp39
 70
     1
102
RTVSPost2010Prop40
 90
        0
102
RTVSPost2010PropOp40
 70
     1
102
RTVSPost2010Prop41ColorIndex
 90
       18
102
RTVSPost2010Prop41ColorRGB
 90
        0
102
RTVSPost2010PropOp41
 70
     1
102
RTVSPost2010Prop42
 90
       50
102
RTVSPost2010PropOp42
 70
     1
102
RTVSPost2010Prop43
 90
        3
102
RTVSPost2010PropOp43
 70
     1
102
RTVSPost2010Prop44ColorIndex
 90
        5
102
RTVSPost2010Prop44ColorRGB
 90
      255
102
RTVSPost2010PropOp44
 70
     1
102
RTVSPost2010Prop45
280
     0
102
RTVSPost2010PropOp45
 70
     1
102
RTVSPost2010Prop46
 90
       50
102
RTVSPost2010PropOp46
 70
     1
102
RTVSPost2010Prop47
 90
       50
102
RTVSPost2010PropOp47
 70
     1
102
RTVSPost2010Prop48
 90
       50
102
RTVSPost2010PropOp48
 70
     1
102
RTVSPost2010Prop49
280
     0
102
RTVSPost2010PropOp49
 70
     1
102
RTVSPost2010Prop50
 90
       50
102
RTVSPost2010PropOp50
 70
     1
102
RTVSPost2010Prop51ColorIndex
 90
      256
102
RTVSPost2010Prop51ColorRGB
 90
-16777216
102
RTVSPost2010PropOp51
 70
     0
102
RTVSPost2010Prop52
140
1.0
102
RTVSPost2010PropOp52
 70
     0
102
RTVSPost2010Prop53
 90
        2
102
RTVSPost2010PropOp53
 70
     1
102
RTVSPost2010Prop54
  1
strokes_ogs.tif
102
RTVSPost2010PropOp54
 70
     1
102
RTVSPost2010Prop55
280
     0
102
RTVSPost2010PropOp55
 70
     1
102
RTVSPost2010Prop56
140
1.0
102
RTVSPost2010PropOp56
 70
     1
102
RTVSPost2010Prop57
140
1.0
102
RTVSPost2010PropOp57
 70
     1
102
RTVSPropertyOp0
 70
     1
102
RTVSPropertyOp1
 70
     1
102
RTVSPropertyOp2
 70
     1
102
RTVSPropertyOp3
 70
     1
102
RTVSPropertyOp4
 70
     1
102
RTVSPropertyOp5
 70
     1
102
RTVSPropertyOp6
 70
     1
102
RTVSPropertyOp7
 70
     1
102
RTVSPropertyOp8
 70
     1
102
RTVSPropertyOp9
 70
     1
102
RTVSPropertyOp10
 70
     1
102
RTVSPropertyOp11
 70
     1
102
RTVSPropertyOp12
 70
     1
102
RTVSPropertyOp13
 70
     1
102
RTVSPropertyOp14
 70
     1
102
RTVSPropertyOp15
 70
     1
102
RTVSPropertyOp16
 70
     1
102
RTVSPropertyOp17
 70
     1
102
RTVSPropertyOp18
 70
     1
102
RTVSPropertyOp19
 70
     1
102
RTVSPropertyOp20
 70
     1
102
RTVSPropertyOp21
 70
     1
102
RTVSPropertyOp22
 70
     1
102
RTVSPropertyOp23
 70
     1
102
RTVSPropertyOp24
 70
     1
102
RTVSPropertyOp25
 70
     1
102
RTVSPropertyOp26
 70
     1
102
RTVSPropertyOp27
 70
     1
102
RTVSPropertyOp28
 70
     1
102
RTVSPropertyOp29
 70
     1
102
RTVSPropertyOp30
 70
     1
102
RTVSPropertyOp31
 70
     1
102
RTVSPropertyOp32
 70
     1
102
RTVSPropertyOp33
 70
     1
102
RTVSPropertyOp34
 70
     1
102
RTVSPropertyOp35
 70
     1
102
RTVSPropertyOp36
 70
     1
102
RTVSPropertyOp37
 70
     1
102
RTVSPropertyOp38
 70
     1
102
RTVSPropertyOp39
 70
     1
102
RTVSPropertyOp40
 70
     1
102
RTVSPropertyOp41
 70
     1
102
RTVSPropertyOp42
 70
     1
102
RTVSPropertyOp43
 70
     1
102
RTVSPropertyOp44
 70
     1
102
RTVSPropertyOp45
 70
     1
102
RTVSPropertyOp46
 70
     1
102
RTVSPropertyOp47
 70
     1
102
RTVSPropertyOp48
 70
     1
102
RTVSPropertyOp49
 70
     1
102
RTVSPropertyOp50
 70
     1
102
RTVSPropertyOp51
 70
     0
102
RTVSPropertyOp52
 70
     0
102
RTVSPropertyOp53
 70
     1
102
RTVSPropertyOp54
 70
     1
102
RTVSPropertyOp55
 70
     1
102
RTVSPropertyOp56
 70
     1
102
RTVSPropertyOp57
 70
     1
102
RTVSPropertyOp58
 70
     1
102
RTVSPropertyOp59
 70
     1
102
RTVSPropertyOp60
 70
     1
102
RTVSPropertyOp61
 70
     1
102
RTVSPropertyOp62
 70
     1
  0
XRECORD
  5
A55
102
{ACAD_REACTORS
330
A54
102
}
330
A54
100
AcDbXrecord
280
     1
102
RTVSPost2010Prop28
280
     0
102
RTVSPost2010PropOp28
 70
     1
102
RTVSPost2010Prop29
280
     1
102
RTVSPost2010PropOp29
 70
     1
102
RTVSPost2010Prop30
280
     1
102
RTVSPost2010PropOp30
 70
     1
102
RTVSPost2010Prop31
280
     0
102
RTVSPost2010PropOp31
 70
     1
102
RTVSPost2010Prop32
280
     0
102
RTVSPost2010PropOp32
 70
     1
102
RTVSPost2010Prop33
280
     0
102
RTVSPost2010PropOp33
 70
     1
102
RTVSPost2010Prop34
280
     0
102
RTVSPost2010PropOp34
 70
     1
102
RTVSPost2010Prop35
280
     0
102
RTVSPost2010PropOp35
 70
     1
102
RTVSPost2010Prop36
280
     0
102
RTVSPost2010PropOp36
 70
     1
102
RTVSPost2010Prop37
 90
       50
102
RTVSPost2010PropOp37
 70
     1
102
RTVSPost2010Prop38
140
0.0
102
RTVSPost2010PropOp38
 70
     1
102
RTVSPost2010Prop39
140
1.0
102
RTVSPost2010PropOp39
 70
     1
102
RTVSPost2010Prop40
 90
        0
102
RTVSPost2010PropOp40
 70
     1
102
RTVSPost2010Prop41ColorIndex
 90
       18
102
RTVSPost2010Prop41ColorRGB
 90
        0
102
RTVSPost2010PropOp41
 70
     1
102
RTVSPost2010Prop42
 90
       50
102
RTVSPost2010PropOp42
 70
     1
102
RTVSPost2010Prop43
 90
        3
102
RTVSPost2010PropOp43
 70
     1
102
RTVSPost2010Prop44ColorIndex
 90
        5
102
RTVSPost2010Prop44ColorRGB
 90
      255
102
RTVSPost2010PropOp44
 70
     1
102
RTVSPost2010Prop45
280
     0
102
RTVSPost2010PropOp45
 70
     1
102
RTVSPost2010Prop46
 90
       50
102
RTVSPost2010PropOp46
 70
     1
102
RTVSPost2010Prop47
 90
       50
102
RTVSPost2010PropOp47
 70
     1
102
RTVSPost2010Prop48
 90
       50
102
RTVSPost2010PropOp48
 70
     1
102
RTVSPost2010Prop49
280
     0
102
RTVSPost2010PropOp49
 70
     1
102
RTVSPost2010Prop50
 90
       50
102
RTVSPost2010PropOp50
 70
     1
102
RTVSPost2010Prop51ColorIndex
 90
      256
102
RTVSPost2010Prop51ColorRGB
 90
-16777216
102
RTVSPost2010PropOp51
 70
     0
102
RTVSPost2010Prop52
140
1.0
102
RTVSPost2010PropOp52
 70
     0
102
RTVSPost2010Prop53
 90
        2
102
RTVSPost2010PropOp53
 70
     1
102
RTVSPost2010Prop54
  1
strokes_ogs.tif
102
RTVSPost2010PropOp54
 70
     1
102
RTVSPost2010Prop55
280
     0
102
RTVSPost2010PropOp55
 70
     1
102
RTVSPost2010Prop56
140
1.0
102
RTVSPost2010PropOp56
 70
     1
102
RTVSPost2010Prop57
140
1.0
102
RTVSPost2010PropOp57
 70
     1
102
RTVSPropertyOp0
 70
     0
102
RTVSPropertyOp1
 70
     0
102
RTVSPropertyOp2
 70
     0
102
RTVSPropertyOp3
 70
     0
102
RTVSPropertyOp4
 70
     0
102
RTVSPropertyOp5
 70
     0
102
RTVSPropertyOp6
 70
     0
102
RTVSPropertyOp7
 70
     0
102
RTVSPropertyOp8
 70
     0
102
RTVSPropertyOp9
 70
     0
102
RTVSPropertyOp10
 70
     0
102
RTVSPropertyOp11
 70
     0
102
RTVSPropertyOp12
 70
     0
102
RTVSPropertyOp13
 70
     0
102
RTVSPropertyOp14
 70
     2
102
RTVSPropertyOp15
 70
     0
102
RTVSPropertyOp16
 70
     0
102
RTVSPropertyOp17
 70
     0
102
RTVSPropertyOp18
 70
     0
102
RTVSPropertyOp19
 70
     0
102
RTVSPropertyOp20
 70
     0
102
RTVSPropertyOp21
 70
     0
102
RTVSPropertyOp22
 70
     0
102
RTVSPropertyOp23
 70
     0
102
RTVSPropertyOp24
 70
     0
102
RTVSPropertyOp25
 70
     0
102
RTVSPropertyOp26
 70
     0
102
RTVSPropertyOp27
 70
     0
102
RTVSPropertyOp28
 70
     1
102
RTVSPropertyOp29
 70
     1
102
RTVSPropertyOp30
 70
     1
102
RTVSPropertyOp31
 70
     1
102
RTVSPropertyOp32
 70
     1
102
RTVSPropertyOp33
 70
     1
102
RTVSPropertyOp34
 70
     1
102
RTVSPropertyOp35
 70
     1
102
RTVSPropertyOp36
 70
     1
102
RTVSPropertyOp37
 70
     1
102
RTVSPropertyOp38
 70
     1
102
RTVSPropertyOp39
 70
     1
102
RTVSPropertyOp40
 70
     1
102
RTVSPropertyOp41
 70
     1
102
RTVSPropertyOp42
 70
     1
102
RTVSPropertyOp43
 70
     1
102
RTVSPropertyOp44
 70
     1
102
RTVSPropertyOp45
 70
     1
102
RTVSPropertyOp46
 70
     1
102
RTVSPropertyOp47
 70
     1
102
RTVSPropertyOp48
 70
     1
102
RTVSPropertyOp49
 70
     1
102
RTVSPropertyOp50
 70
     1
102
RTVSPropertyOp51
 70
     0
102
RTVSPropertyOp52
 70
     0
102
RTVSPropertyOp53
 70
     1
102
RTVSPropertyOp54
 70
     1
102
RTVSPropertyOp55
 70
     1
102
RTVSPropertyOp56
 70
     1
102
RTVSPropertyOp57
 70
     1
102
RTVSPropertyOp58
 70
     1
102
RTVSPropertyOp59
 70
     1
102
RTVSPropertyOp60
 70
     1
102
RTVSPropertyOp61
 70
     1
102
RTVSPropertyOp62
 70
     1
  0
XRECORD
  5
A43
102
{ACAD_REACTORS
330
A42
102
}
330
A42
100
AcDbXrecord
280
     1
102
RTVSPost2010Prop28
280
     0
102
RTVSPost2010PropOp28
 70
     1
102
RTVSPost2010Prop29
280
     1
102
RTVSPost2010PropOp29
 70
     1
102
RTVSPost2010Prop30
280
     1
102
RTVSPost2010PropOp30
 70
     1
102
RTVSPost2010Prop31
280
     0
102
RTVSPost2010PropOp31
 70
     1
102
RTVSPost2010Prop32
280
     0
102
RTVSPost2010PropOp32
 70
     1
102
RTVSPost2010Prop33
280
     0
102
RTVSPost2010PropOp33
 70
     1
102
RTVSPost2010Prop34
280
     0
102
RTVSPost2010PropOp34
 70
     1
102
RTVSPost2010Prop35
280
     0
102
RTVSPost2010PropOp35
 70
     1
102
RTVSPost2010Prop36
280
     0
102
RTVSPost2010PropOp36
 70
     1
102
RTVSPost2010Prop37
 90
       50
102
RTVSPost2010PropOp37
 70
     1
102
RTVSPost2010Prop38
140
0.0
102
RTVSPost2010PropOp38
 70
     1
102
RTVSPost2010Prop39
140
1.0
102
RTVSPost2010PropOp39
 70
     1
102
RTVSPost2010Prop40
 90
        0
102
RTVSPost2010PropOp40
 70
     1
102
RTVSPost2010Prop41ColorIndex
 90
       18
102
RTVSPost2010Prop41ColorRGB
 90
        0
102
RTVSPost2010PropOp41
 70
     1
102
RTVSPost2010Prop42
 90
       50
102
RTVSPost2010PropOp42
 70
     1
102
RTVSPost2010Prop43
 90
        3
102
RTVSPost2010PropOp43
 70
     1
102
RTVSPost2010Prop44ColorIndex
 90
        5
102
RTVSPost2010Prop44ColorRGB
 90
      255
102
RTVSPost2010PropOp44
 70
     1
102
RTVSPost2010Prop45
280
     0
102
RTVSPost2010PropOp45
 70
     1
102
RTVSPost2010Prop46
 90
       50
102
RTVSPost2010PropOp46
 70
     1
102
RTVSPost2010Prop47
 90
       50
102
RTVSPost2010PropOp47
 70
     1
102
RTVSPost2010Prop48
 90
       50
102
RTVSPost2010PropOp48
 70
     1
102
RTVSPost2010Prop49
280
     0
102
RTVSPost2010PropOp49
 70
     1
102
RTVSPost2010Prop50
 90
       50
102
RTVSPost2010PropOp50
 70
     1
102
RTVSPost2010Prop51ColorIndex
 90
      256
102
RTVSPost2010Prop51ColorRGB
 90
-16777216
102
RTVSPost2010PropOp51
 70
     0
102
RTVSPost2010Prop52
140
1.0
102
RTVSPost2010PropOp52
 70
     0
102
RTVSPost2010Prop53
 90
        2
102
RTVSPost2010PropOp53
 70
     1
102
RTVSPost2010Prop54
  1
strokes_ogs.tif
102
RTVSPost2010PropOp54
 70
     1
102
RTVSPost2010Prop55
280
     0
102
RTVSPost2010PropOp55
 70
     1
102
RTVSPost2010Prop56
140
1.0
102
RTVSPost2010PropOp56
 70
     1
102
RTVSPost2010Prop57
140
1.0
102
RTVSPost2010PropOp57
 70
     1
102
RTVSPropertyOp0
 70
     1
102
RTVSPropertyOp1
 70
     1
102
RTVSPropertyOp2
 70
     1
102
RTVSPropertyOp3
 70
     1
102
RTVSPropertyOp4
 70
     1
102
RTVSPropertyOp5
 70
     1
102
RTVSPropertyOp6
 70
     1
102
RTVSPropertyOp7
 70
     1
102
RTVSPropertyOp8
 70
     1
102
RTVSPropertyOp9
 70
     1
102
RTVSPropertyOp10
 70
     1
102
RTVSPropertyOp11
 70
     1
102
RTVSPropertyOp12
 70
     1
102
RTVSPropertyOp13
 70
     1
102
RTVSPropertyOp14
 70
     1
102
RTVSPropertyOp15
 70
     1
102
RTVSPropertyOp16
 70
     1
102
RTVSPropertyOp17
 70
     1
102
RTVSPropertyOp18
 70
     1
102
RTVSPropertyOp19
 70
     1
102
RTVSPropertyOp20
 70
     1
102
RTVSPropertyOp21
 70
     1
102
RTVSPropertyOp22
 70
     1
102
RTVSPropertyOp23
 70
     1
102
RTVSPropertyOp24
 70
     1
102
RTVSPropertyOp25
 70
     1
102
RTVSPropertyOp26
 70
     1
102
RTVSPropertyOp27
 70
     1
102
RTVSPropertyOp28
 70
     1
102
RTVSPropertyOp29
 70
     1
102
RTVSPropertyOp30
 70
     1
102
RTVSPropertyOp31
 70
     1
102
RTVSPropertyOp32
 70
     1
102
RTVSPropertyOp33
 70
     1
102
RTVSPropertyOp34
 70
     1
102
RTVSPropertyOp35
 70
     1
102
RTVSPropertyOp36
 70
     1
102
RTVSPropertyOp37
 70
     1
102
RTVSPropertyOp38
 70
     1
102
RTVSPropertyOp39
 70
     1
102
RTVSPropertyOp40
 70
     1
102
RTVSPropertyOp41
 70
     1
102
RTVSPropertyOp42
 70
     1
102
RTVSPropertyOp43
 70
     1
102
RTVSPropertyOp44
 70
     1
102
RTVSPropertyOp45
 70
     1
102
RTVSPropertyOp46
 70
     1
102
RTVSPropertyOp47
 70
     1
102
RTVSPropertyOp48
 70
     1
102
RTVSPropertyOp49
 70
     1
102
RTVSPropertyOp50
 70
     1
102
RTVSPropertyOp51
 70
     0
102
RTVSPropertyOp52
 70
     0
102
RTVSPropertyOp53
 70
     1
102
RTVSPropertyOp54
 70
     1
102
RTVSPropertyOp55
 70
     1
102
RTVSPropertyOp56
 70
     1
102
RTVSPropertyOp57
 70
     1
102
RTVSPropertyOp58
 70
     1
102
RTVSPropertyOp59
 70
     1
102
RTVSPropertyOp60
 70
     1
102
RTVSPropertyOp61
 70
     1
102
RTVSPropertyOp62
 70
     1
  0
XRECORD
  5
A61
102
{ACAD_REACTORS
330
A60
102
}
330
A60
100
AcDbXrecord
280
     1
102
RTVSPost2010Prop28
280
     0
102
RTVSPost2010PropOp28
 70
     1
102
RTVSPost2010Prop29
280
     1
102
RTVSPost2010PropOp29
 70
     1
102
RTVSPost2010Prop30
280
     1
102
RTVSPost2010PropOp30
 70
     1
102
RTVSPost2010Prop31
280
     0
102
RTVSPost2010PropOp31
 70
     1
102
RTVSPost2010Prop32
280
     0
102
RTVSPost2010PropOp32
 70
     1
102
RTVSPost2010Prop33
280
     0
102
RTVSPost2010PropOp33
 70
     1
102
RTVSPost2010Prop34
280
     0
102
RTVSPost2010PropOp34
 70
     1
102
RTVSPost2010Prop35
280
     0
102
RTVSPost2010PropOp35
 70
     1
102
RTVSPost2010Prop36
280
     0
102
RTVSPost2010PropOp36
 70
     1
102
RTVSPost2010Prop37
 90
       50
102
RTVSPost2010PropOp37
 70
     1
102
RTVSPost2010Prop38
140
0.0
102
RTVSPost2010PropOp38
 70
     1
102
RTVSPost2010Prop39
140
1.0
102
RTVSPost2010PropOp39
 70
     1
102
RTVSPost2010Prop40
 90
        0
102
RTVSPost2010PropOp40
 70
     1
102
RTVSPost2010Prop41ColorIndex
 90
       18
102
RTVSPost2010Prop41ColorRGB
 90
        0
102
RTVSPost2010PropOp41
 70
     1
102
RTVSPost2010Prop42
 90
       50
102
RTVSPost2010PropOp42
 70
     1
102
RTVSPost2010Prop43
 90
        3
102
RTVSPost2010PropOp43
 70
     1
102
RTVSPost2010Prop44ColorIndex
 90
        5
102
RTVSPost2010Prop44ColorRGB
 90
      255
102
RTVSPost2010PropOp44
 70
     1
102
RTVSPost2010Prop45
280
     0
102
RTVSPost2010PropOp45
 70
     1
102
RTVSPost2010Prop46
 90
       50
102
RTVSPost2010PropOp46
 70
     1
102
RTVSPost2010Prop47
 90
       50
102
RTVSPost2010PropOp47
 70
     1
102
RTVSPost2010Prop48
 90
       50
102
RTVSPost2010PropOp48
 70
     1
102
RTVSPost2010Prop49
280
     0
102
RTVSPost2010PropOp49
 70
     1
102
RTVSPost2010Prop50
 90
       50
102
RTVSPost2010PropOp50
 70
     1
102
RTVSPost2010Prop51ColorIndex
 90
      256
102
RTVSPost2010Prop51ColorRGB
 90
-16777216
102
RTVSPost2010PropOp51
 70
     0
102
RTVSPost2010Prop52
140
1.0
102
RTVSPost2010PropOp52
 70
     0
102
RTVSPost2010Prop53
 90
        2
102
RTVSPost2010PropOp53
 70
     1
102
RTVSPost2010Prop54
  1
strokes_ogs.tif
102
RTVSPost2010PropOp54
 70
     1
102
RTVSPost2010Prop55
280
     0
102
RTVSPost2010PropOp55
 70
     1
102
RTVSPost2010Prop56
140
1.0
102
RTVSPost2010PropOp56
 70
     1
102
RTVSPost2010Prop57
140
1.0
102
RTVSPost2010PropOp57
 70
     1
102
RTVSPropertyOp0
 70
     1
102
RTVSPropertyOp1
 70
     1
102
RTVSPropertyOp2
 70
     1
102
RTVSPropertyOp3
 70
     1
102
RTVSPropertyOp4
 70
     1
102
RTVSPropertyOp5
 70
     1
102
RTVSPropertyOp6
 70
     1
102
RTVSPropertyOp7
 70
     1
102
RTVSPropertyOp8
 70
     1
102
RTVSPropertyOp9
 70
     1
102
RTVSPropertyOp10
 70
     1
102
RTVSPropertyOp11
 70
     1
102
RTVSPropertyOp12
 70
     1
102
RTVSPropertyOp13
 70
     1
102
RTVSPropertyOp14
 70
     1
102
RTVSPropertyOp15
 70
     1
102
RTVSPropertyOp16
 70
     1
102
RTVSPropertyOp17
 70
     1
102
RTVSPropertyOp18
 70
     1
102
RTVSPropertyOp19
 70
     1
102
RTVSPropertyOp20
 70
     1
102
RTVSPropertyOp21
 70
     1
102
RTVSPropertyOp22
 70
     1
102
RTVSPropertyOp23
 70
     1
102
RTVSPropertyOp24
 70
     1
102
RTVSPropertyOp25
 70
     1
102
RTVSPropertyOp26
 70
     1
102
RTVSPropertyOp27
 70
     1
102
RTVSPropertyOp28
 70
     1
102
RTVSPropertyOp29
 70
     1
102
RTVSPropertyOp30
 70
     1
102
RTVSPropertyOp31
 70
     1
102
RTVSPropertyOp32
 70
     1
102
RTVSPropertyOp33
 70
     1
102
RTVSPropertyOp34
 70
     1
102
RTVSPropertyOp35
 70
     1
102
RTVSPropertyOp36
 70
     1
102
RTVSPropertyOp37
 70
     1
102
RTVSPropertyOp38
 70
     1
102
RTVSPropertyOp39
 70
     1
102
RTVSPropertyOp40
 70
     1
102
RTVSPropertyOp41
 70
     1
102
RTVSPropertyOp42
 70
     1
102
RTVSPropertyOp43
 70
     1
102
RTVSPropertyOp44
 70
     1
102
RTVSPropertyOp45
 70
     1
102
RTVSPropertyOp46
 70
     1
102
RTVSPropertyOp47
 70
     1
102
RTVSPropertyOp48
 70
     1
102
RTVSPropertyOp49
 70
     1
102
RTVSPropertyOp50
 70
     1
102
RTVSPropertyOp51
 70
     0
102
RTVSPropertyOp52
 70
     0
102
RTVSPropertyOp53
 70
     1
102
RTVSPropertyOp54
 70
     1
102
RTVSPropertyOp55
 70
     1
102
RTVSPropertyOp56
 70
     1
102
RTVSPropertyOp57
 70
     1
102
RTVSPropertyOp58
 70
     1
102
RTVSPropertyOp59
 70
     1
102
RTVSPropertyOp60
 70
     1
102
RTVSPropertyOp61
 70
     1
102
RTVSPropertyOp62
 70
     1
  0
XRECORD
  5
A5F
102
{ACAD_REACTORS
330
A5E
102
}
330
A5E
100
AcDbXrecord
280
     1
102
RTVSPost2010Prop28
280
     0
102
RTVSPost2010PropOp28
 70
     1
102
RTVSPost2010Prop29
280
     1
102
RTVSPost2010PropOp29
 70
     1
102
RTVSPost2010Prop30
280
     1
102
RTVSPost2010PropOp30
 70
     1
102
RTVSPost2010Prop31
280
     0
102
RTVSPost2010PropOp31
 70
     1
102
RTVSPost2010Prop32
280
     0
102
RTVSPost2010PropOp32
 70
     1
102
RTVSPost2010Prop33
280
     0
102
RTVSPost2010PropOp33
 70
     1
102
RTVSPost2010Prop34
280
     0
102
RTVSPost2010PropOp34
 70
     1
102
RTVSPost2010Prop35
280
     0
102
RTVSPost2010PropOp35
 70
     1
102
RTVSPost2010Prop36
280
     0
102
RTVSPost2010PropOp36
 70
     1
102
RTVSPost2010Prop37
 90
       50
102
RTVSPost2010PropOp37
 70
     1
102
RTVSPost2010Prop38
140
0.0
102
RTVSPost2010PropOp38
 70
     1
102
RTVSPost2010Prop39
140
1.0
102
RTVSPost2010PropOp39
 70
     1
102
RTVSPost2010Prop40
 90
        0
102
RTVSPost2010PropOp40
 70
     1
102
RTVSPost2010Prop41ColorIndex
 90
       18
102
RTVSPost2010Prop41ColorRGB
 90
        0
102
RTVSPost2010PropOp41
 70
     1
102
RTVSPost2010Prop42
 90
       50
102
RTVSPost2010PropOp42
 70
     1
102
RTVSPost2010Prop43
 90
        3
102
RTVSPost2010PropOp43
 70
     1
102
RTVSPost2010Prop44ColorIndex
 90
        5
102
RTVSPost2010Prop44ColorRGB
 90
      255
102
RTVSPost2010PropOp44
 70
     1
102
RTVSPost2010Prop45
280
     0
102
RTVSPost2010PropOp45
 70
     1
102
RTVSPost2010Prop46
 90
       50
102
RTVSPost2010PropOp46
 70
     1
102
RTVSPost2010Prop47
 90
       50
102
RTVSPost2010PropOp47
 70
     1
102
RTVSPost2010Prop48
 90
       50
102
RTVSPost2010PropOp48
 70
     1
102
RTVSPost2010Prop49
280
     0
102
RTVSPost2010PropOp49
 70
     1
102
RTVSPost2010Prop50
 90
       50
102
RTVSPost2010PropOp50
 70
     1
102
RTVSPost2010Prop51ColorIndex
 90
      256
102
RTVSPost2010Prop51ColorRGB
 90
-16777216
102
RTVSPost2010PropOp51
 70
     0
102
RTVSPost2010Prop52
140
1.0
102
RTVSPost2010PropOp52
 70
     0
102
RTVSPost2010Prop53
 90
        2
102
RTVSPost2010PropOp53
 70
     1
102
RTVSPost2010Prop54
  1
strokes_ogs.tif
102
RTVSPost2010PropOp54
 70
     1
102
RTVSPost2010Prop55
280
     0
102
RTVSPost2010PropOp55
 70
     1
102
RTVSPost2010Prop56
140
1.0
102
RTVSPost2010PropOp56
 70
     1
102
RTVSPost2010Prop57
140
1.0
102
RTVSPost2010PropOp57
 70
     1
102
RTVSPropertyOp0
 70
     1
102
RTVSPropertyOp1
 70
     1
102
RTVSPropertyOp2
 70
     1
102
RTVSPropertyOp3
 70
     1
102
RTVSPropertyOp4
 70
     1
102
RTVSPropertyOp5
 70
     1
102
RTVSPropertyOp6
 70
     1
102
RTVSPropertyOp7
 70
     1
102
RTVSPropertyOp8
 70
     1
102
RTVSPropertyOp9
 70
     1
102
RTVSPropertyOp10
 70
     1
102
RTVSPropertyOp11
 70
     1
102
RTVSPropertyOp12
 70
     1
102
RTVSPropertyOp13
 70
     1
102
RTVSPropertyOp14
 70
     1
102
RTVSPropertyOp15
 70
     1
102
RTVSPropertyOp16
 70
     1
102
RTVSPropertyOp17
 70
     1
102
RTVSPropertyOp18
 70
     1
102
RTVSPropertyOp19
 70
     1
102
RTVSPropertyOp20
 70
     1
102
RTVSPropertyOp21
 70
     1
102
RTVSPropertyOp22
 70
     1
102
RTVSPropertyOp23
 70
     1
102
RTVSPropertyOp24
 70
     1
102
RTVSPropertyOp25
 70
     1
102
RTVSPropertyOp26
 70
     1
102
RTVSPropertyOp27
 70
     1
102
RTVSPropertyOp28
 70
     1
102
RTVSPropertyOp29
 70
     1
102
RTVSPropertyOp30
 70
     1
102
RTVSPropertyOp31
 70
     1
102
RTVSPropertyOp32
 70
     1
102
RTVSPropertyOp33
 70
     1
102
RTVSPropertyOp34
 70
     1
102
RTVSPropertyOp35
 70
     1
102
RTVSPropertyOp36
 70
     1
102
RTVSPropertyOp37
 70
     1
102
RTVSPropertyOp38
 70
     1
102
RTVSPropertyOp39
 70
     1
102
RTVSPropertyOp40
 70
     1
102
RTVSPropertyOp41
 70
     1
102
RTVSPropertyOp42
 70
     1
102
RTVSPropertyOp43
 70
     1
102
RTVSPropertyOp44
 70
     1
102
RTVSPropertyOp45
 70
     1
102
RTVSPropertyOp46
 70
     1
102
RTVSPropertyOp47
 70
     1
102
RTVSPropertyOp48
 70
     1
102
RTVSPropertyOp49
 70
     1
102
RTVSPropertyOp50
 70
     1
102
RTVSPropertyOp51
 70
     0
102
RTVSPropertyOp52
 70
     0
102
RTVSPropertyOp53
 70
     1
102
RTVSPropertyOp54
 70
     1
102
RTVSPropertyOp55
 70
     1
102
RTVSPropertyOp56
 70
     1
102
RTVSPropertyOp57
 70
     1
102
RTVSPropertyOp58
 70
     1
102
RTVSPropertyOp59
 70
     1
102
RTVSPropertyOp60
 70
     1
102
RTVSPropertyOp61
 70
     1
102
RTVSPropertyOp62
 70
     1
  0
XRECORD
  5
A59
102
{ACAD_REACTORS
330
A58
102
}
330
A58
100
AcDbXrecord
280
     1
102
RTVSPost2010Prop28
280
     0
102
RTVSPost2010PropOp28
 70
     1
102
RTVSPost2010Prop29
280
     1
102
RTVSPost2010PropOp29
 70
     1
102
RTVSPost2010Prop30
280
     1
102
RTVSPost2010PropOp30
 70
     1
102
RTVSPost2010Prop31
280
     0
102
RTVSPost2010PropOp31
 70
     1
102
RTVSPost2010Prop32
280
     0
102
RTVSPost2010PropOp32
 70
     1
102
RTVSPost2010Prop33
280
     0
102
RTVSPost2010PropOp33
 70
     1
102
RTVSPost2010Prop34
280
     0
102
RTVSPost2010PropOp34
 70
     1
102
RTVSPost2010Prop35
280
     0
102
RTVSPost2010PropOp35
 70
     1
102
RTVSPost2010Prop36
280
     0
102
RTVSPost2010PropOp36
 70
     1
102
RTVSPost2010Prop37
 90
       50
102
RTVSPost2010PropOp37
 70
     1
102
RTVSPost2010Prop38
140
0.0
102
RTVSPost2010PropOp38
 70
     1
102
RTVSPost2010Prop39
140
1.0
102
RTVSPost2010PropOp39
 70
     1
102
RTVSPost2010Prop40
 90
        0
102
RTVSPost2010PropOp40
 70
     1
102
RTVSPost2010Prop41ColorIndex
 90
       18
102
RTVSPost2010Prop41ColorRGB
 90
        0
102
RTVSPost2010PropOp41
 70
     1
102
RTVSPost2010Prop42
 90
       50
102
RTVSPost2010PropOp42
 70
     1
102
RTVSPost2010Prop43
 90
        3
102
RTVSPost2010PropOp43
 70
     1
102
RTVSPost2010Prop44ColorIndex
 90
        5
102
RTVSPost2010Prop44ColorRGB
 90
      255
102
RTVSPost2010PropOp44
 70
     1
102
RTVSPost2010Prop45
280
     0
102
RTVSPost2010PropOp45
 70
     1
102
RTVSPost2010Prop46
 90
       50
102
RTVSPost2010PropOp46
 70
     1
102
RTVSPost2010Prop47
 90
       50
102
RTVSPost2010PropOp47
 70
     1
102
RTVSPost2010Prop48
 90
       50
102
RTVSPost2010PropOp48
 70
     1
102
RTVSPost2010Prop49
280
     0
102
RTVSPost2010PropOp49
 70
     1
102
RTVSPost2010Prop50
 90
       50
102
RTVSPost2010PropOp50
 70
     1
102
RTVSPost2010Prop51ColorIndex
 90
      256
102
RTVSPost2010Prop51ColorRGB
 90
-16777216
102
RTVSPost2010PropOp51
 70
     0
102
RTVSPost2010Prop52
140
1.0
102
RTVSPost2010PropOp52
 70
     0
102
RTVSPost2010Prop53
 90
        2
102
RTVSPost2010PropOp53
 70
     1
102
RTVSPost2010Prop54
  1
strokes_ogs.tif
102
RTVSPost2010PropOp54
 70
     1
102
RTVSPost2010Prop55
280
     0
102
RTVSPost2010PropOp55
 70
     1
102
RTVSPost2010Prop56
140
1.0
102
RTVSPost2010PropOp56
 70
     1
102
RTVSPost2010Prop57
140
1.0
102
RTVSPost2010PropOp57
 70
     1
102
RTVSPropertyOp0
 70
     1
102
RTVSPropertyOp1
 70
     1
102
RTVSPropertyOp2
 70
     1
102
RTVSPropertyOp3
 70
     1
102
RTVSPropertyOp4
 70
     1
102
RTVSPropertyOp5
 70
     1
102
RTVSPropertyOp6
 70
     1
102
RTVSPropertyOp7
 70
     1
102
RTVSPropertyOp8
 70
     1
102
RTVSPropertyOp9
 70
     1
102
RTVSPropertyOp10
 70
     1
102
RTVSPropertyOp11
 70
     1
102
RTVSPropertyOp12
 70
     1
102
RTVSPropertyOp13
 70
     1
102
RTVSPropertyOp14
 70
     1
102
RTVSPropertyOp15
 70
     1
102
RTVSPropertyOp16
 70
     1
102
RTVSPropertyOp17
 70
     1
102
RTVSPropertyOp18
 70
     1
102
RTVSPropertyOp19
 70
     1
102
RTVSPropertyOp20
 70
     1
102
RTVSPropertyOp21
 70
     1
102
RTVSPropertyOp22
 70
     1
102
RTVSPropertyOp23
 70
     1
102
RTVSPropertyOp24
 70
     1
102
RTVSPropertyOp25
 70
     1
102
RTVSPropertyOp26
 70
     1
102
RTVSPropertyOp27
 70
     1
102
RTVSPropertyOp28
 70
     1
102
RTVSPropertyOp29
 70
     1
102
RTVSPropertyOp30
 70
     1
102
RTVSPropertyOp31
 70
     1
102
RTVSPropertyOp32
 70
     1
102
RTVSPropertyOp33
 70
     1
102
RTVSPropertyOp34
 70
     1
102
RTVSPropertyOp35
 70
     1
102
RTVSPropertyOp36
 70
     1
102
RTVSPropertyOp37
 70
     1
102
RTVSPropertyOp38
 70
     1
102
RTVSPropertyOp39
 70
     1
102
RTVSPropertyOp40
 70
     1
102
RTVSPropertyOp41
 70
     1
102
RTVSPropertyOp42
 70
     1
102
RTVSPropertyOp43
 70
     1
102
RTVSPropertyOp44
 70
     1
102
RTVSPropertyOp45
 70
     1
102
RTVSPropertyOp46
 70
     1
102
RTVSPropertyOp47
 70
     1
102
RTVSPropertyOp48
 70
     1
102
RTVSPropertyOp49
 70
     1
102
RTVSPropertyOp50
 70
     1
102
RTVSPropertyOp51
 70
     0
102
RTVSPropertyOp52
 70
     0
102
RTVSPropertyOp53
 70
     1
102
RTVSPropertyOp54
 70
     1
102
RTVSPropertyOp55
 70
     1
102
RTVSPropertyOp56
 70
     1
102
RTVSPropertyOp57
 70
     1
102
RTVSPropertyOp58
 70
     1
102
RTVSPropertyOp59
 70
     1
102
RTVSPropertyOp60
 70
     1
102
RTVSPropertyOp61
 70
     1
102
RTVSPropertyOp62
 70
     1
  0
XRECORD
  5
A5B
102
{ACAD_REACTORS
330
A5A
102
}
330
A5A
100
AcDbXrecord
280
     1
102
RTVSPost2010Prop28
280
     0
102
RTVSPost2010PropOp28
 70
     1
102
RTVSPost2010Prop29
280
     1
102
RTVSPost2010PropOp29
 70
     1
102
RTVSPost2010Prop30
280
     1
102
RTVSPost2010PropOp30
 70
     1
102
RTVSPost2010Prop31
280
     0
102
RTVSPost2010PropOp31
 70
     1
102
RTVSPost2010Prop32
280
     0
102
RTVSPost2010PropOp32
 70
     1
102
RTVSPost2010Prop33
280
     0
102
RTVSPost2010PropOp33
 70
     1
102
RTVSPost2010Prop34
280
     0
102
RTVSPost2010PropOp34
 70
     1
102
RTVSPost2010Prop35
280
     0
102
RTVSPost2010PropOp35
 70
     1
102
RTVSPost2010Prop36
280
     0
102
RTVSPost2010PropOp36
 70
     1
102
RTVSPost2010Prop37
 90
       50
102
RTVSPost2010PropOp37
 70
     1
102
RTVSPost2010Prop38
140
0.0
102
RTVSPost2010PropOp38
 70
     1
102
RTVSPost2010Prop39
140
1.0
102
RTVSPost2010PropOp39
 70
     1
102
RTVSPost2010Prop40
 90
        0
102
RTVSPost2010PropOp40
 70
     1
102
RTVSPost2010Prop41ColorIndex
 90
       18
102
RTVSPost2010Prop41ColorRGB
 90
        0
102
RTVSPost2010PropOp41
 70
     1
102
RTVSPost2010Prop42
 90
       50
102
RTVSPost2010PropOp42
 70
     1
102
RTVSPost2010Prop43
 90
        3
102
RTVSPost2010PropOp43
 70
     1
102
RTVSPost2010Prop44ColorIndex
 90
        5
102
RTVSPost2010Prop44ColorRGB
 90
      255
102
RTVSPost2010PropOp44
 70
     1
102
RTVSPost2010Prop45
280
     0
102
RTVSPost2010PropOp45
 70
     1
102
RTVSPost2010Prop46
 90
       50
102
RTVSPost2010PropOp46
 70
     1
102
RTVSPost2010Prop47
 90
       50
102
RTVSPost2010PropOp47
 70
     1
102
RTVSPost2010Prop48
 90
       50
102
RTVSPost2010PropOp48
 70
     1
102
RTVSPost2010Prop49
280
     0
102
RTVSPost2010PropOp49
 70
     1
102
RTVSPost2010Prop50
 90
       50
102
RTVSPost2010PropOp50
 70
     1
102
RTVSPost2010Prop51ColorIndex
 90
      256
102
RTVSPost2010Prop51ColorRGB
 90
-16777216
102
RTVSPost2010PropOp51
 70
     0
102
RTVSPost2010Prop52
140
1.0
102
RTVSPost2010PropOp52
 70
     0
102
RTVSPost2010Prop53
 90
        2
102
RTVSPost2010PropOp53
 70
     1
102
RTVSPost2010Prop54
  1
strokes_ogs.tif
102
RTVSPost2010PropOp54
 70
     1
102
RTVSPost2010Prop55
280
     0
102
RTVSPost2010PropOp55
 70
     1
102
RTVSPost2010Prop56
140
1.0
102
RTVSPost2010PropOp56
 70
     1
102
RTVSPost2010Prop57
140
1.0
102
RTVSPost2010PropOp57
 70
     1
102
RTVSPropertyOp0
 70
     1
102
RTVSPropertyOp1
 70
     1
102
RTVSPropertyOp2
 70
     1
102
RTVSPropertyOp3
 70
     1
102
RTVSPropertyOp4
 70
     1
102
RTVSPropertyOp5
 70
     1
102
RTVSPropertyOp6
 70
     1
102
RTVSPropertyOp7
 70
     1
102
RTVSPropertyOp8
 70
     1
102
RTVSPropertyOp9
 70
     1
102
RTVSPropertyOp10
 70
     1
102
RTVSPropertyOp11
 70
     1
102
RTVSPropertyOp12
 70
     1
102
RTVSPropertyOp13
 70
     1
102
RTVSPropertyOp14
 70
     1
102
RTVSPropertyOp15
 70
     1
102
RTVSPropertyOp16
 70
     1
102
RTVSPropertyOp17
 70
     1
102
RTVSPropertyOp18
 70
     1
102
RTVSPropertyOp19
 70
     1
102
RTVSPropertyOp20
 70
     1
102
RTVSPropertyOp21
 70
     1
102
RTVSPropertyOp22
 70
     1
102
RTVSPropertyOp23
 70
     1
102
RTVSPropertyOp24
 70
     1
102
RTVSPropertyOp25
 70
     1
102
RTVSPropertyOp26
 70
     1
102
RTVSPropertyOp27
 70
     1
102
RTVSPropertyOp28
 70
     1
102
RTVSPropertyOp29
 70
     1
102
RTVSPropertyOp30
 70
     1
102
RTVSPropertyOp31
 70
     1
102
RTVSPropertyOp32
 70
     1
102
RTVSPropertyOp33
 70
     1
102
RTVSPropertyOp34
 70
     1
102
RTVSPropertyOp35
 70
     1
102
RTVSPropertyOp36
 70
     1
102
RTVSPropertyOp37
 70
     1
102
RTVSPropertyOp38
 70
     1
102
RTVSPropertyOp39
 70
     1
102
RTVSPropertyOp40
 70
     1
102
RTVSPropertyOp41
 70
     1
102
RTVSPropertyOp42
 70
     1
102
RTVSPropertyOp43
 70
     1
102
RTVSPropertyOp44
 70
     1
102
RTVSPropertyOp45
 70
     1
102
RTVSPropertyOp46
 70
     1
102
RTVSPropertyOp47
 70
     1
102
RTVSPropertyOp48
 70
     1
102
RTVSPropertyOp49
 70
     1
102
RTVSPropertyOp50
 70
     1
102
RTVSPropertyOp51
 70
     0
102
RTVSPropertyOp52
 70
     0
102
RTVSPropertyOp53
 70
     1
102
RTVSPropertyOp54
 70
     1
102
RTVSPropertyOp55
 70
     1
102
RTVSPropertyOp56
 70
     1
102
RTVSPropertyOp57
 70
     1
102
RTVSPropertyOp58
 70
     1
102
RTVSPropertyOp59
 70
     1
102
RTVSPropertyOp60
 70
     1
102
RTVSPropertyOp61
 70
     1
102
RTVSPropertyOp62
 70
     1
  0
XRECORD
  5
A49
102
{ACAD_REACTORS
330
A48
102
}
330
A48
100
AcDbXrecord
280
     1
102
RTVSPost2010Prop28
280
     0
102
RTVSPost2010PropOp28
 70
     1
102
RTVSPost2010Prop29
280
     1
102
RTVSPost2010PropOp29
 70
     1
102
RTVSPost2010Prop30
280
     1
102
RTVSPost2010PropOp30
 70
     1
102
RTVSPost2010Prop31
280
     0
102
RTVSPost2010PropOp31
 70
     1
102
RTVSPost2010Prop32
280
     0
102
RTVSPost2010PropOp32
 70
     1
102
RTVSPost2010Prop33
280
     0
102
RTVSPost2010PropOp33
 70
     1
102
RTVSPost2010Prop34
280
     0
102
RTVSPost2010PropOp34
 70
     1
102
RTVSPost2010Prop35
280
     0
102
RTVSPost2010PropOp35
 70
     1
102
RTVSPost2010Prop36
280
     0
102
RTVSPost2010PropOp36
 70
     1
102
RTVSPost2010Prop37
 90
       50
102
RTVSPost2010PropOp37
 70
     1
102
RTVSPost2010Prop38
140
0.0
102
RTVSPost2010PropOp38
 70
     1
102
RTVSPost2010Prop39
140
1.0
102
RTVSPost2010PropOp39
 70
     1
102
RTVSPost2010Prop40
 90
        0
102
RTVSPost2010PropOp40
 70
     1
102
RTVSPost2010Prop41ColorIndex
 90
       18
102
RTVSPost2010Prop41ColorRGB
 90
        0
102
RTVSPost2010PropOp41
 70
     1
102
RTVSPost2010Prop42
 90
       50
102
RTVSPost2010PropOp42
 70
     1
102
RTVSPost2010Prop43
 90
        3
102
RTVSPost2010PropOp43
 70
     1
102
RTVSPost2010Prop44ColorIndex
 90
        5
102
RTVSPost2010Prop44ColorRGB
 90
      255
102
RTVSPost2010PropOp44
 70
     1
102
RTVSPost2010Prop45
280
     0
102
RTVSPost2010PropOp45
 70
     1
102
RTVSPost2010Prop46
 90
       50
102
RTVSPost2010PropOp46
 70
     1
102
RTVSPost2010Prop47
 90
       50
102
RTVSPost2010PropOp47
 70
     1
102
RTVSPost2010Prop48
 90
       50
102
RTVSPost2010PropOp48
 70
     1
102
RTVSPost2010Prop49
280
     0
102
RTVSPost2010PropOp49
 70
     1
102
RTVSPost2010Prop50
 90
       50
102
RTVSPost2010PropOp50
 70
     1
102
RTVSPost2010Prop51ColorIndex
 90
      256
102
RTVSPost2010Prop51ColorRGB
 90
-16777216
102
RTVSPost2010PropOp51
 70
     0
102
RTVSPost2010Prop52
140
1.0
102
RTVSPost2010PropOp52
 70
     0
102
RTVSPost2010Prop53
 90
        2
102
RTVSPost2010PropOp53
 70
     1
102
RTVSPost2010Prop54
  1
strokes_ogs.tif
102
RTVSPost2010PropOp54
 70
     1
102
RTVSPost2010Prop55
280
     0
102
RTVSPost2010PropOp55
 70
     1
102
RTVSPost2010Prop56
140
1.0
102
RTVSPost2010PropOp56
 70
     1
102
RTVSPost2010Prop57
140
1.0
102
RTVSPost2010PropOp57
 70
     1
102
RTVSPropertyOp0
 70
     1
102
RTVSPropertyOp1
 70
     1
102
RTVSPropertyOp2
 70
     1
102
RTVSPropertyOp3
 70
     1
102
RTVSPropertyOp4
 70
     1
102
RTVSPropertyOp5
 70
     1
102
RTVSPropertyOp6
 70
     1
102
RTVSPropertyOp7
 70
     1
102
RTVSPropertyOp8
 70
     1
102
RTVSPropertyOp9
 70
     1
102
RTVSPropertyOp10
 70
     1
102
RTVSPropertyOp11
 70
     1
102
RTVSPropertyOp12
 70
     1
102
RTVSPropertyOp13
 70
     1
102
RTVSPropertyOp14
 70
     1
102
RTVSPropertyOp15
 70
     1
102
RTVSPropertyOp16
 70
     1
102
RTVSPropertyOp17
 70
     1
102
RTVSPropertyOp18
 70
     1
102
RTVSPropertyOp19
 70
     1
102
RTVSPropertyOp20
 70
     1
102
RTVSPropertyOp21
 70
     1
102
RTVSPropertyOp22
 70
     1
102
RTVSPropertyOp23
 70
     1
102
RTVSPropertyOp24
 70
     1
102
RTVSPropertyOp25
 70
     1
102
RTVSPropertyOp26
 70
     1
102
RTVSPropertyOp27
 70
     1
102
RTVSPropertyOp28
 70
     1
102
RTVSPropertyOp29
 70
     1
102
RTVSPropertyOp30
 70
     1
102
RTVSPropertyOp31
 70
     1
102
RTVSPropertyOp32
 70
     1
102
RTVSPropertyOp33
 70
     1
102
RTVSPropertyOp34
 70
     1
102
RTVSPropertyOp35
 70
     1
102
RTVSPropertyOp36
 70
     1
102
RTVSPropertyOp37
 70
     1
102
RTVSPropertyOp38
 70
     1
102
RTVSPropertyOp39
 70
     1
102
RTVSPropertyOp40
 70
     1
102
RTVSPropertyOp41
 70
     1
102
RTVSPropertyOp42
 70
     1
102
RTVSPropertyOp43
 70
     1
102
RTVSPropertyOp44
 70
     1
102
RTVSPropertyOp45
 70
     1
102
RTVSPropertyOp46
 70
     1
102
RTVSPropertyOp47
 70
     1
102
RTVSPropertyOp48
 70
     1
102
RTVSPropertyOp49
 70
     1
102
RTVSPropertyOp50
 70
     1
102
RTVSPropertyOp51
 70
     0
102
RTVSPropertyOp52
 70
     0
102
RTVSPropertyOp53
 70
     1
102
RTVSPropertyOp54
 70
     1
102
RTVSPropertyOp55
 70
     1
102
RTVSPropertyOp56
 70
     1
102
RTVSPropertyOp57
 70
     1
102
RTVSPropertyOp58
 70
     1
102
RTVSPropertyOp59
 70
     1
102
RTVSPropertyOp60
 70
     1
102
RTVSPropertyOp61
 70
     1
102
RTVSPropertyOp62
 70
     1
  0
XRECORD
  5
A3D
102
{ACAD_REACTORS
330
A3C
102
}
330
A3C
100
AcDbXrecord
280
     1
102
RTVSPost2010Prop28
280
     0
102
RTVSPost2010PropOp28
 70
     1
102
RTVSPost2010Prop29
280
     1
102
RTVSPost2010PropOp29
 70
     1
102
RTVSPost2010Prop30
280
     1
102
RTVSPost2010PropOp30
 70
     1
102
RTVSPost2010Prop31
280
     0
102
RTVSPost2010PropOp31
 70
     1
102
RTVSPost2010Prop32
280
     0
102
RTVSPost2010PropOp32
 70
     1
102
RTVSPost2010Prop33
280
     0
102
RTVSPost2010PropOp33
 70
     1
102
RTVSPost2010Prop34
280
     0
102
RTVSPost2010PropOp34
 70
     1
102
RTVSPost2010Prop35
280
     0
102
RTVSPost2010PropOp35
 70
     1
102
RTVSPost2010Prop36
280
     0
102
RTVSPost2010PropOp36
 70
     1
102
RTVSPost2010Prop37
 90
       50
102
RTVSPost2010PropOp37
 70
     1
102
RTVSPost2010Prop38
140
0.0
102
RTVSPost2010PropOp38
 70
     1
102
RTVSPost2010Prop39
140
1.0
102
RTVSPost2010PropOp39
 70
     1
102
RTVSPost2010Prop40
 90
        0
102
RTVSPost2010PropOp40
 70
     1
102
RTVSPost2010Prop41ColorIndex
 90
       18
102
RTVSPost2010Prop41ColorRGB
 90
        0
102
RTVSPost2010PropOp41
 70
     1
102
RTVSPost2010Prop42
 90
       50
102
RTVSPost2010PropOp42
 70
     1
102
RTVSPost2010Prop43
 90
        3
102
RTVSPost2010PropOp43
 70
     1
102
RTVSPost2010Prop44ColorIndex
 90
        5
102
RTVSPost2010Prop44ColorRGB
 90
      255
102
RTVSPost2010PropOp44
 70
     1
102
RTVSPost2010Prop45
280
     0
102
RTVSPost2010PropOp45
 70
     1
102
RTVSPost2010Prop46
 90
       50
102
RTVSPost2010PropOp46
 70
     1
102
RTVSPost2010Prop47
 90
       50
102
RTVSPost2010PropOp47
 70
     1
102
RTVSPost2010Prop48
 90
       50
102
RTVSPost2010PropOp48
 70
     1
102
RTVSPost2010Prop49
280
     0
102
RTVSPost2010PropOp49
 70
     1
102
RTVSPost2010Prop50
 90
       50
102
RTVSPost2010PropOp50
 70
     1
102
RTVSPost2010Prop51ColorIndex
 90
      256
102
RTVSPost2010Prop51ColorRGB
 90
-16777216
102
RTVSPost2010PropOp51
 70
     0
102
RTVSPost2010Prop52
140
1.0
102
RTVSPost2010PropOp52
 70
     0
102
RTVSPost2010Prop53
 90
        2
102
RTVSPost2010PropOp53
 70
     1
102
RTVSPost2010Prop54
  1
strokes_ogs.tif
102
RTVSPost2010PropOp54
 70
     1
102
RTVSPost2010Prop55
280
     0
102
RTVSPost2010PropOp55
 70
     1
102
RTVSPost2010Prop56
140
1.0
102
RTVSPost2010PropOp56
 70
     1
102
RTVSPost2010Prop57
140
1.0
102
RTVSPost2010PropOp57
 70
     1
102
RTVSPropertyOp0
 70
     1
102
RTVSPropertyOp1
 70
     1
102
RTVSPropertyOp2
 70
     1
102
RTVSPropertyOp3
 70
     1
102
RTVSPropertyOp4
 70
     1
102
RTVSPropertyOp5
 70
     1
102
RTVSPropertyOp6
 70
     1
102
RTVSPropertyOp7
 70
     1
102
RTVSPropertyOp8
 70
     1
102
RTVSPropertyOp9
 70
     1
102
RTVSPropertyOp10
 70
     1
102
RTVSPropertyOp11
 70
     1
102
RTVSPropertyOp12
 70
     1
102
RTVSPropertyOp13
 70
     1
102
RTVSPropertyOp14
 70
     1
102
RTVSPropertyOp15
 70
     1
102
RTVSPropertyOp16
 70
     1
102
RTVSPropertyOp17
 70
     1
102
RTVSPropertyOp18
 70
     1
102
RTVSPropertyOp19
 70
     1
102
RTVSPropertyOp20
 70
     1
102
RTVSPropertyOp21
 70
     1
102
RTVSPropertyOp22
 70
     1
102
RTVSPropertyOp23
 70
     1
102
RTVSPropertyOp24
 70
     1
102
RTVSPropertyOp25
 70
     1
102
RTVSPropertyOp26
 70
     1
102
RTVSPropertyOp27
 70
     1
102
RTVSPropertyOp28
 70
     1
102
RTVSPropertyOp29
 70
     1
102
RTVSPropertyOp30
 70
     1
102
RTVSPropertyOp31
 70
     1
102
RTVSPropertyOp32
 70
     1
102
RTVSPropertyOp33
 70
     1
102
RTVSPropertyOp34
 70
     1
102
RTVSPropertyOp35
 70
     1
102
RTVSPropertyOp36
 70
     1
102
RTVSPropertyOp37
 70
     1
102
RTVSPropertyOp38
 70
     1
102
RTVSPropertyOp39
 70
     1
102
RTVSPropertyOp40
 70
     1
102
RTVSPropertyOp41
 70
     1
102
RTVSPropertyOp42
 70
     1
102
RTVSPropertyOp43
 70
     1
102
RTVSPropertyOp44
 70
     1
102
RTVSPropertyOp45
 70
     1
102
RTVSPropertyOp46
 70
     1
102
RTVSPropertyOp47
 70
     1
102
RTVSPropertyOp48
 70
     1
102
RTVSPropertyOp49
 70
     1
102
RTVSPropertyOp50
 70
     1
102
RTVSPropertyOp51
 70
     0
102
RTVSPropertyOp52
 70
     0
102
RTVSPropertyOp53
 70
     1
102
RTVSPropertyOp54
 70
     1
102
RTVSPropertyOp55
 70
     1
102
RTVSPropertyOp56
 70
     1
102
RTVSPropertyOp57
 70
     1
102
RTVSPropertyOp58
 70
     1
102
RTVSPropertyOp59
 70
     1
102
RTVSPropertyOp60
 70
     1
102
RTVSPropertyOp61
 70
     1
102
RTVSPropertyOp62
 70
     1
  0
XRECORD
  5
A5D
102
{ACAD_REACTORS
330
A5C
102
}
330
A5C
100
AcDbXrecord
280
     1
102
RTVSPost2010Prop28
280
     0
102
RTVSPost2010PropOp28
 70
     1
102
RTVSPost2010Prop29
280
     1
102
RTVSPost2010PropOp29
 70
     1
102
RTVSPost2010Prop30
280
     1
102
RTVSPost2010PropOp30
 70
     1
102
RTVSPost2010Prop31
280
     0
102
RTVSPost2010PropOp31
 70
     1
102
RTVSPost2010Prop32
280
     0
102
RTVSPost2010PropOp32
 70
     1
102
RTVSPost2010Prop33
280
     0
102
RTVSPost2010PropOp33
 70
     1
102
RTVSPost2010Prop34
280
     0
102
RTVSPost2010PropOp34
 70
     1
102
RTVSPost2010Prop35
280
     0
102
RTVSPost2010PropOp35
 70
     1
102
RTVSPost2010Prop36
280
     0
102
RTVSPost2010PropOp36
 70
     1
102
RTVSPost2010Prop37
 90
       50
102
RTVSPost2010PropOp37
 70
     1
102
RTVSPost2010Prop38
140
0.0
102
RTVSPost2010PropOp38
 70
     1
102
RTVSPost2010Prop39
140
1.0
102
RTVSPost2010PropOp39
 70
     1
102
RTVSPost2010Prop40
 90
        0
102
RTVSPost2010PropOp40
 70
     1
102
RTVSPost2010Prop41ColorIndex
 90
       18
102
RTVSPost2010Prop41ColorRGB
 90
        0
102
RTVSPost2010PropOp41
 70
     1
102
RTVSPost2010Prop42
 90
       50
102
RTVSPost2010PropOp42
 70
     1
102
RTVSPost2010Prop43
 90
        3
102
RTVSPost2010PropOp43
 70
     1
102
RTVSPost2010Prop44ColorIndex
 90
        5
102
RTVSPost2010Prop44ColorRGB
 90
      255
102
RTVSPost2010PropOp44
 70
     1
102
RTVSPost2010Prop45
280
     0
102
RTVSPost2010PropOp45
 70
     1
102
RTVSPost2010Prop46
 90
       50
102
RTVSPost2010PropOp46
 70
     1
102
RTVSPost2010Prop47
 90
       50
102
RTVSPost2010PropOp47
 70
     1
102
RTVSPost2010Prop48
 90
       50
102
RTVSPost2010PropOp48
 70
     1
102
RTVSPost2010Prop49
280
     0
102
RTVSPost2010PropOp49
 70
     1
102
RTVSPost2010Prop50
 90
       50
102
RTVSPost2010PropOp50
 70
     1
102
RTVSPost2010Prop51ColorIndex
 90
      256
102
RTVSPost2010Prop51ColorRGB
 90
-16777216
102
RTVSPost2010PropOp51
 70
     0
102
RTVSPost2010Prop52
140
1.0
102
RTVSPost2010PropOp52
 70
     0
102
RTVSPost2010Prop53
 90
        2
102
RTVSPost2010PropOp53
 70
     1
102
RTVSPost2010Prop54
  1
strokes_ogs.tif
102
RTVSPost2010PropOp54
 70
     1
102
RTVSPost2010Prop55
280
     0
102
RTVSPost2010PropOp55
 70
     1
102
RTVSPost2010Prop56
140
1.0
102
RTVSPost2010PropOp56
 70
     1
102
RTVSPost2010Prop57
140
1.0
102
RTVSPost2010PropOp57
 70
     1
102
RTVSPropertyOp0
 70
     1
102
RTVSPropertyOp1
 70
     1
102
RTVSPropertyOp2
 70
     1
102
RTVSPropertyOp3
 70
     1
102
RTVSPropertyOp4
 70
     1
102
RTVSPropertyOp5
 70
     1
102
RTVSPropertyOp6
 70
     1
102
RTVSPropertyOp7
 70
     1
102
RTVSPropertyOp8
 70
     1
102
RTVSPropertyOp9
 70
     1
102
RTVSPropertyOp10
 70
     1
102
RTVSPropertyOp11
 70
     1
102
RTVSPropertyOp12
 70
     1
102
RTVSPropertyOp13
 70
     1
102
RTVSPropertyOp14
 70
     1
102
RTVSPropertyOp15
 70
     1
102
RTVSPropertyOp16
 70
     1
102
RTVSPropertyOp17
 70
     1
102
RTVSPropertyOp18
 70
     1
102
RTVSPropertyOp19
 70
     1
102
RTVSPropertyOp20
 70
     1
102
RTVSPropertyOp21
 70
     1
102
RTVSPropertyOp22
 70
     1
102
RTVSPropertyOp23
 70
     1
102
RTVSPropertyOp24
 70
     1
102
RTVSPropertyOp25
 70
     1
102
RTVSPropertyOp26
 70
     1
102
RTVSPropertyOp27
 70
     1
102
RTVSPropertyOp28
 70
     1
102
RTVSPropertyOp29
 70
     1
102
RTVSPropertyOp30
 70
     1
102
RTVSPropertyOp31
 70
     1
102
RTVSPropertyOp32
 70
     1
102
RTVSPropertyOp33
 70
     1
102
RTVSPropertyOp34
 70
     1
102
RTVSPropertyOp35
 70
     1
102
RTVSPropertyOp36
 70
     1
102
RTVSPropertyOp37
 70
     1
102
RTVSPropertyOp38
 70
     1
102
RTVSPropertyOp39
 70
     1
102
RTVSPropertyOp40
 70
     1
102
RTVSPropertyOp41
 70
     1
102
RTVSPropertyOp42
 70
     1
102
RTVSPropertyOp43
 70
     1
102
RTVSPropertyOp44
 70
     1
102
RTVSPropertyOp45
 70
     1
102
RTVSPropertyOp46
 70
     1
102
RTVSPropertyOp47
 70
     1
102
RTVSPropertyOp48
 70
     1
102
RTVSPropertyOp49
 70
     1
102
RTVSPropertyOp50
 70
     1
102
RTVSPropertyOp51
 70
     0
102
RTVSPropertyOp52
 70
     0
102
RTVSPropertyOp53
 70
     1
102
RTVSPropertyOp54
 70
     1
102
RTVSPropertyOp55
 70
     1
102
RTVSPropertyOp56
 70
     1
102
RTVSPropertyOp57
 70
     1
102
RTVSPropertyOp58
 70
     1
102
RTVSPropertyOp59
 70
     1
102
RTVSPropertyOp60
 70
     1
102
RTVSPropertyOp61
 70
     1
102
RTVSPropertyOp62
 70
     1
  0
ENDSEC
  0
EOF
