  0
SECTION
  2
HEADER
  9
$ACADVER
  1
AC1015
  9
$ACADMAINTVER
 70
    18
  9
$DWGCODEPAGE
  3
ANSI_1252
  9
$INSBASE
 10
0.0
 20
0.0
 30
0.0
  9
$EXTMIN
 10
-9.273375497750635
 20
-101.273482702758
 30
-0.0015258207003583
  9
$EXTMAX
 10
23.41095022322952
 20
0.0135959268239958
 30
0.0000000349246037
  9
$LIMMIN
 10
0.0
 20
0.0
  9
$LIMMAX
 10
420.0
 20
297.0
  9
$ORTHOMODE
 70
     0
  9
$REGENMODE
 70
     1
  9
$FILLMODE
 70
     1
  9
$QTEXTMODE
 70
     0
  9
$MIRRTEXT
 70
     0
  9
$LTSCALE
 40
1.0
  9
$ATTMODE
 70
     1
  9
$TEXTSIZE
 40
2.5
  9
$TRACEWID
 40
1.0
  9
$TEXTSTYLE
  7
Standard
  9
$CLAYER
  8
0
  9
$CELTYPE
  6
ByLayer
  9
$CECOLOR
 62
   256
  9
$CELTSCALE
 40
1.0
  9
$DISPSILH
 70
     0
  9
$DIMSCALE
 40
1.0
  9
$DIMASZ
 40
2.5
  9
$DIMEXO
 40
0.625
  9
$DIMDLI
 40
3.75
  9
$DIMRND
 40
0.0
  9
$DIMDLE
 40
0.0
  9
$DIMEXE
 40
1.25
  9
$DIMTP
 40
0.0
  9
$DIMTM
 40
0.0
  9
$DIMTXT
 40
2.5
  9
$DIMCEN
 40
2.5
  9
$DIMTSZ
 40
0.0
  9
$DIMTOL
 70
     0
  9
$DIMLIM
 70
     0
  9
$DIMTIH
 70
     0
  9
$DIMTOH
 70
     0
  9
$DIMSE1
 70
     0
  9
$DIMSE2
 70
     0
  9
$DIMTAD
 70
     1
  9
$DIMZIN
 70
     8
  9
$DIMBLK
  1

  9
$DIMASO
 70
     1
  9
$DIMSHO
 70
     1
  9
$DIMPOST
  1

  9
$DIMAPOST
  1

  9
$DIMALT
 70
     0
  9
$DIMALTD
 70
     3
  9
$DIMALTF
 40
0.03937007874016
  9
$DIMLFAC
 40
1.0
  9
$DIMTOFL
 70
     1
  9
$DIMTVP
 40
0.0
  9
$DIMTIX
 70
     0
  9
$DIMSOXD
 70
     0
  9
$DIMSAH
 70
     0
  9
$DIMBLK1
  1

  9
$DIMBLK2
  1

  9
$DIMSTYLE
  2
ISO-25
  9
$DIMCLRD
 70
     0
  9
$DIMCLRE
 70
     0
  9
$DIMCLRT
 70
     0
  9
$DIMTFAC
 40
1.0
  9
$DIMGAP
 40
0.625
  9
$DIMJUST
 70
     0
  9
$DIMSD1
 70
     0
  9
$DIMSD2
 70
     0
  9
$DIMTOLJ
 70
     0
  9
$DIMTZIN
 70
     8
  9
$DIMALTZ
 70
     0
  9
$DIMALTTZ
 70
     0
  9
$DIMUPT
 70
     0
  9
$DIMDEC
 70
     2
  9
$DIMTDEC
 70
     2
  9
$DIMALTU
 70
     2
  9
$DIMALTTD
 70
     3
  9
$DIMTXSTY
  7
Standard
  9
$DIMAUNIT
 70
     0
  9
$DIMADEC
 70
     0
  9
$DIMALTRND
 40
0.0
  9
$DIMAZIN
 70
     0
  9
$DIMDSEP
 70
    44
  9
$DIMATFIT
 70
     3
  9
$DIMFRAC
 70
     0
  9
$DIMLDRBLK
  1

  9
$DIMLUNIT
 70
     2
  9
$DIMLWD
 70
    -2
  9
$DIMLWE
 70
    -2
  9
$DIMTMOVE
 70
     0
  9
$LUNITS
 70
     2
  9
$LUPREC
 70
     4
  9
$SKETCHINC
 40
1.0
  9
$FILLETRAD
 40
0.0
  9
$AUNITS
 70
     0
  9
$AUPREC
 70
     0
  9
$MENU
  1
.
  9
$ELEVATION
 40
0.0
  9
$PELEVATION
 40
0.0
  9
$THICKNESS
 40
0.0
  9
$LIMCHECK
 70
     0
  9
$CHAMFERA
 40
0.0
  9
$CHAMFERB
 40
0.0
  9
$CHAMFERC
 40
0.0
  9
$CHAMFERD
 40
0.0
  9
$SKPOLY
 70
     0
  9
$TDCREATE
 40
2460733.571354167
  9
$TDUCREATE
 40
2460733.279687500
  9
$TDUPDATE
 40
2460733.600428241
  9
$TDUUPDATE
 40
2460733.308761574
  9
$TDINDWG
 40
0.0023611111
  9
$TDUSRTIMER
 40
0.0023611111
  9
$USRTIMER
 70
     1
  9
$ANGBASE
 50
0.0
  9
$ANGDIR
 70
     0
  9
$PDMODE
 70
     0
  9
$PDSIZE
 40
0.0
  9
$PLINEWID
 40
0.0
  9
$SPLFRAME
 70
     0
  9
$SPLINETYPE
 70
     6
  9
$SPLINESEGS
 70
     8
  9
$HANDSEED
  5
16937
  9
$SURFTAB1
 70
     6
  9
$SURFTAB2
 70
     6
  9
$SURFTYPE
 70
     6
  9
$SURFU
 70
     6
  9
$SURFV
 70
     6
  9
$UCSBASE
  2

  9
$UCSNAME
  2

  9
$UCSORG
 10
0.0
 20
0.0
 30
0.0
  9
$UCSXDIR
 10
1.0
 20
0.0
 30
0.0
  9
$UCSYDIR
 10
0.0
 20
1.0
 30
0.0
  9
$UCSORTHOREF
  2

  9
$UCSORTHOVIEW
 70
     0
  9
$UCSORGTOP
 10
0.0
 20
0.0
 30
0.0
  9
$UCSORGBOTTOM
 10
0.0
 20
0.0
 30
0.0
  9
$UCSORGLEFT
 10
0.0
 20
0.0
 30
0.0
  9
$UCSORGRIGHT
 10
0.0
 20
0.0
 30
0.0
  9
$UCSORGFRONT
 10
0.0
 20
0.0
 30
0.0
  9
$UCSORGBACK
 10
0.0
 20
0.0
 30
0.0
  9
$PUCSBASE
  2

  9
$PUCSNAME
  2

  9
$PUCSORG
 10
0.0
 20
0.0
 30
0.0
  9
$PUCSXDIR
 10
1.0
 20
0.0
 30
0.0
  9
$PUCSYDIR
 10
0.0
 20
1.0
 30
0.0
  9
$PUCSORTHOREF
  2

  9
$PUCSORTHOVIEW
 70
     0
  9
$PUCSORGTOP
 10
0.0
 20
0.0
 30
0.0
  9
$PUCSORGBOTTOM
 10
0.0
 20
0.0
 30
0.0
  9
$PUCSORGLEFT
 10
0.0
 20
0.0
 30
0.0
  9
$PUCSORGRIGHT
 10
0.0
 20
0.0
 30
0.0
  9
$PUCSORGFRONT
 10
0.0
 20
0.0
 30
0.0
  9
$PUCSORGBACK
 10
0.0
 20
0.0
 30
0.0
  9
$USERI1
 70
     0
  9
$USERI2
 70
     0
  9
$USERI3
 70
     0
  9
$USERI4
 70
     0
  9
$USERI5
 70
     0
  9
$USERR1
 40
0.0
  9
$USERR2
 40
0.0
  9
$USERR3
 40
0.0
  9
$USERR4
 40
0.0
  9
$USERR5
 40
0.0
  9
$WORLDVIEW
 70
     1
  9
$SHADEDGE
 70
     3
  9
$SHADEDIF
 70
    70
  9
$TILEMODE
 70
     1
  9
$MAXACTVP
 70
    48
  9
$PINSBASE
 10
0.0
 20
0.0
 30
0.0
  9
$PLIMCHECK
 70
     0
  9
$PEXTMIN
 10
0.0
 20
0.0
 30
0.0
  9
$PEXTMAX
 10
0.0
 20
0.0
 30
0.0
  9
$PLIMMIN
 10
0.0
 20
0.0
  9
$PLIMMAX
 10
12.0
 20
9.0
  9
$UNITMODE
 70
     0
  9
$VISRETAIN
 70
     1
  9
$PLINEGEN
 70
     0
  9
$PSLTSCALE
 70
     1
  9
$TREEDEPTH
 70
  3020
  9
$CMLSTYLE
  2
Standard
  9
$CMLJUST
 70
     0
  9
$CMLSCALE
 40
20.0
  9
$PROXYGRAPHICS
 70
     1
  9
$MEASUREMENT
 70
     1
  9
$CELWEIGHT
370
    -1
  9
$ENDCAPS
280
     0
  9
$JOINSTYLE
280
     0
  9
$LWDISPLAY
290
     0
  9
$INSUNITS
 70
     4
  9
$HYPERLINKBASE
  1

  9
$STYLESHEET
  1

  9
$XEDIT
290
     1
  9
$CEPSNTYPE
380
     0
  9
$PSTYLEMODE
290
     1
  9
$FINGERPRINTGUID
  2
{6CB9A169-B505-1E4C-8D04-AD9216FC5A69}
  9
$VERSIONGUID
  2
{F9B83081-93AB-A44D-A966-47DF8A2596E9}
  9
$EXTNAMES
290
     1
  9
$PSVPSCALE
 40
0.0
  9
$OLESTARTUP
290
     0
  0
ENDSEC
  0
SECTION
  2
CLASSES
  0
CLASS
  1
ACDBDICTIONARYWDFLT
  2
AcDbDictionaryWithDefault
  3
ObjectDBX Classes
 90
        0
280
     0
281
     0
  0
CLASS
  1
ACDBPLACEHOLDER
  2
AcDbPlaceHolder
  3
ObjectDBX Classes
 90
        0
280
     0
281
     0
  0
CLASS
  1
LAYOUT
  2
AcDbLayout
  3
ObjectDBX Classes
 90
        0
280
     0
281
     0
  0
CLASS
  1
DICTIONARYVAR
  2
AcDbDictionaryVar
  3
ObjectDBX Classes
 90
        0
280
     0
281
     0
  0
CLASS
  1
TABLESTYLE
  2
AcDbTableStyle
  3
ObjectDBX Classes
 90
     4095
280
     0
281
     0
  0
CLASS
  1
MATERIAL
  2
AcDbMaterial
  3
ObjectDBX Classes
 90
     1153
280
     0
281
     0
  0
CLASS
  1
VISUALSTYLE
  2
AcDbVisualStyle
  3
ObjectDBX Classes
 90
     4095
280
     0
281
     0
  0
CLASS
  1
SCALE
  2
AcDbScale
  3
ObjectDBX Classes
 90
     1153
280
     0
281
     0
  0
CLASS
  1
MLEADERSTYLE
  2
AcDbMLeaderStyle
  3
ACDB_MLEADERSTYLE_CLASS
 90
     4095
280
     0
281
     0
  0
CLASS
  1
CELLSTYLEMAP
  2
AcDbCellStyleMap
  3
ObjectDBX Classes
 90
     1152
280
     0
281
     0
  0
CLASS
  1
EXACXREFPANELOBJECT
  2
ExAcXREFPanelObject
  3
EXAC_ESW
 90
    33793
280
     0
281
     0
  0
CLASS
  1
NPOCOLLECTION
  2
AcDbImpNonPersistentObjectsCollection
  3
ObjectDBX Classes
 90
    33921
280
     0
281
     0
  0
CLASS
  1
LAYER_INDEX
  2
AcDbLayerIndex
  3
ObjectDBX Classes
 90
    32768
280
     0
281
     0
  0
CLASS
  1
SPATIAL_INDEX
  2
AcDbSpatialIndex
  3
ObjectDBX Classes
 90
    32768
280
     0
281
     0
  0
CLASS
  1
IDBUFFER
  2
AcDbIdBuffer
  3
ObjectDBX Classes
 90
    32768
280
     0
281
     0
  0
CLASS
  1
ACDBSECTIONVIEWSTYLE
  2
AcDbSectionViewStyle
  3
ObjectDBX Classes
 90
     1025
280
     0
281
     0
  0
CLASS
  1
ACDBDETAILVIEWSTYLE
  2
AcDbDetailViewStyle
  3
ObjectDBX Classes
 90
     1025
280
     0
281
     0
  0
CLASS
  1
XRECORD
  2
AcDbXrecord
  3
ObjectDBX Classes
 90
        0
280
     0
281
     0
  0
ENDSEC
  0
SECTION
  2
TABLES
  0
TABLE
  2
VPORT
  5
8
102
{ACAD_XDICTIONARY
360
16845
102
}
330
0
100
AcDbSymbolTable
 70
     1
  0
VPORT
  5
EA
330
8
100
AcDbSymbolTableRecord
100
AcDbViewportTableRecord
  2
*Active
 70
     0
 10
0.0
 20
0.0
 11
1.0
 21
1.0
 12
7.068787362739449
 22
-50.62994338796702
 13
0.0
 23
0.0
 14
10.0
 24
10.0
 15
10.0
 25
10.0
 16
0.0
 26
0.0
 36
1.0
 17
0.0
 27
0.0
 37
0.0
 40
107.7096291516302
 41
0.9846153846153846
 42
50.0
 43
0.0
 44
0.0
 50
0.0
 51
0.0
 71
     0
 72
  1000
 73
     1
 74
     3
 75
     0
 76
     1
 77
     0
 78
     0
281
     0
 65
     1
110
0.0
120
0.0
130
0.0
111
1.0
121
0.0
131
0.0
112
0.0
122
1.0
132
0.0
 79
     0
146
0.0
1001
ACAD_NAV_VCDISPLAY
1070
     3
  0
ENDTAB
  0
TABLE
  2
LTYPE
  5
5
330
0
100
AcDbSymbolTable
 70
     1
  0
LTYPE
  5
14
330
5
100
AcDbSymbolTableRecord
100
AcDbLinetypeTableRecord
  2
ByBlock
 70
     0
  3

 72
    65
 73
     0
 40
0.0
  0
LTYPE
  5
15
330
5
100
AcDbSymbolTableRecord
100
AcDbLinetypeTableRecord
  2
ByLayer
 70
     0
  3

 72
    65
 73
     0
 40
0.0
  0
LTYPE
  5
16
330
5
100
AcDbSymbolTableRecord
100
AcDbLinetypeTableRecord
  2
Continuous
 70
     0
  3
Solid line
 72
    65
 73
     0
 40
0.0
  0
ENDTAB
  0
TABLE
  2
LAYER
  5
2
102
{ACAD_XDICTIONARY
360
1FF
102
}
330
0
100
AcDbSymbolTable
 70
     1
  0
LAYER
  5
10
102
{ACAD_XDICTIONARY
360
13C
102
}
330
2
100
AcDbSymbolTableRecord
100
AcDbLayerTableRecord
  2
0
 70
     0
 62
     7
  6
Continuous
370
    -3
390
F
  0
ENDTAB
  0
TABLE
  2
STYLE
  5
3
330
0
100
AcDbSymbolTable
 70
     1
  0
STYLE
  5
11
330
3
100
AcDbSymbolTableRecord
100
AcDbTextStyleTableRecord
  2
Standard
 70
     0
 40
0.0
 41
1.0
 50
0.0
 71
     0
 42
2.5
  3
arial.ttf
  4

1001
ACAD
1000
Arial
1071
       34
  0
ENDTAB
  0
TABLE
  2
VIEW
  5
6
330
0
100
AcDbSymbolTable
 70
     0
  0
ENDTAB
  0
TABLE
  2
UCS
  5
7
330
0
100
AcDbSymbolTable
 70
     0
  0
ENDTAB
  0
TABLE
  2
APPID
  5
9
330
0
100
AcDbSymbolTable
 70
     8
  0
APPID
  5
12
330
9
100
AcDbSymbolTableRecord
100
AcDbRegAppTableRecord
  2
ACAD
 70
     0
  0
APPID
  5
9E
330
9
100
AcDbSymbolTableRecord
100
AcDbRegAppTableRecord
  2
ACAD_PSEXT
 70
     0
  0
APPID
  5
133
330
9
100
AcDbSymbolTableRecord
100
AcDbRegAppTableRecord
  2
AcadAnnoPO
 70
     0
  0
APPID
  5
134
330
9
100
AcDbSymbolTableRecord
100
AcDbRegAppTableRecord
  2
AcadAnnotative
 70
     0
  0
APPID
  5
135
330
9
100
AcDbSymbolTableRecord
100
AcDbRegAppTableRecord
  2
ACAD_DSTYLE_DIMJAG
 70
     0
  0
APPID
  5
136
330
9
100
AcDbSymbolTableRecord
100
AcDbRegAppTableRecord
  2
ACAD_DSTYLE_DIMTALN
 70
     0
  0
APPID
  5
165
330
9
100
AcDbSymbolTableRecord
100
AcDbRegAppTableRecord
  2
ACAD_MLEADERVER
 70
     0
  0
APPID
  5
217
330
9
100
AcDbSymbolTableRecord
100
AcDbRegAppTableRecord
  2
ACAD_NAV_VCDISPLAY
 70
     0
  0
ENDTAB
  0
TABLE
  2
DIMSTYLE
  5
A
330
0
100
AcDbSymbolTable
 70
     1
100
AcDbDimStyleTable
 71
     0
  0
DIMSTYLE
105
27
330
A
100
AcDbSymbolTableRecord
100
AcDbDimStyleTableRecord
  2
ISO-25
 70
     0
 41
2.5
 42
0.625
 43
3.75
 44
1.25
 73
     0
 74
     0
 77
     1
 78
     8
140
2.5
141
2.5
143
0.03937007874016
147
0.625
171
     3
172
     1
271
     2
272
     2
274
     3
278
    44
283
     0
284
     8
340
11
  0
ENDTAB
  0
TABLE
  2
BLOCK_RECORD
  5
1
330
0
100
AcDbSymbolTable
 70
     4
  0
BLOCK_RECORD
  5
1F
102
{ACAD_XDICTIONARY
360
1CE
102
}
330
1
100
AcDbSymbolTableRecord
100
AcDbBlockTableRecord
  2
*Model_Space
340
22
  0
BLOCK_RECORD
  5
D2
102
{ACAD_XDICTIONARY
360
167F6
102
}
330
1
100
AcDbSymbolTableRecord
100
AcDbBlockTableRecord
  2
*Paper_Space
340
D3
  0
BLOCK_RECORD
  5
D6
102
{ACAD_XDICTIONARY
360
167F8
102
}
330
1
100
AcDbSymbolTableRecord
100
AcDbBlockTableRecord
  2
*Paper_Space0
340
D7
  0
BLOCK_RECORD
  5
16358
330
1
100
AcDbSymbolTableRecord
100
AcDbBlockTableRecord
  2
CLNG28x48-Front
340
0
102
{BLKREFS
331
167EF
102
}
  0
BLOCK_RECORD
  5
166B3
330
1
100
AcDbSymbolTableRecord
100
AcDbBlockTableRecord
  2
CLNG28x48-Top
340
0
102
{BLKREFS
331
167F0
102
}
  0
BLOCK_RECORD
  5
166EB
330
1
100
AcDbSymbolTableRecord
100
AcDbBlockTableRecord
  2
CLNG28x48-ISO
340
0
102
{BLKREFS
331
167F1
102
}
  0
ENDTAB
  0
ENDSEC
  0
SECTION
  2
BLOCKS
  0
BLOCK
  5
20
330
1F
100
AcDbEntity
  8
0
100
AcDbBlockBegin
  2
*Model_Space
 70
     0
 10
0.0
 20
0.0
 30
0.0
  3
*Model_Space
  1

  0
ENDBLK
  5
21
330
1F
100
AcDbEntity
  8
0
100
AcDbBlockEnd
  0
BLOCK
  5
D4
330
D2
100
AcDbEntity
 67
     1
  8
0
100
AcDbBlockBegin
  2
*Paper_Space
 70
     0
 10
0.0
 20
0.0
 30
0.0
  3
*Paper_Space
  1

  0
ENDBLK
  5
D5
330
D2
100
AcDbEntity
 67
     1
  8
0
100
AcDbBlockEnd
  0
BLOCK
  5
D8
330
D6
100
AcDbEntity
 67
     1
  8
0
100
AcDbBlockBegin
  2
*Paper_Space0
 70
     0
 10
0.0
 20
0.0
 30
0.0
  3
*Paper_Space0
  1

  0
ENDBLK
  5
D9
330
D6
100
AcDbEntity
 67
     1
  8
0
100
AcDbBlockEnd
  0
BLOCK
  5
16359
330
16358
100
AcDbEntity
  8
0
100
AcDbBlockBegin
  2
CLNG28x48-Front
 70
     0
 10
0.0
 20
0.0
 30
0.0
  3
CLNG28x48-Front
  1

  0
LINE
  5
1635B
330
16358
100
AcDbEntity
  8
0
100
AcDbLine
 10
1.399999999999993
 20
-21.0
 30
0.0
 11
-1.399999999999993
 21
-21.0
 31
0.0
  0
ARC
  5
1635C
330
16358
100
AcDbEntity
  8
0
100
AcDbCircle
 10
-1.399999999999997
 20
-21.05754952409843
 30
0.0
 40
0.0575495240984257
100
AcDbArc
 50
89.99999999999557
 51
194.9999999999987
  0
ARC
  5
1635D
330
16358
100
AcDbEntity
  8
0
100
AcDbCircle
 10
1.399999999999997
 20
-21.05754952409843
 30
0.0
 40
0.0575495240984257
100
AcDbArc
 50
345.0000000000013
 51
90.0
  0
LINE
  5
1635E
330
16358
100
AcDbEntity
  8
0
100
AcDbLine
 10
0.7211102550927972
 20
-6.000000000000006
 30
0.0
 11
-0.7211102550927972
 21
-6.000000000000006
 31
0.0
  0
LINE
  5
1635F
330
16358
100
AcDbEntity
  8
0
100
AcDbLine
 10
0.7211102550927972
 20
-6.0
 30
0.0
 11
0.7211102550927975
 21
-6.199999999999999
 31
0.0
  0
LINE
  5
16360
330
16358
100
AcDbEntity
  8
0
100
AcDbLine
 10
-0.7211102550927975
 20
-6.2
 30
0.0
 11
0.7211102550927975
 21
-6.2
 31
0.0
  0
LINE
  5
16361
330
16358
100
AcDbEntity
  8
0
100
AcDbLine
 10
-0.7211102550927975
 20
-6.199999999999999
 30
0.0
 11
-0.7211102550927972
 21
-6.0
 31
0.0
  0
LINE
  5
16362
330
16358
100
AcDbEntity
  8
0
100
AcDbLine
 10
0.7211102550927972
 20
-6.750000000000007
 30
0.0
 11
-0.7211102550927972
 21
-6.750000000000007
 31
0.0
  0
LINE
  5
16363
330
16358
100
AcDbEntity
  8
0
100
AcDbLine
 10
0.7211102550927972
 20
-6.75
 30
0.0
 11
0.7211102550927975
 21
-6.949999999999998
 31
0.0
  0
LINE
  5
16364
330
16358
100
AcDbEntity
  8
0
100
AcDbLine
 10
-0.7211102550927975
 20
-6.950000000000001
 30
0.0
 11
0.7211102550927975
 21
-6.950000000000001
 31
0.0
  0
LINE
  5
16365
330
16358
100
AcDbEntity
  8
0
100
AcDbLine
 10
-0.7211102550927975
 20
-6.949999999999998
 30
0.0
 11
-0.7211102550927972
 21
-6.75
 31
0.0
  0
LINE
  5
16366
330
16358
100
AcDbEntity
  8
0
100
AcDbLine
 10
0.7211102550927972
 20
-7.500000000000007
 30
0.0
 11
-0.7211102550927972
 21
-7.500000000000007
 31
0.0
  0
LINE
  5
16367
330
16358
100
AcDbEntity
  8
0
100
AcDbLine
 10
0.7211102550927972
 20
-7.5
 30
0.0
 11
0.7211102550927975
 21
-7.699999999999997
 31
0.0
  0
LINE
  5
16368
330
16358
100
AcDbEntity
  8
0
100
AcDbLine
 10
-0.7211102550927975
 20
-7.7
 30
0.0
 11
0.7211102550927975
 21
-7.7
 31
0.0
  0
LINE
  5
16369
330
16358
100
AcDbEntity
  8
0
100
AcDbLine
 10
-0.7211102550927975
 20
-7.699999999999997
 30
0.0
 11
-0.7211102550927972
 21
-7.5
 31
0.0
  0
LINE
  5
1636A
330
16358
100
AcDbEntity
  8
0
100
AcDbLine
 10
0.7211102550927972
 20
-8.250000000000007
 30
0.0
 11
-0.7211102550927972
 21
-8.250000000000007
 31
0.0
  0
LINE
  5
1636B
330
16358
100
AcDbEntity
  8
0
100
AcDbLine
 10
0.7211102550927972
 20
-8.25
 30
0.0
 11
0.7211102550927975
 21
-8.449999999999999
 31
0.0
  0
LINE
  5
1636C
330
16358
100
AcDbEntity
  8
0
100
AcDbLine
 10
-0.7211102550927975
 20
-8.449999999999999
 30
0.0
 11
0.7211102550927975
 21
-8.449999999999999
 31
0.0
  0
LINE
  5
1636D
330
16358
100
AcDbEntity
  8
0
100
AcDbLine
 10
-0.7211102550927975
 20
-8.449999999999999
 30
0.0
 11
-0.7211102550927972
 21
-8.25
 31
0.0
  0
LINE
  5
1636E
330
16358
100
AcDbEntity
  8
0
100
AcDbLine
 10
0.7211102550927972
 20
-9.000000000000005
 30
0.0
 11
-0.7211102550927972
 21
-9.000000000000005
 31
0.0
  0
LINE
  5
1636F
330
16358
100
AcDbEntity
  8
0
100
AcDbLine
 10
0.7211102550927972
 20
-9.0
 30
0.0
 11
0.7211102550927975
 21
-9.199999999999999
 31
0.0
  0
LINE
  5
16370
330
16358
100
AcDbEntity
  8
0
100
AcDbLine
 10
-0.7211102550927975
 20
-9.199999999999999
 30
0.0
 11
0.7211102550927975
 21
-9.199999999999999
 31
0.0
  0
LINE
  5
16371
330
16358
100
AcDbEntity
  8
0
100
AcDbLine
 10
-0.7211102550927975
 20
-9.199999999999999
 30
0.0
 11
-0.7211102550927972
 21
-9.0
 31
0.0
  0
LINE
  5
16372
330
16358
100
AcDbEntity
  8
0
100
AcDbLine
 10
0.7211102550927972
 20
-9.750000000000007
 30
0.0
 11
-0.7211102550927972
 21
-9.750000000000007
 31
0.0
  0
LINE
  5
16373
330
16358
100
AcDbEntity
  8
0
100
AcDbLine
 10
0.7211102550927972
 20
-9.75
 30
0.0
 11
0.7211102550927975
 21
-9.949999999999999
 31
0.0
  0
LINE
  5
16374
330
16358
100
AcDbEntity
  8
0
100
AcDbLine
 10
-0.7211102550927975
 20
-9.950000000000001
 30
0.0
 11
0.7211102550927975
 21
-9.950000000000001
 31
0.0
  0
LINE
  5
16375
330
16358
100
AcDbEntity
  8
0
100
AcDbLine
 10
-0.7211102550927975
 20
-9.949999999999999
 30
0.0
 11
-0.7211102550927972
 21
-9.75
 31
0.0
  0
LINE
  5
16376
330
16358
100
AcDbEntity
  8
0
100
AcDbLine
 10
0.7211102550927972
 20
-10.5
 30
0.0
 11
-0.7211102550927972
 21
-10.5
 31
0.0
  0
LINE
  5
16377
330
16358
100
AcDbEntity
  8
0
100
AcDbLine
 10
0.7211102550927972
 20
-10.5
 30
0.0
 11
0.7211102550927975
 21
-10.7
 31
0.0
  0
LINE
  5
16378
330
16358
100
AcDbEntity
  8
0
100
AcDbLine
 10
-0.7211102550927975
 20
-10.7
 30
0.0
 11
0.7211102550927975
 21
-10.7
 31
0.0
  0
LINE
  5
16379
330
16358
100
AcDbEntity
  8
0
100
AcDbLine
 10
-0.7211102550927975
 20
-10.7
 30
0.0
 11
-0.7211102550927972
 21
-10.5
 31
0.0
  0
LINE
  5
1637A
330
16358
100
AcDbEntity
  8
0
100
AcDbLine
 10
0.7211102550927972
 20
-11.25
 30
0.0
 11
-0.7211102550927972
 21
-11.25
 31
0.0
  0
LINE
  5
1637B
330
16358
100
AcDbEntity
  8
0
100
AcDbLine
 10
0.7211102550927972
 20
-11.25
 30
0.0
 11
0.7211102550927975
 21
-11.45
 31
0.0
  0
LINE
  5
1637C
330
16358
100
AcDbEntity
  8
0
100
AcDbLine
 10
-0.7211102550927975
 20
-11.45
 30
0.0
 11
0.7211102550927975
 21
-11.45
 31
0.0
  0
LINE
  5
1637D
330
16358
100
AcDbEntity
  8
0
100
AcDbLine
 10
-0.7211102550927975
 20
-11.45
 30
0.0
 11
-0.7211102550927972
 21
-11.25
 31
0.0
  0
LINE
  5
1637E
330
16358
100
AcDbEntity
  8
0
100
AcDbLine
 10
0.7211102550927972
 20
-12.00000000000001
 30
0.0
 11
-0.7211102550927972
 21
-12.00000000000001
 31
0.0
  0
LINE
  5
1637F
330
16358
100
AcDbEntity
  8
0
100
AcDbLine
 10
0.7211102550927972
 20
-12.0
 30
0.0
 11
0.7211102550927975
 21
-12.2
 31
0.0
  0
LINE
  5
16380
330
16358
100
AcDbEntity
  8
0
100
AcDbLine
 10
-0.7211102550927975
 20
-12.2
 30
0.0
 11
0.7211102550927975
 21
-12.2
 31
0.0
  0
LINE
  5
16381
330
16358
100
AcDbEntity
  8
0
100
AcDbLine
 10
-0.7211102550927975
 20
-12.2
 30
0.0
 11
-0.7211102550927972
 21
-12.0
 31
0.0
  0
LINE
  5
16382
330
16358
100
AcDbEntity
  8
0
100
AcDbLine
 10
0.7211102550927972
 20
-12.75000000000001
 30
0.0
 11
-0.7211102550927972
 21
-12.75000000000001
 31
0.0
  0
LINE
  5
16383
330
16358
100
AcDbEntity
  8
0
100
AcDbLine
 10
0.7211102550927972
 20
-12.75
 30
0.0
 11
0.7211102550927975
 21
-12.95
 31
0.0
  0
LINE
  5
16384
330
16358
100
AcDbEntity
  8
0
100
AcDbLine
 10
-0.7211102550927975
 20
-12.95
 30
0.0
 11
0.7211102550927975
 21
-12.95
 31
0.0
  0
LINE
  5
16385
330
16358
100
AcDbEntity
  8
0
100
AcDbLine
 10
-0.7211102550927975
 20
-12.95
 30
0.0
 11
-0.7211102550927972
 21
-12.75
 31
0.0
  0
LINE
  5
16386
330
16358
100
AcDbEntity
  8
0
100
AcDbLine
 10
0.7211102550927972
 20
-13.5
 30
0.0
 11
-0.7211102550927972
 21
-13.5
 31
0.0
  0
LINE
  5
16387
330
16358
100
AcDbEntity
  8
0
100
AcDbLine
 10
0.7211102550927972
 20
-13.5
 30
0.0
 11
0.7211102550927975
 21
-13.7
 31
0.0
  0
LINE
  5
16388
330
16358
100
AcDbEntity
  8
0
100
AcDbLine
 10
-0.7211102550927975
 20
-13.7
 30
0.0
 11
0.7211102550927975
 21
-13.7
 31
0.0
  0
LINE
  5
16389
330
16358
100
AcDbEntity
  8
0
100
AcDbLine
 10
-0.7211102550927975
 20
-13.7
 30
0.0
 11
-0.7211102550927972
 21
-13.5
 31
0.0
  0
LINE
  5
1638A
330
16358
100
AcDbEntity
  8
0
100
AcDbLine
 10
3.1
 20
-0.6000000000000005
 30
0.0
 11
-3.1
 21
-0.6000000000000005
 31
0.0
  0
LINE
  5
1638B
330
16358
100
AcDbEntity
  8
0
100
AcDbLine
 10
3.1
 20
0.0
 30
0.0
 11
-3.1
 21
0.0
 31
0.0
  0
LINE
  5
1638C
330
16358
100
AcDbEntity
  8
0
100
AcDbLine
 10
-3.1
 20
-0.6000000000000005
 30
0.0
 11
-3.1
 21
0.0
 31
0.0
  0
LINE
  5
1638D
330
16358
100
AcDbEntity
  8
0
100
AcDbLine
 10
3.1
 20
-0.6000000000000005
 30
0.0
 11
3.1
 21
0.0
 31
0.0
  0
LINE
  5
1638E
330
16358
100
AcDbEntity
  8
0
100
AcDbLine
 10
-1.200867379557711
 20
-44.03
 30
0.0
 11
-1.306192008768394
 21
-44.03
 31
0.0
  0
LINE
  5
1638F
330
16358
100
AcDbEntity
  8
0
100
AcDbLine
 10
-1.127618832189688
 20
-43.40000000000002
 30
0.0
 11
-1.475000000000001
 21
-43.40000000000002
 31
0.0
  0
LINE
  5
16390
330
16358
100
AcDbEntity
  8
0
100
AcDbLine
 10
0.9508421368929585
 20
-43.40000000000002
 30
0.0
 11
-0.9508421368929587
 21
-43.40000000000002
 31
0.0
  0
LINE
  5
16391
330
16358
100
AcDbEntity
  8
0
100
AcDbLine
 10
0.5138629199354727
 20
-44.03
 30
0.0
 11
-0.5138629199354732
 21
-44.03
 31
0.0
  0
LINE
  5
16392
330
16358
100
AcDbEntity
  8
0
100
AcDbLine
 10
-1.467440713789207
 20
-44.20000000000001
 30
0.0
 11
-1.475000000000001
 21
-44.20000000000001
 31
0.0
  0
LINE
  5
16393
330
16358
100
AcDbEntity
  8
0
100
AcDbLine
 10
0.1491400399417434
 20
-44.20000000000001
 30
0.0
 11
-0.1491400399417433
 21
-44.20000000000001
 31
0.0
  0
LINE
  5
16394
330
16358
100
AcDbEntity
  8
0
100
AcDbLine
 10
1.475000000000001
 20
-43.40000000000002
 30
0.0
 11
1.127618832189688
 21
-43.40000000000002
 31
0.0
  0
LINE
  5
16395
330
16358
100
AcDbEntity
  8
0
100
AcDbLine
 10
1.306192008768394
 20
-43.23
 30
0.0
 11
-1.306192008768394
 21
-43.23
 31
0.0
  0
LINE
  5
16396
330
16358
100
AcDbEntity
  8
0
100
AcDbLine
 10
1.475000000000001
 20
-44.20000000000001
 30
0.0
 11
1.467440713789207
 21
-44.20000000000001
 31
0.0
  0
LINE
  5
16397
330
16358
100
AcDbEntity
  8
0
100
AcDbLine
 10
1.306192008768394
 20
-44.03
 30
0.0
 11
1.20086737955771
 21
-44.03
 31
0.0
  0
LINE
  5
16398
330
16358
100
AcDbEntity
  8
0
100
AcDbLine
 10
1.475000000000001
 20
-42.60000000000001
 30
0.0
 11
-1.475000000000001
 21
-42.60000000000001
 31
0.0
  0
LINE
  5
16399
330
16358
100
AcDbEntity
  8
0
100
AcDbLine
 10
1.306192008768394
 20
-42.43000000000001
 30
0.0
 11
-1.306192008768394
 21
-42.43000000000001
 31
0.0
  0
LINE
  5
1639A
330
16358
100
AcDbEntity
  8
0
100
AcDbLine
 10
1.475000000000001
 20
-41.80000000000001
 30
0.0
 11
-1.475000000000001
 21
-41.80000000000001
 31
0.0
  0
LINE
  5
1639B
330
16358
100
AcDbEntity
  8
0
100
AcDbLine
 10
1.306192008768394
 20
-41.63
 30
0.0
 11
-1.306192008768394
 21
-41.63
 31
0.0
  0
LINE
  5
1639C
330
16358
100
AcDbEntity
  8
0
100
AcDbLine
 10
1.475000000000001
 20
-41.00000000000001
 30
0.0
 11
-1.475000000000001
 21
-41.00000000000001
 31
0.0
  0
LINE
  5
1639D
330
16358
100
AcDbEntity
  8
0
100
AcDbLine
 10
1.306192008768394
 20
-40.83
 30
0.0
 11
-1.306192008768394
 21
-40.83
 31
0.0
  0
LINE
  5
1639E
330
16358
100
AcDbEntity
  8
0
100
AcDbLine
 10
1.475000000000001
 20
-40.20000000000002
 30
0.0
 11
-1.475000000000001
 21
-40.20000000000002
 31
0.0
  0
LINE
  5
1639F
330
16358
100
AcDbEntity
  8
0
100
AcDbLine
 10
1.306192008768394
 20
-40.03
 30
0.0
 11
-1.306192008768394
 21
-40.03
 31
0.0
  0
LINE
  5
163A0
330
16358
100
AcDbEntity
  8
0
100
AcDbLine
 10
1.475000000000001
 20
-39.40000000000001
 30
0.0
 11
-1.475000000000001
 21
-39.40000000000001
 31
0.0
  0
LINE
  5
163A1
330
16358
100
AcDbEntity
  8
0
100
AcDbLine
 10
1.306192008768394
 20
-39.23
 30
0.0
 11
-1.306192008768394
 21
-39.23
 31
0.0
  0
LINE
  5
163A2
330
16358
100
AcDbEntity
  8
0
100
AcDbLine
 10
1.475000000000001
 20
-38.60000000000001
 30
0.0
 11
-1.475000000000001
 21
-38.60000000000001
 31
0.0
  0
LINE
  5
163A3
330
16358
100
AcDbEntity
  8
0
100
AcDbLine
 10
1.306192008768394
 20
-38.43000000000001
 30
0.0
 11
-1.306192008768394
 21
-38.43000000000001
 31
0.0
  0
LINE
  5
163A4
330
16358
100
AcDbEntity
  8
0
100
AcDbLine
 10
1.475000000000001
 20
-37.80000000000001
 30
0.0
 11
-1.475000000000001
 21
-37.80000000000001
 31
0.0
  0
LINE
  5
163A5
330
16358
100
AcDbEntity
  8
0
100
AcDbLine
 10
1.306192008768394
 20
-37.63000000000001
 30
0.0
 11
-1.306192008768394
 21
-37.63000000000001
 31
0.0
  0
LINE
  5
163A6
330
16358
100
AcDbEntity
  8
0
100
AcDbLine
 10
1.475000000000001
 20
-37.00000000000001
 30
0.0
 11
-1.475000000000001
 21
-37.00000000000001
 31
0.0
  0
LINE
  5
163A7
330
16358
100
AcDbEntity
  8
0
100
AcDbLine
 10
1.306192008768394
 20
-36.83000000000001
 30
0.0
 11
-1.306192008768394
 21
-36.83000000000001
 31
0.0
  0
LINE
  5
163A8
330
16358
100
AcDbEntity
  8
0
100
AcDbLine
 10
1.475000000000001
 20
-36.2
 30
0.0
 11
-1.475000000000001
 21
-36.2
 31
0.0
  0
LINE
  5
163A9
330
16358
100
AcDbEntity
  8
0
100
AcDbLine
 10
1.306192008768394
 20
-36.03000000000001
 30
0.0
 11
-1.306192008768394
 21
-36.03000000000001
 31
0.0
  0
LINE
  5
163AA
330
16358
100
AcDbEntity
  8
0
100
AcDbLine
 10
1.475000000000001
 20
-35.40000000000001
 30
0.0
 11
-1.475000000000001
 21
-35.40000000000001
 31
0.0
  0
LINE
  5
163AB
330
16358
100
AcDbEntity
  8
0
100
AcDbLine
 10
1.306192008768394
 20
-35.23000000000001
 30
0.0
 11
-1.306192008768394
 21
-35.23000000000001
 31
0.0
  0
LINE
  5
163AC
330
16358
100
AcDbEntity
  8
0
100
AcDbLine
 10
1.475000000000001
 20
-34.60000000000001
 30
0.0
 11
-1.475000000000001
 21
-34.60000000000001
 31
0.0
  0
LINE
  5
163AD
330
16358
100
AcDbEntity
  8
0
100
AcDbLine
 10
1.306192008768394
 20
-34.43000000000001
 30
0.0
 11
-1.306192008768394
 21
-34.43000000000001
 31
0.0
  0
LINE
  5
163AE
330
16358
100
AcDbEntity
  8
0
100
AcDbLine
 10
1.475000000000001
 20
-33.80000000000001
 30
0.0
 11
-1.475000000000001
 21
-33.80000000000001
 31
0.0
  0
LINE
  5
163AF
330
16358
100
AcDbEntity
  8
0
100
AcDbLine
 10
1.306192008768394
 20
-33.63
 30
0.0
 11
-1.306192008768394
 21
-33.63
 31
0.0
  0
LINE
  5
163B0
330
16358
100
AcDbEntity
  8
0
100
AcDbLine
 10
1.475000000000001
 20
-33.00000000000001
 30
0.0
 11
-1.475000000000001
 21
-33.00000000000001
 31
0.0
  0
LINE
  5
163B1
330
16358
100
AcDbEntity
  8
0
100
AcDbLine
 10
1.306192008768394
 20
-32.83000000000001
 30
0.0
 11
-1.306192008768394
 21
-32.83000000000001
 31
0.0
  0
LINE
  5
163B2
330
16358
100
AcDbEntity
  8
0
100
AcDbLine
 10
1.475000000000001
 20
-32.20000000000001
 30
0.0
 11
-1.475000000000001
 21
-32.20000000000001
 31
0.0
  0
LINE
  5
163B3
330
16358
100
AcDbEntity
  8
0
100
AcDbLine
 10
1.306192008768394
 20
-32.03
 30
0.0
 11
-1.306192008768394
 21
-32.03
 31
0.0
  0
LINE
  5
163B4
330
16358
100
AcDbEntity
  8
0
100
AcDbLine
 10
1.475000000000001
 20
-31.40000000000001
 30
0.0
 11
-1.475000000000001
 21
-31.40000000000001
 31
0.0
  0
LINE
  5
163B5
330
16358
100
AcDbEntity
  8
0
100
AcDbLine
 10
1.306192008768394
 20
-31.23000000000001
 30
0.0
 11
-1.306192008768394
 21
-31.23000000000001
 31
0.0
  0
LINE
  5
163B6
330
16358
100
AcDbEntity
  8
0
100
AcDbLine
 10
1.475000000000001
 20
-30.60000000000001
 30
0.0
 11
-1.475000000000001
 21
-30.60000000000001
 31
0.0
  0
LINE
  5
163B7
330
16358
100
AcDbEntity
  8
0
100
AcDbLine
 10
1.306192008768394
 20
-30.43
 30
0.0
 11
-1.306192008768394
 21
-30.43
 31
0.0
  0
LINE
  5
163B8
330
16358
100
AcDbEntity
  8
0
100
AcDbLine
 10
1.475000000000001
 20
-29.80000000000001
 30
0.0
 11
-1.475000000000001
 21
-29.80000000000001
 31
0.0
  0
LINE
  5
163B9
330
16358
100
AcDbEntity
  8
0
100
AcDbLine
 10
1.306192008768394
 20
-29.63000000000001
 30
0.0
 11
-1.306192008768394
 21
-29.63000000000001
 31
0.0
  0
LINE
  5
163BA
330
16358
100
AcDbEntity
  8
0
100
AcDbLine
 10
1.475000000000001
 20
-29.00000000000001
 30
0.0
 11
-1.475000000000001
 21
-29.00000000000001
 31
0.0
  0
LINE
  5
163BB
330
16358
100
AcDbEntity
  8
0
100
AcDbLine
 10
1.306192008768394
 20
-28.83000000000001
 30
0.0
 11
-1.306192008768394
 21
-28.83000000000001
 31
0.0
  0
LINE
  5
163BC
330
16358
100
AcDbEntity
  8
0
100
AcDbLine
 10
1.475000000000001
 20
-28.20000000000001
 30
0.0
 11
-1.475000000000001
 21
-28.20000000000001
 31
0.0
  0
LINE
  5
163BD
330
16358
100
AcDbEntity
  8
0
100
AcDbLine
 10
1.306192008768394
 20
-28.03000000000001
 30
0.0
 11
-1.306192008768394
 21
-28.03000000000001
 31
0.0
  0
LINE
  5
163BE
330
16358
100
AcDbEntity
  8
0
100
AcDbLine
 10
1.475000000000001
 20
-27.40000000000001
 30
0.0
 11
-1.475000000000001
 21
-27.40000000000001
 31
0.0
  0
LINE
  5
163BF
330
16358
100
AcDbEntity
  8
0
100
AcDbLine
 10
1.306192008768394
 20
-27.23000000000001
 30
0.0
 11
-1.306192008768394
 21
-27.23000000000001
 31
0.0
  0
LINE
  5
163C0
330
16358
100
AcDbEntity
  8
0
100
AcDbLine
 10
1.475000000000001
 20
-26.60000000000001
 30
0.0
 11
-1.475000000000001
 21
-26.60000000000001
 31
0.0
  0
LINE
  5
163C1
330
16358
100
AcDbEntity
  8
0
100
AcDbLine
 10
1.306192008768394
 20
-26.43000000000001
 30
0.0
 11
-1.306192008768394
 21
-26.43000000000001
 31
0.0
  0
LINE
  5
163C2
330
16358
100
AcDbEntity
  8
0
100
AcDbLine
 10
1.475000000000001
 20
-25.8
 30
0.0
 11
-1.475000000000001
 21
-25.8
 31
0.0
  0
LINE
  5
163C3
330
16358
100
AcDbEntity
  8
0
100
AcDbLine
 10
1.306192008768394
 20
-25.63000000000001
 30
0.0
 11
-1.306192008768394
 21
-25.63000000000001
 31
0.0
  0
LINE
  5
163C4
330
16358
100
AcDbEntity
  8
0
100
AcDbLine
 10
1.475000000000001
 20
-25.0
 30
0.0
 11
-1.475000000000001
 21
-25.0
 31
0.0
  0
LINE
  5
163C5
330
16358
100
AcDbEntity
  8
0
100
AcDbLine
 10
1.306192008768394
 20
-24.83
 30
0.0
 11
-1.306192008768394
 21
-24.83
 31
0.0
  0
LINE
  5
163C6
330
16358
100
AcDbEntity
  8
0
100
AcDbLine
 10
1.475000000000001
 20
-24.20000000000001
 30
0.0
 11
-1.475000000000001
 21
-24.20000000000001
 31
0.0
  0
LINE
  5
163C7
330
16358
100
AcDbEntity
  8
0
100
AcDbLine
 10
1.306192008768394
 20
-24.03
 30
0.0
 11
-1.306192008768394
 21
-24.03
 31
0.0
  0
LINE
  5
163C8
330
16358
100
AcDbEntity
  8
0
100
AcDbLine
 10
1.475000000000001
 20
-23.40000000000001
 30
0.0
 11
-1.475000000000001
 21
-23.40000000000001
 31
0.0
  0
LINE
  5
163C9
330
16358
100
AcDbEntity
  8
0
100
AcDbLine
 10
1.306192008768394
 20
-23.23
 30
0.0
 11
-1.306192008768394
 21
-23.23
 31
0.0
  0
LINE
  5
163CA
330
16358
100
AcDbEntity
  8
0
100
AcDbLine
 10
1.475000000000001
 20
-22.60000000000001
 30
0.0
 11
-1.475000000000001
 21
-22.60000000000001
 31
0.0
  0
LINE
  5
163CB
330
16358
100
AcDbEntity
  8
0
100
AcDbLine
 10
1.306192008768394
 20
-22.43
 30
0.0
 11
-1.306192008768394
 21
-22.43
 31
0.0
  0
LINE
  5
163CC
330
16358
100
AcDbEntity
  8
0
100
AcDbLine
 10
1.475000000000001
 20
-21.8
 30
0.0
 11
-1.475000000000001
 21
-21.8
 31
0.0
  0
LINE
  5
163CD
330
16358
100
AcDbEntity
  8
0
100
AcDbLine
 10
-1.306192008768396
 20
-44.03
 30
0.0
 11
-1.475
 21
-43.40000000000002
 31
0.0
  0
ARC
  5
163CE
330
16358
100
AcDbEntity
  8
0
100
AcDbCircle
 10
-1.304995791416944
 20
-44.2
 30
0.0
 40
0.1700042085830571
100
AcDbArc
 50
90.40315926156793
 51
180.0
  0
ARC
  5
163CF
330
16358
100
AcDbEntity
  8
0
100
AcDbCircle
 10
1.304995791416944
 20
-43.39999999999999
 30
0.0
 40
0.1700042085830571
100
AcDbArc
 50
0.0
 51
89.59684073843206
  0
ARC
  5
163D0
330
16358
100
AcDbEntity
  8
0
100
AcDbCircle
 10
-1.304995791416944
 20
-43.39999999999999
 30
0.0
 40
0.1700042085830571
100
AcDbArc
 50
90.40315926156793
 51
180.0
  0
LINE
  5
163D1
330
16358
100
AcDbEntity
  8
0
100
AcDbLine
 10
-1.352387470582055
 20
-44.65759618943232
 30
0.0
 11
-1.475
 21
-44.20000000000001
 31
0.0
  0
LINE
  5
163D2
330
16358
100
AcDbEntity
  8
0
100
AcDbLine
 10
1.352387470582055
 20
-44.65759618943232
 30
0.0
 11
1.475
 21
-44.20000000000001
 31
0.0
  0
ARC
  5
163D3
330
16358
100
AcDbEntity
  8
0
100
AcDbCircle
 10
1.304995791416944
 20
-44.2
 30
0.0
 40
0.1700042085830571
100
AcDbArc
 50
0.0
 51
89.59684073843206
  0
LINE
  5
163D4
330
16358
100
AcDbEntity
  8
0
100
AcDbLine
 10
1.306192008768396
 20
-44.03
 30
0.0
 11
1.475
 21
-43.40000000000002
 31
0.0
  0
LINE
  5
163D5
330
16358
100
AcDbEntity
  8
0
100
AcDbLine
 10
-1.306192008768396
 20
-43.23
 30
0.0
 11
-1.475
 21
-42.60000000000001
 31
0.0
  0
LINE
  5
163D6
330
16358
100
AcDbEntity
  8
0
100
AcDbLine
 10
1.306192008768396
 20
-43.23
 30
0.0
 11
1.475000000000002
 21
-42.6
 31
0.0
  0
ARC
  5
163D7
330
16358
100
AcDbEntity
  8
0
100
AcDbCircle
 10
1.304995791416944
 20
-42.59999999999999
 30
0.0
 40
0.1700042085830571
100
AcDbArc
 50
0.0
 51
89.59684073843206
  0
ARC
  5
163D8
330
16358
100
AcDbEntity
  8
0
100
AcDbCircle
 10
-1.304995791416944
 20
-42.59999999999999
 30
0.0
 40
0.1700042085830571
100
AcDbArc
 50
90.40315926156793
 51
180.0
  0
LINE
  5
163D9
330
16358
100
AcDbEntity
  8
0
100
AcDbLine
 10
-1.306192008768396
 20
-42.43000000000001
 30
0.0
 11
-1.475
 21
-41.80000000000001
 31
0.0
  0
LINE
  5
163DA
330
16358
100
AcDbEntity
  8
0
100
AcDbLine
 10
1.306192008768396
 20
-42.43000000000001
 30
0.0
 11
1.475000000000002
 21
-41.8
 31
0.0
  0
ARC
  5
163DB
330
16358
100
AcDbEntity
  8
0
100
AcDbCircle
 10
1.304995791416944
 20
-41.79999999999999
 30
0.0
 40
0.1700042085830571
100
AcDbArc
 50
0.0
 51
89.59684073843206
  0
ARC
  5
163DC
330
16358
100
AcDbEntity
  8
0
100
AcDbCircle
 10
-1.304995791416944
 20
-41.79999999999999
 30
0.0
 40
0.1700042085830571
100
AcDbArc
 50
90.40315926156793
 51
180.0
  0
LINE
  5
163DD
330
16358
100
AcDbEntity
  8
0
100
AcDbLine
 10
-1.306192008768396
 20
-41.63
 30
0.0
 11
-1.475
 21
-41.00000000000001
 31
0.0
  0
LINE
  5
163DE
330
16358
100
AcDbEntity
  8
0
100
AcDbLine
 10
1.306192008768396
 20
-41.63
 30
0.0
 11
1.475000000000002
 21
-41.0
 31
0.0
  0
ARC
  5
163DF
330
16358
100
AcDbEntity
  8
0
100
AcDbCircle
 10
1.304995791416944
 20
-41.0
 30
0.0
 40
0.1700042085830571
100
AcDbArc
 50
0.0
 51
89.59684073843206
  0
ARC
  5
163E0
330
16358
100
AcDbEntity
  8
0
100
AcDbCircle
 10
-1.304995791416944
 20
-41.0
 30
0.0
 40
0.1700042085830571
100
AcDbArc
 50
90.40315926156793
 51
180.0
  0
LINE
  5
163E1
330
16358
100
AcDbEntity
  8
0
100
AcDbLine
 10
-1.306192008768396
 20
-40.83
 30
0.0
 11
-1.475
 21
-40.20000000000002
 31
0.0
  0
LINE
  5
163E2
330
16358
100
AcDbEntity
  8
0
100
AcDbLine
 10
1.306192008768396
 20
-40.83
 30
0.0
 11
1.475000000000002
 21
-40.2
 31
0.0
  0
ARC
  5
163E3
330
16358
100
AcDbEntity
  8
0
100
AcDbCircle
 10
1.304995791416944
 20
-40.19999999999999
 30
0.0
 40
0.1700042085830571
100
AcDbArc
 50
0.0
 51
89.59684073843206
  0
ARC
  5
163E4
330
16358
100
AcDbEntity
  8
0
100
AcDbCircle
 10
-1.304995791416944
 20
-40.19999999999999
 30
0.0
 40
0.1700042085830571
100
AcDbArc
 50
90.40315926156793
 51
180.0
  0
LINE
  5
163E5
330
16358
100
AcDbEntity
  8
0
100
AcDbLine
 10
-1.306192008768396
 20
-40.03
 30
0.0
 11
-1.475
 21
-39.40000000000001
 31
0.0
  0
LINE
  5
163E6
330
16358
100
AcDbEntity
  8
0
100
AcDbLine
 10
1.306192008768396
 20
-40.03
 30
0.0
 11
1.475000000000002
 21
-39.40000000000001
 31
0.0
  0
ARC
  5
163E7
330
16358
100
AcDbEntity
  8
0
100
AcDbCircle
 10
1.304995791416944
 20
-39.4
 30
0.0
 40
0.1700042085830571
100
AcDbArc
 50
0.0
 51
89.59684073843206
  0
ARC
  5
163E8
330
16358
100
AcDbEntity
  8
0
100
AcDbCircle
 10
-1.304995791416944
 20
-39.4
 30
0.0
 40
0.1700042085830571
100
AcDbArc
 50
90.40315926156795
 51
180.0
  0
LINE
  5
163E9
330
16358
100
AcDbEntity
  8
0
100
AcDbLine
 10
-1.306192008768396
 20
-39.23
 30
0.0
 11
-1.475
 21
-38.60000000000001
 31
0.0
  0
LINE
  5
163EA
330
16358
100
AcDbEntity
  8
0
100
AcDbLine
 10
1.306192008768394
 20
-39.23
 30
0.0
 11
1.475000000000002
 21
-38.6
 31
0.0
  0
ARC
  5
163EB
330
16358
100
AcDbEntity
  8
0
100
AcDbCircle
 10
1.304995791416944
 20
-38.6
 30
0.0
 40
0.1700042085830571
100
AcDbArc
 50
0.0
 51
89.59684073843204
  0
ARC
  5
163EC
330
16358
100
AcDbEntity
  8
0
100
AcDbCircle
 10
-1.304995791416944
 20
-38.6
 30
0.0
 40
0.1700042085830571
100
AcDbArc
 50
90.40315926156795
 51
180.0
  0
LINE
  5
163ED
330
16358
100
AcDbEntity
  8
0
100
AcDbLine
 10
-1.306192008768393
 20
-38.43000000000001
 30
0.0
 11
-1.475
 21
-37.80000000000001
 31
0.0
  0
LINE
  5
163EE
330
16358
100
AcDbEntity
  8
0
100
AcDbLine
 10
1.306192008768393
 20
-38.43000000000001
 30
0.0
 11
1.475000000000002
 21
-37.80000000000001
 31
0.0
  0
ARC
  5
163EF
330
16358
100
AcDbEntity
  8
0
100
AcDbCircle
 10
1.304995791416944
 20
-37.80000000000001
 30
0.0
 40
0.1700042085830571
100
AcDbArc
 50
0.0
 51
89.59684073843204
  0
ARC
  5
163F0
330
16358
100
AcDbEntity
  8
0
100
AcDbCircle
 10
-1.304995791416944
 20
-37.80000000000001
 30
0.0
 40
0.1700042085830571
100
AcDbArc
 50
90.40315926156795
 51
180.0
  0
LINE
  5
163F1
330
16358
100
AcDbEntity
  8
0
100
AcDbLine
 10
-1.306192008768393
 20
-37.63000000000001
 30
0.0
 11
-1.475
 21
-37.00000000000001
 31
0.0
  0
LINE
  5
163F2
330
16358
100
AcDbEntity
  8
0
100
AcDbLine
 10
1.306192008768393
 20
-37.63000000000001
 30
0.0
 11
1.475000000000002
 21
-37.0
 31
0.0
  0
ARC
  5
163F3
330
16358
100
AcDbEntity
  8
0
100
AcDbCircle
 10
1.304995791416944
 20
-37.0
 30
0.0
 40
0.1700042085830571
100
AcDbArc
 50
0.0
 51
89.59684073843204
  0
ARC
  5
163F4
330
16358
100
AcDbEntity
  8
0
100
AcDbCircle
 10
-1.304995791416944
 20
-37.0
 30
0.0
 40
0.1700042085830571
100
AcDbArc
 50
90.40315926156795
 51
180.0
  0
LINE
  5
163F5
330
16358
100
AcDbEntity
  8
0
100
AcDbLine
 10
-1.306192008768393
 20
-36.83000000000001
 30
0.0
 11
-1.475
 21
-36.20000000000001
 31
0.0
  0
LINE
  5
163F6
330
16358
100
AcDbEntity
  8
0
100
AcDbLine
 10
1.306192008768393
 20
-36.83000000000001
 30
0.0
 11
1.475000000000001
 21
-36.2
 31
0.0
  0
ARC
  5
163F7
330
16358
100
AcDbEntity
  8
0
100
AcDbCircle
 10
1.304995791416944
 20
-36.2
 30
0.0
 40
0.1700042085830571
100
AcDbArc
 50
0.0
 51
89.59684073843206
  0
ARC
  5
163F8
330
16358
100
AcDbEntity
  8
0
100
AcDbCircle
 10
-1.304995791416944
 20
-36.2
 30
0.0
 40
0.1700042085830571
100
AcDbArc
 50
90.40315926156795
 51
180.0
  0
LINE
  5
163F9
330
16358
100
AcDbEntity
  8
0
100
AcDbLine
 10
-1.306192008768394
 20
-36.03000000000001
 30
0.0
 11
-1.475000000000001
 21
-35.40000000000001
 31
0.0
  0
LINE
  5
163FA
330
16358
100
AcDbEntity
  8
0
100
AcDbLine
 10
1.306192008768394
 20
-36.03000000000001
 30
0.0
 11
1.475000000000002
 21
-35.40000000000001
 31
0.0
  0
ARC
  5
163FB
330
16358
100
AcDbEntity
  8
0
100
AcDbCircle
 10
1.304995791416944
 20
-35.4
 30
0.0
 40
0.1700042085830571
100
AcDbArc
 50
0.0
 51
89.59684073843206
  0
ARC
  5
163FC
330
16358
100
AcDbEntity
  8
0
100
AcDbCircle
 10
-1.304995791416944
 20
-35.4
 30
0.0
 40
0.1700042085830571
100
AcDbArc
 50
90.40315926156795
 51
180.0
  0
LINE
  5
163FD
330
16358
100
AcDbEntity
  8
0
100
AcDbLine
 10
-1.306192008768394
 20
-35.23000000000001
 30
0.0
 11
-1.475000000000001
 21
-34.60000000000001
 31
0.0
  0
LINE
  5
163FE
330
16358
100
AcDbEntity
  8
0
100
AcDbLine
 10
1.306192008768394
 20
-35.23000000000001
 30
0.0
 11
1.475000000000002
 21
-34.6
 31
0.0
  0
ARC
  5
163FF
330
16358
100
AcDbEntity
  8
0
100
AcDbCircle
 10
1.304995791416944
 20
-34.6
 30
0.0
 40
0.1700042085830571
100
AcDbArc
 50
0.0
 51
89.59684073843206
  0
ARC
  5
16400
330
16358
100
AcDbEntity
  8
0
100
AcDbCircle
 10
-1.304995791416944
 20
-34.6
 30
0.0
 40
0.1700042085830571
100
AcDbArc
 50
90.40315926156795
 51
180.0
  0
LINE
  5
16401
330
16358
100
AcDbEntity
  8
0
100
AcDbLine
 10
-1.306192008768394
 20
-34.43000000000001
 30
0.0
 11
-1.475000000000001
 21
-33.80000000000001
 31
0.0
  0
LINE
  5
16402
330
16358
100
AcDbEntity
  8
0
100
AcDbLine
 10
1.306192008768394
 20
-34.43000000000001
 30
0.0
 11
1.475000000000002
 21
-33.80000000000001
 31
0.0
  0
ARC
  5
16403
330
16358
100
AcDbEntity
  8
0
100
AcDbCircle
 10
1.304995791416944
 20
-33.8
 30
0.0
 40
0.1700042085830571
100
AcDbArc
 50
0.0
 51
89.59684073843206
  0
ARC
  5
16404
330
16358
100
AcDbEntity
  8
0
100
AcDbCircle
 10
-1.304995791416944
 20
-33.8
 30
0.0
 40
0.1700042085830571
100
AcDbArc
 50
90.40315926156795
 51
180.0
  0
LINE
  5
16405
330
16358
100
AcDbEntity
  8
0
100
AcDbLine
 10
-1.306192008768394
 20
-33.63
 30
0.0
 11
-1.475000000000001
 21
-33.00000000000001
 31
0.0
  0
LINE
  5
16406
330
16358
100
AcDbEntity
  8
0
100
AcDbLine
 10
1.306192008768394
 20
-33.63
 30
0.0
 11
1.475000000000002
 21
-33.0
 31
0.0
  0
ARC
  5
16407
330
16358
100
AcDbEntity
  8
0
100
AcDbCircle
 10
1.304995791416944
 20
-33.0
 30
0.0
 40
0.1700042085830571
100
AcDbArc
 50
0.0
 51
89.59684073843206
  0
ARC
  5
16408
330
16358
100
AcDbEntity
  8
0
100
AcDbCircle
 10
-1.304995791416944
 20
-33.0
 30
0.0
 40
0.1700042085830571
100
AcDbArc
 50
90.40315926156795
 51
180.0
  0
LINE
  5
16409
330
16358
100
AcDbEntity
  8
0
100
AcDbLine
 10
-1.306192008768394
 20
-32.83000000000001
 30
0.0
 11
-1.475000000000001
 21
-32.20000000000001
 31
0.0
  0
LINE
  5
1640A
330
16358
100
AcDbEntity
  8
0
100
AcDbLine
 10
1.306192008768394
 20
-32.83000000000001
 30
0.0
 11
1.475000000000001
 21
-32.20000000000001
 31
0.0
  0
ARC
  5
1640B
330
16358
100
AcDbEntity
  8
0
100
AcDbCircle
 10
1.304995791416944
 20
-32.2
 30
0.0
 40
0.1700042085830571
100
AcDbArc
 50
0.0
 51
89.59684073843206
  0
ARC
  5
1640C
330
16358
100
AcDbEntity
  8
0
100
AcDbCircle
 10
-1.304995791416944
 20
-32.2
 30
0.0
 40
0.1700042085830571
100
AcDbArc
 50
90.40315926156795
 51
180.0
  0
LINE
  5
1640D
330
16358
100
AcDbEntity
  8
0
100
AcDbLine
 10
-1.306192008768396
 20
-32.03
 30
0.0
 11
-1.475
 21
-31.40000000000001
 31
0.0
  0
LINE
  5
1640E
330
16358
100
AcDbEntity
  8
0
100
AcDbLine
 10
1.306192008768396
 20
-32.03
 30
0.0
 11
1.475000000000002
 21
-31.40000000000001
 31
0.0
  0
ARC
  5
1640F
330
16358
100
AcDbEntity
  8
0
100
AcDbCircle
 10
1.304995791416944
 20
-31.4
 30
0.0
 40
0.1700042085830571
100
AcDbArc
 50
0.0
 51
89.59684073843206
  0
ARC
  5
16410
330
16358
100
AcDbEntity
  8
0
100
AcDbCircle
 10
-1.304995791416944
 20
-31.4
 30
0.0
 40
0.1700042085830571
100
AcDbArc
 50
90.40315926156795
 51
180.0
  0
LINE
  5
16411
330
16358
100
AcDbEntity
  8
0
100
AcDbLine
 10
-1.306192008768396
 20
-31.23000000000001
 30
0.0
 11
-1.475
 21
-30.60000000000002
 31
0.0
  0
LINE
  5
16412
330
16358
100
AcDbEntity
  8
0
100
AcDbLine
 10
1.306192008768396
 20
-31.23000000000001
 30
0.0
 11
1.475000000000002
 21
-30.6
 31
0.0
  0
ARC
  5
16413
330
16358
100
AcDbEntity
  8
0
100
AcDbCircle
 10
1.304995791416944
 20
-30.6
 30
0.0
 40
0.1700042085830571
100
AcDbArc
 50
0.0
 51
89.59684073843206
  0
ARC
  5
16414
330
16358
100
AcDbEntity
  8
0
100
AcDbCircle
 10
-1.304995791416944
 20
-30.6
 30
0.0
 40
0.1700042085830571
100
AcDbArc
 50
90.40315926156795
 51
180.0
  0
LINE
  5
16415
330
16358
100
AcDbEntity
  8
0
100
AcDbLine
 10
-1.306192008768396
 20
-30.43
 30
0.0
 11
-1.475
 21
-29.80000000000001
 31
0.0
  0
LINE
  5
16416
330
16358
100
AcDbEntity
  8
0
100
AcDbLine
 10
1.306192008768396
 20
-30.43
 30
0.0
 11
1.475000000000002
 21
-29.8
 31
0.0
  0
ARC
  5
16417
330
16358
100
AcDbEntity
  8
0
100
AcDbCircle
 10
1.304995791416944
 20
-29.8
 30
0.0
 40
0.1700042085830571
100
AcDbArc
 50
0.0
 51
89.59684073843206
  0
ARC
  5
16418
330
16358
100
AcDbEntity
  8
0
100
AcDbCircle
 10
-1.304995791416944
 20
-29.8
 30
0.0
 40
0.1700042085830571
100
AcDbArc
 50
90.40315926156795
 51
180.0
  0
LINE
  5
16419
330
16358
100
AcDbEntity
  8
0
100
AcDbLine
 10
-1.306192008768396
 20
-29.63
 30
0.0
 11
-1.475
 21
-29.00000000000002
 31
0.0
  0
LINE
  5
1641A
330
16358
100
AcDbEntity
  8
0
100
AcDbLine
 10
1.306192008768394
 20
-29.63000000000001
 30
0.0
 11
1.475000000000002
 21
-29.0
 31
0.0
  0
ARC
  5
1641B
330
16358
100
AcDbEntity
  8
0
100
AcDbCircle
 10
1.304995791416944
 20
-29.0
 30
0.0
 40
0.1700042085830571
100
AcDbArc
 50
0.0
 51
89.59684073843206
  0
ARC
  5
1641C
330
16358
100
AcDbEntity
  8
0
100
AcDbCircle
 10
-1.304995791416944
 20
-29.0
 30
0.0
 40
0.1700042085830571
100
AcDbArc
 50
90.40315926156795
 51
180.0
  0
LINE
  5
1641D
330
16358
100
AcDbEntity
  8
0
100
AcDbLine
 10
-1.306192008768396
 20
-28.83
 30
0.0
 11
-1.475
 21
-28.20000000000001
 31
0.0
  0
LINE
  5
1641E
330
16358
100
AcDbEntity
  8
0
100
AcDbLine
 10
1.306192008768394
 20
-28.83000000000001
 30
0.0
 11
1.475000000000002
 21
-28.2
 31
0.0
  0
ARC
  5
1641F
330
16358
100
AcDbEntity
  8
0
100
AcDbCircle
 10
1.304995791416944
 20
-28.2
 30
0.0
 40
0.1700042085830571
100
AcDbArc
 50
0.0
 51
89.59684073843206
  0
ARC
  5
16420
330
16358
100
AcDbEntity
  8
0
100
AcDbCircle
 10
-1.304995791416944
 20
-28.2
 30
0.0
 40
0.1700042085830571
100
AcDbArc
 50
90.40315926156795
 51
180.0
  0
LINE
  5
16421
330
16358
100
AcDbEntity
  8
0
100
AcDbLine
 10
-1.306192008768396
 20
-28.03
 30
0.0
 11
-1.475
 21
-27.40000000000001
 31
0.0
  0
LINE
  5
16422
330
16358
100
AcDbEntity
  8
0
100
AcDbLine
 10
1.306192008768394
 20
-28.03000000000001
 30
0.0
 11
1.475000000000002
 21
-27.4
 31
0.0
  0
ARC
  5
16423
330
16358
100
AcDbEntity
  8
0
100
AcDbCircle
 10
1.304995791416944
 20
-27.4
 30
0.0
 40
0.1700042085830571
100
AcDbArc
 50
0.0
 51
89.59684073843206
  0
ARC
  5
16424
330
16358
100
AcDbEntity
  8
0
100
AcDbCircle
 10
-1.304995791416944
 20
-27.4
 30
0.0
 40
0.1700042085830571
100
AcDbArc
 50
90.40315926156795
 51
180.0
  0
LINE
  5
16425
330
16358
100
AcDbEntity
  8
0
100
AcDbLine
 10
-1.306192008768396
 20
-27.23
 30
0.0
 11
-1.475
 21
-26.60000000000001
 31
0.0
  0
LINE
  5
16426
330
16358
100
AcDbEntity
  8
0
100
AcDbLine
 10
1.306192008768394
 20
-27.23000000000001
 30
0.0
 11
1.475000000000002
 21
-26.6
 31
0.0
  0
ARC
  5
16427
330
16358
100
AcDbEntity
  8
0
100
AcDbCircle
 10
1.304995791416944
 20
-26.6
 30
0.0
 40
0.1700042085830571
100
AcDbArc
 50
0.0
 51
89.59684073843206
  0
ARC
  5
16428
330
16358
100
AcDbEntity
  8
0
100
AcDbCircle
 10
-1.304995791416944
 20
-26.6
 30
0.0
 40
0.1700042085830571
100
AcDbArc
 50
90.40315926156795
 51
180.0
  0
LINE
  5
16429
330
16358
100
AcDbEntity
  8
0
100
AcDbLine
 10
-1.306192008768396
 20
-26.43
 30
0.0
 11
-1.475
 21
-25.80000000000001
 31
0.0
  0
LINE
  5
1642A
330
16358
100
AcDbEntity
  8
0
100
AcDbLine
 10
1.306192008768394
 20
-26.43000000000001
 30
0.0
 11
1.475000000000002
 21
-25.8
 31
0.0
  0
ARC
  5
1642B
330
16358
100
AcDbEntity
  8
0
100
AcDbCircle
 10
1.304995791416944
 20
-25.8
 30
0.0
 40
0.1700042085830571
100
AcDbArc
 50
0.0
 51
89.59684073843204
  0
ARC
  5
1642C
330
16358
100
AcDbEntity
  8
0
100
AcDbCircle
 10
-1.304995791416944
 20
-25.8
 30
0.0
 40
0.1700042085830571
100
AcDbArc
 50
90.40315926156795
 51
180.0
  0
LINE
  5
1642D
330
16358
100
AcDbEntity
  8
0
100
AcDbLine
 10
-1.306192008768393
 20
-25.63000000000001
 30
0.0
 11
-1.475
 21
-25.00000000000001
 31
0.0
  0
LINE
  5
1642E
330
16358
100
AcDbEntity
  8
0
100
AcDbLine
 10
1.306192008768393
 20
-25.63000000000001
 30
0.0
 11
1.475000000000001
 21
-25.0
 31
0.0
  0
ARC
  5
1642F
330
16358
100
AcDbEntity
  8
0
100
AcDbCircle
 10
1.304995791416944
 20
-25.0
 30
0.0
 40
0.1700042085830571
100
AcDbArc
 50
0.0
 51
89.59684073843206
  0
ARC
  5
16430
330
16358
100
AcDbEntity
  8
0
100
AcDbCircle
 10
-1.304995791416944
 20
-25.0
 30
0.0
 40
0.1700042085830571
100
AcDbArc
 50
90.40315926156795
 51
180.0
  0
LINE
  5
16431
330
16358
100
AcDbEntity
  8
0
100
AcDbLine
 10
-1.306192008768394
 20
-24.83
 30
0.0
 11
-1.475000000000001
 21
-24.20000000000001
 31
0.0
  0
LINE
  5
16432
330
16358
100
AcDbEntity
  8
0
100
AcDbLine
 10
1.306192008768394
 20
-24.83
 30
0.0
 11
1.475000000000002
 21
-24.2
 31
0.0
  0
ARC
  5
16433
330
16358
100
AcDbEntity
  8
0
100
AcDbCircle
 10
1.304995791416944
 20
-24.2
 30
0.0
 40
0.1700042085830571
100
AcDbArc
 50
0.0
 51
89.59684073843206
  0
ARC
  5
16434
330
16358
100
AcDbEntity
  8
0
100
AcDbCircle
 10
-1.304995791416944
 20
-24.2
 30
0.0
 40
0.1700042085830571
100
AcDbArc
 50
90.40315926156795
 51
180.0
  0
LINE
  5
16435
330
16358
100
AcDbEntity
  8
0
100
AcDbLine
 10
-1.306192008768394
 20
-24.03
 30
0.0
 11
-1.475000000000001
 21
-23.40000000000001
 31
0.0
  0
LINE
  5
16436
330
16358
100
AcDbEntity
  8
0
100
AcDbLine
 10
1.306192008768394
 20
-24.03
 30
0.0
 11
1.475000000000002
 21
-23.4
 31
0.0
  0
ARC
  5
16437
330
16358
100
AcDbEntity
  8
0
100
AcDbCircle
 10
1.304995791416944
 20
-23.4
 30
0.0
 40
0.1700042085830571
100
AcDbArc
 50
0.0
 51
89.59684073843206
  0
ARC
  5
16438
330
16358
100
AcDbEntity
  8
0
100
AcDbCircle
 10
-1.304995791416944
 20
-23.4
 30
0.0
 40
0.1700042085830571
100
AcDbArc
 50
90.40315926156795
 51
180.0
  0
LINE
  5
16439
330
16358
100
AcDbEntity
  8
0
100
AcDbLine
 10
-1.306192008768394
 20
-23.23
 30
0.0
 11
-1.475000000000001
 21
-22.60000000000001
 31
0.0
  0
LINE
  5
1643A
330
16358
100
AcDbEntity
  8
0
100
AcDbLine
 10
1.306192008768394
 20
-23.23
 30
0.0
 11
1.475000000000002
 21
-22.6
 31
0.0
  0
ARC
  5
1643B
330
16358
100
AcDbEntity
  8
0
100
AcDbCircle
 10
1.304995791416944
 20
-22.6
 30
0.0
 40
0.1700042085830571
100
AcDbArc
 50
0.0
 51
89.59684073843206
  0
ARC
  5
1643C
330
16358
100
AcDbEntity
  8
0
100
AcDbCircle
 10
-1.304995791416944
 20
-22.6
 30
0.0
 40
0.1700042085830571
100
AcDbArc
 50
90.40315926156795
 51
180.0
  0
LINE
  5
1643D
330
16358
100
AcDbEntity
  8
0
100
AcDbLine
 10
-1.306192008768394
 20
-22.43
 30
0.0
 11
-1.475000000000003
 21
-21.8
 31
0.0
  0
LINE
  5
1643E
330
16358
100
AcDbEntity
  8
0
100
AcDbLine
 10
1.306192008768394
 20
-22.43
 30
0.0
 11
1.475000000000002
 21
-21.8
 31
0.0
  0
ELLIPSE
  5
1643F
330
16358
100
AcDbEntity
  8
0
100
AcDbEllipse
 10
-0.4161304748699823
 20
-45.55848174989484
 30
0.0
 11
-0.6617351991256735
 21
2.192297317542445
 31
0.0
210
0.0
220
0.0
230
1.0
 40
0.2003390529179962
 41
0.1254495664417465
 42
0.7406783943722342
  0
ELLIPSE
  5
16440
330
16358
100
AcDbEntity
  8
0
100
AcDbEllipse
 10
0.4161304748699806
 20
-45.55848174989486
 30
0.0
 11
0.6617351991256673
 21
2.192297317542446
 31
0.0
210
0.0
220
0.0
230
1.0
 40
0.2003390529179852
 41
0.2462453728272127
 42
0.8614742007576758
  0
ELLIPSE
  5
16441
330
16358
100
AcDbEntity
  8
0
100
AcDbEllipse
 10
-0.4161304748699823
 20
-45.55848174989484
 30
0.0
 11
-0.6617351991256735
 21
2.192297317542445
 31
0.0
210
0.0
220
0.0
230
1.0
 40
0.2003390529179962
 41
5.421711106421899
 42
6.036939934352385
  0
SPLINE
  5
16442
330
16358
100
AcDbEntity
  8
0
100
AcDbSpline
210
0.0
220
0.0
230
1.0
 70
     8
 71
     3
 72
    12
 73
     8
 74
     0
 42
0.000000001
 43
0.0000000001
 40
0.2420753787907957
 40
0.2420753787907957
 40
0.2420753787907957
 40
0.2420753787907957
 40
0.2705895479462122
 40
0.2705895479462122
 40
0.2821206645140118
 40
0.2821206645140118
 40
0.2897586166778874
 40
0.2897586166778874
 40
0.2897586166778874
 40
0.2897586166778874
 10
-1.200867379557711
 20
-44.03
 30
0.0
 10
-1.268285463391086
 20
-44.03024911309878
 30
0.0
 10
-1.343999202776289
 20
-44.04426726408286
 30
0.0
 10
-1.415953894830039
 20
-44.09415379249022
 30
0.0
 10
-1.437543198662472
 20
-44.1161716710416
 30
0.0
 10
-1.458954820307751
 20
-44.15650242938783
 30
0.0
 10
-1.466043875661322
 20
-44.17861412976322
 30
0.0
 10
-1.467440713789207
 20
-44.2
 30
0.0
  0
SPLINE
  5
16443
330
16358
100
AcDbEntity
  8
0
100
AcDbSpline
210
0.0
220
0.0
230
1.0
 70
     8
 71
     3
 72
    12
 73
     8
 74
     0
 42
0.000000001
 43
0.0000000001
 40
0.2421995196393361
 40
0.2421995196393361
 40
0.2421995196393361
 40
0.2421995196393361
 40
0.2741345104540078
 40
0.2741345104540078
 40
0.2834729279759769
 40
0.2834729279759769
 40
0.2899826817395279
 40
0.2899826817395279
 40
0.2899826817395279
 40
0.2899826817395279
 10
0.5138629199354734
 20
-44.03
 30
0.0
 10
0.4382316421677423
 20
-44.03027886633387
 30
0.0
 10
0.3441221715269535
 20
-44.04731505532978
 30
0.0
 10
0.2410322358868628
 20
-44.10767517942436
 30
0.0
 10
0.2136746146385458
 20
-44.12753048025742
 30
0.0
 10
0.1774360900791682
 20
-44.16244258931349
 30
0.0
 10
0.1608538996258296
 20
-44.18177302681743
 30
0.0
 10
0.1491400399417433
 20
-44.2
 30
0.0
  0
SPLINE
  5
16444
330
16358
100
AcDbEntity
  8
0
100
AcDbSpline
210
0.0
220
0.0
230
1.0
 70
     8
 71
     3
 72
    12
 73
     8
 74
     0
 42
0.000000001
 43
0.0000000001
 40
0.1027187762152192
 40
0.1027187762152192
 40
0.1027187762152192
 40
0.1027187762152192
 40
0.1103567283790948
 40
0.1103567283790948
 40
0.1218878449468944
 40
0.1218878449468944
 40
0.150402014102311
 40
0.150402014102311
 40
0.150402014102311
 40
0.150402014102311
 10
-0.1491400399417433
 20
-44.2
 30
0.0
 10
-0.1628840160076825
 20
-44.17861412976322
 30
0.0
 10
-0.1827392675252297
 20
-44.15650242938783
 30
0.0
 10
-0.2274358633583267
 20
-44.1161716710416
 30
0.0
 10
-0.2617371952993828
 20
-44.09415379249022
 30
0.0
 10
-0.3624938879580503
 20
-44.04426726408288
 30
0.0
 10
-0.4463010105874582
 20
-44.03024911309878
 30
0.0
 10
-0.5138629199354732
 20
-44.03
 30
0.0
  0
SPLINE
  5
16445
330
16358
100
AcDbEntity
  8
0
100
AcDbSpline
210
0.0
220
0.0
230
1.0
 70
     8
 71
     3
 72
    10
 73
     6
 74
     0
 42
0.000000001
 43
0.0000000001
 40
0.0373114912210194
 40
0.0373114912210194
 40
0.0373114912210194
 40
0.0373114912210194
 40
0.0491139277181156
 40
0.0491139277181156
 40
0.0609163642152118
 40
0.0609163642152118
 40
0.0609163642152118
 40
0.0609163642152118
 10
-0.9508421368929589
 20
-43.4
 30
0.0
 10
-0.9824660916623852
 20
-43.3914130388498
 30
0.0
 10
-1.014865805892008
 20
-43.38803523219645
 30
0.0
 10
-1.07050302510281
 20
-43.38803523219645
 30
0.0
 10
-1.100952561751852
 20
-43.3914130388498
 30
0.0
 10
-1.127618832189688
 20
-43.4
 30
0.0
  0
SPLINE
  5
16446
330
16358
100
AcDbEntity
  8
0
100
AcDbSpline
210
0.0
220
0.0
230
1.0
 70
     8
 71
     3
 72
    10
 73
     6
 74
     0
 42
0.000000001
 43
0.0000000001
 40
0.0373114912210193
 40
0.0373114912210193
 40
0.0373114912210193
 40
0.0373114912210193
 40
0.0491139277181156
 40
0.0491139277181156
 40
0.0609163642152118
 40
0.0609163642152118
 40
0.0609163642152118
 40
0.0609163642152118
 10
1.127618832189687
 20
-43.4
 30
0.0
 10
1.100952561751854
 20
-43.3914130388498
 30
0.0
 10
1.07050302510281
 20
-43.38803523219645
 30
0.0
 10
1.014865805892007
 20
-43.38803523219645
 30
0.0
 10
0.982466091662385
 20
-43.3914130388498
 30
0.0
 10
0.9508421368929587
 20
-43.4
 30
0.0
  0
ELLIPSE
  5
16447
330
16358
100
AcDbEntity
  8
0
100
AcDbEllipse
 10
0.5909040781454039
 20
-44.95304822850502
 30
0.0
 11
0.9396620805959775
 21
3.113055889136266
 31
0.0
210
0.0
220
0.0
230
1.0
 40
0.2003390529179848
 41
1.387325252575743
 42
1.536317608737778
  0
ELLIPSE
  5
16448
330
16358
100
AcDbEntity
  8
0
100
AcDbEllipse
 10
-0.5909040781454054
 20
-44.95304822850502
 30
0.0
 11
-0.9396620805959781
 21
3.113055889136276
 31
0.0
210
0.0
220
0.0
230
1.0
 40
0.2003390529179815
 41
4.746867698441807
 42
4.895860054603843
  0
ELLIPSE
  5
16449
330
16358
100
AcDbEntity
  8
0
100
AcDbEllipse
 10
-0.5909040781454054
 20
-44.95304822850502
 30
0.0
 11
-0.9396620805959781
 21
3.113055889136276
 31
0.0
210
0.0
220
0.0
230
1.0
 40
0.2003390529179815
 41
1.266529446190297
 42
1.415521802352336
  0
ELLIPSE
  5
1644A
330
16358
100
AcDbEntity
  8
0
100
AcDbEllipse
 10
0.5909040781454039
 20
-44.95304822850502
 30
0.0
 11
0.9396620805959775
 21
3.113055889136266
 31
0.0
210
0.0
220
0.0
230
1.0
 40
0.2003390529179848
 41
4.867663504827257
 42
5.01665586098929
  0
SPLINE
  5
1644B
330
16358
100
AcDbEntity
  8
0
100
AcDbSpline
210
0.0
220
0.0
230
1.0
 70
     8
 71
     3
 72
    12
 73
     8
 74
     0
 42
0.000000001
 43
0.0000000001
 40
0.1027428382954994
 40
0.1027428382954994
 40
0.1027428382954994
 40
0.1027428382954994
 40
0.1092525920590504
 40
0.1092525920590504
 40
0.1185910095810195
 40
0.1185910095810195
 40
0.1505260003956913
 40
0.1505260003956913
 40
0.1505260003956913
 40
0.1505260003956913
 10
1.467440713789207
 20
-44.2
 30
0.0
 10
1.466250201978583
 20
-44.18177302681743
 30
0.0
 10
1.460828444821703
 20
-44.16244258931349
 30
0.0
 10
1.44474643582382
 20
-44.12753048025742
 30
0.0
 10
1.428852277856314
 20
-44.10767517942436
 30
0.0
 10
1.360611276110547
 20
-44.04731505532978
 30
0.0
 10
1.276337653772512
 20
-44.03027886633387
 30
0.0
 10
1.20086737955771
 20
-44.03
 30
0.0
  0
ELLIPSE
  5
1644C
330
16358
100
AcDbEntity
  8
0
100
AcDbEllipse
 10
0.4161304748699806
 20
-45.55848174989486
 30
0.0
 11
0.6617351991256673
 21
2.192297317542446
 31
0.0
210
0.0
220
0.0
230
1.0
 40
0.2003390529179852
 41
5.542506912807361
 42
6.157735740737832
  0
LINE
  5
1644D
330
16358
100
AcDbEntity
  8
0
100
AcDbLine
 10
0.0
 20
-44.65759618943232
 30
0.0
 11
0.0
 21
-46.99999999999999
 31
0.0
  0
LINE
  5
1644E
330
16358
100
AcDbEntity
  8
0
100
AcDbLine
 10
1.352387470582055
 20
-44.65759618943232
 30
0.0
 11
0.0
 21
-46.99999999999999
 31
0.0
  0
LINE
  5
1644F
330
16358
100
AcDbEntity
  8
0
100
AcDbLine
 10
0.0
 20
-46.99999999999999
 30
0.0
 11
-1.352387470582055
 21
-44.65759618943232
 31
0.0
  0
LINE
  5
16450
330
16358
100
AcDbEntity
  8
0
100
AcDbLine
 10
1.306192008768394
 20
-21.63
 30
0.0
 11
-1.306192008768394
 21
-21.63
 31
0.0
  0
LINE
  5
16451
330
16358
100
AcDbEntity
  8
0
100
AcDbLine
 10
-1.306192008768394
 20
-21.63
 30
0.0
 11
-1.455588571617312
 21
-21.07244443697169
 31
0.0
  0
LINE
  5
16452
330
16358
100
AcDbEntity
  8
0
100
AcDbLine
 10
1.306192008768394
 20
-21.63
 30
0.0
 11
1.455588571617312
 21
-21.07244443697169
 31
0.0
  0
ARC
  5
16453
330
16358
100
AcDbEntity
  8
0
100
AcDbCircle
 10
1.304995791416944
 20
-21.8
 30
0.0
 40
0.1700042085830571
100
AcDbArc
 50
0.0
 51
89.59684073843206
  0
ARC
  5
16454
330
16358
100
AcDbEntity
  8
0
100
AcDbCircle
 10
-1.304995791416944
 20
-21.8
 30
0.0
 40
0.1700042085830571
100
AcDbArc
 50
90.40315926156795
 51
180.0
  0
ARC
  5
16455
330
16358
100
AcDbEntity
  8
0
100
AcDbCircle
 10
2.149999999999998
 20
-1.35
 30
0.0
 40
0.7500000000000001
100
AcDbArc
 50
90.00000000000003
 51
180.0
  0
ARC
  5
16456
330
16358
100
AcDbEntity
  8
0
100
AcDbCircle
 10
-2.149999999999998
 20
-1.35
 30
0.0
 40
0.7500000000000001
100
AcDbArc
 50
0.0
 51
90.0
  0
LINE
  5
16457
330
16358
100
AcDbEntity
  8
0
100
AcDbLine
 10
-1.399999999999997
 20
-21.0
 30
0.0
 11
-1.399999999999997
 21
-1.35
 31
0.0
  0
LINE
  5
16458
330
16358
100
AcDbEntity
  8
0
100
AcDbLine
 10
1.399999999999997
 20
-21.0
 30
0.0
 11
1.399999999999997
 21
-1.35
 31
0.0
  0
ENDBLK
  5
1635A
330
16358
100
AcDbEntity
  8
0
100
AcDbBlockEnd
  0
BLOCK
  5
166B4
330
166B3
100
AcDbEntity
  8
0
100
AcDbBlockBegin
  2
CLNG28x48-Top
 70
     0
 10
0.0
 20
0.0
 30
0.0
  3
CLNG28x48-Top
  1

  0
CIRCLE
  5
166B6
330
166B3
100
AcDbEntity
  8
0
100
AcDbCircle
 10
0.0
 20
0.0
 30
0.0
 40
3.1
  0
ENDBLK
  5
166B5
330
166B3
100
AcDbEntity
  8
0
100
AcDbBlockEnd
  0
BLOCK
  5
166EC
330
166EB
100
AcDbEntity
  8
0
100
AcDbBlockBegin
  2
CLNG28x48-ISO
 70
     0
 10
0.0
 20
0.0
 30
0.0
  3
CLNG28x48-ISO
  1

  0
ELLIPSE
  5
166EE
330
166EB
100
AcDbEntity
  8
0
100
AcDbEllipse
 10
0.0000000000000033
 20
2.041241452319313
 30
0.0
 11
-1.399999999999993
 21
0.0000000000000003
 31
0.0
210
0.0
220
0.0
230
1.0
 40
0.577350269189626
 41
0.0000000000000015
 42
3.141592653589795
  0
ELLIPSE
  5
166EF
330
166EB
100
AcDbEntity
  8
0
100
AcDbEllipse
 10
0.0000000000000033
 20
1.982090817224697
 30
0.0
 11
-1.455588571617312
 21
0.0000000000000001
 31
0.0
210
0.0
220
0.0
230
1.0
 40
0.5773502691896258
 41
0.1906210079744898
 42
2.950971645615304
  0
SPLINE
  5
166F0
330
166EB
100
AcDbEntity
  8
0
100
AcDbSpline
210
0.0
220
0.0
230
1.0
 70
     8
 71
     3
 72
    10
 73
     6
 74
     0
 42
0.000000001
 43
0.0000000001
 40
2.165573482217855
 40
2.165573482217855
 40
2.165573482217855
 40
2.165573482217855
 40
2.469481982392211
 40
2.469481982392211
 40
2.629036930860867
 40
2.629036930860867
 40
2.629036930860867
 40
2.629036930860867
 10
-1.429223150684373
 20
1.822864274869941
 30
0.0
 10
-1.459080789118712
 20
1.91219868575404
 30
0.0
 10
-1.465425604893635
 20
2.005735301704865
 30
0.0
 10
-1.438072681401787
 20
2.144537919357303
 30
0.0
 10
-1.422083390409596
 20
2.191597547166064
 30
0.0
 10
-1.399999999999994
 20
2.237161906409439
 30
0.0
  0
SPLINE
  5
166F1
330
166EB
100
AcDbEntity
  8
0
100
AcDbSpline
210
0.0
220
0.0
230
1.0
 70
     8
 71
     3
 72
    12
 73
     8
 74
     0
 42
0.000000001
 43
0.0000000001
 40
5.224944703113616
 40
5.224944703113616
 40
5.224944703113616
 40
5.224944703113616
 40
5.363151035025386
 40
5.363151035025386
 40
5.663840459368564
 40
5.663840459368564
 40
5.688408151756626
 40
5.688408151756626
 40
5.688408151756626
 40
5.688408151756626
 10
1.400000000000001
 20
2.237161906409439
 30
0.0
 10
1.419128610011656
 20
2.197694105395582
 30
0.0
 10
1.43368876438452
 20
2.157109297827277
 30
0.0
 10
1.464396497103225
 20
2.026224175744775
 30
0.0
 10
1.461845584998483
 20
1.933603618237624
 30
0.0
 10
1.433899905961271
 20
1.837334076941365
 30
0.0
 10
1.431636815573871
 20
1.830085989053687
 30
0.0
 10
1.42922315068438
 20
1.822864274869941
 30
0.0
  0
ELLIPSE
  5
166F2
330
166EB
100
AcDbEntity
  8
0
100
AcDbEllipse
 10
0.0000000000000009
 20
14.2886901662352
 30
0.0
 11
-1.399999999999997
 21
-0.0000000000000067
 31
0.0
210
0.0
220
0.0
230
0.9999999999999998
 40
0.577350269189629
 41
0.2442986374403007
 42
1.326497689354593
  0
LINE
  5
166F3
330
166EB
100
AcDbEntity
  8
0
100
AcDbLine
 10
-0.3386261860645765
 20
13.50440018880097
 30
0.0
 11
-0.3386261860645762
 21
13.34110087261543
 31
0.0
  0
ELLIPSE
  5
166F4
330
166EB
100
AcDbEntity
  8
0
100
AcDbEllipse
 10
0.000000000000001
 20
14.12539085004966
 30
0.0
 11
-1.399999999999997
 21
-0.0000000000000001
 31
0.0
210
0.0
220
0.0
230
0.9999999999999998
 40
0.5773502691896261
 41
0.244298637440302
 42
1.326497689354594
  0
LINE
  5
166F5
330
166EB
100
AcDbEntity
  8
0
100
AcDbLine
 10
-1.358430088783132
 20
13.92988493037061
 30
0.0
 11
-1.358430088783132
 21
14.09318424655616
 31
0.0
  0
LINE
  5
166F6
330
166EB
100
AcDbEntity
  8
0
100
AcDbLine
 10
-1.358430088783132
 20
13.92988493037061
 30
0.0
 11
-0.3386261860645762
 21
13.34110087261543
 31
0.0
  0
ELLIPSE
  5
166F7
330
166EB
100
AcDbEntity
  8
0
100
AcDbEllipse
 10
0.0000000000000011
 20
13.67631773053941
 30
0.0
 11
-1.399999999999997
 21
-0.0000000000000067
 31
0.0
210
0.0
220
0.0
230
0.9999999999999998
 40
0.577350269189629
 41
0.2442986374403007
 42
1.326497689354593
  0
LINE
  5
166F8
330
166EB
100
AcDbEntity
  8
0
100
AcDbLine
 10
-0.3386261860645764
 20
12.89202775310518
 30
0.0
 11
-0.3386261860645762
 21
12.72872843691963
 31
0.0
  0
ELLIPSE
  5
166F9
330
166EB
100
AcDbEntity
  8
0
100
AcDbEllipse
 10
0.0000000000000011
 20
13.51301841435386
 30
0.0
 11
-1.399999999999997
 21
-0.0000000000000001
 31
0.0
210
0.0
220
0.0
230
0.9999999999999998
 40
0.5773502691896261
 41
0.244298637440302
 42
1.326497689354594
  0
LINE
  5
166FA
330
166EB
100
AcDbEntity
  8
0
100
AcDbLine
 10
-1.358430088783132
 20
13.31751249467483
 30
0.0
 11
-1.358430088783132
 21
13.48081181086037
 31
0.0
  0
ELLIPSE
  5
166FB
330
166EB
100
AcDbEntity
  8
0
100
AcDbEllipse
 10
0.0000000000000012
 20
13.06394529484361
 30
0.0
 11
-1.399999999999997
 21
-0.0000000000000067
 31
0.0
210
0.0
220
0.0
230
0.9999999999999998
 40
0.577350269189629
 41
0.2442986374403007
 42
1.326497689354593
  0
LINE
  5
166FC
330
166EB
100
AcDbEntity
  8
0
100
AcDbLine
 10
-0.3386261860645764
 20
12.27965531740938
 30
0.0
 11
-0.3386261860645761
 21
12.11635600122384
 31
0.0
  0
ELLIPSE
  5
166FD
330
166EB
100
AcDbEntity
  8
0
100
AcDbEllipse
 10
0.0000000000000012
 20
12.90064597865807
 30
0.0
 11
-1.399999999999997
 21
-0.0000000000000001
 31
0.0
210
0.0
220
0.0
230
0.9999999999999998
 40
0.5773502691896261
 41
0.244298637440302
 42
1.326497689354594
  0
LINE
  5
166FE
330
166EB
100
AcDbEntity
  8
0
100
AcDbLine
 10
-1.358430088783132
 20
12.70514005897903
 30
0.0
 11
-1.358430088783132
 21
12.86843937516457
 31
0.0
  0
ELLIPSE
  5
166FF
330
166EB
100
AcDbEntity
  8
0
100
AcDbEllipse
 10
0.0000000000000013
 20
12.45157285914782
 30
0.0
 11
-1.399999999999997
 21
-0.0000000000000067
 31
0.0
210
0.0
220
0.0
230
0.9999999999999998
 40
0.577350269189629
 41
0.2442986374403007
 42
1.326497689354593
  0
LINE
  5
16700
330
166EB
100
AcDbEntity
  8
0
100
AcDbLine
 10
-0.3386261860645762
 20
11.66728288171359
 30
0.0
 11
-0.3386261860645759
 21
11.50398356552804
 31
0.0
  0
ELLIPSE
  5
16701
330
166EB
100
AcDbEntity
  8
0
100
AcDbEllipse
 10
0.0000000000000013
 20
12.28827354296228
 30
0.0
 11
-1.399999999999997
 21
-0.0000000000000001
 31
0.0
210
0.0
220
0.0
230
0.9999999999999998
 40
0.5773502691896261
 41
0.244298637440302
 42
1.326497689354594
  0
LINE
  5
16702
330
166EB
100
AcDbEntity
  8
0
100
AcDbLine
 10
-1.358430088783132
 20
12.09276762328324
 30
0.0
 11
-1.358430088783132
 21
12.25606693946878
 31
0.0
  0
ELLIPSE
  5
16703
330
166EB
100
AcDbEntity
  8
0
100
AcDbEllipse
 10
0.0000000000000014
 20
11.83920042345202
 30
0.0
 11
-1.399999999999997
 21
-0.0000000000000067
 31
0.0
210
0.0
220
0.0
230
0.9999999999999998
 40
0.577350269189629
 41
0.2442986374403007
 42
1.326497689354593
  0
LINE
  5
16704
330
166EB
100
AcDbEntity
  8
0
100
AcDbLine
 10
-0.3386261860645761
 20
11.05491044601779
 30
0.0
 11
-0.3386261860645757
 21
10.89161112983225
 31
0.0
  0
ELLIPSE
  5
16705
330
166EB
100
AcDbEntity
  8
0
100
AcDbEllipse
 10
0.0000000000000014
 20
11.67590110726648
 30
0.0
 11
-1.399999999999997
 21
-0.0000000000000001
 31
0.0
210
0.0
220
0.0
230
0.9999999999999998
 40
0.5773502691896261
 41
0.244298637440302
 42
1.326497689354594
  0
LINE
  5
16706
330
166EB
100
AcDbEntity
  8
0
100
AcDbLine
 10
-1.358430088783132
 20
11.48039518758744
 30
0.0
 11
-1.358430088783132
 21
11.64369450377298
 31
0.0
  0
ELLIPSE
  5
16707
330
166EB
100
AcDbEntity
  8
0
100
AcDbEllipse
 10
0.0000000000000015
 20
11.22682798775623
 30
0.0
 11
-1.399999999999997
 21
-0.0000000000000067
 31
0.0
210
0.0
220
0.0
230
0.9999999999999998
 40
0.577350269189629
 41
0.2442986374403007
 42
1.326497689354593
  0
LINE
  5
16708
330
166EB
100
AcDbEntity
  8
0
100
AcDbLine
 10
-0.3386261860645759
 20
10.442538010322
 30
0.0
 11
-0.3386261860645756
 21
10.27923869413646
 31
0.0
  0
ELLIPSE
  5
16709
330
166EB
100
AcDbEntity
  8
0
100
AcDbEllipse
 10
0.0000000000000016
 20
11.06352867157069
 30
0.0
 11
-1.399999999999997
 21
-0.0000000000000001
 31
0.0
210
0.0
220
0.0
230
0.9999999999999998
 40
0.5773502691896261
 41
0.244298637440302
 42
1.326497689354594
  0
LINE
  5
1670A
330
166EB
100
AcDbEntity
  8
0
100
AcDbLine
 10
-1.358430088783132
 20
10.86802275189165
 30
0.0
 11
-1.358430088783132
 21
11.03132206807719
 31
0.0
  0
ELLIPSE
  5
1670B
330
166EB
100
AcDbEntity
  8
0
100
AcDbEllipse
 10
0.0000000000000016
 20
10.61445555206044
 30
0.0
 11
-1.399999999999997
 21
-0.0000000000000067
 31
0.0
210
0.0
220
0.0
230
0.9999999999999998
 40
0.577350269189629
 41
0.2442986374403007
 42
1.326497689354593
  0
LINE
  5
1670C
330
166EB
100
AcDbEntity
  8
0
100
AcDbLine
 10
-0.3386261860645758
 20
9.830165574626207
 30
0.0
 11
-0.3386261860645756
 21
9.666866258440663
 31
0.0
  0
ELLIPSE
  5
1670D
330
166EB
100
AcDbEntity
  8
0
100
AcDbEllipse
 10
0.0000000000000017
 20
10.45115623587489
 30
0.0
 11
-1.399999999999997
 21
-0.0000000000000001
 31
0.0
210
0.0
220
0.0
230
0.9999999999999998
 40
0.5773502691896261
 41
0.244298637440302
 42
1.326497689354594
  0
LINE
  5
1670E
330
166EB
100
AcDbEntity
  8
0
100
AcDbLine
 10
-1.358430088783132
 20
10.25565031619585
 30
0.0
 11
-1.358430088783131
 21
10.41894963238139
 31
0.0
  0
ELLIPSE
  5
1670F
330
166EB
100
AcDbEntity
  8
0
100
AcDbEllipse
 10
0.0000000000000018
 20
10.00208311636464
 30
0.0
 11
-1.399999999999997
 21
-0.0000000000000067
 31
0.0
210
0.0
220
0.0
230
0.9999999999999998
 40
0.577350269189629
 41
0.2442986374402993
 42
1.326497689354591
  0
LINE
  5
16710
330
166EB
100
AcDbEntity
  8
0
100
AcDbLine
 10
-0.3386261860645758
 20
9.217793138930412
 30
0.0
 11
-0.3386261860645755
 21
9.054493822744866
 31
0.0
  0
ELLIPSE
  5
16711
330
166EB
100
AcDbEntity
  8
0
100
AcDbEllipse
 10
0.0000000000000018
 20
9.838783800179095
 30
0.0
 11
-1.399999999999997
 21
-0.0000000000000001
 31
0.0
210
0.0
220
0.0
230
0.9999999999999998
 40
0.5773502691896261
 41
0.244298637440302
 42
1.326497689354594
  0
LINE
  5
16712
330
166EB
100
AcDbEntity
  8
0
100
AcDbLine
 10
-1.358430088783131
 20
9.643277880500056
 30
0.0
 11
-1.358430088783131
 21
9.806577196685601
 31
0.0
  0
ELLIPSE
  5
16713
330
166EB
100
AcDbEntity
  8
0
100
AcDbEllipse
 10
0.0000000000000019
 20
9.389710680668848
 30
0.0
 11
-1.399999999999997
 21
-0.0000000000000067
 31
0.0
210
0.0
220
0.0
230
0.9999999999999998
 40
0.577350269189629
 41
0.2442986374402993
 42
1.326497689354591
  0
LINE
  5
16714
330
166EB
100
AcDbEntity
  8
0
100
AcDbLine
 10
-0.3386261860645757
 20
8.605420703234617
 30
0.0
 11
-0.3386261860645752
 21
8.442121387049073
 31
0.0
  0
ELLIPSE
  5
16715
330
166EB
100
AcDbEntity
  8
0
100
AcDbEllipse
 10
0.0000000000000019
 20
9.226411364483302
 30
0.0
 11
-1.399999999999997
 21
-0.0000000000000001
 31
0.0
210
0.0
220
0.0
230
0.9999999999999998
 40
0.5773502691896261
 41
0.244298637440302
 42
1.326497689354594
  0
LINE
  5
16716
330
166EB
100
AcDbEntity
  8
0
100
AcDbLine
 10
-1.358430088783131
 20
9.030905444804261
 30
0.0
 11
-1.358430088783131
 21
9.194204760989808
 31
0.0
  0
ELLIPSE
  5
16717
330
166EB
100
AcDbEntity
  8
0
100
AcDbEllipse
 10
0.000000000000002
 20
8.777338244973051
 30
0.0
 11
-1.399999999999997
 21
-0.0000000000000067
 31
0.0
210
0.0
220
0.0
230
0.9999999999999998
 40
0.577350269189629
 41
0.2442986374402993
 42
1.326497689354591
  0
LINE
  5
16718
330
166EB
100
AcDbEntity
  8
0
100
AcDbLine
 10
-0.3386261860645756
 20
7.99304826753882
 30
0.0
 11
-0.3386261860645752
 21
7.829748951353277
 31
0.0
  0
ELLIPSE
  5
16719
330
166EB
100
AcDbEntity
  8
0
100
AcDbEllipse
 10
0.000000000000002
 20
8.614038928787506
 30
0.0
 11
-1.399999999999997
 21
-0.0000000000000001
 31
0.0
210
0.0
220
0.0
230
0.9999999999999998
 40
0.5773502691896261
 41
0.244298637440302
 42
1.326497689354594
  0
LINE
  5
1671A
330
166EB
100
AcDbEntity
  8
0
100
AcDbLine
 10
-1.358430088783131
 20
8.418533009108468
 30
0.0
 11
-1.358430088783131
 21
8.581832325294008
 31
0.0
  0
ELLIPSE
  5
1671B
330
166EB
100
AcDbEntity
  8
0
100
AcDbEllipse
 10
0.0000000000000021
 20
8.16496580927726
 30
0.0
 11
-1.399999999999997
 21
-0.0000000000000067
 31
0.0
210
0.0
220
0.0
230
0.9999999999999998
 40
0.577350269189629
 41
0.2442986374402993
 42
1.326497689354591
  0
LINE
  5
1671C
330
166EB
100
AcDbEntity
  8
0
100
AcDbLine
 10
-0.3386261860645754
 20
7.38067583184303
 30
0.0
 11
-0.338626186064575
 21
7.217376515657485
 31
0.0
  0
ELLIPSE
  5
1671D
330
166EB
100
AcDbEntity
  8
0
100
AcDbEllipse
 10
0.0000000000000022
 20
8.001666493091715
 30
0.0
 11
-1.399999999999997
 21
-0.0000000000000001
 31
0.0
210
0.0
220
0.0
230
0.9999999999999998
 40
0.5773502691896261
 41
0.244298637440302
 42
1.326497689354594
  0
LINE
  5
1671E
330
166EB
100
AcDbEntity
  8
0
100
AcDbLine
 10
-1.358430088783131
 20
7.806160573412674
 30
0.0
 11
-1.358430088783131
 21
7.969459889598217
 31
0.0
  0
LINE
  5
1671F
330
166EB
100
AcDbEntity
  8
0
100
AcDbLine
 10
-1.358430088783131
 20
7.806160573412674
 30
0.0
 11
-0.338626186064575
 21
7.217376515657485
 31
0.0
  0
LINE
  5
16720
330
166EB
100
AcDbEntity
  8
0
100
AcDbLine
 10
-1.358430088783131
 20
8.418533009108468
 30
0.0
 11
-0.3386261860645752
 21
7.829748951353277
 31
0.0
  0
LINE
  5
16721
330
166EB
100
AcDbEntity
  8
0
100
AcDbLine
 10
-1.358430088783131
 20
9.030905444804261
 30
0.0
 11
-0.3386261860645752
 21
8.442121387049073
 31
0.0
  0
LINE
  5
16722
330
166EB
100
AcDbEntity
  8
0
100
AcDbLine
 10
-1.358430088783131
 20
9.643277880500056
 30
0.0
 11
-0.3386261860645755
 21
9.054493822744866
 31
0.0
  0
LINE
  5
16723
330
166EB
100
AcDbEntity
  8
0
100
AcDbLine
 10
-1.358430088783132
 20
10.25565031619585
 30
0.0
 11
-0.3386261860645756
 21
9.666866258440663
 31
0.0
  0
LINE
  5
16724
330
166EB
100
AcDbEntity
  8
0
100
AcDbLine
 10
-1.358430088783132
 20
10.86802275189165
 30
0.0
 11
-0.3386261860645756
 21
10.27923869413646
 31
0.0
  0
LINE
  5
16725
330
166EB
100
AcDbEntity
  8
0
100
AcDbLine
 10
-1.358430088783132
 20
11.48039518758744
 30
0.0
 11
-0.3386261860645757
 21
10.89161112983225
 31
0.0
  0
LINE
  5
16726
330
166EB
100
AcDbEntity
  8
0
100
AcDbLine
 10
-1.358430088783132
 20
12.09276762328324
 30
0.0
 11
-0.3386261860645759
 21
11.50398356552804
 31
0.0
  0
LINE
  5
16727
330
166EB
100
AcDbEntity
  8
0
100
AcDbLine
 10
-1.358430088783132
 20
12.70514005897903
 30
0.0
 11
-0.3386261860645761
 21
12.11635600122384
 31
0.0
  0
LINE
  5
16728
330
166EB
100
AcDbEntity
  8
0
100
AcDbLine
 10
-1.358430088783132
 20
13.31751249467483
 30
0.0
 11
-0.3386261860645762
 21
12.72872843691963
 31
0.0
  0
ELLIPSE
  5
16729
330
166EB
100
AcDbEntity
  8
0
100
AcDbEllipse
 10
0.0000000000000001
 20
18.69777170324492
 30
0.0
 11
-3.1
 21
-0.0000000000000004
 31
0.0
210
0.0
220
0.0
230
1.0
 40
0.577350269189626
 41
0.0
 42
3.141592653589793
  0
ELLIPSE
  5
1672A
330
166EB
100
AcDbEntity
  8
0
100
AcDbEllipse
 10
0.0
 20
19.18766965180156
 30
0.0
 11
3.1
 21
0.0000000000000006
 31
0.0
210
0.0
220
0.0
230
1.0
 40
0.577350269189626
 41
0.0
 42
6.283185307179586
  0
LINE
  5
1672B
330
166EB
100
AcDbEntity
  8
0
100
AcDbLine
 10
-3.1
 20
18.69777170324492
 30
0.0
 11
-3.1
 21
19.18766965180156
 31
0.0
  0
LINE
  5
1672C
330
166EB
100
AcDbEntity
  8
0
100
AcDbLine
 10
3.1
 20
18.69777170324492
 30
0.0
 11
3.1
 21
19.18766965180156
 31
0.0
  0
ELLIPSE
  5
1672D
330
166EB
100
AcDbEntity
  8
0
100
AcDbEllipse
 10
0.0000000000000076
 20
-18.35044403919697
 30
0.0
 11
-0.0000000000000009
 21
1.27559975821254
 31
0.0
210
0.0
220
0.0
230
1.0
 40
0.5303246982977907
 41
0.1858474696344849
 42
0.8010762975649511
  0
ELLIPSE
  5
1672E
330
166EB
100
AcDbEntity
  8
0
100
AcDbEllipse
 10
-0.5884973612778781
 20
-18.01067492924579
 30
0.0
 11
-0.8831348565963985
 21
1.833793311752309
 31
0.0
210
0.0
220
0.0
230
1.0
 40
0.0845329417264293
 41
0.587510729953233
 42
0.9748353798066826
  0
SPLINE
  5
1672F
330
166EB
100
AcDbEntity
  8
0
100
AcDbSpline
210
0.0
220
0.0
230
1.0
 70
     8
 71
     3
 72
    12
 73
     8
 74
     0
 42
0.000000001
 43
0.0000000001
 40
0.2421995196393361
 40
0.2421995196393361
 40
0.2421995196393361
 40
0.2421995196393361
 40
0.2741345104540078
 40
0.2741345104540078
 40
0.2834729279759769
 40
0.2834729279759769
 40
0.2899826817395279
 40
0.2899826817395279
 40
0.2899826817395279
 40
0.2899826817395279
 10
-0.4857855121042772
 20
-17.4627105198209
 30
0.0
 10
-0.5926304441589371
 20
-17.4628724838038
 30
0.0
 10
-0.7187663388532944
 20
-17.47276700561614
 30
0.0
 10
-0.8399156065058818
 20
-17.50782382287689
 30
0.0
 10
-0.8704992328877738
 20
-17.51935566883319
 30
0.0
 10
-0.9074954369614109
 20
-17.53963242349076
 30
0.0
 10
-0.9230545775294702
 20
-17.55085943180645
 30
0.0
 10
-0.9321793461203302
 20
-17.56144555431137
 30
0.0
  0
SPLINE
  5
16730
330
166EB
100
AcDbEntity
  8
0
100
AcDbSpline
210
0.0
220
0.0
230
1.0
 70
     8
 71
     3
 72
    12
 73
     8
 74
     0
 42
0.000000001
 43
0.0000000001
 40
0.1027187762152192
 40
0.1027187762152192
 40
0.1027187762152192
 40
0.1027187762152192
 40
0.1103567283790948
 40
0.1103567283790948
 40
0.1218878449468944
 40
0.1218878449468944
 40
0.150402014102311
 40
0.150402014102311
 40
0.150402014102311
 40
0.150402014102311
 10
-1.143095213298808
 20
-17.43967322161952
 30
0.0
 10
-1.151825958263052
 20
-17.41603052018016
 30
0.0
 10
-1.160853022140557
 20
-17.3869764252073
 30
0.0
 10
-1.177317985288517
 20
-17.32705793214021
 30
0.0
 10
-1.186306746566759
 20
-17.28626315307627
 30
0.0
 10
-1.206672836506235
 20
-17.17502184564482
 30
0.0
 10
-1.212395722680954
 20
-17.09845195408459
 30
0.0
 10
-1.212497422677663
 20
-17.04314320262805
 30
0.0
  0
SPLINE
  5
16731
330
166EB
100
AcDbEntity
  8
0
100
AcDbSpline
210
0.0
220
0.0
230
1.0
 70
     8
 71
     3
 72
    10
 73
     6
 74
     0
 42
0.000000001
 43
0.0000000001
 40
0.0435263316433926
 40
0.0435263316433926
 40
0.0435263316433926
 40
0.0435263316433926
 40
0.0491139277181155
 40
0.0491139277181155
 40
0.0609163642152113
 40
0.0609163642152113
 40
0.0609163642152113
 40
0.0609163642152113
 10
1.473571879273219
 20
-16.20679606167203
 30
0.0
 10
1.474269365286529
 20
-16.21696433790328
 30
0.0
 10
1.474578441671506
 20
-16.22775943479902
 30
0.0
 10
1.474578441671505
 20
-16.26122656808754
 30
0.0
 10
1.473199457879759
 20
-16.28964263489918
 30
0.0
 10
1.46969384566991
 20
-16.32045074411049
 30
0.0
  0
SPLINE
  5
16732
330
166EB
100
AcDbEntity
  8
0
100
AcDbSpline
210
0.0
220
0.0
230
1.0
 70
     8
 71
     3
 72
    10
 73
     6
 74
     0
 42
0.000000001
 43
0.0000000001
 40
0.0373114912210194
 40
0.0373114912210194
 40
0.0373114912210194
 40
0.0373114912210194
 40
0.0491139277181156
 40
0.0491139277181156
 40
0.0547015237928387
 40
0.0547015237928387
 40
0.0547015237928387
 40
0.0547015237928387
 10
-1.469693845669896
 20
-16.3204507441105
 30
0.0
 10
-1.473199457879745
 20
-16.28964263489918
 30
0.0
 10
-1.474578441671492
 20
-16.26122656808754
 30
0.0
 10
-1.474578441671492
 20
-16.22775943479902
 30
0.0
 10
-1.474269365286516
 20
-16.21696433790328
 30
0.0
 10
-1.473571879273205
 20
-16.20679606167203
 30
0.0
  0
SPLINE
  5
16733
330
166EB
100
AcDbEntity
  8
0
100
AcDbSpline
210
0.0
220
0.0
230
1.0
 70
     8
 71
     3
 72
    10
 73
     6
 74
     0
 42
0.000000001
 43
0.0000000001
 40
0.0373114912210193
 40
0.0373114912210193
 40
0.0373114912210193
 40
0.0373114912210193
 40
0.0491139277181156
 40
0.0491139277181156
 40
0.0609163642152118
 40
0.0609163642152118
 40
0.0609163642152118
 40
0.0609163642152118
 10
0.1250000000000718
 20
-17.09681009788561
 30
0.0
 10
0.0837825864791291
 20
-17.09182283961894
 30
0.0
 10
0.0393414549903275
 20
-17.08986102869882
 30
0.0
 10
-0.0393414549903141
 20
-17.08986102869882
 30
0.0
 10
-0.0837825864791127
 20
-17.09182283961894
 30
0.0
 10
-0.1250000000000587
 20
-17.09681009788561
 30
0.0
  0
ELLIPSE
  5
16734
330
166EB
100
AcDbEntity
  8
0
100
AcDbEllipse
 10
0.0000000000000074
 20
-17.99881168851393
 30
0.0
 11
-0.0000000000000021
 21
1.811347989941361
 31
0.0
210
0.0
220
0.0
230
1.0
 40
0.5303246982977893
 41
1.32692734938302
 42
1.475919705545056
  0
ELLIPSE
  5
16735
330
166EB
100
AcDbEntity
  8
0
100
AcDbEllipse
 10
-0.8356645613747964
 20
-17.51634052905196
 30
0.0
 11
-1.254048957789547
 21
2.603981231436548
 31
0.0
210
0.0
220
0.0
230
0.9999999999999998
 40
0.0845329417264231
 41
1.500686431624712
 42
1.649678787786747
  0
ELLIPSE
  5
16736
330
166EB
100
AcDbEntity
  8
0
100
AcDbEllipse
 10
0.8356645613748076
 20
-17.51634052905195
 30
0.0
 11
1.254048957789551
 21
2.603981231436548
 31
0.0
210
0.0
220
0.0
230
0.9999999999999998
 40
0.0845329417264243
 41
4.633506519392827
 42
4.782498875554863
  0
ELLIPSE
  5
16737
330
166EB
100
AcDbEntity
  8
0
100
AcDbEllipse
 10
0.0000000000000074
 20
-17.99881168851393
 30
0.0
 11
-0.0000000000000021
 21
1.811347989941361
 31
0.0
210
0.0
220
0.0
230
1.0
 40
0.5303246982977893
 41
4.807265601634532
 42
4.956257957796566
  0
SPLINE
  5
16738
330
166EB
100
AcDbEntity
  8
0
100
AcDbSpline
210
0.0
220
0.0
230
1.0
 70
     8
 71
     3
 72
    12
 73
     8
 74
     0
 42
0.000000001
 43
0.0000000001
 40
0.2420753787907957
 40
0.2420753787907957
 40
0.2420753787907957
 40
0.2420753787907957
 40
0.2705895479462122
 40
0.2705895479462122
 40
0.2821206645140118
 40
0.2821206645140118
 40
0.2897586166778875
 40
0.2897586166778875
 40
0.2897586166778875
 40
0.2897586166778875
 10
1.212497422677677
 20
-17.04314320262805
 30
0.0
 10
1.212395722680968
 20
-17.09845195408459
 30
0.0
 10
1.206672836506249
 20
-17.17502184564482
 30
0.0
 10
1.186306746566772
 20
-17.28626315307627
 30
0.0
 10
1.177317985288531
 20
-17.32705793214021
 30
0.0
 10
1.160853022140571
 20
-17.3869764252073
 30
0.0
 10
1.151825958263065
 20
-17.41603052018016
 30
0.0
 10
1.143095213298822
 20
-17.43967322161952
 30
0.0
  0
SPLINE
  5
16739
330
166EB
100
AcDbEntity
  8
0
100
AcDbSpline
210
0.0
220
0.0
230
1.0
 70
     8
 71
     3
 72
    12
 73
     8
 74
     0
 42
0.000000001
 43
0.0000000001
 40
0.1027428382954994
 40
0.1027428382954994
 40
0.1027428382954994
 40
0.1027428382954994
 40
0.1092525920590504
 40
0.1092525920590504
 40
0.1185910095810195
 40
0.1185910095810195
 40
0.1505260003956913
 40
0.1505260003956913
 40
0.1505260003956913
 40
0.1505260003956913
 10
0.9321793461203437
 20
-17.56144555431137
 30
0.0
 10
0.9230545775294839
 20
-17.55085943180645
 30
0.0
 10
0.907495436961425
 20
-17.53963242349076
 30
0.0
 10
0.8704992328877878
 20
-17.51935566883319
 30
0.0
 10
0.8399156065058955
 20
-17.50782382287689
 30
0.0
 10
0.7187663388533082
 20
-17.47276700561614
 30
0.0
 10
0.5926304441589508
 20
-17.4628724838038
 30
0.0
 10
0.4857855121042908
 20
-17.4627105198209
 30
0.0
  0
ELLIPSE
  5
1673A
330
166EB
100
AcDbEntity
  8
0
100
AcDbEllipse
 10
0.5884973612778904
 20
-18.01067492924579
 30
0.0
 11
0.8831348565964013
 21
1.833793311752315
 31
0.0
210
0.0
220
0.0
230
1.0
 40
0.0845329417264241
 41
5.308349927372914
 42
5.69567457722633
  0
ELLIPSE
  5
1673B
330
166EB
100
AcDbEntity
  8
0
100
AcDbEllipse
 10
0.0000000000000076
 20
-18.35044403919697
 30
0.0
 11
-0.0000000000000009
 21
1.27559975821254
 31
0.0
210
0.0
220
0.0
230
1.0
 40
0.5303246982977907
 41
5.482109009614637
 42
6.097337837545103
  0
LINE
  5
1673C
330
166EB
100
AcDbEntity
  8
0
100
AcDbLine
 10
-0.9562823512402875
 20
-17.82721482223085
 30
0.0
 11
0.0
 21
-19.18766965180156
 31
0.0
  0
LINE
  5
1673D
330
166EB
100
AcDbEntity
  8
0
100
AcDbLine
 10
0.956282351240301
 20
-17.82721482223085
 30
0.0
 11
0.0
 21
-19.18766965180156
 31
0.0
  0
ELLIPSE
  5
1673E
330
166EB
100
AcDbEntity
  8
0
100
AcDbEllipse
 10
0.0000000000000068
 20
-16.24828196046177
 30
0.0
 11
-1.475000000000001
 21
0.0
 31
0.0
210
0.0
220
0.0
230
1.0
 40
0.5773502691896258
 41
0.0848475304309377
 42
1.485948796363958
  0
ELLIPSE
  5
1673F
330
166EB
100
AcDbEntity
  8
0
100
AcDbEllipse
 10
0.0000000000000069
 20
-16.76267480644622
 30
0.0
 11
-1.306192008768394
 21
0.0
 31
0.0
210
0.0
220
0.0
230
1.0
 40
0.577350269189626
 41
0.3810654732527956
 42
1.189730853542097
  0
ELLIPSE
  5
16740
330
166EB
100
AcDbEntity
  8
0
100
AcDbEllipse
 10
0.0000000000000069
 20
-16.90147922520394
 30
0.0
 11
1.475000000000001
 21
0.0000000000000881
 31
0.0
210
0.0
220
0.0
230
1.0
 40
0.5773502691896259
 41
3.825705839841781
 42
4.028275794132162
  0
ELLIPSE
  5
16741
330
166EB
100
AcDbEntity
  8
0
100
AcDbEllipse
 10
0.0000000000000068
 20
-16.24828196046177
 30
0.0
 11
1.475000000000001
 21
0.0000000000000001
 31
0.0
210
0.0
220
0.0
230
1.0
 40
0.5773502691896259
 41
4.797236510815627
 42
6.198337776748651
  0
ELLIPSE
  5
16742
330
166EB
100
AcDbEntity
  8
0
100
AcDbEllipse
 10
0.0000000000000068
 20
-16.10947754170403
 30
0.0
 11
-1.306192008768394
 21
0.0
 31
0.0
210
0.0
220
0.0
230
1.0
 40
0.5773502691896261
 41
0.1906210079745019
 42
2.950971645615291
  0
ELLIPSE
  5
16743
330
166EB
100
AcDbEntity
  8
0
100
AcDbEllipse
 10
0.0000000000000069
 20
-16.90147922520394
 30
0.0
 11
1.475000000000001
 21
0.0000000000000004
 31
0.0
210
0.0
220
0.0
230
1.0
 40
0.577350269189626
 41
5.396502166636974
 42
5.599072120927301
  0
ELLIPSE
  5
16744
330
166EB
100
AcDbEntity
  8
0
100
AcDbEllipse
 10
0.0000000000000069
 20
-16.76267480644622
 30
0.0
 11
1.306192008768394
 21
0.0000000000000003
 31
0.0
210
0.0
220
0.0
230
1.0
 40
0.577350269189626
 41
5.093454453637486
 42
5.902119833926787
  0
ELLIPSE
  5
16745
330
166EB
100
AcDbEntity
  8
0
100
AcDbEllipse
 10
0.0000000000000067
 20
-15.59508469571958
 30
0.0
 11
-1.475000000000001
 21
-0.0000000000000612
 31
0.0
210
0.0
220
0.0
230
1.0
 40
0.577350269189626
 41
0.0
 42
3.141592653589363
  0
ELLIPSE
  5
16746
330
166EB
100
AcDbEntity
  8
0
100
AcDbEllipse
 10
0.0000000000000067
 20
-15.45628027696186
 30
0.0
 11
-1.306192008768394
 21
0.0
 31
0.0
210
0.0
220
0.0
230
1.0
 40
0.5773502691896261
 41
0.1906210079745019
 42
2.950971645615291
  0
ELLIPSE
  5
16747
330
166EB
100
AcDbEntity
  8
0
100
AcDbEllipse
 10
0.0000000000000066
 20
-14.9418874309774
 30
0.0
 11
-1.475000000000001
 21
-0.0000000000000612
 31
0.0
210
0.0
220
0.0
230
1.0
 40
0.577350269189626
 41
0.0
 42
3.141592653589363
  0
ELLIPSE
  5
16748
330
166EB
100
AcDbEntity
  8
0
100
AcDbEllipse
 10
0.0000000000000065
 20
-14.80308301221968
 30
0.0
 11
-1.306192008768394
 21
0.0
 31
0.0
210
0.0
220
0.0
230
1.0
 40
0.5773502691896261
 41
0.1906210079745019
 42
2.950971645615291
  0
ELLIPSE
  5
16749
330
166EB
100
AcDbEntity
  8
0
100
AcDbEllipse
 10
0.0000000000000064
 20
-14.28869016623522
 30
0.0
 11
-1.475000000000001
 21
-0.0000000000000612
 31
0.0
210
0.0
220
0.0
230
1.0
 40
0.577350269189626
 41
0.0
 42
3.141592653589363
  0
ELLIPSE
  5
1674A
330
166EB
100
AcDbEntity
  8
0
100
AcDbEllipse
 10
0.0000000000000064
 20
-14.14988574747749
 30
0.0
 11
-1.306192008768394
 21
0.0
 31
0.0
210
0.0
220
0.0
230
1.0
 40
0.5773502691896261
 41
0.1906210079745019
 42
2.950971645615291
  0
ELLIPSE
  5
1674B
330
166EB
100
AcDbEntity
  8
0
100
AcDbEllipse
 10
0.0000000000000063
 20
-13.63549290149303
 30
0.0
 11
-1.475000000000001
 21
-0.0000000000000612
 31
0.0
210
0.0
220
0.0
230
1.0
 40
0.577350269189626
 41
0.0
 42
3.141592653589363
  0
ELLIPSE
  5
1674C
330
166EB
100
AcDbEntity
  8
0
100
AcDbEllipse
 10
0.0000000000000063
 20
-13.49668848273531
 30
0.0
 11
-1.306192008768394
 21
0.0
 31
0.0
210
0.0
220
0.0
230
1.0
 40
0.5773502691896261
 41
0.1906210079745019
 42
2.950971645615291
  0
ELLIPSE
  5
1674D
330
166EB
100
AcDbEntity
  8
0
100
AcDbEllipse
 10
0.0000000000000062
 20
-12.98229563675085
 30
0.0
 11
-1.475000000000001
 21
-0.0000000000000305
 31
0.0
210
0.0
220
0.0
230
1.0
 40
0.5773502691896259
 41
0.0
 42
3.141592653589579
  0
ELLIPSE
  5
1674E
330
166EB
100
AcDbEntity
  8
0
100
AcDbEllipse
 10
0.0000000000000062
 20
-12.84349121799313
 30
0.0
 11
-1.306192008768394
 21
0.0
 31
0.0
210
0.0
220
0.0
230
1.0
 40
0.5773502691896261
 41
0.1906210079745019
 42
2.950971645615291
  0
ELLIPSE
  5
1674F
330
166EB
100
AcDbEntity
  8
0
100
AcDbEllipse
 10
0.0000000000000061
 20
-12.32909837200867
 30
0.0
 11
-1.475000000000001
 21
-0.0000000000000165
 31
0.0
210
0.0
220
0.0
230
1.0
 40
0.577350269189626
 41
0.0
 42
3.141592653589675
  0
ELLIPSE
  5
16750
330
166EB
100
AcDbEntity
  8
0
100
AcDbEllipse
 10
0.000000000000006
 20
-12.19029395325096
 30
0.0
 11
-1.306192008768394
 21
0.0
 31
0.0
210
0.0
220
0.0
230
1.0
 40
0.5773502691896261
 41
0.1906210079745019
 42
2.950971645615291
  0
ELLIPSE
  5
16751
330
166EB
100
AcDbEntity
  8
0
100
AcDbEllipse
 10
0.0000000000000059
 20
-11.67590110726649
 30
0.0
 11
-1.475000000000001
 21
-0.0000000000000165
 31
0.0
210
0.0
220
0.0
230
1.0
 40
0.577350269189626
 41
0.0
 42
3.141592653589675
  0
ELLIPSE
  5
16752
330
166EB
100
AcDbEntity
  8
0
100
AcDbEllipse
 10
0.0000000000000059
 20
-11.53709668850878
 30
0.0
 11
-1.306192008768394
 21
0.0
 31
0.0
210
0.0
220
0.0
230
1.0
 40
0.5773502691896261
 41
0.1906210079745019
 42
2.950971645615291
  0
ELLIPSE
  5
16753
330
166EB
100
AcDbEntity
  8
0
100
AcDbEllipse
 10
0.0000000000000058
 20
-11.0227038425243
 30
0.0
 11
-1.475000000000001
 21
-0.0000000000000165
 31
0.0
210
0.0
220
0.0
230
1.0
 40
0.577350269189626
 41
0.0
 42
3.141592653589675
  0
ELLIPSE
  5
16754
330
166EB
100
AcDbEntity
  8
0
100
AcDbEllipse
 10
0.0000000000000058
 20
-10.88389942376659
 30
0.0
 11
-1.306192008768394
 21
0.0
 31
0.0
210
0.0
220
0.0
230
1.0
 40
0.5773502691896261
 41
0.1906210079745019
 42
2.950971645615291
  0
ELLIPSE
  5
16755
330
166EB
100
AcDbEntity
  8
0
100
AcDbEllipse
 10
0.0000000000000057
 20
-10.36950657778213
 30
0.0
 11
-1.475000000000001
 21
-0.0000000000000165
 31
0.0
210
0.0
220
0.0
230
1.0
 40
0.577350269189626
 41
0.0
 42
3.141592653589675
  0
ELLIPSE
  5
16756
330
166EB
100
AcDbEntity
  8
0
100
AcDbEllipse
 10
0.0000000000000057
 20
-10.23070215902441
 30
0.0
 11
-1.306192008768394
 21
0.0
 31
0.0
210
0.0
220
0.0
230
1.0
 40
0.5773502691896261
 41
0.1906210079745019
 42
2.950971645615291
  0
ELLIPSE
  5
16757
330
166EB
100
AcDbEntity
  8
0
100
AcDbEllipse
 10
0.0000000000000056
 20
-9.71630931303995
 30
0.0
 11
-1.475000000000001
 21
-0.0000000000000305
 31
0.0
210
0.0
220
0.0
230
1.0
 40
0.5773502691896259
 41
0.0
 42
3.141592653589579
  0
ELLIPSE
  5
16758
330
166EB
100
AcDbEntity
  8
0
100
AcDbEllipse
 10
0.0000000000000055
 20
-9.577504894282231
 30
0.0
 11
-1.306192008768394
 21
0.0
 31
0.0
210
0.0
220
0.0
230
1.0
 40
0.5773502691896261
 41
0.1906210079745019
 42
2.950971645615291
  0
ELLIPSE
  5
16759
330
166EB
100
AcDbEntity
  8
0
100
AcDbEllipse
 10
0.0000000000000054
 20
-9.063112048297767
 30
0.0
 11
-1.475000000000001
 21
-0.0000000000000305
 31
0.0
210
0.0
220
0.0
230
1.0
 40
0.5773502691896259
 41
0.0
 42
3.141592653589579
  0
ELLIPSE
  5
1675A
330
166EB
100
AcDbEntity
  8
0
100
AcDbEllipse
 10
0.0000000000000054
 20
-8.924307629540049
 30
0.0
 11
-1.306192008768394
 21
0.0
 31
0.0
210
0.0
220
0.0
230
1.0
 40
0.5773502691896261
 41
0.1906210079745019
 42
2.950971645615291
  0
ELLIPSE
  5
1675B
330
166EB
100
AcDbEntity
  8
0
100
AcDbEllipse
 10
0.0000000000000053
 20
-8.409914783555585
 30
0.0
 11
-1.475000000000001
 21
-0.0000000000000305
 31
0.0
210
0.0
220
0.0
230
1.0
 40
0.5773502691896259
 41
0.0
 42
3.141592653589579
  0
ELLIPSE
  5
1675C
330
166EB
100
AcDbEntity
  8
0
100
AcDbEllipse
 10
0.0000000000000053
 20
-8.27111036479787
 30
0.0
 11
-1.306192008768394
 21
0.0
 31
0.0
210
0.0
220
0.0
230
1.0
 40
0.5773502691896261
 41
0.1906210079745019
 42
2.950971645615291
  0
ELLIPSE
  5
1675D
330
166EB
100
AcDbEntity
  8
0
100
AcDbEllipse
 10
0.0000000000000052
 20
-7.756717518813402
 30
0.0
 11
-1.475000000000001
 21
-0.0000000000000305
 31
0.0
210
0.0
220
0.0
230
1.0
 40
0.5773502691896259
 41
0.0
 42
3.141592653589579
  0
ELLIPSE
  5
1675E
330
166EB
100
AcDbEntity
  8
0
100
AcDbEllipse
 10
0.0000000000000052
 20
-7.617913100055688
 30
0.0
 11
-1.306192008768394
 21
0.0
 31
0.0
210
0.0
220
0.0
230
1.0
 40
0.5773502691896261
 41
0.1906210079745019
 42
2.950971645615291
  0
ELLIPSE
  5
1675F
330
166EB
100
AcDbEntity
  8
0
100
AcDbEllipse
 10
0.0000000000000051
 20
-7.10352025407122
 30
0.0
 11
-1.475000000000001
 21
-0.0000000000000305
 31
0.0
210
0.0
220
0.0
230
1.0
 40
0.5773502691896259
 41
0.0
 42
3.141592653589579
  0
ELLIPSE
  5
16760
330
166EB
100
AcDbEntity
  8
0
100
AcDbEllipse
 10
0.000000000000005
 20
-6.964715835313506
 30
0.0
 11
-1.306192008768394
 21
0.0
 31
0.0
210
0.0
220
0.0
230
1.0
 40
0.5773502691896261
 41
0.1906210079745019
 42
2.950971645615291
  0
ELLIPSE
  5
16761
330
166EB
100
AcDbEntity
  8
0
100
AcDbEllipse
 10
0.0000000000000049
 20
-6.450322989329047
 30
0.0
 11
-1.475000000000001
 21
-0.0000000000000472
 31
0.0
210
0.0
220
0.0
230
1.0
 40
0.577350269189626
 41
0.0
 42
3.141592653589459
  0
ELLIPSE
  5
16762
330
166EB
100
AcDbEntity
  8
0
100
AcDbEllipse
 10
0.0000000000000049
 20
-6.311518570571323
 30
0.0
 11
-1.306192008768394
 21
0.0
 31
0.0
210
0.0
220
0.0
230
1.0
 40
0.5773502691896261
 41
0.1906210079745019
 42
2.950971645615289
  0
ELLIPSE
  5
16763
330
166EB
100
AcDbEntity
  8
0
100
AcDbEllipse
 10
0.0000000000000048
 20
-5.797125724586864
 30
0.0
 11
-1.475000000000001
 21
-0.0000000000000472
 31
0.0
210
0.0
220
0.0
230
1.0
 40
0.577350269189626
 41
0.0
 42
3.141592653589459
  0
ELLIPSE
  5
16764
330
166EB
100
AcDbEntity
  8
0
100
AcDbEllipse
 10
0.0000000000000048
 20
-5.658321305829141
 30
0.0
 11
-1.306192008768394
 21
0.0
 31
0.0
210
0.0
220
0.0
230
1.0
 40
0.5773502691896261
 41
0.1906210079745019
 42
2.950971645615291
  0
ELLIPSE
  5
16765
330
166EB
100
AcDbEntity
  8
0
100
AcDbEllipse
 10
0.0000000000000047
 20
-5.143928459844682
 30
0.0
 11
-1.475000000000001
 21
-0.0000000000000305
 31
0.0
210
0.0
220
0.0
230
1.0
 40
0.5773502691896259
 41
0.0
 42
3.141592653589579
  0
ELLIPSE
  5
16766
330
166EB
100
AcDbEntity
  8
0
100
AcDbEllipse
 10
0.0000000000000047
 20
-5.005124041086963
 30
0.0
 11
-1.306192008768394
 21
0.0
 31
0.0
210
0.0
220
0.0
230
1.0
 40
0.5773502691896261
 41
0.1906210079745019
 42
2.950971645615291
  0
ELLIPSE
  5
16767
330
166EB
100
AcDbEntity
  8
0
100
AcDbEllipse
 10
0.0000000000000046
 20
-4.490731195102499
 30
0.0
 11
-1.475000000000001
 21
-0.0000000000000305
 31
0.0
210
0.0
220
0.0
230
1.0
 40
0.5773502691896259
 41
0.0
 42
3.141592653589578
  0
ELLIPSE
  5
16768
330
166EB
100
AcDbEntity
  8
0
100
AcDbEllipse
 10
0.0000000000000045
 20
-4.351926776344785
 30
0.0
 11
-1.306192008768394
 21
0.0
 31
0.0
210
0.0
220
0.0
230
1.0
 40
0.5773502691896261
 41
0.1906210079745019
 42
2.950971645615291
  0
ELLIPSE
  5
16769
330
166EB
100
AcDbEntity
  8
0
100
AcDbEllipse
 10
0.0000000000000044
 20
-3.837533930360317
 30
0.0
 11
-1.475000000000001
 21
-0.0000000000000305
 31
0.0
210
0.0
220
0.0
230
1.0
 40
0.5773502691896259
 41
0.0
 42
3.141592653589578
  0
ELLIPSE
  5
1676A
330
166EB
100
AcDbEntity
  8
0
100
AcDbEllipse
 10
0.0000000000000044
 20
-3.698729511602603
 30
0.0
 11
-1.306192008768394
 21
0.0
 31
0.0
210
0.0
220
0.0
230
1.0
 40
0.5773502691896261
 41
0.1906210079745019
 42
2.950971645615291
  0
ELLIPSE
  5
1676B
330
166EB
100
AcDbEntity
  8
0
100
AcDbEllipse
 10
0.0000000000000043
 20
-3.184336665618139
 30
0.0
 11
-1.475000000000001
 21
-0.0000000000000305
 31
0.0
210
0.0
220
0.0
230
1.0
 40
0.5773502691896259
 41
0.0
 42
3.141592653589578
  0
ELLIPSE
  5
1676C
330
166EB
100
AcDbEntity
  8
0
100
AcDbEllipse
 10
0.0000000000000043
 20
-3.04553224686042
 30
0.0
 11
-1.306192008768394
 21
0.0
 31
0.0
210
0.0
220
0.0
230
1.0
 40
0.5773502691896261
 41
0.1906210079745019
 42
2.950971645615291
  0
ELLIPSE
  5
1676D
330
166EB
100
AcDbEntity
  8
0
100
AcDbEllipse
 10
0.0000000000000042
 20
-2.531139400875956
 30
0.0
 11
-1.475000000000001
 21
-0.0000000000000305
 31
0.0
210
0.0
220
0.0
230
1.0
 40
0.5773502691896259
 41
0.0
 42
3.141592653589578
  0
ELLIPSE
  5
1676E
330
166EB
100
AcDbEntity
  8
0
100
AcDbEllipse
 10
0.0000000000000041
 20
-2.392334982118238
 30
0.0
 11
-1.306192008768394
 21
0.0
 31
0.0
210
0.0
220
0.0
230
1.0
 40
0.5773502691896261
 41
0.1906210079745019
 42
2.950971645615291
  0
ELLIPSE
  5
1676F
330
166EB
100
AcDbEntity
  8
0
100
AcDbEllipse
 10
0.0000000000000041
 20
-1.877942136133774
 30
0.0
 11
-1.475000000000001
 21
-0.0000000000000165
 31
0.0
210
0.0
220
0.0
230
1.0
 40
0.577350269189626
 41
0.0
 42
3.141592653589675
  0
ELLIPSE
  5
16770
330
166EB
100
AcDbEntity
  8
0
100
AcDbEllipse
 10
0.000000000000004
 20
-1.73913771737606
 30
0.0
 11
-1.306192008768394
 21
0.0
 31
0.0
210
0.0
220
0.0
230
1.0
 40
0.5773502691896261
 41
0.1906210079745019
 42
2.950971645615291
  0
ELLIPSE
  5
16771
330
166EB
100
AcDbEntity
  8
0
100
AcDbEllipse
 10
0.0000000000000039
 20
-1.224744871391592
 30
0.0
 11
-1.475000000000001
 21
-0.0000000000000165
 31
0.0
210
0.0
220
0.0
230
1.0
 40
0.577350269189626
 41
0.0
 42
3.141592653589675
  0
ELLIPSE
  5
16772
330
166EB
100
AcDbEntity
  8
0
100
AcDbEllipse
 10
0.0000000000000039
 20
-1.085940452633882
 30
0.0
 11
-1.306192008768394
 21
0.0
 31
0.0
210
0.0
220
0.0
230
1.0
 40
0.5773502691896261
 41
0.1906210079745012
 42
2.95097164561529
  0
ELLIPSE
  5
16773
330
166EB
100
AcDbEntity
  8
0
100
AcDbEllipse
 10
0.0000000000000038
 20
-0.5715476066494163
 30
0.0
 11
-1.475000000000001
 21
-0.0000000000000305
 31
0.0
210
0.0
220
0.0
230
1.0
 40
0.5773502691896259
 41
0.0
 42
3.141592653589578
  0
ELLIPSE
  5
16774
330
166EB
100
AcDbEntity
  8
0
100
AcDbEllipse
 10
0.0000000000000038
 20
-0.4327431878916999
 30
0.0
 11
-1.306192008768394
 21
0.0
 31
0.0
210
0.0
220
0.0
230
1.0
 40
0.5773502691896261
 41
0.1906210079745012
 42
2.95097164561529
  0
ELLIPSE
  5
16775
330
166EB
100
AcDbEntity
  8
0
100
AcDbEllipse
 10
0.0000000000000037
 20
0.0816496580927639
 30
0.0
 11
-1.475000000000001
 21
-0.0000000000000305
 31
0.0
210
0.0
220
0.0
230
1.0
 40
0.5773502691896259
 41
0.0
 42
3.141592653589578
  0
ELLIPSE
  5
16776
330
166EB
100
AcDbEntity
  8
0
100
AcDbEllipse
 10
0.0000000000000036
 20
0.2204540768504803
 30
0.0
 11
-1.306192008768394
 21
0.0
 31
0.0
210
0.0
220
0.0
230
1.0
 40
0.5773502691896261
 41
0.1906210079745021
 42
2.95097164561529
  0
ELLIPSE
  5
16777
330
166EB
100
AcDbEntity
  8
0
100
AcDbEllipse
 10
0.0000000000000035
 20
0.7348469228349464
 30
0.0
 11
-1.475000000000001
 21
-0.0000000000000305
 31
0.0
210
0.0
220
0.0
230
1.0
 40
0.5773502691896259
 41
0.0
 42
3.141592653589578
  0
ELLIPSE
  5
16778
330
166EB
100
AcDbEntity
  8
0
100
AcDbEllipse
 10
0.0000000000000035
 20
0.8736513415926626
 30
0.0
 11
-1.306192008768394
 21
0.0
 31
0.0
210
0.0
220
0.0
230
1.0
 40
0.5773502691896261
 41
0.1906210079745012
 42
2.95097164561529
  0
ELLIPSE
  5
16779
330
166EB
100
AcDbEntity
  8
0
100
AcDbEllipse
 10
0.0000000000000034
 20
1.388044187577135
 30
0.0
 11
-1.475000000000001
 21
0.0000000000000001
 31
0.0
210
0.0
220
0.0
230
1.0
 40
0.577350269189626
 41
0.0000000000000007
 42
3.141592653589793
  0
LINE
  5
1677A
330
166EB
100
AcDbEntity
  8
0
100
AcDbLine
 10
-1.409474767676379
 20
-16.5257465357913
 30
0.0
 11
-1.448282975262106
 21
-16.40963191508
 31
0.0
  0
SPLINE
  5
1677B
330
166EB
100
AcDbEntity
  8
0
100
AcDbSpline
210
0.0
220
0.0
230
1.0
 70
     8
 71
     3
 72
    10
 73
     6
 74
     0
 42
0.000000001
 43
0.0000000001
 40
0.8250243725565562
 40
0.8250243725565562
 40
0.8250243725565562
 40
0.8250243725565562
 40
1.089137061210564
 40
1.089137061210564
 40
1.099198511696761
 40
1.099198511696761
 40
1.099198511696761
 40
1.099198511696761
 10
1.473576130445408
 20
-16.20678696099715
 30
0.0
 10
1.467254300426898
 20
-16.11472668743141
 30
0.0
 10
1.439519564628561
 20
-16.02444387349654
 30
0.0
 10
1.392957493342055
 20
-15.93867682632552
 30
0.0
 10
1.391224286771684
 20
-15.93553975068086
 30
0.0
 10
1.389466862346059
 20
-15.93241316281808
 30
0.0
  0
SPLINE
  5
1677C
330
166EB
100
AcDbEntity
  8
0
100
AcDbSpline
210
0.0
220
0.0
230
1.0
 70
     8
 71
     3
 72
    10
 73
     6
 74
     0
 42
0.000000001
 43
0.0000000001
 40
3.613190468687927
 40
3.613190468687927
 40
3.613190468687927
 40
3.613190468687927
 40
3.72902662356919
 40
3.72902662356919
 40
3.887364607828131
 40
3.887364607828131
 40
3.887364607828131
 40
3.887364607828131
 10
-1.389466862346045
 20
-15.93241316281807
 30
0.0
 10
-1.409699858397462
 20
-15.96840915727437
 30
0.0
 10
-1.426722297081371
 20
-16.00581411733918
 30
0.0
 10
-1.458376328716854
 20
-16.09692200866976
 30
0.0
 10
-1.469786135246527
 20
-16.15159598088555
 30
0.0
 10
-1.473576130445394
 20
-16.20678696099715
 30
0.0
  0
LINE
  5
1677D
330
166EB
100
AcDbEntity
  8
0
100
AcDbLine
 10
1.409474767676385
 20
-16.52574653579132
 30
0.0
 11
1.448282975262119
 21
-16.40963191508
 31
0.0
  0
LINE
  5
1677E
330
166EB
100
AcDbEntity
  8
0
100
AcDbLine
 10
-1.282532643201815
 20
-16.25236162396674
 30
0.0
 11
-1.448282975262106
 21
-15.75643465033782
 31
0.0
  0
LINE
  5
1677F
330
166EB
100
AcDbEntity
  8
0
100
AcDbLine
 10
1.282532643201829
 20
-16.25236162396674
 30
0.0
 11
1.448282975262119
 21
-15.75643465033782
 31
0.0
  0
SPLINE
  5
16780
330
166EB
100
AcDbEntity
  8
0
100
AcDbSpline
210
0.0
220
0.0
230
1.0
 70
     8
 71
     3
 72
    10
 73
     6
 74
     0
 42
0.000000001
 43
0.0000000001
 40
0.785398163397376
 40
0.785398163397376
 40
0.785398163397376
 40
0.785398163397376
 40
1.048884014900051
 40
1.048884014900051
 40
1.09919851169676
 40
1.09919851169676
 40
1.09919851169676
 40
1.09919851169676
 10
1.475000000000008
 20
-15.59508469571964
 30
0.0
 10
1.475000000000019
 20
-15.50304947439093
 30
0.0
 10
1.453470307232486
 20
-15.41141016760007
 30
0.0
 10
1.406438076694731
 20
-15.31074914740111
 30
0.0
 10
1.398255249840969
 20
-15.2948510885708
 30
0.0
 10
1.38946686234606
 20
-15.27921589807589
 30
0.0
  0
SPLINE
  5
16781
330
166EB
100
AcDbEntity
  8
0
100
AcDbSpline
210
0.0
220
0.0
230
1.0
 70
     8
 71
     3
 72
    10
 73
     6
 74
     0
 42
0.000000001
 43
0.0000000001
 40
3.613190468687929
 40
3.613190468687929
 40
3.613190468687929
 40
3.613190468687929
 40
3.683278596283622
 40
3.683278596283622
 40
3.926990816987313
 40
3.926990816987313
 40
3.926990816987313
 40
3.926990816987313
 10
-1.389466862346047
 20
-15.27921589807589
 30
0.0
 10
-1.401709091987979
 20
-15.30099572886338
 30
0.0
 10
-1.412776291000563
 20
-15.32328684466812
 30
0.0
 10
-1.456627694154719
 20
-15.42510517413751
 30
0.0
 10
-1.475000000000005
 20
-15.50995637461604
 30
0.0
 10
-1.474999999999994
 20
-15.59508469571964
 30
0.0
  0
LINE
  5
16782
330
166EB
100
AcDbEntity
  8
0
100
AcDbLine
 10
-1.282532643201815
 20
-15.59916435922456
 30
0.0
 11
-1.448282975262106
 21
-15.10323738559564
 31
0.0
  0
LINE
  5
16783
330
166EB
100
AcDbEntity
  8
0
100
AcDbLine
 10
1.282532643201829
 20
-15.59916435922456
 30
0.0
 11
1.448282975262119
 21
-15.10323738559564
 31
0.0
  0
SPLINE
  5
16784
330
166EB
100
AcDbEntity
  8
0
100
AcDbSpline
210
0.0
220
0.0
230
1.0
 70
     8
 71
     3
 72
    10
 73
     6
 74
     0
 42
0.000000001
 43
0.0000000001
 40
0.785398163397376
 40
0.785398163397376
 40
0.785398163397376
 40
0.785398163397376
 40
1.048884014900051
 40
1.048884014900051
 40
1.09919851169676
 40
1.09919851169676
 40
1.09919851169676
 40
1.09919851169676
 10
1.475000000000008
 20
-14.94188743097746
 30
0.0
 10
1.475000000000019
 20
-14.84985220964875
 30
0.0
 10
1.453470307232486
 20
-14.75821290285789
 30
0.0
 10
1.406438076694731
 20
-14.65755188265893
 30
0.0
 10
1.398255249840969
 20
-14.64165382382861
 30
0.0
 10
1.38946686234606
 20
-14.62601863333371
 30
0.0
  0
SPLINE
  5
16785
330
166EB
100
AcDbEntity
  8
0
100
AcDbSpline
210
0.0
220
0.0
230
1.0
 70
     8
 71
     3
 72
    10
 73
     6
 74
     0
 42
0.000000001
 43
0.0000000001
 40
3.613190468687929
 40
3.613190468687929
 40
3.613190468687929
 40
3.613190468687929
 40
3.683278596283622
 40
3.683278596283622
 40
3.926990816987313
 40
3.926990816987313
 40
3.926990816987313
 40
3.926990816987313
 10
-1.389466862346047
 20
-14.62601863333371
 30
0.0
 10
-1.401709091987979
 20
-14.6477984641212
 30
0.0
 10
-1.412776291000563
 20
-14.67008957992594
 30
0.0
 10
-1.456627694154719
 20
-14.77190790939532
 30
0.0
 10
-1.475000000000005
 20
-14.85675910987386
 30
0.0
 10
-1.474999999999994
 20
-14.94188743097746
 30
0.0
  0
LINE
  5
16786
330
166EB
100
AcDbEntity
  8
0
100
AcDbLine
 10
-1.282532643201815
 20
-14.94596709448238
 30
0.0
 11
-1.448282975262106
 21
-14.45004012085345
 31
0.0
  0
LINE
  5
16787
330
166EB
100
AcDbEntity
  8
0
100
AcDbLine
 10
1.282532643201829
 20
-14.94596709448238
 30
0.0
 11
1.448282975262119
 21
-14.45004012085345
 31
0.0
  0
SPLINE
  5
16788
330
166EB
100
AcDbEntity
  8
0
100
AcDbSpline
210
0.0
220
0.0
230
1.0
 70
     8
 71
     3
 72
    10
 73
     6
 74
     0
 42
0.000000001
 43
0.0000000001
 40
0.785398163397376
 40
0.785398163397376
 40
0.785398163397376
 40
0.785398163397376
 40
1.048884014900051
 40
1.048884014900051
 40
1.09919851169676
 40
1.09919851169676
 40
1.09919851169676
 40
1.09919851169676
 10
1.475000000000008
 20
-14.28869016623528
 30
0.0
 10
1.475000000000019
 20
-14.19665494490656
 30
0.0
 10
1.453470307232486
 20
-14.1050156381157
 30
0.0
 10
1.406438076694731
 20
-14.00435461791674
 30
0.0
 10
1.398255249840969
 20
-13.98845655908643
 30
0.0
 10
1.38946686234606
 20
-13.97282136859153
 30
0.0
  0
SPLINE
  5
16789
330
166EB
100
AcDbEntity
  8
0
100
AcDbSpline
210
0.0
220
0.0
230
1.0
 70
     8
 71
     3
 72
    10
 73
     6
 74
     0
 42
0.000000001
 43
0.0000000001
 40
3.613190468687929
 40
3.613190468687929
 40
3.613190468687929
 40
3.613190468687929
 40
3.683278596283622
 40
3.683278596283622
 40
3.926990816987313
 40
3.926990816987313
 40
3.926990816987313
 40
3.926990816987313
 10
-1.389466862346047
 20
-13.97282136859153
 30
0.0
 10
-1.401709091987979
 20
-13.99460119937901
 30
0.0
 10
-1.412776291000563
 20
-14.01689231518377
 30
0.0
 10
-1.45662769415472
 20
-14.11871064465314
 30
0.0
 10
-1.475000000000005
 20
-14.20356184513168
 30
0.0
 10
-1.474999999999995
 20
-14.28869016623528
 30
0.0
  0
LINE
  5
1678A
330
166EB
100
AcDbEntity
  8
0
100
AcDbLine
 10
-1.282532643201816
 20
-14.2927698297402
 30
0.0
 11
-1.448282975262106
 21
-13.79684285611127
 31
0.0
  0
LINE
  5
1678B
330
166EB
100
AcDbEntity
  8
0
100
AcDbLine
 10
1.282532643201828
 20
-14.2927698297402
 30
0.0
 11
1.448282975262118
 21
-13.79684285611127
 31
0.0
  0
SPLINE
  5
1678C
330
166EB
100
AcDbEntity
  8
0
100
AcDbSpline
210
0.0
220
0.0
230
1.0
 70
     8
 71
     3
 72
    10
 73
     6
 74
     0
 42
0.000000001
 43
0.0000000001
 40
0.785398163397376
 40
0.785398163397376
 40
0.785398163397376
 40
0.785398163397376
 40
1.048884014900051
 40
1.048884014900051
 40
1.09919851169676
 40
1.09919851169676
 40
1.09919851169676
 40
1.09919851169676
 10
1.475000000000007
 20
-13.6354929014931
 30
0.0
 10
1.475000000000019
 20
-13.54345768016439
 30
0.0
 10
1.453470307232486
 20
-13.45181837337353
 30
0.0
 10
1.406438076694731
 20
-13.35115735317456
 30
0.0
 10
1.398255249840969
 20
-13.33525929434425
 30
0.0
 10
1.389466862346059
 20
-13.31962410384935
 30
0.0
  0
SPLINE
  5
1678D
330
166EB
100
AcDbEntity
  8
0
100
AcDbSpline
210
0.0
220
0.0
230
1.0
 70
     8
 71
     3
 72
    10
 73
     6
 74
     0
 42
0.000000001
 43
0.0000000001
 40
3.613190468687929
 40
3.613190468687929
 40
3.613190468687929
 40
3.613190468687929
 40
3.683278596283622
 40
3.683278596283622
 40
3.926990816987313
 40
3.926990816987313
 40
3.926990816987313
 40
3.926990816987313
 10
-1.389466862346047
 20
-13.31962410384935
 30
0.0
 10
-1.401709091987979
 20
-13.34140393463683
 30
0.0
 10
-1.412776291000564
 20
-13.36369505044158
 30
0.0
 10
-1.45662769415472
 20
-13.46551337991096
 30
0.0
 10
-1.475000000000005
 20
-13.55036458038949
 30
0.0
 10
-1.474999999999995
 20
-13.6354929014931
 30
0.0
  0
LINE
  5
1678E
330
166EB
100
AcDbEntity
  8
0
100
AcDbLine
 10
-1.282532643201816
 20
-13.63957256499801
 30
0.0
 11
-1.448282975262106
 21
-13.14364559136909
 31
0.0
  0
LINE
  5
1678F
330
166EB
100
AcDbEntity
  8
0
100
AcDbLine
 10
1.282532643201828
 20
-13.63957256499801
 30
0.0
 11
1.448282975262118
 21
-13.14364559136909
 31
0.0
  0
SPLINE
  5
16790
330
166EB
100
AcDbEntity
  8
0
100
AcDbSpline
210
0.0
220
0.0
230
1.0
 70
     8
 71
     3
 72
    10
 73
     6
 74
     0
 42
0.000000001
 43
0.0000000001
 40
0.7853981633974123
 40
0.7853981633974123
 40
0.7853981633974123
 40
0.7853981633974123
 40
1.048884014900087
 40
1.048884014900087
 40
1.099198511696761
 40
1.099198511696761
 40
1.099198511696761
 40
1.099198511696761
 10
1.475000000000007
 20
-12.98229563675088
 30
0.0
 10
1.475000000000013
 20
-12.89026041542216
 30
0.0
 10
1.453470307232474
 20
-12.79862110863131
 30
0.0
 10
1.406438076694719
 20
-12.69796008843236
 30
0.0
 10
1.398255249840961
 20
-12.68206202960206
 30
0.0
 10
1.389466862346058
 20
-12.66642683910717
 30
0.0
  0
SPLINE
  5
16791
330
166EB
100
AcDbEntity
  8
0
100
AcDbSpline
210
0.0
220
0.0
230
1.0
 70
     8
 71
     3
 72
    10
 73
     6
 74
     0
 42
0.000000001
 43
0.0000000001
 40
3.613190468687928
 40
3.613190468687928
 40
3.613190468687928
 40
3.613190468687928
 40
3.683278596283665
 40
3.683278596283665
 40
3.926990816987277
 40
3.926990816987277
 40
3.926990816987277
 40
3.926990816987277
 10
-1.389466862346046
 20
-12.66642683910717
 30
0.0
 10
-1.401709091987986
 20
-12.68820666989467
 30
0.0
 10
-1.412776291000577
 20
-12.71049778569943
 30
0.0
 10
-1.456627694154721
 20
-12.81231611516879
 30
0.0
 10
-1.475
 20
-12.89716731564731
 30
0.0
 10
-1.474999999999995
 20
-12.98229563675088
 30
0.0
  0
LINE
  5
16792
330
166EB
100
AcDbEntity
  8
0
100
AcDbLine
 10
-1.282532643201815
 20
-12.98637530025583
 30
0.0
 11
-1.448282975262106
 21
-12.49044832662691
 31
0.0
  0
LINE
  5
16793
330
166EB
100
AcDbEntity
  8
0
100
AcDbLine
 10
1.282532643201827
 20
-12.98637530025583
 30
0.0
 11
1.448282975262118
 21
-12.49044832662691
 31
0.0
  0
SPLINE
  5
16794
330
166EB
100
AcDbEntity
  8
0
100
AcDbSpline
210
0.0
220
0.0
230
1.0
 70
     8
 71
     3
 72
    10
 73
     6
 74
     0
 42
0.000000001
 43
0.0000000001
 40
0.7853981633974292
 40
0.7853981633974292
 40
0.7853981633974292
 40
0.7853981633974292
 40
1.048884014900104
 40
1.048884014900104
 40
1.099198511696763
 40
1.099198511696763
 40
1.099198511696763
 40
1.099198511696763
 10
1.475000000000007
 20
-12.32909837200869
 30
0.0
 10
1.47500000000001
 20
-12.23706315067997
 30
0.0
 10
1.453470307232469
 20
-12.14542384388911
 30
0.0
 10
1.406438076694713
 20
-12.04476282369017
 30
0.0
 10
1.398255249840958
 20
-12.02886476485988
 30
0.0
 10
1.389466862346057
 20
-12.01322957436499
 30
0.0
  0
SPLINE
  5
16795
330
166EB
100
AcDbEntity
  8
0
100
AcDbSpline
210
0.0
220
0.0
230
1.0
 70
     8
 71
     3
 72
    10
 73
     6
 74
     0
 42
0.000000001
 43
0.0000000001
 40
3.613190468687926
 40
3.613190468687926
 40
3.613190468687926
 40
3.613190468687926
 40
3.683278596283684
 40
3.683278596283684
 40
3.92699081698726
 40
3.92699081698726
 40
3.92699081698726
 40
3.92699081698726
 10
-1.389466862346045
 20
-12.01322957436499
 30
0.0
 10
-1.401709091987989
 20
-12.03500940515249
 30
0.0
 10
-1.412776291000583
 20
-12.05730052095726
 30
0.0
 10
-1.456627694154722
 20
-12.15911885042662
 30
0.0
 10
-1.474999999999997
 20
-12.24397005090512
 30
0.0
 10
-1.474999999999995
 20
-12.32909837200869
 30
0.0
  0
LINE
  5
16796
330
166EB
100
AcDbEntity
  8
0
100
AcDbLine
 10
-1.282532643201814
 20
-12.33317803551366
 30
0.0
 11
-1.448282975262106
 21
-11.83725106188473
 31
0.0
  0
LINE
  5
16797
330
166EB
100
AcDbEntity
  8
0
100
AcDbLine
 10
1.282532643201826
 20
-12.33317803551366
 30
0.0
 11
1.448282975262118
 21
-11.83725106188473
 31
0.0
  0
SPLINE
  5
16798
330
166EB
100
AcDbEntity
  8
0
100
AcDbSpline
210
0.0
220
0.0
230
1.0
 70
     8
 71
     3
 72
    10
 73
     6
 74
     0
 42
0.000000001
 43
0.0000000001
 40
0.7853981633974292
 40
0.7853981633974292
 40
0.7853981633974292
 40
0.7853981633974292
 40
1.048884014900104
 40
1.048884014900104
 40
1.099198511696763
 40
1.099198511696763
 40
1.099198511696763
 40
1.099198511696763
 10
1.475000000000007
 20
-11.6759011072665
 30
0.0
 10
1.47500000000001
 20
-11.58386588593779
 30
0.0
 10
1.453470307232469
 20
-11.49222657914693
 30
0.0
 10
1.406438076694713
 20
-11.39156555894799
 30
0.0
 10
1.398255249840958
 20
-11.3756675001177
 30
0.0
 10
1.389466862346057
 20
-11.36003230962281
 30
0.0
  0
SPLINE
  5
16799
330
166EB
100
AcDbEntity
  8
0
100
AcDbSpline
210
0.0
220
0.0
230
1.0
 70
     8
 71
     3
 72
    10
 73
     6
 74
     0
 42
0.000000001
 43
0.0000000001
 40
3.613190468687926
 40
3.613190468687926
 40
3.613190468687926
 40
3.613190468687926
 40
3.683278596283684
 40
3.683278596283684
 40
3.92699081698726
 40
3.92699081698726
 40
3.92699081698726
 40
3.92699081698726
 10
-1.389466862346045
 20
-11.36003230962281
 30
0.0
 10
-1.401709091987989
 20
-11.38181214041032
 30
0.0
 10
-1.412776291000583
 20
-11.40410325621508
 30
0.0
 10
-1.456627694154722
 20
-11.50592158568444
 30
0.0
 10
-1.474999999999998
 20
-11.59077278616294
 30
0.0
 10
-1.474999999999995
 20
-11.6759011072665
 30
0.0
  0
LINE
  5
1679A
330
166EB
100
AcDbEntity
  8
0
100
AcDbLine
 10
-1.282532643201814
 20
-11.67998077077148
 30
0.0
 11
-1.448282975262107
 21
-11.18405379714255
 31
0.0
  0
LINE
  5
1679B
330
166EB
100
AcDbEntity
  8
0
100
AcDbLine
 10
1.282532643201826
 20
-11.67998077077148
 30
0.0
 11
1.448282975262118
 21
-11.18405379714255
 31
0.0
  0
SPLINE
  5
1679C
330
166EB
100
AcDbEntity
  8
0
100
AcDbSpline
210
0.0
220
0.0
230
1.0
 70
     8
 71
     3
 72
    10
 73
     6
 74
     0
 42
0.000000001
 43
0.0000000001
 40
0.7853981633974292
 40
0.7853981633974292
 40
0.7853981633974292
 40
0.7853981633974292
 40
1.048884014900104
 40
1.048884014900104
 40
1.099198511696763
 40
1.099198511696763
 40
1.099198511696763
 40
1.099198511696763
 10
1.475000000000007
 20
-11.02270384252432
 30
0.0
 10
1.47500000000001
 20
-10.93066862119561
 30
0.0
 10
1.453470307232469
 20
-10.83902931440475
 30
0.0
 10
1.406438076694713
 20
-10.7383682942058
 30
0.0
 10
1.398255249840958
 20
-10.72247023537552
 30
0.0
 10
1.389466862346057
 20
-10.70683504488063
 30
0.0
  0
SPLINE
  5
1679D
330
166EB
100
AcDbEntity
  8
0
100
AcDbSpline
210
0.0
220
0.0
230
1.0
 70
     8
 71
     3
 72
    10
 73
     6
 74
     0
 42
0.000000001
 43
0.0000000001
 40
3.613190468687926
 40
3.613190468687926
 40
3.613190468687926
 40
3.613190468687926
 40
3.683278596283684
 40
3.683278596283684
 40
3.92699081698726
 40
3.92699081698726
 40
3.92699081698726
 40
3.92699081698726
 10
-1.389466862346046
 20
-10.70683504488062
 30
0.0
 10
-1.401709091987989
 20
-10.72861487566813
 30
0.0
 10
-1.412776291000583
 20
-10.7509059914729
 30
0.0
 10
-1.456627694154722
 20
-10.85272432094226
 30
0.0
 10
-1.474999999999998
 20
-10.93757552142076
 30
0.0
 10
-1.474999999999995
 20
-11.02270384252432
 30
0.0
  0
LINE
  5
1679E
330
166EB
100
AcDbEntity
  8
0
100
AcDbLine
 10
-1.282532643201814
 20
-11.0267835060293
 30
0.0
 11
-1.448282975262107
 21
-10.53085653240036
 31
0.0
  0
LINE
  5
1679F
330
166EB
100
AcDbEntity
  8
0
100
AcDbLine
 10
1.282532643201826
 20
-11.0267835060293
 30
0.0
 11
1.448282975262118
 21
-10.53085653240036
 31
0.0
  0
SPLINE
  5
167A0
330
166EB
100
AcDbEntity
  8
0
100
AcDbSpline
210
0.0
220
0.0
230
1.0
 70
     8
 71
     3
 72
    10
 73
     6
 74
     0
 42
0.000000001
 43
0.0000000001
 40
0.7853981633974292
 40
0.7853981633974292
 40
0.7853981633974292
 40
0.7853981633974292
 40
1.048884014900104
 40
1.048884014900104
 40
1.099198511696761
 40
1.099198511696761
 40
1.099198511696761
 40
1.099198511696761
 10
1.475000000000007
 20
-10.36950657778215
 30
0.0
 10
1.47500000000001
 20
-10.27747135645342
 30
0.0
 10
1.453470307232468
 20
-10.18583204966257
 30
0.0
 10
1.406438076694713
 20
-10.08517102946362
 30
0.0
 10
1.398255249840958
 20
-10.06927297063334
 30
0.0
 10
1.389466862346058
 20
-10.05363778013845
 30
0.0
  0
SPLINE
  5
167A1
330
166EB
100
AcDbEntity
  8
0
100
AcDbSpline
210
0.0
220
0.0
230
1.0
 70
     8
 71
     3
 72
    10
 73
     6
 74
     0
 42
0.000000001
 43
0.0000000001
 40
3.613190468687928
 40
3.613190468687928
 40
3.613190468687928
 40
3.613190468687928
 40
3.683278596283684
 40
3.683278596283684
 40
3.92699081698726
 40
3.92699081698726
 40
3.92699081698726
 40
3.92699081698726
 10
-1.389466862346047
 20
-10.05363778013845
 30
0.0
 10
-1.40170909198799
 20
-10.07541761092595
 30
0.0
 10
-1.412776291000583
 20
-10.09770872673071
 30
0.0
 10
-1.456627694154722
 20
-10.19952705620007
 30
0.0
 10
-1.474999999999998
 20
-10.28437825667858
 30
0.0
 10
-1.474999999999995
 20
-10.36950657778215
 30
0.0
  0
LINE
  5
167A2
330
166EB
100
AcDbEntity
  8
0
100
AcDbLine
 10
-1.282532643201814
 20
-10.37358624128712
 30
0.0
 11
-1.448282975262108
 21
-9.877659267658192
 31
0.0
  0
LINE
  5
167A3
330
166EB
100
AcDbEntity
  8
0
100
AcDbLine
 10
1.282532643201826
 20
-10.37358624128712
 30
0.0
 11
1.448282975262119
 21
-9.877659267658192
 31
0.0
  0
SPLINE
  5
167A4
330
166EB
100
AcDbEntity
  8
0
100
AcDbSpline
210
0.0
220
0.0
230
1.0
 70
     8
 71
     3
 72
    10
 73
     6
 74
     0
 42
0.000000001
 43
0.0000000001
 40
0.7853981633974123
 40
0.7853981633974123
 40
0.7853981633974123
 40
0.7853981633974123
 40
1.048884014900087
 40
1.048884014900087
 40
1.099198511696761
 40
1.099198511696761
 40
1.099198511696761
 40
1.099198511696761
 10
1.475000000000006
 20
-9.716309313039982
 30
0.0
 10
1.475000000000012
 20
-9.624274091711267
 30
0.0
 10
1.453470307232473
 20
-9.532634784920407
 30
0.0
 10
1.406438076694719
 20
-9.431973764721455
 30
0.0
 10
1.398255249840961
 20
-9.416075705891163
 30
0.0
 10
1.389466862346058
 20
-9.400440515396271
 30
0.0
  0
SPLINE
  5
167A5
330
166EB
100
AcDbEntity
  8
0
100
AcDbSpline
210
0.0
220
0.0
230
1.0
 70
     8
 71
     3
 72
    10
 73
     6
 74
     0
 42
0.000000001
 43
0.0000000001
 40
3.613190468687928
 40
3.613190468687928
 40
3.613190468687928
 40
3.613190468687928
 40
3.683278596283665
 40
3.683278596283665
 40
3.926990816987277
 40
3.926990816987277
 40
3.926990816987277
 40
3.926990816987277
 10
-1.389466862346047
 20
-9.400440515396271
 30
0.0
 10
-1.401709091987987
 20
-9.422220346183767
 30
0.0
 10
-1.412776291000577
 20
-9.444511461988525
 30
0.0
 10
-1.456627694154722
 20
-9.546329791457889
 30
0.0
 10
-1.475000000000001
 20
-9.631180991936405
 30
0.0
 10
-1.474999999999995
 20
-9.716309313039982
 30
0.0
  0
LINE
  5
167A6
330
166EB
100
AcDbEntity
  8
0
100
AcDbLine
 10
-1.282532643201814
 20
-9.720388976544938
 30
0.0
 11
-1.448282975262108
 21
-9.224462002916009
 31
0.0
  0
LINE
  5
167A7
330
166EB
100
AcDbEntity
  8
0
100
AcDbLine
 10
1.282532643201825
 20
-9.720388976544938
 30
0.0
 11
1.448282975262119
 21
-9.224462002916009
 31
0.0
  0
SPLINE
  5
167A8
330
166EB
100
AcDbEntity
  8
0
100
AcDbSpline
210
0.0
220
0.0
230
1.0
 70
     8
 71
     3
 72
    10
 73
     6
 74
     0
 42
0.000000001
 43
0.0000000001
 40
0.7853981633974123
 40
0.7853981633974123
 40
0.7853981633974123
 40
0.7853981633974123
 40
1.048884014900087
 40
1.048884014900087
 40
1.099198511696761
 40
1.099198511696761
 40
1.099198511696761
 40
1.099198511696761
 10
1.475000000000006
 20
-9.063112048297799
 30
0.0
 10
1.475000000000012
 20
-8.971076826969085
 30
0.0
 10
1.453470307232473
 20
-8.879437520178225
 30
0.0
 10
1.406438076694719
 20
-8.778776499979272
 30
0.0
 10
1.39825524984096
 20
-8.762878441148981
 30
0.0
 10
1.389466862346058
 20
-8.747243250654088
 30
0.0
  0
SPLINE
  5
167A9
330
166EB
100
AcDbEntity
  8
0
100
AcDbSpline
210
0.0
220
0.0
230
1.0
 70
     8
 71
     3
 72
    10
 73
     6
 74
     0
 42
0.000000001
 43
0.0000000001
 40
3.613190468687928
 40
3.613190468687928
 40
3.613190468687928
 40
3.613190468687928
 40
3.683278596283665
 40
3.683278596283665
 40
3.926990816987277
 40
3.926990816987277
 40
3.926990816987277
 40
3.926990816987277
 10
-1.389466862346047
 20
-8.747243250654083
 30
0.0
 10
-1.401709091987987
 20
-8.769023081441584
 30
0.0
 10
-1.412776291000578
 20
-8.791314197246347
 30
0.0
 10
-1.456627694154722
 20
-8.893132526715707
 30
0.0
 10
-1.475000000000001
 20
-8.977983727194223
 30
0.0
 10
-1.474999999999996
 20
-9.063112048297799
 30
0.0
  0
LINE
  5
167AA
330
166EB
100
AcDbEntity
  8
0
100
AcDbLine
 10
-1.282532643201814
 20
-9.067191711802756
 30
0.0
 11
-1.448282975262108
 21
-8.571264738173827
 31
0.0
  0
LINE
  5
167AB
330
166EB
100
AcDbEntity
  8
0
100
AcDbLine
 10
1.282532643201825
 20
-9.067191711802756
 30
0.0
 11
1.448282975262119
 21
-8.571264738173827
 31
0.0
  0
SPLINE
  5
167AC
330
166EB
100
AcDbEntity
  8
0
100
AcDbSpline
210
0.0
220
0.0
230
1.0
 70
     8
 71
     3
 72
    10
 73
     6
 74
     0
 42
0.000000001
 43
0.0000000001
 40
0.7853981633974123
 40
0.7853981633974123
 40
0.7853981633974123
 40
0.7853981633974123
 40
1.048884014900087
 40
1.048884014900087
 40
1.099198511696761
 40
1.099198511696761
 40
1.099198511696761
 40
1.099198511696761
 10
1.475000000000006
 20
-8.409914783555617
 30
0.0
 10
1.475000000000012
 20
-8.317879562226906
 30
0.0
 10
1.453470307232473
 20
-8.226240255436042
 30
0.0
 10
1.406438076694718
 20
-8.125579235237093
 30
0.0
 10
1.398255249840961
 20
-8.109681176406802
 30
0.0
 10
1.389466862346058
 20
-8.094045985911906
 30
0.0
  0
SPLINE
  5
167AD
330
166EB
100
AcDbEntity
  8
0
100
AcDbSpline
210
0.0
220
0.0
230
1.0
 70
     8
 71
     3
 72
    10
 73
     6
 74
     0
 42
0.000000001
 43
0.0000000001
 40
3.613190468687928
 40
3.613190468687928
 40
3.613190468687928
 40
3.613190468687928
 40
3.683278596283665
 40
3.683278596283665
 40
3.926990816987277
 40
3.926990816987277
 40
3.926990816987277
 40
3.926990816987277
 10
-1.389466862346047
 20
-8.094045985911906
 30
0.0
 10
-1.401709091987987
 20
-8.115825816699405
 30
0.0
 10
-1.412776291000578
 20
-8.138116932504164
 30
0.0
 10
-1.456627694154722
 20
-8.239935261973524
 30
0.0
 10
-1.475000000000001
 20
-8.32478646245204
 30
0.0
 10
-1.474999999999996
 20
-8.409914783555617
 30
0.0
  0
LINE
  5
167AE
330
166EB
100
AcDbEntity
  8
0
100
AcDbLine
 10
-1.282532643201814
 20
-8.413994447060574
 30
0.0
 11
-1.448282975262108
 21
-7.918067473431644
 31
0.0
  0
LINE
  5
167AF
330
166EB
100
AcDbEntity
  8
0
100
AcDbLine
 10
1.282532643201825
 20
-8.413994447060574
 30
0.0
 11
1.448282975262119
 21
-7.918067473431644
 31
0.0
  0
SPLINE
  5
167B0
330
166EB
100
AcDbEntity
  8
0
100
AcDbSpline
210
0.0
220
0.0
230
1.0
 70
     8
 71
     3
 72
    10
 73
     6
 74
     0
 42
0.000000001
 43
0.0000000001
 40
0.7853981633974123
 40
0.7853981633974123
 40
0.7853981633974123
 40
0.7853981633974123
 40
1.048884014900087
 40
1.048884014900087
 40
1.099198511696761
 40
1.099198511696761
 40
1.099198511696761
 40
1.099198511696761
 10
1.475000000000006
 20
-7.756717518813434
 30
0.0
 10
1.475000000000012
 20
-7.664682297484723
 30
0.0
 10
1.453470307232473
 20
-7.573042990693861
 30
0.0
 10
1.406438076694718
 20
-7.472381970494912
 30
0.0
 10
1.39825524984096
 20
-7.456483911664619
 30
0.0
 10
1.389466862346057
 20
-7.440848721169728
 30
0.0
  0
SPLINE
  5
167B1
330
166EB
100
AcDbEntity
  8
0
100
AcDbSpline
210
0.0
220
0.0
230
1.0
 70
     8
 71
     3
 72
    10
 73
     6
 74
     0
 42
0.000000001
 43
0.0000000001
 40
3.613190468687928
 40
3.613190468687928
 40
3.613190468687928
 40
3.613190468687928
 40
3.683278596283665
 40
3.683278596283665
 40
3.926990816987277
 40
3.926990816987277
 40
3.926990816987277
 40
3.926990816987277
 10
-1.389466862346047
 20
-7.440848721169723
 30
0.0
 10
-1.401709091987987
 20
-7.462628551957224
 30
0.0
 10
-1.412776291000578
 20
-7.484919667761982
 30
0.0
 10
-1.456627694154722
 20
-7.586737997231343
 30
0.0
 10
-1.475000000000001
 20
-7.671589197709858
 30
0.0
 10
-1.474999999999996
 20
-7.756717518813434
 30
0.0
  0
LINE
  5
167B2
330
166EB
100
AcDbEntity
  8
0
100
AcDbLine
 10
-1.282532643201815
 20
-7.760797182318395
 30
0.0
 11
-1.448282975262109
 21
-7.264870208689462
 31
0.0
  0
LINE
  5
167B3
330
166EB
100
AcDbEntity
  8
0
100
AcDbLine
 10
1.282532643201825
 20
-7.760797182318395
 30
0.0
 11
1.448282975262118
 21
-7.264870208689462
 31
0.0
  0
SPLINE
  5
167B4
330
166EB
100
AcDbEntity
  8
0
100
AcDbSpline
210
0.0
220
0.0
230
1.0
 70
     8
 71
     3
 72
    10
 73
     6
 74
     0
 42
0.000000001
 43
0.0000000001
 40
0.7853981633974123
 40
0.7853981633974123
 40
0.7853981633974123
 40
0.7853981633974123
 40
1.048884014900087
 40
1.048884014900087
 40
1.099198511696759
 40
1.099198511696759
 40
1.099198511696759
 40
1.099198511696759
 10
1.475000000000006
 20
-7.103520254071251
 30
0.0
 10
1.475000000000012
 20
-7.011485032742541
 30
0.0
 10
1.453470307232473
 20
-6.919845725951683
 30
0.0
 10
1.406438076694719
 20
-6.819184705752729
 30
0.0
 10
1.398255249840961
 20
-6.803286646922437
 30
0.0
 10
1.389466862346058
 20
-6.787651456427541
 30
0.0
  0
SPLINE
  5
167B5
330
166EB
100
AcDbEntity
  8
0
100
AcDbSpline
210
0.0
220
0.0
230
1.0
 70
     8
 71
     3
 72
    10
 73
     6
 74
     0
 42
0.000000001
 43
0.0000000001
 40
3.613190468687929
 40
3.613190468687929
 40
3.613190468687929
 40
3.613190468687929
 40
3.683278596283665
 40
3.683278596283665
 40
3.926990816987277
 40
3.926990816987277
 40
3.926990816987277
 40
3.926990816987277
 10
-1.389466862346048
 20
-6.787651456427545
 30
0.0
 10
-1.401709091987988
 20
-6.809431287215041
 30
0.0
 10
-1.412776291000578
 20
-6.831722403019799
 30
0.0
 10
-1.456627694154722
 20
-6.933540732489165
 30
0.0
 10
-1.475000000000001
 20
-7.018391932967675
 30
0.0
 10
-1.474999999999996
 20
-7.103520254071251
 30
0.0
  0
LINE
  5
167B6
330
166EB
100
AcDbEntity
  8
0
100
AcDbLine
 10
-1.282532643201817
 20
-7.107599917576208
 30
0.0
 11
-1.448282975262107
 21
-6.611672943947288
 31
0.0
  0
LINE
  5
167B7
330
166EB
100
AcDbEntity
  8
0
100
AcDbLine
 10
1.282532643201827
 20
-7.107599917576208
 30
0.0
 11
1.448282975262118
 21
-6.611672943947288
 31
0.0
  0
SPLINE
  5
167B8
330
166EB
100
AcDbEntity
  8
0
100
AcDbSpline
210
0.0
220
0.0
230
1.0
 70
     8
 71
     3
 72
    10
 73
     6
 74
     0
 42
0.000000001
 43
0.0000000001
 40
0.7853981633973931
 40
0.7853981633973931
 40
0.7853981633973931
 40
0.7853981633973931
 40
1.048884014900068
 40
1.048884014900068
 40
1.099198511696759
 40
1.099198511696759
 40
1.099198511696759
 40
1.099198511696759
 10
1.475000000000006
 20
-6.450322989329095
 30
0.0
 10
1.475000000000015
 20
-6.358287768000376
 30
0.0
 10
1.453470307232479
 20
-6.266648461209518
 30
0.0
 10
1.406438076694724
 20
-6.16598744101056
 30
0.0
 10
1.398255249840964
 20
-6.150089382180259
 30
0.0
 10
1.389466862346058
 20
-6.134454191685363
 30
0.0
  0
SPLINE
  5
167B9
330
166EB
100
AcDbEntity
  8
0
100
AcDbSpline
210
0.0
220
0.0
230
1.0
 70
     8
 71
     3
 72
    10
 73
     6
 74
     0
 42
0.000000001
 43
0.0000000001
 40
3.613190468687929
 40
3.613190468687929
 40
3.613190468687929
 40
3.613190468687929
 40
3.683278596283642
 40
3.683278596283642
 40
3.926990816987296
 40
3.926990816987296
 40
3.926990816987296
 40
3.926990816987296
 10
-1.389466862346048
 20
-6.134454191685363
 30
0.0
 10
-1.401709091987984
 20
-6.156234022472855
 30
0.0
 10
-1.412776291000571
 20
-6.178525138277604
 30
0.0
 10
-1.456627694154722
 20
-6.280343467746973
 30
0.0
 10
-1.475000000000004
 20
-6.365194668225502
 30
0.0
 10
-1.474999999999996
 20
-6.450322989329095
 30
0.0
  0
LINE
  5
167BA
330
166EB
100
AcDbEntity
  8
0
100
AcDbLine
 10
-1.282532643201817
 20
-6.45440265283403
 30
0.0
 11
-1.448282975262108
 21
-5.95847567920511
 31
0.0
  0
LINE
  5
167BB
330
166EB
100
AcDbEntity
  8
0
100
AcDbLine
 10
1.282532643201827
 20
-6.454402652834025
 30
0.0
 11
1.448282975262117
 21
-5.95847567920511
 31
0.0
  0
SPLINE
  5
167BC
330
166EB
100
AcDbEntity
  8
0
100
AcDbSpline
210
0.0
220
0.0
230
1.0
 70
     8
 71
     3
 72
    10
 73
     6
 74
     0
 42
0.000000001
 43
0.0000000001
 40
0.7853981633973931
 40
0.7853981633973931
 40
0.7853981633973931
 40
0.7853981633973931
 40
1.048884014900068
 40
1.048884014900068
 40
1.099198511696759
 40
1.099198511696759
 40
1.099198511696759
 40
1.099198511696759
 10
1.475000000000006
 20
-5.797125724586913
 30
0.0
 10
1.475000000000015
 20
-5.705090503258194
 30
0.0
 10
1.453470307232479
 20
-5.613451196467336
 30
0.0
 10
1.406438076694724
 20
-5.512790176268382
 30
0.0
 10
1.398255249840964
 20
-5.496892117438081
 30
0.0
 10
1.389466862346058
 20
-5.481256926943185
 30
0.0
  0
SPLINE
  5
167BD
330
166EB
100
AcDbEntity
  8
0
100
AcDbSpline
210
0.0
220
0.0
230
1.0
 70
     8
 71
     3
 72
    10
 73
     6
 74
     0
 42
0.000000001
 43
0.0000000001
 40
3.61319046868793
 40
3.61319046868793
 40
3.61319046868793
 40
3.61319046868793
 40
3.683278596283642
 40
3.683278596283642
 40
3.926990816987296
 40
3.926990816987296
 40
3.926990816987296
 40
3.926990816987296
 10
-1.389466862346049
 20
-5.481256926943181
 30
0.0
 10
-1.401709091987984
 20
-5.503036757730672
 30
0.0
 10
-1.412776291000572
 20
-5.525327873535421
 30
0.0
 10
-1.456627694154722
 20
-5.627146203004791
 30
0.0
 10
-1.475000000000004
 20
-5.711997403483319
 30
0.0
 10
-1.474999999999996
 20
-5.797125724586913
 30
0.0
  0
LINE
  5
167BE
330
166EB
100
AcDbEntity
  8
0
100
AcDbLine
 10
-1.282532643201817
 20
-5.801205388091847
 30
0.0
 11
-1.448282975262108
 21
-5.305278414462928
 31
0.0
  0
LINE
  5
167BF
330
166EB
100
AcDbEntity
  8
0
100
AcDbLine
 10
1.282532643201827
 20
-5.801205388091843
 30
0.0
 11
1.448282975262117
 21
-5.305278414462928
 31
0.0
  0
SPLINE
  5
167C0
330
166EB
100
AcDbEntity
  8
0
100
AcDbSpline
210
0.0
220
0.0
230
1.0
 70
     8
 71
     3
 72
    10
 73
     6
 74
     0
 42
0.000000001
 43
0.0000000001
 40
0.7853981633974123
 40
0.7853981633974123
 40
0.7853981633974123
 40
0.7853981633974123
 40
1.048884014900087
 40
1.048884014900087
 40
1.099198511696761
 40
1.099198511696761
 40
1.099198511696761
 40
1.099198511696761
 10
1.475000000000006
 20
-5.143928459844713
 30
0.0
 10
1.475000000000011
 20
-5.051893238515998
 30
0.0
 10
1.453470307232473
 20
-4.96025393172514
 30
0.0
 10
1.406438076694718
 20
-4.859592911526191
 30
0.0
 10
1.39825524984096
 20
-4.843694852695898
 30
0.0
 10
1.389466862346057
 20
-4.828059662201003
 30
0.0
  0
SPLINE
  5
167C1
330
166EB
100
AcDbEntity
  8
0
100
AcDbSpline
210
0.0
220
0.0
230
1.0
 70
     8
 71
     3
 72
    10
 73
     6
 74
     0
 42
0.000000001
 43
0.0000000001
 40
3.613190468687928
 40
3.613190468687928
 40
3.613190468687928
 40
3.613190468687928
 40
3.683278596283665
 40
3.683278596283665
 40
3.926990816987277
 40
3.926990816987277
 40
3.926990816987277
 40
3.926990816987277
 10
-1.389466862346048
 20
-4.828059662201003
 30
0.0
 10
-1.401709091987988
 20
-4.849839492988499
 30
0.0
 10
-1.412776291000578
 20
-4.872130608793261
 30
0.0
 10
-1.456627694154723
 20
-4.973948938262622
 30
0.0
 10
-1.475000000000001
 20
-5.058800138741137
 30
0.0
 10
-1.474999999999996
 20
-5.143928459844713
 30
0.0
  0
LINE
  5
167C2
330
166EB
100
AcDbEntity
  8
0
100
AcDbLine
 10
-1.282532643201816
 20
-5.148008123349669
 30
0.0
 11
-1.448282975262108
 21
-4.652081149720745
 31
0.0
  0
LINE
  5
167C3
330
166EB
100
AcDbEntity
  8
0
100
AcDbLine
 10
1.282532643201826
 20
-5.148008123349665
 30
0.0
 11
1.448282975262117
 21
-4.652081149720745
 31
0.0
  0
SPLINE
  5
167C4
330
166EB
100
AcDbEntity
  8
0
100
AcDbSpline
210
0.0
220
0.0
230
1.0
 70
     8
 71
     3
 72
    10
 73
     6
 74
     0
 42
0.000000001
 43
0.0000000001
 40
0.7853981633974123
 40
0.7853981633974123
 40
0.7853981633974123
 40
0.7853981633974123
 40
1.048884014900087
 40
1.048884014900087
 40
1.099198511696761
 40
1.099198511696761
 40
1.099198511696761
 40
1.099198511696761
 10
1.475000000000005
 20
-4.49073119510253
 30
0.0
 10
1.475000000000011
 20
-4.39869597377382
 30
0.0
 10
1.453470307232473
 20
-4.307056666982962
 30
0.0
 10
1.406438076694718
 20
-4.206395646784009
 30
0.0
 10
1.39825524984096
 20
-4.190497587953716
 30
0.0
 10
1.389466862346057
 20
-4.174862397458825
 30
0.0
  0
SPLINE
  5
167C5
330
166EB
100
AcDbEntity
  8
0
100
AcDbSpline
210
0.0
220
0.0
230
1.0
 70
     8
 71
     3
 72
    10
 73
     6
 74
     0
 42
0.000000001
 43
0.0000000001
 40
3.613190468687928
 40
3.613190468687928
 40
3.613190468687928
 40
3.613190468687928
 40
3.683278596283665
 40
3.683278596283665
 40
3.926990816987277
 40
3.926990816987277
 40
3.926990816987277
 40
3.926990816987277
 10
-1.389466862346048
 20
-4.174862397458825
 30
0.0
 10
-1.401709091987988
 20
-4.196642228246321
 30
0.0
 10
-1.412776291000579
 20
-4.218933344051079
 30
0.0
 10
-1.456627694154723
 20
-4.320751673520439
 30
0.0
 10
-1.475000000000002
 20
-4.405602873998955
 30
0.0
 10
-1.474999999999996
 20
-4.49073119510253
 30
0.0
  0
LINE
  5
167C6
330
166EB
100
AcDbEntity
  8
0
100
AcDbLine
 10
-1.282532643201816
 20
-4.494810858607491
 30
0.0
 11
-1.448282975262108
 21
-3.998883884978563
 31
0.0
  0
LINE
  5
167C7
330
166EB
100
AcDbEntity
  8
0
100
AcDbLine
 10
1.282532643201826
 20
-4.494810858607491
 30
0.0
 11
1.448282975262117
 21
-3.998883884978563
 31
0.0
  0
SPLINE
  5
167C8
330
166EB
100
AcDbEntity
  8
0
100
AcDbSpline
210
0.0
220
0.0
230
1.0
 70
     8
 71
     3
 72
    10
 73
     6
 74
     0
 42
0.000000001
 43
0.0000000001
 40
0.7853981633974123
 40
0.7853981633974123
 40
0.7853981633974123
 40
0.7853981633974123
 40
1.048884014900087
 40
1.048884014900087
 40
1.099198511696761
 40
1.099198511696761
 40
1.099198511696761
 40
1.099198511696761
 10
1.475000000000005
 20
-3.837533930360348
 30
0.0
 10
1.475000000000011
 20
-3.745498709031638
 30
0.0
 10
1.453470307232473
 20
-3.653859402240784
 30
0.0
 10
1.406438076694718
 20
-3.553198382041826
 30
0.0
 10
1.39825524984096
 20
-3.537300323211534
 30
0.0
 10
1.389466862346057
 20
-3.521665132716642
 30
0.0
  0
SPLINE
  5
167C9
330
166EB
100
AcDbEntity
  8
0
100
AcDbSpline
210
0.0
220
0.0
230
1.0
 70
     8
 71
     3
 72
    10
 73
     6
 74
     0
 42
0.000000001
 43
0.0000000001
 40
3.613190468687928
 40
3.613190468687928
 40
3.613190468687928
 40
3.613190468687928
 40
3.683278596283665
 40
3.683278596283665
 40
3.926990816987277
 40
3.926990816987277
 40
3.926990816987277
 40
3.926990816987277
 10
-1.389466862346048
 20
-3.521665132716642
 30
0.0
 10
-1.401709091987988
 20
-3.543444963504138
 30
0.0
 10
-1.412776291000579
 20
-3.565736079308896
 30
0.0
 10
-1.456627694154723
 20
-3.667554408778257
 30
0.0
 10
-1.475000000000002
 20
-3.752405609256772
 30
0.0
 10
-1.474999999999996
 20
-3.837533930360348
 30
0.0
  0
LINE
  5
167CA
330
166EB
100
AcDbEntity
  8
0
100
AcDbLine
 10
-1.282532643201816
 20
-3.841613593865309
 30
0.0
 11
-1.448282975262108
 21
-3.345686620236381
 31
0.0
  0
LINE
  5
167CB
330
166EB
100
AcDbEntity
  8
0
100
AcDbLine
 10
1.282532643201825
 20
-3.841613593865309
 30
0.0
 11
1.448282975262117
 21
-3.345686620236381
 31
0.0
  0
SPLINE
  5
167CC
330
166EB
100
AcDbEntity
  8
0
100
AcDbSpline
210
0.0
220
0.0
230
1.0
 70
     8
 71
     3
 72
    10
 73
     6
 74
     0
 42
0.000000001
 43
0.0000000001
 40
0.7853981633974123
 40
0.7853981633974123
 40
0.7853981633974123
 40
0.7853981633974123
 40
1.048884014900087
 40
1.048884014900087
 40
1.099198511696761
 40
1.099198511696761
 40
1.099198511696761
 40
1.099198511696761
 10
1.475000000000005
 20
-3.18433666561817
 30
0.0
 10
1.475000000000011
 20
-3.092301444289455
 30
0.0
 10
1.453470307232472
 20
-3.000662137498602
 30
0.0
 10
1.406438076694717
 20
-2.900001117299644
 30
0.0
 10
1.39825524984096
 20
-2.884103058469351
 30
0.0
 10
1.389466862346057
 20
-2.86846786797446
 30
0.0
  0
SPLINE
  5
167CD
330
166EB
100
AcDbEntity
  8
0
100
AcDbSpline
210
0.0
220
0.0
230
1.0
 70
     8
 71
     3
 72
    10
 73
     6
 74
     0
 42
0.000000001
 43
0.0000000001
 40
3.613190468687928
 40
3.613190468687928
 40
3.613190468687928
 40
3.613190468687928
 40
3.683278596283665
 40
3.683278596283665
 40
3.926990816987277
 40
3.926990816987277
 40
3.926990816987277
 40
3.926990816987277
 10
-1.389466862346048
 20
-2.86846786797446
 30
0.0
 10
-1.401709091987988
 20
-2.890247698761956
 30
0.0
 10
-1.412776291000579
 20
-2.912538814566714
 30
0.0
 10
-1.456627694154723
 20
-3.014357144036079
 30
0.0
 10
-1.475000000000002
 20
-3.09920834451459
 30
0.0
 10
-1.474999999999997
 20
-3.18433666561817
 30
0.0
  0
LINE
  5
167CE
330
166EB
100
AcDbEntity
  8
0
100
AcDbLine
 10
-1.282532643201816
 20
-3.188416329123127
 30
0.0
 11
-1.448282975262108
 21
-2.692489355494203
 31
0.0
  0
LINE
  5
167CF
330
166EB
100
AcDbEntity
  8
0
100
AcDbLine
 10
1.282532643201825
 20
-3.188416329123127
 30
0.0
 11
1.448282975262117
 21
-2.692489355494203
 31
0.0
  0
SPLINE
  5
167D0
330
166EB
100
AcDbEntity
  8
0
100
AcDbSpline
210
0.0
220
0.0
230
1.0
 70
     8
 71
     3
 72
    10
 73
     6
 74
     0
 42
0.000000001
 43
0.0000000001
 40
0.7853981633974123
 40
0.7853981633974123
 40
0.7853981633974123
 40
0.7853981633974123
 40
1.048884014900087
 40
1.048884014900087
 40
1.099198511696761
 40
1.099198511696761
 40
1.099198511696761
 40
1.099198511696761
 10
1.475000000000005
 20
-2.531139400875987
 30
0.0
 10
1.475000000000011
 20
-2.439104179547273
 30
0.0
 10
1.453470307232472
 20
-2.347464872756419
 30
0.0
 10
1.406438076694717
 20
-2.246803852557461
 30
0.0
 10
1.39825524984096
 20
-2.230905793727169
 30
0.0
 10
1.389466862346057
 20
-2.215270603232277
 30
0.0
  0
SPLINE
  5
167D1
330
166EB
100
AcDbEntity
  8
0
100
AcDbSpline
210
0.0
220
0.0
230
1.0
 70
     8
 71
     3
 72
    10
 73
     6
 74
     0
 42
0.000000001
 43
0.0000000001
 40
3.613190468687928
 40
3.613190468687928
 40
3.613190468687928
 40
3.613190468687928
 40
3.683278596283665
 40
3.683278596283665
 40
3.926990816987277
 40
3.926990816987277
 40
3.926990816987277
 40
3.926990816987277
 10
-1.389466862346048
 20
-2.215270603232277
 30
0.0
 10
-1.401709091987988
 20
-2.237050434019773
 30
0.0
 10
-1.412776291000579
 20
-2.259341549824536
 30
0.0
 10
-1.456627694154723
 20
-2.361159879293897
 30
0.0
 10
-1.475000000000002
 20
-2.446011079772412
 30
0.0
 10
-1.474999999999997
 20
-2.531139400875987
 30
0.0
  0
LINE
  5
167D2
330
166EB
100
AcDbEntity
  8
0
100
AcDbLine
 10
-1.282532643201817
 20
-2.535219064380944
 30
0.0
 11
-1.448282975262109
 21
-2.03929209075202
 31
0.0
  0
LINE
  5
167D3
330
166EB
100
AcDbEntity
  8
0
100
AcDbLine
 10
1.282532643201825
 20
-2.535219064380944
 30
0.0
 11
1.448282975262116
 21
-2.03929209075202
 31
0.0
  0
SPLINE
  5
167D4
330
166EB
100
AcDbEntity
  8
0
100
AcDbSpline
210
0.0
220
0.0
230
1.0
 70
     8
 71
     3
 72
    10
 73
     6
 74
     0
 42
0.000000001
 43
0.0000000001
 40
0.7853981633974292
 40
0.7853981633974292
 40
0.7853981633974292
 40
0.7853981633974292
 40
1.048884014900104
 40
1.048884014900104
 40
1.099198511696763
 40
1.099198511696763
 40
1.099198511696763
 40
1.099198511696763
 10
1.475000000000005
 20
-1.877942136133792
 30
0.0
 10
1.475000000000008
 20
-1.785906914805073
 30
0.0
 10
1.453470307232467
 20
-1.694267608014219
 30
0.0
 10
1.406438076694711
 20
-1.593606587815274
 30
0.0
 10
1.398255249840956
 20
-1.577708528984986
 30
0.0
 10
1.389466862346056
 20
-1.562073338490099
 30
0.0
  0
SPLINE
  5
167D5
330
166EB
100
AcDbEntity
  8
0
100
AcDbSpline
210
0.0
220
0.0
230
1.0
 70
     8
 71
     3
 72
    10
 73
     6
 74
     0
 42
0.000000001
 43
0.0000000001
 40
3.613190468687926
 40
3.613190468687926
 40
3.613190468687926
 40
3.613190468687926
 40
3.683278596283684
 40
3.683278596283684
 40
3.92699081698726
 40
3.92699081698726
 40
3.92699081698726
 40
3.92699081698726
 10
-1.389466862346047
 20
-1.562073338490095
 30
0.0
 10
-1.401709091987991
 20
-1.5838531692776
 30
0.0
 10
-1.412776291000585
 20
-1.606144285082367
 30
0.0
 10
-1.456627694154724
 20
-1.707962614551732
 30
0.0
 10
-1.475
 20
-1.792813815030229
 30
0.0
 10
-1.474999999999997
 20
-1.877942136133792
 30
0.0
  0
LINE
  5
167D6
330
166EB
100
AcDbEntity
  8
0
100
AcDbLine
 10
-1.282532643201816
 20
-1.882021799638766
 30
0.0
 11
-1.448282975262109
 21
-1.386094826009838
 31
0.0
  0
LINE
  5
167D7
330
166EB
100
AcDbEntity
  8
0
100
AcDbLine
 10
1.282532643201824
 20
-1.882021799638766
 30
0.0
 11
1.448282975262116
 21
-1.386094826009838
 31
0.0
  0
SPLINE
  5
167D8
330
166EB
100
AcDbEntity
  8
0
100
AcDbSpline
210
0.0
220
0.0
230
1.0
 70
     8
 71
     3
 72
    10
 73
     6
 74
     0
 42
0.000000001
 43
0.0000000001
 40
0.7853981633974292
 40
0.7853981633974292
 40
0.7853981633974292
 40
0.7853981633974292
 40
1.048884014900104
 40
1.048884014900104
 40
1.099198511696761
 40
1.099198511696761
 40
1.099198511696761
 40
1.099198511696761
 10
1.475000000000005
 20
-1.224744871391609
 30
0.0
 10
1.475000000000008
 20
-1.132709650062899
 30
0.0
 10
1.453470307232467
 20
-1.041070343272036
 30
0.0
 10
1.406438076694711
 20
-0.9404093230730925
 30
0.0
 10
1.398255249840956
 20
-0.9245112642428088
 30
0.0
 10
1.389466862346056
 20
-0.9088760737479217
 30
0.0
  0
SPLINE
  5
167D9
330
166EB
100
AcDbEntity
  8
0
100
AcDbSpline
210
0.0
220
0.0
230
1.0
 70
     8
 71
     3
 72
    10
 73
     6
 74
     0
 42
0.000000001
 43
0.0000000001
 40
3.613190468687928
 40
3.613190468687928
 40
3.613190468687928
 40
3.613190468687928
 40
3.683278596283684
 40
3.683278596283684
 40
3.92699081698726
 40
3.92699081698726
 40
3.92699081698726
 40
3.92699081698726
 10
-1.389466862346049
 20
-0.9088760737479173
 30
0.0
 10
-1.401709091987992
 20
-0.9306559045354267
 30
0.0
 10
-1.412776291000585
 20
-0.9529470203401846
 30
0.0
 10
-1.456627694154724
 20
-1.054765349809549
 30
0.0
 10
-1.475
 20
-1.139616550288047
 30
0.0
 10
-1.474999999999997
 20
-1.224744871391609
 30
0.0
  0
LINE
  5
167DA
330
166EB
100
AcDbEntity
  8
0
100
AcDbLine
 10
-1.282532643201816
 20
-1.228824534896588
 30
0.0
 11
-1.44828297526211
 21
-0.7328975612676559
 31
0.0
  0
LINE
  5
167DB
330
166EB
100
AcDbEntity
  8
0
100
AcDbLine
 10
1.282532643201824
 20
-1.228824534896588
 30
0.0
 11
1.448282975262118
 21
-0.7328975612676536
 31
0.0
  0
SPLINE
  5
167DC
330
166EB
100
AcDbEntity
  8
0
100
AcDbSpline
210
0.0
220
0.0
230
1.0
 70
     8
 71
     3
 72
    10
 73
     6
 74
     0
 42
0.000000001
 43
0.0000000001
 40
0.7853981633974123
 40
0.7853981633974123
 40
0.7853981633974123
 40
0.7853981633974123
 40
1.048884014900087
 40
1.048884014900087
 40
1.099198511696761
 40
1.099198511696761
 40
1.099198511696761
 40
1.099198511696761
 10
1.475000000000005
 20
-0.5715476066494474
 30
0.0
 10
1.475000000000011
 20
-0.4795123853207329
 30
0.0
 10
1.453470307232472
 20
-0.3878730785298767
 30
0.0
 10
1.406438076694717
 20
-0.2872120583309257
 30
0.0
 10
1.398255249840959
 20
-0.2713139995006331
 30
0.0
 10
1.389466862346056
 20
-0.2556788090057371
 30
0.0
  0
SPLINE
  5
167DD
330
166EB
100
AcDbEntity
  8
0
100
AcDbSpline
210
0.0
220
0.0
230
1.0
 70
     8
 71
     3
 72
    10
 73
     6
 74
     0
 42
0.000000001
 43
0.0000000001
 40
3.613190468687928
 40
3.613190468687928
 40
3.613190468687928
 40
3.613190468687928
 40
3.683278596283665
 40
3.683278596283665
 40
3.926990816987277
 40
3.926990816987277
 40
3.926990816987277
 40
3.926990816987277
 10
-1.389466862346049
 20
-0.2556788090057349
 30
0.0
 10
-1.401709091987988
 20
-0.2774586397932377
 30
0.0
 10
-1.412776291000579
 20
-0.2997497555979933
 30
0.0
 10
-1.456627694154724
 20
-0.4015680850673587
 30
0.0
 10
-1.475000000000003
 20
-0.4864192855458694
 30
0.0
 10
-1.474999999999997
 20
-0.5715476066494474
 30
0.0
  0
LINE
  5
167DE
330
166EB
100
AcDbEntity
  8
0
100
AcDbLine
 10
-1.282532643201816
 20
-0.5756272701544063
 30
0.0
 11
-1.44828297526211
 21
-0.0797002965254756
 31
0.0
  0
LINE
  5
167DF
330
166EB
100
AcDbEntity
  8
0
100
AcDbLine
 10
1.282532643201824
 20
-0.5756272701544063
 30
0.0
 11
1.448282975262117
 21
-0.0797002965254756
 31
0.0
  0
SPLINE
  5
167E0
330
166EB
100
AcDbEntity
  8
0
100
AcDbSpline
210
0.0
220
0.0
230
1.0
 70
     8
 71
     3
 72
    10
 73
     6
 74
     0
 42
0.000000001
 43
0.0000000001
 40
0.7853981633974123
 40
0.7853981633974123
 40
0.7853981633974123
 40
0.7853981633974123
 40
1.048884014900087
 40
1.048884014900087
 40
1.099198511696761
 40
1.099198511696761
 40
1.099198511696761
 40
1.099198511696761
 10
1.475000000000005
 20
0.0816496580927329
 30
0.0
 10
1.47500000000001
 20
0.1736848794214474
 30
0.0
 10
1.453470307232472
 20
0.2653241862123057
 30
0.0
 10
1.406438076694717
 20
0.3659852064112568
 30
0.0
 10
1.398255249840959
 20
0.3818832652415494
 30
0.0
 10
1.389466862346056
 20
0.3975184557364431
 30
0.0
  0
SPLINE
  5
167E1
330
166EB
100
AcDbEntity
  8
0
100
AcDbSpline
210
0.0
220
0.0
230
1.0
 70
     8
 71
     3
 72
    10
 73
     6
 74
     0
 42
0.000000001
 43
0.0000000001
 40
3.613190468687928
 40
3.613190468687928
 40
3.613190468687928
 40
3.613190468687928
 40
3.683278596283665
 40
3.683278596283665
 40
3.926990816987277
 40
3.926990816987277
 40
3.926990816987277
 40
3.926990816987277
 10
-1.389466862346049
 20
0.3975184557364431
 30
0.0
 10
-1.401709091987989
 20
0.3757386249489447
 30
0.0
 10
-1.412776291000579
 20
0.3534475091441891
 30
0.0
 10
-1.456627694154724
 20
0.2516291796748238
 30
0.0
 10
-1.475000000000003
 20
0.1667779791963109
 30
0.0
 10
-1.474999999999997
 20
0.0816496580927329
 30
0.0
  0
LINE
  5
167E2
330
166EB
100
AcDbEntity
  8
0
100
AcDbLine
 10
-1.282532643201816
 20
0.0775699945877739
 30
0.0
 11
-1.44828297526211
 21
0.5734969682167069
 31
0.0
  0
LINE
  5
167E3
330
166EB
100
AcDbEntity
  8
0
100
AcDbLine
 10
1.282532643201824
 20
0.0775699945877739
 30
0.0
 11
1.448282975262117
 21
0.5734969682167069
 31
0.0
  0
SPLINE
  5
167E4
330
166EB
100
AcDbEntity
  8
0
100
AcDbSpline
210
0.0
220
0.0
230
1.0
 70
     8
 71
     3
 72
    10
 73
     6
 74
     0
 42
0.000000001
 43
0.0000000001
 40
0.7853981633974123
 40
0.7853981633974123
 40
0.7853981633974123
 40
0.7853981633974123
 40
1.048884014900087
 40
1.048884014900087
 40
1.099198511696761
 40
1.099198511696761
 40
1.099198511696761
 40
1.099198511696761
 10
1.475000000000004
 20
0.7348469228349153
 30
0.0
 10
1.47500000000001
 20
0.8268821441636298
 30
0.0
 10
1.453470307232471
 20
0.9185214509544859
 30
0.0
 10
1.406438076694717
 20
1.019182471153436
 30
0.0
 10
1.398255249840959
 20
1.035080529983731
 30
0.0
 10
1.389466862346056
 20
1.050715720478625
 30
0.0
  0
SPLINE
  5
167E5
330
166EB
100
AcDbEntity
  8
0
100
AcDbSpline
210
0.0
220
0.0
230
1.0
 70
     8
 71
     3
 72
    10
 73
     6
 74
     0
 42
0.000000001
 43
0.0000000001
 40
3.613190468687928
 40
3.613190468687928
 40
3.613190468687928
 40
3.613190468687928
 40
3.683278596283665
 40
3.683278596283665
 40
3.926990816987277
 40
3.926990816987277
 40
3.926990816987277
 40
3.926990816987277
 10
-1.389466862346049
 20
1.050715720478625
 30
0.0
 10
-1.401709091987989
 20
1.028935889691127
 30
0.0
 10
-1.412776291000579
 20
1.006644773886369
 30
0.0
 10
-1.456627694154724
 20
0.9048264444170062
 30
0.0
 10
-1.475000000000003
 20
0.8199752439384933
 30
0.0
 10
-1.474999999999997
 20
0.7348469228349153
 30
0.0
  0
LINE
  5
167E6
330
166EB
100
AcDbEntity
  8
0
100
AcDbLine
 10
-1.282532643201816
 20
0.7307672593299564
 30
0.0
 11
-1.448282975262111
 21
1.226694232958891
 31
0.0
  0
LINE
  5
167E7
330
166EB
100
AcDbEntity
  8
0
100
AcDbLine
 10
1.282532643201823
 20
0.7307672593299564
 30
0.0
 11
1.448282975262118
 21
1.226694232958891
 31
0.0
  0
ELLIPSE
  5
167E8
330
166EB
100
AcDbEntity
  8
0
100
AcDbEllipse
 10
0.0000000000000034
 20
1.526848606334842
 30
0.0
 11
-1.306192008768394
 21
0.0
 31
0.0
210
0.0
220
0.0
230
1.0
 40
0.5773502691896261
 41
0.1906210079745019
 42
2.950971645615291
  0
LINE
  5
167E9
330
166EB
100
AcDbEntity
  8
0
100
AcDbLine
 10
-1.282532643201816
 20
1.383964524072138
 30
0.0
 11
-1.429223150684369
 21
1.82286427486993
 31
0.0
  0
LINE
  5
167EA
330
166EB
100
AcDbEntity
  8
0
100
AcDbLine
 10
1.282532643201823
 20
1.383964524072138
 30
0.0
 11
1.429223150684375
 21
1.82286427486993
 31
0.0
  0
SPLINE
  5
167EB
330
166EB
100
AcDbEntity
  8
0
100
AcDbSpline
210
0.0
220
0.0
230
1.0
 70
     8
 71
     3
 72
    10
 73
     6
 74
     0
 42
0.000000001
 43
0.0000000001
 40
0.7853981633974484
 40
0.7853981633974484
 40
0.7853981633974484
 40
0.7853981633974484
 40
1.048884014900123
 40
1.048884014900123
 40
1.099198511696761
 40
1.099198511696761
 40
1.099198511696761
 40
1.099198511696761
 10
1.475000000000004
 20
1.388044187577135
 30
0.0
 10
1.475000000000004
 20
1.480079408905849
 30
0.0
 10
1.45347030723246
 20
1.571718715696703
 30
0.0
 10
1.406438076694705
 20
1.672379735895643
 30
0.0
 10
1.398255249840952
 20
1.688277794725927
 30
0.0
 10
1.389466862346056
 20
1.703912985220807
 30
0.0
  0
SPLINE
  5
167EC
330
166EB
100
AcDbEntity
  8
0
100
AcDbSpline
210
0.0
220
0.0
230
1.0
 70
     8
 71
     3
 72
    10
 73
     6
 74
     0
 42
0.000000001
 43
0.0000000001
 40
3.613190468687928
 40
3.613190468687928
 40
3.613190468687928
 40
3.613190468687928
 40
3.683278596283707
 40
3.683278596283707
 40
3.926990816987241
 40
3.926990816987241
 40
3.926990816987241
 40
3.926990816987241
 10
-1.389466862346049
 20
1.703912985220807
 30
0.0
 10
-1.401709091987996
 20
1.682133154433294
 30
0.0
 10
-1.412776291000593
 20
1.659842038628525
 30
0.0
 10
-1.456627694154725
 20
1.55802370915917
 30
0.0
 10
-1.474999999999997
 20
1.473172508680684
 30
0.0
 10
-1.474999999999997
 20
1.388044187577135
 30
0.0
  0
LINE
  5
167ED
330
166EB
100
AcDbEntity
  8
0
100
AcDbLine
 10
-1.399999999999994
 20
2.041241452319313
 30
0.0
 11
-1.399999999999997
 21
17.10089976097779
 31
0.0
  0
LINE
  5
167EE
330
166EB
100
AcDbEntity
  8
0
100
AcDbLine
 10
1.400000000000001
 20
2.041241452319313
 30
0.0
 11
1.399999999999998
 21
17.10089976097779
 31
0.0
  0
ENDBLK
  5
166ED
330
166EB
100
AcDbEntity
  8
0
100
AcDbBlockEnd
  0
ENDSEC
  0
SECTION
  2
ENTITIES
  0
INSERT
  5
167EF
330
1F
100
AcDbEntity
  8
0
100
AcDbBlockReference
  2
CLNG28x48-Front
 10
0.0
 20
0.0
 30
0.0
  0
INSERT
  5
167F0
330
1F
100
AcDbEntity
  8
0
100
AcDbBlockReference
  2
CLNG28x48-Top
 10
0.0
 20
-64.19999999999999
 30
0.0
  0
INSERT
  5
167F1
330
1F
100
AcDbEntity
  8
0
100
AcDbBlockReference
  2
CLNG28x48-ISO
 10
20.3
 20
-82.07745548628938
 30
0.0
  0
MTEXT
  5
167F2
330
1F
100
AcDbEntity
  8
0
100
AcDbMText
 10
0.0
 20
-81.39999999999998
 30
0.0
 40
2.293333333333333
 41
0.0
 71
     5
 72
     5
  1
CLNG2,8x48
 73
     1
 44
1.0
1001
ACAD
1000
MTEXTBEGIN
1070
    73
1070
     1
1070
    44
1040
1.0
1070
    74
1070
     0
1000
MTEXTEND
  0
ENDSEC
  0
SECTION
  2
OBJECTS
  0
DICTIONARY
  5
C
330
0
100
AcDbDictionary
281
     1
  3
ACAD_CIP_PREVIOUS_PRODUCT_INFO
350
216
  3
ACAD_COLOR
350
6B
  3
ACAD_DETAILVIEWSTYLE
350
21B
  3
ACAD_GROUP
350
D
  3
ACAD_LAYOUT
350
1A
  3
ACAD_MATERIAL
350
6A
  3
ACAD_MLEADERSTYLE
350
12D
  3
ACAD_MLINESTYLE
350
17
  3
ACAD_PLOTSETTINGS
350
19
  3
ACAD_PLOTSTYLENAME
350
E
  3
ACAD_SCALELIST
350
10C
  3
ACAD_SECTIONVIEWSTYLE
350
219
  3
ACAD_TABLESTYLE
350
7E
  3
ACAD_VISUALSTYLE
350
EF
  3
ACDB_RECOMPOSE_DATA
350
168F5
  3
AcDbVariableDictionary
350
5E
  3
DWGPROPS
350
168F6
  0
DICTIONARY
  5
16845
330
8
100
AcDbDictionary
280
     1
281
     1
  0
DICTIONARY
  5
1FF
330
2
100
AcDbDictionary
280
     1
281
     1
  3
ACAD_LAYERSTATES
360
200
  0
DICTIONARY
  5
13C
330
10
100
AcDbDictionary
280
     1
281
     1
  0
DICTIONARY
  5
1CE
330
1F
100
AcDbDictionary
280
     1
281
     1
  3
ACAD_LAYOUTSELFREF
360
1684D
  0
DICTIONARY
  5
167F6
330
D2
100
AcDbDictionary
280
     1
281
     1
  3
ACAD_LAYOUTSELFREF
360
16856
  0
DICTIONARY
  5
167F8
330
D6
100
AcDbDictionary
280
     1
281
     1
  3
ACAD_LAYOUTSELFREF
360
16859
  0
XRECORD
  5
216
102
{ACAD_REACTORS
330
C
102
}
330
C
100
AcDbXrecord
280
     1
300
ACD
300
2021
300
87393ACD_2021_0F
  0
DICTIONARY
  5
6B
102
{ACAD_REACTORS
330
C
102
}
330
C
100
AcDbDictionary
281
     1
  0
DICTIONARY
  5
21B
102
{ACAD_REACTORS
330
C
102
}
330
C
100
AcDbDictionary
281
     1
  3
Metric50
350
21C
  0
DICTIONARY
  5
D
102
{ACAD_REACTORS
330
C
102
}
330
C
100
AcDbDictionary
281
     1
  0
DICTIONARY
  5
1A
102
{ACAD_REACTORS
330
C
102
}
330
C
100
AcDbDictionary
281
     1
  3
Layout1
350
D3
  3
Layout2
350
D7
  3
Model
350
22
  0
DICTIONARY
  5
6A
102
{ACAD_REACTORS
330
C
102
}
330
C
100
AcDbDictionary
281
     1
  3
ByBlock
350
ED
  3
ByLayer
350
EC
  3
Global
350
EE
  0
DICTIONARY
  5
12D
102
{ACAD_REACTORS
330
C
102
}
330
C
100
AcDbDictionary
281
     1
  3
Standard
350
12E
  0
DICTIONARY
  5
17
102
{ACAD_REACTORS
330
C
102
}
330
C
100
AcDbDictionary
281
     1
  3
Standard
350
18
  0
DICTIONARY
  5
19
102
{ACAD_REACTORS
330
C
102
}
330
C
100
AcDbDictionary
281
     1
  0
ACDBDICTIONARYWDFLT
  5
E
102
{ACAD_REACTORS
330
C
102
}
330
C
100
AcDbDictionary
281
     1
  3
Normal
350
F
100
AcDbDictionaryWithDefault
340
F
  0
DICTIONARY
  5
10C
102
{ACAD_REACTORS
330
C
102
}
330
C
100
AcDbDictionary
281
     1
  3
A0
350
10D
  3
A1
350
1BE
  3
A2
350
1BF
  3
A3
350
1C0
  3
A4
350
1C1
  3
A5
350
1C2
  3
A6
350
1C3
  3
A7
350
1C4
  3
A8
350
1C5
  3
A9
350
1C6
  3
B0
350
1C7
  3
B1
350
1C8
  3
B2
350
1C9
  3
B3
350
1CA
  3
B4
350
1CB
  3
B5
350
1CC
  3
B6
350
1CD
  0
DICTIONARY
  5
219
102
{ACAD_REACTORS
330
C
102
}
330
C
100
AcDbDictionary
281
     1
  3
Metric50
350
21A
  0
DICTIONARY
  5
7E
102
{ACAD_REACTORS
330
C
102
}
330
C
100
AcDbDictionary
281
     1
  3
Standard
350
7F
  0
DICTIONARY
  5
EF
102
{ACAD_REACTORS
330
C
102
}
330
C
100
AcDbDictionary
281
     1
  3
2dWireframe
350
F5
  3
Basic
350
F4
  3
Brighten
350
FB
  3
ColorChange
350
FF
  3
Conceptual
350
F8
  3
Dim
350
FA
  3
EdgeColorOff
350
1E6
  3
Facepattern
350
FE
  3
Flat
350
F0
  3
FlatWithEdges
350
F1
  3
Gouraud
350
F2
  3
GouraudWithEdges
350
F3
  3
Hidden
350
F7
  3
JitterOff
350
1E4
  3
Linepattern
350
FD
  3
OverhangOff
350
1E5
  3
Realistic
350
F9
  3
Shaded
350
1F3
  3
Shaded with edges
350
1F2
  3
Shades of Gray
350
1EF
  3
Sketchy
350
1F0
  3
Thicken
350
FC
  3
Wireframe
350
F6
  3
X-Ray
350
1F1
  0
XRECORD
  5
168F5
102
{ACAD_REACTORS
330
C
102
}
330
C
100
AcDbXrecord
280
     1
 90
        1
330
7F
  0
DICTIONARY
  5
5E
102
{ACAD_REACTORS
330
C
102
}
330
C
100
AcDbDictionary
281
     1
  3
CANNOSCALE
350
146
  3
CENTEREXE
350
259
  3
CENTERLTYPEFILE
350
25A
  3
CMLEADERSTYLE
350
145
  3
CTABLESTYLE
350
84
  3
CVIEWDETAILSTYLE
350
227
  3
CVIEWSECTIONSTYLE
350
228
  3
DIMASSOC
350
5F
  3
HIDETEXT
350
63
  3
INDEXCTL
350
168A2
  3
LAYEREVAL
350
1AE
  3
LAYERNOTIFY
350
1AF
  3
LIGHTINGUNITS
350
168A0
  3
MSLTSCALE
350
1689F
  3
PSOLHEIGHT
350
168F2
  3
PSOLWIDTH
350
168F1
  3
SORTENTS
350
168A1
  3
XCLIPFRAME
350
168F3
  0
XRECORD
  5
168F6
102
{ACAD_REACTORS
330
C
102
}
330
C
100
AcDbXrecord
280
     1
  1
DWGPROPS COOKIE
  2

  3

  4

  6

  7

  8
truole
  9

300
=
301
=
302
=
303
=
304
=
305
=
306
=
307
=
308
=
309
=
 40
0.0023611111111111
 41
2460733.571354167
 42
2460733.600428241
  1

 90
        0
  0
DICTIONARY
  5
200
102
{ACAD_REACTORS
330
1FF
102
}
330
1FF
100
AcDbDictionary
281
     1
  0
XRECORD
  5
1684D
102
{ACAD_REACTORS
330
1CE
102
}
330
1CE
100
AcDbXrecord
280
     1
340
1F
  0
XRECORD
  5
16856
102
{ACAD_REACTORS
330
167F6
102
}
330
167F6
100
AcDbXrecord
280
     1
340
D2
  0
XRECORD
  5
16859
102
{ACAD_REACTORS
330
167F8
102
}
330
167F8
100
AcDbXrecord
280
     1
340
D6
  0
ACDBDETAILVIEWSTYLE
  5
21C
102
{ACAD_XDICTIONARY
360
16935
102
}
102
{ACAD_REACTORS
330
21B
102
}
330
21B
100
AcDbModelDocViewStyle
 70
     0
  3
Metric50
290
     0
100
AcDbDetailViewStyle
 70
     0
 71
     0
 90
        3
 71
     1
340
11
 40
5.0
340
0
 40
5.0
300

 40
0.0
280
     1
 71
     2
340
16
 90
       25
 71
     3
340
11
 40
5.0
 90
        0
 40
15.0
 90
        1
300
%<\AcVar ViewDetailId>% (%<\AcVar ViewScale \f "%sn">%)
 71
     4
340
16
 90
       25
340
16
 90
       25
280
     0
  0
LAYOUT
  5
D3
102
{ACAD_XDICTIONARY
360
168FA
102
}
102
{ACAD_REACTORS
330
1A
102
}
330
1A
100
AcDbPlotSettings
  1

  2
C:\Documents and Settings\basas\Application Data\Autodesk\AutoCAD 2005\R16.1\enu\plotters\Default Windows System Printer.pc3
  4

  6

 40
0.0
 41
0.0
 42
0.0
 43
0.0
 44
0.0
 45
0.0
 46
0.0
 47
0.0
 48
0.0
 49
0.0
140
0.0
141
0.0
142
1.0
143
1.0
 70
   688
 72
     0
 73
     0
 74
     5
  7

 75
    16
147
1.0
148
0.0
149
0.0
100
AcDbLayout
  1
Layout1
 70
     1
 71
     1
 10
0.0
 20
0.0
 11
12.0
 21
9.0
 12
0.0
 22
0.0
 32
0.0
 14
0.0
 24
0.0
 34
0.0
 15
0.0
 25
0.0
 35
0.0
146
0.0
 13
0.0
 23
0.0
 33
0.0
 16
1.0
 26
0.0
 36
0.0
 17
0.0
 27
1.0
 37
0.0
 76
     0
330
D2
  0
LAYOUT
  5
D7
102
{ACAD_XDICTIONARY
360
168FC
102
}
102
{ACAD_REACTORS
330
1A
102
}
330
1A
100
AcDbPlotSettings
  1

  2
C:\Documents and Settings\basas\Application Data\Autodesk\AutoCAD 2005\R16.1\enu\plotters\Default Windows System Printer.pc3
  4

  6

 40
0.0
 41
0.0
 42
0.0
 43
0.0
 44
0.0
 45
0.0
 46
0.0
 47
0.0
 48
0.0
 49
0.0
140
0.0
141
0.0
142
1.0
143
1.0
 70
   688
 72
     0
 73
     0
 74
     5
  7

 75
    16
147
1.0
148
0.0
149
0.0
100
AcDbLayout
  1
Layout2
 70
     1
 71
     2
 10
0.0
 20
0.0
 11
12.0
 21
9.0
 12
0.0
 22
0.0
 32
0.0
 14
0.0
 24
0.0
 34
0.0
 15
0.0
 25
0.0
 35
0.0
146
0.0
 13
0.0
 23
0.0
 33
0.0
 16
1.0
 26
0.0
 36
0.0
 17
0.0
 27
1.0
 37
0.0
 76
     0
330
D6
  0
LAYOUT
  5
22
102
{ACAD_XDICTIONARY
360
168F7
102
}
102
{ACAD_REACTORS
330
1A
102
}
330
1A
100
AcDbPlotSettings
  1

  2
none_device
  4
ISO_A4_(210.00_x_297.00_MM)
  6

 40
7.5
 41
20.0
 42
7.5
 43
20.0
 44
210.0
 45
297.0
 46
11.54999923706054
 47
-13.65000009536743
 48
0.0
 49
0.0
140
0.0
141
0.0
142
1.0
143
8.704084754739808
 70
 11952
 72
     1
 73
     0
 74
     0
  7

 75
     0
147
0.1148885871608098
148
0.0
149
0.0
100
AcDbLayout
  1
Model
 70
     1
 71
     0
 10
0.0
 20
0.0
 11
12.0
 21
9.0
 12
0.0
 22
0.0
 32
0.0
 14
0.0
 24
0.0
 34
0.0
 15
0.0
 25
0.0
 35
0.0
146
0.0
 13
0.0
 23
0.0
 33
0.0
 16
1.0
 26
0.0
 36
0.0
 17
0.0
 27
1.0
 37
0.0
 76
     0
330
1F
331
EA
1001
ACAD_PSEXT
1000
None
1000
None
1000
Not applicable
1000
The layout will not be plotted unless a new plotter configuration name is selected.
1070
     0
  0
MATERIAL
  5
ED
102
{ACAD_XDICTIONARY
360
1F9
102
}
102
{ACAD_REACTORS
330
6A
102
}
330
6A
100
AcDbMaterial
  1
ByBlock
  0
MATERIAL
  5
EC
102
{ACAD_XDICTIONARY
360
1F7
102
}
102
{ACAD_REACTORS
330
6A
102
}
330
6A
100
AcDbMaterial
  1
ByLayer
  0
MATERIAL
  5
EE
102
{ACAD_XDICTIONARY
360
173
102
}
102
{ACAD_REACTORS
330
6A
102
}
330
6A
100
AcDbMaterial
  1
Global
 43
0.0007999999797903
 43
0.0
 43
0.0
 43
0.0
 43
0.0
 43
0.0007999999797903
 43
0.0
 43
0.0
 43
0.0
 43
0.0
 43
1.0
 43
0.0
 43
0.0
 43
0.0
 43
0.0
 43
1.0
 49
0.0007999999797903
 49
0.0
 49
0.0
 49
0.0
 49
0.0
 49
0.0007999999797903
 49
0.0
 49
0.0
 49
0.0
 49
0.0
 49
1.0
 49
0.0
 49
0.0
 49
0.0
 49
0.0
 49
1.0
142
0.0007999999797903
142
0.0
142
0.0
142
0.0
142
0.0
142
0.0007999999797903
142
0.0
142
0.0
142
0.0
142
0.0
142
1.0
142
0.0
142
0.0
142
0.0
142
0.0
142
1.0
144
0.0007999999797903
144
0.0
144
0.0
144
0.0
144
0.0
144
0.0007999999797903
144
0.0
144
0.0
144
0.0
144
0.0
144
1.0
144
0.0
144
0.0
144
0.0
144
0.0
144
1.0
1001
ACAD
1070
    -1
1070
     3
1070
     0
1000

1071
        0
1070
     0
  0
MLEADERSTYLE
  5
12E
102
{ACAD_XDICTIONARY
360
16921
102
}
102
{ACAD_REACTORS
330
12D
102
}
330
12D
100
AcDbMLeaderStyle
170
     2
171
     1
172
     0
 90
        2
 40
0.0
 41
0.0
173
     1
 91
-1056964608
340
14
 92
       -2
290
     1
 42
2.0
291
     1
 43
8.0
  3
Standard
 44
4.0
300

342
11
174
     1
178
     1
175
     1
176
     0
 93
-1056964608
 45
4.0
292
     0
297
     0
 46
4.0
 94
-1056964608
 47
1.0
 49
1.0
140
1.0
293
     1
141
0.0
294
     1
177
     0
142
1.0
295
     0
296
     0
143
3.75
1001
ACAD_MLEADERVER
1070
     2
  0
MLINESTYLE
  5
18
102
{ACAD_REACTORS
330
17
102
}
330
17
100
AcDbMlineStyle
  2
STANDARD
 70
     0
  3

 62
   256
 51
90.0
 52
90.0
 71
     2
 49
0.5
 62
   256
  6
BYLAYER
 49
-0.5
 62
   256
  6
BYLAYER
  0
ACDBPLACEHOLDER
  5
F
102
{ACAD_REACTORS
330
E
102
}
330
E
  0
SCALE
  5
10D
102
{ACAD_REACTORS
330
10C
102
}
330
10C
100
AcDbScale
 70
     0
300
1:1
140
1.0
141
1.0
290
     1
  0
SCALE
  5
1BE
102
{ACAD_REACTORS
330
10C
102
}
330
10C
100
AcDbScale
 70
     0
300
1:2
140
1.0
141
2.0
290
     0
  0
SCALE
  5
1BF
102
{ACAD_REACTORS
330
10C
102
}
330
10C
100
AcDbScale
 70
     0
300
1:4
140
1.0
141
4.0
290
     0
  0
SCALE
  5
1C0
102
{ACAD_REACTORS
330
10C
102
}
330
10C
100
AcDbScale
 70
     0
300
1:5
140
1.0
141
5.0
290
     0
  0
SCALE
  5
1C1
102
{ACAD_REACTORS
330
10C
102
}
330
10C
100
AcDbScale
 70
     0
300
1:8
140
1.0
141
8.0
290
     0
  0
SCALE
  5
1C2
102
{ACAD_REACTORS
330
10C
102
}
330
10C
100
AcDbScale
 70
     0
300
1:10
140
1.0
141
10.0
290
     0
  0
SCALE
  5
1C3
102
{ACAD_REACTORS
330
10C
102
}
330
10C
100
AcDbScale
 70
     0
300
1:16
140
1.0
141
16.0
290
     0
  0
SCALE
  5
1C4
102
{ACAD_REACTORS
330
10C
102
}
330
10C
100
AcDbScale
 70
     0
300
1:20
140
1.0
141
20.0
290
     0
  0
SCALE
  5
1C5
102
{ACAD_REACTORS
330
10C
102
}
330
10C
100
AcDbScale
 70
     0
300
1:30
140
1.0
141
30.0
290
     0
  0
SCALE
  5
1C6
102
{ACAD_REACTORS
330
10C
102
}
330
10C
100
AcDbScale
 70
     0
300
1:40
140
1.0
141
40.0
290
     0
  0
SCALE
  5
1C7
102
{ACAD_REACTORS
330
10C
102
}
330
10C
100
AcDbScale
 70
     0
300
1:50
140
1.0
141
50.0
290
     0
  0
SCALE
  5
1C8
102
{ACAD_REACTORS
330
10C
102
}
330
10C
100
AcDbScale
 70
     0
300
1:100
140
1.0
141
100.0
290
     0
  0
SCALE
  5
1C9
102
{ACAD_REACTORS
330
10C
102
}
330
10C
100
AcDbScale
 70
     0
300
2:1
140
2.0
141
1.0
290
     0
  0
SCALE
  5
1CA
102
{ACAD_REACTORS
330
10C
102
}
330
10C
100
AcDbScale
 70
     0
300
4:1
140
4.0
141
1.0
290
     0
  0
SCALE
  5
1CB
102
{ACAD_REACTORS
330
10C
102
}
330
10C
100
AcDbScale
 70
     0
300
8:1
140
8.0
141
1.0
290
     0
  0
SCALE
  5
1CC
102
{ACAD_REACTORS
330
10C
102
}
330
10C
100
AcDbScale
 70
     0
300
10:1
140
10.0
141
1.0
290
     0
  0
SCALE
  5
1CD
102
{ACAD_REACTORS
330
10C
102
}
330
10C
100
AcDbScale
 70
     0
300
100:1
140
100.0
141
1.0
290
     0
  0
ACDBSECTIONVIEWSTYLE
  5
21A
102
{ACAD_XDICTIONARY
360
16933
102
}
102
{ACAD_REACTORS
330
219
102
}
330
219
100
AcDbModelDocViewStyle
 70
     0
  3
Metric50
290
     0
100
AcDbSectionViewStyle
 70
     0
 71
     0
 90
      102
 71
     1
340
11
 40
5.0
340
0
340
0
 40
5.0
300
I, O, Q, S, X, Z
 40
10.0
 90
        0
 40
2.5
 90
        0
 71
     2
340
16
 90
       25
340
16
 90
       50
 40
5.0
 40
2.5
 40
5.0
 71
     3
340
11
 40
5.0
 90
        0
 40
15.0
 90
        1
300
%<\AcVar ViewSectionStartId>%-%<\AcVar ViewSectionEndId>% (%<\AcVar ViewScale \f "%sn">%)
 71
     4
300
ANSI31
 40
1.0
 90
        0
290
     0
290
     0
 90
        6
 40
0.0
 40
1.570796326794896
 40
0.2617993877991494
 40
1.308996938995747
 40
-0.2617993877991494
 40
1.832595714594046
  0
TABLESTYLE
  5
7F
102
{ACAD_XDICTIONARY
360
162
102
}
102
{ACAD_REACTORS
330
7E
102
}
330
7E
100
AcDbTableStyle
  3
Standard
 70
     0
 71
     0
 40
1.5
 41
1.5
280
     0
281
     0
  7
Standard
140
4.5
170
     2
 62
     0
 63
     7
283
     0
274
    -2
284
     1
 64
     0
275
    -2
285
     1
 65
     0
276
    -2
286
     1
 66
     0
277
    -2
287
     1
 67
     0
278
    -2
288
     1
 68
     0
279
    -2
289
     1
 69
     0
  7
Standard
140
6.0
170
     5
 62
     0
 63
     7
283
     0
274
    -2
284
     1
 64
     0
275
    -2
285
     1
 65
     0
276
    -2
286
     1
 66
     0
277
    -2
287
     1
 67
     0
278
    -2
288
     1
 68
     0
279
    -2
289
     1
 69
     0
  7
Standard
140
4.5
170
     5
 62
     0
 63
     7
283
     0
274
    -2
284
     1
 64
     0
275
    -2
285
     1
 65
     0
276
    -2
286
     1
 66
     0
277
    -2
287
     1
 67
     0
278
    -2
288
     1
 68
     0
279
    -2
289
     1
 69
     0
  0
VISUALSTYLE
  5
F5
102
{ACAD_XDICTIONARY
360
1690B
102
}
102
{ACAD_REACTORS
330
EF
102
}
330
EF
100
AcDbVisualStyle
  2
2dWireframe
 70
     4
 71
     0
 72
     2
 73
     1
 90
        0
 40
-0.6
 41
-30.0
 62
     5
 63
     7
 74
     1
 91
        4
 64
     7
 65
   257
 75
     1
175
     1
 42
1.0
 92
        0
 66
   257
 43
1.0
 76
     1
 77
     6
 78
     2
 67
     7
 79
     5
170
     0
171
     0
290
     0
174
     0
 93
        1
 44
0.0
173
     0
291
     0
 45
0.0
1001
ACAD
1000
AcDbSavedByObjectVersion
1070
     0
  0
VISUALSTYLE
  5
F4
102
{ACAD_XDICTIONARY
360
16909
102
}
102
{ACAD_REACTORS
330
EF
102
}
330
EF
100
AcDbVisualStyle
  2
Basic
 70
     7
 71
     1
 72
     0
 73
     1
 90
        0
 40
-0.6
 41
-30.0
 62
     5
 63
     7
 74
     0
 91
        4
 64
     7
 65
   257
 75
     1
175
     1
 42
1.0
 92
        8
 66
     7
 43
1.0
 76
     1
 77
     6
 78
     2
 67
     7
 79
     5
170
     0
171
     0
290
     0
174
     0
 93
        1
 44
0.0
173
     0
291
     1
 45
0.0
1001
ACAD
1000
AcDbSavedByObjectVersion
1070
     0
  0
VISUALSTYLE
  5
FB
102
{ACAD_XDICTIONARY
360
16917
102
}
102
{ACAD_REACTORS
330
EF
102
}
330
EF
100
AcDbVisualStyle
  2
Brighten
 70
    12
 71
     2
 72
     2
 73
     1
 90
        0
 40
-0.6
 41
-30.0
 62
     5
 63
     7
 74
     1
 91
        4
 64
     7
 65
   257
 75
     1
175
     1
 42
1.0
 92
        8
 66
     7
 43
1.0
 76
     1
 77
     6
 78
     2
 67
     7
 79
     5
170
     0
171
     0
290
     0
174
     0
 93
        1
 44
50.0
173
     0
291
     1
 45
0.0
1001
ACAD
1000
AcDbSavedByObjectVersion
1070
     0
  0
VISUALSTYLE
  5
FF
102
{ACAD_XDICTIONARY
360
1691F
102
}
102
{ACAD_REACTORS
330
EF
102
}
330
EF
100
AcDbVisualStyle
  2
ColorChange
 70
    16
 71
     2
 72
     2
 73
     3
 90
        0
 40
-0.6
 41
-30.0
 62
     5
 63
     8
 74
     1
 91
        4
 64
     7
 65
   257
 75
     1
175
     1
 42
1.0
 92
        8
 66
     8
 43
1.0
 76
     1
 77
     6
 78
     2
 67
     7
 79
     5
170
     0
171
     0
290
     0
174
     0
 93
        1
 44
0.0
173
     0
291
     1
 45
0.0
1001
ACAD
1000
AcDbSavedByObjectVersion
1070
     0
  0
VISUALSTYLE
  5
F8
102
{ACAD_XDICTIONARY
360
16911
102
}
102
{ACAD_REACTORS
330
EF
102
}
330
EF
100
AcDbVisualStyle
  2
Conceptual
 70
     9
 71
     3
 72
     2
 73
     1
 90
        0
 40
-0.6
 41
-30.0
 62
     5
 63
     7
 74
     2
 91
        2
 64
     7
 65
   257
 75
     1
175
     1
 42
40.0
 92
        8
 66
     7
 43
1.0
 76
     1
 77
     6
 78
     2
 67
     7
 79
     3
170
     0
171
     0
290
     0
174
     0
 93
        1
 44
0.0
173
     0
291
     0
 45
0.0
1001
ACAD
1000
AcDbSavedByObjectVersion
1070
     0
  0
VISUALSTYLE
  5
FA
102
{ACAD_XDICTIONARY
360
16915
102
}
102
{ACAD_REACTORS
330
EF
102
}
330
EF
100
AcDbVisualStyle
  2
Dim
 70
    11
 71
     2
 72
     2
 73
     1
 90
        0
 40
-0.6
 41
-30.0
 62
     5
 63
     7
 74
     1
 91
        4
 64
     7
 65
   257
 75
     1
175
     1
 42
1.0
 92
        8
 66
     7
 43
1.0
 76
     1
 77
     6
 78
     2
 67
     7
 79
     5
170
     0
171
     0
290
     0
174
     0
 93
        1
 44
-50.0
173
     0
291
     1
 45
0.0
1001
ACAD
1000
AcDbSavedByObjectVersion
1070
     0
  0
VISUALSTYLE
  5
1E6
102
{ACAD_XDICTIONARY
360
16927
102
}
102
{ACAD_REACTORS
330
EF
102
}
330
EF
100
AcDbVisualStyle
  2
EdgeColorOff
 70
    22
 71
     2
 72
     2
 73
     0
 90
        0
 40
-0.6
 41
-30.0
 62
     5
 63
     7
 74
     1
 91
        4
 64
     7
 65
   257
 75
     1
175
     1
 42
1.0
 92
        8
 66
     7
 43
1.0
 76
     1
 77
     6
 78
     2
 67
     7
 79
     5
170
     0
171
     0
290
     0
174
     0
 93
        1
 44
0.0
173
     0
291
     1
 45
0.0
1001
ACAD
1000
AcDbSavedByObjectVersion
1070
     0
  0
VISUALSTYLE
  5
FE
102
{ACAD_XDICTIONARY
360
1691D
102
}
102
{ACAD_REACTORS
330
EF
102
}
330
EF
100
AcDbVisualStyle
  2
Facepattern
 70
    15
 71
     2
 72
     2
 73
     1
 90
        0
 40
-0.6
 41
-30.0
 62
     5
 63
     7
 74
     1
 91
        4
 64
     7
 65
   257
 75
     1
175
     1
 42
1.0
 92
        8
 66
     7
 43
1.0
 76
     1
 77
     6
 78
     2
 67
     7
 79
     5
170
     0
171
     0
290
     0
174
     0
 93
        1
 44
0.0
173
     0
291
     1
 45
0.0
1001
ACAD
1000
AcDbSavedByObjectVersion
1070
     0
  0
VISUALSTYLE
  5
F0
102
{ACAD_XDICTIONARY
360
16901
102
}
102
{ACAD_REACTORS
330
EF
102
}
330
EF
100
AcDbVisualStyle
  2
Flat
 70
     0
 71
     2
 72
     1
 73
     1
 90
        2
 40
-0.6
 41
30.0
 62
     5
 63
     7
 74
     0
 91
        0
 64
     7
 65
   257
 75
     1
175
     1
 42
1.0
 92
        8
 66
     7
 43
1.0
 76
     1
 77
     6
 78
     2
 67
     7
 79
     5
170
     0
171
     0
290
     0
174
     0
 93
       13
 44
0.0
173
     0
291
     1
 45
0.0
1001
ACAD
1000
AcDbSavedByObjectVersion
1070
     0
  0
VISUALSTYLE
  5
F1
102
{ACAD_XDICTIONARY
360
16903
102
}
102
{ACAD_REACTORS
330
EF
102
}
330
EF
100
AcDbVisualStyle
  2
FlatWithEdges
 70
     1
 71
     2
 72
     1
 73
     1
 90
        2
 40
-0.6
 41
30.0
 62
     5
 63
     7
 74
     1
 91
        0
 64
     7
 65
   257
 75
     1
175
     1
 42
1.0
 92
        0
 66
   257
 43
1.0
 76
     1
 77
     6
 78
     2
 67
     7
 79
     5
170
     0
171
     0
290
     0
174
     0
 93
       13
 44
0.0
173
     0
291
     1
 45
0.0
1001
ACAD
1000
AcDbSavedByObjectVersion
1070
     0
  0
VISUALSTYLE
  5
F2
102
{ACAD_XDICTIONARY
360
16905
102
}
102
{ACAD_REACTORS
330
EF
102
}
330
EF
100
AcDbVisualStyle
  2
Gouraud
 70
     2
 71
     2
 72
     2
 73
     1
 90
        2
 40
-0.6
 41
30.0
 62
     5
 63
     7
 74
     0
 91
        0
 64
     7
 65
   257
 75
     1
175
     1
 42
1.0
 92
        0
 66
     7
 43
1.0
 76
     1
 77
     6
 78
     2
 67
     7
 79
     5
170
     0
171
     0
290
     0
174
     0
 93
       13
 44
0.0
173
     0
291
     1
 45
0.0
1001
ACAD
1000
AcDbSavedByObjectVersion
1070
     0
  0
VISUALSTYLE
  5
F3
102
{ACAD_XDICTIONARY
360
16907
102
}
102
{ACAD_REACTORS
330
EF
102
}
330
EF
100
AcDbVisualStyle
  2
GouraudWithEdges
 70
     3
 71
     2
 72
     2
 73
     1
 90
        2
 40
-0.6
 41
30.0
 62
     5
 63
     7
 74
     1
 91
        0
 64
     7
 65
   257
 75
     1
175
     1
 42
1.0
 92
        0
 66
   257
 43
1.0
 76
     1
 77
     6
 78
     2
 67
     7
 79
     5
170
     0
171
     0
290
     0
174
     0
 93
       13
 44
0.0
173
     0
291
     1
 45
0.0
1001
ACAD
1000
AcDbSavedByObjectVersion
1070
     0
  0
VISUALSTYLE
  5
F7
102
{ACAD_XDICTIONARY
360
1690F
102
}
102
{ACAD_REACTORS
330
EF
102
}
330
EF
100
AcDbVisualStyle
  2
Hidden
 70
     6
 71
     1
 72
     2
 73
     2
 90
        0
 40
-0.6
 41
-30.0
 62
     5
 63
     7
 74
     2
 91
        2
 64
     7
 65
   257
 75
     2
175
     1
 42
40.0
 92
        0
 66
   257
 43
1.0
 76
     1
 77
     6
 78
     2
 67
     7
 79
     3
170
     0
171
     0
290
     0
174
     0
 93
        1
 44
0.0
173
     0
291
     0
 45
0.0
1001
ACAD
1000
AcDbSavedByObjectVersion
1070
     0
  0
VISUALSTYLE
  5
1E4
102
{ACAD_XDICTIONARY
360
16923
102
}
102
{ACAD_REACTORS
330
EF
102
}
330
EF
100
AcDbVisualStyle
  2
JitterOff
 70
    20
 71
     2
 72
     2
 73
     0
 90
        0
 40
-0.6
 41
-30.0
 62
     5
 63
     7
 74
     1
 91
        4
 64
     7
 65
   257
 75
     1
175
     1
 42
1.0
 92
       10
 66
     7
 43
1.0
 76
     1
 77
     6
 78
     2
 67
     7
 79
     5
170
     0
171
     0
290
     0
174
     0
 93
        1
 44
0.0
173
     0
291
     1
 45
0.0
1001
ACAD
1000
AcDbSavedByObjectVersion
1070
     0
  0
VISUALSTYLE
  5
FD
102
{ACAD_XDICTIONARY
360
1691B
102
}
102
{ACAD_REACTORS
330
EF
102
}
330
EF
100
AcDbVisualStyle
  2
Linepattern
 70
    14
 71
     2
 72
     2
 73
     1
 90
        0
 40
-0.6
 41
-30.0
 62
     5
 63
     7
 74
     1
 91
        4
 64
     7
 65
   257
 75
     7
175
     7
 42
1.0
 92
        8
 66
     7
 43
1.0
 76
     1
 77
     6
 78
     2
 67
     7
 79
     5
170
     0
171
     0
290
     0
174
     0
 93
        1
 44
0.0
173
     0
291
     1
 45
0.0
1001
ACAD
1000
AcDbSavedByObjectVersion
1070
     0
  0
VISUALSTYLE
  5
1E5
102
{ACAD_XDICTIONARY
360
16925
102
}
102
{ACAD_REACTORS
330
EF
102
}
330
EF
100
AcDbVisualStyle
  2
OverhangOff
 70
    21
 71
     2
 72
     2
 73
     0
 90
        0
 40
-0.6
 41
-30.0
 62
     5
 63
     7
 74
     1
 91
        4
 64
     7
 65
   257
 75
     1
175
     1
 42
1.0
 92
        9
 66
     7
 43
1.0
 76
     1
 77
     6
 78
     2
 67
     7
 79
     5
170
     0
171
     0
290
     0
174
     0
 93
        1
 44
0.0
173
     0
291
     1
 45
0.0
1001
ACAD
1000
AcDbSavedByObjectVersion
1070
     0
  0
VISUALSTYLE
  5
F9
102
{ACAD_XDICTIONARY
360
16913
102
}
102
{ACAD_REACTORS
330
EF
102
}
330
EF
100
AcDbVisualStyle
  2
Realistic
 70
     8
 71
     2
 72
     2
 73
     0
 90
        2
 40
-0.6
 41
30.0
 62
     5
 63
     7
 74
     0
 91
        0
 64
     7
 65
   257
 75
     1
175
     1
 42
1.0
 92
        8
 66
   257
 43
1.0
 76
     1
 77
     6
 78
     2
 67
     7
 79
     3
170
     0
171
     0
290
     0
174
     0
 93
       13
 44
0.0
173
     0
291
     0
 45
0.0
1001
ACAD
1000
AcDbSavedByObjectVersion
1070
     0
  0
VISUALSTYLE
  5
1F3
102
{ACAD_XDICTIONARY
360
16931
102
}
102
{ACAD_REACTORS
330
EF
102
}
330
EF
100
AcDbVisualStyle
  2
Shaded
 70
    27
 71
     2
 72
     2
 73
     1
 90
        2
 40
-0.6
 41
30.0
 62
     5
 63
     7
 74
     0
 91
        4
 64
     7
 65
   257
 75
     1
175
     1
 42
1.0
 92
        8
 66
   257
 43
1.0
 76
     1
 77
     6
 78
     2
 67
     8
 79
     3
170
     0
171
     0
290
     0
174
     0
 93
        5
 44
0.0
173
     0
291
     0
 45
0.0
1001
ACAD
1000
AcDbSavedByObjectVersion
1070
     0
  0
VISUALSTYLE
  5
1F2
102
{ACAD_XDICTIONARY
360
1692F
102
}
102
{ACAD_REACTORS
330
EF
102
}
330
EF
100
AcDbVisualStyle
  2
Shaded with edges
 70
    26
 71
     2
 72
     2
 73
     1
 90
        2
 40
-0.6
 41
30.0
 62
     5
 63
     7
 74
     1
 91
        2
 64
     7
 65
   257
 75
     2
175
     1
 42
1.0
 92
        8
 66
   257
 43
1.0
 76
     1
 77
     6
 78
     2
 67
     7
 79
     3
170
     0
171
     0
290
     0
174
     0
 93
        5
 44
0.0
173
     0
291
     0
 45
0.0
1001
ACAD
1000
AcDbSavedByObjectVersion
1070
     0
  0
VISUALSTYLE
  5
1EF
102
{ACAD_XDICTIONARY
360
16929
102
}
102
{ACAD_REACTORS
330
EF
102
}
330
EF
100
AcDbVisualStyle
  2
Shades of Gray
 70
    23
 71
     2
 72
     2
 73
     3
 90
        0
 40
-0.6
 41
-30.0
 62
     5
 63
     7
 74
     2
 91
        2
 64
     7
 65
     7
 75
     1
175
     1
 42
40.0
 92
        8
 66
     7
 43
1.0
 76
     1
 77
     6
 78
     2
 67
     7
 79
     3
170
     0
171
     0
290
     0
174
     0
 93
        1
 44
0.0
173
     0
291
     0
 45
0.0
1001
ACAD
1000
AcDbSavedByObjectVersion
1070
     0
  0
VISUALSTYLE
  5
1F0
102
{ACAD_XDICTIONARY
360
1692B
102
}
102
{ACAD_REACTORS
330
EF
102
}
330
EF
100
AcDbVisualStyle
  2
Sketchy
 70
    24
 71
     1
 72
     2
 73
     2
 90
        0
 40
-0.6
 41
-30.0
 62
     5
 63
     7
 74
     2
 91
        2
 64
     7
 65
     7
 75
     1
175
     1
 42
40.0
 92
       11
 66
     7
 43
1.0
 76
     1
 77
     6
 78
     2
 67
     7
 79
     6
170
     0
171
     0
290
     0
174
     0
 93
        1
 44
0.0
173
     0
291
     0
 45
0.0
1001
ACAD
1000
AcDbSavedByObjectVersion
1070
     0
  0
VISUALSTYLE
  5
FC
102
{ACAD_XDICTIONARY
360
16919
102
}
102
{ACAD_REACTORS
330
EF
102
}
330
EF
100
AcDbVisualStyle
  2
Thicken
 70
    13
 71
     2
 72
     2
 73
     1
 90
        0
 40
-0.6
 41
-30.0
 62
     5
 63
     7
 74
     1
 91
        4
 64
     7
 65
   257
 75
     1
175
     1
 42
1.0
 92
       12
 66
     7
 43
1.0
 76
     1
 77
     6
 78
     2
 67
     7
 79
     5
170
     0
171
     0
290
     0
174
     0
 93
        1
 44
0.0
173
     0
291
     1
 45
0.0
1001
ACAD
1000
AcDbSavedByObjectVersion
1070
     0
  0
VISUALSTYLE
  5
F6
102
{ACAD_XDICTIONARY
360
1690D
102
}
102
{ACAD_REACTORS
330
EF
102
}
330
EF
100
AcDbVisualStyle
  2
Wireframe
 70
     5
 71
     0
 72
     2
 73
     0
 90
        0
 40
-0.6
 41
-30.0
 62
     5
 63
     7
 74
     1
 91
        4
 64
     7
 65
   257
 75
     1
175
     1
 42
1.0
 92
        0
 66
   257
 43
1.0
 76
     1
 77
     6
 78
     2
 67
     7
 79
     3
170
     0
171
     0
290
     0
174
     0
 93
        1
 44
0.0
173
     0
291
     0
 45
0.0
1001
ACAD
1000
AcDbSavedByObjectVersion
1070
     0
  0
VISUALSTYLE
  5
1F1
102
{ACAD_XDICTIONARY
360
1692D
102
}
102
{ACAD_REACTORS
330
EF
102
}
330
EF
100
AcDbVisualStyle
  2
X-Ray
 70
    25
 71
     2
 72
     2
 73
     1
 90
        1
 40
0.5
 41
-30.0
 62
     5
 63
     7
 74
     1
 91
        0
 64
     7
 65
   257
 75
     1
175
     1
 42
1.0
 92
        8
 66
     7
 43
1.0
 76
     1
 77
     6
 78
     2
 67
     7
 79
     3
170
     0
171
     0
290
     0
174
     0
 93
       13
 44
0.0
173
     0
291
     0
 45
0.0
1001
ACAD
1000
AcDbSavedByObjectVersion
1070
     0
  0
DICTIONARYVAR
  5
146
102
{ACAD_REACTORS
330
5E
102
}
330
5E
100
DictionaryVariables
280
     0
  1
1:1
  0
DICTIONARYVAR
  5
259
102
{ACAD_REACTORS
330
5E
102
}
330
5E
100
DictionaryVariables
280
     0
  1
3.500000
  0
DICTIONARYVAR
  5
25A
102
{ACAD_REACTORS
330
5E
102
}
330
5E
100
DictionaryVariables
280
     0
  1
acadiso.lin
  0
DICTIONARYVAR
  5
145
102
{ACAD_REACTORS
330
5E
102
}
330
5E
100
DictionaryVariables
280
     0
  1
STANDARD
  0
DICTIONARYVAR
  5
84
102
{ACAD_REACTORS
330
5E
102
}
330
5E
100
DictionaryVariables
280
     0
  1
STANDARD
  0
DICTIONARYVAR
  5
227
102
{ACAD_REACTORS
330
5E
102
}
330
5E
100
DictionaryVariables
280
     0
  1
Metric50
  0
DICTIONARYVAR
  5
228
102
{ACAD_REACTORS
330
5E
102
}
330
5E
100
DictionaryVariables
280
     0
  1
Metric50
  0
DICTIONARYVAR
  5
5F
102
{ACAD_REACTORS
330
5E
102
}
330
5E
100
DictionaryVariables
280
     0
  1
2
  0
DICTIONARYVAR
  5
63
102
{ACAD_REACTORS
330
5E
102
}
330
5E
100
DictionaryVariables
280
     0
  1
1
  0
DICTIONARYVAR
  5
168A2
102
{ACAD_REACTORS
330
5E
102
}
330
5E
100
DictionaryVariables
280
     0
  1
0
  0
DICTIONARYVAR
  5
1AE
102
{ACAD_REACTORS
330
5E
102
}
330
5E
100
DictionaryVariables
280
     0
  1
0
  0
DICTIONARYVAR
  5
1AF
102
{ACAD_REACTORS
330
5E
102
}
330
5E
100
DictionaryVariables
280
     0
  1
0
  0
DICTIONARYVAR
  5
168A0
102
{ACAD_REACTORS
330
5E
102
}
330
5E
100
DictionaryVariables
280
     0
  1
2
  0
DICTIONARYVAR
  5
1689F
102
{ACAD_REACTORS
330
5E
102
}
330
5E
100
DictionaryVariables
280
     0
  1
1
  0
DICTIONARYVAR
  5
168F2
102
{ACAD_REACTORS
330
5E
102
}
330
5E
100
DictionaryVariables
280
     0
  1
80.000000
  0
DICTIONARYVAR
  5
168F1
102
{ACAD_REACTORS
330
5E
102
}
330
5E
100
DictionaryVariables
280
     0
  1
5.000000
  0
DICTIONARYVAR
  5
168A1
102
{ACAD_REACTORS
330
5E
102
}
330
5E
100
DictionaryVariables
280
     0
  1
127
  0
DICTIONARYVAR
  5
168F3
102
{ACAD_REACTORS
330
5E
102
}
330
5E
100
DictionaryVariables
280
     0
  1
2
  0
DICTIONARY
  5
16935
330
21C
100
AcDbDictionary
280
     1
281
     1
  3
ACAD_XREC_ROUNDTRIP
360
16936
  0
DICTIONARY
  5
168FA
330
D3
100
AcDbDictionary
280
     1
281
     1
  3
ACAD_XREC_ROUNDTRIP
360
168FB
  0
DICTIONARY
  5
168FC
330
D7
100
AcDbDictionary
280
     1
281
     1
  3
ACAD_XREC_ROUNDTRIP
360
168FD
  0
DICTIONARY
  5
168F7
330
22
100
AcDbDictionary
280
     1
281
     1
  3
ACAD_XREC_ROUNDTRIP
360
168F8
  0
DICTIONARY
  5
1F9
330
ED
100
AcDbDictionary
280
     1
281
     1
  3
ACAD_XREC_ROUNDTRIP
360
168FF
  3
FBXASSET
360
1FA
  0
DICTIONARY
  5
1F7
330
EC
100
AcDbDictionary
280
     1
281
     1
  3
ACAD_XREC_ROUNDTRIP
360
168FE
  3
FBXASSET
360
1F8
  0
DICTIONARY
  5
173
330
EE
100
AcDbDictionary
280
     1
281
     1
  3
ACAD_XREC_ROUNDTRIP
360
16900
  3
BUMPTILE
360
175
  3
DIFFUSETILE
360
174
  3
FBXASSET
360
1FB
  3
OPACITYTILE
360
176
  3
REFLECTIONTILE
360
177
  0
DICTIONARY
  5
16921
330
12E
100
AcDbDictionary
280
     1
281
     1
  3
ACAD_XREC_ROUNDTRIP
360
16922
  0
DICTIONARY
  5
16933
330
21A
100
AcDbDictionary
280
     1
281
     1
  3
ACAD_XREC_ROUNDTRIP
360
16934
  0
DICTIONARY
  5
162
330
7F
100
AcDbDictionary
280
     1
281
     1
  3
ACAD_ROUNDTRIP_2008_TABLESTYLE_CELLSTYLEMAP
360
168F4
  3
ACAD_XREC_ROUNDTRIP
360
168F9
  0
DICTIONARY
  5
1690B
330
F5
100
AcDbDictionary
280
     1
281
     1
  3
ACAD_XREC_ROUNDTRIP
360
1690C
  0
DICTIONARY
  5
16909
330
F4
100
AcDbDictionary
280
     1
281
     1
  3
ACAD_XREC_ROUNDTRIP
360
1690A
  0
DICTIONARY
  5
16917
330
FB
100
AcDbDictionary
280
     1
281
     1
  3
ACAD_XREC_ROUNDTRIP
360
16918
  0
DICTIONARY
  5
1691F
330
FF
100
AcDbDictionary
280
     1
281
     1
  3
ACAD_XREC_ROUNDTRIP
360
16920
  0
DICTIONARY
  5
16911
330
F8
100
AcDbDictionary
280
     1
281
     1
  3
ACAD_XREC_ROUNDTRIP
360
16912
  0
DICTIONARY
  5
16915
330
FA
100
AcDbDictionary
280
     1
281
     1
  3
ACAD_XREC_ROUNDTRIP
360
16916
  0
DICTIONARY
  5
16927
330
1E6
100
AcDbDictionary
280
     1
281
     1
  3
ACAD_XREC_ROUNDTRIP
360
16928
  0
DICTIONARY
  5
1691D
330
FE
100
AcDbDictionary
280
     1
281
     1
  3
ACAD_XREC_ROUNDTRIP
360
1691E
  0
DICTIONARY
  5
16901
330
F0
100
AcDbDictionary
280
     1
281
     1
  3
ACAD_XREC_ROUNDTRIP
360
16902
  0
DICTIONARY
  5
16903
330
F1
100
AcDbDictionary
280
     1
281
     1
  3
ACAD_XREC_ROUNDTRIP
360
16904
  0
DICTIONARY
  5
16905
330
F2
100
AcDbDictionary
280
     1
281
     1
  3
ACAD_XREC_ROUNDTRIP
360
16906
  0
DICTIONARY
  5
16907
330
F3
100
AcDbDictionary
280
     1
281
     1
  3
ACAD_XREC_ROUNDTRIP
360
16908
  0
DICTIONARY
  5
1690F
330
F7
100
AcDbDictionary
280
     1
281
     1
  3
ACAD_XREC_ROUNDTRIP
360
16910
  0
DICTIONARY
  5
16923
330
1E4
100
AcDbDictionary
280
     1
281
     1
  3
ACAD_XREC_ROUNDTRIP
360
16924
  0
DICTIONARY
  5
1691B
330
FD
100
AcDbDictionary
280
     1
281
     1
  3
ACAD_XREC_ROUNDTRIP
360
1691C
  0
DICTIONARY
  5
16925
330
1E5
100
AcDbDictionary
280
     1
281
     1
  3
ACAD_XREC_ROUNDTRIP
360
16926
  0
DICTIONARY
  5
16913
330
F9
100
AcDbDictionary
280
     1
281
     1
  3
ACAD_XREC_ROUNDTRIP
360
16914
  0
DICTIONARY
  5
16931
330
1F3
100
AcDbDictionary
280
     1
281
     1
  3
ACAD_XREC_ROUNDTRIP
360
16932
  0
DICTIONARY
  5
1692F
330
1F2
100
AcDbDictionary
280
     1
281
     1
  3
ACAD_XREC_ROUNDTRIP
360
16930
  0
DICTIONARY
  5
16929
330
1EF
100
AcDbDictionary
280
     1
281
     1
  3
ACAD_XREC_ROUNDTRIP
360
1692A
  0
DICTIONARY
  5
1692B
330
1F0
100
AcDbDictionary
280
     1
281
     1
  3
ACAD_XREC_ROUNDTRIP
360
1692C
  0
DICTIONARY
  5
16919
330
FC
100
AcDbDictionary
280
     1
281
     1
  3
ACAD_XREC_ROUNDTRIP
360
1691A
  0
DICTIONARY
  5
1690D
330
F6
100
AcDbDictionary
280
     1
281
     1
  3
ACAD_XREC_ROUNDTRIP
360
1690E
  0
DICTIONARY
  5
1692D
330
1F1
100
AcDbDictionary
280
     1
281
     1
  3
ACAD_XREC_ROUNDTRIP
360
1692E
  0
XRECORD
  5
16936
102
{ACAD_REACTORS
330
16935
102
}
330
16935
100
AcDbXrecord
280
     1
102
DISPLAYNAME
  1
Metric50
102
FLAGS
 90
        0
  0
XRECORD
  5
168FB
102
{ACAD_REACTORS
330
168FA
102
}
330
168FA
100
AcDbXrecord
280
     1
102
SHADEPLOT
 70
     0
102
SHADEPLOTRESLEVEL
 70
     2
102
SHADEPLOTCUSTOMDPI
 70
   300
  0
XRECORD
  5
168FD
102
{ACAD_REACTORS
330
168FC
102
}
330
168FC
100
AcDbXrecord
280
     1
102
SHADEPLOT
 70
     0
102
SHADEPLOTRESLEVEL
 70
     2
102
SHADEPLOTCUSTOMDPI
 70
   300
  0
XRECORD
  5
168F8
102
{ACAD_REACTORS
330
168F7
102
}
330
168F7
100
AcDbXrecord
280
     1
102
SHADEPLOT
 70
     0
102
SHADEPLOTRESLEVEL
 70
     2
102
SHADEPLOTCUSTOMDPI
 70
   300
  0
XRECORD
  5
168FF
102
{ACAD_REACTORS
330
1F9
102
}
330
1F9
100
AcDbXrecord
280
     1
102
MATERIAL
148
0.0
149
0.0
149
0.0
 93
        0
 94
       63
282
     0
 72
     1
 77
     1
171
     1
175
     1
179
     1
273
     0
  0
XRECORD
  5
1FA
102
{ACAD_REACTORS
330
1F9
102
}
330
1F9
100
AcDbXrecord
280
     1
 70
     1
 90
429727718
  1
D62C5603-E3A1-4AEA-B7FB-FE5D8D0755AF
310
504B03040A0000080000CC70623B3DEE336E79000000790000001B0000006175746F6465736B2D64657369676E2D7061636B6167652E786D6C3C3F786D6C2076657273696F6E3D22312E302220656E636F64696E673D227574662D3822203F3E3C666F726D6174733E3C666F726D61743E687474703A2F2F736368656D612E
310
6175746F6465736B2E636F6D2F64657369676E2D7061636B6167652F323030393C2F666F726D61743E3C2F666F726D6174733E504B0304140006080800CC70623BD486FD9CA0000000F4000000130000005B436F6E74656E745F54797065735D2E786D6C7D8EC10E82300C865F65E91D8A1E8C310C0EEA1BF002731658846E
310
D98AC1B77784ABF1D8FE5FBFBF75BBCE937A534CCEB38643598122B6FEE978D0B0485F9C41B54DDD7D022595594E1A469170414C76A4D9A4D207E29CF43ECE46F218070CC6BECC4078ACAA135ACF422C856C0E68EA1BF5669944DDD7BCDE7B1F8E415D77AECB980613C2E4AC91FC167A2B244592486606FC29C8FD7F045B9A
310
EF7053A7E60B504B0304140006080800CC70623B853B8169EB0000007C01000008000000636F72652E786D6C8D90416EC3201045AF62CDB6C206821CC7C244919D9CA01740401C94182C03558F5F9C3852BBEB6A467FFE9B197D7EFC9E1EC5975982F5AE035262288C535E5B377690E21535501C055FBC8FBF6C503839990E
310
5619041F179FE64D52DE45E362569DD7661365082642A11EB9E920A89B99642953CC8E702F67A9EE7234257977194EC9EAE275C4EABCCF5EAD5940D4AC6F0E35A568B8F43562CD7046CD199FD07E60174276A7BE677B5EADB0E0D14EEFFB6A31321A0D82627C4084204C3F096B71DD52F6819B16635EADF63F509AF53FA164
310
5DDCD1EDDD17164090FCC8732078B56691CB33A85CD7DCC40F504B0304140006080800CC70623B55019EA25F0000007C00000007000000636E782E786D6C4DCB3B0E80201045D1AD90E915ED2CF8AC45050C11660C8261F98AB1B07AC9C97D42D718D865D3E909258CFD00CCE24AC6E326A164D74DC0B4128928FF32603847
310
2BA13128B1252AC747C6BAB984FC68F0B87FE8960A5C09FE86CFB69FBA01504B0304140006080800CC70623BDBABAAF470010000D40300000C0000006662782F636F72652E786D6CC553D16E823014FD95A6AF4B694182CC941A83FA05FB810A9511A125A5257EFE2E82712ECEB8A7F100CD39F7F69E734AF9FADC366850B6
310
AF8DCE7018308C942E4C59EB2AC3DE1D498AD15A706B8CFB56869196ADCAF00863C12B6B7C374385D14E6907A836A59A41D9F7CA615434B0C8705F7CAA5606D23BA8E84F41278B93AC54100640439DE0BDB320004D43C63716C7C399D30917DCFBBA9CD9BA8469F5B156168B24CED3F7248AC8769F27244EB73B92EED8862C
310
B7F13E0C179B3C8F979C8ECD82BBBABDAA2BAC924E9558448CBD9330242CFA08E3154B5651FCC6D215639C8EE5774DBE2B5F6CF2B5768B68963BB5F5588420E442FC700B1139D4CB01F450C1E918227C2E09DF070D8140C84E1E9AAB8F1340832A9CB13130A5F1376A908D57309505ECF2A0DF179C4E9D30F5B239B87E3823
310
7A79C6F31DE1A8A5AEC08474B03C7837EAE4938639B44E5932B833D2C6B6B279CDC613877FA26EE21F4A2A4C63EC7F29A2F301D1F9F7A0E37D145F504B0304140006080800CC70623B9C113CC27E0000009D0000000B0000006662782F636E782E786D6C4DCCDF0A83201C86E15B91DFB94BFB330DD428C8FB886521330DA7
310
6397BF1A1DECE883878F57749FCDA1B7892F1BBC047A23808C7F84D9FA55424E0BE6803A256208E9EF06C84F9B91703228B1C690F78B66B34CD9A5439DF5CF0BFBF65E35BCA1B8D6A5C6F540381E886698B5741C695F9503EBA150A2F8958E3DC3EA0B504B0304140006080800CC70623B7DF2F77C2A010000120200003100
310
00006662782F41393633353835312D344632462D344230382D423046372D3739314545314133324237412F636F72652E786D6C8D51DB8EC22014FC15C2939B0D2DB4B45643319AE817EC0F6041255A68B86CFCFC856D4D76DF7CE190393373060EDB3DC707F856CE6B6B7A480A0C81328395DA5C7B18C3057510EC3873D686
310
3F34088C18550F330C39BB3A1BA7051AAC09CA84841A2BD5020AEF55806078A44B0FFD7053A328440C89E1EFC52486BBB8AA8214A99D789CF9E05200300FC927E4FB4D5B375D43103D5527440FB843077C5AA3F5861C8F645F5787F59E95B390B318B55CE45AA638FAA2957BD7248B390B7A7CC51F9C124149C82B8C378810
310
84AB2F42B7B8DD56F413775B8C5999E9FF4471926F8AA236A1AE96B8B3CC434E5839373893369E1FAF30EA395917409EB7F26AF8801C171837A4A6AC9C89E9F9C9B1A58BA30FD6A5EF5DDDCF894B9AD9B6A59C957943A9FCAE2FD5BC4DFE03504B0304140006080800CC70623BAD7543B64E01000033030000300000006662
310
782F41393633353835312D344632462D344230382D423046372D3739314545314133324237412F636E782E786D6CD593CD6EC32010845F0571AD6CE3D48AD20813A9873E410FBD12D82434182C7EAAE6EDBB2424CD25871E7B41D6EC30B3FA84F9E67BB2E40B4234DE8DB46F1925E094D7C6ED479AD3AE5951B2113C789FEE
310
6C943839C1488B4C05DF079FE72A69D8C96C13AAD6B8631503449F83828872B949AC57D26200B826A308D316B4064D6E46FCDA41C05550DC9E483A00797BFD207EFB092A45DE9514C1BBD22178396BD39D891265658C238DEA00936C654E5E433CB65A26D9F6EDB5EBC14EBF49A45CB856E66048291F6939A9A81BB5C89177
310
38143CA680F4AA299D66A042CEB3354A2684DC9D8D178FE0D9B8B41CAAD720F880EE7EF93C0C18769E099ECC04D5A102C8049A8A05632F4DDF376CF1DE0F6BB65C2F8627B65A33C6BB62177CEBBDAD973006829F89F22E814B54F4BC2BE347F8AA8F681390B50FA73F804400B5F542E796F19FF974E7F78DB802FE05E20750
310
4B0304140006080800CC70623BE75B7789680500003C100000340000006662782F41393633353835312D344632462D344230382D423046372D3739314545314133324237412F6F626A656374732E786D6CAD575B8F9B3818FD2B887D06C22499CB8AA1CA655245D5B455A356FB305264C061D8018C6C3393D95FBFC7600890
310
A4CD5EF210B0B1BFEBF98E3F7B1FF6596ABC522E1296DF9BAE3D320D9A872C4AF2F8DE2CE5CEBA358D0FBEC719939D65A691938CDE9B6ADAF4BD98B3B2D05311DD91329583D9D5FC0F438434A7A611A644887B5384CF34233629258BA878B12322891DEFF6B66BD70BFB62634E8AE781D082709A4B588AF91C528CDA28B73F
310
1C998EEF39EABBEFA97FBD6A7C7E9553F9D3D79FE442923C3C523610337627CB87ABE99D359D4CC6D6E4FACAB5E6ABF9D2726FC6A3C5F56271377BB88362213924694B38DD99FE47C48627A1E7D49F5A8BB5E1A74C0A599ED3B0F21F1E56366B89112D681E218F0915D0D6F17AD41FBA2A369DCF6335D62ABBD39779D5DDD1
310
11D4D8DE3CBB96B2E04FB8202E41051754A1AA8E8F76B4C6DFE810B580B1547F4B84911149794252234D024EF8BBE963A95AE27B3D310A9D5C215C7960FAEE415ED75694C6AFB17BCACA5D99A60A9AA65F217B0BFC53292ACB92BF283FAD0D3621576592CB5BED907C2FA8E9DF794E35E97BEA31BED21FEB401ABB94C44839
310
DCACBF0E1C5DA8DA5B2F4DFFD32AD86F543D9E565E7056502E157C00AD2671CD534549AB752FCA9CDA00677A313F04E51B22FF19E57B300579E3C97EB29F682D92935CEC18CF901B7B54FD8C51F362B56FC72FE0B3C1EAE335EDCCBF5AEC39ADB17DC238973F804BA5E6F6BFE7AF1FB32E523BE9F3BD571418E3631DCA4D48
310
5250CF639223210A9446CA30052EDF057BD35F8329C1ECD84552BF0DC8D18BE7BCE23BFE6BD960AB4A7DE79923A103BEBD80F911CBAA2C60DB19B01CF164A5583B772EE6D3FFA56666CBCDA74DC97724A48F9A58967497E489C4D979006FD7A05E227A1EBDD0F737C623387A9C844D3709995625106D157315F8B8392CD4E0
310
A0B9A720C4BE9829CEF37EA1E13111214D53925356365ADA634861B52519DD27A00AEB808EAF0628E6F435519D446F45CF2C9CF5214F0A15B2F6D06B79DA3EE3CBF7F56780D2F4E7EF73A0F5E5B02A38D07DC852C6B7C1FBB6664213E0C39E3EBA7FF4E1AD23EA2829407C85E586727488B751B2DB9502BC7B228A3FD68B6E
310
A65A22397E690AA8D158D7E404EC8CDA235CC3B7D1898680131CEC2CDF2638C65196279577750F15884AEE19F94199155B92B13297978469D4F8D358DF0AEF7631E28DC8F0D9F437D5D39A83B2231A1D52D543813A824EF8D44BCFF2FA6A31BD1E8DAD87F1CCB526B3879935BF59CDADD5C37479BB1CDD4CA7B3556B516589
310
EF352754B706114D9C885EC9131DE6EFEB43D99AFE2391C2F958179413D7CFEF6B1B6DB1E7600F00DE6E5C67454A339A4BA2E0FBA85ED26F045D454F463DBFCE484C2F90F2E5E3666003662ED8F755951A7D1BECD5B30B550B2785C8E7320B7292A4838DDA71BBC863ED7613CAF659337A3354231D4FF4A182A54904C2898C
310
98B28C4AD0CE056CCF332A80986E571EE9DBC305BB5FEB7E509220A58D25CF042D712A806AC0AD0C657FDEF80D2D9CEAA2EE4D1C76F60BFE74219A06527D6F82DF6412526107381E55E353090704D085B52408A8913C4ED159D79BDA71BB4BC506F4831350EB6F975CD22D69BF7AC49B91A2C0A9DDA3D5CA36AD20FC478E37
310
E61844E2352865EBCB61A275A65283CAAA9DD27703B4102F5AF51EF5F573B75CBB5AD38BC845F7A49F82A0966A49C2E3EA5EA0ECD326CD965F1DB402C6FA8B51A4658C5C5E2EC9E214602E55810345408596591009A82E7E7FFACA19EEA299B14A0081A705CB3296EBC14CDF658DCD336EA6D1136881AAEB87B81AB9EE53D5
310
F5EB8BC8362082DA24122F98680A4E7930C01A0079749CEA14382A0783E5EBA5A10F8C098456A03D6A4AEB6BB881E2513747552A5DB22C7EDAF83BD5528081A365F7FF06504B0304140006080000CC70623B000000000000000000000000350000006662782F41393633353835312D344632462D344230382D423046372D37
310
39314545314133324237412F76657274696365732E62696E504B0304140006080800CC70623BF270F1330600000004000000360000006662782F41393633353835312D344632462D344230382D423046372D3739314545314133324237412F747269616E676C65732E62696E636660600000504B0304140006080000CC7062
310
3B000000000000000000000000370000006662782F41393633353835312D344632462D344230382D423046372D3739314545314133324237412F617474726962757465732E62696E504B0304140006080800CC70623B08DA0BD19000000041010000360000006662782F41393633353835312D344632462D344230382D4230
310
46372D3739314545314133324237412F6469726563746F72792E786D6C858F410AC3201045AF22B36F53E9A60B35CBEEBAE80D244E44489C6234F4F835464A48035D0DF398FF9F8AF63D0E6CC63039F212F8F9020C7D47C6792B21C5FE7403D62A1188E2E60C98D7234A5830286103A55745067B9D86B8A3CF9C7F90C11DE6
310
07FB144396D7B6A82D282E9A152AD114D5EF2CB866EEE831B8EEA07A7BB5A8D7D61A2BAAEB7FD5F70921FF497D00504B0304140006080800CC70623BEDD1DC58FD000000A00100003B0000006662782F41393633353835312D344632462D344230382D423046372D3739314545314133324237412F7265736F75726365732F
310
636F72652E786D6C8D504B6E833010BD0A9A6D65B00922041947112427E8052C33A156828DFCA97AFC9A40A576D7CDCCE87D344F8F9FBFE667F689CE6B6B3A6039850C8DB2A336530731DC4903D95970676DF82583CCC8193B5861107C72362E3BA4AC096842428D1D7107A5F7182053CF7474E0D507CE32973124857FE48B
310
540F3961CEF244279DE03EB81420DB9EAC1384436FA353E879B1B182C7A8C75DA3C7F453DF353A1075D537A7BA6464B8F535A99AE14A9A2BBD90E350DD183B5CFABE3AF262350B1EF4FC9351399401471025A527C218A1E53BAB5A5AB765F5469B96525EACF23FA6B88CFF34456DC2A1DCE36E360F82A5202F42F062ED2BAD
310
579969AFDD8A6F504B010214000A0000080000CC70623B3DEE336E79000000790000001B00000000000000000000000000000000006175746F6465736B2D64657369676E2D7061636B6167652E786D6C504B01021400140006080800CC70623BD486FD9CA0000000F40000001300000000000000000000000000B20000005B
310
436F6E74656E745F54797065735D2E786D6C504B01021400140006080800CC70623B853B8169EB0000007C010000080000000000000000000000000083010000636F72652E786D6C504B01021400140006080800CC70623B55019EA25F0000007C000000070000000000000000000000000094020000636E782E786D6C504B
310
01021400140006080800CC70623BDBABAAF470010000D40300000C00000000000000000000000000180300006662782F636F72652E786D6C504B01021400140006080800CC70623B9C113CC27E0000009D0000000B00000000000000000000000000B20400006662782F636E782E786D6C504B01021400140006080800CC70
310
623B7DF2F77C2A010000120200003100000000000000000000000000590500006662782F41393633353835312D344632462D344230382D423046372D3739314545314133324237412F636F72652E786D6C504B01021400140006080800CC70623BAD7543B64E010000330300003000000000000000000000000000D2060000
310
6662782F41393633353835312D344632462D344230382D423046372D3739314545314133324237412F636E782E786D6C504B01021400140006080800CC70623BE75B7789680500003C10000034000000000000000000000000006E0800006662782F41393633353835312D344632462D344230382D423046372D3739314545
310
314133324237412F6F626A656374732E786D6C504B01021400140006080000CC70623B0000000000000000000000003500000000000000000000000000280E00006662782F41393633353835312D344632462D344230382D423046372D3739314545314133324237412F76657274696365732E62696E504B01021400140006
310
080800CC70623BF270F133060000000400000036000000000000000000000000007B0E00006662782F41393633353835312D344632462D344230382D423046372D3739314545314133324237412F747269616E676C65732E62696E504B01021400140006080000CC70623B0000000000000000000000003700000000000000
310
000000000000D50E00006662782F41393633353835312D344632462D344230382D423046372D3739314545314133324237412F617474726962757465732E62696E504B01021400140006080800CC70623B08DA0BD1900000004101000036000000000000000000000000002A0F00006662782F41393633353835312D344632
310
462D344230382D423046372D3739314545314133324237412F6469726563746F72792E786D6C504B01021400140006080800CC70623BEDD1DC58FD000000A00100003B000000000000000000000000000E1000006662782F41393633353835312D344632462D344230382D423046372D3739314545314133324237412F7265
310
736F75726365732F636F72652E786D6C504B0506000000000E000E0080040000641100000000
  0
XRECORD
  5
168FE
102
{ACAD_REACTORS
330
1F7
102
}
330
1F7
100
AcDbXrecord
280
     1
102
MATERIAL
148
0.0
149
0.0
149
0.0
 93
        0
 94
       63
282
     0
 72
     1
 77
     1
171
     1
175
     1
179
     1
273
     0
  0
XRECORD
  5
1F8
102
{ACAD_REACTORS
330
1F7
102
}
330
1F7
100
AcDbXrecord
280
     1
 70
     1
 90
429727718
  1
30362254-06B7-45E0-A893-8CFA70E3D6BC
310
504B03040A0000080000CC70623B3DEE336E79000000790000001B0000006175746F6465736B2D64657369676E2D7061636B6167652E786D6C3C3F786D6C2076657273696F6E3D22312E302220656E636F64696E673D227574662D3822203F3E3C666F726D6174733E3C666F726D61743E687474703A2F2F736368656D612E
310
6175746F6465736B2E636F6D2F64657369676E2D7061636B6167652F323030393C2F666F726D61743E3C2F666F726D6174733E504B0304140006080800CC70623BD486FD9CA0000000F4000000130000005B436F6E74656E745F54797065735D2E786D6C7D8EC10E82300C865F65E91D8A1E8C310C0EEA1BF002731658846E
310
D98AC1B77784ABF1D8FE5FBFBF75BBCE937A534CCEB38643598122B6FEE978D0B0485F9C41B54DDD7D022595594E1A469170414C76A4D9A4D207E29CF43ECE46F218070CC6BECC4078ACAA135ACF422C856C0E68EA1BF5669944DDD7BCDE7B1F8E415D77AECB980613C2E4AC91FC167A2B244592486606FC29C8FD7F045B9A
310
EF7053A7E60B504B0304140006080800CC70623B1EC5D7A3EB0000007C01000008000000636F72652E786D6C8D90416EC3201045AF82665B6103C6756C6122AB4D4ED00B204C5C94182C03558F5F9C3852BBEB6A467FFE9B197D71FC9E6FE8CBACC17AD7032D0820E3B41FAD9B7A48F1820F808E52ACDEC75F36404ECDA687
310
4D0629A6D5A76597B477D1B89855E747B38B2A041301E95B6E7A08FAD3CCAA50296647B8168BD2573599823EBB0CA76447F43862C7BCCF5EAC59410E4DDD9C7973C2755553CCCFA4C603E3040F1565ED3B1FDE4E432BCA0D9622DAF9795FAF464533826484B498524CD807E51D79ED187F21878E10516EF63F505AC67F42C9
310
BA58B1FDDD071640D2FCC87D2045B96591CB3DA85CB7DCE40F504B0304140006080800CC70623B55019EA25F0000007C00000007000000636E782E786D6C4DCB3B0E80201045D1AD90E915ED2CF8AC45050C11660C8261F98AB1B07AC9C97D42D718D865D3E909258CFD00CCE24AC6E326A164D74DC0B4128928FF32603847
310
2BA13128B1252AC747C6BAB984FC68F0B87FE8960A5C09FE86CFB69FBA01504B0304140006080800CC70623B8C9102E971010000D40300000C0000006662782F636F72652E786D6CC5535B6E833010BC8AE5DF0A6C08340F1947A84D4ED00B38C6A128602363A31CBFCB234A53A551FA553EC09AD9F5CE8C31DB9E9B1AF5CA
310
7695D1198E428A91D2D214952E33ECDD315861B4E5CC1AE3BE9561A445A3323CC098B3D21ADFCE9034DA29ED00D5A6503328BA4E398C640D8B0C77F253352214DE4145770A5B214FA2546114020D759C75CE8200340D19DE981F0F6746269C33EFAB6266AB02A655C74A59CCF365BADC27CB5D902ED22848F6340DF238A141
310
BE88E2F57B92BFEDF23523433367AE6A2EEAA455C2A902F398D2751045018D3FA264435F3771F242571B4A1919CA6F9A7C5B3CD9E42BED16F12C776AEB308F40C848FC700B1139D4891EF410CEC810227CC6846F8386402064270EF5C5C709A05E49676C024C61FC95EA45ED154CA5211D1FF4FB8291A913A68E9B83EBBB33
310
E2A7673CDE118E5AE8124C0807CB8377834E366998436B950D7A7746DAD846D4CFD978E0F04FD455FC5D49D2D4C6FE9722321F10997F0F32DC47FE05504B0304140006080800CC70623BFFEA85907E0000009D0000000B0000006662782F636E782E786D6C4DCCD10A83201886E15B91FFDC95D95A811AB6F23E625948A6C3
310
E9D8E5AF46073BFAE0E1E365ED67B3E8ADC3CB78C7815C7240DA3DFC64DCC221C519D7805AC182F7F1EF06C88D9BE6703008B6049F9E274D7A1E938DBB5AE3D6131B2589BA0D3D965551E0B2EA732C9B9A624AAEB41E3A557677029960D9AFB4EF11165F504B0304140006080800CC70623B4FEEA4082C0100001202000031
310
0000006662782F39464131463745442D413632322D343644302D413938332D3331353338454246344243312F636F72652E786D6C8D515B6EC32010BC0AE2AB55850DD871ED0813254D72825EC00192A2C460F1A872FC42ED48ED5F7E00CDCECCCEB26C731F6FE05B39AFADE921293004CA082BB5B9F43086336A21D870E6AC
310
0D7F68109861543DCC30E4ECE26C9C164858139409093556AA051CBC570102714B8F1E7AF1A5C6A11862480C7F2DA6415C878B2A4891CA89C7990F2E050073937C42DE1DB7E4F87ED8A36D4329AA9B3D46DBAEAD504556557BD81DEBDD0761E52CE42C462D17B996298E3E6BE59E35C962CE821E1FF18553435012728A7187
310
0841987E927A8D9B35ADDF70BBC6989599FE4F1427F9A4286A132ABAC49D651EF234CD5CE04CDA78BA3DC2A8FB645D00B9DF8B57E215725C60BCA2A463E54C4CE327C7A65E1C7DB02E7DEFCBF594B864C5CA6CDBD49C957943E9FA5D5FBAF336F90F504B0304140006080800CC70623BAD7543B64E01000033030000300000
310
006662782F39464131463745442D413632322D343644302D413938332D3331353338454246344243312F636E782E786D6CD593CD6EC32010845F0571AD6CE3D48AD20813A9873E410FBD12D82434182C7EAAE6EDBB2424CD25871E7B41D6EC30B3FA84F9E67BB2E40B4234DE8DB46F1925E094D7C6ED479AD3AE5951B2113C
310
789FEE6C943839C1488B4C05DF079FE72A69D8C96C13AAD6B8631503449F83828872B949AC57D26200B826A308D316B4064D6E46FCDA41C05550DC9E483A00797BFD207EFB092A45DE9514C1BBD22178396BD39D891265658C238DEA00936C654E5E433CB65A26D9F6EDB5EBC14EBF49A45CB856E66048291F6939A9A81BB5
310
C8917738143CA680F4AA299D66A042CEB3354A2684DC9D8D178FE0D9B8B41CAAD720F880EE7EF93C0C18769E099ECC04D5A102C8049A8A05632F4DDF376CF1DE0F6BB65C2F8627B65A33C6BB62177CEBBDAD973006829F89F22E814B54F4BC2BE347F8AA8F681390B50FA73F804400B5F542E796F19FF974E7F78DB802FE05
310
E207504B0304140006080800CC70623B16AB87BA640500003C100000340000006662782F39464131463745442D413632322D343644302D413938332D3331353338454246344243312F6F626A656374732E786D6CAD575B6FA33818FD2B887DE6924B3BED8A326A92B68A663B534DD4D13E548A0C38942D60649B369D5FBFC7
310
600890A493BDE42160637FD7F31D7FF63E6FB3D478A55C242CBF3247B66B1A340F5994E4F19559CA8D75611A9F7D8F33263BCB4C232719BD32D5B4E97B316765A1A722BA21652A07B3B7B33F0D11D29C9A46981221AE4C113ED38CD8A4942CA2E2C58E882476BCD9DA23BB5ED8171B73523C0F841684D35CC252CCE79062D4
310
468DFA43D7747CCF51DF7D4FFDEB5593E3AB9CCA9FBEFE241792E4E19EB28198C968BAB8199F5D5A67D3E9C49A9E8F47D6EC76B6B0469F26EEFC7C3EBFBCBEB98462213924694B38DD98FE1D62C393D073EA4FADC5DAF04326852CCF6958F90F0F2B9BB5C48816348F90C7840A68EB78EDF68723159BCEE7891A6B95DDE9D3
310
BCEAEEE8086A6C6F9E5D4B59F0175C10A7A0820BAA5055C7473B5AE3CFDD452D602CD5DF12616444529E90D448938013FE6EFA58AA96F85E4F8C42275708571E98FE6827AF6B2B4AE3D7D83D64E5A64C53054DD3AF90BD06FEA9149565C94FCA0F6B834DC85599E4F2423B24DF0B6AFA979E534DFA9E7A4CC6FA631D486393
310
921829879BF5D781A373557BCB85E97FB90DB62B558F8795179C15944B051F40AB495CF35451D26A4727654E6D8033BD98EF82F21D91FF8AF2DD9982BCF1643BDD4EB516C9492E368C67C88DED563FC36D5EACF66DFF057C3658BDBFA69DF9578B3DA735B64F18C7F20770A9D45CFCF7FCF563D6456A277DBEF78A02637CA2
310
43B90A490AEAB94F72244481D24819A6C0E59B606BFA4B3025981DBB48EAB701D97BF19C577CC77F2D1B6C55A9EF3C732474C0B727303F625995056C3B02963D9EAC146BE78EC5FCEC7FA999EBC5EACBAAE41B12D27B4D2C0BBA49F244E2ECDC81B76B502F113D8F5EE8FB1BE3111CDD4FC2AA9B844CAB1288B68AB90A7CDC
310
1C166AB0D3DC5310625FCC14E779BFD0709F8890A629C9292B1B2DED31A4B0DA928CEE135085754027E3018A397D4D5427D15BD1330B677DC8934285AC3DF45A9EB68FF8F2B8FC0A509AFEECFD0FF2DE25CC6047F7214B195F07EFEB9A094D800F7BFAE8FED187B78EA8A3A400F115961BCAD1215E47C966530AF0EE8128FE
310
58CEBB996A8964FFA529A046635D9353B0336A8F700DDF46271A024E70B0B37C9DE01847591E54DED53D54202AB947E4076556AC49C6CA5C9E1226B7F1A7B1BE15DEED62C41B91E1B3E9AFAAA735036547343A925075041DF0A9979E893B391F8FCFA6967B3EFB644DCF6E5CEBFAE272625DCC6FAF3FB93793C5F90CE1EF57
310
407342756B10D1C489E8953CD1617E5CEECAD6F4EF8914CE5D5D504E5C3F1F9736DA62CFC11E00BCDDB8CC8A9466349744C1F75EBDA4DF09BA8A9E8C7A7E9991989E20E5DBDD6A6003664ED8F7A04A8DBE0DF6EAD9B9AA858342E47399053949D2C146EDB85DE4B176BB0965FBAC19BD19AA918E27FA50C1D22402E144464C
310
59462568E704B6E71915404CB72B8FF4EDE184DDAF753F284990D2C6926782963815403548A70C657FDEF80D2D9CEAA2AE4C1C76F60BFE74219A06527D6582DF6412526107381E55E353090704D085B52408D0933C4ED159D79BDA71BB4BC506F4831350EB6F979CD22D69BF7AC49B91A2C0A9DDA3D5CA36AD20FC478E37E6
310
1844E2352865EBCB6EA275A652E3836BE04EFB400BF1A2556F515F1FBB35B2AB35BD889C744FFA1004B5544B121E57F70215746DD2F5E2C1412B602CBF19455AC6C8E5E9922C4E01E65215385004546899059180EAFCF7A707CE7017CD8CDB0410789AB32C63B91E5CEBBBACB17AC6CD347A022D5075FD106377347AAABA7E
310
7D11590744509B44E205134DC1290F06580320F78E537D3D73540E06CB970B431F185308AD40BBD794D6D77003C5A36E8EAA54BA64597CD8F83BD552A080A365F7FF06504B0304140006080000CC70623B000000000000000000000000350000006662782F39464131463745442D413632322D343644302D413938332D3331
310
353338454246344243312F76657274696365732E62696E504B0304140006080800CC70623BF270F1330600000004000000360000006662782F39464131463745442D413632322D343644302D413938332D3331353338454246344243312F747269616E676C65732E62696E636660600000504B0304140006080000CC70623B
310
000000000000000000000000370000006662782F39464131463745442D413632322D343644302D413938332D3331353338454246344243312F617474726962757465732E62696E504B0304140006080800CC70623B08DA0BD19000000041010000360000006662782F39464131463745442D413632322D343644302D413938
310
332D3331353338454246344243312F6469726563746F72792E786D6C858F410AC3201045AF22B36F53E9A60B35CBEEBAE80D244E44489C6234F4F835464A48035D0DF398FF9F8AF63D0E6CC63039F212F8F9020C7D47C6792B21C5FE7403D62A1188E2E60C98D7234A5830286103A55745067B9D86B8A3CF9C7F90C11DE607
310
FB144396D7B6A82D282E9A152AD114D5EF2CB866EEE831B8EEA07A7BB5A8D7D61A2BAAEB7FD5F70921FF497D00504B0304140006080800CC70623B0D6EF93BFE000000A00100003B0000006662782F39464131463745442D413632322D343644302D413938332D3331353338454246344243312F7265736F75726365732F63
310
6F72652E786D6C8D50596E833010BD0A9ADFCA60B334011947A8694ED00B586642AC041B79A97AFC9A40A5F6AF3F33A3B7689E1E3F7DCD8FEC139DD7D6F4C0720A191A65476DA61E62B892236427C19DB5E1970C322367EC618541F0C9D9B8EC90B226A009093576C41D94DE63804C3DD2D18357379C652E63480A7FCF17A9
310
EE72C29CE5894E3AC17D702940B63D59270887DE46A7D0F36263058F518FBB468FE9A7BE6A7420864373B8D4873369AA8691FA421B3294352543C5CAF65C0F6FEF43CB8BD52C78D0F34F46E550061C419494B6843142CB0F5677F4B52BEB177AEC28E5C52AFF638ACBF84F53D42654E51E77B379102C05791282176B5F693D
310
CB4C7BED567C03504B010214000A0000080000CC70623B3DEE336E79000000790000001B00000000000000000000000000000000006175746F6465736B2D64657369676E2D7061636B6167652E786D6C504B01021400140006080800CC70623BD486FD9CA0000000F40000001300000000000000000000000000B20000005B
310
436F6E74656E745F54797065735D2E786D6C504B01021400140006080800CC70623B1EC5D7A3EB0000007C010000080000000000000000000000000083010000636F72652E786D6C504B01021400140006080800CC70623B55019EA25F0000007C000000070000000000000000000000000094020000636E782E786D6C504B
310
01021400140006080800CC70623B8C9102E971010000D40300000C00000000000000000000000000180300006662782F636F72652E786D6C504B01021400140006080800CC70623BFFEA85907E0000009D0000000B00000000000000000000000000B30400006662782F636E782E786D6C504B01021400140006080800CC70
310
623B4FEEA4082C0100001202000031000000000000000000000000005A0500006662782F39464131463745442D413632322D343644302D413938332D3331353338454246344243312F636F72652E786D6C504B01021400140006080800CC70623BAD7543B64E010000330300003000000000000000000000000000D5060000
310
6662782F39464131463745442D413632322D343644302D413938332D3331353338454246344243312F636E782E786D6C504B01021400140006080800CC70623B16AB87BA640500003C1000003400000000000000000000000000710800006662782F39464131463745442D413632322D343644302D413938332D3331353338
310
454246344243312F6F626A656374732E786D6C504B01021400140006080000CC70623B0000000000000000000000003500000000000000000000000000270E00006662782F39464131463745442D413632322D343644302D413938332D3331353338454246344243312F76657274696365732E62696E504B01021400140006
310
080800CC70623BF270F133060000000400000036000000000000000000000000007A0E00006662782F39464131463745442D413632322D343644302D413938332D3331353338454246344243312F747269616E676C65732E62696E504B01021400140006080000CC70623B0000000000000000000000003700000000000000
310
000000000000D40E00006662782F39464131463745442D413632322D343644302D413938332D3331353338454246344243312F617474726962757465732E62696E504B01021400140006080800CC70623B08DA0BD190000000410100003600000000000000000000000000290F00006662782F39464131463745442D413632
310
322D343644302D413938332D3331353338454246344243312F6469726563746F72792E786D6C504B01021400140006080800CC70623B0D6EF93BFE000000A00100003B000000000000000000000000000D1000006662782F39464131463745442D413632322D343644302D413938332D3331353338454246344243312F7265
310
736F75726365732F636F72652E786D6C504B0506000000000E000E0080040000641100000000
  0
XRECORD
  5
16900
102
{ACAD_REACTORS
330
173
102
}
330
173
100
AcDbXrecord
280
     1
102
MATERIAL
148
0.0
149
0.0
149
0.0
 93
        0
 94
       63
282
     0
 72
     1
 77
     1
171
     1
175
     1
179
     1
273
     0
  0
XRECORD
  5
175
102
{ACAD_REACTORS
330
173
102
}
330
173
100
AcDbXrecord
280
     1
270
     1
271
     1
  0
XRECORD
  5
174
102
{ACAD_REACTORS
330
173
102
}
330
173
100
AcDbXrecord
280
     1
270
     1
271
     1
  0
XRECORD
  5
1FB
102
{ACAD_REACTORS
330
173
102
}
330
173
100
AcDbXrecord
280
     1
 70
     0
 90
1673772943
  1
ECE7A1D2-D628-4531-984C-D00F80459256
310
504B03040A0000080000CC70623B3DEE336E79000000790000001B0000006175746F6465736B2D64657369676E2D7061636B6167652E786D6C3C3F786D6C2076657273696F6E3D22312E302220656E636F64696E673D227574662D3822203F3E3C666F726D6174733E3C666F726D61743E687474703A2F2F736368656D612E
310
6175746F6465736B2E636F6D2F64657369676E2D7061636B6167652F323030393C2F666F726D61743E3C2F666F726D6174733E504B0304140006080800CC70623BD486FD9CA0000000F4000000130000005B436F6E74656E745F54797065735D2E786D6C7D8EC10E82300C865F65E91D8A1E8C310C0EEA1BF002731658846E
310
D98AC1B77784ABF1D8FE5FBFBF75BBCE937A534CCEB38643598122B6FEE978D0B0485F9C41B54DDD7D022595594E1A469170414C76A4D9A4D207E29CF43ECE46F218070CC6BECC4078ACAA135ACF422C856C0E68EA1BF5669944DDD7BCDE7B1F8E415D77AECB980613C2E4AC91FC167A2B244592486606FC29C8FD7F045B9A
310
EF7053A7E60B504B0304140006080800CC70623BD9DDAED0EC0000007C01000008000000636F72652E786D6C8D90416EC3201045AF82665B61836D9CD8C2444DD39CA01740405C94182C03558F5F9C3852BBEB6A467FFE9B197D7EF89E6EE8CB2CC17A37002D0820E394D7D68D03A478C17B4007C117EFE32F1B20272733C0
310
2A83E0E3E2D3BC49CABB685CCCAAF3DA6CA20CC14440EA969B0182FA34932C648AD911AEC52CD5558EA6A0CF2EC329598D1E47ACCEFBECC59A050463A7EA5833865FEBDD0E37353BE3EE8DBDE3F6786A48D375FBF6CC78B9C282473B3DEFABC5C86834888A900E538A49F5419B9EB47DD5BC907D4F082F57FB1F28CDFA9F50
310
B22ED6D5F6EE030B20687EE43E10BC5CB3C8E51E54AE6B6EE207504B0304140006080800CC70623B55019EA25F0000007C00000007000000636E782E786D6C4DCB3B0E80201045D1AD90E915ED2CF8AC45050C11660C8261F98AB1B07AC9C97D42D718D865D3E909258CFD00CCE24AC6E326A164D74DC0B4128928FF326038
310
472BA13128B1252AC747C6BAB984FC68F0B87FE8960A5C09FE86CFB69FBA01504B0304140006080800CC70623BA24EB22D72010000D40300000C0000006662782F636F72652E786D6CC5535B6E833010BC8AE5DF0A6C5E49888CA3A6694ED00B38E05014B091B1518EDFE511A5A9D228FD2A1F60CDEC7A67C6986DCE4D8D7A
310
69BA4AAB0C073EC548AA5C17952A33ECECD15B61B4E1CC686DBF9561A44423333CC098B3D268D7CE50AE9595CA02AA74216750749DB418E5352C32DCE59FB211BE70162ABA93DF8AFC244AE9073ED050C759670D0840D390E18DF9F1706664C23973AE2A66B62A605A75ACA4C13C4976E1364A12EF355A2EBD384AF65EFA96
310
BC7B8BED2EA6719AAE16FB8491A199335B351775B991C2CA02F390D2D40B028F861F41BCA68B7518BFD0D59A524686F29B26D7164F36B94AD9289CE54E6D1DE6010819891F6E21228B3AD1831EC219194284CF98F06DD01008846CC5A1BEF83801D4CBDC6A1303536877A57A513B0953A94FC707FDBE6064EA84A9E3E6E0FA
310
EE8CF0E9198F7784A316AA0413C2C2F2E0ECA0934D1AE6D05A69BCDE9E91D2A611F573361E38FC1375157F5752AE6B6DFE4B11990F88CCBF0719EE23FF02504B0304140006080800CC70623B408A7D3B7C0000009D0000000B0000006662782F636E782E786D6C4DCCD10A83201886E15B91FFDC552A92A0064DBC8F581632
310
D3703A76F9ABD1C18E3E78F878E5F0D9027ABBFCF2292AE86E2D20171F69F6715550CB827B40839639A5F2770314A7CD293819B45C73AAFB45B35BA61ACAA1C1C7E7855C58C15BC331339661262CC762340413D68D77DA5B42298546CBE6573AF60CEB2F504B0304140006080800CC70623B449FB9BD290100001202000031
310
0000006662782F36394639363044362D344446342D343946362D394244322D3234314243333846323333332F636F72652E786D6C8D515B6EC32010BC0AE22B55850D98B871848994463E412FE002495162B07854397EA176A4F62F3F2C9A9D991D587EB84F37F0AD7D30CEF6905418026DA553C65E7A98E219ED203808EE9D
310
8B7F6810D871D23D2C3014FCE25D9A57483A1BB58D19B54EE9151C43D0110279CB971E06F9A5A7B11A53CC8C70ADE6515EC78BAE4895DB992778883E0700CB907242D17643D7E2538BD869608875438BBAE38922CAC8F1BDD90DB4691A5E2F42C153326A951B95E398B3D1FE599322163C9AE9115F7A3D46ADA0A018778810
310
84E907617BDCEE297BC5BB3DC6BC2EF47FA234AB2745C9D8D8D035EE220B50105E2F0DC1954B9FB747187D9F9D8FA0CCDB042D5FA0C015C65B42DF78BD10F3F3B363CB56C7109DCFDFBBB97E662ED92EB62D13BC2E1BCAE5777DB9966D8A1F504B0304140006080800CC70623BAD7543B64E01000033030000300000006662
310
782F36394639363044362D344446342D343946362D394244322D3234314243333846323333332F636E782E786D6CD593CD6EC32010845F0571AD6CE3D48AD20813A9873E410FBD12D82434182C7EAAE6EDBB2424CD25871E7B41D6EC30B3FA84F9E67BB2E40B4234DE8DB46F1925E094D7C6ED479AD3AE5951B2113C789FEE
310
6C943839C1488B4C05DF079FE72A69D8C96C13AAD6B8631503449F83828872B949AC57D26200B826A308D316B4064D6E46FCDA41C05550DC9E483A00797BFD207EFB092A45DE9514C1BBD22178396BD39D891265658C238DEA00936C654E5E433CB65A26D9F6EDB5EBC14EBF49A45CB856E66048291F6939A9A81BB5C89177
310
38143CA680F4AA299D66A042CEB3354A2684DC9D8D178FE0D9B8B41CAAD720F880EE7EF93C0C18769E099ECC04D5A102C8049A8A05632F4DDF376CF1DE0F6BB65C2F8627B65A33C6BB62177CEBBDAD973006829F89F22E814B54F4BC2BE347F8AA8F681390B50FA73F804400B5F542E796F19FF974E7F78DB802FE05E20750
310
4B0304140006080800CC70623B8D05915C650500003B100000340000006662782F36394639363044362D344446342D343946362D394244322D3234314243333846323333332F6F626A656374732E786D6CAD575B6FA33814FE2B887D06429276DA1565D4266D158D3A339A6846FB502932E050B66023DB74D2FDF5FB190C01
310
9276B2973C046C8ECFF53B17071F77456EBD502133CEAE6CDF9DD81665314F32965ED995DA3A17B6F5310C04E7AA47665B8C14F4CAD6DB7618A48257A5D94AE89654B91AEDDEDDFC61C998326A5B714EA4BCB265FC440BE2924AF184CA6737218AB8E976E7FA6E4338649B0A523E8D98964450A6A029F619B8588D52FE7039
310
B1BD30F0F4F730D0FF866AF6369557DB33949F31A9088B0F848DD8CCFCF9F2767A76E99CCDE733677E3EF59D9BBB9BA5E37F984D16E78BC5E5F5ED25044B25C0C96822E8D60EEFE11B91C581D77CEA34368A1F5329E68CD1B8B61F16D63A1B8E092D294B10C78C4A48EB593D192E7DED9BDEE7995E1B91FDEDD3ACEA9FE831
310
6A756F9F7D4D79F4274C90A7A04248AA51D5F8C718DAE06FB2F75AC4796EBE65D22A88A22223B995679120E2D50E41AA49C260C046A35368846B0BECD0DFF3EBEB8AD4F835768F69B9ADF25C43D30E6B646F807FAA64AD59F61715C7A54127C4AACA98BA3006A9D792DAE165E0D59B61A01FB3A9F9D838D2DAE62445C86166
310
F37564E842E7DE6A69879FEEA2DD5AE7E371E1A5E025154AC307D06A03D73EB5978C58FFA4C8E9033066E0F3BD53BEC1F39F91BE7B55103791EDE6BBB991A2046172CB4581D8B893FA674DDA17A77B3B7C413D1B511FD2743BFF8A38F03A658705E3ADF8015C3A3417FF3D7E439FF591DA0B5F18BC20C1B8981957AE6392A3
310
F43C640C01D1A0B4728E2DD4F26DB4B3C3152A252A3B4E913CEC1C72F012782FF88EFF8637AA552DBEF76408E8A8DE9E50F9E1CB3A2DA0DB1B6039A893B56063DC5B3E3FFB5F72E67AB9FEB4AEC496C4F4C1149625DD662C53E89D7BF0F6151A046260D1337DFDC94502430F83B0EE07A130A224BCAD7DAE1D9FB6CD422FF6
310
920702629C4BB9AE79C12F243C6432A6794E18E5552BA56B431AAB5D91317302B2B071E86C3A42B1A02F999E24061403B5D0EB639195DA655DD3EBEAB4FB862DDF579F014AD0E73C22F99E28DA57FB98E75C6CA2D74D53086D600F4786E0FE3144B771A8A7B900F03594DB8A633CBC49B2EDB69228BB479CF863B5E807AAAB
310
23872F6DFEB4129B949CA33823F58830E86D65621E10047D9DB34D862E8EAC3C2ABC2F7B2C40D67CDFE01F5545B92105AF983AC54D93D69E56FB8E797F88913F898A9FEC705D3F9D1B54EC8426FB500D40A03BD0119B06E1B95DDC7EB8F6975367793EBD70E66733DFB9BC982F9CE564727731999F5D4ECFCE3B8D6A4DC2A0
310
6D50FD148437D110834A64C6CDDF57FBACB5C307A2A477DFE4939736CFEF2B175371E0E10CF0DD1D5C15654E0BCA14D1E87DD02FF93782A162C0A3D95F1524A52770F972BF1EE9809D13CE7DD599467F8ECE9ADD85CE85A34CD45355448C64F9E8A031DC2D596ACC6E5DD93D9B82DE2EF5CAF81363A8E47996A0DE24564A79
310
4115AACE09C55E14540231FDA13C319787134EBF34E3A022514E5B4D9E0826E25C02D5805B15ABE1BEF51B26383D445DD9E875EE33FE4C22DA16427D65A3BCA92CA6D28DD01DF5DC53330704308475351050232CCD31583787BA75774AFB06E5070DD0C8EF484E19968C5D83BA5B90B244D31E54D55A372320FE4786B7EA58
310
44E135AA5467CB7EA333A61683CC6A8C3257034C10CF46F40EF9F5BE59BE5BD30C3C72D235E95D10345C1D45445A5F0BB47E46A5EBE5570F9380B5FA629579952296A773720405982B9DE04011506178964401AA8BDF1FBF0A8EAB6861DD6580C0E38217056766716DAEB2D6FA0917D3E4116581EADB879C4E7CFFB11EFACD
310
3D641311495D92C8676CB409A72D18610D803CE8A626049E8EC1887CB5B44CC39883690DDA8399B4B9855B481E7D71D4A9D22F96E5BB73BF5793020C02137BF837504B0304140006080000CC70623B000000000000000000000000350000006662782F36394639363044362D344446342D343946362D394244322D32343142
310
43333846323333332F76657274696365732E62696E504B0304140006080800CC70623BF270F1330600000004000000360000006662782F36394639363044362D344446342D343946362D394244322D3234314243333846323333332F747269616E676C65732E62696E636660600000504B0304140006080000CC70623B0000
310
00000000000000000000370000006662782F36394639363044362D344446342D343946362D394244322D3234314243333846323333332F617474726962757465732E62696E504B0304140006080800CC70623B08DA0BD19000000041010000360000006662782F36394639363044362D344446342D343946362D394244322D
310
3234314243333846323333332F6469726563746F72792E786D6C858F410AC3201045AF22B36F53E9A60B35CBEEBAE80D244E44489C6234F4F835464A48035D0DF398FF9F8AF63D0E6CC63039F212F8F9020C7D47C6792B21C5FE7403D62A1188E2E60C98D7234A5830286103A55745067B9D86B8A3CF9C7F90C11DE607FB14
310
4396D7B6A82D282E9A152AD114D5EF2CB866EEE831B8EEA07A7BB5A8D7D61A2BAAEB7FD5F70921FF497D00504B0304140006080800CC70623BCA768048FE000000A00100003B0000006662782F36394639363044362D344446342D343946362D394244322D3234314243333846323333332F7265736F75726365732F636F72
310
652E786D6C8D50596E833010BD0A9ADFCA60D600328E9AA639412F609909B1126CE4A5EAF16B0295DABFFECC8CDEA2797AECF8353F924FB44E193D409E5248504B332A3D0D10FC95B4901C39B3C6F85F3248B49871801506CE266BC2B243D2688FDA47549B11775038871E12F988C7004EDE7016A9083E2ADC3D5D84BC8B09
310
D33C8D74D471E6BC8D0192EDC93A815B742658898E651BCB59086ADC356A8C3FD555A1055ED7E7E254D615792D0F075295F585746FF53B694EE78A565DD736979A65AB9933AFE69F8CD2A2F038022F28ED489E135A7CE4554F9BBEA85E68DB53CAB255FEC71496F19FA6A0B42F8B3DEE6673C0F318E4497096AD7DC5F52C33
310
EEB55BFE0D504B010214000A0000080000CC70623B3DEE336E79000000790000001B00000000000000000000000000000000006175746F6465736B2D64657369676E2D7061636B6167652E786D6C504B01021400140006080800CC70623BD486FD9CA0000000F40000001300000000000000000000000000B20000005B436F
310
6E74656E745F54797065735D2E786D6C504B01021400140006080800CC70623BD9DDAED0EC0000007C010000080000000000000000000000000083010000636F72652E786D6C504B01021400140006080800CC70623B55019EA25F0000007C000000070000000000000000000000000095020000636E782E786D6C504B0102
310
1400140006080800CC70623BA24EB22D72010000D40300000C00000000000000000000000000190300006662782F636F72652E786D6C504B01021400140006080800CC70623B408A7D3B7C0000009D0000000B00000000000000000000000000B50400006662782F636E782E786D6C504B01021400140006080800CC70623B
310
449FB9BD290100001202000031000000000000000000000000005A0500006662782F36394639363044362D344446342D343946362D394244322D3234314243333846323333332F636F72652E786D6C504B01021400140006080800CC70623BAD7543B64E010000330300003000000000000000000000000000D20600006662
310
782F36394639363044362D344446342D343946362D394244322D3234314243333846323333332F636E782E786D6C504B01021400140006080800CC70623B8D05915C650500003B10000034000000000000000000000000006E0800006662782F36394639363044362D344446342D343946362D394244322D32343142433338
310
46323333332F6F626A656374732E786D6C504B01021400140006080000CC70623B0000000000000000000000003500000000000000000000000000250E00006662782F36394639363044362D344446342D343946362D394244322D3234314243333846323333332F76657274696365732E62696E504B010214001400060808
310
00CC70623BF270F13306000000040000003600000000000000000000000000780E00006662782F36394639363044362D344446342D343946362D394244322D3234314243333846323333332F747269616E676C65732E62696E504B01021400140006080000CC70623B00000000000000000000000037000000000000000000
310
00000000D20E00006662782F36394639363044362D344446342D343946362D394244322D3234314243333846323333332F617474726962757465732E62696E504B01021400140006080800CC70623B08DA0BD190000000410100003600000000000000000000000000270F00006662782F36394639363044362D344446342D
310
343946362D394244322D3234314243333846323333332F6469726563746F72792E786D6C504B01021400140006080800CC70623BCA768048FE000000A00100003B000000000000000000000000000B1000006662782F36394639363044362D344446342D343946362D394244322D3234314243333846323333332F7265736F
310
75726365732F636F72652E786D6C504B0506000000000E000E0080040000621100000000
  0
XRECORD
  5
176
102
{ACAD_REACTORS
330
173
102
}
330
173
100
AcDbXrecord
280
     1
270
     1
271
     1
  0
XRECORD
  5
177
102
{ACAD_REACTORS
330
173
102
}
330
173
100
AcDbXrecord
280
     1
270
     1
271
     1
  0
XRECORD
  5
16922
102
{ACAD_REACTORS
330
16921
102
}
330
16921
100
AcDbXrecord
280
     1
102
ACAD_ROUNDTRIP_2012_MLEADER_STYLE
298
     1
  0
XRECORD
  5
16934
102
{ACAD_REACTORS
330
16933
102
}
330
16933
100
AcDbXrecord
280
     1
102
DISPLAYNAME
  1
Metric50
102
FLAGS
 90
        0
  0
CELLSTYLEMAP
  5
168F4
102
{ACAD_REACTORS
330
162
102
}
330
162
100
AcDbCellStyleMap
 90
        3
300
CELLSTYLE
  1
TABLEFORMAT_BEGIN
 90
        5
170
     1
 91
        0
 92
    32768
 62
   257
 93
        1
300
CONTENTFORMAT
  1
CONTENTFORMAT_BEGIN
 90
        0
 91
        0
 92
      512
 93
        0
300

 40
0.0
140
1.0
 94
        5
 62
     0
340
11
144
6.0
309
CONTENTFORMAT_END
171
     1
301
MARGIN
  1
CELLMARGIN_BEGIN
 40
1.5
 40
1.5
 40
1.5
 40
1.5
 40
4.5
 40
4.5
309
CELLMARGIN_END
 94
        6
 95
        1
302
GRIDFORMAT
  1
GRIDFORMAT_BEGIN
 90
        0
 91
        1
 62
     0
 92
       -2
340
14
 93
        0
 40
1.125
309
GRIDFORMAT_END
 95
        2
302
GRIDFORMAT
  1
GRIDFORMAT_BEGIN
 90
        0
 91
        1
 62
     0
 92
       -2
340
14
 93
        0
 40
1.125
309
GRIDFORMAT_END
 95
        4
302
GRIDFORMAT
  1
GRIDFORMAT_BEGIN
 90
        0
 91
        1
 62
     0
 92
       -2
340
14
 93
        0
 40
1.125
309
GRIDFORMAT_END
 95
        8
302
GRIDFORMAT
  1
GRIDFORMAT_BEGIN
 90
        0
 91
        1
 62
     0
 92
       -2
340
14
 93
        0
 40
1.125
309
GRIDFORMAT_END
 95
       16
302
GRIDFORMAT
  1
GRIDFORMAT_BEGIN
 90
        0
 91
        1
 62
     0
 92
       -2
340
14
 93
        0
 40
1.125
309
GRIDFORMAT_END
 95
       32
302
GRIDFORMAT
  1
GRIDFORMAT_BEGIN
 90
        0
 91
        1
 62
     0
 92
       -2
340
14
 93
        0
 40
1.125
309
GRIDFORMAT_END
309
TABLEFORMAT_END
  1
CELLSTYLE_BEGIN
 90
        1
 91
        1
300
_TITLE
309
CELLSTYLE_END
300
CELLSTYLE
  1
TABLEFORMAT_BEGIN
 90
        5
170
     1
 91
        0
 92
        0
 62
   257
 93
        1
300
CONTENTFORMAT
  1
CONTENTFORMAT_BEGIN
 90
        0
 91
        0
 92
      512
 93
        0
300

 40
0.0
140
1.0
 94
        5
 62
     0
340
11
144
4.5
309
CONTENTFORMAT_END
171
     1
301
MARGIN
  1
CELLMARGIN_BEGIN
 40
1.5
 40
1.5
 40
1.5
 40
1.5
 40
4.5
 40
4.5
309
CELLMARGIN_END
 94
        6
 95
        1
302
GRIDFORMAT
  1
GRIDFORMAT_BEGIN
 90
        0
 91
        1
 62
     0
 92
       -2
340
14
 93
        0
 40
1.125
309
GRIDFORMAT_END
 95
        2
302
GRIDFORMAT
  1
GRIDFORMAT_BEGIN
 90
        0
 91
        1
 62
     0
 92
       -2
340
14
 93
        0
 40
1.125
309
GRIDFORMAT_END
 95
        4
302
GRIDFORMAT
  1
GRIDFORMAT_BEGIN
 90
        0
 91
        1
 62
     0
 92
       -2
340
14
 93
        0
 40
1.125
309
GRIDFORMAT_END
 95
        8
302
GRIDFORMAT
  1
GRIDFORMAT_BEGIN
 90
        0
 91
        1
 62
     0
 92
       -2
340
14
 93
        0
 40
1.125
309
GRIDFORMAT_END
 95
       16
302
GRIDFORMAT
  1
GRIDFORMAT_BEGIN
 90
        0
 91
        1
 62
     0
 92
       -2
340
14
 93
        0
 40
1.125
309
GRIDFORMAT_END
 95
       32
302
GRIDFORMAT
  1
GRIDFORMAT_BEGIN
 90
        0
 91
        1
 62
     0
 92
       -2
340
14
 93
        0
 40
1.125
309
GRIDFORMAT_END
309
TABLEFORMAT_END
  1
CELLSTYLE_BEGIN
 90
        2
 91
        1
300
_HEADER
309
CELLSTYLE_END
300
CELLSTYLE
  1
TABLEFORMAT_BEGIN
 90
        5
170
     1
 91
        0
 92
        0
 62
   257
 93
        1
300
CONTENTFORMAT
  1
CONTENTFORMAT_BEGIN
 90
        0
 91
        0
 92
      512
 93
        0
300

 40
0.0
140
1.0
 94
        2
 62
     0
340
11
144
4.5
309
CONTENTFORMAT_END
171
     1
301
MARGIN
  1
CELLMARGIN_BEGIN
 40
1.5
 40
1.5
 40
1.5
 40
1.5
 40
4.5
 40
4.5
309
CELLMARGIN_END
 94
        6
 95
        1
302
GRIDFORMAT
  1
GRIDFORMAT_BEGIN
 90
        0
 91
        1
 62
     0
 92
       -2
340
14
 93
        0
 40
1.125
309
GRIDFORMAT_END
 95
        2
302
GRIDFORMAT
  1
GRIDFORMAT_BEGIN
 90
        0
 91
        1
 62
     0
 92
       -2
340
14
 93
        0
 40
1.125
309
GRIDFORMAT_END
 95
        4
302
GRIDFORMAT
  1
GRIDFORMAT_BEGIN
 90
        0
 91
        1
 62
     0
 92
       -2
340
14
 93
        0
 40
1.125
309
GRIDFORMAT_END
 95
        8
302
GRIDFORMAT
  1
GRIDFORMAT_BEGIN
 90
        0
 91
        1
 62
     0
 92
       -2
340
14
 93
        0
 40
1.125
309
GRIDFORMAT_END
 95
       16
302
GRIDFORMAT
  1
GRIDFORMAT_BEGIN
 90
        0
 91
        1
 62
     0
 92
       -2
340
14
 93
        0
 40
1.125
309
GRIDFORMAT_END
 95
       32
302
GRIDFORMAT
  1
GRIDFORMAT_BEGIN
 90
        0
 91
        1
 62
     0
 92
       -2
340
14
 93
        0
 40
1.125
309
GRIDFORMAT_END
309
TABLEFORMAT_END
  1
CELLSTYLE_BEGIN
 90
        3
 91
        2
300
_DATA
309
CELLSTYLE_END
  0
XRECORD
  5
168F9
102
{ACAD_REACTORS
330
162
102
}
330
162
100
AcDbXrecord
280
     1
102
ACAD_ROUNDTRIP_PRE2007_TABLESTYLE
 90
      512
 91
        0
  1

 92
      512
 93
        0
  2

 94
      512
 95
        0
  3

  0
XRECORD
  5
1690C
102
{ACAD_REACTORS
330
1690B
102
}
330
1690B
100
AcDbXrecord
280
     1
102
RTVSPost2010Prop28
280
     1
102
RTVSPost2010PropOp28
 70
     1
102
RTVSPost2010Prop29
280
     1
102
RTVSPost2010PropOp29
 70
     1
102
RTVSPost2010Prop30
280
     0
102
RTVSPost2010PropOp30
 70
     1
102
RTVSPost2010Prop31
280
     0
102
RTVSPost2010PropOp31
 70
     1
102
RTVSPost2010Prop32
280
     0
102
RTVSPost2010PropOp32
 70
     1
102
RTVSPost2010Prop33
280
     0
102
RTVSPost2010PropOp33
 70
     1
102
RTVSPost2010Prop34
280
     0
102
RTVSPost2010PropOp34
 70
     1
102
RTVSPost2010Prop35
280
     0
102
RTVSPost2010PropOp35
 70
     1
102
RTVSPost2010Prop36
280
     0
102
RTVSPost2010PropOp36
 70
     1
102
RTVSPost2010Prop37
 90
       50
102
RTVSPost2010PropOp37
 70
     1
102
RTVSPost2010Prop38
140
0.0
102
RTVSPost2010PropOp38
 70
     1
102
RTVSPost2010Prop39
140
1.0
102
RTVSPost2010PropOp39
 70
     1
102
RTVSPost2010Prop40
 90
        0
102
RTVSPost2010PropOp40
 70
     1
102
RTVSPost2010Prop41ColorIndex
 90
       18
102
RTVSPost2010Prop41ColorRGB
 90
        0
102
RTVSPost2010PropOp41
 70
     1
102
RTVSPost2010Prop42
 90
       50
102
RTVSPost2010PropOp42
 70
     1
102
RTVSPost2010Prop43
 90
        3
102
RTVSPost2010PropOp43
 70
     1
102
RTVSPost2010Prop44ColorIndex
 90
        5
102
RTVSPost2010Prop44ColorRGB
 90
      255
102
RTVSPost2010PropOp44
 70
     1
102
RTVSPost2010Prop45
280
     0
102
RTVSPost2010PropOp45
 70
     1
102
RTVSPost2010Prop46
 90
       50
102
RTVSPost2010PropOp46
 70
     1
102
RTVSPost2010Prop47
 90
       50
102
RTVSPost2010PropOp47
 70
     1
102
RTVSPost2010Prop48
 90
       50
102
RTVSPost2010PropOp48
 70
     1
102
RTVSPost2010Prop49
280
     0
102
RTVSPost2010PropOp49
 70
     1
102
RTVSPost2010Prop50
 90
       50
102
RTVSPost2010PropOp50
 70
     1
102
RTVSPost2010Prop51ColorIndex
 90
      256
102
RTVSPost2010Prop51ColorRGB
 90
-16777216
102
RTVSPost2010PropOp51
 70
     0
102
RTVSPost2010Prop52
140
1.0
102
RTVSPost2010PropOp52
 70
     0
102
RTVSPost2010Prop53
 90
        2
102
RTVSPost2010PropOp53
 70
     1
102
RTVSPost2010Prop54
  1
strokes_ogs.tif
102
RTVSPost2010PropOp54
 70
     1
102
RTVSPost2010Prop55
280
     0
102
RTVSPost2010PropOp55
 70
     1
102
RTVSPost2010Prop56
140
1.0
102
RTVSPost2010PropOp56
 70
     1
102
RTVSPost2010Prop57
140
1.0
102
RTVSPost2010PropOp57
 70
     1
102
RTVSPropertyOp0
 70
     1
102
RTVSPropertyOp1
 70
     1
102
RTVSPropertyOp2
 70
     1
102
RTVSPropertyOp3
 70
     1
102
RTVSPropertyOp4
 70
     1
102
RTVSPropertyOp5
 70
     1
102
RTVSPropertyOp6
 70
     1
102
RTVSPropertyOp7
 70
     1
102
RTVSPropertyOp8
 70
     1
102
RTVSPropertyOp9
 70
     1
102
RTVSPropertyOp10
 70
     1
102
RTVSPropertyOp11
 70
     1
102
RTVSPropertyOp12
 70
     1
102
RTVSPropertyOp13
 70
     1
102
RTVSPropertyOp14
 70
     1
102
RTVSPropertyOp15
 70
     1
102
RTVSPropertyOp16
 70
     1
102
RTVSPropertyOp17
 70
     1
102
RTVSPropertyOp18
 70
     1
102
RTVSPropertyOp19
 70
     1
102
RTVSPropertyOp20
 70
     1
102
RTVSPropertyOp21
 70
     1
102
RTVSPropertyOp22
 70
     1
102
RTVSPropertyOp23
 70
     1
102
RTVSPropertyOp24
 70
     1
102
RTVSPropertyOp25
 70
     1
102
RTVSPropertyOp26
 70
     1
102
RTVSPropertyOp27
 70
     1
102
RTVSPropertyOp28
 70
     1
102
RTVSPropertyOp29
 70
     1
102
RTVSPropertyOp30
 70
     1
102
RTVSPropertyOp31
 70
     1
102
RTVSPropertyOp32
 70
     1
102
RTVSPropertyOp33
 70
     1
102
RTVSPropertyOp34
 70
     1
102
RTVSPropertyOp35
 70
     1
102
RTVSPropertyOp36
 70
     1
102
RTVSPropertyOp37
 70
     1
102
RTVSPropertyOp38
 70
     1
102
RTVSPropertyOp39
 70
     1
102
RTVSPropertyOp40
 70
     1
102
RTVSPropertyOp41
 70
     1
102
RTVSPropertyOp42
 70
     1
102
RTVSPropertyOp43
 70
     1
102
RTVSPropertyOp44
 70
     1
102
RTVSPropertyOp45
 70
     1
102
RTVSPropertyOp46
 70
     1
102
RTVSPropertyOp47
 70
     1
102
RTVSPropertyOp48
 70
     1
102
RTVSPropertyOp49
 70
     1
102
RTVSPropertyOp50
 70
     1
102
RTVSPropertyOp51
 70
     0
102
RTVSPropertyOp52
 70
     0
102
RTVSPropertyOp53
 70
     1
102
RTVSPropertyOp54
 70
     1
102
RTVSPropertyOp55
 70
     1
102
RTVSPropertyOp56
 70
     1
102
RTVSPropertyOp57
 70
     1
102
RTVSPropertyOp58
 70
     1
102
RTVSPropertyOp59
 70
     1
102
RTVSPropertyOp60
 70
     1
102
RTVSPropertyOp61
 70
     1
102
RTVSPropertyOp62
 70
     1
  0
XRECORD
  5
1690A
102
{ACAD_REACTORS
330
16909
102
}
330
16909
100
AcDbXrecord
280
     1
102
RTVSPost2010Prop28
280
     0
102
RTVSPost2010PropOp28
 70
     1
102
RTVSPost2010Prop29
280
     1
102
RTVSPost2010PropOp29
 70
     1
102
RTVSPost2010Prop30
280
     1
102
RTVSPost2010PropOp30
 70
     1
102
RTVSPost2010Prop31
280
     0
102
RTVSPost2010PropOp31
 70
     1
102
RTVSPost2010Prop32
280
     0
102
RTVSPost2010PropOp32
 70
     1
102
RTVSPost2010Prop33
280
     0
102
RTVSPost2010PropOp33
 70
     1
102
RTVSPost2010Prop34
280
     0
102
RTVSPost2010PropOp34
 70
     1
102
RTVSPost2010Prop35
280
     0
102
RTVSPost2010PropOp35
 70
     1
102
RTVSPost2010Prop36
280
     0
102
RTVSPost2010PropOp36
 70
     1
102
RTVSPost2010Prop37
 90
       50
102
RTVSPost2010PropOp37
 70
     1
102
RTVSPost2010Prop38
140
0.0
102
RTVSPost2010PropOp38
 70
     1
102
RTVSPost2010Prop39
140
1.0
102
RTVSPost2010PropOp39
 70
     1
102
RTVSPost2010Prop40
 90
        0
102
RTVSPost2010PropOp40
 70
     1
102
RTVSPost2010Prop41ColorIndex
 90
       18
102
RTVSPost2010Prop41ColorRGB
 90
        0
102
RTVSPost2010PropOp41
 70
     1
102
RTVSPost2010Prop42
 90
       50
102
RTVSPost2010PropOp42
 70
     1
102
RTVSPost2010Prop43
 90
        3
102
RTVSPost2010PropOp43
 70
     1
102
RTVSPost2010Prop44ColorIndex
 90
        5
102
RTVSPost2010Prop44ColorRGB
 90
      255
102
RTVSPost2010PropOp44
 70
     1
102
RTVSPost2010Prop45
280
     0
102
RTVSPost2010PropOp45
 70
     1
102
RTVSPost2010Prop46
 90
       50
102
RTVSPost2010PropOp46
 70
     1
102
RTVSPost2010Prop47
 90
       50
102
RTVSPost2010PropOp47
 70
     1
102
RTVSPost2010Prop48
 90
       50
102
RTVSPost2010PropOp48
 70
     1
102
RTVSPost2010Prop49
280
     0
102
RTVSPost2010PropOp49
 70
     1
102
RTVSPost2010Prop50
 90
       50
102
RTVSPost2010PropOp50
 70
     1
102
RTVSPost2010Prop51ColorIndex
 90
      256
102
RTVSPost2010Prop51ColorRGB
 90
-16777216
102
RTVSPost2010PropOp51
 70
     0
102
RTVSPost2010Prop52
140
1.0
102
RTVSPost2010PropOp52
 70
     0
102
RTVSPost2010Prop53
 90
        2
102
RTVSPost2010PropOp53
 70
     1
102
RTVSPost2010Prop54
  1
strokes_ogs.tif
102
RTVSPost2010PropOp54
 70
     1
102
RTVSPost2010Prop55
280
     0
102
RTVSPost2010PropOp55
 70
     1
102
RTVSPost2010Prop56
140
1.0
102
RTVSPost2010PropOp56
 70
     1
102
RTVSPost2010Prop57
140
1.0
102
RTVSPost2010PropOp57
 70
     1
102
RTVSPropertyOp0
 70
     1
102
RTVSPropertyOp1
 70
     1
102
RTVSPropertyOp2
 70
     1
102
RTVSPropertyOp3
 70
     1
102
RTVSPropertyOp4
 70
     1
102
RTVSPropertyOp5
 70
     1
102
RTVSPropertyOp6
 70
     1
102
RTVSPropertyOp7
 70
     1
102
RTVSPropertyOp8
 70
     1
102
RTVSPropertyOp9
 70
     1
102
RTVSPropertyOp10
 70
     1
102
RTVSPropertyOp11
 70
     1
102
RTVSPropertyOp12
 70
     1
102
RTVSPropertyOp13
 70
     1
102
RTVSPropertyOp14
 70
     1
102
RTVSPropertyOp15
 70
     1
102
RTVSPropertyOp16
 70
     1
102
RTVSPropertyOp17
 70
     1
102
RTVSPropertyOp18
 70
     1
102
RTVSPropertyOp19
 70
     1
102
RTVSPropertyOp20
 70
     1
102
RTVSPropertyOp21
 70
     1
102
RTVSPropertyOp22
 70
     1
102
RTVSPropertyOp23
 70
     1
102
RTVSPropertyOp24
 70
     1
102
RTVSPropertyOp25
 70
     1
102
RTVSPropertyOp26
 70
     1
102
RTVSPropertyOp27
 70
     1
102
RTVSPropertyOp28
 70
     1
102
RTVSPropertyOp29
 70
     1
102
RTVSPropertyOp30
 70
     1
102
RTVSPropertyOp31
 70
     1
102
RTVSPropertyOp32
 70
     1
102
RTVSPropertyOp33
 70
     1
102
RTVSPropertyOp34
 70
     1
102
RTVSPropertyOp35
 70
     1
102
RTVSPropertyOp36
 70
     1
102
RTVSPropertyOp37
 70
     1
102
RTVSPropertyOp38
 70
     1
102
RTVSPropertyOp39
 70
     1
102
RTVSPropertyOp40
 70
     1
102
RTVSPropertyOp41
 70
     1
102
RTVSPropertyOp42
 70
     1
102
RTVSPropertyOp43
 70
     1
102
RTVSPropertyOp44
 70
     1
102
RTVSPropertyOp45
 70
     1
102
RTVSPropertyOp46
 70
     1
102
RTVSPropertyOp47
 70
     1
102
RTVSPropertyOp48
 70
     1
102
RTVSPropertyOp49
 70
     1
102
RTVSPropertyOp50
 70
     1
102
RTVSPropertyOp51
 70
     0
102
RTVSPropertyOp52
 70
     0
102
RTVSPropertyOp53
 70
     1
102
RTVSPropertyOp54
 70
     1
102
RTVSPropertyOp55
 70
     1
102
RTVSPropertyOp56
 70
     1
102
RTVSPropertyOp57
 70
     1
102
RTVSPropertyOp58
 70
     1
102
RTVSPropertyOp59
 70
     1
102
RTVSPropertyOp60
 70
     1
102
RTVSPropertyOp61
 70
     1
102
RTVSPropertyOp62
 70
     1
  0
XRECORD
  5
16918
102
{ACAD_REACTORS
330
16917
102
}
330
16917
100
AcDbXrecord
280
     1
102
RTVSPost2010Prop28
280
     0
102
RTVSPost2010PropOp28
 70
     1
102
RTVSPost2010Prop29
280
     1
102
RTVSPost2010PropOp29
 70
     1
102
RTVSPost2010Prop30
280
     1
102
RTVSPost2010PropOp30
 70
     1
102
RTVSPost2010Prop31
280
     0
102
RTVSPost2010PropOp31
 70
     1
102
RTVSPost2010Prop32
280
     0
102
RTVSPost2010PropOp32
 70
     1
102
RTVSPost2010Prop33
280
     0
102
RTVSPost2010PropOp33
 70
     1
102
RTVSPost2010Prop34
280
     0
102
RTVSPost2010PropOp34
 70
     1
102
RTVSPost2010Prop35
280
     0
102
RTVSPost2010PropOp35
 70
     1
102
RTVSPost2010Prop36
280
     0
102
RTVSPost2010PropOp36
 70
     1
102
RTVSPost2010Prop37
 90
       50
102
RTVSPost2010PropOp37
 70
     1
102
RTVSPost2010Prop38
140
0.0
102
RTVSPost2010PropOp38
 70
     1
102
RTVSPost2010Prop39
140
1.0
102
RTVSPost2010PropOp39
 70
     1
102
RTVSPost2010Prop40
 90
        0
102
RTVSPost2010PropOp40
 70
     1
102
RTVSPost2010Prop41ColorIndex
 90
       18
102
RTVSPost2010Prop41ColorRGB
 90
        0
102
RTVSPost2010PropOp41
 70
     1
102
RTVSPost2010Prop42
 90
       50
102
RTVSPost2010PropOp42
 70
     1
102
RTVSPost2010Prop43
 90
        3
102
RTVSPost2010PropOp43
 70
     1
102
RTVSPost2010Prop44ColorIndex
 90
        5
102
RTVSPost2010Prop44ColorRGB
 90
      255
102
RTVSPost2010PropOp44
 70
     1
102
RTVSPost2010Prop45
280
     0
102
RTVSPost2010PropOp45
 70
     1
102
RTVSPost2010Prop46
 90
       50
102
RTVSPost2010PropOp46
 70
     1
102
RTVSPost2010Prop47
 90
       50
102
RTVSPost2010PropOp47
 70
     1
102
RTVSPost2010Prop48
 90
       50
102
RTVSPost2010PropOp48
 70
     1
102
RTVSPost2010Prop49
280
     0
102
RTVSPost2010PropOp49
 70
     1
102
RTVSPost2010Prop50
 90
       50
102
RTVSPost2010PropOp50
 70
     1
102
RTVSPost2010Prop51ColorIndex
 90
      256
102
RTVSPost2010Prop51ColorRGB
 90
-16777216
102
RTVSPost2010PropOp51
 70
     0
102
RTVSPost2010Prop52
140
1.0
102
RTVSPost2010PropOp52
 70
     0
102
RTVSPost2010Prop53
 90
        2
102
RTVSPost2010PropOp53
 70
     1
102
RTVSPost2010Prop54
  1
strokes_ogs.tif
102
RTVSPost2010PropOp54
 70
     1
102
RTVSPost2010Prop55
280
     0
102
RTVSPost2010PropOp55
 70
     1
102
RTVSPost2010Prop56
140
1.0
102
RTVSPost2010PropOp56
 70
     1
102
RTVSPost2010Prop57
140
1.0
102
RTVSPost2010PropOp57
 70
     1
102
RTVSPropertyOp0
 70
     1
102
RTVSPropertyOp1
 70
     1
102
RTVSPropertyOp2
 70
     1
102
RTVSPropertyOp3
 70
     1
102
RTVSPropertyOp4
 70
     1
102
RTVSPropertyOp5
 70
     1
102
RTVSPropertyOp6
 70
     1
102
RTVSPropertyOp7
 70
     1
102
RTVSPropertyOp8
 70
     1
102
RTVSPropertyOp9
 70
     1
102
RTVSPropertyOp10
 70
     1
102
RTVSPropertyOp11
 70
     1
102
RTVSPropertyOp12
 70
     1
102
RTVSPropertyOp13
 70
     1
102
RTVSPropertyOp14
 70
     1
102
RTVSPropertyOp15
 70
     1
102
RTVSPropertyOp16
 70
     1
102
RTVSPropertyOp17
 70
     1
102
RTVSPropertyOp18
 70
     1
102
RTVSPropertyOp19
 70
     1
102
RTVSPropertyOp20
 70
     1
102
RTVSPropertyOp21
 70
     1
102
RTVSPropertyOp22
 70
     1
102
RTVSPropertyOp23
 70
     1
102
RTVSPropertyOp24
 70
     1
102
RTVSPropertyOp25
 70
     1
102
RTVSPropertyOp26
 70
     1
102
RTVSPropertyOp27
 70
     1
102
RTVSPropertyOp28
 70
     1
102
RTVSPropertyOp29
 70
     1
102
RTVSPropertyOp30
 70
     1
102
RTVSPropertyOp31
 70
     1
102
RTVSPropertyOp32
 70
     1
102
RTVSPropertyOp33
 70
     1
102
RTVSPropertyOp34
 70
     1
102
RTVSPropertyOp35
 70
     1
102
RTVSPropertyOp36
 70
     1
102
RTVSPropertyOp37
 70
     1
102
RTVSPropertyOp38
 70
     1
102
RTVSPropertyOp39
 70
     1
102
RTVSPropertyOp40
 70
     1
102
RTVSPropertyOp41
 70
     1
102
RTVSPropertyOp42
 70
     1
102
RTVSPropertyOp43
 70
     1
102
RTVSPropertyOp44
 70
     1
102
RTVSPropertyOp45
 70
     1
102
RTVSPropertyOp46
 70
     1
102
RTVSPropertyOp47
 70
     1
102
RTVSPropertyOp48
 70
     1
102
RTVSPropertyOp49
 70
     1
102
RTVSPropertyOp50
 70
     1
102
RTVSPropertyOp51
 70
     0
102
RTVSPropertyOp52
 70
     0
102
RTVSPropertyOp53
 70
     1
102
RTVSPropertyOp54
 70
     1
102
RTVSPropertyOp55
 70
     1
102
RTVSPropertyOp56
 70
     1
102
RTVSPropertyOp57
 70
     1
102
RTVSPropertyOp58
 70
     1
102
RTVSPropertyOp59
 70
     1
102
RTVSPropertyOp60
 70
     1
102
RTVSPropertyOp61
 70
     1
102
RTVSPropertyOp62
 70
     1
  0
XRECORD
  5
16920
102
{ACAD_REACTORS
330
1691F
102
}
330
1691F
100
AcDbXrecord
280
     1
102
RTVSPost2010Prop28
280
     0
102
RTVSPost2010PropOp28
 70
     1
102
RTVSPost2010Prop29
280
     1
102
RTVSPost2010PropOp29
 70
     1
102
RTVSPost2010Prop30
280
     1
102
RTVSPost2010PropOp30
 70
     1
102
RTVSPost2010Prop31
280
     0
102
RTVSPost2010PropOp31
 70
     1
102
RTVSPost2010Prop32
280
     0
102
RTVSPost2010PropOp32
 70
     1
102
RTVSPost2010Prop33
280
     0
102
RTVSPost2010PropOp33
 70
     1
102
RTVSPost2010Prop34
280
     0
102
RTVSPost2010PropOp34
 70
     1
102
RTVSPost2010Prop35
280
     0
102
RTVSPost2010PropOp35
 70
     1
102
RTVSPost2010Prop36
280
     0
102
RTVSPost2010PropOp36
 70
     1
102
RTVSPost2010Prop37
 90
       50
102
RTVSPost2010PropOp37
 70
     1
102
RTVSPost2010Prop38
140
0.0
102
RTVSPost2010PropOp38
 70
     1
102
RTVSPost2010Prop39
140
1.0
102
RTVSPost2010PropOp39
 70
     1
102
RTVSPost2010Prop40
 90
        0
102
RTVSPost2010PropOp40
 70
     1
102
RTVSPost2010Prop41ColorIndex
 90
       18
102
RTVSPost2010Prop41ColorRGB
 90
        0
102
RTVSPost2010PropOp41
 70
     1
102
RTVSPost2010Prop42
 90
       50
102
RTVSPost2010PropOp42
 70
     1
102
RTVSPost2010Prop43
 90
        3
102
RTVSPost2010PropOp43
 70
     1
102
RTVSPost2010Prop44ColorIndex
 90
        5
102
RTVSPost2010Prop44ColorRGB
 90
      255
102
RTVSPost2010PropOp44
 70
     1
102
RTVSPost2010Prop45
280
     0
102
RTVSPost2010PropOp45
 70
     1
102
RTVSPost2010Prop46
 90
       50
102
RTVSPost2010PropOp46
 70
     1
102
RTVSPost2010Prop47
 90
       50
102
RTVSPost2010PropOp47
 70
     1
102
RTVSPost2010Prop48
 90
       50
102
RTVSPost2010PropOp48
 70
     1
102
RTVSPost2010Prop49
280
     0
102
RTVSPost2010PropOp49
 70
     1
102
RTVSPost2010Prop50
 90
       50
102
RTVSPost2010PropOp50
 70
     1
102
RTVSPost2010Prop51ColorIndex
 90
      256
102
RTVSPost2010Prop51ColorRGB
 90
-16777216
102
RTVSPost2010PropOp51
 70
     0
102
RTVSPost2010Prop52
140
1.0
102
RTVSPost2010PropOp52
 70
     0
102
RTVSPost2010Prop53
 90
        2
102
RTVSPost2010PropOp53
 70
     1
102
RTVSPost2010Prop54
  1
strokes_ogs.tif
102
RTVSPost2010PropOp54
 70
     1
102
RTVSPost2010Prop55
280
     0
102
RTVSPost2010PropOp55
 70
     1
102
RTVSPost2010Prop56
140
1.0
102
RTVSPost2010PropOp56
 70
     1
102
RTVSPost2010Prop57
140
1.0
102
RTVSPost2010PropOp57
 70
     1
102
RTVSPropertyOp0
 70
     1
102
RTVSPropertyOp1
 70
     1
102
RTVSPropertyOp2
 70
     1
102
RTVSPropertyOp3
 70
     1
102
RTVSPropertyOp4
 70
     1
102
RTVSPropertyOp5
 70
     1
102
RTVSPropertyOp6
 70
     1
102
RTVSPropertyOp7
 70
     1
102
RTVSPropertyOp8
 70
     1
102
RTVSPropertyOp9
 70
     1
102
RTVSPropertyOp10
 70
     1
102
RTVSPropertyOp11
 70
     1
102
RTVSPropertyOp12
 70
     1
102
RTVSPropertyOp13
 70
     1
102
RTVSPropertyOp14
 70
     1
102
RTVSPropertyOp15
 70
     1
102
RTVSPropertyOp16
 70
     1
102
RTVSPropertyOp17
 70
     1
102
RTVSPropertyOp18
 70
     1
102
RTVSPropertyOp19
 70
     1
102
RTVSPropertyOp20
 70
     1
102
RTVSPropertyOp21
 70
     1
102
RTVSPropertyOp22
 70
     1
102
RTVSPropertyOp23
 70
     1
102
RTVSPropertyOp24
 70
     1
102
RTVSPropertyOp25
 70
     1
102
RTVSPropertyOp26
 70
     1
102
RTVSPropertyOp27
 70
     1
102
RTVSPropertyOp28
 70
     1
102
RTVSPropertyOp29
 70
     1
102
RTVSPropertyOp30
 70
     1
102
RTVSPropertyOp31
 70
     1
102
RTVSPropertyOp32
 70
     1
102
RTVSPropertyOp33
 70
     1
102
RTVSPropertyOp34
 70
     1
102
RTVSPropertyOp35
 70
     1
102
RTVSPropertyOp36
 70
     1
102
RTVSPropertyOp37
 70
     1
102
RTVSPropertyOp38
 70
     1
102
RTVSPropertyOp39
 70
     1
102
RTVSPropertyOp40
 70
     1
102
RTVSPropertyOp41
 70
     1
102
RTVSPropertyOp42
 70
     1
102
RTVSPropertyOp43
 70
     1
102
RTVSPropertyOp44
 70
     1
102
RTVSPropertyOp45
 70
     1
102
RTVSPropertyOp46
 70
     1
102
RTVSPropertyOp47
 70
     1
102
RTVSPropertyOp48
 70
     1
102
RTVSPropertyOp49
 70
     1
102
RTVSPropertyOp50
 70
     1
102
RTVSPropertyOp51
 70
     0
102
RTVSPropertyOp52
 70
     0
102
RTVSPropertyOp53
 70
     1
102
RTVSPropertyOp54
 70
     1
102
RTVSPropertyOp55
 70
     1
102
RTVSPropertyOp56
 70
     1
102
RTVSPropertyOp57
 70
     1
102
RTVSPropertyOp58
 70
     1
102
RTVSPropertyOp59
 70
     1
102
RTVSPropertyOp60
 70
     1
102
RTVSPropertyOp61
 70
     1
102
RTVSPropertyOp62
 70
     1
  0
XRECORD
  5
16912
102
{ACAD_REACTORS
330
16911
102
}
330
16911
100
AcDbXrecord
280
     1
102
RTVSPost2010Prop28
280
     0
102
RTVSPost2010PropOp28
 70
     1
102
RTVSPost2010Prop29
280
     1
102
RTVSPost2010PropOp29
 70
     1
102
RTVSPost2010Prop30
280
     1
102
RTVSPost2010PropOp30
 70
     1
102
RTVSPost2010Prop31
280
     0
102
RTVSPost2010PropOp31
 70
     1
102
RTVSPost2010Prop32
280
     0
102
RTVSPost2010PropOp32
 70
     1
102
RTVSPost2010Prop33
280
     0
102
RTVSPost2010PropOp33
 70
     1
102
RTVSPost2010Prop34
280
     0
102
RTVSPost2010PropOp34
 70
     1
102
RTVSPost2010Prop35
280
     0
102
RTVSPost2010PropOp35
 70
     1
102
RTVSPost2010Prop36
280
     0
102
RTVSPost2010PropOp36
 70
     1
102
RTVSPost2010Prop37
 90
       50
102
RTVSPost2010PropOp37
 70
     1
102
RTVSPost2010Prop38
140
0.0
102
RTVSPost2010PropOp38
 70
     1
102
RTVSPost2010Prop39
140
1.0
102
RTVSPost2010PropOp39
 70
     1
102
RTVSPost2010Prop40
 90
        0
102
RTVSPost2010PropOp40
 70
     1
102
RTVSPost2010Prop41ColorIndex
 90
       18
102
RTVSPost2010Prop41ColorRGB
 90
        0
102
RTVSPost2010PropOp41
 70
     1
102
RTVSPost2010Prop42
 90
       50
102
RTVSPost2010PropOp42
 70
     1
102
RTVSPost2010Prop43
 90
        3
102
RTVSPost2010PropOp43
 70
     1
102
RTVSPost2010Prop44ColorIndex
 90
        5
102
RTVSPost2010Prop44ColorRGB
 90
      255
102
RTVSPost2010PropOp44
 70
     1
102
RTVSPost2010Prop45
280
     0
102
RTVSPost2010PropOp45
 70
     1
102
RTVSPost2010Prop46
 90
       50
102
RTVSPost2010PropOp46
 70
     1
102
RTVSPost2010Prop47
 90
       50
102
RTVSPost2010PropOp47
 70
     1
102
RTVSPost2010Prop48
 90
       50
102
RTVSPost2010PropOp48
 70
     1
102
RTVSPost2010Prop49
280
     0
102
RTVSPost2010PropOp49
 70
     1
102
RTVSPost2010Prop50
 90
       50
102
RTVSPost2010PropOp50
 70
     1
102
RTVSPost2010Prop51ColorIndex
 90
      256
102
RTVSPost2010Prop51ColorRGB
 90
-16777216
102
RTVSPost2010PropOp51
 70
     0
102
RTVSPost2010Prop52
140
1.0
102
RTVSPost2010PropOp52
 70
     0
102
RTVSPost2010Prop53
 90
        2
102
RTVSPost2010PropOp53
 70
     1
102
RTVSPost2010Prop54
  1
strokes_ogs.tif
102
RTVSPost2010PropOp54
 70
     1
102
RTVSPost2010Prop55
280
     0
102
RTVSPost2010PropOp55
 70
     1
102
RTVSPost2010Prop56
140
1.0
102
RTVSPost2010PropOp56
 70
     1
102
RTVSPost2010Prop57
140
1.0
102
RTVSPost2010PropOp57
 70
     1
102
RTVSPropertyOp0
 70
     1
102
RTVSPropertyOp1
 70
     1
102
RTVSPropertyOp2
 70
     1
102
RTVSPropertyOp3
 70
     1
102
RTVSPropertyOp4
 70
     1
102
RTVSPropertyOp5
 70
     1
102
RTVSPropertyOp6
 70
     1
102
RTVSPropertyOp7
 70
     1
102
RTVSPropertyOp8
 70
     1
102
RTVSPropertyOp9
 70
     1
102
RTVSPropertyOp10
 70
     1
102
RTVSPropertyOp11
 70
     1
102
RTVSPropertyOp12
 70
     1
102
RTVSPropertyOp13
 70
     1
102
RTVSPropertyOp14
 70
     1
102
RTVSPropertyOp15
 70
     1
102
RTVSPropertyOp16
 70
     1
102
RTVSPropertyOp17
 70
     1
102
RTVSPropertyOp18
 70
     1
102
RTVSPropertyOp19
 70
     1
102
RTVSPropertyOp20
 70
     1
102
RTVSPropertyOp21
 70
     1
102
RTVSPropertyOp22
 70
     1
102
RTVSPropertyOp23
 70
     1
102
RTVSPropertyOp24
 70
     1
102
RTVSPropertyOp25
 70
     1
102
RTVSPropertyOp26
 70
     1
102
RTVSPropertyOp27
 70
     1
102
RTVSPropertyOp28
 70
     1
102
RTVSPropertyOp29
 70
     1
102
RTVSPropertyOp30
 70
     1
102
RTVSPropertyOp31
 70
     1
102
RTVSPropertyOp32
 70
     1
102
RTVSPropertyOp33
 70
     1
102
RTVSPropertyOp34
 70
     1
102
RTVSPropertyOp35
 70
     1
102
RTVSPropertyOp36
 70
     1
102
RTVSPropertyOp37
 70
     1
102
RTVSPropertyOp38
 70
     1
102
RTVSPropertyOp39
 70
     1
102
RTVSPropertyOp40
 70
     1
102
RTVSPropertyOp41
 70
     1
102
RTVSPropertyOp42
 70
     1
102
RTVSPropertyOp43
 70
     1
102
RTVSPropertyOp44
 70
     1
102
RTVSPropertyOp45
 70
     1
102
RTVSPropertyOp46
 70
     1
102
RTVSPropertyOp47
 70
     1
102
RTVSPropertyOp48
 70
     1
102
RTVSPropertyOp49
 70
     1
102
RTVSPropertyOp50
 70
     1
102
RTVSPropertyOp51
 70
     0
102
RTVSPropertyOp52
 70
     0
102
RTVSPropertyOp53
 70
     1
102
RTVSPropertyOp54
 70
     1
102
RTVSPropertyOp55
 70
     1
102
RTVSPropertyOp56
 70
     1
102
RTVSPropertyOp57
 70
     1
102
RTVSPropertyOp58
 70
     1
102
RTVSPropertyOp59
 70
     1
102
RTVSPropertyOp60
 70
     1
102
RTVSPropertyOp61
 70
     1
102
RTVSPropertyOp62
 70
     1
  0
XRECORD
  5
16916
102
{ACAD_REACTORS
330
16915
102
}
330
16915
100
AcDbXrecord
280
     1
102
RTVSPost2010Prop28
280
     0
102
RTVSPost2010PropOp28
 70
     1
102
RTVSPost2010Prop29
280
     1
102
RTVSPost2010PropOp29
 70
     1
102
RTVSPost2010Prop30
280
     1
102
RTVSPost2010PropOp30
 70
     1
102
RTVSPost2010Prop31
280
     0
102
RTVSPost2010PropOp31
 70
     1
102
RTVSPost2010Prop32
280
     0
102
RTVSPost2010PropOp32
 70
     1
102
RTVSPost2010Prop33
280
     0
102
RTVSPost2010PropOp33
 70
     1
102
RTVSPost2010Prop34
280
     0
102
RTVSPost2010PropOp34
 70
     1
102
RTVSPost2010Prop35
280
     0
102
RTVSPost2010PropOp35
 70
     1
102
RTVSPost2010Prop36
280
     0
102
RTVSPost2010PropOp36
 70
     1
102
RTVSPost2010Prop37
 90
       50
102
RTVSPost2010PropOp37
 70
     1
102
RTVSPost2010Prop38
140
0.0
102
RTVSPost2010PropOp38
 70
     1
102
RTVSPost2010Prop39
140
1.0
102
RTVSPost2010PropOp39
 70
     1
102
RTVSPost2010Prop40
 90
        0
102
RTVSPost2010PropOp40
 70
     1
102
RTVSPost2010Prop41ColorIndex
 90
       18
102
RTVSPost2010Prop41ColorRGB
 90
        0
102
RTVSPost2010PropOp41
 70
     1
102
RTVSPost2010Prop42
 90
       50
102
RTVSPost2010PropOp42
 70
     1
102
RTVSPost2010Prop43
 90
        3
102
RTVSPost2010PropOp43
 70
     1
102
RTVSPost2010Prop44ColorIndex
 90
        5
102
RTVSPost2010Prop44ColorRGB
 90
      255
102
RTVSPost2010PropOp44
 70
     1
102
RTVSPost2010Prop45
280
     0
102
RTVSPost2010PropOp45
 70
     1
102
RTVSPost2010Prop46
 90
       50
102
RTVSPost2010PropOp46
 70
     1
102
RTVSPost2010Prop47
 90
       50
102
RTVSPost2010PropOp47
 70
     1
102
RTVSPost2010Prop48
 90
       50
102
RTVSPost2010PropOp48
 70
     1
102
RTVSPost2010Prop49
280
     0
102
RTVSPost2010PropOp49
 70
     1
102
RTVSPost2010Prop50
 90
       50
102
RTVSPost2010PropOp50
 70
     1
102
RTVSPost2010Prop51ColorIndex
 90
      256
102
RTVSPost2010Prop51ColorRGB
 90
-16777216
102
RTVSPost2010PropOp51
 70
     0
102
RTVSPost2010Prop52
140
1.0
102
RTVSPost2010PropOp52
 70
     0
102
RTVSPost2010Prop53
 90
        2
102
RTVSPost2010PropOp53
 70
     1
102
RTVSPost2010Prop54
  1
strokes_ogs.tif
102
RTVSPost2010PropOp54
 70
     1
102
RTVSPost2010Prop55
280
     0
102
RTVSPost2010PropOp55
 70
     1
102
RTVSPost2010Prop56
140
1.0
102
RTVSPost2010PropOp56
 70
     1
102
RTVSPost2010Prop57
140
1.0
102
RTVSPost2010PropOp57
 70
     1
102
RTVSPropertyOp0
 70
     1
102
RTVSPropertyOp1
 70
     1
102
RTVSPropertyOp2
 70
     1
102
RTVSPropertyOp3
 70
     1
102
RTVSPropertyOp4
 70
     1
102
RTVSPropertyOp5
 70
     1
102
RTVSPropertyOp6
 70
     1
102
RTVSPropertyOp7
 70
     1
102
RTVSPropertyOp8
 70
     1
102
RTVSPropertyOp9
 70
     1
102
RTVSPropertyOp10
 70
     1
102
RTVSPropertyOp11
 70
     1
102
RTVSPropertyOp12
 70
     1
102
RTVSPropertyOp13
 70
     1
102
RTVSPropertyOp14
 70
     1
102
RTVSPropertyOp15
 70
     1
102
RTVSPropertyOp16
 70
     1
102
RTVSPropertyOp17
 70
     1
102
RTVSPropertyOp18
 70
     1
102
RTVSPropertyOp19
 70
     1
102
RTVSPropertyOp20
 70
     1
102
RTVSPropertyOp21
 70
     1
102
RTVSPropertyOp22
 70
     1
102
RTVSPropertyOp23
 70
     1
102
RTVSPropertyOp24
 70
     1
102
RTVSPropertyOp25
 70
     1
102
RTVSPropertyOp26
 70
     1
102
RTVSPropertyOp27
 70
     1
102
RTVSPropertyOp28
 70
     1
102
RTVSPropertyOp29
 70
     1
102
RTVSPropertyOp30
 70
     1
102
RTVSPropertyOp31
 70
     1
102
RTVSPropertyOp32
 70
     1
102
RTVSPropertyOp33
 70
     1
102
RTVSPropertyOp34
 70
     1
102
RTVSPropertyOp35
 70
     1
102
RTVSPropertyOp36
 70
     1
102
RTVSPropertyOp37
 70
     1
102
RTVSPropertyOp38
 70
     1
102
RTVSPropertyOp39
 70
     1
102
RTVSPropertyOp40
 70
     1
102
RTVSPropertyOp41
 70
     1
102
RTVSPropertyOp42
 70
     1
102
RTVSPropertyOp43
 70
     1
102
RTVSPropertyOp44
 70
     1
102
RTVSPropertyOp45
 70
     1
102
RTVSPropertyOp46
 70
     1
102
RTVSPropertyOp47
 70
     1
102
RTVSPropertyOp48
 70
     1
102
RTVSPropertyOp49
 70
     1
102
RTVSPropertyOp50
 70
     1
102
RTVSPropertyOp51
 70
     0
102
RTVSPropertyOp52
 70
     0
102
RTVSPropertyOp53
 70
     1
102
RTVSPropertyOp54
 70
     1
102
RTVSPropertyOp55
 70
     1
102
RTVSPropertyOp56
 70
     1
102
RTVSPropertyOp57
 70
     1
102
RTVSPropertyOp58
 70
     1
102
RTVSPropertyOp59
 70
     1
102
RTVSPropertyOp60
 70
     1
102
RTVSPropertyOp61
 70
     1
102
RTVSPropertyOp62
 70
     1
  0
XRECORD
  5
16928
102
{ACAD_REACTORS
330
16927
102
}
330
16927
100
AcDbXrecord
280
     1
102
RTVSPost2010Prop28
280
     0
102
RTVSPost2010PropOp28
 70
     1
102
RTVSPost2010Prop29
280
     1
102
RTVSPost2010PropOp29
 70
     1
102
RTVSPost2010Prop30
280
     1
102
RTVSPost2010PropOp30
 70
     1
102
RTVSPost2010Prop31
280
     0
102
RTVSPost2010PropOp31
 70
     1
102
RTVSPost2010Prop32
280
     0
102
RTVSPost2010PropOp32
 70
     1
102
RTVSPost2010Prop33
280
     0
102
RTVSPost2010PropOp33
 70
     1
102
RTVSPost2010Prop34
280
     0
102
RTVSPost2010PropOp34
 70
     1
102
RTVSPost2010Prop35
280
     0
102
RTVSPost2010PropOp35
 70
     1
102
RTVSPost2010Prop36
280
     0
102
RTVSPost2010PropOp36
 70
     1
102
RTVSPost2010Prop37
 90
       50
102
RTVSPost2010PropOp37
 70
     1
102
RTVSPost2010Prop38
140
0.0
102
RTVSPost2010PropOp38
 70
     1
102
RTVSPost2010Prop39
140
1.0
102
RTVSPost2010PropOp39
 70
     1
102
RTVSPost2010Prop40
 90
        0
102
RTVSPost2010PropOp40
 70
     1
102
RTVSPost2010Prop41ColorIndex
 90
       18
102
RTVSPost2010Prop41ColorRGB
 90
        0
102
RTVSPost2010PropOp41
 70
     1
102
RTVSPost2010Prop42
 90
       50
102
RTVSPost2010PropOp42
 70
     1
102
RTVSPost2010Prop43
 90
        3
102
RTVSPost2010PropOp43
 70
     1
102
RTVSPost2010Prop44ColorIndex
 90
        5
102
RTVSPost2010Prop44ColorRGB
 90
      255
102
RTVSPost2010PropOp44
 70
     1
102
RTVSPost2010Prop45
280
     0
102
RTVSPost2010PropOp45
 70
     1
102
RTVSPost2010Prop46
 90
       50
102
RTVSPost2010PropOp46
 70
     1
102
RTVSPost2010Prop47
 90
       50
102
RTVSPost2010PropOp47
 70
     1
102
RTVSPost2010Prop48
 90
       50
102
RTVSPost2010PropOp48
 70
     1
102
RTVSPost2010Prop49
280
     0
102
RTVSPost2010PropOp49
 70
     1
102
RTVSPost2010Prop50
 90
       50
102
RTVSPost2010PropOp50
 70
     1
102
RTVSPost2010Prop51ColorIndex
 90
      256
102
RTVSPost2010Prop51ColorRGB
 90
-16777216
102
RTVSPost2010PropOp51
 70
     0
102
RTVSPost2010Prop52
140
1.0
102
RTVSPost2010PropOp52
 70
     0
102
RTVSPost2010Prop53
 90
        2
102
RTVSPost2010PropOp53
 70
     1
102
RTVSPost2010Prop54
  1
strokes_ogs.tif
102
RTVSPost2010PropOp54
 70
     1
102
RTVSPost2010Prop55
280
     0
102
RTVSPost2010PropOp55
 70
     1
102
RTVSPost2010Prop56
140
1.0
102
RTVSPost2010PropOp56
 70
     1
102
RTVSPost2010Prop57
140
1.0
102
RTVSPost2010PropOp57
 70
     1
102
RTVSPropertyOp0
 70
     0
102
RTVSPropertyOp1
 70
     0
102
RTVSPropertyOp2
 70
     0
102
RTVSPropertyOp3
 70
     0
102
RTVSPropertyOp4
 70
     0
102
RTVSPropertyOp5
 70
     0
102
RTVSPropertyOp6
 70
     0
102
RTVSPropertyOp7
 70
     0
102
RTVSPropertyOp8
 70
     0
102
RTVSPropertyOp9
 70
     0
102
RTVSPropertyOp10
 70
     0
102
RTVSPropertyOp11
 70
     0
102
RTVSPropertyOp12
 70
     0
102
RTVSPropertyOp13
 70
     0
102
RTVSPropertyOp14
 70
     2
102
RTVSPropertyOp15
 70
     0
102
RTVSPropertyOp16
 70
     0
102
RTVSPropertyOp17
 70
     0
102
RTVSPropertyOp18
 70
     0
102
RTVSPropertyOp19
 70
     0
102
RTVSPropertyOp20
 70
     0
102
RTVSPropertyOp21
 70
     0
102
RTVSPropertyOp22
 70
     0
102
RTVSPropertyOp23
 70
     0
102
RTVSPropertyOp24
 70
     0
102
RTVSPropertyOp25
 70
     0
102
RTVSPropertyOp26
 70
     0
102
RTVSPropertyOp27
 70
     0
102
RTVSPropertyOp28
 70
     1
102
RTVSPropertyOp29
 70
     1
102
RTVSPropertyOp30
 70
     1
102
RTVSPropertyOp31
 70
     1
102
RTVSPropertyOp32
 70
     1
102
RTVSPropertyOp33
 70
     1
102
RTVSPropertyOp34
 70
     1
102
RTVSPropertyOp35
 70
     1
102
RTVSPropertyOp36
 70
     1
102
RTVSPropertyOp37
 70
     1
102
RTVSPropertyOp38
 70
     1
102
RTVSPropertyOp39
 70
     1
102
RTVSPropertyOp40
 70
     1
102
RTVSPropertyOp41
 70
     1
102
RTVSPropertyOp42
 70
     1
102
RTVSPropertyOp43
 70
     1
102
RTVSPropertyOp44
 70
     1
102
RTVSPropertyOp45
 70
     1
102
RTVSPropertyOp46
 70
     1
102
RTVSPropertyOp47
 70
     1
102
RTVSPropertyOp48
 70
     1
102
RTVSPropertyOp49
 70
     1
102
RTVSPropertyOp50
 70
     1
102
RTVSPropertyOp51
 70
     0
102
RTVSPropertyOp52
 70
     0
102
RTVSPropertyOp53
 70
     1
102
RTVSPropertyOp54
 70
     1
102
RTVSPropertyOp55
 70
     1
102
RTVSPropertyOp56
 70
     1
102
RTVSPropertyOp57
 70
     1
102
RTVSPropertyOp58
 70
     1
102
RTVSPropertyOp59
 70
     1
102
RTVSPropertyOp60
 70
     1
102
RTVSPropertyOp61
 70
     1
102
RTVSPropertyOp62
 70
     1
  0
XRECORD
  5
1691E
102
{ACAD_REACTORS
330
1691D
102
}
330
1691D
100
AcDbXrecord
280
     1
102
RTVSPost2010Prop28
280
     0
102
RTVSPost2010PropOp28
 70
     1
102
RTVSPost2010Prop29
280
     1
102
RTVSPost2010PropOp29
 70
     1
102
RTVSPost2010Prop30
280
     1
102
RTVSPost2010PropOp30
 70
     1
102
RTVSPost2010Prop31
280
     0
102
RTVSPost2010PropOp31
 70
     1
102
RTVSPost2010Prop32
280
     0
102
RTVSPost2010PropOp32
 70
     1
102
RTVSPost2010Prop33
280
     0
102
RTVSPost2010PropOp33
 70
     1
102
RTVSPost2010Prop34
280
     0
102
RTVSPost2010PropOp34
 70
     1
102
RTVSPost2010Prop35
280
     0
102
RTVSPost2010PropOp35
 70
     1
102
RTVSPost2010Prop36
280
     0
102
RTVSPost2010PropOp36
 70
     1
102
RTVSPost2010Prop37
 90
       50
102
RTVSPost2010PropOp37
 70
     1
102
RTVSPost2010Prop38
140
0.0
102
RTVSPost2010PropOp38
 70
     1
102
RTVSPost2010Prop39
140
1.0
102
RTVSPost2010PropOp39
 70
     1
102
RTVSPost2010Prop40
 90
        0
102
RTVSPost2010PropOp40
 70
     1
102
RTVSPost2010Prop41ColorIndex
 90
       18
102
RTVSPost2010Prop41ColorRGB
 90
        0
102
RTVSPost2010PropOp41
 70
     1
102
RTVSPost2010Prop42
 90
       50
102
RTVSPost2010PropOp42
 70
     1
102
RTVSPost2010Prop43
 90
        3
102
RTVSPost2010PropOp43
 70
     1
102
RTVSPost2010Prop44ColorIndex
 90
        5
102
RTVSPost2010Prop44ColorRGB
 90
      255
102
RTVSPost2010PropOp44
 70
     1
102
RTVSPost2010Prop45
280
     0
102
RTVSPost2010PropOp45
 70
     1
102
RTVSPost2010Prop46
 90
       50
102
RTVSPost2010PropOp46
 70
     1
102
RTVSPost2010Prop47
 90
       50
102
RTVSPost2010PropOp47
 70
     1
102
RTVSPost2010Prop48
 90
       50
102
RTVSPost2010PropOp48
 70
     1
102
RTVSPost2010Prop49
280
     0
102
RTVSPost2010PropOp49
 70
     1
102
RTVSPost2010Prop50
 90
       50
102
RTVSPost2010PropOp50
 70
     1
102
RTVSPost2010Prop51ColorIndex
 90
      256
102
RTVSPost2010Prop51ColorRGB
 90
-16777216
102
RTVSPost2010PropOp51
 70
     0
102
RTVSPost2010Prop52
140
1.0
102
RTVSPost2010PropOp52
 70
     0
102
RTVSPost2010Prop53
 90
        2
102
RTVSPost2010PropOp53
 70
     1
102
RTVSPost2010Prop54
  1
strokes_ogs.tif
102
RTVSPost2010PropOp54
 70
     1
102
RTVSPost2010Prop55
280
     0
102
RTVSPost2010PropOp55
 70
     1
102
RTVSPost2010Prop56
140
1.0
102
RTVSPost2010PropOp56
 70
     1
102
RTVSPost2010Prop57
140
1.0
102
RTVSPost2010PropOp57
 70
     1
102
RTVSPropertyOp0
 70
     1
102
RTVSPropertyOp1
 70
     1
102
RTVSPropertyOp2
 70
     1
102
RTVSPropertyOp3
 70
     1
102
RTVSPropertyOp4
 70
     1
102
RTVSPropertyOp5
 70
     1
102
RTVSPropertyOp6
 70
     1
102
RTVSPropertyOp7
 70
     1
102
RTVSPropertyOp8
 70
     1
102
RTVSPropertyOp9
 70
     1
102
RTVSPropertyOp10
 70
     1
102
RTVSPropertyOp11
 70
     1
102
RTVSPropertyOp12
 70
     1
102
RTVSPropertyOp13
 70
     1
102
RTVSPropertyOp14
 70
     1
102
RTVSPropertyOp15
 70
     1
102
RTVSPropertyOp16
 70
     1
102
RTVSPropertyOp17
 70
     1
102
RTVSPropertyOp18
 70
     1
102
RTVSPropertyOp19
 70
     1
102
RTVSPropertyOp20
 70
     1
102
RTVSPropertyOp21
 70
     1
102
RTVSPropertyOp22
 70
     1
102
RTVSPropertyOp23
 70
     1
102
RTVSPropertyOp24
 70
     1
102
RTVSPropertyOp25
 70
     1
102
RTVSPropertyOp26
 70
     1
102
RTVSPropertyOp27
 70
     1
102
RTVSPropertyOp28
 70
     1
102
RTVSPropertyOp29
 70
     1
102
RTVSPropertyOp30
 70
     1
102
RTVSPropertyOp31
 70
     1
102
RTVSPropertyOp32
 70
     1
102
RTVSPropertyOp33
 70
     1
102
RTVSPropertyOp34
 70
     1
102
RTVSPropertyOp35
 70
     1
102
RTVSPropertyOp36
 70
     1
102
RTVSPropertyOp37
 70
     1
102
RTVSPropertyOp38
 70
     1
102
RTVSPropertyOp39
 70
     1
102
RTVSPropertyOp40
 70
     1
102
RTVSPropertyOp41
 70
     1
102
RTVSPropertyOp42
 70
     1
102
RTVSPropertyOp43
 70
     1
102
RTVSPropertyOp44
 70
     1
102
RTVSPropertyOp45
 70
     1
102
RTVSPropertyOp46
 70
     1
102
RTVSPropertyOp47
 70
     1
102
RTVSPropertyOp48
 70
     1
102
RTVSPropertyOp49
 70
     1
102
RTVSPropertyOp50
 70
     1
102
RTVSPropertyOp51
 70
     0
102
RTVSPropertyOp52
 70
     0
102
RTVSPropertyOp53
 70
     1
102
RTVSPropertyOp54
 70
     1
102
RTVSPropertyOp55
 70
     1
102
RTVSPropertyOp56
 70
     1
102
RTVSPropertyOp57
 70
     1
102
RTVSPropertyOp58
 70
     1
102
RTVSPropertyOp59
 70
     1
102
RTVSPropertyOp60
 70
     1
102
RTVSPropertyOp61
 70
     1
102
RTVSPropertyOp62
 70
     1
  0
XRECORD
  5
16902
102
{ACAD_REACTORS
330
16901
102
}
330
16901
100
AcDbXrecord
280
     1
102
RTVSPost2010Prop28
280
     0
102
RTVSPost2010PropOp28
 70
     1
102
RTVSPost2010Prop29
280
     1
102
RTVSPost2010PropOp29
 70
     1
102
RTVSPost2010Prop30
280
     1
102
RTVSPost2010PropOp30
 70
     1
102
RTVSPost2010Prop31
280
     0
102
RTVSPost2010PropOp31
 70
     1
102
RTVSPost2010Prop32
280
     0
102
RTVSPost2010PropOp32
 70
     1
102
RTVSPost2010Prop33
280
     0
102
RTVSPost2010PropOp33
 70
     1
102
RTVSPost2010Prop34
280
     0
102
RTVSPost2010PropOp34
 70
     1
102
RTVSPost2010Prop35
280
     0
102
RTVSPost2010PropOp35
 70
     1
102
RTVSPost2010Prop36
280
     0
102
RTVSPost2010PropOp36
 70
     1
102
RTVSPost2010Prop37
 90
       50
102
RTVSPost2010PropOp37
 70
     1
102
RTVSPost2010Prop38
140
0.0
102
RTVSPost2010PropOp38
 70
     1
102
RTVSPost2010Prop39
140
1.0
102
RTVSPost2010PropOp39
 70
     1
102
RTVSPost2010Prop40
 90
        0
102
RTVSPost2010PropOp40
 70
     1
102
RTVSPost2010Prop41ColorIndex
 90
       18
102
RTVSPost2010Prop41ColorRGB
 90
        0
102
RTVSPost2010PropOp41
 70
     1
102
RTVSPost2010Prop42
 90
       50
102
RTVSPost2010PropOp42
 70
     1
102
RTVSPost2010Prop43
 90
        3
102
RTVSPost2010PropOp43
 70
     1
102
RTVSPost2010Prop44ColorIndex
 90
        5
102
RTVSPost2010Prop44ColorRGB
 90
      255
102
RTVSPost2010PropOp44
 70
     1
102
RTVSPost2010Prop45
280
     0
102
RTVSPost2010PropOp45
 70
     1
102
RTVSPost2010Prop46
 90
       50
102
RTVSPost2010PropOp46
 70
     1
102
RTVSPost2010Prop47
 90
       50
102
RTVSPost2010PropOp47
 70
     1
102
RTVSPost2010Prop48
 90
       50
102
RTVSPost2010PropOp48
 70
     1
102
RTVSPost2010Prop49
280
     0
102
RTVSPost2010PropOp49
 70
     1
102
RTVSPost2010Prop50
 90
       50
102
RTVSPost2010PropOp50
 70
     1
102
RTVSPost2010Prop51ColorIndex
 90
      256
102
RTVSPost2010Prop51ColorRGB
 90
-16777216
102
RTVSPost2010PropOp51
 70
     0
102
RTVSPost2010Prop52
140
1.0
102
RTVSPost2010PropOp52
 70
     0
102
RTVSPost2010Prop53
 90
        2
102
RTVSPost2010PropOp53
 70
     1
102
RTVSPost2010Prop54
  1
strokes_ogs.tif
102
RTVSPost2010PropOp54
 70
     1
102
RTVSPost2010Prop55
280
     0
102
RTVSPost2010PropOp55
 70
     1
102
RTVSPost2010Prop56
140
1.0
102
RTVSPost2010PropOp56
 70
     1
102
RTVSPost2010Prop57
140
1.0
102
RTVSPost2010PropOp57
 70
     1
102
RTVSPropertyOp0
 70
     1
102
RTVSPropertyOp1
 70
     1
102
RTVSPropertyOp2
 70
     1
102
RTVSPropertyOp3
 70
     1
102
RTVSPropertyOp4
 70
     1
102
RTVSPropertyOp5
 70
     1
102
RTVSPropertyOp6
 70
     1
102
RTVSPropertyOp7
 70
     1
102
RTVSPropertyOp8
 70
     1
102
RTVSPropertyOp9
 70
     1
102
RTVSPropertyOp10
 70
     1
102
RTVSPropertyOp11
 70
     1
102
RTVSPropertyOp12
 70
     1
102
RTVSPropertyOp13
 70
     1
102
RTVSPropertyOp14
 70
     1
102
RTVSPropertyOp15
 70
     1
102
RTVSPropertyOp16
 70
     1
102
RTVSPropertyOp17
 70
     1
102
RTVSPropertyOp18
 70
     1
102
RTVSPropertyOp19
 70
     1
102
RTVSPropertyOp20
 70
     1
102
RTVSPropertyOp21
 70
     1
102
RTVSPropertyOp22
 70
     1
102
RTVSPropertyOp23
 70
     1
102
RTVSPropertyOp24
 70
     1
102
RTVSPropertyOp25
 70
     1
102
RTVSPropertyOp26
 70
     1
102
RTVSPropertyOp27
 70
     1
102
RTVSPropertyOp28
 70
     1
102
RTVSPropertyOp29
 70
     1
102
RTVSPropertyOp30
 70
     1
102
RTVSPropertyOp31
 70
     1
102
RTVSPropertyOp32
 70
     1
102
RTVSPropertyOp33
 70
     1
102
RTVSPropertyOp34
 70
     1
102
RTVSPropertyOp35
 70
     1
102
RTVSPropertyOp36
 70
     1
102
RTVSPropertyOp37
 70
     1
102
RTVSPropertyOp38
 70
     1
102
RTVSPropertyOp39
 70
     1
102
RTVSPropertyOp40
 70
     1
102
RTVSPropertyOp41
 70
     1
102
RTVSPropertyOp42
 70
     1
102
RTVSPropertyOp43
 70
     1
102
RTVSPropertyOp44
 70
     1
102
RTVSPropertyOp45
 70
     1
102
RTVSPropertyOp46
 70
     1
102
RTVSPropertyOp47
 70
     1
102
RTVSPropertyOp48
 70
     1
102
RTVSPropertyOp49
 70
     1
102
RTVSPropertyOp50
 70
     1
102
RTVSPropertyOp51
 70
     0
102
RTVSPropertyOp52
 70
     0
102
RTVSPropertyOp53
 70
     1
102
RTVSPropertyOp54
 70
     1
102
RTVSPropertyOp55
 70
     1
102
RTVSPropertyOp56
 70
     1
102
RTVSPropertyOp57
 70
     1
102
RTVSPropertyOp58
 70
     1
102
RTVSPropertyOp59
 70
     1
102
RTVSPropertyOp60
 70
     1
102
RTVSPropertyOp61
 70
     1
102
RTVSPropertyOp62
 70
     1
  0
XRECORD
  5
16904
102
{ACAD_REACTORS
330
16903
102
}
330
16903
100
AcDbXrecord
280
     1
102
RTVSPost2010Prop28
280
     0
102
RTVSPost2010PropOp28
 70
     1
102
RTVSPost2010Prop29
280
     1
102
RTVSPost2010PropOp29
 70
     1
102
RTVSPost2010Prop30
280
     1
102
RTVSPost2010PropOp30
 70
     1
102
RTVSPost2010Prop31
280
     0
102
RTVSPost2010PropOp31
 70
     1
102
RTVSPost2010Prop32
280
     0
102
RTVSPost2010PropOp32
 70
     1
102
RTVSPost2010Prop33
280
     0
102
RTVSPost2010PropOp33
 70
     1
102
RTVSPost2010Prop34
280
     0
102
RTVSPost2010PropOp34
 70
     1
102
RTVSPost2010Prop35
280
     0
102
RTVSPost2010PropOp35
 70
     1
102
RTVSPost2010Prop36
280
     0
102
RTVSPost2010PropOp36
 70
     1
102
RTVSPost2010Prop37
 90
       50
102
RTVSPost2010PropOp37
 70
     1
102
RTVSPost2010Prop38
140
0.0
102
RTVSPost2010PropOp38
 70
     1
102
RTVSPost2010Prop39
140
1.0
102
RTVSPost2010PropOp39
 70
     1
102
RTVSPost2010Prop40
 90
        0
102
RTVSPost2010PropOp40
 70
     1
102
RTVSPost2010Prop41ColorIndex
 90
       18
102
RTVSPost2010Prop41ColorRGB
 90
        0
102
RTVSPost2010PropOp41
 70
     1
102
RTVSPost2010Prop42
 90
       50
102
RTVSPost2010PropOp42
 70
     1
102
RTVSPost2010Prop43
 90
        3
102
RTVSPost2010PropOp43
 70
     1
102
RTVSPost2010Prop44ColorIndex
 90
        5
102
RTVSPost2010Prop44ColorRGB
 90
      255
102
RTVSPost2010PropOp44
 70
     1
102
RTVSPost2010Prop45
280
     0
102
RTVSPost2010PropOp45
 70
     1
102
RTVSPost2010Prop46
 90
       50
102
RTVSPost2010PropOp46
 70
     1
102
RTVSPost2010Prop47
 90
       50
102
RTVSPost2010PropOp47
 70
     1
102
RTVSPost2010Prop48
 90
       50
102
RTVSPost2010PropOp48
 70
     1
102
RTVSPost2010Prop49
280
     0
102
RTVSPost2010PropOp49
 70
     1
102
RTVSPost2010Prop50
 90
       50
102
RTVSPost2010PropOp50
 70
     1
102
RTVSPost2010Prop51ColorIndex
 90
      256
102
RTVSPost2010Prop51ColorRGB
 90
-16777216
102
RTVSPost2010PropOp51
 70
     0
102
RTVSPost2010Prop52
140
1.0
102
RTVSPost2010PropOp52
 70
     0
102
RTVSPost2010Prop53
 90
        2
102
RTVSPost2010PropOp53
 70
     1
102
RTVSPost2010Prop54
  1
strokes_ogs.tif
102
RTVSPost2010PropOp54
 70
     1
102
RTVSPost2010Prop55
280
     0
102
RTVSPost2010PropOp55
 70
     1
102
RTVSPost2010Prop56
140
1.0
102
RTVSPost2010PropOp56
 70
     1
102
RTVSPost2010Prop57
140
1.0
102
RTVSPost2010PropOp57
 70
     1
102
RTVSPropertyOp0
 70
     1
102
RTVSPropertyOp1
 70
     1
102
RTVSPropertyOp2
 70
     1
102
RTVSPropertyOp3
 70
     1
102
RTVSPropertyOp4
 70
     1
102
RTVSPropertyOp5
 70
     1
102
RTVSPropertyOp6
 70
     1
102
RTVSPropertyOp7
 70
     1
102
RTVSPropertyOp8
 70
     1
102
RTVSPropertyOp9
 70
     1
102
RTVSPropertyOp10
 70
     1
102
RTVSPropertyOp11
 70
     1
102
RTVSPropertyOp12
 70
     1
102
RTVSPropertyOp13
 70
     1
102
RTVSPropertyOp14
 70
     1
102
RTVSPropertyOp15
 70
     1
102
RTVSPropertyOp16
 70
     1
102
RTVSPropertyOp17
 70
     1
102
RTVSPropertyOp18
 70
     1
102
RTVSPropertyOp19
 70
     1
102
RTVSPropertyOp20
 70
     1
102
RTVSPropertyOp21
 70
     1
102
RTVSPropertyOp22
 70
     1
102
RTVSPropertyOp23
 70
     1
102
RTVSPropertyOp24
 70
     1
102
RTVSPropertyOp25
 70
     1
102
RTVSPropertyOp26
 70
     1
102
RTVSPropertyOp27
 70
     1
102
RTVSPropertyOp28
 70
     1
102
RTVSPropertyOp29
 70
     1
102
RTVSPropertyOp30
 70
     1
102
RTVSPropertyOp31
 70
     1
102
RTVSPropertyOp32
 70
     1
102
RTVSPropertyOp33
 70
     1
102
RTVSPropertyOp34
 70
     1
102
RTVSPropertyOp35
 70
     1
102
RTVSPropertyOp36
 70
     1
102
RTVSPropertyOp37
 70
     1
102
RTVSPropertyOp38
 70
     1
102
RTVSPropertyOp39
 70
     1
102
RTVSPropertyOp40
 70
     1
102
RTVSPropertyOp41
 70
     1
102
RTVSPropertyOp42
 70
     1
102
RTVSPropertyOp43
 70
     1
102
RTVSPropertyOp44
 70
     1
102
RTVSPropertyOp45
 70
     1
102
RTVSPropertyOp46
 70
     1
102
RTVSPropertyOp47
 70
     1
102
RTVSPropertyOp48
 70
     1
102
RTVSPropertyOp49
 70
     1
102
RTVSPropertyOp50
 70
     1
102
RTVSPropertyOp51
 70
     0
102
RTVSPropertyOp52
 70
     0
102
RTVSPropertyOp53
 70
     1
102
RTVSPropertyOp54
 70
     1
102
RTVSPropertyOp55
 70
     1
102
RTVSPropertyOp56
 70
     1
102
RTVSPropertyOp57
 70
     1
102
RTVSPropertyOp58
 70
     1
102
RTVSPropertyOp59
 70
     1
102
RTVSPropertyOp60
 70
     1
102
RTVSPropertyOp61
 70
     1
102
RTVSPropertyOp62
 70
     1
  0
XRECORD
  5
16906
102
{ACAD_REACTORS
330
16905
102
}
330
16905
100
AcDbXrecord
280
     1
102
RTVSPost2010Prop28
280
     0
102
RTVSPost2010PropOp28
 70
     1
102
RTVSPost2010Prop29
280
     1
102
RTVSPost2010PropOp29
 70
     1
102
RTVSPost2010Prop30
280
     1
102
RTVSPost2010PropOp30
 70
     1
102
RTVSPost2010Prop31
280
     0
102
RTVSPost2010PropOp31
 70
     1
102
RTVSPost2010Prop32
280
     0
102
RTVSPost2010PropOp32
 70
     1
102
RTVSPost2010Prop33
280
     0
102
RTVSPost2010PropOp33
 70
     1
102
RTVSPost2010Prop34
280
     0
102
RTVSPost2010PropOp34
 70
     1
102
RTVSPost2010Prop35
280
     0
102
RTVSPost2010PropOp35
 70
     1
102
RTVSPost2010Prop36
280
     0
102
RTVSPost2010PropOp36
 70
     1
102
RTVSPost2010Prop37
 90
       50
102
RTVSPost2010PropOp37
 70
     1
102
RTVSPost2010Prop38
140
0.0
102
RTVSPost2010PropOp38
 70
     1
102
RTVSPost2010Prop39
140
1.0
102
RTVSPost2010PropOp39
 70
     1
102
RTVSPost2010Prop40
 90
        0
102
RTVSPost2010PropOp40
 70
     1
102
RTVSPost2010Prop41ColorIndex
 90
       18
102
RTVSPost2010Prop41ColorRGB
 90
        0
102
RTVSPost2010PropOp41
 70
     1
102
RTVSPost2010Prop42
 90
       50
102
RTVSPost2010PropOp42
 70
     1
102
RTVSPost2010Prop43
 90
        3
102
RTVSPost2010PropOp43
 70
     1
102
RTVSPost2010Prop44ColorIndex
 90
        5
102
RTVSPost2010Prop44ColorRGB
 90
      255
102
RTVSPost2010PropOp44
 70
     1
102
RTVSPost2010Prop45
280
     0
102
RTVSPost2010PropOp45
 70
     1
102
RTVSPost2010Prop46
 90
       50
102
RTVSPost2010PropOp46
 70
     1
102
RTVSPost2010Prop47
 90
       50
102
RTVSPost2010PropOp47
 70
     1
102
RTVSPost2010Prop48
 90
       50
102
RTVSPost2010PropOp48
 70
     1
102
RTVSPost2010Prop49
280
     0
102
RTVSPost2010PropOp49
 70
     1
102
RTVSPost2010Prop50
 90
       50
102
RTVSPost2010PropOp50
 70
     1
102
RTVSPost2010Prop51ColorIndex
 90
      256
102
RTVSPost2010Prop51ColorRGB
 90
-16777216
102
RTVSPost2010PropOp51
 70
     0
102
RTVSPost2010Prop52
140
1.0
102
RTVSPost2010PropOp52
 70
     0
102
RTVSPost2010Prop53
 90
        2
102
RTVSPost2010PropOp53
 70
     1
102
RTVSPost2010Prop54
  1
strokes_ogs.tif
102
RTVSPost2010PropOp54
 70
     1
102
RTVSPost2010Prop55
280
     0
102
RTVSPost2010PropOp55
 70
     1
102
RTVSPost2010Prop56
140
1.0
102
RTVSPost2010PropOp56
 70
     1
102
RTVSPost2010Prop57
140
1.0
102
RTVSPost2010PropOp57
 70
     1
102
RTVSPropertyOp0
 70
     1
102
RTVSPropertyOp1
 70
     1
102
RTVSPropertyOp2
 70
     1
102
RTVSPropertyOp3
 70
     1
102
RTVSPropertyOp4
 70
     1
102
RTVSPropertyOp5
 70
     1
102
RTVSPropertyOp6
 70
     1
102
RTVSPropertyOp7
 70
     1
102
RTVSPropertyOp8
 70
     1
102
RTVSPropertyOp9
 70
     1
102
RTVSPropertyOp10
 70
     1
102
RTVSPropertyOp11
 70
     1
102
RTVSPropertyOp12
 70
     1
102
RTVSPropertyOp13
 70
     1
102
RTVSPropertyOp14
 70
     1
102
RTVSPropertyOp15
 70
     1
102
RTVSPropertyOp16
 70
     1
102
RTVSPropertyOp17
 70
     1
102
RTVSPropertyOp18
 70
     1
102
RTVSPropertyOp19
 70
     1
102
RTVSPropertyOp20
 70
     1
102
RTVSPropertyOp21
 70
     1
102
RTVSPropertyOp22
 70
     1
102
RTVSPropertyOp23
 70
     1
102
RTVSPropertyOp24
 70
     1
102
RTVSPropertyOp25
 70
     1
102
RTVSPropertyOp26
 70
     1
102
RTVSPropertyOp27
 70
     1
102
RTVSPropertyOp28
 70
     1
102
RTVSPropertyOp29
 70
     1
102
RTVSPropertyOp30
 70
     1
102
RTVSPropertyOp31
 70
     1
102
RTVSPropertyOp32
 70
     1
102
RTVSPropertyOp33
 70
     1
102
RTVSPropertyOp34
 70
     1
102
RTVSPropertyOp35
 70
     1
102
RTVSPropertyOp36
 70
     1
102
RTVSPropertyOp37
 70
     1
102
RTVSPropertyOp38
 70
     1
102
RTVSPropertyOp39
 70
     1
102
RTVSPropertyOp40
 70
     1
102
RTVSPropertyOp41
 70
     1
102
RTVSPropertyOp42
 70
     1
102
RTVSPropertyOp43
 70
     1
102
RTVSPropertyOp44
 70
     1
102
RTVSPropertyOp45
 70
     1
102
RTVSPropertyOp46
 70
     1
102
RTVSPropertyOp47
 70
     1
102
RTVSPropertyOp48
 70
     1
102
RTVSPropertyOp49
 70
     1
102
RTVSPropertyOp50
 70
     1
102
RTVSPropertyOp51
 70
     0
102
RTVSPropertyOp52
 70
     0
102
RTVSPropertyOp53
 70
     1
102
RTVSPropertyOp54
 70
     1
102
RTVSPropertyOp55
 70
     1
102
RTVSPropertyOp56
 70
     1
102
RTVSPropertyOp57
 70
     1
102
RTVSPropertyOp58
 70
     1
102
RTVSPropertyOp59
 70
     1
102
RTVSPropertyOp60
 70
     1
102
RTVSPropertyOp61
 70
     1
102
RTVSPropertyOp62
 70
     1
  0
XRECORD
  5
16908
102
{ACAD_REACTORS
330
16907
102
}
330
16907
100
AcDbXrecord
280
     1
102
RTVSPost2010Prop28
280
     0
102
RTVSPost2010PropOp28
 70
     1
102
RTVSPost2010Prop29
280
     1
102
RTVSPost2010PropOp29
 70
     1
102
RTVSPost2010Prop30
280
     1
102
RTVSPost2010PropOp30
 70
     1
102
RTVSPost2010Prop31
280
     0
102
RTVSPost2010PropOp31
 70
     1
102
RTVSPost2010Prop32
280
     0
102
RTVSPost2010PropOp32
 70
     1
102
RTVSPost2010Prop33
280
     0
102
RTVSPost2010PropOp33
 70
     1
102
RTVSPost2010Prop34
280
     0
102
RTVSPost2010PropOp34
 70
     1
102
RTVSPost2010Prop35
280
     0
102
RTVSPost2010PropOp35
 70
     1
102
RTVSPost2010Prop36
280
     0
102
RTVSPost2010PropOp36
 70
     1
102
RTVSPost2010Prop37
 90
       50
102
RTVSPost2010PropOp37
 70
     1
102
RTVSPost2010Prop38
140
0.0
102
RTVSPost2010PropOp38
 70
     1
102
RTVSPost2010Prop39
140
1.0
102
RTVSPost2010PropOp39
 70
     1
102
RTVSPost2010Prop40
 90
        0
102
RTVSPost2010PropOp40
 70
     1
102
RTVSPost2010Prop41ColorIndex
 90
       18
102
RTVSPost2010Prop41ColorRGB
 90
        0
102
RTVSPost2010PropOp41
 70
     1
102
RTVSPost2010Prop42
 90
       50
102
RTVSPost2010PropOp42
 70
     1
102
RTVSPost2010Prop43
 90
        3
102
RTVSPost2010PropOp43
 70
     1
102
RTVSPost2010Prop44ColorIndex
 90
        5
102
RTVSPost2010Prop44ColorRGB
 90
      255
102
RTVSPost2010PropOp44
 70
     1
102
RTVSPost2010Prop45
280
     0
102
RTVSPost2010PropOp45
 70
     1
102
RTVSPost2010Prop46
 90
       50
102
RTVSPost2010PropOp46
 70
     1
102
RTVSPost2010Prop47
 90
       50
102
RTVSPost2010PropOp47
 70
     1
102
RTVSPost2010Prop48
 90
       50
102
RTVSPost2010PropOp48
 70
     1
102
RTVSPost2010Prop49
280
     0
102
RTVSPost2010PropOp49
 70
     1
102
RTVSPost2010Prop50
 90
       50
102
RTVSPost2010PropOp50
 70
     1
102
RTVSPost2010Prop51ColorIndex
 90
      256
102
RTVSPost2010Prop51ColorRGB
 90
-16777216
102
RTVSPost2010PropOp51
 70
     0
102
RTVSPost2010Prop52
140
1.0
102
RTVSPost2010PropOp52
 70
     0
102
RTVSPost2010Prop53
 90
        2
102
RTVSPost2010PropOp53
 70
     1
102
RTVSPost2010Prop54
  1
strokes_ogs.tif
102
RTVSPost2010PropOp54
 70
     1
102
RTVSPost2010Prop55
280
     0
102
RTVSPost2010PropOp55
 70
     1
102
RTVSPost2010Prop56
140
1.0
102
RTVSPost2010PropOp56
 70
     1
102
RTVSPost2010Prop57
140
1.0
102
RTVSPost2010PropOp57
 70
     1
102
RTVSPropertyOp0
 70
     1
102
RTVSPropertyOp1
 70
     1
102
RTVSPropertyOp2
 70
     1
102
RTVSPropertyOp3
 70
     1
102
RTVSPropertyOp4
 70
     1
102
RTVSPropertyOp5
 70
     1
102
RTVSPropertyOp6
 70
     1
102
RTVSPropertyOp7
 70
     1
102
RTVSPropertyOp8
 70
     1
102
RTVSPropertyOp9
 70
     1
102
RTVSPropertyOp10
 70
     1
102
RTVSPropertyOp11
 70
     1
102
RTVSPropertyOp12
 70
     1
102
RTVSPropertyOp13
 70
     1
102
RTVSPropertyOp14
 70
     1
102
RTVSPropertyOp15
 70
     1
102
RTVSPropertyOp16
 70
     1
102
RTVSPropertyOp17
 70
     1
102
RTVSPropertyOp18
 70
     1
102
RTVSPropertyOp19
 70
     1
102
RTVSPropertyOp20
 70
     1
102
RTVSPropertyOp21
 70
     1
102
RTVSPropertyOp22
 70
     1
102
RTVSPropertyOp23
 70
     1
102
RTVSPropertyOp24
 70
     1
102
RTVSPropertyOp25
 70
     1
102
RTVSPropertyOp26
 70
     1
102
RTVSPropertyOp27
 70
     1
102
RTVSPropertyOp28
 70
     1
102
RTVSPropertyOp29
 70
     1
102
RTVSPropertyOp30
 70
     1
102
RTVSPropertyOp31
 70
     1
102
RTVSPropertyOp32
 70
     1
102
RTVSPropertyOp33
 70
     1
102
RTVSPropertyOp34
 70
     1
102
RTVSPropertyOp35
 70
     1
102
RTVSPropertyOp36
 70
     1
102
RTVSPropertyOp37
 70
     1
102
RTVSPropertyOp38
 70
     1
102
RTVSPropertyOp39
 70
     1
102
RTVSPropertyOp40
 70
     1
102
RTVSPropertyOp41
 70
     1
102
RTVSPropertyOp42
 70
     1
102
RTVSPropertyOp43
 70
     1
102
RTVSPropertyOp44
 70
     1
102
RTVSPropertyOp45
 70
     1
102
RTVSPropertyOp46
 70
     1
102
RTVSPropertyOp47
 70
     1
102
RTVSPropertyOp48
 70
     1
102
RTVSPropertyOp49
 70
     1
102
RTVSPropertyOp50
 70
     1
102
RTVSPropertyOp51
 70
     0
102
RTVSPropertyOp52
 70
     0
102
RTVSPropertyOp53
 70
     1
102
RTVSPropertyOp54
 70
     1
102
RTVSPropertyOp55
 70
     1
102
RTVSPropertyOp56
 70
     1
102
RTVSPropertyOp57
 70
     1
102
RTVSPropertyOp58
 70
     1
102
RTVSPropertyOp59
 70
     1
102
RTVSPropertyOp60
 70
     1
102
RTVSPropertyOp61
 70
     1
102
RTVSPropertyOp62
 70
     1
  0
XRECORD
  5
16910
102
{ACAD_REACTORS
330
1690F
102
}
330
1690F
100
AcDbXrecord
280
     1
102
RTVSPost2010Prop28
280
     0
102
RTVSPost2010PropOp28
 70
     1
102
RTVSPost2010Prop29
280
     1
102
RTVSPost2010PropOp29
 70
     1
102
RTVSPost2010Prop30
280
     1
102
RTVSPost2010PropOp30
 70
     1
102
RTVSPost2010Prop31
280
     0
102
RTVSPost2010PropOp31
 70
     1
102
RTVSPost2010Prop32
280
     0
102
RTVSPost2010PropOp32
 70
     1
102
RTVSPost2010Prop33
280
     0
102
RTVSPost2010PropOp33
 70
     1
102
RTVSPost2010Prop34
280
     0
102
RTVSPost2010PropOp34
 70
     1
102
RTVSPost2010Prop35
280
     0
102
RTVSPost2010PropOp35
 70
     1
102
RTVSPost2010Prop36
280
     0
102
RTVSPost2010PropOp36
 70
     1
102
RTVSPost2010Prop37
 90
       50
102
RTVSPost2010PropOp37
 70
     1
102
RTVSPost2010Prop38
140
0.0
102
RTVSPost2010PropOp38
 70
     1
102
RTVSPost2010Prop39
140
1.0
102
RTVSPost2010PropOp39
 70
     1
102
RTVSPost2010Prop40
 90
        0
102
RTVSPost2010PropOp40
 70
     1
102
RTVSPost2010Prop41ColorIndex
 90
       18
102
RTVSPost2010Prop41ColorRGB
 90
        0
102
RTVSPost2010PropOp41
 70
     1
102
RTVSPost2010Prop42
 90
       50
102
RTVSPost2010PropOp42
 70
     1
102
RTVSPost2010Prop43
 90
        3
102
RTVSPost2010PropOp43
 70
     1
102
RTVSPost2010Prop44ColorIndex
 90
        5
102
RTVSPost2010Prop44ColorRGB
 90
      255
102
RTVSPost2010PropOp44
 70
     1
102
RTVSPost2010Prop45
280
     0
102
RTVSPost2010PropOp45
 70
     1
102
RTVSPost2010Prop46
 90
       50
102
RTVSPost2010PropOp46
 70
     1
102
RTVSPost2010Prop47
 90
       50
102
RTVSPost2010PropOp47
 70
     1
102
RTVSPost2010Prop48
 90
       50
102
RTVSPost2010PropOp48
 70
     1
102
RTVSPost2010Prop49
280
     0
102
RTVSPost2010PropOp49
 70
     1
102
RTVSPost2010Prop50
 90
       50
102
RTVSPost2010PropOp50
 70
     1
102
RTVSPost2010Prop51ColorIndex
 90
      256
102
RTVSPost2010Prop51ColorRGB
 90
-16777216
102
RTVSPost2010PropOp51
 70
     0
102
RTVSPost2010Prop52
140
1.0
102
RTVSPost2010PropOp52
 70
     0
102
RTVSPost2010Prop53
 90
        2
102
RTVSPost2010PropOp53
 70
     1
102
RTVSPost2010Prop54
  1
strokes_ogs.tif
102
RTVSPost2010PropOp54
 70
     1
102
RTVSPost2010Prop55
280
     0
102
RTVSPost2010PropOp55
 70
     1
102
RTVSPost2010Prop56
140
1.0
102
RTVSPost2010PropOp56
 70
     1
102
RTVSPost2010Prop57
140
1.0
102
RTVSPost2010PropOp57
 70
     1
102
RTVSPropertyOp0
 70
     1
102
RTVSPropertyOp1
 70
     1
102
RTVSPropertyOp2
 70
     1
102
RTVSPropertyOp3
 70
     1
102
RTVSPropertyOp4
 70
     1
102
RTVSPropertyOp5
 70
     1
102
RTVSPropertyOp6
 70
     1
102
RTVSPropertyOp7
 70
     1
102
RTVSPropertyOp8
 70
     1
102
RTVSPropertyOp9
 70
     1
102
RTVSPropertyOp10
 70
     1
102
RTVSPropertyOp11
 70
     1
102
RTVSPropertyOp12
 70
     1
102
RTVSPropertyOp13
 70
     1
102
RTVSPropertyOp14
 70
     1
102
RTVSPropertyOp15
 70
     1
102
RTVSPropertyOp16
 70
     1
102
RTVSPropertyOp17
 70
     1
102
RTVSPropertyOp18
 70
     1
102
RTVSPropertyOp19
 70
     1
102
RTVSPropertyOp20
 70
     1
102
RTVSPropertyOp21
 70
     1
102
RTVSPropertyOp22
 70
     1
102
RTVSPropertyOp23
 70
     1
102
RTVSPropertyOp24
 70
     1
102
RTVSPropertyOp25
 70
     1
102
RTVSPropertyOp26
 70
     1
102
RTVSPropertyOp27
 70
     1
102
RTVSPropertyOp28
 70
     1
102
RTVSPropertyOp29
 70
     1
102
RTVSPropertyOp30
 70
     1
102
RTVSPropertyOp31
 70
     1
102
RTVSPropertyOp32
 70
     1
102
RTVSPropertyOp33
 70
     1
102
RTVSPropertyOp34
 70
     1
102
RTVSPropertyOp35
 70
     1
102
RTVSPropertyOp36
 70
     1
102
RTVSPropertyOp37
 70
     1
102
RTVSPropertyOp38
 70
     1
102
RTVSPropertyOp39
 70
     1
102
RTVSPropertyOp40
 70
     1
102
RTVSPropertyOp41
 70
     1
102
RTVSPropertyOp42
 70
     1
102
RTVSPropertyOp43
 70
     1
102
RTVSPropertyOp44
 70
     1
102
RTVSPropertyOp45
 70
     1
102
RTVSPropertyOp46
 70
     1
102
RTVSPropertyOp47
 70
     1
102
RTVSPropertyOp48
 70
     1
102
RTVSPropertyOp49
 70
     1
102
RTVSPropertyOp50
 70
     1
102
RTVSPropertyOp51
 70
     0
102
RTVSPropertyOp52
 70
     0
102
RTVSPropertyOp53
 70
     1
102
RTVSPropertyOp54
 70
     1
102
RTVSPropertyOp55
 70
     1
102
RTVSPropertyOp56
 70
     1
102
RTVSPropertyOp57
 70
     1
102
RTVSPropertyOp58
 70
     1
102
RTVSPropertyOp59
 70
     1
102
RTVSPropertyOp60
 70
     1
102
RTVSPropertyOp61
 70
     1
102
RTVSPropertyOp62
 70
     1
  0
XRECORD
  5
16924
102
{ACAD_REACTORS
330
16923
102
}
330
16923
100
AcDbXrecord
280
     1
102
RTVSPost2010Prop28
280
     0
102
RTVSPost2010PropOp28
 70
     1
102
RTVSPost2010Prop29
280
     1
102
RTVSPost2010PropOp29
 70
     1
102
RTVSPost2010Prop30
280
     1
102
RTVSPost2010PropOp30
 70
     1
102
RTVSPost2010Prop31
280
     0
102
RTVSPost2010PropOp31
 70
     1
102
RTVSPost2010Prop32
280
     0
102
RTVSPost2010PropOp32
 70
     1
102
RTVSPost2010Prop33
280
     0
102
RTVSPost2010PropOp33
 70
     1
102
RTVSPost2010Prop34
280
     0
102
RTVSPost2010PropOp34
 70
     1
102
RTVSPost2010Prop35
280
     0
102
RTVSPost2010PropOp35
 70
     1
102
RTVSPost2010Prop36
280
     0
102
RTVSPost2010PropOp36
 70
     1
102
RTVSPost2010Prop37
 90
       50
102
RTVSPost2010PropOp37
 70
     1
102
RTVSPost2010Prop38
140
0.0
102
RTVSPost2010PropOp38
 70
     1
102
RTVSPost2010Prop39
140
1.0
102
RTVSPost2010PropOp39
 70
     1
102
RTVSPost2010Prop40
 90
        0
102
RTVSPost2010PropOp40
 70
     1
102
RTVSPost2010Prop41ColorIndex
 90
       18
102
RTVSPost2010Prop41ColorRGB
 90
        0
102
RTVSPost2010PropOp41
 70
     1
102
RTVSPost2010Prop42
 90
       50
102
RTVSPost2010PropOp42
 70
     1
102
RTVSPost2010Prop43
 90
        3
102
RTVSPost2010PropOp43
 70
     1
102
RTVSPost2010Prop44ColorIndex
 90
        5
102
RTVSPost2010Prop44ColorRGB
 90
      255
102
RTVSPost2010PropOp44
 70
     1
102
RTVSPost2010Prop45
280
     0
102
RTVSPost2010PropOp45
 70
     1
102
RTVSPost2010Prop46
 90
       50
102
RTVSPost2010PropOp46
 70
     1
102
RTVSPost2010Prop47
 90
       50
102
RTVSPost2010PropOp47
 70
     1
102
RTVSPost2010Prop48
 90
       50
102
RTVSPost2010PropOp48
 70
     1
102
RTVSPost2010Prop49
280
     0
102
RTVSPost2010PropOp49
 70
     1
102
RTVSPost2010Prop50
 90
       50
102
RTVSPost2010PropOp50
 70
     1
102
RTVSPost2010Prop51ColorIndex
 90
      256
102
RTVSPost2010Prop51ColorRGB
 90
-16777216
102
RTVSPost2010PropOp51
 70
     0
102
RTVSPost2010Prop52
140
1.0
102
RTVSPost2010PropOp52
 70
     0
102
RTVSPost2010Prop53
 90
        2
102
RTVSPost2010PropOp53
 70
     1
102
RTVSPost2010Prop54
  1
strokes_ogs.tif
102
RTVSPost2010PropOp54
 70
     1
102
RTVSPost2010Prop55
280
     0
102
RTVSPost2010PropOp55
 70
     1
102
RTVSPost2010Prop56
140
1.0
102
RTVSPost2010PropOp56
 70
     1
102
RTVSPost2010Prop57
140
1.0
102
RTVSPost2010PropOp57
 70
     1
102
RTVSPropertyOp0
 70
     0
102
RTVSPropertyOp1
 70
     0
102
RTVSPropertyOp2
 70
     0
102
RTVSPropertyOp3
 70
     0
102
RTVSPropertyOp4
 70
     0
102
RTVSPropertyOp5
 70
     0
102
RTVSPropertyOp6
 70
     0
102
RTVSPropertyOp7
 70
     0
102
RTVSPropertyOp8
 70
     0
102
RTVSPropertyOp9
 70
     0
102
RTVSPropertyOp10
 70
     0
102
RTVSPropertyOp11
 70
     0
102
RTVSPropertyOp12
 70
     0
102
RTVSPropertyOp13
 70
     0
102
RTVSPropertyOp14
 70
     2
102
RTVSPropertyOp15
 70
     0
102
RTVSPropertyOp16
 70
     0
102
RTVSPropertyOp17
 70
     0
102
RTVSPropertyOp18
 70
     0
102
RTVSPropertyOp19
 70
     0
102
RTVSPropertyOp20
 70
     0
102
RTVSPropertyOp21
 70
     0
102
RTVSPropertyOp22
 70
     0
102
RTVSPropertyOp23
 70
     0
102
RTVSPropertyOp24
 70
     0
102
RTVSPropertyOp25
 70
     0
102
RTVSPropertyOp26
 70
     0
102
RTVSPropertyOp27
 70
     0
102
RTVSPropertyOp28
 70
     1
102
RTVSPropertyOp29
 70
     1
102
RTVSPropertyOp30
 70
     1
102
RTVSPropertyOp31
 70
     1
102
RTVSPropertyOp32
 70
     1
102
RTVSPropertyOp33
 70
     1
102
RTVSPropertyOp34
 70
     1
102
RTVSPropertyOp35
 70
     1
102
RTVSPropertyOp36
 70
     1
102
RTVSPropertyOp37
 70
     1
102
RTVSPropertyOp38
 70
     1
102
RTVSPropertyOp39
 70
     1
102
RTVSPropertyOp40
 70
     1
102
RTVSPropertyOp41
 70
     1
102
RTVSPropertyOp42
 70
     1
102
RTVSPropertyOp43
 70
     1
102
RTVSPropertyOp44
 70
     1
102
RTVSPropertyOp45
 70
     1
102
RTVSPropertyOp46
 70
     1
102
RTVSPropertyOp47
 70
     1
102
RTVSPropertyOp48
 70
     1
102
RTVSPropertyOp49
 70
     1
102
RTVSPropertyOp50
 70
     1
102
RTVSPropertyOp51
 70
     0
102
RTVSPropertyOp52
 70
     0
102
RTVSPropertyOp53
 70
     1
102
RTVSPropertyOp54
 70
     1
102
RTVSPropertyOp55
 70
     1
102
RTVSPropertyOp56
 70
     1
102
RTVSPropertyOp57
 70
     1
102
RTVSPropertyOp58
 70
     1
102
RTVSPropertyOp59
 70
     1
102
RTVSPropertyOp60
 70
     1
102
RTVSPropertyOp61
 70
     1
102
RTVSPropertyOp62
 70
     1
  0
XRECORD
  5
1691C
102
{ACAD_REACTORS
330
1691B
102
}
330
1691B
100
AcDbXrecord
280
     1
102
RTVSPost2010Prop28
280
     0
102
RTVSPost2010PropOp28
 70
     1
102
RTVSPost2010Prop29
280
     1
102
RTVSPost2010PropOp29
 70
     1
102
RTVSPost2010Prop30
280
     1
102
RTVSPost2010PropOp30
 70
     1
102
RTVSPost2010Prop31
280
     0
102
RTVSPost2010PropOp31
 70
     1
102
RTVSPost2010Prop32
280
     0
102
RTVSPost2010PropOp32
 70
     1
102
RTVSPost2010Prop33
280
     0
102
RTVSPost2010PropOp33
 70
     1
102
RTVSPost2010Prop34
280
     0
102
RTVSPost2010PropOp34
 70
     1
102
RTVSPost2010Prop35
280
     0
102
RTVSPost2010PropOp35
 70
     1
102
RTVSPost2010Prop36
280
     0
102
RTVSPost2010PropOp36
 70
     1
102
RTVSPost2010Prop37
 90
       50
102
RTVSPost2010PropOp37
 70
     1
102
RTVSPost2010Prop38
140
0.0
102
RTVSPost2010PropOp38
 70
     1
102
RTVSPost2010Prop39
140
1.0
102
RTVSPost2010PropOp39
 70
     1
102
RTVSPost2010Prop40
 90
        0
102
RTVSPost2010PropOp40
 70
     1
102
RTVSPost2010Prop41ColorIndex
 90
       18
102
RTVSPost2010Prop41ColorRGB
 90
        0
102
RTVSPost2010PropOp41
 70
     1
102
RTVSPost2010Prop42
 90
       50
102
RTVSPost2010PropOp42
 70
     1
102
RTVSPost2010Prop43
 90
        3
102
RTVSPost2010PropOp43
 70
     1
102
RTVSPost2010Prop44ColorIndex
 90
        5
102
RTVSPost2010Prop44ColorRGB
 90
      255
102
RTVSPost2010PropOp44
 70
     1
102
RTVSPost2010Prop45
280
     0
102
RTVSPost2010PropOp45
 70
     1
102
RTVSPost2010Prop46
 90
       50
102
RTVSPost2010PropOp46
 70
     1
102
RTVSPost2010Prop47
 90
       50
102
RTVSPost2010PropOp47
 70
     1
102
RTVSPost2010Prop48
 90
       50
102
RTVSPost2010PropOp48
 70
     1
102
RTVSPost2010Prop49
280
     0
102
RTVSPost2010PropOp49
 70
     1
102
RTVSPost2010Prop50
 90
       50
102
RTVSPost2010PropOp50
 70
     1
102
RTVSPost2010Prop51ColorIndex
 90
      256
102
RTVSPost2010Prop51ColorRGB
 90
-16777216
102
RTVSPost2010PropOp51
 70
     0
102
RTVSPost2010Prop52
140
1.0
102
RTVSPost2010PropOp52
 70
     0
102
RTVSPost2010Prop53
 90
        2
102
RTVSPost2010PropOp53
 70
     1
102
RTVSPost2010Prop54
  1
strokes_ogs.tif
102
RTVSPost2010PropOp54
 70
     1
102
RTVSPost2010Prop55
280
     0
102
RTVSPost2010PropOp55
 70
     1
102
RTVSPost2010Prop56
140
1.0
102
RTVSPost2010PropOp56
 70
     1
102
RTVSPost2010Prop57
140
1.0
102
RTVSPost2010PropOp57
 70
     1
102
RTVSPropertyOp0
 70
     1
102
RTVSPropertyOp1
 70
     1
102
RTVSPropertyOp2
 70
     1
102
RTVSPropertyOp3
 70
     1
102
RTVSPropertyOp4
 70
     1
102
RTVSPropertyOp5
 70
     1
102
RTVSPropertyOp6
 70
     1
102
RTVSPropertyOp7
 70
     1
102
RTVSPropertyOp8
 70
     1
102
RTVSPropertyOp9
 70
     1
102
RTVSPropertyOp10
 70
     1
102
RTVSPropertyOp11
 70
     1
102
RTVSPropertyOp12
 70
     1
102
RTVSPropertyOp13
 70
     1
102
RTVSPropertyOp14
 70
     1
102
RTVSPropertyOp15
 70
     1
102
RTVSPropertyOp16
 70
     1
102
RTVSPropertyOp17
 70
     1
102
RTVSPropertyOp18
 70
     1
102
RTVSPropertyOp19
 70
     1
102
RTVSPropertyOp20
 70
     1
102
RTVSPropertyOp21
 70
     1
102
RTVSPropertyOp22
 70
     1
102
RTVSPropertyOp23
 70
     1
102
RTVSPropertyOp24
 70
     1
102
RTVSPropertyOp25
 70
     1
102
RTVSPropertyOp26
 70
     1
102
RTVSPropertyOp27
 70
     1
102
RTVSPropertyOp28
 70
     1
102
RTVSPropertyOp29
 70
     1
102
RTVSPropertyOp30
 70
     1
102
RTVSPropertyOp31
 70
     1
102
RTVSPropertyOp32
 70
     1
102
RTVSPropertyOp33
 70
     1
102
RTVSPropertyOp34
 70
     1
102
RTVSPropertyOp35
 70
     1
102
RTVSPropertyOp36
 70
     1
102
RTVSPropertyOp37
 70
     1
102
RTVSPropertyOp38
 70
     1
102
RTVSPropertyOp39
 70
     1
102
RTVSPropertyOp40
 70
     1
102
RTVSPropertyOp41
 70
     1
102
RTVSPropertyOp42
 70
     1
102
RTVSPropertyOp43
 70
     1
102
RTVSPropertyOp44
 70
     1
102
RTVSPropertyOp45
 70
     1
102
RTVSPropertyOp46
 70
     1
102
RTVSPropertyOp47
 70
     1
102
RTVSPropertyOp48
 70
     1
102
RTVSPropertyOp49
 70
     1
102
RTVSPropertyOp50
 70
     1
102
RTVSPropertyOp51
 70
     0
102
RTVSPropertyOp52
 70
     0
102
RTVSPropertyOp53
 70
     1
102
RTVSPropertyOp54
 70
     1
102
RTVSPropertyOp55
 70
     1
102
RTVSPropertyOp56
 70
     1
102
RTVSPropertyOp57
 70
     1
102
RTVSPropertyOp58
 70
     1
102
RTVSPropertyOp59
 70
     1
102
RTVSPropertyOp60
 70
     1
102
RTVSPropertyOp61
 70
     1
102
RTVSPropertyOp62
 70
     1
  0
XRECORD
  5
16926
102
{ACAD_REACTORS
330
16925
102
}
330
16925
100
AcDbXrecord
280
     1
102
RTVSPost2010Prop28
280
     0
102
RTVSPost2010PropOp28
 70
     1
102
RTVSPost2010Prop29
280
     1
102
RTVSPost2010PropOp29
 70
     1
102
RTVSPost2010Prop30
280
     1
102
RTVSPost2010PropOp30
 70
     1
102
RTVSPost2010Prop31
280
     0
102
RTVSPost2010PropOp31
 70
     1
102
RTVSPost2010Prop32
280
     0
102
RTVSPost2010PropOp32
 70
     1
102
RTVSPost2010Prop33
280
     0
102
RTVSPost2010PropOp33
 70
     1
102
RTVSPost2010Prop34
280
     0
102
RTVSPost2010PropOp34
 70
     1
102
RTVSPost2010Prop35
280
     0
102
RTVSPost2010PropOp35
 70
     1
102
RTVSPost2010Prop36
280
     0
102
RTVSPost2010PropOp36
 70
     1
102
RTVSPost2010Prop37
 90
       50
102
RTVSPost2010PropOp37
 70
     1
102
RTVSPost2010Prop38
140
0.0
102
RTVSPost2010PropOp38
 70
     1
102
RTVSPost2010Prop39
140
1.0
102
RTVSPost2010PropOp39
 70
     1
102
RTVSPost2010Prop40
 90
        0
102
RTVSPost2010PropOp40
 70
     1
102
RTVSPost2010Prop41ColorIndex
 90
       18
102
RTVSPost2010Prop41ColorRGB
 90
        0
102
RTVSPost2010PropOp41
 70
     1
102
RTVSPost2010Prop42
 90
       50
102
RTVSPost2010PropOp42
 70
     1
102
RTVSPost2010Prop43
 90
        3
102
RTVSPost2010PropOp43
 70
     1
102
RTVSPost2010Prop44ColorIndex
 90
        5
102
RTVSPost2010Prop44ColorRGB
 90
      255
102
RTVSPost2010PropOp44
 70
     1
102
RTVSPost2010Prop45
280
     0
102
RTVSPost2010PropOp45
 70
     1
102
RTVSPost2010Prop46
 90
       50
102
RTVSPost2010PropOp46
 70
     1
102
RTVSPost2010Prop47
 90
       50
102
RTVSPost2010PropOp47
 70
     1
102
RTVSPost2010Prop48
 90
       50
102
RTVSPost2010PropOp48
 70
     1
102
RTVSPost2010Prop49
280
     0
102
RTVSPost2010PropOp49
 70
     1
102
RTVSPost2010Prop50
 90
       50
102
RTVSPost2010PropOp50
 70
     1
102
RTVSPost2010Prop51ColorIndex
 90
      256
102
RTVSPost2010Prop51ColorRGB
 90
-16777216
102
RTVSPost2010PropOp51
 70
     0
102
RTVSPost2010Prop52
140
1.0
102
RTVSPost2010PropOp52
 70
     0
102
RTVSPost2010Prop53
 90
        2
102
RTVSPost2010PropOp53
 70
     1
102
RTVSPost2010Prop54
  1
strokes_ogs.tif
102
RTVSPost2010PropOp54
 70
     1
102
RTVSPost2010Prop55
280
     0
102
RTVSPost2010PropOp55
 70
     1
102
RTVSPost2010Prop56
140
1.0
102
RTVSPost2010PropOp56
 70
     1
102
RTVSPost2010Prop57
140
1.0
102
RTVSPost2010PropOp57
 70
     1
102
RTVSPropertyOp0
 70
     0
102
RTVSPropertyOp1
 70
     0
102
RTVSPropertyOp2
 70
     0
102
RTVSPropertyOp3
 70
     0
102
RTVSPropertyOp4
 70
     0
102
RTVSPropertyOp5
 70
     0
102
RTVSPropertyOp6
 70
     0
102
RTVSPropertyOp7
 70
     0
102
RTVSPropertyOp8
 70
     0
102
RTVSPropertyOp9
 70
     0
102
RTVSPropertyOp10
 70
     0
102
RTVSPropertyOp11
 70
     0
102
RTVSPropertyOp12
 70
     0
102
RTVSPropertyOp13
 70
     0
102
RTVSPropertyOp14
 70
     2
102
RTVSPropertyOp15
 70
     0
102
RTVSPropertyOp16
 70
     0
102
RTVSPropertyOp17
 70
     0
102
RTVSPropertyOp18
 70
     0
102
RTVSPropertyOp19
 70
     0
102
RTVSPropertyOp20
 70
     0
102
RTVSPropertyOp21
 70
     0
102
RTVSPropertyOp22
 70
     0
102
RTVSPropertyOp23
 70
     0
102
RTVSPropertyOp24
 70
     0
102
RTVSPropertyOp25
 70
     0
102
RTVSPropertyOp26
 70
     0
102
RTVSPropertyOp27
 70
     0
102
RTVSPropertyOp28
 70
     1
102
RTVSPropertyOp29
 70
     1
102
RTVSPropertyOp30
 70
     1
102
RTVSPropertyOp31
 70
     1
102
RTVSPropertyOp32
 70
     1
102
RTVSPropertyOp33
 70
     1
102
RTVSPropertyOp34
 70
     1
102
RTVSPropertyOp35
 70
     1
102
RTVSPropertyOp36
 70
     1
102
RTVSPropertyOp37
 70
     1
102
RTVSPropertyOp38
 70
     1
102
RTVSPropertyOp39
 70
     1
102
RTVSPropertyOp40
 70
     1
102
RTVSPropertyOp41
 70
     1
102
RTVSPropertyOp42
 70
     1
102
RTVSPropertyOp43
 70
     1
102
RTVSPropertyOp44
 70
     1
102
RTVSPropertyOp45
 70
     1
102
RTVSPropertyOp46
 70
     1
102
RTVSPropertyOp47
 70
     1
102
RTVSPropertyOp48
 70
     1
102
RTVSPropertyOp49
 70
     1
102
RTVSPropertyOp50
 70
     1
102
RTVSPropertyOp51
 70
     0
102
RTVSPropertyOp52
 70
     0
102
RTVSPropertyOp53
 70
     1
102
RTVSPropertyOp54
 70
     1
102
RTVSPropertyOp55
 70
     1
102
RTVSPropertyOp56
 70
     1
102
RTVSPropertyOp57
 70
     1
102
RTVSPropertyOp58
 70
     1
102
RTVSPropertyOp59
 70
     1
102
RTVSPropertyOp60
 70
     1
102
RTVSPropertyOp61
 70
     1
102
RTVSPropertyOp62
 70
     1
  0
XRECORD
  5
16914
102
{ACAD_REACTORS
330
16913
102
}
330
16913
100
AcDbXrecord
280
     1
102
RTVSPost2010Prop28
280
     0
102
RTVSPost2010PropOp28
 70
     1
102
RTVSPost2010Prop29
280
     1
102
RTVSPost2010PropOp29
 70
     1
102
RTVSPost2010Prop30
280
     1
102
RTVSPost2010PropOp30
 70
     1
102
RTVSPost2010Prop31
280
     0
102
RTVSPost2010PropOp31
 70
     1
102
RTVSPost2010Prop32
280
     0
102
RTVSPost2010PropOp32
 70
     1
102
RTVSPost2010Prop33
280
     0
102
RTVSPost2010PropOp33
 70
     1
102
RTVSPost2010Prop34
280
     0
102
RTVSPost2010PropOp34
 70
     1
102
RTVSPost2010Prop35
280
     0
102
RTVSPost2010PropOp35
 70
     1
102
RTVSPost2010Prop36
280
     0
102
RTVSPost2010PropOp36
 70
     1
102
RTVSPost2010Prop37
 90
       50
102
RTVSPost2010PropOp37
 70
     1
102
RTVSPost2010Prop38
140
0.0
102
RTVSPost2010PropOp38
 70
     1
102
RTVSPost2010Prop39
140
1.0
102
RTVSPost2010PropOp39
 70
     1
102
RTVSPost2010Prop40
 90
        0
102
RTVSPost2010PropOp40
 70
     1
102
RTVSPost2010Prop41ColorIndex
 90
       18
102
RTVSPost2010Prop41ColorRGB
 90
        0
102
RTVSPost2010PropOp41
 70
     1
102
RTVSPost2010Prop42
 90
       50
102
RTVSPost2010PropOp42
 70
     1
102
RTVSPost2010Prop43
 90
        3
102
RTVSPost2010PropOp43
 70
     1
102
RTVSPost2010Prop44ColorIndex
 90
        5
102
RTVSPost2010Prop44ColorRGB
 90
      255
102
RTVSPost2010PropOp44
 70
     1
102
RTVSPost2010Prop45
280
     0
102
RTVSPost2010PropOp45
 70
     1
102
RTVSPost2010Prop46
 90
       50
102
RTVSPost2010PropOp46
 70
     1
102
RTVSPost2010Prop47
 90
       50
102
RTVSPost2010PropOp47
 70
     1
102
RTVSPost2010Prop48
 90
       50
102
RTVSPost2010PropOp48
 70
     1
102
RTVSPost2010Prop49
280
     0
102
RTVSPost2010PropOp49
 70
     1
102
RTVSPost2010Prop50
 90
       50
102
RTVSPost2010PropOp50
 70
     1
102
RTVSPost2010Prop51ColorIndex
 90
      256
102
RTVSPost2010Prop51ColorRGB
 90
-16777216
102
RTVSPost2010PropOp51
 70
     0
102
RTVSPost2010Prop52
140
1.0
102
RTVSPost2010PropOp52
 70
     0
102
RTVSPost2010Prop53
 90
        2
102
RTVSPost2010PropOp53
 70
     1
102
RTVSPost2010Prop54
  1
strokes_ogs.tif
102
RTVSPost2010PropOp54
 70
     1
102
RTVSPost2010Prop55
280
     0
102
RTVSPost2010PropOp55
 70
     1
102
RTVSPost2010Prop56
140
1.0
102
RTVSPost2010PropOp56
 70
     1
102
RTVSPost2010Prop57
140
1.0
102
RTVSPost2010PropOp57
 70
     1
102
RTVSPropertyOp0
 70
     1
102
RTVSPropertyOp1
 70
     1
102
RTVSPropertyOp2
 70
     1
102
RTVSPropertyOp3
 70
     1
102
RTVSPropertyOp4
 70
     1
102
RTVSPropertyOp5
 70
     1
102
RTVSPropertyOp6
 70
     1
102
RTVSPropertyOp7
 70
     1
102
RTVSPropertyOp8
 70
     1
102
RTVSPropertyOp9
 70
     1
102
RTVSPropertyOp10
 70
     1
102
RTVSPropertyOp11
 70
     1
102
RTVSPropertyOp12
 70
     1
102
RTVSPropertyOp13
 70
     1
102
RTVSPropertyOp14
 70
     1
102
RTVSPropertyOp15
 70
     1
102
RTVSPropertyOp16
 70
     1
102
RTVSPropertyOp17
 70
     1
102
RTVSPropertyOp18
 70
     1
102
RTVSPropertyOp19
 70
     1
102
RTVSPropertyOp20
 70
     1
102
RTVSPropertyOp21
 70
     1
102
RTVSPropertyOp22
 70
     1
102
RTVSPropertyOp23
 70
     1
102
RTVSPropertyOp24
 70
     1
102
RTVSPropertyOp25
 70
     1
102
RTVSPropertyOp26
 70
     1
102
RTVSPropertyOp27
 70
     1
102
RTVSPropertyOp28
 70
     1
102
RTVSPropertyOp29
 70
     1
102
RTVSPropertyOp30
 70
     1
102
RTVSPropertyOp31
 70
     1
102
RTVSPropertyOp32
 70
     1
102
RTVSPropertyOp33
 70
     1
102
RTVSPropertyOp34
 70
     1
102
RTVSPropertyOp35
 70
     1
102
RTVSPropertyOp36
 70
     1
102
RTVSPropertyOp37
 70
     1
102
RTVSPropertyOp38
 70
     1
102
RTVSPropertyOp39
 70
     1
102
RTVSPropertyOp40
 70
     1
102
RTVSPropertyOp41
 70
     1
102
RTVSPropertyOp42
 70
     1
102
RTVSPropertyOp43
 70
     1
102
RTVSPropertyOp44
 70
     1
102
RTVSPropertyOp45
 70
     1
102
RTVSPropertyOp46
 70
     1
102
RTVSPropertyOp47
 70
     1
102
RTVSPropertyOp48
 70
     1
102
RTVSPropertyOp49
 70
     1
102
RTVSPropertyOp50
 70
     1
102
RTVSPropertyOp51
 70
     0
102
RTVSPropertyOp52
 70
     0
102
RTVSPropertyOp53
 70
     1
102
RTVSPropertyOp54
 70
     1
102
RTVSPropertyOp55
 70
     1
102
RTVSPropertyOp56
 70
     1
102
RTVSPropertyOp57
 70
     1
102
RTVSPropertyOp58
 70
     1
102
RTVSPropertyOp59
 70
     1
102
RTVSPropertyOp60
 70
     1
102
RTVSPropertyOp61
 70
     1
102
RTVSPropertyOp62
 70
     1
  0
XRECORD
  5
16932
102
{ACAD_REACTORS
330
16931
102
}
330
16931
100
AcDbXrecord
280
     1
102
RTVSPost2010Prop28
280
     0
102
RTVSPost2010PropOp28
 70
     1
102
RTVSPost2010Prop29
280
     1
102
RTVSPost2010PropOp29
 70
     1
102
RTVSPost2010Prop30
280
     1
102
RTVSPost2010PropOp30
 70
     1
102
RTVSPost2010Prop31
280
     0
102
RTVSPost2010PropOp31
 70
     1
102
RTVSPost2010Prop32
280
     0
102
RTVSPost2010PropOp32
 70
     1
102
RTVSPost2010Prop33
280
     0
102
RTVSPost2010PropOp33
 70
     1
102
RTVSPost2010Prop34
280
     0
102
RTVSPost2010PropOp34
 70
     1
102
RTVSPost2010Prop35
280
     0
102
RTVSPost2010PropOp35
 70
     1
102
RTVSPost2010Prop36
280
     0
102
RTVSPost2010PropOp36
 70
     1
102
RTVSPost2010Prop37
 90
       50
102
RTVSPost2010PropOp37
 70
     1
102
RTVSPost2010Prop38
140
0.0
102
RTVSPost2010PropOp38
 70
     1
102
RTVSPost2010Prop39
140
1.0
102
RTVSPost2010PropOp39
 70
     1
102
RTVSPost2010Prop40
 90
        0
102
RTVSPost2010PropOp40
 70
     1
102
RTVSPost2010Prop41ColorIndex
 90
       18
102
RTVSPost2010Prop41ColorRGB
 90
        0
102
RTVSPost2010PropOp41
 70
     1
102
RTVSPost2010Prop42
 90
       50
102
RTVSPost2010PropOp42
 70
     1
102
RTVSPost2010Prop43
 90
        3
102
RTVSPost2010PropOp43
 70
     1
102
RTVSPost2010Prop44ColorIndex
 90
        5
102
RTVSPost2010Prop44ColorRGB
 90
      255
102
RTVSPost2010PropOp44
 70
     1
102
RTVSPost2010Prop45
280
     0
102
RTVSPost2010PropOp45
 70
     1
102
RTVSPost2010Prop46
 90
       50
102
RTVSPost2010PropOp46
 70
     1
102
RTVSPost2010Prop47
 90
       50
102
RTVSPost2010PropOp47
 70
     1
102
RTVSPost2010Prop48
 90
       50
102
RTVSPost2010PropOp48
 70
     1
102
RTVSPost2010Prop49
280
     0
102
RTVSPost2010PropOp49
 70
     1
102
RTVSPost2010Prop50
 90
       50
102
RTVSPost2010PropOp50
 70
     1
102
RTVSPost2010Prop51ColorIndex
 90
      256
102
RTVSPost2010Prop51ColorRGB
 90
-16777216
102
RTVSPost2010PropOp51
 70
     0
102
RTVSPost2010Prop52
140
1.0
102
RTVSPost2010PropOp52
 70
     0
102
RTVSPost2010Prop53
 90
        2
102
RTVSPost2010PropOp53
 70
     1
102
RTVSPost2010Prop54
  1
strokes_ogs.tif
102
RTVSPost2010PropOp54
 70
     1
102
RTVSPost2010Prop55
280
     0
102
RTVSPost2010PropOp55
 70
     1
102
RTVSPost2010Prop56
140
1.0
102
RTVSPost2010PropOp56
 70
     1
102
RTVSPost2010Prop57
140
1.0
102
RTVSPost2010PropOp57
 70
     1
102
RTVSPropertyOp0
 70
     1
102
RTVSPropertyOp1
 70
     1
102
RTVSPropertyOp2
 70
     1
102
RTVSPropertyOp3
 70
     1
102
RTVSPropertyOp4
 70
     1
102
RTVSPropertyOp5
 70
     1
102
RTVSPropertyOp6
 70
     1
102
RTVSPropertyOp7
 70
     1
102
RTVSPropertyOp8
 70
     1
102
RTVSPropertyOp9
 70
     1
102
RTVSPropertyOp10
 70
     1
102
RTVSPropertyOp11
 70
     1
102
RTVSPropertyOp12
 70
     1
102
RTVSPropertyOp13
 70
     1
102
RTVSPropertyOp14
 70
     1
102
RTVSPropertyOp15
 70
     1
102
RTVSPropertyOp16
 70
     1
102
RTVSPropertyOp17
 70
     1
102
RTVSPropertyOp18
 70
     1
102
RTVSPropertyOp19
 70
     1
102
RTVSPropertyOp20
 70
     1
102
RTVSPropertyOp21
 70
     1
102
RTVSPropertyOp22
 70
     1
102
RTVSPropertyOp23
 70
     1
102
RTVSPropertyOp24
 70
     1
102
RTVSPropertyOp25
 70
     1
102
RTVSPropertyOp26
 70
     1
102
RTVSPropertyOp27
 70
     1
102
RTVSPropertyOp28
 70
     1
102
RTVSPropertyOp29
 70
     1
102
RTVSPropertyOp30
 70
     1
102
RTVSPropertyOp31
 70
     1
102
RTVSPropertyOp32
 70
     1
102
RTVSPropertyOp33
 70
     1
102
RTVSPropertyOp34
 70
     1
102
RTVSPropertyOp35
 70
     1
102
RTVSPropertyOp36
 70
     1
102
RTVSPropertyOp37
 70
     1
102
RTVSPropertyOp38
 70
     1
102
RTVSPropertyOp39
 70
     1
102
RTVSPropertyOp40
 70
     1
102
RTVSPropertyOp41
 70
     1
102
RTVSPropertyOp42
 70
     1
102
RTVSPropertyOp43
 70
     1
102
RTVSPropertyOp44
 70
     1
102
RTVSPropertyOp45
 70
     1
102
RTVSPropertyOp46
 70
     1
102
RTVSPropertyOp47
 70
     1
102
RTVSPropertyOp48
 70
     1
102
RTVSPropertyOp49
 70
     1
102
RTVSPropertyOp50
 70
     1
102
RTVSPropertyOp51
 70
     0
102
RTVSPropertyOp52
 70
     0
102
RTVSPropertyOp53
 70
     1
102
RTVSPropertyOp54
 70
     1
102
RTVSPropertyOp55
 70
     1
102
RTVSPropertyOp56
 70
     1
102
RTVSPropertyOp57
 70
     1
102
RTVSPropertyOp58
 70
     1
102
RTVSPropertyOp59
 70
     1
102
RTVSPropertyOp60
 70
     1
102
RTVSPropertyOp61
 70
     1
102
RTVSPropertyOp62
 70
     1
  0
XRECORD
  5
16930
102
{ACAD_REACTORS
330
1692F
102
}
330
1692F
100
AcDbXrecord
280
     1
102
RTVSPost2010Prop28
280
     0
102
RTVSPost2010PropOp28
 70
     1
102
RTVSPost2010Prop29
280
     1
102
RTVSPost2010PropOp29
 70
     1
102
RTVSPost2010Prop30
280
     1
102
RTVSPost2010PropOp30
 70
     1
102
RTVSPost2010Prop31
280
     0
102
RTVSPost2010PropOp31
 70
     1
102
RTVSPost2010Prop32
280
     0
102
RTVSPost2010PropOp32
 70
     1
102
RTVSPost2010Prop33
280
     0
102
RTVSPost2010PropOp33
 70
     1
102
RTVSPost2010Prop34
280
     0
102
RTVSPost2010PropOp34
 70
     1
102
RTVSPost2010Prop35
280
     0
102
RTVSPost2010PropOp35
 70
     1
102
RTVSPost2010Prop36
280
     0
102
RTVSPost2010PropOp36
 70
     1
102
RTVSPost2010Prop37
 90
       50
102
RTVSPost2010PropOp37
 70
     1
102
RTVSPost2010Prop38
140
0.0
102
RTVSPost2010PropOp38
 70
     1
102
RTVSPost2010Prop39
140
1.0
102
RTVSPost2010PropOp39
 70
     1
102
RTVSPost2010Prop40
 90
        0
102
RTVSPost2010PropOp40
 70
     1
102
RTVSPost2010Prop41ColorIndex
 90
       18
102
RTVSPost2010Prop41ColorRGB
 90
        0
102
RTVSPost2010PropOp41
 70
     1
102
RTVSPost2010Prop42
 90
       50
102
RTVSPost2010PropOp42
 70
     1
102
RTVSPost2010Prop43
 90
        3
102
RTVSPost2010PropOp43
 70
     1
102
RTVSPost2010Prop44ColorIndex
 90
        5
102
RTVSPost2010Prop44ColorRGB
 90
      255
102
RTVSPost2010PropOp44
 70
     1
102
RTVSPost2010Prop45
280
     0
102
RTVSPost2010PropOp45
 70
     1
102
RTVSPost2010Prop46
 90
       50
102
RTVSPost2010PropOp46
 70
     1
102
RTVSPost2010Prop47
 90
       50
102
RTVSPost2010PropOp47
 70
     1
102
RTVSPost2010Prop48
 90
       50
102
RTVSPost2010PropOp48
 70
     1
102
RTVSPost2010Prop49
280
     0
102
RTVSPost2010PropOp49
 70
     1
102
RTVSPost2010Prop50
 90
       50
102
RTVSPost2010PropOp50
 70
     1
102
RTVSPost2010Prop51ColorIndex
 90
      256
102
RTVSPost2010Prop51ColorRGB
 90
-16777216
102
RTVSPost2010PropOp51
 70
     0
102
RTVSPost2010Prop52
140
1.0
102
RTVSPost2010PropOp52
 70
     0
102
RTVSPost2010Prop53
 90
        2
102
RTVSPost2010PropOp53
 70
     1
102
RTVSPost2010Prop54
  1
strokes_ogs.tif
102
RTVSPost2010PropOp54
 70
     1
102
RTVSPost2010Prop55
280
     0
102
RTVSPost2010PropOp55
 70
     1
102
RTVSPost2010Prop56
140
1.0
102
RTVSPost2010PropOp56
 70
     1
102
RTVSPost2010Prop57
140
1.0
102
RTVSPost2010PropOp57
 70
     1
102
RTVSPropertyOp0
 70
     1
102
RTVSPropertyOp1
 70
     1
102
RTVSPropertyOp2
 70
     1
102
RTVSPropertyOp3
 70
     1
102
RTVSPropertyOp4
 70
     1
102
RTVSPropertyOp5
 70
     1
102
RTVSPropertyOp6
 70
     1
102
RTVSPropertyOp7
 70
     1
102
RTVSPropertyOp8
 70
     1
102
RTVSPropertyOp9
 70
     1
102
RTVSPropertyOp10
 70
     1
102
RTVSPropertyOp11
 70
     1
102
RTVSPropertyOp12
 70
     1
102
RTVSPropertyOp13
 70
     1
102
RTVSPropertyOp14
 70
     1
102
RTVSPropertyOp15
 70
     1
102
RTVSPropertyOp16
 70
     1
102
RTVSPropertyOp17
 70
     1
102
RTVSPropertyOp18
 70
     1
102
RTVSPropertyOp19
 70
     1
102
RTVSPropertyOp20
 70
     1
102
RTVSPropertyOp21
 70
     1
102
RTVSPropertyOp22
 70
     1
102
RTVSPropertyOp23
 70
     1
102
RTVSPropertyOp24
 70
     1
102
RTVSPropertyOp25
 70
     1
102
RTVSPropertyOp26
 70
     1
102
RTVSPropertyOp27
 70
     1
102
RTVSPropertyOp28
 70
     1
102
RTVSPropertyOp29
 70
     1
102
RTVSPropertyOp30
 70
     1
102
RTVSPropertyOp31
 70
     1
102
RTVSPropertyOp32
 70
     1
102
RTVSPropertyOp33
 70
     1
102
RTVSPropertyOp34
 70
     1
102
RTVSPropertyOp35
 70
     1
102
RTVSPropertyOp36
 70
     1
102
RTVSPropertyOp37
 70
     1
102
RTVSPropertyOp38
 70
     1
102
RTVSPropertyOp39
 70
     1
102
RTVSPropertyOp40
 70
     1
102
RTVSPropertyOp41
 70
     1
102
RTVSPropertyOp42
 70
     1
102
RTVSPropertyOp43
 70
     1
102
RTVSPropertyOp44
 70
     1
102
RTVSPropertyOp45
 70
     1
102
RTVSPropertyOp46
 70
     1
102
RTVSPropertyOp47
 70
     1
102
RTVSPropertyOp48
 70
     1
102
RTVSPropertyOp49
 70
     1
102
RTVSPropertyOp50
 70
     1
102
RTVSPropertyOp51
 70
     0
102
RTVSPropertyOp52
 70
     0
102
RTVSPropertyOp53
 70
     1
102
RTVSPropertyOp54
 70
     1
102
RTVSPropertyOp55
 70
     1
102
RTVSPropertyOp56
 70
     1
102
RTVSPropertyOp57
 70
     1
102
RTVSPropertyOp58
 70
     1
102
RTVSPropertyOp59
 70
     1
102
RTVSPropertyOp60
 70
     1
102
RTVSPropertyOp61
 70
     1
102
RTVSPropertyOp62
 70
     1
  0
XRECORD
  5
1692A
102
{ACAD_REACTORS
330
16929
102
}
330
16929
100
AcDbXrecord
280
     1
102
RTVSPost2010Prop28
280
     0
102
RTVSPost2010PropOp28
 70
     1
102
RTVSPost2010Prop29
280
     1
102
RTVSPost2010PropOp29
 70
     1
102
RTVSPost2010Prop30
280
     1
102
RTVSPost2010PropOp30
 70
     1
102
RTVSPost2010Prop31
280
     0
102
RTVSPost2010PropOp31
 70
     1
102
RTVSPost2010Prop32
280
     0
102
RTVSPost2010PropOp32
 70
     1
102
RTVSPost2010Prop33
280
     0
102
RTVSPost2010PropOp33
 70
     1
102
RTVSPost2010Prop34
280
     0
102
RTVSPost2010PropOp34
 70
     1
102
RTVSPost2010Prop35
280
     0
102
RTVSPost2010PropOp35
 70
     1
102
RTVSPost2010Prop36
280
     0
102
RTVSPost2010PropOp36
 70
     1
102
RTVSPost2010Prop37
 90
       50
102
RTVSPost2010PropOp37
 70
     1
102
RTVSPost2010Prop38
140
0.0
102
RTVSPost2010PropOp38
 70
     1
102
RTVSPost2010Prop39
140
1.0
102
RTVSPost2010PropOp39
 70
     1
102
RTVSPost2010Prop40
 90
        0
102
RTVSPost2010PropOp40
 70
     1
102
RTVSPost2010Prop41ColorIndex
 90
       18
102
RTVSPost2010Prop41ColorRGB
 90
        0
102
RTVSPost2010PropOp41
 70
     1
102
RTVSPost2010Prop42
 90
       50
102
RTVSPost2010PropOp42
 70
     1
102
RTVSPost2010Prop43
 90
        3
102
RTVSPost2010PropOp43
 70
     1
102
RTVSPost2010Prop44ColorIndex
 90
        5
102
RTVSPost2010Prop44ColorRGB
 90
      255
102
RTVSPost2010PropOp44
 70
     1
102
RTVSPost2010Prop45
280
     0
102
RTVSPost2010PropOp45
 70
     1
102
RTVSPost2010Prop46
 90
       50
102
RTVSPost2010PropOp46
 70
     1
102
RTVSPost2010Prop47
 90
       50
102
RTVSPost2010PropOp47
 70
     1
102
RTVSPost2010Prop48
 90
       50
102
RTVSPost2010PropOp48
 70
     1
102
RTVSPost2010Prop49
280
     0
102
RTVSPost2010PropOp49
 70
     1
102
RTVSPost2010Prop50
 90
       50
102
RTVSPost2010PropOp50
 70
     1
102
RTVSPost2010Prop51ColorIndex
 90
      256
102
RTVSPost2010Prop51ColorRGB
 90
-16777216
102
RTVSPost2010PropOp51
 70
     0
102
RTVSPost2010Prop52
140
1.0
102
RTVSPost2010PropOp52
 70
     0
102
RTVSPost2010Prop53
 90
        2
102
RTVSPost2010PropOp53
 70
     1
102
RTVSPost2010Prop54
  1
strokes_ogs.tif
102
RTVSPost2010PropOp54
 70
     1
102
RTVSPost2010Prop55
280
     0
102
RTVSPost2010PropOp55
 70
     1
102
RTVSPost2010Prop56
140
1.0
102
RTVSPost2010PropOp56
 70
     1
102
RTVSPost2010Prop57
140
1.0
102
RTVSPost2010PropOp57
 70
     1
102
RTVSPropertyOp0
 70
     1
102
RTVSPropertyOp1
 70
     1
102
RTVSPropertyOp2
 70
     1
102
RTVSPropertyOp3
 70
     1
102
RTVSPropertyOp4
 70
     1
102
RTVSPropertyOp5
 70
     1
102
RTVSPropertyOp6
 70
     1
102
RTVSPropertyOp7
 70
     1
102
RTVSPropertyOp8
 70
     1
102
RTVSPropertyOp9
 70
     1
102
RTVSPropertyOp10
 70
     1
102
RTVSPropertyOp11
 70
     1
102
RTVSPropertyOp12
 70
     1
102
RTVSPropertyOp13
 70
     1
102
RTVSPropertyOp14
 70
     1
102
RTVSPropertyOp15
 70
     1
102
RTVSPropertyOp16
 70
     1
102
RTVSPropertyOp17
 70
     1
102
RTVSPropertyOp18
 70
     1
102
RTVSPropertyOp19
 70
     1
102
RTVSPropertyOp20
 70
     1
102
RTVSPropertyOp21
 70
     1
102
RTVSPropertyOp22
 70
     1
102
RTVSPropertyOp23
 70
     1
102
RTVSPropertyOp24
 70
     1
102
RTVSPropertyOp25
 70
     1
102
RTVSPropertyOp26
 70
     1
102
RTVSPropertyOp27
 70
     1
102
RTVSPropertyOp28
 70
     1
102
RTVSPropertyOp29
 70
     1
102
RTVSPropertyOp30
 70
     1
102
RTVSPropertyOp31
 70
     1
102
RTVSPropertyOp32
 70
     1
102
RTVSPropertyOp33
 70
     1
102
RTVSPropertyOp34
 70
     1
102
RTVSPropertyOp35
 70
     1
102
RTVSPropertyOp36
 70
     1
102
RTVSPropertyOp37
 70
     1
102
RTVSPropertyOp38
 70
     1
102
RTVSPropertyOp39
 70
     1
102
RTVSPropertyOp40
 70
     1
102
RTVSPropertyOp41
 70
     1
102
RTVSPropertyOp42
 70
     1
102
RTVSPropertyOp43
 70
     1
102
RTVSPropertyOp44
 70
     1
102
RTVSPropertyOp45
 70
     1
102
RTVSPropertyOp46
 70
     1
102
RTVSPropertyOp47
 70
     1
102
RTVSPropertyOp48
 70
     1
102
RTVSPropertyOp49
 70
     1
102
RTVSPropertyOp50
 70
     1
102
RTVSPropertyOp51
 70
     0
102
RTVSPropertyOp52
 70
     0
102
RTVSPropertyOp53
 70
     1
102
RTVSPropertyOp54
 70
     1
102
RTVSPropertyOp55
 70
     1
102
RTVSPropertyOp56
 70
     1
102
RTVSPropertyOp57
 70
     1
102
RTVSPropertyOp58
 70
     1
102
RTVSPropertyOp59
 70
     1
102
RTVSPropertyOp60
 70
     1
102
RTVSPropertyOp61
 70
     1
102
RTVSPropertyOp62
 70
     1
  0
XRECORD
  5
1692C
102
{ACAD_REACTORS
330
1692B
102
}
330
1692B
100
AcDbXrecord
280
     1
102
RTVSPost2010Prop28
280
     0
102
RTVSPost2010PropOp28
 70
     1
102
RTVSPost2010Prop29
280
     1
102
RTVSPost2010PropOp29
 70
     1
102
RTVSPost2010Prop30
280
     1
102
RTVSPost2010PropOp30
 70
     1
102
RTVSPost2010Prop31
280
     0
102
RTVSPost2010PropOp31
 70
     1
102
RTVSPost2010Prop32
280
     0
102
RTVSPost2010PropOp32
 70
     1
102
RTVSPost2010Prop33
280
     0
102
RTVSPost2010PropOp33
 70
     1
102
RTVSPost2010Prop34
280
     0
102
RTVSPost2010PropOp34
 70
     1
102
RTVSPost2010Prop35
280
     0
102
RTVSPost2010PropOp35
 70
     1
102
RTVSPost2010Prop36
280
     0
102
RTVSPost2010PropOp36
 70
     1
102
RTVSPost2010Prop37
 90
       50
102
RTVSPost2010PropOp37
 70
     1
102
RTVSPost2010Prop38
140
0.0
102
RTVSPost2010PropOp38
 70
     1
102
RTVSPost2010Prop39
140
1.0
102
RTVSPost2010PropOp39
 70
     1
102
RTVSPost2010Prop40
 90
        0
102
RTVSPost2010PropOp40
 70
     1
102
RTVSPost2010Prop41ColorIndex
 90
       18
102
RTVSPost2010Prop41ColorRGB
 90
        0
102
RTVSPost2010PropOp41
 70
     1
102
RTVSPost2010Prop42
 90
       50
102
RTVSPost2010PropOp42
 70
     1
102
RTVSPost2010Prop43
 90
        3
102
RTVSPost2010PropOp43
 70
     1
102
RTVSPost2010Prop44ColorIndex
 90
        5
102
RTVSPost2010Prop44ColorRGB
 90
      255
102
RTVSPost2010PropOp44
 70
     1
102
RTVSPost2010Prop45
280
     0
102
RTVSPost2010PropOp45
 70
     1
102
RTVSPost2010Prop46
 90
       50
102
RTVSPost2010PropOp46
 70
     1
102
RTVSPost2010Prop47
 90
       50
102
RTVSPost2010PropOp47
 70
     1
102
RTVSPost2010Prop48
 90
       50
102
RTVSPost2010PropOp48
 70
     1
102
RTVSPost2010Prop49
280
     0
102
RTVSPost2010PropOp49
 70
     1
102
RTVSPost2010Prop50
 90
       50
102
RTVSPost2010PropOp50
 70
     1
102
RTVSPost2010Prop51ColorIndex
 90
      256
102
RTVSPost2010Prop51ColorRGB
 90
-16777216
102
RTVSPost2010PropOp51
 70
     0
102
RTVSPost2010Prop52
140
1.0
102
RTVSPost2010PropOp52
 70
     0
102
RTVSPost2010Prop53
 90
        2
102
RTVSPost2010PropOp53
 70
     1
102
RTVSPost2010Prop54
  1
strokes_ogs.tif
102
RTVSPost2010PropOp54
 70
     1
102
RTVSPost2010Prop55
280
     0
102
RTVSPost2010PropOp55
 70
     1
102
RTVSPost2010Prop56
140
1.0
102
RTVSPost2010PropOp56
 70
     1
102
RTVSPost2010Prop57
140
1.0
102
RTVSPost2010PropOp57
 70
     1
102
RTVSPropertyOp0
 70
     1
102
RTVSPropertyOp1
 70
     1
102
RTVSPropertyOp2
 70
     1
102
RTVSPropertyOp3
 70
     1
102
RTVSPropertyOp4
 70
     1
102
RTVSPropertyOp5
 70
     1
102
RTVSPropertyOp6
 70
     1
102
RTVSPropertyOp7
 70
     1
102
RTVSPropertyOp8
 70
     1
102
RTVSPropertyOp9
 70
     1
102
RTVSPropertyOp10
 70
     1
102
RTVSPropertyOp11
 70
     1
102
RTVSPropertyOp12
 70
     1
102
RTVSPropertyOp13
 70
     1
102
RTVSPropertyOp14
 70
     1
102
RTVSPropertyOp15
 70
     1
102
RTVSPropertyOp16
 70
     1
102
RTVSPropertyOp17
 70
     1
102
RTVSPropertyOp18
 70
     1
102
RTVSPropertyOp19
 70
     1
102
RTVSPropertyOp20
 70
     1
102
RTVSPropertyOp21
 70
     1
102
RTVSPropertyOp22
 70
     1
102
RTVSPropertyOp23
 70
     1
102
RTVSPropertyOp24
 70
     1
102
RTVSPropertyOp25
 70
     1
102
RTVSPropertyOp26
 70
     1
102
RTVSPropertyOp27
 70
     1
102
RTVSPropertyOp28
 70
     1
102
RTVSPropertyOp29
 70
     1
102
RTVSPropertyOp30
 70
     1
102
RTVSPropertyOp31
 70
     1
102
RTVSPropertyOp32
 70
     1
102
RTVSPropertyOp33
 70
     1
102
RTVSPropertyOp34
 70
     1
102
RTVSPropertyOp35
 70
     1
102
RTVSPropertyOp36
 70
     1
102
RTVSPropertyOp37
 70
     1
102
RTVSPropertyOp38
 70
     1
102
RTVSPropertyOp39
 70
     1
102
RTVSPropertyOp40
 70
     1
102
RTVSPropertyOp41
 70
     1
102
RTVSPropertyOp42
 70
     1
102
RTVSPropertyOp43
 70
     1
102
RTVSPropertyOp44
 70
     1
102
RTVSPropertyOp45
 70
     1
102
RTVSPropertyOp46
 70
     1
102
RTVSPropertyOp47
 70
     1
102
RTVSPropertyOp48
 70
     1
102
RTVSPropertyOp49
 70
     1
102
RTVSPropertyOp50
 70
     1
102
RTVSPropertyOp51
 70
     0
102
RTVSPropertyOp52
 70
     0
102
RTVSPropertyOp53
 70
     1
102
RTVSPropertyOp54
 70
     1
102
RTVSPropertyOp55
 70
     1
102
RTVSPropertyOp56
 70
     1
102
RTVSPropertyOp57
 70
     1
102
RTVSPropertyOp58
 70
     1
102
RTVSPropertyOp59
 70
     1
102
RTVSPropertyOp60
 70
     1
102
RTVSPropertyOp61
 70
     1
102
RTVSPropertyOp62
 70
     1
  0
XRECORD
  5
1691A
102
{ACAD_REACTORS
330
16919
102
}
330
16919
100
AcDbXrecord
280
     1
102
RTVSPost2010Prop28
280
     0
102
RTVSPost2010PropOp28
 70
     1
102
RTVSPost2010Prop29
280
     1
102
RTVSPost2010PropOp29
 70
     1
102
RTVSPost2010Prop30
280
     1
102
RTVSPost2010PropOp30
 70
     1
102
RTVSPost2010Prop31
280
     0
102
RTVSPost2010PropOp31
 70
     1
102
RTVSPost2010Prop32
280
     0
102
RTVSPost2010PropOp32
 70
     1
102
RTVSPost2010Prop33
280
     0
102
RTVSPost2010PropOp33
 70
     1
102
RTVSPost2010Prop34
280
     0
102
RTVSPost2010PropOp34
 70
     1
102
RTVSPost2010Prop35
280
     0
102
RTVSPost2010PropOp35
 70
     1
102
RTVSPost2010Prop36
280
     0
102
RTVSPost2010PropOp36
 70
     1
102
RTVSPost2010Prop37
 90
       50
102
RTVSPost2010PropOp37
 70
     1
102
RTVSPost2010Prop38
140
0.0
102
RTVSPost2010PropOp38
 70
     1
102
RTVSPost2010Prop39
140
1.0
102
RTVSPost2010PropOp39
 70
     1
102
RTVSPost2010Prop40
 90
        0
102
RTVSPost2010PropOp40
 70
     1
102
RTVSPost2010Prop41ColorIndex
 90
       18
102
RTVSPost2010Prop41ColorRGB
 90
        0
102
RTVSPost2010PropOp41
 70
     1
102
RTVSPost2010Prop42
 90
       50
102
RTVSPost2010PropOp42
 70
     1
102
RTVSPost2010Prop43
 90
        3
102
RTVSPost2010PropOp43
 70
     1
102
RTVSPost2010Prop44ColorIndex
 90
        5
102
RTVSPost2010Prop44ColorRGB
 90
      255
102
RTVSPost2010PropOp44
 70
     1
102
RTVSPost2010Prop45
280
     0
102
RTVSPost2010PropOp45
 70
     1
102
RTVSPost2010Prop46
 90
       50
102
RTVSPost2010PropOp46
 70
     1
102
RTVSPost2010Prop47
 90
       50
102
RTVSPost2010PropOp47
 70
     1
102
RTVSPost2010Prop48
 90
       50
102
RTVSPost2010PropOp48
 70
     1
102
RTVSPost2010Prop49
280
     0
102
RTVSPost2010PropOp49
 70
     1
102
RTVSPost2010Prop50
 90
       50
102
RTVSPost2010PropOp50
 70
     1
102
RTVSPost2010Prop51ColorIndex
 90
      256
102
RTVSPost2010Prop51ColorRGB
 90
-16777216
102
RTVSPost2010PropOp51
 70
     0
102
RTVSPost2010Prop52
140
1.0
102
RTVSPost2010PropOp52
 70
     0
102
RTVSPost2010Prop53
 90
        2
102
RTVSPost2010PropOp53
 70
     1
102
RTVSPost2010Prop54
  1
strokes_ogs.tif
102
RTVSPost2010PropOp54
 70
     1
102
RTVSPost2010Prop55
280
     0
102
RTVSPost2010PropOp55
 70
     1
102
RTVSPost2010Prop56
140
1.0
102
RTVSPost2010PropOp56
 70
     1
102
RTVSPost2010Prop57
140
1.0
102
RTVSPost2010PropOp57
 70
     1
102
RTVSPropertyOp0
 70
     1
102
RTVSPropertyOp1
 70
     1
102
RTVSPropertyOp2
 70
     1
102
RTVSPropertyOp3
 70
     1
102
RTVSPropertyOp4
 70
     1
102
RTVSPropertyOp5
 70
     1
102
RTVSPropertyOp6
 70
     1
102
RTVSPropertyOp7
 70
     1
102
RTVSPropertyOp8
 70
     1
102
RTVSPropertyOp9
 70
     1
102
RTVSPropertyOp10
 70
     1
102
RTVSPropertyOp11
 70
     1
102
RTVSPropertyOp12
 70
     1
102
RTVSPropertyOp13
 70
     1
102
RTVSPropertyOp14
 70
     1
102
RTVSPropertyOp15
 70
     1
102
RTVSPropertyOp16
 70
     1
102
RTVSPropertyOp17
 70
     1
102
RTVSPropertyOp18
 70
     1
102
RTVSPropertyOp19
 70
     1
102
RTVSPropertyOp20
 70
     1
102
RTVSPropertyOp21
 70
     1
102
RTVSPropertyOp22
 70
     1
102
RTVSPropertyOp23
 70
     1
102
RTVSPropertyOp24
 70
     1
102
RTVSPropertyOp25
 70
     1
102
RTVSPropertyOp26
 70
     1
102
RTVSPropertyOp27
 70
     1
102
RTVSPropertyOp28
 70
     1
102
RTVSPropertyOp29
 70
     1
102
RTVSPropertyOp30
 70
     1
102
RTVSPropertyOp31
 70
     1
102
RTVSPropertyOp32
 70
     1
102
RTVSPropertyOp33
 70
     1
102
RTVSPropertyOp34
 70
     1
102
RTVSPropertyOp35
 70
     1
102
RTVSPropertyOp36
 70
     1
102
RTVSPropertyOp37
 70
     1
102
RTVSPropertyOp38
 70
     1
102
RTVSPropertyOp39
 70
     1
102
RTVSPropertyOp40
 70
     1
102
RTVSPropertyOp41
 70
     1
102
RTVSPropertyOp42
 70
     1
102
RTVSPropertyOp43
 70
     1
102
RTVSPropertyOp44
 70
     1
102
RTVSPropertyOp45
 70
     1
102
RTVSPropertyOp46
 70
     1
102
RTVSPropertyOp47
 70
     1
102
RTVSPropertyOp48
 70
     1
102
RTVSPropertyOp49
 70
     1
102
RTVSPropertyOp50
 70
     1
102
RTVSPropertyOp51
 70
     0
102
RTVSPropertyOp52
 70
     0
102
RTVSPropertyOp53
 70
     1
102
RTVSPropertyOp54
 70
     1
102
RTVSPropertyOp55
 70
     1
102
RTVSPropertyOp56
 70
     1
102
RTVSPropertyOp57
 70
     1
102
RTVSPropertyOp58
 70
     1
102
RTVSPropertyOp59
 70
     1
102
RTVSPropertyOp60
 70
     1
102
RTVSPropertyOp61
 70
     1
102
RTVSPropertyOp62
 70
     1
  0
XRECORD
  5
1690E
102
{ACAD_REACTORS
330
1690D
102
}
330
1690D
100
AcDbXrecord
280
     1
102
RTVSPost2010Prop28
280
     0
102
RTVSPost2010PropOp28
 70
     1
102
RTVSPost2010Prop29
280
     1
102
RTVSPost2010PropOp29
 70
     1
102
RTVSPost2010Prop30
280
     1
102
RTVSPost2010PropOp30
 70
     1
102
RTVSPost2010Prop31
280
     0
102
RTVSPost2010PropOp31
 70
     1
102
RTVSPost2010Prop32
280
     0
102
RTVSPost2010PropOp32
 70
     1
102
RTVSPost2010Prop33
280
     0
102
RTVSPost2010PropOp33
 70
     1
102
RTVSPost2010Prop34
280
     0
102
RTVSPost2010PropOp34
 70
     1
102
RTVSPost2010Prop35
280
     0
102
RTVSPost2010PropOp35
 70
     1
102
RTVSPost2010Prop36
280
     0
102
RTVSPost2010PropOp36
 70
     1
102
RTVSPost2010Prop37
 90
       50
102
RTVSPost2010PropOp37
 70
     1
102
RTVSPost2010Prop38
140
0.0
102
RTVSPost2010PropOp38
 70
     1
102
RTVSPost2010Prop39
140
1.0
102
RTVSPost2010PropOp39
 70
     1
102
RTVSPost2010Prop40
 90
        0
102
RTVSPost2010PropOp40
 70
     1
102
RTVSPost2010Prop41ColorIndex
 90
       18
102
RTVSPost2010Prop41ColorRGB
 90
        0
102
RTVSPost2010PropOp41
 70
     1
102
RTVSPost2010Prop42
 90
       50
102
RTVSPost2010PropOp42
 70
     1
102
RTVSPost2010Prop43
 90
        3
102
RTVSPost2010PropOp43
 70
     1
102
RTVSPost2010Prop44ColorIndex
 90
        5
102
RTVSPost2010Prop44ColorRGB
 90
      255
102
RTVSPost2010PropOp44
 70
     1
102
RTVSPost2010Prop45
280
     0
102
RTVSPost2010PropOp45
 70
     1
102
RTVSPost2010Prop46
 90
       50
102
RTVSPost2010PropOp46
 70
     1
102
RTVSPost2010Prop47
 90
       50
102
RTVSPost2010PropOp47
 70
     1
102
RTVSPost2010Prop48
 90
       50
102
RTVSPost2010PropOp48
 70
     1
102
RTVSPost2010Prop49
280
     0
102
RTVSPost2010PropOp49
 70
     1
102
RTVSPost2010Prop50
 90
       50
102
RTVSPost2010PropOp50
 70
     1
102
RTVSPost2010Prop51ColorIndex
 90
      256
102
RTVSPost2010Prop51ColorRGB
 90
-16777216
102
RTVSPost2010PropOp51
 70
     0
102
RTVSPost2010Prop52
140
1.0
102
RTVSPost2010PropOp52
 70
     0
102
RTVSPost2010Prop53
 90
        2
102
RTVSPost2010PropOp53
 70
     1
102
RTVSPost2010Prop54
  1
strokes_ogs.tif
102
RTVSPost2010PropOp54
 70
     1
102
RTVSPost2010Prop55
280
     0
102
RTVSPost2010PropOp55
 70
     1
102
RTVSPost2010Prop56
140
1.0
102
RTVSPost2010PropOp56
 70
     1
102
RTVSPost2010Prop57
140
1.0
102
RTVSPost2010PropOp57
 70
     1
102
RTVSPropertyOp0
 70
     1
102
RTVSPropertyOp1
 70
     1
102
RTVSPropertyOp2
 70
     1
102
RTVSPropertyOp3
 70
     1
102
RTVSPropertyOp4
 70
     1
102
RTVSPropertyOp5
 70
     1
102
RTVSPropertyOp6
 70
     1
102
RTVSPropertyOp7
 70
     1
102
RTVSPropertyOp8
 70
     1
102
RTVSPropertyOp9
 70
     1
102
RTVSPropertyOp10
 70
     1
102
RTVSPropertyOp11
 70
     1
102
RTVSPropertyOp12
 70
     1
102
RTVSPropertyOp13
 70
     1
102
RTVSPropertyOp14
 70
     1
102
RTVSPropertyOp15
 70
     1
102
RTVSPropertyOp16
 70
     1
102
RTVSPropertyOp17
 70
     1
102
RTVSPropertyOp18
 70
     1
102
RTVSPropertyOp19
 70
     1
102
RTVSPropertyOp20
 70
     1
102
RTVSPropertyOp21
 70
     1
102
RTVSPropertyOp22
 70
     1
102
RTVSPropertyOp23
 70
     1
102
RTVSPropertyOp24
 70
     1
102
RTVSPropertyOp25
 70
     1
102
RTVSPropertyOp26
 70
     1
102
RTVSPropertyOp27
 70
     1
102
RTVSPropertyOp28
 70
     1
102
RTVSPropertyOp29
 70
     1
102
RTVSPropertyOp30
 70
     1
102
RTVSPropertyOp31
 70
     1
102
RTVSPropertyOp32
 70
     1
102
RTVSPropertyOp33
 70
     1
102
RTVSPropertyOp34
 70
     1
102
RTVSPropertyOp35
 70
     1
102
RTVSPropertyOp36
 70
     1
102
RTVSPropertyOp37
 70
     1
102
RTVSPropertyOp38
 70
     1
102
RTVSPropertyOp39
 70
     1
102
RTVSPropertyOp40
 70
     1
102
RTVSPropertyOp41
 70
     1
102
RTVSPropertyOp42
 70
     1
102
RTVSPropertyOp43
 70
     1
102
RTVSPropertyOp44
 70
     1
102
RTVSPropertyOp45
 70
     1
102
RTVSPropertyOp46
 70
     1
102
RTVSPropertyOp47
 70
     1
102
RTVSPropertyOp48
 70
     1
102
RTVSPropertyOp49
 70
     1
102
RTVSPropertyOp50
 70
     1
102
RTVSPropertyOp51
 70
     0
102
RTVSPropertyOp52
 70
     0
102
RTVSPropertyOp53
 70
     1
102
RTVSPropertyOp54
 70
     1
102
RTVSPropertyOp55
 70
     1
102
RTVSPropertyOp56
 70
     1
102
RTVSPropertyOp57
 70
     1
102
RTVSPropertyOp58
 70
     1
102
RTVSPropertyOp59
 70
     1
102
RTVSPropertyOp60
 70
     1
102
RTVSPropertyOp61
 70
     1
102
RTVSPropertyOp62
 70
     1
  0
XRECORD
  5
1692E
102
{ACAD_REACTORS
330
1692D
102
}
330
1692D
100
AcDbXrecord
280
     1
102
RTVSPost2010Prop28
280
     0
102
RTVSPost2010PropOp28
 70
     1
102
RTVSPost2010Prop29
280
     1
102
RTVSPost2010PropOp29
 70
     1
102
RTVSPost2010Prop30
280
     1
102
RTVSPost2010PropOp30
 70
     1
102
RTVSPost2010Prop31
280
     0
102
RTVSPost2010PropOp31
 70
     1
102
RTVSPost2010Prop32
280
     0
102
RTVSPost2010PropOp32
 70
     1
102
RTVSPost2010Prop33
280
     0
102
RTVSPost2010PropOp33
 70
     1
102
RTVSPost2010Prop34
280
     0
102
RTVSPost2010PropOp34
 70
     1
102
RTVSPost2010Prop35
280
     0
102
RTVSPost2010PropOp35
 70
     1
102
RTVSPost2010Prop36
280
     0
102
RTVSPost2010PropOp36
 70
     1
102
RTVSPost2010Prop37
 90
       50
102
RTVSPost2010PropOp37
 70
     1
102
RTVSPost2010Prop38
140
0.0
102
RTVSPost2010PropOp38
 70
     1
102
RTVSPost2010Prop39
140
1.0
102
RTVSPost2010PropOp39
 70
     1
102
RTVSPost2010Prop40
 90
        0
102
RTVSPost2010PropOp40
 70
     1
102
RTVSPost2010Prop41ColorIndex
 90
       18
102
RTVSPost2010Prop41ColorRGB
 90
        0
102
RTVSPost2010PropOp41
 70
     1
102
RTVSPost2010Prop42
 90
       50
102
RTVSPost2010PropOp42
 70
     1
102
RTVSPost2010Prop43
 90
        3
102
RTVSPost2010PropOp43
 70
     1
102
RTVSPost2010Prop44ColorIndex
 90
        5
102
RTVSPost2010Prop44ColorRGB
 90
      255
102
RTVSPost2010PropOp44
 70
     1
102
RTVSPost2010Prop45
280
     0
102
RTVSPost2010PropOp45
 70
     1
102
RTVSPost2010Prop46
 90
       50
102
RTVSPost2010PropOp46
 70
     1
102
RTVSPost2010Prop47
 90
       50
102
RTVSPost2010PropOp47
 70
     1
102
RTVSPost2010Prop48
 90
       50
102
RTVSPost2010PropOp48
 70
     1
102
RTVSPost2010Prop49
280
     0
102
RTVSPost2010PropOp49
 70
     1
102
RTVSPost2010Prop50
 90
       50
102
RTVSPost2010PropOp50
 70
     1
102
RTVSPost2010Prop51ColorIndex
 90
      256
102
RTVSPost2010Prop51ColorRGB
 90
-16777216
102
RTVSPost2010PropOp51
 70
     0
102
RTVSPost2010Prop52
140
1.0
102
RTVSPost2010PropOp52
 70
     0
102
RTVSPost2010Prop53
 90
        2
102
RTVSPost2010PropOp53
 70
     1
102
RTVSPost2010Prop54
  1
strokes_ogs.tif
102
RTVSPost2010PropOp54
 70
     1
102
RTVSPost2010Prop55
280
     0
102
RTVSPost2010PropOp55
 70
     1
102
RTVSPost2010Prop56
140
1.0
102
RTVSPost2010PropOp56
 70
     1
102
RTVSPost2010Prop57
140
1.0
102
RTVSPost2010PropOp57
 70
     1
102
RTVSPropertyOp0
 70
     1
102
RTVSPropertyOp1
 70
     1
102
RTVSPropertyOp2
 70
     1
102
RTVSPropertyOp3
 70
     1
102
RTVSPropertyOp4
 70
     1
102
RTVSPropertyOp5
 70
     1
102
RTVSPropertyOp6
 70
     1
102
RTVSPropertyOp7
 70
     1
102
RTVSPropertyOp8
 70
     1
102
RTVSPropertyOp9
 70
     1
102
RTVSPropertyOp10
 70
     1
102
RTVSPropertyOp11
 70
     1
102
RTVSPropertyOp12
 70
     1
102
RTVSPropertyOp13
 70
     1
102
RTVSPropertyOp14
 70
     1
102
RTVSPropertyOp15
 70
     1
102
RTVSPropertyOp16
 70
     1
102
RTVSPropertyOp17
 70
     1
102
RTVSPropertyOp18
 70
     1
102
RTVSPropertyOp19
 70
     1
102
RTVSPropertyOp20
 70
     1
102
RTVSPropertyOp21
 70
     1
102
RTVSPropertyOp22
 70
     1
102
RTVSPropertyOp23
 70
     1
102
RTVSPropertyOp24
 70
     1
102
RTVSPropertyOp25
 70
     1
102
RTVSPropertyOp26
 70
     1
102
RTVSPropertyOp27
 70
     1
102
RTVSPropertyOp28
 70
     1
102
RTVSPropertyOp29
 70
     1
102
RTVSPropertyOp30
 70
     1
102
RTVSPropertyOp31
 70
     1
102
RTVSPropertyOp32
 70
     1
102
RTVSPropertyOp33
 70
     1
102
RTVSPropertyOp34
 70
     1
102
RTVSPropertyOp35
 70
     1
102
RTVSPropertyOp36
 70
     1
102
RTVSPropertyOp37
 70
     1
102
RTVSPropertyOp38
 70
     1
102
RTVSPropertyOp39
 70
     1
102
RTVSPropertyOp40
 70
     1
102
RTVSPropertyOp41
 70
     1
102
RTVSPropertyOp42
 70
     1
102
RTVSPropertyOp43
 70
     1
102
RTVSPropertyOp44
 70
     1
102
RTVSPropertyOp45
 70
     1
102
RTVSPropertyOp46
 70
     1
102
RTVSPropertyOp47
 70
     1
102
RTVSPropertyOp48
 70
     1
102
RTVSPropertyOp49
 70
     1
102
RTVSPropertyOp50
 70
     1
102
RTVSPropertyOp51
 70
     0
102
RTVSPropertyOp52
 70
     0
102
RTVSPropertyOp53
 70
     1
102
RTVSPropertyOp54
 70
     1
102
RTVSPropertyOp55
 70
     1
102
RTVSPropertyOp56
 70
     1
102
RTVSPropertyOp57
 70
     1
102
RTVSPropertyOp58
 70
     1
102
RTVSPropertyOp59
 70
     1
102
RTVSPropertyOp60
 70
     1
102
RTVSPropertyOp61
 70
     1
102
RTVSPropertyOp62
 70
     1
  0
ENDSEC
  0
EOF
