  0
SECTION
  2
HEADER
  9
$ACADVER
  1
AC1015
  9
$ACADMAINTVER
 70
    18
  9
$DWGCODEPAGE
  3
ANSI_1252
  9
$INSBASE
 10
0.0
 20
0.0
 30
0.0
  9
$EXTMIN
 10
-10.84350489410974
 20
-126.6292413992682
 30
-0.0015258207003583
  9
$EXTMAX
 10
26.55120901594785
 20
1.30517612852293
 30
0.0000000349246037
  9
$LIMMIN
 10
0.0
 20
0.0
  9
$LIMMAX
 10
420.0
 20
297.0
  9
$ORTHOMODE
 70
     0
  9
$REGENMODE
 70
     1
  9
$FILLMODE
 70
     1
  9
$QTEXTMODE
 70
     0
  9
$MIRRTEXT
 70
     0
  9
$LTSCALE
 40
1.0
  9
$ATTMODE
 70
     1
  9
$TEXTSIZE
 40
2.5
  9
$TRACEWID
 40
1.0
  9
$TEXTSTYLE
  7
Standard
  9
$CLAYER
  8
0
  9
$CELTYPE
  6
ByLayer
  9
$CECOLOR
 62
   256
  9
$CELTSCALE
 40
1.0
  9
$DISPSILH
 70
     0
  9
$DIMSCALE
 40
1.0
  9
$DIMASZ
 40
2.5
  9
$DIMEXO
 40
0.625
  9
$DIMDLI
 40
3.75
  9
$DIMRND
 40
0.0
  9
$DIMDLE
 40
0.0
  9
$DIMEXE
 40
1.25
  9
$DIMTP
 40
0.0
  9
$DIMTM
 40
0.0
  9
$DIMTXT
 40
2.5
  9
$DIMCEN
 40
2.5
  9
$DIMTSZ
 40
0.0
  9
$DIMTOL
 70
     0
  9
$DIMLIM
 70
     0
  9
$DIMTIH
 70
     0
  9
$DIMTOH
 70
     0
  9
$DIMSE1
 70
     0
  9
$DIMSE2
 70
     0
  9
$DIMTAD
 70
     1
  9
$DIMZIN
 70
     8
  9
$DIMBLK
  1

  9
$DIMASO
 70
     1
  9
$DIMSHO
 70
     1
  9
$DIMPOST
  1

  9
$DIMAPOST
  1

  9
$DIMALT
 70
     0
  9
$DIMALTD
 70
     3
  9
$DIMALTF
 40
0.03937007874016
  9
$DIMLFAC
 40
1.0
  9
$DIMTOFL
 70
     1
  9
$DIMTVP
 40
0.0
  9
$DIMTIX
 70
     0
  9
$DIMSOXD
 70
     0
  9
$DIMSAH
 70
     0
  9
$DIMBLK1
  1

  9
$DIMBLK2
  1

  9
$DIMSTYLE
  2
ISO-25
  9
$DIMCLRD
 70
     0
  9
$DIMCLRE
 70
     0
  9
$DIMCLRT
 70
     0
  9
$DIMTFAC
 40
1.0
  9
$DIMGAP
 40
0.625
  9
$DIMJUST
 70
     0
  9
$DIMSD1
 70
     0
  9
$DIMSD2
 70
     0
  9
$DIMTOLJ
 70
     0
  9
$DIMTZIN
 70
     8
  9
$DIMALTZ
 70
     0
  9
$DIMALTTZ
 70
     0
  9
$DIMUPT
 70
     0
  9
$DIMDEC
 70
     2
  9
$DIMTDEC
 70
     2
  9
$DIMALTU
 70
     2
  9
$DIMALTTD
 70
     3
  9
$DIMTXSTY
  7
Standard
  9
$DIMAUNIT
 70
     0
  9
$DIMADEC
 70
     0
  9
$DIMALTRND
 40
0.0
  9
$DIMAZIN
 70
     0
  9
$DIMDSEP
 70
    44
  9
$DIMATFIT
 70
     3
  9
$DIMFRAC
 70
     0
  9
$DIMLDRBLK
  1

  9
$DIMLUNIT
 70
     2
  9
$DIMLWD
 70
    -2
  9
$DIMLWE
 70
    -2
  9
$DIMTMOVE
 70
     0
  9
$LUNITS
 70
     2
  9
$LUPREC
 70
     4
  9
$SKETCHINC
 40
1.0
  9
$FILLETRAD
 40
0.0
  9
$AUNITS
 70
     0
  9
$AUPREC
 70
     0
  9
$MENU
  1
.
  9
$ELEVATION
 40
0.0
  9
$PELEVATION
 40
0.0
  9
$THICKNESS
 40
0.0
  9
$LIMCHECK
 70
     0
  9
$CHAMFERA
 40
0.0
  9
$CHAMFERB
 40
0.0
  9
$CHAMFERC
 40
0.0
  9
$CHAMFERD
 40
0.0
  9
$SKPOLY
 70
     0
  9
$TDCREATE
 40
2460733.571354167
  9
$TDUCREATE
 40
2460733.279687500
  9
$TDUPDATE
 40
2460733.598587963
  9
$TDUUPDATE
 40
2460733.306921297
  9
$TDINDWG
 40
0.0020717593
  9
$TDUSRTIMER
 40
0.0020717593
  9
$USRTIMER
 70
     1
  9
$ANGBASE
 50
0.0
  9
$ANGDIR
 70
     0
  9
$PDMODE
 70
     0
  9
$PDSIZE
 40
0.0
  9
$PLINEWID
 40
0.0
  9
$SPLFRAME
 70
     0
  9
$SPLINETYPE
 70
     6
  9
$SPLINESEGS
 70
     8
  9
$HANDSEED
  5
8750
  9
$SURFTAB1
 70
     6
  9
$SURFTAB2
 70
     6
  9
$SURFTYPE
 70
     6
  9
$SURFU
 70
     6
  9
$SURFV
 70
     6
  9
$UCSBASE
  2

  9
$UCSNAME
  2

  9
$UCSORG
 10
0.0
 20
0.0
 30
0.0
  9
$UCSXDIR
 10
1.0
 20
0.0
 30
0.0
  9
$UCSYDIR
 10
0.0
 20
1.0
 30
0.0
  9
$UCSORTHOREF
  2

  9
$UCSORTHOVIEW
 70
     0
  9
$UCSORGTOP
 10
0.0
 20
0.0
 30
0.0
  9
$UCSORGBOTTOM
 10
0.0
 20
0.0
 30
0.0
  9
$UCSORGLEFT
 10
0.0
 20
0.0
 30
0.0
  9
$UCSORGRIGHT
 10
0.0
 20
0.0
 30
0.0
  9
$UCSORGFRONT
 10
0.0
 20
0.0
 30
0.0
  9
$UCSORGBACK
 10
0.0
 20
0.0
 30
0.0
  9
$PUCSBASE
  2

  9
$PUCSNAME
  2

  9
$PUCSORG
 10
0.0
 20
0.0
 30
0.0
  9
$PUCSXDIR
 10
1.0
 20
0.0
 30
0.0
  9
$PUCSYDIR
 10
0.0
 20
1.0
 30
0.0
  9
$PUCSORTHOREF
  2

  9
$PUCSORTHOVIEW
 70
     0
  9
$PUCSORGTOP
 10
0.0
 20
0.0
 30
0.0
  9
$PUCSORGBOTTOM
 10
0.0
 20
0.0
 30
0.0
  9
$PUCSORGLEFT
 10
0.0
 20
0.0
 30
0.0
  9
$PUCSORGRIGHT
 10
0.0
 20
0.0
 30
0.0
  9
$PUCSORGFRONT
 10
0.0
 20
0.0
 30
0.0
  9
$PUCSORGBACK
 10
0.0
 20
0.0
 30
0.0
  9
$USERI1
 70
     0
  9
$USERI2
 70
     0
  9
$USERI3
 70
     0
  9
$USERI4
 70
     0
  9
$USERI5
 70
     0
  9
$USERR1
 40
0.0
  9
$USERR2
 40
0.0
  9
$USERR3
 40
0.0
  9
$USERR4
 40
0.0
  9
$USERR5
 40
0.0
  9
$WORLDVIEW
 70
     1
  9
$SHADEDGE
 70
     3
  9
$SHADEDIF
 70
    70
  9
$TILEMODE
 70
     1
  9
$MAXACTVP
 70
    48
  9
$PINSBASE
 10
0.0
 20
0.0
 30
0.0
  9
$PLIMCHECK
 70
     0
  9
$PEXTMIN
 10
0.0
 20
0.0
 30
0.0
  9
$PEXTMAX
 10
0.0
 20
0.0
 30
0.0
  9
$PLIMMIN
 10
0.0
 20
0.0
  9
$PLIMMAX
 10
12.0
 20
9.0
  9
$UNITMODE
 70
     0
  9
$VISRETAIN
 70
     1
  9
$PLINEGEN
 70
     0
  9
$PSLTSCALE
 70
     1
  9
$TREEDEPTH
 70
  3020
  9
$CMLSTYLE
  2
Standard
  9
$CMLJUST
 70
     0
  9
$CMLSCALE
 40
20.0
  9
$PROXYGRAPHICS
 70
     1
  9
$MEASUREMENT
 70
     1
  9
$CELWEIGHT
370
    -1
  9
$ENDCAPS
280
     0
  9
$JOINSTYLE
280
     0
  9
$LWDISPLAY
290
     0
  9
$INSUNITS
 70
     4
  9
$HYPERLINKBASE
  1

  9
$STYLESHEET
  1

  9
$XEDIT
290
     1
  9
$CEPSNTYPE
380
     0
  9
$PSTYLEMODE
290
     1
  9
$FINGERPRINTGUID
  2
{6CB9A169-B505-1E4C-8D04-AD9216FC5A69}
  9
$VERSIONGUID
  2
{E57DE9FF-C4E0-1B4A-B77F-310EAFCA2BA7}
  9
$EXTNAMES
290
     1
  9
$PSVPSCALE
 40
0.0
  9
$OLESTARTUP
290
     0
  0
ENDSEC
  0
SECTION
  2
CLASSES
  0
CLASS
  1
ACDBDICTIONARYWDFLT
  2
AcDbDictionaryWithDefault
  3
ObjectDBX Classes
 90
        0
280
     0
281
     0
  0
CLASS
  1
ACDBPLACEHOLDER
  2
AcDbPlaceHolder
  3
ObjectDBX Classes
 90
        0
280
     0
281
     0
  0
CLASS
  1
LAYOUT
  2
AcDbLayout
  3
ObjectDBX Classes
 90
        0
280
     0
281
     0
  0
CLASS
  1
DICTIONARYVAR
  2
AcDbDictionaryVar
  3
ObjectDBX Classes
 90
        0
280
     0
281
     0
  0
CLASS
  1
TABLESTYLE
  2
AcDbTableStyle
  3
ObjectDBX Classes
 90
     4095
280
     0
281
     0
  0
CLASS
  1
MATERIAL
  2
AcDbMaterial
  3
ObjectDBX Classes
 90
     1153
280
     0
281
     0
  0
CLASS
  1
VISUALSTYLE
  2
AcDbVisualStyle
  3
ObjectDBX Classes
 90
     4095
280
     0
281
     0
  0
CLASS
  1
SCALE
  2
AcDbScale
  3
ObjectDBX Classes
 90
     1153
280
     0
281
     0
  0
CLASS
  1
MLEADERSTYLE
  2
AcDbMLeaderStyle
  3
ACDB_MLEADERSTYLE_CLASS
 90
     4095
280
     0
281
     0
  0
CLASS
  1
CELLSTYLEMAP
  2
AcDbCellStyleMap
  3
ObjectDBX Classes
 90
     1152
280
     0
281
     0
  0
CLASS
  1
EXACXREFPANELOBJECT
  2
ExAcXREFPanelObject
  3
EXAC_ESW
 90
    33793
280
     0
281
     0
  0
CLASS
  1
NPOCOLLECTION
  2
AcDbImpNonPersistentObjectsCollection
  3
ObjectDBX Classes
 90
    33921
280
     0
281
     0
  0
CLASS
  1
LAYER_INDEX
  2
AcDbLayerIndex
  3
ObjectDBX Classes
 90
    32768
280
     0
281
     0
  0
CLASS
  1
SPATIAL_INDEX
  2
AcDbSpatialIndex
  3
ObjectDBX Classes
 90
    32768
280
     0
281
     0
  0
CLASS
  1
IDBUFFER
  2
AcDbIdBuffer
  3
ObjectDBX Classes
 90
    32768
280
     0
281
     0
  0
CLASS
  1
ACDBSECTIONVIEWSTYLE
  2
AcDbSectionViewStyle
  3
ObjectDBX Classes
 90
     1025
280
     0
281
     0
  0
CLASS
  1
ACDBDETAILVIEWSTYLE
  2
AcDbDetailViewStyle
  3
ObjectDBX Classes
 90
     1025
280
     0
281
     0
  0
CLASS
  1
XRECORD
  2
AcDbXrecord
  3
ObjectDBX Classes
 90
        0
280
     0
281
     0
  0
ENDSEC
  0
SECTION
  2
TABLES
  0
TABLE
  2
VPORT
  5
8
102
{ACAD_XDICTIONARY
360
865E
102
}
330
0
100
AcDbSymbolTable
 70
     1
  0
VPORT
  5
EA
330
8
100
AcDbSymbolTableRecord
100
AcDbViewportTableRecord
  2
*Active
 70
     0
 10
0.0
 20
0.0
 11
1.0
 21
1.0
 12
7.853852060919059
 22
-62.66203263537263
 13
0.0
 23
0.0
 14
10.0
 24
10.0
 15
10.0
 25
10.0
 16
0.0
 26
0.0
 36
1.0
 17
0.0
 27
0.0
 37
0.0
 40
136.0466591996629
 41
0.9846153846153844
 42
50.0
 43
0.0
 44
0.0
 50
0.0
 51
0.0
 71
     0
 72
  1000
 73
     1
 74
     3
 75
     0
 76
     1
 77
     0
 78
     0
281
     0
 65
     1
110
0.0
120
0.0
130
0.0
111
1.0
121
0.0
131
0.0
112
0.0
122
1.0
132
0.0
 79
     0
146
0.0
1001
ACAD_NAV_VCDISPLAY
1070
     3
  0
ENDTAB
  0
TABLE
  2
LTYPE
  5
5
330
0
100
AcDbSymbolTable
 70
     1
  0
LTYPE
  5
14
330
5
100
AcDbSymbolTableRecord
100
AcDbLinetypeTableRecord
  2
ByBlock
 70
     0
  3

 72
    65
 73
     0
 40
0.0
  0
LTYPE
  5
15
330
5
100
AcDbSymbolTableRecord
100
AcDbLinetypeTableRecord
  2
ByLayer
 70
     0
  3

 72
    65
 73
     0
 40
0.0
  0
LTYPE
  5
16
330
5
100
AcDbSymbolTableRecord
100
AcDbLinetypeTableRecord
  2
Continuous
 70
     0
  3
Solid line
 72
    65
 73
     0
 40
0.0
  0
ENDTAB
  0
TABLE
  2
LAYER
  5
2
102
{ACAD_XDICTIONARY
360
1FF
102
}
330
0
100
AcDbSymbolTable
 70
     1
  0
LAYER
  5
10
102
{ACAD_XDICTIONARY
360
13C
102
}
330
2
100
AcDbSymbolTableRecord
100
AcDbLayerTableRecord
  2
0
 70
     0
 62
     7
  6
Continuous
370
    -3
390
F
  0
ENDTAB
  0
TABLE
  2
STYLE
  5
3
330
0
100
AcDbSymbolTable
 70
     1
  0
STYLE
  5
11
330
3
100
AcDbSymbolTableRecord
100
AcDbTextStyleTableRecord
  2
Standard
 70
     0
 40
0.0
 41
1.0
 50
0.0
 71
     0
 42
2.5
  3
arial.ttf
  4

1001
ACAD
1000
Arial
1071
       34
  0
ENDTAB
  0
TABLE
  2
VIEW
  5
6
330
0
100
AcDbSymbolTable
 70
     0
  0
ENDTAB
  0
TABLE
  2
UCS
  5
7
330
0
100
AcDbSymbolTable
 70
     0
  0
ENDTAB
  0
TABLE
  2
APPID
  5
9
330
0
100
AcDbSymbolTable
 70
     8
  0
APPID
  5
12
330
9
100
AcDbSymbolTableRecord
100
AcDbRegAppTableRecord
  2
ACAD
 70
     0
  0
APPID
  5
9E
330
9
100
AcDbSymbolTableRecord
100
AcDbRegAppTableRecord
  2
ACAD_PSEXT
 70
     0
  0
APPID
  5
133
330
9
100
AcDbSymbolTableRecord
100
AcDbRegAppTableRecord
  2
AcadAnnoPO
 70
     0
  0
APPID
  5
134
330
9
100
AcDbSymbolTableRecord
100
AcDbRegAppTableRecord
  2
AcadAnnotative
 70
     0
  0
APPID
  5
135
330
9
100
AcDbSymbolTableRecord
100
AcDbRegAppTableRecord
  2
ACAD_DSTYLE_DIMJAG
 70
     0
  0
APPID
  5
136
330
9
100
AcDbSymbolTableRecord
100
AcDbRegAppTableRecord
  2
ACAD_DSTYLE_DIMTALN
 70
     0
  0
APPID
  5
165
330
9
100
AcDbSymbolTableRecord
100
AcDbRegAppTableRecord
  2
ACAD_MLEADERVER
 70
     0
  0
APPID
  5
217
330
9
100
AcDbSymbolTableRecord
100
AcDbRegAppTableRecord
  2
ACAD_NAV_VCDISPLAY
 70
     0
  0
ENDTAB
  0
TABLE
  2
DIMSTYLE
  5
A
330
0
100
AcDbSymbolTable
 70
     1
100
AcDbDimStyleTable
 71
     0
  0
DIMSTYLE
105
27
330
A
100
AcDbSymbolTableRecord
100
AcDbDimStyleTableRecord
  2
ISO-25
 70
     0
 41
2.5
 42
0.625
 43
3.75
 44
1.25
 73
     0
 74
     0
 77
     1
 78
     8
140
2.5
141
2.5
143
0.03937007874016
147
0.625
171
     3
172
     1
271
     2
272
     2
274
     3
278
    44
283
     0
284
     8
340
11
  0
ENDTAB
  0
TABLE
  2
BLOCK_RECORD
  5
1
330
0
100
AcDbSymbolTable
 70
     4
  0
BLOCK_RECORD
  5
1F
102
{ACAD_XDICTIONARY
360
1CE
102
}
330
1
100
AcDbSymbolTableRecord
100
AcDbBlockTableRecord
  2
*Model_Space
340
22
  0
BLOCK_RECORD
  5
D2
102
{ACAD_XDICTIONARY
360
860F
102
}
330
1
100
AcDbSymbolTableRecord
100
AcDbBlockTableRecord
  2
*Paper_Space
340
D3
  0
BLOCK_RECORD
  5
D6
102
{ACAD_XDICTIONARY
360
8611
102
}
330
1
100
AcDbSymbolTableRecord
100
AcDbBlockTableRecord
  2
*Paper_Space0
340
D7
  0
BLOCK_RECORD
  5
81B3
330
1
100
AcDbSymbolTableRecord
100
AcDbBlockTableRecord
  2
ARA425x60-Front
340
0
102
{BLKREFS
331
8608
102
}
  0
BLOCK_RECORD
  5
84D4
330
1
100
AcDbSymbolTableRecord
100
AcDbBlockTableRecord
  2
ARA425x60-Top
340
0
102
{BLKREFS
331
8609
102
}
  0
BLOCK_RECORD
  5
8504
330
1
100
AcDbSymbolTableRecord
100
AcDbBlockTableRecord
  2
ARA425x60-ISO
340
0
102
{BLKREFS
331
860A
102
}
  0
ENDTAB
  0
ENDSEC
  0
SECTION
  2
BLOCKS
  0
BLOCK
  5
20
330
1F
100
AcDbEntity
  8
0
100
AcDbBlockBegin
  2
*Model_Space
 70
     0
 10
0.0
 20
0.0
 30
0.0
  3
*Model_Space
  1

  0
ENDBLK
  5
21
330
1F
100
AcDbEntity
  8
0
100
AcDbBlockEnd
  0
BLOCK
  5
D4
330
D2
100
AcDbEntity
 67
     1
  8
0
100
AcDbBlockBegin
  2
*Paper_Space
 70
     0
 10
0.0
 20
0.0
 30
0.0
  3
*Paper_Space
  1

  0
ENDBLK
  5
D5
330
D2
100
AcDbEntity
 67
     1
  8
0
100
AcDbBlockEnd
  0
BLOCK
  5
D8
330
D6
100
AcDbEntity
 67
     1
  8
0
100
AcDbBlockBegin
  2
*Paper_Space0
 70
     0
 10
0.0
 20
0.0
 30
0.0
  3
*Paper_Space0
  1

  0
ENDBLK
  5
D9
330
D6
100
AcDbEntity
 67
     1
  8
0
100
AcDbBlockEnd
  0
BLOCK
  5
81B4
330
81B3
100
AcDbEntity
  8
0
100
AcDbBlockBegin
  2
ARA425x60-Front
 70
     0
 10
0.0
 20
0.0
 30
0.0
  3
ARA425x60-Front
  1

  0
LINE
  5
81B6
330
81B3
100
AcDbEntity
  8
0
100
AcDbLine
 10
-1.343415170858507
 20
-55.00899715302155
 30
0.0
 11
0.0
 21
-58.7
 31
0.0
  0
LINE
  5
81B7
330
81B3
100
AcDbEntity
  8
0
100
AcDbLine
 10
1.343415170875867
 20
-55.00899715306577
 30
0.0
 11
0.0
 21
-58.7
 31
0.0
  0
SPLINE
  5
81B8
330
81B3
100
AcDbEntity
  8
0
100
AcDbSpline
210
0.0
220
0.0
230
1.0
 70
     8
 71
     3
 72
     8
 73
     4
 74
     0
 42
0.000000001
 43
0.0000000001
 40
0.0783287244175624
 40
0.0783287244175624
 40
0.0783287244175624
 40
0.0783287244175624
 40
0.0911900956883578
 40
0.0911900956883578
 40
0.0911900956883578
 40
0.0911900956883578
 10
1.266739237623488
 20
-54.95
 30
0.0
 10
1.294182460331372
 20
-54.96434023748067
 30
0.0
 10
1.321973340342009
 20
-54.98519920516443
 30
0.0
 10
1.343415170875867
 20
-55.00899715306577
 30
0.0
  0
SPLINE
  5
81B9
330
81B3
100
AcDbEntity
  8
0
100
AcDbSpline
210
0.0
220
0.0
230
1.0
 70
    12
 71
     2
 72
     6
 73
     3
 74
     0
 42
0.000000001
 43
0.0000000001
 40
0.0
 40
0.0
 40
0.0
 40
0.024601465403381
 40
0.024601465403381
 40
0.024601465403381
 10
1.113627122397574
 20
-54.87901360414856
 30
0.0
 41
1.0
 10
1.187566450021769
 20
-54.90862889033474
 30
0.0
 41
1.003697416791516
 10
1.266739237623488
 20
-54.95
 30
0.0
 41
1.0
  0
SPLINE
  5
81BA
330
81B3
100
AcDbEntity
  8
0
100
AcDbSpline
210
0.0
220
0.0
230
1.0
 70
    12
 71
     2
 72
     6
 73
     3
 74
     0
 42
0.000000001
 43
0.0000000001
 40
0.0
 40
0.0
 40
0.0
 40
0.0869423223517863
 40
0.0869423223517863
 40
0.0869423223517863
 10
1.369169303380161
 20
-54.04929246093725
 30
0.0
 41
1.0
 10
1.227263845650267
 20
-54.51024048650944
 30
0.0
 41
1.006163514384453
 10
1.113627122397575
 20
-54.87901360414856
 30
0.0
 41
1.0
  0
SPLINE
  5
81BB
330
81B3
100
AcDbEntity
  8
0
100
AcDbSpline
210
0.0
220
0.0
230
1.0
 70
     8
 71
     3
 72
    27
 73
    23
 74
     0
 42
0.000000001
 43
0.0000000001
 40
-0.0854684038178909
 40
-0.0854684038178909
 40
-0.0854684038178909
 40
-0.0854684038178909
 40
-0.0839886479741071
 40
-0.0839886479741071
 40
-0.0770271491255604
 40
-0.0770271491255604
 40
-0.0677374447000792
 40
-0.0677374447000792
 40
-0.0529604232693255
 40
-0.0529604232693255
 40
0.0
 40
0.0
 40
0.0
 40
0.0529604232693255
 40
0.0529604232693255
 40
0.0677374447000792
 40
0.0677374447000792
 40
0.0770271491255605
 40
0.0770271491255605
 40
0.0839886479741071
 40
0.0839886479741071
 40
0.0854684038178909
 40
0.0854684038178909
 40
0.0854684038178909
 40
0.0854684038178909
 10
0.3235498091160993
 20
-54.04929246093725
 30
0.0
 10
0.3238304841778248
 20
-54.04429064001032
 30
0.0
 10
0.3243041133345753
 20
-54.03934564003002
 30
0.0
 10
0.3278469392991067
 20
-54.01216403398708
 30
0.0
 10
0.3360373158227649
 20
-53.98559106527253
 30
0.0
 10
0.3587368096580179
 20
-53.93664904070818
 30
0.0
 10
0.3792263916907292
 20
-53.90723408581337
 30
0.0
 10
0.4289111014361172
 20
-53.8515392434148
 30
0.0
 10
0.4697308646194048
 20
-53.82068560096525
 30
0.0
 10
0.6310113630835335
 20
-53.72680832616729
 30
0.0
 10
0.7835230833924742
 20
-53.70864679231459
 30
0.0
 10
0.9083519981533074
 20
-53.70864679231459
 30
0.0
 10
1.03318091291414
 20
-53.70864679231459
 30
0.0
 10
1.179082375492084
 20
-53.72680832616729
 30
0.0
 10
1.306194340255725
 20
-53.82068560096525
 30
0.0
 10
1.335784295968684
 20
-53.8515392434148
 30
0.0
 10
1.365197740878844
 20
-53.90723408581337
 30
0.0
 10
1.374981154887561
 20
-53.93664904070818
 30
0.0
 10
1.379867208576668
 20
-53.98559106527253
 30
0.0
 10
1.378385815452143
 20
-54.01216403398708
 30
0.0
 10
1.372035345897493
 20
-54.03934564003002
 30
0.0
 10
1.370709142252968
 20
-54.04429064001032
 30
0.0
 10
1.36916930338016
 20
-54.04929246093725
 30
0.0
  0
SPLINE
  5
81BC
330
81B3
100
AcDbEntity
  8
0
100
AcDbSpline
210
0.0
220
0.0
230
1.0
 70
    12
 71
     2
 72
     6
 73
     3
 74
     0
 42
0.000000001
 43
0.0000000001
 40
0.0
 40
0.0
 40
0.0
 40
0.0869423223517863
 40
0.0869423223517863
 40
0.0869423223517863
 10
0.2770981912284415
 20
-54.87901360414856
 30
0.0
 41
1.0
 10
0.2976839059987869
 20
-54.51024048642281
 30
0.0
 41
1.006163514357346
 10
0.3235498091160984
 20
-54.04929246093725
 30
0.0
 41
1.0
  0
SPLINE
  5
81BD
330
81B3
100
AcDbEntity
  8
0
100
AcDbSpline
210
0.0
220
0.0
230
1.0
 70
    12
 71
     2
 72
     6
 73
     3
 74
     0
 42
0.000000001
 43
0.0000000001
 40
0.0
 40
0.0
 40
0.0
 40
0.0246014654033811
 40
0.0246014654033811
 40
0.0246014654033811
 10
0.0981491408747675
 20
-54.95
 30
0.0
 41
1.0
 10
0.1923797809531907
 20
-54.90862889033476
 30
0.0
 41
1.003697416791656
 10
0.2770981912284423
 20
-54.87901360414856
 30
0.0
 41
1.0
  0
SPLINE
  5
81BE
330
81B3
100
AcDbEntity
  8
0
100
AcDbSpline
210
0.0
220
0.0
230
1.0
 70
     8
 71
     3
 72
     8
 73
     4
 74
     0
 42
0.000000001
 43
0.0000000001
 40
0.3886315120542869
 40
0.3886315120542869
 40
0.3886315120542869
 40
0.3886315120542869
 40
0.4014928833244518
 40
0.4014928833244518
 40
0.4014928833244518
 40
0.4014928833244518
 10
-0.0000000000378917
 20
-55.00899715302155
 30
0.0
 10
0.0300930311792636
 20
-54.98520732121595
 30
0.0
 10
0.0654755015148093
 20
-54.96434540754507
 30
0.0
 10
0.098149140874768
 20
-54.95
 30
0.0
  0
LINE
  5
81BF
330
81B3
100
AcDbEntity
  8
0
100
AcDbLine
 10
0.0
 20
-58.7
 30
0.0
 11
0.0
 21
-55.00899715302155
 31
0.0
  0
SPLINE
  5
81C0
330
81B3
100
AcDbEntity
  8
0
100
AcDbSpline
210
0.0
220
0.0
230
1.0
 70
     8
 71
     3
 72
    27
 73
    23
 74
     0
 42
0.000000001
 43
0.0000000001
 40
-0.0854684038178909
 40
-0.0854684038178909
 40
-0.0854684038178909
 40
-0.0854684038178909
 40
-0.0839886479741071
 40
-0.0839886479741071
 40
-0.0770271491255604
 40
-0.0770271491255604
 40
-0.0677374447000792
 40
-0.0677374447000792
 40
-0.0529604232693255
 40
-0.0529604232693255
 40
0.0
 40
0.0
 40
0.0
 40
0.0529604232693255
 40
0.0529604232693255
 40
0.0677374447000792
 40
0.0677374447000792
 40
0.0770271491255605
 40
0.0770271491255605
 40
0.0839886479741071
 40
0.0839886479741071
 40
0.0854684038178909
 40
0.0854684038178909
 40
0.0854684038178909
 40
0.0854684038178909
 10
-1.369169303380161
 20
-54.04929246093725
 30
0.0
 10
-1.370709142252969
 20
-54.04429064001032
 30
0.0
 10
-1.372035345897494
 20
-54.03934564003002
 30
0.0
 10
-1.378385815452144
 20
-54.01216403398708
 30
0.0
 10
-1.379867208576668
 20
-53.98559106527253
 30
0.0
 10
-1.374981154887562
 20
-53.93664904070818
 30
0.0
 10
-1.365197740878845
 20
-53.90723408581337
 30
0.0
 10
-1.335784295968686
 20
-53.8515392434148
 30
0.0
 10
-1.306194340255726
 20
-53.82068560096525
 30
0.0
 10
-1.179082375492085
 20
-53.72680832616729
 30
0.0
 10
-1.033180912914142
 20
-53.70864679231459
 30
0.0
 10
-0.9083519981533099
 20
-53.70864679231459
 30
0.0
 10
-0.7835230833924772
 20
-53.70864679231459
 30
0.0
 10
-0.6310113630835367
 20
-53.72680832616729
 30
0.0
 10
-0.4697308646194085
 20
-53.82068560096525
 30
0.0
 10
-0.4289111014361211
 20
-53.8515392434148
 30
0.0
 10
-0.379226391690733
 20
-53.90723408581337
 30
0.0
 10
-0.3587368096580219
 20
-53.93664904070818
 30
0.0
 10
-0.3360373158227689
 20
-53.98559106527253
 30
0.0
 10
-0.3278469392991106
 20
-54.01216403398708
 30
0.0
 10
-0.3243041133345792
 20
-54.03934564003002
 30
0.0
 10
-0.3238304841778286
 20
-54.04429064001032
 30
0.0
 10
-0.3235498091161031
 20
-54.04929246093725
 30
0.0
  0
SPLINE
  5
81C1
330
81B3
100
AcDbEntity
  8
0
100
AcDbSpline
210
0.0
220
0.0
230
1.0
 70
     8
 71
     3
 72
     8
 73
     4
 74
     0
 42
0.000000001
 43
0.0000000001
 40
0.0783287244175624
 40
0.0783287244175624
 40
0.0783287244175624
 40
0.0783287244175624
 40
0.0911903210561791
 40
0.0911903210561791
 40
0.0911903210561791
 40
0.0911903210561791
 10
-0.0981491408747716
 20
-54.95
 30
0.0
 10
-0.0654859262291812
 20
-54.96434048876245
 30
0.0
 10
-0.0301039246814144
 20
-54.98519870951875
 30
0.0
 10
-0.0000000000713493
 20
-55.00899715300938
 30
0.0
  0
SPLINE
  5
81C2
330
81B3
100
AcDbEntity
  8
0
100
AcDbSpline
210
0.0
220
0.0
230
1.0
 70
    12
 71
     2
 72
     6
 73
     3
 74
     0
 42
0.000000001
 43
0.0000000001
 40
0.0
 40
0.0
 40
0.0
 40
0.024601465403381
 40
0.024601465403381
 40
0.024601465403381
 10
-0.2770981912284453
 20
-54.87901360414856
 30
0.0
 41
1.0
 10
-0.1923797809532058
 20
-54.90862889033474
 30
0.0
 41
1.003697416791516
 10
-0.0981491408747712
 20
-54.95
 30
0.0
 41
1.0
  0
SPLINE
  5
81C3
330
81B3
100
AcDbEntity
  8
0
100
AcDbSpline
210
0.0
220
0.0
230
1.0
 70
    12
 71
     2
 72
     6
 73
     3
 74
     0
 42
0.000000001
 43
0.0000000001
 40
0.0
 40
0.0
 40
0.0
 40
0.0869423223517863
 40
0.0869423223517863
 40
0.0869423223517863
 10
-0.3235498091161022
 20
-54.04929246093725
 30
0.0
 41
1.0
 10
-0.2976839059939412
 20
-54.51024048650944
 30
0.0
 41
1.006163514384453
 10
-0.2770981912284446
 20
-54.87901360414856
 30
0.0
 41
1.0
  0
SPLINE
  5
81C4
330
81B3
100
AcDbEntity
  8
0
100
AcDbSpline
210
0.0
220
0.0
230
1.0
 70
    12
 71
     2
 72
     6
 73
     3
 74
     0
 42
0.000000001
 43
0.0000000001
 40
0.0
 40
0.0
 40
0.0
 40
0.0869423223517863
 40
0.0869423223517863
 40
0.0869423223517863
 10
-1.113627122397575
 20
-54.87901360414856
 30
0.0
 41
1.0
 10
-1.227263845676953
 20
-54.51024048642281
 30
0.0
 41
1.006163514357346
 10
-1.369169303380161
 20
-54.04929246093725
 30
0.0
 41
1.0
  0
SPLINE
  5
81C5
330
81B3
100
AcDbEntity
  8
0
100
AcDbSpline
210
0.0
220
0.0
230
1.0
 70
    12
 71
     2
 72
     6
 73
     3
 74
     0
 42
0.000000001
 43
0.0000000001
 40
0.0
 40
0.0
 40
0.0
 40
0.0246014654033811
 40
0.0246014654033811
 40
0.0246014654033811
 10
-1.266739237623489
 20
-54.95
 30
0.0
 41
1.0
 10
-1.187566450021779
 20
-54.90862889033476
 30
0.0
 41
1.003697416791656
 10
-1.113627122397575
 20
-54.87901360414856
 30
0.0
 41
1.0
  0
SPLINE
  5
81C6
330
81B3
100
AcDbEntity
  8
0
100
AcDbSpline
210
0.0
220
0.0
230
1.0
 70
     8
 71
     3
 72
     8
 73
     4
 74
     0
 42
0.000000001
 43
0.0000000001
 40
0.388631286685835
 40
0.388631286685835
 40
0.388631286685835
 40
0.388631286685835
 40
0.4014928833244518
 40
0.4014928833244518
 40
0.4014928833244518
 40
0.4014928833244518
 10
-1.343415170825049
 20
-55.00899715300938
 30
0.0
 10
-1.321973171267434
 20
-54.98519870951875
 30
0.0
 10
-1.294182941214722
 20
-54.96434048876245
 30
0.0
 10
-1.266739237623488
 20
-54.95
 30
0.0
  0
LINE
  5
81C7
330
81B3
100
AcDbEntity
  8
0
100
AcDbLine
 10
0.2770981912284417
 20
-54.87901360414856
 30
0.0
 11
-0.2770981912284443
 21
-54.87901360414856
 31
0.0
  0
LINE
  5
81C8
330
81B3
100
AcDbEntity
  8
0
100
AcDbLine
 10
-1.113627122397575
 20
-54.87901360414856
 30
0.0
 11
-1.147583885962843
 21
-54.87901360414856
 31
0.0
  0
LINE
  5
81C9
330
81B3
100
AcDbEntity
  8
0
100
AcDbLine
 10
1.147583885962843
 20
-54.87901360414856
 30
0.0
 11
1.113627122397575
 21
-54.87901360414856
 31
0.0
  0
LINE
  5
81CA
330
81B3
100
AcDbEntity
  8
0
100
AcDbLine
 10
1.147583885962843
 20
-14.87901360414857
 30
0.0
 11
-1.147583885962843
 21
-14.87901360414857
 31
0.0
  0
LINE
  5
81CB
330
81B3
100
AcDbEntity
  8
0
100
AcDbLine
 10
1.147583885962843
 20
-53.62901360414856
 30
0.0
 11
-1.147583885962843
 21
-53.62901360414856
 31
0.0
  0
LINE
  5
81CC
330
81B3
100
AcDbEntity
  8
0
100
AcDbLine
 10
1.147583885962843
 20
-52.37901360414856
 30
0.0
 11
-1.147583885962843
 21
-52.37901360414856
 31
0.0
  0
LINE
  5
81CD
330
81B3
100
AcDbEntity
  8
0
100
AcDbLine
 10
1.147583885962843
 20
-51.12901360414856
 30
0.0
 11
-1.147583885962843
 21
-51.12901360414856
 31
0.0
  0
LINE
  5
81CE
330
81B3
100
AcDbEntity
  8
0
100
AcDbLine
 10
1.147583885962843
 20
-49.87901360414856
 30
0.0
 11
-1.147583885962843
 21
-49.87901360414856
 31
0.0
  0
LINE
  5
81CF
330
81B3
100
AcDbEntity
  8
0
100
AcDbLine
 10
1.147583885962843
 20
-48.62901360414856
 30
0.0
 11
-1.147583885962843
 21
-48.62901360414856
 31
0.0
  0
LINE
  5
81D0
330
81B3
100
AcDbEntity
  8
0
100
AcDbLine
 10
1.147583885962843
 20
-47.37901360414856
 30
0.0
 11
-1.147583885962843
 21
-47.37901360414856
 31
0.0
  0
LINE
  5
81D1
330
81B3
100
AcDbEntity
  8
0
100
AcDbLine
 10
1.147583885962843
 20
-46.12901360414856
 30
0.0
 11
-1.147583885962843
 21
-46.12901360414856
 31
0.0
  0
LINE
  5
81D2
330
81B3
100
AcDbEntity
  8
0
100
AcDbLine
 10
1.147583885962843
 20
-44.87901360414856
 30
0.0
 11
-1.147583885962843
 21
-44.87901360414856
 31
0.0
  0
LINE
  5
81D3
330
81B3
100
AcDbEntity
  8
0
100
AcDbLine
 10
1.147583885962843
 20
-43.62901360414856
 30
0.0
 11
-1.147583885962843
 21
-43.62901360414856
 31
0.0
  0
LINE
  5
81D4
330
81B3
100
AcDbEntity
  8
0
100
AcDbLine
 10
1.147583885962843
 20
-42.37901360414856
 30
0.0
 11
-1.147583885962843
 21
-42.37901360414856
 31
0.0
  0
LINE
  5
81D5
330
81B3
100
AcDbEntity
  8
0
100
AcDbLine
 10
1.147583885962843
 20
-41.12901360414856
 30
0.0
 11
-1.147583885962843
 21
-41.12901360414856
 31
0.0
  0
LINE
  5
81D6
330
81B3
100
AcDbEntity
  8
0
100
AcDbLine
 10
1.147583885962843
 20
-39.87901360414857
 30
0.0
 11
-1.147583885962843
 21
-39.87901360414857
 31
0.0
  0
LINE
  5
81D7
330
81B3
100
AcDbEntity
  8
0
100
AcDbLine
 10
1.147583885962843
 20
-38.62901360414857
 30
0.0
 11
-1.147583885962843
 21
-38.62901360414857
 31
0.0
  0
LINE
  5
81D8
330
81B3
100
AcDbEntity
  8
0
100
AcDbLine
 10
1.147583885962843
 20
-37.37901360414857
 30
0.0
 11
-1.147583885962843
 21
-37.37901360414857
 31
0.0
  0
LINE
  5
81D9
330
81B3
100
AcDbEntity
  8
0
100
AcDbLine
 10
1.147583885962843
 20
-36.12901360414857
 30
0.0
 11
-1.147583885962843
 21
-36.12901360414857
 31
0.0
  0
LINE
  5
81DA
330
81B3
100
AcDbEntity
  8
0
100
AcDbLine
 10
1.147583885962843
 20
-34.87901360414857
 30
0.0
 11
-1.147583885962843
 21
-34.87901360414857
 31
0.0
  0
LINE
  5
81DB
330
81B3
100
AcDbEntity
  8
0
100
AcDbLine
 10
1.147583885962843
 20
-33.62901360414857
 30
0.0
 11
-1.147583885962843
 21
-33.62901360414857
 31
0.0
  0
LINE
  5
81DC
330
81B3
100
AcDbEntity
  8
0
100
AcDbLine
 10
1.147583885962843
 20
-32.37901360414857
 30
0.0
 11
-1.147583885962843
 21
-32.37901360414857
 31
0.0
  0
LINE
  5
81DD
330
81B3
100
AcDbEntity
  8
0
100
AcDbLine
 10
1.147583885962843
 20
-31.12901360414856
 30
0.0
 11
-1.147583885962843
 21
-31.12901360414856
 31
0.0
  0
LINE
  5
81DE
330
81B3
100
AcDbEntity
  8
0
100
AcDbLine
 10
1.147583885962843
 20
-29.87901360414856
 30
0.0
 11
-1.147583885962843
 21
-29.87901360414856
 31
0.0
  0
LINE
  5
81DF
330
81B3
100
AcDbEntity
  8
0
100
AcDbLine
 10
1.147583885962843
 20
-28.62901360414856
 30
0.0
 11
-1.147583885962843
 21
-28.62901360414856
 31
0.0
  0
LINE
  5
81E0
330
81B3
100
AcDbEntity
  8
0
100
AcDbLine
 10
1.147583885962843
 20
-27.37901360414856
 30
0.0
 11
-1.147583885962843
 21
-27.37901360414856
 31
0.0
  0
LINE
  5
81E1
330
81B3
100
AcDbEntity
  8
0
100
AcDbLine
 10
1.147583885962843
 20
-26.12901360414856
 30
0.0
 11
-1.147583885962843
 21
-26.12901360414856
 31
0.0
  0
LINE
  5
81E2
330
81B3
100
AcDbEntity
  8
0
100
AcDbLine
 10
1.147583885962843
 20
-24.87901360414856
 30
0.0
 11
-1.147583885962843
 21
-24.87901360414856
 31
0.0
  0
LINE
  5
81E3
330
81B3
100
AcDbEntity
  8
0
100
AcDbLine
 10
1.147583885962843
 20
-23.62901360414856
 30
0.0
 11
-1.147583885962843
 21
-23.62901360414856
 31
0.0
  0
LINE
  5
81E4
330
81B3
100
AcDbEntity
  8
0
100
AcDbLine
 10
1.147583885962843
 20
-22.37901360414856
 30
0.0
 11
-1.147583885962843
 21
-22.37901360414856
 31
0.0
  0
LINE
  5
81E5
330
81B3
100
AcDbEntity
  8
0
100
AcDbLine
 10
1.147583885962843
 20
-21.12901360414856
 30
0.0
 11
-1.147583885962843
 21
-21.12901360414856
 31
0.0
  0
LINE
  5
81E6
330
81B3
100
AcDbEntity
  8
0
100
AcDbLine
 10
1.147583885962843
 20
-19.87901360414857
 30
0.0
 11
-1.147583885962843
 21
-19.87901360414857
 31
0.0
  0
LINE
  5
81E7
330
81B3
100
AcDbEntity
  8
0
100
AcDbLine
 10
1.147583885962843
 20
-18.62901360414857
 30
0.0
 11
-1.147583885962843
 21
-18.62901360414857
 31
0.0
  0
LINE
  5
81E8
330
81B3
100
AcDbEntity
  8
0
100
AcDbLine
 10
1.147583885962843
 20
-17.37901360414857
 30
0.0
 11
-1.147583885962843
 21
-17.37901360414857
 31
0.0
  0
LINE
  5
81E9
330
81B3
100
AcDbEntity
  8
0
100
AcDbLine
 10
1.147583885962843
 20
-16.12901360414857
 30
0.0
 11
-1.147583885962843
 21
-16.12901360414857
 31
0.0
  0
ARC
  5
81EA
330
81B3
100
AcDbEntity
  8
0
100
AcDbCircle
 10
-1.120535930223696
 20
-53.95980762113532
 30
0.0
 40
0.3
100
AcDbArc
 50
120.0000000000007
 51
197.3544932297481
  0
ARC
  5
81EB
330
81B3
100
AcDbEntity
  8
0
100
AcDbCircle
 10
1.120535930223696
 20
-53.95980762113532
 30
0.0
 40
0.2999999999999999
100
AcDbArc
 50
342.6455067702518
 51
60.00000000000147
  0
LINE
  5
81EC
330
81B3
100
AcDbEntity
  8
0
100
AcDbLine
 10
-1.147583885962842
 20
-54.87901360414856
 30
0.0
 11
-1.406879191792096
 21
-54.04929246093725
 31
0.0
  0
LINE
  5
81ED
330
81B3
100
AcDbEntity
  8
0
100
AcDbLine
 10
1.147583885962842
 20
-54.87901360414856
 30
0.0
 11
1.406879191792096
 21
-54.04929246093725
 31
0.0
  0
ARC
  5
81EE
330
81B3
100
AcDbEntity
  8
0
100
AcDbCircle
 10
-1.120535930223696
 20
-55.20980762113532
 30
0.0
 40
0.2999999999999999
100
AcDbArc
 50
119.9999999999988
 51
137.9816770290975
  0
ARC
  5
81EF
330
81B3
100
AcDbEntity
  8
0
100
AcDbCircle
 10
1.120535930223696
 20
-55.20980762113532
 30
0.0
 40
0.2999999999999999
100
AcDbArc
 50
42.01832296240897
 51
60.00000000000149
  0
LINE
  5
81F0
330
81B3
100
AcDbEntity
  8
0
100
AcDbLine
 10
-1.14758388596284
 20
-54.87901360414856
 30
0.0
 11
-1.2705359302237
 21
-54.95
 31
0.0
  0
LINE
  5
81F1
330
81B3
100
AcDbEntity
  8
0
100
AcDbLine
 10
1.14758388596284
 20
-54.87901360414856
 30
0.0
 11
1.2705359302237
 21
-54.95
 31
0.0
  0
LINE
  5
81F2
330
81B3
100
AcDbEntity
  8
0
100
AcDbLine
 10
1.147583885962844
 20
-14.87901360414857
 30
0.0
 11
1.270535930223696
 21
-14.95
 31
0.0
  0
LINE
  5
81F3
330
81B3
100
AcDbEntity
  8
0
100
AcDbLine
 10
-1.147583885962844
 20
-14.87901360414857
 30
0.0
 11
-1.270535930223696
 21
-14.95
 31
0.0
  0
LINE
  5
81F4
330
81B3
100
AcDbEntity
  8
0
100
AcDbLine
 10
1.147583885962844
 20
-53.62901360414856
 30
0.0
 11
1.2705359302237
 21
-53.7
 31
0.0
  0
LINE
  5
81F5
330
81B3
100
AcDbEntity
  8
0
100
AcDbLine
 10
-1.14758388596284
 20
-53.62901360414856
 30
0.0
 11
-1.270535930223696
 21
-53.7
 31
0.0
  0
LINE
  5
81F6
330
81B3
100
AcDbEntity
  8
0
100
AcDbLine
 10
1.147583885962844
 20
-52.37901360414856
 30
0.0
 11
1.2705359302237
 21
-52.45
 31
0.0
  0
LINE
  5
81F7
330
81B3
100
AcDbEntity
  8
0
100
AcDbLine
 10
-1.14758388596284
 20
-52.37901360414856
 30
0.0
 11
-1.270535930223696
 21
-52.45
 31
0.0
  0
ARC
  5
81F8
330
81B3
100
AcDbEntity
  8
0
100
AcDbCircle
 10
-1.120535930223696
 20
-52.70980762113532
 30
0.0
 40
0.2999999999999999
100
AcDbArc
 50
120.0000000000007
 51
197.3544932297499
  0
ARC
  5
81F9
330
81B3
100
AcDbEntity
  8
0
100
AcDbCircle
 10
1.120535930223696
 20
-52.70980762113532
 30
0.0
 40
0.2999999999999999
100
AcDbArc
 50
342.6455067702518
 51
60.00000000000147
  0
LINE
  5
81FA
330
81B3
100
AcDbEntity
  8
0
100
AcDbLine
 10
-1.147583885962842
 20
-53.62901360414856
 30
0.0
 11
-1.406879191792096
 21
-52.79929246093725
 31
0.0
  0
LINE
  5
81FB
330
81B3
100
AcDbEntity
  8
0
100
AcDbLine
 10
1.147583885962842
 20
-53.62901360414856
 30
0.0
 11
1.406879191792096
 21
-52.79929246093725
 31
0.0
  0
LINE
  5
81FC
330
81B3
100
AcDbEntity
  8
0
100
AcDbLine
 10
1.147583885962844
 20
-51.12901360414856
 30
0.0
 11
1.2705359302237
 21
-51.2
 31
0.0
  0
LINE
  5
81FD
330
81B3
100
AcDbEntity
  8
0
100
AcDbLine
 10
-1.14758388596284
 20
-51.12901360414856
 30
0.0
 11
-1.270535930223696
 21
-51.2
 31
0.0
  0
ARC
  5
81FE
330
81B3
100
AcDbEntity
  8
0
100
AcDbCircle
 10
-1.120535930223696
 20
-51.45980762113532
 30
0.0
 40
0.2999999999999999
100
AcDbArc
 50
120.0000000000007
 51
197.3544932297499
  0
ARC
  5
81FF
330
81B3
100
AcDbEntity
  8
0
100
AcDbCircle
 10
1.120535930223696
 20
-51.45980762113532
 30
0.0
 40
0.2999999999999999
100
AcDbArc
 50
342.6455067702518
 51
60.00000000000147
  0
LINE
  5
8200
330
81B3
100
AcDbEntity
  8
0
100
AcDbLine
 10
-1.147583885962842
 20
-52.37901360414856
 30
0.0
 11
-1.406879191792096
 21
-51.54929246093725
 31
0.0
  0
LINE
  5
8201
330
81B3
100
AcDbEntity
  8
0
100
AcDbLine
 10
1.147583885962842
 20
-52.37901360414856
 30
0.0
 11
1.406879191792096
 21
-51.54929246093725
 31
0.0
  0
LINE
  5
8202
330
81B3
100
AcDbEntity
  8
0
100
AcDbLine
 10
1.147583885962844
 20
-49.87901360414856
 30
0.0
 11
1.2705359302237
 21
-49.95
 31
0.0
  0
LINE
  5
8203
330
81B3
100
AcDbEntity
  8
0
100
AcDbLine
 10
-1.14758388596284
 20
-49.87901360414856
 30
0.0
 11
-1.270535930223696
 21
-49.95
 31
0.0
  0
ARC
  5
8204
330
81B3
100
AcDbEntity
  8
0
100
AcDbCircle
 10
-1.120535930223696
 20
-50.20980762113532
 30
0.0
 40
0.2999999999999999
100
AcDbArc
 50
120.0000000000007
 51
197.3544932297499
  0
ARC
  5
8205
330
81B3
100
AcDbEntity
  8
0
100
AcDbCircle
 10
1.120535930223696
 20
-50.20980762113532
 30
0.0
 40
0.2999999999999999
100
AcDbArc
 50
342.6455067702518
 51
60.00000000000147
  0
LINE
  5
8206
330
81B3
100
AcDbEntity
  8
0
100
AcDbLine
 10
-1.147583885962842
 20
-51.12901360414856
 30
0.0
 11
-1.406879191792096
 21
-50.29929246093725
 31
0.0
  0
LINE
  5
8207
330
81B3
100
AcDbEntity
  8
0
100
AcDbLine
 10
1.147583885962842
 20
-51.12901360414856
 30
0.0
 11
1.406879191792096
 21
-50.29929246093725
 31
0.0
  0
LINE
  5
8208
330
81B3
100
AcDbEntity
  8
0
100
AcDbLine
 10
1.147583885962844
 20
-48.62901360414856
 30
0.0
 11
1.2705359302237
 21
-48.7
 31
0.0
  0
LINE
  5
8209
330
81B3
100
AcDbEntity
  8
0
100
AcDbLine
 10
-1.14758388596284
 20
-48.62901360414856
 30
0.0
 11
-1.270535930223696
 21
-48.7
 31
0.0
  0
ARC
  5
820A
330
81B3
100
AcDbEntity
  8
0
100
AcDbCircle
 10
-1.120535930223696
 20
-48.95980762113532
 30
0.0
 40
0.2999999999999999
100
AcDbArc
 50
120.0000000000007
 51
197.3544932297499
  0
ARC
  5
820B
330
81B3
100
AcDbEntity
  8
0
100
AcDbCircle
 10
1.120535930223696
 20
-48.95980762113532
 30
0.0
 40
0.2999999999999999
100
AcDbArc
 50
342.6455067702518
 51
60.00000000000147
  0
LINE
  5
820C
330
81B3
100
AcDbEntity
  8
0
100
AcDbLine
 10
-1.147583885962842
 20
-49.87901360414856
 30
0.0
 11
-1.406879191792096
 21
-49.04929246093725
 31
0.0
  0
LINE
  5
820D
330
81B3
100
AcDbEntity
  8
0
100
AcDbLine
 10
1.147583885962842
 20
-49.87901360414856
 30
0.0
 11
1.406879191792096
 21
-49.04929246093725
 31
0.0
  0
LINE
  5
820E
330
81B3
100
AcDbEntity
  8
0
100
AcDbLine
 10
1.147583885962844
 20
-47.37901360414856
 30
0.0
 11
1.2705359302237
 21
-47.45
 31
0.0
  0
LINE
  5
820F
330
81B3
100
AcDbEntity
  8
0
100
AcDbLine
 10
-1.14758388596284
 20
-47.37901360414856
 30
0.0
 11
-1.270535930223696
 21
-47.45
 31
0.0
  0
ARC
  5
8210
330
81B3
100
AcDbEntity
  8
0
100
AcDbCircle
 10
-1.120535930223696
 20
-47.70980762113532
 30
0.0
 40
0.2999999999999999
100
AcDbArc
 50
120.0000000000007
 51
197.3544932297499
  0
ARC
  5
8211
330
81B3
100
AcDbEntity
  8
0
100
AcDbCircle
 10
1.120535930223696
 20
-47.70980762113532
 30
0.0
 40
0.2999999999999999
100
AcDbArc
 50
342.6455067702518
 51
60.00000000000147
  0
LINE
  5
8212
330
81B3
100
AcDbEntity
  8
0
100
AcDbLine
 10
-1.147583885962842
 20
-48.62901360414856
 30
0.0
 11
-1.406879191792096
 21
-47.79929246093725
 31
0.0
  0
LINE
  5
8213
330
81B3
100
AcDbEntity
  8
0
100
AcDbLine
 10
1.147583885962842
 20
-48.62901360414856
 30
0.0
 11
1.406879191792096
 21
-47.79929246093725
 31
0.0
  0
LINE
  5
8214
330
81B3
100
AcDbEntity
  8
0
100
AcDbLine
 10
1.147583885962844
 20
-46.12901360414856
 30
0.0
 11
1.2705359302237
 21
-46.2
 31
0.0
  0
LINE
  5
8215
330
81B3
100
AcDbEntity
  8
0
100
AcDbLine
 10
-1.14758388596284
 20
-46.12901360414856
 30
0.0
 11
-1.270535930223696
 21
-46.2
 31
0.0
  0
ARC
  5
8216
330
81B3
100
AcDbEntity
  8
0
100
AcDbCircle
 10
-1.120535930223696
 20
-46.45980762113532
 30
0.0
 40
0.2999999999999999
100
AcDbArc
 50
120.0000000000007
 51
197.3544932297499
  0
ARC
  5
8217
330
81B3
100
AcDbEntity
  8
0
100
AcDbCircle
 10
1.120535930223696
 20
-46.45980762113532
 30
0.0
 40
0.2999999999999999
100
AcDbArc
 50
342.6455067702518
 51
60.00000000000147
  0
LINE
  5
8218
330
81B3
100
AcDbEntity
  8
0
100
AcDbLine
 10
-1.147583885962842
 20
-47.37901360414856
 30
0.0
 11
-1.406879191792096
 21
-46.54929246093725
 31
0.0
  0
LINE
  5
8219
330
81B3
100
AcDbEntity
  8
0
100
AcDbLine
 10
1.147583885962842
 20
-47.37901360414856
 30
0.0
 11
1.406879191792096
 21
-46.54929246093725
 31
0.0
  0
LINE
  5
821A
330
81B3
100
AcDbEntity
  8
0
100
AcDbLine
 10
1.147583885962844
 20
-44.87901360414856
 30
0.0
 11
1.2705359302237
 21
-44.95
 31
0.0
  0
LINE
  5
821B
330
81B3
100
AcDbEntity
  8
0
100
AcDbLine
 10
-1.14758388596284
 20
-44.87901360414856
 30
0.0
 11
-1.270535930223696
 21
-44.95
 31
0.0
  0
ARC
  5
821C
330
81B3
100
AcDbEntity
  8
0
100
AcDbCircle
 10
-1.120535930223696
 20
-45.20980762113532
 30
0.0
 40
0.2999999999999999
100
AcDbArc
 50
120.0000000000007
 51
197.3544932297499
  0
ARC
  5
821D
330
81B3
100
AcDbEntity
  8
0
100
AcDbCircle
 10
1.120535930223696
 20
-45.20980762113532
 30
0.0
 40
0.2999999999999999
100
AcDbArc
 50
342.6455067702518
 51
60.00000000000147
  0
LINE
  5
821E
330
81B3
100
AcDbEntity
  8
0
100
AcDbLine
 10
-1.147583885962842
 20
-46.12901360414856
 30
0.0
 11
-1.406879191792096
 21
-45.29929246093725
 31
0.0
  0
LINE
  5
821F
330
81B3
100
AcDbEntity
  8
0
100
AcDbLine
 10
1.147583885962842
 20
-46.12901360414856
 30
0.0
 11
1.406879191792096
 21
-45.29929246093725
 31
0.0
  0
LINE
  5
8220
330
81B3
100
AcDbEntity
  8
0
100
AcDbLine
 10
1.147583885962844
 20
-43.62901360414856
 30
0.0
 11
1.2705359302237
 21
-43.7
 31
0.0
  0
LINE
  5
8221
330
81B3
100
AcDbEntity
  8
0
100
AcDbLine
 10
-1.14758388596284
 20
-43.62901360414856
 30
0.0
 11
-1.270535930223696
 21
-43.7
 31
0.0
  0
ARC
  5
8222
330
81B3
100
AcDbEntity
  8
0
100
AcDbCircle
 10
-1.120535930223696
 20
-43.95980762113532
 30
0.0
 40
0.2999999999999999
100
AcDbArc
 50
120.0000000000007
 51
197.3544932297499
  0
ARC
  5
8223
330
81B3
100
AcDbEntity
  8
0
100
AcDbCircle
 10
1.120535930223696
 20
-43.95980762113532
 30
0.0
 40
0.2999999999999999
100
AcDbArc
 50
342.6455067702518
 51
60.00000000000147
  0
LINE
  5
8224
330
81B3
100
AcDbEntity
  8
0
100
AcDbLine
 10
-1.147583885962842
 20
-44.87901360414856
 30
0.0
 11
-1.406879191792096
 21
-44.04929246093725
 31
0.0
  0
LINE
  5
8225
330
81B3
100
AcDbEntity
  8
0
100
AcDbLine
 10
1.147583885962842
 20
-44.87901360414856
 30
0.0
 11
1.406879191792096
 21
-44.04929246093725
 31
0.0
  0
LINE
  5
8226
330
81B3
100
AcDbEntity
  8
0
100
AcDbLine
 10
1.147583885962844
 20
-42.37901360414856
 30
0.0
 11
1.2705359302237
 21
-42.45
 31
0.0
  0
LINE
  5
8227
330
81B3
100
AcDbEntity
  8
0
100
AcDbLine
 10
-1.14758388596284
 20
-42.37901360414856
 30
0.0
 11
-1.270535930223696
 21
-42.45
 31
0.0
  0
ARC
  5
8228
330
81B3
100
AcDbEntity
  8
0
100
AcDbCircle
 10
-1.120535930223696
 20
-42.70980762113532
 30
0.0
 40
0.2999999999999999
100
AcDbArc
 50
120.0000000000007
 51
197.3544932297499
  0
ARC
  5
8229
330
81B3
100
AcDbEntity
  8
0
100
AcDbCircle
 10
1.120535930223696
 20
-42.70980762113532
 30
0.0
 40
0.2999999999999999
100
AcDbArc
 50
342.6455067702518
 51
60.00000000000147
  0
LINE
  5
822A
330
81B3
100
AcDbEntity
  8
0
100
AcDbLine
 10
-1.147583885962842
 20
-43.62901360414856
 30
0.0
 11
-1.406879191792096
 21
-42.79929246093725
 31
0.0
  0
LINE
  5
822B
330
81B3
100
AcDbEntity
  8
0
100
AcDbLine
 10
1.147583885962842
 20
-43.62901360414856
 30
0.0
 11
1.406879191792096
 21
-42.79929246093725
 31
0.0
  0
LINE
  5
822C
330
81B3
100
AcDbEntity
  8
0
100
AcDbLine
 10
1.147583885962844
 20
-41.12901360414856
 30
0.0
 11
1.2705359302237
 21
-41.2
 31
0.0
  0
LINE
  5
822D
330
81B3
100
AcDbEntity
  8
0
100
AcDbLine
 10
-1.14758388596284
 20
-41.12901360414856
 30
0.0
 11
-1.270535930223696
 21
-41.2
 31
0.0
  0
ARC
  5
822E
330
81B3
100
AcDbEntity
  8
0
100
AcDbCircle
 10
-1.120535930223696
 20
-41.45980762113532
 30
0.0
 40
0.2999999999999999
100
AcDbArc
 50
120.0000000000007
 51
197.3544932297499
  0
ARC
  5
822F
330
81B3
100
AcDbEntity
  8
0
100
AcDbCircle
 10
1.120535930223696
 20
-41.45980762113532
 30
0.0
 40
0.2999999999999999
100
AcDbArc
 50
342.6455067702518
 51
60.00000000000147
  0
LINE
  5
8230
330
81B3
100
AcDbEntity
  8
0
100
AcDbLine
 10
-1.147583885962842
 20
-42.37901360414856
 30
0.0
 11
-1.406879191792096
 21
-41.54929246093725
 31
0.0
  0
LINE
  5
8231
330
81B3
100
AcDbEntity
  8
0
100
AcDbLine
 10
1.147583885962842
 20
-42.37901360414856
 30
0.0
 11
1.406879191792096
 21
-41.54929246093725
 31
0.0
  0
LINE
  5
8232
330
81B3
100
AcDbEntity
  8
0
100
AcDbLine
 10
1.147583885962842
 20
-39.87901360414857
 30
0.0
 11
1.270535930223696
 21
-39.95
 31
0.0
  0
LINE
  5
8233
330
81B3
100
AcDbEntity
  8
0
100
AcDbLine
 10
-1.14758388596284
 20
-39.87901360414857
 30
0.0
 11
-1.270535930223696
 21
-39.95
 31
0.0
  0
ARC
  5
8234
330
81B3
100
AcDbEntity
  8
0
100
AcDbCircle
 10
-1.120535930223696
 20
-40.20980762113532
 30
0.0
 40
0.2999999999999999
100
AcDbArc
 50
120.0000000000004
 51
197.3544932297499
  0
ARC
  5
8235
330
81B3
100
AcDbEntity
  8
0
100
AcDbCircle
 10
1.120535930223696
 20
-40.20980762113532
 30
0.0
 40
0.3
100
AcDbArc
 50
342.6455067702518
 51
60.00000000000042
  0
LINE
  5
8236
330
81B3
100
AcDbEntity
  8
0
100
AcDbLine
 10
-1.147583885962842
 20
-41.12901360414856
 30
0.0
 11
-1.406879191792096
 21
-40.29929246093725
 31
0.0
  0
LINE
  5
8237
330
81B3
100
AcDbEntity
  8
0
100
AcDbLine
 10
1.147583885962842
 20
-41.12901360414856
 30
0.0
 11
1.406879191792096
 21
-40.29929246093725
 31
0.0
  0
LINE
  5
8238
330
81B3
100
AcDbEntity
  8
0
100
AcDbLine
 10
1.147583885962842
 20
-38.62901360414857
 30
0.0
 11
1.270535930223696
 21
-38.7
 31
0.0
  0
LINE
  5
8239
330
81B3
100
AcDbEntity
  8
0
100
AcDbLine
 10
-1.14758388596284
 20
-38.62901360414857
 30
0.0
 11
-1.270535930223696
 21
-38.7
 31
0.0
  0
ARC
  5
823A
330
81B3
100
AcDbEntity
  8
0
100
AcDbCircle
 10
-1.120535930223696
 20
-38.95980762113533
 30
0.0
 40
0.3
100
AcDbArc
 50
120.0000000000003
 51
197.354493229749
  0
ARC
  5
823B
330
81B3
100
AcDbEntity
  8
0
100
AcDbCircle
 10
1.120535930223696
 20
-38.95980762113533
 30
0.0
 40
0.2999999999999999
100
AcDbArc
 50
342.645506770251
 51
60.0000000000001
  0
LINE
  5
823C
330
81B3
100
AcDbEntity
  8
0
100
AcDbLine
 10
-1.147583885962842
 20
-39.87901360414857
 30
0.0
 11
-1.406879191792096
 21
-39.04929246093725
 31
0.0
  0
LINE
  5
823D
330
81B3
100
AcDbEntity
  8
0
100
AcDbLine
 10
1.147583885962843
 20
-39.87901360414857
 30
0.0
 11
1.406879191792096
 21
-39.04929246093725
 31
0.0
  0
LINE
  5
823E
330
81B3
100
AcDbEntity
  8
0
100
AcDbLine
 10
1.147583885962842
 20
-37.37901360414857
 30
0.0
 11
1.270535930223696
 21
-37.45
 31
0.0
  0
LINE
  5
823F
330
81B3
100
AcDbEntity
  8
0
100
AcDbLine
 10
-1.14758388596284
 20
-37.37901360414857
 30
0.0
 11
-1.270535930223696
 21
-37.45
 31
0.0
  0
ARC
  5
8240
330
81B3
100
AcDbEntity
  8
0
100
AcDbCircle
 10
-1.120535930223696
 20
-37.70980762113533
 30
0.0
 40
0.3
100
AcDbArc
 50
120.0000000000003
 51
197.354493229749
  0
ARC
  5
8241
330
81B3
100
AcDbEntity
  8
0
100
AcDbCircle
 10
1.120535930223696
 20
-37.70980762113533
 30
0.0
 40
0.2999999999999999
100
AcDbArc
 50
342.645506770251
 51
60.0000000000001
  0
LINE
  5
8242
330
81B3
100
AcDbEntity
  8
0
100
AcDbLine
 10
-1.147583885962842
 20
-38.62901360414857
 30
0.0
 11
-1.406879191792096
 21
-37.79929246093725
 31
0.0
  0
LINE
  5
8243
330
81B3
100
AcDbEntity
  8
0
100
AcDbLine
 10
1.147583885962843
 20
-38.62901360414857
 30
0.0
 11
1.406879191792096
 21
-37.79929246093725
 31
0.0
  0
LINE
  5
8244
330
81B3
100
AcDbEntity
  8
0
100
AcDbLine
 10
1.147583885962842
 20
-36.12901360414857
 30
0.0
 11
1.270535930223696
 21
-36.2
 31
0.0
  0
LINE
  5
8245
330
81B3
100
AcDbEntity
  8
0
100
AcDbLine
 10
-1.14758388596284
 20
-36.12901360414857
 30
0.0
 11
-1.270535930223696
 21
-36.2
 31
0.0
  0
ARC
  5
8246
330
81B3
100
AcDbEntity
  8
0
100
AcDbCircle
 10
-1.120535930223696
 20
-36.45980762113533
 30
0.0
 40
0.3
100
AcDbArc
 50
120.0000000000003
 51
197.354493229749
  0
ARC
  5
8247
330
81B3
100
AcDbEntity
  8
0
100
AcDbCircle
 10
1.120535930223696
 20
-36.45980762113533
 30
0.0
 40
0.2999999999999999
100
AcDbArc
 50
342.645506770251
 51
60.0000000000001
  0
LINE
  5
8248
330
81B3
100
AcDbEntity
  8
0
100
AcDbLine
 10
-1.147583885962842
 20
-37.37901360414857
 30
0.0
 11
-1.406879191792096
 21
-36.54929246093725
 31
0.0
  0
LINE
  5
8249
330
81B3
100
AcDbEntity
  8
0
100
AcDbLine
 10
1.147583885962843
 20
-37.37901360414857
 30
0.0
 11
1.406879191792096
 21
-36.54929246093725
 31
0.0
  0
LINE
  5
824A
330
81B3
100
AcDbEntity
  8
0
100
AcDbLine
 10
1.147583885962842
 20
-34.87901360414857
 30
0.0
 11
1.270535930223696
 21
-34.95
 31
0.0
  0
LINE
  5
824B
330
81B3
100
AcDbEntity
  8
0
100
AcDbLine
 10
-1.14758388596284
 20
-34.87901360414857
 30
0.0
 11
-1.270535930223696
 21
-34.95
 31
0.0
  0
ARC
  5
824C
330
81B3
100
AcDbEntity
  8
0
100
AcDbCircle
 10
-1.120535930223696
 20
-35.20980762113533
 30
0.0
 40
0.3
100
AcDbArc
 50
120.0000000000003
 51
197.354493229749
  0
ARC
  5
824D
330
81B3
100
AcDbEntity
  8
0
100
AcDbCircle
 10
1.120535930223696
 20
-35.20980762113533
 30
0.0
 40
0.2999999999999999
100
AcDbArc
 50
342.645506770251
 51
60.0000000000001
  0
LINE
  5
824E
330
81B3
100
AcDbEntity
  8
0
100
AcDbLine
 10
-1.147583885962842
 20
-36.12901360414857
 30
0.0
 11
-1.406879191792096
 21
-35.29929246093725
 31
0.0
  0
LINE
  5
824F
330
81B3
100
AcDbEntity
  8
0
100
AcDbLine
 10
1.147583885962843
 20
-36.12901360414857
 30
0.0
 11
1.406879191792096
 21
-35.29929246093725
 31
0.0
  0
LINE
  5
8250
330
81B3
100
AcDbEntity
  8
0
100
AcDbLine
 10
1.147583885962842
 20
-33.62901360414857
 30
0.0
 11
1.270535930223696
 21
-33.7
 31
0.0
  0
LINE
  5
8251
330
81B3
100
AcDbEntity
  8
0
100
AcDbLine
 10
-1.14758388596284
 20
-33.62901360414857
 30
0.0
 11
-1.270535930223696
 21
-33.7
 31
0.0
  0
ARC
  5
8252
330
81B3
100
AcDbEntity
  8
0
100
AcDbCircle
 10
-1.120535930223696
 20
-33.95980762113533
 30
0.0
 40
0.3
100
AcDbArc
 50
120.0000000000003
 51
197.354493229749
  0
ARC
  5
8253
330
81B3
100
AcDbEntity
  8
0
100
AcDbCircle
 10
1.120535930223696
 20
-33.95980762113533
 30
0.0
 40
0.2999999999999999
100
AcDbArc
 50
342.645506770251
 51
60.0000000000001
  0
LINE
  5
8254
330
81B3
100
AcDbEntity
  8
0
100
AcDbLine
 10
-1.147583885962842
 20
-34.87901360414857
 30
0.0
 11
-1.406879191792096
 21
-34.04929246093725
 31
0.0
  0
LINE
  5
8255
330
81B3
100
AcDbEntity
  8
0
100
AcDbLine
 10
1.147583885962843
 20
-34.87901360414857
 30
0.0
 11
1.406879191792096
 21
-34.04929246093725
 31
0.0
  0
LINE
  5
8256
330
81B3
100
AcDbEntity
  8
0
100
AcDbLine
 10
1.147583885962842
 20
-32.37901360414857
 30
0.0
 11
1.270535930223696
 21
-32.45
 31
0.0
  0
LINE
  5
8257
330
81B3
100
AcDbEntity
  8
0
100
AcDbLine
 10
-1.14758388596284
 20
-32.37901360414857
 30
0.0
 11
-1.270535930223696
 21
-32.45
 31
0.0
  0
ARC
  5
8258
330
81B3
100
AcDbEntity
  8
0
100
AcDbCircle
 10
-1.120535930223696
 20
-32.70980762113533
 30
0.0
 40
0.3
100
AcDbArc
 50
120.0000000000003
 51
197.354493229749
  0
ARC
  5
8259
330
81B3
100
AcDbEntity
  8
0
100
AcDbCircle
 10
1.120535930223696
 20
-32.70980762113533
 30
0.0
 40
0.2999999999999999
100
AcDbArc
 50
342.645506770251
 51
60.0000000000001
  0
LINE
  5
825A
330
81B3
100
AcDbEntity
  8
0
100
AcDbLine
 10
-1.147583885962842
 20
-33.62901360414857
 30
0.0
 11
-1.406879191792096
 21
-32.79929246093725
 31
0.0
  0
LINE
  5
825B
330
81B3
100
AcDbEntity
  8
0
100
AcDbLine
 10
1.147583885962843
 20
-33.62901360414857
 30
0.0
 11
1.406879191792096
 21
-32.79929246093725
 31
0.0
  0
LINE
  5
825C
330
81B3
100
AcDbEntity
  8
0
100
AcDbLine
 10
1.147583885962842
 20
-31.12901360414856
 30
0.0
 11
1.270535930223696
 21
-31.2
 31
0.0
  0
LINE
  5
825D
330
81B3
100
AcDbEntity
  8
0
100
AcDbLine
 10
-1.14758388596284
 20
-31.12901360414856
 30
0.0
 11
-1.270535930223696
 21
-31.2
 31
0.0
  0
ARC
  5
825E
330
81B3
100
AcDbEntity
  8
0
100
AcDbCircle
 10
-1.120535930223696
 20
-31.45980762113533
 30
0.0
 40
0.3
100
AcDbArc
 50
120.0000000000003
 51
197.354493229749
  0
ARC
  5
825F
330
81B3
100
AcDbEntity
  8
0
100
AcDbCircle
 10
1.120535930223696
 20
-31.45980762113533
 30
0.0
 40
0.2999999999999999
100
AcDbArc
 50
342.645506770251
 51
60.0000000000001
  0
LINE
  5
8260
330
81B3
100
AcDbEntity
  8
0
100
AcDbLine
 10
-1.147583885962842
 20
-32.37901360414857
 30
0.0
 11
-1.406879191792096
 21
-31.54929246093725
 31
0.0
  0
LINE
  5
8261
330
81B3
100
AcDbEntity
  8
0
100
AcDbLine
 10
1.147583885962843
 20
-32.37901360414857
 30
0.0
 11
1.406879191792096
 21
-31.54929246093725
 31
0.0
  0
LINE
  5
8262
330
81B3
100
AcDbEntity
  8
0
100
AcDbLine
 10
1.147583885962842
 20
-29.87901360414856
 30
0.0
 11
1.270535930223696
 21
-29.95
 31
0.0
  0
LINE
  5
8263
330
81B3
100
AcDbEntity
  8
0
100
AcDbLine
 10
-1.14758388596284
 20
-29.87901360414856
 30
0.0
 11
-1.270535930223696
 21
-29.95
 31
0.0
  0
ARC
  5
8264
330
81B3
100
AcDbEntity
  8
0
100
AcDbCircle
 10
-1.120535930223696
 20
-30.20980762113533
 30
0.0
 40
0.3
100
AcDbArc
 50
120.0000000000003
 51
197.354493229749
  0
ARC
  5
8265
330
81B3
100
AcDbEntity
  8
0
100
AcDbCircle
 10
1.120535930223696
 20
-30.20980762113533
 30
0.0
 40
0.2999999999999999
100
AcDbArc
 50
342.645506770251
 51
60.0000000000001
  0
LINE
  5
8266
330
81B3
100
AcDbEntity
  8
0
100
AcDbLine
 10
-1.147583885962842
 20
-31.12901360414857
 30
0.0
 11
-1.406879191792096
 21
-30.29929246093725
 31
0.0
  0
LINE
  5
8267
330
81B3
100
AcDbEntity
  8
0
100
AcDbLine
 10
1.147583885962843
 20
-31.12901360414856
 30
0.0
 11
1.406879191792096
 21
-30.29929246093725
 31
0.0
  0
LINE
  5
8268
330
81B3
100
AcDbEntity
  8
0
100
AcDbLine
 10
1.147583885962842
 20
-28.62901360414856
 30
0.0
 11
1.270535930223696
 21
-28.7
 31
0.0
  0
LINE
  5
8269
330
81B3
100
AcDbEntity
  8
0
100
AcDbLine
 10
-1.14758388596284
 20
-28.62901360414856
 30
0.0
 11
-1.270535930223696
 21
-28.7
 31
0.0
  0
ARC
  5
826A
330
81B3
100
AcDbEntity
  8
0
100
AcDbCircle
 10
-1.120535930223696
 20
-28.95980762113533
 30
0.0
 40
0.3
100
AcDbArc
 50
120.0000000000003
 51
197.354493229749
  0
ARC
  5
826B
330
81B3
100
AcDbEntity
  8
0
100
AcDbCircle
 10
1.120535930223696
 20
-28.95980762113533
 30
0.0
 40
0.2999999999999999
100
AcDbArc
 50
342.645506770251
 51
60.0000000000001
  0
LINE
  5
826C
330
81B3
100
AcDbEntity
  8
0
100
AcDbLine
 10
-1.147583885962842
 20
-29.87901360414857
 30
0.0
 11
-1.406879191792096
 21
-29.04929246093725
 31
0.0
  0
LINE
  5
826D
330
81B3
100
AcDbEntity
  8
0
100
AcDbLine
 10
1.147583885962843
 20
-29.87901360414856
 30
0.0
 11
1.406879191792096
 21
-29.04929246093725
 31
0.0
  0
LINE
  5
826E
330
81B3
100
AcDbEntity
  8
0
100
AcDbLine
 10
1.147583885962842
 20
-27.37901360414856
 30
0.0
 11
1.270535930223696
 21
-27.45
 31
0.0
  0
LINE
  5
826F
330
81B3
100
AcDbEntity
  8
0
100
AcDbLine
 10
-1.14758388596284
 20
-27.37901360414856
 30
0.0
 11
-1.270535930223696
 21
-27.45
 31
0.0
  0
ARC
  5
8270
330
81B3
100
AcDbEntity
  8
0
100
AcDbCircle
 10
-1.120535930223696
 20
-27.70980762113533
 30
0.0
 40
0.3
100
AcDbArc
 50
120.0000000000003
 51
197.354493229749
  0
ARC
  5
8271
330
81B3
100
AcDbEntity
  8
0
100
AcDbCircle
 10
1.120535930223696
 20
-27.70980762113533
 30
0.0
 40
0.2999999999999999
100
AcDbArc
 50
342.645506770251
 51
60.0000000000001
  0
LINE
  5
8272
330
81B3
100
AcDbEntity
  8
0
100
AcDbLine
 10
-1.147583885962842
 20
-28.62901360414857
 30
0.0
 11
-1.406879191792096
 21
-27.79929246093725
 31
0.0
  0
LINE
  5
8273
330
81B3
100
AcDbEntity
  8
0
100
AcDbLine
 10
1.147583885962843
 20
-28.62901360414856
 30
0.0
 11
1.406879191792096
 21
-27.79929246093725
 31
0.0
  0
LINE
  5
8274
330
81B3
100
AcDbEntity
  8
0
100
AcDbLine
 10
1.147583885962842
 20
-26.12901360414856
 30
0.0
 11
1.270535930223696
 21
-26.2
 31
0.0
  0
LINE
  5
8275
330
81B3
100
AcDbEntity
  8
0
100
AcDbLine
 10
-1.14758388596284
 20
-26.12901360414856
 30
0.0
 11
-1.270535930223696
 21
-26.2
 31
0.0
  0
ARC
  5
8276
330
81B3
100
AcDbEntity
  8
0
100
AcDbCircle
 10
-1.120535930223696
 20
-26.45980762113533
 30
0.0
 40
0.3
100
AcDbArc
 50
120.0000000000003
 51
197.354493229749
  0
ARC
  5
8277
330
81B3
100
AcDbEntity
  8
0
100
AcDbCircle
 10
1.120535930223696
 20
-26.45980762113533
 30
0.0
 40
0.2999999999999999
100
AcDbArc
 50
342.645506770251
 51
60.0000000000001
  0
LINE
  5
8278
330
81B3
100
AcDbEntity
  8
0
100
AcDbLine
 10
-1.147583885962842
 20
-27.37901360414857
 30
0.0
 11
-1.406879191792096
 21
-26.54929246093725
 31
0.0
  0
LINE
  5
8279
330
81B3
100
AcDbEntity
  8
0
100
AcDbLine
 10
1.147583885962843
 20
-27.37901360414856
 30
0.0
 11
1.406879191792096
 21
-26.54929246093725
 31
0.0
  0
LINE
  5
827A
330
81B3
100
AcDbEntity
  8
0
100
AcDbLine
 10
1.147583885962842
 20
-24.87901360414856
 30
0.0
 11
1.270535930223696
 21
-24.95
 31
0.0
  0
LINE
  5
827B
330
81B3
100
AcDbEntity
  8
0
100
AcDbLine
 10
-1.14758388596284
 20
-24.87901360414856
 30
0.0
 11
-1.270535930223696
 21
-24.95
 31
0.0
  0
ARC
  5
827C
330
81B3
100
AcDbEntity
  8
0
100
AcDbCircle
 10
-1.120535930223696
 20
-25.20980762113533
 30
0.0
 40
0.3
100
AcDbArc
 50
120.0000000000003
 51
197.354493229749
  0
ARC
  5
827D
330
81B3
100
AcDbEntity
  8
0
100
AcDbCircle
 10
1.120535930223696
 20
-25.20980762113533
 30
0.0
 40
0.2999999999999999
100
AcDbArc
 50
342.645506770251
 51
60.0000000000001
  0
LINE
  5
827E
330
81B3
100
AcDbEntity
  8
0
100
AcDbLine
 10
-1.147583885962842
 20
-26.12901360414857
 30
0.0
 11
-1.406879191792096
 21
-25.29929246093725
 31
0.0
  0
LINE
  5
827F
330
81B3
100
AcDbEntity
  8
0
100
AcDbLine
 10
1.147583885962843
 20
-26.12901360414856
 30
0.0
 11
1.406879191792096
 21
-25.29929246093725
 31
0.0
  0
LINE
  5
8280
330
81B3
100
AcDbEntity
  8
0
100
AcDbLine
 10
1.147583885962842
 20
-23.62901360414856
 30
0.0
 11
1.270535930223696
 21
-23.7
 31
0.0
  0
LINE
  5
8281
330
81B3
100
AcDbEntity
  8
0
100
AcDbLine
 10
-1.14758388596284
 20
-23.62901360414856
 30
0.0
 11
-1.270535930223696
 21
-23.7
 31
0.0
  0
ARC
  5
8282
330
81B3
100
AcDbEntity
  8
0
100
AcDbCircle
 10
-1.120535930223696
 20
-23.95980762113533
 30
0.0
 40
0.3
100
AcDbArc
 50
120.0000000000003
 51
197.354493229749
  0
ARC
  5
8283
330
81B3
100
AcDbEntity
  8
0
100
AcDbCircle
 10
1.120535930223696
 20
-23.95980762113533
 30
0.0
 40
0.2999999999999999
100
AcDbArc
 50
342.645506770251
 51
60.0000000000001
  0
LINE
  5
8284
330
81B3
100
AcDbEntity
  8
0
100
AcDbLine
 10
-1.147583885962842
 20
-24.87901360414857
 30
0.0
 11
-1.406879191792096
 21
-24.04929246093725
 31
0.0
  0
LINE
  5
8285
330
81B3
100
AcDbEntity
  8
0
100
AcDbLine
 10
1.147583885962843
 20
-24.87901360414856
 30
0.0
 11
1.406879191792096
 21
-24.04929246093725
 31
0.0
  0
LINE
  5
8286
330
81B3
100
AcDbEntity
  8
0
100
AcDbLine
 10
1.147583885962842
 20
-22.37901360414856
 30
0.0
 11
1.270535930223696
 21
-22.45
 31
0.0
  0
LINE
  5
8287
330
81B3
100
AcDbEntity
  8
0
100
AcDbLine
 10
-1.14758388596284
 20
-22.37901360414856
 30
0.0
 11
-1.270535930223696
 21
-22.45
 31
0.0
  0
ARC
  5
8288
330
81B3
100
AcDbEntity
  8
0
100
AcDbCircle
 10
-1.120535930223696
 20
-22.70980762113533
 30
0.0
 40
0.3
100
AcDbArc
 50
120.0000000000003
 51
197.354493229749
  0
ARC
  5
8289
330
81B3
100
AcDbEntity
  8
0
100
AcDbCircle
 10
1.120535930223696
 20
-22.70980762113533
 30
0.0
 40
0.2999999999999999
100
AcDbArc
 50
342.645506770251
 51
60.0000000000001
  0
LINE
  5
828A
330
81B3
100
AcDbEntity
  8
0
100
AcDbLine
 10
-1.147583885962842
 20
-23.62901360414857
 30
0.0
 11
-1.406879191792096
 21
-22.79929246093725
 31
0.0
  0
LINE
  5
828B
330
81B3
100
AcDbEntity
  8
0
100
AcDbLine
 10
1.147583885962843
 20
-23.62901360414856
 30
0.0
 11
1.406879191792096
 21
-22.79929246093725
 31
0.0
  0
LINE
  5
828C
330
81B3
100
AcDbEntity
  8
0
100
AcDbLine
 10
1.147583885962842
 20
-21.12901360414856
 30
0.0
 11
1.270535930223696
 21
-21.2
 31
0.0
  0
LINE
  5
828D
330
81B3
100
AcDbEntity
  8
0
100
AcDbLine
 10
-1.14758388596284
 20
-21.12901360414856
 30
0.0
 11
-1.270535930223696
 21
-21.2
 31
0.0
  0
ARC
  5
828E
330
81B3
100
AcDbEntity
  8
0
100
AcDbCircle
 10
-1.120535930223696
 20
-21.45980762113533
 30
0.0
 40
0.3
100
AcDbArc
 50
120.0000000000003
 51
197.354493229749
  0
ARC
  5
828F
330
81B3
100
AcDbEntity
  8
0
100
AcDbCircle
 10
1.120535930223696
 20
-21.45980762113533
 30
0.0
 40
0.2999999999999999
100
AcDbArc
 50
342.645506770251
 51
60.0000000000001
  0
LINE
  5
8290
330
81B3
100
AcDbEntity
  8
0
100
AcDbLine
 10
-1.147583885962842
 20
-22.37901360414857
 30
0.0
 11
-1.406879191792096
 21
-21.54929246093725
 31
0.0
  0
LINE
  5
8291
330
81B3
100
AcDbEntity
  8
0
100
AcDbLine
 10
1.147583885962843
 20
-22.37901360414856
 30
0.0
 11
1.406879191792096
 21
-21.54929246093725
 31
0.0
  0
LINE
  5
8292
330
81B3
100
AcDbEntity
  8
0
100
AcDbLine
 10
1.147583885962844
 20
-19.87901360414857
 30
0.0
 11
1.270535930223696
 21
-19.95
 31
0.0
  0
LINE
  5
8293
330
81B3
100
AcDbEntity
  8
0
100
AcDbLine
 10
-1.147583885962844
 20
-19.87901360414857
 30
0.0
 11
-1.270535930223696
 21
-19.95
 31
0.0
  0
ARC
  5
8294
330
81B3
100
AcDbEntity
  8
0
100
AcDbCircle
 10
-1.120535930223696
 20
-20.20980762113533
 30
0.0
 40
0.3
100
AcDbArc
 50
120.0000000000003
 51
197.354493229749
  0
ARC
  5
8295
330
81B3
100
AcDbEntity
  8
0
100
AcDbCircle
 10
1.120535930223696
 20
-20.20980762113533
 30
0.0
 40
0.3
100
AcDbArc
 50
342.645506770251
 51
59.99999999999962
  0
LINE
  5
8296
330
81B3
100
AcDbEntity
  8
0
100
AcDbLine
 10
-1.147583885962842
 20
-21.12901360414857
 30
0.0
 11
-1.406879191792096
 21
-20.29929246093725
 31
0.0
  0
LINE
  5
8297
330
81B3
100
AcDbEntity
  8
0
100
AcDbLine
 10
1.147583885962843
 20
-21.12901360414856
 30
0.0
 11
1.406879191792096
 21
-20.29929246093725
 31
0.0
  0
LINE
  5
8298
330
81B3
100
AcDbEntity
  8
0
100
AcDbLine
 10
1.147583885962844
 20
-18.62901360414857
 30
0.0
 11
1.270535930223696
 21
-18.7
 31
0.0
  0
LINE
  5
8299
330
81B3
100
AcDbEntity
  8
0
100
AcDbLine
 10
-1.147583885962844
 20
-18.62901360414857
 30
0.0
 11
-1.270535930223696
 21
-18.7
 31
0.0
  0
ARC
  5
829A
330
81B3
100
AcDbEntity
  8
0
100
AcDbCircle
 10
-1.120535930223696
 20
-18.95980762113533
 30
0.0
 40
0.2999999999999999
100
AcDbArc
 50
120.0000000000003
 51
197.3544932297494
  0
ARC
  5
829B
330
81B3
100
AcDbEntity
  8
0
100
AcDbCircle
 10
1.120535930223696
 20
-18.95980762113533
 30
0.0
 40
0.3
100
AcDbArc
 50
342.6455067702505
 51
59.99999999999962
  0
LINE
  5
829C
330
81B3
100
AcDbEntity
  8
0
100
AcDbLine
 10
-1.147583885962842
 20
-19.87901360414857
 30
0.0
 11
-1.406879191792096
 21
-19.04929246093725
 31
0.0
  0
LINE
  5
829D
330
81B3
100
AcDbEntity
  8
0
100
AcDbLine
 10
1.147583885962842
 20
-19.87901360414857
 30
0.0
 11
1.406879191792096
 21
-19.04929246093725
 31
0.0
  0
LINE
  5
829E
330
81B3
100
AcDbEntity
  8
0
100
AcDbLine
 10
1.147583885962844
 20
-17.37901360414857
 30
0.0
 11
1.270535930223696
 21
-17.45
 31
0.0
  0
LINE
  5
829F
330
81B3
100
AcDbEntity
  8
0
100
AcDbLine
 10
-1.147583885962844
 20
-17.37901360414857
 30
0.0
 11
-1.270535930223696
 21
-17.45
 31
0.0
  0
ARC
  5
82A0
330
81B3
100
AcDbEntity
  8
0
100
AcDbCircle
 10
-1.120535930223696
 20
-17.70980762113533
 30
0.0
 40
0.2999999999999999
100
AcDbArc
 50
120.0000000000003
 51
197.3544932297494
  0
ARC
  5
82A1
330
81B3
100
AcDbEntity
  8
0
100
AcDbCircle
 10
1.120535930223696
 20
-17.70980762113533
 30
0.0
 40
0.3
100
AcDbArc
 50
342.6455067702505
 51
59.99999999999962
  0
LINE
  5
82A2
330
81B3
100
AcDbEntity
  8
0
100
AcDbLine
 10
-1.147583885962842
 20
-18.62901360414857
 30
0.0
 11
-1.406879191792096
 21
-17.79929246093725
 31
0.0
  0
LINE
  5
82A3
330
81B3
100
AcDbEntity
  8
0
100
AcDbLine
 10
1.147583885962842
 20
-18.62901360414857
 30
0.0
 11
1.406879191792096
 21
-17.79929246093725
 31
0.0
  0
LINE
  5
82A4
330
81B3
100
AcDbEntity
  8
0
100
AcDbLine
 10
1.147583885962844
 20
-16.12901360414857
 30
0.0
 11
1.270535930223696
 21
-16.2
 31
0.0
  0
LINE
  5
82A5
330
81B3
100
AcDbEntity
  8
0
100
AcDbLine
 10
-1.147583885962844
 20
-16.12901360414857
 30
0.0
 11
-1.270535930223696
 21
-16.2
 31
0.0
  0
ARC
  5
82A6
330
81B3
100
AcDbEntity
  8
0
100
AcDbCircle
 10
-1.120535930223696
 20
-16.45980762113533
 30
0.0
 40
0.2999999999999999
100
AcDbArc
 50
120.0000000000003
 51
197.3544932297494
  0
ARC
  5
82A7
330
81B3
100
AcDbEntity
  8
0
100
AcDbCircle
 10
1.120535930223696
 20
-16.45980762113533
 30
0.0
 40
0.3
100
AcDbArc
 50
342.6455067702505
 51
59.99999999999962
  0
LINE
  5
82A8
330
81B3
100
AcDbEntity
  8
0
100
AcDbLine
 10
-1.147583885962842
 20
-17.37901360414857
 30
0.0
 11
-1.406879191792096
 21
-16.54929246093725
 31
0.0
  0
LINE
  5
82A9
330
81B3
100
AcDbEntity
  8
0
100
AcDbLine
 10
1.147583885962842
 20
-17.37901360414857
 30
0.0
 11
1.406879191792096
 21
-16.54929246093725
 31
0.0
  0
ARC
  5
82AA
330
81B3
100
AcDbEntity
  8
0
100
AcDbCircle
 10
-1.120535930223696
 20
-15.20980762113533
 30
0.0
 40
0.2999999999999999
100
AcDbArc
 50
120.0000000000003
 51
197.3544932297494
  0
ARC
  5
82AB
330
81B3
100
AcDbEntity
  8
0
100
AcDbCircle
 10
1.120535930223696
 20
-15.20980762113533
 30
0.0
 40
0.3
100
AcDbArc
 50
342.6455067702505
 51
59.99999999999962
  0
LINE
  5
82AC
330
81B3
100
AcDbEntity
  8
0
100
AcDbLine
 10
-1.147583885962842
 20
-16.12901360414857
 30
0.0
 11
-1.406879191792096
 21
-15.29929246093725
 31
0.0
  0
LINE
  5
82AD
330
81B3
100
AcDbEntity
  8
0
100
AcDbLine
 10
1.147583885962842
 20
-16.12901360414857
 30
0.0
 11
1.406879191792096
 21
-15.29929246093725
 31
0.0
  0
LINE
  5
82AE
330
81B3
100
AcDbEntity
  8
0
100
AcDbLine
 10
1.249999999999939
 20
-13.68814357515725
 30
0.0
 11
-1.249999999999939
 21
-13.68814357515725
 31
0.0
  0
LINE
  5
82AF
330
81B3
100
AcDbEntity
  8
0
100
AcDbLine
 10
1.249999999999938
 20
-13.68814357515725
 30
0.0
 11
1.270535930223696
 21
-13.7
 31
0.0
  0
LINE
  5
82B0
330
81B3
100
AcDbEntity
  8
0
100
AcDbLine
 10
-1.249999999999938
 20
-13.68814357515725
 30
0.0
 11
-1.270535930223696
 21
-13.7
 31
0.0
  0
ARC
  5
82B1
330
81B3
100
AcDbEntity
  8
0
100
AcDbCircle
 10
-1.120535930223696
 20
-13.95980762113533
 30
0.0
 40
0.2999999999999999
100
AcDbArc
 50
120.0000000000003
 51
197.3544932297494
  0
ARC
  5
82B2
330
81B3
100
AcDbEntity
  8
0
100
AcDbCircle
 10
1.120535930223696
 20
-13.95980762113533
 30
0.0
 40
0.3
100
AcDbArc
 50
342.6455067702505
 51
59.99999999999962
  0
LINE
  5
82B3
330
81B3
100
AcDbEntity
  8
0
100
AcDbLine
 10
-1.147583885962842
 20
-14.87901360414857
 30
0.0
 11
-1.406879191792096
 21
-14.04929246093725
 31
0.0
  0
LINE
  5
82B4
330
81B3
100
AcDbEntity
  8
0
100
AcDbLine
 10
1.147583885962842
 20
-14.87901360414857
 30
0.0
 11
1.406879191792096
 21
-14.04929246093725
 31
0.0
  0
LINE
  5
82B5
330
81B3
100
AcDbEntity
  8
0
100
AcDbLine
 10
2.84999999999998
 20
0.0
 30
0.0
 11
-2.84999999999998
 21
0.0
 31
0.0
  0
LINE
  5
82B6
330
81B3
100
AcDbEntity
  8
0
100
AcDbLine
 10
2.84999999999998
 20
0.4082234603293156
 30
0.0
 11
-2.84999999999998
 21
0.4082234603293156
 31
0.0
  0
LINE
  5
82B7
330
81B3
100
AcDbEntity
  8
0
100
AcDbLine
 10
-1.249999999999939
 20
-13.68814357515725
 30
0.0
 11
-1.249999999999939
 21
-0.9999999999999875
 31
0.0
  0
LINE
  5
82B8
330
81B3
100
AcDbEntity
  8
0
100
AcDbLine
 10
1.249999999999939
 20
-13.68814357515725
 30
0.0
 11
1.249999999999939
 21
-0.9999999999999875
 31
0.0
  0
ARC
  5
82B9
330
81B3
100
AcDbEntity
  8
0
100
AcDbCircle
 10
0.0
 20
-3.700000000000001
 30
0.0
 40
5.0
100
AcDbArc
 50
55.24977424631791
 51
124.7502257536821
  0
LINE
  5
82BA
330
81B3
100
AcDbEntity
  8
0
100
AcDbLine
 10
-2.84999999999998
 20
0.0
 30
0.0
 11
-2.84999999999998
 21
0.4082234603293156
 31
0.0
  0
LINE
  5
82BB
330
81B3
100
AcDbEntity
  8
0
100
AcDbLine
 10
2.84999999999998
 20
0.0
 30
0.0
 11
2.84999999999998
 21
0.4082234603293156
 31
0.0
  0
ARC
  5
82BC
330
81B3
100
AcDbEntity
  8
0
100
AcDbCircle
 10
2.249999999999939
 20
-0.9999999999999875
 30
0.0
 40
1.0
100
AcDbArc
 50
90.00000000000003
 51
180.0
  0
ARC
  5
82BD
330
81B3
100
AcDbEntity
  8
0
100
AcDbCircle
 10
-2.249999999999939
 20
-0.9999999999999875
 30
0.0
 40
1.0
100
AcDbArc
 50
0.0
 51
90.00000000000003
  0
ENDBLK
  5
81B5
330
81B3
100
AcDbEntity
  8
0
100
AcDbBlockEnd
  0
BLOCK
  5
84D5
330
84D4
100
AcDbEntity
  8
0
100
AcDbBlockBegin
  2
ARA425x60-Top
 70
     0
 10
0.0
 20
0.0
 30
0.0
  3
ARA425x60-Top
  1

  0
CIRCLE
  5
84D7
330
84D4
100
AcDbEntity
  8
0
100
AcDbCircle
 10
0.0
 20
0.0
 30
0.0
 40
2.84999999999998
  0
ENDBLK
  5
84D6
330
84D4
100
AcDbEntity
  8
0
100
AcDbBlockEnd
  0
BLOCK
  5
8505
330
8504
100
AcDbEntity
  8
0
100
AcDbBlockBegin
  2
ARA425x60-ISO
 70
     0
 10
0.0
 20
0.0
 30
0.0
  3
ARA425x60-ISO
  1

  0
SPLINE
  5
8507
330
8504
100
AcDbEntity
  8
0
100
AcDbSpline
210
0.0
220
0.0
230
1.0
 70
     8
 71
     3
 72
    21
 73
    17
 74
     0
 42
0.000000001
 43
0.0000000001
 40
-0.0854684038178909
 40
-0.0854684038178909
 40
-0.0854684038178909
 40
-0.0854684038178909
 40
-0.0839886479741071
 40
-0.0839886479741071
 40
-0.0770271491255604
 40
-0.0770271491255604
 40
-0.0677374447000792
 40
-0.0677374447000792
 40
-0.0529604232693255
 40
-0.0529604232693255
 40
0.0
 40
0.0
 40
0.0
 40
0.0529604232693255
 40
0.0529604232693255
 40
0.0550230799112962
 40
0.0550230799112962
 40
0.0550230799112962
 40
0.0550230799112962
 10
1.19693316309018
 20
-21.12448299430124
 30
0.0
 10
1.198220460838533
 20
-21.12091307608928
 30
0.0
 10
1.199493134817317
 20
-21.1172235625898
 30
0.0
 10
1.206488751167212
 20
-21.09617608988752
 30
0.0
 10
1.213327725071517
 20
-21.07174042078355
 30
0.0
 10
1.225923729395117
 20
-21.02051767244475
 30
0.0
 10
1.233494133405407
 20
-20.98414156346385
 30
0.0
 10
1.247828082233625
 20
-20.90637522865313
 30
0.0
 10
1.255768755247314
 20
-20.85243868771248
 30
0.0
 10
1.27992955713013
 20
-20.65805248371773
 30
0.0
 10
1.284603715197109
 20
-20.52139698165715
 30
0.0
 10
1.284603715197109
 20
-20.41947459955402
 30
0.0
 10
1.284603715197109
 20
-20.31755221745088
 30
0.0
 10
1.279929557130131
 20
-20.21055437598055
 30
0.0
 10
1.260303754317442
 20
-20.17718085052709
 30
0.0
 10
1.259516017830088
 20
-20.17603518323885
 30
0.0
 10
1.258681181065837
 20
-20.17501188883559
 30
0.0
  0
SPLINE
  5
8508
330
8504
100
AcDbEntity
  8
0
100
AcDbSpline
210
0.0
220
0.0
230
1.0
 70
    12
 71
     2
 72
     6
 73
     3
 74
     0
 42
0.000000001
 43
0.0000000001
 40
0.0
 40
0.0
 40
0.0
 40
0.0869423223517863
 40
0.0869423223517863
 40
0.0869423223517863
 10
0.9833913000327449
 20
-21.7165866059211
 30
0.0
 41
1.0
 10
1.078300896165095
 20
-21.45347253130971
 30
0.0
 41
1.006163514357346
 10
1.19693316309018
 20
-21.12448299430125
 30
0.0
 41
1.0
  0
SPLINE
  5
8509
330
8504
100
AcDbEntity
  8
0
100
AcDbSpline
210
0.0
220
0.0
230
1.0
 70
    12
 71
     2
 72
     6
 73
     3
 74
     0
 42
0.000000001
 43
0.0000000001
 40
0.0
 40
0.0
 40
0.0
 40
0.0246014654033811
 40
0.0246014654033811
 40
0.0246014654033811
 10
0.9651218279988283
 20
-21.91011015860349
 30
0.0
 41
1.0
 10
0.9757693375952193
 20
-21.80553913610163
 30
0.0
 41
1.003697416791656
 10
0.9833913000327449
 20
-21.7165866059211
 30
0.0
 41
1.0
  0
SPLINE
  5
850A
330
8504
100
AcDbEntity
  8
0
100
AcDbSpline
210
0.0
220
0.0
230
1.0
 70
     8
 71
     3
 72
     8
 73
     4
 74
     0
 42
0.000000001
 43
0.0000000001
 40
0.3886315120536563
 40
0.3886315120536563
 40
0.3886315120536563
 40
0.3886315120536563
 40
0.4014928833244518
 40
0.4014928833244518
 40
0.4014928833244518
 40
0.4014928833244518
 10
0.9499379772752091
 20
-22.02965317000879
 30
0.0
 10
0.9560606668649015
 20
-21.98919293306095
 30
0.0
 10
0.9614298104112856
 20
-21.94636946229197
 30
0.0
 10
0.9651218279988283
 20
-21.91011015860349
 30
0.0
  0
LINE
  5
850B
330
8504
100
AcDbEntity
  8
0
100
AcDbLine
 10
0.9499379772752091
 20
-22.02965317000879
 30
0.0
 11
0.0
 21
-24.49489742783179
 31
0.0
  0
SPLINE
  5
850C
330
8504
100
AcDbEntity
  8
0
100
AcDbSpline
210
0.0
220
0.0
230
1.0
 70
     8
 71
     3
 72
     8
 73
     4
 74
     0
 42
0.000000001
 43
0.0000000001
 40
0.0783287244175624
 40
0.0783287244175624
 40
0.0783287244175624
 40
0.0783287244175624
 40
0.0911900956883578
 40
0.0911900956883578
 40
0.0911900956883578
 40
0.0911900956883578
 10
0.8263179818384614
 20
-21.99024859654873
 30
0.0
 10
0.8688192465768514
 20
-21.9998265322944
 30
0.0
 10
0.9134898713371418
 20
-22.0137583693693
 30
0.0
 10
0.9499379772752091
 20
-22.02965317000879
 30
0.0
  0
SPLINE
  5
850D
330
8504
100
AcDbEntity
  8
0
100
AcDbSpline
210
0.0
220
0.0
230
1.0
 70
    12
 71
     2
 72
     6
 73
     3
 74
     0
 42
0.000000001
 43
0.0000000001
 40
0.0
 40
0.0
 40
0.0
 40
0.024601465403381
 40
0.024601465403381
 40
0.024601465403381
 10
0.5915152798884258
 20
-21.94283633164038
 30
0.0
 41
1.0
 10
0.7037032422448335
 20
-21.96261656948953
 30
0.0
 41
1.003697416791516
 10
0.8263179818384619
 20
-21.99024859654873
 30
0.0
 41
1.0
  0
SPLINE
  5
850E
330
8504
100
AcDbEntity
  8
0
100
AcDbSpline
210
0.0
220
0.0
230
1.0
 70
    12
 71
     2
 72
     6
 73
     3
 74
     0
 42
0.000000001
 43
0.0000000001
 40
0.0
 40
0.0
 40
0.0
 40
0.0869423223517863
 40
0.0869423223517863
 40
0.0869423223517863
 10
0.7393646349349643
 20
-21.38866030720437
 30
0.0
 41
1.0
 10
0.6573122789859697
 20
-21.6965304228128
 30
0.0
 41
1.006163514384453
 10
0.5915152798884269
 20
-21.94283633164038
 30
0.0
 41
1.0
  0
SPLINE
  5
850F
330
8504
100
AcDbEntity
  8
0
100
AcDbSpline
210
0.0
220
0.0
230
1.0
 70
     8
 71
     3
 72
    27
 73
    23
 74
     0
 42
0.000000001
 43
0.0000000001
 40
-0.0854684038178909
 40
-0.0854684038178909
 40
-0.0854684038178909
 40
-0.0854684038178909
 40
-0.0839886479741071
 40
-0.0839886479741071
 40
-0.0770271491255604
 40
-0.0770271491255604
 40
-0.0677374447000792
 40
-0.0677374447000792
 40
-0.0529604232693255
 40
-0.0529604232693255
 40
0.0
 40
0.0
 40
0.0
 40
0.0529604232693255
 40
0.0529604232693255
 40
0.0677374447000792
 40
0.0677374447000792
 40
0.0770271491255605
 40
0.0770271491255605
 40
0.0839886479741071
 40
0.0839886479741071
 40
0.0854684038178909
 40
0.0854684038178909
 40
0.0854684038178909
 40
0.0854684038178909
 10
-0.7393646349349669
 20
-21.38866030720437
 30
0.0
 10
-0.7402549982044077
 20
-21.38531955922064
 30
0.0
 10
-0.7408578594061793
 20
-21.38201676230829
 30
0.0
 10
-0.7428431632279074
 20
-21.36386199489286
 30
0.0
 10
-0.7380991955715122
 20
-21.34611374021697
 30
0.0
 10
-0.7185932678542937
 20
-21.31342505098344
 30
0.0
 10
-0.6971870270665665
 20
-21.29377861567689
 30
0.0
 10
-0.6412561855302866
 20
-21.25657967649767
 30
0.0
 10
-0.591468995837312
 20
-21.23597233263045
 30
0.0
 10
-0.3875447294458637
 20
-21.17327110420197
 30
0.0
 10
-0.1765347442310869
 20
-21.16114090032506
 30
0.0
 10
-0.0000000000000017
 20
-21.16114090032506
 30
0.0
 10
0.1765347442310833
 20
-21.16114090032506
 30
0.0
 10
0.3875447294458602
 20
-21.17327110420197
 30
0.0
 10
0.5914689958373084
 20
-21.23597233263045
 30
0.0
 10
0.6412561855302829
 20
-21.25657967649767
 30
0.0
 10
0.6971870270665628
 20
-21.29377861567689
 30
0.0
 10
0.7185932678542903
 20
-21.31342505098344
 30
0.0
 10
0.7380991955715089
 20
-21.34611374021697
 30
0.0
 10
0.7428431632279042
 20
-21.36386199489287
 30
0.0
 10
0.7408578594061761
 20
-21.38201676230829
 30
0.0
 10
0.7402549982044043
 20
-21.38531955922064
 30
0.0
 10
0.7393646349349634
 20
-21.38866030720437
 30
0.0
  0
SPLINE
  5
8510
330
8504
100
AcDbEntity
  8
0
100
AcDbSpline
210
0.0
220
0.0
230
1.0
 70
    12
 71
     2
 72
     6
 73
     3
 74
     0
 42
0.000000001
 43
0.0000000001
 40
0.0
 40
0.0
 40
0.0
 40
0.0869423223517863
 40
0.0869423223517863
 40
0.0869423223517863
 10
-0.5915152798884296
 20
-21.94283633164038
 30
0.0
 41
1.0
 10
-0.6573122790014132
 20
-21.69653042275493
 30
0.0
 41
1.006163514357346
 10
-0.7393646349349675
 20
-21.38866030720436
 30
0.0
 41
1.0
  0
SPLINE
  5
8511
330
8504
100
AcDbEntity
  8
0
100
AcDbSpline
210
0.0
220
0.0
230
1.0
 70
    12
 71
     2
 72
     6
 73
     3
 74
     0
 42
0.000000001
 43
0.0000000001
 40
0.0
 40
0.0
 40
0.0
 40
0.0246014654033811
 40
0.0246014654033811
 40
0.0246014654033811
 10
-0.8263179818384648
 20
-21.99024859654873
 30
0.0
 41
1.0
 10
-0.7037032422448518
 20
-21.96261656948953
 30
0.0
 41
1.003697416791656
 10
-0.5915152798884284
 20
-21.94283633164038
 30
0.0
 41
1.0
  0
SPLINE
  5
8512
330
8504
100
AcDbEntity
  8
0
100
AcDbSpline
210
0.0
220
0.0
230
1.0
 70
     8
 71
     3
 72
     8
 73
     4
 74
     0
 42
0.000000001
 43
0.0000000001
 40
0.3886315120542869
 40
0.3886315120542869
 40
0.3886315120542869
 40
0.3886315120542869
 40
0.4014928833244518
 40
0.4014928833244518
 40
0.4014928833244518
 40
0.4014928833244518
 10
-0.9499379772897277
 20
-22.02965316995012
 30
0.0
 10
-0.9135026939988451
 20
-22.01376379010257
 30
0.0
 10
-0.8688334681658613
 20
-21.99982998541327
 30
0.0
 10
-0.826317981838464
 20
-21.99024859654873
 30
0.0
  0
LINE
  5
8513
330
8504
100
AcDbEntity
  8
0
100
AcDbLine
 10
0.0
 20
-24.49489742783179
 30
0.0
 11
-0.9499379772897277
 21
-22.02965316995012
 31
0.0
  0
ELLIPSE
  5
8514
330
8504
100
AcDbEntity
  8
0
100
AcDbEllipse
 10
0.0
 20
-20.41241452319316
 30
0.0
 11
1.270535930223696
 21
-0.0000000000000001
 31
0.0
210
0.0
220
0.0
230
1.0
 40
0.577350269189626
 41
2.881758674667315
 42
6.543019286102056
  0
ELLIPSE
  5
8515
330
8504
100
AcDbEntity
  8
0
100
AcDbEllipse
 10
0.0
 20
-20.69761062329225
 30
0.0
 11
-1.406879191792096
 21
-0.0000000000000001
 31
0.0
210
0.0
220
0.0
230
1.0
 40
0.577350269189626
 41
0.5533441482335544
 42
1.017452178561342
  0
ELLIPSE
  5
8516
330
8504
100
AcDbEntity
  8
0
100
AcDbEllipse
 10
0.0
 20
-20.69761062329225
 30
0.0
 11
-1.406879191792096
 21
0.000000000000084
 31
0.0
210
0.0
220
0.0
230
1.0
 40
0.5773502691896259
 41
2.124140475028688
 42
2.588248505356601
  0
ELLIPSE
  5
8517
330
8504
100
AcDbEntity
  8
0
100
AcDbEllipse
 10
0.0
 20
-21.37507509984774
 30
0.0
 11
1.147583885962842
 21
0.0000000000000682
 31
0.0
210
0.0
220
0.0
230
1.0
 40
0.577350269189626
 41
3.683118407126947
 42
4.17086322684692
  0
ELLIPSE
  5
8518
330
8504
100
AcDbEntity
  8
0
100
AcDbEllipse
 10
0.0
 20
-21.37507509984774
 30
0.0
 11
1.147583885962842
 21
-0.0000000000000001
 31
0.0
210
0.0
220
0.0
230
1.0
 40
0.577350269189626
 41
5.253914733922213
 42
5.741659553642061
  0
ELLIPSE
  5
8519
330
8504
100
AcDbEntity
  8
0
100
AcDbEllipse
 10
0.0
 20
-21.43303524935282
 30
0.0
 11
-1.270535930223696
 21
0.0
 31
0.0
210
0.0
220
0.0
230
1.0
 40
0.5773502691896261
 41
0.7080709342964778
 42
0.862725392498417
  0
ELLIPSE
  5
851A
330
8504
100
AcDbEntity
  8
0
100
AcDbEllipse
 10
0.0
 20
-21.43303524935282
 30
0.0
 11
-1.270535930223696
 21
0.0000000000000758
 31
0.0
210
0.0
220
0.0
230
1.0
 40
0.5773502691896261
 41
2.278867261091612
 42
2.43352171929359
  0
ELLIPSE
  5
851B
330
8504
100
AcDbEntity
  8
0
100
AcDbEllipse
 10
0.0
 20
11.22682798775623
 30
0.0
 11
1.270535930223696
 21
-0.0000000000000001
 31
0.0
210
0.0
220
0.0
230
1.0
 40
0.577350269189626
 41
2.881758674667318
 42
6.54301928610206
  0
ELLIPSE
  5
851C
330
8504
100
AcDbEntity
  8
0
100
AcDbEllipse
 10
0.0
 20
11.28478813726131
 30
0.0
 11
-1.147583885962842
 21
0.0000000000000002
 31
0.0
210
0.0
220
0.0
230
1.0
 40
0.5773502691896261
 41
0.2228163440660922
 42
2.918776309523705
  0
ELLIPSE
  5
851D
330
8504
100
AcDbEntity
  8
0
100
AcDbEllipse
 10
0.0
 20
-20.35445437368808
 30
0.0
 11
-1.147583885962842
 21
0.0000000000000002
 31
0.0
210
0.0
220
0.0
230
1.0
 40
0.5773502691896261
 41
0.2228163440660922
 42
2.918776309523702
  0
ELLIPSE
  5
851E
330
8504
100
AcDbEntity
  8
0
100
AcDbEllipse
 10
0.0
 20
-19.3917937970335
 30
0.0
 11
1.270535930223696
 21
-0.0000000000000001
 31
0.0
210
0.0
220
0.0
230
1.0
 40
0.577350269189626
 41
2.881758674667318
 42
6.54301928610206
  0
ELLIPSE
  5
851F
330
8504
100
AcDbEntity
  8
0
100
AcDbEllipse
 10
0.0
 20
-19.33383364752842
 30
0.0
 11
-1.147583885962842
 21
0.0000000000000002
 31
0.0
210
0.0
220
0.0
230
1.0
 40
0.5773502691896261
 41
0.2228163440660922
 42
2.918776309523705
  0
ELLIPSE
  5
8520
330
8504
100
AcDbEntity
  8
0
100
AcDbEllipse
 10
0.0
 20
-19.6769898971326
 30
0.0
 11
1.406879191792096
 21
0.0
 31
0.0
210
0.0
220
0.0
230
1.0
 40
0.5773502691896261
 41
3.364408997655885
 42
6.060368963113496
  0
ELLIPSE
  5
8521
330
8504
100
AcDbEntity
  8
0
100
AcDbEllipse
 10
0.0
 20
-18.37117307087384
 30
0.0
 11
1.270535930223696
 21
-0.0000000000000001
 31
0.0
210
0.0
220
0.0
230
1.0
 40
0.577350269189626
 41
2.881758674667318
 42
6.54301928610206
  0
ELLIPSE
  5
8522
330
8504
100
AcDbEntity
  8
0
100
AcDbEllipse
 10
0.0
 20
-18.31321292136877
 30
0.0
 11
-1.147583885962842
 21
0.0000000000000002
 31
0.0
210
0.0
220
0.0
230
1.0
 40
0.5773502691896261
 41
0.2228163440660922
 42
2.918776309523705
  0
ELLIPSE
  5
8523
330
8504
100
AcDbEntity
  8
0
100
AcDbEllipse
 10
0.0
 20
-18.65636917097294
 30
0.0
 11
1.406879191792096
 21
0.0
 31
0.0
210
0.0
220
0.0
230
1.0
 40
0.5773502691896261
 41
3.364408997655885
 42
6.060368963113496
  0
ELLIPSE
  5
8524
330
8504
100
AcDbEntity
  8
0
100
AcDbEllipse
 10
0.0
 20
-17.35055234471419
 30
0.0
 11
1.270535930223696
 21
-0.0000000000000001
 31
0.0
210
0.0
220
0.0
230
1.0
 40
0.577350269189626
 41
2.881758674667318
 42
6.54301928610206
  0
ELLIPSE
  5
8525
330
8504
100
AcDbEntity
  8
0
100
AcDbEllipse
 10
0.0
 20
-17.29259219520911
 30
0.0
 11
-1.147583885962842
 21
0.0000000000000002
 31
0.0
210
0.0
220
0.0
230
1.0
 40
0.5773502691896261
 41
0.2228163440660922
 42
2.918776309523705
  0
ELLIPSE
  5
8526
330
8504
100
AcDbEntity
  8
0
100
AcDbEllipse
 10
0.0
 20
-17.63574844481328
 30
0.0
 11
1.406879191792096
 21
0.0
 31
0.0
210
0.0
220
0.0
230
1.0
 40
0.5773502691896261
 41
3.364408997655885
 42
6.060368963113496
  0
ELLIPSE
  5
8527
330
8504
100
AcDbEntity
  8
0
100
AcDbEllipse
 10
0.0
 20
-16.32993161855453
 30
0.0
 11
1.270535930223696
 21
-0.0000000000000001
 31
0.0
210
0.0
220
0.0
230
1.0
 40
0.577350269189626
 41
2.881758674667318
 42
6.54301928610206
  0
ELLIPSE
  5
8528
330
8504
100
AcDbEntity
  8
0
100
AcDbEllipse
 10
0.0
 20
-16.27197146904945
 30
0.0
 11
-1.147583885962842
 21
0.0000000000000002
 31
0.0
210
0.0
220
0.0
230
1.0
 40
0.5773502691896261
 41
0.2228163440660922
 42
2.918776309523705
  0
ELLIPSE
  5
8529
330
8504
100
AcDbEntity
  8
0
100
AcDbEllipse
 10
0.0
 20
-16.61512771865362
 30
0.0
 11
1.406879191792096
 21
0.0
 31
0.0
210
0.0
220
0.0
230
1.0
 40
0.5773502691896261
 41
3.364408997655885
 42
6.060368963113496
  0
ELLIPSE
  5
852A
330
8504
100
AcDbEntity
  8
0
100
AcDbEllipse
 10
0.0
 20
-15.30931089239487
 30
0.0
 11
1.270535930223696
 21
-0.0000000000000001
 31
0.0
210
0.0
220
0.0
230
1.0
 40
0.577350269189626
 41
2.881758674667318
 42
6.54301928610206
  0
ELLIPSE
  5
852B
330
8504
100
AcDbEntity
  8
0
100
AcDbEllipse
 10
0.0
 20
-15.25135074288979
 30
0.0
 11
-1.147583885962842
 21
0.0000000000000002
 31
0.0
210
0.0
220
0.0
230
1.0
 40
0.5773502691896261
 41
0.2228163440660922
 42
2.918776309523705
  0
ELLIPSE
  5
852C
330
8504
100
AcDbEntity
  8
0
100
AcDbEllipse
 10
0.0
 20
-15.59450699249396
 30
0.0
 11
1.406879191792096
 21
0.0
 31
0.0
210
0.0
220
0.0
230
1.0
 40
0.5773502691896261
 41
3.364408997655885
 42
6.060368963113496
  0
ELLIPSE
  5
852D
330
8504
100
AcDbEntity
  8
0
100
AcDbEllipse
 10
0.0
 20
-14.28869016623521
 30
0.0
 11
1.270535930223696
 21
-0.0000000000000001
 31
0.0
210
0.0
220
0.0
230
1.0
 40
0.577350269189626
 41
2.881758674667318
 42
6.54301928610206
  0
ELLIPSE
  5
852E
330
8504
100
AcDbEntity
  8
0
100
AcDbEllipse
 10
0.0
 20
-14.23073001673014
 30
0.0
 11
-1.147583885962842
 21
0.0000000000000002
 31
0.0
210
0.0
220
0.0
230
1.0
 40
0.5773502691896261
 41
0.2228163440660922
 42
2.918776309523705
  0
ELLIPSE
  5
852F
330
8504
100
AcDbEntity
  8
0
100
AcDbEllipse
 10
0.0
 20
-14.57388626633431
 30
0.0
 11
1.406879191792096
 21
0.0
 31
0.0
210
0.0
220
0.0
230
1.0
 40
0.5773502691896261
 41
3.364408997655885
 42
6.060368963113496
  0
ELLIPSE
  5
8530
330
8504
100
AcDbEntity
  8
0
100
AcDbEllipse
 10
0.0
 20
-13.26806944007556
 30
0.0
 11
1.270535930223696
 21
-0.0000000000000001
 31
0.0
210
0.0
220
0.0
230
1.0
 40
0.577350269189626
 41
2.881758674667318
 42
6.54301928610206
  0
ELLIPSE
  5
8531
330
8504
100
AcDbEntity
  8
0
100
AcDbEllipse
 10
0.0
 20
-13.21010929057048
 30
0.0
 11
-1.147583885962842
 21
0.0000000000000002
 31
0.0
210
0.0
220
0.0
230
1.0
 40
0.5773502691896261
 41
0.2228163440660922
 42
2.918776309523705
  0
ELLIPSE
  5
8532
330
8504
100
AcDbEntity
  8
0
100
AcDbEllipse
 10
0.0
 20
-13.55326554017465
 30
0.0
 11
1.406879191792096
 21
0.0
 31
0.0
210
0.0
220
0.0
230
1.0
 40
0.5773502691896261
 41
3.364408997655885
 42
6.060368963113496
  0
ELLIPSE
  5
8533
330
8504
100
AcDbEntity
  8
0
100
AcDbEllipse
 10
0.0
 20
-12.2474487139159
 30
0.0
 11
1.270535930223696
 21
-0.0000000000000001
 31
0.0
210
0.0
220
0.0
230
1.0
 40
0.577350269189626
 41
2.881758674667318
 42
6.54301928610206
  0
ELLIPSE
  5
8534
330
8504
100
AcDbEntity
  8
0
100
AcDbEllipse
 10
0.0
 20
-12.18948856441082
 30
0.0
 11
-1.147583885962842
 21
0.0000000000000002
 31
0.0
210
0.0
220
0.0
230
1.0
 40
0.5773502691896261
 41
0.2228163440660922
 42
2.918776309523705
  0
ELLIPSE
  5
8535
330
8504
100
AcDbEntity
  8
0
100
AcDbEllipse
 10
0.0
 20
-12.53264481401499
 30
0.0
 11
1.406879191792096
 21
0.0
 31
0.0
210
0.0
220
0.0
230
1.0
 40
0.5773502691896261
 41
3.364408997655885
 42
6.060368963113496
  0
ELLIPSE
  5
8536
330
8504
100
AcDbEntity
  8
0
100
AcDbEllipse
 10
0.0
 20
-11.22682798775624
 30
0.0
 11
1.270535930223696
 21
-0.0000000000000001
 31
0.0
210
0.0
220
0.0
230
1.0
 40
0.577350269189626
 41
2.881758674667318
 42
6.54301928610206
  0
ELLIPSE
  5
8537
330
8504
100
AcDbEntity
  8
0
100
AcDbEllipse
 10
0.0
 20
-11.16886783825116
 30
0.0
 11
-1.147583885962842
 21
0.0000000000000002
 31
0.0
210
0.0
220
0.0
230
1.0
 40
0.5773502691896261
 41
0.2228163440660922
 42
2.918776309523705
  0
ELLIPSE
  5
8538
330
8504
100
AcDbEntity
  8
0
100
AcDbEllipse
 10
0.0
 20
-11.51202408785533
 30
0.0
 11
1.406879191792096
 21
0.0
 31
0.0
210
0.0
220
0.0
230
1.0
 40
0.5773502691896261
 41
3.364408997655885
 42
6.060368963113496
  0
ELLIPSE
  5
8539
330
8504
100
AcDbEntity
  8
0
100
AcDbEllipse
 10
0.0
 20
-10.20620726159658
 30
0.0
 11
1.270535930223696
 21
-0.0000000000000001
 31
0.0
210
0.0
220
0.0
230
1.0
 40
0.577350269189626
 41
2.881758674667318
 42
6.54301928610206
  0
ELLIPSE
  5
853A
330
8504
100
AcDbEntity
  8
0
100
AcDbEllipse
 10
0.0
 20
-10.14824711209151
 30
0.0
 11
-1.147583885962842
 21
0.0000000000000002
 31
0.0
210
0.0
220
0.0
230
1.0
 40
0.5773502691896261
 41
0.2228163440660922
 42
2.918776309523705
  0
ELLIPSE
  5
853B
330
8504
100
AcDbEntity
  8
0
100
AcDbEllipse
 10
0.0
 20
-10.49140336169568
 30
0.0
 11
1.406879191792096
 21
0.0
 31
0.0
210
0.0
220
0.0
230
1.0
 40
0.5773502691896261
 41
3.364408997655885
 42
6.060368963113496
  0
ELLIPSE
  5
853C
330
8504
100
AcDbEntity
  8
0
100
AcDbEllipse
 10
0.0
 20
-9.185586535436925
 30
0.0
 11
1.270535930223696
 21
-0.0000000000000001
 31
0.0
210
0.0
220
0.0
230
1.0
 40
0.577350269189626
 41
2.881758674667318
 42
6.54301928610206
  0
ELLIPSE
  5
853D
330
8504
100
AcDbEntity
  8
0
100
AcDbEllipse
 10
0.0
 20
-9.127626385931844
 30
0.0
 11
-1.147583885962843
 21
0.0000000000000001
 31
0.0
210
0.0
220
0.0
230
1.0
 40
0.5773502691896259
 41
0.2228163440660918
 42
2.918776309523702
  0
ELLIPSE
  5
853E
330
8504
100
AcDbEntity
  8
0
100
AcDbEllipse
 10
0.0
 20
-9.470782635536018
 30
0.0
 11
1.406879191792096
 21
0.0
 31
0.0
210
0.0
220
0.0
230
1.0
 40
0.5773502691896261
 41
3.364408997655884
 42
6.060368963113495
  0
ELLIPSE
  5
853F
330
8504
100
AcDbEntity
  8
0
100
AcDbEllipse
 10
0.0
 20
-8.164965809277266
 30
0.0
 11
1.270535930223696
 21
-0.0000000000000001
 31
0.0
210
0.0
220
0.0
230
1.0
 40
0.577350269189626
 41
2.881758674667318
 42
6.54301928610206
  0
ELLIPSE
  5
8540
330
8504
100
AcDbEntity
  8
0
100
AcDbEllipse
 10
0.0
 20
-8.107005659772186
 30
0.0
 11
-1.147583885962843
 21
0.0000000000000001
 31
0.0
210
0.0
220
0.0
230
1.0
 40
0.5773502691896259
 41
0.2228163440660918
 42
2.918776309523702
  0
ELLIPSE
  5
8541
330
8504
100
AcDbEntity
  8
0
100
AcDbEllipse
 10
0.0
 20
-8.450161909376362
 30
0.0
 11
1.406879191792096
 21
0.0
 31
0.0
210
0.0
220
0.0
230
1.0
 40
0.5773502691896261
 41
3.364408997655884
 42
6.060368963113495
  0
ELLIPSE
  5
8542
330
8504
100
AcDbEntity
  8
0
100
AcDbEllipse
 10
0.0
 20
-7.144345083117609
 30
0.0
 11
1.270535930223696
 21
-0.0000000000000001
 31
0.0
210
0.0
220
0.0
230
1.0
 40
0.577350269189626
 41
2.881758674667318
 42
6.54301928610206
  0
ELLIPSE
  5
8543
330
8504
100
AcDbEntity
  8
0
100
AcDbEllipse
 10
0.0
 20
-7.086384933612528
 30
0.0
 11
-1.147583885962843
 21
0.0000000000000001
 31
0.0
210
0.0
220
0.0
230
1.0
 40
0.5773502691896259
 41
0.2228163440660918
 42
2.918776309523702
  0
ELLIPSE
  5
8544
330
8504
100
AcDbEntity
  8
0
100
AcDbEllipse
 10
0.0
 20
-7.429541183216703
 30
0.0
 11
1.406879191792096
 21
0.0
 31
0.0
210
0.0
220
0.0
230
1.0
 40
0.5773502691896261
 41
3.364408997655884
 42
6.060368963113495
  0
ELLIPSE
  5
8545
330
8504
100
AcDbEntity
  8
0
100
AcDbEllipse
 10
0.0
 20
-6.123724356957951
 30
0.0
 11
1.270535930223696
 21
-0.0000000000000001
 31
0.0
210
0.0
220
0.0
230
1.0
 40
0.577350269189626
 41
2.881758674667318
 42
6.54301928610206
  0
ELLIPSE
  5
8546
330
8504
100
AcDbEntity
  8
0
100
AcDbEllipse
 10
0.0
 20
-6.06576420745287
 30
0.0
 11
-1.147583885962843
 21
0.0000000000000001
 31
0.0
210
0.0
220
0.0
230
1.0
 40
0.5773502691896259
 41
0.2228163440660918
 42
2.918776309523702
  0
ELLIPSE
  5
8547
330
8504
100
AcDbEntity
  8
0
100
AcDbEllipse
 10
0.0
 20
-6.408920457057045
 30
0.0
 11
1.406879191792096
 21
0.0
 31
0.0
210
0.0
220
0.0
230
1.0
 40
0.5773502691896261
 41
3.364408997655884
 42
6.060368963113495
  0
ELLIPSE
  5
8548
330
8504
100
AcDbEntity
  8
0
100
AcDbEllipse
 10
0.0
 20
-5.103103630798293
 30
0.0
 11
1.270535930223696
 21
-0.0000000000000001
 31
0.0
210
0.0
220
0.0
230
1.0
 40
0.577350269189626
 41
2.881758674667318
 42
6.54301928610206
  0
ELLIPSE
  5
8549
330
8504
100
AcDbEntity
  8
0
100
AcDbEllipse
 10
0.0
 20
-5.045143481293212
 30
0.0
 11
-1.147583885962843
 21
0.0000000000000001
 31
0.0
210
0.0
220
0.0
230
1.0
 40
0.5773502691896259
 41
0.2228163440660918
 42
2.918776309523702
  0
ELLIPSE
  5
854A
330
8504
100
AcDbEntity
  8
0
100
AcDbEllipse
 10
0.0
 20
-5.388299730897387
 30
0.0
 11
1.406879191792096
 21
0.0
 31
0.0
210
0.0
220
0.0
230
1.0
 40
0.5773502691896261
 41
3.364408997655884
 42
6.060368963113495
  0
ELLIPSE
  5
854B
330
8504
100
AcDbEntity
  8
0
100
AcDbEllipse
 10
0.0
 20
-4.082482904638635
 30
0.0
 11
1.270535930223696
 21
-0.0000000000000001
 31
0.0
210
0.0
220
0.0
230
1.0
 40
0.577350269189626
 41
2.881758674667318
 42
6.54301928610206
  0
ELLIPSE
  5
854C
330
8504
100
AcDbEntity
  8
0
100
AcDbEllipse
 10
0.0
 20
-4.024522755133554
 30
0.0
 11
-1.147583885962843
 21
0.0000000000000001
 31
0.0
210
0.0
220
0.0
230
1.0
 40
0.5773502691896259
 41
0.2228163440660909
 42
2.918776309523702
  0
ELLIPSE
  5
854D
330
8504
100
AcDbEntity
  8
0
100
AcDbEllipse
 10
0.0
 20
-4.36767900473773
 30
0.0
 11
1.406879191792096
 21
0.0
 31
0.0
210
0.0
220
0.0
230
1.0
 40
0.5773502691896261
 41
3.364408997655884
 42
6.060368963113495
  0
ELLIPSE
  5
854E
330
8504
100
AcDbEntity
  8
0
100
AcDbEllipse
 10
0.0
 20
-3.061862178478977
 30
0.0
 11
1.270535930223696
 21
-0.0000000000000001
 31
0.0
210
0.0
220
0.0
230
1.0
 40
0.577350269189626
 41
2.881758674667318
 42
6.54301928610206
  0
ELLIPSE
  5
854F
330
8504
100
AcDbEntity
  8
0
100
AcDbEllipse
 10
0.0
 20
-3.003902028973897
 30
0.0
 11
-1.147583885962843
 21
0.0000000000000001
 31
0.0
210
0.0
220
0.0
230
1.0
 40
0.5773502691896259
 41
0.2228163440660909
 42
2.918776309523702
  0
ELLIPSE
  5
8550
330
8504
100
AcDbEntity
  8
0
100
AcDbEllipse
 10
0.0
 20
-3.347058278578072
 30
0.0
 11
1.406879191792096
 21
0.0
 31
0.0
210
0.0
220
0.0
230
1.0
 40
0.5773502691896261
 41
3.364408997655884
 42
6.060368963113495
  0
ELLIPSE
  5
8551
330
8504
100
AcDbEntity
  8
0
100
AcDbEllipse
 10
0.0
 20
-2.04124145231932
 30
0.0
 11
1.270535930223696
 21
-0.0000000000000001
 31
0.0
210
0.0
220
0.0
230
1.0
 40
0.577350269189626
 41
2.881758674667318
 42
6.54301928610206
  0
ELLIPSE
  5
8552
330
8504
100
AcDbEntity
  8
0
100
AcDbEllipse
 10
0.0
 20
-1.983281302814239
 30
0.0
 11
-1.147583885962843
 21
0.0000000000000001
 31
0.0
210
0.0
220
0.0
230
1.0
 40
0.5773502691896259
 41
0.2228163440660918
 42
2.918776309523702
  0
ELLIPSE
  5
8553
330
8504
100
AcDbEntity
  8
0
100
AcDbEllipse
 10
0.0
 20
-2.326437552418414
 30
0.0
 11
1.406879191792096
 21
0.0
 31
0.0
210
0.0
220
0.0
230
1.0
 40
0.5773502691896261
 41
3.364408997655884
 42
6.060368963113495
  0
ELLIPSE
  5
8554
330
8504
100
AcDbEntity
  8
0
100
AcDbEllipse
 10
0.0
 20
-1.020620726159662
 30
0.0
 11
1.270535930223696
 21
-0.0000000000000001
 31
0.0
210
0.0
220
0.0
230
1.0
 40
0.577350269189626
 41
2.881758674667318
 42
6.54301928610206
  0
ELLIPSE
  5
8555
330
8504
100
AcDbEntity
  8
0
100
AcDbEllipse
 10
0.0
 20
-0.9626605766545814
 30
0.0
 11
-1.147583885962843
 21
0.0000000000000001
 31
0.0
210
0.0
220
0.0
230
1.0
 40
0.5773502691896259
 41
0.2228163440660916
 42
2.918776309523702
  0
ELLIPSE
  5
8556
330
8504
100
AcDbEntity
  8
0
100
AcDbEllipse
 10
0.0
 20
-1.305816826258756
 30
0.0
 11
1.406879191792096
 21
0.0
 31
0.0
210
0.0
220
0.0
230
1.0
 40
0.5773502691896261
 41
3.364408997655884
 42
6.060368963113495
  0
ELLIPSE
  5
8557
330
8504
100
AcDbEntity
  8
0
100
AcDbEllipse
 10
0.0
 20
-0.0000000000000044
 30
0.0
 11
1.270535930223696
 21
-0.0000000000000001
 31
0.0
210
0.0
220
0.0
230
1.0
 40
0.577350269189626
 41
2.881758674667318
 42
6.54301928610206
  0
ELLIPSE
  5
8558
330
8504
100
AcDbEntity
  8
0
100
AcDbEllipse
 10
0.0
 20
0.0579601495050763
 30
0.0
 11
-1.147583885962843
 21
0.0000000000000001
 31
0.0
210
0.0
220
0.0
230
1.0
 40
0.5773502691896259
 41
0.2228163440660914
 42
2.918776309523701
  0
ELLIPSE
  5
8559
330
8504
100
AcDbEntity
  8
0
100
AcDbEllipse
 10
0.0
 20
-0.2851961000990988
 30
0.0
 11
1.406879191792096
 21
0.0
 31
0.0
210
0.0
220
0.0
230
1.0
 40
0.5773502691896261
 41
3.364408997655884
 42
6.060368963113495
  0
ELLIPSE
  5
855A
330
8504
100
AcDbEntity
  8
0
100
AcDbEllipse
 10
0.0
 20
1.020620726159653
 30
0.0
 11
1.270535930223696
 21
-0.0000000000000001
 31
0.0
210
0.0
220
0.0
230
1.0
 40
0.577350269189626
 41
2.881758674667318
 42
6.54301928610206
  0
ELLIPSE
  5
855B
330
8504
100
AcDbEntity
  8
0
100
AcDbEllipse
 10
0.0
 20
1.078580875664734
 30
0.0
 11
-1.147583885962843
 21
0.0000000000000001
 31
0.0
210
0.0
220
0.0
230
1.0
 40
0.5773502691896259
 41
0.2228163440660916
 42
2.918776309523702
  0
ELLIPSE
  5
855C
330
8504
100
AcDbEntity
  8
0
100
AcDbEllipse
 10
0.0
 20
0.7354246260605591
 30
0.0
 11
1.406879191792096
 21
0.0
 31
0.0
210
0.0
220
0.0
230
1.0
 40
0.5773502691896261
 41
3.364408997655884
 42
6.060368963113495
  0
ELLIPSE
  5
855D
330
8504
100
AcDbEntity
  8
0
100
AcDbEllipse
 10
0.0
 20
2.041241452319311
 30
0.0
 11
1.270535930223696
 21
-0.0000000000000001
 31
0.0
210
0.0
220
0.0
230
1.0
 40
0.577350269189626
 41
2.881758674667318
 42
6.54301928610206
  0
ELLIPSE
  5
855E
330
8504
100
AcDbEntity
  8
0
100
AcDbEllipse
 10
0.0
 20
2.099201601824391
 30
0.0
 11
-1.147583885962843
 21
0.0000000000000001
 31
0.0
210
0.0
220
0.0
230
1.0
 40
0.5773502691896259
 41
0.2228163440660918
 42
2.918776309523702
  0
ELLIPSE
  5
855F
330
8504
100
AcDbEntity
  8
0
100
AcDbEllipse
 10
0.0
 20
1.756045352220216
 30
0.0
 11
1.406879191792096
 21
0.0
 31
0.0
210
0.0
220
0.0
230
1.0
 40
0.5773502691896261
 41
3.364408997655884
 42
6.060368963113495
  0
ELLIPSE
  5
8560
330
8504
100
AcDbEntity
  8
0
100
AcDbEllipse
 10
0.0
 20
3.061862178478969
 30
0.0
 11
1.270535930223696
 21
-0.0000000000000001
 31
0.0
210
0.0
220
0.0
230
1.0
 40
0.577350269189626
 41
2.881758674667318
 42
6.54301928610206
  0
ELLIPSE
  5
8561
330
8504
100
AcDbEntity
  8
0
100
AcDbEllipse
 10
0.0
 20
3.119822327984049
 30
0.0
 11
-1.147583885962843
 21
0.0000000000000001
 31
0.0
210
0.0
220
0.0
230
1.0
 40
0.5773502691896259
 41
0.2228163440660909
 42
2.918776309523702
  0
ELLIPSE
  5
8562
330
8504
100
AcDbEntity
  8
0
100
AcDbEllipse
 10
0.0
 20
2.776666078379874
 30
0.0
 11
1.406879191792096
 21
0.0
 31
0.0
210
0.0
220
0.0
230
1.0
 40
0.5773502691896261
 41
3.364408997655884
 42
6.060368963113495
  0
ELLIPSE
  5
8563
330
8504
100
AcDbEntity
  8
0
100
AcDbEllipse
 10
0.0
 20
4.082482904638629
 30
0.0
 11
1.270535930223696
 21
-0.0000000000000001
 31
0.0
210
0.0
220
0.0
230
1.0
 40
0.577350269189626
 41
2.881758674667318
 42
6.54301928610206
  0
ELLIPSE
  5
8564
330
8504
100
AcDbEntity
  8
0
100
AcDbEllipse
 10
0.0
 20
4.140443054143707
 30
0.0
 11
-1.147583885962843
 21
0.0000000000000001
 31
0.0
210
0.0
220
0.0
230
1.0
 40
0.5773502691896259
 41
0.2228163440660909
 42
2.918776309523702
  0
ELLIPSE
  5
8565
330
8504
100
AcDbEntity
  8
0
100
AcDbEllipse
 10
0.0
 20
3.797286804539532
 30
0.0
 11
1.406879191792096
 21
0.0
 31
0.0
210
0.0
220
0.0
230
1.0
 40
0.5773502691896261
 41
3.364408997655884
 42
6.060368963113495
  0
ELLIPSE
  5
8566
330
8504
100
AcDbEntity
  8
0
100
AcDbEllipse
 10
0.0
 20
5.103103630798287
 30
0.0
 11
1.270535930223696
 21
-0.0000000000000001
 31
0.0
210
0.0
220
0.0
230
1.0
 40
0.577350269189626
 41
2.881758674667318
 42
6.54301928610206
  0
ELLIPSE
  5
8567
330
8504
100
AcDbEntity
  8
0
100
AcDbEllipse
 10
0.0
 20
5.161063780303365
 30
0.0
 11
-1.147583885962843
 21
0.0000000000000001
 31
0.0
210
0.0
220
0.0
230
1.0
 40
0.5773502691896259
 41
0.2228163440660918
 42
2.918776309523702
  0
ELLIPSE
  5
8568
330
8504
100
AcDbEntity
  8
0
100
AcDbEllipse
 10
0.0
 20
4.81790753069919
 30
0.0
 11
1.406879191792096
 21
0.0
 31
0.0
210
0.0
220
0.0
230
1.0
 40
0.5773502691896261
 41
3.364408997655884
 42
6.060368963113495
  0
ELLIPSE
  5
8569
330
8504
100
AcDbEntity
  8
0
100
AcDbEllipse
 10
0.0
 20
6.123724356957945
 30
0.0
 11
1.270535930223696
 21
-0.0000000000000001
 31
0.0
210
0.0
220
0.0
230
1.0
 40
0.577350269189626
 41
2.881758674667318
 42
6.54301928610206
  0
ELLIPSE
  5
856A
330
8504
100
AcDbEntity
  8
0
100
AcDbEllipse
 10
0.0
 20
6.181684506463023
 30
0.0
 11
-1.147583885962843
 21
0.0000000000000001
 31
0.0
210
0.0
220
0.0
230
1.0
 40
0.5773502691896259
 41
0.2228163440660918
 42
2.918776309523702
  0
ELLIPSE
  5
856B
330
8504
100
AcDbEntity
  8
0
100
AcDbEllipse
 10
0.0
 20
5.838528256858848
 30
0.0
 11
1.406879191792096
 21
0.0
 31
0.0
210
0.0
220
0.0
230
1.0
 40
0.5773502691896261
 41
3.364408997655884
 42
6.060368963113495
  0
ELLIPSE
  5
856C
330
8504
100
AcDbEntity
  8
0
100
AcDbEllipse
 10
0.0
 20
7.144345083117602
 30
0.0
 11
1.270535930223696
 21
-0.0000000000000001
 31
0.0
210
0.0
220
0.0
230
1.0
 40
0.577350269189626
 41
2.881758674667318
 42
6.54301928610206
  0
ELLIPSE
  5
856D
330
8504
100
AcDbEntity
  8
0
100
AcDbEllipse
 10
0.0
 20
7.202305232622676
 30
0.0
 11
-1.147583885962842
 21
0.0000000000000002
 31
0.0
210
0.0
220
0.0
230
1.0
 40
0.5773502691896261
 41
0.2228163440660905
 42
2.918776309523702
  0
ELLIPSE
  5
856E
330
8504
100
AcDbEntity
  8
0
100
AcDbEllipse
 10
0.0
 20
6.859148983018505
 30
0.0
 11
1.406879191792096
 21
0.0
 31
0.0
210
0.0
220
0.0
230
1.0
 40
0.5773502691896261
 41
3.364408997655884
 42
6.060368963113495
  0
ELLIPSE
  5
856F
330
8504
100
AcDbEntity
  8
0
100
AcDbEllipse
 10
0.0
 20
8.16496580927726
 30
0.0
 11
1.270535930223696
 21
-0.0000000000000001
 31
0.0
210
0.0
220
0.0
230
1.0
 40
0.577350269189626
 41
2.881758674667318
 42
6.54301928610206
  0
ELLIPSE
  5
8570
330
8504
100
AcDbEntity
  8
0
100
AcDbEllipse
 10
0.0
 20
8.222925958782333
 30
0.0
 11
-1.147583885962842
 21
0.0000000000000002
 31
0.0
210
0.0
220
0.0
230
1.0
 40
0.5773502691896261
 41
0.2228163440660905
 42
2.918776309523702
  0
ELLIPSE
  5
8571
330
8504
100
AcDbEntity
  8
0
100
AcDbEllipse
 10
0.0
 20
7.879769709178163
 30
0.0
 11
1.406879191792096
 21
0.0
 31
0.0
210
0.0
220
0.0
230
1.0
 40
0.5773502691896261
 41
3.364408997655884
 42
6.060368963113495
  0
ELLIPSE
  5
8572
330
8504
100
AcDbEntity
  8
0
100
AcDbEllipse
 10
0.0
 20
9.185586535436918
 30
0.0
 11
1.270535930223696
 21
-0.0000000000000001
 31
0.0
210
0.0
220
0.0
230
1.0
 40
0.577350269189626
 41
2.881758674667318
 42
6.54301928610206
  0
ELLIPSE
  5
8573
330
8504
100
AcDbEntity
  8
0
100
AcDbEllipse
 10
0.0
 20
9.243546684941993
 30
0.0
 11
-1.147583885962842
 21
0.0000000000000002
 31
0.0
210
0.0
220
0.0
230
1.0
 40
0.5773502691896261
 41
0.2228163440660905
 42
2.918776309523702
  0
ELLIPSE
  5
8574
330
8504
100
AcDbEntity
  8
0
100
AcDbEllipse
 10
0.0
 20
8.900390435337822
 30
0.0
 11
1.406879191792096
 21
0.0
 31
0.0
210
0.0
220
0.0
230
1.0
 40
0.5773502691896261
 41
3.364408997655884
 42
6.060368963113495
  0
ELLIPSE
  5
8575
330
8504
100
AcDbEntity
  8
0
100
AcDbEllipse
 10
0.0
 20
10.20620726159657
 30
0.0
 11
1.270535930223696
 21
-0.0000000000000001
 31
0.0
210
0.0
220
0.0
230
1.0
 40
0.577350269189626
 41
2.881758674667318
 42
6.54301928610206
  0
ELLIPSE
  5
8576
330
8504
100
AcDbEntity
  8
0
100
AcDbEllipse
 10
0.0
 20
10.26416741110165
 30
0.0
 11
-1.147583885962842
 21
0.0000000000000002
 31
0.0
210
0.0
220
0.0
230
1.0
 40
0.5773502691896261
 41
0.2228163440660922
 42
2.918776309523705
  0
ELLIPSE
  5
8577
330
8504
100
AcDbEntity
  8
0
100
AcDbEllipse
 10
0.0
 20
9.921011161497478
 30
0.0
 11
1.406879191792096
 21
0.0
 31
0.0
210
0.0
220
0.0
230
1.0
 40
0.5773502691896261
 41
3.364408997655884
 42
6.060368963113495
  0
ELLIPSE
  5
8578
330
8504
100
AcDbEntity
  8
0
100
AcDbEllipse
 10
0.0
 20
10.94163188765714
 30
0.0
 11
1.406879191792096
 21
0.0
 31
0.0
210
0.0
220
0.0
230
1.0
 40
0.5773502691896261
 41
3.364408997655885
 42
6.060368963113496
  0
SPLINE
  5
8579
330
8504
100
AcDbEntity
  8
0
100
AcDbSpline
210
0.0
220
0.0
230
1.0
 70
     8
 71
     3
 72
     8
 73
     4
 74
     0
 42
0.000000001
 43
0.0000000001
 40
2.778707058160415
 40
2.778707058160415
 40
2.778707058160415
 40
2.778707058160415
 40
2.789683592855231
 40
2.789683592855231
 40
2.789683592855231
 40
2.789683592855231
 10
-1.258696181947183
 20
-20.1749459976585
 30
0.0
 10
-1.256140885634103
 20
-20.17166455814037
 30
0.0
 10
-1.25356245338021
 20
-20.1684015619949
 30
0.0
 10
-1.250961335193171
 20
-20.16515698224901
 30
0.0
  0
SPLINE
  5
857A
330
8504
100
AcDbEntity
  8
0
100
AcDbSpline
210
0.0
220
0.0
230
1.0
 70
     8
 71
     3
 72
     8
 73
     4
 74
     0
 42
0.000000001
 43
0.0000000001
 40
5.064298041119251
 40
5.064298041119251
 40
5.064298041119251
 40
5.064298041119251
 40
5.075274575814056
 40
5.075274575814056
 40
5.075274575814056
 40
5.075274575814056
 10
1.250961335193171
 20
-20.16515698224901
 30
0.0
 10
1.253562453380207
 20
-20.1684015619949
 30
0.0
 10
1.256140885634098
 20
-20.17166455814036
 30
0.0
 10
1.258696181947176
 20
-20.17494599765849
 30
0.0
  0
SPLINE
  5
857B
330
8504
100
AcDbEntity
  8
0
100
AcDbSpline
210
0.0
220
0.0
230
1.0
 70
     8
 71
     3
 72
    12
 73
     8
 74
     0
 42
0.000000001
 43
0.0000000001
 40
2.133378146126233
 40
2.133378146126233
 40
2.133378146126233
 40
2.133378146126233
 40
2.389609635571446
 40
2.389609635571446
 40
2.624910724842973
 40
2.624910724842973
 40
2.789683592855232
 40
2.789683592855232
 40
2.789683592855232
 40
2.789683592855232
 10
-1.372099689272431
 20
-19.85648131103687
 30
0.0
 10
-1.408019039688499
 20
-19.76495431545024
 30
0.0
 10
-1.425165807494174
 20
-19.66440423678502
 30
0.0
 10
-1.414122129478595
 20
-19.47366147291662
 30
0.0
 10
-1.389810484648446
 20
-19.38417674656339
 30
0.0
 10
-1.323991246108931
 20
-19.24618112648334
 30
0.0
 10
-1.290007693231799
 20
-19.19324185627097
 30
0.0
 10
-1.250961335193171
 20
-19.14453625608935
 30
0.0
  0
SPLINE
  5
857C
330
8504
100
AcDbEntity
  8
0
100
AcDbSpline
210
0.0
220
0.0
230
1.0
 70
     8
 71
     3
 72
    12
 73
     8
 74
     0
 42
0.000000001
 43
0.0000000001
 40
5.064298041119251
 40
5.064298041119251
 40
5.064298041119251
 40
5.064298041119251
 40
5.304566443598971
 40
5.304566443598971
 40
5.555691135867592
 40
5.555691135867592
 40
5.720603487848249
 40
5.720603487848249
 40
5.720603487848249
 40
5.720603487848249
 10
1.250961335193171
 20
-19.14453625608935
 30
0.0
 10
1.307897930287785
 20
-19.21555775913548
 30
0.0
 10
1.354138650567091
 20
-19.29585407365287
 30
0.0
 10
1.41482411543596
 20
-19.47492213738938
 30
0.0
 10
1.426901821155361
 20
-19.57428209166581
 30
0.0
 10
1.410757813854938
 20
-19.73507113581849
 30
0.0
 10
1.395217630675951
 20
-19.79757390607819
 30
0.0
 10
1.37209968927243
 20
-19.85648131103687
 30
0.0
  0
LINE
  5
857D
330
8504
100
AcDbEntity
  8
0
100
AcDbLine
 10
-1.119214430442986
 20
-20.50086456687804
 30
0.0
 11
-1.372099689272444
 21
-19.85648131103685
 31
0.0
  0
LINE
  5
857E
330
8504
100
AcDbEntity
  8
0
100
AcDbLine
 10
1.119214430442986
 20
-20.50086456687804
 30
0.0
 11
1.372099689272444
 21
-19.85648131103685
 31
0.0
  0
SPLINE
  5
857F
330
8504
100
AcDbEntity
  8
0
100
AcDbSpline
210
0.0
220
0.0
230
1.0
 70
     8
 71
     3
 72
    12
 73
     8
 74
     0
 42
0.000000001
 43
0.0000000001
 40
2.133378146126233
 40
2.133378146126233
 40
2.133378146126233
 40
2.133378146126233
 40
2.389609635571446
 40
2.389609635571446
 40
2.624910724842973
 40
2.624910724842973
 40
2.789683592855232
 40
2.789683592855232
 40
2.789683592855232
 40
2.789683592855232
 10
-1.372099689272431
 20
-18.83586058487721
 30
0.0
 10
-1.408019039688499
 20
-18.74433358929058
 30
0.0
 10
-1.425165807494174
 20
-18.64378351062536
 30
0.0
 10
-1.414122129478595
 20
-18.45304074675696
 30
0.0
 10
-1.389810484648446
 20
-18.36355602040373
 30
0.0
 10
-1.323991246108931
 20
-18.22556040032369
 30
0.0
 10
-1.290007693231799
 20
-18.17262113011131
 30
0.0
 10
-1.250961335193171
 20
-18.12391552992969
 30
0.0
  0
SPLINE
  5
8580
330
8504
100
AcDbEntity
  8
0
100
AcDbSpline
210
0.0
220
0.0
230
1.0
 70
     8
 71
     3
 72
    12
 73
     8
 74
     0
 42
0.000000001
 43
0.0000000001
 40
5.064298041119251
 40
5.064298041119251
 40
5.064298041119251
 40
5.064298041119251
 40
5.304566443598971
 40
5.304566443598971
 40
5.555691135867592
 40
5.555691135867592
 40
5.720603487848249
 40
5.720603487848249
 40
5.720603487848249
 40
5.720603487848249
 10
1.250961335193171
 20
-18.12391552992969
 30
0.0
 10
1.307897930287785
 20
-18.19493703297582
 30
0.0
 10
1.354138650567091
 20
-18.27523334749321
 30
0.0
 10
1.41482411543596
 20
-18.45430141122972
 30
0.0
 10
1.426901821155361
 20
-18.55366136550616
 30
0.0
 10
1.410757813854938
 20
-18.71445040965883
 30
0.0
 10
1.395217630675951
 20
-18.77695317991854
 30
0.0
 10
1.37209968927243
 20
-18.83586058487721
 30
0.0
  0
LINE
  5
8581
330
8504
100
AcDbEntity
  8
0
100
AcDbLine
 10
-1.119214430442986
 20
-19.48024384071838
 30
0.0
 11
-1.372099689272444
 21
-18.83586058487719
 31
0.0
  0
LINE
  5
8582
330
8504
100
AcDbEntity
  8
0
100
AcDbLine
 10
1.119214430442986
 20
-19.48024384071838
 30
0.0
 11
1.372099689272444
 21
-18.83586058487719
 31
0.0
  0
SPLINE
  5
8583
330
8504
100
AcDbEntity
  8
0
100
AcDbSpline
210
0.0
220
0.0
230
1.0
 70
     8
 71
     3
 72
    12
 73
     8
 74
     0
 42
0.000000001
 43
0.0000000001
 40
2.133378146126233
 40
2.133378146126233
 40
2.133378146126233
 40
2.133378146126233
 40
2.389609635571446
 40
2.389609635571446
 40
2.624910724842973
 40
2.624910724842973
 40
2.789683592855232
 40
2.789683592855232
 40
2.789683592855232
 40
2.789683592855232
 10
-1.372099689272431
 20
-17.81523985871755
 30
0.0
 10
-1.408019039688499
 20
-17.72371286313092
 30
0.0
 10
-1.425165807494174
 20
-17.6231627844657
 30
0.0
 10
-1.414122129478595
 20
-17.4324200205973
 30
0.0
 10
-1.389810484648446
 20
-17.34293529424407
 30
0.0
 10
-1.323991246108931
 20
-17.20493967416403
 30
0.0
 10
-1.290007693231799
 20
-17.15200040395165
 30
0.0
 10
-1.250961335193171
 20
-17.10329480377003
 30
0.0
  0
SPLINE
  5
8584
330
8504
100
AcDbEntity
  8
0
100
AcDbSpline
210
0.0
220
0.0
230
1.0
 70
     8
 71
     3
 72
    12
 73
     8
 74
     0
 42
0.000000001
 43
0.0000000001
 40
5.064298041119251
 40
5.064298041119251
 40
5.064298041119251
 40
5.064298041119251
 40
5.304566443598971
 40
5.304566443598971
 40
5.555691135867592
 40
5.555691135867592
 40
5.720603487848249
 40
5.720603487848249
 40
5.720603487848249
 40
5.720603487848249
 10
1.250961335193171
 20
-17.10329480377003
 30
0.0
 10
1.307897930287785
 20
-17.17431630681616
 30
0.0
 10
1.354138650567091
 20
-17.25461262133356
 30
0.0
 10
1.41482411543596
 20
-17.43368068507007
 30
0.0
 10
1.426901821155361
 20
-17.5330406393465
 30
0.0
 10
1.410757813854938
 20
-17.69382968349917
 30
0.0
 10
1.395217630675951
 20
-17.75633245375888
 30
0.0
 10
1.37209968927243
 20
-17.81523985871755
 30
0.0
  0
LINE
  5
8585
330
8504
100
AcDbEntity
  8
0
100
AcDbLine
 10
-1.119214430442986
 20
-18.45962311455872
 30
0.0
 11
-1.372099689272444
 21
-17.81523985871753
 31
0.0
  0
LINE
  5
8586
330
8504
100
AcDbEntity
  8
0
100
AcDbLine
 10
1.119214430442986
 20
-18.45962311455872
 30
0.0
 11
1.372099689272444
 21
-17.81523985871753
 31
0.0
  0
SPLINE
  5
8587
330
8504
100
AcDbEntity
  8
0
100
AcDbSpline
210
0.0
220
0.0
230
1.0
 70
     8
 71
     3
 72
    12
 73
     8
 74
     0
 42
0.000000001
 43
0.0000000001
 40
2.133378146126233
 40
2.133378146126233
 40
2.133378146126233
 40
2.133378146126233
 40
2.389609635571446
 40
2.389609635571446
 40
2.624910724842973
 40
2.624910724842973
 40
2.789683592855232
 40
2.789683592855232
 40
2.789683592855232
 40
2.789683592855232
 10
-1.372099689272431
 20
-16.79461913255789
 30
0.0
 10
-1.408019039688499
 20
-16.70309213697127
 30
0.0
 10
-1.425165807494174
 20
-16.60254205830604
 30
0.0
 10
-1.414122129478595
 20
-16.41179929443764
 30
0.0
 10
-1.389810484648446
 20
-16.32231456808441
 30
0.0
 10
-1.323991246108931
 20
-16.18431894800436
 30
0.0
 10
-1.290007693231799
 20
-16.13137967779199
 30
0.0
 10
-1.250961335193171
 20
-16.08267407761038
 30
0.0
  0
SPLINE
  5
8588
330
8504
100
AcDbEntity
  8
0
100
AcDbSpline
210
0.0
220
0.0
230
1.0
 70
     8
 71
     3
 72
    12
 73
     8
 74
     0
 42
0.000000001
 43
0.0000000001
 40
5.064298041119251
 40
5.064298041119251
 40
5.064298041119251
 40
5.064298041119251
 40
5.304566443598971
 40
5.304566443598971
 40
5.555691135867592
 40
5.555691135867592
 40
5.720603487848249
 40
5.720603487848249
 40
5.720603487848249
 40
5.720603487848249
 10
1.250961335193171
 20
-16.08267407761038
 30
0.0
 10
1.307897930287785
 20
-16.15369558065651
 30
0.0
 10
1.354138650567091
 20
-16.23399189517391
 30
0.0
 10
1.41482411543596
 20
-16.41305995891041
 30
0.0
 10
1.426901821155361
 20
-16.51241991318684
 30
0.0
 10
1.410757813854938
 20
-16.67320895733951
 30
0.0
 10
1.395217630675951
 20
-16.73571172759922
 30
0.0
 10
1.37209968927243
 20
-16.79461913255789
 30
0.0
  0
LINE
  5
8589
330
8504
100
AcDbEntity
  8
0
100
AcDbLine
 10
-1.119214430442986
 20
-17.43900238839906
 30
0.0
 11
-1.372099689272444
 21
-16.79461913255788
 31
0.0
  0
LINE
  5
858A
330
8504
100
AcDbEntity
  8
0
100
AcDbLine
 10
1.119214430442986
 20
-17.43900238839906
 30
0.0
 11
1.372099689272444
 21
-16.79461913255788
 31
0.0
  0
SPLINE
  5
858B
330
8504
100
AcDbEntity
  8
0
100
AcDbSpline
210
0.0
220
0.0
230
1.0
 70
     8
 71
     3
 72
    12
 73
     8
 74
     0
 42
0.000000001
 43
0.0000000001
 40
2.133378146126233
 40
2.133378146126233
 40
2.133378146126233
 40
2.133378146126233
 40
2.389609635571446
 40
2.389609635571446
 40
2.624910724842973
 40
2.624910724842973
 40
2.789683592855232
 40
2.789683592855232
 40
2.789683592855232
 40
2.789683592855232
 10
-1.372099689272431
 20
-15.77399840639823
 30
0.0
 10
-1.408019039688499
 20
-15.68247141081161
 30
0.0
 10
-1.425165807494174
 20
-15.58192133214639
 30
0.0
 10
-1.414122129478595
 20
-15.39117856827798
 30
0.0
 10
-1.389810484648446
 20
-15.30169384192475
 30
0.0
 10
-1.323991246108931
 20
-15.1636982218447
 30
0.0
 10
-1.290007693231799
 20
-15.11075895163233
 30
0.0
 10
-1.250961335193171
 20
-15.06205335145072
 30
0.0
  0
SPLINE
  5
858C
330
8504
100
AcDbEntity
  8
0
100
AcDbSpline
210
0.0
220
0.0
230
1.0
 70
     8
 71
     3
 72
    12
 73
     8
 74
     0
 42
0.000000001
 43
0.0000000001
 40
5.064298041119251
 40
5.064298041119251
 40
5.064298041119251
 40
5.064298041119251
 40
5.304566443598971
 40
5.304566443598971
 40
5.555691135867592
 40
5.555691135867592
 40
5.720603487848249
 40
5.720603487848249
 40
5.720603487848249
 40
5.720603487848249
 10
1.250961335193171
 20
-15.06205335145072
 30
0.0
 10
1.307897930287785
 20
-15.13307485449685
 30
0.0
 10
1.354138650567091
 20
-15.21337116901425
 30
0.0
 10
1.41482411543596
 20
-15.39243923275075
 30
0.0
 10
1.426901821155361
 20
-15.49179918702718
 30
0.0
 10
1.410757813854938
 20
-15.65258823117986
 30
0.0
 10
1.395217630675951
 20
-15.71509100143956
 30
0.0
 10
1.37209968927243
 20
-15.77399840639823
 30
0.0
  0
LINE
  5
858D
330
8504
100
AcDbEntity
  8
0
100
AcDbLine
 10
-1.119214430442986
 20
-16.41838166223941
 30
0.0
 11
-1.372099689272444
 21
-15.77399840639822
 31
0.0
  0
LINE
  5
858E
330
8504
100
AcDbEntity
  8
0
100
AcDbLine
 10
1.119214430442986
 20
-16.41838166223941
 30
0.0
 11
1.372099689272444
 21
-15.77399840639822
 31
0.0
  0
SPLINE
  5
858F
330
8504
100
AcDbEntity
  8
0
100
AcDbSpline
210
0.0
220
0.0
230
1.0
 70
     8
 71
     3
 72
    12
 73
     8
 74
     0
 42
0.000000001
 43
0.0000000001
 40
2.133378146126233
 40
2.133378146126233
 40
2.133378146126233
 40
2.133378146126233
 40
2.389609635571446
 40
2.389609635571446
 40
2.624910724842973
 40
2.624910724842973
 40
2.789683592855232
 40
2.789683592855232
 40
2.789683592855232
 40
2.789683592855232
 10
-1.372099689272431
 20
-14.75337768023857
 30
0.0
 10
-1.408019039688499
 20
-14.66185068465195
 30
0.0
 10
-1.425165807494174
 20
-14.56130060598673
 30
0.0
 10
-1.414122129478595
 20
-14.37055784211832
 30
0.0
 10
-1.389810484648446
 20
-14.28107311576509
 30
0.0
 10
-1.323991246108931
 20
-14.14307749568504
 30
0.0
 10
-1.290007693231799
 20
-14.09013822547267
 30
0.0
 10
-1.250961335193171
 20
-14.04143262529107
 30
0.0
  0
SPLINE
  5
8590
330
8504
100
AcDbEntity
  8
0
100
AcDbSpline
210
0.0
220
0.0
230
1.0
 70
     8
 71
     3
 72
    12
 73
     8
 74
     0
 42
0.000000001
 43
0.0000000001
 40
5.064298041119251
 40
5.064298041119251
 40
5.064298041119251
 40
5.064298041119251
 40
5.304566443598971
 40
5.304566443598971
 40
5.555691135867592
 40
5.555691135867592
 40
5.720603487848249
 40
5.720603487848249
 40
5.720603487848249
 40
5.720603487848249
 10
1.250961335193171
 20
-14.04143262529107
 30
0.0
 10
1.307897930287785
 20
-14.11245412833719
 30
0.0
 10
1.354138650567091
 20
-14.19275044285459
 30
0.0
 10
1.41482411543596
 20
-14.3718185065911
 30
0.0
 10
1.426901821155361
 20
-14.47117846086752
 30
0.0
 10
1.410757813854938
 20
-14.63196750502021
 30
0.0
 10
1.395217630675951
 20
-14.69447027527991
 30
0.0
 10
1.37209968927243
 20
-14.75337768023857
 30
0.0
  0
LINE
  5
8591
330
8504
100
AcDbEntity
  8
0
100
AcDbLine
 10
-1.119214430442986
 20
-15.39776093607975
 30
0.0
 11
-1.372099689272444
 21
-14.75337768023856
 31
0.0
  0
LINE
  5
8592
330
8504
100
AcDbEntity
  8
0
100
AcDbLine
 10
1.119214430442986
 20
-15.39776093607975
 30
0.0
 11
1.372099689272444
 21
-14.75337768023856
 31
0.0
  0
SPLINE
  5
8593
330
8504
100
AcDbEntity
  8
0
100
AcDbSpline
210
0.0
220
0.0
230
1.0
 70
     8
 71
     3
 72
    12
 73
     8
 74
     0
 42
0.000000001
 43
0.0000000001
 40
2.133378146126233
 40
2.133378146126233
 40
2.133378146126233
 40
2.133378146126233
 40
2.389609635571446
 40
2.389609635571446
 40
2.624910724842973
 40
2.624910724842973
 40
2.789683592855232
 40
2.789683592855232
 40
2.789683592855232
 40
2.789683592855232
 10
-1.372099689272431
 20
-13.73275695407891
 30
0.0
 10
-1.408019039688499
 20
-13.64122995849229
 30
0.0
 10
-1.425165807494174
 20
-13.54067987982707
 30
0.0
 10
-1.414122129478595
 20
-13.34993711595866
 30
0.0
 10
-1.389810484648446
 20
-13.26045238960543
 30
0.0
 10
-1.323991246108931
 20
-13.12245676952539
 30
0.0
 10
-1.290007693231799
 20
-13.06951749931301
 30
0.0
 10
-1.250961335193171
 20
-13.02081189913141
 30
0.0
  0
SPLINE
  5
8594
330
8504
100
AcDbEntity
  8
0
100
AcDbSpline
210
0.0
220
0.0
230
1.0
 70
     8
 71
     3
 72
    12
 73
     8
 74
     0
 42
0.000000001
 43
0.0000000001
 40
5.064298041119251
 40
5.064298041119251
 40
5.064298041119251
 40
5.064298041119251
 40
5.304566443598971
 40
5.304566443598971
 40
5.555691135867592
 40
5.555691135867592
 40
5.720603487848249
 40
5.720603487848249
 40
5.720603487848249
 40
5.720603487848249
 10
1.250961335193171
 20
-13.02081189913141
 30
0.0
 10
1.307897930287785
 20
-13.09183340217753
 30
0.0
 10
1.354138650567091
 20
-13.17212971669493
 30
0.0
 10
1.41482411543596
 20
-13.35119778043144
 30
0.0
 10
1.426901821155361
 20
-13.45055773470786
 30
0.0
 10
1.410757813854938
 20
-13.61134677886055
 30
0.0
 10
1.395217630675951
 20
-13.67384954912025
 30
0.0
 10
1.37209968927243
 20
-13.73275695407891
 30
0.0
  0
LINE
  5
8595
330
8504
100
AcDbEntity
  8
0
100
AcDbLine
 10
-1.119214430442986
 20
-14.37714020992009
 30
0.0
 11
-1.372099689272444
 21
-13.7327569540789
 31
0.0
  0
LINE
  5
8596
330
8504
100
AcDbEntity
  8
0
100
AcDbLine
 10
1.119214430442986
 20
-14.37714020992009
 30
0.0
 11
1.372099689272444
 21
-13.7327569540789
 31
0.0
  0
SPLINE
  5
8597
330
8504
100
AcDbEntity
  8
0
100
AcDbSpline
210
0.0
220
0.0
230
1.0
 70
     8
 71
     3
 72
    12
 73
     8
 74
     0
 42
0.000000001
 43
0.0000000001
 40
2.133378146126233
 40
2.133378146126233
 40
2.133378146126233
 40
2.133378146126233
 40
2.389609635571446
 40
2.389609635571446
 40
2.624910724842973
 40
2.624910724842973
 40
2.789683592855232
 40
2.789683592855232
 40
2.789683592855232
 40
2.789683592855232
 10
-1.372099689272431
 20
-12.71213622791926
 30
0.0
 10
-1.408019039688499
 20
-12.62060923233264
 30
0.0
 10
-1.425165807494174
 20
-12.52005915366741
 30
0.0
 10
-1.414122129478595
 20
-12.329316389799
 30
0.0
 10
-1.389810484648446
 20
-12.23983166344577
 30
0.0
 10
-1.323991246108931
 20
-12.10183604336573
 30
0.0
 10
-1.290007693231799
 20
-12.04889677315336
 30
0.0
 10
-1.250961335193171
 20
-12.00019117297175
 30
0.0
  0
SPLINE
  5
8598
330
8504
100
AcDbEntity
  8
0
100
AcDbSpline
210
0.0
220
0.0
230
1.0
 70
     8
 71
     3
 72
    12
 73
     8
 74
     0
 42
0.000000001
 43
0.0000000001
 40
5.064298041119251
 40
5.064298041119251
 40
5.064298041119251
 40
5.064298041119251
 40
5.304566443598971
 40
5.304566443598971
 40
5.555691135867592
 40
5.555691135867592
 40
5.720603487848249
 40
5.720603487848249
 40
5.720603487848249
 40
5.720603487848249
 10
1.250961335193171
 20
-12.00019117297175
 30
0.0
 10
1.307897930287785
 20
-12.07121267601787
 30
0.0
 10
1.354138650567091
 20
-12.15150899053528
 30
0.0
 10
1.41482411543596
 20
-12.33057705427178
 30
0.0
 10
1.426901821155361
 20
-12.4299370085482
 30
0.0
 10
1.410757813854938
 20
-12.59072605270089
 30
0.0
 10
1.395217630675951
 20
-12.65322882296059
 30
0.0
 10
1.37209968927243
 20
-12.71213622791926
 30
0.0
  0
LINE
  5
8599
330
8504
100
AcDbEntity
  8
0
100
AcDbLine
 10
-1.119214430442986
 20
-13.35651948376043
 30
0.0
 11
-1.372099689272444
 21
-12.71213622791924
 31
0.0
  0
LINE
  5
859A
330
8504
100
AcDbEntity
  8
0
100
AcDbLine
 10
1.119214430442986
 20
-13.35651948376043
 30
0.0
 11
1.372099689272444
 21
-12.71213622791924
 31
0.0
  0
SPLINE
  5
859B
330
8504
100
AcDbEntity
  8
0
100
AcDbSpline
210
0.0
220
0.0
230
1.0
 70
     8
 71
     3
 72
    12
 73
     8
 74
     0
 42
0.000000001
 43
0.0000000001
 40
2.133378146126233
 40
2.133378146126233
 40
2.133378146126233
 40
2.133378146126233
 40
2.389609635571446
 40
2.389609635571446
 40
2.624910724842973
 40
2.624910724842973
 40
2.789683592855232
 40
2.789683592855232
 40
2.789683592855232
 40
2.789683592855232
 10
-1.372099689272431
 20
-11.6915155017596
 30
0.0
 10
-1.408019039688499
 20
-11.59998850617298
 30
0.0
 10
-1.425165807494174
 20
-11.49943842750776
 30
0.0
 10
-1.414122129478595
 20
-11.30869566363935
 30
0.0
 10
-1.389810484648446
 20
-11.21921093728612
 30
0.0
 10
-1.323991246108931
 20
-11.08121531720607
 30
0.0
 10
-1.290007693231799
 20
-11.0282760469937
 30
0.0
 10
-1.250961335193171
 20
-10.97957044681209
 30
0.0
  0
SPLINE
  5
859C
330
8504
100
AcDbEntity
  8
0
100
AcDbSpline
210
0.0
220
0.0
230
1.0
 70
     8
 71
     3
 72
    12
 73
     8
 74
     0
 42
0.000000001
 43
0.0000000001
 40
5.064298041119251
 40
5.064298041119251
 40
5.064298041119251
 40
5.064298041119251
 40
5.304566443598971
 40
5.304566443598971
 40
5.555691135867592
 40
5.555691135867592
 40
5.720603487848249
 40
5.720603487848249
 40
5.720603487848249
 40
5.720603487848249
 10
1.250961335193171
 20
-10.97957044681209
 30
0.0
 10
1.307897930287785
 20
-11.05059194985822
 30
0.0
 10
1.354138650567091
 20
-11.13088826437562
 30
0.0
 10
1.41482411543596
 20
-11.30995632811212
 30
0.0
 10
1.426901821155361
 20
-11.40931628238855
 30
0.0
 10
1.410757813854938
 20
-11.57010532654123
 30
0.0
 10
1.395217630675951
 20
-11.63260809680093
 30
0.0
 10
1.37209968927243
 20
-11.6915155017596
 30
0.0
  0
LINE
  5
859D
330
8504
100
AcDbEntity
  8
0
100
AcDbLine
 10
-1.119214430442986
 20
-12.33589875760078
 30
0.0
 11
-1.372099689272444
 21
-11.69151550175959
 31
0.0
  0
LINE
  5
859E
330
8504
100
AcDbEntity
  8
0
100
AcDbLine
 10
1.119214430442986
 20
-12.33589875760078
 30
0.0
 11
1.372099689272444
 21
-11.69151550175959
 31
0.0
  0
SPLINE
  5
859F
330
8504
100
AcDbEntity
  8
0
100
AcDbSpline
210
0.0
220
0.0
230
1.0
 70
     8
 71
     3
 72
    12
 73
     8
 74
     0
 42
0.000000001
 43
0.0000000001
 40
2.133378146126233
 40
2.133378146126233
 40
2.133378146126233
 40
2.133378146126233
 40
2.389609635571446
 40
2.389609635571446
 40
2.624910724842973
 40
2.624910724842973
 40
2.789683592855232
 40
2.789683592855232
 40
2.789683592855232
 40
2.789683592855232
 10
-1.372099689272431
 20
-10.67089477559994
 30
0.0
 10
-1.408019039688499
 20
-10.57936778001332
 30
0.0
 10
-1.425165807494174
 20
-10.4788177013481
 30
0.0
 10
-1.414122129478595
 20
-10.28807493747969
 30
0.0
 10
-1.389810484648446
 20
-10.19859021112646
 30
0.0
 10
-1.323991246108931
 20
-10.06059459104641
 30
0.0
 10
-1.290007693231799
 20
-10.00765532083404
 30
0.0
 10
-1.250961335193171
 20
-9.958949720652437
 30
0.0
  0
SPLINE
  5
85A0
330
8504
100
AcDbEntity
  8
0
100
AcDbSpline
210
0.0
220
0.0
230
1.0
 70
     8
 71
     3
 72
    12
 73
     8
 74
     0
 42
0.000000001
 43
0.0000000001
 40
5.064298041119251
 40
5.064298041119251
 40
5.064298041119251
 40
5.064298041119251
 40
5.304566443598971
 40
5.304566443598971
 40
5.555691135867592
 40
5.555691135867592
 40
5.720603487848249
 40
5.720603487848249
 40
5.720603487848249
 40
5.720603487848249
 10
1.250961335193171
 20
-9.958949720652437
 30
0.0
 10
1.307897930287785
 20
-10.02997122369856
 30
0.0
 10
1.354138650567091
 20
-10.11026753821596
 30
0.0
 10
1.41482411543596
 20
-10.28933560195246
 30
0.0
 10
1.426901821155361
 20
-10.38869555622889
 30
0.0
 10
1.410757813854938
 20
-10.54948460038158
 30
0.0
 10
1.395217630675951
 20
-10.61198737064128
 30
0.0
 10
1.37209968927243
 20
-10.67089477559994
 30
0.0
  0
LINE
  5
85A1
330
8504
100
AcDbEntity
  8
0
100
AcDbLine
 10
-1.119214430442986
 20
-11.31527803144112
 30
0.0
 11
-1.372099689272444
 21
-10.67089477559993
 31
0.0
  0
LINE
  5
85A2
330
8504
100
AcDbEntity
  8
0
100
AcDbLine
 10
1.119214430442986
 20
-11.31527803144112
 30
0.0
 11
1.372099689272444
 21
-10.67089477559993
 31
0.0
  0
SPLINE
  5
85A3
330
8504
100
AcDbEntity
  8
0
100
AcDbSpline
210
0.0
220
0.0
230
1.0
 70
     8
 71
     3
 72
    12
 73
     8
 74
     0
 42
0.000000001
 43
0.0000000001
 40
2.133378146126231
 40
2.133378146126231
 40
2.133378146126231
 40
2.133378146126231
 40
2.389609635571444
 40
2.389609635571444
 40
2.624910724842971
 40
2.624910724842971
 40
2.789683592855232
 40
2.789683592855232
 40
2.789683592855232
 40
2.789683592855232
 10
-1.372099689272429
 20
-9.650274049440291
 30
0.0
 10
-1.408019039688498
 20
-9.558747053853666
 30
0.0
 10
-1.425165807494174
 20
-9.458196975188442
 30
0.0
 10
-1.414122129478596
 20
-9.267454211320034
 30
0.0
 10
-1.389810484648447
 20
-9.177969484966808
 30
0.0
 10
-1.323991246108932
 20
-9.039973864886761
 30
0.0
 10
-1.2900076932318
 20
-8.987034594674385
 30
0.0
 10
-1.250961335193171
 20
-8.938328994492778
 30
0.0
  0
SPLINE
  5
85A4
330
8504
100
AcDbEntity
  8
0
100
AcDbSpline
210
0.0
220
0.0
230
1.0
 70
     8
 71
     3
 72
    12
 73
     8
 74
     0
 42
0.000000001
 43
0.0000000001
 40
5.064298041119251
 40
5.064298041119251
 40
5.064298041119251
 40
5.064298041119251
 40
5.304566443598969
 40
5.304566443598969
 40
5.555691135867591
 40
5.555691135867591
 40
5.720603487848251
 40
5.720603487848251
 40
5.720603487848251
 40
5.720603487848251
 10
1.250961335193171
 20
-8.938328994492778
 30
0.0
 10
1.307897930287785
 20
-9.0093504975389
 30
0.0
 10
1.35413865056709
 20
-9.089646812056301
 30
0.0
 10
1.41482411543596
 20
-9.268714875792806
 30
0.0
 10
1.426901821155361
 20
-9.368074830069232
 30
0.0
 10
1.410757813854938
 20
-9.528863874221919
 30
0.0
 10
1.395217630675951
 20
-9.591366644481617
 30
0.0
 10
1.37209968927243
 20
-9.650274049440286
 30
0.0
  0
LINE
  5
85A5
330
8504
100
AcDbEntity
  8
0
100
AcDbLine
 10
-1.119214430442986
 20
-10.29465730528146
 30
0.0
 11
-1.372099689272444
 21
-9.650274049440273
 31
0.0
  0
LINE
  5
85A6
330
8504
100
AcDbEntity
  8
0
100
AcDbLine
 10
1.119214430442986
 20
-10.29465730528146
 30
0.0
 11
1.372099689272444
 21
-9.650274049440273
 31
0.0
  0
SPLINE
  5
85A7
330
8504
100
AcDbEntity
  8
0
100
AcDbSpline
210
0.0
220
0.0
230
1.0
 70
     8
 71
     3
 72
    12
 73
     8
 74
     0
 42
0.000000001
 43
0.0000000001
 40
2.133378146126231
 40
2.133378146126231
 40
2.133378146126231
 40
2.133378146126231
 40
2.389609635571444
 40
2.389609635571444
 40
2.624910724842971
 40
2.624910724842971
 40
2.789683592855232
 40
2.789683592855232
 40
2.789683592855232
 40
2.789683592855232
 10
-1.372099689272429
 20
-8.629653323280631
 30
0.0
 10
-1.408019039688498
 20
-8.538126327694012
 30
0.0
 10
-1.425165807494174
 20
-8.437576249028793
 30
0.0
 10
-1.414122129478596
 20
-8.246833485160385
 30
0.0
 10
-1.389810484648447
 20
-8.157348758807149
 30
0.0
 10
-1.323991246108932
 20
-8.019353138727103
 30
0.0
 10
-1.2900076932318
 20
-7.966413868514732
 30
0.0
 10
-1.250961335193171
 20
-7.917708268333125
 30
0.0
  0
SPLINE
  5
85A8
330
8504
100
AcDbEntity
  8
0
100
AcDbSpline
210
0.0
220
0.0
230
1.0
 70
     8
 71
     3
 72
    12
 73
     8
 74
     0
 42
0.000000001
 43
0.0000000001
 40
5.064298041119249
 40
5.064298041119249
 40
5.064298041119249
 40
5.064298041119249
 40
5.304566443598969
 40
5.304566443598969
 40
5.555691135867591
 40
5.555691135867591
 40
5.720603487848251
 40
5.720603487848251
 40
5.720603487848251
 40
5.720603487848251
 10
1.25096133519317
 20
-7.917708268333116
 30
0.0
 10
1.307897930287784
 20
-7.988729771379241
 30
0.0
 10
1.35413865056709
 20
-8.069026085896648
 30
0.0
 10
1.41482411543596
 20
-8.248094149633157
 30
0.0
 10
1.426901821155361
 20
-8.347454103909569
 30
0.0
 10
1.410757813854938
 20
-8.508243148062263
 30
0.0
 10
1.395217630675951
 20
-8.570745918321955
 30
0.0
 10
1.37209968927243
 20
-8.629653323280624
 30
0.0
  0
LINE
  5
85A9
330
8504
100
AcDbEntity
  8
0
100
AcDbLine
 10
-1.119214430442986
 20
-9.274036579121801
 30
0.0
 11
-1.372099689272444
 21
-8.629653323280614
 31
0.0
  0
LINE
  5
85AA
330
8504
100
AcDbEntity
  8
0
100
AcDbLine
 10
1.119214430442986
 20
-9.274036579121801
 30
0.0
 11
1.372099689272444
 21
-8.629653323280614
 31
0.0
  0
SPLINE
  5
85AB
330
8504
100
AcDbEntity
  8
0
100
AcDbSpline
210
0.0
220
0.0
230
1.0
 70
     8
 71
     3
 72
    12
 73
     8
 74
     0
 42
0.000000001
 43
0.0000000001
 40
2.133378146126231
 40
2.133378146126231
 40
2.133378146126231
 40
2.133378146126231
 40
2.389609635571444
 40
2.389609635571444
 40
2.624910724842971
 40
2.624910724842971
 40
2.789683592855232
 40
2.789683592855232
 40
2.789683592855232
 40
2.789683592855232
 10
-1.372099689272429
 20
-7.609032597120974
 30
0.0
 10
-1.408019039688498
 20
-7.517505601534355
 30
0.0
 10
-1.425165807494174
 20
-7.416955522869135
 30
0.0
 10
-1.414122129478596
 20
-7.226212759000727
 30
0.0
 10
-1.389810484648447
 20
-7.136728032647492
 30
0.0
 10
-1.323991246108932
 20
-6.998732412567445
 30
0.0
 10
-1.2900076932318
 20
-6.945793142355074
 30
0.0
 10
-1.250961335193171
 20
-6.897087542173467
 30
0.0
  0
SPLINE
  5
85AC
330
8504
100
AcDbEntity
  8
0
100
AcDbSpline
210
0.0
220
0.0
230
1.0
 70
     8
 71
     3
 72
    12
 73
     8
 74
     0
 42
0.000000001
 43
0.0000000001
 40
5.064298041119249
 40
5.064298041119249
 40
5.064298041119249
 40
5.064298041119249
 40
5.304566443598969
 40
5.304566443598969
 40
5.555691135867591
 40
5.555691135867591
 40
5.720603487848251
 40
5.720603487848251
 40
5.720603487848251
 40
5.720603487848251
 10
1.25096133519317
 20
-6.897087542173458
 30
0.0
 10
1.307897930287784
 20
-6.968109045219583
 30
0.0
 10
1.35413865056709
 20
-7.048405359736991
 30
0.0
 10
1.41482411543596
 20
-7.2274734234735
 30
0.0
 10
1.426901821155361
 20
-7.326833377749912
 30
0.0
 10
1.410757813854938
 20
-7.487622421902604
 30
0.0
 10
1.395217630675951
 20
-7.550125192162298
 30
0.0
 10
1.37209968927243
 20
-7.609032597120966
 30
0.0
  0
LINE
  5
85AD
330
8504
100
AcDbEntity
  8
0
100
AcDbLine
 10
-1.119214430442986
 20
-8.253415852962145
 30
0.0
 11
-1.372099689272444
 21
-7.609032597120957
 31
0.0
  0
LINE
  5
85AE
330
8504
100
AcDbEntity
  8
0
100
AcDbLine
 10
1.119214430442986
 20
-8.253415852962145
 30
0.0
 11
1.372099689272444
 21
-7.609032597120957
 31
0.0
  0
SPLINE
  5
85AF
330
8504
100
AcDbEntity
  8
0
100
AcDbSpline
210
0.0
220
0.0
230
1.0
 70
     8
 71
     3
 72
    12
 73
     8
 74
     0
 42
0.000000001
 43
0.0000000001
 40
2.133378146126231
 40
2.133378146126231
 40
2.133378146126231
 40
2.133378146126231
 40
2.389609635571444
 40
2.389609635571444
 40
2.624910724842971
 40
2.624910724842971
 40
2.789683592855232
 40
2.789683592855232
 40
2.789683592855232
 40
2.789683592855232
 10
-1.372099689272429
 20
-6.588411870961317
 30
0.0
 10
-1.408019039688498
 20
-6.496884875374697
 30
0.0
 10
-1.425165807494174
 20
-6.396334796709477
 30
0.0
 10
-1.414122129478596
 20
-6.205592032841069
 30
0.0
 10
-1.389810484648447
 20
-6.116107306487834
 30
0.0
 10
-1.323991246108932
 20
-5.978111686407787
 30
0.0
 10
-1.2900076932318
 20
-5.925172416195416
 30
0.0
 10
-1.250961335193171
 20
-5.87646681601381
 30
0.0
  0
SPLINE
  5
85B0
330
8504
100
AcDbEntity
  8
0
100
AcDbSpline
210
0.0
220
0.0
230
1.0
 70
     8
 71
     3
 72
    12
 73
     8
 74
     0
 42
0.000000001
 43
0.0000000001
 40
5.064298041119249
 40
5.064298041119249
 40
5.064298041119249
 40
5.064298041119249
 40
5.304566443598969
 40
5.304566443598969
 40
5.555691135867591
 40
5.555691135867591
 40
5.720603487848251
 40
5.720603487848251
 40
5.720603487848251
 40
5.720603487848251
 10
1.25096133519317
 20
-5.876466816013801
 30
0.0
 10
1.307897930287784
 20
-5.947488319059925
 30
0.0
 10
1.35413865056709
 20
-6.027784633577333
 30
0.0
 10
1.41482411543596
 20
-6.206852697313842
 30
0.0
 10
1.426901821155361
 20
-6.306212651590255
 30
0.0
 10
1.410757813854938
 20
-6.467001695742946
 30
0.0
 10
1.395217630675951
 20
-6.52950446600264
 30
0.0
 10
1.37209968927243
 20
-6.588411870961308
 30
0.0
  0
LINE
  5
85B1
330
8504
100
AcDbEntity
  8
0
100
AcDbLine
 10
-1.119214430442986
 20
-7.232795126802487
 30
0.0
 11
-1.372099689272444
 21
-6.588411870961299
 31
0.0
  0
LINE
  5
85B2
330
8504
100
AcDbEntity
  8
0
100
AcDbLine
 10
1.119214430442986
 20
-7.232795126802487
 30
0.0
 11
1.372099689272444
 21
-6.588411870961299
 31
0.0
  0
SPLINE
  5
85B3
330
8504
100
AcDbEntity
  8
0
100
AcDbSpline
210
0.0
220
0.0
230
1.0
 70
     8
 71
     3
 72
    12
 73
     8
 74
     0
 42
0.000000001
 43
0.0000000001
 40
2.133378146126231
 40
2.133378146126231
 40
2.133378146126231
 40
2.133378146126231
 40
2.389609635571444
 40
2.389609635571444
 40
2.624910724842971
 40
2.624910724842971
 40
2.789683592855232
 40
2.789683592855232
 40
2.789683592855232
 40
2.789683592855232
 10
-1.372099689272429
 20
-5.567791144801659
 30
0.0
 10
-1.408019039688498
 20
-5.476264149215039
 30
0.0
 10
-1.425165807494174
 20
-5.375714070549819
 30
0.0
 10
-1.414122129478596
 20
-5.184971306681411
 30
0.0
 10
-1.389810484648447
 20
-5.095486580328176
 30
0.0
 10
-1.323991246108932
 20
-4.957490960248129
 30
0.0
 10
-1.2900076932318
 20
-4.904551690035758
 30
0.0
 10
-1.250961335193171
 20
-4.855846089854152
 30
0.0
  0
SPLINE
  5
85B4
330
8504
100
AcDbEntity
  8
0
100
AcDbSpline
210
0.0
220
0.0
230
1.0
 70
     8
 71
     3
 72
    12
 73
     8
 74
     0
 42
0.000000001
 43
0.0000000001
 40
5.064298041119249
 40
5.064298041119249
 40
5.064298041119249
 40
5.064298041119249
 40
5.304566443598969
 40
5.304566443598969
 40
5.555691135867591
 40
5.555691135867591
 40
5.720603487848251
 40
5.720603487848251
 40
5.720603487848251
 40
5.720603487848251
 10
1.25096133519317
 20
-4.855846089854147
 30
0.0
 10
1.307897930287784
 20
-4.926867592900268
 30
0.0
 10
1.35413865056709
 20
-5.007163907417675
 30
0.0
 10
1.41482411543596
 20
-5.186231971154184
 30
0.0
 10
1.426901821155361
 20
-5.285591925430597
 30
0.0
 10
1.410757813854938
 20
-5.446380969583288
 30
0.0
 10
1.395217630675951
 20
-5.508883739842982
 30
0.0
 10
1.37209968927243
 20
-5.56779114480165
 30
0.0
  0
LINE
  5
85B5
330
8504
100
AcDbEntity
  8
0
100
AcDbLine
 10
-1.119214430442986
 20
-6.212174400642829
 30
0.0
 11
-1.372099689272444
 21
-5.567791144801641
 31
0.0
  0
LINE
  5
85B6
330
8504
100
AcDbEntity
  8
0
100
AcDbLine
 10
1.119214430442986
 20
-6.212174400642829
 30
0.0
 11
1.372099689272444
 21
-5.567791144801641
 31
0.0
  0
SPLINE
  5
85B7
330
8504
100
AcDbEntity
  8
0
100
AcDbSpline
210
0.0
220
0.0
230
1.0
 70
     8
 71
     3
 72
    12
 73
     8
 74
     0
 42
0.000000001
 43
0.0000000001
 40
2.133378146126231
 40
2.133378146126231
 40
2.133378146126231
 40
2.133378146126231
 40
2.389609635571444
 40
2.389609635571444
 40
2.624910724842971
 40
2.624910724842971
 40
2.789683592855232
 40
2.789683592855232
 40
2.789683592855232
 40
2.789683592855232
 10
-1.372099689272429
 20
-4.547170418642001
 30
0.0
 10
-1.408019039688498
 20
-4.455643423055382
 30
0.0
 10
-1.425165807494174
 20
-4.355093344390161
 30
0.0
 10
-1.414122129478596
 20
-4.164350580521753
 30
0.0
 10
-1.389810484648447
 20
-4.074865854168518
 30
0.0
 10
-1.323991246108932
 20
-3.936870234088472
 30
0.0
 10
-1.2900076932318
 20
-3.883930963876101
 30
0.0
 10
-1.250961335193171
 20
-3.835225363694494
 30
0.0
  0
SPLINE
  5
85B8
330
8504
100
AcDbEntity
  8
0
100
AcDbSpline
210
0.0
220
0.0
230
1.0
 70
     8
 71
     3
 72
    12
 73
     8
 74
     0
 42
0.000000001
 43
0.0000000001
 40
5.064298041119249
 40
5.064298041119249
 40
5.064298041119249
 40
5.064298041119249
 40
5.304566443598969
 40
5.304566443598969
 40
5.555691135867591
 40
5.555691135867591
 40
5.720603487848251
 40
5.720603487848251
 40
5.720603487848251
 40
5.720603487848251
 10
1.25096133519317
 20
-3.835225363694485
 30
0.0
 10
1.307897930287784
 20
-3.90624686674061
 30
0.0
 10
1.35413865056709
 20
-3.986543181258017
 30
0.0
 10
1.41482411543596
 20
-4.165611244994527
 30
0.0
 10
1.426901821155361
 20
-4.264971199270939
 30
0.0
 10
1.410757813854938
 20
-4.42576024342363
 30
0.0
 10
1.395217630675951
 20
-4.488263013683324
 30
0.0
 10
1.37209968927243
 20
-4.547170418641992
 30
0.0
  0
LINE
  5
85B9
330
8504
100
AcDbEntity
  8
0
100
AcDbLine
 10
-1.119214430442986
 20
-5.191553674483171
 30
0.0
 11
-1.372099689272444
 21
-4.547170418641983
 31
0.0
  0
LINE
  5
85BA
330
8504
100
AcDbEntity
  8
0
100
AcDbLine
 10
1.119214430442986
 20
-5.191553674483171
 30
0.0
 11
1.372099689272444
 21
-4.547170418641983
 31
0.0
  0
SPLINE
  5
85BB
330
8504
100
AcDbEntity
  8
0
100
AcDbSpline
210
0.0
220
0.0
230
1.0
 70
     8
 71
     3
 72
    12
 73
     8
 74
     0
 42
0.000000001
 43
0.0000000001
 40
2.133378146126231
 40
2.133378146126231
 40
2.133378146126231
 40
2.133378146126231
 40
2.389609635571444
 40
2.389609635571444
 40
2.624910724842971
 40
2.624910724842971
 40
2.789683592855232
 40
2.789683592855232
 40
2.789683592855232
 40
2.789683592855232
 10
-1.372099689272429
 20
-3.526549692482343
 30
0.0
 10
-1.408019039688498
 20
-3.435022696895724
 30
0.0
 10
-1.425165807494174
 20
-3.334472618230504
 30
0.0
 10
-1.414122129478596
 20
-3.143729854362096
 30
0.0
 10
-1.389810484648447
 20
-3.054245128008861
 30
0.0
 10
-1.323991246108932
 20
-2.916249507928814
 30
0.0
 10
-1.2900076932318
 20
-2.863310237716443
 30
0.0
 10
-1.250961335193171
 20
-2.814604637534836
 30
0.0
  0
SPLINE
  5
85BC
330
8504
100
AcDbEntity
  8
0
100
AcDbSpline
210
0.0
220
0.0
230
1.0
 70
     8
 71
     3
 72
    12
 73
     8
 74
     0
 42
0.000000001
 43
0.0000000001
 40
5.064298041119249
 40
5.064298041119249
 40
5.064298041119249
 40
5.064298041119249
 40
5.304566443598969
 40
5.304566443598969
 40
5.555691135867591
 40
5.555691135867591
 40
5.720603487848251
 40
5.720603487848251
 40
5.720603487848251
 40
5.720603487848251
 10
1.25096133519317
 20
-2.814604637534827
 30
0.0
 10
1.307897930287784
 20
-2.885626140580952
 30
0.0
 10
1.35413865056709
 20
-2.965922455098359
 30
0.0
 10
1.41482411543596
 20
-3.144990518834869
 30
0.0
 10
1.426901821155361
 20
-3.244350473111281
 30
0.0
 10
1.410757813854938
 20
-3.405139517263973
 30
0.0
 10
1.395217630675951
 20
-3.467642287523666
 30
0.0
 10
1.37209968927243
 20
-3.526549692482334
 30
0.0
  0
LINE
  5
85BD
330
8504
100
AcDbEntity
  8
0
100
AcDbLine
 10
-1.119214430442986
 20
-4.170932948323513
 30
0.0
 11
-1.372099689272444
 21
-3.526549692482325
 31
0.0
  0
LINE
  5
85BE
330
8504
100
AcDbEntity
  8
0
100
AcDbLine
 10
1.119214430442986
 20
-4.170932948323513
 30
0.0
 11
1.372099689272444
 21
-3.526549692482325
 31
0.0
  0
SPLINE
  5
85BF
330
8504
100
AcDbEntity
  8
0
100
AcDbSpline
210
0.0
220
0.0
230
1.0
 70
     8
 71
     3
 72
    12
 73
     8
 74
     0
 42
0.000000001
 43
0.0000000001
 40
2.133378146126231
 40
2.133378146126231
 40
2.133378146126231
 40
2.133378146126231
 40
2.389609635571444
 40
2.389609635571444
 40
2.624910724842971
 40
2.624910724842971
 40
2.789683592855232
 40
2.789683592855232
 40
2.789683592855232
 40
2.789683592855232
 10
-1.372099689272429
 20
-2.505928966322685
 30
0.0
 10
-1.408019039688498
 20
-2.414401970736066
 30
0.0
 10
-1.425165807494174
 20
-2.313851892070846
 30
0.0
 10
-1.414122129478596
 20
-2.123109128202438
 30
0.0
 10
-1.389810484648447
 20
-2.033624401849203
 30
0.0
 10
-1.323991246108932
 20
-1.895628781769156
 30
0.0
 10
-1.2900076932318
 20
-1.842689511556785
 30
0.0
 10
-1.250961335193171
 20
-1.793983911375178
 30
0.0
  0
SPLINE
  5
85C0
330
8504
100
AcDbEntity
  8
0
100
AcDbSpline
210
0.0
220
0.0
230
1.0
 70
     8
 71
     3
 72
    12
 73
     8
 74
     0
 42
0.000000001
 43
0.0000000001
 40
5.064298041119249
 40
5.064298041119249
 40
5.064298041119249
 40
5.064298041119249
 40
5.304566443598969
 40
5.304566443598969
 40
5.555691135867591
 40
5.555691135867591
 40
5.720603487848251
 40
5.720603487848251
 40
5.720603487848251
 40
5.720603487848251
 10
1.25096133519317
 20
-1.793983911375169
 30
0.0
 10
1.307897930287784
 20
-1.865005414421294
 30
0.0
 10
1.35413865056709
 20
-1.945301728938702
 30
0.0
 10
1.41482411543596
 20
-2.124369792675211
 30
0.0
 10
1.426901821155361
 20
-2.223729746951623
 30
0.0
 10
1.410757813854938
 20
-2.384518791104315
 30
0.0
 10
1.395217630675951
 20
-2.447021561364008
 30
0.0
 10
1.37209968927243
 20
-2.505928966322676
 30
0.0
  0
LINE
  5
85C1
330
8504
100
AcDbEntity
  8
0
100
AcDbLine
 10
-1.119214430442986
 20
-3.150312222163855
 30
0.0
 11
-1.372099689272444
 21
-2.505928966322668
 31
0.0
  0
LINE
  5
85C2
330
8504
100
AcDbEntity
  8
0
100
AcDbLine
 10
1.119214430442986
 20
-3.150312222163855
 30
0.0
 11
1.372099689272444
 21
-2.505928966322668
 31
0.0
  0
SPLINE
  5
85C3
330
8504
100
AcDbEntity
  8
0
100
AcDbSpline
210
0.0
220
0.0
230
1.0
 70
     8
 71
     3
 72
    12
 73
     8
 74
     0
 42
0.000000001
 43
0.0000000001
 40
2.133378146126231
 40
2.133378146126231
 40
2.133378146126231
 40
2.133378146126231
 40
2.389609635571444
 40
2.389609635571444
 40
2.624910724842971
 40
2.624910724842971
 40
2.789683592855232
 40
2.789683592855232
 40
2.789683592855232
 40
2.789683592855232
 10
-1.372099689272429
 20
-1.485308240163027
 30
0.0
 10
-1.408019039688498
 20
-1.393781244576408
 30
0.0
 10
-1.425165807494174
 20
-1.293231165911188
 30
0.0
 10
-1.414122129478596
 20
-1.10248840204278
 30
0.0
 10
-1.389810484648447
 20
-1.013003675689545
 30
0.0
 10
-1.323991246108932
 20
-0.8750080556094985
 30
0.0
 10
-1.2900076932318
 20
-0.8220687853971275
 30
0.0
 10
-1.250961335193171
 20
-0.773363185215521
 30
0.0
  0
SPLINE
  5
85C4
330
8504
100
AcDbEntity
  8
0
100
AcDbSpline
210
0.0
220
0.0
230
1.0
 70
     8
 71
     3
 72
    12
 73
     8
 74
     0
 42
0.000000001
 43
0.0000000001
 40
5.064298041119249
 40
5.064298041119249
 40
5.064298041119249
 40
5.064298041119249
 40
5.304566443598969
 40
5.304566443598969
 40
5.555691135867591
 40
5.555691135867591
 40
5.720603487848251
 40
5.720603487848251
 40
5.720603487848251
 40
5.720603487848251
 10
1.25096133519317
 20
-0.7733631852155121
 30
0.0
 10
1.307897930287784
 20
-0.8443846882616368
 30
0.0
 10
1.35413865056709
 20
-0.9246810027790441
 30
0.0
 10
1.41482411543596
 20
-1.103749066515553
 30
0.0
 10
1.426901821155361
 20
-1.203109020791965
 30
0.0
 10
1.410757813854938
 20
-1.363898064944657
 30
0.0
 10
1.395217630675951
 20
-1.426400835204351
 30
0.0
 10
1.37209968927243
 20
-1.485308240163019
 30
0.0
  0
LINE
  5
85C5
330
8504
100
AcDbEntity
  8
0
100
AcDbLine
 10
-1.119214430442986
 20
-2.129691496004197
 30
0.0
 11
-1.372099689272444
 21
-1.48530824016301
 31
0.0
  0
LINE
  5
85C6
330
8504
100
AcDbEntity
  8
0
100
AcDbLine
 10
1.119214430442986
 20
-2.129691496004197
 30
0.0
 11
1.372099689272444
 21
-1.48530824016301
 31
0.0
  0
SPLINE
  5
85C7
330
8504
100
AcDbEntity
  8
0
100
AcDbSpline
210
0.0
220
0.0
230
1.0
 70
     8
 71
     3
 72
    12
 73
     8
 74
     0
 42
0.000000001
 43
0.0000000001
 40
2.133378146126231
 40
2.133378146126231
 40
2.133378146126231
 40
2.133378146126231
 40
2.389609635571444
 40
2.389609635571444
 40
2.624910724842971
 40
2.624910724842971
 40
2.789683592855232
 40
2.789683592855232
 40
2.789683592855232
 40
2.789683592855232
 10
-1.372099689272429
 20
-0.4646875140033702
 30
0.0
 10
-1.408019039688498
 20
-0.3731605184167508
 30
0.0
 10
-1.425165807494174
 20
-0.2726104397515305
 30
0.0
 10
-1.414122129478596
 20
-0.0818676758831227
 30
0.0
 10
-1.389810484648447
 20
0.0076170504701123
 30
0.0
 10
-1.323991246108932
 20
0.1456126705501592
 30
0.0
 10
-1.2900076932318
 20
0.1985519407625302
 30
0.0
 10
-1.250961335193171
 20
0.2472575409441369
 30
0.0
  0
SPLINE
  5
85C8
330
8504
100
AcDbEntity
  8
0
100
AcDbSpline
210
0.0
220
0.0
230
1.0
 70
     8
 71
     3
 72
    12
 73
     8
 74
     0
 42
0.000000001
 43
0.0000000001
 40
5.064298041119249
 40
5.064298041119249
 40
5.064298041119249
 40
5.064298041119249
 40
5.304566443598969
 40
5.304566443598969
 40
5.555691135867591
 40
5.555691135867591
 40
5.720603487848251
 40
5.720603487848251
 40
5.720603487848251
 40
5.720603487848251
 10
1.25096133519317
 20
0.2472575409441413
 30
0.0
 10
1.307897930287784
 20
0.176236037898021
 30
0.0
 10
1.35413865056709
 20
0.0959397233806136
 30
0.0
 10
1.41482411543596
 20
-0.0831283403558958
 30
0.0
 10
1.426901821155361
 20
-0.1824882946323081
 30
0.0
 10
1.410757813854938
 20
-0.3432773387849997
 30
0.0
 10
1.395217630675951
 20
-0.4057801090446933
 30
0.0
 10
1.37209968927243
 20
-0.4646875140033613
 30
0.0
  0
LINE
  5
85C9
330
8504
100
AcDbEntity
  8
0
100
AcDbLine
 10
-1.119214430442986
 20
-1.10907076984454
 30
0.0
 11
-1.372099689272444
 21
-0.4646875140033524
 31
0.0
  0
LINE
  5
85CA
330
8504
100
AcDbEntity
  8
0
100
AcDbLine
 10
1.119214430442986
 20
-1.10907076984454
 30
0.0
 11
1.372099689272444
 21
-0.4646875140033524
 31
0.0
  0
SPLINE
  5
85CB
330
8504
100
AcDbEntity
  8
0
100
AcDbSpline
210
0.0
220
0.0
230
1.0
 70
     8
 71
     3
 72
    12
 73
     8
 74
     0
 42
0.000000001
 43
0.0000000001
 40
2.133378146126231
 40
2.133378146126231
 40
2.133378146126231
 40
2.133378146126231
 40
2.389609635571444
 40
2.389609635571444
 40
2.624910724842971
 40
2.624910724842971
 40
2.789683592855232
 40
2.789683592855232
 40
2.789683592855232
 40
2.789683592855232
 10
-1.372099689272429
 20
0.5559332121562877
 30
0.0
 10
-1.408019039688498
 20
0.6474602077429071
 30
0.0
 10
-1.425165807494174
 20
0.7480102864081273
 30
0.0
 10
-1.414122129478596
 20
0.9387530502765351
 30
0.0
 10
-1.389810484648447
 20
1.02823777662977
 30
0.0
 10
-1.323991246108932
 20
1.166233396709817
 30
0.0
 10
-1.2900076932318
 20
1.219172666922188
 30
0.0
 10
-1.250961335193171
 20
1.267878267103794
 30
0.0
  0
SPLINE
  5
85CC
330
8504
100
AcDbEntity
  8
0
100
AcDbSpline
210
0.0
220
0.0
230
1.0
 70
     8
 71
     3
 72
    12
 73
     8
 74
     0
 42
0.000000001
 43
0.0000000001
 40
5.064298041119249
 40
5.064298041119249
 40
5.064298041119249
 40
5.064298041119249
 40
5.304566443598969
 40
5.304566443598969
 40
5.555691135867591
 40
5.555691135867591
 40
5.720603487848251
 40
5.720603487848251
 40
5.720603487848251
 40
5.720603487848251
 10
1.25096133519317
 20
1.267878267103803
 30
0.0
 10
1.307897930287784
 20
1.196856764057678
 30
0.0
 10
1.35413865056709
 20
1.116560449540271
 30
0.0
 10
1.41482411543596
 20
0.937492385803762
 30
0.0
 10
1.426901821155361
 20
0.8381324315273497
 30
0.0
 10
1.410757813854938
 20
0.6773433873746582
 30
0.0
 10
1.395217630675951
 20
0.6148406171149646
 30
0.0
 10
1.37209968927243
 20
0.5559332121562966
 30
0.0
  0
LINE
  5
85CD
330
8504
100
AcDbEntity
  8
0
100
AcDbLine
 10
-1.119214430442986
 20
-0.0884500436848823
 30
0.0
 11
-1.372099689272444
 21
0.5559332121563055
 31
0.0
  0
LINE
  5
85CE
330
8504
100
AcDbEntity
  8
0
100
AcDbLine
 10
1.119214430442986
 20
-0.0884500436848823
 30
0.0
 11
1.372099689272444
 21
0.5559332121563055
 31
0.0
  0
SPLINE
  5
85CF
330
8504
100
AcDbEntity
  8
0
100
AcDbSpline
210
0.0
220
0.0
230
1.0
 70
     8
 71
     3
 72
    12
 73
     8
 74
     0
 42
0.000000001
 43
0.0000000001
 40
2.133378146126231
 40
2.133378146126231
 40
2.133378146126231
 40
2.133378146126231
 40
2.389609635571444
 40
2.389609635571444
 40
2.624910724842971
 40
2.624910724842971
 40
2.789683592855232
 40
2.789683592855232
 40
2.789683592855232
 40
2.789683592855232
 10
-1.372099689272429
 20
1.576553938315945
 30
0.0
 10
-1.408019039688498
 20
1.668080933902564
 30
0.0
 10
-1.425165807494174
 20
1.768631012567785
 30
0.0
 10
-1.414122129478596
 20
1.959373776436192
 30
0.0
 10
-1.389810484648447
 20
2.048858502789427
 30
0.0
 10
-1.323991246108932
 20
2.186854122869474
 30
0.0
 10
-1.2900076932318
 20
2.239793393081845
 30
0.0
 10
-1.250961335193171
 20
2.288498993263452
 30
0.0
  0
SPLINE
  5
85D0
330
8504
100
AcDbEntity
  8
0
100
AcDbSpline
210
0.0
220
0.0
230
1.0
 70
     8
 71
     3
 72
    12
 73
     8
 74
     0
 42
0.000000001
 43
0.0000000001
 40
5.064298041119249
 40
5.064298041119249
 40
5.064298041119249
 40
5.064298041119249
 40
5.304566443598969
 40
5.304566443598969
 40
5.555691135867591
 40
5.555691135867591
 40
5.720603487848251
 40
5.720603487848251
 40
5.720603487848251
 40
5.720603487848251
 10
1.25096133519317
 20
2.288498993263456
 30
0.0
 10
1.307897930287784
 20
2.217477490217336
 30
0.0
 10
1.35413865056709
 20
2.137181175699929
 30
0.0
 10
1.41482411543596
 20
1.958113111963419
 30
0.0
 10
1.426901821155361
 20
1.858753157687007
 30
0.0
 10
1.410757813854938
 20
1.697964113534315
 30
0.0
 10
1.395217630675951
 20
1.635461343274622
 30
0.0
 10
1.37209968927243
 20
1.576553938315954
 30
0.0
  0
LINE
  5
85D1
330
8504
100
AcDbEntity
  8
0
100
AcDbLine
 10
-1.119214430442986
 20
0.9321706824747755
 30
0.0
 11
-1.372099689272444
 21
1.576553938315963
 31
0.0
  0
LINE
  5
85D2
330
8504
100
AcDbEntity
  8
0
100
AcDbLine
 10
1.119214430442986
 20
0.9321706824747755
 30
0.0
 11
1.372099689272444
 21
1.576553938315963
 31
0.0
  0
SPLINE
  5
85D3
330
8504
100
AcDbEntity
  8
0
100
AcDbSpline
210
0.0
220
0.0
230
1.0
 70
     8
 71
     3
 72
    12
 73
     8
 74
     0
 42
0.000000001
 43
0.0000000001
 40
2.133378146126231
 40
2.133378146126231
 40
2.133378146126231
 40
2.133378146126231
 40
2.389609635571444
 40
2.389609635571444
 40
2.624910724842971
 40
2.624910724842971
 40
2.789683592855232
 40
2.789683592855232
 40
2.789683592855232
 40
2.789683592855232
 10
-1.372099689272429
 20
2.597174664475603
 30
0.0
 10
-1.408019039688498
 20
2.688701660062222
 30
0.0
 10
-1.425165807494174
 20
2.789251738727442
 30
0.0
 10
-1.414122129478596
 20
2.97999450259585
 30
0.0
 10
-1.389810484648447
 20
3.069479228949085
 30
0.0
 10
-1.323991246108932
 20
3.207474849029132
 30
0.0
 10
-1.2900076932318
 20
3.260414119241503
 30
0.0
 10
-1.250961335193171
 20
3.30911971942311
 30
0.0
  0
SPLINE
  5
85D4
330
8504
100
AcDbEntity
  8
0
100
AcDbSpline
210
0.0
220
0.0
230
1.0
 70
     8
 71
     3
 72
    12
 73
     8
 74
     0
 42
0.000000001
 43
0.0000000001
 40
5.064298041119249
 40
5.064298041119249
 40
5.064298041119249
 40
5.064298041119249
 40
5.304566443598969
 40
5.304566443598969
 40
5.555691135867591
 40
5.555691135867591
 40
5.720603487848251
 40
5.720603487848251
 40
5.720603487848251
 40
5.720603487848251
 10
1.25096133519317
 20
3.309119719423119
 30
0.0
 10
1.307897930287784
 20
3.238098216376994
 30
0.0
 10
1.35413865056709
 20
3.157801901859587
 30
0.0
 10
1.41482411543596
 20
2.978733838123077
 30
0.0
 10
1.426901821155361
 20
2.879373883846665
 30
0.0
 10
1.410757813854938
 20
2.718584839693973
 30
0.0
 10
1.395217630675951
 20
2.65608206943428
 30
0.0
 10
1.37209968927243
 20
2.597174664475612
 30
0.0
  0
LINE
  5
85D5
330
8504
100
AcDbEntity
  8
0
100
AcDbLine
 10
-1.119214430442986
 20
1.952791408634433
 30
0.0
 11
-1.372099689272444
 21
2.597174664475621
 31
0.0
  0
LINE
  5
85D6
330
8504
100
AcDbEntity
  8
0
100
AcDbLine
 10
1.119214430442986
 20
1.952791408634433
 30
0.0
 11
1.372099689272444
 21
2.597174664475621
 31
0.0
  0
SPLINE
  5
85D7
330
8504
100
AcDbEntity
  8
0
100
AcDbSpline
210
0.0
220
0.0
230
1.0
 70
     8
 71
     3
 72
    12
 73
     8
 74
     0
 42
0.000000001
 43
0.0000000001
 40
2.133378146126231
 40
2.133378146126231
 40
2.133378146126231
 40
2.133378146126231
 40
2.389609635571444
 40
2.389609635571444
 40
2.624910724842971
 40
2.624910724842971
 40
2.789683592855232
 40
2.789683592855232
 40
2.789683592855232
 40
2.789683592855232
 10
-1.372099689272429
 20
3.617795390635263
 30
0.0
 10
-1.408019039688498
 20
3.70932238622188
 30
0.0
 10
-1.425165807494174
 20
3.809872464887103
 30
0.0
 10
-1.414122129478596
 20
4.000615228755506
 30
0.0
 10
-1.389810484648447
 20
4.09009995510874
 30
0.0
 10
-1.323991246108932
 20
4.22809557518879
 30
0.0
 10
-1.2900076932318
 20
4.281034845401158
 30
0.0
 10
-1.250961335193171
 20
4.329740445582772
 30
0.0
  0
SPLINE
  5
85D8
330
8504
100
AcDbEntity
  8
0
100
AcDbSpline
210
0.0
220
0.0
230
1.0
 70
     8
 71
     3
 72
    12
 73
     8
 74
     0
 42
0.000000001
 43
0.0000000001
 40
5.064298041119249
 40
5.064298041119249
 40
5.064298041119249
 40
5.064298041119249
 40
5.304566443598969
 40
5.304566443598969
 40
5.555691135867591
 40
5.555691135867591
 40
5.720603487848251
 40
5.720603487848251
 40
5.720603487848251
 40
5.720603487848251
 10
1.25096133519317
 20
4.329740445582777
 30
0.0
 10
1.307897930287784
 20
4.258718942536647
 30
0.0
 10
1.35413865056709
 20
4.178422628019246
 30
0.0
 10
1.41482411543596
 20
3.999354564282739
 30
0.0
 10
1.426901821155361
 20
3.89999461000632
 30
0.0
 10
1.410757813854938
 20
3.739205565853636
 30
0.0
 10
1.395217630675951
 20
3.67670279559394
 30
0.0
 10
1.37209968927243
 20
3.617795390635267
 30
0.0
  0
LINE
  5
85D9
330
8504
100
AcDbEntity
  8
0
100
AcDbLine
 10
-1.119214430442986
 20
2.973412134794091
 30
0.0
 11
-1.372099689272444
 21
3.617795390635281
 31
0.0
  0
LINE
  5
85DA
330
8504
100
AcDbEntity
  8
0
100
AcDbLine
 10
1.119214430442986
 20
2.973412134794091
 30
0.0
 11
1.372099689272444
 21
3.617795390635281
 31
0.0
  0
SPLINE
  5
85DB
330
8504
100
AcDbEntity
  8
0
100
AcDbSpline
210
0.0
220
0.0
230
1.0
 70
     8
 71
     3
 72
    12
 73
     8
 74
     0
 42
0.000000001
 43
0.0000000001
 40
2.133378146126231
 40
2.133378146126231
 40
2.133378146126231
 40
2.133378146126231
 40
2.389609635571444
 40
2.389609635571444
 40
2.624910724842971
 40
2.624910724842971
 40
2.789683592855232
 40
2.789683592855232
 40
2.789683592855232
 40
2.789683592855232
 10
-1.372099689272429
 20
4.638416116794921
 30
0.0
 10
-1.408019039688498
 20
4.729943112381538
 30
0.0
 10
-1.425165807494174
 20
4.830493191046761
 30
0.0
 10
-1.414122129478596
 20
5.021235954915164
 30
0.0
 10
-1.389810484648447
 20
5.110720681268398
 30
0.0
 10
-1.323991246108932
 20
5.248716301348448
 30
0.0
 10
-1.2900076932318
 20
5.301655571560816
 30
0.0
 10
-1.250961335193171
 20
5.35036117174243
 30
0.0
  0
SPLINE
  5
85DC
330
8504
100
AcDbEntity
  8
0
100
AcDbSpline
210
0.0
220
0.0
230
1.0
 70
     8
 71
     3
 72
    12
 73
     8
 74
     0
 42
0.000000001
 43
0.0000000001
 40
5.064298041119249
 40
5.064298041119249
 40
5.064298041119249
 40
5.064298041119249
 40
5.304566443598969
 40
5.304566443598969
 40
5.555691135867591
 40
5.555691135867591
 40
5.720603487848251
 40
5.720603487848251
 40
5.720603487848251
 40
5.720603487848251
 10
1.25096133519317
 20
5.350361171742434
 30
0.0
 10
1.307897930287784
 20
5.279339668696305
 30
0.0
 10
1.35413865056709
 20
5.199043354178904
 30
0.0
 10
1.41482411543596
 20
5.019975290442397
 30
0.0
 10
1.426901821155361
 20
4.920615336165978
 30
0.0
 10
1.410757813854938
 20
4.759826292013293
 30
0.0
 10
1.395217630675951
 20
4.697323521753597
 30
0.0
 10
1.37209968927243
 20
4.638416116794925
 30
0.0
  0
LINE
  5
85DD
330
8504
100
AcDbEntity
  8
0
100
AcDbLine
 10
-1.119214430442986
 20
3.994032860953748
 30
0.0
 11
-1.372099689272444
 21
4.638416116794939
 31
0.0
  0
LINE
  5
85DE
330
8504
100
AcDbEntity
  8
0
100
AcDbLine
 10
1.119214430442986
 20
3.994032860953748
 30
0.0
 11
1.372099689272444
 21
4.638416116794939
 31
0.0
  0
SPLINE
  5
85DF
330
8504
100
AcDbEntity
  8
0
100
AcDbSpline
210
0.0
220
0.0
230
1.0
 70
     8
 71
     3
 72
    12
 73
     8
 74
     0
 42
0.000000001
 43
0.0000000001
 40
2.133378146126231
 40
2.133378146126231
 40
2.133378146126231
 40
2.133378146126231
 40
2.389609635571444
 40
2.389609635571444
 40
2.624910724842971
 40
2.624910724842971
 40
2.789683592855232
 40
2.789683592855232
 40
2.789683592855232
 40
2.789683592855232
 10
-1.372099689272429
 20
5.659036842954579
 30
0.0
 10
-1.408019039688498
 20
5.750563838541196
 30
0.0
 10
-1.425165807494174
 20
5.851113917206419
 30
0.0
 10
-1.414122129478596
 20
6.041856681074822
 30
0.0
 10
-1.389810484648447
 20
6.131341407428056
 30
0.0
 10
-1.323991246108932
 20
6.269337027508106
 30
0.0
 10
-1.2900076932318
 20
6.322276297720474
 30
0.0
 10
-1.250961335193171
 20
6.370981897902088
 30
0.0
  0
SPLINE
  5
85E0
330
8504
100
AcDbEntity
  8
0
100
AcDbSpline
210
0.0
220
0.0
230
1.0
 70
     8
 71
     3
 72
    12
 73
     8
 74
     0
 42
0.000000001
 43
0.0000000001
 40
5.064298041119249
 40
5.064298041119249
 40
5.064298041119249
 40
5.064298041119249
 40
5.304566443598969
 40
5.304566443598969
 40
5.555691135867591
 40
5.555691135867591
 40
5.720603487848251
 40
5.720603487848251
 40
5.720603487848251
 40
5.720603487848251
 10
1.25096133519317
 20
6.370981897902092
 30
0.0
 10
1.307897930287784
 20
6.299960394855963
 30
0.0
 10
1.35413865056709
 20
6.219664080338562
 30
0.0
 10
1.41482411543596
 20
6.040596016602055
 30
0.0
 10
1.426901821155361
 20
5.941236062325636
 30
0.0
 10
1.410757813854938
 20
5.780447018172951
 30
0.0
 10
1.395217630675951
 20
5.717944247913255
 30
0.0
 10
1.37209968927243
 20
5.659036842954582
 30
0.0
  0
LINE
  5
85E1
330
8504
100
AcDbEntity
  8
0
100
AcDbLine
 10
-1.119214430442986
 20
5.014653587113406
 30
0.0
 11
-1.372099689272444
 21
5.659036842954597
 31
0.0
  0
LINE
  5
85E2
330
8504
100
AcDbEntity
  8
0
100
AcDbLine
 10
1.119214430442986
 20
5.014653587113406
 30
0.0
 11
1.372099689272444
 21
5.659036842954597
 31
0.0
  0
SPLINE
  5
85E3
330
8504
100
AcDbEntity
  8
0
100
AcDbSpline
210
0.0
220
0.0
230
1.0
 70
     8
 71
     3
 72
    12
 73
     8
 74
     0
 42
0.000000001
 43
0.0000000001
 40
2.133378146126231
 40
2.133378146126231
 40
2.133378146126231
 40
2.133378146126231
 40
2.389609635571444
 40
2.389609635571444
 40
2.624910724842971
 40
2.624910724842971
 40
2.789683592855232
 40
2.789683592855232
 40
2.789683592855232
 40
2.789683592855232
 10
-1.372099689272429
 20
6.679657569114237
 30
0.0
 10
-1.408019039688498
 20
6.771184564700853
 30
0.0
 10
-1.425165807494174
 20
6.871734643366076
 30
0.0
 10
-1.414122129478596
 20
7.06247740723448
 30
0.0
 10
-1.389810484648447
 20
7.151962133587714
 30
0.0
 10
-1.323991246108932
 20
7.289957753667763
 30
0.0
 10
-1.2900076932318
 20
7.342897023880132
 30
0.0
 10
-1.250961335193171
 20
7.391602624061746
 30
0.0
  0
SPLINE
  5
85E4
330
8504
100
AcDbEntity
  8
0
100
AcDbSpline
210
0.0
220
0.0
230
1.0
 70
     8
 71
     3
 72
    12
 73
     8
 74
     0
 42
0.000000001
 43
0.0000000001
 40
5.064298041119249
 40
5.064298041119249
 40
5.064298041119249
 40
5.064298041119249
 40
5.304566443598969
 40
5.304566443598969
 40
5.555691135867591
 40
5.555691135867591
 40
5.720603487848251
 40
5.720603487848251
 40
5.720603487848251
 40
5.720603487848251
 10
1.25096133519317
 20
7.391602624061746
 30
0.0
 10
1.307897930287784
 20
7.320581121015621
 30
0.0
 10
1.35413865056709
 20
7.24028480649822
 30
0.0
 10
1.41482411543596
 20
7.061216742761713
 30
0.0
 10
1.426901821155361
 20
6.961856788485293
 30
0.0
 10
1.410757813854938
 20
6.801067744332609
 30
0.0
 10
1.395217630675951
 20
6.738564974072913
 30
0.0
 10
1.37209968927243
 20
6.67965756911424
 30
0.0
  0
LINE
  5
85E5
330
8504
100
AcDbEntity
  8
0
100
AcDbLine
 10
-1.119214430442986
 20
6.035274313273064
 30
0.0
 11
-1.372099689272444
 21
6.679657569114255
 31
0.0
  0
LINE
  5
85E6
330
8504
100
AcDbEntity
  8
0
100
AcDbLine
 10
1.119214430442986
 20
6.035274313273064
 30
0.0
 11
1.372099689272444
 21
6.679657569114255
 31
0.0
  0
SPLINE
  5
85E7
330
8504
100
AcDbEntity
  8
0
100
AcDbSpline
210
0.0
220
0.0
230
1.0
 70
     8
 71
     3
 72
    12
 73
     8
 74
     0
 42
0.000000001
 43
0.0000000001
 40
2.133378146126231
 40
2.133378146126231
 40
2.133378146126231
 40
2.133378146126231
 40
2.389609635571444
 40
2.389609635571444
 40
2.624910724842971
 40
2.624910724842971
 40
2.789683592855232
 40
2.789683592855232
 40
2.789683592855232
 40
2.789683592855232
 10
-1.372099689272429
 20
7.700278295273896
 30
0.0
 10
-1.408019039688498
 20
7.791805290860514
 30
0.0
 10
-1.425165807494174
 20
7.892355369525736
 30
0.0
 10
-1.414122129478596
 20
8.083098133394139
 30
0.0
 10
-1.389810484648447
 20
8.172582859747372
 30
0.0
 10
-1.323991246108932
 20
8.310578479827421
 30
0.0
 10
-1.2900076932318
 20
8.363517750039795
 30
0.0
 10
-1.250961335193171
 20
8.412223350221406
 30
0.0
  0
SPLINE
  5
85E8
330
8504
100
AcDbEntity
  8
0
100
AcDbSpline
210
0.0
220
0.0
230
1.0
 70
     8
 71
     3
 72
    12
 73
     8
 74
     0
 42
0.000000001
 43
0.0000000001
 40
5.06429804111925
 40
5.06429804111925
 40
5.06429804111925
 40
5.06429804111925
 40
5.304566443598969
 40
5.304566443598969
 40
5.555691135867591
 40
5.555691135867591
 40
5.720603487848251
 40
5.720603487848251
 40
5.720603487848251
 40
5.720603487848251
 10
1.250961335193171
 20
8.412223350221402
 30
0.0
 10
1.307897930287785
 20
8.34120184717528
 30
0.0
 10
1.35413865056709
 20
8.260905532657877
 30
0.0
 10
1.41482411543596
 20
8.081837468921373
 30
0.0
 10
1.426901821155361
 20
7.982477514644951
 30
0.0
 10
1.410757813854938
 20
7.821688470492267
 30
0.0
 10
1.395217630675951
 20
7.759185700232569
 30
0.0
 10
1.37209968927243
 20
7.700278295273896
 30
0.0
  0
LINE
  5
85E9
330
8504
100
AcDbEntity
  8
0
100
AcDbLine
 10
-1.119214430442986
 20
7.055895039432722
 30
0.0
 11
-1.372099689272444
 21
7.700278295273912
 31
0.0
  0
LINE
  5
85EA
330
8504
100
AcDbEntity
  8
0
100
AcDbLine
 10
1.119214430442986
 20
7.055895039432722
 30
0.0
 11
1.372099689272444
 21
7.700278295273912
 31
0.0
  0
SPLINE
  5
85EB
330
8504
100
AcDbEntity
  8
0
100
AcDbSpline
210
0.0
220
0.0
230
1.0
 70
     8
 71
     3
 72
    12
 73
     8
 74
     0
 42
0.000000001
 43
0.0000000001
 40
2.133378146126231
 40
2.133378146126231
 40
2.133378146126231
 40
2.133378146126231
 40
2.389609635571444
 40
2.389609635571444
 40
2.624910724842971
 40
2.624910724842971
 40
2.789683592855232
 40
2.789683592855232
 40
2.789683592855232
 40
2.789683592855232
 10
-1.372099689272429
 20
8.720899021433554
 30
0.0
 10
-1.408019039688498
 20
8.812426017020172
 30
0.0
 10
-1.425165807494174
 20
8.912976095685394
 30
0.0
 10
-1.414122129478596
 20
9.103718859553797
 30
0.0
 10
-1.389810484648447
 20
9.19320358590703
 30
0.0
 10
-1.323991246108932
 20
9.331199205987079
 30
0.0
 10
-1.2900076932318
 20
9.384138476199453
 30
0.0
 10
-1.250961335193171
 20
9.432844076381064
 30
0.0
  0
SPLINE
  5
85EC
330
8504
100
AcDbEntity
  8
0
100
AcDbSpline
210
0.0
220
0.0
230
1.0
 70
     8
 71
     3
 72
    12
 73
     8
 74
     0
 42
0.000000001
 43
0.0000000001
 40
5.06429804111925
 40
5.06429804111925
 40
5.06429804111925
 40
5.06429804111925
 40
5.304566443598969
 40
5.304566443598969
 40
5.555691135867591
 40
5.555691135867591
 40
5.720603487848251
 40
5.720603487848251
 40
5.720603487848251
 40
5.720603487848251
 10
1.250961335193171
 20
9.432844076381062
 30
0.0
 10
1.307897930287785
 20
9.361822573334938
 30
0.0
 10
1.35413865056709
 20
9.281526258817535
 30
0.0
 10
1.41482411543596
 20
9.10245819508103
 30
0.0
 10
1.426901821155361
 20
9.003098240804609
 30
0.0
 10
1.410757813854938
 20
8.842309196651925
 30
0.0
 10
1.395217630675951
 20
8.779806426392227
 30
0.0
 10
1.37209968927243
 20
8.720899021433554
 30
0.0
  0
LINE
  5
85ED
330
8504
100
AcDbEntity
  8
0
100
AcDbLine
 10
-1.119214430442986
 20
8.076515765592379
 30
0.0
 11
-1.372099689272444
 21
8.72089902143357
 31
0.0
  0
LINE
  5
85EE
330
8504
100
AcDbEntity
  8
0
100
AcDbLine
 10
1.119214430442986
 20
8.076515765592379
 30
0.0
 11
1.372099689272444
 21
8.72089902143357
 31
0.0
  0
SPLINE
  5
85EF
330
8504
100
AcDbEntity
  8
0
100
AcDbSpline
210
0.0
220
0.0
230
1.0
 70
     8
 71
     3
 72
    12
 73
     8
 74
     0
 42
0.000000001
 43
0.0000000001
 40
2.133378146126231
 40
2.133378146126231
 40
2.133378146126231
 40
2.133378146126231
 40
2.389609635571444
 40
2.389609635571444
 40
2.624910724842971
 40
2.624910724842971
 40
2.789683592855232
 40
2.789683592855232
 40
2.789683592855232
 40
2.789683592855232
 10
-1.372099689272429
 20
9.741519747593212
 30
0.0
 10
-1.408019039688498
 20
9.83304674317983
 30
0.0
 10
-1.425165807494174
 20
9.933596821845052
 30
0.0
 10
-1.414122129478596
 20
10.12433958571345
 30
0.0
 10
-1.389810484648447
 20
10.21382431206669
 30
0.0
 10
-1.323991246108932
 20
10.35181993214673
 30
0.0
 10
-1.2900076932318
 20
10.40475920235911
 30
0.0
 10
-1.250961335193171
 20
10.45346480254072
 30
0.0
  0
SPLINE
  5
85F0
330
8504
100
AcDbEntity
  8
0
100
AcDbSpline
210
0.0
220
0.0
230
1.0
 70
     8
 71
     3
 72
    12
 73
     8
 74
     0
 42
0.000000001
 43
0.0000000001
 40
5.06429804111925
 40
5.06429804111925
 40
5.06429804111925
 40
5.06429804111925
 40
5.304566443598969
 40
5.304566443598969
 40
5.555691135867591
 40
5.555691135867591
 40
5.720603487848251
 40
5.720603487848251
 40
5.720603487848251
 40
5.720603487848251
 10
1.250961335193171
 20
10.45346480254072
 30
0.0
 10
1.307897930287785
 20
10.38244329949459
 30
0.0
 10
1.35413865056709
 20
10.30214698497719
 30
0.0
 10
1.41482411543596
 20
10.12307892124069
 30
0.0
 10
1.426901821155361
 20
10.02371896696427
 30
0.0
 10
1.410757813854938
 20
9.862929922811582
 30
0.0
 10
1.395217630675951
 20
9.800427152551884
 30
0.0
 10
1.37209968927243
 20
9.741519747593212
 30
0.0
  0
LINE
  5
85F1
330
8504
100
AcDbEntity
  8
0
100
AcDbLine
 10
-1.119214430442986
 20
9.097136491752038
 30
0.0
 11
-1.372099689272444
 21
9.741519747593228
 31
0.0
  0
LINE
  5
85F2
330
8504
100
AcDbEntity
  8
0
100
AcDbLine
 10
1.119214430442986
 20
9.097136491752038
 30
0.0
 11
1.372099689272444
 21
9.741519747593228
 31
0.0
  0
SPLINE
  5
85F3
330
8504
100
AcDbEntity
  8
0
100
AcDbSpline
210
0.0
220
0.0
230
1.0
 70
     8
 71
     3
 72
    12
 73
     8
 74
     0
 42
0.000000001
 43
0.0000000001
 40
2.133378146126231
 40
2.133378146126231
 40
2.133378146126231
 40
2.133378146126231
 40
2.389609635571444
 40
2.389609635571444
 40
2.624910724842971
 40
2.624910724842971
 40
2.789683592855232
 40
2.789683592855232
 40
2.789683592855232
 40
2.789683592855232
 10
-1.372099689272429
 20
10.76214047375287
 30
0.0
 10
-1.408019039688498
 20
10.85366746933948
 30
0.0
 10
-1.425165807494174
 20
10.95421754800471
 30
0.0
 10
-1.414122129478596
 20
11.14496031187311
 30
0.0
 10
-1.389810484648447
 20
11.23444503822634
 30
0.0
 10
-1.323991246108932
 20
11.37244065830639
 30
0.0
 10
-1.2900076932318
 20
11.42537992851877
 30
0.0
 10
-1.250961335193171
 20
11.47408552870038
 30
0.0
  0
SPLINE
  5
85F4
330
8504
100
AcDbEntity
  8
0
100
AcDbSpline
210
0.0
220
0.0
230
1.0
 70
     8
 71
     3
 72
    12
 73
     8
 74
     0
 42
0.000000001
 43
0.0000000001
 40
5.06429804111925
 40
5.06429804111925
 40
5.06429804111925
 40
5.06429804111925
 40
5.304566443598969
 40
5.304566443598969
 40
5.555691135867591
 40
5.555691135867591
 40
5.720603487848251
 40
5.720603487848251
 40
5.720603487848251
 40
5.720603487848251
 10
1.250961335193171
 20
11.47408552870038
 30
0.0
 10
1.307897930287785
 20
11.40306402565425
 30
0.0
 10
1.35413865056709
 20
11.32276771113685
 30
0.0
 10
1.41482411543596
 20
11.14369964740034
 30
0.0
 10
1.426901821155361
 20
11.04433969312392
 30
0.0
 10
1.410757813854938
 20
10.88355064897124
 30
0.0
 10
1.395217630675951
 20
10.82104787871154
 30
0.0
 10
1.37209968927243
 20
10.76214047375287
 30
0.0
  0
LINE
  5
85F5
330
8504
100
AcDbEntity
  8
0
100
AcDbLine
 10
-1.119214430442986
 20
10.11775721791169
 30
0.0
 11
-1.372099689272444
 21
10.76214047375288
 31
0.0
  0
LINE
  5
85F6
330
8504
100
AcDbEntity
  8
0
100
AcDbLine
 10
1.119214430442986
 20
10.11775721791169
 30
0.0
 11
1.372099689272444
 21
10.76214047375288
 31
0.0
  0
SPLINE
  5
85F7
330
8504
100
AcDbEntity
  8
0
100
AcDbSpline
210
0.0
220
0.0
230
1.0
 70
     8
 71
     3
 72
    21
 73
    17
 74
     0
 42
0.000000001
 43
0.0000000001
 40
-0.0550230799112945
 40
-0.0550230799112945
 40
-0.0550230799112945
 40
-0.0550230799112945
 40
-0.0529604232693255
 40
-0.0529604232693255
 40
0.0
 40
0.0
 40
0.0
 40
0.0529604232693255
 40
0.0529604232693255
 40
0.0677374447000792
 40
0.0677374447000792
 40
0.0770271491255605
 40
0.0770271491255605
 40
0.0839886479741071
 40
0.0839886479741071
 40
0.0854684038178909
 40
0.0854684038178909
 40
0.0854684038178909
 40
0.0854684038178909
 10
-1.258681181065837
 20
-20.1750118888356
 30
0.0
 10
-1.259516017830088
 20
-20.17603518323885
 30
0.0
 10
-1.260303754317441
 20
-20.17718085052709
 30
0.0
 10
-1.27992955713013
 20
-20.21055437598055
 30
0.0
 10
-1.284603715197109
 20
-20.31755221745088
 30
0.0
 10
-1.284603715197109
 20
-20.41947459955402
 30
0.0
 10
-1.284603715197109
 20
-20.52139698165715
 30
0.0
 10
-1.279929557130131
 20
-20.65805248371773
 30
0.0
 10
-1.255768755247315
 20
-20.85243868771248
 30
0.0
 10
-1.247828082233627
 20
-20.90637522865313
 30
0.0
 10
-1.233494133405408
 20
-20.98414156346385
 30
0.0
 10
-1.22592372939512
 20
-21.02051767244474
 30
0.0
 10
-1.213327725071519
 20
-21.07174042078355
 30
0.0
 10
-1.206488751167214
 20
-21.09617608988752
 30
0.0
 10
-1.199493134817319
 20
-21.1172235625898
 30
0.0
 10
-1.198220460838535
 20
-21.12091307608928
 30
0.0
 10
-1.196933163090182
 20
-21.12448299430124
 30
0.0
  0
SPLINE
  5
85F8
330
8504
100
AcDbEntity
  8
0
100
AcDbSpline
210
0.0
220
0.0
230
1.0
 70
     8
 71
     3
 72
     8
 73
     4
 74
     0
 42
0.000000001
 43
0.0000000001
 40
0.0783287244175624
 40
0.0783287244175624
 40
0.0783287244175624
 40
0.0783287244175624
 40
0.0911903210561791
 40
0.0911903210561791
 40
0.0911903210561791
 40
0.0911903210561791
 10
-0.9651218279988309
 20
-21.91011015860349
 30
0.0
 10
-0.9614310763378174
 20
-21.94635766526208
 30
0.0
 10
-0.9560628832324448
 20
-21.98917828674953
 30
0.0
 10
-0.9499379772897277
 20
-22.02965316991286
 30
0.0
  0
SPLINE
  5
85F9
330
8504
100
AcDbEntity
  8
0
100
AcDbSpline
210
0.0
220
0.0
230
1.0
 70
    12
 71
     2
 72
     6
 73
     3
 74
     0
 42
0.000000001
 43
0.0000000001
 40
0.0
 40
0.0
 40
0.0
 40
0.024601465403381
 40
0.024601465403381
 40
0.024601465403381
 10
-0.9833913000327465
 20
-21.7165866059211
 30
0.0
 41
1.0
 10
-0.9757693375952223
 20
-21.80553913610162
 30
0.0
 41
1.003697416791516
 10
-0.9651218279988306
 20
-21.91011015860349
 30
0.0
 41
1.0
  0
SPLINE
  5
85FA
330
8504
100
AcDbEntity
  8
0
100
AcDbSpline
210
0.0
220
0.0
230
1.0
 70
    12
 71
     2
 72
     6
 73
     3
 74
     0
 42
0.000000001
 43
0.0000000001
 40
0.0
 40
0.0
 40
0.0
 40
0.0869423223517863
 40
0.0869423223517863
 40
0.0869423223517863
 10
-1.196933163090182
 20
-21.12448299430124
 30
0.0
 41
1.0
 10
-1.078300896142798
 20
-21.45347253137154
 30
0.0
 41
1.006163514384453
 10
-0.9833913000327465
 20
-21.7165866059211
 30
0.0
 41
1.0
  0
ELLIPSE
  5
85FB
330
8504
100
AcDbEntity
  8
0
100
AcDbEllipse
 10
0.0
 20
12.24744871391589
 30
0.0
 11
1.270535930223696
 21
0.0000000000000001
 31
0.0
210
0.0
220
0.0
230
1.0
 40
0.577350269189626
 41
2.961554139788495
 42
6.463223820980886
  0
ELLIPSE
  5
85FC
330
8504
100
AcDbEntity
  8
0
100
AcDbEllipse
 10
0.0
 20
12.25712944426202
 30
0.0
 11
-1.249999999999939
 21
-0.0000000000000001
 31
0.0
210
0.0
220
0.0
230
1.0
 40
0.5773502691896261
 41
0.0
 42
3.141592653589793
  0
ELLIPSE
  5
85FD
330
8504
100
AcDbEntity
  8
0
100
AcDbEllipse
 10
0.0
 20
11.96225261381679
 30
0.0
 11
1.406879191792096
 21
0.0
 31
0.0
210
0.0
220
0.0
230
1.0
 40
0.5773502691896261
 41
3.364408997655885
 42
6.060368963113496
  0
SPLINE
  5
85FE
330
8504
100
AcDbEntity
  8
0
100
AcDbSpline
210
0.0
220
0.0
230
1.0
 70
     8
 71
     3
 72
    12
 73
     8
 74
     0
 42
0.000000001
 43
0.0000000001
 40
2.133378146126231
 40
2.133378146126231
 40
2.133378146126231
 40
2.133378146126231
 40
2.389609635571444
 40
2.389609635571444
 40
2.624910724842971
 40
2.624910724842971
 40
2.791034399609335
 40
2.791034399609335
 40
2.791034399609335
 40
2.791034399609335
 10
-1.372099689272429
 20
11.78276119991253
 30
0.0
 10
-1.408019039688498
 20
11.87428819549914
 30
0.0
 10
-1.425165807494174
 20
11.97483827416436
 30
0.0
 10
-1.414122129478596
 20
12.16558103803277
 30
0.0
 10
-1.389810484648447
 20
12.255065764386
 30
0.0
 10
-1.323769014518121
 20
12.39352731185834
 30
0.0
 10
-1.289450867212941
 20
12.44686698369854
 30
0.0
 10
-1.249999999999939
 20
12.49590328269555
 30
0.0
  0
SPLINE
  5
85FF
330
8504
100
AcDbEntity
  8
0
100
AcDbSpline
210
0.0
220
0.0
230
1.0
 70
     8
 71
     3
 72
    12
 73
     8
 74
     0
 42
0.000000001
 43
0.0000000001
 40
5.062947234365148
 40
5.062947234365148
 40
5.062947234365148
 40
5.062947234365148
 40
5.304566443598969
 40
5.304566443598969
 40
5.555691135867591
 40
5.555691135867591
 40
5.720603487848251
 40
5.720603487848251
 40
5.720603487848251
 40
5.720603487848251
 10
1.249999999999939
 20
12.49590328269555
 30
0.0
 10
1.307379463541183
 20
12.42458225151757
 30
0.0
 10
1.353971830282685
 20
12.34388068342802
 30
0.0
 10
1.41482411543596
 20
12.16432037356
 30
0.0
 10
1.426901821155361
 20
12.06496041928358
 30
0.0
 10
1.410757813854938
 20
11.9041713751309
 30
0.0
 10
1.395217630675951
 20
11.8416686048712
 30
0.0
 10
1.37209968927243
 20
11.78276119991253
 30
0.0
  0
LINE
  5
8600
330
8504
100
AcDbEntity
  8
0
100
AcDbLine
 10
-1.119214430442986
 20
11.13837794407135
 30
0.0
 11
-1.372099689272444
 21
11.78276119991254
 31
0.0
  0
LINE
  5
8601
330
8504
100
AcDbEntity
  8
0
100
AcDbLine
 10
1.119214430442986
 20
11.13837794407135
 30
0.0
 11
1.372099689272444
 21
11.78276119991254
 31
0.0
  0
ELLIPSE
  5
8602
330
8504
100
AcDbEntity
  8
0
100
AcDbEllipse
 10
0.0
 20
23.43345187262575
 30
0.0
 11
-2.849999999999978
 21
0.0000000000000003
 31
0.0
210
0.0
220
0.0
230
0.9999999999999998
 40
0.577350269189626
 41
0.0000000000000007
 42
3.141592653589793
  0
ELLIPSE
  5
8603
330
8504
100
AcDbEntity
  8
0
100
AcDbEllipse
 10
0.0
 20
23.76676493223911
 30
0.0
 11
2.849999999999978
 21
0.0
 31
0.0
210
0.0
220
0.0
230
0.9999999999999998
 40
0.577350269189626
 41
0.0
 42
6.283185307179586
  0
LINE
  5
8604
330
8504
100
AcDbEntity
  8
0
100
AcDbLine
 10
-1.249999999999939
 20
12.25712944426202
 30
0.0
 11
-1.249999999999939
 21
21.95471367177116
 31
0.0
  0
LINE
  5
8605
330
8504
100
AcDbEntity
  8
0
100
AcDbLine
 10
1.249999999999939
 20
12.25712944426202
 30
0.0
 11
1.249999999999939
 21
21.95471367177116
 31
0.0
  0
LINE
  5
8606
330
8504
100
AcDbEntity
  8
0
100
AcDbLine
 10
-2.84999999999998
 20
23.43345187262575
 30
0.0
 11
-2.84999999999998
 21
23.76676493223911
 31
0.0
  0
LINE
  5
8607
330
8504
100
AcDbEntity
  8
0
100
AcDbLine
 10
2.84999999999998
 20
23.43345187262575
 30
0.0
 11
2.84999999999998
 21
23.76676493223911
 31
0.0
  0
ENDBLK
  5
8506
330
8504
100
AcDbEntity
  8
0
100
AcDbBlockEnd
  0
ENDSEC
  0
SECTION
  2
ENTITIES
  0
INSERT
  5
8608
330
1F
100
AcDbEntity
  8
0
100
AcDbBlockReference
  2
ARA425x60-Front
 10
0.0
 20
0.0
 30
0.0
  0
INSERT
  5
8609
330
1F
100
AcDbEntity
  8
0
100
AcDbBlockReference
  2
ARA425x60-Top
 10
0.0
 20
-79.54999999999998
 30
0.0
  0
INSERT
  5
860A
330
1F
100
AcDbEntity
  8
0
100
AcDbBlockReference
  2
ARA425x60-ISO
 10
23.69999999999996
 20
-102.1122131994295
 30
0.0
  0
MTEXT
  5
860B
330
1F
100
AcDbEntity
  8
0
100
AcDbMText
 10
0.0
 20
-100.3999999999999
 30
0.0
 40
2.779999999999997
 41
0.0
 71
     5
 72
     5
  1
ARA42.5x60
 73
     1
 44
1.0
1001
ACAD
1000
MTEXTBEGIN
1070
    73
1070
     1
1070
    44
1040
1.0
1070
    74
1070
     0
1000
MTEXTEND
  0
ENDSEC
  0
SECTION
  2
OBJECTS
  0
DICTIONARY
  5
C
330
0
100
AcDbDictionary
281
     1
  3
ACAD_CIP_PREVIOUS_PRODUCT_INFO
350
216
  3
ACAD_COLOR
350
6B
  3
ACAD_DETAILVIEWSTYLE
350
21B
  3
ACAD_GROUP
350
D
  3
ACAD_LAYOUT
350
1A
  3
ACAD_MATERIAL
350
6A
  3
ACAD_MLEADERSTYLE
350
12D
  3
ACAD_MLINESTYLE
350
17
  3
ACAD_PLOTSETTINGS
350
19
  3
ACAD_PLOTSTYLENAME
350
E
  3
ACAD_SCALELIST
350
10C
  3
ACAD_SECTIONVIEWSTYLE
350
219
  3
ACAD_TABLESTYLE
350
7E
  3
ACAD_VISUALSTYLE
350
EF
  3
ACDB_RECOMPOSE_DATA
350
870E
  3
AcDbVariableDictionary
350
5E
  3
DWGPROPS
350
870F
  0
DICTIONARY
  5
865E
330
8
100
AcDbDictionary
280
     1
281
     1
  0
DICTIONARY
  5
1FF
330
2
100
AcDbDictionary
280
     1
281
     1
  3
ACAD_LAYERSTATES
360
200
  0
DICTIONARY
  5
13C
330
10
100
AcDbDictionary
280
     1
281
     1
  0
DICTIONARY
  5
1CE
330
1F
100
AcDbDictionary
280
     1
281
     1
  3
ACAD_LAYOUTSELFREF
360
8666
  0
DICTIONARY
  5
860F
330
D2
100
AcDbDictionary
280
     1
281
     1
  3
ACAD_LAYOUTSELFREF
360
866F
  0
DICTIONARY
  5
8611
330
D6
100
AcDbDictionary
280
     1
281
     1
  3
ACAD_LAYOUTSELFREF
360
8672
  0
XRECORD
  5
216
102
{ACAD_REACTORS
330
C
102
}
330
C
100
AcDbXrecord
280
     1
300
ACD
300
2021
300
87393ACD_2021_0F
  0
DICTIONARY
  5
6B
102
{ACAD_REACTORS
330
C
102
}
330
C
100
AcDbDictionary
281
     1
  0
DICTIONARY
  5
21B
102
{ACAD_REACTORS
330
C
102
}
330
C
100
AcDbDictionary
281
     1
  3
Metric50
350
21C
  0
DICTIONARY
  5
D
102
{ACAD_REACTORS
330
C
102
}
330
C
100
AcDbDictionary
281
     1
  0
DICTIONARY
  5
1A
102
{ACAD_REACTORS
330
C
102
}
330
C
100
AcDbDictionary
281
     1
  3
Layout1
350
D3
  3
Layout2
350
D7
  3
Model
350
22
  0
DICTIONARY
  5
6A
102
{ACAD_REACTORS
330
C
102
}
330
C
100
AcDbDictionary
281
     1
  3
ByBlock
350
ED
  3
ByLayer
350
EC
  3
Global
350
EE
  0
DICTIONARY
  5
12D
102
{ACAD_REACTORS
330
C
102
}
330
C
100
AcDbDictionary
281
     1
  3
Standard
350
12E
  0
DICTIONARY
  5
17
102
{ACAD_REACTORS
330
C
102
}
330
C
100
AcDbDictionary
281
     1
  3
Standard
350
18
  0
DICTIONARY
  5
19
102
{ACAD_REACTORS
330
C
102
}
330
C
100
AcDbDictionary
281
     1
  0
ACDBDICTIONARYWDFLT
  5
E
102
{ACAD_REACTORS
330
C
102
}
330
C
100
AcDbDictionary
281
     1
  3
Normal
350
F
100
AcDbDictionaryWithDefault
340
F
  0
DICTIONARY
  5
10C
102
{ACAD_REACTORS
330
C
102
}
330
C
100
AcDbDictionary
281
     1
  3
A0
350
10D
  3
A1
350
1BE
  3
A2
350
1BF
  3
A3
350
1C0
  3
A4
350
1C1
  3
A5
350
1C2
  3
A6
350
1C3
  3
A7
350
1C4
  3
A8
350
1C5
  3
A9
350
1C6
  3
B0
350
1C7
  3
B1
350
1C8
  3
B2
350
1C9
  3
B3
350
1CA
  3
B4
350
1CB
  3
B5
350
1CC
  3
B6
350
1CD
  0
DICTIONARY
  5
219
102
{ACAD_REACTORS
330
C
102
}
330
C
100
AcDbDictionary
281
     1
  3
Metric50
350
21A
  0
DICTIONARY
  5
7E
102
{ACAD_REACTORS
330
C
102
}
330
C
100
AcDbDictionary
281
     1
  3
Standard
350
7F
  0
DICTIONARY
  5
EF
102
{ACAD_REACTORS
330
C
102
}
330
C
100
AcDbDictionary
281
     1
  3
2dWireframe
350
F5
  3
Basic
350
F4
  3
Brighten
350
FB
  3
ColorChange
350
FF
  3
Conceptual
350
F8
  3
Dim
350
FA
  3
EdgeColorOff
350
1E6
  3
Facepattern
350
FE
  3
Flat
350
F0
  3
FlatWithEdges
350
F1
  3
Gouraud
350
F2
  3
GouraudWithEdges
350
F3
  3
Hidden
350
F7
  3
JitterOff
350
1E4
  3
Linepattern
350
FD
  3
OverhangOff
350
1E5
  3
Realistic
350
F9
  3
Shaded
350
1F3
  3
Shaded with edges
350
1F2
  3
Shades of Gray
350
1EF
  3
Sketchy
350
1F0
  3
Thicken
350
FC
  3
Wireframe
350
F6
  3
X-Ray
350
1F1
  0
XRECORD
  5
870E
102
{ACAD_REACTORS
330
C
102
}
330
C
100
AcDbXrecord
280
     1
 90
        1
330
7F
  0
DICTIONARY
  5
5E
102
{ACAD_REACTORS
330
C
102
}
330
C
100
AcDbDictionary
281
     1
  3
CANNOSCALE
350
146
  3
CENTEREXE
350
259
  3
CENTERLTYPEFILE
350
25A
  3
CMLEADERSTYLE
350
145
  3
CTABLESTYLE
350
84
  3
CVIEWDETAILSTYLE
350
227
  3
CVIEWSECTIONSTYLE
350
228
  3
DIMASSOC
350
5F
  3
HIDETEXT
350
63
  3
INDEXCTL
350
86BB
  3
LAYEREVAL
350
1AE
  3
LAYERNOTIFY
350
1AF
  3
LIGHTINGUNITS
350
86B9
  3
MSLTSCALE
350
86B8
  3
PSOLHEIGHT
350
870B
  3
PSOLWIDTH
350
870A
  3
SORTENTS
350
86BA
  3
XCLIPFRAME
350
870C
  0
XRECORD
  5
870F
102
{ACAD_REACTORS
330
C
102
}
330
C
100
AcDbXrecord
280
     1
  1
DWGPROPS COOKIE
  2

  3

  4

  6

  7

  8
truole
  9

300
=
301
=
302
=
303
=
304
=
305
=
306
=
307
=
308
=
309
=
 40
0.0020717592592593
 41
2460733.571354167
 42
2460733.598587963
  1

 90
        0
  0
DICTIONARY
  5
200
102
{ACAD_REACTORS
330
1FF
102
}
330
1FF
100
AcDbDictionary
281
     1
  0
XRECORD
  5
8666
102
{ACAD_REACTORS
330
1CE
102
}
330
1CE
100
AcDbXrecord
280
     1
340
1F
  0
XRECORD
  5
866F
102
{ACAD_REACTORS
330
860F
102
}
330
860F
100
AcDbXrecord
280
     1
340
D2
  0
XRECORD
  5
8672
102
{ACAD_REACTORS
330
8611
102
}
330
8611
100
AcDbXrecord
280
     1
340
D6
  0
ACDBDETAILVIEWSTYLE
  5
21C
102
{ACAD_XDICTIONARY
360
874E
102
}
102
{ACAD_REACTORS
330
21B
102
}
330
21B
100
AcDbModelDocViewStyle
 70
     0
  3
Metric50
290
     0
100
AcDbDetailViewStyle
 70
     0
 71
     0
 90
        3
 71
     1
340
11
 40
5.0
340
0
 40
5.0
300

 40
0.0
280
     1
 71
     2
340
16
 90
       25
 71
     3
340
11
 40
5.0
 90
        0
 40
15.0
 90
        1
300
%<\AcVar ViewDetailId>% (%<\AcVar ViewScale \f "%sn">%)
 71
     4
340
16
 90
       25
340
16
 90
       25
280
     0
  0
LAYOUT
  5
D3
102
{ACAD_XDICTIONARY
360
8713
102
}
102
{ACAD_REACTORS
330
1A
102
}
330
1A
100
AcDbPlotSettings
  1

  2
C:\Documents and Settings\basas\Application Data\Autodesk\AutoCAD 2005\R16.1\enu\plotters\Default Windows System Printer.pc3
  4

  6

 40
0.0
 41
0.0
 42
0.0
 43
0.0
 44
0.0
 45
0.0
 46
0.0
 47
0.0
 48
0.0
 49
0.0
140
0.0
141
0.0
142
1.0
143
1.0
 70
   688
 72
     0
 73
     0
 74
     5
  7

 75
    16
147
1.0
148
0.0
149
0.0
100
AcDbLayout
  1
Layout1
 70
     1
 71
     1
 10
0.0
 20
0.0
 11
12.0
 21
9.0
 12
0.0
 22
0.0
 32
0.0
 14
0.0
 24
0.0
 34
0.0
 15
0.0
 25
0.0
 35
0.0
146
0.0
 13
0.0
 23
0.0
 33
0.0
 16
1.0
 26
0.0
 36
0.0
 17
0.0
 27
1.0
 37
0.0
 76
     0
330
D2
  0
LAYOUT
  5
D7
102
{ACAD_XDICTIONARY
360
8715
102
}
102
{ACAD_REACTORS
330
1A
102
}
330
1A
100
AcDbPlotSettings
  1

  2
C:\Documents and Settings\basas\Application Data\Autodesk\AutoCAD 2005\R16.1\enu\plotters\Default Windows System Printer.pc3
  4

  6

 40
0.0
 41
0.0
 42
0.0
 43
0.0
 44
0.0
 45
0.0
 46
0.0
 47
0.0
 48
0.0
 49
0.0
140
0.0
141
0.0
142
1.0
143
1.0
 70
   688
 72
     0
 73
     0
 74
     5
  7

 75
    16
147
1.0
148
0.0
149
0.0
100
AcDbLayout
  1
Layout2
 70
     1
 71
     2
 10
0.0
 20
0.0
 11
12.0
 21
9.0
 12
0.0
 22
0.0
 32
0.0
 14
0.0
 24
0.0
 34
0.0
 15
0.0
 25
0.0
 35
0.0
146
0.0
 13
0.0
 23
0.0
 33
0.0
 16
1.0
 26
0.0
 36
0.0
 17
0.0
 27
1.0
 37
0.0
 76
     0
330
D6
  0
LAYOUT
  5
22
102
{ACAD_XDICTIONARY
360
8710
102
}
102
{ACAD_REACTORS
330
1A
102
}
330
1A
100
AcDbPlotSettings
  1

  2
none_device
  4
ISO_A4_(210.00_x_297.00_MM)
  6

 40
7.5
 41
20.0
 42
7.5
 43
20.0
 44
210.0
 45
297.0
 46
11.54999923706054
 47
-13.65000009536743
 48
0.0
 49
0.0
140
0.0
141
0.0
142
1.0
143
8.704084754739808
 70
 11952
 72
     1
 73
     0
 74
     0
  7

 75
     0
147
0.1148885871608098
148
0.0
149
0.0
100
AcDbLayout
  1
Model
 70
     1
 71
     0
 10
0.0
 20
0.0
 11
12.0
 21
9.0
 12
0.0
 22
0.0
 32
0.0
 14
0.0
 24
0.0
 34
0.0
 15
0.0
 25
0.0
 35
0.0
146
0.0
 13
0.0
 23
0.0
 33
0.0
 16
1.0
 26
0.0
 36
0.0
 17
0.0
 27
1.0
 37
0.0
 76
     0
330
1F
331
EA
1001
ACAD_PSEXT
1000
None
1000
None
1000
Not applicable
1000
The layout will not be plotted unless a new plotter configuration name is selected.
1070
     0
  0
MATERIAL
  5
ED
102
{ACAD_XDICTIONARY
360
1F9
102
}
102
{ACAD_REACTORS
330
6A
102
}
330
6A
100
AcDbMaterial
  1
ByBlock
  0
MATERIAL
  5
EC
102
{ACAD_XDICTIONARY
360
1F7
102
}
102
{ACAD_REACTORS
330
6A
102
}
330
6A
100
AcDbMaterial
  1
ByLayer
  0
MATERIAL
  5
EE
102
{ACAD_XDICTIONARY
360
173
102
}
102
{ACAD_REACTORS
330
6A
102
}
330
6A
100
AcDbMaterial
  1
Global
 43
0.0007999999797903
 43
0.0
 43
0.0
 43
0.0
 43
0.0
 43
0.0007999999797903
 43
0.0
 43
0.0
 43
0.0
 43
0.0
 43
1.0
 43
0.0
 43
0.0
 43
0.0
 43
0.0
 43
1.0
 49
0.0007999999797903
 49
0.0
 49
0.0
 49
0.0
 49
0.0
 49
0.0007999999797903
 49
0.0
 49
0.0
 49
0.0
 49
0.0
 49
1.0
 49
0.0
 49
0.0
 49
0.0
 49
0.0
 49
1.0
142
0.0007999999797903
142
0.0
142
0.0
142
0.0
142
0.0
142
0.0007999999797903
142
0.0
142
0.0
142
0.0
142
0.0
142
1.0
142
0.0
142
0.0
142
0.0
142
0.0
142
1.0
144
0.0007999999797903
144
0.0
144
0.0
144
0.0
144
0.0
144
0.0007999999797903
144
0.0
144
0.0
144
0.0
144
0.0
144
1.0
144
0.0
144
0.0
144
0.0
144
0.0
144
1.0
1001
ACAD
1070
    -1
1070
     3
1070
     0
1000

1071
        0
1070
     0
  0
MLEADERSTYLE
  5
12E
102
{ACAD_XDICTIONARY
360
873A
102
}
102
{ACAD_REACTORS
330
12D
102
}
330
12D
100
AcDbMLeaderStyle
170
     2
171
     1
172
     0
 90
        2
 40
0.0
 41
0.0
173
     1
 91
-1056964608
340
14
 92
       -2
290
     1
 42
2.0
291
     1
 43
8.0
  3
Standard
 44
4.0
300

342
11
174
     1
178
     1
175
     1
176
     0
 93
-1056964608
 45
4.0
292
     0
297
     0
 46
4.0
 94
-1056964608
 47
1.0
 49
1.0
140
1.0
293
     1
141
0.0
294
     1
177
     0
142
1.0
295
     0
296
     0
143
3.75
1001
ACAD_MLEADERVER
1070
     2
  0
MLINESTYLE
  5
18
102
{ACAD_REACTORS
330
17
102
}
330
17
100
AcDbMlineStyle
  2
STANDARD
 70
     0
  3

 62
   256
 51
90.0
 52
90.0
 71
     2
 49
0.5
 62
   256
  6
BYLAYER
 49
-0.5
 62
   256
  6
BYLAYER
  0
ACDBPLACEHOLDER
  5
F
102
{ACAD_REACTORS
330
E
102
}
330
E
  0
SCALE
  5
10D
102
{ACAD_REACTORS
330
10C
102
}
330
10C
100
AcDbScale
 70
     0
300
1:1
140
1.0
141
1.0
290
     1
  0
SCALE
  5
1BE
102
{ACAD_REACTORS
330
10C
102
}
330
10C
100
AcDbScale
 70
     0
300
1:2
140
1.0
141
2.0
290
     0
  0
SCALE
  5
1BF
102
{ACAD_REACTORS
330
10C
102
}
330
10C
100
AcDbScale
 70
     0
300
1:4
140
1.0
141
4.0
290
     0
  0
SCALE
  5
1C0
102
{ACAD_REACTORS
330
10C
102
}
330
10C
100
AcDbScale
 70
     0
300
1:5
140
1.0
141
5.0
290
     0
  0
SCALE
  5
1C1
102
{ACAD_REACTORS
330
10C
102
}
330
10C
100
AcDbScale
 70
     0
300
1:8
140
1.0
141
8.0
290
     0
  0
SCALE
  5
1C2
102
{ACAD_REACTORS
330
10C
102
}
330
10C
100
AcDbScale
 70
     0
300
1:10
140
1.0
141
10.0
290
     0
  0
SCALE
  5
1C3
102
{ACAD_REACTORS
330
10C
102
}
330
10C
100
AcDbScale
 70
     0
300
1:16
140
1.0
141
16.0
290
     0
  0
SCALE
  5
1C4
102
{ACAD_REACTORS
330
10C
102
}
330
10C
100
AcDbScale
 70
     0
300
1:20
140
1.0
141
20.0
290
     0
  0
SCALE
  5
1C5
102
{ACAD_REACTORS
330
10C
102
}
330
10C
100
AcDbScale
 70
     0
300
1:30
140
1.0
141
30.0
290
     0
  0
SCALE
  5
1C6
102
{ACAD_REACTORS
330
10C
102
}
330
10C
100
AcDbScale
 70
     0
300
1:40
140
1.0
141
40.0
290
     0
  0
SCALE
  5
1C7
102
{ACAD_REACTORS
330
10C
102
}
330
10C
100
AcDbScale
 70
     0
300
1:50
140
1.0
141
50.0
290
     0
  0
SCALE
  5
1C8
102
{ACAD_REACTORS
330
10C
102
}
330
10C
100
AcDbScale
 70
     0
300
1:100
140
1.0
141
100.0
290
     0
  0
SCALE
  5
1C9
102
{ACAD_REACTORS
330
10C
102
}
330
10C
100
AcDbScale
 70
     0
300
2:1
140
2.0
141
1.0
290
     0
  0
SCALE
  5
1CA
102
{ACAD_REACTORS
330
10C
102
}
330
10C
100
AcDbScale
 70
     0
300
4:1
140
4.0
141
1.0
290
     0
  0
SCALE
  5
1CB
102
{ACAD_REACTORS
330
10C
102
}
330
10C
100
AcDbScale
 70
     0
300
8:1
140
8.0
141
1.0
290
     0
  0
SCALE
  5
1CC
102
{ACAD_REACTORS
330
10C
102
}
330
10C
100
AcDbScale
 70
     0
300
10:1
140
10.0
141
1.0
290
     0
  0
SCALE
  5
1CD
102
{ACAD_REACTORS
330
10C
102
}
330
10C
100
AcDbScale
 70
     0
300
100:1
140
100.0
141
1.0
290
     0
  0
ACDBSECTIONVIEWSTYLE
  5
21A
102
{ACAD_XDICTIONARY
360
874C
102
}
102
{ACAD_REACTORS
330
219
102
}
330
219
100
AcDbModelDocViewStyle
 70
     0
  3
Metric50
290
     0
100
AcDbSectionViewStyle
 70
     0
 71
     0
 90
      102
 71
     1
340
11
 40
5.0
340
0
340
0
 40
5.0
300
I, O, Q, S, X, Z
 40
10.0
 90
        0
 40
2.5
 90
        0
 71
     2
340
16
 90
       25
340
16
 90
       50
 40
5.0
 40
2.5
 40
5.0
 71
     3
340
11
 40
5.0
 90
        0
 40
15.0
 90
        1
300
%<\AcVar ViewSectionStartId>%-%<\AcVar ViewSectionEndId>% (%<\AcVar ViewScale \f "%sn">%)
 71
     4
300
ANSI31
 40
1.0
 90
        0
290
     0
290
     0
 90
        6
 40
0.0
 40
1.570796326794896
 40
0.2617993877991494
 40
1.308996938995747
 40
-0.2617993877991494
 40
1.832595714594046
  0
TABLESTYLE
  5
7F
102
{ACAD_XDICTIONARY
360
162
102
}
102
{ACAD_REACTORS
330
7E
102
}
330
7E
100
AcDbTableStyle
  3
Standard
 70
     0
 71
     0
 40
1.5
 41
1.5
280
     0
281
     0
  7
Standard
140
4.5
170
     2
 62
     0
 63
     7
283
     0
274
    -2
284
     1
 64
     0
275
    -2
285
     1
 65
     0
276
    -2
286
     1
 66
     0
277
    -2
287
     1
 67
     0
278
    -2
288
     1
 68
     0
279
    -2
289
     1
 69
     0
  7
Standard
140
6.0
170
     5
 62
     0
 63
     7
283
     0
274
    -2
284
     1
 64
     0
275
    -2
285
     1
 65
     0
276
    -2
286
     1
 66
     0
277
    -2
287
     1
 67
     0
278
    -2
288
     1
 68
     0
279
    -2
289
     1
 69
     0
  7
Standard
140
4.5
170
     5
 62
     0
 63
     7
283
     0
274
    -2
284
     1
 64
     0
275
    -2
285
     1
 65
     0
276
    -2
286
     1
 66
     0
277
    -2
287
     1
 67
     0
278
    -2
288
     1
 68
     0
279
    -2
289
     1
 69
     0
  0
VISUALSTYLE
  5
F5
102
{ACAD_XDICTIONARY
360
8724
102
}
102
{ACAD_REACTORS
330
EF
102
}
330
EF
100
AcDbVisualStyle
  2
2dWireframe
 70
     4
 71
     0
 72
     2
 73
     1
 90
        0
 40
-0.6
 41
-30.0
 62
     5
 63
     7
 74
     1
 91
        4
 64
     7
 65
   257
 75
     1
175
     1
 42
1.0
 92
        0
 66
   257
 43
1.0
 76
     1
 77
     6
 78
     2
 67
     7
 79
     5
170
     0
171
     0
290
     0
174
     0
 93
        1
 44
0.0
173
     0
291
     0
 45
0.0
1001
ACAD
1000
AcDbSavedByObjectVersion
1070
     0
  0
VISUALSTYLE
  5
F4
102
{ACAD_XDICTIONARY
360
8722
102
}
102
{ACAD_REACTORS
330
EF
102
}
330
EF
100
AcDbVisualStyle
  2
Basic
 70
     7
 71
     1
 72
     0
 73
     1
 90
        0
 40
-0.6
 41
-30.0
 62
     5
 63
     7
 74
     0
 91
        4
 64
     7
 65
   257
 75
     1
175
     1
 42
1.0
 92
        8
 66
     7
 43
1.0
 76
     1
 77
     6
 78
     2
 67
     7
 79
     5
170
     0
171
     0
290
     0
174
     0
 93
        1
 44
0.0
173
     0
291
     1
 45
0.0
1001
ACAD
1000
AcDbSavedByObjectVersion
1070
     0
  0
VISUALSTYLE
  5
FB
102
{ACAD_XDICTIONARY
360
8730
102
}
102
{ACAD_REACTORS
330
EF
102
}
330
EF
100
AcDbVisualStyle
  2
Brighten
 70
    12
 71
     2
 72
     2
 73
     1
 90
        0
 40
-0.6
 41
-30.0
 62
     5
 63
     7
 74
     1
 91
        4
 64
     7
 65
   257
 75
     1
175
     1
 42
1.0
 92
        8
 66
     7
 43
1.0
 76
     1
 77
     6
 78
     2
 67
     7
 79
     5
170
     0
171
     0
290
     0
174
     0
 93
        1
 44
50.0
173
     0
291
     1
 45
0.0
1001
ACAD
1000
AcDbSavedByObjectVersion
1070
     0
  0
VISUALSTYLE
  5
FF
102
{ACAD_XDICTIONARY
360
8738
102
}
102
{ACAD_REACTORS
330
EF
102
}
330
EF
100
AcDbVisualStyle
  2
ColorChange
 70
    16
 71
     2
 72
     2
 73
     3
 90
        0
 40
-0.6
 41
-30.0
 62
     5
 63
     8
 74
     1
 91
        4
 64
     7
 65
   257
 75
     1
175
     1
 42
1.0
 92
        8
 66
     8
 43
1.0
 76
     1
 77
     6
 78
     2
 67
     7
 79
     5
170
     0
171
     0
290
     0
174
     0
 93
        1
 44
0.0
173
     0
291
     1
 45
0.0
1001
ACAD
1000
AcDbSavedByObjectVersion
1070
     0
  0
VISUALSTYLE
  5
F8
102
{ACAD_XDICTIONARY
360
872A
102
}
102
{ACAD_REACTORS
330
EF
102
}
330
EF
100
AcDbVisualStyle
  2
Conceptual
 70
     9
 71
     3
 72
     2
 73
     1
 90
        0
 40
-0.6
 41
-30.0
 62
     5
 63
     7
 74
     2
 91
        2
 64
     7
 65
   257
 75
     1
175
     1
 42
40.0
 92
        8
 66
     7
 43
1.0
 76
     1
 77
     6
 78
     2
 67
     7
 79
     3
170
     0
171
     0
290
     0
174
     0
 93
        1
 44
0.0
173
     0
291
     0
 45
0.0
1001
ACAD
1000
AcDbSavedByObjectVersion
1070
     0
  0
VISUALSTYLE
  5
FA
102
{ACAD_XDICTIONARY
360
872E
102
}
102
{ACAD_REACTORS
330
EF
102
}
330
EF
100
AcDbVisualStyle
  2
Dim
 70
    11
 71
     2
 72
     2
 73
     1
 90
        0
 40
-0.6
 41
-30.0
 62
     5
 63
     7
 74
     1
 91
        4
 64
     7
 65
   257
 75
     1
175
     1
 42
1.0
 92
        8
 66
     7
 43
1.0
 76
     1
 77
     6
 78
     2
 67
     7
 79
     5
170
     0
171
     0
290
     0
174
     0
 93
        1
 44
-50.0
173
     0
291
     1
 45
0.0
1001
ACAD
1000
AcDbSavedByObjectVersion
1070
     0
  0
VISUALSTYLE
  5
1E6
102
{ACAD_XDICTIONARY
360
8740
102
}
102
{ACAD_REACTORS
330
EF
102
}
330
EF
100
AcDbVisualStyle
  2
EdgeColorOff
 70
    22
 71
     2
 72
     2
 73
     0
 90
        0
 40
-0.6
 41
-30.0
 62
     5
 63
     7
 74
     1
 91
        4
 64
     7
 65
   257
 75
     1
175
     1
 42
1.0
 92
        8
 66
     7
 43
1.0
 76
     1
 77
     6
 78
     2
 67
     7
 79
     5
170
     0
171
     0
290
     0
174
     0
 93
        1
 44
0.0
173
     0
291
     1
 45
0.0
1001
ACAD
1000
AcDbSavedByObjectVersion
1070
     0
  0
VISUALSTYLE
  5
FE
102
{ACAD_XDICTIONARY
360
8736
102
}
102
{ACAD_REACTORS
330
EF
102
}
330
EF
100
AcDbVisualStyle
  2
Facepattern
 70
    15
 71
     2
 72
     2
 73
     1
 90
        0
 40
-0.6
 41
-30.0
 62
     5
 63
     7
 74
     1
 91
        4
 64
     7
 65
   257
 75
     1
175
     1
 42
1.0
 92
        8
 66
     7
 43
1.0
 76
     1
 77
     6
 78
     2
 67
     7
 79
     5
170
     0
171
     0
290
     0
174
     0
 93
        1
 44
0.0
173
     0
291
     1
 45
0.0
1001
ACAD
1000
AcDbSavedByObjectVersion
1070
     0
  0
VISUALSTYLE
  5
F0
102
{ACAD_XDICTIONARY
360
871A
102
}
102
{ACAD_REACTORS
330
EF
102
}
330
EF
100
AcDbVisualStyle
  2
Flat
 70
     0
 71
     2
 72
     1
 73
     1
 90
        2
 40
-0.6
 41
30.0
 62
     5
 63
     7
 74
     0
 91
        0
 64
     7
 65
   257
 75
     1
175
     1
 42
1.0
 92
        8
 66
     7
 43
1.0
 76
     1
 77
     6
 78
     2
 67
     7
 79
     5
170
     0
171
     0
290
     0
174
     0
 93
       13
 44
0.0
173
     0
291
     1
 45
0.0
1001
ACAD
1000
AcDbSavedByObjectVersion
1070
     0
  0
VISUALSTYLE
  5
F1
102
{ACAD_XDICTIONARY
360
871C
102
}
102
{ACAD_REACTORS
330
EF
102
}
330
EF
100
AcDbVisualStyle
  2
FlatWithEdges
 70
     1
 71
     2
 72
     1
 73
     1
 90
        2
 40
-0.6
 41
30.0
 62
     5
 63
     7
 74
     1
 91
        0
 64
     7
 65
   257
 75
     1
175
     1
 42
1.0
 92
        0
 66
   257
 43
1.0
 76
     1
 77
     6
 78
     2
 67
     7
 79
     5
170
     0
171
     0
290
     0
174
     0
 93
       13
 44
0.0
173
     0
291
     1
 45
0.0
1001
ACAD
1000
AcDbSavedByObjectVersion
1070
     0
  0
VISUALSTYLE
  5
F2
102
{ACAD_XDICTIONARY
360
871E
102
}
102
{ACAD_REACTORS
330
EF
102
}
330
EF
100
AcDbVisualStyle
  2
Gouraud
 70
     2
 71
     2
 72
     2
 73
     1
 90
        2
 40
-0.6
 41
30.0
 62
     5
 63
     7
 74
     0
 91
        0
 64
     7
 65
   257
 75
     1
175
     1
 42
1.0
 92
        0
 66
     7
 43
1.0
 76
     1
 77
     6
 78
     2
 67
     7
 79
     5
170
     0
171
     0
290
     0
174
     0
 93
       13
 44
0.0
173
     0
291
     1
 45
0.0
1001
ACAD
1000
AcDbSavedByObjectVersion
1070
     0
  0
VISUALSTYLE
  5
F3
102
{ACAD_XDICTIONARY
360
8720
102
}
102
{ACAD_REACTORS
330
EF
102
}
330
EF
100
AcDbVisualStyle
  2
GouraudWithEdges
 70
     3
 71
     2
 72
     2
 73
     1
 90
        2
 40
-0.6
 41
30.0
 62
     5
 63
     7
 74
     1
 91
        0
 64
     7
 65
   257
 75
     1
175
     1
 42
1.0
 92
        0
 66
   257
 43
1.0
 76
     1
 77
     6
 78
     2
 67
     7
 79
     5
170
     0
171
     0
290
     0
174
     0
 93
       13
 44
0.0
173
     0
291
     1
 45
0.0
1001
ACAD
1000
AcDbSavedByObjectVersion
1070
     0
  0
VISUALSTYLE
  5
F7
102
{ACAD_XDICTIONARY
360
8728
102
}
102
{ACAD_REACTORS
330
EF
102
}
330
EF
100
AcDbVisualStyle
  2
Hidden
 70
     6
 71
     1
 72
     2
 73
     2
 90
        0
 40
-0.6
 41
-30.0
 62
     5
 63
     7
 74
     2
 91
        2
 64
     7
 65
   257
 75
     2
175
     1
 42
40.0
 92
        0
 66
   257
 43
1.0
 76
     1
 77
     6
 78
     2
 67
     7
 79
     3
170
     0
171
     0
290
     0
174
     0
 93
        1
 44
0.0
173
     0
291
     0
 45
0.0
1001
ACAD
1000
AcDbSavedByObjectVersion
1070
     0
  0
VISUALSTYLE
  5
1E4
102
{ACAD_XDICTIONARY
360
873C
102
}
102
{ACAD_REACTORS
330
EF
102
}
330
EF
100
AcDbVisualStyle
  2
JitterOff
 70
    20
 71
     2
 72
     2
 73
     0
 90
        0
 40
-0.6
 41
-30.0
 62
     5
 63
     7
 74
     1
 91
        4
 64
     7
 65
   257
 75
     1
175
     1
 42
1.0
 92
       10
 66
     7
 43
1.0
 76
     1
 77
     6
 78
     2
 67
     7
 79
     5
170
     0
171
     0
290
     0
174
     0
 93
        1
 44
0.0
173
     0
291
     1
 45
0.0
1001
ACAD
1000
AcDbSavedByObjectVersion
1070
     0
  0
VISUALSTYLE
  5
FD
102
{ACAD_XDICTIONARY
360
8734
102
}
102
{ACAD_REACTORS
330
EF
102
}
330
EF
100
AcDbVisualStyle
  2
Linepattern
 70
    14
 71
     2
 72
     2
 73
     1
 90
        0
 40
-0.6
 41
-30.0
 62
     5
 63
     7
 74
     1
 91
        4
 64
     7
 65
   257
 75
     7
175
     7
 42
1.0
 92
        8
 66
     7
 43
1.0
 76
     1
 77
     6
 78
     2
 67
     7
 79
     5
170
     0
171
     0
290
     0
174
     0
 93
        1
 44
0.0
173
     0
291
     1
 45
0.0
1001
ACAD
1000
AcDbSavedByObjectVersion
1070
     0
  0
VISUALSTYLE
  5
1E5
102
{ACAD_XDICTIONARY
360
873E
102
}
102
{ACAD_REACTORS
330
EF
102
}
330
EF
100
AcDbVisualStyle
  2
OverhangOff
 70
    21
 71
     2
 72
     2
 73
     0
 90
        0
 40
-0.6
 41
-30.0
 62
     5
 63
     7
 74
     1
 91
        4
 64
     7
 65
   257
 75
     1
175
     1
 42
1.0
 92
        9
 66
     7
 43
1.0
 76
     1
 77
     6
 78
     2
 67
     7
 79
     5
170
     0
171
     0
290
     0
174
     0
 93
        1
 44
0.0
173
     0
291
     1
 45
0.0
1001
ACAD
1000
AcDbSavedByObjectVersion
1070
     0
  0
VISUALSTYLE
  5
F9
102
{ACAD_XDICTIONARY
360
872C
102
}
102
{ACAD_REACTORS
330
EF
102
}
330
EF
100
AcDbVisualStyle
  2
Realistic
 70
     8
 71
     2
 72
     2
 73
     0
 90
        2
 40
-0.6
 41
30.0
 62
     5
 63
     7
 74
     0
 91
        0
 64
     7
 65
   257
 75
     1
175
     1
 42
1.0
 92
        8
 66
   257
 43
1.0
 76
     1
 77
     6
 78
     2
 67
     7
 79
     3
170
     0
171
     0
290
     0
174
     0
 93
       13
 44
0.0
173
     0
291
     0
 45
0.0
1001
ACAD
1000
AcDbSavedByObjectVersion
1070
     0
  0
VISUALSTYLE
  5
1F3
102
{ACAD_XDICTIONARY
360
874A
102
}
102
{ACAD_REACTORS
330
EF
102
}
330
EF
100
AcDbVisualStyle
  2
Shaded
 70
    27
 71
     2
 72
     2
 73
     1
 90
        2
 40
-0.6
 41
30.0
 62
     5
 63
     7
 74
     0
 91
        4
 64
     7
 65
   257
 75
     1
175
     1
 42
1.0
 92
        8
 66
   257
 43
1.0
 76
     1
 77
     6
 78
     2
 67
     8
 79
     3
170
     0
171
     0
290
     0
174
     0
 93
        5
 44
0.0
173
     0
291
     0
 45
0.0
1001
ACAD
1000
AcDbSavedByObjectVersion
1070
     0
  0
VISUALSTYLE
  5
1F2
102
{ACAD_XDICTIONARY
360
8748
102
}
102
{ACAD_REACTORS
330
EF
102
}
330
EF
100
AcDbVisualStyle
  2
Shaded with edges
 70
    26
 71
     2
 72
     2
 73
     1
 90
        2
 40
-0.6
 41
30.0
 62
     5
 63
     7
 74
     1
 91
        2
 64
     7
 65
   257
 75
     2
175
     1
 42
1.0
 92
        8
 66
   257
 43
1.0
 76
     1
 77
     6
 78
     2
 67
     7
 79
     3
170
     0
171
     0
290
     0
174
     0
 93
        5
 44
0.0
173
     0
291
     0
 45
0.0
1001
ACAD
1000
AcDbSavedByObjectVersion
1070
     0
  0
VISUALSTYLE
  5
1EF
102
{ACAD_XDICTIONARY
360
8742
102
}
102
{ACAD_REACTORS
330
EF
102
}
330
EF
100
AcDbVisualStyle
  2
Shades of Gray
 70
    23
 71
     2
 72
     2
 73
     3
 90
        0
 40
-0.6
 41
-30.0
 62
     5
 63
     7
 74
     2
 91
        2
 64
     7
 65
     7
 75
     1
175
     1
 42
40.0
 92
        8
 66
     7
 43
1.0
 76
     1
 77
     6
 78
     2
 67
     7
 79
     3
170
     0
171
     0
290
     0
174
     0
 93
        1
 44
0.0
173
     0
291
     0
 45
0.0
1001
ACAD
1000
AcDbSavedByObjectVersion
1070
     0
  0
VISUALSTYLE
  5
1F0
102
{ACAD_XDICTIONARY
360
8744
102
}
102
{ACAD_REACTORS
330
EF
102
}
330
EF
100
AcDbVisualStyle
  2
Sketchy
 70
    24
 71
     1
 72
     2
 73
     2
 90
        0
 40
-0.6
 41
-30.0
 62
     5
 63
     7
 74
     2
 91
        2
 64
     7
 65
     7
 75
     1
175
     1
 42
40.0
 92
       11
 66
     7
 43
1.0
 76
     1
 77
     6
 78
     2
 67
     7
 79
     6
170
     0
171
     0
290
     0
174
     0
 93
        1
 44
0.0
173
     0
291
     0
 45
0.0
1001
ACAD
1000
AcDbSavedByObjectVersion
1070
     0
  0
VISUALSTYLE
  5
FC
102
{ACAD_XDICTIONARY
360
8732
102
}
102
{ACAD_REACTORS
330
EF
102
}
330
EF
100
AcDbVisualStyle
  2
Thicken
 70
    13
 71
     2
 72
     2
 73
     1
 90
        0
 40
-0.6
 41
-30.0
 62
     5
 63
     7
 74
     1
 91
        4
 64
     7
 65
   257
 75
     1
175
     1
 42
1.0
 92
       12
 66
     7
 43
1.0
 76
     1
 77
     6
 78
     2
 67
     7
 79
     5
170
     0
171
     0
290
     0
174
     0
 93
        1
 44
0.0
173
     0
291
     1
 45
0.0
1001
ACAD
1000
AcDbSavedByObjectVersion
1070
     0
  0
VISUALSTYLE
  5
F6
102
{ACAD_XDICTIONARY
360
8726
102
}
102
{ACAD_REACTORS
330
EF
102
}
330
EF
100
AcDbVisualStyle
  2
Wireframe
 70
     5
 71
     0
 72
     2
 73
     0
 90
        0
 40
-0.6
 41
-30.0
 62
     5
 63
     7
 74
     1
 91
        4
 64
     7
 65
   257
 75
     1
175
     1
 42
1.0
 92
        0
 66
   257
 43
1.0
 76
     1
 77
     6
 78
     2
 67
     7
 79
     3
170
     0
171
     0
290
     0
174
     0
 93
        1
 44
0.0
173
     0
291
     0
 45
0.0
1001
ACAD
1000
AcDbSavedByObjectVersion
1070
     0
  0
VISUALSTYLE
  5
1F1
102
{ACAD_XDICTIONARY
360
8746
102
}
102
{ACAD_REACTORS
330
EF
102
}
330
EF
100
AcDbVisualStyle
  2
X-Ray
 70
    25
 71
     2
 72
     2
 73
     1
 90
        1
 40
0.5
 41
-30.0
 62
     5
 63
     7
 74
     1
 91
        0
 64
     7
 65
   257
 75
     1
175
     1
 42
1.0
 92
        8
 66
     7
 43
1.0
 76
     1
 77
     6
 78
     2
 67
     7
 79
     3
170
     0
171
     0
290
     0
174
     0
 93
       13
 44
0.0
173
     0
291
     0
 45
0.0
1001
ACAD
1000
AcDbSavedByObjectVersion
1070
     0
  0
DICTIONARYVAR
  5
146
102
{ACAD_REACTORS
330
5E
102
}
330
5E
100
DictionaryVariables
280
     0
  1
1:1
  0
DICTIONARYVAR
  5
259
102
{ACAD_REACTORS
330
5E
102
}
330
5E
100
DictionaryVariables
280
     0
  1
3.500000
  0
DICTIONARYVAR
  5
25A
102
{ACAD_REACTORS
330
5E
102
}
330
5E
100
DictionaryVariables
280
     0
  1
acadiso.lin
  0
DICTIONARYVAR
  5
145
102
{ACAD_REACTORS
330
5E
102
}
330
5E
100
DictionaryVariables
280
     0
  1
STANDARD
  0
DICTIONARYVAR
  5
84
102
{ACAD_REACTORS
330
5E
102
}
330
5E
100
DictionaryVariables
280
     0
  1
STANDARD
  0
DICTIONARYVAR
  5
227
102
{ACAD_REACTORS
330
5E
102
}
330
5E
100
DictionaryVariables
280
     0
  1
Metric50
  0
DICTIONARYVAR
  5
228
102
{ACAD_REACTORS
330
5E
102
}
330
5E
100
DictionaryVariables
280
     0
  1
Metric50
  0
DICTIONARYVAR
  5
5F
102
{ACAD_REACTORS
330
5E
102
}
330
5E
100
DictionaryVariables
280
     0
  1
2
  0
DICTIONARYVAR
  5
63
102
{ACAD_REACTORS
330
5E
102
}
330
5E
100
DictionaryVariables
280
     0
  1
1
  0
DICTIONARYVAR
  5
86BB
102
{ACAD_REACTORS
330
5E
102
}
330
5E
100
DictionaryVariables
280
     0
  1
0
  0
DICTIONARYVAR
  5
1AE
102
{ACAD_REACTORS
330
5E
102
}
330
5E
100
DictionaryVariables
280
     0
  1
0
  0
DICTIONARYVAR
  5
1AF
102
{ACAD_REACTORS
330
5E
102
}
330
5E
100
DictionaryVariables
280
     0
  1
0
  0
DICTIONARYVAR
  5
86B9
102
{ACAD_REACTORS
330
5E
102
}
330
5E
100
DictionaryVariables
280
     0
  1
2
  0
DICTIONARYVAR
  5
86B8
102
{ACAD_REACTORS
330
5E
102
}
330
5E
100
DictionaryVariables
280
     0
  1
1
  0
DICTIONARYVAR
  5
870B
102
{ACAD_REACTORS
330
5E
102
}
330
5E
100
DictionaryVariables
280
     0
  1
80.000000
  0
DICTIONARYVAR
  5
870A
102
{ACAD_REACTORS
330
5E
102
}
330
5E
100
DictionaryVariables
280
     0
  1
5.000000
  0
DICTIONARYVAR
  5
86BA
102
{ACAD_REACTORS
330
5E
102
}
330
5E
100
DictionaryVariables
280
     0
  1
127
  0
DICTIONARYVAR
  5
870C
102
{ACAD_REACTORS
330
5E
102
}
330
5E
100
DictionaryVariables
280
     0
  1
2
  0
DICTIONARY
  5
874E
330
21C
100
AcDbDictionary
280
     1
281
     1
  3
ACAD_XREC_ROUNDTRIP
360
874F
  0
DICTIONARY
  5
8713
330
D3
100
AcDbDictionary
280
     1
281
     1
  3
ACAD_XREC_ROUNDTRIP
360
8714
  0
DICTIONARY
  5
8715
330
D7
100
AcDbDictionary
280
     1
281
     1
  3
ACAD_XREC_ROUNDTRIP
360
8716
  0
DICTIONARY
  5
8710
330
22
100
AcDbDictionary
280
     1
281
     1
  3
ACAD_XREC_ROUNDTRIP
360
8711
  0
DICTIONARY
  5
1F9
330
ED
100
AcDbDictionary
280
     1
281
     1
  3
ACAD_XREC_ROUNDTRIP
360
8718
  3
FBXASSET
360
1FA
  0
DICTIONARY
  5
1F7
330
EC
100
AcDbDictionary
280
     1
281
     1
  3
ACAD_XREC_ROUNDTRIP
360
8717
  3
FBXASSET
360
1F8
  0
DICTIONARY
  5
173
330
EE
100
AcDbDictionary
280
     1
281
     1
  3
ACAD_XREC_ROUNDTRIP
360
8719
  3
BUMPTILE
360
175
  3
DIFFUSETILE
360
174
  3
FBXASSET
360
1FB
  3
OPACITYTILE
360
176
  3
REFLECTIONTILE
360
177
  0
DICTIONARY
  5
873A
330
12E
100
AcDbDictionary
280
     1
281
     1
  3
ACAD_XREC_ROUNDTRIP
360
873B
  0
DICTIONARY
  5
874C
330
21A
100
AcDbDictionary
280
     1
281
     1
  3
ACAD_XREC_ROUNDTRIP
360
874D
  0
DICTIONARY
  5
162
330
7F
100
AcDbDictionary
280
     1
281
     1
  3
ACAD_ROUNDTRIP_2008_TABLESTYLE_CELLSTYLEMAP
360
870D
  3
ACAD_XREC_ROUNDTRIP
360
8712
  0
DICTIONARY
  5
8724
330
F5
100
AcDbDictionary
280
     1
281
     1
  3
ACAD_XREC_ROUNDTRIP
360
8725
  0
DICTIONARY
  5
8722
330
F4
100
AcDbDictionary
280
     1
281
     1
  3
ACAD_XREC_ROUNDTRIP
360
8723
  0
DICTIONARY
  5
8730
330
FB
100
AcDbDictionary
280
     1
281
     1
  3
ACAD_XREC_ROUNDTRIP
360
8731
  0
DICTIONARY
  5
8738
330
FF
100
AcDbDictionary
280
     1
281
     1
  3
ACAD_XREC_ROUNDTRIP
360
8739
  0
DICTIONARY
  5
872A
330
F8
100
AcDbDictionary
280
     1
281
     1
  3
ACAD_XREC_ROUNDTRIP
360
872B
  0
DICTIONARY
  5
872E
330
FA
100
AcDbDictionary
280
     1
281
     1
  3
ACAD_XREC_ROUNDTRIP
360
872F
  0
DICTIONARY
  5
8740
330
1E6
100
AcDbDictionary
280
     1
281
     1
  3
ACAD_XREC_ROUNDTRIP
360
8741
  0
DICTIONARY
  5
8736
330
FE
100
AcDbDictionary
280
     1
281
     1
  3
ACAD_XREC_ROUNDTRIP
360
8737
  0
DICTIONARY
  5
871A
330
F0
100
AcDbDictionary
280
     1
281
     1
  3
ACAD_XREC_ROUNDTRIP
360
871B
  0
DICTIONARY
  5
871C
330
F1
100
AcDbDictionary
280
     1
281
     1
  3
ACAD_XREC_ROUNDTRIP
360
871D
  0
DICTIONARY
  5
871E
330
F2
100
AcDbDictionary
280
     1
281
     1
  3
ACAD_XREC_ROUNDTRIP
360
871F
  0
DICTIONARY
  5
8720
330
F3
100
AcDbDictionary
280
     1
281
     1
  3
ACAD_XREC_ROUNDTRIP
360
8721
  0
DICTIONARY
  5
8728
330
F7
100
AcDbDictionary
280
     1
281
     1
  3
ACAD_XREC_ROUNDTRIP
360
8729
  0
DICTIONARY
  5
873C
330
1E4
100
AcDbDictionary
280
     1
281
     1
  3
ACAD_XREC_ROUNDTRIP
360
873D
  0
DICTIONARY
  5
8734
330
FD
100
AcDbDictionary
280
     1
281
     1
  3
ACAD_XREC_ROUNDTRIP
360
8735
  0
DICTIONARY
  5
873E
330
1E5
100
AcDbDictionary
280
     1
281
     1
  3
ACAD_XREC_ROUNDTRIP
360
873F
  0
DICTIONARY
  5
872C
330
F9
100
AcDbDictionary
280
     1
281
     1
  3
ACAD_XREC_ROUNDTRIP
360
872D
  0
DICTIONARY
  5
874A
330
1F3
100
AcDbDictionary
280
     1
281
     1
  3
ACAD_XREC_ROUNDTRIP
360
874B
  0
DICTIONARY
  5
8748
330
1F2
100
AcDbDictionary
280
     1
281
     1
  3
ACAD_XREC_ROUNDTRIP
360
8749
  0
DICTIONARY
  5
8742
330
1EF
100
AcDbDictionary
280
     1
281
     1
  3
ACAD_XREC_ROUNDTRIP
360
8743
  0
DICTIONARY
  5
8744
330
1F0
100
AcDbDictionary
280
     1
281
     1
  3
ACAD_XREC_ROUNDTRIP
360
8745
  0
DICTIONARY
  5
8732
330
FC
100
AcDbDictionary
280
     1
281
     1
  3
ACAD_XREC_ROUNDTRIP
360
8733
  0
DICTIONARY
  5
8726
330
F6
100
AcDbDictionary
280
     1
281
     1
  3
ACAD_XREC_ROUNDTRIP
360
8727
  0
DICTIONARY
  5
8746
330
1F1
100
AcDbDictionary
280
     1
281
     1
  3
ACAD_XREC_ROUNDTRIP
360
8747
  0
XRECORD
  5
874F
102
{ACAD_REACTORS
330
874E
102
}
330
874E
100
AcDbXrecord
280
     1
102
DISPLAYNAME
  1
Metric50
102
FLAGS
 90
        0
  0
XRECORD
  5
8714
102
{ACAD_REACTORS
330
8713
102
}
330
8713
100
AcDbXrecord
280
     1
102
SHADEPLOT
 70
     0
102
SHADEPLOTRESLEVEL
 70
     2
102
SHADEPLOTCUSTOMDPI
 70
   300
  0
XRECORD
  5
8716
102
{ACAD_REACTORS
330
8715
102
}
330
8715
100
AcDbXrecord
280
     1
102
SHADEPLOT
 70
     0
102
SHADEPLOTRESLEVEL
 70
     2
102
SHADEPLOTCUSTOMDPI
 70
   300
  0
XRECORD
  5
8711
102
{ACAD_REACTORS
330
8710
102
}
330
8710
100
AcDbXrecord
280
     1
102
SHADEPLOT
 70
     0
102
SHADEPLOTRESLEVEL
 70
     2
102
SHADEPLOTCUSTOMDPI
 70
   300
  0
XRECORD
  5
8718
102
{ACAD_REACTORS
330
1F9
102
}
330
1F9
100
AcDbXrecord
280
     1
102
MATERIAL
148
0.0
149
0.0
149
0.0
 93
        0
 94
       63
282
     0
 72
     1
 77
     1
171
     1
175
     1
179
     1
273
     0
  0
XRECORD
  5
1FA
102
{ACAD_REACTORS
330
1F9
102
}
330
1F9
100
AcDbXrecord
280
     1
 70
     1
 90
429727718
  1
D62C5603-E3A1-4AEA-B7FB-FE5D8D0755AF
310
504B03040A0000080000CC70623B3DEE336E79000000790000001B0000006175746F6465736B2D64657369676E2D7061636B6167652E786D6C3C3F786D6C2076657273696F6E3D22312E302220656E636F64696E673D227574662D3822203F3E3C666F726D6174733E3C666F726D61743E687474703A2F2F736368656D612E
310
6175746F6465736B2E636F6D2F64657369676E2D7061636B6167652F323030393C2F666F726D61743E3C2F666F726D6174733E504B0304140006080800CC70623BD486FD9CA0000000F4000000130000005B436F6E74656E745F54797065735D2E786D6C7D8EC10E82300C865F65E91D8A1E8C310C0EEA1BF002731658846E
310
D98AC1B77784ABF1D8FE5FBFBF75BBCE937A534CCEB38643598122B6FEE978D0B0485F9C41B54DDD7D022595594E1A469170414C76A4D9A4D207E29CF43ECE46F218070CC6BECC4078ACAA135ACF422C856C0E68EA1BF5669944DDD7BCDE7B1F8E415D77AECB980613C2E4AC91FC167A2B244592486606FC29C8FD7F045B9A
310
EF7053A7E60B504B0304140006080800CC70623B853B8169EB0000007C01000008000000636F72652E786D6C8D90416EC3201045AF62CDB6C206821CC7C244919D9CA01740401C94182C03558F5F9C3852BBEB6A467FFE9B197D7EFC9E1EC5975982F5AE035262288C535E5B377690E21535501C055FBC8FBF6C503839990E
310
5619041F179FE64D52DE45E362569DD7661365082642A11EB9E920A89B99642953CC8E702F67A9EE7234257977194EC9EAE275C4EABCCF5EAD5940D4AC6F0E35A568B8F43562CD7046CD199FD07E60174276A7BE677B5EADB0E0D14EEFFB6A31321A0D82627C4084204C3F096B71DD52F6819B16635EADF63F509AF53FA164
310
5DDCD1EDDD17164090FCC8732078B56691CB33A85CD7DCC40F504B0304140006080800CC70623B55019EA25F0000007C00000007000000636E782E786D6C4DCB3B0E80201045D1AD90E915ED2CF8AC45050C11660C8261F98AB1B07AC9C97D42D718D865D3E909258CFD00CCE24AC6E326A164D74DC0B4128928FF32603847
310
2BA13128B1252AC747C6BAB984FC68F0B87FE8960A5C09FE86CFB69FBA01504B0304140006080800CC70623BDBABAAF470010000D40300000C0000006662782F636F72652E786D6CC553D16E823014FD95A6AF4B694182CC941A83FA05FB810A9511A125A5257EFE2E82712ECEB8A7F100CD39F7F69E734AF9FADC366850B6
310
AF8DCE7018308C942E4C59EB2AC3DE1D498AD15A706B8CFB56869196ADCAF00863C12B6B7C374385D14E6907A836A59A41D9F7CA615434B0C8705F7CAA5606D23BA8E84F41278B93AC54100640439DE0BDB320004D43C63716C7C399D30917DCFBBA9CD9BA8469F5B156168B24CED3F7248AC8769F27244EB73B92EED8862C
310
B7F13E0C179B3C8F979C8ECD82BBBABDAA2BAC924E9558448CBD9330242CFA08E3154B5651FCC6D215639C8EE5774DBE2B5F6CF2B5768B68963BB5F5588420E442FC700B1139D4CB01F450C1E918227C2E09DF070D8140C84E1E9AAB8F1340832A9CB13130A5F1376A908D57309505ECF2A0DF179C4E9D30F5B239B87E3823
310
7A79C6F31DE1A8A5AEC08474B03C7837EAE4938639B44E5932B833D2C6B6B279CDC613877FA26EE21F4A2A4C63EC7F29A2F301D1F9F7A0E37D145F504B0304140006080800CC70623B9C113CC27E0000009D0000000B0000006662782F636E782E786D6C4DCCDF0A83201C86E15B91DFB94BFB330DD428C8FB886521330DA7
310
6397BF1A1DECE883878F57749FCDA1B7892F1BBC047A23808C7F84D9FA55424E0BE6803A256208E9EF06C84F9B91703228B1C690F78B66B34CD9A5439DF5CF0BFBF65E35BCA1B8D6A5C6F540381E886698B5741C695F9503EBA150A2F8958E3DC3EA0B504B0304140006080800CC70623B7DF2F77C2A010000120200003100
310
00006662782F41393633353835312D344632462D344230382D423046372D3739314545314133324237412F636F72652E786D6C8D51DB8EC22014FC15C2939B0D2DB4B45643319AE817EC0F6041255A68B86CFCFC856D4D76DF7CE190393373060EDB3DC707F856CE6B6B7A480A0C81328395DA5C7B18C3057510EC3873D686
310
3F34088C18550F330C39BB3A1BA7051AAC09CA84841A2BD5020AEF55806078A44B0FFD7053A328440C89E1EFC52486BBB8AA8214A99D789CF9E05200300FC927E4FB4D5B375D43103D5527440FB843077C5AA3F5861C8F645F5787F59E95B390B318B55CE45AA638FAA2957BD7248B390B7A7CC51F9C124149C82B8C378810
310
84AB2F42B7B8DD56F413775B8C5999E9FF4471926F8AA236A1AE96B8B3CC434E5839373893369E1FAF30EA395917409EB7F26AF8801C171837A4A6AC9C89E9F9C9B1A58BA30FD6A5EF5DDDCF894B9AD9B6A59C957943A9FCAE2FD5BC4DFE03504B0304140006080800CC70623BAD7543B64E01000033030000300000006662
310
782F41393633353835312D344632462D344230382D423046372D3739314545314133324237412F636E782E786D6CD593CD6EC32010845F0571AD6CE3D48AD20813A9873E410FBD12D82434182C7EAAE6EDBB2424CD25871E7B41D6EC30B3FA84F9E67BB2E40B4234DE8DB46F1925E094D7C6ED479AD3AE5951B2113C789FEE
310
6C943839C1488B4C05DF079FE72A69D8C96C13AAD6B8631503449F83828872B949AC57D26200B826A308D316B4064D6E46FCDA41C05550DC9E483A00797BFD207EFB092A45DE9514C1BBD22178396BD39D891265658C238DEA00936C654E5E433CB65A26D9F6EDB5EBC14EBF49A45CB856E66048291F6939A9A81BB5C89177
310
38143CA680F4AA299D66A042CEB3354A2684DC9D8D178FE0D9B8B41CAAD720F880EE7EF93C0C18769E099ECC04D5A102C8049A8A05632F4DDF376CF1DE0F6BB65C2F8627B65A33C6BB62177CEBBDAD973006829F89F22E814B54F4BC2BE347F8AA8F681390B50FA73F804400B5F542E796F19FF974E7F78DB802FE05E20750
310
4B0304140006080800CC70623BE75B7789680500003C100000340000006662782F41393633353835312D344632462D344230382D423046372D3739314545314133324237412F6F626A656374732E786D6CAD575B8F9B3818FD2B887D06C22499CB8AA1CA655245D5B455A356FB305264C061D8018C6C3393D95FBFC7600890
310
A4CD5EF210B0B1BFEBF98E3F7B1FF6596ABC522E1296DF9BAE3D320D9A872C4AF2F8DE2CE5CEBA358D0FBEC719939D65A691938CDE9B6ADAF4BD98B3B2D05311DD91329583D9D5FC0F438434A7A611A644887B5384CF34233629258BA878B12322891DEFF6B66BD70BFB62634E8AE781D082709A4B588AF91C528CDA28B73F
310
1C998EEF39EABBEFA97FBD6A7C7E9553F9D3D79FE442923C3C523610337627CB87ABE99D359D4CC6D6E4FACAB5E6ABF9D2726FC6A3C5F56271377BB88362213924694B38DD99FE47C48627A1E7D49F5A8BB5E1A74C0A599ED3B0F21F1E56366B89112D681E218F0915D0D6F17AD41FBA2A369DCF6335D62ABBD39779D5DDD1
310
11D4D8DE3CBB96B2E04FB8202E41051754A1AA8E8F76B4C6DFE810B580B1547F4B84911149794252234D024EF8BBE963A95AE27B3D310A9D5C215C7960FAEE415ED75694C6AFB17BCACA5D99A60A9AA65F217B0BFC53292ACB92BF283FAD0D3621576592CB5BED907C2FA8E9DF794E35E97BEA31BED21FEB401ABB94C44839
310
DCACBF0E1C5DA8DA5B2F4DFFD32AD86F543D9E565E7056502E157C00AD2671CD534549AB752FCA9CDA00677A313F04E51B22FF19E57B300579E3C97EB29F682D92935CEC18CF901B7B54FD8C51F362B56FC72FE0B3C1EAE335EDCCBF5AEC39ADB17DC238973F804BA5E6F6BFE7AF1FB32E523BE9F3BD571418E3631DCA4D48
310
5250CF639223210A9446CA30052EDF057BD35F8329C1ECD84552BF0DC8D18BE7BCE23BFE6BD960AB4A7DE79923A103BEBD80F911CBAA2C60DB19B01CF164A5583B772EE6D3FFA56666CBCDA74DC97724A48F9A58967497E489C4D979006FD7A05E227A1EBDD0F737C623387A9C844D3709995625106D157315F8B8392CD4E0
310
A0B9A720C4BE9829CEF37EA1E13111214D53925356365ADA634861B52519DD27A00AEB808EAF0628E6F435519D446F45CF2C9CF5214F0A15B2F6D06B79DA3EE3CBF7F56780D2F4E7EF73A0F5E5B02A38D07DC852C6B7C1FBB6664213E0C39E3EBA7FF4E1AD23EA2829407C85E586727488B751B2DB9502BC7B228A3FD68B6E
310
A65A22397E690AA8D158D7E404EC8CDA235CC3B7D1898680131CEC2CDF2638C65196279577750F15884AEE19F94199155B92B13297978469D4F8D358DF0AEF7631E28DC8F0D9F437D5D39A83B2231A1D52D543813A824EF8D44BCFF2FA6A31BD1E8DAD87F1CCB526B3879935BF59CDADD5C37479BB1CDD4CA7B3556B516589
310
EF352754B706114D9C885EC9131DE6EFEB43D99AFE2391C2F958179413D7CFEF6B1B6DB1E7600F00DE6E5C67454A339A4BA2E0FBA85ED26F045D454F463DBFCE484C2F90F2E5E3666003662ED8F755951A7D1BECD5B30B550B2785C8E7320B7292A4838DDA71BBC863ED7613CAF659337A3354231D4FF4A182A54904C2898C
310
98B28C4AD0CE056CCF332A80986E571EE9DBC305BB5FEB7E509220A58D25CF042D712A806AC0AD0C657FDEF80D2D9CEAA2EE4D1C76F60BFE74219A06527D6F82DF6412526107381E55E353090704D085B52408A8913C4ED159D79BDA71BB4BC506F4831350EB6F975CD22D69BF7AC49B91A2C0A9DDA3D5CA36AD20FC478E37
310
E61844E2352865EBCB61A275A65283CAAA9DD27703B4102F5AF51EF5F573B75CBB5AD38BC845F7A49F82A0966A49C2E3EA5EA0ECD326CD965F1DB402C6FA8B51A4658C5C5E2EC9E214602E55810345408596591009A82E7E7FFACA19EEA299B14A0081A705CB3296EBC14CDF658DCD336EA6D1136881AAEB87B81AB9EE53D5
310
F5EB8BC8362082DA24122F98680A4E7930C01A0079749CEA14382A0783E5EBA5A10F8C098456A03D6A4AEB6BB881E2513747552A5DB22C7EDAF83BD5528081A365F7FF06504B0304140006080000CC70623B000000000000000000000000350000006662782F41393633353835312D344632462D344230382D423046372D37
310
39314545314133324237412F76657274696365732E62696E504B0304140006080800CC70623BF270F1330600000004000000360000006662782F41393633353835312D344632462D344230382D423046372D3739314545314133324237412F747269616E676C65732E62696E636660600000504B0304140006080000CC7062
310
3B000000000000000000000000370000006662782F41393633353835312D344632462D344230382D423046372D3739314545314133324237412F617474726962757465732E62696E504B0304140006080800CC70623B08DA0BD19000000041010000360000006662782F41393633353835312D344632462D344230382D4230
310
46372D3739314545314133324237412F6469726563746F72792E786D6C858F410AC3201045AF22B36F53E9A60B35CBEEBAE80D244E44489C6234F4F835464A48035D0DF398FF9F8AF63D0E6CC63039F212F8F9020C7D47C6792B21C5FE7403D62A1188E2E60C98D7234A5830286103A55745067B9D86B8A3CF9C7F90C11DE6
310
07FB144396D7B6A82D282E9A152AD114D5EF2CB866EEE831B8EEA07A7BB5A8D7D61A2BAAEB7FD5F70921FF497D00504B0304140006080800CC70623BEDD1DC58FD000000A00100003B0000006662782F41393633353835312D344632462D344230382D423046372D3739314545314133324237412F7265736F75726365732F
310
636F72652E786D6C8D504B6E833010BD0A9A6D65B00922041947112427E8052C33A156828DFCA97AFC9A40A576D7CDCCE87D344F8F9FBFE667F689CE6B6B3A6039850C8DB2A336530731DC4903D95970676DF82583CCC8193B5861107C72362E3BA4AC096842428D1D7107A5F7182053CF7474E0D507CE32973124857FE48B
310
540F3961CEF244279DE03EB81420DB9EAC1384436FA353E879B1B182C7A8C75DA3C7F453DF353A1075D537A7BA6464B8F535A99AE14A9A2BBD90E350DD183B5CFABE3AF262350B1EF4FC9351399401471025A527C218A1E53BAB5A5AB765F5469B96525EACF23FA6B88CFF34456DC2A1DCE36E360F82A5202F42F062ED2BAD
310
579969AFDD8A6F504B010214000A0000080000CC70623B3DEE336E79000000790000001B00000000000000000000000000000000006175746F6465736B2D64657369676E2D7061636B6167652E786D6C504B01021400140006080800CC70623BD486FD9CA0000000F40000001300000000000000000000000000B20000005B
310
436F6E74656E745F54797065735D2E786D6C504B01021400140006080800CC70623B853B8169EB0000007C010000080000000000000000000000000083010000636F72652E786D6C504B01021400140006080800CC70623B55019EA25F0000007C000000070000000000000000000000000094020000636E782E786D6C504B
310
01021400140006080800CC70623BDBABAAF470010000D40300000C00000000000000000000000000180300006662782F636F72652E786D6C504B01021400140006080800CC70623B9C113CC27E0000009D0000000B00000000000000000000000000B20400006662782F636E782E786D6C504B01021400140006080800CC70
310
623B7DF2F77C2A010000120200003100000000000000000000000000590500006662782F41393633353835312D344632462D344230382D423046372D3739314545314133324237412F636F72652E786D6C504B01021400140006080800CC70623BAD7543B64E010000330300003000000000000000000000000000D2060000
310
6662782F41393633353835312D344632462D344230382D423046372D3739314545314133324237412F636E782E786D6C504B01021400140006080800CC70623BE75B7789680500003C10000034000000000000000000000000006E0800006662782F41393633353835312D344632462D344230382D423046372D3739314545
310
314133324237412F6F626A656374732E786D6C504B01021400140006080000CC70623B0000000000000000000000003500000000000000000000000000280E00006662782F41393633353835312D344632462D344230382D423046372D3739314545314133324237412F76657274696365732E62696E504B01021400140006
310
080800CC70623BF270F133060000000400000036000000000000000000000000007B0E00006662782F41393633353835312D344632462D344230382D423046372D3739314545314133324237412F747269616E676C65732E62696E504B01021400140006080000CC70623B0000000000000000000000003700000000000000
310
000000000000D50E00006662782F41393633353835312D344632462D344230382D423046372D3739314545314133324237412F617474726962757465732E62696E504B01021400140006080800CC70623B08DA0BD1900000004101000036000000000000000000000000002A0F00006662782F41393633353835312D344632
310
462D344230382D423046372D3739314545314133324237412F6469726563746F72792E786D6C504B01021400140006080800CC70623BEDD1DC58FD000000A00100003B000000000000000000000000000E1000006662782F41393633353835312D344632462D344230382D423046372D3739314545314133324237412F7265
310
736F75726365732F636F72652E786D6C504B0506000000000E000E0080040000641100000000
  0
XRECORD
  5
8717
102
{ACAD_REACTORS
330
1F7
102
}
330
1F7
100
AcDbXrecord
280
     1
102
MATERIAL
148
0.0
149
0.0
149
0.0
 93
        0
 94
       63
282
     0
 72
     1
 77
     1
171
     1
175
     1
179
     1
273
     0
  0
XRECORD
  5
1F8
102
{ACAD_REACTORS
330
1F7
102
}
330
1F7
100
AcDbXrecord
280
     1
 70
     1
 90
429727718
  1
30362254-06B7-45E0-A893-8CFA70E3D6BC
310
504B03040A0000080000CC70623B3DEE336E79000000790000001B0000006175746F6465736B2D64657369676E2D7061636B6167652E786D6C3C3F786D6C2076657273696F6E3D22312E302220656E636F64696E673D227574662D3822203F3E3C666F726D6174733E3C666F726D61743E687474703A2F2F736368656D612E
310
6175746F6465736B2E636F6D2F64657369676E2D7061636B6167652F323030393C2F666F726D61743E3C2F666F726D6174733E504B0304140006080800CC70623BD486FD9CA0000000F4000000130000005B436F6E74656E745F54797065735D2E786D6C7D8EC10E82300C865F65E91D8A1E8C310C0EEA1BF002731658846E
310
D98AC1B77784ABF1D8FE5FBFBF75BBCE937A534CCEB38643598122B6FEE978D0B0485F9C41B54DDD7D022595594E1A469170414C76A4D9A4D207E29CF43ECE46F218070CC6BECC4078ACAA135ACF422C856C0E68EA1BF5669944DDD7BCDE7B1F8E415D77AECB980613C2E4AC91FC167A2B244592486606FC29C8FD7F045B9A
310
EF7053A7E60B504B0304140006080800CC70623B1EC5D7A3EB0000007C01000008000000636F72652E786D6C8D90416EC3201045AF82665B6103C6756C6122AB4D4ED00B204C5C94182C03558F5F9C3852BBEB6A467FFE9B197D71FC9E6FE8CBACC17AD7032D0820E3B41FAD9B7A48F1820F808E52ACDEC75F36404ECDA687
310
4D0629A6D5A76597B477D1B89855E747B38B2A041301E95B6E7A08FAD3CCAA50296647B8168BD2573599823EBB0CA76447F43862C7BCCF5EAC59410E4DDD9C7973C2755553CCCFA4C603E3040F1565ED3B1FDE4E432BCA0D9622DAF9795FAF464533826484B498524CD807E51D79ED187F21878E10516EF63F505AC67F42C9
310
BA58B1FDDD071640D2FCC87D2045B96591CB3DA85CB7DCE40F504B0304140006080800CC70623B55019EA25F0000007C00000007000000636E782E786D6C4DCB3B0E80201045D1AD90E915ED2CF8AC45050C11660C8261F98AB1B07AC9C97D42D718D865D3E909258CFD00CCE24AC6E326A164D74DC0B4128928FF32603847
310
2BA13128B1252AC747C6BAB984FC68F0B87FE8960A5C09FE86CFB69FBA01504B0304140006080800CC70623B8C9102E971010000D40300000C0000006662782F636F72652E786D6CC5535B6E833010BC8AE5DF0A6C08340F1947A84D4ED00B38C6A128602363A31CBFCB234A53A551FA553EC09AD9F5CE8C31DB9E9B1AF5CA
310
7695D1198E428A91D2D214952E33ECDD315861B4E5CC1AE3BE9561A445A3323CC098B3D21ADFCE9034DA29ED00D5A6503328BA4E398C640D8B0C77F253352214DE4145770A5B214FA2546114020D759C75CE8200340D19DE981F0F6746269C33EFAB6266AB02A655C74A59CCF365BADC27CB5D902ED22848F6340DF238A141
310
BE88E2F57B92BFEDF23523433367AE6A2EEAA455C2A902F398D2751045018D3FA264435F3771F242571B4A1919CA6F9A7C5B3CD9E42BED16F12C776AEB308F40C848FC700B1139D4891EF410CEC810227CC6846F8386402064270EF5C5C709A05E49676C024C61FC95EA45ED154CA5211D1FF4FB8291A913A68E9B83EBBB33
310
E2A7673CDE118E5AE8124C0807CB8377834E366998436B950D7A7746DAD846D4CFD978E0F04FD455FC5D49D2D4C6FE9722321F10997F0F32DC47FE05504B0304140006080800CC70623BFFEA85907E0000009D0000000B0000006662782F636E782E786D6C4DCCD10A83201886E15B91FFDC95D95A811AB6F23E625948A6C3
310
E9D8E5AF46073BFAE0E1E365ED67B3E8ADC3CB78C7815C7240DA3DFC64DCC221C519D7805AC182F7F1EF06C88D9BE6703008B6049F9E274D7A1E938DBB5AE3D6131B2589BA0D3D965551E0B2EA732C9B9A624AAEB41E3A557677029960D9AFB4EF11165F504B0304140006080800CC70623B4FEEA4082C0100001202000031
310
0000006662782F39464131463745442D413632322D343644302D413938332D3331353338454246344243312F636F72652E786D6C8D515B6EC32010BC0AE2AB55850DD871ED0813254D72825EC00192A2C460F1A872FC42ED48ED5F7E00CDCECCCEB26C731F6FE05B39AFADE921293004CA082BB5B9F43086336A21D870E6AC
310
0D7F68109861543DCC30E4ECE26C9C164858139409093556AA051CBC570102714B8F1E7AF1A5C6A11862480C7F2DA6415C878B2A4891CA89C7990F2E050073937C42DE1DB7E4F87ED8A36D4329AA9B3D46DBAEAD504556557BD81DEBDD0761E52CE42C462D17B996298E3E6BE59E35C962CE821E1FF18553435012728A7187
310
0841987E927A8D9B35ADDF70BBC6989599FE4F1427F9A4286A132ABAC49D651EF234CD5CE04CDA78BA3DC2A8FB645D00B9DF8B57E215725C60BCA2A463E54C4CE327C7A65E1C7DB02E7DEFCBF594B864C5CA6CDBD49C957943E9FA5D5FBAF336F90F504B0304140006080800CC70623BAD7543B64E01000033030000300000
310
006662782F39464131463745442D413632322D343644302D413938332D3331353338454246344243312F636E782E786D6CD593CD6EC32010845F0571AD6CE3D48AD20813A9873E410FBD12D82434182C7EAAE6EDBB2424CD25871E7B41D6EC30B3FA84F9E67BB2E40B4234DE8DB46F1925E094D7C6ED479AD3AE5951B2113C
310
789FEE6C943839C1488B4C05DF079FE72A69D8C96C13AAD6B8631503449F83828872B949AC57D26200B826A308D316B4064D6E46FCDA41C05550DC9E483A00797BFD207EFB092A45DE9514C1BBD22178396BD39D891265658C238DEA00936C654E5E433CB65A26D9F6EDB5EBC14EBF49A45CB856E66048291F6939A9A81BB5
310
C8917738143CA680F4AA299D66A042CEB3354A2684DC9D8D178FE0D9B8B41CAAD720F880EE7EF93C0C18769E099ECC04D5A102C8049A8A05632F4DDF376CF1DE0F6BB65C2F8627B65A33C6BB62177CEBBDAD973006829F89F22E814B54F4BC2BE347F8AA8F681390B50FA73F804400B5F542E796F19FF974E7F78DB802FE05
310
E207504B0304140006080800CC70623B16AB87BA640500003C100000340000006662782F39464131463745442D413632322D343644302D413938332D3331353338454246344243312F6F626A656374732E786D6CAD575B6FA33818FD2B887DE6924B3BED8A326A92B68A663B534DD4D13E548A0C38942D60649B369D5FBFC7
310
600890A493BDE42160637FD7F31D7FF63E6FB3D478A55C242CBF3247B66B1A340F5994E4F19559CA8D75611A9F7D8F33263BCB4C232719BD32D5B4E97B316765A1A722BA21652A07B3B7B33F0D11D29C9A46981221AE4C113ED38CD8A4942CA2E2C58E882476BCD9DA23BB5ED8171B73523C0F841684D35CC252CCE79062D4
310
468DFA43D7747CCF51DF7D4FFDEB5593E3AB9CCA9FBEFE241792E4E19EB28198C968BAB8199F5D5A67D3E9C49A9E8F47D6EC76B6B0469F26EEFC7C3EBFBCBEB98462213924694B38DD98FE1D62C393D073EA4FADC5DAF04326852CCF6958F90F0F2B9BB5C48816348F90C7840A68EB78EDF68723159BCEE7891A6B95DDE9D3
310
BCEAEEE8086A6C6F9E5D4B59F0175C10A7A0820BAA5055C7473B5AE3CFDD452D602CD5DF12616444529E90D448938013FE6EFA58AA96F85E4F8C42275708571E98FE6827AF6B2B4AE3D7D83D64E5A64C53054DD3AF90BD06FEA9149565C94FCA0F6B834DC85599E4F2423B24DF0B6AFA979E534DFA9E7A4CC6FA631D486393
310
921829879BF5D781A373557BCB85E97FB90DB62B558F8795179C15944B051F40AB495CF35451D26A4727654E6D8033BD98EF82F21D91FF8AF2DD9982BCF1643BDD4EB516C9492E368C67C88DED563FC36D5EACF66DFF057C3658BDBFA69DF9578B3DA735B64F18C7F20770A9D45CFCF7FCF563D6456A277DBEF78A02637CA2
310
43B90A490AEAB94F72244481D24819A6C0E59B606BFA4B3025981DBB48EAB701D97BF19C577CC77F2D1B6C55A9EF3C732474C0B727303F625995056C3B02963D9EAC146BE78EC5FCEC7FA999EBC5EACBAAE41B12D27B4D2C0BBA49F244E2ECDC81B76B502F113D8F5EE8FB1BE3111CDD4FC2AA9B844CAB1288B68AB90A7CDC
310
1C166AB0D3DC5310625FCC14E779BFD0709F8890A629C9292B1B2DED31A4B0DA928CEE135085754027E3018A397D4D5427D15BD1330B677DC8934285AC3DF45A9EB68FF8F2B8FC0A509AFEECFD0FF2DE25CC6047F7214B195F07EFEB9A094D800F7BFAE8FED187B78EA8A3A400F115961BCAD1215E47C966530AF0EE8128FE
310
58CEBB996A8964FFA529A046635D9353B0336A8F700DDF46271A024E70B0B37C9DE01847591E54DED53D54202AB947E4076556AC49C6CA5C9E1226B7F1A7B1BE15DEED62C41B91E1B3E9AFAAA735036547343A925075041DF0A9979E893B391F8FCFA6967B3EFB644DCF6E5CEBFAE272625DCC6FAF3FB93793C5F90CE1EF57
310
407342756B10D1C489E8953CD1617E5CEECAD6F4EF8914CE5D5D504E5C3F1F9736DA62CFC11E00BCDDB8CC8A9466349744C1F75EBDA4DF09BA8A9E8C7A7E9991989E20E5DBDD6A6003664ED8F7A04A8DBE0DF6EAD9B9AA858342E47399053949D2C146EDB85DE4B176BB0965FBAC19BD19AA918E27FA50C1D22402E144464C
310
59462568E704B6E71915404CB72B8FF4EDE184DDAF753F284990D2C6926782963815403548A70C657FDEF80D2D9CEAA2AE4C1C76F60BFE74219A06527D6582DF6412526107381E55E353090704D085B52408D0933C4ED159D79BDA71BB4BC506F4831350EB6F979CD22D69BF7AC49B91A2C0A9DDA3D5CA36AD20FC478E37E6
310
1844E2352865EBCB6EA275A652E3836BE04EFB400BF1A2556F515F1FBB35B2AB35BD889C744FFA1004B5544B121E57F70215746DD2F5E2C1412B602CBF19455AC6C8E5E9922C4E01E65215385004546899059180EAFCF7A707CE7017CD8CDB0410789AB32C63B91E5CEBBBACB17AC6CD347A022D5075FD106377347AAABA7E
310
7D11590744509B44E205134DC1290F06580320F78E537D3D73540E06CB970B431F185308AD40BBD794D6D77003C5A36E8EAA54BA64597CD8F83BD552A080A365F7FF06504B0304140006080000CC70623B000000000000000000000000350000006662782F39464131463745442D413632322D343644302D413938332D3331
310
353338454246344243312F76657274696365732E62696E504B0304140006080800CC70623BF270F1330600000004000000360000006662782F39464131463745442D413632322D343644302D413938332D3331353338454246344243312F747269616E676C65732E62696E636660600000504B0304140006080000CC70623B
310
000000000000000000000000370000006662782F39464131463745442D413632322D343644302D413938332D3331353338454246344243312F617474726962757465732E62696E504B0304140006080800CC70623B08DA0BD19000000041010000360000006662782F39464131463745442D413632322D343644302D413938
310
332D3331353338454246344243312F6469726563746F72792E786D6C858F410AC3201045AF22B36F53E9A60B35CBEEBAE80D244E44489C6234F4F835464A48035D0DF398FF9F8AF63D0E6CC63039F212F8F9020C7D47C6792B21C5FE7403D62A1188E2E60C98D7234A5830286103A55745067B9D86B8A3CF9C7F90C11DE607
310
FB144396D7B6A82D282E9A152AD114D5EF2CB866EEE831B8EEA07A7BB5A8D7D61A2BAAEB7FD5F70921FF497D00504B0304140006080800CC70623B0D6EF93BFE000000A00100003B0000006662782F39464131463745442D413632322D343644302D413938332D3331353338454246344243312F7265736F75726365732F63
310
6F72652E786D6C8D50596E833010BD0A9ADFCA60B334011947A8694ED00B586642AC041B79A97AFC9A40A5F6AF3F33A3B7689E1E3F7DCD8FEC139DD7D6F4C0720A191A65476DA61E62B892236427C19DB5E1970C322367EC618541F0C9D9B8EC90B226A009093576C41D94DE63804C3DD2D18357379C652E63480A7FCF17A9
310
EE72C29CE5894E3AC17D702940B63D59270887DE46A7D0F36263058F518FBB468FE9A7BE6A7420864373B8D4873369AA8691FA421B3294352543C5CAF65C0F6FEF43CB8BD52C78D0F34F46E550061C419494B6843142CB0F5677F4B52BEB177AEC28E5C52AFF638ACBF84F53D42654E51E77B379102C05791282176B5F693D
310
CB4C7BED567C03504B010214000A0000080000CC70623B3DEE336E79000000790000001B00000000000000000000000000000000006175746F6465736B2D64657369676E2D7061636B6167652E786D6C504B01021400140006080800CC70623BD486FD9CA0000000F40000001300000000000000000000000000B20000005B
310
436F6E74656E745F54797065735D2E786D6C504B01021400140006080800CC70623B1EC5D7A3EB0000007C010000080000000000000000000000000083010000636F72652E786D6C504B01021400140006080800CC70623B55019EA25F0000007C000000070000000000000000000000000094020000636E782E786D6C504B
310
01021400140006080800CC70623B8C9102E971010000D40300000C00000000000000000000000000180300006662782F636F72652E786D6C504B01021400140006080800CC70623BFFEA85907E0000009D0000000B00000000000000000000000000B30400006662782F636E782E786D6C504B01021400140006080800CC70
310
623B4FEEA4082C0100001202000031000000000000000000000000005A0500006662782F39464131463745442D413632322D343644302D413938332D3331353338454246344243312F636F72652E786D6C504B01021400140006080800CC70623BAD7543B64E010000330300003000000000000000000000000000D5060000
310
6662782F39464131463745442D413632322D343644302D413938332D3331353338454246344243312F636E782E786D6C504B01021400140006080800CC70623B16AB87BA640500003C1000003400000000000000000000000000710800006662782F39464131463745442D413632322D343644302D413938332D3331353338
310
454246344243312F6F626A656374732E786D6C504B01021400140006080000CC70623B0000000000000000000000003500000000000000000000000000270E00006662782F39464131463745442D413632322D343644302D413938332D3331353338454246344243312F76657274696365732E62696E504B01021400140006
310
080800CC70623BF270F133060000000400000036000000000000000000000000007A0E00006662782F39464131463745442D413632322D343644302D413938332D3331353338454246344243312F747269616E676C65732E62696E504B01021400140006080000CC70623B0000000000000000000000003700000000000000
310
000000000000D40E00006662782F39464131463745442D413632322D343644302D413938332D3331353338454246344243312F617474726962757465732E62696E504B01021400140006080800CC70623B08DA0BD190000000410100003600000000000000000000000000290F00006662782F39464131463745442D413632
310
322D343644302D413938332D3331353338454246344243312F6469726563746F72792E786D6C504B01021400140006080800CC70623B0D6EF93BFE000000A00100003B000000000000000000000000000D1000006662782F39464131463745442D413632322D343644302D413938332D3331353338454246344243312F7265
310
736F75726365732F636F72652E786D6C504B0506000000000E000E0080040000641100000000
  0
XRECORD
  5
8719
102
{ACAD_REACTORS
330
173
102
}
330
173
100
AcDbXrecord
280
     1
102
MATERIAL
148
0.0
149
0.0
149
0.0
 93
        0
 94
       63
282
     0
 72
     1
 77
     1
171
     1
175
     1
179
     1
273
     0
  0
XRECORD
  5
175
102
{ACAD_REACTORS
330
173
102
}
330
173
100
AcDbXrecord
280
     1
270
     1
271
     1
  0
XRECORD
  5
174
102
{ACAD_REACTORS
330
173
102
}
330
173
100
AcDbXrecord
280
     1
270
     1
271
     1
  0
XRECORD
  5
1FB
102
{ACAD_REACTORS
330
173
102
}
330
173
100
AcDbXrecord
280
     1
 70
     0
 90
1673772943
  1
ECE7A1D2-D628-4531-984C-D00F80459256
310
504B03040A0000080000CC70623B3DEE336E79000000790000001B0000006175746F6465736B2D64657369676E2D7061636B6167652E786D6C3C3F786D6C2076657273696F6E3D22312E302220656E636F64696E673D227574662D3822203F3E3C666F726D6174733E3C666F726D61743E687474703A2F2F736368656D612E
310
6175746F6465736B2E636F6D2F64657369676E2D7061636B6167652F323030393C2F666F726D61743E3C2F666F726D6174733E504B0304140006080800CC70623BD486FD9CA0000000F4000000130000005B436F6E74656E745F54797065735D2E786D6C7D8EC10E82300C865F65E91D8A1E8C310C0EEA1BF002731658846E
310
D98AC1B77784ABF1D8FE5FBFBF75BBCE937A534CCEB38643598122B6FEE978D0B0485F9C41B54DDD7D022595594E1A469170414C76A4D9A4D207E29CF43ECE46F218070CC6BECC4078ACAA135ACF422C856C0E68EA1BF5669944DDD7BCDE7B1F8E415D77AECB980613C2E4AC91FC167A2B244592486606FC29C8FD7F045B9A
310
EF7053A7E60B504B0304140006080800CC70623BD9DDAED0EC0000007C01000008000000636F72652E786D6C8D90416EC3201045AF82665B61836D9CD8C2444DD39CA01740405C94182C03558F5F9C3852BBEB6A467FFE9B197D7EF89E6EE8CB2CC17A37002D0820E394D7D68D03A478C17B4007C117EFE32F1B20272733C0
310
2A83E0E3E2D3BC49CABB685CCCAAF3DA6CA20CC14440EA969B0182FA34932C648AD911AEC52CD5558EA6A0CF2EC329598D1E47ACCEFBECC59A050463A7EA5833865FEBDD0E37353BE3EE8DBDE3F6786A48D375FBF6CC78B9C282473B3DEFABC5C86834888A900E538A49F5419B9EB47DD5BC907D4F082F57FB1F28CDFA9F50
310
B22ED6D5F6EE030B20687EE43E10BC5CB3C8E51E54AE6B6EE207504B0304140006080800CC70623B55019EA25F0000007C00000007000000636E782E786D6C4DCB3B0E80201045D1AD90E915ED2CF8AC45050C11660C8261F98AB1B07AC9C97D42D718D865D3E909258CFD00CCE24AC6E326A164D74DC0B4128928FF326038
310
472BA13128B1252AC747C6BAB984FC68F0B87FE8960A5C09FE86CFB69FBA01504B0304140006080800CC70623BA24EB22D72010000D40300000C0000006662782F636F72652E786D6CC5535B6E833010BC8AE5DF0A6C5E49888CA3A6694ED00B38E05014B091B1518EDFE511A5A9D228FD2A1F60CDEC7A67C6986DCE4D8D7A
310
69BA4AAB0C073EC548AA5C17952A33ECECD15B61B4E1CC686DBF9561A44423333CC098B3D268D7CE50AE9595CA02AA74216750749DB418E5352C32DCE59FB211BE70162ABA93DF8AFC244AE9073ED050C759670D0840D390E18DF9F1706664C23973AE2A66B62A605A75ACA4C13C4976E1364A12EF355A2EBD384AF65EFA96
310
BC7B8BED2EA6719AAE16FB8491A199335B351775B991C2CA02F390D2D40B028F861F41BCA68B7518BFD0D59A524686F29B26D7164F36B94AD9289CE54E6D1DE6010819891F6E21228B3AD1831EC219194284CF98F06DD01008846CC5A1BEF83801D4CBDC6A1303536877A57A513B0953A94FC707FDBE6064EA84A9E3E6E0FA
310
EE8CF0E9198F7784A316AA0413C2C2F2E0ECA0934D1AE6D05A69BCDE9E91D2A611F573361E38FC1375157F5752AE6B6DFE4B11990F88CCBF0719EE23FF02504B0304140006080800CC70623B408A7D3B7C0000009D0000000B0000006662782F636E782E786D6C4DCCD10A83201886E15B91FFDC552A92A0064DBC8F581632
310
D3703A76F9ABD1C18E3E78F878E5F0D9027ABBFCF2292AE86E2D20171F69F6715550CB827B40839639A5F2770314A7CD293819B45C73AAFB45B35BA61ACAA1C1C7E7855C58C15BC331339661262CC762340413D68D77DA5B42298546CBE6573AF60CEB2F504B0304140006080800CC70623B449FB9BD290100001202000031
310
0000006662782F36394639363044362D344446342D343946362D394244322D3234314243333846323333332F636F72652E786D6C8D515B6EC32010BC0AE22B55850D98B871848994463E412FE002495162B07854397EA176A4F62F3F2C9A9D991D587EB84F37F0AD7D30CEF6905418026DA553C65E7A98E219ED203808EE9D
310
8B7F6810D871D23D2C3014FCE25D9A57483A1BB58D19B54EE9151C43D0110279CB971E06F9A5A7B11A53CC8C70ADE6515EC78BAE4895DB992778883E0700CB907242D17643D7E2538BD869608875438BBAE38922CAC8F1BDD90DB4691A5E2F42C153326A951B95E398B3D1FE599322163C9AE9115F7A3D46ADA0A018778810
310
84E907617BDCEE297BC5BB3DC6BC2EF47FA234AB2745C9D8D8D035EE220B50105E2F0DC1954B9FB747187D9F9D8FA0CCDB042D5FA0C015C65B42DF78BD10F3F3B363CB56C7109DCFDFBBB97E662ED92EB62D13BC2E1BCAE5777DB9966D8A1F504B0304140006080800CC70623BAD7543B64E01000033030000300000006662
310
782F36394639363044362D344446342D343946362D394244322D3234314243333846323333332F636E782E786D6CD593CD6EC32010845F0571AD6CE3D48AD20813A9873E410FBD12D82434182C7EAAE6EDBB2424CD25871E7B41D6EC30B3FA84F9E67BB2E40B4234DE8DB46F1925E094D7C6ED479AD3AE5951B2113C789FEE
310
6C943839C1488B4C05DF079FE72A69D8C96C13AAD6B8631503449F83828872B949AC57D26200B826A308D316B4064D6E46FCDA41C05550DC9E483A00797BFD207EFB092A45DE9514C1BBD22178396BD39D891265658C238DEA00936C654E5E433CB65A26D9F6EDB5EBC14EBF49A45CB856E66048291F6939A9A81BB5C89177
310
38143CA680F4AA299D66A042CEB3354A2684DC9D8D178FE0D9B8B41CAAD720F880EE7EF93C0C18769E099ECC04D5A102C8049A8A05632F4DDF376CF1DE0F6BB65C2F8627B65A33C6BB62177CEBBDAD973006829F89F22E814B54F4BC2BE347F8AA8F681390B50FA73F804400B5F542E796F19FF974E7F78DB802FE05E20750
310
4B0304140006080800CC70623B8D05915C650500003B100000340000006662782F36394639363044362D344446342D343946362D394244322D3234314243333846323333332F6F626A656374732E786D6CAD575B6FA33814FE2B887D06429276DA1565D4266D158D3A339A6846FB502932E050B66023DB74D2FDF5FB190C01
310
9276B2973C046C8ECFF53B17071F77456EBD502133CEAE6CDF9DD81665314F32965ED995DA3A17B6F5310C04E7AA47665B8C14F4CAD6DB7618A48257A5D94AE89654B91AEDDEDDFC61C998326A5B714EA4BCB265FC440BE2924AF184CA6737218AB8E976E7FA6E4338649B0A523E8D98964450A6A029F619B8588D52FE7039
310
B1BD30F0F4F730D0FF866AF6369557DB33949F31A9088B0F848DD8CCFCF9F2767A76E99CCDE733677E3EF59D9BBB9BA5E37F984D16E78BC5E5F5ED25044B25C0C96822E8D60EEFE11B91C581D77CEA34368A1F5329E68CD1B8B61F16D63A1B8E092D294B10C78C4A48EB593D192E7DED9BDEE7995E1B91FDEDD3ACEA9FE831
310
6A756F9F7D4D79F4274C90A7A04248AA51D5F8C718DAE06FB2F75AC4796EBE65D22A88A22223B995679120E2D50E41AA49C260C046A35368846B0BECD0DFF3EBEB8AD4F835768F69B9ADF25C43D30E6B646F807FAA64AD59F61715C7A54127C4AACA98BA3006A9D792DAE165E0D59B61A01FB3A9F9D838D2DAE62445C86166
310
F37564E842E7DE6A69879FEEA2DD5AE7E371E1A5E025154AC307D06A03D73EB5978C58FFA4C8E9033066E0F3BD53BEC1F39F91BE7B55103791EDE6BBB991A2046172CB4581D8B893FA674DDA17A77B3B7C413D1B511FD2743BFF8A38F03A658705E3ADF8015C3A3417FF3D7E439FF591DA0B5F18BC20C1B8981957AE6392A3
310
F43C640C01D1A0B4728E2DD4F26DB4B3C3152A252A3B4E913CEC1C72F012782FF88EFF8637AA552DBEF76408E8A8DE9E50F9E1CB3A2DA0DB1B6039A893B56063DC5B3E3FFB5F72E67AB9FEB4AEC496C4F4C1149625DD662C53E89D7BF0F6151A046260D1337DFDC94502430F83B0EE07A130A224BCAD7DAE1D9FB6CD422FF6
310
920702629C4BB9AE79C12F243C6432A6794E18E5552BA56B431AAB5D91317302B2B071E86C3A42B1A02F999E24061403B5D0EB639195DA655DD3EBEAB4FB862DDF579F014AD0E73C22F99E28DA57FB98E75C6CA2D74D53086D600F4786E0FE3144B771A8A7B900F03594DB8A633CBC49B2EDB69228BB479CF863B5E807AAAB
310
23872F6DFEB4129B949CA33823F58830E86D65621E10047D9DB34D862E8EAC3C2ABC2F7B2C40D67CDFE01F5545B92105AF983AC54D93D69E56FB8E797F88913F898A9FEC705D3F9D1B54EC8426FB500D40A03BD0119B06E1B95DDC7EB8F6975367793EBD70E66733DFB9BC982F9CE564727731999F5D4ECFCE3B8D6A4DC2A0
310
6D50FD148437D110834A64C6CDDF57FBACB5C307A2A477DFE4939736CFEF2B175371E0E10CF0DD1D5C15654E0BCA14D1E87DD02FF93782A162C0A3D95F1524A52770F972BF1EE9809D13CE7DD599467F8ECE9ADD85CE85A34CD45355448C64F9E8A031DC2D596ACC6E5DD93D9B82DE2EF5CAF81363A8E47996A0DE24564A79
310
4115AACE09C55E14540231FDA13C319787134EBF34E3A022514E5B4D9E0826E25C02D5805B15ABE1BEF51B26383D445DD9E875EE33FE4C22DA16427D65A3BCA92CA6D28DD01DF5DC53330704308475351050232CCD31583787BA75774AFB06E5070DD0C8EF484E19968C5D83BA5B90B244D31E54D55A372320FE4786B7EA58
310
44E135AA5467CB7EA333A61683CC6A8C3257034C10CF46F40EF9F5BE59BE5BD30C3C72D235E95D10345C1D45445A5F0BB47E46A5EBE5570F9380B5FA629579952296A773720405982B9DE04011506178964401AA8BDF1FBF0A8EAB6861DD6580C0E38217056766716DAEB2D6FA0917D3E4116581EADB879C4E7CFFB11EFACD
310
3D641311495D92C8676CB409A72D18610D803CE8A626049E8EC1887CB5B44CC39883690DDA8399B4B9855B481E7D71D4A9D22F96E5BB73BF5793020C02137BF837504B0304140006080000CC70623B000000000000000000000000350000006662782F36394639363044362D344446342D343946362D394244322D32343142
310
43333846323333332F76657274696365732E62696E504B0304140006080800CC70623BF270F1330600000004000000360000006662782F36394639363044362D344446342D343946362D394244322D3234314243333846323333332F747269616E676C65732E62696E636660600000504B0304140006080000CC70623B0000
310
00000000000000000000370000006662782F36394639363044362D344446342D343946362D394244322D3234314243333846323333332F617474726962757465732E62696E504B0304140006080800CC70623B08DA0BD19000000041010000360000006662782F36394639363044362D344446342D343946362D394244322D
310
3234314243333846323333332F6469726563746F72792E786D6C858F410AC3201045AF22B36F53E9A60B35CBEEBAE80D244E44489C6234F4F835464A48035D0DF398FF9F8AF63D0E6CC63039F212F8F9020C7D47C6792B21C5FE7403D62A1188E2E60C98D7234A5830286103A55745067B9D86B8A3CF9C7F90C11DE607FB14
310
4396D7B6A82D282E9A152AD114D5EF2CB866EEE831B8EEA07A7BB5A8D7D61A2BAAEB7FD5F70921FF497D00504B0304140006080800CC70623BCA768048FE000000A00100003B0000006662782F36394639363044362D344446342D343946362D394244322D3234314243333846323333332F7265736F75726365732F636F72
310
652E786D6C8D50596E833010BD0A9ADFCA60D600328E9AA639412F609909B1126CE4A5EAF16B0295DABFFECC8CDEA2797AECF8353F924FB44E193D409E5248504B332A3D0D10FC95B4901C39B3C6F85F3248B49871801506CE266BC2B243D2688FDA47549B11775038871E12F988C7004EDE7016A9083E2ADC3D5D84BC8B09
310
D33C8D74D471E6BC8D0192EDC93A815B742658898E651BCB59086ADC356A8C3FD555A1055ED7E7E254D615792D0F075295F585746FF53B694EE78A565DD736979A65AB9933AFE69F8CD2A2F038022F28ED489E135A7CE4554F9BBEA85E68DB53CAB255FEC71496F19FA6A0B42F8B3DEE6673C0F318E4497096AD7DC5F52C33
310
EEB55BFE0D504B010214000A0000080000CC70623B3DEE336E79000000790000001B00000000000000000000000000000000006175746F6465736B2D64657369676E2D7061636B6167652E786D6C504B01021400140006080800CC70623BD486FD9CA0000000F40000001300000000000000000000000000B20000005B436F
310
6E74656E745F54797065735D2E786D6C504B01021400140006080800CC70623BD9DDAED0EC0000007C010000080000000000000000000000000083010000636F72652E786D6C504B01021400140006080800CC70623B55019EA25F0000007C000000070000000000000000000000000095020000636E782E786D6C504B0102
310
1400140006080800CC70623BA24EB22D72010000D40300000C00000000000000000000000000190300006662782F636F72652E786D6C504B01021400140006080800CC70623B408A7D3B7C0000009D0000000B00000000000000000000000000B50400006662782F636E782E786D6C504B01021400140006080800CC70623B
310
449FB9BD290100001202000031000000000000000000000000005A0500006662782F36394639363044362D344446342D343946362D394244322D3234314243333846323333332F636F72652E786D6C504B01021400140006080800CC70623BAD7543B64E010000330300003000000000000000000000000000D20600006662
310
782F36394639363044362D344446342D343946362D394244322D3234314243333846323333332F636E782E786D6C504B01021400140006080800CC70623B8D05915C650500003B10000034000000000000000000000000006E0800006662782F36394639363044362D344446342D343946362D394244322D32343142433338
310
46323333332F6F626A656374732E786D6C504B01021400140006080000CC70623B0000000000000000000000003500000000000000000000000000250E00006662782F36394639363044362D344446342D343946362D394244322D3234314243333846323333332F76657274696365732E62696E504B010214001400060808
310
00CC70623BF270F13306000000040000003600000000000000000000000000780E00006662782F36394639363044362D344446342D343946362D394244322D3234314243333846323333332F747269616E676C65732E62696E504B01021400140006080000CC70623B00000000000000000000000037000000000000000000
310
00000000D20E00006662782F36394639363044362D344446342D343946362D394244322D3234314243333846323333332F617474726962757465732E62696E504B01021400140006080800CC70623B08DA0BD190000000410100003600000000000000000000000000270F00006662782F36394639363044362D344446342D
310
343946362D394244322D3234314243333846323333332F6469726563746F72792E786D6C504B01021400140006080800CC70623BCA768048FE000000A00100003B000000000000000000000000000B1000006662782F36394639363044362D344446342D343946362D394244322D3234314243333846323333332F7265736F
310
75726365732F636F72652E786D6C504B0506000000000E000E0080040000621100000000
  0
XRECORD
  5
176
102
{ACAD_REACTORS
330
173
102
}
330
173
100
AcDbXrecord
280
     1
270
     1
271
     1
  0
XRECORD
  5
177
102
{ACAD_REACTORS
330
173
102
}
330
173
100
AcDbXrecord
280
     1
270
     1
271
     1
  0
XRECORD
  5
873B
102
{ACAD_REACTORS
330
873A
102
}
330
873A
100
AcDbXrecord
280
     1
102
ACAD_ROUNDTRIP_2012_MLEADER_STYLE
298
     1
  0
XRECORD
  5
874D
102
{ACAD_REACTORS
330
874C
102
}
330
874C
100
AcDbXrecord
280
     1
102
DISPLAYNAME
  1
Metric50
102
FLAGS
 90
        0
  0
CELLSTYLEMAP
  5
870D
102
{ACAD_REACTORS
330
162
102
}
330
162
100
AcDbCellStyleMap
 90
        3
300
CELLSTYLE
  1
TABLEFORMAT_BEGIN
 90
        5
170
     1
 91
        0
 92
    32768
 62
   257
 93
        1
300
CONTENTFORMAT
  1
CONTENTFORMAT_BEGIN
 90
        0
 91
        0
 92
      512
 93
        0
300

 40
0.0
140
1.0
 94
        5
 62
     0
340
11
144
6.0
309
CONTENTFORMAT_END
171
     1
301
MARGIN
  1
CELLMARGIN_BEGIN
 40
1.5
 40
1.5
 40
1.5
 40
1.5
 40
4.5
 40
4.5
309
CELLMARGIN_END
 94
        6
 95
        1
302
GRIDFORMAT
  1
GRIDFORMAT_BEGIN
 90
        0
 91
        1
 62
     0
 92
       -2
340
14
 93
        0
 40
1.125
309
GRIDFORMAT_END
 95
        2
302
GRIDFORMAT
  1
GRIDFORMAT_BEGIN
 90
        0
 91
        1
 62
     0
 92
       -2
340
14
 93
        0
 40
1.125
309
GRIDFORMAT_END
 95
        4
302
GRIDFORMAT
  1
GRIDFORMAT_BEGIN
 90
        0
 91
        1
 62
     0
 92
       -2
340
14
 93
        0
 40
1.125
309
GRIDFORMAT_END
 95
        8
302
GRIDFORMAT
  1
GRIDFORMAT_BEGIN
 90
        0
 91
        1
 62
     0
 92
       -2
340
14
 93
        0
 40
1.125
309
GRIDFORMAT_END
 95
       16
302
GRIDFORMAT
  1
GRIDFORMAT_BEGIN
 90
        0
 91
        1
 62
     0
 92
       -2
340
14
 93
        0
 40
1.125
309
GRIDFORMAT_END
 95
       32
302
GRIDFORMAT
  1
GRIDFORMAT_BEGIN
 90
        0
 91
        1
 62
     0
 92
       -2
340
14
 93
        0
 40
1.125
309
GRIDFORMAT_END
309
TABLEFORMAT_END
  1
CELLSTYLE_BEGIN
 90
        1
 91
        1
300
_TITLE
309
CELLSTYLE_END
300
CELLSTYLE
  1
TABLEFORMAT_BEGIN
 90
        5
170
     1
 91
        0
 92
        0
 62
   257
 93
        1
300
CONTENTFORMAT
  1
CONTENTFORMAT_BEGIN
 90
        0
 91
        0
 92
      512
 93
        0
300

 40
0.0
140
1.0
 94
        5
 62
     0
340
11
144
4.5
309
CONTENTFORMAT_END
171
     1
301
MARGIN
  1
CELLMARGIN_BEGIN
 40
1.5
 40
1.5
 40
1.5
 40
1.5
 40
4.5
 40
4.5
309
CELLMARGIN_END
 94
        6
 95
        1
302
GRIDFORMAT
  1
GRIDFORMAT_BEGIN
 90
        0
 91
        1
 62
     0
 92
       -2
340
14
 93
        0
 40
1.125
309
GRIDFORMAT_END
 95
        2
302
GRIDFORMAT
  1
GRIDFORMAT_BEGIN
 90
        0
 91
        1
 62
     0
 92
       -2
340
14
 93
        0
 40
1.125
309
GRIDFORMAT_END
 95
        4
302
GRIDFORMAT
  1
GRIDFORMAT_BEGIN
 90
        0
 91
        1
 62
     0
 92
       -2
340
14
 93
        0
 40
1.125
309
GRIDFORMAT_END
 95
        8
302
GRIDFORMAT
  1
GRIDFORMAT_BEGIN
 90
        0
 91
        1
 62
     0
 92
       -2
340
14
 93
        0
 40
1.125
309
GRIDFORMAT_END
 95
       16
302
GRIDFORMAT
  1
GRIDFORMAT_BEGIN
 90
        0
 91
        1
 62
     0
 92
       -2
340
14
 93
        0
 40
1.125
309
GRIDFORMAT_END
 95
       32
302
GRIDFORMAT
  1
GRIDFORMAT_BEGIN
 90
        0
 91
        1
 62
     0
 92
       -2
340
14
 93
        0
 40
1.125
309
GRIDFORMAT_END
309
TABLEFORMAT_END
  1
CELLSTYLE_BEGIN
 90
        2
 91
        1
300
_HEADER
309
CELLSTYLE_END
300
CELLSTYLE
  1
TABLEFORMAT_BEGIN
 90
        5
170
     1
 91
        0
 92
        0
 62
   257
 93
        1
300
CONTENTFORMAT
  1
CONTENTFORMAT_BEGIN
 90
        0
 91
        0
 92
      512
 93
        0
300

 40
0.0
140
1.0
 94
        2
 62
     0
340
11
144
4.5
309
CONTENTFORMAT_END
171
     1
301
MARGIN
  1
CELLMARGIN_BEGIN
 40
1.5
 40
1.5
 40
1.5
 40
1.5
 40
4.5
 40
4.5
309
CELLMARGIN_END
 94
        6
 95
        1
302
GRIDFORMAT
  1
GRIDFORMAT_BEGIN
 90
        0
 91
        1
 62
     0
 92
       -2
340
14
 93
        0
 40
1.125
309
GRIDFORMAT_END
 95
        2
302
GRIDFORMAT
  1
GRIDFORMAT_BEGIN
 90
        0
 91
        1
 62
     0
 92
       -2
340
14
 93
        0
 40
1.125
309
GRIDFORMAT_END
 95
        4
302
GRIDFORMAT
  1
GRIDFORMAT_BEGIN
 90
        0
 91
        1
 62
     0
 92
       -2
340
14
 93
        0
 40
1.125
309
GRIDFORMAT_END
 95
        8
302
GRIDFORMAT
  1
GRIDFORMAT_BEGIN
 90
        0
 91
        1
 62
     0
 92
       -2
340
14
 93
        0
 40
1.125
309
GRIDFORMAT_END
 95
       16
302
GRIDFORMAT
  1
GRIDFORMAT_BEGIN
 90
        0
 91
        1
 62
     0
 92
       -2
340
14
 93
        0
 40
1.125
309
GRIDFORMAT_END
 95
       32
302
GRIDFORMAT
  1
GRIDFORMAT_BEGIN
 90
        0
 91
        1
 62
     0
 92
       -2
340
14
 93
        0
 40
1.125
309
GRIDFORMAT_END
309
TABLEFORMAT_END
  1
CELLSTYLE_BEGIN
 90
        3
 91
        2
300
_DATA
309
CELLSTYLE_END
  0
XRECORD
  5
8712
102
{ACAD_REACTORS
330
162
102
}
330
162
100
AcDbXrecord
280
     1
102
ACAD_ROUNDTRIP_PRE2007_TABLESTYLE
 90
      512
 91
        0
  1

 92
      512
 93
        0
  2

 94
      512
 95
        0
  3

  0
XRECORD
  5
8725
102
{ACAD_REACTORS
330
8724
102
}
330
8724
100
AcDbXrecord
280
     1
102
RTVSPost2010Prop28
280
     1
102
RTVSPost2010PropOp28
 70
     1
102
RTVSPost2010Prop29
280
     1
102
RTVSPost2010PropOp29
 70
     1
102
RTVSPost2010Prop30
280
     0
102
RTVSPost2010PropOp30
 70
     1
102
RTVSPost2010Prop31
280
     0
102
RTVSPost2010PropOp31
 70
     1
102
RTVSPost2010Prop32
280
     0
102
RTVSPost2010PropOp32
 70
     1
102
RTVSPost2010Prop33
280
     0
102
RTVSPost2010PropOp33
 70
     1
102
RTVSPost2010Prop34
280
     0
102
RTVSPost2010PropOp34
 70
     1
102
RTVSPost2010Prop35
280
     0
102
RTVSPost2010PropOp35
 70
     1
102
RTVSPost2010Prop36
280
     0
102
RTVSPost2010PropOp36
 70
     1
102
RTVSPost2010Prop37
 90
       50
102
RTVSPost2010PropOp37
 70
     1
102
RTVSPost2010Prop38
140
0.0
102
RTVSPost2010PropOp38
 70
     1
102
RTVSPost2010Prop39
140
1.0
102
RTVSPost2010PropOp39
 70
     1
102
RTVSPost2010Prop40
 90
        0
102
RTVSPost2010PropOp40
 70
     1
102
RTVSPost2010Prop41ColorIndex
 90
       18
102
RTVSPost2010Prop41ColorRGB
 90
        0
102
RTVSPost2010PropOp41
 70
     1
102
RTVSPost2010Prop42
 90
       50
102
RTVSPost2010PropOp42
 70
     1
102
RTVSPost2010Prop43
 90
        3
102
RTVSPost2010PropOp43
 70
     1
102
RTVSPost2010Prop44ColorIndex
 90
        5
102
RTVSPost2010Prop44ColorRGB
 90
      255
102
RTVSPost2010PropOp44
 70
     1
102
RTVSPost2010Prop45
280
     0
102
RTVSPost2010PropOp45
 70
     1
102
RTVSPost2010Prop46
 90
       50
102
RTVSPost2010PropOp46
 70
     1
102
RTVSPost2010Prop47
 90
       50
102
RTVSPost2010PropOp47
 70
     1
102
RTVSPost2010Prop48
 90
       50
102
RTVSPost2010PropOp48
 70
     1
102
RTVSPost2010Prop49
280
     0
102
RTVSPost2010PropOp49
 70
     1
102
RTVSPost2010Prop50
 90
       50
102
RTVSPost2010PropOp50
 70
     1
102
RTVSPost2010Prop51ColorIndex
 90
      256
102
RTVSPost2010Prop51ColorRGB
 90
-16777216
102
RTVSPost2010PropOp51
 70
     0
102
RTVSPost2010Prop52
140
1.0
102
RTVSPost2010PropOp52
 70
     0
102
RTVSPost2010Prop53
 90
        2
102
RTVSPost2010PropOp53
 70
     1
102
RTVSPost2010Prop54
  1
strokes_ogs.tif
102
RTVSPost2010PropOp54
 70
     1
102
RTVSPost2010Prop55
280
     0
102
RTVSPost2010PropOp55
 70
     1
102
RTVSPost2010Prop56
140
1.0
102
RTVSPost2010PropOp56
 70
     1
102
RTVSPost2010Prop57
140
1.0
102
RTVSPost2010PropOp57
 70
     1
102
RTVSPropertyOp0
 70
     1
102
RTVSPropertyOp1
 70
     1
102
RTVSPropertyOp2
 70
     1
102
RTVSPropertyOp3
 70
     1
102
RTVSPropertyOp4
 70
     1
102
RTVSPropertyOp5
 70
     1
102
RTVSPropertyOp6
 70
     1
102
RTVSPropertyOp7
 70
     1
102
RTVSPropertyOp8
 70
     1
102
RTVSPropertyOp9
 70
     1
102
RTVSPropertyOp10
 70
     1
102
RTVSPropertyOp11
 70
     1
102
RTVSPropertyOp12
 70
     1
102
RTVSPropertyOp13
 70
     1
102
RTVSPropertyOp14
 70
     1
102
RTVSPropertyOp15
 70
     1
102
RTVSPropertyOp16
 70
     1
102
RTVSPropertyOp17
 70
     1
102
RTVSPropertyOp18
 70
     1
102
RTVSPropertyOp19
 70
     1
102
RTVSPropertyOp20
 70
     1
102
RTVSPropertyOp21
 70
     1
102
RTVSPropertyOp22
 70
     1
102
RTVSPropertyOp23
 70
     1
102
RTVSPropertyOp24
 70
     1
102
RTVSPropertyOp25
 70
     1
102
RTVSPropertyOp26
 70
     1
102
RTVSPropertyOp27
 70
     1
102
RTVSPropertyOp28
 70
     1
102
RTVSPropertyOp29
 70
     1
102
RTVSPropertyOp30
 70
     1
102
RTVSPropertyOp31
 70
     1
102
RTVSPropertyOp32
 70
     1
102
RTVSPropertyOp33
 70
     1
102
RTVSPropertyOp34
 70
     1
102
RTVSPropertyOp35
 70
     1
102
RTVSPropertyOp36
 70
     1
102
RTVSPropertyOp37
 70
     1
102
RTVSPropertyOp38
 70
     1
102
RTVSPropertyOp39
 70
     1
102
RTVSPropertyOp40
 70
     1
102
RTVSPropertyOp41
 70
     1
102
RTVSPropertyOp42
 70
     1
102
RTVSPropertyOp43
 70
     1
102
RTVSPropertyOp44
 70
     1
102
RTVSPropertyOp45
 70
     1
102
RTVSPropertyOp46
 70
     1
102
RTVSPropertyOp47
 70
     1
102
RTVSPropertyOp48
 70
     1
102
RTVSPropertyOp49
 70
     1
102
RTVSPropertyOp50
 70
     1
102
RTVSPropertyOp51
 70
     0
102
RTVSPropertyOp52
 70
     0
102
RTVSPropertyOp53
 70
     1
102
RTVSPropertyOp54
 70
     1
102
RTVSPropertyOp55
 70
     1
102
RTVSPropertyOp56
 70
     1
102
RTVSPropertyOp57
 70
     1
102
RTVSPropertyOp58
 70
     1
102
RTVSPropertyOp59
 70
     1
102
RTVSPropertyOp60
 70
     1
102
RTVSPropertyOp61
 70
     1
102
RTVSPropertyOp62
 70
     1
  0
XRECORD
  5
8723
102
{ACAD_REACTORS
330
8722
102
}
330
8722
100
AcDbXrecord
280
     1
102
RTVSPost2010Prop28
280
     0
102
RTVSPost2010PropOp28
 70
     1
102
RTVSPost2010Prop29
280
     1
102
RTVSPost2010PropOp29
 70
     1
102
RTVSPost2010Prop30
280
     1
102
RTVSPost2010PropOp30
 70
     1
102
RTVSPost2010Prop31
280
     0
102
RTVSPost2010PropOp31
 70
     1
102
RTVSPost2010Prop32
280
     0
102
RTVSPost2010PropOp32
 70
     1
102
RTVSPost2010Prop33
280
     0
102
RTVSPost2010PropOp33
 70
     1
102
RTVSPost2010Prop34
280
     0
102
RTVSPost2010PropOp34
 70
     1
102
RTVSPost2010Prop35
280
     0
102
RTVSPost2010PropOp35
 70
     1
102
RTVSPost2010Prop36
280
     0
102
RTVSPost2010PropOp36
 70
     1
102
RTVSPost2010Prop37
 90
       50
102
RTVSPost2010PropOp37
 70
     1
102
RTVSPost2010Prop38
140
0.0
102
RTVSPost2010PropOp38
 70
     1
102
RTVSPost2010Prop39
140
1.0
102
RTVSPost2010PropOp39
 70
     1
102
RTVSPost2010Prop40
 90
        0
102
RTVSPost2010PropOp40
 70
     1
102
RTVSPost2010Prop41ColorIndex
 90
       18
102
RTVSPost2010Prop41ColorRGB
 90
        0
102
RTVSPost2010PropOp41
 70
     1
102
RTVSPost2010Prop42
 90
       50
102
RTVSPost2010PropOp42
 70
     1
102
RTVSPost2010Prop43
 90
        3
102
RTVSPost2010PropOp43
 70
     1
102
RTVSPost2010Prop44ColorIndex
 90
        5
102
RTVSPost2010Prop44ColorRGB
 90
      255
102
RTVSPost2010PropOp44
 70
     1
102
RTVSPost2010Prop45
280
     0
102
RTVSPost2010PropOp45
 70
     1
102
RTVSPost2010Prop46
 90
       50
102
RTVSPost2010PropOp46
 70
     1
102
RTVSPost2010Prop47
 90
       50
102
RTVSPost2010PropOp47
 70
     1
102
RTVSPost2010Prop48
 90
       50
102
RTVSPost2010PropOp48
 70
     1
102
RTVSPost2010Prop49
280
     0
102
RTVSPost2010PropOp49
 70
     1
102
RTVSPost2010Prop50
 90
       50
102
RTVSPost2010PropOp50
 70
     1
102
RTVSPost2010Prop51ColorIndex
 90
      256
102
RTVSPost2010Prop51ColorRGB
 90
-16777216
102
RTVSPost2010PropOp51
 70
     0
102
RTVSPost2010Prop52
140
1.0
102
RTVSPost2010PropOp52
 70
     0
102
RTVSPost2010Prop53
 90
        2
102
RTVSPost2010PropOp53
 70
     1
102
RTVSPost2010Prop54
  1
strokes_ogs.tif
102
RTVSPost2010PropOp54
 70
     1
102
RTVSPost2010Prop55
280
     0
102
RTVSPost2010PropOp55
 70
     1
102
RTVSPost2010Prop56
140
1.0
102
RTVSPost2010PropOp56
 70
     1
102
RTVSPost2010Prop57
140
1.0
102
RTVSPost2010PropOp57
 70
     1
102
RTVSPropertyOp0
 70
     1
102
RTVSPropertyOp1
 70
     1
102
RTVSPropertyOp2
 70
     1
102
RTVSPropertyOp3
 70
     1
102
RTVSPropertyOp4
 70
     1
102
RTVSPropertyOp5
 70
     1
102
RTVSPropertyOp6
 70
     1
102
RTVSPropertyOp7
 70
     1
102
RTVSPropertyOp8
 70
     1
102
RTVSPropertyOp9
 70
     1
102
RTVSPropertyOp10
 70
     1
102
RTVSPropertyOp11
 70
     1
102
RTVSPropertyOp12
 70
     1
102
RTVSPropertyOp13
 70
     1
102
RTVSPropertyOp14
 70
     1
102
RTVSPropertyOp15
 70
     1
102
RTVSPropertyOp16
 70
     1
102
RTVSPropertyOp17
 70
     1
102
RTVSPropertyOp18
 70
     1
102
RTVSPropertyOp19
 70
     1
102
RTVSPropertyOp20
 70
     1
102
RTVSPropertyOp21
 70
     1
102
RTVSPropertyOp22
 70
     1
102
RTVSPropertyOp23
 70
     1
102
RTVSPropertyOp24
 70
     1
102
RTVSPropertyOp25
 70
     1
102
RTVSPropertyOp26
 70
     1
102
RTVSPropertyOp27
 70
     1
102
RTVSPropertyOp28
 70
     1
102
RTVSPropertyOp29
 70
     1
102
RTVSPropertyOp30
 70
     1
102
RTVSPropertyOp31
 70
     1
102
RTVSPropertyOp32
 70
     1
102
RTVSPropertyOp33
 70
     1
102
RTVSPropertyOp34
 70
     1
102
RTVSPropertyOp35
 70
     1
102
RTVSPropertyOp36
 70
     1
102
RTVSPropertyOp37
 70
     1
102
RTVSPropertyOp38
 70
     1
102
RTVSPropertyOp39
 70
     1
102
RTVSPropertyOp40
 70
     1
102
RTVSPropertyOp41
 70
     1
102
RTVSPropertyOp42
 70
     1
102
RTVSPropertyOp43
 70
     1
102
RTVSPropertyOp44
 70
     1
102
RTVSPropertyOp45
 70
     1
102
RTVSPropertyOp46
 70
     1
102
RTVSPropertyOp47
 70
     1
102
RTVSPropertyOp48
 70
     1
102
RTVSPropertyOp49
 70
     1
102
RTVSPropertyOp50
 70
     1
102
RTVSPropertyOp51
 70
     0
102
RTVSPropertyOp52
 70
     0
102
RTVSPropertyOp53
 70
     1
102
RTVSPropertyOp54
 70
     1
102
RTVSPropertyOp55
 70
     1
102
RTVSPropertyOp56
 70
     1
102
RTVSPropertyOp57
 70
     1
102
RTVSPropertyOp58
 70
     1
102
RTVSPropertyOp59
 70
     1
102
RTVSPropertyOp60
 70
     1
102
RTVSPropertyOp61
 70
     1
102
RTVSPropertyOp62
 70
     1
  0
XRECORD
  5
8731
102
{ACAD_REACTORS
330
8730
102
}
330
8730
100
AcDbXrecord
280
     1
102
RTVSPost2010Prop28
280
     0
102
RTVSPost2010PropOp28
 70
     1
102
RTVSPost2010Prop29
280
     1
102
RTVSPost2010PropOp29
 70
     1
102
RTVSPost2010Prop30
280
     1
102
RTVSPost2010PropOp30
 70
     1
102
RTVSPost2010Prop31
280
     0
102
RTVSPost2010PropOp31
 70
     1
102
RTVSPost2010Prop32
280
     0
102
RTVSPost2010PropOp32
 70
     1
102
RTVSPost2010Prop33
280
     0
102
RTVSPost2010PropOp33
 70
     1
102
RTVSPost2010Prop34
280
     0
102
RTVSPost2010PropOp34
 70
     1
102
RTVSPost2010Prop35
280
     0
102
RTVSPost2010PropOp35
 70
     1
102
RTVSPost2010Prop36
280
     0
102
RTVSPost2010PropOp36
 70
     1
102
RTVSPost2010Prop37
 90
       50
102
RTVSPost2010PropOp37
 70
     1
102
RTVSPost2010Prop38
140
0.0
102
RTVSPost2010PropOp38
 70
     1
102
RTVSPost2010Prop39
140
1.0
102
RTVSPost2010PropOp39
 70
     1
102
RTVSPost2010Prop40
 90
        0
102
RTVSPost2010PropOp40
 70
     1
102
RTVSPost2010Prop41ColorIndex
 90
       18
102
RTVSPost2010Prop41ColorRGB
 90
        0
102
RTVSPost2010PropOp41
 70
     1
102
RTVSPost2010Prop42
 90
       50
102
RTVSPost2010PropOp42
 70
     1
102
RTVSPost2010Prop43
 90
        3
102
RTVSPost2010PropOp43
 70
     1
102
RTVSPost2010Prop44ColorIndex
 90
        5
102
RTVSPost2010Prop44ColorRGB
 90
      255
102
RTVSPost2010PropOp44
 70
     1
102
RTVSPost2010Prop45
280
     0
102
RTVSPost2010PropOp45
 70
     1
102
RTVSPost2010Prop46
 90
       50
102
RTVSPost2010PropOp46
 70
     1
102
RTVSPost2010Prop47
 90
       50
102
RTVSPost2010PropOp47
 70
     1
102
RTVSPost2010Prop48
 90
       50
102
RTVSPost2010PropOp48
 70
     1
102
RTVSPost2010Prop49
280
     0
102
RTVSPost2010PropOp49
 70
     1
102
RTVSPost2010Prop50
 90
       50
102
RTVSPost2010PropOp50
 70
     1
102
RTVSPost2010Prop51ColorIndex
 90
      256
102
RTVSPost2010Prop51ColorRGB
 90
-16777216
102
RTVSPost2010PropOp51
 70
     0
102
RTVSPost2010Prop52
140
1.0
102
RTVSPost2010PropOp52
 70
     0
102
RTVSPost2010Prop53
 90
        2
102
RTVSPost2010PropOp53
 70
     1
102
RTVSPost2010Prop54
  1
strokes_ogs.tif
102
RTVSPost2010PropOp54
 70
     1
102
RTVSPost2010Prop55
280
     0
102
RTVSPost2010PropOp55
 70
     1
102
RTVSPost2010Prop56
140
1.0
102
RTVSPost2010PropOp56
 70
     1
102
RTVSPost2010Prop57
140
1.0
102
RTVSPost2010PropOp57
 70
     1
102
RTVSPropertyOp0
 70
     1
102
RTVSPropertyOp1
 70
     1
102
RTVSPropertyOp2
 70
     1
102
RTVSPropertyOp3
 70
     1
102
RTVSPropertyOp4
 70
     1
102
RTVSPropertyOp5
 70
     1
102
RTVSPropertyOp6
 70
     1
102
RTVSPropertyOp7
 70
     1
102
RTVSPropertyOp8
 70
     1
102
RTVSPropertyOp9
 70
     1
102
RTVSPropertyOp10
 70
     1
102
RTVSPropertyOp11
 70
     1
102
RTVSPropertyOp12
 70
     1
102
RTVSPropertyOp13
 70
     1
102
RTVSPropertyOp14
 70
     1
102
RTVSPropertyOp15
 70
     1
102
RTVSPropertyOp16
 70
     1
102
RTVSPropertyOp17
 70
     1
102
RTVSPropertyOp18
 70
     1
102
RTVSPropertyOp19
 70
     1
102
RTVSPropertyOp20
 70
     1
102
RTVSPropertyOp21
 70
     1
102
RTVSPropertyOp22
 70
     1
102
RTVSPropertyOp23
 70
     1
102
RTVSPropertyOp24
 70
     1
102
RTVSPropertyOp25
 70
     1
102
RTVSPropertyOp26
 70
     1
102
RTVSPropertyOp27
 70
     1
102
RTVSPropertyOp28
 70
     1
102
RTVSPropertyOp29
 70
     1
102
RTVSPropertyOp30
 70
     1
102
RTVSPropertyOp31
 70
     1
102
RTVSPropertyOp32
 70
     1
102
RTVSPropertyOp33
 70
     1
102
RTVSPropertyOp34
 70
     1
102
RTVSPropertyOp35
 70
     1
102
RTVSPropertyOp36
 70
     1
102
RTVSPropertyOp37
 70
     1
102
RTVSPropertyOp38
 70
     1
102
RTVSPropertyOp39
 70
     1
102
RTVSPropertyOp40
 70
     1
102
RTVSPropertyOp41
 70
     1
102
RTVSPropertyOp42
 70
     1
102
RTVSPropertyOp43
 70
     1
102
RTVSPropertyOp44
 70
     1
102
RTVSPropertyOp45
 70
     1
102
RTVSPropertyOp46
 70
     1
102
RTVSPropertyOp47
 70
     1
102
RTVSPropertyOp48
 70
     1
102
RTVSPropertyOp49
 70
     1
102
RTVSPropertyOp50
 70
     1
102
RTVSPropertyOp51
 70
     0
102
RTVSPropertyOp52
 70
     0
102
RTVSPropertyOp53
 70
     1
102
RTVSPropertyOp54
 70
     1
102
RTVSPropertyOp55
 70
     1
102
RTVSPropertyOp56
 70
     1
102
RTVSPropertyOp57
 70
     1
102
RTVSPropertyOp58
 70
     1
102
RTVSPropertyOp59
 70
     1
102
RTVSPropertyOp60
 70
     1
102
RTVSPropertyOp61
 70
     1
102
RTVSPropertyOp62
 70
     1
  0
XRECORD
  5
8739
102
{ACAD_REACTORS
330
8738
102
}
330
8738
100
AcDbXrecord
280
     1
102
RTVSPost2010Prop28
280
     0
102
RTVSPost2010PropOp28
 70
     1
102
RTVSPost2010Prop29
280
     1
102
RTVSPost2010PropOp29
 70
     1
102
RTVSPost2010Prop30
280
     1
102
RTVSPost2010PropOp30
 70
     1
102
RTVSPost2010Prop31
280
     0
102
RTVSPost2010PropOp31
 70
     1
102
RTVSPost2010Prop32
280
     0
102
RTVSPost2010PropOp32
 70
     1
102
RTVSPost2010Prop33
280
     0
102
RTVSPost2010PropOp33
 70
     1
102
RTVSPost2010Prop34
280
     0
102
RTVSPost2010PropOp34
 70
     1
102
RTVSPost2010Prop35
280
     0
102
RTVSPost2010PropOp35
 70
     1
102
RTVSPost2010Prop36
280
     0
102
RTVSPost2010PropOp36
 70
     1
102
RTVSPost2010Prop37
 90
       50
102
RTVSPost2010PropOp37
 70
     1
102
RTVSPost2010Prop38
140
0.0
102
RTVSPost2010PropOp38
 70
     1
102
RTVSPost2010Prop39
140
1.0
102
RTVSPost2010PropOp39
 70
     1
102
RTVSPost2010Prop40
 90
        0
102
RTVSPost2010PropOp40
 70
     1
102
RTVSPost2010Prop41ColorIndex
 90
       18
102
RTVSPost2010Prop41ColorRGB
 90
        0
102
RTVSPost2010PropOp41
 70
     1
102
RTVSPost2010Prop42
 90
       50
102
RTVSPost2010PropOp42
 70
     1
102
RTVSPost2010Prop43
 90
        3
102
RTVSPost2010PropOp43
 70
     1
102
RTVSPost2010Prop44ColorIndex
 90
        5
102
RTVSPost2010Prop44ColorRGB
 90
      255
102
RTVSPost2010PropOp44
 70
     1
102
RTVSPost2010Prop45
280
     0
102
RTVSPost2010PropOp45
 70
     1
102
RTVSPost2010Prop46
 90
       50
102
RTVSPost2010PropOp46
 70
     1
102
RTVSPost2010Prop47
 90
       50
102
RTVSPost2010PropOp47
 70
     1
102
RTVSPost2010Prop48
 90
       50
102
RTVSPost2010PropOp48
 70
     1
102
RTVSPost2010Prop49
280
     0
102
RTVSPost2010PropOp49
 70
     1
102
RTVSPost2010Prop50
 90
       50
102
RTVSPost2010PropOp50
 70
     1
102
RTVSPost2010Prop51ColorIndex
 90
      256
102
RTVSPost2010Prop51ColorRGB
 90
-16777216
102
RTVSPost2010PropOp51
 70
     0
102
RTVSPost2010Prop52
140
1.0
102
RTVSPost2010PropOp52
 70
     0
102
RTVSPost2010Prop53
 90
        2
102
RTVSPost2010PropOp53
 70
     1
102
RTVSPost2010Prop54
  1
strokes_ogs.tif
102
RTVSPost2010PropOp54
 70
     1
102
RTVSPost2010Prop55
280
     0
102
RTVSPost2010PropOp55
 70
     1
102
RTVSPost2010Prop56
140
1.0
102
RTVSPost2010PropOp56
 70
     1
102
RTVSPost2010Prop57
140
1.0
102
RTVSPost2010PropOp57
 70
     1
102
RTVSPropertyOp0
 70
     1
102
RTVSPropertyOp1
 70
     1
102
RTVSPropertyOp2
 70
     1
102
RTVSPropertyOp3
 70
     1
102
RTVSPropertyOp4
 70
     1
102
RTVSPropertyOp5
 70
     1
102
RTVSPropertyOp6
 70
     1
102
RTVSPropertyOp7
 70
     1
102
RTVSPropertyOp8
 70
     1
102
RTVSPropertyOp9
 70
     1
102
RTVSPropertyOp10
 70
     1
102
RTVSPropertyOp11
 70
     1
102
RTVSPropertyOp12
 70
     1
102
RTVSPropertyOp13
 70
     1
102
RTVSPropertyOp14
 70
     1
102
RTVSPropertyOp15
 70
     1
102
RTVSPropertyOp16
 70
     1
102
RTVSPropertyOp17
 70
     1
102
RTVSPropertyOp18
 70
     1
102
RTVSPropertyOp19
 70
     1
102
RTVSPropertyOp20
 70
     1
102
RTVSPropertyOp21
 70
     1
102
RTVSPropertyOp22
 70
     1
102
RTVSPropertyOp23
 70
     1
102
RTVSPropertyOp24
 70
     1
102
RTVSPropertyOp25
 70
     1
102
RTVSPropertyOp26
 70
     1
102
RTVSPropertyOp27
 70
     1
102
RTVSPropertyOp28
 70
     1
102
RTVSPropertyOp29
 70
     1
102
RTVSPropertyOp30
 70
     1
102
RTVSPropertyOp31
 70
     1
102
RTVSPropertyOp32
 70
     1
102
RTVSPropertyOp33
 70
     1
102
RTVSPropertyOp34
 70
     1
102
RTVSPropertyOp35
 70
     1
102
RTVSPropertyOp36
 70
     1
102
RTVSPropertyOp37
 70
     1
102
RTVSPropertyOp38
 70
     1
102
RTVSPropertyOp39
 70
     1
102
RTVSPropertyOp40
 70
     1
102
RTVSPropertyOp41
 70
     1
102
RTVSPropertyOp42
 70
     1
102
RTVSPropertyOp43
 70
     1
102
RTVSPropertyOp44
 70
     1
102
RTVSPropertyOp45
 70
     1
102
RTVSPropertyOp46
 70
     1
102
RTVSPropertyOp47
 70
     1
102
RTVSPropertyOp48
 70
     1
102
RTVSPropertyOp49
 70
     1
102
RTVSPropertyOp50
 70
     1
102
RTVSPropertyOp51
 70
     0
102
RTVSPropertyOp52
 70
     0
102
RTVSPropertyOp53
 70
     1
102
RTVSPropertyOp54
 70
     1
102
RTVSPropertyOp55
 70
     1
102
RTVSPropertyOp56
 70
     1
102
RTVSPropertyOp57
 70
     1
102
RTVSPropertyOp58
 70
     1
102
RTVSPropertyOp59
 70
     1
102
RTVSPropertyOp60
 70
     1
102
RTVSPropertyOp61
 70
     1
102
RTVSPropertyOp62
 70
     1
  0
XRECORD
  5
872B
102
{ACAD_REACTORS
330
872A
102
}
330
872A
100
AcDbXrecord
280
     1
102
RTVSPost2010Prop28
280
     0
102
RTVSPost2010PropOp28
 70
     1
102
RTVSPost2010Prop29
280
     1
102
RTVSPost2010PropOp29
 70
     1
102
RTVSPost2010Prop30
280
     1
102
RTVSPost2010PropOp30
 70
     1
102
RTVSPost2010Prop31
280
     0
102
RTVSPost2010PropOp31
 70
     1
102
RTVSPost2010Prop32
280
     0
102
RTVSPost2010PropOp32
 70
     1
102
RTVSPost2010Prop33
280
     0
102
RTVSPost2010PropOp33
 70
     1
102
RTVSPost2010Prop34
280
     0
102
RTVSPost2010PropOp34
 70
     1
102
RTVSPost2010Prop35
280
     0
102
RTVSPost2010PropOp35
 70
     1
102
RTVSPost2010Prop36
280
     0
102
RTVSPost2010PropOp36
 70
     1
102
RTVSPost2010Prop37
 90
       50
102
RTVSPost2010PropOp37
 70
     1
102
RTVSPost2010Prop38
140
0.0
102
RTVSPost2010PropOp38
 70
     1
102
RTVSPost2010Prop39
140
1.0
102
RTVSPost2010PropOp39
 70
     1
102
RTVSPost2010Prop40
 90
        0
102
RTVSPost2010PropOp40
 70
     1
102
RTVSPost2010Prop41ColorIndex
 90
       18
102
RTVSPost2010Prop41ColorRGB
 90
        0
102
RTVSPost2010PropOp41
 70
     1
102
RTVSPost2010Prop42
 90
       50
102
RTVSPost2010PropOp42
 70
     1
102
RTVSPost2010Prop43
 90
        3
102
RTVSPost2010PropOp43
 70
     1
102
RTVSPost2010Prop44ColorIndex
 90
        5
102
RTVSPost2010Prop44ColorRGB
 90
      255
102
RTVSPost2010PropOp44
 70
     1
102
RTVSPost2010Prop45
280
     0
102
RTVSPost2010PropOp45
 70
     1
102
RTVSPost2010Prop46
 90
       50
102
RTVSPost2010PropOp46
 70
     1
102
RTVSPost2010Prop47
 90
       50
102
RTVSPost2010PropOp47
 70
     1
102
RTVSPost2010Prop48
 90
       50
102
RTVSPost2010PropOp48
 70
     1
102
RTVSPost2010Prop49
280
     0
102
RTVSPost2010PropOp49
 70
     1
102
RTVSPost2010Prop50
 90
       50
102
RTVSPost2010PropOp50
 70
     1
102
RTVSPost2010Prop51ColorIndex
 90
      256
102
RTVSPost2010Prop51ColorRGB
 90
-16777216
102
RTVSPost2010PropOp51
 70
     0
102
RTVSPost2010Prop52
140
1.0
102
RTVSPost2010PropOp52
 70
     0
102
RTVSPost2010Prop53
 90
        2
102
RTVSPost2010PropOp53
 70
     1
102
RTVSPost2010Prop54
  1
strokes_ogs.tif
102
RTVSPost2010PropOp54
 70
     1
102
RTVSPost2010Prop55
280
     0
102
RTVSPost2010PropOp55
 70
     1
102
RTVSPost2010Prop56
140
1.0
102
RTVSPost2010PropOp56
 70
     1
102
RTVSPost2010Prop57
140
1.0
102
RTVSPost2010PropOp57
 70
     1
102
RTVSPropertyOp0
 70
     1
102
RTVSPropertyOp1
 70
     1
102
RTVSPropertyOp2
 70
     1
102
RTVSPropertyOp3
 70
     1
102
RTVSPropertyOp4
 70
     1
102
RTVSPropertyOp5
 70
     1
102
RTVSPropertyOp6
 70
     1
102
RTVSPropertyOp7
 70
     1
102
RTVSPropertyOp8
 70
     1
102
RTVSPropertyOp9
 70
     1
102
RTVSPropertyOp10
 70
     1
102
RTVSPropertyOp11
 70
     1
102
RTVSPropertyOp12
 70
     1
102
RTVSPropertyOp13
 70
     1
102
RTVSPropertyOp14
 70
     1
102
RTVSPropertyOp15
 70
     1
102
RTVSPropertyOp16
 70
     1
102
RTVSPropertyOp17
 70
     1
102
RTVSPropertyOp18
 70
     1
102
RTVSPropertyOp19
 70
     1
102
RTVSPropertyOp20
 70
     1
102
RTVSPropertyOp21
 70
     1
102
RTVSPropertyOp22
 70
     1
102
RTVSPropertyOp23
 70
     1
102
RTVSPropertyOp24
 70
     1
102
RTVSPropertyOp25
 70
     1
102
RTVSPropertyOp26
 70
     1
102
RTVSPropertyOp27
 70
     1
102
RTVSPropertyOp28
 70
     1
102
RTVSPropertyOp29
 70
     1
102
RTVSPropertyOp30
 70
     1
102
RTVSPropertyOp31
 70
     1
102
RTVSPropertyOp32
 70
     1
102
RTVSPropertyOp33
 70
     1
102
RTVSPropertyOp34
 70
     1
102
RTVSPropertyOp35
 70
     1
102
RTVSPropertyOp36
 70
     1
102
RTVSPropertyOp37
 70
     1
102
RTVSPropertyOp38
 70
     1
102
RTVSPropertyOp39
 70
     1
102
RTVSPropertyOp40
 70
     1
102
RTVSPropertyOp41
 70
     1
102
RTVSPropertyOp42
 70
     1
102
RTVSPropertyOp43
 70
     1
102
RTVSPropertyOp44
 70
     1
102
RTVSPropertyOp45
 70
     1
102
RTVSPropertyOp46
 70
     1
102
RTVSPropertyOp47
 70
     1
102
RTVSPropertyOp48
 70
     1
102
RTVSPropertyOp49
 70
     1
102
RTVSPropertyOp50
 70
     1
102
RTVSPropertyOp51
 70
     0
102
RTVSPropertyOp52
 70
     0
102
RTVSPropertyOp53
 70
     1
102
RTVSPropertyOp54
 70
     1
102
RTVSPropertyOp55
 70
     1
102
RTVSPropertyOp56
 70
     1
102
RTVSPropertyOp57
 70
     1
102
RTVSPropertyOp58
 70
     1
102
RTVSPropertyOp59
 70
     1
102
RTVSPropertyOp60
 70
     1
102
RTVSPropertyOp61
 70
     1
102
RTVSPropertyOp62
 70
     1
  0
XRECORD
  5
872F
102
{ACAD_REACTORS
330
872E
102
}
330
872E
100
AcDbXrecord
280
     1
102
RTVSPost2010Prop28
280
     0
102
RTVSPost2010PropOp28
 70
     1
102
RTVSPost2010Prop29
280
     1
102
RTVSPost2010PropOp29
 70
     1
102
RTVSPost2010Prop30
280
     1
102
RTVSPost2010PropOp30
 70
     1
102
RTVSPost2010Prop31
280
     0
102
RTVSPost2010PropOp31
 70
     1
102
RTVSPost2010Prop32
280
     0
102
RTVSPost2010PropOp32
 70
     1
102
RTVSPost2010Prop33
280
     0
102
RTVSPost2010PropOp33
 70
     1
102
RTVSPost2010Prop34
280
     0
102
RTVSPost2010PropOp34
 70
     1
102
RTVSPost2010Prop35
280
     0
102
RTVSPost2010PropOp35
 70
     1
102
RTVSPost2010Prop36
280
     0
102
RTVSPost2010PropOp36
 70
     1
102
RTVSPost2010Prop37
 90
       50
102
RTVSPost2010PropOp37
 70
     1
102
RTVSPost2010Prop38
140
0.0
102
RTVSPost2010PropOp38
 70
     1
102
RTVSPost2010Prop39
140
1.0
102
RTVSPost2010PropOp39
 70
     1
102
RTVSPost2010Prop40
 90
        0
102
RTVSPost2010PropOp40
 70
     1
102
RTVSPost2010Prop41ColorIndex
 90
       18
102
RTVSPost2010Prop41ColorRGB
 90
        0
102
RTVSPost2010PropOp41
 70
     1
102
RTVSPost2010Prop42
 90
       50
102
RTVSPost2010PropOp42
 70
     1
102
RTVSPost2010Prop43
 90
        3
102
RTVSPost2010PropOp43
 70
     1
102
RTVSPost2010Prop44ColorIndex
 90
        5
102
RTVSPost2010Prop44ColorRGB
 90
      255
102
RTVSPost2010PropOp44
 70
     1
102
RTVSPost2010Prop45
280
     0
102
RTVSPost2010PropOp45
 70
     1
102
RTVSPost2010Prop46
 90
       50
102
RTVSPost2010PropOp46
 70
     1
102
RTVSPost2010Prop47
 90
       50
102
RTVSPost2010PropOp47
 70
     1
102
RTVSPost2010Prop48
 90
       50
102
RTVSPost2010PropOp48
 70
     1
102
RTVSPost2010Prop49
280
     0
102
RTVSPost2010PropOp49
 70
     1
102
RTVSPost2010Prop50
 90
       50
102
RTVSPost2010PropOp50
 70
     1
102
RTVSPost2010Prop51ColorIndex
 90
      256
102
RTVSPost2010Prop51ColorRGB
 90
-16777216
102
RTVSPost2010PropOp51
 70
     0
102
RTVSPost2010Prop52
140
1.0
102
RTVSPost2010PropOp52
 70
     0
102
RTVSPost2010Prop53
 90
        2
102
RTVSPost2010PropOp53
 70
     1
102
RTVSPost2010Prop54
  1
strokes_ogs.tif
102
RTVSPost2010PropOp54
 70
     1
102
RTVSPost2010Prop55
280
     0
102
RTVSPost2010PropOp55
 70
     1
102
RTVSPost2010Prop56
140
1.0
102
RTVSPost2010PropOp56
 70
     1
102
RTVSPost2010Prop57
140
1.0
102
RTVSPost2010PropOp57
 70
     1
102
RTVSPropertyOp0
 70
     1
102
RTVSPropertyOp1
 70
     1
102
RTVSPropertyOp2
 70
     1
102
RTVSPropertyOp3
 70
     1
102
RTVSPropertyOp4
 70
     1
102
RTVSPropertyOp5
 70
     1
102
RTVSPropertyOp6
 70
     1
102
RTVSPropertyOp7
 70
     1
102
RTVSPropertyOp8
 70
     1
102
RTVSPropertyOp9
 70
     1
102
RTVSPropertyOp10
 70
     1
102
RTVSPropertyOp11
 70
     1
102
RTVSPropertyOp12
 70
     1
102
RTVSPropertyOp13
 70
     1
102
RTVSPropertyOp14
 70
     1
102
RTVSPropertyOp15
 70
     1
102
RTVSPropertyOp16
 70
     1
102
RTVSPropertyOp17
 70
     1
102
RTVSPropertyOp18
 70
     1
102
RTVSPropertyOp19
 70
     1
102
RTVSPropertyOp20
 70
     1
102
RTVSPropertyOp21
 70
     1
102
RTVSPropertyOp22
 70
     1
102
RTVSPropertyOp23
 70
     1
102
RTVSPropertyOp24
 70
     1
102
RTVSPropertyOp25
 70
     1
102
RTVSPropertyOp26
 70
     1
102
RTVSPropertyOp27
 70
     1
102
RTVSPropertyOp28
 70
     1
102
RTVSPropertyOp29
 70
     1
102
RTVSPropertyOp30
 70
     1
102
RTVSPropertyOp31
 70
     1
102
RTVSPropertyOp32
 70
     1
102
RTVSPropertyOp33
 70
     1
102
RTVSPropertyOp34
 70
     1
102
RTVSPropertyOp35
 70
     1
102
RTVSPropertyOp36
 70
     1
102
RTVSPropertyOp37
 70
     1
102
RTVSPropertyOp38
 70
     1
102
RTVSPropertyOp39
 70
     1
102
RTVSPropertyOp40
 70
     1
102
RTVSPropertyOp41
 70
     1
102
RTVSPropertyOp42
 70
     1
102
RTVSPropertyOp43
 70
     1
102
RTVSPropertyOp44
 70
     1
102
RTVSPropertyOp45
 70
     1
102
RTVSPropertyOp46
 70
     1
102
RTVSPropertyOp47
 70
     1
102
RTVSPropertyOp48
 70
     1
102
RTVSPropertyOp49
 70
     1
102
RTVSPropertyOp50
 70
     1
102
RTVSPropertyOp51
 70
     0
102
RTVSPropertyOp52
 70
     0
102
RTVSPropertyOp53
 70
     1
102
RTVSPropertyOp54
 70
     1
102
RTVSPropertyOp55
 70
     1
102
RTVSPropertyOp56
 70
     1
102
RTVSPropertyOp57
 70
     1
102
RTVSPropertyOp58
 70
     1
102
RTVSPropertyOp59
 70
     1
102
RTVSPropertyOp60
 70
     1
102
RTVSPropertyOp61
 70
     1
102
RTVSPropertyOp62
 70
     1
  0
XRECORD
  5
8741
102
{ACAD_REACTORS
330
8740
102
}
330
8740
100
AcDbXrecord
280
     1
102
RTVSPost2010Prop28
280
     0
102
RTVSPost2010PropOp28
 70
     1
102
RTVSPost2010Prop29
280
     1
102
RTVSPost2010PropOp29
 70
     1
102
RTVSPost2010Prop30
280
     1
102
RTVSPost2010PropOp30
 70
     1
102
RTVSPost2010Prop31
280
     0
102
RTVSPost2010PropOp31
 70
     1
102
RTVSPost2010Prop32
280
     0
102
RTVSPost2010PropOp32
 70
     1
102
RTVSPost2010Prop33
280
     0
102
RTVSPost2010PropOp33
 70
     1
102
RTVSPost2010Prop34
280
     0
102
RTVSPost2010PropOp34
 70
     1
102
RTVSPost2010Prop35
280
     0
102
RTVSPost2010PropOp35
 70
     1
102
RTVSPost2010Prop36
280
     0
102
RTVSPost2010PropOp36
 70
     1
102
RTVSPost2010Prop37
 90
       50
102
RTVSPost2010PropOp37
 70
     1
102
RTVSPost2010Prop38
140
0.0
102
RTVSPost2010PropOp38
 70
     1
102
RTVSPost2010Prop39
140
1.0
102
RTVSPost2010PropOp39
 70
     1
102
RTVSPost2010Prop40
 90
        0
102
RTVSPost2010PropOp40
 70
     1
102
RTVSPost2010Prop41ColorIndex
 90
       18
102
RTVSPost2010Prop41ColorRGB
 90
        0
102
RTVSPost2010PropOp41
 70
     1
102
RTVSPost2010Prop42
 90
       50
102
RTVSPost2010PropOp42
 70
     1
102
RTVSPost2010Prop43
 90
        3
102
RTVSPost2010PropOp43
 70
     1
102
RTVSPost2010Prop44ColorIndex
 90
        5
102
RTVSPost2010Prop44ColorRGB
 90
      255
102
RTVSPost2010PropOp44
 70
     1
102
RTVSPost2010Prop45
280
     0
102
RTVSPost2010PropOp45
 70
     1
102
RTVSPost2010Prop46
 90
       50
102
RTVSPost2010PropOp46
 70
     1
102
RTVSPost2010Prop47
 90
       50
102
RTVSPost2010PropOp47
 70
     1
102
RTVSPost2010Prop48
 90
       50
102
RTVSPost2010PropOp48
 70
     1
102
RTVSPost2010Prop49
280
     0
102
RTVSPost2010PropOp49
 70
     1
102
RTVSPost2010Prop50
 90
       50
102
RTVSPost2010PropOp50
 70
     1
102
RTVSPost2010Prop51ColorIndex
 90
      256
102
RTVSPost2010Prop51ColorRGB
 90
-16777216
102
RTVSPost2010PropOp51
 70
     0
102
RTVSPost2010Prop52
140
1.0
102
RTVSPost2010PropOp52
 70
     0
102
RTVSPost2010Prop53
 90
        2
102
RTVSPost2010PropOp53
 70
     1
102
RTVSPost2010Prop54
  1
strokes_ogs.tif
102
RTVSPost2010PropOp54
 70
     1
102
RTVSPost2010Prop55
280
     0
102
RTVSPost2010PropOp55
 70
     1
102
RTVSPost2010Prop56
140
1.0
102
RTVSPost2010PropOp56
 70
     1
102
RTVSPost2010Prop57
140
1.0
102
RTVSPost2010PropOp57
 70
     1
102
RTVSPropertyOp0
 70
     0
102
RTVSPropertyOp1
 70
     0
102
RTVSPropertyOp2
 70
     0
102
RTVSPropertyOp3
 70
     0
102
RTVSPropertyOp4
 70
     0
102
RTVSPropertyOp5
 70
     0
102
RTVSPropertyOp6
 70
     0
102
RTVSPropertyOp7
 70
     0
102
RTVSPropertyOp8
 70
     0
102
RTVSPropertyOp9
 70
     0
102
RTVSPropertyOp10
 70
     0
102
RTVSPropertyOp11
 70
     0
102
RTVSPropertyOp12
 70
     0
102
RTVSPropertyOp13
 70
     0
102
RTVSPropertyOp14
 70
     2
102
RTVSPropertyOp15
 70
     0
102
RTVSPropertyOp16
 70
     0
102
RTVSPropertyOp17
 70
     0
102
RTVSPropertyOp18
 70
     0
102
RTVSPropertyOp19
 70
     0
102
RTVSPropertyOp20
 70
     0
102
RTVSPropertyOp21
 70
     0
102
RTVSPropertyOp22
 70
     0
102
RTVSPropertyOp23
 70
     0
102
RTVSPropertyOp24
 70
     0
102
RTVSPropertyOp25
 70
     0
102
RTVSPropertyOp26
 70
     0
102
RTVSPropertyOp27
 70
     0
102
RTVSPropertyOp28
 70
     1
102
RTVSPropertyOp29
 70
     1
102
RTVSPropertyOp30
 70
     1
102
RTVSPropertyOp31
 70
     1
102
RTVSPropertyOp32
 70
     1
102
RTVSPropertyOp33
 70
     1
102
RTVSPropertyOp34
 70
     1
102
RTVSPropertyOp35
 70
     1
102
RTVSPropertyOp36
 70
     1
102
RTVSPropertyOp37
 70
     1
102
RTVSPropertyOp38
 70
     1
102
RTVSPropertyOp39
 70
     1
102
RTVSPropertyOp40
 70
     1
102
RTVSPropertyOp41
 70
     1
102
RTVSPropertyOp42
 70
     1
102
RTVSPropertyOp43
 70
     1
102
RTVSPropertyOp44
 70
     1
102
RTVSPropertyOp45
 70
     1
102
RTVSPropertyOp46
 70
     1
102
RTVSPropertyOp47
 70
     1
102
RTVSPropertyOp48
 70
     1
102
RTVSPropertyOp49
 70
     1
102
RTVSPropertyOp50
 70
     1
102
RTVSPropertyOp51
 70
     0
102
RTVSPropertyOp52
 70
     0
102
RTVSPropertyOp53
 70
     1
102
RTVSPropertyOp54
 70
     1
102
RTVSPropertyOp55
 70
     1
102
RTVSPropertyOp56
 70
     1
102
RTVSPropertyOp57
 70
     1
102
RTVSPropertyOp58
 70
     1
102
RTVSPropertyOp59
 70
     1
102
RTVSPropertyOp60
 70
     1
102
RTVSPropertyOp61
 70
     1
102
RTVSPropertyOp62
 70
     1
  0
XRECORD
  5
8737
102
{ACAD_REACTORS
330
8736
102
}
330
8736
100
AcDbXrecord
280
     1
102
RTVSPost2010Prop28
280
     0
102
RTVSPost2010PropOp28
 70
     1
102
RTVSPost2010Prop29
280
     1
102
RTVSPost2010PropOp29
 70
     1
102
RTVSPost2010Prop30
280
     1
102
RTVSPost2010PropOp30
 70
     1
102
RTVSPost2010Prop31
280
     0
102
RTVSPost2010PropOp31
 70
     1
102
RTVSPost2010Prop32
280
     0
102
RTVSPost2010PropOp32
 70
     1
102
RTVSPost2010Prop33
280
     0
102
RTVSPost2010PropOp33
 70
     1
102
RTVSPost2010Prop34
280
     0
102
RTVSPost2010PropOp34
 70
     1
102
RTVSPost2010Prop35
280
     0
102
RTVSPost2010PropOp35
 70
     1
102
RTVSPost2010Prop36
280
     0
102
RTVSPost2010PropOp36
 70
     1
102
RTVSPost2010Prop37
 90
       50
102
RTVSPost2010PropOp37
 70
     1
102
RTVSPost2010Prop38
140
0.0
102
RTVSPost2010PropOp38
 70
     1
102
RTVSPost2010Prop39
140
1.0
102
RTVSPost2010PropOp39
 70
     1
102
RTVSPost2010Prop40
 90
        0
102
RTVSPost2010PropOp40
 70
     1
102
RTVSPost2010Prop41ColorIndex
 90
       18
102
RTVSPost2010Prop41ColorRGB
 90
        0
102
RTVSPost2010PropOp41
 70
     1
102
RTVSPost2010Prop42
 90
       50
102
RTVSPost2010PropOp42
 70
     1
102
RTVSPost2010Prop43
 90
        3
102
RTVSPost2010PropOp43
 70
     1
102
RTVSPost2010Prop44ColorIndex
 90
        5
102
RTVSPost2010Prop44ColorRGB
 90
      255
102
RTVSPost2010PropOp44
 70
     1
102
RTVSPost2010Prop45
280
     0
102
RTVSPost2010PropOp45
 70
     1
102
RTVSPost2010Prop46
 90
       50
102
RTVSPost2010PropOp46
 70
     1
102
RTVSPost2010Prop47
 90
       50
102
RTVSPost2010PropOp47
 70
     1
102
RTVSPost2010Prop48
 90
       50
102
RTVSPost2010PropOp48
 70
     1
102
RTVSPost2010Prop49
280
     0
102
RTVSPost2010PropOp49
 70
     1
102
RTVSPost2010Prop50
 90
       50
102
RTVSPost2010PropOp50
 70
     1
102
RTVSPost2010Prop51ColorIndex
 90
      256
102
RTVSPost2010Prop51ColorRGB
 90
-16777216
102
RTVSPost2010PropOp51
 70
     0
102
RTVSPost2010Prop52
140
1.0
102
RTVSPost2010PropOp52
 70
     0
102
RTVSPost2010Prop53
 90
        2
102
RTVSPost2010PropOp53
 70
     1
102
RTVSPost2010Prop54
  1
strokes_ogs.tif
102
RTVSPost2010PropOp54
 70
     1
102
RTVSPost2010Prop55
280
     0
102
RTVSPost2010PropOp55
 70
     1
102
RTVSPost2010Prop56
140
1.0
102
RTVSPost2010PropOp56
 70
     1
102
RTVSPost2010Prop57
140
1.0
102
RTVSPost2010PropOp57
 70
     1
102
RTVSPropertyOp0
 70
     1
102
RTVSPropertyOp1
 70
     1
102
RTVSPropertyOp2
 70
     1
102
RTVSPropertyOp3
 70
     1
102
RTVSPropertyOp4
 70
     1
102
RTVSPropertyOp5
 70
     1
102
RTVSPropertyOp6
 70
     1
102
RTVSPropertyOp7
 70
     1
102
RTVSPropertyOp8
 70
     1
102
RTVSPropertyOp9
 70
     1
102
RTVSPropertyOp10
 70
     1
102
RTVSPropertyOp11
 70
     1
102
RTVSPropertyOp12
 70
     1
102
RTVSPropertyOp13
 70
     1
102
RTVSPropertyOp14
 70
     1
102
RTVSPropertyOp15
 70
     1
102
RTVSPropertyOp16
 70
     1
102
RTVSPropertyOp17
 70
     1
102
RTVSPropertyOp18
 70
     1
102
RTVSPropertyOp19
 70
     1
102
RTVSPropertyOp20
 70
     1
102
RTVSPropertyOp21
 70
     1
102
RTVSPropertyOp22
 70
     1
102
RTVSPropertyOp23
 70
     1
102
RTVSPropertyOp24
 70
     1
102
RTVSPropertyOp25
 70
     1
102
RTVSPropertyOp26
 70
     1
102
RTVSPropertyOp27
 70
     1
102
RTVSPropertyOp28
 70
     1
102
RTVSPropertyOp29
 70
     1
102
RTVSPropertyOp30
 70
     1
102
RTVSPropertyOp31
 70
     1
102
RTVSPropertyOp32
 70
     1
102
RTVSPropertyOp33
 70
     1
102
RTVSPropertyOp34
 70
     1
102
RTVSPropertyOp35
 70
     1
102
RTVSPropertyOp36
 70
     1
102
RTVSPropertyOp37
 70
     1
102
RTVSPropertyOp38
 70
     1
102
RTVSPropertyOp39
 70
     1
102
RTVSPropertyOp40
 70
     1
102
RTVSPropertyOp41
 70
     1
102
RTVSPropertyOp42
 70
     1
102
RTVSPropertyOp43
 70
     1
102
RTVSPropertyOp44
 70
     1
102
RTVSPropertyOp45
 70
     1
102
RTVSPropertyOp46
 70
     1
102
RTVSPropertyOp47
 70
     1
102
RTVSPropertyOp48
 70
     1
102
RTVSPropertyOp49
 70
     1
102
RTVSPropertyOp50
 70
     1
102
RTVSPropertyOp51
 70
     0
102
RTVSPropertyOp52
 70
     0
102
RTVSPropertyOp53
 70
     1
102
RTVSPropertyOp54
 70
     1
102
RTVSPropertyOp55
 70
     1
102
RTVSPropertyOp56
 70
     1
102
RTVSPropertyOp57
 70
     1
102
RTVSPropertyOp58
 70
     1
102
RTVSPropertyOp59
 70
     1
102
RTVSPropertyOp60
 70
     1
102
RTVSPropertyOp61
 70
     1
102
RTVSPropertyOp62
 70
     1
  0
XRECORD
  5
871B
102
{ACAD_REACTORS
330
871A
102
}
330
871A
100
AcDbXrecord
280
     1
102
RTVSPost2010Prop28
280
     0
102
RTVSPost2010PropOp28
 70
     1
102
RTVSPost2010Prop29
280
     1
102
RTVSPost2010PropOp29
 70
     1
102
RTVSPost2010Prop30
280
     1
102
RTVSPost2010PropOp30
 70
     1
102
RTVSPost2010Prop31
280
     0
102
RTVSPost2010PropOp31
 70
     1
102
RTVSPost2010Prop32
280
     0
102
RTVSPost2010PropOp32
 70
     1
102
RTVSPost2010Prop33
280
     0
102
RTVSPost2010PropOp33
 70
     1
102
RTVSPost2010Prop34
280
     0
102
RTVSPost2010PropOp34
 70
     1
102
RTVSPost2010Prop35
280
     0
102
RTVSPost2010PropOp35
 70
     1
102
RTVSPost2010Prop36
280
     0
102
RTVSPost2010PropOp36
 70
     1
102
RTVSPost2010Prop37
 90
       50
102
RTVSPost2010PropOp37
 70
     1
102
RTVSPost2010Prop38
140
0.0
102
RTVSPost2010PropOp38
 70
     1
102
RTVSPost2010Prop39
140
1.0
102
RTVSPost2010PropOp39
 70
     1
102
RTVSPost2010Prop40
 90
        0
102
RTVSPost2010PropOp40
 70
     1
102
RTVSPost2010Prop41ColorIndex
 90
       18
102
RTVSPost2010Prop41ColorRGB
 90
        0
102
RTVSPost2010PropOp41
 70
     1
102
RTVSPost2010Prop42
 90
       50
102
RTVSPost2010PropOp42
 70
     1
102
RTVSPost2010Prop43
 90
        3
102
RTVSPost2010PropOp43
 70
     1
102
RTVSPost2010Prop44ColorIndex
 90
        5
102
RTVSPost2010Prop44ColorRGB
 90
      255
102
RTVSPost2010PropOp44
 70
     1
102
RTVSPost2010Prop45
280
     0
102
RTVSPost2010PropOp45
 70
     1
102
RTVSPost2010Prop46
 90
       50
102
RTVSPost2010PropOp46
 70
     1
102
RTVSPost2010Prop47
 90
       50
102
RTVSPost2010PropOp47
 70
     1
102
RTVSPost2010Prop48
 90
       50
102
RTVSPost2010PropOp48
 70
     1
102
RTVSPost2010Prop49
280
     0
102
RTVSPost2010PropOp49
 70
     1
102
RTVSPost2010Prop50
 90
       50
102
RTVSPost2010PropOp50
 70
     1
102
RTVSPost2010Prop51ColorIndex
 90
      256
102
RTVSPost2010Prop51ColorRGB
 90
-16777216
102
RTVSPost2010PropOp51
 70
     0
102
RTVSPost2010Prop52
140
1.0
102
RTVSPost2010PropOp52
 70
     0
102
RTVSPost2010Prop53
 90
        2
102
RTVSPost2010PropOp53
 70
     1
102
RTVSPost2010Prop54
  1
strokes_ogs.tif
102
RTVSPost2010PropOp54
 70
     1
102
RTVSPost2010Prop55
280
     0
102
RTVSPost2010PropOp55
 70
     1
102
RTVSPost2010Prop56
140
1.0
102
RTVSPost2010PropOp56
 70
     1
102
RTVSPost2010Prop57
140
1.0
102
RTVSPost2010PropOp57
 70
     1
102
RTVSPropertyOp0
 70
     1
102
RTVSPropertyOp1
 70
     1
102
RTVSPropertyOp2
 70
     1
102
RTVSPropertyOp3
 70
     1
102
RTVSPropertyOp4
 70
     1
102
RTVSPropertyOp5
 70
     1
102
RTVSPropertyOp6
 70
     1
102
RTVSPropertyOp7
 70
     1
102
RTVSPropertyOp8
 70
     1
102
RTVSPropertyOp9
 70
     1
102
RTVSPropertyOp10
 70
     1
102
RTVSPropertyOp11
 70
     1
102
RTVSPropertyOp12
 70
     1
102
RTVSPropertyOp13
 70
     1
102
RTVSPropertyOp14
 70
     1
102
RTVSPropertyOp15
 70
     1
102
RTVSPropertyOp16
 70
     1
102
RTVSPropertyOp17
 70
     1
102
RTVSPropertyOp18
 70
     1
102
RTVSPropertyOp19
 70
     1
102
RTVSPropertyOp20
 70
     1
102
RTVSPropertyOp21
 70
     1
102
RTVSPropertyOp22
 70
     1
102
RTVSPropertyOp23
 70
     1
102
RTVSPropertyOp24
 70
     1
102
RTVSPropertyOp25
 70
     1
102
RTVSPropertyOp26
 70
     1
102
RTVSPropertyOp27
 70
     1
102
RTVSPropertyOp28
 70
     1
102
RTVSPropertyOp29
 70
     1
102
RTVSPropertyOp30
 70
     1
102
RTVSPropertyOp31
 70
     1
102
RTVSPropertyOp32
 70
     1
102
RTVSPropertyOp33
 70
     1
102
RTVSPropertyOp34
 70
     1
102
RTVSPropertyOp35
 70
     1
102
RTVSPropertyOp36
 70
     1
102
RTVSPropertyOp37
 70
     1
102
RTVSPropertyOp38
 70
     1
102
RTVSPropertyOp39
 70
     1
102
RTVSPropertyOp40
 70
     1
102
RTVSPropertyOp41
 70
     1
102
RTVSPropertyOp42
 70
     1
102
RTVSPropertyOp43
 70
     1
102
RTVSPropertyOp44
 70
     1
102
RTVSPropertyOp45
 70
     1
102
RTVSPropertyOp46
 70
     1
102
RTVSPropertyOp47
 70
     1
102
RTVSPropertyOp48
 70
     1
102
RTVSPropertyOp49
 70
     1
102
RTVSPropertyOp50
 70
     1
102
RTVSPropertyOp51
 70
     0
102
RTVSPropertyOp52
 70
     0
102
RTVSPropertyOp53
 70
     1
102
RTVSPropertyOp54
 70
     1
102
RTVSPropertyOp55
 70
     1
102
RTVSPropertyOp56
 70
     1
102
RTVSPropertyOp57
 70
     1
102
RTVSPropertyOp58
 70
     1
102
RTVSPropertyOp59
 70
     1
102
RTVSPropertyOp60
 70
     1
102
RTVSPropertyOp61
 70
     1
102
RTVSPropertyOp62
 70
     1
  0
XRECORD
  5
871D
102
{ACAD_REACTORS
330
871C
102
}
330
871C
100
AcDbXrecord
280
     1
102
RTVSPost2010Prop28
280
     0
102
RTVSPost2010PropOp28
 70
     1
102
RTVSPost2010Prop29
280
     1
102
RTVSPost2010PropOp29
 70
     1
102
RTVSPost2010Prop30
280
     1
102
RTVSPost2010PropOp30
 70
     1
102
RTVSPost2010Prop31
280
     0
102
RTVSPost2010PropOp31
 70
     1
102
RTVSPost2010Prop32
280
     0
102
RTVSPost2010PropOp32
 70
     1
102
RTVSPost2010Prop33
280
     0
102
RTVSPost2010PropOp33
 70
     1
102
RTVSPost2010Prop34
280
     0
102
RTVSPost2010PropOp34
 70
     1
102
RTVSPost2010Prop35
280
     0
102
RTVSPost2010PropOp35
 70
     1
102
RTVSPost2010Prop36
280
     0
102
RTVSPost2010PropOp36
 70
     1
102
RTVSPost2010Prop37
 90
       50
102
RTVSPost2010PropOp37
 70
     1
102
RTVSPost2010Prop38
140
0.0
102
RTVSPost2010PropOp38
 70
     1
102
RTVSPost2010Prop39
140
1.0
102
RTVSPost2010PropOp39
 70
     1
102
RTVSPost2010Prop40
 90
        0
102
RTVSPost2010PropOp40
 70
     1
102
RTVSPost2010Prop41ColorIndex
 90
       18
102
RTVSPost2010Prop41ColorRGB
 90
        0
102
RTVSPost2010PropOp41
 70
     1
102
RTVSPost2010Prop42
 90
       50
102
RTVSPost2010PropOp42
 70
     1
102
RTVSPost2010Prop43
 90
        3
102
RTVSPost2010PropOp43
 70
     1
102
RTVSPost2010Prop44ColorIndex
 90
        5
102
RTVSPost2010Prop44ColorRGB
 90
      255
102
RTVSPost2010PropOp44
 70
     1
102
RTVSPost2010Prop45
280
     0
102
RTVSPost2010PropOp45
 70
     1
102
RTVSPost2010Prop46
 90
       50
102
RTVSPost2010PropOp46
 70
     1
102
RTVSPost2010Prop47
 90
       50
102
RTVSPost2010PropOp47
 70
     1
102
RTVSPost2010Prop48
 90
       50
102
RTVSPost2010PropOp48
 70
     1
102
RTVSPost2010Prop49
280
     0
102
RTVSPost2010PropOp49
 70
     1
102
RTVSPost2010Prop50
 90
       50
102
RTVSPost2010PropOp50
 70
     1
102
RTVSPost2010Prop51ColorIndex
 90
      256
102
RTVSPost2010Prop51ColorRGB
 90
-16777216
102
RTVSPost2010PropOp51
 70
     0
102
RTVSPost2010Prop52
140
1.0
102
RTVSPost2010PropOp52
 70
     0
102
RTVSPost2010Prop53
 90
        2
102
RTVSPost2010PropOp53
 70
     1
102
RTVSPost2010Prop54
  1
strokes_ogs.tif
102
RTVSPost2010PropOp54
 70
     1
102
RTVSPost2010Prop55
280
     0
102
RTVSPost2010PropOp55
 70
     1
102
RTVSPost2010Prop56
140
1.0
102
RTVSPost2010PropOp56
 70
     1
102
RTVSPost2010Prop57
140
1.0
102
RTVSPost2010PropOp57
 70
     1
102
RTVSPropertyOp0
 70
     1
102
RTVSPropertyOp1
 70
     1
102
RTVSPropertyOp2
 70
     1
102
RTVSPropertyOp3
 70
     1
102
RTVSPropertyOp4
 70
     1
102
RTVSPropertyOp5
 70
     1
102
RTVSPropertyOp6
 70
     1
102
RTVSPropertyOp7
 70
     1
102
RTVSPropertyOp8
 70
     1
102
RTVSPropertyOp9
 70
     1
102
RTVSPropertyOp10
 70
     1
102
RTVSPropertyOp11
 70
     1
102
RTVSPropertyOp12
 70
     1
102
RTVSPropertyOp13
 70
     1
102
RTVSPropertyOp14
 70
     1
102
RTVSPropertyOp15
 70
     1
102
RTVSPropertyOp16
 70
     1
102
RTVSPropertyOp17
 70
     1
102
RTVSPropertyOp18
 70
     1
102
RTVSPropertyOp19
 70
     1
102
RTVSPropertyOp20
 70
     1
102
RTVSPropertyOp21
 70
     1
102
RTVSPropertyOp22
 70
     1
102
RTVSPropertyOp23
 70
     1
102
RTVSPropertyOp24
 70
     1
102
RTVSPropertyOp25
 70
     1
102
RTVSPropertyOp26
 70
     1
102
RTVSPropertyOp27
 70
     1
102
RTVSPropertyOp28
 70
     1
102
RTVSPropertyOp29
 70
     1
102
RTVSPropertyOp30
 70
     1
102
RTVSPropertyOp31
 70
     1
102
RTVSPropertyOp32
 70
     1
102
RTVSPropertyOp33
 70
     1
102
RTVSPropertyOp34
 70
     1
102
RTVSPropertyOp35
 70
     1
102
RTVSPropertyOp36
 70
     1
102
RTVSPropertyOp37
 70
     1
102
RTVSPropertyOp38
 70
     1
102
RTVSPropertyOp39
 70
     1
102
RTVSPropertyOp40
 70
     1
102
RTVSPropertyOp41
 70
     1
102
RTVSPropertyOp42
 70
     1
102
RTVSPropertyOp43
 70
     1
102
RTVSPropertyOp44
 70
     1
102
RTVSPropertyOp45
 70
     1
102
RTVSPropertyOp46
 70
     1
102
RTVSPropertyOp47
 70
     1
102
RTVSPropertyOp48
 70
     1
102
RTVSPropertyOp49
 70
     1
102
RTVSPropertyOp50
 70
     1
102
RTVSPropertyOp51
 70
     0
102
RTVSPropertyOp52
 70
     0
102
RTVSPropertyOp53
 70
     1
102
RTVSPropertyOp54
 70
     1
102
RTVSPropertyOp55
 70
     1
102
RTVSPropertyOp56
 70
     1
102
RTVSPropertyOp57
 70
     1
102
RTVSPropertyOp58
 70
     1
102
RTVSPropertyOp59
 70
     1
102
RTVSPropertyOp60
 70
     1
102
RTVSPropertyOp61
 70
     1
102
RTVSPropertyOp62
 70
     1
  0
XRECORD
  5
871F
102
{ACAD_REACTORS
330
871E
102
}
330
871E
100
AcDbXrecord
280
     1
102
RTVSPost2010Prop28
280
     0
102
RTVSPost2010PropOp28
 70
     1
102
RTVSPost2010Prop29
280
     1
102
RTVSPost2010PropOp29
 70
     1
102
RTVSPost2010Prop30
280
     1
102
RTVSPost2010PropOp30
 70
     1
102
RTVSPost2010Prop31
280
     0
102
RTVSPost2010PropOp31
 70
     1
102
RTVSPost2010Prop32
280
     0
102
RTVSPost2010PropOp32
 70
     1
102
RTVSPost2010Prop33
280
     0
102
RTVSPost2010PropOp33
 70
     1
102
RTVSPost2010Prop34
280
     0
102
RTVSPost2010PropOp34
 70
     1
102
RTVSPost2010Prop35
280
     0
102
RTVSPost2010PropOp35
 70
     1
102
RTVSPost2010Prop36
280
     0
102
RTVSPost2010PropOp36
 70
     1
102
RTVSPost2010Prop37
 90
       50
102
RTVSPost2010PropOp37
 70
     1
102
RTVSPost2010Prop38
140
0.0
102
RTVSPost2010PropOp38
 70
     1
102
RTVSPost2010Prop39
140
1.0
102
RTVSPost2010PropOp39
 70
     1
102
RTVSPost2010Prop40
 90
        0
102
RTVSPost2010PropOp40
 70
     1
102
RTVSPost2010Prop41ColorIndex
 90
       18
102
RTVSPost2010Prop41ColorRGB
 90
        0
102
RTVSPost2010PropOp41
 70
     1
102
RTVSPost2010Prop42
 90
       50
102
RTVSPost2010PropOp42
 70
     1
102
RTVSPost2010Prop43
 90
        3
102
RTVSPost2010PropOp43
 70
     1
102
RTVSPost2010Prop44ColorIndex
 90
        5
102
RTVSPost2010Prop44ColorRGB
 90
      255
102
RTVSPost2010PropOp44
 70
     1
102
RTVSPost2010Prop45
280
     0
102
RTVSPost2010PropOp45
 70
     1
102
RTVSPost2010Prop46
 90
       50
102
RTVSPost2010PropOp46
 70
     1
102
RTVSPost2010Prop47
 90
       50
102
RTVSPost2010PropOp47
 70
     1
102
RTVSPost2010Prop48
 90
       50
102
RTVSPost2010PropOp48
 70
     1
102
RTVSPost2010Prop49
280
     0
102
RTVSPost2010PropOp49
 70
     1
102
RTVSPost2010Prop50
 90
       50
102
RTVSPost2010PropOp50
 70
     1
102
RTVSPost2010Prop51ColorIndex
 90
      256
102
RTVSPost2010Prop51ColorRGB
 90
-16777216
102
RTVSPost2010PropOp51
 70
     0
102
RTVSPost2010Prop52
140
1.0
102
RTVSPost2010PropOp52
 70
     0
102
RTVSPost2010Prop53
 90
        2
102
RTVSPost2010PropOp53
 70
     1
102
RTVSPost2010Prop54
  1
strokes_ogs.tif
102
RTVSPost2010PropOp54
 70
     1
102
RTVSPost2010Prop55
280
     0
102
RTVSPost2010PropOp55
 70
     1
102
RTVSPost2010Prop56
140
1.0
102
RTVSPost2010PropOp56
 70
     1
102
RTVSPost2010Prop57
140
1.0
102
RTVSPost2010PropOp57
 70
     1
102
RTVSPropertyOp0
 70
     1
102
RTVSPropertyOp1
 70
     1
102
RTVSPropertyOp2
 70
     1
102
RTVSPropertyOp3
 70
     1
102
RTVSPropertyOp4
 70
     1
102
RTVSPropertyOp5
 70
     1
102
RTVSPropertyOp6
 70
     1
102
RTVSPropertyOp7
 70
     1
102
RTVSPropertyOp8
 70
     1
102
RTVSPropertyOp9
 70
     1
102
RTVSPropertyOp10
 70
     1
102
RTVSPropertyOp11
 70
     1
102
RTVSPropertyOp12
 70
     1
102
RTVSPropertyOp13
 70
     1
102
RTVSPropertyOp14
 70
     1
102
RTVSPropertyOp15
 70
     1
102
RTVSPropertyOp16
 70
     1
102
RTVSPropertyOp17
 70
     1
102
RTVSPropertyOp18
 70
     1
102
RTVSPropertyOp19
 70
     1
102
RTVSPropertyOp20
 70
     1
102
RTVSPropertyOp21
 70
     1
102
RTVSPropertyOp22
 70
     1
102
RTVSPropertyOp23
 70
     1
102
RTVSPropertyOp24
 70
     1
102
RTVSPropertyOp25
 70
     1
102
RTVSPropertyOp26
 70
     1
102
RTVSPropertyOp27
 70
     1
102
RTVSPropertyOp28
 70
     1
102
RTVSPropertyOp29
 70
     1
102
RTVSPropertyOp30
 70
     1
102
RTVSPropertyOp31
 70
     1
102
RTVSPropertyOp32
 70
     1
102
RTVSPropertyOp33
 70
     1
102
RTVSPropertyOp34
 70
     1
102
RTVSPropertyOp35
 70
     1
102
RTVSPropertyOp36
 70
     1
102
RTVSPropertyOp37
 70
     1
102
RTVSPropertyOp38
 70
     1
102
RTVSPropertyOp39
 70
     1
102
RTVSPropertyOp40
 70
     1
102
RTVSPropertyOp41
 70
     1
102
RTVSPropertyOp42
 70
     1
102
RTVSPropertyOp43
 70
     1
102
RTVSPropertyOp44
 70
     1
102
RTVSPropertyOp45
 70
     1
102
RTVSPropertyOp46
 70
     1
102
RTVSPropertyOp47
 70
     1
102
RTVSPropertyOp48
 70
     1
102
RTVSPropertyOp49
 70
     1
102
RTVSPropertyOp50
 70
     1
102
RTVSPropertyOp51
 70
     0
102
RTVSPropertyOp52
 70
     0
102
RTVSPropertyOp53
 70
     1
102
RTVSPropertyOp54
 70
     1
102
RTVSPropertyOp55
 70
     1
102
RTVSPropertyOp56
 70
     1
102
RTVSPropertyOp57
 70
     1
102
RTVSPropertyOp58
 70
     1
102
RTVSPropertyOp59
 70
     1
102
RTVSPropertyOp60
 70
     1
102
RTVSPropertyOp61
 70
     1
102
RTVSPropertyOp62
 70
     1
  0
XRECORD
  5
8721
102
{ACAD_REACTORS
330
8720
102
}
330
8720
100
AcDbXrecord
280
     1
102
RTVSPost2010Prop28
280
     0
102
RTVSPost2010PropOp28
 70
     1
102
RTVSPost2010Prop29
280
     1
102
RTVSPost2010PropOp29
 70
     1
102
RTVSPost2010Prop30
280
     1
102
RTVSPost2010PropOp30
 70
     1
102
RTVSPost2010Prop31
280
     0
102
RTVSPost2010PropOp31
 70
     1
102
RTVSPost2010Prop32
280
     0
102
RTVSPost2010PropOp32
 70
     1
102
RTVSPost2010Prop33
280
     0
102
RTVSPost2010PropOp33
 70
     1
102
RTVSPost2010Prop34
280
     0
102
RTVSPost2010PropOp34
 70
     1
102
RTVSPost2010Prop35
280
     0
102
RTVSPost2010PropOp35
 70
     1
102
RTVSPost2010Prop36
280
     0
102
RTVSPost2010PropOp36
 70
     1
102
RTVSPost2010Prop37
 90
       50
102
RTVSPost2010PropOp37
 70
     1
102
RTVSPost2010Prop38
140
0.0
102
RTVSPost2010PropOp38
 70
     1
102
RTVSPost2010Prop39
140
1.0
102
RTVSPost2010PropOp39
 70
     1
102
RTVSPost2010Prop40
 90
        0
102
RTVSPost2010PropOp40
 70
     1
102
RTVSPost2010Prop41ColorIndex
 90
       18
102
RTVSPost2010Prop41ColorRGB
 90
        0
102
RTVSPost2010PropOp41
 70
     1
102
RTVSPost2010Prop42
 90
       50
102
RTVSPost2010PropOp42
 70
     1
102
RTVSPost2010Prop43
 90
        3
102
RTVSPost2010PropOp43
 70
     1
102
RTVSPost2010Prop44ColorIndex
 90
        5
102
RTVSPost2010Prop44ColorRGB
 90
      255
102
RTVSPost2010PropOp44
 70
     1
102
RTVSPost2010Prop45
280
     0
102
RTVSPost2010PropOp45
 70
     1
102
RTVSPost2010Prop46
 90
       50
102
RTVSPost2010PropOp46
 70
     1
102
RTVSPost2010Prop47
 90
       50
102
RTVSPost2010PropOp47
 70
     1
102
RTVSPost2010Prop48
 90
       50
102
RTVSPost2010PropOp48
 70
     1
102
RTVSPost2010Prop49
280
     0
102
RTVSPost2010PropOp49
 70
     1
102
RTVSPost2010Prop50
 90
       50
102
RTVSPost2010PropOp50
 70
     1
102
RTVSPost2010Prop51ColorIndex
 90
      256
102
RTVSPost2010Prop51ColorRGB
 90
-16777216
102
RTVSPost2010PropOp51
 70
     0
102
RTVSPost2010Prop52
140
1.0
102
RTVSPost2010PropOp52
 70
     0
102
RTVSPost2010Prop53
 90
        2
102
RTVSPost2010PropOp53
 70
     1
102
RTVSPost2010Prop54
  1
strokes_ogs.tif
102
RTVSPost2010PropOp54
 70
     1
102
RTVSPost2010Prop55
280
     0
102
RTVSPost2010PropOp55
 70
     1
102
RTVSPost2010Prop56
140
1.0
102
RTVSPost2010PropOp56
 70
     1
102
RTVSPost2010Prop57
140
1.0
102
RTVSPost2010PropOp57
 70
     1
102
RTVSPropertyOp0
 70
     1
102
RTVSPropertyOp1
 70
     1
102
RTVSPropertyOp2
 70
     1
102
RTVSPropertyOp3
 70
     1
102
RTVSPropertyOp4
 70
     1
102
RTVSPropertyOp5
 70
     1
102
RTVSPropertyOp6
 70
     1
102
RTVSPropertyOp7
 70
     1
102
RTVSPropertyOp8
 70
     1
102
RTVSPropertyOp9
 70
     1
102
RTVSPropertyOp10
 70
     1
102
RTVSPropertyOp11
 70
     1
102
RTVSPropertyOp12
 70
     1
102
RTVSPropertyOp13
 70
     1
102
RTVSPropertyOp14
 70
     1
102
RTVSPropertyOp15
 70
     1
102
RTVSPropertyOp16
 70
     1
102
RTVSPropertyOp17
 70
     1
102
RTVSPropertyOp18
 70
     1
102
RTVSPropertyOp19
 70
     1
102
RTVSPropertyOp20
 70
     1
102
RTVSPropertyOp21
 70
     1
102
RTVSPropertyOp22
 70
     1
102
RTVSPropertyOp23
 70
     1
102
RTVSPropertyOp24
 70
     1
102
RTVSPropertyOp25
 70
     1
102
RTVSPropertyOp26
 70
     1
102
RTVSPropertyOp27
 70
     1
102
RTVSPropertyOp28
 70
     1
102
RTVSPropertyOp29
 70
     1
102
RTVSPropertyOp30
 70
     1
102
RTVSPropertyOp31
 70
     1
102
RTVSPropertyOp32
 70
     1
102
RTVSPropertyOp33
 70
     1
102
RTVSPropertyOp34
 70
     1
102
RTVSPropertyOp35
 70
     1
102
RTVSPropertyOp36
 70
     1
102
RTVSPropertyOp37
 70
     1
102
RTVSPropertyOp38
 70
     1
102
RTVSPropertyOp39
 70
     1
102
RTVSPropertyOp40
 70
     1
102
RTVSPropertyOp41
 70
     1
102
RTVSPropertyOp42
 70
     1
102
RTVSPropertyOp43
 70
     1
102
RTVSPropertyOp44
 70
     1
102
RTVSPropertyOp45
 70
     1
102
RTVSPropertyOp46
 70
     1
102
RTVSPropertyOp47
 70
     1
102
RTVSPropertyOp48
 70
     1
102
RTVSPropertyOp49
 70
     1
102
RTVSPropertyOp50
 70
     1
102
RTVSPropertyOp51
 70
     0
102
RTVSPropertyOp52
 70
     0
102
RTVSPropertyOp53
 70
     1
102
RTVSPropertyOp54
 70
     1
102
RTVSPropertyOp55
 70
     1
102
RTVSPropertyOp56
 70
     1
102
RTVSPropertyOp57
 70
     1
102
RTVSPropertyOp58
 70
     1
102
RTVSPropertyOp59
 70
     1
102
RTVSPropertyOp60
 70
     1
102
RTVSPropertyOp61
 70
     1
102
RTVSPropertyOp62
 70
     1
  0
XRECORD
  5
8729
102
{ACAD_REACTORS
330
8728
102
}
330
8728
100
AcDbXrecord
280
     1
102
RTVSPost2010Prop28
280
     0
102
RTVSPost2010PropOp28
 70
     1
102
RTVSPost2010Prop29
280
     1
102
RTVSPost2010PropOp29
 70
     1
102
RTVSPost2010Prop30
280
     1
102
RTVSPost2010PropOp30
 70
     1
102
RTVSPost2010Prop31
280
     0
102
RTVSPost2010PropOp31
 70
     1
102
RTVSPost2010Prop32
280
     0
102
RTVSPost2010PropOp32
 70
     1
102
RTVSPost2010Prop33
280
     0
102
RTVSPost2010PropOp33
 70
     1
102
RTVSPost2010Prop34
280
     0
102
RTVSPost2010PropOp34
 70
     1
102
RTVSPost2010Prop35
280
     0
102
RTVSPost2010PropOp35
 70
     1
102
RTVSPost2010Prop36
280
     0
102
RTVSPost2010PropOp36
 70
     1
102
RTVSPost2010Prop37
 90
       50
102
RTVSPost2010PropOp37
 70
     1
102
RTVSPost2010Prop38
140
0.0
102
RTVSPost2010PropOp38
 70
     1
102
RTVSPost2010Prop39
140
1.0
102
RTVSPost2010PropOp39
 70
     1
102
RTVSPost2010Prop40
 90
        0
102
RTVSPost2010PropOp40
 70
     1
102
RTVSPost2010Prop41ColorIndex
 90
       18
102
RTVSPost2010Prop41ColorRGB
 90
        0
102
RTVSPost2010PropOp41
 70
     1
102
RTVSPost2010Prop42
 90
       50
102
RTVSPost2010PropOp42
 70
     1
102
RTVSPost2010Prop43
 90
        3
102
RTVSPost2010PropOp43
 70
     1
102
RTVSPost2010Prop44ColorIndex
 90
        5
102
RTVSPost2010Prop44ColorRGB
 90
      255
102
RTVSPost2010PropOp44
 70
     1
102
RTVSPost2010Prop45
280
     0
102
RTVSPost2010PropOp45
 70
     1
102
RTVSPost2010Prop46
 90
       50
102
RTVSPost2010PropOp46
 70
     1
102
RTVSPost2010Prop47
 90
       50
102
RTVSPost2010PropOp47
 70
     1
102
RTVSPost2010Prop48
 90
       50
102
RTVSPost2010PropOp48
 70
     1
102
RTVSPost2010Prop49
280
     0
102
RTVSPost2010PropOp49
 70
     1
102
RTVSPost2010Prop50
 90
       50
102
RTVSPost2010PropOp50
 70
     1
102
RTVSPost2010Prop51ColorIndex
 90
      256
102
RTVSPost2010Prop51ColorRGB
 90
-16777216
102
RTVSPost2010PropOp51
 70
     0
102
RTVSPost2010Prop52
140
1.0
102
RTVSPost2010PropOp52
 70
     0
102
RTVSPost2010Prop53
 90
        2
102
RTVSPost2010PropOp53
 70
     1
102
RTVSPost2010Prop54
  1
strokes_ogs.tif
102
RTVSPost2010PropOp54
 70
     1
102
RTVSPost2010Prop55
280
     0
102
RTVSPost2010PropOp55
 70
     1
102
RTVSPost2010Prop56
140
1.0
102
RTVSPost2010PropOp56
 70
     1
102
RTVSPost2010Prop57
140
1.0
102
RTVSPost2010PropOp57
 70
     1
102
RTVSPropertyOp0
 70
     1
102
RTVSPropertyOp1
 70
     1
102
RTVSPropertyOp2
 70
     1
102
RTVSPropertyOp3
 70
     1
102
RTVSPropertyOp4
 70
     1
102
RTVSPropertyOp5
 70
     1
102
RTVSPropertyOp6
 70
     1
102
RTVSPropertyOp7
 70
     1
102
RTVSPropertyOp8
 70
     1
102
RTVSPropertyOp9
 70
     1
102
RTVSPropertyOp10
 70
     1
102
RTVSPropertyOp11
 70
     1
102
RTVSPropertyOp12
 70
     1
102
RTVSPropertyOp13
 70
     1
102
RTVSPropertyOp14
 70
     1
102
RTVSPropertyOp15
 70
     1
102
RTVSPropertyOp16
 70
     1
102
RTVSPropertyOp17
 70
     1
102
RTVSPropertyOp18
 70
     1
102
RTVSPropertyOp19
 70
     1
102
RTVSPropertyOp20
 70
     1
102
RTVSPropertyOp21
 70
     1
102
RTVSPropertyOp22
 70
     1
102
RTVSPropertyOp23
 70
     1
102
RTVSPropertyOp24
 70
     1
102
RTVSPropertyOp25
 70
     1
102
RTVSPropertyOp26
 70
     1
102
RTVSPropertyOp27
 70
     1
102
RTVSPropertyOp28
 70
     1
102
RTVSPropertyOp29
 70
     1
102
RTVSPropertyOp30
 70
     1
102
RTVSPropertyOp31
 70
     1
102
RTVSPropertyOp32
 70
     1
102
RTVSPropertyOp33
 70
     1
102
RTVSPropertyOp34
 70
     1
102
RTVSPropertyOp35
 70
     1
102
RTVSPropertyOp36
 70
     1
102
RTVSPropertyOp37
 70
     1
102
RTVSPropertyOp38
 70
     1
102
RTVSPropertyOp39
 70
     1
102
RTVSPropertyOp40
 70
     1
102
RTVSPropertyOp41
 70
     1
102
RTVSPropertyOp42
 70
     1
102
RTVSPropertyOp43
 70
     1
102
RTVSPropertyOp44
 70
     1
102
RTVSPropertyOp45
 70
     1
102
RTVSPropertyOp46
 70
     1
102
RTVSPropertyOp47
 70
     1
102
RTVSPropertyOp48
 70
     1
102
RTVSPropertyOp49
 70
     1
102
RTVSPropertyOp50
 70
     1
102
RTVSPropertyOp51
 70
     0
102
RTVSPropertyOp52
 70
     0
102
RTVSPropertyOp53
 70
     1
102
RTVSPropertyOp54
 70
     1
102
RTVSPropertyOp55
 70
     1
102
RTVSPropertyOp56
 70
     1
102
RTVSPropertyOp57
 70
     1
102
RTVSPropertyOp58
 70
     1
102
RTVSPropertyOp59
 70
     1
102
RTVSPropertyOp60
 70
     1
102
RTVSPropertyOp61
 70
     1
102
RTVSPropertyOp62
 70
     1
  0
XRECORD
  5
873D
102
{ACAD_REACTORS
330
873C
102
}
330
873C
100
AcDbXrecord
280
     1
102
RTVSPost2010Prop28
280
     0
102
RTVSPost2010PropOp28
 70
     1
102
RTVSPost2010Prop29
280
     1
102
RTVSPost2010PropOp29
 70
     1
102
RTVSPost2010Prop30
280
     1
102
RTVSPost2010PropOp30
 70
     1
102
RTVSPost2010Prop31
280
     0
102
RTVSPost2010PropOp31
 70
     1
102
RTVSPost2010Prop32
280
     0
102
RTVSPost2010PropOp32
 70
     1
102
RTVSPost2010Prop33
280
     0
102
RTVSPost2010PropOp33
 70
     1
102
RTVSPost2010Prop34
280
     0
102
RTVSPost2010PropOp34
 70
     1
102
RTVSPost2010Prop35
280
     0
102
RTVSPost2010PropOp35
 70
     1
102
RTVSPost2010Prop36
280
     0
102
RTVSPost2010PropOp36
 70
     1
102
RTVSPost2010Prop37
 90
       50
102
RTVSPost2010PropOp37
 70
     1
102
RTVSPost2010Prop38
140
0.0
102
RTVSPost2010PropOp38
 70
     1
102
RTVSPost2010Prop39
140
1.0
102
RTVSPost2010PropOp39
 70
     1
102
RTVSPost2010Prop40
 90
        0
102
RTVSPost2010PropOp40
 70
     1
102
RTVSPost2010Prop41ColorIndex
 90
       18
102
RTVSPost2010Prop41ColorRGB
 90
        0
102
RTVSPost2010PropOp41
 70
     1
102
RTVSPost2010Prop42
 90
       50
102
RTVSPost2010PropOp42
 70
     1
102
RTVSPost2010Prop43
 90
        3
102
RTVSPost2010PropOp43
 70
     1
102
RTVSPost2010Prop44ColorIndex
 90
        5
102
RTVSPost2010Prop44ColorRGB
 90
      255
102
RTVSPost2010PropOp44
 70
     1
102
RTVSPost2010Prop45
280
     0
102
RTVSPost2010PropOp45
 70
     1
102
RTVSPost2010Prop46
 90
       50
102
RTVSPost2010PropOp46
 70
     1
102
RTVSPost2010Prop47
 90
       50
102
RTVSPost2010PropOp47
 70
     1
102
RTVSPost2010Prop48
 90
       50
102
RTVSPost2010PropOp48
 70
     1
102
RTVSPost2010Prop49
280
     0
102
RTVSPost2010PropOp49
 70
     1
102
RTVSPost2010Prop50
 90
       50
102
RTVSPost2010PropOp50
 70
     1
102
RTVSPost2010Prop51ColorIndex
 90
      256
102
RTVSPost2010Prop51ColorRGB
 90
-16777216
102
RTVSPost2010PropOp51
 70
     0
102
RTVSPost2010Prop52
140
1.0
102
RTVSPost2010PropOp52
 70
     0
102
RTVSPost2010Prop53
 90
        2
102
RTVSPost2010PropOp53
 70
     1
102
RTVSPost2010Prop54
  1
strokes_ogs.tif
102
RTVSPost2010PropOp54
 70
     1
102
RTVSPost2010Prop55
280
     0
102
RTVSPost2010PropOp55
 70
     1
102
RTVSPost2010Prop56
140
1.0
102
RTVSPost2010PropOp56
 70
     1
102
RTVSPost2010Prop57
140
1.0
102
RTVSPost2010PropOp57
 70
     1
102
RTVSPropertyOp0
 70
     0
102
RTVSPropertyOp1
 70
     0
102
RTVSPropertyOp2
 70
     0
102
RTVSPropertyOp3
 70
     0
102
RTVSPropertyOp4
 70
     0
102
RTVSPropertyOp5
 70
     0
102
RTVSPropertyOp6
 70
     0
102
RTVSPropertyOp7
 70
     0
102
RTVSPropertyOp8
 70
     0
102
RTVSPropertyOp9
 70
     0
102
RTVSPropertyOp10
 70
     0
102
RTVSPropertyOp11
 70
     0
102
RTVSPropertyOp12
 70
     0
102
RTVSPropertyOp13
 70
     0
102
RTVSPropertyOp14
 70
     2
102
RTVSPropertyOp15
 70
     0
102
RTVSPropertyOp16
 70
     0
102
RTVSPropertyOp17
 70
     0
102
RTVSPropertyOp18
 70
     0
102
RTVSPropertyOp19
 70
     0
102
RTVSPropertyOp20
 70
     0
102
RTVSPropertyOp21
 70
     0
102
RTVSPropertyOp22
 70
     0
102
RTVSPropertyOp23
 70
     0
102
RTVSPropertyOp24
 70
     0
102
RTVSPropertyOp25
 70
     0
102
RTVSPropertyOp26
 70
     0
102
RTVSPropertyOp27
 70
     0
102
RTVSPropertyOp28
 70
     1
102
RTVSPropertyOp29
 70
     1
102
RTVSPropertyOp30
 70
     1
102
RTVSPropertyOp31
 70
     1
102
RTVSPropertyOp32
 70
     1
102
RTVSPropertyOp33
 70
     1
102
RTVSPropertyOp34
 70
     1
102
RTVSPropertyOp35
 70
     1
102
RTVSPropertyOp36
 70
     1
102
RTVSPropertyOp37
 70
     1
102
RTVSPropertyOp38
 70
     1
102
RTVSPropertyOp39
 70
     1
102
RTVSPropertyOp40
 70
     1
102
RTVSPropertyOp41
 70
     1
102
RTVSPropertyOp42
 70
     1
102
RTVSPropertyOp43
 70
     1
102
RTVSPropertyOp44
 70
     1
102
RTVSPropertyOp45
 70
     1
102
RTVSPropertyOp46
 70
     1
102
RTVSPropertyOp47
 70
     1
102
RTVSPropertyOp48
 70
     1
102
RTVSPropertyOp49
 70
     1
102
RTVSPropertyOp50
 70
     1
102
RTVSPropertyOp51
 70
     0
102
RTVSPropertyOp52
 70
     0
102
RTVSPropertyOp53
 70
     1
102
RTVSPropertyOp54
 70
     1
102
RTVSPropertyOp55
 70
     1
102
RTVSPropertyOp56
 70
     1
102
RTVSPropertyOp57
 70
     1
102
RTVSPropertyOp58
 70
     1
102
RTVSPropertyOp59
 70
     1
102
RTVSPropertyOp60
 70
     1
102
RTVSPropertyOp61
 70
     1
102
RTVSPropertyOp62
 70
     1
  0
XRECORD
  5
8735
102
{ACAD_REACTORS
330
8734
102
}
330
8734
100
AcDbXrecord
280
     1
102
RTVSPost2010Prop28
280
     0
102
RTVSPost2010PropOp28
 70
     1
102
RTVSPost2010Prop29
280
     1
102
RTVSPost2010PropOp29
 70
     1
102
RTVSPost2010Prop30
280
     1
102
RTVSPost2010PropOp30
 70
     1
102
RTVSPost2010Prop31
280
     0
102
RTVSPost2010PropOp31
 70
     1
102
RTVSPost2010Prop32
280
     0
102
RTVSPost2010PropOp32
 70
     1
102
RTVSPost2010Prop33
280
     0
102
RTVSPost2010PropOp33
 70
     1
102
RTVSPost2010Prop34
280
     0
102
RTVSPost2010PropOp34
 70
     1
102
RTVSPost2010Prop35
280
     0
102
RTVSPost2010PropOp35
 70
     1
102
RTVSPost2010Prop36
280
     0
102
RTVSPost2010PropOp36
 70
     1
102
RTVSPost2010Prop37
 90
       50
102
RTVSPost2010PropOp37
 70
     1
102
RTVSPost2010Prop38
140
0.0
102
RTVSPost2010PropOp38
 70
     1
102
RTVSPost2010Prop39
140
1.0
102
RTVSPost2010PropOp39
 70
     1
102
RTVSPost2010Prop40
 90
        0
102
RTVSPost2010PropOp40
 70
     1
102
RTVSPost2010Prop41ColorIndex
 90
       18
102
RTVSPost2010Prop41ColorRGB
 90
        0
102
RTVSPost2010PropOp41
 70
     1
102
RTVSPost2010Prop42
 90
       50
102
RTVSPost2010PropOp42
 70
     1
102
RTVSPost2010Prop43
 90
        3
102
RTVSPost2010PropOp43
 70
     1
102
RTVSPost2010Prop44ColorIndex
 90
        5
102
RTVSPost2010Prop44ColorRGB
 90
      255
102
RTVSPost2010PropOp44
 70
     1
102
RTVSPost2010Prop45
280
     0
102
RTVSPost2010PropOp45
 70
     1
102
RTVSPost2010Prop46
 90
       50
102
RTVSPost2010PropOp46
 70
     1
102
RTVSPost2010Prop47
 90
       50
102
RTVSPost2010PropOp47
 70
     1
102
RTVSPost2010Prop48
 90
       50
102
RTVSPost2010PropOp48
 70
     1
102
RTVSPost2010Prop49
280
     0
102
RTVSPost2010PropOp49
 70
     1
102
RTVSPost2010Prop50
 90
       50
102
RTVSPost2010PropOp50
 70
     1
102
RTVSPost2010Prop51ColorIndex
 90
      256
102
RTVSPost2010Prop51ColorRGB
 90
-16777216
102
RTVSPost2010PropOp51
 70
     0
102
RTVSPost2010Prop52
140
1.0
102
RTVSPost2010PropOp52
 70
     0
102
RTVSPost2010Prop53
 90
        2
102
RTVSPost2010PropOp53
 70
     1
102
RTVSPost2010Prop54
  1
strokes_ogs.tif
102
RTVSPost2010PropOp54
 70
     1
102
RTVSPost2010Prop55
280
     0
102
RTVSPost2010PropOp55
 70
     1
102
RTVSPost2010Prop56
140
1.0
102
RTVSPost2010PropOp56
 70
     1
102
RTVSPost2010Prop57
140
1.0
102
RTVSPost2010PropOp57
 70
     1
102
RTVSPropertyOp0
 70
     1
102
RTVSPropertyOp1
 70
     1
102
RTVSPropertyOp2
 70
     1
102
RTVSPropertyOp3
 70
     1
102
RTVSPropertyOp4
 70
     1
102
RTVSPropertyOp5
 70
     1
102
RTVSPropertyOp6
 70
     1
102
RTVSPropertyOp7
 70
     1
102
RTVSPropertyOp8
 70
     1
102
RTVSPropertyOp9
 70
     1
102
RTVSPropertyOp10
 70
     1
102
RTVSPropertyOp11
 70
     1
102
RTVSPropertyOp12
 70
     1
102
RTVSPropertyOp13
 70
     1
102
RTVSPropertyOp14
 70
     1
102
RTVSPropertyOp15
 70
     1
102
RTVSPropertyOp16
 70
     1
102
RTVSPropertyOp17
 70
     1
102
RTVSPropertyOp18
 70
     1
102
RTVSPropertyOp19
 70
     1
102
RTVSPropertyOp20
 70
     1
102
RTVSPropertyOp21
 70
     1
102
RTVSPropertyOp22
 70
     1
102
RTVSPropertyOp23
 70
     1
102
RTVSPropertyOp24
 70
     1
102
RTVSPropertyOp25
 70
     1
102
RTVSPropertyOp26
 70
     1
102
RTVSPropertyOp27
 70
     1
102
RTVSPropertyOp28
 70
     1
102
RTVSPropertyOp29
 70
     1
102
RTVSPropertyOp30
 70
     1
102
RTVSPropertyOp31
 70
     1
102
RTVSPropertyOp32
 70
     1
102
RTVSPropertyOp33
 70
     1
102
RTVSPropertyOp34
 70
     1
102
RTVSPropertyOp35
 70
     1
102
RTVSPropertyOp36
 70
     1
102
RTVSPropertyOp37
 70
     1
102
RTVSPropertyOp38
 70
     1
102
RTVSPropertyOp39
 70
     1
102
RTVSPropertyOp40
 70
     1
102
RTVSPropertyOp41
 70
     1
102
RTVSPropertyOp42
 70
     1
102
RTVSPropertyOp43
 70
     1
102
RTVSPropertyOp44
 70
     1
102
RTVSPropertyOp45
 70
     1
102
RTVSPropertyOp46
 70
     1
102
RTVSPropertyOp47
 70
     1
102
RTVSPropertyOp48
 70
     1
102
RTVSPropertyOp49
 70
     1
102
RTVSPropertyOp50
 70
     1
102
RTVSPropertyOp51
 70
     0
102
RTVSPropertyOp52
 70
     0
102
RTVSPropertyOp53
 70
     1
102
RTVSPropertyOp54
 70
     1
102
RTVSPropertyOp55
 70
     1
102
RTVSPropertyOp56
 70
     1
102
RTVSPropertyOp57
 70
     1
102
RTVSPropertyOp58
 70
     1
102
RTVSPropertyOp59
 70
     1
102
RTVSPropertyOp60
 70
     1
102
RTVSPropertyOp61
 70
     1
102
RTVSPropertyOp62
 70
     1
  0
XRECORD
  5
873F
102
{ACAD_REACTORS
330
873E
102
}
330
873E
100
AcDbXrecord
280
     1
102
RTVSPost2010Prop28
280
     0
102
RTVSPost2010PropOp28
 70
     1
102
RTVSPost2010Prop29
280
     1
102
RTVSPost2010PropOp29
 70
     1
102
RTVSPost2010Prop30
280
     1
102
RTVSPost2010PropOp30
 70
     1
102
RTVSPost2010Prop31
280
     0
102
RTVSPost2010PropOp31
 70
     1
102
RTVSPost2010Prop32
280
     0
102
RTVSPost2010PropOp32
 70
     1
102
RTVSPost2010Prop33
280
     0
102
RTVSPost2010PropOp33
 70
     1
102
RTVSPost2010Prop34
280
     0
102
RTVSPost2010PropOp34
 70
     1
102
RTVSPost2010Prop35
280
     0
102
RTVSPost2010PropOp35
 70
     1
102
RTVSPost2010Prop36
280
     0
102
RTVSPost2010PropOp36
 70
     1
102
RTVSPost2010Prop37
 90
       50
102
RTVSPost2010PropOp37
 70
     1
102
RTVSPost2010Prop38
140
0.0
102
RTVSPost2010PropOp38
 70
     1
102
RTVSPost2010Prop39
140
1.0
102
RTVSPost2010PropOp39
 70
     1
102
RTVSPost2010Prop40
 90
        0
102
RTVSPost2010PropOp40
 70
     1
102
RTVSPost2010Prop41ColorIndex
 90
       18
102
RTVSPost2010Prop41ColorRGB
 90
        0
102
RTVSPost2010PropOp41
 70
     1
102
RTVSPost2010Prop42
 90
       50
102
RTVSPost2010PropOp42
 70
     1
102
RTVSPost2010Prop43
 90
        3
102
RTVSPost2010PropOp43
 70
     1
102
RTVSPost2010Prop44ColorIndex
 90
        5
102
RTVSPost2010Prop44ColorRGB
 90
      255
102
RTVSPost2010PropOp44
 70
     1
102
RTVSPost2010Prop45
280
     0
102
RTVSPost2010PropOp45
 70
     1
102
RTVSPost2010Prop46
 90
       50
102
RTVSPost2010PropOp46
 70
     1
102
RTVSPost2010Prop47
 90
       50
102
RTVSPost2010PropOp47
 70
     1
102
RTVSPost2010Prop48
 90
       50
102
RTVSPost2010PropOp48
 70
     1
102
RTVSPost2010Prop49
280
     0
102
RTVSPost2010PropOp49
 70
     1
102
RTVSPost2010Prop50
 90
       50
102
RTVSPost2010PropOp50
 70
     1
102
RTVSPost2010Prop51ColorIndex
 90
      256
102
RTVSPost2010Prop51ColorRGB
 90
-16777216
102
RTVSPost2010PropOp51
 70
     0
102
RTVSPost2010Prop52
140
1.0
102
RTVSPost2010PropOp52
 70
     0
102
RTVSPost2010Prop53
 90
        2
102
RTVSPost2010PropOp53
 70
     1
102
RTVSPost2010Prop54
  1
strokes_ogs.tif
102
RTVSPost2010PropOp54
 70
     1
102
RTVSPost2010Prop55
280
     0
102
RTVSPost2010PropOp55
 70
     1
102
RTVSPost2010Prop56
140
1.0
102
RTVSPost2010PropOp56
 70
     1
102
RTVSPost2010Prop57
140
1.0
102
RTVSPost2010PropOp57
 70
     1
102
RTVSPropertyOp0
 70
     0
102
RTVSPropertyOp1
 70
     0
102
RTVSPropertyOp2
 70
     0
102
RTVSPropertyOp3
 70
     0
102
RTVSPropertyOp4
 70
     0
102
RTVSPropertyOp5
 70
     0
102
RTVSPropertyOp6
 70
     0
102
RTVSPropertyOp7
 70
     0
102
RTVSPropertyOp8
 70
     0
102
RTVSPropertyOp9
 70
     0
102
RTVSPropertyOp10
 70
     0
102
RTVSPropertyOp11
 70
     0
102
RTVSPropertyOp12
 70
     0
102
RTVSPropertyOp13
 70
     0
102
RTVSPropertyOp14
 70
     2
102
RTVSPropertyOp15
 70
     0
102
RTVSPropertyOp16
 70
     0
102
RTVSPropertyOp17
 70
     0
102
RTVSPropertyOp18
 70
     0
102
RTVSPropertyOp19
 70
     0
102
RTVSPropertyOp20
 70
     0
102
RTVSPropertyOp21
 70
     0
102
RTVSPropertyOp22
 70
     0
102
RTVSPropertyOp23
 70
     0
102
RTVSPropertyOp24
 70
     0
102
RTVSPropertyOp25
 70
     0
102
RTVSPropertyOp26
 70
     0
102
RTVSPropertyOp27
 70
     0
102
RTVSPropertyOp28
 70
     1
102
RTVSPropertyOp29
 70
     1
102
RTVSPropertyOp30
 70
     1
102
RTVSPropertyOp31
 70
     1
102
RTVSPropertyOp32
 70
     1
102
RTVSPropertyOp33
 70
     1
102
RTVSPropertyOp34
 70
     1
102
RTVSPropertyOp35
 70
     1
102
RTVSPropertyOp36
 70
     1
102
RTVSPropertyOp37
 70
     1
102
RTVSPropertyOp38
 70
     1
102
RTVSPropertyOp39
 70
     1
102
RTVSPropertyOp40
 70
     1
102
RTVSPropertyOp41
 70
     1
102
RTVSPropertyOp42
 70
     1
102
RTVSPropertyOp43
 70
     1
102
RTVSPropertyOp44
 70
     1
102
RTVSPropertyOp45
 70
     1
102
RTVSPropertyOp46
 70
     1
102
RTVSPropertyOp47
 70
     1
102
RTVSPropertyOp48
 70
     1
102
RTVSPropertyOp49
 70
     1
102
RTVSPropertyOp50
 70
     1
102
RTVSPropertyOp51
 70
     0
102
RTVSPropertyOp52
 70
     0
102
RTVSPropertyOp53
 70
     1
102
RTVSPropertyOp54
 70
     1
102
RTVSPropertyOp55
 70
     1
102
RTVSPropertyOp56
 70
     1
102
RTVSPropertyOp57
 70
     1
102
RTVSPropertyOp58
 70
     1
102
RTVSPropertyOp59
 70
     1
102
RTVSPropertyOp60
 70
     1
102
RTVSPropertyOp61
 70
     1
102
RTVSPropertyOp62
 70
     1
  0
XRECORD
  5
872D
102
{ACAD_REACTORS
330
872C
102
}
330
872C
100
AcDbXrecord
280
     1
102
RTVSPost2010Prop28
280
     0
102
RTVSPost2010PropOp28
 70
     1
102
RTVSPost2010Prop29
280
     1
102
RTVSPost2010PropOp29
 70
     1
102
RTVSPost2010Prop30
280
     1
102
RTVSPost2010PropOp30
 70
     1
102
RTVSPost2010Prop31
280
     0
102
RTVSPost2010PropOp31
 70
     1
102
RTVSPost2010Prop32
280
     0
102
RTVSPost2010PropOp32
 70
     1
102
RTVSPost2010Prop33
280
     0
102
RTVSPost2010PropOp33
 70
     1
102
RTVSPost2010Prop34
280
     0
102
RTVSPost2010PropOp34
 70
     1
102
RTVSPost2010Prop35
280
     0
102
RTVSPost2010PropOp35
 70
     1
102
RTVSPost2010Prop36
280
     0
102
RTVSPost2010PropOp36
 70
     1
102
RTVSPost2010Prop37
 90
       50
102
RTVSPost2010PropOp37
 70
     1
102
RTVSPost2010Prop38
140
0.0
102
RTVSPost2010PropOp38
 70
     1
102
RTVSPost2010Prop39
140
1.0
102
RTVSPost2010PropOp39
 70
     1
102
RTVSPost2010Prop40
 90
        0
102
RTVSPost2010PropOp40
 70
     1
102
RTVSPost2010Prop41ColorIndex
 90
       18
102
RTVSPost2010Prop41ColorRGB
 90
        0
102
RTVSPost2010PropOp41
 70
     1
102
RTVSPost2010Prop42
 90
       50
102
RTVSPost2010PropOp42
 70
     1
102
RTVSPost2010Prop43
 90
        3
102
RTVSPost2010PropOp43
 70
     1
102
RTVSPost2010Prop44ColorIndex
 90
        5
102
RTVSPost2010Prop44ColorRGB
 90
      255
102
RTVSPost2010PropOp44
 70
     1
102
RTVSPost2010Prop45
280
     0
102
RTVSPost2010PropOp45
 70
     1
102
RTVSPost2010Prop46
 90
       50
102
RTVSPost2010PropOp46
 70
     1
102
RTVSPost2010Prop47
 90
       50
102
RTVSPost2010PropOp47
 70
     1
102
RTVSPost2010Prop48
 90
       50
102
RTVSPost2010PropOp48
 70
     1
102
RTVSPost2010Prop49
280
     0
102
RTVSPost2010PropOp49
 70
     1
102
RTVSPost2010Prop50
 90
       50
102
RTVSPost2010PropOp50
 70
     1
102
RTVSPost2010Prop51ColorIndex
 90
      256
102
RTVSPost2010Prop51ColorRGB
 90
-16777216
102
RTVSPost2010PropOp51
 70
     0
102
RTVSPost2010Prop52
140
1.0
102
RTVSPost2010PropOp52
 70
     0
102
RTVSPost2010Prop53
 90
        2
102
RTVSPost2010PropOp53
 70
     1
102
RTVSPost2010Prop54
  1
strokes_ogs.tif
102
RTVSPost2010PropOp54
 70
     1
102
RTVSPost2010Prop55
280
     0
102
RTVSPost2010PropOp55
 70
     1
102
RTVSPost2010Prop56
140
1.0
102
RTVSPost2010PropOp56
 70
     1
102
RTVSPost2010Prop57
140
1.0
102
RTVSPost2010PropOp57
 70
     1
102
RTVSPropertyOp0
 70
     1
102
RTVSPropertyOp1
 70
     1
102
RTVSPropertyOp2
 70
     1
102
RTVSPropertyOp3
 70
     1
102
RTVSPropertyOp4
 70
     1
102
RTVSPropertyOp5
 70
     1
102
RTVSPropertyOp6
 70
     1
102
RTVSPropertyOp7
 70
     1
102
RTVSPropertyOp8
 70
     1
102
RTVSPropertyOp9
 70
     1
102
RTVSPropertyOp10
 70
     1
102
RTVSPropertyOp11
 70
     1
102
RTVSPropertyOp12
 70
     1
102
RTVSPropertyOp13
 70
     1
102
RTVSPropertyOp14
 70
     1
102
RTVSPropertyOp15
 70
     1
102
RTVSPropertyOp16
 70
     1
102
RTVSPropertyOp17
 70
     1
102
RTVSPropertyOp18
 70
     1
102
RTVSPropertyOp19
 70
     1
102
RTVSPropertyOp20
 70
     1
102
RTVSPropertyOp21
 70
     1
102
RTVSPropertyOp22
 70
     1
102
RTVSPropertyOp23
 70
     1
102
RTVSPropertyOp24
 70
     1
102
RTVSPropertyOp25
 70
     1
102
RTVSPropertyOp26
 70
     1
102
RTVSPropertyOp27
 70
     1
102
RTVSPropertyOp28
 70
     1
102
RTVSPropertyOp29
 70
     1
102
RTVSPropertyOp30
 70
     1
102
RTVSPropertyOp31
 70
     1
102
RTVSPropertyOp32
 70
     1
102
RTVSPropertyOp33
 70
     1
102
RTVSPropertyOp34
 70
     1
102
RTVSPropertyOp35
 70
     1
102
RTVSPropertyOp36
 70
     1
102
RTVSPropertyOp37
 70
     1
102
RTVSPropertyOp38
 70
     1
102
RTVSPropertyOp39
 70
     1
102
RTVSPropertyOp40
 70
     1
102
RTVSPropertyOp41
 70
     1
102
RTVSPropertyOp42
 70
     1
102
RTVSPropertyOp43
 70
     1
102
RTVSPropertyOp44
 70
     1
102
RTVSPropertyOp45
 70
     1
102
RTVSPropertyOp46
 70
     1
102
RTVSPropertyOp47
 70
     1
102
RTVSPropertyOp48
 70
     1
102
RTVSPropertyOp49
 70
     1
102
RTVSPropertyOp50
 70
     1
102
RTVSPropertyOp51
 70
     0
102
RTVSPropertyOp52
 70
     0
102
RTVSPropertyOp53
 70
     1
102
RTVSPropertyOp54
 70
     1
102
RTVSPropertyOp55
 70
     1
102
RTVSPropertyOp56
 70
     1
102
RTVSPropertyOp57
 70
     1
102
RTVSPropertyOp58
 70
     1
102
RTVSPropertyOp59
 70
     1
102
RTVSPropertyOp60
 70
     1
102
RTVSPropertyOp61
 70
     1
102
RTVSPropertyOp62
 70
     1
  0
XRECORD
  5
874B
102
{ACAD_REACTORS
330
874A
102
}
330
874A
100
AcDbXrecord
280
     1
102
RTVSPost2010Prop28
280
     0
102
RTVSPost2010PropOp28
 70
     1
102
RTVSPost2010Prop29
280
     1
102
RTVSPost2010PropOp29
 70
     1
102
RTVSPost2010Prop30
280
     1
102
RTVSPost2010PropOp30
 70
     1
102
RTVSPost2010Prop31
280
     0
102
RTVSPost2010PropOp31
 70
     1
102
RTVSPost2010Prop32
280
     0
102
RTVSPost2010PropOp32
 70
     1
102
RTVSPost2010Prop33
280
     0
102
RTVSPost2010PropOp33
 70
     1
102
RTVSPost2010Prop34
280
     0
102
RTVSPost2010PropOp34
 70
     1
102
RTVSPost2010Prop35
280
     0
102
RTVSPost2010PropOp35
 70
     1
102
RTVSPost2010Prop36
280
     0
102
RTVSPost2010PropOp36
 70
     1
102
RTVSPost2010Prop37
 90
       50
102
RTVSPost2010PropOp37
 70
     1
102
RTVSPost2010Prop38
140
0.0
102
RTVSPost2010PropOp38
 70
     1
102
RTVSPost2010Prop39
140
1.0
102
RTVSPost2010PropOp39
 70
     1
102
RTVSPost2010Prop40
 90
        0
102
RTVSPost2010PropOp40
 70
     1
102
RTVSPost2010Prop41ColorIndex
 90
       18
102
RTVSPost2010Prop41ColorRGB
 90
        0
102
RTVSPost2010PropOp41
 70
     1
102
RTVSPost2010Prop42
 90
       50
102
RTVSPost2010PropOp42
 70
     1
102
RTVSPost2010Prop43
 90
        3
102
RTVSPost2010PropOp43
 70
     1
102
RTVSPost2010Prop44ColorIndex
 90
        5
102
RTVSPost2010Prop44ColorRGB
 90
      255
102
RTVSPost2010PropOp44
 70
     1
102
RTVSPost2010Prop45
280
     0
102
RTVSPost2010PropOp45
 70
     1
102
RTVSPost2010Prop46
 90
       50
102
RTVSPost2010PropOp46
 70
     1
102
RTVSPost2010Prop47
 90
       50
102
RTVSPost2010PropOp47
 70
     1
102
RTVSPost2010Prop48
 90
       50
102
RTVSPost2010PropOp48
 70
     1
102
RTVSPost2010Prop49
280
     0
102
RTVSPost2010PropOp49
 70
     1
102
RTVSPost2010Prop50
 90
       50
102
RTVSPost2010PropOp50
 70
     1
102
RTVSPost2010Prop51ColorIndex
 90
      256
102
RTVSPost2010Prop51ColorRGB
 90
-16777216
102
RTVSPost2010PropOp51
 70
     0
102
RTVSPost2010Prop52
140
1.0
102
RTVSPost2010PropOp52
 70
     0
102
RTVSPost2010Prop53
 90
        2
102
RTVSPost2010PropOp53
 70
     1
102
RTVSPost2010Prop54
  1
strokes_ogs.tif
102
RTVSPost2010PropOp54
 70
     1
102
RTVSPost2010Prop55
280
     0
102
RTVSPost2010PropOp55
 70
     1
102
RTVSPost2010Prop56
140
1.0
102
RTVSPost2010PropOp56
 70
     1
102
RTVSPost2010Prop57
140
1.0
102
RTVSPost2010PropOp57
 70
     1
102
RTVSPropertyOp0
 70
     1
102
RTVSPropertyOp1
 70
     1
102
RTVSPropertyOp2
 70
     1
102
RTVSPropertyOp3
 70
     1
102
RTVSPropertyOp4
 70
     1
102
RTVSPropertyOp5
 70
     1
102
RTVSPropertyOp6
 70
     1
102
RTVSPropertyOp7
 70
     1
102
RTVSPropertyOp8
 70
     1
102
RTVSPropertyOp9
 70
     1
102
RTVSPropertyOp10
 70
     1
102
RTVSPropertyOp11
 70
     1
102
RTVSPropertyOp12
 70
     1
102
RTVSPropertyOp13
 70
     1
102
RTVSPropertyOp14
 70
     1
102
RTVSPropertyOp15
 70
     1
102
RTVSPropertyOp16
 70
     1
102
RTVSPropertyOp17
 70
     1
102
RTVSPropertyOp18
 70
     1
102
RTVSPropertyOp19
 70
     1
102
RTVSPropertyOp20
 70
     1
102
RTVSPropertyOp21
 70
     1
102
RTVSPropertyOp22
 70
     1
102
RTVSPropertyOp23
 70
     1
102
RTVSPropertyOp24
 70
     1
102
RTVSPropertyOp25
 70
     1
102
RTVSPropertyOp26
 70
     1
102
RTVSPropertyOp27
 70
     1
102
RTVSPropertyOp28
 70
     1
102
RTVSPropertyOp29
 70
     1
102
RTVSPropertyOp30
 70
     1
102
RTVSPropertyOp31
 70
     1
102
RTVSPropertyOp32
 70
     1
102
RTVSPropertyOp33
 70
     1
102
RTVSPropertyOp34
 70
     1
102
RTVSPropertyOp35
 70
     1
102
RTVSPropertyOp36
 70
     1
102
RTVSPropertyOp37
 70
     1
102
RTVSPropertyOp38
 70
     1
102
RTVSPropertyOp39
 70
     1
102
RTVSPropertyOp40
 70
     1
102
RTVSPropertyOp41
 70
     1
102
RTVSPropertyOp42
 70
     1
102
RTVSPropertyOp43
 70
     1
102
RTVSPropertyOp44
 70
     1
102
RTVSPropertyOp45
 70
     1
102
RTVSPropertyOp46
 70
     1
102
RTVSPropertyOp47
 70
     1
102
RTVSPropertyOp48
 70
     1
102
RTVSPropertyOp49
 70
     1
102
RTVSPropertyOp50
 70
     1
102
RTVSPropertyOp51
 70
     0
102
RTVSPropertyOp52
 70
     0
102
RTVSPropertyOp53
 70
     1
102
RTVSPropertyOp54
 70
     1
102
RTVSPropertyOp55
 70
     1
102
RTVSPropertyOp56
 70
     1
102
RTVSPropertyOp57
 70
     1
102
RTVSPropertyOp58
 70
     1
102
RTVSPropertyOp59
 70
     1
102
RTVSPropertyOp60
 70
     1
102
RTVSPropertyOp61
 70
     1
102
RTVSPropertyOp62
 70
     1
  0
XRECORD
  5
8749
102
{ACAD_REACTORS
330
8748
102
}
330
8748
100
AcDbXrecord
280
     1
102
RTVSPost2010Prop28
280
     0
102
RTVSPost2010PropOp28
 70
     1
102
RTVSPost2010Prop29
280
     1
102
RTVSPost2010PropOp29
 70
     1
102
RTVSPost2010Prop30
280
     1
102
RTVSPost2010PropOp30
 70
     1
102
RTVSPost2010Prop31
280
     0
102
RTVSPost2010PropOp31
 70
     1
102
RTVSPost2010Prop32
280
     0
102
RTVSPost2010PropOp32
 70
     1
102
RTVSPost2010Prop33
280
     0
102
RTVSPost2010PropOp33
 70
     1
102
RTVSPost2010Prop34
280
     0
102
RTVSPost2010PropOp34
 70
     1
102
RTVSPost2010Prop35
280
     0
102
RTVSPost2010PropOp35
 70
     1
102
RTVSPost2010Prop36
280
     0
102
RTVSPost2010PropOp36
 70
     1
102
RTVSPost2010Prop37
 90
       50
102
RTVSPost2010PropOp37
 70
     1
102
RTVSPost2010Prop38
140
0.0
102
RTVSPost2010PropOp38
 70
     1
102
RTVSPost2010Prop39
140
1.0
102
RTVSPost2010PropOp39
 70
     1
102
RTVSPost2010Prop40
 90
        0
102
RTVSPost2010PropOp40
 70
     1
102
RTVSPost2010Prop41ColorIndex
 90
       18
102
RTVSPost2010Prop41ColorRGB
 90
        0
102
RTVSPost2010PropOp41
 70
     1
102
RTVSPost2010Prop42
 90
       50
102
RTVSPost2010PropOp42
 70
     1
102
RTVSPost2010Prop43
 90
        3
102
RTVSPost2010PropOp43
 70
     1
102
RTVSPost2010Prop44ColorIndex
 90
        5
102
RTVSPost2010Prop44ColorRGB
 90
      255
102
RTVSPost2010PropOp44
 70
     1
102
RTVSPost2010Prop45
280
     0
102
RTVSPost2010PropOp45
 70
     1
102
RTVSPost2010Prop46
 90
       50
102
RTVSPost2010PropOp46
 70
     1
102
RTVSPost2010Prop47
 90
       50
102
RTVSPost2010PropOp47
 70
     1
102
RTVSPost2010Prop48
 90
       50
102
RTVSPost2010PropOp48
 70
     1
102
RTVSPost2010Prop49
280
     0
102
RTVSPost2010PropOp49
 70
     1
102
RTVSPost2010Prop50
 90
       50
102
RTVSPost2010PropOp50
 70
     1
102
RTVSPost2010Prop51ColorIndex
 90
      256
102
RTVSPost2010Prop51ColorRGB
 90
-16777216
102
RTVSPost2010PropOp51
 70
     0
102
RTVSPost2010Prop52
140
1.0
102
RTVSPost2010PropOp52
 70
     0
102
RTVSPost2010Prop53
 90
        2
102
RTVSPost2010PropOp53
 70
     1
102
RTVSPost2010Prop54
  1
strokes_ogs.tif
102
RTVSPost2010PropOp54
 70
     1
102
RTVSPost2010Prop55
280
     0
102
RTVSPost2010PropOp55
 70
     1
102
RTVSPost2010Prop56
140
1.0
102
RTVSPost2010PropOp56
 70
     1
102
RTVSPost2010Prop57
140
1.0
102
RTVSPost2010PropOp57
 70
     1
102
RTVSPropertyOp0
 70
     1
102
RTVSPropertyOp1
 70
     1
102
RTVSPropertyOp2
 70
     1
102
RTVSPropertyOp3
 70
     1
102
RTVSPropertyOp4
 70
     1
102
RTVSPropertyOp5
 70
     1
102
RTVSPropertyOp6
 70
     1
102
RTVSPropertyOp7
 70
     1
102
RTVSPropertyOp8
 70
     1
102
RTVSPropertyOp9
 70
     1
102
RTVSPropertyOp10
 70
     1
102
RTVSPropertyOp11
 70
     1
102
RTVSPropertyOp12
 70
     1
102
RTVSPropertyOp13
 70
     1
102
RTVSPropertyOp14
 70
     1
102
RTVSPropertyOp15
 70
     1
102
RTVSPropertyOp16
 70
     1
102
RTVSPropertyOp17
 70
     1
102
RTVSPropertyOp18
 70
     1
102
RTVSPropertyOp19
 70
     1
102
RTVSPropertyOp20
 70
     1
102
RTVSPropertyOp21
 70
     1
102
RTVSPropertyOp22
 70
     1
102
RTVSPropertyOp23
 70
     1
102
RTVSPropertyOp24
 70
     1
102
RTVSPropertyOp25
 70
     1
102
RTVSPropertyOp26
 70
     1
102
RTVSPropertyOp27
 70
     1
102
RTVSPropertyOp28
 70
     1
102
RTVSPropertyOp29
 70
     1
102
RTVSPropertyOp30
 70
     1
102
RTVSPropertyOp31
 70
     1
102
RTVSPropertyOp32
 70
     1
102
RTVSPropertyOp33
 70
     1
102
RTVSPropertyOp34
 70
     1
102
RTVSPropertyOp35
 70
     1
102
RTVSPropertyOp36
 70
     1
102
RTVSPropertyOp37
 70
     1
102
RTVSPropertyOp38
 70
     1
102
RTVSPropertyOp39
 70
     1
102
RTVSPropertyOp40
 70
     1
102
RTVSPropertyOp41
 70
     1
102
RTVSPropertyOp42
 70
     1
102
RTVSPropertyOp43
 70
     1
102
RTVSPropertyOp44
 70
     1
102
RTVSPropertyOp45
 70
     1
102
RTVSPropertyOp46
 70
     1
102
RTVSPropertyOp47
 70
     1
102
RTVSPropertyOp48
 70
     1
102
RTVSPropertyOp49
 70
     1
102
RTVSPropertyOp50
 70
     1
102
RTVSPropertyOp51
 70
     0
102
RTVSPropertyOp52
 70
     0
102
RTVSPropertyOp53
 70
     1
102
RTVSPropertyOp54
 70
     1
102
RTVSPropertyOp55
 70
     1
102
RTVSPropertyOp56
 70
     1
102
RTVSPropertyOp57
 70
     1
102
RTVSPropertyOp58
 70
     1
102
RTVSPropertyOp59
 70
     1
102
RTVSPropertyOp60
 70
     1
102
RTVSPropertyOp61
 70
     1
102
RTVSPropertyOp62
 70
     1
  0
XRECORD
  5
8743
102
{ACAD_REACTORS
330
8742
102
}
330
8742
100
AcDbXrecord
280
     1
102
RTVSPost2010Prop28
280
     0
102
RTVSPost2010PropOp28
 70
     1
102
RTVSPost2010Prop29
280
     1
102
RTVSPost2010PropOp29
 70
     1
102
RTVSPost2010Prop30
280
     1
102
RTVSPost2010PropOp30
 70
     1
102
RTVSPost2010Prop31
280
     0
102
RTVSPost2010PropOp31
 70
     1
102
RTVSPost2010Prop32
280
     0
102
RTVSPost2010PropOp32
 70
     1
102
RTVSPost2010Prop33
280
     0
102
RTVSPost2010PropOp33
 70
     1
102
RTVSPost2010Prop34
280
     0
102
RTVSPost2010PropOp34
 70
     1
102
RTVSPost2010Prop35
280
     0
102
RTVSPost2010PropOp35
 70
     1
102
RTVSPost2010Prop36
280
     0
102
RTVSPost2010PropOp36
 70
     1
102
RTVSPost2010Prop37
 90
       50
102
RTVSPost2010PropOp37
 70
     1
102
RTVSPost2010Prop38
140
0.0
102
RTVSPost2010PropOp38
 70
     1
102
RTVSPost2010Prop39
140
1.0
102
RTVSPost2010PropOp39
 70
     1
102
RTVSPost2010Prop40
 90
        0
102
RTVSPost2010PropOp40
 70
     1
102
RTVSPost2010Prop41ColorIndex
 90
       18
102
RTVSPost2010Prop41ColorRGB
 90
        0
102
RTVSPost2010PropOp41
 70
     1
102
RTVSPost2010Prop42
 90
       50
102
RTVSPost2010PropOp42
 70
     1
102
RTVSPost2010Prop43
 90
        3
102
RTVSPost2010PropOp43
 70
     1
102
RTVSPost2010Prop44ColorIndex
 90
        5
102
RTVSPost2010Prop44ColorRGB
 90
      255
102
RTVSPost2010PropOp44
 70
     1
102
RTVSPost2010Prop45
280
     0
102
RTVSPost2010PropOp45
 70
     1
102
RTVSPost2010Prop46
 90
       50
102
RTVSPost2010PropOp46
 70
     1
102
RTVSPost2010Prop47
 90
       50
102
RTVSPost2010PropOp47
 70
     1
102
RTVSPost2010Prop48
 90
       50
102
RTVSPost2010PropOp48
 70
     1
102
RTVSPost2010Prop49
280
     0
102
RTVSPost2010PropOp49
 70
     1
102
RTVSPost2010Prop50
 90
       50
102
RTVSPost2010PropOp50
 70
     1
102
RTVSPost2010Prop51ColorIndex
 90
      256
102
RTVSPost2010Prop51ColorRGB
 90
-16777216
102
RTVSPost2010PropOp51
 70
     0
102
RTVSPost2010Prop52
140
1.0
102
RTVSPost2010PropOp52
 70
     0
102
RTVSPost2010Prop53
 90
        2
102
RTVSPost2010PropOp53
 70
     1
102
RTVSPost2010Prop54
  1
strokes_ogs.tif
102
RTVSPost2010PropOp54
 70
     1
102
RTVSPost2010Prop55
280
     0
102
RTVSPost2010PropOp55
 70
     1
102
RTVSPost2010Prop56
140
1.0
102
RTVSPost2010PropOp56
 70
     1
102
RTVSPost2010Prop57
140
1.0
102
RTVSPost2010PropOp57
 70
     1
102
RTVSPropertyOp0
 70
     1
102
RTVSPropertyOp1
 70
     1
102
RTVSPropertyOp2
 70
     1
102
RTVSPropertyOp3
 70
     1
102
RTVSPropertyOp4
 70
     1
102
RTVSPropertyOp5
 70
     1
102
RTVSPropertyOp6
 70
     1
102
RTVSPropertyOp7
 70
     1
102
RTVSPropertyOp8
 70
     1
102
RTVSPropertyOp9
 70
     1
102
RTVSPropertyOp10
 70
     1
102
RTVSPropertyOp11
 70
     1
102
RTVSPropertyOp12
 70
     1
102
RTVSPropertyOp13
 70
     1
102
RTVSPropertyOp14
 70
     1
102
RTVSPropertyOp15
 70
     1
102
RTVSPropertyOp16
 70
     1
102
RTVSPropertyOp17
 70
     1
102
RTVSPropertyOp18
 70
     1
102
RTVSPropertyOp19
 70
     1
102
RTVSPropertyOp20
 70
     1
102
RTVSPropertyOp21
 70
     1
102
RTVSPropertyOp22
 70
     1
102
RTVSPropertyOp23
 70
     1
102
RTVSPropertyOp24
 70
     1
102
RTVSPropertyOp25
 70
     1
102
RTVSPropertyOp26
 70
     1
102
RTVSPropertyOp27
 70
     1
102
RTVSPropertyOp28
 70
     1
102
RTVSPropertyOp29
 70
     1
102
RTVSPropertyOp30
 70
     1
102
RTVSPropertyOp31
 70
     1
102
RTVSPropertyOp32
 70
     1
102
RTVSPropertyOp33
 70
     1
102
RTVSPropertyOp34
 70
     1
102
RTVSPropertyOp35
 70
     1
102
RTVSPropertyOp36
 70
     1
102
RTVSPropertyOp37
 70
     1
102
RTVSPropertyOp38
 70
     1
102
RTVSPropertyOp39
 70
     1
102
RTVSPropertyOp40
 70
     1
102
RTVSPropertyOp41
 70
     1
102
RTVSPropertyOp42
 70
     1
102
RTVSPropertyOp43
 70
     1
102
RTVSPropertyOp44
 70
     1
102
RTVSPropertyOp45
 70
     1
102
RTVSPropertyOp46
 70
     1
102
RTVSPropertyOp47
 70
     1
102
RTVSPropertyOp48
 70
     1
102
RTVSPropertyOp49
 70
     1
102
RTVSPropertyOp50
 70
     1
102
RTVSPropertyOp51
 70
     0
102
RTVSPropertyOp52
 70
     0
102
RTVSPropertyOp53
 70
     1
102
RTVSPropertyOp54
 70
     1
102
RTVSPropertyOp55
 70
     1
102
RTVSPropertyOp56
 70
     1
102
RTVSPropertyOp57
 70
     1
102
RTVSPropertyOp58
 70
     1
102
RTVSPropertyOp59
 70
     1
102
RTVSPropertyOp60
 70
     1
102
RTVSPropertyOp61
 70
     1
102
RTVSPropertyOp62
 70
     1
  0
XRECORD
  5
8745
102
{ACAD_REACTORS
330
8744
102
}
330
8744
100
AcDbXrecord
280
     1
102
RTVSPost2010Prop28
280
     0
102
RTVSPost2010PropOp28
 70
     1
102
RTVSPost2010Prop29
280
     1
102
RTVSPost2010PropOp29
 70
     1
102
RTVSPost2010Prop30
280
     1
102
RTVSPost2010PropOp30
 70
     1
102
RTVSPost2010Prop31
280
     0
102
RTVSPost2010PropOp31
 70
     1
102
RTVSPost2010Prop32
280
     0
102
RTVSPost2010PropOp32
 70
     1
102
RTVSPost2010Prop33
280
     0
102
RTVSPost2010PropOp33
 70
     1
102
RTVSPost2010Prop34
280
     0
102
RTVSPost2010PropOp34
 70
     1
102
RTVSPost2010Prop35
280
     0
102
RTVSPost2010PropOp35
 70
     1
102
RTVSPost2010Prop36
280
     0
102
RTVSPost2010PropOp36
 70
     1
102
RTVSPost2010Prop37
 90
       50
102
RTVSPost2010PropOp37
 70
     1
102
RTVSPost2010Prop38
140
0.0
102
RTVSPost2010PropOp38
 70
     1
102
RTVSPost2010Prop39
140
1.0
102
RTVSPost2010PropOp39
 70
     1
102
RTVSPost2010Prop40
 90
        0
102
RTVSPost2010PropOp40
 70
     1
102
RTVSPost2010Prop41ColorIndex
 90
       18
102
RTVSPost2010Prop41ColorRGB
 90
        0
102
RTVSPost2010PropOp41
 70
     1
102
RTVSPost2010Prop42
 90
       50
102
RTVSPost2010PropOp42
 70
     1
102
RTVSPost2010Prop43
 90
        3
102
RTVSPost2010PropOp43
 70
     1
102
RTVSPost2010Prop44ColorIndex
 90
        5
102
RTVSPost2010Prop44ColorRGB
 90
      255
102
RTVSPost2010PropOp44
 70
     1
102
RTVSPost2010Prop45
280
     0
102
RTVSPost2010PropOp45
 70
     1
102
RTVSPost2010Prop46
 90
       50
102
RTVSPost2010PropOp46
 70
     1
102
RTVSPost2010Prop47
 90
       50
102
RTVSPost2010PropOp47
 70
     1
102
RTVSPost2010Prop48
 90
       50
102
RTVSPost2010PropOp48
 70
     1
102
RTVSPost2010Prop49
280
     0
102
RTVSPost2010PropOp49
 70
     1
102
RTVSPost2010Prop50
 90
       50
102
RTVSPost2010PropOp50
 70
     1
102
RTVSPost2010Prop51ColorIndex
 90
      256
102
RTVSPost2010Prop51ColorRGB
 90
-16777216
102
RTVSPost2010PropOp51
 70
     0
102
RTVSPost2010Prop52
140
1.0
102
RTVSPost2010PropOp52
 70
     0
102
RTVSPost2010Prop53
 90
        2
102
RTVSPost2010PropOp53
 70
     1
102
RTVSPost2010Prop54
  1
strokes_ogs.tif
102
RTVSPost2010PropOp54
 70
     1
102
RTVSPost2010Prop55
280
     0
102
RTVSPost2010PropOp55
 70
     1
102
RTVSPost2010Prop56
140
1.0
102
RTVSPost2010PropOp56
 70
     1
102
RTVSPost2010Prop57
140
1.0
102
RTVSPost2010PropOp57
 70
     1
102
RTVSPropertyOp0
 70
     1
102
RTVSPropertyOp1
 70
     1
102
RTVSPropertyOp2
 70
     1
102
RTVSPropertyOp3
 70
     1
102
RTVSPropertyOp4
 70
     1
102
RTVSPropertyOp5
 70
     1
102
RTVSPropertyOp6
 70
     1
102
RTVSPropertyOp7
 70
     1
102
RTVSPropertyOp8
 70
     1
102
RTVSPropertyOp9
 70
     1
102
RTVSPropertyOp10
 70
     1
102
RTVSPropertyOp11
 70
     1
102
RTVSPropertyOp12
 70
     1
102
RTVSPropertyOp13
 70
     1
102
RTVSPropertyOp14
 70
     1
102
RTVSPropertyOp15
 70
     1
102
RTVSPropertyOp16
 70
     1
102
RTVSPropertyOp17
 70
     1
102
RTVSPropertyOp18
 70
     1
102
RTVSPropertyOp19
 70
     1
102
RTVSPropertyOp20
 70
     1
102
RTVSPropertyOp21
 70
     1
102
RTVSPropertyOp22
 70
     1
102
RTVSPropertyOp23
 70
     1
102
RTVSPropertyOp24
 70
     1
102
RTVSPropertyOp25
 70
     1
102
RTVSPropertyOp26
 70
     1
102
RTVSPropertyOp27
 70
     1
102
RTVSPropertyOp28
 70
     1
102
RTVSPropertyOp29
 70
     1
102
RTVSPropertyOp30
 70
     1
102
RTVSPropertyOp31
 70
     1
102
RTVSPropertyOp32
 70
     1
102
RTVSPropertyOp33
 70
     1
102
RTVSPropertyOp34
 70
     1
102
RTVSPropertyOp35
 70
     1
102
RTVSPropertyOp36
 70
     1
102
RTVSPropertyOp37
 70
     1
102
RTVSPropertyOp38
 70
     1
102
RTVSPropertyOp39
 70
     1
102
RTVSPropertyOp40
 70
     1
102
RTVSPropertyOp41
 70
     1
102
RTVSPropertyOp42
 70
     1
102
RTVSPropertyOp43
 70
     1
102
RTVSPropertyOp44
 70
     1
102
RTVSPropertyOp45
 70
     1
102
RTVSPropertyOp46
 70
     1
102
RTVSPropertyOp47
 70
     1
102
RTVSPropertyOp48
 70
     1
102
RTVSPropertyOp49
 70
     1
102
RTVSPropertyOp50
 70
     1
102
RTVSPropertyOp51
 70
     0
102
RTVSPropertyOp52
 70
     0
102
RTVSPropertyOp53
 70
     1
102
RTVSPropertyOp54
 70
     1
102
RTVSPropertyOp55
 70
     1
102
RTVSPropertyOp56
 70
     1
102
RTVSPropertyOp57
 70
     1
102
RTVSPropertyOp58
 70
     1
102
RTVSPropertyOp59
 70
     1
102
RTVSPropertyOp60
 70
     1
102
RTVSPropertyOp61
 70
     1
102
RTVSPropertyOp62
 70
     1
  0
XRECORD
  5
8733
102
{ACAD_REACTORS
330
8732
102
}
330
8732
100
AcDbXrecord
280
     1
102
RTVSPost2010Prop28
280
     0
102
RTVSPost2010PropOp28
 70
     1
102
RTVSPost2010Prop29
280
     1
102
RTVSPost2010PropOp29
 70
     1
102
RTVSPost2010Prop30
280
     1
102
RTVSPost2010PropOp30
 70
     1
102
RTVSPost2010Prop31
280
     0
102
RTVSPost2010PropOp31
 70
     1
102
RTVSPost2010Prop32
280
     0
102
RTVSPost2010PropOp32
 70
     1
102
RTVSPost2010Prop33
280
     0
102
RTVSPost2010PropOp33
 70
     1
102
RTVSPost2010Prop34
280
     0
102
RTVSPost2010PropOp34
 70
     1
102
RTVSPost2010Prop35
280
     0
102
RTVSPost2010PropOp35
 70
     1
102
RTVSPost2010Prop36
280
     0
102
RTVSPost2010PropOp36
 70
     1
102
RTVSPost2010Prop37
 90
       50
102
RTVSPost2010PropOp37
 70
     1
102
RTVSPost2010Prop38
140
0.0
102
RTVSPost2010PropOp38
 70
     1
102
RTVSPost2010Prop39
140
1.0
102
RTVSPost2010PropOp39
 70
     1
102
RTVSPost2010Prop40
 90
        0
102
RTVSPost2010PropOp40
 70
     1
102
RTVSPost2010Prop41ColorIndex
 90
       18
102
RTVSPost2010Prop41ColorRGB
 90
        0
102
RTVSPost2010PropOp41
 70
     1
102
RTVSPost2010Prop42
 90
       50
102
RTVSPost2010PropOp42
 70
     1
102
RTVSPost2010Prop43
 90
        3
102
RTVSPost2010PropOp43
 70
     1
102
RTVSPost2010Prop44ColorIndex
 90
        5
102
RTVSPost2010Prop44ColorRGB
 90
      255
102
RTVSPost2010PropOp44
 70
     1
102
RTVSPost2010Prop45
280
     0
102
RTVSPost2010PropOp45
 70
     1
102
RTVSPost2010Prop46
 90
       50
102
RTVSPost2010PropOp46
 70
     1
102
RTVSPost2010Prop47
 90
       50
102
RTVSPost2010PropOp47
 70
     1
102
RTVSPost2010Prop48
 90
       50
102
RTVSPost2010PropOp48
 70
     1
102
RTVSPost2010Prop49
280
     0
102
RTVSPost2010PropOp49
 70
     1
102
RTVSPost2010Prop50
 90
       50
102
RTVSPost2010PropOp50
 70
     1
102
RTVSPost2010Prop51ColorIndex
 90
      256
102
RTVSPost2010Prop51ColorRGB
 90
-16777216
102
RTVSPost2010PropOp51
 70
     0
102
RTVSPost2010Prop52
140
1.0
102
RTVSPost2010PropOp52
 70
     0
102
RTVSPost2010Prop53
 90
        2
102
RTVSPost2010PropOp53
 70
     1
102
RTVSPost2010Prop54
  1
strokes_ogs.tif
102
RTVSPost2010PropOp54
 70
     1
102
RTVSPost2010Prop55
280
     0
102
RTVSPost2010PropOp55
 70
     1
102
RTVSPost2010Prop56
140
1.0
102
RTVSPost2010PropOp56
 70
     1
102
RTVSPost2010Prop57
140
1.0
102
RTVSPost2010PropOp57
 70
     1
102
RTVSPropertyOp0
 70
     1
102
RTVSPropertyOp1
 70
     1
102
RTVSPropertyOp2
 70
     1
102
RTVSPropertyOp3
 70
     1
102
RTVSPropertyOp4
 70
     1
102
RTVSPropertyOp5
 70
     1
102
RTVSPropertyOp6
 70
     1
102
RTVSPropertyOp7
 70
     1
102
RTVSPropertyOp8
 70
     1
102
RTVSPropertyOp9
 70
     1
102
RTVSPropertyOp10
 70
     1
102
RTVSPropertyOp11
 70
     1
102
RTVSPropertyOp12
 70
     1
102
RTVSPropertyOp13
 70
     1
102
RTVSPropertyOp14
 70
     1
102
RTVSPropertyOp15
 70
     1
102
RTVSPropertyOp16
 70
     1
102
RTVSPropertyOp17
 70
     1
102
RTVSPropertyOp18
 70
     1
102
RTVSPropertyOp19
 70
     1
102
RTVSPropertyOp20
 70
     1
102
RTVSPropertyOp21
 70
     1
102
RTVSPropertyOp22
 70
     1
102
RTVSPropertyOp23
 70
     1
102
RTVSPropertyOp24
 70
     1
102
RTVSPropertyOp25
 70
     1
102
RTVSPropertyOp26
 70
     1
102
RTVSPropertyOp27
 70
     1
102
RTVSPropertyOp28
 70
     1
102
RTVSPropertyOp29
 70
     1
102
RTVSPropertyOp30
 70
     1
102
RTVSPropertyOp31
 70
     1
102
RTVSPropertyOp32
 70
     1
102
RTVSPropertyOp33
 70
     1
102
RTVSPropertyOp34
 70
     1
102
RTVSPropertyOp35
 70
     1
102
RTVSPropertyOp36
 70
     1
102
RTVSPropertyOp37
 70
     1
102
RTVSPropertyOp38
 70
     1
102
RTVSPropertyOp39
 70
     1
102
RTVSPropertyOp40
 70
     1
102
RTVSPropertyOp41
 70
     1
102
RTVSPropertyOp42
 70
     1
102
RTVSPropertyOp43
 70
     1
102
RTVSPropertyOp44
 70
     1
102
RTVSPropertyOp45
 70
     1
102
RTVSPropertyOp46
 70
     1
102
RTVSPropertyOp47
 70
     1
102
RTVSPropertyOp48
 70
     1
102
RTVSPropertyOp49
 70
     1
102
RTVSPropertyOp50
 70
     1
102
RTVSPropertyOp51
 70
     0
102
RTVSPropertyOp52
 70
     0
102
RTVSPropertyOp53
 70
     1
102
RTVSPropertyOp54
 70
     1
102
RTVSPropertyOp55
 70
     1
102
RTVSPropertyOp56
 70
     1
102
RTVSPropertyOp57
 70
     1
102
RTVSPropertyOp58
 70
     1
102
RTVSPropertyOp59
 70
     1
102
RTVSPropertyOp60
 70
     1
102
RTVSPropertyOp61
 70
     1
102
RTVSPropertyOp62
 70
     1
  0
XRECORD
  5
8727
102
{ACAD_REACTORS
330
8726
102
}
330
8726
100
AcDbXrecord
280
     1
102
RTVSPost2010Prop28
280
     0
102
RTVSPost2010PropOp28
 70
     1
102
RTVSPost2010Prop29
280
     1
102
RTVSPost2010PropOp29
 70
     1
102
RTVSPost2010Prop30
280
     1
102
RTVSPost2010PropOp30
 70
     1
102
RTVSPost2010Prop31
280
     0
102
RTVSPost2010PropOp31
 70
     1
102
RTVSPost2010Prop32
280
     0
102
RTVSPost2010PropOp32
 70
     1
102
RTVSPost2010Prop33
280
     0
102
RTVSPost2010PropOp33
 70
     1
102
RTVSPost2010Prop34
280
     0
102
RTVSPost2010PropOp34
 70
     1
102
RTVSPost2010Prop35
280
     0
102
RTVSPost2010PropOp35
 70
     1
102
RTVSPost2010Prop36
280
     0
102
RTVSPost2010PropOp36
 70
     1
102
RTVSPost2010Prop37
 90
       50
102
RTVSPost2010PropOp37
 70
     1
102
RTVSPost2010Prop38
140
0.0
102
RTVSPost2010PropOp38
 70
     1
102
RTVSPost2010Prop39
140
1.0
102
RTVSPost2010PropOp39
 70
     1
102
RTVSPost2010Prop40
 90
        0
102
RTVSPost2010PropOp40
 70
     1
102
RTVSPost2010Prop41ColorIndex
 90
       18
102
RTVSPost2010Prop41ColorRGB
 90
        0
102
RTVSPost2010PropOp41
 70
     1
102
RTVSPost2010Prop42
 90
       50
102
RTVSPost2010PropOp42
 70
     1
102
RTVSPost2010Prop43
 90
        3
102
RTVSPost2010PropOp43
 70
     1
102
RTVSPost2010Prop44ColorIndex
 90
        5
102
RTVSPost2010Prop44ColorRGB
 90
      255
102
RTVSPost2010PropOp44
 70
     1
102
RTVSPost2010Prop45
280
     0
102
RTVSPost2010PropOp45
 70
     1
102
RTVSPost2010Prop46
 90
       50
102
RTVSPost2010PropOp46
 70
     1
102
RTVSPost2010Prop47
 90
       50
102
RTVSPost2010PropOp47
 70
     1
102
RTVSPost2010Prop48
 90
       50
102
RTVSPost2010PropOp48
 70
     1
102
RTVSPost2010Prop49
280
     0
102
RTVSPost2010PropOp49
 70
     1
102
RTVSPost2010Prop50
 90
       50
102
RTVSPost2010PropOp50
 70
     1
102
RTVSPost2010Prop51ColorIndex
 90
      256
102
RTVSPost2010Prop51ColorRGB
 90
-16777216
102
RTVSPost2010PropOp51
 70
     0
102
RTVSPost2010Prop52
140
1.0
102
RTVSPost2010PropOp52
 70
     0
102
RTVSPost2010Prop53
 90
        2
102
RTVSPost2010PropOp53
 70
     1
102
RTVSPost2010Prop54
  1
strokes_ogs.tif
102
RTVSPost2010PropOp54
 70
     1
102
RTVSPost2010Prop55
280
     0
102
RTVSPost2010PropOp55
 70
     1
102
RTVSPost2010Prop56
140
1.0
102
RTVSPost2010PropOp56
 70
     1
102
RTVSPost2010Prop57
140
1.0
102
RTVSPost2010PropOp57
 70
     1
102
RTVSPropertyOp0
 70
     1
102
RTVSPropertyOp1
 70
     1
102
RTVSPropertyOp2
 70
     1
102
RTVSPropertyOp3
 70
     1
102
RTVSPropertyOp4
 70
     1
102
RTVSPropertyOp5
 70
     1
102
RTVSPropertyOp6
 70
     1
102
RTVSPropertyOp7
 70
     1
102
RTVSPropertyOp8
 70
     1
102
RTVSPropertyOp9
 70
     1
102
RTVSPropertyOp10
 70
     1
102
RTVSPropertyOp11
 70
     1
102
RTVSPropertyOp12
 70
     1
102
RTVSPropertyOp13
 70
     1
102
RTVSPropertyOp14
 70
     1
102
RTVSPropertyOp15
 70
     1
102
RTVSPropertyOp16
 70
     1
102
RTVSPropertyOp17
 70
     1
102
RTVSPropertyOp18
 70
     1
102
RTVSPropertyOp19
 70
     1
102
RTVSPropertyOp20
 70
     1
102
RTVSPropertyOp21
 70
     1
102
RTVSPropertyOp22
 70
     1
102
RTVSPropertyOp23
 70
     1
102
RTVSPropertyOp24
 70
     1
102
RTVSPropertyOp25
 70
     1
102
RTVSPropertyOp26
 70
     1
102
RTVSPropertyOp27
 70
     1
102
RTVSPropertyOp28
 70
     1
102
RTVSPropertyOp29
 70
     1
102
RTVSPropertyOp30
 70
     1
102
RTVSPropertyOp31
 70
     1
102
RTVSPropertyOp32
 70
     1
102
RTVSPropertyOp33
 70
     1
102
RTVSPropertyOp34
 70
     1
102
RTVSPropertyOp35
 70
     1
102
RTVSPropertyOp36
 70
     1
102
RTVSPropertyOp37
 70
     1
102
RTVSPropertyOp38
 70
     1
102
RTVSPropertyOp39
 70
     1
102
RTVSPropertyOp40
 70
     1
102
RTVSPropertyOp41
 70
     1
102
RTVSPropertyOp42
 70
     1
102
RTVSPropertyOp43
 70
     1
102
RTVSPropertyOp44
 70
     1
102
RTVSPropertyOp45
 70
     1
102
RTVSPropertyOp46
 70
     1
102
RTVSPropertyOp47
 70
     1
102
RTVSPropertyOp48
 70
     1
102
RTVSPropertyOp49
 70
     1
102
RTVSPropertyOp50
 70
     1
102
RTVSPropertyOp51
 70
     0
102
RTVSPropertyOp52
 70
     0
102
RTVSPropertyOp53
 70
     1
102
RTVSPropertyOp54
 70
     1
102
RTVSPropertyOp55
 70
     1
102
RTVSPropertyOp56
 70
     1
102
RTVSPropertyOp57
 70
     1
102
RTVSPropertyOp58
 70
     1
102
RTVSPropertyOp59
 70
     1
102
RTVSPropertyOp60
 70
     1
102
RTVSPropertyOp61
 70
     1
102
RTVSPropertyOp62
 70
     1
  0
XRECORD
  5
8747
102
{ACAD_REACTORS
330
8746
102
}
330
8746
100
AcDbXrecord
280
     1
102
RTVSPost2010Prop28
280
     0
102
RTVSPost2010PropOp28
 70
     1
102
RTVSPost2010Prop29
280
     1
102
RTVSPost2010PropOp29
 70
     1
102
RTVSPost2010Prop30
280
     1
102
RTVSPost2010PropOp30
 70
     1
102
RTVSPost2010Prop31
280
     0
102
RTVSPost2010PropOp31
 70
     1
102
RTVSPost2010Prop32
280
     0
102
RTVSPost2010PropOp32
 70
     1
102
RTVSPost2010Prop33
280
     0
102
RTVSPost2010PropOp33
 70
     1
102
RTVSPost2010Prop34
280
     0
102
RTVSPost2010PropOp34
 70
     1
102
RTVSPost2010Prop35
280
     0
102
RTVSPost2010PropOp35
 70
     1
102
RTVSPost2010Prop36
280
     0
102
RTVSPost2010PropOp36
 70
     1
102
RTVSPost2010Prop37
 90
       50
102
RTVSPost2010PropOp37
 70
     1
102
RTVSPost2010Prop38
140
0.0
102
RTVSPost2010PropOp38
 70
     1
102
RTVSPost2010Prop39
140
1.0
102
RTVSPost2010PropOp39
 70
     1
102
RTVSPost2010Prop40
 90
        0
102
RTVSPost2010PropOp40
 70
     1
102
RTVSPost2010Prop41ColorIndex
 90
       18
102
RTVSPost2010Prop41ColorRGB
 90
        0
102
RTVSPost2010PropOp41
 70
     1
102
RTVSPost2010Prop42
 90
       50
102
RTVSPost2010PropOp42
 70
     1
102
RTVSPost2010Prop43
 90
        3
102
RTVSPost2010PropOp43
 70
     1
102
RTVSPost2010Prop44ColorIndex
 90
        5
102
RTVSPost2010Prop44ColorRGB
 90
      255
102
RTVSPost2010PropOp44
 70
     1
102
RTVSPost2010Prop45
280
     0
102
RTVSPost2010PropOp45
 70
     1
102
RTVSPost2010Prop46
 90
       50
102
RTVSPost2010PropOp46
 70
     1
102
RTVSPost2010Prop47
 90
       50
102
RTVSPost2010PropOp47
 70
     1
102
RTVSPost2010Prop48
 90
       50
102
RTVSPost2010PropOp48
 70
     1
102
RTVSPost2010Prop49
280
     0
102
RTVSPost2010PropOp49
 70
     1
102
RTVSPost2010Prop50
 90
       50
102
RTVSPost2010PropOp50
 70
     1
102
RTVSPost2010Prop51ColorIndex
 90
      256
102
RTVSPost2010Prop51ColorRGB
 90
-16777216
102
RTVSPost2010PropOp51
 70
     0
102
RTVSPost2010Prop52
140
1.0
102
RTVSPost2010PropOp52
 70
     0
102
RTVSPost2010Prop53
 90
        2
102
RTVSPost2010PropOp53
 70
     1
102
RTVSPost2010Prop54
  1
strokes_ogs.tif
102
RTVSPost2010PropOp54
 70
     1
102
RTVSPost2010Prop55
280
     0
102
RTVSPost2010PropOp55
 70
     1
102
RTVSPost2010Prop56
140
1.0
102
RTVSPost2010PropOp56
 70
     1
102
RTVSPost2010Prop57
140
1.0
102
RTVSPost2010PropOp57
 70
     1
102
RTVSPropertyOp0
 70
     1
102
RTVSPropertyOp1
 70
     1
102
RTVSPropertyOp2
 70
     1
102
RTVSPropertyOp3
 70
     1
102
RTVSPropertyOp4
 70
     1
102
RTVSPropertyOp5
 70
     1
102
RTVSPropertyOp6
 70
     1
102
RTVSPropertyOp7
 70
     1
102
RTVSPropertyOp8
 70
     1
102
RTVSPropertyOp9
 70
     1
102
RTVSPropertyOp10
 70
     1
102
RTVSPropertyOp11
 70
     1
102
RTVSPropertyOp12
 70
     1
102
RTVSPropertyOp13
 70
     1
102
RTVSPropertyOp14
 70
     1
102
RTVSPropertyOp15
 70
     1
102
RTVSPropertyOp16
 70
     1
102
RTVSPropertyOp17
 70
     1
102
RTVSPropertyOp18
 70
     1
102
RTVSPropertyOp19
 70
     1
102
RTVSPropertyOp20
 70
     1
102
RTVSPropertyOp21
 70
     1
102
RTVSPropertyOp22
 70
     1
102
RTVSPropertyOp23
 70
     1
102
RTVSPropertyOp24
 70
     1
102
RTVSPropertyOp25
 70
     1
102
RTVSPropertyOp26
 70
     1
102
RTVSPropertyOp27
 70
     1
102
RTVSPropertyOp28
 70
     1
102
RTVSPropertyOp29
 70
     1
102
RTVSPropertyOp30
 70
     1
102
RTVSPropertyOp31
 70
     1
102
RTVSPropertyOp32
 70
     1
102
RTVSPropertyOp33
 70
     1
102
RTVSPropertyOp34
 70
     1
102
RTVSPropertyOp35
 70
     1
102
RTVSPropertyOp36
 70
     1
102
RTVSPropertyOp37
 70
     1
102
RTVSPropertyOp38
 70
     1
102
RTVSPropertyOp39
 70
     1
102
RTVSPropertyOp40
 70
     1
102
RTVSPropertyOp41
 70
     1
102
RTVSPropertyOp42
 70
     1
102
RTVSPropertyOp43
 70
     1
102
RTVSPropertyOp44
 70
     1
102
RTVSPropertyOp45
 70
     1
102
RTVSPropertyOp46
 70
     1
102
RTVSPropertyOp47
 70
     1
102
RTVSPropertyOp48
 70
     1
102
RTVSPropertyOp49
 70
     1
102
RTVSPropertyOp50
 70
     1
102
RTVSPropertyOp51
 70
     0
102
RTVSPropertyOp52
 70
     0
102
RTVSPropertyOp53
 70
     1
102
RTVSPropertyOp54
 70
     1
102
RTVSPropertyOp55
 70
     1
102
RTVSPropertyOp56
 70
     1
102
RTVSPropertyOp57
 70
     1
102
RTVSPropertyOp58
 70
     1
102
RTVSPropertyOp59
 70
     1
102
RTVSPropertyOp60
 70
     1
102
RTVSPropertyOp61
 70
     1
102
RTVSPropertyOp62
 70
     1
  0
ENDSEC
  0
EOF
