  0
SECTION
  2
HEADER
  9
$ACADVER
  1
AC1015
  9
$ACADMAINTVER
 70
    18
  9
$DWGCODEPAGE
  3
ANSI_1252
  9
$INSBASE
 10
0.0
 20
0.0
 30
0.0
  9
$EXTMIN
 10
-9.209288583613556
 20
-105.4654535328334
 30
-0.0015258207003583
  9
$EXTMAX
 10
23.25073293788682
 20
1.214538921386179
 30
0.0000000349246037
  9
$LIMMIN
 10
0.0
 20
0.0
  9
$LIMMAX
 10
420.0
 20
297.0
  9
$ORTHOMODE
 70
     0
  9
$REGENMODE
 70
     1
  9
$FILLMODE
 70
     1
  9
$QTEXTMODE
 70
     0
  9
$MIRRTEXT
 70
     0
  9
$LTSCALE
 40
1.0
  9
$ATTMODE
 70
     1
  9
$TEXTSIZE
 40
2.5
  9
$TRACEWID
 40
1.0
  9
$TEXTSTYLE
  7
Standard
  9
$CLAYER
  8
0
  9
$CELTYPE
  6
ByLayer
  9
$CECOLOR
 62
   256
  9
$CELTSCALE
 40
1.0
  9
$DISPSILH
 70
     0
  9
$DIMSCALE
 40
1.0
  9
$DIMASZ
 40
2.5
  9
$DIMEXO
 40
0.625
  9
$DIMDLI
 40
3.75
  9
$DIMRND
 40
0.0
  9
$DIMDLE
 40
0.0
  9
$DIMEXE
 40
1.25
  9
$DIMTP
 40
0.0
  9
$DIMTM
 40
0.0
  9
$DIMTXT
 40
2.5
  9
$DIMCEN
 40
2.5
  9
$DIMTSZ
 40
0.0
  9
$DIMTOL
 70
     0
  9
$DIMLIM
 70
     0
  9
$DIMTIH
 70
     0
  9
$DIMTOH
 70
     0
  9
$DIMSE1
 70
     0
  9
$DIMSE2
 70
     0
  9
$DIMTAD
 70
     1
  9
$DIMZIN
 70
     8
  9
$DIMBLK
  1

  9
$DIMASO
 70
     1
  9
$DIMSHO
 70
     1
  9
$DIMPOST
  1

  9
$DIMAPOST
  1

  9
$DIMALT
 70
     0
  9
$DIMALTD
 70
     3
  9
$DIMALTF
 40
0.03937007874016
  9
$DIMLFAC
 40
1.0
  9
$DIMTOFL
 70
     1
  9
$DIMTVP
 40
0.0
  9
$DIMTIX
 70
     0
  9
$DIMSOXD
 70
     0
  9
$DIMSAH
 70
     0
  9
$DIMBLK1
  1

  9
$DIMBLK2
  1

  9
$DIMSTYLE
  2
ISO-25
  9
$DIMCLRD
 70
     0
  9
$DIMCLRE
 70
     0
  9
$DIMCLRT
 70
     0
  9
$DIMTFAC
 40
1.0
  9
$DIMGAP
 40
0.625
  9
$DIMJUST
 70
     0
  9
$DIMSD1
 70
     0
  9
$DIMSD2
 70
     0
  9
$DIMTOLJ
 70
     0
  9
$DIMTZIN
 70
     8
  9
$DIMALTZ
 70
     0
  9
$DIMALTTZ
 70
     0
  9
$DIMUPT
 70
     0
  9
$DIMDEC
 70
     2
  9
$DIMTDEC
 70
     2
  9
$DIMALTU
 70
     2
  9
$DIMALTTD
 70
     3
  9
$DIMTXSTY
  7
Standard
  9
$DIMAUNIT
 70
     0
  9
$DIMADEC
 70
     0
  9
$DIMALTRND
 40
0.0
  9
$DIMAZIN
 70
     0
  9
$DIMDSEP
 70
    44
  9
$DIMATFIT
 70
     3
  9
$DIMFRAC
 70
     0
  9
$DIMLDRBLK
  1

  9
$DIMLUNIT
 70
     2
  9
$DIMLWD
 70
    -2
  9
$DIMLWE
 70
    -2
  9
$DIMTMOVE
 70
     0
  9
$LUNITS
 70
     2
  9
$LUPREC
 70
     4
  9
$SKETCHINC
 40
1.0
  9
$FILLETRAD
 40
0.0
  9
$AUNITS
 70
     0
  9
$AUPREC
 70
     0
  9
$MENU
  1
.
  9
$ELEVATION
 40
0.0
  9
$PELEVATION
 40
0.0
  9
$THICKNESS
 40
0.0
  9
$LIMCHECK
 70
     0
  9
$CHAMFERA
 40
0.0
  9
$CHAMFERB
 40
0.0
  9
$CHAMFERC
 40
0.0
  9
$CHAMFERD
 40
0.0
  9
$SKPOLY
 70
     0
  9
$TDCREATE
 40
2460733.571354167
  9
$TDUCREATE
 40
2460733.279687500
  9
$TDUPDATE
 40
2460733.598506944
  9
$TDUUPDATE
 40
2460733.306840278
  9
$TDINDWG
 40
0.0020486111
  9
$TDUSRTIMER
 40
0.0020486111
  9
$USRTIMER
 70
     1
  9
$ANGBASE
 50
0.0
  9
$ANGDIR
 70
     0
  9
$PDMODE
 70
     0
  9
$PDSIZE
 40
0.0
  9
$PLINEWID
 40
0.0
  9
$SPLFRAME
 70
     0
  9
$SPLINETYPE
 70
     6
  9
$SPLINESEGS
 70
     8
  9
$HANDSEED
  5
8244
  9
$SURFTAB1
 70
     6
  9
$SURFTAB2
 70
     6
  9
$SURFTYPE
 70
     6
  9
$SURFU
 70
     6
  9
$SURFV
 70
     6
  9
$UCSBASE
  2

  9
$UCSNAME
  2

  9
$UCSORG
 10
0.0
 20
0.0
 30
0.0
  9
$UCSXDIR
 10
1.0
 20
0.0
 30
0.0
  9
$UCSYDIR
 10
0.0
 20
1.0
 30
0.0
  9
$UCSORTHOREF
  2

  9
$UCSORTHOVIEW
 70
     0
  9
$UCSORGTOP
 10
0.0
 20
0.0
 30
0.0
  9
$UCSORGBOTTOM
 10
0.0
 20
0.0
 30
0.0
  9
$UCSORGLEFT
 10
0.0
 20
0.0
 30
0.0
  9
$UCSORGRIGHT
 10
0.0
 20
0.0
 30
0.0
  9
$UCSORGFRONT
 10
0.0
 20
0.0
 30
0.0
  9
$UCSORGBACK
 10
0.0
 20
0.0
 30
0.0
  9
$PUCSBASE
  2

  9
$PUCSNAME
  2

  9
$PUCSORG
 10
0.0
 20
0.0
 30
0.0
  9
$PUCSXDIR
 10
1.0
 20
0.0
 30
0.0
  9
$PUCSYDIR
 10
0.0
 20
1.0
 30
0.0
  9
$PUCSORTHOREF
  2

  9
$PUCSORTHOVIEW
 70
     0
  9
$PUCSORGTOP
 10
0.0
 20
0.0
 30
0.0
  9
$PUCSORGBOTTOM
 10
0.0
 20
0.0
 30
0.0
  9
$PUCSORGLEFT
 10
0.0
 20
0.0
 30
0.0
  9
$PUCSORGRIGHT
 10
0.0
 20
0.0
 30
0.0
  9
$PUCSORGFRONT
 10
0.0
 20
0.0
 30
0.0
  9
$PUCSORGBACK
 10
0.0
 20
0.0
 30
0.0
  9
$USERI1
 70
     0
  9
$USERI2
 70
     0
  9
$USERI3
 70
     0
  9
$USERI4
 70
     0
  9
$USERI5
 70
     0
  9
$USERR1
 40
0.0
  9
$USERR2
 40
0.0
  9
$USERR3
 40
0.0
  9
$USERR4
 40
0.0
  9
$USERR5
 40
0.0
  9
$WORLDVIEW
 70
     1
  9
$SHADEDGE
 70
     3
  9
$SHADEDIF
 70
    70
  9
$TILEMODE
 70
     1
  9
$MAXACTVP
 70
    48
  9
$PINSBASE
 10
0.0
 20
0.0
 30
0.0
  9
$PLIMCHECK
 70
     0
  9
$PEXTMIN
 10
0.0
 20
0.0
 30
0.0
  9
$PEXTMAX
 10
0.0
 20
0.0
 30
0.0
  9
$PLIMMIN
 10
0.0
 20
0.0
  9
$PLIMMAX
 10
12.0
 20
9.0
  9
$UNITMODE
 70
     0
  9
$VISRETAIN
 70
     1
  9
$PLINEGEN
 70
     0
  9
$PSLTSCALE
 70
     1
  9
$TREEDEPTH
 70
  3020
  9
$CMLSTYLE
  2
Standard
  9
$CMLJUST
 70
     0
  9
$CMLSCALE
 40
20.0
  9
$PROXYGRAPHICS
 70
     1
  9
$MEASUREMENT
 70
     1
  9
$CELWEIGHT
370
    -1
  9
$ENDCAPS
280
     0
  9
$JOINSTYLE
280
     0
  9
$LWDISPLAY
290
     0
  9
$INSUNITS
 70
     4
  9
$HYPERLINKBASE
  1

  9
$STYLESHEET
  1

  9
$XEDIT
290
     1
  9
$CEPSNTYPE
380
     0
  9
$PSTYLEMODE
290
     1
  9
$FINGERPRINTGUID
  2
{6CB9A169-B505-1E4C-8D04-AD9216FC5A69}
  9
$VERSIONGUID
  2
{5D5D727C-F42E-C344-9754-6424661C6174}
  9
$EXTNAMES
290
     1
  9
$PSVPSCALE
 40
0.0
  9
$OLESTARTUP
290
     0
  0
ENDSEC
  0
SECTION
  2
CLASSES
  0
CLASS
  1
ACDBDICTIONARYWDFLT
  2
AcDbDictionaryWithDefault
  3
ObjectDBX Classes
 90
        0
280
     0
281
     0
  0
CLASS
  1
ACDBPLACEHOLDER
  2
AcDbPlaceHolder
  3
ObjectDBX Classes
 90
        0
280
     0
281
     0
  0
CLASS
  1
LAYOUT
  2
AcDbLayout
  3
ObjectDBX Classes
 90
        0
280
     0
281
     0
  0
CLASS
  1
DICTIONARYVAR
  2
AcDbDictionaryVar
  3
ObjectDBX Classes
 90
        0
280
     0
281
     0
  0
CLASS
  1
TABLESTYLE
  2
AcDbTableStyle
  3
ObjectDBX Classes
 90
     4095
280
     0
281
     0
  0
CLASS
  1
MATERIAL
  2
AcDbMaterial
  3
ObjectDBX Classes
 90
     1153
280
     0
281
     0
  0
CLASS
  1
VISUALSTYLE
  2
AcDbVisualStyle
  3
ObjectDBX Classes
 90
     4095
280
     0
281
     0
  0
CLASS
  1
SCALE
  2
AcDbScale
  3
ObjectDBX Classes
 90
     1153
280
     0
281
     0
  0
CLASS
  1
MLEADERSTYLE
  2
AcDbMLeaderStyle
  3
ACDB_MLEADERSTYLE_CLASS
 90
     4095
280
     0
281
     0
  0
CLASS
  1
CELLSTYLEMAP
  2
AcDbCellStyleMap
  3
ObjectDBX Classes
 90
     1152
280
     0
281
     0
  0
CLASS
  1
EXACXREFPANELOBJECT
  2
ExAcXREFPanelObject
  3
EXAC_ESW
 90
    33793
280
     0
281
     0
  0
CLASS
  1
NPOCOLLECTION
  2
AcDbImpNonPersistentObjectsCollection
  3
ObjectDBX Classes
 90
    33921
280
     0
281
     0
  0
CLASS
  1
LAYER_INDEX
  2
AcDbLayerIndex
  3
ObjectDBX Classes
 90
    32768
280
     0
281
     0
  0
CLASS
  1
SPATIAL_INDEX
  2
AcDbSpatialIndex
  3
ObjectDBX Classes
 90
    32768
280
     0
281
     0
  0
CLASS
  1
IDBUFFER
  2
AcDbIdBuffer
  3
ObjectDBX Classes
 90
    32768
280
     0
281
     0
  0
CLASS
  1
ACDBSECTIONVIEWSTYLE
  2
AcDbSectionViewStyle
  3
ObjectDBX Classes
 90
     1025
280
     0
281
     0
  0
CLASS
  1
ACDBDETAILVIEWSTYLE
  2
AcDbDetailViewStyle
  3
ObjectDBX Classes
 90
     1025
280
     0
281
     0
  0
CLASS
  1
XRECORD
  2
AcDbXrecord
  3
ObjectDBX Classes
 90
        0
280
     0
281
     0
  0
ENDSEC
  0
SECTION
  2
TABLES
  0
TABLE
  2
VPORT
  5
8
102
{ACAD_XDICTIONARY
360
8152
102
}
330
0
100
AcDbSymbolTable
 70
     1
  0
VPORT
  5
EA
330
8
100
AcDbSymbolTableRecord
100
AcDbViewportTableRecord
  2
*Active
 70
     0
 10
0.0
 20
0.0
 11
1.0
 21
1.0
 12
7.02072217713664
 22
-52.12545730572362
 13
0.0
 23
0.0
 14
10.0
 24
10.0
 15
10.0
 25
10.0
 16
0.0
 26
0.0
 36
1.0
 17
0.0
 27
0.0
 37
0.0
 40
113.4445042803988
 41
0.9846153846153846
 42
50.0
 43
0.0
 44
0.0
 50
0.0
 51
0.0
 71
     0
 72
  1000
 73
     1
 74
     3
 75
     0
 76
     1
 77
     0
 78
     0
281
     0
 65
     1
110
0.0
120
0.0
130
0.0
111
1.0
121
0.0
131
0.0
112
0.0
122
1.0
132
0.0
 79
     0
146
0.0
1001
ACAD_NAV_VCDISPLAY
1070
     3
  0
ENDTAB
  0
TABLE
  2
LTYPE
  5
5
330
0
100
AcDbSymbolTable
 70
     1
  0
LTYPE
  5
14
330
5
100
AcDbSymbolTableRecord
100
AcDbLinetypeTableRecord
  2
ByBlock
 70
     0
  3

 72
    65
 73
     0
 40
0.0
  0
LTYPE
  5
15
330
5
100
AcDbSymbolTableRecord
100
AcDbLinetypeTableRecord
  2
ByLayer
 70
     0
  3

 72
    65
 73
     0
 40
0.0
  0
LTYPE
  5
16
330
5
100
AcDbSymbolTableRecord
100
AcDbLinetypeTableRecord
  2
Continuous
 70
     0
  3
Solid line
 72
    65
 73
     0
 40
0.0
  0
ENDTAB
  0
TABLE
  2
LAYER
  5
2
102
{ACAD_XDICTIONARY
360
1FF
102
}
330
0
100
AcDbSymbolTable
 70
     1
  0
LAYER
  5
10
102
{ACAD_XDICTIONARY
360
13C
102
}
330
2
100
AcDbSymbolTableRecord
100
AcDbLayerTableRecord
  2
0
 70
     0
 62
     7
  6
Continuous
370
    -3
390
F
  0
ENDTAB
  0
TABLE
  2
STYLE
  5
3
330
0
100
AcDbSymbolTable
 70
     1
  0
STYLE
  5
11
330
3
100
AcDbSymbolTableRecord
100
AcDbTextStyleTableRecord
  2
Standard
 70
     0
 40
0.0
 41
1.0
 50
0.0
 71
     0
 42
2.5
  3
arial.ttf
  4

1001
ACAD
1000
Arial
1071
       34
  0
ENDTAB
  0
TABLE
  2
VIEW
  5
6
330
0
100
AcDbSymbolTable
 70
     0
  0
ENDTAB
  0
TABLE
  2
UCS
  5
7
330
0
100
AcDbSymbolTable
 70
     0
  0
ENDTAB
  0
TABLE
  2
APPID
  5
9
330
0
100
AcDbSymbolTable
 70
     8
  0
APPID
  5
12
330
9
100
AcDbSymbolTableRecord
100
AcDbRegAppTableRecord
  2
ACAD
 70
     0
  0
APPID
  5
9E
330
9
100
AcDbSymbolTableRecord
100
AcDbRegAppTableRecord
  2
ACAD_PSEXT
 70
     0
  0
APPID
  5
133
330
9
100
AcDbSymbolTableRecord
100
AcDbRegAppTableRecord
  2
AcadAnnoPO
 70
     0
  0
APPID
  5
134
330
9
100
AcDbSymbolTableRecord
100
AcDbRegAppTableRecord
  2
AcadAnnotative
 70
     0
  0
APPID
  5
135
330
9
100
AcDbSymbolTableRecord
100
AcDbRegAppTableRecord
  2
ACAD_DSTYLE_DIMJAG
 70
     0
  0
APPID
  5
136
330
9
100
AcDbSymbolTableRecord
100
AcDbRegAppTableRecord
  2
ACAD_DSTYLE_DIMTALN
 70
     0
  0
APPID
  5
165
330
9
100
AcDbSymbolTableRecord
100
AcDbRegAppTableRecord
  2
ACAD_MLEADERVER
 70
     0
  0
APPID
  5
217
330
9
100
AcDbSymbolTableRecord
100
AcDbRegAppTableRecord
  2
ACAD_NAV_VCDISPLAY
 70
     0
  0
ENDTAB
  0
TABLE
  2
DIMSTYLE
  5
A
330
0
100
AcDbSymbolTable
 70
     1
100
AcDbDimStyleTable
 71
     0
  0
DIMSTYLE
105
27
330
A
100
AcDbSymbolTableRecord
100
AcDbDimStyleTableRecord
  2
ISO-25
 70
     0
 41
2.5
 42
0.625
 43
3.75
 44
1.25
 73
     0
 74
     0
 77
     1
 78
     8
140
2.5
141
2.5
143
0.03937007874016
147
0.625
171
     3
172
     1
271
     2
272
     2
274
     3
278
    44
283
     0
284
     8
340
11
  0
ENDTAB
  0
TABLE
  2
BLOCK_RECORD
  5
1
330
0
100
AcDbSymbolTable
 70
     4
  0
BLOCK_RECORD
  5
1F
102
{ACAD_XDICTIONARY
360
1CE
102
}
330
1
100
AcDbSymbolTableRecord
100
AcDbBlockTableRecord
  2
*Model_Space
340
22
  0
BLOCK_RECORD
  5
D2
102
{ACAD_XDICTIONARY
360
8103
102
}
330
1
100
AcDbSymbolTableRecord
100
AcDbBlockTableRecord
  2
*Paper_Space
340
D3
  0
BLOCK_RECORD
  5
D6
102
{ACAD_XDICTIONARY
360
8105
102
}
330
1
100
AcDbSymbolTableRecord
100
AcDbBlockTableRecord
  2
*Paper_Space0
340
D7
  0
BLOCK_RECORD
  5
7D1D
330
1
100
AcDbSymbolTableRecord
100
AcDbBlockTableRecord
  2
ARA423x50-Front
340
0
102
{BLKREFS
331
80FC
102
}
  0
BLOCK_RECORD
  5
7FE4
330
1
100
AcDbSymbolTableRecord
100
AcDbBlockTableRecord
  2
ARA423x50-Top
340
0
102
{BLKREFS
331
80FD
102
}
  0
BLOCK_RECORD
  5
8014
330
1
100
AcDbSymbolTableRecord
100
AcDbBlockTableRecord
  2
ARA423x50-ISO
340
0
102
{BLKREFS
331
80FE
102
}
  0
ENDTAB
  0
ENDSEC
  0
SECTION
  2
BLOCKS
  0
BLOCK
  5
20
330
1F
100
AcDbEntity
  8
0
100
AcDbBlockBegin
  2
*Model_Space
 70
     0
 10
0.0
 20
0.0
 30
0.0
  3
*Model_Space
  1

  0
ENDBLK
  5
21
330
1F
100
AcDbEntity
  8
0
100
AcDbBlockEnd
  0
BLOCK
  5
D4
330
D2
100
AcDbEntity
 67
     1
  8
0
100
AcDbBlockBegin
  2
*Paper_Space
 70
     0
 10
0.0
 20
0.0
 30
0.0
  3
*Paper_Space
  1

  0
ENDBLK
  5
D5
330
D2
100
AcDbEntity
 67
     1
  8
0
100
AcDbBlockEnd
  0
BLOCK
  5
D8
330
D6
100
AcDbEntity
 67
     1
  8
0
100
AcDbBlockBegin
  2
*Paper_Space0
 70
     0
 10
0.0
 20
0.0
 30
0.0
  3
*Paper_Space0
  1

  0
ENDBLK
  5
D9
330
D6
100
AcDbEntity
 67
     1
  8
0
100
AcDbBlockEnd
  0
BLOCK
  5
7D1E
330
7D1D
100
AcDbEntity
  8
0
100
AcDbBlockBegin
  2
ARA423x50-Front
 70
     0
 10
0.0
 20
0.0
 30
0.0
  3
ARA423x50-Front
  1

  0
LINE
  5
7D20
330
7D1D
100
AcDbEntity
  8
0
100
AcDbLine
 10
-1.273143024226169
 20
-45.30206828013592
 30
0.0
 11
0.0
 21
-48.79999999999999
 31
0.0
  0
LINE
  5
7D21
330
7D1D
100
AcDbEntity
  8
0
100
AcDbLine
 10
1.273143021392141
 20
-45.30206829698885
 30
0.0
 11
0.0
 21
-48.79999999999999
 31
0.0
  0
SPLINE
  5
7D22
330
7D1D
100
AcDbEntity
  8
0
100
AcDbSpline
210
0.0
220
0.0
230
1.0
 70
     8
 71
     3
 72
    14
 73
    10
 74
     0
 42
0.000000001
 43
0.0000000001
 40
0.0544119222634634
 40
0.0544119222634634
 40
0.0544119222634634
 40
0.0544119222634634
 40
0.0583945217996176
 40
0.0583945217996176
 40
0.0754229802700109
 40
0.0754229802700109
 40
0.0872744932335595
 40
0.0872744932335595
 40
0.095555412014648
 40
0.095555412014648
 40
0.095555412014648
 40
0.095555412014648
 10
1.088778038702253
 20
-45.04999999999999
 30
0.0
 10
1.097376367059722
 20
-45.05341522518688
 30
0.0
 10
1.105784446526407
 20
-45.05711075038248
 30
0.0
 10
1.149031295322653
 20
-45.07816203736483
 30
0.0
 10
1.187504739154112
 20
-45.10623901276344
 30
0.0
 10
1.232325005965007
 20
-45.16142545959607
 30
0.0
 10
1.25040713409328
 20
-45.19357167798553
 30
0.0
 10
1.267381583993533
 20
-45.24725668156635
 30
0.0
 10
1.272458065169856
 20
-45.27552612441396
 30
0.0
 10
1.273143021392141
 20
-45.30206829698885
 30
0.0
  0
SPLINE
  5
7D23
330
7D1D
100
AcDbEntity
  8
0
100
AcDbSpline
210
0.0
220
0.0
230
1.0
 70
    12
 71
     2
 72
     6
 73
     3
 74
     0
 42
0.000000001
 43
0.0000000001
 40
0.0
 40
0.0
 40
0.0
 40
0.0231305000849317
 40
0.0231305000849317
 40
0.0231305000849317
 10
0.9381785216434327
 20
-45.00089324024123
 30
0.0
 41
1.0
 10
1.011861745809703
 20
-45.01944912431262
 30
0.0
 41
1.004172128110714
 10
1.088778038702243
 20
-45.04999999999999
 30
0.0
 41
1.0
  0
SPLINE
  5
7D24
330
7D1D
100
AcDbEntity
  8
0
100
AcDbSpline
210
0.0
220
0.0
230
1.0
 70
    12
 71
     2
 72
     6
 73
     3
 74
     0
 42
0.000000001
 43
0.0000000001
 40
0.0
 40
0.0
 40
0.0
 40
0.0894830231545094
 40
0.0894830231545094
 40
0.0894830231545094
 10
1.127607094853166
 20
-44.1354068968069
 30
0.0
 41
1.0
 10
1.027548859722838
 20
-44.59443732938084
 30
0.0
 41
1.001067432438567
 10
0.9381785216434328
 20
-45.00089324024123
 30
0.0
 41
1.0
  0
SPLINE
  5
7D25
330
7D1D
100
AcDbEntity
  8
0
100
AcDbSpline
210
0.0
220
0.0
230
1.0
 70
     8
 71
     3
 72
    27
 73
    23
 74
     0
 42
0.000000001
 43
0.0000000001
 40
-0.0453751077896223
 40
-0.0453751077896223
 40
-0.0453751077896223
 40
-0.0453751077896223
 40
-0.0452900576504926
 40
-0.0452900576504926
 40
-0.0415737893328526
 40
-0.0415737893328526
 40
-0.0366377970663579
 40
-0.0366377970663579
 40
-0.0286035440609123
 40
-0.0286035440609123
 40
0.0
 40
0.0
 40
0.0
 40
0.0286035440609123
 40
0.0286035440609123
 40
0.0366377970663579
 40
0.0366377970663579
 40
0.0415737893328526
 40
0.0415737893328526
 40
0.0452900576504926
 40
0.0452900576504926
 40
0.0453751077896223
 40
0.0453751077896223
 40
0.0453751077896223
 40
0.0453751077896223
 10
0.5701659496725342
 20
-44.1354068968069
 30
0.0
 10
0.5702063085401968
 20
-44.13513045274195
 30
0.0
 10
0.5702474747223669
 20
-44.13485502743593
 30
0.0
 10
0.5721219495023312
 20
-44.12259359462014
 30
0.0
 10
0.5765768552096602
 20
-44.10842908120155
 30
0.0
 10
0.5885606743078241
 20
-44.08231316059884
 30
0.0
 10
0.5992158053817445
 20
-44.06642077076099
 30
0.0
 10
0.6253830621829981
 20
-44.03538312660803
 30
0.0
 10
0.6471878523898211
 20
-44.01735605924407
 30
0.0
 10
0.7333149764754764
 20
-43.96076207918896
 30
0.0
 10
0.8163599475617026
 20
-43.94367349710186
 30
0.0
 10
0.8837791474665003
 20
-43.94367349710186
 30
0.0
 10
0.951198347371298
 20
-43.94367349710186
 30
0.0
 10
1.028023583232002
 20
-43.96076207918896
 30
0.0
 10
1.093552183138948
 20
-44.01735605924407
 30
0.0
 10
1.108795657414173
 20
-44.03538312660803
 30
0.0
 10
1.123666135602003
 20
-44.06642077076099
 30
0.0
 10
1.128536909823591
 20
-44.08231316059884
 30
0.0
 10
1.131015311181909
 20
-44.10842908120155
 30
0.0
 10
1.130314755622007
 20
-44.12259359462014
 30
0.0
 10
1.127726433827566
 20
-44.13485502743593
 30
0.0
 10
1.127667353396582
 20
-44.13513045274195
 30
0.0
 10
1.127607094853166
 20
-44.1354068968069
 30
0.0
  0
SPLINE
  5
7D26
330
7D1D
100
AcDbEntity
  8
0
100
AcDbSpline
210
0.0
220
0.0
230
1.0
 70
    12
 71
     2
 72
     6
 73
     3
 74
     0
 42
0.000000001
 43
0.0000000001
 40
0.0
 40
0.0
 40
0.0
 40
0.0894830231545094
 40
0.0894830231545094
 40
0.0894830231545094
 10
0.4445832557082779
 20
-45.00089324024123
 30
0.0
 41
1.0
 10
0.5031507707282483
 20
-44.59443732934885
 30
0.0
 41
1.001067432428792
 10
0.5701659496725343
 20
-44.1354068968069
 30
0.0
 41
1.0
  0
SPLINE
  5
7D27
330
7D1D
100
AcDbEntity
  8
0
100
AcDbSpline
210
0.0
220
0.0
230
1.0
 70
    12
 71
     2
 72
     6
 73
     3
 74
     0
 42
0.000000001
 43
0.0000000001
 40
0.0
 40
0.0
 40
0.0
 40
0.0231305000849317
 40
0.0231305000849317
 40
0.0231305000849317
 10
0.2761103397960131
 20
-45.04999999999999
 30
0.0
 41
1.0
 10
0.3641462420695272
 20
-45.01944912431262
 30
0.0
 41
1.004172128110433
 10
0.4445832557082781
 20
-45.00089324024123
 30
0.0
 41
1.0
  0
SPLINE
  5
7D28
330
7D1D
100
AcDbEntity
  8
0
100
AcDbSpline
210
0.0
220
0.0
230
1.0
 70
     8
 71
     3
 72
    14
 73
    10
 74
     0
 42
0.000000001
 43
0.0000000001
 40
-0.0955554106323115
 40
-0.0955554106323115
 40
-0.0955554106323115
 40
-0.0955554106323115
 40
-0.0872744932335594
 40
-0.0872744932335594
 40
-0.0754229802700109
 40
-0.0754229802700109
 40
-0.0583945217996176
 40
-0.0583945217996176
 40
-0.0544119222634634
 40
-0.0544119222634634
 40
-0.0544119222634634
 40
-0.0544119222634634
 10
-0.0000000037370954
 20
-45.30206828013592
 30
0.0
 10
0.0103455130096809
 20
-45.27552611131966
 30
0.0
 10
0.0257112364115847
 20
-45.24725667788023
 30
0.0
 10
0.0622254271345901
 20
-45.19357167798553
 30
0.0
 10
0.0920078219008441
 20
-45.16142545959607
 30
0.0
 10
0.1569143126937341
 20
-45.10623901276344
 30
0.0
 10
0.2056069398385101
 20
-45.07816203736483
 30
0.0
 10
0.256515830489333
 20
-45.05711075038248
 30
0.0
 10
0.2662689711271919
 20
-45.05341522518688
 30
0.0
 10
0.2761103397960029
 20
-45.04999999999999
 30
0.0
  0
LINE
  5
7D29
330
7D1D
100
AcDbEntity
  8
0
100
AcDbLine
 10
0.0
 20
-48.79999999999999
 30
0.0
 11
0.0
 21
-45.30206828013592
 31
0.0
  0
SPLINE
  5
7D2A
330
7D1D
100
AcDbEntity
  8
0
100
AcDbSpline
210
0.0
220
0.0
230
1.0
 70
     8
 71
     3
 72
    27
 73
    23
 74
     0
 42
0.000000001
 43
0.0000000001
 40
-0.0453751077896223
 40
-0.0453751077896223
 40
-0.0453751077896223
 40
-0.0453751077896223
 40
-0.0452900576504926
 40
-0.0452900576504926
 40
-0.0415737893328526
 40
-0.0415737893328526
 40
-0.0366377970663579
 40
-0.0366377970663579
 40
-0.0286035440609123
 40
-0.0286035440609123
 40
0.0
 40
0.0
 40
0.0
 40
0.0286035440609123
 40
0.0286035440609123
 40
0.0366377970663579
 40
0.0366377970663579
 40
0.0415737893328526
 40
0.0415737893328526
 40
0.0452900576504926
 40
0.0452900576504926
 40
0.0453751077896223
 40
0.0453751077896223
 40
0.0453751077896223
 40
0.0453751077896223
 10
-1.127607094853168
 20
-44.1354068968069
 30
0.0
 10
-1.127667353396583
 20
-44.13513045274195
 30
0.0
 10
-1.127726433827568
 20
-44.13485502743593
 30
0.0
 10
-1.130314755622009
 20
-44.12259359462014
 30
0.0
 10
-1.131015311181911
 20
-44.10842908120155
 30
0.0
 10
-1.128536909823593
 20
-44.08231316059884
 30
0.0
 10
-1.123666135602005
 20
-44.06642077076099
 30
0.0
 10
-1.108795657414175
 20
-44.03538312660803
 30
0.0
 10
-1.093552183138949
 20
-44.01735605924407
 30
0.0
 10
-1.028023583232004
 20
-43.96076207918896
 30
0.0
 10
-0.9511983473713003
 20
-43.94367349710186
 30
0.0
 10
-0.8837791474665028
 20
-43.94367349710186
 30
0.0
 10
-0.8163599475617054
 20
-43.94367349710186
 30
0.0
 10
-0.7333149764754792
 20
-43.96076207918896
 30
0.0
 10
-0.6471878523898241
 20
-44.01735605924407
 30
0.0
 10
-0.6253830621830013
 20
-44.03538312660803
 30
0.0
 10
-0.5992158053817477
 20
-44.06642077076099
 30
0.0
 10
-0.5885606743078274
 20
-44.08231316059884
 30
0.0
 10
-0.5765768552096633
 20
-44.10842908120155
 30
0.0
 10
-0.5721219495023343
 20
-44.12259359462014
 30
0.0
 10
-0.5702474747223699
 20
-44.13485502743593
 30
0.0
 10
-0.5702063085402
 20
-44.13513045274195
 30
0.0
 10
-0.5701659496725373
 20
-44.1354068968069
 30
0.0
  0
SPLINE
  5
7D2B
330
7D1D
100
AcDbEntity
  8
0
100
AcDbSpline
210
0.0
220
0.0
230
1.0
 70
     8
 71
     3
 72
    14
 73
    10
 74
     0
 42
0.000000001
 43
0.0000000001
 40
0.0544119222634634
 40
0.0544119222634634
 40
0.0544119222634634
 40
0.0544119222634634
 40
0.0583945217996176
 40
0.0583945217996176
 40
0.0754229802700109
 40
0.0754229802700109
 40
0.0872744932335595
 40
0.0872744932335595
 40
0.0955554101374308
 40
0.0955554101374308
 40
0.0955554101374308
 40
0.0955554101374308
 10
-0.276110339796006
 20
-45.04999999999999
 30
0.0
 10
-0.266268971127195
 20
-45.05341522518688
 30
0.0
 10
-0.2565158304893362
 20
-45.05711075038248
 30
0.0
 10
-0.2056069398385134
 20
-45.07816203736483
 30
0.0
 10
-0.1569143126937375
 20
-45.10623901276344
 30
0.0
 10
-0.0920078219008476
 20
-45.16142545959607
 30
0.0
 10
-0.0622254271345936
 20
-45.19357167798553
 30
0.0
 10
-0.0257112373091533
 20
-45.24725667656058
 30
0.0
 10
-0.0103455236959084
 20
-45.27552611146418
 30
0.0
 10
-0.0000000070370322
 20
-45.30206827893485
 30
0.0
  0
SPLINE
  5
7D2C
330
7D1D
100
AcDbEntity
  8
0
100
AcDbSpline
210
0.0
220
0.0
230
1.0
 70
    12
 71
     2
 72
     6
 73
     3
 74
     0
 42
0.000000001
 43
0.0000000001
 40
0.0
 40
0.0
 40
0.0
 40
0.0231305000849317
 40
0.0231305000849317
 40
0.0231305000849317
 10
-0.4445832557082808
 20
-45.00089324024123
 30
0.0
 41
1.0
 10
-0.3641462420695307
 20
-45.01944912431262
 30
0.0
 41
1.004172128110714
 10
-0.2761103397960163
 20
-45.04999999999999
 30
0.0
 41
1.0
  0
SPLINE
  5
7D2D
330
7D1D
100
AcDbEntity
  8
0
100
AcDbSpline
210
0.0
220
0.0
230
1.0
 70
    12
 71
     2
 72
     6
 73
     3
 74
     0
 42
0.000000001
 43
0.0000000001
 40
0.0
 40
0.0
 40
0.0
 40
0.0894830231545094
 40
0.0894830231545094
 40
0.0894830231545094
 10
-0.5701659496725373
 20
-44.1354068968069
 30
0.0
 41
1.0
 10
-0.5031507707236105
 20
-44.59443732938084
 30
0.0
 41
1.001067432438567
 10
-0.4445832557082806
 20
-45.00089324024123
 30
0.0
 41
1.0
  0
SPLINE
  5
7D2E
330
7D1D
100
AcDbEntity
  8
0
100
AcDbSpline
210
0.0
220
0.0
230
1.0
 70
    12
 71
     2
 72
     6
 73
     3
 74
     0
 42
0.000000001
 43
0.0000000001
 40
0.0
 40
0.0
 40
0.0
 40
0.0894830231545094
 40
0.0894830231545094
 40
0.0894830231545094
 10
-0.9381785216434341
 20
-45.00089324024123
 30
0.0
 41
1.0
 10
-1.027548859729844
 20
-44.59443732934885
 30
0.0
 41
1.001067432428792
 10
-1.127607094853167
 20
-44.1354068968069
 30
0.0
 41
1.0
  0
SPLINE
  5
7D2F
330
7D1D
100
AcDbEntity
  8
0
100
AcDbSpline
210
0.0
220
0.0
230
1.0
 70
    12
 71
     2
 72
     6
 73
     3
 74
     0
 42
0.000000001
 43
0.0000000001
 40
0.0
 40
0.0
 40
0.0
 40
0.0231305000849317
 40
0.0231305000849317
 40
0.0231305000849317
 10
-1.088778038702244
 20
-45.04999999999999
 30
0.0
 41
1.0
 10
-1.011861745809704
 20
-45.01944912431262
 30
0.0
 41
1.004172128110433
 10
-0.9381785216434339
 20
-45.00089324024123
 30
0.0
 41
1.0
  0
SPLINE
  5
7D30
330
7D1D
100
AcDbEntity
  8
0
100
AcDbSpline
210
0.0
220
0.0
230
1.0
 70
     8
 71
     3
 72
    14
 73
    10
 74
     0
 42
0.000000001
 43
0.0000000001
 40
-0.0955554101374308
 40
-0.0955554101374308
 40
-0.0955554101374308
 40
-0.0955554101374308
 40
-0.0872744932335594
 40
-0.0872744932335594
 40
-0.0754229802700109
 40
-0.0754229802700109
 40
-0.0583945217996176
 40
-0.0583945217996176
 40
-0.0544119222634634
 40
-0.0544119222634634
 40
-0.0544119222634634
 40
-0.0544119222634634
 10
-1.273143020926232
 20
-45.30206827893485
 30
0.0
 10
-1.272458063179583
 20
-45.27552611146419
 30
0.0
 10
-1.267381582410777
 20
-45.24725667656058
 30
0.0
 10
-1.25040713409328
 20
-45.19357167798553
 30
0.0
 10
-1.232325005965008
 20
-45.16142545959607
 30
0.0
 10
-1.187504739154112
 20
-45.10623901276344
 30
0.0
 10
-1.149031295322654
 20
-45.07816203736483
 30
0.0
 10
-1.105784446526407
 20
-45.05711075038248
 30
0.0
 10
-1.097376367059723
 20
-45.05341522518688
 30
0.0
 10
-1.088778038702254
 20
-45.04999999999999
 30
0.0
  0
LINE
  5
7D31
330
7D1D
100
AcDbEntity
  8
0
100
AcDbLine
 10
0.4445832557082787
 20
-45.00089324024123
 30
0.0
 11
-0.4445832557082808
 21
-45.00089324024123
 31
0.0
  0
LINE
  5
7D32
330
7D1D
100
AcDbEntity
  8
0
100
AcDbLine
 10
-0.9381785216434337
 20
-45.00089324024123
 30
0.0
 11
-1.0381874636737
 21
-45.00089324024123
 31
0.0
  0
LINE
  5
7D33
330
7D1D
100
AcDbEntity
  8
0
100
AcDbLine
 10
1.0381874636737
 20
-45.00089324024123
 30
0.0
 11
0.9381785216434327
 21
-45.00089324024123
 31
0.0
  0
LINE
  5
7D34
330
7D1D
100
AcDbEntity
  8
0
100
AcDbLine
 10
1.0381874636737
 20
-10.00089324024122
 30
0.0
 11
-1.0381874636737
 21
-10.00089324024122
 31
0.0
  0
LINE
  5
7D35
330
7D1D
100
AcDbEntity
  8
0
100
AcDbLine
 10
1.0381874636737
 20
-43.75089324024123
 30
0.0
 11
-1.0381874636737
 21
-43.75089324024123
 31
0.0
  0
LINE
  5
7D36
330
7D1D
100
AcDbEntity
  8
0
100
AcDbLine
 10
1.0381874636737
 20
-42.50089324024123
 30
0.0
 11
-1.0381874636737
 21
-42.50089324024123
 31
0.0
  0
LINE
  5
7D37
330
7D1D
100
AcDbEntity
  8
0
100
AcDbLine
 10
1.0381874636737
 20
-41.25089324024123
 30
0.0
 11
-1.0381874636737
 21
-41.25089324024123
 31
0.0
  0
LINE
  5
7D38
330
7D1D
100
AcDbEntity
  8
0
100
AcDbLine
 10
1.0381874636737
 20
-40.00089324024123
 30
0.0
 11
-1.0381874636737
 21
-40.00089324024123
 31
0.0
  0
LINE
  5
7D39
330
7D1D
100
AcDbEntity
  8
0
100
AcDbLine
 10
1.0381874636737
 20
-38.75089324024123
 30
0.0
 11
-1.0381874636737
 21
-38.75089324024123
 31
0.0
  0
LINE
  5
7D3A
330
7D1D
100
AcDbEntity
  8
0
100
AcDbLine
 10
1.0381874636737
 20
-37.50089324024123
 30
0.0
 11
-1.0381874636737
 21
-37.50089324024123
 31
0.0
  0
LINE
  5
7D3B
330
7D1D
100
AcDbEntity
  8
0
100
AcDbLine
 10
1.0381874636737
 20
-36.25089324024123
 30
0.0
 11
-1.0381874636737
 21
-36.25089324024123
 31
0.0
  0
LINE
  5
7D3C
330
7D1D
100
AcDbEntity
  8
0
100
AcDbLine
 10
1.0381874636737
 20
-35.00089324024123
 30
0.0
 11
-1.0381874636737
 21
-35.00089324024123
 31
0.0
  0
LINE
  5
7D3D
330
7D1D
100
AcDbEntity
  8
0
100
AcDbLine
 10
1.0381874636737
 20
-33.75089324024123
 30
0.0
 11
-1.0381874636737
 21
-33.75089324024123
 31
0.0
  0
LINE
  5
7D3E
330
7D1D
100
AcDbEntity
  8
0
100
AcDbLine
 10
1.0381874636737
 20
-32.50089324024123
 30
0.0
 11
-1.0381874636737
 21
-32.50089324024123
 31
0.0
  0
LINE
  5
7D3F
330
7D1D
100
AcDbEntity
  8
0
100
AcDbLine
 10
1.0381874636737
 20
-31.25089324024123
 30
0.0
 11
-1.0381874636737
 21
-31.25089324024123
 31
0.0
  0
LINE
  5
7D40
330
7D1D
100
AcDbEntity
  8
0
100
AcDbLine
 10
1.0381874636737
 20
-30.00089324024123
 30
0.0
 11
-1.0381874636737
 21
-30.00089324024123
 31
0.0
  0
LINE
  5
7D41
330
7D1D
100
AcDbEntity
  8
0
100
AcDbLine
 10
1.0381874636737
 20
-28.75089324024123
 30
0.0
 11
-1.0381874636737
 21
-28.75089324024123
 31
0.0
  0
LINE
  5
7D42
330
7D1D
100
AcDbEntity
  8
0
100
AcDbLine
 10
1.0381874636737
 20
-27.50089324024123
 30
0.0
 11
-1.0381874636737
 21
-27.50089324024123
 31
0.0
  0
LINE
  5
7D43
330
7D1D
100
AcDbEntity
  8
0
100
AcDbLine
 10
1.0381874636737
 20
-26.25089324024123
 30
0.0
 11
-1.0381874636737
 21
-26.25089324024123
 31
0.0
  0
LINE
  5
7D44
330
7D1D
100
AcDbEntity
  8
0
100
AcDbLine
 10
1.0381874636737
 20
-25.00089324024123
 30
0.0
 11
-1.0381874636737
 21
-25.00089324024123
 31
0.0
  0
LINE
  5
7D45
330
7D1D
100
AcDbEntity
  8
0
100
AcDbLine
 10
1.0381874636737
 20
-23.75089324024123
 30
0.0
 11
-1.0381874636737
 21
-23.75089324024123
 31
0.0
  0
LINE
  5
7D46
330
7D1D
100
AcDbEntity
  8
0
100
AcDbLine
 10
1.0381874636737
 20
-22.50089324024123
 30
0.0
 11
-1.0381874636737
 21
-22.50089324024123
 31
0.0
  0
LINE
  5
7D47
330
7D1D
100
AcDbEntity
  8
0
100
AcDbLine
 10
1.0381874636737
 20
-21.25089324024123
 30
0.0
 11
-1.0381874636737
 21
-21.25089324024123
 31
0.0
  0
LINE
  5
7D48
330
7D1D
100
AcDbEntity
  8
0
100
AcDbLine
 10
1.0381874636737
 20
-20.00089324024123
 30
0.0
 11
-1.0381874636737
 21
-20.00089324024123
 31
0.0
  0
LINE
  5
7D49
330
7D1D
100
AcDbEntity
  8
0
100
AcDbLine
 10
1.0381874636737
 20
-18.75089324024122
 30
0.0
 11
-1.0381874636737
 21
-18.75089324024122
 31
0.0
  0
LINE
  5
7D4A
330
7D1D
100
AcDbEntity
  8
0
100
AcDbLine
 10
1.0381874636737
 20
-17.50089324024122
 30
0.0
 11
-1.0381874636737
 21
-17.50089324024122
 31
0.0
  0
LINE
  5
7D4B
330
7D1D
100
AcDbEntity
  8
0
100
AcDbLine
 10
1.0381874636737
 20
-16.25089324024122
 30
0.0
 11
-1.0381874636737
 21
-16.25089324024122
 31
0.0
  0
LINE
  5
7D4C
330
7D1D
100
AcDbEntity
  8
0
100
AcDbLine
 10
1.0381874636737
 20
-15.00089324024122
 30
0.0
 11
-1.0381874636737
 21
-15.00089324024122
 31
0.0
  0
LINE
  5
7D4D
330
7D1D
100
AcDbEntity
  8
0
100
AcDbLine
 10
1.0381874636737
 20
-13.75089324024122
 30
0.0
 11
-1.0381874636737
 21
-13.75089324024122
 31
0.0
  0
LINE
  5
7D4E
330
7D1D
100
AcDbEntity
  8
0
100
AcDbLine
 10
1.0381874636737
 20
-12.50089324024122
 30
0.0
 11
-1.0381874636737
 21
-12.50089324024122
 31
0.0
  0
LINE
  5
7D4F
330
7D1D
100
AcDbEntity
  8
0
100
AcDbLine
 10
1.0381874636737
 20
-11.25089324024122
 30
0.0
 11
-1.0381874636737
 21
-11.25089324024122
 31
0.0
  0
ARC
  5
7D50
330
7D1D
100
AcDbEntity
  8
0
100
AcDbCircle
 10
-0.9732428665709807
 20
-44.05980762113532
 30
0.0
 40
0.3
100
AcDbArc
 50
120.0000000000007
 51
194.5957505503199
  0
ARC
  5
7D51
330
7D1D
100
AcDbEntity
  8
0
100
AcDbCircle
 10
0.9732428665709807
 20
-44.05980762113532
 30
0.0
 40
0.3
100
AcDbArc
 50
345.4042494496802
 51
60.00000000000155
  0
LINE
  5
7D52
330
7D1D
100
AcDbEntity
  8
0
100
AcDbLine
 10
-1.038187463673701
 20
-45.00089324024123
 30
0.0
 11
-1.263561225477096
 21
-44.1354068968069
 31
0.0
  0
LINE
  5
7D53
330
7D1D
100
AcDbEntity
  8
0
100
AcDbLine
 10
1.038187463673701
 20
-45.00089324024123
 30
0.0
 11
1.263561225477096
 21
-44.1354068968069
 31
0.0
  0
ARC
  5
7D54
330
7D1D
100
AcDbEntity
  8
0
100
AcDbCircle
 10
-0.9732428665709807
 20
-45.30980762113532
 30
0.0
 40
0.3
100
AcDbArc
 50
119.9999999999987
 51
178.5217307623167
  0
ARC
  5
7D55
330
7D1D
100
AcDbEntity
  8
0
100
AcDbCircle
 10
0.9732428665709807
 20
-45.30980762113532
 30
0.0
 40
0.3
100
AcDbArc
 50
1.478266034046304
 51
60.00000000000156
  0
LINE
  5
7D56
330
7D1D
100
AcDbEntity
  8
0
100
AcDbLine
 10
-1.038187463673698
 20
-45.00089324024123
 30
0.0
 11
-1.123242866570977
 21
-45.04999999999999
 31
0.0
  0
LINE
  5
7D57
330
7D1D
100
AcDbEntity
  8
0
100
AcDbLine
 10
1.038187463673698
 20
-45.00089324024123
 30
0.0
 11
1.123242866570977
 21
-45.04999999999999
 31
0.0
  0
LINE
  5
7D58
330
7D1D
100
AcDbEntity
  8
0
100
AcDbLine
 10
1.0381874636737
 20
-10.00089324024122
 30
0.0
 11
1.123242866570977
 21
-10.05
 31
0.0
  0
LINE
  5
7D59
330
7D1D
100
AcDbEntity
  8
0
100
AcDbLine
 10
-1.0381874636737
 20
-10.00089324024122
 30
0.0
 11
-1.123242866570977
 21
-10.05
 31
0.0
  0
LINE
  5
7D5A
330
7D1D
100
AcDbEntity
  8
0
100
AcDbLine
 10
1.038187463673698
 20
-43.75089324024123
 30
0.0
 11
1.123242866570977
 21
-43.79999999999999
 31
0.0
  0
LINE
  5
7D5B
330
7D1D
100
AcDbEntity
  8
0
100
AcDbLine
 10
-1.038187463673698
 20
-43.75089324024123
 30
0.0
 11
-1.123242866570977
 21
-43.79999999999999
 31
0.0
  0
LINE
  5
7D5C
330
7D1D
100
AcDbEntity
  8
0
100
AcDbLine
 10
1.038187463673698
 20
-42.50089324024123
 30
0.0
 11
1.123242866570977
 21
-42.54999999999999
 31
0.0
  0
LINE
  5
7D5D
330
7D1D
100
AcDbEntity
  8
0
100
AcDbLine
 10
-1.038187463673698
 20
-42.50089324024123
 30
0.0
 11
-1.123242866570977
 21
-42.54999999999999
 31
0.0
  0
ARC
  5
7D5E
330
7D1D
100
AcDbEntity
  8
0
100
AcDbCircle
 10
-0.9732428665709807
 20
-42.80980762113532
 30
0.0
 40
0.3
100
AcDbArc
 50
120.0000000000007
 51
194.5957505503199
  0
ARC
  5
7D5F
330
7D1D
100
AcDbEntity
  8
0
100
AcDbCircle
 10
0.9732428665709807
 20
-42.80980762113532
 30
0.0
 40
0.3
100
AcDbArc
 50
345.4042494496802
 51
60.00000000000155
  0
LINE
  5
7D60
330
7D1D
100
AcDbEntity
  8
0
100
AcDbLine
 10
-1.038187463673701
 20
-43.75089324024123
 30
0.0
 11
-1.263561225477096
 21
-42.8854068968069
 31
0.0
  0
LINE
  5
7D61
330
7D1D
100
AcDbEntity
  8
0
100
AcDbLine
 10
1.038187463673701
 20
-43.75089324024123
 30
0.0
 11
1.263561225477096
 21
-42.8854068968069
 31
0.0
  0
LINE
  5
7D62
330
7D1D
100
AcDbEntity
  8
0
100
AcDbLine
 10
1.038187463673698
 20
-41.25089324024123
 30
0.0
 11
1.123242866570977
 21
-41.29999999999999
 31
0.0
  0
LINE
  5
7D63
330
7D1D
100
AcDbEntity
  8
0
100
AcDbLine
 10
-1.038187463673698
 20
-41.25089324024123
 30
0.0
 11
-1.123242866570977
 21
-41.29999999999999
 31
0.0
  0
ARC
  5
7D64
330
7D1D
100
AcDbEntity
  8
0
100
AcDbCircle
 10
-0.9732428665709807
 20
-41.55980762113532
 30
0.0
 40
0.3
100
AcDbArc
 50
120.0000000000007
 51
194.5957505503199
  0
ARC
  5
7D65
330
7D1D
100
AcDbEntity
  8
0
100
AcDbCircle
 10
0.9732428665709807
 20
-41.55980762113532
 30
0.0
 40
0.3
100
AcDbArc
 50
345.4042494496802
 51
60.00000000000155
  0
LINE
  5
7D66
330
7D1D
100
AcDbEntity
  8
0
100
AcDbLine
 10
-1.038187463673701
 20
-42.50089324024123
 30
0.0
 11
-1.263561225477096
 21
-41.6354068968069
 31
0.0
  0
LINE
  5
7D67
330
7D1D
100
AcDbEntity
  8
0
100
AcDbLine
 10
1.038187463673701
 20
-42.50089324024123
 30
0.0
 11
1.263561225477096
 21
-41.6354068968069
 31
0.0
  0
LINE
  5
7D68
330
7D1D
100
AcDbEntity
  8
0
100
AcDbLine
 10
1.038187463673698
 20
-40.00089324024123
 30
0.0
 11
1.123242866570977
 21
-40.04999999999999
 31
0.0
  0
LINE
  5
7D69
330
7D1D
100
AcDbEntity
  8
0
100
AcDbLine
 10
-1.038187463673698
 20
-40.00089324024123
 30
0.0
 11
-1.123242866570977
 21
-40.04999999999999
 31
0.0
  0
ARC
  5
7D6A
330
7D1D
100
AcDbEntity
  8
0
100
AcDbCircle
 10
-0.9732428665709807
 20
-40.30980762113532
 30
0.0
 40
0.3
100
AcDbArc
 50
120.0000000000007
 51
194.5957505503199
  0
ARC
  5
7D6B
330
7D1D
100
AcDbEntity
  8
0
100
AcDbCircle
 10
0.9732428665709807
 20
-40.30980762113532
 30
0.0
 40
0.3
100
AcDbArc
 50
345.4042494496802
 51
60.00000000000155
  0
LINE
  5
7D6C
330
7D1D
100
AcDbEntity
  8
0
100
AcDbLine
 10
-1.038187463673701
 20
-41.25089324024123
 30
0.0
 11
-1.263561225477096
 21
-40.3854068968069
 31
0.0
  0
LINE
  5
7D6D
330
7D1D
100
AcDbEntity
  8
0
100
AcDbLine
 10
1.038187463673701
 20
-41.25089324024123
 30
0.0
 11
1.263561225477096
 21
-40.3854068968069
 31
0.0
  0
LINE
  5
7D6E
330
7D1D
100
AcDbEntity
  8
0
100
AcDbLine
 10
1.0381874636737
 20
-38.75089324024123
 30
0.0
 11
1.123242866570977
 21
-38.80000000000001
 31
0.0
  0
LINE
  5
7D6F
330
7D1D
100
AcDbEntity
  8
0
100
AcDbLine
 10
-1.038187463673702
 20
-38.75089324024123
 30
0.0
 11
-1.123242866570977
 21
-38.80000000000001
 31
0.0
  0
ARC
  5
7D70
330
7D1D
100
AcDbEntity
  8
0
100
AcDbCircle
 10
-0.9732428665709807
 20
-39.05980762113533
 30
0.0
 40
0.3
100
AcDbArc
 50
119.9999999999999
 51
194.5957505503181
  0
ARC
  5
7D71
330
7D1D
100
AcDbEntity
  8
0
100
AcDbCircle
 10
0.9732428665709807
 20
-39.05980762113533
 30
0.0
 40
0.3
100
AcDbArc
 50
345.404249449681
 51
60.00000000000026
  0
LINE
  5
7D72
330
7D1D
100
AcDbEntity
  8
0
100
AcDbLine
 10
-1.038187463673701
 20
-40.00089324024123
 30
0.0
 11
-1.263561225477096
 21
-39.1354068968069
 31
0.0
  0
LINE
  5
7D73
330
7D1D
100
AcDbEntity
  8
0
100
AcDbLine
 10
1.038187463673701
 20
-40.00089324024123
 30
0.0
 11
1.263561225477096
 21
-39.1354068968069
 31
0.0
  0
LINE
  5
7D74
330
7D1D
100
AcDbEntity
  8
0
100
AcDbLine
 10
1.0381874636737
 20
-37.50089324024123
 30
0.0
 11
1.123242866570977
 21
-37.55000000000001
 31
0.0
  0
LINE
  5
7D75
330
7D1D
100
AcDbEntity
  8
0
100
AcDbLine
 10
-1.038187463673702
 20
-37.50089324024123
 30
0.0
 11
-1.123242866570977
 21
-37.55000000000001
 31
0.0
  0
ARC
  5
7D76
330
7D1D
100
AcDbEntity
  8
0
100
AcDbCircle
 10
-0.9732428665709807
 20
-37.80980762113533
 30
0.0
 40
0.3
100
AcDbArc
 50
119.9999999999999
 51
194.5957505503181
  0
ARC
  5
7D77
330
7D1D
100
AcDbEntity
  8
0
100
AcDbCircle
 10
0.9732428665709807
 20
-37.80980762113533
 30
0.0
 40
0.3
100
AcDbArc
 50
345.404249449681
 51
60.00000000000026
  0
LINE
  5
7D78
330
7D1D
100
AcDbEntity
  8
0
100
AcDbLine
 10
-1.038187463673701
 20
-38.75089324024123
 30
0.0
 11
-1.263561225477096
 21
-37.8854068968069
 31
0.0
  0
LINE
  5
7D79
330
7D1D
100
AcDbEntity
  8
0
100
AcDbLine
 10
1.0381874636737
 20
-38.75089324024123
 30
0.0
 11
1.263561225477096
 21
-37.88540689680691
 31
0.0
  0
LINE
  5
7D7A
330
7D1D
100
AcDbEntity
  8
0
100
AcDbLine
 10
1.0381874636737
 20
-36.25089324024123
 30
0.0
 11
1.123242866570977
 21
-36.30000000000001
 31
0.0
  0
LINE
  5
7D7B
330
7D1D
100
AcDbEntity
  8
0
100
AcDbLine
 10
-1.038187463673702
 20
-36.25089324024123
 30
0.0
 11
-1.123242866570977
 21
-36.30000000000001
 31
0.0
  0
ARC
  5
7D7C
330
7D1D
100
AcDbEntity
  8
0
100
AcDbCircle
 10
-0.9732428665709807
 20
-36.55980762113533
 30
0.0
 40
0.3
100
AcDbArc
 50
119.9999999999999
 51
194.5957505503181
  0
ARC
  5
7D7D
330
7D1D
100
AcDbEntity
  8
0
100
AcDbCircle
 10
0.9732428665709807
 20
-36.55980762113533
 30
0.0
 40
0.3
100
AcDbArc
 50
345.404249449681
 51
60.00000000000026
  0
LINE
  5
7D7E
330
7D1D
100
AcDbEntity
  8
0
100
AcDbLine
 10
-1.038187463673701
 20
-37.50089324024123
 30
0.0
 11
-1.263561225477096
 21
-36.6354068968069
 31
0.0
  0
LINE
  5
7D7F
330
7D1D
100
AcDbEntity
  8
0
100
AcDbLine
 10
1.0381874636737
 20
-37.50089324024123
 30
0.0
 11
1.263561225477096
 21
-36.63540689680691
 31
0.0
  0
LINE
  5
7D80
330
7D1D
100
AcDbEntity
  8
0
100
AcDbLine
 10
1.0381874636737
 20
-35.00089324024123
 30
0.0
 11
1.123242866570977
 21
-35.05000000000001
 31
0.0
  0
LINE
  5
7D81
330
7D1D
100
AcDbEntity
  8
0
100
AcDbLine
 10
-1.038187463673702
 20
-35.00089324024123
 30
0.0
 11
-1.123242866570977
 21
-35.05000000000001
 31
0.0
  0
ARC
  5
7D82
330
7D1D
100
AcDbEntity
  8
0
100
AcDbCircle
 10
-0.9732428665709807
 20
-35.30980762113533
 30
0.0
 40
0.3
100
AcDbArc
 50
119.9999999999999
 51
194.5957505503181
  0
ARC
  5
7D83
330
7D1D
100
AcDbEntity
  8
0
100
AcDbCircle
 10
0.9732428665709807
 20
-35.30980762113533
 30
0.0
 40
0.3
100
AcDbArc
 50
345.404249449681
 51
60.00000000000026
  0
LINE
  5
7D84
330
7D1D
100
AcDbEntity
  8
0
100
AcDbLine
 10
-1.038187463673701
 20
-36.25089324024123
 30
0.0
 11
-1.263561225477096
 21
-35.3854068968069
 31
0.0
  0
LINE
  5
7D85
330
7D1D
100
AcDbEntity
  8
0
100
AcDbLine
 10
1.0381874636737
 20
-36.25089324024123
 30
0.0
 11
1.263561225477096
 21
-35.38540689680691
 31
0.0
  0
LINE
  5
7D86
330
7D1D
100
AcDbEntity
  8
0
100
AcDbLine
 10
1.0381874636737
 20
-33.75089324024123
 30
0.0
 11
1.123242866570977
 21
-33.80000000000001
 31
0.0
  0
LINE
  5
7D87
330
7D1D
100
AcDbEntity
  8
0
100
AcDbLine
 10
-1.038187463673702
 20
-33.75089324024123
 30
0.0
 11
-1.123242866570977
 21
-33.80000000000001
 31
0.0
  0
ARC
  5
7D88
330
7D1D
100
AcDbEntity
  8
0
100
AcDbCircle
 10
-0.9732428665709807
 20
-34.05980762113533
 30
0.0
 40
0.3
100
AcDbArc
 50
119.9999999999999
 51
194.5957505503181
  0
ARC
  5
7D89
330
7D1D
100
AcDbEntity
  8
0
100
AcDbCircle
 10
0.9732428665709807
 20
-34.05980762113533
 30
0.0
 40
0.3
100
AcDbArc
 50
345.404249449681
 51
60.00000000000026
  0
LINE
  5
7D8A
330
7D1D
100
AcDbEntity
  8
0
100
AcDbLine
 10
-1.038187463673701
 20
-35.00089324024123
 30
0.0
 11
-1.263561225477096
 21
-34.1354068968069
 31
0.0
  0
LINE
  5
7D8B
330
7D1D
100
AcDbEntity
  8
0
100
AcDbLine
 10
1.0381874636737
 20
-35.00089324024123
 30
0.0
 11
1.263561225477096
 21
-34.13540689680691
 31
0.0
  0
LINE
  5
7D8C
330
7D1D
100
AcDbEntity
  8
0
100
AcDbLine
 10
1.0381874636737
 20
-32.50089324024123
 30
0.0
 11
1.123242866570977
 21
-32.55000000000001
 31
0.0
  0
LINE
  5
7D8D
330
7D1D
100
AcDbEntity
  8
0
100
AcDbLine
 10
-1.038187463673702
 20
-32.50089324024123
 30
0.0
 11
-1.123242866570977
 21
-32.55000000000001
 31
0.0
  0
ARC
  5
7D8E
330
7D1D
100
AcDbEntity
  8
0
100
AcDbCircle
 10
-0.9732428665709807
 20
-32.80980762113533
 30
0.0
 40
0.3
100
AcDbArc
 50
119.9999999999999
 51
194.5957505503181
  0
ARC
  5
7D8F
330
7D1D
100
AcDbEntity
  8
0
100
AcDbCircle
 10
0.9732428665709807
 20
-32.80980762113533
 30
0.0
 40
0.3
100
AcDbArc
 50
345.404249449681
 51
60.00000000000026
  0
LINE
  5
7D90
330
7D1D
100
AcDbEntity
  8
0
100
AcDbLine
 10
-1.038187463673701
 20
-33.75089324024123
 30
0.0
 11
-1.263561225477096
 21
-32.8854068968069
 31
0.0
  0
LINE
  5
7D91
330
7D1D
100
AcDbEntity
  8
0
100
AcDbLine
 10
1.0381874636737
 20
-33.75089324024123
 30
0.0
 11
1.263561225477096
 21
-32.88540689680691
 31
0.0
  0
LINE
  5
7D92
330
7D1D
100
AcDbEntity
  8
0
100
AcDbLine
 10
1.0381874636737
 20
-31.25089324024123
 30
0.0
 11
1.123242866570977
 21
-31.30000000000001
 31
0.0
  0
LINE
  5
7D93
330
7D1D
100
AcDbEntity
  8
0
100
AcDbLine
 10
-1.038187463673702
 20
-31.25089324024123
 30
0.0
 11
-1.123242866570977
 21
-31.30000000000001
 31
0.0
  0
ARC
  5
7D94
330
7D1D
100
AcDbEntity
  8
0
100
AcDbCircle
 10
-0.9732428665709807
 20
-31.55980762113533
 30
0.0
 40
0.3
100
AcDbArc
 50
119.9999999999999
 51
194.5957505503181
  0
ARC
  5
7D95
330
7D1D
100
AcDbEntity
  8
0
100
AcDbCircle
 10
0.9732428665709807
 20
-31.55980762113533
 30
0.0
 40
0.3
100
AcDbArc
 50
345.404249449681
 51
60.00000000000026
  0
LINE
  5
7D96
330
7D1D
100
AcDbEntity
  8
0
100
AcDbLine
 10
-1.038187463673701
 20
-32.50089324024123
 30
0.0
 11
-1.263561225477096
 21
-31.63540689680691
 31
0.0
  0
LINE
  5
7D97
330
7D1D
100
AcDbEntity
  8
0
100
AcDbLine
 10
1.0381874636737
 20
-32.50089324024123
 30
0.0
 11
1.263561225477096
 21
-31.63540689680691
 31
0.0
  0
LINE
  5
7D98
330
7D1D
100
AcDbEntity
  8
0
100
AcDbLine
 10
1.0381874636737
 20
-30.00089324024123
 30
0.0
 11
1.123242866570977
 21
-30.05000000000001
 31
0.0
  0
LINE
  5
7D99
330
7D1D
100
AcDbEntity
  8
0
100
AcDbLine
 10
-1.038187463673702
 20
-30.00089324024123
 30
0.0
 11
-1.123242866570977
 21
-30.05000000000001
 31
0.0
  0
ARC
  5
7D9A
330
7D1D
100
AcDbEntity
  8
0
100
AcDbCircle
 10
-0.9732428665709807
 20
-30.30980762113533
 30
0.0
 40
0.3
100
AcDbArc
 50
119.9999999999999
 51
194.5957505503181
  0
ARC
  5
7D9B
330
7D1D
100
AcDbEntity
  8
0
100
AcDbCircle
 10
0.9732428665709807
 20
-30.30980762113533
 30
0.0
 40
0.3
100
AcDbArc
 50
345.404249449681
 51
60.00000000000026
  0
LINE
  5
7D9C
330
7D1D
100
AcDbEntity
  8
0
100
AcDbLine
 10
-1.038187463673701
 20
-31.25089324024122
 30
0.0
 11
-1.263561225477096
 21
-30.38540689680691
 31
0.0
  0
LINE
  5
7D9D
330
7D1D
100
AcDbEntity
  8
0
100
AcDbLine
 10
1.0381874636737
 20
-31.25089324024123
 30
0.0
 11
1.263561225477096
 21
-30.38540689680691
 31
0.0
  0
LINE
  5
7D9E
330
7D1D
100
AcDbEntity
  8
0
100
AcDbLine
 10
1.0381874636737
 20
-28.75089324024123
 30
0.0
 11
1.123242866570977
 21
-28.80000000000001
 31
0.0
  0
LINE
  5
7D9F
330
7D1D
100
AcDbEntity
  8
0
100
AcDbLine
 10
-1.038187463673702
 20
-28.75089324024123
 30
0.0
 11
-1.123242866570977
 21
-28.80000000000001
 31
0.0
  0
ARC
  5
7DA0
330
7D1D
100
AcDbEntity
  8
0
100
AcDbCircle
 10
-0.9732428665709807
 20
-29.05980762113533
 30
0.0
 40
0.3
100
AcDbArc
 50
119.9999999999999
 51
194.5957505503181
  0
ARC
  5
7DA1
330
7D1D
100
AcDbEntity
  8
0
100
AcDbCircle
 10
0.9732428665709807
 20
-29.05980762113533
 30
0.0
 40
0.3
100
AcDbArc
 50
345.404249449681
 51
60.00000000000026
  0
LINE
  5
7DA2
330
7D1D
100
AcDbEntity
  8
0
100
AcDbLine
 10
-1.038187463673701
 20
-30.00089324024122
 30
0.0
 11
-1.263561225477096
 21
-29.1354068968069
 31
0.0
  0
LINE
  5
7DA3
330
7D1D
100
AcDbEntity
  8
0
100
AcDbLine
 10
1.0381874636737
 20
-30.00089324024123
 30
0.0
 11
1.263561225477096
 21
-29.1354068968069
 31
0.0
  0
LINE
  5
7DA4
330
7D1D
100
AcDbEntity
  8
0
100
AcDbLine
 10
1.0381874636737
 20
-27.50089324024123
 30
0.0
 11
1.123242866570977
 21
-27.55000000000001
 31
0.0
  0
LINE
  5
7DA5
330
7D1D
100
AcDbEntity
  8
0
100
AcDbLine
 10
-1.038187463673702
 20
-27.50089324024123
 30
0.0
 11
-1.123242866570977
 21
-27.55000000000001
 31
0.0
  0
ARC
  5
7DA6
330
7D1D
100
AcDbEntity
  8
0
100
AcDbCircle
 10
-0.9732428665709807
 20
-27.80980762113533
 30
0.0
 40
0.3
100
AcDbArc
 50
119.9999999999999
 51
194.5957505503181
  0
ARC
  5
7DA7
330
7D1D
100
AcDbEntity
  8
0
100
AcDbCircle
 10
0.9732428665709807
 20
-27.80980762113533
 30
0.0
 40
0.3
100
AcDbArc
 50
345.404249449681
 51
60.00000000000026
  0
LINE
  5
7DA8
330
7D1D
100
AcDbEntity
  8
0
100
AcDbLine
 10
-1.038187463673701
 20
-28.75089324024122
 30
0.0
 11
-1.263561225477096
 21
-27.88540689680691
 31
0.0
  0
LINE
  5
7DA9
330
7D1D
100
AcDbEntity
  8
0
100
AcDbLine
 10
1.0381874636737
 20
-28.75089324024123
 30
0.0
 11
1.263561225477096
 21
-27.88540689680691
 31
0.0
  0
LINE
  5
7DAA
330
7D1D
100
AcDbEntity
  8
0
100
AcDbLine
 10
1.0381874636737
 20
-26.25089324024123
 30
0.0
 11
1.123242866570977
 21
-26.30000000000001
 31
0.0
  0
LINE
  5
7DAB
330
7D1D
100
AcDbEntity
  8
0
100
AcDbLine
 10
-1.038187463673702
 20
-26.25089324024123
 30
0.0
 11
-1.123242866570977
 21
-26.30000000000001
 31
0.0
  0
ARC
  5
7DAC
330
7D1D
100
AcDbEntity
  8
0
100
AcDbCircle
 10
-0.9732428665709807
 20
-26.55980762113533
 30
0.0
 40
0.3
100
AcDbArc
 50
119.9999999999999
 51
194.5957505503181
  0
ARC
  5
7DAD
330
7D1D
100
AcDbEntity
  8
0
100
AcDbCircle
 10
0.9732428665709807
 20
-26.55980762113533
 30
0.0
 40
0.3
100
AcDbArc
 50
345.404249449681
 51
60.00000000000026
  0
LINE
  5
7DAE
330
7D1D
100
AcDbEntity
  8
0
100
AcDbLine
 10
-1.038187463673701
 20
-27.50089324024122
 30
0.0
 11
-1.263561225477096
 21
-26.63540689680691
 31
0.0
  0
LINE
  5
7DAF
330
7D1D
100
AcDbEntity
  8
0
100
AcDbLine
 10
1.0381874636737
 20
-27.50089324024123
 30
0.0
 11
1.263561225477096
 21
-26.63540689680691
 31
0.0
  0
LINE
  5
7DB0
330
7D1D
100
AcDbEntity
  8
0
100
AcDbLine
 10
1.0381874636737
 20
-25.00089324024123
 30
0.0
 11
1.123242866570977
 21
-25.05000000000001
 31
0.0
  0
LINE
  5
7DB1
330
7D1D
100
AcDbEntity
  8
0
100
AcDbLine
 10
-1.038187463673702
 20
-25.00089324024123
 30
0.0
 11
-1.123242866570977
 21
-25.05000000000001
 31
0.0
  0
ARC
  5
7DB2
330
7D1D
100
AcDbEntity
  8
0
100
AcDbCircle
 10
-0.9732428665709807
 20
-25.30980762113533
 30
0.0
 40
0.3
100
AcDbArc
 50
119.9999999999999
 51
194.5957505503181
  0
ARC
  5
7DB3
330
7D1D
100
AcDbEntity
  8
0
100
AcDbCircle
 10
0.9732428665709807
 20
-25.30980762113533
 30
0.0
 40
0.3
100
AcDbArc
 50
345.404249449681
 51
60.00000000000026
  0
LINE
  5
7DB4
330
7D1D
100
AcDbEntity
  8
0
100
AcDbLine
 10
-1.038187463673701
 20
-26.25089324024122
 30
0.0
 11
-1.263561225477096
 21
-25.38540689680691
 31
0.0
  0
LINE
  5
7DB5
330
7D1D
100
AcDbEntity
  8
0
100
AcDbLine
 10
1.0381874636737
 20
-26.25089324024123
 30
0.0
 11
1.263561225477096
 21
-25.38540689680691
 31
0.0
  0
LINE
  5
7DB6
330
7D1D
100
AcDbEntity
  8
0
100
AcDbLine
 10
1.0381874636737
 20
-23.75089324024123
 30
0.0
 11
1.123242866570977
 21
-23.8
 31
0.0
  0
LINE
  5
7DB7
330
7D1D
100
AcDbEntity
  8
0
100
AcDbLine
 10
-1.038187463673702
 20
-23.75089324024123
 30
0.0
 11
-1.123242866570977
 21
-23.8
 31
0.0
  0
ARC
  5
7DB8
330
7D1D
100
AcDbEntity
  8
0
100
AcDbCircle
 10
-0.9732428665709807
 20
-24.05980762113533
 30
0.0
 40
0.3
100
AcDbArc
 50
119.9999999999999
 51
194.5957505503181
  0
ARC
  5
7DB9
330
7D1D
100
AcDbEntity
  8
0
100
AcDbCircle
 10
0.9732428665709807
 20
-24.05980762113533
 30
0.0
 40
0.3
100
AcDbArc
 50
345.404249449681
 51
60.00000000000026
  0
LINE
  5
7DBA
330
7D1D
100
AcDbEntity
  8
0
100
AcDbLine
 10
-1.038187463673701
 20
-25.00089324024122
 30
0.0
 11
-1.263561225477096
 21
-24.13540689680691
 31
0.0
  0
LINE
  5
7DBB
330
7D1D
100
AcDbEntity
  8
0
100
AcDbLine
 10
1.0381874636737
 20
-25.00089324024123
 30
0.0
 11
1.263561225477096
 21
-24.13540689680691
 31
0.0
  0
LINE
  5
7DBC
330
7D1D
100
AcDbEntity
  8
0
100
AcDbLine
 10
1.0381874636737
 20
-22.50089324024123
 30
0.0
 11
1.123242866570977
 21
-22.55
 31
0.0
  0
LINE
  5
7DBD
330
7D1D
100
AcDbEntity
  8
0
100
AcDbLine
 10
-1.038187463673702
 20
-22.50089324024123
 30
0.0
 11
-1.123242866570977
 21
-22.55
 31
0.0
  0
ARC
  5
7DBE
330
7D1D
100
AcDbEntity
  8
0
100
AcDbCircle
 10
-0.9732428665709807
 20
-22.80980762113533
 30
0.0
 40
0.3
100
AcDbArc
 50
119.9999999999999
 51
194.5957505503181
  0
ARC
  5
7DBF
330
7D1D
100
AcDbEntity
  8
0
100
AcDbCircle
 10
0.9732428665709807
 20
-22.80980762113533
 30
0.0
 40
0.3
100
AcDbArc
 50
345.404249449681
 51
60.00000000000026
  0
LINE
  5
7DC0
330
7D1D
100
AcDbEntity
  8
0
100
AcDbLine
 10
-1.038187463673701
 20
-23.75089324024122
 30
0.0
 11
-1.263561225477096
 21
-22.8854068968069
 31
0.0
  0
LINE
  5
7DC1
330
7D1D
100
AcDbEntity
  8
0
100
AcDbLine
 10
1.0381874636737
 20
-23.75089324024123
 30
0.0
 11
1.263561225477096
 21
-22.88540689680691
 31
0.0
  0
LINE
  5
7DC2
330
7D1D
100
AcDbEntity
  8
0
100
AcDbLine
 10
1.0381874636737
 20
-21.25089324024123
 30
0.0
 11
1.123242866570977
 21
-21.3
 31
0.0
  0
LINE
  5
7DC3
330
7D1D
100
AcDbEntity
  8
0
100
AcDbLine
 10
-1.038187463673702
 20
-21.25089324024123
 30
0.0
 11
-1.123242866570977
 21
-21.3
 31
0.0
  0
ARC
  5
7DC4
330
7D1D
100
AcDbEntity
  8
0
100
AcDbCircle
 10
-0.9732428665709807
 20
-21.55980762113533
 30
0.0
 40
0.3
100
AcDbArc
 50
119.9999999999999
 51
194.5957505503181
  0
ARC
  5
7DC5
330
7D1D
100
AcDbEntity
  8
0
100
AcDbCircle
 10
0.9732428665709807
 20
-21.55980762113533
 30
0.0
 40
0.3
100
AcDbArc
 50
345.404249449681
 51
60.00000000000026
  0
LINE
  5
7DC6
330
7D1D
100
AcDbEntity
  8
0
100
AcDbLine
 10
-1.038187463673701
 20
-22.50089324024122
 30
0.0
 11
-1.263561225477096
 21
-21.6354068968069
 31
0.0
  0
LINE
  5
7DC7
330
7D1D
100
AcDbEntity
  8
0
100
AcDbLine
 10
1.0381874636737
 20
-22.50089324024123
 30
0.0
 11
1.263561225477096
 21
-21.63540689680691
 31
0.0
  0
LINE
  5
7DC8
330
7D1D
100
AcDbEntity
  8
0
100
AcDbLine
 10
1.0381874636737
 20
-20.00089324024123
 30
0.0
 11
1.123242866570977
 21
-20.05
 31
0.0
  0
LINE
  5
7DC9
330
7D1D
100
AcDbEntity
  8
0
100
AcDbLine
 10
-1.038187463673702
 20
-20.00089324024123
 30
0.0
 11
-1.123242866570977
 21
-20.05
 31
0.0
  0
ARC
  5
7DCA
330
7D1D
100
AcDbEntity
  8
0
100
AcDbCircle
 10
-0.9732428665709807
 20
-20.30980762113533
 30
0.0
 40
0.3
100
AcDbArc
 50
119.9999999999999
 51
194.5957505503181
  0
ARC
  5
7DCB
330
7D1D
100
AcDbEntity
  8
0
100
AcDbCircle
 10
0.9732428665709807
 20
-20.30980762113533
 30
0.0
 40
0.3
100
AcDbArc
 50
345.404249449681
 51
60.00000000000026
  0
LINE
  5
7DCC
330
7D1D
100
AcDbEntity
  8
0
100
AcDbLine
 10
-1.038187463673701
 20
-21.25089324024122
 30
0.0
 11
-1.263561225477096
 21
-20.3854068968069
 31
0.0
  0
LINE
  5
7DCD
330
7D1D
100
AcDbEntity
  8
0
100
AcDbLine
 10
1.0381874636737
 20
-21.25089324024123
 30
0.0
 11
1.263561225477096
 21
-20.38540689680691
 31
0.0
  0
LINE
  5
7DCE
330
7D1D
100
AcDbEntity
  8
0
100
AcDbLine
 10
1.0381874636737
 20
-18.75089324024122
 30
0.0
 11
1.123242866570977
 21
-18.8
 31
0.0
  0
LINE
  5
7DCF
330
7D1D
100
AcDbEntity
  8
0
100
AcDbLine
 10
-1.0381874636737
 20
-18.75089324024122
 30
0.0
 11
-1.123242866570977
 21
-18.8
 31
0.0
  0
ARC
  5
7DD0
330
7D1D
100
AcDbEntity
  8
0
100
AcDbCircle
 10
-0.9732428665709807
 20
-19.05980762113532
 30
0.0
 40
0.3
100
AcDbArc
 50
120.0000000000002
 51
194.5957505503185
  0
ARC
  5
7DD1
330
7D1D
100
AcDbEntity
  8
0
100
AcDbCircle
 10
0.9732428665709807
 20
-19.05980762113532
 30
0.0
 40
0.3
100
AcDbArc
 50
345.4042494496814
 51
59.9999999999997
  0
LINE
  5
7DD2
330
7D1D
100
AcDbEntity
  8
0
100
AcDbLine
 10
-1.0381874636737
 20
-20.00089324024123
 30
0.0
 11
-1.263561225477096
 21
-19.1354068968069
 31
0.0
  0
LINE
  5
7DD3
330
7D1D
100
AcDbEntity
  8
0
100
AcDbLine
 10
1.0381874636737
 20
-20.00089324024123
 30
0.0
 11
1.263561225477096
 21
-19.1354068968069
 31
0.0
  0
LINE
  5
7DD4
330
7D1D
100
AcDbEntity
  8
0
100
AcDbLine
 10
1.0381874636737
 20
-17.50089324024122
 30
0.0
 11
1.123242866570977
 21
-17.55
 31
0.0
  0
LINE
  5
7DD5
330
7D1D
100
AcDbEntity
  8
0
100
AcDbLine
 10
-1.0381874636737
 20
-17.50089324024122
 30
0.0
 11
-1.123242866570977
 21
-17.55
 31
0.0
  0
ARC
  5
7DD6
330
7D1D
100
AcDbEntity
  8
0
100
AcDbCircle
 10
-0.9732428665709807
 20
-17.80980762113532
 30
0.0
 40
0.3
100
AcDbArc
 50
120.0000000000002
 51
194.5957505503185
  0
ARC
  5
7DD7
330
7D1D
100
AcDbEntity
  8
0
100
AcDbCircle
 10
0.9732428665709807
 20
-17.80980762113532
 30
0.0
 40
0.3
100
AcDbArc
 50
345.4042494496814
 51
59.9999999999997
  0
LINE
  5
7DD8
330
7D1D
100
AcDbEntity
  8
0
100
AcDbLine
 10
-1.0381874636737
 20
-18.75089324024122
 30
0.0
 11
-1.263561225477096
 21
-17.8854068968069
 31
0.0
  0
LINE
  5
7DD9
330
7D1D
100
AcDbEntity
  8
0
100
AcDbLine
 10
1.0381874636737
 20
-18.75089324024122
 30
0.0
 11
1.263561225477096
 21
-17.8854068968069
 31
0.0
  0
LINE
  5
7DDA
330
7D1D
100
AcDbEntity
  8
0
100
AcDbLine
 10
1.0381874636737
 20
-16.25089324024122
 30
0.0
 11
1.123242866570977
 21
-16.3
 31
0.0
  0
LINE
  5
7DDB
330
7D1D
100
AcDbEntity
  8
0
100
AcDbLine
 10
-1.0381874636737
 20
-16.25089324024122
 30
0.0
 11
-1.123242866570977
 21
-16.3
 31
0.0
  0
ARC
  5
7DDC
330
7D1D
100
AcDbEntity
  8
0
100
AcDbCircle
 10
-0.9732428665709807
 20
-16.55980762113532
 30
0.0
 40
0.3
100
AcDbArc
 50
120.0000000000002
 51
194.5957505503185
  0
ARC
  5
7DDD
330
7D1D
100
AcDbEntity
  8
0
100
AcDbCircle
 10
0.9732428665709807
 20
-16.55980762113532
 30
0.0
 40
0.3
100
AcDbArc
 50
345.4042494496814
 51
59.9999999999997
  0
LINE
  5
7DDE
330
7D1D
100
AcDbEntity
  8
0
100
AcDbLine
 10
-1.0381874636737
 20
-17.50089324024122
 30
0.0
 11
-1.263561225477096
 21
-16.6354068968069
 31
0.0
  0
LINE
  5
7DDF
330
7D1D
100
AcDbEntity
  8
0
100
AcDbLine
 10
1.0381874636737
 20
-17.50089324024122
 30
0.0
 11
1.263561225477096
 21
-16.6354068968069
 31
0.0
  0
LINE
  5
7DE0
330
7D1D
100
AcDbEntity
  8
0
100
AcDbLine
 10
1.0381874636737
 20
-15.00089324024122
 30
0.0
 11
1.123242866570977
 21
-15.05
 31
0.0
  0
LINE
  5
7DE1
330
7D1D
100
AcDbEntity
  8
0
100
AcDbLine
 10
-1.0381874636737
 20
-15.00089324024122
 30
0.0
 11
-1.123242866570977
 21
-15.05
 31
0.0
  0
ARC
  5
7DE2
330
7D1D
100
AcDbEntity
  8
0
100
AcDbCircle
 10
-0.9732428665709807
 20
-15.30980762113532
 30
0.0
 40
0.3
100
AcDbArc
 50
120.0000000000002
 51
194.5957505503185
  0
ARC
  5
7DE3
330
7D1D
100
AcDbEntity
  8
0
100
AcDbCircle
 10
0.9732428665709807
 20
-15.30980762113532
 30
0.0
 40
0.3
100
AcDbArc
 50
345.4042494496814
 51
59.9999999999997
  0
LINE
  5
7DE4
330
7D1D
100
AcDbEntity
  8
0
100
AcDbLine
 10
-1.0381874636737
 20
-16.25089324024122
 30
0.0
 11
-1.263561225477096
 21
-15.3854068968069
 31
0.0
  0
LINE
  5
7DE5
330
7D1D
100
AcDbEntity
  8
0
100
AcDbLine
 10
1.0381874636737
 20
-16.25089324024122
 30
0.0
 11
1.263561225477096
 21
-15.3854068968069
 31
0.0
  0
LINE
  5
7DE6
330
7D1D
100
AcDbEntity
  8
0
100
AcDbLine
 10
1.0381874636737
 20
-13.75089324024122
 30
0.0
 11
1.123242866570977
 21
-13.8
 31
0.0
  0
LINE
  5
7DE7
330
7D1D
100
AcDbEntity
  8
0
100
AcDbLine
 10
-1.0381874636737
 20
-13.75089324024122
 30
0.0
 11
-1.123242866570977
 21
-13.8
 31
0.0
  0
ARC
  5
7DE8
330
7D1D
100
AcDbEntity
  8
0
100
AcDbCircle
 10
-0.9732428665709807
 20
-14.05980762113532
 30
0.0
 40
0.3
100
AcDbArc
 50
120.0000000000002
 51
194.5957505503185
  0
ARC
  5
7DE9
330
7D1D
100
AcDbEntity
  8
0
100
AcDbCircle
 10
0.9732428665709807
 20
-14.05980762113532
 30
0.0
 40
0.3
100
AcDbArc
 50
345.4042494496814
 51
59.9999999999997
  0
LINE
  5
7DEA
330
7D1D
100
AcDbEntity
  8
0
100
AcDbLine
 10
-1.0381874636737
 20
-15.00089324024122
 30
0.0
 11
-1.263561225477096
 21
-14.1354068968069
 31
0.0
  0
LINE
  5
7DEB
330
7D1D
100
AcDbEntity
  8
0
100
AcDbLine
 10
1.0381874636737
 20
-15.00089324024122
 30
0.0
 11
1.263561225477096
 21
-14.1354068968069
 31
0.0
  0
LINE
  5
7DEC
330
7D1D
100
AcDbEntity
  8
0
100
AcDbLine
 10
1.0381874636737
 20
-12.50089324024122
 30
0.0
 11
1.123242866570977
 21
-12.55
 31
0.0
  0
LINE
  5
7DED
330
7D1D
100
AcDbEntity
  8
0
100
AcDbLine
 10
-1.0381874636737
 20
-12.50089324024122
 30
0.0
 11
-1.123242866570977
 21
-12.55
 31
0.0
  0
ARC
  5
7DEE
330
7D1D
100
AcDbEntity
  8
0
100
AcDbCircle
 10
-0.9732428665709807
 20
-12.80980762113532
 30
0.0
 40
0.3
100
AcDbArc
 50
120.0000000000002
 51
194.5957505503185
  0
ARC
  5
7DEF
330
7D1D
100
AcDbEntity
  8
0
100
AcDbCircle
 10
0.9732428665709807
 20
-12.80980762113532
 30
0.0
 40
0.3
100
AcDbArc
 50
345.4042494496814
 51
59.9999999999997
  0
LINE
  5
7DF0
330
7D1D
100
AcDbEntity
  8
0
100
AcDbLine
 10
-1.0381874636737
 20
-13.75089324024122
 30
0.0
 11
-1.263561225477096
 21
-12.8854068968069
 31
0.0
  0
LINE
  5
7DF1
330
7D1D
100
AcDbEntity
  8
0
100
AcDbLine
 10
1.0381874636737
 20
-13.75089324024122
 30
0.0
 11
1.263561225477096
 21
-12.8854068968069
 31
0.0
  0
LINE
  5
7DF2
330
7D1D
100
AcDbEntity
  8
0
100
AcDbLine
 10
1.0381874636737
 20
-11.25089324024122
 30
0.0
 11
1.123242866570977
 21
-11.3
 31
0.0
  0
LINE
  5
7DF3
330
7D1D
100
AcDbEntity
  8
0
100
AcDbLine
 10
-1.0381874636737
 20
-11.25089324024122
 30
0.0
 11
-1.123242866570977
 21
-11.3
 31
0.0
  0
ARC
  5
7DF4
330
7D1D
100
AcDbEntity
  8
0
100
AcDbCircle
 10
-0.9732428665709807
 20
-11.55980762113532
 30
0.0
 40
0.3
100
AcDbArc
 50
120.0000000000002
 51
194.5957505503185
  0
ARC
  5
7DF5
330
7D1D
100
AcDbEntity
  8
0
100
AcDbCircle
 10
0.9732428665709807
 20
-11.55980762113532
 30
0.0
 40
0.3
100
AcDbArc
 50
345.4042494496814
 51
59.9999999999997
  0
LINE
  5
7DF6
330
7D1D
100
AcDbEntity
  8
0
100
AcDbLine
 10
-1.0381874636737
 20
-12.50089324024122
 30
0.0
 11
-1.263561225477096
 21
-11.6354068968069
 31
0.0
  0
LINE
  5
7DF7
330
7D1D
100
AcDbEntity
  8
0
100
AcDbLine
 10
1.0381874636737
 20
-12.50089324024122
 30
0.0
 11
1.263561225477096
 21
-11.6354068968069
 31
0.0
  0
ARC
  5
7DF8
330
7D1D
100
AcDbEntity
  8
0
100
AcDbCircle
 10
-0.9732428665709807
 20
-10.30980762113532
 30
0.0
 40
0.3
100
AcDbArc
 50
120.0000000000002
 51
194.5957505503185
  0
ARC
  5
7DF9
330
7D1D
100
AcDbEntity
  8
0
100
AcDbCircle
 10
0.9732428665709807
 20
-10.30980762113532
 30
0.0
 40
0.3
100
AcDbArc
 50
345.4042494496814
 51
59.9999999999997
  0
LINE
  5
7DFA
330
7D1D
100
AcDbEntity
  8
0
100
AcDbLine
 10
-1.0381874636737
 20
-11.25089324024122
 30
0.0
 11
-1.263561225477096
 21
-10.3854068968069
 31
0.0
  0
LINE
  5
7DFB
330
7D1D
100
AcDbEntity
  8
0
100
AcDbLine
 10
1.0381874636737
 20
-11.25089324024122
 30
0.0
 11
1.263561225477096
 21
-10.3854068968069
 31
0.0
  0
LINE
  5
7DFC
330
7D1D
100
AcDbEntity
  8
0
100
AcDbLine
 10
1.149999999999935
 20
-8.799999999999998
 30
0.0
 11
-1.149999999999935
 21
-8.799999999999998
 31
0.0
  0
LINE
  5
7DFD
330
7D1D
100
AcDbEntity
  8
0
100
AcDbLine
 10
2.749999999999979
 20
0.0
 30
0.0
 11
-2.749999999999979
 21
0.0
 31
0.0
  0
LINE
  5
7DFE
330
7D1D
100
AcDbEntity
  8
0
100
AcDbLine
 10
2.74999999999998
 20
0.2619517121937687
 30
0.0
 11
-2.74999999999998
 21
0.2619517121937687
 31
0.0
  0
LINE
  5
7DFF
330
7D1D
100
AcDbEntity
  8
0
100
AcDbLine
 10
-1.149999999999936
 20
-8.799999999999998
 30
0.0
 11
-1.149999999999936
 21
-0.5000000000000071
 31
0.0
  0
LINE
  5
7E00
330
7D1D
100
AcDbEntity
  8
0
100
AcDbLine
 10
1.149999999999936
 20
-8.799999999999998
 30
0.0
 11
1.149999999999936
 21
-0.5000000000000071
 31
0.0
  0
ARC
  5
7E01
330
7D1D
100
AcDbEntity
  8
0
100
AcDbCircle
 10
0.0
 20
-3.3
 30
0.0
 40
4.5
100
AcDbArc
 50
52.33011303567071
 51
127.6698869643293
  0
LINE
  5
7E02
330
7D1D
100
AcDbEntity
  8
0
100
AcDbLine
 10
-2.749999999999979
 20
0.0
 30
0.0
 11
-2.749999999999979
 21
0.2619517121937687
 31
0.0
  0
LINE
  5
7E03
330
7D1D
100
AcDbEntity
  8
0
100
AcDbLine
 10
2.749999999999979
 20
0.0
 30
0.0
 11
2.749999999999979
 21
0.2619517121937687
 31
0.0
  0
ARC
  5
7E04
330
7D1D
100
AcDbEntity
  8
0
100
AcDbCircle
 10
-0.9732428665709807
 20
-9.059807621135327
 30
0.0
 40
0.3
100
AcDbArc
 50
120.0000000000001
 51
194.5957505503183
  0
ARC
  5
7E05
330
7D1D
100
AcDbEntity
  8
0
100
AcDbCircle
 10
0.9732428665709807
 20
-9.059807621135327
 30
0.0
 40
0.3
100
AcDbArc
 50
345.4042494496816
 51
60.00000000000099
  0
LINE
  5
7E06
330
7D1D
100
AcDbEntity
  8
0
100
AcDbLine
 10
-1.0381874636737
 20
-10.00089324024122
 30
0.0
 11
-1.263561225477096
 21
-9.135406896806902
 31
0.0
  0
LINE
  5
7E07
330
7D1D
100
AcDbEntity
  8
0
100
AcDbLine
 10
1.0381874636737
 20
-10.00089324024122
 30
0.0
 11
1.263561225477096
 21
-9.135406896806902
 31
0.0
  0
ARC
  5
7E08
330
7D1D
100
AcDbEntity
  8
0
100
AcDbCircle
 10
1.649999999999936
 20
-0.5000000000000071
 30
0.0
 40
0.5
100
AcDbArc
 50
90.0
 51
180.0
  0
ARC
  5
7E09
330
7D1D
100
AcDbEntity
  8
0
100
AcDbCircle
 10
-1.649999999999936
 20
-0.5000000000000071
 30
0.0
 40
0.5
100
AcDbArc
 50
0.0
 51
90.0
  0
ENDBLK
  5
7D1F
330
7D1D
100
AcDbEntity
  8
0
100
AcDbBlockEnd
  0
BLOCK
  5
7FE5
330
7FE4
100
AcDbEntity
  8
0
100
AcDbBlockBegin
  2
ARA423x50-Top
 70
     0
 10
0.0
 20
0.0
 30
0.0
  3
ARA423x50-Top
  1

  0
CIRCLE
  5
7FE7
330
7FE4
100
AcDbEntity
  8
0
100
AcDbCircle
 10
0.0
 20
0.0
 30
0.0
 40
2.74999999999998
  0
ENDBLK
  5
7FE6
330
7FE4
100
AcDbEntity
  8
0
100
AcDbBlockEnd
  0
BLOCK
  5
8015
330
8014
100
AcDbEntity
  8
0
100
AcDbBlockBegin
  2
ARA423x50-ISO
 70
     0
 10
0.0
 20
0.0
 30
0.0
  3
ARA423x50-ISO
  1

  0
SPLINE
  5
8017
330
8014
100
AcDbEntity
  8
0
100
AcDbSpline
210
0.0
220
0.0
230
1.0
 70
     8
 71
     3
 72
    19
 73
    15
 74
     0
 42
0.000000001
 43
0.0000000001
 40
-0.0453751077896223
 40
-0.0453751077896223
 40
-0.0453751077896223
 40
-0.0453751077896223
 40
-0.0452900576504926
 40
-0.0452900576504926
 40
-0.0415737893328526
 40
-0.0415737893328526
 40
-0.0366377970663579
 40
-0.0366377970663579
 40
-0.0286035440609123
 40
-0.0286035440609123
 40
0.0
 40
0.0
 40
0.0
 40
0.0229961794413474
 40
0.0229961794413474
 40
0.0229961794413474
 40
0.0229961794413474
 10
1.200506832699854
 20
-16.83136459757115
 30
0.0
 10
1.200577979953533
 20
-16.83114700594592
 30
0.0
 10
1.200648865013486
 20
-16.8309294355867
 30
0.0
 10
1.203804538734304
 20
-16.82120944443864
 30
0.0
 10
1.207450000356507
 20
-16.80811146063237
 30
0.0
 10
1.214171345698363
 20
-16.78088372397481
 30
0.0
 10
1.21826150365345
 20
-16.76156921771463
 30
0.0
 10
1.226249532416565
 20
-16.71947350222989
 30
0.0
 10
1.230889083405305
 20
-16.6896295727236
 30
0.0
 10
1.245454439534506
 20
-16.58150759144849
 30
0.0
 10
1.249852456489658
 20
-16.50228808391927
 30
0.0
 10
1.249852456489658
 20
-16.44724053770812
 30
0.0
 10
1.249852456489658
 20
-16.4029843697388
 30
0.0
 10
1.247009772500832
 20
-16.36114142070278
 30
0.0
 10
1.239986157795991
 20
-16.3400654760796
 30
0.0
  0
SPLINE
  5
8018
330
8014
100
AcDbEntity
  8
0
100
AcDbSpline
210
0.0
220
0.0
230
1.0
 70
    12
 71
     2
 72
     6
 73
     3
 74
     0
 42
0.000000001
 43
0.0000000001
 40
0.0
 40
0.0
 40
0.0
 40
0.0894830231545094
 40
0.0894830231545094
 40
0.0894830231545094
 10
0.9777602295309584
 20
-17.51196626676978
 30
0.0
 41
1.0
 10
1.082368088656659
 20
-17.19267160508663
 30
0.0
 41
1.001067432428792
 10
1.200506832699854
 20
-16.83136459757115
 30
0.0
 41
1.0
  0
SPLINE
  5
8019
330
8014
100
AcDbEntity
  8
0
100
AcDbSpline
210
0.0
220
0.0
230
1.0
 70
    12
 71
     2
 72
     6
 73
     3
 74
     0
 42
0.000000001
 43
0.0000000001
 40
0.0
 40
0.0
 40
0.0
 40
0.0231305000849317
 40
0.0231305000849317
 40
0.0231305000849317
 10
0.9651218279988288
 20
-17.68232254350785
 30
0.0
 41
1.0
 10
0.9729845791962617
 20
-17.59003640627995
 30
0.0
 41
1.004172128110433
 10
0.9777602295309586
 20
-17.51196626676978
 30
0.0
 41
1.0
  0
SPLINE
  5
801A
330
8014
100
AcDbEntity
  8
0
100
AcDbSpline
210
0.0
220
0.0
230
1.0
 70
     8
 71
     3
 72
    14
 73
    10
 74
     0
 42
0.000000001
 43
0.0000000001
 40
-0.0955554120146479
 40
-0.0955554120146479
 40
-0.0955554120146479
 40
-0.0955554120146479
 40
-0.0872744932335594
 40
-0.0872744932335594
 40
-0.0754229802700109
 40
-0.0754229802700109
 40
-0.0583945217996176
 40
-0.0583945217996176
 40
-0.0544119222634634
 40
-0.0544119222634634
 40
-0.0544119222634634
 40
-0.0544119222634634
 10
0.9002480638467114
 20
-18.07612370936519
 30
0.0
 10
0.9070791118772579
 20
-18.04994894437453
 30
0.0
 10
0.9143547002392791
 20
-18.01852154852181
 30
0.0
 10
0.9281713852504937
 20
-17.95285127953374
 30
0.0
 10
0.936444723131901
 20
-17.90706339248344
 30
0.0
 10
0.950647828318001
 20
-17.81720808612115
 30
0.0
 10
0.9578738821370363
 20
-17.7586979322429
 30
0.0
 10
0.9632917638901425
 20
-17.70307070873105
 30
0.0
 10
0.9642428657653907
 20
-17.6926390379837
 30
0.0
 10
0.9651218279988288
 20
-17.68232254350786
 30
0.0
  0
LINE
  5
801B
330
8014
100
AcDbEntity
  8
0
100
AcDbLine
 10
0.9002480638467114
 20
-18.07612370936519
 30
0.0
 11
0.0
 21
-20.41241452319316
 31
0.0
  0
SPLINE
  5
801C
330
8014
100
AcDbEntity
  8
0
100
AcDbSpline
210
0.0
220
0.0
230
1.0
 70
     8
 71
     3
 72
    14
 73
    10
 74
     0
 42
0.000000001
 43
0.0000000001
 40
0.0544119222634634
 40
0.0544119222634634
 40
0.0544119222634634
 40
0.0544119222634634
 40
0.0583945217996176
 40
0.0583945217996176
 40
0.0754229802700109
 40
0.0754229802700109
 40
0.0872744932335595
 40
0.0872744932335595
 40
0.095555412014648
 40
0.095555412014648
 40
0.095555412014648
 40
0.095555412014648
 10
0.5746428407478753
 20
-17.90776569191009
 30
0.0
 10
0.5876816755581834
 20
-17.91004674251619
 30
0.0
 10
0.6005235974487272
 20
-17.91251500727942
 30
0.0
 10
0.6671017592993838
 20
-17.92657529563606
 30
0.0
 10
0.7287374791760668
 20
-17.94532808593421
 30
0.0
 10
0.8063260135553163
 20
-17.98218746448409
 30
0.0
 10
0.8401713422722952
 20
-18.00365812803591
 30
0.0
 10
0.8779935245462697
 20
-18.03951468309621
 30
0.0
 10
0.8924483414369788
 20
-18.05839602362668
 30
0.0
 10
0.9002480638467114
 20
-18.07612370936519
 30
0.0
  0
SPLINE
  5
801D
330
8014
100
AcDbEntity
  8
0
100
AcDbSpline
210
0.0
220
0.0
230
1.0
 70
    12
 71
     2
 72
     6
 73
     3
 74
     0
 42
0.000000001
 43
0.0000000001
 40
0.0
 40
0.0
 40
0.0
 40
0.0231305000849317
 40
0.0231305000849317
 40
0.0231305000849317
 10
0.3490245597043232
 20
-17.87496697499331
 30
0.0
 41
1.0
 10
0.4580040249743367
 20
-17.8873605678874
 30
0.0
 41
1.004172128110714
 10
0.5746428407478605
 20
-17.90776569191009
 30
0.0
 41
1.0
  0
SPLINE
  5
801E
330
8014
100
AcDbEntity
  8
0
100
AcDbSpline
210
0.0
220
0.0
230
1.0
 70
    12
 71
     2
 72
     6
 73
     3
 74
     0
 42
0.000000001
 43
0.0000000001
 40
0.0
 40
0.0
 40
0.0
 40
0.0894830231545094
 40
0.0894830231545094
 40
0.0894830231545094
 10
0.3941704138696173
 20
-17.29690314604019
 30
0.0
 41
1.0
 10
0.3708054447726208
 20
-17.60349248909877
 30
0.0
 41
1.001067432438567
 10
0.3490245597043234
 20
-17.87496697499331
 30
0.0
 41
1.0
  0
SPLINE
  5
801F
330
8014
100
AcDbEntity
  8
0
100
AcDbSpline
210
0.0
220
0.0
230
1.0
 70
     8
 71
     3
 72
    27
 73
    23
 74
     0
 42
0.000000001
 43
0.0000000001
 40
-0.0453751077896223
 40
-0.0453751077896223
 40
-0.0453751077896223
 40
-0.0453751077896223
 40
-0.0452900576504926
 40
-0.0452900576504926
 40
-0.0415737893328526
 40
-0.0415737893328526
 40
-0.0366377970663579
 40
-0.0366377970663579
 40
-0.0286035440609123
 40
-0.0286035440609123
 40
0.0
 40
0.0
 40
0.0
 40
0.0286035440609123
 40
0.0286035440609123
 40
0.0366377970663579
 40
0.0366377970663579
 40
0.0415737893328526
 40
0.0415737893328526
 40
0.0452900576504926
 40
0.0452900576504926
 40
0.0453751077896223
 40
0.0453751077896223
 40
0.0453751077896223
 40
0.0453751077896223
 10
-0.3941704138696212
 20
-17.29690314604019
 30
0.0
 10
-0.3941844850652895
 20
-17.2967185072924
 30
0.0
 10
-0.3941971523521062
 20
-17.29653454898018
 30
0.0
 10
-0.3947019184167724
 20
-17.288345060081
 30
0.0
 10
-0.3920471919685778
 20
-17.27888449155312
 30
0.0
 10
-0.3818208578127846
 20
-17.26144150221566
 30
0.0
 10
-0.3708423848942704
 20
-17.25082687404668
 30
0.0
 10
-0.341824324198953
 20
-17.23009663427242
 30
0.0
 10
-0.3156272451525039
 20
-17.21805624141785
 30
0.0
 10
-0.2083904543115809
 20
-17.1802567624838
 30
0.0
 10
-0.0953451468697095
 20
-17.16884318990974
 30
0.0
 10
-0.0000000000000018
 20
-17.16884318990974
 30
0.0
 10
0.0953451468697059
 20
-17.16884318990974
 30
0.0
 10
0.2083904543115775
 20
-17.1802567624838
 30
0.0
 10
0.3156272451525006
 20
-17.21805624141785
 30
0.0
 10
0.3418243241989495
 20
-17.23009663427242
 30
0.0
 10
0.3708423848942669
 20
-17.25082687404668
 30
0.0
 10
0.3818208578127812
 20
-17.26144150221567
 30
0.0
 10
0.3920471919685745
 20
-17.27888449155312
 30
0.0
 10
0.394701918416769
 20
-17.288345060081
 30
0.0
 10
0.3941971523521028
 20
-17.29653454898018
 30
0.0
 10
0.394184485065286
 20
-17.29671850729241
 30
0.0
 10
0.3941704138696179
 20
-17.29690314604019
 30
0.0
  0
SPLINE
  5
8020
330
8014
100
AcDbEntity
  8
0
100
AcDbSpline
210
0.0
220
0.0
230
1.0
 70
    12
 71
     2
 72
     6
 73
     3
 74
     0
 42
0.000000001
 43
0.0000000001
 40
0.0
 40
0.0
 40
0.0
 40
0.0894830231545094
 40
0.0894830231545094
 40
0.0894830231545094
 10
-0.3490245597043263
 20
-17.87496697499331
 30
0.0
 41
1.0
 10
-0.3708054447742954
 20
-17.60349248907739
 30
0.0
 41
1.001067432428792
 10
-0.3941704138696206
 20
-17.29690314604019
 30
0.0
 41
1.0
  0
SPLINE
  5
8021
330
8014
100
AcDbEntity
  8
0
100
AcDbSpline
210
0.0
220
0.0
230
1.0
 70
    12
 71
     2
 72
     6
 73
     3
 74
     0
 42
0.000000001
 43
0.0000000001
 40
0.0
 40
0.0
 40
0.0
 40
0.0231305000849317
 40
0.0231305000849317
 40
0.0231305000849317
 10
-0.5746428407478633
 20
-17.90776569191009
 30
0.0
 41
1.0
 10
-0.4580040249743402
 20
-17.8873605678874
 30
0.0
 41
1.004172128110433
 10
-0.349024559704326
 20
-17.87496697499331
 30
0.0
 41
1.0
  0
SPLINE
  5
8022
330
8014
100
AcDbEntity
  8
0
100
AcDbSpline
210
0.0
220
0.0
230
1.0
 70
     8
 71
     3
 72
    14
 73
    10
 74
     0
 42
0.000000001
 43
0.0000000001
 40
-0.0955554106323115
 40
-0.0955554106323115
 40
-0.0955554106323115
 40
-0.0955554106323115
 40
-0.0872744932335594
 40
-0.0872744932335594
 40
-0.0754229802700109
 40
-0.0754229802700109
 40
-0.0583945217996176
 40
-0.0583945217996176
 40
-0.0544119222634634
 40
-0.0544119222634634
 40
-0.0544119222634634
 40
-0.0544119222634634
 10
-0.9002480684931988
 20
-18.07612369523616
 30
0.0
 10
-0.8924483454633504
 20
-18.05839601200807
 30
0.0
 10
-0.8779935219493189
 20
-18.03951468063422
 30
0.0
 10
-0.8401713422722977
 20
-18.0036581280359
 30
0.0
 10
-0.8063260135553189
 20
-17.98218746448409
 30
0.0
 10
-0.7287374791760694
 20
-17.94532808593421
 30
0.0
 10
-0.6671017592993865
 20
-17.92657529563606
 30
0.0
 10
-0.6005235974487299
 20
-17.91251500727942
 30
0.0
 10
-0.5876816755581859
 20
-17.91004674251619
 30
0.0
 10
-0.5746428407478779
 20
-17.90776569191009
 30
0.0
  0
LINE
  5
8023
330
8014
100
AcDbEntity
  8
0
100
AcDbLine
 10
0.0
 20
-20.41241452319316
 30
0.0
 11
-0.9002480684931988
 21
-18.07612369523616
 31
0.0
  0
ELLIPSE
  5
8024
330
8014
100
AcDbEntity
  8
0
100
AcDbEllipse
 10
0.0
 20
-16.32993161855452
 30
0.0
 11
1.123242866570979
 21
0.0
 31
0.0
210
0.0
220
0.0
230
1.0
 40
0.5773502691896257
 41
2.906299384212426
 42
6.518478576556953
  0
ELLIPSE
  5
8025
330
8014
100
AcDbEntity
  8
0
100
AcDbEllipse
 10
0.0
 20
-16.60379020301694
 30
0.0
 11
-1.263561225477097
 21
-0.0000000000000001
 31
0.0
210
0.0
220
0.0
230
1.0
 40
0.5773502691896258
 41
0.3172468353112086
 42
1.253549491483686
  0
ELLIPSE
  5
8026
330
8014
100
AcDbEntity
  8
0
100
AcDbEllipse
 10
0.0
 20
-16.60379020301694
 30
0.0
 11
1.263561225477097
 21
-0.0000000000000001
 31
0.0
210
0.0
220
0.0
230
1.0
 40
0.5773502691896258
 41
5.029635815695896
 42
5.965938471868375
  0
ELLIPSE
  5
8027
330
8014
100
AcDbEntity
  8
0
100
AcDbEllipse
 10
0.0
 20
-17.3104568432707
 30
0.0
 11
-1.0381874636737
 21
0.0
 31
0.0
210
0.0
220
0.0
230
1.0
 40
0.5773502691896258
 41
0.3428647238191567
 42
1.227931602975739
  0
ELLIPSE
  5
8028
330
8014
100
AcDbEntity
  8
0
100
AcDbEllipse
 10
0.0
 20
-17.3104568432707
 30
0.0
 11
1.0381874636737
 21
0.0
 31
0.0
210
0.0
220
0.0
230
1.0
 40
0.5773502691896258
 41
5.055253704203842
 42
5.940320583360425
  0
ELLIPSE
  5
8029
330
8014
100
AcDbEntity
  8
0
100
AcDbEllipse
 10
0.0
 20
-17.35055234471418
 30
0.0
 11
-1.12324286657098
 21
0.0
 31
0.0
210
0.0
220
0.0
230
1.0
 40
0.5773502691896258
 41
0.5370373995881419
 42
1.033758927206752
  0
ELLIPSE
  5
802A
330
8014
100
AcDbEntity
  8
0
100
AcDbEllipse
 10
0.0
 20
-17.35055234471418
 30
0.0
 11
-1.123242866570979
 21
0.0000000000000672
 31
0.0
210
0.0
220
0.0
230
1.0
 40
0.5773502691896257
 41
2.107833726383278
 42
2.60455525400202
  0
ELLIPSE
  5
802B
330
8014
100
AcDbEntity
  8
0
100
AcDbEllipse
 10
0.0
 20
11.22682798775622
 30
0.0
 11
1.123242866570979
 21
0.0
 31
0.0
210
0.0
220
0.0
230
1.0
 40
0.5773502691896257
 41
2.906299384212426
 42
6.518478576556953
  0
ELLIPSE
  5
802C
330
8014
100
AcDbEntity
  8
0
100
AcDbEllipse
 10
0.0
 20
11.2669234891997
 30
0.0
 11
-1.0381874636737
 21
0.0000000000000001
 31
0.0
210
0.0
220
0.0
230
1.0
 40
0.5773502691896258
 41
0.1851882003449363
 42
2.956404453244861
  0
ELLIPSE
  5
802D
330
8014
100
AcDbEntity
  8
0
100
AcDbEllipse
 10
0.0
 20
-16.28983611711104
 30
0.0
 11
-1.0381874636737
 21
0.0000000000000001
 31
0.0
210
0.0
220
0.0
230
1.0
 40
0.5773502691896258
 41
0.1851882003449363
 42
2.956404453244861
  0
ELLIPSE
  5
802E
330
8014
100
AcDbEntity
  8
0
100
AcDbEllipse
 10
0.0
 20
-15.30931089239486
 30
0.0
 11
1.123242866570979
 21
0.0
 31
0.0
210
0.0
220
0.0
230
1.0
 40
0.5773502691896257
 41
2.906299384212426
 42
6.518478576556953
  0
ELLIPSE
  5
802F
330
8014
100
AcDbEntity
  8
0
100
AcDbEllipse
 10
0.0
 20
-15.26921539095139
 30
0.0
 11
-1.0381874636737
 21
0.0000000000000001
 31
0.0
210
0.0
220
0.0
230
1.0
 40
0.5773502691896258
 41
0.1851882003449363
 42
2.956404453244861
  0
ELLIPSE
  5
8030
330
8014
100
AcDbEntity
  8
0
100
AcDbEllipse
 10
0.0
 20
-15.58316947685728
 30
0.0
 11
1.263561225477097
 21
0.0000000000000001
 31
0.0
210
0.0
220
0.0
230
1.0
 40
0.5773502691896258
 41
3.326780853934726
 42
6.097997106834651
  0
ELLIPSE
  5
8031
330
8014
100
AcDbEntity
  8
0
100
AcDbEllipse
 10
0.0
 20
-14.28869016623521
 30
0.0
 11
1.123242866570979
 21
0.0
 31
0.0
210
0.0
220
0.0
230
1.0
 40
0.5773502691896257
 41
2.906299384212426
 42
6.518478576556953
  0
ELLIPSE
  5
8032
330
8014
100
AcDbEntity
  8
0
100
AcDbEllipse
 10
0.0
 20
-14.24859466479173
 30
0.0
 11
-1.0381874636737
 21
0.0000000000000001
 31
0.0
210
0.0
220
0.0
230
1.0
 40
0.5773502691896258
 41
0.1851882003449363
 42
2.956404453244861
  0
ELLIPSE
  5
8033
330
8014
100
AcDbEntity
  8
0
100
AcDbEllipse
 10
0.0
 20
-14.56254875069762
 30
0.0
 11
1.263561225477097
 21
0.0000000000000001
 31
0.0
210
0.0
220
0.0
230
1.0
 40
0.5773502691896258
 41
3.326780853934726
 42
6.097997106834651
  0
ELLIPSE
  5
8034
330
8014
100
AcDbEntity
  8
0
100
AcDbEllipse
 10
0.0
 20
-13.26806944007555
 30
0.0
 11
1.123242866570979
 21
0.0
 31
0.0
210
0.0
220
0.0
230
1.0
 40
0.5773502691896257
 41
2.906299384212426
 42
6.518478576556953
  0
ELLIPSE
  5
8035
330
8014
100
AcDbEntity
  8
0
100
AcDbEllipse
 10
0.0
 20
-13.22797393863207
 30
0.0
 11
-1.0381874636737
 21
0.0000000000000001
 31
0.0
210
0.0
220
0.0
230
1.0
 40
0.5773502691896258
 41
0.1851882003449363
 42
2.956404453244861
  0
ELLIPSE
  5
8036
330
8014
100
AcDbEntity
  8
0
100
AcDbEllipse
 10
0.0
 20
-13.54192802453797
 30
0.0
 11
1.263561225477097
 21
0.0000000000000001
 31
0.0
210
0.0
220
0.0
230
1.0
 40
0.5773502691896258
 41
3.326780853934726
 42
6.097997106834651
  0
ELLIPSE
  5
8037
330
8014
100
AcDbEntity
  8
0
100
AcDbEllipse
 10
0.0
 20
-12.24744871391589
 30
0.0
 11
1.123242866570979
 21
0.0
 31
0.0
210
0.0
220
0.0
230
1.0
 40
0.5773502691896257
 41
2.906299384212426
 42
6.518478576556953
  0
ELLIPSE
  5
8038
330
8014
100
AcDbEntity
  8
0
100
AcDbEllipse
 10
0.0
 20
-12.20735321247242
 30
0.0
 11
-1.0381874636737
 21
0.0000000000000001
 31
0.0
210
0.0
220
0.0
230
1.0
 40
0.5773502691896258
 41
0.1851882003449363
 42
2.956404453244861
  0
ELLIPSE
  5
8039
330
8014
100
AcDbEntity
  8
0
100
AcDbEllipse
 10
0.0
 20
-12.52130729837831
 30
0.0
 11
1.263561225477097
 21
0.0
 31
0.0
210
0.0
220
0.0
230
1.0
 40
0.5773502691896257
 41
3.326780853934726
 42
6.097997106834651
  0
ELLIPSE
  5
803A
330
8014
100
AcDbEntity
  8
0
100
AcDbEllipse
 10
0.0
 20
-11.22682798775623
 30
0.0
 11
1.123242866570979
 21
0.0
 31
0.0
210
0.0
220
0.0
230
1.0
 40
0.5773502691896257
 41
2.906299384212426
 42
6.518478576556953
  0
ELLIPSE
  5
803B
330
8014
100
AcDbEntity
  8
0
100
AcDbEllipse
 10
0.0
 20
-11.18673248631276
 30
0.0
 11
-1.0381874636737
 21
0.0000000000000001
 31
0.0
210
0.0
220
0.0
230
1.0
 40
0.5773502691896258
 41
0.1851882003449363
 42
2.956404453244861
  0
ELLIPSE
  5
803C
330
8014
100
AcDbEntity
  8
0
100
AcDbEllipse
 10
0.0
 20
-11.50068657221865
 30
0.0
 11
1.263561225477097
 21
0.0
 31
0.0
210
0.0
220
0.0
230
1.0
 40
0.5773502691896257
 41
3.326780853934726
 42
6.097997106834651
  0
ELLIPSE
  5
803D
330
8014
100
AcDbEntity
  8
0
100
AcDbEllipse
 10
0.0
 20
-10.20620726159658
 30
0.0
 11
1.123242866570979
 21
0.0
 31
0.0
210
0.0
220
0.0
230
1.0
 40
0.5773502691896257
 41
2.906299384212426
 42
6.518478576556953
  0
ELLIPSE
  5
803E
330
8014
100
AcDbEntity
  8
0
100
AcDbEllipse
 10
0.0
 20
-10.1661117601531
 30
0.0
 11
-1.0381874636737
 21
0.0000000000000001
 31
0.0
210
0.0
220
0.0
230
1.0
 40
0.5773502691896258
 41
0.1851882003449363
 42
2.956404453244861
  0
ELLIPSE
  5
803F
330
8014
100
AcDbEntity
  8
0
100
AcDbEllipse
 10
0.0
 20
-10.48006584605899
 30
0.0
 11
1.263561225477097
 21
0.0
 31
0.0
210
0.0
220
0.0
230
1.0
 40
0.5773502691896257
 41
3.326780853934726
 42
6.097997106834651
  0
ELLIPSE
  5
8040
330
8014
100
AcDbEntity
  8
0
100
AcDbEllipse
 10
0.0
 20
-9.185586535436925
 30
0.0
 11
1.123242866570979
 21
0.0
 31
0.0
210
0.0
220
0.0
230
1.0
 40
0.5773502691896257
 41
2.906299384212426
 42
6.518478576556951
  0
ELLIPSE
  5
8041
330
8014
100
AcDbEntity
  8
0
100
AcDbEllipse
 10
0.0
 20
-9.145491033993447
 30
0.0
 11
-1.0381874636737
 21
0.0000000000000001
 31
0.0
210
0.0
220
0.0
230
1.0
 40
0.5773502691896258
 41
0.1851882003449344
 42
2.956404453244859
  0
ELLIPSE
  5
8042
330
8014
100
AcDbEntity
  8
0
100
AcDbEllipse
 10
0.0
 20
-9.459445119899339
 30
0.0
 11
1.263561225477097
 21
0.0
 31
0.0
210
0.0
220
0.0
230
1.0
 40
0.5773502691896257
 41
3.326780853934727
 42
6.097997106834649
  0
ELLIPSE
  5
8043
330
8014
100
AcDbEntity
  8
0
100
AcDbEllipse
 10
0.0
 20
-8.164965809277266
 30
0.0
 11
1.123242866570979
 21
0.0
 31
0.0
210
0.0
220
0.0
230
1.0
 40
0.5773502691896257
 41
2.906299384212426
 42
6.518478576556951
  0
ELLIPSE
  5
8044
330
8014
100
AcDbEntity
  8
0
100
AcDbEllipse
 10
0.0
 20
-8.124870307833788
 30
0.0
 11
-1.0381874636737
 21
0.0000000000000001
 31
0.0
210
0.0
220
0.0
230
1.0
 40
0.5773502691896258
 41
0.1851882003449344
 42
2.956404453244859
  0
ELLIPSE
  5
8045
330
8014
100
AcDbEntity
  8
0
100
AcDbEllipse
 10
0.0
 20
-8.438824393739681
 30
0.0
 11
1.263561225477097
 21
0.0
 31
0.0
210
0.0
220
0.0
230
1.0
 40
0.5773502691896257
 41
3.326780853934727
 42
6.097997106834649
  0
ELLIPSE
  5
8046
330
8014
100
AcDbEntity
  8
0
100
AcDbEllipse
 10
0.0
 20
-7.144345083117609
 30
0.0
 11
1.123242866570979
 21
0.0
 31
0.0
210
0.0
220
0.0
230
1.0
 40
0.5773502691896257
 41
2.906299384212426
 42
6.518478576556951
  0
ELLIPSE
  5
8047
330
8014
100
AcDbEntity
  8
0
100
AcDbEllipse
 10
0.0
 20
-7.104249581674131
 30
0.0
 11
-1.0381874636737
 21
0.0000000000000001
 31
0.0
210
0.0
220
0.0
230
1.0
 40
0.5773502691896258
 41
0.1851882003449344
 42
2.956404453244859
  0
ELLIPSE
  5
8048
330
8014
100
AcDbEntity
  8
0
100
AcDbEllipse
 10
0.0
 20
-7.418203667580023
 30
0.0
 11
1.263561225477097
 21
0.0
 31
0.0
210
0.0
220
0.0
230
1.0
 40
0.5773502691896257
 41
3.326780853934727
 42
6.097997106834649
  0
ELLIPSE
  5
8049
330
8014
100
AcDbEntity
  8
0
100
AcDbEllipse
 10
0.0
 20
-6.123724356957951
 30
0.0
 11
1.123242866570979
 21
0.0
 31
0.0
210
0.0
220
0.0
230
1.0
 40
0.5773502691896257
 41
2.906299384212426
 42
6.518478576556951
  0
ELLIPSE
  5
804A
330
8014
100
AcDbEntity
  8
0
100
AcDbEllipse
 10
0.0
 20
-6.083628855514473
 30
0.0
 11
-1.0381874636737
 21
0.0000000000000001
 31
0.0
210
0.0
220
0.0
230
1.0
 40
0.5773502691896258
 41
0.1851882003449344
 42
2.956404453244859
  0
ELLIPSE
  5
804B
330
8014
100
AcDbEntity
  8
0
100
AcDbEllipse
 10
0.0
 20
-6.397582941420365
 30
0.0
 11
1.263561225477097
 21
0.0
 31
0.0
210
0.0
220
0.0
230
1.0
 40
0.5773502691896257
 41
3.326780853934727
 42
6.097997106834649
  0
ELLIPSE
  5
804C
330
8014
100
AcDbEntity
  8
0
100
AcDbEllipse
 10
0.0
 20
-5.103103630798293
 30
0.0
 11
1.123242866570979
 21
0.0
 31
0.0
210
0.0
220
0.0
230
1.0
 40
0.5773502691896257
 41
2.906299384212427
 42
6.518478576556952
  0
ELLIPSE
  5
804D
330
8014
100
AcDbEntity
  8
0
100
AcDbEllipse
 10
0.0
 20
-5.063008129354815
 30
0.0
 11
-1.0381874636737
 21
0.0000000000000001
 31
0.0
210
0.0
220
0.0
230
1.0
 40
0.5773502691896258
 41
0.1851882003449344
 42
2.956404453244859
  0
ELLIPSE
  5
804E
330
8014
100
AcDbEntity
  8
0
100
AcDbEllipse
 10
0.0
 20
-5.376962215260707
 30
0.0
 11
1.263561225477097
 21
0.0
 31
0.0
210
0.0
220
0.0
230
1.0
 40
0.5773502691896257
 41
3.326780853934727
 42
6.097997106834649
  0
ELLIPSE
  5
804F
330
8014
100
AcDbEntity
  8
0
100
AcDbEllipse
 10
0.0
 20
-4.082482904638635
 30
0.0
 11
1.123242866570979
 21
0.0
 31
0.0
210
0.0
220
0.0
230
1.0
 40
0.5773502691896257
 41
2.906299384212427
 42
6.518478576556952
  0
ELLIPSE
  5
8050
330
8014
100
AcDbEntity
  8
0
100
AcDbEllipse
 10
0.0
 20
-4.042387403195157
 30
0.0
 11
-1.0381874636737
 21
0.0000000000000001
 31
0.0
210
0.0
220
0.0
230
1.0
 40
0.5773502691896258
 41
0.1851882003449344
 42
2.956404453244858
  0
ELLIPSE
  5
8051
330
8014
100
AcDbEntity
  8
0
100
AcDbEllipse
 10
0.0
 20
-4.356341489101049
 30
0.0
 11
1.263561225477097
 21
0.0
 31
0.0
210
0.0
220
0.0
230
1.0
 40
0.5773502691896257
 41
3.326780853934726
 42
6.097997106834649
  0
ELLIPSE
  5
8052
330
8014
100
AcDbEntity
  8
0
100
AcDbEllipse
 10
0.0
 20
-3.061862178478977
 30
0.0
 11
1.123242866570979
 21
0.0
 31
0.0
210
0.0
220
0.0
230
1.0
 40
0.5773502691896257
 41
2.906299384212427
 42
6.518478576556952
  0
ELLIPSE
  5
8053
330
8014
100
AcDbEntity
  8
0
100
AcDbEllipse
 10
0.0
 20
-3.0217666770355
 30
0.0
 11
-1.0381874636737
 21
0.0000000000000001
 31
0.0
210
0.0
220
0.0
230
1.0
 40
0.5773502691896258
 41
0.1851882003449344
 42
2.956404453244858
  0
ELLIPSE
  5
8054
330
8014
100
AcDbEntity
  8
0
100
AcDbEllipse
 10
0.0
 20
-3.335720762941392
 30
0.0
 11
1.263561225477097
 21
0.0
 31
0.0
210
0.0
220
0.0
230
1.0
 40
0.5773502691896257
 41
3.326780853934726
 42
6.097997106834649
  0
ELLIPSE
  5
8055
330
8014
100
AcDbEntity
  8
0
100
AcDbEllipse
 10
0.0
 20
-2.04124145231932
 30
0.0
 11
1.123242866570979
 21
0.0
 31
0.0
210
0.0
220
0.0
230
1.0
 40
0.5773502691896257
 41
2.906299384212426
 42
6.518478576556951
  0
ELLIPSE
  5
8056
330
8014
100
AcDbEntity
  8
0
100
AcDbEllipse
 10
0.0
 20
-2.001145950875842
 30
0.0
 11
-1.0381874636737
 21
0.0000000000000001
 31
0.0
210
0.0
220
0.0
230
1.0
 40
0.5773502691896258
 41
0.1851882003449349
 42
2.956404453244858
  0
ELLIPSE
  5
8057
330
8014
100
AcDbEntity
  8
0
100
AcDbEllipse
 10
0.0
 20
-2.315100036781734
 30
0.0
 11
1.263561225477097
 21
0.0
 31
0.0
210
0.0
220
0.0
230
1.0
 40
0.5773502691896257
 41
3.326780853934726
 42
6.097997106834649
  0
ELLIPSE
  5
8058
330
8014
100
AcDbEntity
  8
0
100
AcDbEllipse
 10
0.0
 20
-1.020620726159662
 30
0.0
 11
1.123242866570979
 21
0.0
 31
0.0
210
0.0
220
0.0
230
1.0
 40
0.5773502691896257
 41
2.906299384212426
 42
6.518478576556951
  0
ELLIPSE
  5
8059
330
8014
100
AcDbEntity
  8
0
100
AcDbEllipse
 10
0.0
 20
-0.9805252247161844
 30
0.0
 11
-1.0381874636737
 21
0.0000000000000001
 31
0.0
210
0.0
220
0.0
230
1.0
 40
0.5773502691896258
 41
0.1851882003449349
 42
2.956404453244858
  0
ELLIPSE
  5
805A
330
8014
100
AcDbEntity
  8
0
100
AcDbEllipse
 10
0.0
 20
-1.294479310622076
 30
0.0
 11
1.263561225477097
 21
0.0
 31
0.0
210
0.0
220
0.0
230
1.0
 40
0.5773502691896257
 41
3.326780853934726
 42
6.097997106834649
  0
ELLIPSE
  5
805B
330
8014
100
AcDbEntity
  8
0
100
AcDbEllipse
 10
0.0
 20
-0.0000000000000044
 30
0.0
 11
1.123242866570979
 21
0.0
 31
0.0
210
0.0
220
0.0
230
1.0
 40
0.5773502691896257
 41
2.906299384212426
 42
6.518478576556951
  0
ELLIPSE
  5
805C
330
8014
100
AcDbEntity
  8
0
100
AcDbEllipse
 10
0.0
 20
0.0400955014434712
 30
0.0
 11
-1.0381874636737
 21
0.0000000000000001
 31
0.0
210
0.0
220
0.0
230
1.0
 40
0.5773502691896258
 41
0.1851882003449348
 42
2.956404453244858
  0
ELLIPSE
  5
805D
330
8014
100
AcDbEntity
  8
0
100
AcDbEllipse
 10
0.0
 20
-0.2738585844624186
 30
0.0
 11
1.263561225477097
 21
0.0
 31
0.0
210
0.0
220
0.0
230
1.0
 40
0.5773502691896257
 41
3.326780853934726
 42
6.09799710683465
  0
ELLIPSE
  5
805E
330
8014
100
AcDbEntity
  8
0
100
AcDbEllipse
 10
0.0
 20
1.020620726159653
 30
0.0
 11
1.123242866570979
 21
0.0
 31
0.0
210
0.0
220
0.0
230
1.0
 40
0.5773502691896257
 41
2.906299384212426
 42
6.518478576556951
  0
ELLIPSE
  5
805F
330
8014
100
AcDbEntity
  8
0
100
AcDbEllipse
 10
0.0
 20
1.060716227603129
 30
0.0
 11
-1.0381874636737
 21
0.0000000000000001
 31
0.0
210
0.0
220
0.0
230
1.0
 40
0.5773502691896258
 41
0.1851882003449349
 42
2.956404453244858
  0
ELLIPSE
  5
8060
330
8014
100
AcDbEntity
  8
0
100
AcDbEllipse
 10
0.0
 20
0.7467621416972392
 30
0.0
 11
1.263561225477097
 21
0.0
 31
0.0
210
0.0
220
0.0
230
1.0
 40
0.5773502691896257
 41
3.326780853934726
 42
6.09799710683465
  0
ELLIPSE
  5
8061
330
8014
100
AcDbEntity
  8
0
100
AcDbEllipse
 10
0.0
 20
2.041241452319311
 30
0.0
 11
1.123242866570979
 21
0.0
 31
0.0
210
0.0
220
0.0
230
1.0
 40
0.5773502691896257
 41
2.906299384212426
 42
6.518478576556951
  0
ELLIPSE
  5
8062
330
8014
100
AcDbEntity
  8
0
100
AcDbEllipse
 10
0.0
 20
2.081336953762786
 30
0.0
 11
-1.0381874636737
 21
0.0000000000000001
 31
0.0
210
0.0
220
0.0
230
1.0
 40
0.5773502691896258
 41
0.1851882003449349
 42
2.956404453244858
  0
ELLIPSE
  5
8063
330
8014
100
AcDbEntity
  8
0
100
AcDbEllipse
 10
0.0
 20
1.767382867856894
 30
0.0
 11
1.263561225477097
 21
0.0
 31
0.0
210
0.0
220
0.0
230
1.0
 40
0.5773502691896257
 41
3.326780853934726
 42
6.097997106834649
  0
ELLIPSE
  5
8064
330
8014
100
AcDbEntity
  8
0
100
AcDbEllipse
 10
0.0
 20
3.061862178478966
 30
0.0
 11
1.123242866570979
 21
0.0
 31
0.0
210
0.0
220
0.0
230
1.0
 40
0.5773502691896257
 41
2.906299384212427
 42
6.518478576556952
  0
ELLIPSE
  5
8065
330
8014
100
AcDbEntity
  8
0
100
AcDbEllipse
 10
0.0
 20
3.101957679922444
 30
0.0
 11
-1.0381874636737
 21
0.0000000000000001
 31
0.0
210
0.0
220
0.0
230
1.0
 40
0.5773502691896258
 41
0.1851882003449344
 42
2.956404453244858
  0
ELLIPSE
  5
8066
330
8014
100
AcDbEntity
  8
0
100
AcDbEllipse
 10
0.0
 20
2.788003594016552
 30
0.0
 11
1.263561225477097
 21
0.0
 31
0.0
210
0.0
220
0.0
230
1.0
 40
0.5773502691896257
 41
3.326780853934726
 42
6.097997106834649
  0
ELLIPSE
  5
8067
330
8014
100
AcDbEntity
  8
0
100
AcDbEllipse
 10
0.0
 20
4.082482904638624
 30
0.0
 11
1.123242866570979
 21
0.0
 31
0.0
210
0.0
220
0.0
230
1.0
 40
0.5773502691896257
 41
2.906299384212427
 42
6.518478576556952
  0
ELLIPSE
  5
8068
330
8014
100
AcDbEntity
  8
0
100
AcDbEllipse
 10
0.0
 20
4.122578406082102
 30
0.0
 11
-1.0381874636737
 21
0.0000000000000001
 31
0.0
210
0.0
220
0.0
230
1.0
 40
0.5773502691896258
 41
0.1851882003449344
 42
2.956404453244858
  0
ELLIPSE
  5
8069
330
8014
100
AcDbEntity
  8
0
100
AcDbEllipse
 10
0.0
 20
3.80862432017621
 30
0.0
 11
1.263561225477097
 21
0.0
 31
0.0
210
0.0
220
0.0
230
1.0
 40
0.5773502691896257
 41
3.326780853934726
 42
6.097997106834649
  0
ELLIPSE
  5
806A
330
8014
100
AcDbEntity
  8
0
100
AcDbEllipse
 10
0.0
 20
5.103103630798281
 30
0.0
 11
1.123242866570979
 21
0.0
 31
0.0
210
0.0
220
0.0
230
1.0
 40
0.5773502691896257
 41
2.906299384212426
 42
6.518478576556951
  0
ELLIPSE
  5
806B
330
8014
100
AcDbEntity
  8
0
100
AcDbEllipse
 10
0.0
 20
5.143199132241759
 30
0.0
 11
-1.0381874636737
 21
0.0000000000000001
 31
0.0
210
0.0
220
0.0
230
1.0
 40
0.5773502691896258
 41
0.1851882003449344
 42
2.956404453244859
  0
ELLIPSE
  5
806C
330
8014
100
AcDbEntity
  8
0
100
AcDbEllipse
 10
0.0
 20
4.829245046335868
 30
0.0
 11
1.263561225477097
 21
0.0
 31
0.0
210
0.0
220
0.0
230
1.0
 40
0.5773502691896257
 41
3.326780853934726
 42
6.097997106834649
  0
ELLIPSE
  5
806D
330
8014
100
AcDbEntity
  8
0
100
AcDbEllipse
 10
0.0
 20
6.123724356957939
 30
0.0
 11
1.123242866570979
 21
0.0
 31
0.0
210
0.0
220
0.0
230
1.0
 40
0.5773502691896257
 41
2.906299384212426
 42
6.518478576556951
  0
ELLIPSE
  5
806E
330
8014
100
AcDbEntity
  8
0
100
AcDbEllipse
 10
0.0
 20
6.163819858401417
 30
0.0
 11
-1.0381874636737
 21
0.0000000000000001
 31
0.0
210
0.0
220
0.0
230
1.0
 40
0.5773502691896258
 41
0.1851882003449344
 42
2.956404453244859
  0
ELLIPSE
  5
806F
330
8014
100
AcDbEntity
  8
0
100
AcDbEllipse
 10
0.0
 20
5.849865772495526
 30
0.0
 11
1.263561225477097
 21
0.0
 31
0.0
210
0.0
220
0.0
230
1.0
 40
0.5773502691896257
 41
3.326780853934727
 42
6.097997106834649
  0
ELLIPSE
  5
8070
330
8014
100
AcDbEntity
  8
0
100
AcDbEllipse
 10
0.0
 20
7.144345083117597
 30
0.0
 11
1.123242866570979
 21
0.0
 31
0.0
210
0.0
220
0.0
230
1.0
 40
0.5773502691896257
 41
2.906299384212426
 42
6.518478576556951
  0
ELLIPSE
  5
8071
330
8014
100
AcDbEntity
  8
0
100
AcDbEllipse
 10
0.0
 20
7.184440584561075
 30
0.0
 11
-1.0381874636737
 21
0.0000000000000001
 31
0.0
210
0.0
220
0.0
230
1.0
 40
0.5773502691896258
 41
0.1851882003449344
 42
2.956404453244859
  0
ELLIPSE
  5
8072
330
8014
100
AcDbEntity
  8
0
100
AcDbEllipse
 10
0.0
 20
6.870486498655184
 30
0.0
 11
1.263561225477097
 21
0.0
 31
0.0
210
0.0
220
0.0
230
1.0
 40
0.5773502691896257
 41
3.326780853934727
 42
6.097997106834649
  0
ELLIPSE
  5
8073
330
8014
100
AcDbEntity
  8
0
100
AcDbEllipse
 10
0.0
 20
8.164965809277255
 30
0.0
 11
1.123242866570979
 21
0.0
 31
0.0
210
0.0
220
0.0
230
1.0
 40
0.5773502691896257
 41
2.906299384212426
 42
6.518478576556951
  0
ELLIPSE
  5
8074
330
8014
100
AcDbEntity
  8
0
100
AcDbEllipse
 10
0.0
 20
8.205061310720731
 30
0.0
 11
-1.0381874636737
 21
0.0000000000000001
 31
0.0
210
0.0
220
0.0
230
1.0
 40
0.5773502691896258
 41
0.1851882003449344
 42
2.956404453244859
  0
ELLIPSE
  5
8075
330
8014
100
AcDbEntity
  8
0
100
AcDbEllipse
 10
0.0
 20
7.891107224814842
 30
0.0
 11
1.263561225477097
 21
0.0
 31
0.0
210
0.0
220
0.0
230
1.0
 40
0.5773502691896257
 41
3.326780853934727
 42
6.097997106834649
  0
ELLIPSE
  5
8076
330
8014
100
AcDbEntity
  8
0
100
AcDbEllipse
 10
0.0
 20
9.185586535436913
 30
0.0
 11
1.123242866570979
 21
0.0
 31
0.0
210
0.0
220
0.0
230
1.0
 40
0.5773502691896257
 41
2.906299384212426
 42
6.518478576556951
  0
ELLIPSE
  5
8077
330
8014
100
AcDbEntity
  8
0
100
AcDbEllipse
 10
0.0
 20
9.225682036880389
 30
0.0
 11
-1.0381874636737
 21
0.0000000000000001
 31
0.0
210
0.0
220
0.0
230
1.0
 40
0.5773502691896258
 41
0.1851882003449344
 42
2.956404453244859
  0
ELLIPSE
  5
8078
330
8014
100
AcDbEntity
  8
0
100
AcDbEllipse
 10
0.0
 20
8.911727950974499
 30
0.0
 11
1.263561225477097
 21
0.0
 31
0.0
210
0.0
220
0.0
230
1.0
 40
0.5773502691896257
 41
3.326780853934727
 42
6.097997106834649
  0
ELLIPSE
  5
8079
330
8014
100
AcDbEntity
  8
0
100
AcDbEllipse
 10
0.0
 20
10.20620726159657
 30
0.0
 11
1.123242866570979
 21
0.0
 31
0.0
210
0.0
220
0.0
230
1.0
 40
0.5773502691896257
 41
2.906299384212426
 42
6.518478576556953
  0
ELLIPSE
  5
807A
330
8014
100
AcDbEntity
  8
0
100
AcDbEllipse
 10
0.0
 20
10.24630276304004
 30
0.0
 11
-1.0381874636737
 21
0.0000000000000001
 31
0.0
210
0.0
220
0.0
230
1.0
 40
0.5773502691896258
 41
0.1851882003449363
 42
2.956404453244861
  0
ELLIPSE
  5
807B
330
8014
100
AcDbEntity
  8
0
100
AcDbEllipse
 10
0.0
 20
9.932348677134156
 30
0.0
 11
1.263561225477097
 21
0.0
 31
0.0
210
0.0
220
0.0
230
1.0
 40
0.5773502691896257
 41
3.326780853934727
 42
6.097997106834649
  0
ELLIPSE
  5
807C
330
8014
100
AcDbEntity
  8
0
100
AcDbEllipse
 10
0.0
 20
10.95296940329381
 30
0.0
 11
1.263561225477097
 21
0.0
 31
0.0
210
0.0
220
0.0
230
1.0
 40
0.5773502691896257
 41
3.326780853934726
 42
6.097997106834651
  0
SPLINE
  5
807D
330
8014
100
AcDbEntity
  8
0
100
AcDbSpline
210
0.0
220
0.0
230
1.0
 70
     8
 71
     3
 72
    10
 73
     6
 74
     0
 42
0.000000001
 43
0.0000000001
 40
2.547266884371513
 40
2.547266884371513
 40
2.547266884371513
 40
2.547266884371513
 40
2.792617652550301
 40
2.792617652550301
 40
2.795610429309343
 40
2.795610429309343
 40
2.795610429309343
 40
2.795610429309343
 10
-1.23999045719607
 20
-16.34004809915322
 30
0.0
 10
-1.212282565709276
 20
-16.25734643563195
 30
0.0
 10
-1.168702873496224
 20
-16.1820233346228
 30
0.0
 10
-1.114733038428179
 20
-16.11521742021838
 30
0.0
 10
-1.114081171909518
 20
-16.1144136598291
 30
0.0
 10
-1.113427835493925
 20
-16.11361121297946
 30
0.0
  0
SPLINE
  5
807E
330
8014
100
AcDbEntity
  8
0
100
AcDbSpline
210
0.0
220
0.0
230
1.0
 70
     8
 71
     3
 72
    10
 73
     6
 74
     0
 42
0.000000001
 43
0.0000000001
 40
5.058371204665139
 40
5.058371204665139
 40
5.058371204665139
 40
5.058371204665139
 40
5.217928795435508
 40
5.217928795435508
 40
5.306714749602964
 40
5.306714749602964
 40
5.306714749602964
 40
5.306714749602964
 10
1.113427835493924
 20
-16.11361121297946
 30
0.0
 10
1.148259963924363
 20
-16.15639304950094
 30
0.0
 10
1.178960280454028
 20
-16.20297816591756
 30
0.0
 10
1.217845056858301
 20
-16.28109250324405
 30
0.0
 10
1.229963704062649
 20
-16.31012055435082
 30
0.0
 10
1.239990457196068
 20
-16.34004809915322
 30
0.0
  0
SPLINE
  5
807F
330
8014
100
AcDbEntity
  8
0
100
AcDbSpline
210
0.0
220
0.0
230
1.0
 70
     8
 71
     3
 72
    12
 73
     8
 74
     0
 42
0.000000001
 43
0.0000000001
 40
2.171006289847356
 40
2.171006289847356
 40
2.171006289847356
 40
2.171006289847356
 40
2.415409818515438
 40
2.415409818515438
 40
2.646257521319893
 40
2.646257521319893
 40
2.795610429309343
 40
2.795610429309343
 40
2.795610429309343
 40
2.795610429309343
 10
-1.241956368442309
 20
-15.71749662652647
 30
0.0
 10
-1.268791143479476
 20
-15.63479401121948
 30
0.0
 10
-1.278954165393002
 20
-15.54505938637248
 30
0.0
 10
-1.26147995338971
 20
-15.37488476054344
 30
0.0
 10
-1.236279785098612
 20
-15.29491482646564
 30
0.0
 10
-1.175012041841645
 20
-15.1764051160483
 30
0.0
 10
-1.146032236496914
 20
-15.13303616351097
 30
0.0
 10
-1.113427835493925
 20
-15.0929904868198
 30
0.0
  0
SPLINE
  5
8080
330
8014
100
AcDbEntity
  8
0
100
AcDbSpline
210
0.0
220
0.0
230
1.0
 70
     8
 71
     3
 72
    12
 73
     8
 74
     0
 42
0.000000001
 43
0.0000000001
 40
5.05837120466514
 40
5.05837120466514
 40
5.05837120466514
 40
5.05837120466514
 40
5.336951236574295
 40
5.336951236574295
 40
5.57771454979081
 40
5.57771454979081
 40
5.682975344127125
 40
5.682975344127125
 40
5.682975344127125
 40
5.682975344127125
 10
1.113427835493925
 20
-15.0929904868198
 30
0.0
 10
1.174243089740152
 20
-15.1676855566422
 30
0.0
 10
1.222606416409741
 20
-15.25460968371886
 30
0.0
 10
1.272735034528148
 20
-15.43300133243659
 30
0.0
 10
1.279184372236283
 20
-15.52179483893606
 30
0.0
 10
1.262089464550069
 20
-15.64501569419867
 30
0.0
 10
1.2535136882226
 20
-15.68187789782666
 30
0.0
 10
1.241956368442309
 20
-15.71749662652647
 30
0.0
  0
LINE
  5
8081
330
8014
100
AcDbEntity
  8
0
100
AcDbLine
 10
-1.020436134117443
 20
-16.40020414677646
 30
0.0
 11
-1.241956368442333
 21
-15.71749662652643
 31
0.0
  0
LINE
  5
8082
330
8014
100
AcDbEntity
  8
0
100
AcDbLine
 10
1.020436134117443
 20
-16.40020414677646
 30
0.0
 11
1.241956368442333
 21
-15.71749662652643
 31
0.0
  0
SPLINE
  5
8083
330
8014
100
AcDbEntity
  8
0
100
AcDbSpline
210
0.0
220
0.0
230
1.0
 70
     8
 71
     3
 72
    12
 73
     8
 74
     0
 42
0.000000001
 43
0.0000000001
 40
2.171006289847356
 40
2.171006289847356
 40
2.171006289847356
 40
2.171006289847356
 40
2.415409818515438
 40
2.415409818515438
 40
2.646257521319893
 40
2.646257521319893
 40
2.795610429309343
 40
2.795610429309343
 40
2.795610429309343
 40
2.795610429309343
 10
-1.241956368442309
 20
-14.69687590036681
 30
0.0
 10
-1.268791143479476
 20
-14.61417328505982
 30
0.0
 10
-1.278954165393002
 20
-14.52443866021282
 30
0.0
 10
-1.26147995338971
 20
-14.35426403438378
 30
0.0
 10
-1.236279785098612
 20
-14.27429410030598
 30
0.0
 10
-1.175012041841645
 20
-14.15578438988864
 30
0.0
 10
-1.146032236496914
 20
-14.11241543735131
 30
0.0
 10
-1.113427835493925
 20
-14.07236976066014
 30
0.0
  0
SPLINE
  5
8084
330
8014
100
AcDbEntity
  8
0
100
AcDbSpline
210
0.0
220
0.0
230
1.0
 70
     8
 71
     3
 72
    12
 73
     8
 74
     0
 42
0.000000001
 43
0.0000000001
 40
5.05837120466514
 40
5.05837120466514
 40
5.05837120466514
 40
5.05837120466514
 40
5.336951236574295
 40
5.336951236574295
 40
5.57771454979081
 40
5.57771454979081
 40
5.682975344127125
 40
5.682975344127125
 40
5.682975344127125
 40
5.682975344127125
 10
1.113427835493925
 20
-14.07236976066015
 30
0.0
 10
1.174243089740152
 20
-14.14706483048254
 30
0.0
 10
1.222606416409741
 20
-14.2339889575592
 30
0.0
 10
1.272735034528148
 20
-14.41238060627694
 30
0.0
 10
1.279184372236283
 20
-14.50117411277641
 30
0.0
 10
1.262089464550069
 20
-14.62439496803902
 30
0.0
 10
1.2535136882226
 20
-14.661257171667
 30
0.0
 10
1.241956368442309
 20
-14.69687590036681
 30
0.0
  0
LINE
  5
8085
330
8014
100
AcDbEntity
  8
0
100
AcDbLine
 10
-1.020436134117443
 20
-15.37958342061681
 30
0.0
 11
-1.241956368442333
 21
-14.69687590036677
 31
0.0
  0
LINE
  5
8086
330
8014
100
AcDbEntity
  8
0
100
AcDbLine
 10
1.020436134117443
 20
-15.37958342061681
 30
0.0
 11
1.241956368442333
 21
-14.69687590036677
 31
0.0
  0
SPLINE
  5
8087
330
8014
100
AcDbEntity
  8
0
100
AcDbSpline
210
0.0
220
0.0
230
1.0
 70
     8
 71
     3
 72
    12
 73
     8
 74
     0
 42
0.000000001
 43
0.0000000001
 40
2.171006289847356
 40
2.171006289847356
 40
2.171006289847356
 40
2.171006289847356
 40
2.415409818515438
 40
2.415409818515438
 40
2.646257521319893
 40
2.646257521319893
 40
2.795610429309343
 40
2.795610429309343
 40
2.795610429309343
 40
2.795610429309343
 10
-1.241956368442309
 20
-13.67625517420715
 30
0.0
 10
-1.268791143479476
 20
-13.59355255890016
 30
0.0
 10
-1.278954165393002
 20
-13.50381793405317
 30
0.0
 10
-1.26147995338971
 20
-13.33364330822412
 30
0.0
 10
-1.236279785098612
 20
-13.25367337414633
 30
0.0
 10
-1.175012041841645
 20
-13.13516366372899
 30
0.0
 10
-1.146032236496914
 20
-13.09179471119165
 30
0.0
 10
-1.113427835493925
 20
-13.05174903450049
 30
0.0
  0
SPLINE
  5
8088
330
8014
100
AcDbEntity
  8
0
100
AcDbSpline
210
0.0
220
0.0
230
1.0
 70
     8
 71
     3
 72
    12
 73
     8
 74
     0
 42
0.000000001
 43
0.0000000001
 40
5.05837120466514
 40
5.05837120466514
 40
5.05837120466514
 40
5.05837120466514
 40
5.336951236574295
 40
5.336951236574295
 40
5.57771454979081
 40
5.57771454979081
 40
5.682975344127125
 40
5.682975344127125
 40
5.682975344127125
 40
5.682975344127125
 10
1.113427835493925
 20
-13.05174903450049
 30
0.0
 10
1.174243089740152
 20
-13.12644410432288
 30
0.0
 10
1.222606416409741
 20
-13.21336823139954
 30
0.0
 10
1.272735034528148
 20
-13.39175988011728
 30
0.0
 10
1.279184372236283
 20
-13.48055338661675
 30
0.0
 10
1.262089464550069
 20
-13.60377424187936
 30
0.0
 10
1.2535136882226
 20
-13.64063644550734
 30
0.0
 10
1.241956368442309
 20
-13.67625517420715
 30
0.0
  0
LINE
  5
8089
330
8014
100
AcDbEntity
  8
0
100
AcDbLine
 10
-1.020436134117443
 20
-14.35896269445715
 30
0.0
 11
-1.241956368442333
 21
-13.67625517420712
 31
0.0
  0
LINE
  5
808A
330
8014
100
AcDbEntity
  8
0
100
AcDbLine
 10
1.020436134117443
 20
-14.35896269445715
 30
0.0
 11
1.241956368442333
 21
-13.67625517420712
 31
0.0
  0
SPLINE
  5
808B
330
8014
100
AcDbEntity
  8
0
100
AcDbSpline
210
0.0
220
0.0
230
1.0
 70
     8
 71
     3
 72
    12
 73
     8
 74
     0
 42
0.000000001
 43
0.0000000001
 40
2.171006289847369
 40
2.171006289847369
 40
2.171006289847369
 40
2.171006289847369
 40
2.415409818515449
 40
2.415409818515449
 40
2.646257521319904
 40
2.646257521319904
 40
2.795610429309343
 40
2.795610429309343
 40
2.795610429309343
 40
2.795610429309343
 10
-1.241956368442313
 20
-12.65563444804748
 30
0.0
 10
-1.268791143479478
 20
-12.57293183274049
 30
0.0
 10
-1.278954165393002
 20
-12.48319720789349
 30
0.0
 10
-1.261479953389708
 20
-12.31302258206444
 30
0.0
 10
-1.236279785098608
 20
-12.23305264798665
 30
0.0
 10
-1.17501204184164
 20
-12.11454293756933
 30
0.0
 10
-1.146032236496912
 20
-12.07117398503199
 30
0.0
 10
-1.113427835493925
 20
-12.03112830834083
 30
0.0
  0
SPLINE
  5
808C
330
8014
100
AcDbEntity
  8
0
100
AcDbSpline
210
0.0
220
0.0
230
1.0
 70
     8
 71
     3
 72
    12
 73
     8
 74
     0
 42
0.000000001
 43
0.0000000001
 40
5.05837120466514
 40
5.05837120466514
 40
5.05837120466514
 40
5.05837120466514
 40
5.336951236574309
 40
5.336951236574309
 40
5.577714549790822
 40
5.577714549790822
 40
5.682975344127113
 40
5.682975344127113
 40
5.682975344127113
 40
5.682975344127113
 10
1.113427835493925
 20
-12.03112830834083
 30
0.0
 10
1.174243089740155
 20
-12.10582337816323
 30
0.0
 10
1.222606416409746
 20
-12.1927475052399
 30
0.0
 10
1.27273503452815
 20
-12.37113915395763
 30
0.0
 10
1.279184372236283
 20
-12.4599326604571
 30
0.0
 10
1.262089464550067
 20
-12.58315351571971
 30
0.0
 10
1.253513688222601
 20
-12.62001571934768
 30
0.0
 10
1.241956368442313
 20
-12.65563444804748
 30
0.0
  0
LINE
  5
808D
330
8014
100
AcDbEntity
  8
0
100
AcDbLine
 10
-1.020436134117443
 20
-13.33834196829749
 30
0.0
 11
-1.241956368442333
 21
-12.65563444804746
 31
0.0
  0
LINE
  5
808E
330
8014
100
AcDbEntity
  8
0
100
AcDbLine
 10
1.020436134117443
 20
-13.33834196829749
 30
0.0
 11
1.241956368442333
 21
-12.65563444804746
 31
0.0
  0
SPLINE
  5
808F
330
8014
100
AcDbEntity
  8
0
100
AcDbSpline
210
0.0
220
0.0
230
1.0
 70
     8
 71
     3
 72
    12
 73
     8
 74
     0
 42
0.000000001
 43
0.0000000001
 40
2.171006289847369
 40
2.171006289847369
 40
2.171006289847369
 40
2.171006289847369
 40
2.415409818515449
 40
2.415409818515449
 40
2.646257521319904
 40
2.646257521319904
 40
2.795610429309343
 40
2.795610429309343
 40
2.795610429309343
 40
2.795610429309343
 10
-1.241956368442313
 20
-11.63501372188783
 30
0.0
 10
-1.268791143479478
 20
-11.55231110658083
 30
0.0
 10
-1.278954165393002
 20
-11.46257648173383
 30
0.0
 10
-1.261479953389708
 20
-11.29240185590479
 30
0.0
 10
-1.236279785098608
 20
-11.212431921827
 30
0.0
 10
-1.17501204184164
 20
-11.09392221140967
 30
0.0
 10
-1.146032236496912
 20
-11.05055325887233
 30
0.0
 10
-1.113427835493925
 20
-11.01050758218117
 30
0.0
  0
SPLINE
  5
8090
330
8014
100
AcDbEntity
  8
0
100
AcDbSpline
210
0.0
220
0.0
230
1.0
 70
     8
 71
     3
 72
    12
 73
     8
 74
     0
 42
0.000000001
 43
0.0000000001
 40
5.05837120466514
 40
5.05837120466514
 40
5.05837120466514
 40
5.05837120466514
 40
5.336951236574309
 40
5.336951236574309
 40
5.577714549790822
 40
5.577714549790822
 40
5.682975344127113
 40
5.682975344127113
 40
5.682975344127113
 40
5.682975344127113
 10
1.113427835493925
 20
-11.01050758218117
 30
0.0
 10
1.174243089740155
 20
-11.08520265200358
 30
0.0
 10
1.222606416409746
 20
-11.17212677908024
 30
0.0
 10
1.27273503452815
 20
-11.35051842779797
 30
0.0
 10
1.279184372236283
 20
-11.43931193429745
 30
0.0
 10
1.262089464550067
 20
-11.56253278956005
 30
0.0
 10
1.253513688222601
 20
-11.59939499318802
 30
0.0
 10
1.241956368442313
 20
-11.63501372188783
 30
0.0
  0
LINE
  5
8091
330
8014
100
AcDbEntity
  8
0
100
AcDbLine
 10
-1.020436134117443
 20
-12.31772124213783
 30
0.0
 11
-1.241956368442333
 21
-11.6350137218878
 31
0.0
  0
LINE
  5
8092
330
8014
100
AcDbEntity
  8
0
100
AcDbLine
 10
1.020436134117443
 20
-12.31772124213783
 30
0.0
 11
1.241956368442333
 21
-11.6350137218878
 31
0.0
  0
SPLINE
  5
8093
330
8014
100
AcDbEntity
  8
0
100
AcDbSpline
210
0.0
220
0.0
230
1.0
 70
     8
 71
     3
 72
    12
 73
     8
 74
     0
 42
0.000000001
 43
0.0000000001
 40
2.171006289847369
 40
2.171006289847369
 40
2.171006289847369
 40
2.171006289847369
 40
2.415409818515449
 40
2.415409818515449
 40
2.646257521319904
 40
2.646257521319904
 40
2.795610429309343
 40
2.795610429309343
 40
2.795610429309343
 40
2.795610429309343
 10
-1.241956368442313
 20
-10.61439299572817
 30
0.0
 10
-1.268791143479478
 20
-10.53169038042117
 30
0.0
 10
-1.278954165393002
 20
-10.44195575557418
 30
0.0
 10
-1.261479953389708
 20
-10.27178112974513
 30
0.0
 10
-1.236279785098608
 20
-10.19181119566734
 30
0.0
 10
-1.17501204184164
 20
-10.07330148525001
 30
0.0
 10
-1.146032236496912
 20
-10.02993253271268
 30
0.0
 10
-1.113427835493925
 20
-9.989886856021517
 30
0.0
  0
SPLINE
  5
8094
330
8014
100
AcDbEntity
  8
0
100
AcDbSpline
210
0.0
220
0.0
230
1.0
 70
     8
 71
     3
 72
    12
 73
     8
 74
     0
 42
0.000000001
 43
0.0000000001
 40
5.05837120466514
 40
5.05837120466514
 40
5.05837120466514
 40
5.05837120466514
 40
5.336951236574309
 40
5.336951236574309
 40
5.577714549790822
 40
5.577714549790822
 40
5.682975344127113
 40
5.682975344127113
 40
5.682975344127113
 40
5.682975344127113
 10
1.113427835493925
 20
-9.989886856021525
 30
0.0
 10
1.174243089740155
 20
-10.06458192584392
 30
0.0
 10
1.222606416409746
 20
-10.15150605292058
 30
0.0
 10
1.27273503452815
 20
-10.32989770163831
 30
0.0
 10
1.279184372236283
 20
-10.41869120813779
 30
0.0
 10
1.262089464550067
 20
-10.54191206340039
 30
0.0
 10
1.253513688222601
 20
-10.57877426702836
 30
0.0
 10
1.241956368442313
 20
-10.61439299572817
 30
0.0
  0
LINE
  5
8095
330
8014
100
AcDbEntity
  8
0
100
AcDbLine
 10
-1.020436134117443
 20
-11.29710051597818
 30
0.0
 11
-1.241956368442333
 21
-10.61439299572814
 31
0.0
  0
LINE
  5
8096
330
8014
100
AcDbEntity
  8
0
100
AcDbLine
 10
1.020436134117443
 20
-11.29710051597818
 30
0.0
 11
1.241956368442333
 21
-10.61439299572814
 31
0.0
  0
SPLINE
  5
8097
330
8014
100
AcDbEntity
  8
0
100
AcDbSpline
210
0.0
220
0.0
230
1.0
 70
     8
 71
     3
 72
    12
 73
     8
 74
     0
 42
0.000000001
 43
0.0000000001
 40
2.171006289847369
 40
2.171006289847369
 40
2.171006289847369
 40
2.171006289847369
 40
2.415409818515449
 40
2.415409818515449
 40
2.646257521319904
 40
2.646257521319904
 40
2.795610429309343
 40
2.795610429309343
 40
2.795610429309343
 40
2.795610429309343
 10
-1.241956368442313
 20
-9.593772269568511
 30
0.0
 10
-1.268791143479478
 20
-9.511069654261516
 30
0.0
 10
-1.278954165393002
 20
-9.421335029414521
 30
0.0
 10
-1.261479953389708
 20
-9.251160403585476
 30
0.0
 10
-1.236279785098608
 20
-9.171190469507685
 30
0.0
 10
-1.17501204184164
 20
-9.052680759090353
 30
0.0
 10
-1.146032236496912
 20
-9.009311806553025
 30
0.0
 10
-1.113427835493925
 20
-8.969266129861859
 30
0.0
  0
SPLINE
  5
8098
330
8014
100
AcDbEntity
  8
0
100
AcDbSpline
210
0.0
220
0.0
230
1.0
 70
     8
 71
     3
 72
    12
 73
     8
 74
     0
 42
0.000000001
 43
0.0000000001
 40
5.05837120466514
 40
5.05837120466514
 40
5.05837120466514
 40
5.05837120466514
 40
5.336951236574309
 40
5.336951236574309
 40
5.577714549790822
 40
5.577714549790822
 40
5.682975344127113
 40
5.682975344127113
 40
5.682975344127113
 40
5.682975344127113
 10
1.113427835493925
 20
-8.969266129861859
 30
0.0
 10
1.174243089740155
 20
-9.043961199684261
 30
0.0
 10
1.222606416409746
 20
-9.130885326760921
 30
0.0
 10
1.27273503452815
 20
-9.309276975478656
 30
0.0
 10
1.279184372236283
 20
-9.398070481978134
 30
0.0
 10
1.262089464550067
 20
-9.521291337240738
 30
0.0
 10
1.253513688222601
 20
-9.558153540868708
 30
0.0
 10
1.241956368442313
 20
-9.593772269568511
 30
0.0
  0
LINE
  5
8099
330
8014
100
AcDbEntity
  8
0
100
AcDbLine
 10
-1.020436134117443
 20
-10.27647978981852
 30
0.0
 11
-1.241956368442333
 21
-9.593772269568487
 31
0.0
  0
LINE
  5
809A
330
8014
100
AcDbEntity
  8
0
100
AcDbLine
 10
1.020436134117443
 20
-10.27647978981852
 30
0.0
 11
1.241956368442333
 21
-9.593772269568487
 31
0.0
  0
SPLINE
  5
809B
330
8014
100
AcDbEntity
  8
0
100
AcDbSpline
210
0.0
220
0.0
230
1.0
 70
     8
 71
     3
 72
    12
 73
     8
 74
     0
 42
0.000000001
 43
0.0000000001
 40
2.171006289847369
 40
2.171006289847369
 40
2.171006289847369
 40
2.171006289847369
 40
2.415409818515449
 40
2.415409818515449
 40
2.646257521319904
 40
2.646257521319904
 40
2.795610429309343
 40
2.795610429309343
 40
2.795610429309343
 40
2.795610429309343
 10
-1.241956368442313
 20
-8.573151543408851
 30
0.0
 10
-1.268791143479478
 20
-8.490448928101859
 30
0.0
 10
-1.278954165393002
 20
-8.400714303254863
 30
0.0
 10
-1.261479953389708
 20
-8.230539677425818
 30
0.0
 10
-1.236279785098608
 20
-8.150569743348029
 30
0.0
 10
-1.17501204184164
 20
-8.032060032930697
 30
0.0
 10
-1.146032236496912
 20
-7.988691080393368
 30
0.0
 10
-1.113427835493925
 20
-7.948645403702201
 30
0.0
  0
SPLINE
  5
809C
330
8014
100
AcDbEntity
  8
0
100
AcDbSpline
210
0.0
220
0.0
230
1.0
 70
     8
 71
     3
 72
    12
 73
     8
 74
     0
 42
0.000000001
 43
0.0000000001
 40
5.05837120466514
 40
5.05837120466514
 40
5.05837120466514
 40
5.05837120466514
 40
5.336951236574309
 40
5.336951236574309
 40
5.577714549790822
 40
5.577714549790822
 40
5.682975344127113
 40
5.682975344127113
 40
5.682975344127113
 40
5.682975344127113
 10
1.113427835493925
 20
-7.948645403702201
 30
0.0
 10
1.174243089740155
 20
-8.023340473524601
 30
0.0
 10
1.222606416409746
 20
-8.110264600601265
 30
0.0
 10
1.27273503452815
 20
-8.288656249319004
 30
0.0
 10
1.279184372236283
 20
-8.37744975581848
 30
0.0
 10
1.262089464550067
 20
-8.50067061108108
 30
0.0
 10
1.253513688222601
 20
-8.537532814709049
 30
0.0
 10
1.241956368442313
 20
-8.573151543408851
 30
0.0
  0
LINE
  5
809D
330
8014
100
AcDbEntity
  8
0
100
AcDbLine
 10
-1.020436134117443
 20
-9.255859063658862
 30
0.0
 11
-1.241956368442333
 21
-8.57315154340883
 31
0.0
  0
LINE
  5
809E
330
8014
100
AcDbEntity
  8
0
100
AcDbLine
 10
1.020436134117443
 20
-9.255859063658862
 30
0.0
 11
1.241956368442333
 21
-8.57315154340883
 31
0.0
  0
SPLINE
  5
809F
330
8014
100
AcDbEntity
  8
0
100
AcDbSpline
210
0.0
220
0.0
230
1.0
 70
     8
 71
     3
 72
    12
 73
     8
 74
     0
 42
0.000000001
 43
0.0000000001
 40
2.171006289847369
 40
2.171006289847369
 40
2.171006289847369
 40
2.171006289847369
 40
2.415409818515449
 40
2.415409818515449
 40
2.646257521319904
 40
2.646257521319904
 40
2.795610429309343
 40
2.795610429309343
 40
2.795610429309343
 40
2.795610429309343
 10
-1.241956368442313
 20
-7.552530817249194
 30
0.0
 10
-1.268791143479478
 20
-7.469828201942201
 30
0.0
 10
-1.278954165393002
 20
-7.380093577095205
 30
0.0
 10
-1.261479953389708
 20
-7.209918951266161
 30
0.0
 10
-1.236279785098608
 20
-7.12994901718837
 30
0.0
 10
-1.17501204184164
 20
-7.011439306771038
 30
0.0
 10
-1.146032236496912
 20
-6.96807035423371
 30
0.0
 10
-1.113427835493925
 20
-6.928024677542543
 30
0.0
  0
SPLINE
  5
80A0
330
8014
100
AcDbEntity
  8
0
100
AcDbSpline
210
0.0
220
0.0
230
1.0
 70
     8
 71
     3
 72
    12
 73
     8
 74
     0
 42
0.000000001
 43
0.0000000001
 40
5.05837120466514
 40
5.05837120466514
 40
5.05837120466514
 40
5.05837120466514
 40
5.336951236574309
 40
5.336951236574309
 40
5.577714549790822
 40
5.577714549790822
 40
5.682975344127113
 40
5.682975344127113
 40
5.682975344127113
 40
5.682975344127113
 10
1.113427835493925
 20
-6.928024677542543
 30
0.0
 10
1.174243089740155
 20
-7.002719747364949
 30
0.0
 10
1.222606416409746
 20
-7.089643874441606
 30
0.0
 10
1.27273503452815
 20
-7.268035523159346
 30
0.0
 10
1.279184372236283
 20
-7.356829029658822
 30
0.0
 10
1.262089464550067
 20
-7.480049884921422
 30
0.0
 10
1.253513688222601
 20
-7.516912088549392
 30
0.0
 10
1.241956368442313
 20
-7.552530817249194
 30
0.0
  0
LINE
  5
80A1
330
8014
100
AcDbEntity
  8
0
100
AcDbLine
 10
-1.020436134117443
 20
-8.235238337499204
 30
0.0
 11
-1.241956368442333
 21
-7.552530817249176
 31
0.0
  0
LINE
  5
80A2
330
8014
100
AcDbEntity
  8
0
100
AcDbLine
 10
1.020436134117443
 20
-8.235238337499204
 30
0.0
 11
1.241956368442333
 21
-7.552530817249176
 31
0.0
  0
SPLINE
  5
80A3
330
8014
100
AcDbEntity
  8
0
100
AcDbSpline
210
0.0
220
0.0
230
1.0
 70
     8
 71
     3
 72
    12
 73
     8
 74
     0
 42
0.000000001
 43
0.0000000001
 40
2.171006289847369
 40
2.171006289847369
 40
2.171006289847369
 40
2.171006289847369
 40
2.415409818515449
 40
2.415409818515449
 40
2.646257521319904
 40
2.646257521319904
 40
2.795610429309343
 40
2.795610429309343
 40
2.795610429309343
 40
2.795610429309343
 10
-1.241956368442313
 20
-6.531910091089536
 30
0.0
 10
-1.268791143479478
 20
-6.449207475782543
 30
0.0
 10
-1.278954165393002
 20
-6.359472850935548
 30
0.0
 10
-1.261479953389708
 20
-6.189298225106503
 30
0.0
 10
-1.236279785098608
 20
-6.109328291028712
 30
0.0
 10
-1.17501204184164
 20
-5.990818580611385
 30
0.0
 10
-1.146032236496912
 20
-5.947449628074052
 30
0.0
 10
-1.113427835493925
 20
-5.907403951382885
 30
0.0
  0
SPLINE
  5
80A4
330
8014
100
AcDbEntity
  8
0
100
AcDbSpline
210
0.0
220
0.0
230
1.0
 70
     8
 71
     3
 72
    12
 73
     8
 74
     0
 42
0.000000001
 43
0.0000000001
 40
5.05837120466514
 40
5.05837120466514
 40
5.05837120466514
 40
5.05837120466514
 40
5.336951236574309
 40
5.336951236574309
 40
5.577714549790822
 40
5.577714549790822
 40
5.682975344127113
 40
5.682975344127113
 40
5.682975344127113
 40
5.682975344127113
 10
1.113427835493925
 20
-5.907403951382885
 30
0.0
 10
1.174243089740155
 20
-5.982099021205291
 30
0.0
 10
1.222606416409746
 20
-6.069023148281948
 30
0.0
 10
1.27273503452815
 20
-6.247414796999688
 30
0.0
 10
1.279184372236283
 20
-6.336208303499164
 30
0.0
 10
1.262089464550067
 20
-6.459429158761764
 30
0.0
 10
1.253513688222601
 20
-6.496291362389734
 30
0.0
 10
1.241956368442313
 20
-6.531910091089536
 30
0.0
  0
LINE
  5
80A5
330
8014
100
AcDbEntity
  8
0
100
AcDbLine
 10
-1.020436134117443
 20
-7.214617611339546
 30
0.0
 11
-1.241956368442333
 21
-6.531910091089518
 31
0.0
  0
LINE
  5
80A6
330
8014
100
AcDbEntity
  8
0
100
AcDbLine
 10
1.020436134117443
 20
-7.214617611339546
 30
0.0
 11
1.241956368442333
 21
-6.531910091089518
 31
0.0
  0
SPLINE
  5
80A7
330
8014
100
AcDbEntity
  8
0
100
AcDbSpline
210
0.0
220
0.0
230
1.0
 70
     8
 71
     3
 72
    12
 73
     8
 74
     0
 42
0.000000001
 43
0.0000000001
 40
2.171006289847369
 40
2.171006289847369
 40
2.171006289847369
 40
2.171006289847369
 40
2.415409818515449
 40
2.415409818515449
 40
2.646257521319904
 40
2.646257521319904
 40
2.795610429309343
 40
2.795610429309343
 40
2.795610429309343
 40
2.795610429309343
 10
-1.241956368442313
 20
-5.511289364929878
 30
0.0
 10
-1.268791143479478
 20
-5.428586749622885
 30
0.0
 10
-1.278954165393002
 20
-5.33885212477589
 30
0.0
 10
-1.261479953389708
 20
-5.168677498946845
 30
0.0
 10
-1.236279785098608
 20
-5.088707564869054
 30
0.0
 10
-1.17501204184164
 20
-4.970197854451727
 30
0.0
 10
-1.146032236496912
 20
-4.926828901914395
 30
0.0
 10
-1.113427835493925
 20
-4.886783225223227
 30
0.0
  0
SPLINE
  5
80A8
330
8014
100
AcDbEntity
  8
0
100
AcDbSpline
210
0.0
220
0.0
230
1.0
 70
     8
 71
     3
 72
    12
 73
     8
 74
     0
 42
0.000000001
 43
0.0000000001
 40
5.05837120466514
 40
5.05837120466514
 40
5.05837120466514
 40
5.05837120466514
 40
5.336951236574309
 40
5.336951236574309
 40
5.577714549790822
 40
5.577714549790822
 40
5.682975344127113
 40
5.682975344127113
 40
5.682975344127113
 40
5.682975344127113
 10
1.113427835493925
 20
-4.886783225223227
 30
0.0
 10
1.174243089740155
 20
-4.961478295045633
 30
0.0
 10
1.222606416409746
 20
-5.048402422122291
 30
0.0
 10
1.27273503452815
 20
-5.22679407084003
 30
0.0
 10
1.279184372236283
 20
-5.315587577339506
 30
0.0
 10
1.262089464550067
 20
-5.438808432602106
 30
0.0
 10
1.253513688222601
 20
-5.475670636230081
 30
0.0
 10
1.241956368442313
 20
-5.511289364929878
 30
0.0
  0
LINE
  5
80A9
330
8014
100
AcDbEntity
  8
0
100
AcDbLine
 10
-1.020436134117443
 20
-6.193996885179888
 30
0.0
 11
-1.241956368442333
 21
-5.511289364929861
 31
0.0
  0
LINE
  5
80AA
330
8014
100
AcDbEntity
  8
0
100
AcDbLine
 10
1.020436134117443
 20
-6.193996885179888
 30
0.0
 11
1.241956368442333
 21
-5.511289364929861
 31
0.0
  0
SPLINE
  5
80AB
330
8014
100
AcDbEntity
  8
0
100
AcDbSpline
210
0.0
220
0.0
230
1.0
 70
     8
 71
     3
 72
    12
 73
     8
 74
     0
 42
0.000000001
 43
0.0000000001
 40
2.171006289847369
 40
2.171006289847369
 40
2.171006289847369
 40
2.171006289847369
 40
2.415409818515449
 40
2.415409818515449
 40
2.646257521319904
 40
2.646257521319904
 40
2.795610429309343
 40
2.795610429309343
 40
2.795610429309343
 40
2.795610429309343
 10
-1.241956368442313
 20
-4.490668638770221
 30
0.0
 10
-1.268791143479478
 20
-4.407966023463227
 30
0.0
 10
-1.278954165393002
 20
-4.318231398616232
 30
0.0
 10
-1.261479953389708
 20
-4.148056772787187
 30
0.0
 10
-1.236279785098608
 20
-4.068086838709397
 30
0.0
 10
-1.17501204184164
 20
-3.949577128292069
 30
0.0
 10
-1.146032236496912
 20
-3.906208175754737
 30
0.0
 10
-1.113427835493925
 20
-3.86616249906357
 30
0.0
  0
SPLINE
  5
80AC
330
8014
100
AcDbEntity
  8
0
100
AcDbSpline
210
0.0
220
0.0
230
1.0
 70
     8
 71
     3
 72
    12
 73
     8
 74
     0
 42
0.000000001
 43
0.0000000001
 40
5.05837120466514
 40
5.05837120466514
 40
5.05837120466514
 40
5.05837120466514
 40
5.336951236574309
 40
5.336951236574309
 40
5.577714549790822
 40
5.577714549790822
 40
5.682975344127113
 40
5.682975344127113
 40
5.682975344127113
 40
5.682975344127113
 10
1.113427835493925
 20
-3.866162499063579
 30
0.0
 10
1.174243089740155
 20
-3.940857568885975
 30
0.0
 10
1.222606416409746
 20
-4.027781695962637
 30
0.0
 10
1.27273503452815
 20
-4.206173344680372
 30
0.0
 10
1.279184372236283
 20
-4.294966851179848
 30
0.0
 10
1.262089464550067
 20
-4.418187706442449
 30
0.0
 10
1.253513688222601
 20
-4.455049910070423
 30
0.0
 10
1.241956368442313
 20
-4.490668638770221
 30
0.0
  0
LINE
  5
80AD
330
8014
100
AcDbEntity
  8
0
100
AcDbLine
 10
-1.020436134117443
 20
-5.17337615902023
 30
0.0
 11
-1.241956368442333
 21
-4.490668638770203
 31
0.0
  0
LINE
  5
80AE
330
8014
100
AcDbEntity
  8
0
100
AcDbLine
 10
1.020436134117443
 20
-5.17337615902023
 30
0.0
 11
1.241956368442333
 21
-4.490668638770203
 31
0.0
  0
SPLINE
  5
80AF
330
8014
100
AcDbEntity
  8
0
100
AcDbSpline
210
0.0
220
0.0
230
1.0
 70
     8
 71
     3
 72
    12
 73
     8
 74
     0
 42
0.000000001
 43
0.0000000001
 40
2.171006289847369
 40
2.171006289847369
 40
2.171006289847369
 40
2.171006289847369
 40
2.415409818515449
 40
2.415409818515449
 40
2.646257521319904
 40
2.646257521319904
 40
2.795610429309343
 40
2.795610429309343
 40
2.795610429309343
 40
2.795610429309343
 10
-1.241956368442313
 20
-3.470047912610563
 30
0.0
 10
-1.268791143479478
 20
-3.38734529730357
 30
0.0
 10
-1.278954165393002
 20
-3.297610672456574
 30
0.0
 10
-1.261479953389708
 20
-3.127436046627529
 30
0.0
 10
-1.236279785098608
 20
-3.047466112549739
 30
0.0
 10
-1.17501204184164
 20
-2.928956402132412
 30
0.0
 10
-1.146032236496912
 20
-2.885587449595079
 30
0.0
 10
-1.113427835493925
 20
-2.845541772903912
 30
0.0
  0
SPLINE
  5
80B0
330
8014
100
AcDbEntity
  8
0
100
AcDbSpline
210
0.0
220
0.0
230
1.0
 70
     8
 71
     3
 72
    12
 73
     8
 74
     0
 42
0.000000001
 43
0.0000000001
 40
5.05837120466514
 40
5.05837120466514
 40
5.05837120466514
 40
5.05837120466514
 40
5.336951236574309
 40
5.336951236574309
 40
5.577714549790822
 40
5.577714549790822
 40
5.682975344127113
 40
5.682975344127113
 40
5.682975344127113
 40
5.682975344127113
 10
1.113427835493925
 20
-2.845541772903912
 30
0.0
 10
1.174243089740155
 20
-2.920236842726318
 30
0.0
 10
1.222606416409746
 20
-3.007160969802979
 30
0.0
 10
1.27273503452815
 20
-3.185552618520715
 30
0.0
 10
1.279184372236283
 20
-3.274346125020191
 30
0.0
 10
1.262089464550067
 20
-3.397566980282791
 30
0.0
 10
1.253513688222601
 20
-3.434429183910765
 30
0.0
 10
1.241956368442313
 20
-3.470047912610563
 30
0.0
  0
LINE
  5
80B1
330
8014
100
AcDbEntity
  8
0
100
AcDbLine
 10
-1.020436134117443
 20
-4.152755432860573
 30
0.0
 11
-1.241956368442333
 21
-3.470047912610545
 31
0.0
  0
LINE
  5
80B2
330
8014
100
AcDbEntity
  8
0
100
AcDbLine
 10
1.020436134117443
 20
-4.152755432860573
 30
0.0
 11
1.241956368442333
 21
-3.470047912610545
 31
0.0
  0
SPLINE
  5
80B3
330
8014
100
AcDbEntity
  8
0
100
AcDbSpline
210
0.0
220
0.0
230
1.0
 70
     8
 71
     3
 72
    12
 73
     8
 74
     0
 42
0.000000001
 43
0.0000000001
 40
2.171006289847369
 40
2.171006289847369
 40
2.171006289847369
 40
2.171006289847369
 40
2.415409818515449
 40
2.415409818515449
 40
2.646257521319904
 40
2.646257521319904
 40
2.795610429309343
 40
2.795610429309343
 40
2.795610429309343
 40
2.795610429309343
 10
-1.241956368442313
 20
-2.449427186450905
 30
0.0
 10
-1.268791143479478
 20
-2.366724571143912
 30
0.0
 10
-1.278954165393002
 20
-2.276989946296921
 30
0.0
 10
-1.261479953389708
 20
-2.106815320467871
 30
0.0
 10
-1.236279785098608
 20
-2.026845386390081
 30
0.0
 10
-1.17501204184164
 20
-1.908335675972754
 30
0.0
 10
-1.146032236496912
 20
-1.864966723435421
 30
0.0
 10
-1.113427835493925
 20
-1.824921046744254
 30
0.0
  0
SPLINE
  5
80B4
330
8014
100
AcDbEntity
  8
0
100
AcDbSpline
210
0.0
220
0.0
230
1.0
 70
     8
 71
     3
 72
    12
 73
     8
 74
     0
 42
0.000000001
 43
0.0000000001
 40
5.05837120466514
 40
5.05837120466514
 40
5.05837120466514
 40
5.05837120466514
 40
5.336951236574309
 40
5.336951236574309
 40
5.577714549790822
 40
5.577714549790822
 40
5.682975344127113
 40
5.682975344127113
 40
5.682975344127113
 40
5.682975344127113
 10
1.113427835493925
 20
-1.824921046744254
 30
0.0
 10
1.174243089740155
 20
-1.89961611656666
 30
0.0
 10
1.222606416409746
 20
-1.986540243643322
 30
0.0
 10
1.27273503452815
 20
-2.164931892361057
 30
0.0
 10
1.279184372236283
 20
-2.253725398860533
 30
0.0
 10
1.262089464550067
 20
-2.376946254123133
 30
0.0
 10
1.253513688222601
 20
-2.413808457751107
 30
0.0
 10
1.241956368442313
 20
-2.449427186450905
 30
0.0
  0
LINE
  5
80B5
330
8014
100
AcDbEntity
  8
0
100
AcDbLine
 10
-1.020436134117443
 20
-3.132134706700915
 30
0.0
 11
-1.241956368442333
 21
-2.449427186450887
 31
0.0
  0
LINE
  5
80B6
330
8014
100
AcDbEntity
  8
0
100
AcDbLine
 10
1.020436134117443
 20
-3.132134706700915
 30
0.0
 11
1.241956368442333
 21
-2.449427186450887
 31
0.0
  0
SPLINE
  5
80B7
330
8014
100
AcDbEntity
  8
0
100
AcDbSpline
210
0.0
220
0.0
230
1.0
 70
     8
 71
     3
 72
    12
 73
     8
 74
     0
 42
0.000000001
 43
0.0000000001
 40
2.171006289847369
 40
2.171006289847369
 40
2.171006289847369
 40
2.171006289847369
 40
2.415409818515449
 40
2.415409818515449
 40
2.646257521319904
 40
2.646257521319904
 40
2.795610429309343
 40
2.795610429309343
 40
2.795610429309343
 40
2.795610429309343
 10
-1.241956368442313
 20
-1.428806460291247
 30
0.0
 10
-1.268791143479478
 20
-1.346103844984254
 30
0.0
 10
-1.278954165393002
 20
-1.256369220137263
 30
0.0
 10
-1.261479953389708
 20
-1.086194594308214
 30
0.0
 10
-1.236279785098608
 20
-1.006224660230423
 30
0.0
 10
-1.17501204184164
 20
-0.8877149498130965
 30
0.0
 10
-1.146032236496912
 20
-0.8443459972757638
 30
0.0
 10
-1.113427835493925
 20
-0.8043003205845966
 30
0.0
  0
SPLINE
  5
80B8
330
8014
100
AcDbEntity
  8
0
100
AcDbSpline
210
0.0
220
0.0
230
1.0
 70
     8
 71
     3
 72
    12
 73
     8
 74
     0
 42
0.000000001
 43
0.0000000001
 40
5.05837120466514
 40
5.05837120466514
 40
5.05837120466514
 40
5.05837120466514
 40
5.336951236574309
 40
5.336951236574309
 40
5.577714549790822
 40
5.577714549790822
 40
5.682975344127113
 40
5.682975344127113
 40
5.682975344127113
 40
5.682975344127113
 10
1.113427835493925
 20
-0.8043003205845966
 30
0.0
 10
1.174243089740155
 20
-0.8789953904070024
 30
0.0
 10
1.222606416409746
 20
-0.9659195174836643
 30
0.0
 10
1.27273503452815
 20
-1.144311166201399
 30
0.0
 10
1.279184372236283
 20
-1.233104672700875
 30
0.0
 10
1.262089464550067
 20
-1.356325527963475
 30
0.0
 10
1.253513688222601
 20
-1.393187731591449
 30
0.0
 10
1.241956368442313
 20
-1.428806460291247
 30
0.0
  0
LINE
  5
80B9
330
8014
100
AcDbEntity
  8
0
100
AcDbLine
 10
-1.020436134117443
 20
-2.111513980541257
 30
0.0
 11
-1.241956368442333
 21
-1.428806460291229
 31
0.0
  0
LINE
  5
80BA
330
8014
100
AcDbEntity
  8
0
100
AcDbLine
 10
1.020436134117443
 20
-2.111513980541257
 30
0.0
 11
1.241956368442333
 21
-1.428806460291229
 31
0.0
  0
SPLINE
  5
80BB
330
8014
100
AcDbEntity
  8
0
100
AcDbSpline
210
0.0
220
0.0
230
1.0
 70
     8
 71
     3
 72
    12
 73
     8
 74
     0
 42
0.000000001
 43
0.0000000001
 40
2.171006289847369
 40
2.171006289847369
 40
2.171006289847369
 40
2.171006289847369
 40
2.415409818515449
 40
2.415409818515449
 40
2.646257521319904
 40
2.646257521319904
 40
2.795610429309343
 40
2.795610429309343
 40
2.795610429309343
 40
2.795610429309343
 10
-1.241956368442313
 20
-0.408185734131592
 30
0.0
 10
-1.268791143479478
 20
-0.3254831188245966
 30
0.0
 10
-1.278954165393002
 20
-0.2357484939776033
 30
0.0
 10
-1.261479953389708
 20
-0.0655738681485585
 30
0.0
 10
-1.236279785098608
 20
0.0143960659292319
 30
0.0
 10
-1.17501204184164
 20
0.1329057763465591
 30
0.0
 10
-1.146032236496912
 20
0.1762747288838917
 30
0.0
 10
-1.113427835493925
 20
0.2163204055750567
 30
0.0
  0
SPLINE
  5
80BC
330
8014
100
AcDbEntity
  8
0
100
AcDbSpline
210
0.0
220
0.0
230
1.0
 70
     8
 71
     3
 72
    12
 73
     8
 74
     0
 42
0.000000001
 43
0.0000000001
 40
5.05837120466514
 40
5.05837120466514
 40
5.05837120466514
 40
5.05837120466514
 40
5.336951236574309
 40
5.336951236574309
 40
5.577714549790822
 40
5.577714549790822
 40
5.682975344127113
 40
5.682975344127113
 40
5.682975344127113
 40
5.682975344127113
 10
1.113427835493925
 20
0.2163204055750567
 30
0.0
 10
1.174243089740155
 20
0.1416253357526553
 30
0.0
 10
1.222606416409746
 20
0.0547012086759935
 30
0.0
 10
1.27273503452815
 20
-0.1236904400417438
 30
0.0
 10
1.279184372236283
 20
-0.2124839465412176
 30
0.0
 10
1.262089464550067
 20
-0.33570480180382
 30
0.0
 10
1.253513688222601
 20
-0.3725670054317898
 30
0.0
 10
1.241956368442313
 20
-0.408185734131592
 30
0.0
  0
LINE
  5
80BD
330
8014
100
AcDbEntity
  8
0
100
AcDbLine
 10
-1.020436134117443
 20
-1.090893254381599
 30
0.0
 11
-1.241956368442333
 21
-0.4081857341315698
 31
0.0
  0
LINE
  5
80BE
330
8014
100
AcDbEntity
  8
0
100
AcDbLine
 10
1.020436134117443
 20
-1.090893254381599
 30
0.0
 11
1.241956368442333
 21
-0.4081857341315698
 31
0.0
  0
SPLINE
  5
80BF
330
8014
100
AcDbEntity
  8
0
100
AcDbSpline
210
0.0
220
0.0
230
1.0
 70
     8
 71
     3
 72
    12
 73
     8
 74
     0
 42
0.000000001
 43
0.0000000001
 40
2.171006289847369
 40
2.171006289847369
 40
2.171006289847369
 40
2.171006289847369
 40
2.415409818515449
 40
2.415409818515449
 40
2.646257521319904
 40
2.646257521319904
 40
2.795610429309343
 40
2.795610429309343
 40
2.795610429309343
 40
2.795610429309343
 10
-1.241956368442313
 20
0.6124349920280659
 30
0.0
 10
-1.268791143479478
 20
0.6951376073350613
 30
0.0
 10
-1.278954165393002
 20
0.7848722321820545
 30
0.0
 10
-1.261479953389708
 20
0.9550468580110971
 30
0.0
 10
-1.236279785098608
 20
1.035016792088887
 30
0.0
 10
-1.17501204184164
 20
1.153526502506216
 30
0.0
 10
-1.146032236496912
 20
1.196895455043549
 30
0.0
 10
-1.113427835493925
 20
1.236941131734714
 30
0.0
  0
SPLINE
  5
80C0
330
8014
100
AcDbEntity
  8
0
100
AcDbSpline
210
0.0
220
0.0
230
1.0
 70
     8
 71
     3
 72
    12
 73
     8
 74
     0
 42
0.000000001
 43
0.0000000001
 40
5.05837120466514
 40
5.05837120466514
 40
5.05837120466514
 40
5.05837120466514
 40
5.336951236574309
 40
5.336951236574309
 40
5.577714549790822
 40
5.577714549790822
 40
5.682975344127113
 40
5.682975344127113
 40
5.682975344127113
 40
5.682975344127113
 10
1.113427835493925
 20
1.236941131734714
 30
0.0
 10
1.174243089740155
 20
1.162246061912313
 30
0.0
 10
1.222606416409746
 20
1.075321934835651
 30
0.0
 10
1.27273503452815
 20
0.8969302861179141
 30
0.0
 10
1.279184372236283
 20
0.8081367796184402
 30
0.0
 10
1.262089464550067
 20
0.6849159243558356
 30
0.0
 10
1.253513688222601
 20
0.6480537207278681
 30
0.0
 10
1.241956368442313
 20
0.6124349920280659
 30
0.0
  0
LINE
  5
80C1
330
8014
100
AcDbEntity
  8
0
100
AcDbLine
 10
-1.020436134117443
 20
-0.0702725282219441
 30
0.0
 11
-1.241956368442333
 21
0.6124349920280881
 31
0.0
  0
LINE
  5
80C2
330
8014
100
AcDbEntity
  8
0
100
AcDbLine
 10
1.020436134117443
 20
-0.0702725282219441
 30
0.0
 11
1.241956368442333
 21
0.6124349920280881
 31
0.0
  0
SPLINE
  5
80C3
330
8014
100
AcDbEntity
  8
0
100
AcDbSpline
210
0.0
220
0.0
230
1.0
 70
     8
 71
     3
 72
    12
 73
     8
 74
     0
 42
0.000000001
 43
0.0000000001
 40
2.171006289847369
 40
2.171006289847369
 40
2.171006289847369
 40
2.171006289847369
 40
2.415409818515449
 40
2.415409818515449
 40
2.646257521319904
 40
2.646257521319904
 40
2.795610429309343
 40
2.795610429309343
 40
2.795610429309343
 40
2.795610429309343
 10
-1.241956368442313
 20
1.633055718187723
 30
0.0
 10
-1.268791143479478
 20
1.715758333494719
 30
0.0
 10
-1.278954165393002
 20
1.80549295834171
 30
0.0
 10
-1.261479953389708
 20
1.975667584170754
 30
0.0
 10
-1.236279785098608
 20
2.055637518248545
 30
0.0
 10
-1.17501204184164
 20
2.174147228665874
 30
0.0
 10
-1.146032236496912
 20
2.217516181203205
 30
0.0
 10
-1.113427835493925
 20
2.257561857894372
 30
0.0
  0
SPLINE
  5
80C4
330
8014
100
AcDbEntity
  8
0
100
AcDbSpline
210
0.0
220
0.0
230
1.0
 70
     8
 71
     3
 72
    12
 73
     8
 74
     0
 42
0.000000001
 43
0.0000000001
 40
5.05837120466514
 40
5.05837120466514
 40
5.05837120466514
 40
5.05837120466514
 40
5.336951236574309
 40
5.336951236574309
 40
5.577714549790822
 40
5.577714549790822
 40
5.682975344127113
 40
5.682975344127113
 40
5.682975344127113
 40
5.682975344127113
 10
1.113427835493925
 20
2.257561857894372
 30
0.0
 10
1.174243089740155
 20
2.18286678807197
 30
0.0
 10
1.222606416409746
 20
2.095942660995309
 30
0.0
 10
1.27273503452815
 20
1.917551012277571
 30
0.0
 10
1.279184372236283
 20
1.828757505778098
 30
0.0
 10
1.262089464550067
 20
1.705536650515493
 30
0.0
 10
1.253513688222601
 20
1.668674446887525
 30
0.0
 10
1.241956368442313
 20
1.633055718187723
 30
0.0
  0
LINE
  5
80C5
330
8014
100
AcDbEntity
  8
0
100
AcDbLine
 10
-1.020436134117443
 20
0.9503481979377138
 30
0.0
 11
-1.241956368442333
 21
1.633055718187745
 31
0.0
  0
LINE
  5
80C6
330
8014
100
AcDbEntity
  8
0
100
AcDbLine
 10
1.020436134117443
 20
0.9503481979377138
 30
0.0
 11
1.241956368442333
 21
1.633055718187745
 31
0.0
  0
SPLINE
  5
80C7
330
8014
100
AcDbEntity
  8
0
100
AcDbSpline
210
0.0
220
0.0
230
1.0
 70
     8
 71
     3
 72
    12
 73
     8
 74
     0
 42
0.000000001
 43
0.0000000001
 40
2.171006289847369
 40
2.171006289847369
 40
2.171006289847369
 40
2.171006289847369
 40
2.415409818515449
 40
2.415409818515449
 40
2.646257521319904
 40
2.646257521319904
 40
2.795610429309343
 40
2.795610429309343
 40
2.795610429309343
 40
2.795610429309343
 10
-1.241956368442313
 20
2.653676444347381
 30
0.0
 10
-1.268791143479478
 20
2.736379059654376
 30
0.0
 10
-1.278954165393002
 20
2.826113684501367
 30
0.0
 10
-1.261479953389708
 20
2.996288310330412
 30
0.0
 10
-1.236279785098608
 20
3.076258244408203
 30
0.0
 10
-1.17501204184164
 20
3.194767954825532
 30
0.0
 10
-1.146032236496912
 20
3.238136907362862
 30
0.0
 10
-1.113427835493925
 20
3.27818258405403
 30
0.0
  0
SPLINE
  5
80C8
330
8014
100
AcDbEntity
  8
0
100
AcDbSpline
210
0.0
220
0.0
230
1.0
 70
     8
 71
     3
 72
    12
 73
     8
 74
     0
 42
0.000000001
 43
0.0000000001
 40
5.05837120466514
 40
5.05837120466514
 40
5.05837120466514
 40
5.05837120466514
 40
5.336951236574309
 40
5.336951236574309
 40
5.577714549790822
 40
5.577714549790822
 40
5.682975344127113
 40
5.682975344127113
 40
5.682975344127113
 40
5.682975344127113
 10
1.113427835493925
 20
3.27818258405403
 30
0.0
 10
1.174243089740155
 20
3.203487514231628
 30
0.0
 10
1.222606416409746
 20
3.116563387154966
 30
0.0
 10
1.27273503452815
 20
2.938171738437229
 30
0.0
 10
1.279184372236283
 20
2.849378231937755
 30
0.0
 10
1.262089464550067
 20
2.726157376675151
 30
0.0
 10
1.253513688222601
 20
2.689295173047183
 30
0.0
 10
1.241956368442313
 20
2.653676444347381
 30
0.0
  0
LINE
  5
80C9
330
8014
100
AcDbEntity
  8
0
100
AcDbLine
 10
-1.020436134117443
 20
1.970968924097371
 30
0.0
 11
-1.241956368442333
 21
2.653676444347403
 31
0.0
  0
LINE
  5
80CA
330
8014
100
AcDbEntity
  8
0
100
AcDbLine
 10
1.020436134117443
 20
1.970968924097371
 30
0.0
 11
1.241956368442333
 21
2.653676444347403
 31
0.0
  0
SPLINE
  5
80CB
330
8014
100
AcDbEntity
  8
0
100
AcDbSpline
210
0.0
220
0.0
230
1.0
 70
     8
 71
     3
 72
    12
 73
     8
 74
     0
 42
0.000000001
 43
0.0000000001
 40
2.171006289847369
 40
2.171006289847369
 40
2.171006289847369
 40
2.171006289847369
 40
2.415409818515449
 40
2.415409818515449
 40
2.646257521319904
 40
2.646257521319904
 40
2.795610429309342
 40
2.795610429309342
 40
2.795610429309342
 40
2.795610429309342
 10
-1.241956368442313
 20
3.674297170507037
 30
0.0
 10
-1.268791143479478
 20
3.756999785814032
 30
0.0
 10
-1.278954165393002
 20
3.846734410661023
 30
0.0
 10
-1.261479953389708
 20
4.01690903649007
 30
0.0
 10
-1.236279785098608
 20
4.09687897056786
 30
0.0
 10
-1.17501204184164
 20
4.21538868098519
 30
0.0
 10
-1.146032236496912
 20
4.258757633522519
 30
0.0
 10
-1.113427835493925
 20
4.298803310213688
 30
0.0
  0
SPLINE
  5
80CC
330
8014
100
AcDbEntity
  8
0
100
AcDbSpline
210
0.0
220
0.0
230
1.0
 70
     8
 71
     3
 72
    12
 73
     8
 74
     0
 42
0.000000001
 43
0.0000000001
 40
5.05837120466514
 40
5.05837120466514
 40
5.05837120466514
 40
5.05837120466514
 40
5.336951236574309
 40
5.336951236574309
 40
5.577714549790822
 40
5.577714549790822
 40
5.682975344127113
 40
5.682975344127113
 40
5.682975344127113
 40
5.682975344127113
 10
1.113427835493925
 20
4.298803310213688
 30
0.0
 10
1.174243089740155
 20
4.224108240391286
 30
0.0
 10
1.222606416409746
 20
4.13718411331462
 30
0.0
 10
1.27273503452815
 20
3.958792464596885
 30
0.0
 10
1.279184372236283
 20
3.869998958097411
 30
0.0
 10
1.262089464550067
 20
3.746778102834809
 30
0.0
 10
1.253513688222601
 20
3.709915899206841
 30
0.0
 10
1.241956368442313
 20
3.674297170507037
 30
0.0
  0
LINE
  5
80CD
330
8014
100
AcDbEntity
  8
0
100
AcDbLine
 10
-1.020436134117442
 20
2.991589650257024
 30
0.0
 11
-1.241956368442334
 21
3.674297170507063
 31
0.0
  0
LINE
  5
80CE
330
8014
100
AcDbEntity
  8
0
100
AcDbLine
 10
1.020436134117442
 20
2.991589650257024
 30
0.0
 11
1.241956368442334
 21
3.674297170507063
 31
0.0
  0
SPLINE
  5
80CF
330
8014
100
AcDbEntity
  8
0
100
AcDbSpline
210
0.0
220
0.0
230
1.0
 70
     8
 71
     3
 72
    12
 73
     8
 74
     0
 42
0.000000001
 43
0.0000000001
 40
2.171006289847369
 40
2.171006289847369
 40
2.171006289847369
 40
2.171006289847369
 40
2.415409818515449
 40
2.415409818515449
 40
2.646257521319904
 40
2.646257521319904
 40
2.795610429309342
 40
2.795610429309342
 40
2.795610429309342
 40
2.795610429309342
 10
-1.241956368442313
 20
4.694917896666694
 30
0.0
 10
-1.268791143479478
 20
4.77762051197369
 30
0.0
 10
-1.278954165393002
 20
4.86735513682068
 30
0.0
 10
-1.261479953389708
 20
5.037529762649728
 30
0.0
 10
-1.236279785098608
 20
5.117499696727518
 30
0.0
 10
-1.17501204184164
 20
5.236009407144848
 30
0.0
 10
-1.146032236496912
 20
5.279378359682176
 30
0.0
 10
-1.113427835493925
 20
5.319424036373345
 30
0.0
  0
SPLINE
  5
80D0
330
8014
100
AcDbEntity
  8
0
100
AcDbSpline
210
0.0
220
0.0
230
1.0
 70
     8
 71
     3
 72
    12
 73
     8
 74
     0
 42
0.000000001
 43
0.0000000001
 40
5.05837120466514
 40
5.05837120466514
 40
5.05837120466514
 40
5.05837120466514
 40
5.336951236574309
 40
5.336951236574309
 40
5.577714549790822
 40
5.577714549790822
 40
5.682975344127113
 40
5.682975344127113
 40
5.682975344127113
 40
5.682975344127113
 10
1.113427835493925
 20
5.319424036373345
 30
0.0
 10
1.174243089740155
 20
5.244728966550944
 30
0.0
 10
1.222606416409746
 20
5.157804839474278
 30
0.0
 10
1.27273503452815
 20
4.979413190756543
 30
0.0
 10
1.279184372236283
 20
4.890619684257069
 30
0.0
 10
1.262089464550067
 20
4.767398828994466
 30
0.0
 10
1.253513688222601
 20
4.730536625366498
 30
0.0
 10
1.241956368442313
 20
4.694917896666694
 30
0.0
  0
LINE
  5
80D1
330
8014
100
AcDbEntity
  8
0
100
AcDbLine
 10
-1.020436134117442
 20
4.012210376416682
 30
0.0
 11
-1.241956368442334
 21
4.694917896666721
 31
0.0
  0
LINE
  5
80D2
330
8014
100
AcDbEntity
  8
0
100
AcDbLine
 10
1.020436134117442
 20
4.012210376416682
 30
0.0
 11
1.241956368442334
 21
4.694917896666721
 31
0.0
  0
SPLINE
  5
80D3
330
8014
100
AcDbEntity
  8
0
100
AcDbSpline
210
0.0
220
0.0
230
1.0
 70
     8
 71
     3
 72
    12
 73
     8
 74
     0
 42
0.000000001
 43
0.0000000001
 40
2.171006289847369
 40
2.171006289847369
 40
2.171006289847369
 40
2.171006289847369
 40
2.415409818515449
 40
2.415409818515449
 40
2.646257521319904
 40
2.646257521319904
 40
2.795610429309342
 40
2.795610429309342
 40
2.795610429309342
 40
2.795610429309342
 10
-1.241956368442313
 20
5.715538622826352
 30
0.0
 10
-1.268791143479478
 20
5.798241238133345
 30
0.0
 10
-1.278954165393002
 20
5.887975862980338
 30
0.0
 10
-1.261479953389708
 20
6.058150488809386
 30
0.0
 10
-1.236279785098608
 20
6.138120422887176
 30
0.0
 10
-1.17501204184164
 20
6.256630133304503
 30
0.0
 10
-1.146032236496912
 20
6.299999085841834
 30
0.0
 10
-1.113427835493925
 20
6.340044762533003
 30
0.0
  0
SPLINE
  5
80D4
330
8014
100
AcDbEntity
  8
0
100
AcDbSpline
210
0.0
220
0.0
230
1.0
 70
     8
 71
     3
 72
    12
 73
     8
 74
     0
 42
0.000000001
 43
0.0000000001
 40
5.05837120466514
 40
5.05837120466514
 40
5.05837120466514
 40
5.05837120466514
 40
5.336951236574309
 40
5.336951236574309
 40
5.577714549790822
 40
5.577714549790822
 40
5.682975344127113
 40
5.682975344127113
 40
5.682975344127113
 40
5.682975344127113
 10
1.113427835493925
 20
6.340044762533003
 30
0.0
 10
1.174243089740155
 20
6.265349692710602
 30
0.0
 10
1.222606416409746
 20
6.178425565633935
 30
0.0
 10
1.27273503452815
 20
6.000033916916198
 30
0.0
 10
1.279184372236283
 20
5.911240410416727
 30
0.0
 10
1.262089464550067
 20
5.788019555154124
 30
0.0
 10
1.253513688222601
 20
5.751157351526156
 30
0.0
 10
1.241956368442313
 20
5.715538622826352
 30
0.0
  0
LINE
  5
80D5
330
8014
100
AcDbEntity
  8
0
100
AcDbLine
 10
-1.020436134117442
 20
5.03283110257634
 30
0.0
 11
-1.241956368442334
 21
5.715538622826379
 31
0.0
  0
LINE
  5
80D6
330
8014
100
AcDbEntity
  8
0
100
AcDbLine
 10
1.020436134117442
 20
5.03283110257634
 30
0.0
 11
1.241956368442334
 21
5.715538622826379
 31
0.0
  0
SPLINE
  5
80D7
330
8014
100
AcDbEntity
  8
0
100
AcDbSpline
210
0.0
220
0.0
230
1.0
 70
     8
 71
     3
 72
    12
 73
     8
 74
     0
 42
0.000000001
 43
0.0000000001
 40
2.171006289847369
 40
2.171006289847369
 40
2.171006289847369
 40
2.171006289847369
 40
2.415409818515449
 40
2.415409818515449
 40
2.646257521319904
 40
2.646257521319904
 40
2.795610429309342
 40
2.795610429309342
 40
2.795610429309342
 40
2.795610429309342
 10
-1.241956368442313
 20
6.73615934898601
 30
0.0
 10
-1.268791143479478
 20
6.818861964293003
 30
0.0
 10
-1.278954165393002
 20
6.908596589139996
 30
0.0
 10
-1.261479953389708
 20
7.078771214969044
 30
0.0
 10
-1.236279785098608
 20
7.158741149046834
 30
0.0
 10
-1.17501204184164
 20
7.277250859464161
 30
0.0
 10
-1.146032236496912
 20
7.320619812001492
 30
0.0
 10
-1.113427835493925
 20
7.360665488692658
 30
0.0
  0
SPLINE
  5
80D8
330
8014
100
AcDbEntity
  8
0
100
AcDbSpline
210
0.0
220
0.0
230
1.0
 70
     8
 71
     3
 72
    12
 73
     8
 74
     0
 42
0.000000001
 43
0.0000000001
 40
5.05837120466514
 40
5.05837120466514
 40
5.05837120466514
 40
5.05837120466514
 40
5.336951236574309
 40
5.336951236574309
 40
5.577714549790822
 40
5.577714549790822
 40
5.682975344127113
 40
5.682975344127113
 40
5.682975344127113
 40
5.682975344127113
 10
1.113427835493925
 20
7.360665488692658
 30
0.0
 10
1.174243089740155
 20
7.28597041887026
 30
0.0
 10
1.222606416409746
 20
7.199046291793593
 30
0.0
 10
1.27273503452815
 20
7.020654643075856
 30
0.0
 10
1.279184372236283
 20
6.931861136576385
 30
0.0
 10
1.262089464550067
 20
6.808640281313782
 30
0.0
 10
1.253513688222601
 20
6.771778077685812
 30
0.0
 10
1.241956368442313
 20
6.73615934898601
 30
0.0
  0
LINE
  5
80D9
330
8014
100
AcDbEntity
  8
0
100
AcDbLine
 10
-1.020436134117442
 20
6.053451828735997
 30
0.0
 11
-1.241956368442334
 21
6.736159348986037
 31
0.0
  0
LINE
  5
80DA
330
8014
100
AcDbEntity
  8
0
100
AcDbLine
 10
1.020436134117442
 20
6.053451828735997
 30
0.0
 11
1.241956368442334
 21
6.736159348986037
 31
0.0
  0
SPLINE
  5
80DB
330
8014
100
AcDbEntity
  8
0
100
AcDbSpline
210
0.0
220
0.0
230
1.0
 70
     8
 71
     3
 72
    12
 73
     8
 74
     0
 42
0.000000001
 43
0.0000000001
 40
2.171006289847369
 40
2.171006289847369
 40
2.171006289847369
 40
2.171006289847369
 40
2.415409818515449
 40
2.415409818515449
 40
2.646257521319904
 40
2.646257521319904
 40
2.795610429309342
 40
2.795610429309342
 40
2.795610429309342
 40
2.795610429309342
 10
-1.241956368442313
 20
7.756780075145668
 30
0.0
 10
-1.268791143479478
 20
7.839482690452661
 30
0.0
 10
-1.278954165393002
 20
7.929217315299654
 30
0.0
 10
-1.261479953389708
 20
8.0993919411287
 30
0.0
 10
-1.236279785098608
 20
8.179361875206492
 30
0.0
 10
-1.17501204184164
 20
8.29787158562382
 30
0.0
 10
-1.146032236496912
 20
8.34124053816115
 30
0.0
 10
-1.113427835493925
 20
8.381286214852316
 30
0.0
  0
SPLINE
  5
80DC
330
8014
100
AcDbEntity
  8
0
100
AcDbSpline
210
0.0
220
0.0
230
1.0
 70
     8
 71
     3
 72
    12
 73
     8
 74
     0
 42
0.000000001
 43
0.0000000001
 40
5.05837120466514
 40
5.05837120466514
 40
5.05837120466514
 40
5.05837120466514
 40
5.336951236574309
 40
5.336951236574309
 40
5.577714549790822
 40
5.577714549790822
 40
5.682975344127113
 40
5.682975344127113
 40
5.682975344127113
 40
5.682975344127113
 10
1.113427835493925
 20
8.381286214852316
 30
0.0
 10
1.174243089740155
 20
8.306591145029917
 30
0.0
 10
1.222606416409746
 20
8.219667017953252
 30
0.0
 10
1.27273503452815
 20
8.041275369235513
 30
0.0
 10
1.279184372236283
 20
7.952481862736043
 30
0.0
 10
1.262089464550067
 20
7.82926100747344
 30
0.0
 10
1.253513688222601
 20
7.79239880384547
 30
0.0
 10
1.241956368442313
 20
7.756780075145668
 30
0.0
  0
LINE
  5
80DD
330
8014
100
AcDbEntity
  8
0
100
AcDbLine
 10
-1.020436134117442
 20
7.074072554895655
 30
0.0
 11
-1.241956368442334
 21
7.756780075145695
 31
0.0
  0
LINE
  5
80DE
330
8014
100
AcDbEntity
  8
0
100
AcDbLine
 10
1.020436134117442
 20
7.074072554895655
 30
0.0
 11
1.241956368442334
 21
7.756780075145695
 31
0.0
  0
SPLINE
  5
80DF
330
8014
100
AcDbEntity
  8
0
100
AcDbSpline
210
0.0
220
0.0
230
1.0
 70
     8
 71
     3
 72
    12
 73
     8
 74
     0
 42
0.000000001
 43
0.0000000001
 40
2.171006289847369
 40
2.171006289847369
 40
2.171006289847369
 40
2.171006289847369
 40
2.415409818515449
 40
2.415409818515449
 40
2.646257521319904
 40
2.646257521319904
 40
2.795610429309342
 40
2.795610429309342
 40
2.795610429309342
 40
2.795610429309342
 10
-1.241956368442313
 20
8.777400801305324
 30
0.0
 10
-1.268791143479478
 20
8.860103416612318
 30
0.0
 10
-1.278954165393002
 20
8.949838041459312
 30
0.0
 10
-1.261479953389708
 20
9.120012667288357
 30
0.0
 10
-1.236279785098608
 20
9.199982601366148
 30
0.0
 10
-1.17501204184164
 20
9.318492311783476
 30
0.0
 10
-1.146032236496912
 20
9.361861264320808
 30
0.0
 10
-1.113427835493925
 20
9.401906941011974
 30
0.0
  0
SPLINE
  5
80E0
330
8014
100
AcDbEntity
  8
0
100
AcDbSpline
210
0.0
220
0.0
230
1.0
 70
     8
 71
     3
 72
    12
 73
     8
 74
     0
 42
0.000000001
 43
0.0000000001
 40
5.05837120466514
 40
5.05837120466514
 40
5.05837120466514
 40
5.05837120466514
 40
5.336951236574309
 40
5.336951236574309
 40
5.577714549790822
 40
5.577714549790822
 40
5.682975344127113
 40
5.682975344127113
 40
5.682975344127113
 40
5.682975344127113
 10
1.113427835493925
 20
9.401906941011976
 30
0.0
 10
1.174243089740155
 20
9.327211871189575
 30
0.0
 10
1.222606416409746
 20
9.240287744112908
 30
0.0
 10
1.27273503452815
 20
9.061896095395171
 30
0.0
 10
1.279184372236283
 20
8.973102588895701
 30
0.0
 10
1.262089464550067
 20
8.849881733633095
 30
0.0
 10
1.253513688222601
 20
8.813019530005128
 30
0.0
 10
1.241956368442313
 20
8.777400801305324
 30
0.0
  0
LINE
  5
80E1
330
8014
100
AcDbEntity
  8
0
100
AcDbLine
 10
-1.020436134117442
 20
8.094693281055311
 30
0.0
 11
-1.241956368442334
 21
8.777400801305352
 31
0.0
  0
LINE
  5
80E2
330
8014
100
AcDbEntity
  8
0
100
AcDbLine
 10
1.020436134117442
 20
8.094693281055311
 30
0.0
 11
1.241956368442334
 21
8.777400801305352
 31
0.0
  0
SPLINE
  5
80E3
330
8014
100
AcDbEntity
  8
0
100
AcDbSpline
210
0.0
220
0.0
230
1.0
 70
     8
 71
     3
 72
    12
 73
     8
 74
     0
 42
0.000000001
 43
0.0000000001
 40
2.171006289847369
 40
2.171006289847369
 40
2.171006289847369
 40
2.171006289847369
 40
2.415409818515449
 40
2.415409818515449
 40
2.646257521319904
 40
2.646257521319904
 40
2.795610429309342
 40
2.795610429309342
 40
2.795610429309342
 40
2.795610429309342
 10
-1.241956368442313
 20
9.798021527464984
 30
0.0
 10
-1.268791143479478
 20
9.880724142771978
 30
0.0
 10
-1.278954165393002
 20
9.970458767618969
 30
0.0
 10
-1.261479953389708
 20
10.14063339344801
 30
0.0
 10
-1.236279785098608
 20
10.22060332752581
 30
0.0
 10
-1.17501204184164
 20
10.33911303794313
 30
0.0
 10
-1.146032236496912
 20
10.38248199048046
 30
0.0
 10
-1.113427835493925
 20
10.42252766717163
 30
0.0
  0
SPLINE
  5
80E4
330
8014
100
AcDbEntity
  8
0
100
AcDbSpline
210
0.0
220
0.0
230
1.0
 70
     8
 71
     3
 72
    12
 73
     8
 74
     0
 42
0.000000001
 43
0.0000000001
 40
5.05837120466514
 40
5.05837120466514
 40
5.05837120466514
 40
5.05837120466514
 40
5.336951236574309
 40
5.336951236574309
 40
5.577714549790822
 40
5.577714549790822
 40
5.682975344127113
 40
5.682975344127113
 40
5.682975344127113
 40
5.682975344127113
 10
1.113427835493925
 20
10.42252766717163
 30
0.0
 10
1.174243089740155
 20
10.34783259734923
 30
0.0
 10
1.222606416409746
 20
10.26090847027257
 30
0.0
 10
1.27273503452815
 20
10.08251682155483
 30
0.0
 10
1.279184372236283
 20
9.993723315055355
 30
0.0
 10
1.262089464550067
 20
9.870502459792756
 30
0.0
 10
1.253513688222601
 20
9.833640256164784
 30
0.0
 10
1.241956368442313
 20
9.798021527464984
 30
0.0
  0
LINE
  5
80E5
330
8014
100
AcDbEntity
  8
0
100
AcDbLine
 10
-1.020436134117442
 20
9.115314007214969
 30
0.0
 11
-1.241956368442334
 21
9.798021527465008
 31
0.0
  0
LINE
  5
80E6
330
8014
100
AcDbEntity
  8
0
100
AcDbLine
 10
1.020436134117442
 20
9.115314007214969
 30
0.0
 11
1.241956368442334
 21
9.798021527465008
 31
0.0
  0
SPLINE
  5
80E7
330
8014
100
AcDbEntity
  8
0
100
AcDbSpline
210
0.0
220
0.0
230
1.0
 70
     8
 71
     3
 72
    12
 73
     8
 74
     0
 42
0.000000001
 43
0.0000000001
 40
2.171006289847369
 40
2.171006289847369
 40
2.171006289847369
 40
2.171006289847369
 40
2.415409818515449
 40
2.415409818515449
 40
2.646257521319904
 40
2.646257521319904
 40
2.795610429309342
 40
2.795610429309342
 40
2.795610429309342
 40
2.795610429309342
 10
-1.241956368442313
 20
10.81864225362464
 30
0.0
 10
-1.268791143479478
 20
10.90134486893163
 30
0.0
 10
-1.278954165393002
 20
10.99107949377862
 30
0.0
 10
-1.261479953389708
 20
11.16125411960767
 30
0.0
 10
-1.236279785098608
 20
11.24122405368546
 30
0.0
 10
-1.17501204184164
 20
11.35973376410279
 30
0.0
 10
-1.146032236496912
 20
11.40310271664012
 30
0.0
 10
-1.113427835493925
 20
11.44314839333129
 30
0.0
  0
SPLINE
  5
80E8
330
8014
100
AcDbEntity
  8
0
100
AcDbSpline
210
0.0
220
0.0
230
1.0
 70
     8
 71
     3
 72
    12
 73
     8
 74
     0
 42
0.000000001
 43
0.0000000001
 40
5.05837120466514
 40
5.05837120466514
 40
5.05837120466514
 40
5.05837120466514
 40
5.336951236574309
 40
5.336951236574309
 40
5.577714549790822
 40
5.577714549790822
 40
5.682975344127113
 40
5.682975344127113
 40
5.682975344127113
 40
5.682975344127113
 10
1.113427835493925
 20
11.44314839333129
 30
0.0
 10
1.174243089740155
 20
11.36845332350889
 30
0.0
 10
1.222606416409746
 20
11.28152919643222
 30
0.0
 10
1.27273503452815
 20
11.10313754771449
 30
0.0
 10
1.279184372236283
 20
11.01434404121501
 30
0.0
 10
1.262089464550067
 20
10.89112318595241
 30
0.0
 10
1.253513688222601
 20
10.85426098232444
 30
0.0
 10
1.241956368442313
 20
10.81864225362464
 30
0.0
  0
LINE
  5
80E9
330
8014
100
AcDbEntity
  8
0
100
AcDbLine
 10
-1.020436134117442
 20
10.13593473337462
 30
0.0
 11
-1.241956368442334
 21
10.81864225362467
 31
0.0
  0
LINE
  5
80EA
330
8014
100
AcDbEntity
  8
0
100
AcDbLine
 10
1.020436134117442
 20
10.13593473337462
 30
0.0
 11
1.241956368442334
 21
10.81864225362467
 31
0.0
  0
SPLINE
  5
80EB
330
8014
100
AcDbEntity
  8
0
100
AcDbSpline
210
0.0
220
0.0
230
1.0
 70
     8
 71
     3
 72
    19
 73
    15
 74
     0
 42
0.000000001
 43
0.0000000001
 40
-0.0229961794413469
 40
-0.0229961794413469
 40
-0.0229961794413469
 40
-0.0229961794413469
 40
0.0
 40
0.0
 40
0.0
 40
0.0286035440609123
 40
0.0286035440609123
 40
0.0366377970663579
 40
0.0366377970663579
 40
0.0415737893328526
 40
0.0415737893328526
 40
0.0452900576504926
 40
0.0452900576504926
 40
0.0453751077896223
 40
0.0453751077896223
 40
0.0453751077896223
 40
0.0453751077896223
 10
-1.239986157795991
 20
-16.34006547607959
 30
0.0
 10
-1.247009772500831
 20
-16.36114142070277
 30
0.0
 10
-1.249852456489658
 20
-16.4029843697388
 30
0.0
 10
-1.249852456489658
 20
-16.44724053770812
 30
0.0
 10
-1.249852456489658
 20
-16.50228808391927
 30
0.0
 10
-1.245454439534507
 20
-16.58150759144848
 30
0.0
 10
-1.230889083405306
 20
-16.6896295727236
 30
0.0
 10
-1.226249532416566
 20
-16.71947350222989
 30
0.0
 10
-1.218261503653451
 20
-16.76156921771463
 30
0.0
 10
-1.214171345698364
 20
-16.78088372397481
 30
0.0
 10
-1.207450000356508
 20
-16.80811146063237
 30
0.0
 10
-1.203804538734305
 20
-16.82120944443864
 30
0.0
 10
-1.200648865013486
 20
-16.8309294355867
 30
0.0
 10
-1.200577979953534
 20
-16.83114700594591
 30
0.0
 10
-1.200506832699855
 20
-16.83136459757115
 30
0.0
  0
SPLINE
  5
80EC
330
8014
100
AcDbEntity
  8
0
100
AcDbSpline
210
0.0
220
0.0
230
1.0
 70
     8
 71
     3
 72
    14
 73
    10
 74
     0
 42
0.000000001
 43
0.0000000001
 40
0.0544119222634634
 40
0.0544119222634634
 40
0.0544119222634634
 40
0.0544119222634634
 40
0.0583945217996176
 40
0.0583945217996176
 40
0.0754229802700109
 40
0.0754229802700109
 40
0.0872744932335595
 40
0.0872744932335595
 40
0.0955554101374308
 40
0.0955554101374308
 40
0.0955554101374308
 40
0.0955554101374308
 10
-0.9651218279988306
 20
-17.68232254350786
 30
0.0
 10
-0.9642428657653924
 20
-17.6926390379837
 30
0.0
 10
-0.9632917638901444
 20
-17.70307070873105
 30
0.0
 10
-0.9578738821370384
 20
-17.7586979322429
 30
0.0
 10
-0.950647828318003
 20
-17.81720808612115
 30
0.0
 10
-0.9364447231319029
 20
-17.90706339248344
 30
0.0
 10
-0.9281713852504962
 20
-17.95285127953374
 30
0.0
 10
-0.914354701527597
 20
-18.01852154239848
 30
0.0
 10
-0.9070791152100866
 20
-18.04994893025183
 30
0.0
 10
-0.9002480684931988
 20
-18.0761236915611
 30
0.0
  0
SPLINE
  5
80ED
330
8014
100
AcDbEntity
  8
0
100
AcDbSpline
210
0.0
220
0.0
230
1.0
 70
    12
 71
     2
 72
     6
 73
     3
 74
     0
 42
0.000000001
 43
0.0000000001
 40
0.0
 40
0.0
 40
0.0
 40
0.0231305000849317
 40
0.0231305000849317
 40
0.0231305000849317
 10
-0.9777602295309597
 20
-17.51196626676978
 30
0.0
 41
1.0
 10
-0.9729845791962629
 20
-17.59003640627995
 30
0.0
 41
1.004172128110714
 10
-0.9651218279988304
 20
-17.68232254350785
 30
0.0
 41
1.0
  0
SPLINE
  5
80EE
330
8014
100
AcDbEntity
  8
0
100
AcDbSpline
210
0.0
220
0.0
230
1.0
 70
    12
 71
     2
 72
     6
 73
     3
 74
     0
 42
0.000000001
 43
0.0000000001
 40
0.0
 40
0.0
 40
0.0
 40
0.0894830231545094
 40
0.0894830231545094
 40
0.0894830231545094
 10
-1.200506832699855
 20
-16.83136459757115
 30
0.0
 41
1.0
 10
-1.082368088648426
 20
-17.19267160511179
 30
0.0
 41
1.001067432438567
 10
-0.9777602295309595
 20
-17.51196626676978
 30
0.0
 41
1.0
  0
ELLIPSE
  5
80EF
330
8014
100
AcDbEntity
  8
0
100
AcDbEllipse
 10
0.0
 20
11.97359012945347
 30
0.0
 11
1.263561225477097
 21
0.0
 31
0.0
210
0.0
220
0.0
230
1.0
 40
0.5773502691896257
 41
3.326780853934726
 42
6.097997106834651
  0
SPLINE
  5
80F0
330
8014
100
AcDbEntity
  8
0
100
AcDbSpline
210
0.0
220
0.0
230
1.0
 70
     8
 71
     3
 72
    12
 73
     8
 74
     0
 42
0.000000001
 43
0.0000000001
 40
2.171006289847369
 40
2.171006289847369
 40
2.171006289847369
 40
2.171006289847369
 40
2.415409818515449
 40
2.415409818515449
 40
2.646257521319904
 40
2.646257521319904
 40
2.737091357622301
 40
2.737091357622301
 40
2.737091357622301
 40
2.737091357622301
 10
-1.241956368442313
 20
11.8392629797843
 30
0.0
 10
-1.268791143479478
 20
11.92196559509129
 30
0.0
 10
-1.278954165393002
 20
12.01170021993828
 30
0.0
 10
-1.261479953389708
 20
12.18187484576733
 30
0.0
 10
-1.236279785098608
 20
12.26184477984512
 30
0.0
 10
-1.184442146260124
 20
12.3621139139913
 30
0.0
 10
-1.167979693079954
 20
12.3892625828826
 30
0.0
 10
-1.149999999999936
 20
12.41518467514901
 30
0.0
  0
SPLINE
  5
80F1
330
8014
100
AcDbEntity
  8
0
100
AcDbSpline
210
0.0
220
0.0
230
1.0
 70
     8
 71
     3
 72
    12
 73
     8
 74
     0
 42
0.000000001
 43
0.0000000001
 40
5.116890276352181
 40
5.116890276352181
 40
5.116890276352181
 40
5.116890276352181
 40
5.336951236574309
 40
5.336951236574309
 40
5.577714549790822
 40
5.577714549790822
 40
5.682975344127113
 40
5.682975344127113
 40
5.682975344127113
 40
5.682975344127113
 10
1.149999999999937
 20
12.41518467514901
 30
0.0
 10
1.193558971906791
 20
12.35238384291154
 30
0.0
 10
1.228254857320322
 20
12.28204893587921
 30
0.0
 10
1.27273503452815
 20
12.12375827387414
 30
0.0
 10
1.279184372236283
 20
12.03496476737467
 30
0.0
 10
1.262089464550067
 20
11.91174391211207
 30
0.0
 10
1.253513688222601
 20
11.8748817084841
 30
0.0
 10
1.241956368442313
 20
11.8392629797843
 30
0.0
  0
LINE
  5
80F2
330
8014
100
AcDbEntity
  8
0
100
AcDbLine
 10
-1.020436134117442
 20
11.15655545953428
 30
0.0
 11
-1.241956368442334
 21
11.83926297978432
 31
0.0
  0
LINE
  5
80F3
330
8014
100
AcDbEntity
  8
0
100
AcDbLine
 10
1.020436134117442
 20
11.15655545953428
 30
0.0
 11
1.241956368442334
 21
11.83926297978432
 31
0.0
  0
ELLIPSE
  5
80F4
330
8014
100
AcDbEntity
  8
0
100
AcDbEllipse
 10
0.0
 20
12.24744871391588
 30
0.0
 11
-1.149999999999935
 21
0.0000000000000001
 31
0.0
210
0.0
220
0.0
230
1.0
 40
0.5773502691896258
 41
0.0000000000000003
 42
3.141592653589793
  0
ELLIPSE
  5
80F5
330
8014
100
AcDbEntity
  8
0
100
AcDbEllipse
 10
0.0
 20
19.43261862607987
 30
0.0
 11
-2.749999999999979
 21
0.0000000000000002
 31
0.0
210
0.0
220
0.0
230
1.0
 40
0.5773502691896258
 41
0.0000000000000003
 42
3.141592653589793
  0
ELLIPSE
  5
80F6
330
8014
100
AcDbEntity
  8
0
100
AcDbEllipse
 10
0.0
 20
19.64650130345425
 30
0.0
 11
-2.749999999999979
 21
-0.0000000000000003
 31
0.0
210
0.0
220
0.0
230
0.9999999999999998
 40
0.5773502691896257
 41
5.125481548290358
 42
10.5824817196586
  0
LINE
  5
80F7
330
8014
100
AcDbEntity
  8
0
100
AcDbLine
 10
-1.149999999999936
 20
12.24744871391588
 30
0.0
 11
-1.149999999999936
 21
17.99039811589426
 31
0.0
  0
LINE
  5
80F8
330
8014
100
AcDbEntity
  8
0
100
AcDbLine
 10
1.149999999999936
 20
12.24744871391588
 30
0.0
 11
1.149999999999936
 21
17.99039811589426
 31
0.0
  0
ARC
  5
80F9
330
8014
100
AcDbEntity
  8
0
100
AcDbCircle
 10
0.0
 20
16.73817990901838
 30
0.0
 40
4.5
100
AcDbArc
 50
75.79885904929064
 51
104.2011409507094
  0
LINE
  5
80FA
330
8014
100
AcDbEntity
  8
0
100
AcDbLine
 10
-2.74999999999998
 20
19.43261862607987
 30
0.0
 11
-2.74999999999998
 21
19.64650130345425
 31
0.0
  0
LINE
  5
80FB
330
8014
100
AcDbEntity
  8
0
100
AcDbLine
 10
2.74999999999998
 20
19.43261862607987
 30
0.0
 11
2.74999999999998
 21
19.64650130345425
 31
0.0
  0
ENDBLK
  5
8016
330
8014
100
AcDbEntity
  8
0
100
AcDbBlockEnd
  0
ENDSEC
  0
SECTION
  2
ENTITIES
  0
INSERT
  5
80FC
330
1F
100
AcDbEntity
  8
0
100
AcDbBlockReference
  2
ARA423x50-Front
 10
0.0
 20
0.0
 30
0.0
  0
INSERT
  5
80FD
330
1F
100
AcDbEntity
  8
0
100
AcDbBlockReference
  2
ARA423x50-Top
 10
0.0
 20
-66.54999999999998
 30
0.0
  0
INSERT
  5
80FE
330
1F
100
AcDbEntity
  8
0
100
AcDbBlockReference
  2
ARA423x50-ISO
 10
20.49999999999996
 20
-85.03817990901836
 30
0.0
  0
MTEXT
  5
80FF
330
1F
100
AcDbEntity
  8
0
100
AcDbMText
 10
0.0
 20
-84.29999999999997
 30
0.0
 40
2.366666666666664
 41
0.0
 71
     5
 72
     5
  1
ARA42.3x50
 73
     1
 44
1.0
1001
ACAD
1000
MTEXTBEGIN
1070
    73
1070
     1
1070
    44
1040
1.0
1070
    74
1070
     0
1000
MTEXTEND
  0
ENDSEC
  0
SECTION
  2
OBJECTS
  0
DICTIONARY
  5
C
330
0
100
AcDbDictionary
281
     1
  3
ACAD_CIP_PREVIOUS_PRODUCT_INFO
350
216
  3
ACAD_COLOR
350
6B
  3
ACAD_DETAILVIEWSTYLE
350
21B
  3
ACAD_GROUP
350
D
  3
ACAD_LAYOUT
350
1A
  3
ACAD_MATERIAL
350
6A
  3
ACAD_MLEADERSTYLE
350
12D
  3
ACAD_MLINESTYLE
350
17
  3
ACAD_PLOTSETTINGS
350
19
  3
ACAD_PLOTSTYLENAME
350
E
  3
ACAD_SCALELIST
350
10C
  3
ACAD_SECTIONVIEWSTYLE
350
219
  3
ACAD_TABLESTYLE
350
7E
  3
ACAD_VISUALSTYLE
350
EF
  3
ACDB_RECOMPOSE_DATA
350
8202
  3
AcDbVariableDictionary
350
5E
  3
DWGPROPS
350
8203
  0
DICTIONARY
  5
8152
330
8
100
AcDbDictionary
280
     1
281
     1
  0
DICTIONARY
  5
1FF
330
2
100
AcDbDictionary
280
     1
281
     1
  3
ACAD_LAYERSTATES
360
200
  0
DICTIONARY
  5
13C
330
10
100
AcDbDictionary
280
     1
281
     1
  0
DICTIONARY
  5
1CE
330
1F
100
AcDbDictionary
280
     1
281
     1
  3
ACAD_LAYOUTSELFREF
360
815A
  0
DICTIONARY
  5
8103
330
D2
100
AcDbDictionary
280
     1
281
     1
  3
ACAD_LAYOUTSELFREF
360
8163
  0
DICTIONARY
  5
8105
330
D6
100
AcDbDictionary
280
     1
281
     1
  3
ACAD_LAYOUTSELFREF
360
8166
  0
XRECORD
  5
216
102
{ACAD_REACTORS
330
C
102
}
330
C
100
AcDbXrecord
280
     1
300
ACD
300
2021
300
87393ACD_2021_0F
  0
DICTIONARY
  5
6B
102
{ACAD_REACTORS
330
C
102
}
330
C
100
AcDbDictionary
281
     1
  0
DICTIONARY
  5
21B
102
{ACAD_REACTORS
330
C
102
}
330
C
100
AcDbDictionary
281
     1
  3
Metric50
350
21C
  0
DICTIONARY
  5
D
102
{ACAD_REACTORS
330
C
102
}
330
C
100
AcDbDictionary
281
     1
  0
DICTIONARY
  5
1A
102
{ACAD_REACTORS
330
C
102
}
330
C
100
AcDbDictionary
281
     1
  3
Layout1
350
D3
  3
Layout2
350
D7
  3
Model
350
22
  0
DICTIONARY
  5
6A
102
{ACAD_REACTORS
330
C
102
}
330
C
100
AcDbDictionary
281
     1
  3
ByBlock
350
ED
  3
ByLayer
350
EC
  3
Global
350
EE
  0
DICTIONARY
  5
12D
102
{ACAD_REACTORS
330
C
102
}
330
C
100
AcDbDictionary
281
     1
  3
Standard
350
12E
  0
DICTIONARY
  5
17
102
{ACAD_REACTORS
330
C
102
}
330
C
100
AcDbDictionary
281
     1
  3
Standard
350
18
  0
DICTIONARY
  5
19
102
{ACAD_REACTORS
330
C
102
}
330
C
100
AcDbDictionary
281
     1
  0
ACDBDICTIONARYWDFLT
  5
E
102
{ACAD_REACTORS
330
C
102
}
330
C
100
AcDbDictionary
281
     1
  3
Normal
350
F
100
AcDbDictionaryWithDefault
340
F
  0
DICTIONARY
  5
10C
102
{ACAD_REACTORS
330
C
102
}
330
C
100
AcDbDictionary
281
     1
  3
A0
350
10D
  3
A1
350
1BE
  3
A2
350
1BF
  3
A3
350
1C0
  3
A4
350
1C1
  3
A5
350
1C2
  3
A6
350
1C3
  3
A7
350
1C4
  3
A8
350
1C5
  3
A9
350
1C6
  3
B0
350
1C7
  3
B1
350
1C8
  3
B2
350
1C9
  3
B3
350
1CA
  3
B4
350
1CB
  3
B5
350
1CC
  3
B6
350
1CD
  0
DICTIONARY
  5
219
102
{ACAD_REACTORS
330
C
102
}
330
C
100
AcDbDictionary
281
     1
  3
Metric50
350
21A
  0
DICTIONARY
  5
7E
102
{ACAD_REACTORS
330
C
102
}
330
C
100
AcDbDictionary
281
     1
  3
Standard
350
7F
  0
DICTIONARY
  5
EF
102
{ACAD_REACTORS
330
C
102
}
330
C
100
AcDbDictionary
281
     1
  3
2dWireframe
350
F5
  3
Basic
350
F4
  3
Brighten
350
FB
  3
ColorChange
350
FF
  3
Conceptual
350
F8
  3
Dim
350
FA
  3
EdgeColorOff
350
1E6
  3
Facepattern
350
FE
  3
Flat
350
F0
  3
FlatWithEdges
350
F1
  3
Gouraud
350
F2
  3
GouraudWithEdges
350
F3
  3
Hidden
350
F7
  3
JitterOff
350
1E4
  3
Linepattern
350
FD
  3
OverhangOff
350
1E5
  3
Realistic
350
F9
  3
Shaded
350
1F3
  3
Shaded with edges
350
1F2
  3
Shades of Gray
350
1EF
  3
Sketchy
350
1F0
  3
Thicken
350
FC
  3
Wireframe
350
F6
  3
X-Ray
350
1F1
  0
XRECORD
  5
8202
102
{ACAD_REACTORS
330
C
102
}
330
C
100
AcDbXrecord
280
     1
 90
        1
330
7F
  0
DICTIONARY
  5
5E
102
{ACAD_REACTORS
330
C
102
}
330
C
100
AcDbDictionary
281
     1
  3
CANNOSCALE
350
146
  3
CENTEREXE
350
259
  3
CENTERLTYPEFILE
350
25A
  3
CMLEADERSTYLE
350
145
  3
CTABLESTYLE
350
84
  3
CVIEWDETAILSTYLE
350
227
  3
CVIEWSECTIONSTYLE
350
228
  3
DIMASSOC
350
5F
  3
HIDETEXT
350
63
  3
INDEXCTL
350
81AF
  3
LAYEREVAL
350
1AE
  3
LAYERNOTIFY
350
1AF
  3
LIGHTINGUNITS
350
81AD
  3
MSLTSCALE
350
81AC
  3
PSOLHEIGHT
350
81FF
  3
PSOLWIDTH
350
81FE
  3
SORTENTS
350
81AE
  3
XCLIPFRAME
350
8200
  0
XRECORD
  5
8203
102
{ACAD_REACTORS
330
C
102
}
330
C
100
AcDbXrecord
280
     1
  1
DWGPROPS COOKIE
  2

  3

  4

  6

  7

  8
truole
  9

300
=
301
=
302
=
303
=
304
=
305
=
306
=
307
=
308
=
309
=
 40
0.0020486111111111
 41
2460733.571354167
 42
2460733.598506944
  1

 90
        0
  0
DICTIONARY
  5
200
102
{ACAD_REACTORS
330
1FF
102
}
330
1FF
100
AcDbDictionary
281
     1
  0
XRECORD
  5
815A
102
{ACAD_REACTORS
330
1CE
102
}
330
1CE
100
AcDbXrecord
280
     1
340
1F
  0
XRECORD
  5
8163
102
{ACAD_REACTORS
330
8103
102
}
330
8103
100
AcDbXrecord
280
     1
340
D2
  0
XRECORD
  5
8166
102
{ACAD_REACTORS
330
8105
102
}
330
8105
100
AcDbXrecord
280
     1
340
D6
  0
ACDBDETAILVIEWSTYLE
  5
21C
102
{ACAD_XDICTIONARY
360
8242
102
}
102
{ACAD_REACTORS
330
21B
102
}
330
21B
100
AcDbModelDocViewStyle
 70
     0
  3
Metric50
290
     0
100
AcDbDetailViewStyle
 70
     0
 71
     0
 90
        3
 71
     1
340
11
 40
5.0
340
0
 40
5.0
300

 40
0.0
280
     1
 71
     2
340
16
 90
       25
 71
     3
340
11
 40
5.0
 90
        0
 40
15.0
 90
        1
300
%<\AcVar ViewDetailId>% (%<\AcVar ViewScale \f "%sn">%)
 71
     4
340
16
 90
       25
340
16
 90
       25
280
     0
  0
LAYOUT
  5
D3
102
{ACAD_XDICTIONARY
360
8207
102
}
102
{ACAD_REACTORS
330
1A
102
}
330
1A
100
AcDbPlotSettings
  1

  2
C:\Documents and Settings\basas\Application Data\Autodesk\AutoCAD 2005\R16.1\enu\plotters\Default Windows System Printer.pc3
  4

  6

 40
0.0
 41
0.0
 42
0.0
 43
0.0
 44
0.0
 45
0.0
 46
0.0
 47
0.0
 48
0.0
 49
0.0
140
0.0
141
0.0
142
1.0
143
1.0
 70
   688
 72
     0
 73
     0
 74
     5
  7

 75
    16
147
1.0
148
0.0
149
0.0
100
AcDbLayout
  1
Layout1
 70
     1
 71
     1
 10
0.0
 20
0.0
 11
12.0
 21
9.0
 12
0.0
 22
0.0
 32
0.0
 14
0.0
 24
0.0
 34
0.0
 15
0.0
 25
0.0
 35
0.0
146
0.0
 13
0.0
 23
0.0
 33
0.0
 16
1.0
 26
0.0
 36
0.0
 17
0.0
 27
1.0
 37
0.0
 76
     0
330
D2
  0
LAYOUT
  5
D7
102
{ACAD_XDICTIONARY
360
8209
102
}
102
{ACAD_REACTORS
330
1A
102
}
330
1A
100
AcDbPlotSettings
  1

  2
C:\Documents and Settings\basas\Application Data\Autodesk\AutoCAD 2005\R16.1\enu\plotters\Default Windows System Printer.pc3
  4

  6

 40
0.0
 41
0.0
 42
0.0
 43
0.0
 44
0.0
 45
0.0
 46
0.0
 47
0.0
 48
0.0
 49
0.0
140
0.0
141
0.0
142
1.0
143
1.0
 70
   688
 72
     0
 73
     0
 74
     5
  7

 75
    16
147
1.0
148
0.0
149
0.0
100
AcDbLayout
  1
Layout2
 70
     1
 71
     2
 10
0.0
 20
0.0
 11
12.0
 21
9.0
 12
0.0
 22
0.0
 32
0.0
 14
0.0
 24
0.0
 34
0.0
 15
0.0
 25
0.0
 35
0.0
146
0.0
 13
0.0
 23
0.0
 33
0.0
 16
1.0
 26
0.0
 36
0.0
 17
0.0
 27
1.0
 37
0.0
 76
     0
330
D6
  0
LAYOUT
  5
22
102
{ACAD_XDICTIONARY
360
8204
102
}
102
{ACAD_REACTORS
330
1A
102
}
330
1A
100
AcDbPlotSettings
  1

  2
none_device
  4
ISO_A4_(210.00_x_297.00_MM)
  6

 40
7.5
 41
20.0
 42
7.5
 43
20.0
 44
210.0
 45
297.0
 46
11.54999923706054
 47
-13.65000009536743
 48
0.0
 49
0.0
140
0.0
141
0.0
142
1.0
143
8.704084754739808
 70
 11952
 72
     1
 73
     0
 74
     0
  7

 75
     0
147
0.1148885871608098
148
0.0
149
0.0
100
AcDbLayout
  1
Model
 70
     1
 71
     0
 10
0.0
 20
0.0
 11
12.0
 21
9.0
 12
0.0
 22
0.0
 32
0.0
 14
0.0
 24
0.0
 34
0.0
 15
0.0
 25
0.0
 35
0.0
146
0.0
 13
0.0
 23
0.0
 33
0.0
 16
1.0
 26
0.0
 36
0.0
 17
0.0
 27
1.0
 37
0.0
 76
     0
330
1F
331
EA
1001
ACAD_PSEXT
1000
None
1000
None
1000
Not applicable
1000
The layout will not be plotted unless a new plotter configuration name is selected.
1070
     0
  0
MATERIAL
  5
ED
102
{ACAD_XDICTIONARY
360
1F9
102
}
102
{ACAD_REACTORS
330
6A
102
}
330
6A
100
AcDbMaterial
  1
ByBlock
  0
MATERIAL
  5
EC
102
{ACAD_XDICTIONARY
360
1F7
102
}
102
{ACAD_REACTORS
330
6A
102
}
330
6A
100
AcDbMaterial
  1
ByLayer
  0
MATERIAL
  5
EE
102
{ACAD_XDICTIONARY
360
173
102
}
102
{ACAD_REACTORS
330
6A
102
}
330
6A
100
AcDbMaterial
  1
Global
 43
0.0007999999797903
 43
0.0
 43
0.0
 43
0.0
 43
0.0
 43
0.0007999999797903
 43
0.0
 43
0.0
 43
0.0
 43
0.0
 43
1.0
 43
0.0
 43
0.0
 43
0.0
 43
0.0
 43
1.0
 49
0.0007999999797903
 49
0.0
 49
0.0
 49
0.0
 49
0.0
 49
0.0007999999797903
 49
0.0
 49
0.0
 49
0.0
 49
0.0
 49
1.0
 49
0.0
 49
0.0
 49
0.0
 49
0.0
 49
1.0
142
0.0007999999797903
142
0.0
142
0.0
142
0.0
142
0.0
142
0.0007999999797903
142
0.0
142
0.0
142
0.0
142
0.0
142
1.0
142
0.0
142
0.0
142
0.0
142
0.0
142
1.0
144
0.0007999999797903
144
0.0
144
0.0
144
0.0
144
0.0
144
0.0007999999797903
144
0.0
144
0.0
144
0.0
144
0.0
144
1.0
144
0.0
144
0.0
144
0.0
144
0.0
144
1.0
1001
ACAD
1070
    -1
1070
     3
1070
     0
1000

1071
        0
1070
     0
  0
MLEADERSTYLE
  5
12E
102
{ACAD_XDICTIONARY
360
822E
102
}
102
{ACAD_REACTORS
330
12D
102
}
330
12D
100
AcDbMLeaderStyle
170
     2
171
     1
172
     0
 90
        2
 40
0.0
 41
0.0
173
     1
 91
-1056964608
340
14
 92
       -2
290
     1
 42
2.0
291
     1
 43
8.0
  3
Standard
 44
4.0
300

342
11
174
     1
178
     1
175
     1
176
     0
 93
-1056964608
 45
4.0
292
     0
297
     0
 46
4.0
 94
-1056964608
 47
1.0
 49
1.0
140
1.0
293
     1
141
0.0
294
     1
177
     0
142
1.0
295
     0
296
     0
143
3.75
1001
ACAD_MLEADERVER
1070
     2
  0
MLINESTYLE
  5
18
102
{ACAD_REACTORS
330
17
102
}
330
17
100
AcDbMlineStyle
  2
STANDARD
 70
     0
  3

 62
   256
 51
90.0
 52
90.0
 71
     2
 49
0.5
 62
   256
  6
BYLAYER
 49
-0.5
 62
   256
  6
BYLAYER
  0
ACDBPLACEHOLDER
  5
F
102
{ACAD_REACTORS
330
E
102
}
330
E
  0
SCALE
  5
10D
102
{ACAD_REACTORS
330
10C
102
}
330
10C
100
AcDbScale
 70
     0
300
1:1
140
1.0
141
1.0
290
     1
  0
SCALE
  5
1BE
102
{ACAD_REACTORS
330
10C
102
}
330
10C
100
AcDbScale
 70
     0
300
1:2
140
1.0
141
2.0
290
     0
  0
SCALE
  5
1BF
102
{ACAD_REACTORS
330
10C
102
}
330
10C
100
AcDbScale
 70
     0
300
1:4
140
1.0
141
4.0
290
     0
  0
SCALE
  5
1C0
102
{ACAD_REACTORS
330
10C
102
}
330
10C
100
AcDbScale
 70
     0
300
1:5
140
1.0
141
5.0
290
     0
  0
SCALE
  5
1C1
102
{ACAD_REACTORS
330
10C
102
}
330
10C
100
AcDbScale
 70
     0
300
1:8
140
1.0
141
8.0
290
     0
  0
SCALE
  5
1C2
102
{ACAD_REACTORS
330
10C
102
}
330
10C
100
AcDbScale
 70
     0
300
1:10
140
1.0
141
10.0
290
     0
  0
SCALE
  5
1C3
102
{ACAD_REACTORS
330
10C
102
}
330
10C
100
AcDbScale
 70
     0
300
1:16
140
1.0
141
16.0
290
     0
  0
SCALE
  5
1C4
102
{ACAD_REACTORS
330
10C
102
}
330
10C
100
AcDbScale
 70
     0
300
1:20
140
1.0
141
20.0
290
     0
  0
SCALE
  5
1C5
102
{ACAD_REACTORS
330
10C
102
}
330
10C
100
AcDbScale
 70
     0
300
1:30
140
1.0
141
30.0
290
     0
  0
SCALE
  5
1C6
102
{ACAD_REACTORS
330
10C
102
}
330
10C
100
AcDbScale
 70
     0
300
1:40
140
1.0
141
40.0
290
     0
  0
SCALE
  5
1C7
102
{ACAD_REACTORS
330
10C
102
}
330
10C
100
AcDbScale
 70
     0
300
1:50
140
1.0
141
50.0
290
     0
  0
SCALE
  5
1C8
102
{ACAD_REACTORS
330
10C
102
}
330
10C
100
AcDbScale
 70
     0
300
1:100
140
1.0
141
100.0
290
     0
  0
SCALE
  5
1C9
102
{ACAD_REACTORS
330
10C
102
}
330
10C
100
AcDbScale
 70
     0
300
2:1
140
2.0
141
1.0
290
     0
  0
SCALE
  5
1CA
102
{ACAD_REACTORS
330
10C
102
}
330
10C
100
AcDbScale
 70
     0
300
4:1
140
4.0
141
1.0
290
     0
  0
SCALE
  5
1CB
102
{ACAD_REACTORS
330
10C
102
}
330
10C
100
AcDbScale
 70
     0
300
8:1
140
8.0
141
1.0
290
     0
  0
SCALE
  5
1CC
102
{ACAD_REACTORS
330
10C
102
}
330
10C
100
AcDbScale
 70
     0
300
10:1
140
10.0
141
1.0
290
     0
  0
SCALE
  5
1CD
102
{ACAD_REACTORS
330
10C
102
}
330
10C
100
AcDbScale
 70
     0
300
100:1
140
100.0
141
1.0
290
     0
  0
ACDBSECTIONVIEWSTYLE
  5
21A
102
{ACAD_XDICTIONARY
360
8240
102
}
102
{ACAD_REACTORS
330
219
102
}
330
219
100
AcDbModelDocViewStyle
 70
     0
  3
Metric50
290
     0
100
AcDbSectionViewStyle
 70
     0
 71
     0
 90
      102
 71
     1
340
11
 40
5.0
340
0
340
0
 40
5.0
300
I, O, Q, S, X, Z
 40
10.0
 90
        0
 40
2.5
 90
        0
 71
     2
340
16
 90
       25
340
16
 90
       50
 40
5.0
 40
2.5
 40
5.0
 71
     3
340
11
 40
5.0
 90
        0
 40
15.0
 90
        1
300
%<\AcVar ViewSectionStartId>%-%<\AcVar ViewSectionEndId>% (%<\AcVar ViewScale \f "%sn">%)
 71
     4
300
ANSI31
 40
1.0
 90
        0
290
     0
290
     0
 90
        6
 40
0.0
 40
1.570796326794896
 40
0.2617993877991494
 40
1.308996938995747
 40
-0.2617993877991494
 40
1.832595714594046
  0
TABLESTYLE
  5
7F
102
{ACAD_XDICTIONARY
360
162
102
}
102
{ACAD_REACTORS
330
7E
102
}
330
7E
100
AcDbTableStyle
  3
Standard
 70
     0
 71
     0
 40
1.5
 41
1.5
280
     0
281
     0
  7
Standard
140
4.5
170
     2
 62
     0
 63
     7
283
     0
274
    -2
284
     1
 64
     0
275
    -2
285
     1
 65
     0
276
    -2
286
     1
 66
     0
277
    -2
287
     1
 67
     0
278
    -2
288
     1
 68
     0
279
    -2
289
     1
 69
     0
  7
Standard
140
6.0
170
     5
 62
     0
 63
     7
283
     0
274
    -2
284
     1
 64
     0
275
    -2
285
     1
 65
     0
276
    -2
286
     1
 66
     0
277
    -2
287
     1
 67
     0
278
    -2
288
     1
 68
     0
279
    -2
289
     1
 69
     0
  7
Standard
140
4.5
170
     5
 62
     0
 63
     7
283
     0
274
    -2
284
     1
 64
     0
275
    -2
285
     1
 65
     0
276
    -2
286
     1
 66
     0
277
    -2
287
     1
 67
     0
278
    -2
288
     1
 68
     0
279
    -2
289
     1
 69
     0
  0
VISUALSTYLE
  5
F5
102
{ACAD_XDICTIONARY
360
8218
102
}
102
{ACAD_REACTORS
330
EF
102
}
330
EF
100
AcDbVisualStyle
  2
2dWireframe
 70
     4
 71
     0
 72
     2
 73
     1
 90
        0
 40
-0.6
 41
-30.0
 62
     5
 63
     7
 74
     1
 91
        4
 64
     7
 65
   257
 75
     1
175
     1
 42
1.0
 92
        0
 66
   257
 43
1.0
 76
     1
 77
     6
 78
     2
 67
     7
 79
     5
170
     0
171
     0
290
     0
174
     0
 93
        1
 44
0.0
173
     0
291
     0
 45
0.0
1001
ACAD
1000
AcDbSavedByObjectVersion
1070
     0
  0
VISUALSTYLE
  5
F4
102
{ACAD_XDICTIONARY
360
8216
102
}
102
{ACAD_REACTORS
330
EF
102
}
330
EF
100
AcDbVisualStyle
  2
Basic
 70
     7
 71
     1
 72
     0
 73
     1
 90
        0
 40
-0.6
 41
-30.0
 62
     5
 63
     7
 74
     0
 91
        4
 64
     7
 65
   257
 75
     1
175
     1
 42
1.0
 92
        8
 66
     7
 43
1.0
 76
     1
 77
     6
 78
     2
 67
     7
 79
     5
170
     0
171
     0
290
     0
174
     0
 93
        1
 44
0.0
173
     0
291
     1
 45
0.0
1001
ACAD
1000
AcDbSavedByObjectVersion
1070
     0
  0
VISUALSTYLE
  5
FB
102
{ACAD_XDICTIONARY
360
8224
102
}
102
{ACAD_REACTORS
330
EF
102
}
330
EF
100
AcDbVisualStyle
  2
Brighten
 70
    12
 71
     2
 72
     2
 73
     1
 90
        0
 40
-0.6
 41
-30.0
 62
     5
 63
     7
 74
     1
 91
        4
 64
     7
 65
   257
 75
     1
175
     1
 42
1.0
 92
        8
 66
     7
 43
1.0
 76
     1
 77
     6
 78
     2
 67
     7
 79
     5
170
     0
171
     0
290
     0
174
     0
 93
        1
 44
50.0
173
     0
291
     1
 45
0.0
1001
ACAD
1000
AcDbSavedByObjectVersion
1070
     0
  0
VISUALSTYLE
  5
FF
102
{ACAD_XDICTIONARY
360
822C
102
}
102
{ACAD_REACTORS
330
EF
102
}
330
EF
100
AcDbVisualStyle
  2
ColorChange
 70
    16
 71
     2
 72
     2
 73
     3
 90
        0
 40
-0.6
 41
-30.0
 62
     5
 63
     8
 74
     1
 91
        4
 64
     7
 65
   257
 75
     1
175
     1
 42
1.0
 92
        8
 66
     8
 43
1.0
 76
     1
 77
     6
 78
     2
 67
     7
 79
     5
170
     0
171
     0
290
     0
174
     0
 93
        1
 44
0.0
173
     0
291
     1
 45
0.0
1001
ACAD
1000
AcDbSavedByObjectVersion
1070
     0
  0
VISUALSTYLE
  5
F8
102
{ACAD_XDICTIONARY
360
821E
102
}
102
{ACAD_REACTORS
330
EF
102
}
330
EF
100
AcDbVisualStyle
  2
Conceptual
 70
     9
 71
     3
 72
     2
 73
     1
 90
        0
 40
-0.6
 41
-30.0
 62
     5
 63
     7
 74
     2
 91
        2
 64
     7
 65
   257
 75
     1
175
     1
 42
40.0
 92
        8
 66
     7
 43
1.0
 76
     1
 77
     6
 78
     2
 67
     7
 79
     3
170
     0
171
     0
290
     0
174
     0
 93
        1
 44
0.0
173
     0
291
     0
 45
0.0
1001
ACAD
1000
AcDbSavedByObjectVersion
1070
     0
  0
VISUALSTYLE
  5
FA
102
{ACAD_XDICTIONARY
360
8222
102
}
102
{ACAD_REACTORS
330
EF
102
}
330
EF
100
AcDbVisualStyle
  2
Dim
 70
    11
 71
     2
 72
     2
 73
     1
 90
        0
 40
-0.6
 41
-30.0
 62
     5
 63
     7
 74
     1
 91
        4
 64
     7
 65
   257
 75
     1
175
     1
 42
1.0
 92
        8
 66
     7
 43
1.0
 76
     1
 77
     6
 78
     2
 67
     7
 79
     5
170
     0
171
     0
290
     0
174
     0
 93
        1
 44
-50.0
173
     0
291
     1
 45
0.0
1001
ACAD
1000
AcDbSavedByObjectVersion
1070
     0
  0
VISUALSTYLE
  5
1E6
102
{ACAD_XDICTIONARY
360
8234
102
}
102
{ACAD_REACTORS
330
EF
102
}
330
EF
100
AcDbVisualStyle
  2
EdgeColorOff
 70
    22
 71
     2
 72
     2
 73
     0
 90
        0
 40
-0.6
 41
-30.0
 62
     5
 63
     7
 74
     1
 91
        4
 64
     7
 65
   257
 75
     1
175
     1
 42
1.0
 92
        8
 66
     7
 43
1.0
 76
     1
 77
     6
 78
     2
 67
     7
 79
     5
170
     0
171
     0
290
     0
174
     0
 93
        1
 44
0.0
173
     0
291
     1
 45
0.0
1001
ACAD
1000
AcDbSavedByObjectVersion
1070
     0
  0
VISUALSTYLE
  5
FE
102
{ACAD_XDICTIONARY
360
822A
102
}
102
{ACAD_REACTORS
330
EF
102
}
330
EF
100
AcDbVisualStyle
  2
Facepattern
 70
    15
 71
     2
 72
     2
 73
     1
 90
        0
 40
-0.6
 41
-30.0
 62
     5
 63
     7
 74
     1
 91
        4
 64
     7
 65
   257
 75
     1
175
     1
 42
1.0
 92
        8
 66
     7
 43
1.0
 76
     1
 77
     6
 78
     2
 67
     7
 79
     5
170
     0
171
     0
290
     0
174
     0
 93
        1
 44
0.0
173
     0
291
     1
 45
0.0
1001
ACAD
1000
AcDbSavedByObjectVersion
1070
     0
  0
VISUALSTYLE
  5
F0
102
{ACAD_XDICTIONARY
360
820E
102
}
102
{ACAD_REACTORS
330
EF
102
}
330
EF
100
AcDbVisualStyle
  2
Flat
 70
     0
 71
     2
 72
     1
 73
     1
 90
        2
 40
-0.6
 41
30.0
 62
     5
 63
     7
 74
     0
 91
        0
 64
     7
 65
   257
 75
     1
175
     1
 42
1.0
 92
        8
 66
     7
 43
1.0
 76
     1
 77
     6
 78
     2
 67
     7
 79
     5
170
     0
171
     0
290
     0
174
     0
 93
       13
 44
0.0
173
     0
291
     1
 45
0.0
1001
ACAD
1000
AcDbSavedByObjectVersion
1070
     0
  0
VISUALSTYLE
  5
F1
102
{ACAD_XDICTIONARY
360
8210
102
}
102
{ACAD_REACTORS
330
EF
102
}
330
EF
100
AcDbVisualStyle
  2
FlatWithEdges
 70
     1
 71
     2
 72
     1
 73
     1
 90
        2
 40
-0.6
 41
30.0
 62
     5
 63
     7
 74
     1
 91
        0
 64
     7
 65
   257
 75
     1
175
     1
 42
1.0
 92
        0
 66
   257
 43
1.0
 76
     1
 77
     6
 78
     2
 67
     7
 79
     5
170
     0
171
     0
290
     0
174
     0
 93
       13
 44
0.0
173
     0
291
     1
 45
0.0
1001
ACAD
1000
AcDbSavedByObjectVersion
1070
     0
  0
VISUALSTYLE
  5
F2
102
{ACAD_XDICTIONARY
360
8212
102
}
102
{ACAD_REACTORS
330
EF
102
}
330
EF
100
AcDbVisualStyle
  2
Gouraud
 70
     2
 71
     2
 72
     2
 73
     1
 90
        2
 40
-0.6
 41
30.0
 62
     5
 63
     7
 74
     0
 91
        0
 64
     7
 65
   257
 75
     1
175
     1
 42
1.0
 92
        0
 66
     7
 43
1.0
 76
     1
 77
     6
 78
     2
 67
     7
 79
     5
170
     0
171
     0
290
     0
174
     0
 93
       13
 44
0.0
173
     0
291
     1
 45
0.0
1001
ACAD
1000
AcDbSavedByObjectVersion
1070
     0
  0
VISUALSTYLE
  5
F3
102
{ACAD_XDICTIONARY
360
8214
102
}
102
{ACAD_REACTORS
330
EF
102
}
330
EF
100
AcDbVisualStyle
  2
GouraudWithEdges
 70
     3
 71
     2
 72
     2
 73
     1
 90
        2
 40
-0.6
 41
30.0
 62
     5
 63
     7
 74
     1
 91
        0
 64
     7
 65
   257
 75
     1
175
     1
 42
1.0
 92
        0
 66
   257
 43
1.0
 76
     1
 77
     6
 78
     2
 67
     7
 79
     5
170
     0
171
     0
290
     0
174
     0
 93
       13
 44
0.0
173
     0
291
     1
 45
0.0
1001
ACAD
1000
AcDbSavedByObjectVersion
1070
     0
  0
VISUALSTYLE
  5
F7
102
{ACAD_XDICTIONARY
360
821C
102
}
102
{ACAD_REACTORS
330
EF
102
}
330
EF
100
AcDbVisualStyle
  2
Hidden
 70
     6
 71
     1
 72
     2
 73
     2
 90
        0
 40
-0.6
 41
-30.0
 62
     5
 63
     7
 74
     2
 91
        2
 64
     7
 65
   257
 75
     2
175
     1
 42
40.0
 92
        0
 66
   257
 43
1.0
 76
     1
 77
     6
 78
     2
 67
     7
 79
     3
170
     0
171
     0
290
     0
174
     0
 93
        1
 44
0.0
173
     0
291
     0
 45
0.0
1001
ACAD
1000
AcDbSavedByObjectVersion
1070
     0
  0
VISUALSTYLE
  5
1E4
102
{ACAD_XDICTIONARY
360
8230
102
}
102
{ACAD_REACTORS
330
EF
102
}
330
EF
100
AcDbVisualStyle
  2
JitterOff
 70
    20
 71
     2
 72
     2
 73
     0
 90
        0
 40
-0.6
 41
-30.0
 62
     5
 63
     7
 74
     1
 91
        4
 64
     7
 65
   257
 75
     1
175
     1
 42
1.0
 92
       10
 66
     7
 43
1.0
 76
     1
 77
     6
 78
     2
 67
     7
 79
     5
170
     0
171
     0
290
     0
174
     0
 93
        1
 44
0.0
173
     0
291
     1
 45
0.0
1001
ACAD
1000
AcDbSavedByObjectVersion
1070
     0
  0
VISUALSTYLE
  5
FD
102
{ACAD_XDICTIONARY
360
8228
102
}
102
{ACAD_REACTORS
330
EF
102
}
330
EF
100
AcDbVisualStyle
  2
Linepattern
 70
    14
 71
     2
 72
     2
 73
     1
 90
        0
 40
-0.6
 41
-30.0
 62
     5
 63
     7
 74
     1
 91
        4
 64
     7
 65
   257
 75
     7
175
     7
 42
1.0
 92
        8
 66
     7
 43
1.0
 76
     1
 77
     6
 78
     2
 67
     7
 79
     5
170
     0
171
     0
290
     0
174
     0
 93
        1
 44
0.0
173
     0
291
     1
 45
0.0
1001
ACAD
1000
AcDbSavedByObjectVersion
1070
     0
  0
VISUALSTYLE
  5
1E5
102
{ACAD_XDICTIONARY
360
8232
102
}
102
{ACAD_REACTORS
330
EF
102
}
330
EF
100
AcDbVisualStyle
  2
OverhangOff
 70
    21
 71
     2
 72
     2
 73
     0
 90
        0
 40
-0.6
 41
-30.0
 62
     5
 63
     7
 74
     1
 91
        4
 64
     7
 65
   257
 75
     1
175
     1
 42
1.0
 92
        9
 66
     7
 43
1.0
 76
     1
 77
     6
 78
     2
 67
     7
 79
     5
170
     0
171
     0
290
     0
174
     0
 93
        1
 44
0.0
173
     0
291
     1
 45
0.0
1001
ACAD
1000
AcDbSavedByObjectVersion
1070
     0
  0
VISUALSTYLE
  5
F9
102
{ACAD_XDICTIONARY
360
8220
102
}
102
{ACAD_REACTORS
330
EF
102
}
330
EF
100
AcDbVisualStyle
  2
Realistic
 70
     8
 71
     2
 72
     2
 73
     0
 90
        2
 40
-0.6
 41
30.0
 62
     5
 63
     7
 74
     0
 91
        0
 64
     7
 65
   257
 75
     1
175
     1
 42
1.0
 92
        8
 66
   257
 43
1.0
 76
     1
 77
     6
 78
     2
 67
     7
 79
     3
170
     0
171
     0
290
     0
174
     0
 93
       13
 44
0.0
173
     0
291
     0
 45
0.0
1001
ACAD
1000
AcDbSavedByObjectVersion
1070
     0
  0
VISUALSTYLE
  5
1F3
102
{ACAD_XDICTIONARY
360
823E
102
}
102
{ACAD_REACTORS
330
EF
102
}
330
EF
100
AcDbVisualStyle
  2
Shaded
 70
    27
 71
     2
 72
     2
 73
     1
 90
        2
 40
-0.6
 41
30.0
 62
     5
 63
     7
 74
     0
 91
        4
 64
     7
 65
   257
 75
     1
175
     1
 42
1.0
 92
        8
 66
   257
 43
1.0
 76
     1
 77
     6
 78
     2
 67
     8
 79
     3
170
     0
171
     0
290
     0
174
     0
 93
        5
 44
0.0
173
     0
291
     0
 45
0.0
1001
ACAD
1000
AcDbSavedByObjectVersion
1070
     0
  0
VISUALSTYLE
  5
1F2
102
{ACAD_XDICTIONARY
360
823C
102
}
102
{ACAD_REACTORS
330
EF
102
}
330
EF
100
AcDbVisualStyle
  2
Shaded with edges
 70
    26
 71
     2
 72
     2
 73
     1
 90
        2
 40
-0.6
 41
30.0
 62
     5
 63
     7
 74
     1
 91
        2
 64
     7
 65
   257
 75
     2
175
     1
 42
1.0
 92
        8
 66
   257
 43
1.0
 76
     1
 77
     6
 78
     2
 67
     7
 79
     3
170
     0
171
     0
290
     0
174
     0
 93
        5
 44
0.0
173
     0
291
     0
 45
0.0
1001
ACAD
1000
AcDbSavedByObjectVersion
1070
     0
  0
VISUALSTYLE
  5
1EF
102
{ACAD_XDICTIONARY
360
8236
102
}
102
{ACAD_REACTORS
330
EF
102
}
330
EF
100
AcDbVisualStyle
  2
Shades of Gray
 70
    23
 71
     2
 72
     2
 73
     3
 90
        0
 40
-0.6
 41
-30.0
 62
     5
 63
     7
 74
     2
 91
        2
 64
     7
 65
     7
 75
     1
175
     1
 42
40.0
 92
        8
 66
     7
 43
1.0
 76
     1
 77
     6
 78
     2
 67
     7
 79
     3
170
     0
171
     0
290
     0
174
     0
 93
        1
 44
0.0
173
     0
291
     0
 45
0.0
1001
ACAD
1000
AcDbSavedByObjectVersion
1070
     0
  0
VISUALSTYLE
  5
1F0
102
{ACAD_XDICTIONARY
360
8238
102
}
102
{ACAD_REACTORS
330
EF
102
}
330
EF
100
AcDbVisualStyle
  2
Sketchy
 70
    24
 71
     1
 72
     2
 73
     2
 90
        0
 40
-0.6
 41
-30.0
 62
     5
 63
     7
 74
     2
 91
        2
 64
     7
 65
     7
 75
     1
175
     1
 42
40.0
 92
       11
 66
     7
 43
1.0
 76
     1
 77
     6
 78
     2
 67
     7
 79
     6
170
     0
171
     0
290
     0
174
     0
 93
        1
 44
0.0
173
     0
291
     0
 45
0.0
1001
ACAD
1000
AcDbSavedByObjectVersion
1070
     0
  0
VISUALSTYLE
  5
FC
102
{ACAD_XDICTIONARY
360
8226
102
}
102
{ACAD_REACTORS
330
EF
102
}
330
EF
100
AcDbVisualStyle
  2
Thicken
 70
    13
 71
     2
 72
     2
 73
     1
 90
        0
 40
-0.6
 41
-30.0
 62
     5
 63
     7
 74
     1
 91
        4
 64
     7
 65
   257
 75
     1
175
     1
 42
1.0
 92
       12
 66
     7
 43
1.0
 76
     1
 77
     6
 78
     2
 67
     7
 79
     5
170
     0
171
     0
290
     0
174
     0
 93
        1
 44
0.0
173
     0
291
     1
 45
0.0
1001
ACAD
1000
AcDbSavedByObjectVersion
1070
     0
  0
VISUALSTYLE
  5
F6
102
{ACAD_XDICTIONARY
360
821A
102
}
102
{ACAD_REACTORS
330
EF
102
}
330
EF
100
AcDbVisualStyle
  2
Wireframe
 70
     5
 71
     0
 72
     2
 73
     0
 90
        0
 40
-0.6
 41
-30.0
 62
     5
 63
     7
 74
     1
 91
        4
 64
     7
 65
   257
 75
     1
175
     1
 42
1.0
 92
        0
 66
   257
 43
1.0
 76
     1
 77
     6
 78
     2
 67
     7
 79
     3
170
     0
171
     0
290
     0
174
     0
 93
        1
 44
0.0
173
     0
291
     0
 45
0.0
1001
ACAD
1000
AcDbSavedByObjectVersion
1070
     0
  0
VISUALSTYLE
  5
1F1
102
{ACAD_XDICTIONARY
360
823A
102
}
102
{ACAD_REACTORS
330
EF
102
}
330
EF
100
AcDbVisualStyle
  2
X-Ray
 70
    25
 71
     2
 72
     2
 73
     1
 90
        1
 40
0.5
 41
-30.0
 62
     5
 63
     7
 74
     1
 91
        0
 64
     7
 65
   257
 75
     1
175
     1
 42
1.0
 92
        8
 66
     7
 43
1.0
 76
     1
 77
     6
 78
     2
 67
     7
 79
     3
170
     0
171
     0
290
     0
174
     0
 93
       13
 44
0.0
173
     0
291
     0
 45
0.0
1001
ACAD
1000
AcDbSavedByObjectVersion
1070
     0
  0
DICTIONARYVAR
  5
146
102
{ACAD_REACTORS
330
5E
102
}
330
5E
100
DictionaryVariables
280
     0
  1
1:1
  0
DICTIONARYVAR
  5
259
102
{ACAD_REACTORS
330
5E
102
}
330
5E
100
DictionaryVariables
280
     0
  1
3.500000
  0
DICTIONARYVAR
  5
25A
102
{ACAD_REACTORS
330
5E
102
}
330
5E
100
DictionaryVariables
280
     0
  1
acadiso.lin
  0
DICTIONARYVAR
  5
145
102
{ACAD_REACTORS
330
5E
102
}
330
5E
100
DictionaryVariables
280
     0
  1
STANDARD
  0
DICTIONARYVAR
  5
84
102
{ACAD_REACTORS
330
5E
102
}
330
5E
100
DictionaryVariables
280
     0
  1
STANDARD
  0
DICTIONARYVAR
  5
227
102
{ACAD_REACTORS
330
5E
102
}
330
5E
100
DictionaryVariables
280
     0
  1
Metric50
  0
DICTIONARYVAR
  5
228
102
{ACAD_REACTORS
330
5E
102
}
330
5E
100
DictionaryVariables
280
     0
  1
Metric50
  0
DICTIONARYVAR
  5
5F
102
{ACAD_REACTORS
330
5E
102
}
330
5E
100
DictionaryVariables
280
     0
  1
2
  0
DICTIONARYVAR
  5
63
102
{ACAD_REACTORS
330
5E
102
}
330
5E
100
DictionaryVariables
280
     0
  1
1
  0
DICTIONARYVAR
  5
81AF
102
{ACAD_REACTORS
330
5E
102
}
330
5E
100
DictionaryVariables
280
     0
  1
0
  0
DICTIONARYVAR
  5
1AE
102
{ACAD_REACTORS
330
5E
102
}
330
5E
100
DictionaryVariables
280
     0
  1
0
  0
DICTIONARYVAR
  5
1AF
102
{ACAD_REACTORS
330
5E
102
}
330
5E
100
DictionaryVariables
280
     0
  1
0
  0
DICTIONARYVAR
  5
81AD
102
{ACAD_REACTORS
330
5E
102
}
330
5E
100
DictionaryVariables
280
     0
  1
2
  0
DICTIONARYVAR
  5
81AC
102
{ACAD_REACTORS
330
5E
102
}
330
5E
100
DictionaryVariables
280
     0
  1
1
  0
DICTIONARYVAR
  5
81FF
102
{ACAD_REACTORS
330
5E
102
}
330
5E
100
DictionaryVariables
280
     0
  1
80.000000
  0
DICTIONARYVAR
  5
81FE
102
{ACAD_REACTORS
330
5E
102
}
330
5E
100
DictionaryVariables
280
     0
  1
5.000000
  0
DICTIONARYVAR
  5
81AE
102
{ACAD_REACTORS
330
5E
102
}
330
5E
100
DictionaryVariables
280
     0
  1
127
  0
DICTIONARYVAR
  5
8200
102
{ACAD_REACTORS
330
5E
102
}
330
5E
100
DictionaryVariables
280
     0
  1
2
  0
DICTIONARY
  5
8242
330
21C
100
AcDbDictionary
280
     1
281
     1
  3
ACAD_XREC_ROUNDTRIP
360
8243
  0
DICTIONARY
  5
8207
330
D3
100
AcDbDictionary
280
     1
281
     1
  3
ACAD_XREC_ROUNDTRIP
360
8208
  0
DICTIONARY
  5
8209
330
D7
100
AcDbDictionary
280
     1
281
     1
  3
ACAD_XREC_ROUNDTRIP
360
820A
  0
DICTIONARY
  5
8204
330
22
100
AcDbDictionary
280
     1
281
     1
  3
ACAD_XREC_ROUNDTRIP
360
8205
  0
DICTIONARY
  5
1F9
330
ED
100
AcDbDictionary
280
     1
281
     1
  3
ACAD_XREC_ROUNDTRIP
360
820C
  3
FBXASSET
360
1FA
  0
DICTIONARY
  5
1F7
330
EC
100
AcDbDictionary
280
     1
281
     1
  3
ACAD_XREC_ROUNDTRIP
360
820B
  3
FBXASSET
360
1F8
  0
DICTIONARY
  5
173
330
EE
100
AcDbDictionary
280
     1
281
     1
  3
ACAD_XREC_ROUNDTRIP
360
820D
  3
BUMPTILE
360
175
  3
DIFFUSETILE
360
174
  3
FBXASSET
360
1FB
  3
OPACITYTILE
360
176
  3
REFLECTIONTILE
360
177
  0
DICTIONARY
  5
822E
330
12E
100
AcDbDictionary
280
     1
281
     1
  3
ACAD_XREC_ROUNDTRIP
360
822F
  0
DICTIONARY
  5
8240
330
21A
100
AcDbDictionary
280
     1
281
     1
  3
ACAD_XREC_ROUNDTRIP
360
8241
  0
DICTIONARY
  5
162
330
7F
100
AcDbDictionary
280
     1
281
     1
  3
ACAD_ROUNDTRIP_2008_TABLESTYLE_CELLSTYLEMAP
360
8201
  3
ACAD_XREC_ROUNDTRIP
360
8206
  0
DICTIONARY
  5
8218
330
F5
100
AcDbDictionary
280
     1
281
     1
  3
ACAD_XREC_ROUNDTRIP
360
8219
  0
DICTIONARY
  5
8216
330
F4
100
AcDbDictionary
280
     1
281
     1
  3
ACAD_XREC_ROUNDTRIP
360
8217
  0
DICTIONARY
  5
8224
330
FB
100
AcDbDictionary
280
     1
281
     1
  3
ACAD_XREC_ROUNDTRIP
360
8225
  0
DICTIONARY
  5
822C
330
FF
100
AcDbDictionary
280
     1
281
     1
  3
ACAD_XREC_ROUNDTRIP
360
822D
  0
DICTIONARY
  5
821E
330
F8
100
AcDbDictionary
280
     1
281
     1
  3
ACAD_XREC_ROUNDTRIP
360
821F
  0
DICTIONARY
  5
8222
330
FA
100
AcDbDictionary
280
     1
281
     1
  3
ACAD_XREC_ROUNDTRIP
360
8223
  0
DICTIONARY
  5
8234
330
1E6
100
AcDbDictionary
280
     1
281
     1
  3
ACAD_XREC_ROUNDTRIP
360
8235
  0
DICTIONARY
  5
822A
330
FE
100
AcDbDictionary
280
     1
281
     1
  3
ACAD_XREC_ROUNDTRIP
360
822B
  0
DICTIONARY
  5
820E
330
F0
100
AcDbDictionary
280
     1
281
     1
  3
ACAD_XREC_ROUNDTRIP
360
820F
  0
DICTIONARY
  5
8210
330
F1
100
AcDbDictionary
280
     1
281
     1
  3
ACAD_XREC_ROUNDTRIP
360
8211
  0
DICTIONARY
  5
8212
330
F2
100
AcDbDictionary
280
     1
281
     1
  3
ACAD_XREC_ROUNDTRIP
360
8213
  0
DICTIONARY
  5
8214
330
F3
100
AcDbDictionary
280
     1
281
     1
  3
ACAD_XREC_ROUNDTRIP
360
8215
  0
DICTIONARY
  5
821C
330
F7
100
AcDbDictionary
280
     1
281
     1
  3
ACAD_XREC_ROUNDTRIP
360
821D
  0
DICTIONARY
  5
8230
330
1E4
100
AcDbDictionary
280
     1
281
     1
  3
ACAD_XREC_ROUNDTRIP
360
8231
  0
DICTIONARY
  5
8228
330
FD
100
AcDbDictionary
280
     1
281
     1
  3
ACAD_XREC_ROUNDTRIP
360
8229
  0
DICTIONARY
  5
8232
330
1E5
100
AcDbDictionary
280
     1
281
     1
  3
ACAD_XREC_ROUNDTRIP
360
8233
  0
DICTIONARY
  5
8220
330
F9
100
AcDbDictionary
280
     1
281
     1
  3
ACAD_XREC_ROUNDTRIP
360
8221
  0
DICTIONARY
  5
823E
330
1F3
100
AcDbDictionary
280
     1
281
     1
  3
ACAD_XREC_ROUNDTRIP
360
823F
  0
DICTIONARY
  5
823C
330
1F2
100
AcDbDictionary
280
     1
281
     1
  3
ACAD_XREC_ROUNDTRIP
360
823D
  0
DICTIONARY
  5
8236
330
1EF
100
AcDbDictionary
280
     1
281
     1
  3
ACAD_XREC_ROUNDTRIP
360
8237
  0
DICTIONARY
  5
8238
330
1F0
100
AcDbDictionary
280
     1
281
     1
  3
ACAD_XREC_ROUNDTRIP
360
8239
  0
DICTIONARY
  5
8226
330
FC
100
AcDbDictionary
280
     1
281
     1
  3
ACAD_XREC_ROUNDTRIP
360
8227
  0
DICTIONARY
  5
821A
330
F6
100
AcDbDictionary
280
     1
281
     1
  3
ACAD_XREC_ROUNDTRIP
360
821B
  0
DICTIONARY
  5
823A
330
1F1
100
AcDbDictionary
280
     1
281
     1
  3
ACAD_XREC_ROUNDTRIP
360
823B
  0
XRECORD
  5
8243
102
{ACAD_REACTORS
330
8242
102
}
330
8242
100
AcDbXrecord
280
     1
102
DISPLAYNAME
  1
Metric50
102
FLAGS
 90
        0
  0
XRECORD
  5
8208
102
{ACAD_REACTORS
330
8207
102
}
330
8207
100
AcDbXrecord
280
     1
102
SHADEPLOT
 70
     0
102
SHADEPLOTRESLEVEL
 70
     2
102
SHADEPLOTCUSTOMDPI
 70
   300
  0
XRECORD
  5
820A
102
{ACAD_REACTORS
330
8209
102
}
330
8209
100
AcDbXrecord
280
     1
102
SHADEPLOT
 70
     0
102
SHADEPLOTRESLEVEL
 70
     2
102
SHADEPLOTCUSTOMDPI
 70
   300
  0
XRECORD
  5
8205
102
{ACAD_REACTORS
330
8204
102
}
330
8204
100
AcDbXrecord
280
     1
102
SHADEPLOT
 70
     0
102
SHADEPLOTRESLEVEL
 70
     2
102
SHADEPLOTCUSTOMDPI
 70
   300
  0
XRECORD
  5
820C
102
{ACAD_REACTORS
330
1F9
102
}
330
1F9
100
AcDbXrecord
280
     1
102
MATERIAL
148
0.0
149
0.0
149
0.0
 93
        0
 94
       63
282
     0
 72
     1
 77
     1
171
     1
175
     1
179
     1
273
     0
  0
XRECORD
  5
1FA
102
{ACAD_REACTORS
330
1F9
102
}
330
1F9
100
AcDbXrecord
280
     1
 70
     1
 90
429727718
  1
D62C5603-E3A1-4AEA-B7FB-FE5D8D0755AF
310
504B03040A0000080000CC70623B3DEE336E79000000790000001B0000006175746F6465736B2D64657369676E2D7061636B6167652E786D6C3C3F786D6C2076657273696F6E3D22312E302220656E636F64696E673D227574662D3822203F3E3C666F726D6174733E3C666F726D61743E687474703A2F2F736368656D612E
310
6175746F6465736B2E636F6D2F64657369676E2D7061636B6167652F323030393C2F666F726D61743E3C2F666F726D6174733E504B0304140006080800CC70623BD486FD9CA0000000F4000000130000005B436F6E74656E745F54797065735D2E786D6C7D8EC10E82300C865F65E91D8A1E8C310C0EEA1BF002731658846E
310
D98AC1B77784ABF1D8FE5FBFBF75BBCE937A534CCEB38643598122B6FEE978D0B0485F9C41B54DDD7D022595594E1A469170414C76A4D9A4D207E29CF43ECE46F218070CC6BECC4078ACAA135ACF422C856C0E68EA1BF5669944DDD7BCDE7B1F8E415D77AECB980613C2E4AC91FC167A2B244592486606FC29C8FD7F045B9A
310
EF7053A7E60B504B0304140006080800CC70623B853B8169EB0000007C01000008000000636F72652E786D6C8D90416EC3201045AF62CDB6C206821CC7C244919D9CA01740401C94182C03558F5F9C3852BBEB6A467FFE9B197D7EFC9E1EC5975982F5AE035262288C535E5B377690E21535501C055FBC8FBF6C503839990E
310
5619041F179FE64D52DE45E362569DD7661365082642A11EB9E920A89B99642953CC8E702F67A9EE7234257977194EC9EAE275C4EABCCF5EAD5940D4AC6F0E35A568B8F43562CD7046CD199FD07E60174276A7BE677B5EADB0E0D14EEFFB6A31321A0D82627C4084204C3F096B71DD52F6819B16635EADF63F509AF53FA164
310
5DDCD1EDDD17164090FCC8732078B56691CB33A85CD7DCC40F504B0304140006080800CC70623B55019EA25F0000007C00000007000000636E782E786D6C4DCB3B0E80201045D1AD90E915ED2CF8AC45050C11660C8261F98AB1B07AC9C97D42D718D865D3E909258CFD00CCE24AC6E326A164D74DC0B4128928FF32603847
310
2BA13128B1252AC747C6BAB984FC68F0B87FE8960A5C09FE86CFB69FBA01504B0304140006080800CC70623BDBABAAF470010000D40300000C0000006662782F636F72652E786D6CC553D16E823014FD95A6AF4B694182CC941A83FA05FB810A9511A125A5257EFE2E82712ECEB8A7F100CD39F7F69E734AF9FADC366850B6
310
AF8DCE7018308C942E4C59EB2AC3DE1D498AD15A706B8CFB56869196ADCAF00863C12B6B7C374385D14E6907A836A59A41D9F7CA615434B0C8705F7CAA5606D23BA8E84F41278B93AC54100640439DE0BDB320004D43C63716C7C399D30917DCFBBA9CD9BA8469F5B156168B24CED3F7248AC8769F27244EB73B92EED8862C
310
B7F13E0C179B3C8F979C8ECD82BBBABDAA2BAC924E9558448CBD9330242CFA08E3154B5651FCC6D215639C8EE5774DBE2B5F6CF2B5768B68963BB5F5588420E442FC700B1139D4CB01F450C1E918227C2E09DF070D8140C84E1E9AAB8F1340832A9CB13130A5F1376A908D57309505ECF2A0DF179C4E9D30F5B239B87E3823
310
7A79C6F31DE1A8A5AEC08474B03C7837EAE4938639B44E5932B833D2C6B6B279CDC613877FA26EE21F4A2A4C63EC7F29A2F301D1F9F7A0E37D145F504B0304140006080800CC70623B9C113CC27E0000009D0000000B0000006662782F636E782E786D6C4DCCDF0A83201C86E15B91DFB94BFB330DD428C8FB886521330DA7
310
6397BF1A1DECE883878F57749FCDA1B7892F1BBC047A23808C7F84D9FA55424E0BE6803A256208E9EF06C84F9B91703228B1C690F78B66B34CD9A5439DF5CF0BFBF65E35BCA1B8D6A5C6F540381E886698B5741C695F9503EBA150A2F8958E3DC3EA0B504B0304140006080800CC70623B7DF2F77C2A010000120200003100
310
00006662782F41393633353835312D344632462D344230382D423046372D3739314545314133324237412F636F72652E786D6C8D51DB8EC22014FC15C2939B0D2DB4B45643319AE817EC0F6041255A68B86CFCFC856D4D76DF7CE190393373060EDB3DC707F856CE6B6B7A480A0C81328395DA5C7B18C3057510EC3873D686
310
3F34088C18550F330C39BB3A1BA7051AAC09CA84841A2BD5020AEF55806078A44B0FFD7053A328440C89E1EFC52486BBB8AA8214A99D789CF9E05200300FC927E4FB4D5B375D43103D5527440FB843077C5AA3F5861C8F645F5787F59E95B390B318B55CE45AA638FAA2957BD7248B390B7A7CC51F9C124149C82B8C378810
310
84AB2F42B7B8DD56F413775B8C5999E9FF4471926F8AA236A1AE96B8B3CC434E5839373893369E1FAF30EA395917409EB7F26AF8801C171837A4A6AC9C89E9F9C9B1A58BA30FD6A5EF5DDDCF894B9AD9B6A59C957943A9FCAE2FD5BC4DFE03504B0304140006080800CC70623BAD7543B64E01000033030000300000006662
310
782F41393633353835312D344632462D344230382D423046372D3739314545314133324237412F636E782E786D6CD593CD6EC32010845F0571AD6CE3D48AD20813A9873E410FBD12D82434182C7EAAE6EDBB2424CD25871E7B41D6EC30B3FA84F9E67BB2E40B4234DE8DB46F1925E094D7C6ED479AD3AE5951B2113C789FEE
310
6C943839C1488B4C05DF079FE72A69D8C96C13AAD6B8631503449F83828872B949AC57D26200B826A308D316B4064D6E46FCDA41C05550DC9E483A00797BFD207EFB092A45DE9514C1BBD22178396BD39D891265658C238DEA00936C654E5E433CB65A26D9F6EDB5EBC14EBF49A45CB856E66048291F6939A9A81BB5C89177
310
38143CA680F4AA299D66A042CEB3354A2684DC9D8D178FE0D9B8B41CAAD720F880EE7EF93C0C18769E099ECC04D5A102C8049A8A05632F4DDF376CF1DE0F6BB65C2F8627B65A33C6BB62177CEBBDAD973006829F89F22E814B54F4BC2BE347F8AA8F681390B50FA73F804400B5F542E796F19FF974E7F78DB802FE05E20750
310
4B0304140006080800CC70623BE75B7789680500003C100000340000006662782F41393633353835312D344632462D344230382D423046372D3739314545314133324237412F6F626A656374732E786D6CAD575B8F9B3818FD2B887D06C22499CB8AA1CA655245D5B455A356FB305264C061D8018C6C3393D95FBFC7600890
310
A4CD5EF210B0B1BFEBF98E3F7B1FF6596ABC522E1296DF9BAE3D320D9A872C4AF2F8DE2CE5CEBA358D0FBEC719939D65A691938CDE9B6ADAF4BD98B3B2D05311DD91329583D9D5FC0F438434A7A611A644887B5384CF34233629258BA878B12322891DEFF6B66BD70BFB62634E8AE781D082709A4B588AF91C528CDA28B73F
310
1C998EEF39EABBEFA97FBD6A7C7E9553F9D3D79FE442923C3C523610337627CB87ABE99D359D4CC6D6E4FACAB5E6ABF9D2726FC6A3C5F56271377BB88362213924694B38DD99FE47C48627A1E7D49F5A8BB5E1A74C0A599ED3B0F21F1E56366B89112D681E218F0915D0D6F17AD41FBA2A369DCF6335D62ABBD39779D5DDD1
310
11D4D8DE3CBB96B2E04FB8202E41051754A1AA8E8F76B4C6DFE810B580B1547F4B84911149794252234D024EF8BBE963A95AE27B3D310A9D5C215C7960FAEE415ED75694C6AFB17BCACA5D99A60A9AA65F217B0BFC53292ACB92BF283FAD0D3621576592CB5BED907C2FA8E9DF794E35E97BEA31BED21FEB401ABB94C44839
310
DCACBF0E1C5DA8DA5B2F4DFFD32AD86F543D9E565E7056502E157C00AD2671CD534549AB752FCA9CDA00677A313F04E51B22FF19E57B300579E3C97EB29F682D92935CEC18CF901B7B54FD8C51F362B56FC72FE0B3C1EAE335EDCCBF5AEC39ADB17DC238973F804BA5E6F6BFE7AF1FB32E523BE9F3BD571418E3631DCA4D48
310
5250CF639223210A9446CA30052EDF057BD35F8329C1ECD84552BF0DC8D18BE7BCE23BFE6BD960AB4A7DE79923A103BEBD80F911CBAA2C60DB19B01CF164A5583B772EE6D3FFA56666CBCDA74DC97724A48F9A58967497E489C4D979006FD7A05E227A1EBDD0F737C623387A9C844D3709995625106D157315F8B8392CD4E0
310
A0B9A720C4BE9829CEF37EA1E13111214D53925356365ADA634861B52519DD27A00AEB808EAF0628E6F435519D446F45CF2C9CF5214F0A15B2F6D06B79DA3EE3CBF7F56780D2F4E7EF73A0F5E5B02A38D07DC852C6B7C1FBB6664213E0C39E3EBA7FF4E1AD23EA2829407C85E586727488B751B2DB9502BC7B228A3FD68B6E
310
A65A22397E690AA8D158D7E404EC8CDA235CC3B7D1898680131CEC2CDF2638C65196279577750F15884AEE19F94199155B92B13297978469D4F8D358DF0AEF7631E28DC8F0D9F437D5D39A83B2231A1D52D543813A824EF8D44BCFF2FA6A31BD1E8DAD87F1CCB526B3879935BF59CDADD5C37479BB1CDD4CA7B3556B516589
310
EF352754B706114D9C885EC9131DE6EFEB43D99AFE2391C2F958179413D7CFEF6B1B6DB1E7600F00DE6E5C67454A339A4BA2E0FBA85ED26F045D454F463DBFCE484C2F90F2E5E3666003662ED8F755951A7D1BECD5B30B550B2785C8E7320B7292A4838DDA71BBC863ED7613CAF659337A3354231D4FF4A182A54904C2898C
310
98B28C4AD0CE056CCF332A80986E571EE9DBC305BB5FEB7E509220A58D25CF042D712A806AC0AD0C657FDEF80D2D9CEAA2EE4D1C76F60BFE74219A06527D6F82DF6412526107381E55E353090704D085B52408A8913C4ED159D79BDA71BB4BC506F4831350EB6F975CD22D69BF7AC49B91A2C0A9DDA3D5CA36AD20FC478E37
310
E61844E2352865EBCB61A275A65283CAAA9DD27703B4102F5AF51EF5F573B75CBB5AD38BC845F7A49F82A0966A49C2E3EA5EA0ECD326CD965F1DB402C6FA8B51A4658C5C5E2EC9E214602E55810345408596591009A82E7E7FFACA19EEA299B14A0081A705CB3296EBC14CDF658DCD336EA6D1136881AAEB87B81AB9EE53D5
310
F5EB8BC8362082DA24122F98680A4E7930C01A0079749CEA14382A0783E5EBA5A10F8C098456A03D6A4AEB6BB881E2513747552A5DB22C7EDAF83BD5528081A365F7FF06504B0304140006080000CC70623B000000000000000000000000350000006662782F41393633353835312D344632462D344230382D423046372D37
310
39314545314133324237412F76657274696365732E62696E504B0304140006080800CC70623BF270F1330600000004000000360000006662782F41393633353835312D344632462D344230382D423046372D3739314545314133324237412F747269616E676C65732E62696E636660600000504B0304140006080000CC7062
310
3B000000000000000000000000370000006662782F41393633353835312D344632462D344230382D423046372D3739314545314133324237412F617474726962757465732E62696E504B0304140006080800CC70623B08DA0BD19000000041010000360000006662782F41393633353835312D344632462D344230382D4230
310
46372D3739314545314133324237412F6469726563746F72792E786D6C858F410AC3201045AF22B36F53E9A60B35CBEEBAE80D244E44489C6234F4F835464A48035D0DF398FF9F8AF63D0E6CC63039F212F8F9020C7D47C6792B21C5FE7403D62A1188E2E60C98D7234A5830286103A55745067B9D86B8A3CF9C7F90C11DE6
310
07FB144396D7B6A82D282E9A152AD114D5EF2CB866EEE831B8EEA07A7BB5A8D7D61A2BAAEB7FD5F70921FF497D00504B0304140006080800CC70623BEDD1DC58FD000000A00100003B0000006662782F41393633353835312D344632462D344230382D423046372D3739314545314133324237412F7265736F75726365732F
310
636F72652E786D6C8D504B6E833010BD0A9A6D65B00922041947112427E8052C33A156828DFCA97AFC9A40A576D7CDCCE87D344F8F9FBFE667F689CE6B6B3A6039850C8DB2A336530731DC4903D95970676DF82583CCC8193B5861107C72362E3BA4AC096842428D1D7107A5F7182053CF7474E0D507CE32973124857FE48B
310
540F3961CEF244279DE03EB81420DB9EAC1384436FA353E879B1B182C7A8C75DA3C7F453DF353A1075D537A7BA6464B8F535A99AE14A9A2BBD90E350DD183B5CFABE3AF262350B1EF4FC9351399401471025A527C218A1E53BAB5A5AB765F5469B96525EACF23FA6B88CFF34456DC2A1DCE36E360F82A5202F42F062ED2BAD
310
579969AFDD8A6F504B010214000A0000080000CC70623B3DEE336E79000000790000001B00000000000000000000000000000000006175746F6465736B2D64657369676E2D7061636B6167652E786D6C504B01021400140006080800CC70623BD486FD9CA0000000F40000001300000000000000000000000000B20000005B
310
436F6E74656E745F54797065735D2E786D6C504B01021400140006080800CC70623B853B8169EB0000007C010000080000000000000000000000000083010000636F72652E786D6C504B01021400140006080800CC70623B55019EA25F0000007C000000070000000000000000000000000094020000636E782E786D6C504B
310
01021400140006080800CC70623BDBABAAF470010000D40300000C00000000000000000000000000180300006662782F636F72652E786D6C504B01021400140006080800CC70623B9C113CC27E0000009D0000000B00000000000000000000000000B20400006662782F636E782E786D6C504B01021400140006080800CC70
310
623B7DF2F77C2A010000120200003100000000000000000000000000590500006662782F41393633353835312D344632462D344230382D423046372D3739314545314133324237412F636F72652E786D6C504B01021400140006080800CC70623BAD7543B64E010000330300003000000000000000000000000000D2060000
310
6662782F41393633353835312D344632462D344230382D423046372D3739314545314133324237412F636E782E786D6C504B01021400140006080800CC70623BE75B7789680500003C10000034000000000000000000000000006E0800006662782F41393633353835312D344632462D344230382D423046372D3739314545
310
314133324237412F6F626A656374732E786D6C504B01021400140006080000CC70623B0000000000000000000000003500000000000000000000000000280E00006662782F41393633353835312D344632462D344230382D423046372D3739314545314133324237412F76657274696365732E62696E504B01021400140006
310
080800CC70623BF270F133060000000400000036000000000000000000000000007B0E00006662782F41393633353835312D344632462D344230382D423046372D3739314545314133324237412F747269616E676C65732E62696E504B01021400140006080000CC70623B0000000000000000000000003700000000000000
310
000000000000D50E00006662782F41393633353835312D344632462D344230382D423046372D3739314545314133324237412F617474726962757465732E62696E504B01021400140006080800CC70623B08DA0BD1900000004101000036000000000000000000000000002A0F00006662782F41393633353835312D344632
310
462D344230382D423046372D3739314545314133324237412F6469726563746F72792E786D6C504B01021400140006080800CC70623BEDD1DC58FD000000A00100003B000000000000000000000000000E1000006662782F41393633353835312D344632462D344230382D423046372D3739314545314133324237412F7265
310
736F75726365732F636F72652E786D6C504B0506000000000E000E0080040000641100000000
  0
XRECORD
  5
820B
102
{ACAD_REACTORS
330
1F7
102
}
330
1F7
100
AcDbXrecord
280
     1
102
MATERIAL
148
0.0
149
0.0
149
0.0
 93
        0
 94
       63
282
     0
 72
     1
 77
     1
171
     1
175
     1
179
     1
273
     0
  0
XRECORD
  5
1F8
102
{ACAD_REACTORS
330
1F7
102
}
330
1F7
100
AcDbXrecord
280
     1
 70
     1
 90
429727718
  1
30362254-06B7-45E0-A893-8CFA70E3D6BC
310
504B03040A0000080000CC70623B3DEE336E79000000790000001B0000006175746F6465736B2D64657369676E2D7061636B6167652E786D6C3C3F786D6C2076657273696F6E3D22312E302220656E636F64696E673D227574662D3822203F3E3C666F726D6174733E3C666F726D61743E687474703A2F2F736368656D612E
310
6175746F6465736B2E636F6D2F64657369676E2D7061636B6167652F323030393C2F666F726D61743E3C2F666F726D6174733E504B0304140006080800CC70623BD486FD9CA0000000F4000000130000005B436F6E74656E745F54797065735D2E786D6C7D8EC10E82300C865F65E91D8A1E8C310C0EEA1BF002731658846E
310
D98AC1B77784ABF1D8FE5FBFBF75BBCE937A534CCEB38643598122B6FEE978D0B0485F9C41B54DDD7D022595594E1A469170414C76A4D9A4D207E29CF43ECE46F218070CC6BECC4078ACAA135ACF422C856C0E68EA1BF5669944DDD7BCDE7B1F8E415D77AECB980613C2E4AC91FC167A2B244592486606FC29C8FD7F045B9A
310
EF7053A7E60B504B0304140006080800CC70623B1EC5D7A3EB0000007C01000008000000636F72652E786D6C8D90416EC3201045AF82665B6103C6756C6122AB4D4ED00B204C5C94182C03558F5F9C3852BBEB6A467FFE9B197D71FC9E6FE8CBACC17AD7032D0820E3B41FAD9B7A48F1820F808E52ACDEC75F36404ECDA687
310
4D0629A6D5A76597B477D1B89855E747B38B2A041301E95B6E7A08FAD3CCAA50296647B8168BD2573599823EBB0CA76447F43862C7BCCF5EAC59410E4DDD9C7973C2755553CCCFA4C603E3040F1565ED3B1FDE4E432BCA0D9622DAF9795FAF464533826484B498524CD807E51D79ED187F21878E10516EF63F505AC67F42C9
310
BA58B1FDDD071640D2FCC87D2045B96591CB3DA85CB7DCE40F504B0304140006080800CC70623B55019EA25F0000007C00000007000000636E782E786D6C4DCB3B0E80201045D1AD90E915ED2CF8AC45050C11660C8261F98AB1B07AC9C97D42D718D865D3E909258CFD00CCE24AC6E326A164D74DC0B4128928FF32603847
310
2BA13128B1252AC747C6BAB984FC68F0B87FE8960A5C09FE86CFB69FBA01504B0304140006080800CC70623B8C9102E971010000D40300000C0000006662782F636F72652E786D6CC5535B6E833010BC8AE5DF0A6C08340F1947A84D4ED00B38C6A128602363A31CBFCB234A53A551FA553EC09AD9F5CE8C31DB9E9B1AF5CA
310
7695D1198E428A91D2D214952E33ECDD315861B4E5CC1AE3BE9561A445A3323CC098B3D21ADFCE9034DA29ED00D5A6503328BA4E398C640D8B0C77F253352214DE4145770A5B214FA2546114020D759C75CE8200340D19DE981F0F6746269C33EFAB6266AB02A655C74A59CCF365BADC27CB5D902ED22848F6340DF238A141
310
BE88E2F57B92BFEDF23523433367AE6A2EEAA455C2A902F398D2751045018D3FA264435F3771F242571B4A1919CA6F9A7C5B3CD9E42BED16F12C776AEB308F40C848FC700B1139D4891EF410CEC810227CC6846F8386402064270EF5C5C709A05E49676C024C61FC95EA45ED154CA5211D1FF4FB8291A913A68E9B83EBBB33
310
E2A7673CDE118E5AE8124C0807CB8377834E366998436B950D7A7746DAD846D4CFD978E0F04FD455FC5D49D2D4C6FE9722321F10997F0F32DC47FE05504B0304140006080800CC70623BFFEA85907E0000009D0000000B0000006662782F636E782E786D6C4DCCD10A83201886E15B91FFDC95D95A811AB6F23E625948A6C3
310
E9D8E5AF46073BFAE0E1E365ED67B3E8ADC3CB78C7815C7240DA3DFC64DCC221C519D7805AC182F7F1EF06C88D9BE6703008B6049F9E274D7A1E938DBB5AE3D6131B2589BA0D3D965551E0B2EA732C9B9A624AAEB41E3A557677029960D9AFB4EF11165F504B0304140006080800CC70623B4FEEA4082C0100001202000031
310
0000006662782F39464131463745442D413632322D343644302D413938332D3331353338454246344243312F636F72652E786D6C8D515B6EC32010BC0AE2AB55850DD871ED0813254D72825EC00192A2C460F1A872FC42ED48ED5F7E00CDCECCCEB26C731F6FE05B39AFADE921293004CA082BB5B9F43086336A21D870E6AC
310
0D7F68109861543DCC30E4ECE26C9C164858139409093556AA051CBC570102714B8F1E7AF1A5C6A11862480C7F2DA6415C878B2A4891CA89C7990F2E050073937C42DE1DB7E4F87ED8A36D4329AA9B3D46DBAEAD504556557BD81DEBDD0761E52CE42C462D17B996298E3E6BE59E35C962CE821E1FF18553435012728A7187
310
0841987E927A8D9B35ADDF70BBC6989599FE4F1427F9A4286A132ABAC49D651EF234CD5CE04CDA78BA3DC2A8FB645D00B9DF8B57E215725C60BCA2A463E54C4CE327C7A65E1C7DB02E7DEFCBF594B864C5CA6CDBD49C957943E9FA5D5FBAF336F90F504B0304140006080800CC70623BAD7543B64E01000033030000300000
310
006662782F39464131463745442D413632322D343644302D413938332D3331353338454246344243312F636E782E786D6CD593CD6EC32010845F0571AD6CE3D48AD20813A9873E410FBD12D82434182C7EAAE6EDBB2424CD25871E7B41D6EC30B3FA84F9E67BB2E40B4234DE8DB46F1925E094D7C6ED479AD3AE5951B2113C
310
789FEE6C943839C1488B4C05DF079FE72A69D8C96C13AAD6B8631503449F83828872B949AC57D26200B826A308D316B4064D6E46FCDA41C05550DC9E483A00797BFD207EFB092A45DE9514C1BBD22178396BD39D891265658C238DEA00936C654E5E433CB65A26D9F6EDB5EBC14EBF49A45CB856E66048291F6939A9A81BB5
310
C8917738143CA680F4AA299D66A042CEB3354A2684DC9D8D178FE0D9B8B41CAAD720F880EE7EF93C0C18769E099ECC04D5A102C8049A8A05632F4DDF376CF1DE0F6BB65C2F8627B65A33C6BB62177CEBBDAD973006829F89F22E814B54F4BC2BE347F8AA8F681390B50FA73F804400B5F542E796F19FF974E7F78DB802FE05
310
E207504B0304140006080800CC70623B16AB87BA640500003C100000340000006662782F39464131463745442D413632322D343644302D413938332D3331353338454246344243312F6F626A656374732E786D6CAD575B6FA33818FD2B887DE6924B3BED8A326A92B68A663B534DD4D13E548A0C38942D60649B369D5FBFC7
310
600890A493BDE42160637FD7F31D7FF63E6FB3D478A55C242CBF3247B66B1A340F5994E4F19559CA8D75611A9F7D8F33263BCB4C232719BD32D5B4E97B316765A1A722BA21652A07B3B7B33F0D11D29C9A46981221AE4C113ED38CD8A4942CA2E2C58E882476BCD9DA23BB5ED8171B73523C0F841684D35CC252CCE79062D4
310
468DFA43D7747CCF51DF7D4FFDEB5593E3AB9CCA9FBEFE241792E4E19EB28198C968BAB8199F5D5A67D3E9C49A9E8F47D6EC76B6B0469F26EEFC7C3EBFBCBEB98462213924694B38DD98FE1D62C393D073EA4FADC5DAF04326852CCF6958F90F0F2B9BB5C48816348F90C7840A68EB78EDF68723159BCEE7891A6B95DDE9D3
310
BCEAEEE8086A6C6F9E5D4B59F0175C10A7A0820BAA5055C7473B5AE3CFDD452D602CD5DF12616444529E90D448938013FE6EFA58AA96F85E4F8C42275708571E98FE6827AF6B2B4AE3D7D83D64E5A64C53054DD3AF90BD06FEA9149565C94FCA0F6B834DC85599E4F2423B24DF0B6AFA979E534DFA9E7A4CC6FA631D486393
310
921829879BF5D781A373557BCB85E97FB90DB62B558F8795179C15944B051F40AB495CF35451D26A4727654E6D8033BD98EF82F21D91FF8AF2DD9982BCF1643BDD4EB516C9492E368C67C88DED563FC36D5EACF66DFF057C3658BDBFA69DF9578B3DA735B64F18C7F20770A9D45CFCF7FCF563D6456A277DBEF78A02637CA2
310
43B90A490AEAB94F72244481D24819A6C0E59B606BFA4B3025981DBB48EAB701D97BF19C577CC77F2D1B6C55A9EF3C732474C0B727303F625995056C3B02963D9EAC146BE78EC5FCEC7FA999EBC5EACBAAE41B12D27B4D2C0BBA49F244E2ECDC81B76B502F113D8F5EE8FB1BE3111CDD4FC2AA9B844CAB1288B68AB90A7CDC
310
1C166AB0D3DC5310625FCC14E779BFD0709F8890A629C9292B1B2DED31A4B0DA928CEE135085754027E3018A397D4D5427D15BD1330B677DC8934285AC3DF45A9EB68FF8F2B8FC0A509AFEECFD0FF2DE25CC6047F7214B195F07EFEB9A094D800F7BFAE8FED187B78EA8A3A400F115961BCAD1215E47C966530AF0EE8128FE
310
58CEBB996A8964FFA529A046635D9353B0336A8F700DDF46271A024E70B0B37C9DE01847591E54DED53D54202AB947E4076556AC49C6CA5C9E1226B7F1A7B1BE15DEED62C41B91E1B3E9AFAAA735036547343A925075041DF0A9979E893B391F8FCFA6967B3EFB644DCF6E5CEBFAE272625DCC6FAF3FB93793C5F90CE1EF57
310
407342756B10D1C489E8953CD1617E5CEECAD6F4EF8914CE5D5D504E5C3F1F9736DA62CFC11E00BCDDB8CC8A9466349744C1F75EBDA4DF09BA8A9E8C7A7E9991989E20E5DBDD6A6003664ED8F7A04A8DBE0DF6EAD9B9AA858342E47399053949D2C146EDB85DE4B176BB0965FBAC19BD19AA918E27FA50C1D22402E144464C
310
59462568E704B6E71915404CB72B8FF4EDE184DDAF753F284990D2C6926782963815403548A70C657FDEF80D2D9CEAA2AE4C1C76F60BFE74219A06527D6582DF6412526107381E55E353090704D085B52408D0933C4ED159D79BDA71BB4BC506F4831350EB6F979CD22D69BF7AC49B91A2C0A9DDA3D5CA36AD20FC478E37E6
310
1844E2352865EBCB6EA275A652E3836BE04EFB400BF1A2556F515F1FBB35B2AB35BD889C744FFA1004B5544B121E57F70215746DD2F5E2C1412B602CBF19455AC6C8E5E9922C4E01E65215385004546899059180EAFCF7A707CE7017CD8CDB0410789AB32C63B91E5CEBBBACB17AC6CD347A022D5075FD106377347AAABA7E
310
7D11590744509B44E205134DC1290F06580320F78E537D3D73540E06CB970B431F185308AD40BBD794D6D77003C5A36E8EAA54BA64597CD8F83BD552A080A365F7FF06504B0304140006080000CC70623B000000000000000000000000350000006662782F39464131463745442D413632322D343644302D413938332D3331
310
353338454246344243312F76657274696365732E62696E504B0304140006080800CC70623BF270F1330600000004000000360000006662782F39464131463745442D413632322D343644302D413938332D3331353338454246344243312F747269616E676C65732E62696E636660600000504B0304140006080000CC70623B
310
000000000000000000000000370000006662782F39464131463745442D413632322D343644302D413938332D3331353338454246344243312F617474726962757465732E62696E504B0304140006080800CC70623B08DA0BD19000000041010000360000006662782F39464131463745442D413632322D343644302D413938
310
332D3331353338454246344243312F6469726563746F72792E786D6C858F410AC3201045AF22B36F53E9A60B35CBEEBAE80D244E44489C6234F4F835464A48035D0DF398FF9F8AF63D0E6CC63039F212F8F9020C7D47C6792B21C5FE7403D62A1188E2E60C98D7234A5830286103A55745067B9D86B8A3CF9C7F90C11DE607
310
FB144396D7B6A82D282E9A152AD114D5EF2CB866EEE831B8EEA07A7BB5A8D7D61A2BAAEB7FD5F70921FF497D00504B0304140006080800CC70623B0D6EF93BFE000000A00100003B0000006662782F39464131463745442D413632322D343644302D413938332D3331353338454246344243312F7265736F75726365732F63
310
6F72652E786D6C8D50596E833010BD0A9ADFCA60B334011947A8694ED00B586642AC041B79A97AFC9A40A5F6AF3F33A3B7689E1E3F7DCD8FEC139DD7D6F4C0720A191A65476DA61E62B892236427C19DB5E1970C322367EC618541F0C9D9B8EC90B226A009093576C41D94DE63804C3DD2D18357379C652E63480A7FCF17A9
310
EE72C29CE5894E3AC17D702940B63D59270887DE46A7D0F36263058F518FBB468FE9A7BE6A7420864373B8D4873369AA8691FA421B3294352543C5CAF65C0F6FEF43CB8BD52C78D0F34F46E550061C419494B6843142CB0F5677F4B52BEB177AEC28E5C52AFF638ACBF84F53D42654E51E77B379102C05791282176B5F693D
310
CB4C7BED567C03504B010214000A0000080000CC70623B3DEE336E79000000790000001B00000000000000000000000000000000006175746F6465736B2D64657369676E2D7061636B6167652E786D6C504B01021400140006080800CC70623BD486FD9CA0000000F40000001300000000000000000000000000B20000005B
310
436F6E74656E745F54797065735D2E786D6C504B01021400140006080800CC70623B1EC5D7A3EB0000007C010000080000000000000000000000000083010000636F72652E786D6C504B01021400140006080800CC70623B55019EA25F0000007C000000070000000000000000000000000094020000636E782E786D6C504B
310
01021400140006080800CC70623B8C9102E971010000D40300000C00000000000000000000000000180300006662782F636F72652E786D6C504B01021400140006080800CC70623BFFEA85907E0000009D0000000B00000000000000000000000000B30400006662782F636E782E786D6C504B01021400140006080800CC70
310
623B4FEEA4082C0100001202000031000000000000000000000000005A0500006662782F39464131463745442D413632322D343644302D413938332D3331353338454246344243312F636F72652E786D6C504B01021400140006080800CC70623BAD7543B64E010000330300003000000000000000000000000000D5060000
310
6662782F39464131463745442D413632322D343644302D413938332D3331353338454246344243312F636E782E786D6C504B01021400140006080800CC70623B16AB87BA640500003C1000003400000000000000000000000000710800006662782F39464131463745442D413632322D343644302D413938332D3331353338
310
454246344243312F6F626A656374732E786D6C504B01021400140006080000CC70623B0000000000000000000000003500000000000000000000000000270E00006662782F39464131463745442D413632322D343644302D413938332D3331353338454246344243312F76657274696365732E62696E504B01021400140006
310
080800CC70623BF270F133060000000400000036000000000000000000000000007A0E00006662782F39464131463745442D413632322D343644302D413938332D3331353338454246344243312F747269616E676C65732E62696E504B01021400140006080000CC70623B0000000000000000000000003700000000000000
310
000000000000D40E00006662782F39464131463745442D413632322D343644302D413938332D3331353338454246344243312F617474726962757465732E62696E504B01021400140006080800CC70623B08DA0BD190000000410100003600000000000000000000000000290F00006662782F39464131463745442D413632
310
322D343644302D413938332D3331353338454246344243312F6469726563746F72792E786D6C504B01021400140006080800CC70623B0D6EF93BFE000000A00100003B000000000000000000000000000D1000006662782F39464131463745442D413632322D343644302D413938332D3331353338454246344243312F7265
310
736F75726365732F636F72652E786D6C504B0506000000000E000E0080040000641100000000
  0
XRECORD
  5
820D
102
{ACAD_REACTORS
330
173
102
}
330
173
100
AcDbXrecord
280
     1
102
MATERIAL
148
0.0
149
0.0
149
0.0
 93
        0
 94
       63
282
     0
 72
     1
 77
     1
171
     1
175
     1
179
     1
273
     0
  0
XRECORD
  5
175
102
{ACAD_REACTORS
330
173
102
}
330
173
100
AcDbXrecord
280
     1
270
     1
271
     1
  0
XRECORD
  5
174
102
{ACAD_REACTORS
330
173
102
}
330
173
100
AcDbXrecord
280
     1
270
     1
271
     1
  0
XRECORD
  5
1FB
102
{ACAD_REACTORS
330
173
102
}
330
173
100
AcDbXrecord
280
     1
 70
     0
 90
1673772943
  1
ECE7A1D2-D628-4531-984C-D00F80459256
310
504B03040A0000080000CC70623B3DEE336E79000000790000001B0000006175746F6465736B2D64657369676E2D7061636B6167652E786D6C3C3F786D6C2076657273696F6E3D22312E302220656E636F64696E673D227574662D3822203F3E3C666F726D6174733E3C666F726D61743E687474703A2F2F736368656D612E
310
6175746F6465736B2E636F6D2F64657369676E2D7061636B6167652F323030393C2F666F726D61743E3C2F666F726D6174733E504B0304140006080800CC70623BD486FD9CA0000000F4000000130000005B436F6E74656E745F54797065735D2E786D6C7D8EC10E82300C865F65E91D8A1E8C310C0EEA1BF002731658846E
310
D98AC1B77784ABF1D8FE5FBFBF75BBCE937A534CCEB38643598122B6FEE978D0B0485F9C41B54DDD7D022595594E1A469170414C76A4D9A4D207E29CF43ECE46F218070CC6BECC4078ACAA135ACF422C856C0E68EA1BF5669944DDD7BCDE7B1F8E415D77AECB980613C2E4AC91FC167A2B244592486606FC29C8FD7F045B9A
310
EF7053A7E60B504B0304140006080800CC70623BD9DDAED0EC0000007C01000008000000636F72652E786D6C8D90416EC3201045AF82665B61836D9CD8C2444DD39CA01740405C94182C03558F5F9C3852BBEB6A467FFE9B197D7EF89E6EE8CB2CC17A37002D0820E394D7D68D03A478C17B4007C117EFE32F1B20272733C0
310
2A83E0E3E2D3BC49CABB685CCCAAF3DA6CA20CC14440EA969B0182FA34932C648AD911AEC52CD5558EA6A0CF2EC329598D1E47ACCEFBECC59A050463A7EA5833865FEBDD0E37353BE3EE8DBDE3F6786A48D375FBF6CC78B9C282473B3DEFABC5C86834888A900E538A49F5419B9EB47DD5BC907D4F082F57FB1F28CDFA9F50
310
B22ED6D5F6EE030B20687EE43E10BC5CB3C8E51E54AE6B6EE207504B0304140006080800CC70623B55019EA25F0000007C00000007000000636E782E786D6C4DCB3B0E80201045D1AD90E915ED2CF8AC45050C11660C8261F98AB1B07AC9C97D42D718D865D3E909258CFD00CCE24AC6E326A164D74DC0B4128928FF326038
310
472BA13128B1252AC747C6BAB984FC68F0B87FE8960A5C09FE86CFB69FBA01504B0304140006080800CC70623BA24EB22D72010000D40300000C0000006662782F636F72652E786D6CC5535B6E833010BC8AE5DF0A6C5E49888CA3A6694ED00B38E05014B091B1518EDFE511A5A9D228FD2A1F60CDEC7A67C6986DCE4D8D7A
310
69BA4AAB0C073EC548AA5C17952A33ECECD15B61B4E1CC686DBF9561A44423333CC098B3D268D7CE50AE9595CA02AA74216750749DB418E5352C32DCE59FB211BE70162ABA93DF8AFC244AE9073ED050C759670D0840D390E18DF9F1706664C23973AE2A66B62A605A75ACA4C13C4976E1364A12EF355A2EBD384AF65EFA96
310
BC7B8BED2EA6719AAE16FB8491A199335B351775B991C2CA02F390D2D40B028F861F41BCA68B7518BFD0D59A524686F29B26D7164F36B94AD9289CE54E6D1DE6010819891F6E21228B3AD1831EC219194284CF98F06DD01008846CC5A1BEF83801D4CBDC6A1303536877A57A513B0953A94FC707FDBE6064EA84A9E3E6E0FA
310
EE8CF0E9198F7784A316AA0413C2C2F2E0ECA0934D1AE6D05A69BCDE9E91D2A611F573361E38FC1375157F5752AE6B6DFE4B11990F88CCBF0719EE23FF02504B0304140006080800CC70623B408A7D3B7C0000009D0000000B0000006662782F636E782E786D6C4DCCD10A83201886E15B91FFDC552A92A0064DBC8F581632
310
D3703A76F9ABD1C18E3E78F878E5F0D9027ABBFCF2292AE86E2D20171F69F6715550CB827B40839639A5F2770314A7CD293819B45C73AAFB45B35BA61ACAA1C1C7E7855C58C15BC331339661262CC762340413D68D77DA5B42298546CBE6573AF60CEB2F504B0304140006080800CC70623B449FB9BD290100001202000031
310
0000006662782F36394639363044362D344446342D343946362D394244322D3234314243333846323333332F636F72652E786D6C8D515B6EC32010BC0AE22B55850D98B871848994463E412FE002495162B07854397EA176A4F62F3F2C9A9D991D587EB84F37F0AD7D30CEF6905418026DA553C65E7A98E219ED203808EE9D
310
8B7F6810D871D23D2C3014FCE25D9A57483A1BB58D19B54EE9151C43D0110279CB971E06F9A5A7B11A53CC8C70ADE6515EC78BAE4895DB992778883E0700CB907242D17643D7E2538BD869608875438BBAE38922CAC8F1BDD90DB4691A5E2F42C153326A951B95E398B3D1FE599322163C9AE9115F7A3D46ADA0A018778810
310
84E907617BDCEE297BC5BB3DC6BC2EF47FA234AB2745C9D8D8D035EE220B50105E2F0DC1954B9FB747187D9F9D8FA0CCDB042D5FA0C015C65B42DF78BD10F3F3B363CB56C7109DCFDFBBB97E662ED92EB62D13BC2E1BCAE5777DB9966D8A1F504B0304140006080800CC70623BAD7543B64E01000033030000300000006662
310
782F36394639363044362D344446342D343946362D394244322D3234314243333846323333332F636E782E786D6CD593CD6EC32010845F0571AD6CE3D48AD20813A9873E410FBD12D82434182C7EAAE6EDBB2424CD25871E7B41D6EC30B3FA84F9E67BB2E40B4234DE8DB46F1925E094D7C6ED479AD3AE5951B2113C789FEE
310
6C943839C1488B4C05DF079FE72A69D8C96C13AAD6B8631503449F83828872B949AC57D26200B826A308D316B4064D6E46FCDA41C05550DC9E483A00797BFD207EFB092A45DE9514C1BBD22178396BD39D891265658C238DEA00936C654E5E433CB65A26D9F6EDB5EBC14EBF49A45CB856E66048291F6939A9A81BB5C89177
310
38143CA680F4AA299D66A042CEB3354A2684DC9D8D178FE0D9B8B41CAAD720F880EE7EF93C0C18769E099ECC04D5A102C8049A8A05632F4DDF376CF1DE0F6BB65C2F8627B65A33C6BB62177CEBBDAD973006829F89F22E814B54F4BC2BE347F8AA8F681390B50FA73F804400B5F542E796F19FF974E7F78DB802FE05E20750
310
4B0304140006080800CC70623B8D05915C650500003B100000340000006662782F36394639363044362D344446342D343946362D394244322D3234314243333846323333332F6F626A656374732E786D6CAD575B6FA33814FE2B887D06429276DA1565D4266D158D3A339A6846FB502932E050B66023DB74D2FDF5FB190C01
310
9276B2973C046C8ECFF53B17071F77456EBD502133CEAE6CDF9DD81665314F32965ED995DA3A17B6F5310C04E7AA47665B8C14F4CAD6DB7618A48257A5D94AE89654B91AEDDEDDFC61C998326A5B714EA4BCB265FC440BE2924AF184CA6737218AB8E976E7FA6E4338649B0A523E8D98964450A6A029F619B8588D52FE7039
310
B1BD30F0F4F730D0FF866AF6369557DB33949F31A9088B0F848DD8CCFCF9F2767A76E99CCDE733677E3EF59D9BBB9BA5E37F984D16E78BC5E5F5ED25044B25C0C96822E8D60EEFE11B91C581D77CEA34368A1F5329E68CD1B8B61F16D63A1B8E092D294B10C78C4A48EB593D192E7DED9BDEE7995E1B91FDEDD3ACEA9FE831
310
6A756F9F7D4D79F4274C90A7A04248AA51D5F8C718DAE06FB2F75AC4796EBE65D22A88A22223B995679120E2D50E41AA49C260C046A35368846B0BECD0DFF3EBEB8AD4F835768F69B9ADF25C43D30E6B646F807FAA64AD59F61715C7A54127C4AACA98BA3006A9D792DAE165E0D59B61A01FB3A9F9D838D2DAE62445C86166
310
F37564E842E7DE6A69879FEEA2DD5AE7E371E1A5E025154AC307D06A03D73EB5978C58FFA4C8E9033066E0F3BD53BEC1F39F91BE7B55103791EDE6BBB991A2046172CB4581D8B893FA674DDA17A77B3B7C413D1B511FD2743BFF8A38F03A658705E3ADF8015C3A3417FF3D7E439FF591DA0B5F18BC20C1B8981957AE6392A3
310
F43C640C01D1A0B4728E2DD4F26DB4B3C3152A252A3B4E913CEC1C72F012782FF88EFF8637AA552DBEF76408E8A8DE9E50F9E1CB3A2DA0DB1B6039A893B56063DC5B3E3FFB5F72E67AB9FEB4AEC496C4F4C1149625DD662C53E89D7BF0F6151A046260D1337DFDC94502430F83B0EE07A130A224BCAD7DAE1D9FB6CD422FF6
310
920702629C4BB9AE79C12F243C6432A6794E18E5552BA56B431AAB5D91317302B2B071E86C3A42B1A02F999E24061403B5D0EB639195DA655DD3EBEAB4FB862DDF579F014AD0E73C22F99E28DA57FB98E75C6CA2D74D53086D600F4786E0FE3144B771A8A7B900F03594DB8A633CBC49B2EDB69228BB479CF863B5E807AAAB
310
23872F6DFEB4129B949CA33823F58830E86D65621E10047D9DB34D862E8EAC3C2ABC2F7B2C40D67CDFE01F5545B92105AF983AC54D93D69E56FB8E797F88913F898A9FEC705D3F9D1B54EC8426FB500D40A03BD0119B06E1B95DDC7EB8F6975367793EBD70E66733DFB9BC982F9CE564727731999F5D4ECFCE3B8D6A4DC2A0
310
6D50FD148437D110834A64C6CDDF57FBACB5C307A2A477DFE4939736CFEF2B175371E0E10CF0DD1D5C15654E0BCA14D1E87DD02FF93782A162C0A3D95F1524A52770F972BF1EE9809D13CE7DD599467F8ECE9ADD85CE85A34CD45355448C64F9E8A031DC2D596ACC6E5DD93D9B82DE2EF5CAF81363A8E47996A0DE24564A79
310
4115AACE09C55E14540231FDA13C319787134EBF34E3A022514E5B4D9E0826E25C02D5805B15ABE1BEF51B26383D445DD9E875EE33FE4C22DA16427D65A3BCA92CA6D28DD01DF5DC53330704308475351050232CCD31583787BA75774AFB06E5070DD0C8EF484E19968C5D83BA5B90B244D31E54D55A372320FE4786B7EA58
310
44E135AA5467CB7EA333A61683CC6A8C3257034C10CF46F40EF9F5BE59BE5BD30C3C72D235E95D10345C1D45445A5F0BB47E46A5EBE5570F9380B5FA629579952296A773720405982B9DE04011506178964401AA8BDF1FBF0A8EAB6861DD6580C0E38217056766716DAEB2D6FA0917D3E4116581EADB879C4E7CFFB11EFACD
310
3D641311495D92C8676CB409A72D18610D803CE8A626049E8EC1887CB5B44CC39883690DDA8399B4B9855B481E7D71D4A9D22F96E5BB73BF5793020C02137BF837504B0304140006080000CC70623B000000000000000000000000350000006662782F36394639363044362D344446342D343946362D394244322D32343142
310
43333846323333332F76657274696365732E62696E504B0304140006080800CC70623BF270F1330600000004000000360000006662782F36394639363044362D344446342D343946362D394244322D3234314243333846323333332F747269616E676C65732E62696E636660600000504B0304140006080000CC70623B0000
310
00000000000000000000370000006662782F36394639363044362D344446342D343946362D394244322D3234314243333846323333332F617474726962757465732E62696E504B0304140006080800CC70623B08DA0BD19000000041010000360000006662782F36394639363044362D344446342D343946362D394244322D
310
3234314243333846323333332F6469726563746F72792E786D6C858F410AC3201045AF22B36F53E9A60B35CBEEBAE80D244E44489C6234F4F835464A48035D0DF398FF9F8AF63D0E6CC63039F212F8F9020C7D47C6792B21C5FE7403D62A1188E2E60C98D7234A5830286103A55745067B9D86B8A3CF9C7F90C11DE607FB14
310
4396D7B6A82D282E9A152AD114D5EF2CB866EEE831B8EEA07A7BB5A8D7D61A2BAAEB7FD5F70921FF497D00504B0304140006080800CC70623BCA768048FE000000A00100003B0000006662782F36394639363044362D344446342D343946362D394244322D3234314243333846323333332F7265736F75726365732F636F72
310
652E786D6C8D50596E833010BD0A9ADFCA60D600328E9AA639412F609909B1126CE4A5EAF16B0295DABFFECC8CDEA2797AECF8353F924FB44E193D409E5248504B332A3D0D10FC95B4901C39B3C6F85F3248B49871801506CE266BC2B243D2688FDA47549B11775038871E12F988C7004EDE7016A9083E2ADC3D5D84BC8B09
310
D33C8D74D471E6BC8D0192EDC93A815B742658898E651BCB59086ADC356A8C3FD555A1055ED7E7E254D615792D0F075295F585746FF53B694EE78A565DD736979A65AB9933AFE69F8CD2A2F038022F28ED489E135A7CE4554F9BBEA85E68DB53CAB255FEC71496F19FA6A0B42F8B3DEE6673C0F318E4497096AD7DC5F52C33
310
EEB55BFE0D504B010214000A0000080000CC70623B3DEE336E79000000790000001B00000000000000000000000000000000006175746F6465736B2D64657369676E2D7061636B6167652E786D6C504B01021400140006080800CC70623BD486FD9CA0000000F40000001300000000000000000000000000B20000005B436F
310
6E74656E745F54797065735D2E786D6C504B01021400140006080800CC70623BD9DDAED0EC0000007C010000080000000000000000000000000083010000636F72652E786D6C504B01021400140006080800CC70623B55019EA25F0000007C000000070000000000000000000000000095020000636E782E786D6C504B0102
310
1400140006080800CC70623BA24EB22D72010000D40300000C00000000000000000000000000190300006662782F636F72652E786D6C504B01021400140006080800CC70623B408A7D3B7C0000009D0000000B00000000000000000000000000B50400006662782F636E782E786D6C504B01021400140006080800CC70623B
310
449FB9BD290100001202000031000000000000000000000000005A0500006662782F36394639363044362D344446342D343946362D394244322D3234314243333846323333332F636F72652E786D6C504B01021400140006080800CC70623BAD7543B64E010000330300003000000000000000000000000000D20600006662
310
782F36394639363044362D344446342D343946362D394244322D3234314243333846323333332F636E782E786D6C504B01021400140006080800CC70623B8D05915C650500003B10000034000000000000000000000000006E0800006662782F36394639363044362D344446342D343946362D394244322D32343142433338
310
46323333332F6F626A656374732E786D6C504B01021400140006080000CC70623B0000000000000000000000003500000000000000000000000000250E00006662782F36394639363044362D344446342D343946362D394244322D3234314243333846323333332F76657274696365732E62696E504B010214001400060808
310
00CC70623BF270F13306000000040000003600000000000000000000000000780E00006662782F36394639363044362D344446342D343946362D394244322D3234314243333846323333332F747269616E676C65732E62696E504B01021400140006080000CC70623B00000000000000000000000037000000000000000000
310
00000000D20E00006662782F36394639363044362D344446342D343946362D394244322D3234314243333846323333332F617474726962757465732E62696E504B01021400140006080800CC70623B08DA0BD190000000410100003600000000000000000000000000270F00006662782F36394639363044362D344446342D
310
343946362D394244322D3234314243333846323333332F6469726563746F72792E786D6C504B01021400140006080800CC70623BCA768048FE000000A00100003B000000000000000000000000000B1000006662782F36394639363044362D344446342D343946362D394244322D3234314243333846323333332F7265736F
310
75726365732F636F72652E786D6C504B0506000000000E000E0080040000621100000000
  0
XRECORD
  5
176
102
{ACAD_REACTORS
330
173
102
}
330
173
100
AcDbXrecord
280
     1
270
     1
271
     1
  0
XRECORD
  5
177
102
{ACAD_REACTORS
330
173
102
}
330
173
100
AcDbXrecord
280
     1
270
     1
271
     1
  0
XRECORD
  5
822F
102
{ACAD_REACTORS
330
822E
102
}
330
822E
100
AcDbXrecord
280
     1
102
ACAD_ROUNDTRIP_2012_MLEADER_STYLE
298
     1
  0
XRECORD
  5
8241
102
{ACAD_REACTORS
330
8240
102
}
330
8240
100
AcDbXrecord
280
     1
102
DISPLAYNAME
  1
Metric50
102
FLAGS
 90
        0
  0
CELLSTYLEMAP
  5
8201
102
{ACAD_REACTORS
330
162
102
}
330
162
100
AcDbCellStyleMap
 90
        3
300
CELLSTYLE
  1
TABLEFORMAT_BEGIN
 90
        5
170
     1
 91
        0
 92
    32768
 62
   257
 93
        1
300
CONTENTFORMAT
  1
CONTENTFORMAT_BEGIN
 90
        0
 91
        0
 92
      512
 93
        0
300

 40
0.0
140
1.0
 94
        5
 62
     0
340
11
144
6.0
309
CONTENTFORMAT_END
171
     1
301
MARGIN
  1
CELLMARGIN_BEGIN
 40
1.5
 40
1.5
 40
1.5
 40
1.5
 40
4.5
 40
4.5
309
CELLMARGIN_END
 94
        6
 95
        1
302
GRIDFORMAT
  1
GRIDFORMAT_BEGIN
 90
        0
 91
        1
 62
     0
 92
       -2
340
14
 93
        0
 40
1.125
309
GRIDFORMAT_END
 95
        2
302
GRIDFORMAT
  1
GRIDFORMAT_BEGIN
 90
        0
 91
        1
 62
     0
 92
       -2
340
14
 93
        0
 40
1.125
309
GRIDFORMAT_END
 95
        4
302
GRIDFORMAT
  1
GRIDFORMAT_BEGIN
 90
        0
 91
        1
 62
     0
 92
       -2
340
14
 93
        0
 40
1.125
309
GRIDFORMAT_END
 95
        8
302
GRIDFORMAT
  1
GRIDFORMAT_BEGIN
 90
        0
 91
        1
 62
     0
 92
       -2
340
14
 93
        0
 40
1.125
309
GRIDFORMAT_END
 95
       16
302
GRIDFORMAT
  1
GRIDFORMAT_BEGIN
 90
        0
 91
        1
 62
     0
 92
       -2
340
14
 93
        0
 40
1.125
309
GRIDFORMAT_END
 95
       32
302
GRIDFORMAT
  1
GRIDFORMAT_BEGIN
 90
        0
 91
        1
 62
     0
 92
       -2
340
14
 93
        0
 40
1.125
309
GRIDFORMAT_END
309
TABLEFORMAT_END
  1
CELLSTYLE_BEGIN
 90
        1
 91
        1
300
_TITLE
309
CELLSTYLE_END
300
CELLSTYLE
  1
TABLEFORMAT_BEGIN
 90
        5
170
     1
 91
        0
 92
        0
 62
   257
 93
        1
300
CONTENTFORMAT
  1
CONTENTFORMAT_BEGIN
 90
        0
 91
        0
 92
      512
 93
        0
300

 40
0.0
140
1.0
 94
        5
 62
     0
340
11
144
4.5
309
CONTENTFORMAT_END
171
     1
301
MARGIN
  1
CELLMARGIN_BEGIN
 40
1.5
 40
1.5
 40
1.5
 40
1.5
 40
4.5
 40
4.5
309
CELLMARGIN_END
 94
        6
 95
        1
302
GRIDFORMAT
  1
GRIDFORMAT_BEGIN
 90
        0
 91
        1
 62
     0
 92
       -2
340
14
 93
        0
 40
1.125
309
GRIDFORMAT_END
 95
        2
302
GRIDFORMAT
  1
GRIDFORMAT_BEGIN
 90
        0
 91
        1
 62
     0
 92
       -2
340
14
 93
        0
 40
1.125
309
GRIDFORMAT_END
 95
        4
302
GRIDFORMAT
  1
GRIDFORMAT_BEGIN
 90
        0
 91
        1
 62
     0
 92
       -2
340
14
 93
        0
 40
1.125
309
GRIDFORMAT_END
 95
        8
302
GRIDFORMAT
  1
GRIDFORMAT_BEGIN
 90
        0
 91
        1
 62
     0
 92
       -2
340
14
 93
        0
 40
1.125
309
GRIDFORMAT_END
 95
       16
302
GRIDFORMAT
  1
GRIDFORMAT_BEGIN
 90
        0
 91
        1
 62
     0
 92
       -2
340
14
 93
        0
 40
1.125
309
GRIDFORMAT_END
 95
       32
302
GRIDFORMAT
  1
GRIDFORMAT_BEGIN
 90
        0
 91
        1
 62
     0
 92
       -2
340
14
 93
        0
 40
1.125
309
GRIDFORMAT_END
309
TABLEFORMAT_END
  1
CELLSTYLE_BEGIN
 90
        2
 91
        1
300
_HEADER
309
CELLSTYLE_END
300
CELLSTYLE
  1
TABLEFORMAT_BEGIN
 90
        5
170
     1
 91
        0
 92
        0
 62
   257
 93
        1
300
CONTENTFORMAT
  1
CONTENTFORMAT_BEGIN
 90
        0
 91
        0
 92
      512
 93
        0
300

 40
0.0
140
1.0
 94
        2
 62
     0
340
11
144
4.5
309
CONTENTFORMAT_END
171
     1
301
MARGIN
  1
CELLMARGIN_BEGIN
 40
1.5
 40
1.5
 40
1.5
 40
1.5
 40
4.5
 40
4.5
309
CELLMARGIN_END
 94
        6
 95
        1
302
GRIDFORMAT
  1
GRIDFORMAT_BEGIN
 90
        0
 91
        1
 62
     0
 92
       -2
340
14
 93
        0
 40
1.125
309
GRIDFORMAT_END
 95
        2
302
GRIDFORMAT
  1
GRIDFORMAT_BEGIN
 90
        0
 91
        1
 62
     0
 92
       -2
340
14
 93
        0
 40
1.125
309
GRIDFORMAT_END
 95
        4
302
GRIDFORMAT
  1
GRIDFORMAT_BEGIN
 90
        0
 91
        1
 62
     0
 92
       -2
340
14
 93
        0
 40
1.125
309
GRIDFORMAT_END
 95
        8
302
GRIDFORMAT
  1
GRIDFORMAT_BEGIN
 90
        0
 91
        1
 62
     0
 92
       -2
340
14
 93
        0
 40
1.125
309
GRIDFORMAT_END
 95
       16
302
GRIDFORMAT
  1
GRIDFORMAT_BEGIN
 90
        0
 91
        1
 62
     0
 92
       -2
340
14
 93
        0
 40
1.125
309
GRIDFORMAT_END
 95
       32
302
GRIDFORMAT
  1
GRIDFORMAT_BEGIN
 90
        0
 91
        1
 62
     0
 92
       -2
340
14
 93
        0
 40
1.125
309
GRIDFORMAT_END
309
TABLEFORMAT_END
  1
CELLSTYLE_BEGIN
 90
        3
 91
        2
300
_DATA
309
CELLSTYLE_END
  0
XRECORD
  5
8206
102
{ACAD_REACTORS
330
162
102
}
330
162
100
AcDbXrecord
280
     1
102
ACAD_ROUNDTRIP_PRE2007_TABLESTYLE
 90
      512
 91
        0
  1

 92
      512
 93
        0
  2

 94
      512
 95
        0
  3

  0
XRECORD
  5
8219
102
{ACAD_REACTORS
330
8218
102
}
330
8218
100
AcDbXrecord
280
     1
102
RTVSPost2010Prop28
280
     1
102
RTVSPost2010PropOp28
 70
     1
102
RTVSPost2010Prop29
280
     1
102
RTVSPost2010PropOp29
 70
     1
102
RTVSPost2010Prop30
280
     0
102
RTVSPost2010PropOp30
 70
     1
102
RTVSPost2010Prop31
280
     0
102
RTVSPost2010PropOp31
 70
     1
102
RTVSPost2010Prop32
280
     0
102
RTVSPost2010PropOp32
 70
     1
102
RTVSPost2010Prop33
280
     0
102
RTVSPost2010PropOp33
 70
     1
102
RTVSPost2010Prop34
280
     0
102
RTVSPost2010PropOp34
 70
     1
102
RTVSPost2010Prop35
280
     0
102
RTVSPost2010PropOp35
 70
     1
102
RTVSPost2010Prop36
280
     0
102
RTVSPost2010PropOp36
 70
     1
102
RTVSPost2010Prop37
 90
       50
102
RTVSPost2010PropOp37
 70
     1
102
RTVSPost2010Prop38
140
0.0
102
RTVSPost2010PropOp38
 70
     1
102
RTVSPost2010Prop39
140
1.0
102
RTVSPost2010PropOp39
 70
     1
102
RTVSPost2010Prop40
 90
        0
102
RTVSPost2010PropOp40
 70
     1
102
RTVSPost2010Prop41ColorIndex
 90
       18
102
RTVSPost2010Prop41ColorRGB
 90
        0
102
RTVSPost2010PropOp41
 70
     1
102
RTVSPost2010Prop42
 90
       50
102
RTVSPost2010PropOp42
 70
     1
102
RTVSPost2010Prop43
 90
        3
102
RTVSPost2010PropOp43
 70
     1
102
RTVSPost2010Prop44ColorIndex
 90
        5
102
RTVSPost2010Prop44ColorRGB
 90
      255
102
RTVSPost2010PropOp44
 70
     1
102
RTVSPost2010Prop45
280
     0
102
RTVSPost2010PropOp45
 70
     1
102
RTVSPost2010Prop46
 90
       50
102
RTVSPost2010PropOp46
 70
     1
102
RTVSPost2010Prop47
 90
       50
102
RTVSPost2010PropOp47
 70
     1
102
RTVSPost2010Prop48
 90
       50
102
RTVSPost2010PropOp48
 70
     1
102
RTVSPost2010Prop49
280
     0
102
RTVSPost2010PropOp49
 70
     1
102
RTVSPost2010Prop50
 90
       50
102
RTVSPost2010PropOp50
 70
     1
102
RTVSPost2010Prop51ColorIndex
 90
      256
102
RTVSPost2010Prop51ColorRGB
 90
-16777216
102
RTVSPost2010PropOp51
 70
     0
102
RTVSPost2010Prop52
140
1.0
102
RTVSPost2010PropOp52
 70
     0
102
RTVSPost2010Prop53
 90
        2
102
RTVSPost2010PropOp53
 70
     1
102
RTVSPost2010Prop54
  1
strokes_ogs.tif
102
RTVSPost2010PropOp54
 70
     1
102
RTVSPost2010Prop55
280
     0
102
RTVSPost2010PropOp55
 70
     1
102
RTVSPost2010Prop56
140
1.0
102
RTVSPost2010PropOp56
 70
     1
102
RTVSPost2010Prop57
140
1.0
102
RTVSPost2010PropOp57
 70
     1
102
RTVSPropertyOp0
 70
     1
102
RTVSPropertyOp1
 70
     1
102
RTVSPropertyOp2
 70
     1
102
RTVSPropertyOp3
 70
     1
102
RTVSPropertyOp4
 70
     1
102
RTVSPropertyOp5
 70
     1
102
RTVSPropertyOp6
 70
     1
102
RTVSPropertyOp7
 70
     1
102
RTVSPropertyOp8
 70
     1
102
RTVSPropertyOp9
 70
     1
102
RTVSPropertyOp10
 70
     1
102
RTVSPropertyOp11
 70
     1
102
RTVSPropertyOp12
 70
     1
102
RTVSPropertyOp13
 70
     1
102
RTVSPropertyOp14
 70
     1
102
RTVSPropertyOp15
 70
     1
102
RTVSPropertyOp16
 70
     1
102
RTVSPropertyOp17
 70
     1
102
RTVSPropertyOp18
 70
     1
102
RTVSPropertyOp19
 70
     1
102
RTVSPropertyOp20
 70
     1
102
RTVSPropertyOp21
 70
     1
102
RTVSPropertyOp22
 70
     1
102
RTVSPropertyOp23
 70
     1
102
RTVSPropertyOp24
 70
     1
102
RTVSPropertyOp25
 70
     1
102
RTVSPropertyOp26
 70
     1
102
RTVSPropertyOp27
 70
     1
102
RTVSPropertyOp28
 70
     1
102
RTVSPropertyOp29
 70
     1
102
RTVSPropertyOp30
 70
     1
102
RTVSPropertyOp31
 70
     1
102
RTVSPropertyOp32
 70
     1
102
RTVSPropertyOp33
 70
     1
102
RTVSPropertyOp34
 70
     1
102
RTVSPropertyOp35
 70
     1
102
RTVSPropertyOp36
 70
     1
102
RTVSPropertyOp37
 70
     1
102
RTVSPropertyOp38
 70
     1
102
RTVSPropertyOp39
 70
     1
102
RTVSPropertyOp40
 70
     1
102
RTVSPropertyOp41
 70
     1
102
RTVSPropertyOp42
 70
     1
102
RTVSPropertyOp43
 70
     1
102
RTVSPropertyOp44
 70
     1
102
RTVSPropertyOp45
 70
     1
102
RTVSPropertyOp46
 70
     1
102
RTVSPropertyOp47
 70
     1
102
RTVSPropertyOp48
 70
     1
102
RTVSPropertyOp49
 70
     1
102
RTVSPropertyOp50
 70
     1
102
RTVSPropertyOp51
 70
     0
102
RTVSPropertyOp52
 70
     0
102
RTVSPropertyOp53
 70
     1
102
RTVSPropertyOp54
 70
     1
102
RTVSPropertyOp55
 70
     1
102
RTVSPropertyOp56
 70
     1
102
RTVSPropertyOp57
 70
     1
102
RTVSPropertyOp58
 70
     1
102
RTVSPropertyOp59
 70
     1
102
RTVSPropertyOp60
 70
     1
102
RTVSPropertyOp61
 70
     1
102
RTVSPropertyOp62
 70
     1
  0
XRECORD
  5
8217
102
{ACAD_REACTORS
330
8216
102
}
330
8216
100
AcDbXrecord
280
     1
102
RTVSPost2010Prop28
280
     0
102
RTVSPost2010PropOp28
 70
     1
102
RTVSPost2010Prop29
280
     1
102
RTVSPost2010PropOp29
 70
     1
102
RTVSPost2010Prop30
280
     1
102
RTVSPost2010PropOp30
 70
     1
102
RTVSPost2010Prop31
280
     0
102
RTVSPost2010PropOp31
 70
     1
102
RTVSPost2010Prop32
280
     0
102
RTVSPost2010PropOp32
 70
     1
102
RTVSPost2010Prop33
280
     0
102
RTVSPost2010PropOp33
 70
     1
102
RTVSPost2010Prop34
280
     0
102
RTVSPost2010PropOp34
 70
     1
102
RTVSPost2010Prop35
280
     0
102
RTVSPost2010PropOp35
 70
     1
102
RTVSPost2010Prop36
280
     0
102
RTVSPost2010PropOp36
 70
     1
102
RTVSPost2010Prop37
 90
       50
102
RTVSPost2010PropOp37
 70
     1
102
RTVSPost2010Prop38
140
0.0
102
RTVSPost2010PropOp38
 70
     1
102
RTVSPost2010Prop39
140
1.0
102
RTVSPost2010PropOp39
 70
     1
102
RTVSPost2010Prop40
 90
        0
102
RTVSPost2010PropOp40
 70
     1
102
RTVSPost2010Prop41ColorIndex
 90
       18
102
RTVSPost2010Prop41ColorRGB
 90
        0
102
RTVSPost2010PropOp41
 70
     1
102
RTVSPost2010Prop42
 90
       50
102
RTVSPost2010PropOp42
 70
     1
102
RTVSPost2010Prop43
 90
        3
102
RTVSPost2010PropOp43
 70
     1
102
RTVSPost2010Prop44ColorIndex
 90
        5
102
RTVSPost2010Prop44ColorRGB
 90
      255
102
RTVSPost2010PropOp44
 70
     1
102
RTVSPost2010Prop45
280
     0
102
RTVSPost2010PropOp45
 70
     1
102
RTVSPost2010Prop46
 90
       50
102
RTVSPost2010PropOp46
 70
     1
102
RTVSPost2010Prop47
 90
       50
102
RTVSPost2010PropOp47
 70
     1
102
RTVSPost2010Prop48
 90
       50
102
RTVSPost2010PropOp48
 70
     1
102
RTVSPost2010Prop49
280
     0
102
RTVSPost2010PropOp49
 70
     1
102
RTVSPost2010Prop50
 90
       50
102
RTVSPost2010PropOp50
 70
     1
102
RTVSPost2010Prop51ColorIndex
 90
      256
102
RTVSPost2010Prop51ColorRGB
 90
-16777216
102
RTVSPost2010PropOp51
 70
     0
102
RTVSPost2010Prop52
140
1.0
102
RTVSPost2010PropOp52
 70
     0
102
RTVSPost2010Prop53
 90
        2
102
RTVSPost2010PropOp53
 70
     1
102
RTVSPost2010Prop54
  1
strokes_ogs.tif
102
RTVSPost2010PropOp54
 70
     1
102
RTVSPost2010Prop55
280
     0
102
RTVSPost2010PropOp55
 70
     1
102
RTVSPost2010Prop56
140
1.0
102
RTVSPost2010PropOp56
 70
     1
102
RTVSPost2010Prop57
140
1.0
102
RTVSPost2010PropOp57
 70
     1
102
RTVSPropertyOp0
 70
     1
102
RTVSPropertyOp1
 70
     1
102
RTVSPropertyOp2
 70
     1
102
RTVSPropertyOp3
 70
     1
102
RTVSPropertyOp4
 70
     1
102
RTVSPropertyOp5
 70
     1
102
RTVSPropertyOp6
 70
     1
102
RTVSPropertyOp7
 70
     1
102
RTVSPropertyOp8
 70
     1
102
RTVSPropertyOp9
 70
     1
102
RTVSPropertyOp10
 70
     1
102
RTVSPropertyOp11
 70
     1
102
RTVSPropertyOp12
 70
     1
102
RTVSPropertyOp13
 70
     1
102
RTVSPropertyOp14
 70
     1
102
RTVSPropertyOp15
 70
     1
102
RTVSPropertyOp16
 70
     1
102
RTVSPropertyOp17
 70
     1
102
RTVSPropertyOp18
 70
     1
102
RTVSPropertyOp19
 70
     1
102
RTVSPropertyOp20
 70
     1
102
RTVSPropertyOp21
 70
     1
102
RTVSPropertyOp22
 70
     1
102
RTVSPropertyOp23
 70
     1
102
RTVSPropertyOp24
 70
     1
102
RTVSPropertyOp25
 70
     1
102
RTVSPropertyOp26
 70
     1
102
RTVSPropertyOp27
 70
     1
102
RTVSPropertyOp28
 70
     1
102
RTVSPropertyOp29
 70
     1
102
RTVSPropertyOp30
 70
     1
102
RTVSPropertyOp31
 70
     1
102
RTVSPropertyOp32
 70
     1
102
RTVSPropertyOp33
 70
     1
102
RTVSPropertyOp34
 70
     1
102
RTVSPropertyOp35
 70
     1
102
RTVSPropertyOp36
 70
     1
102
RTVSPropertyOp37
 70
     1
102
RTVSPropertyOp38
 70
     1
102
RTVSPropertyOp39
 70
     1
102
RTVSPropertyOp40
 70
     1
102
RTVSPropertyOp41
 70
     1
102
RTVSPropertyOp42
 70
     1
102
RTVSPropertyOp43
 70
     1
102
RTVSPropertyOp44
 70
     1
102
RTVSPropertyOp45
 70
     1
102
RTVSPropertyOp46
 70
     1
102
RTVSPropertyOp47
 70
     1
102
RTVSPropertyOp48
 70
     1
102
RTVSPropertyOp49
 70
     1
102
RTVSPropertyOp50
 70
     1
102
RTVSPropertyOp51
 70
     0
102
RTVSPropertyOp52
 70
     0
102
RTVSPropertyOp53
 70
     1
102
RTVSPropertyOp54
 70
     1
102
RTVSPropertyOp55
 70
     1
102
RTVSPropertyOp56
 70
     1
102
RTVSPropertyOp57
 70
     1
102
RTVSPropertyOp58
 70
     1
102
RTVSPropertyOp59
 70
     1
102
RTVSPropertyOp60
 70
     1
102
RTVSPropertyOp61
 70
     1
102
RTVSPropertyOp62
 70
     1
  0
XRECORD
  5
8225
102
{ACAD_REACTORS
330
8224
102
}
330
8224
100
AcDbXrecord
280
     1
102
RTVSPost2010Prop28
280
     0
102
RTVSPost2010PropOp28
 70
     1
102
RTVSPost2010Prop29
280
     1
102
RTVSPost2010PropOp29
 70
     1
102
RTVSPost2010Prop30
280
     1
102
RTVSPost2010PropOp30
 70
     1
102
RTVSPost2010Prop31
280
     0
102
RTVSPost2010PropOp31
 70
     1
102
RTVSPost2010Prop32
280
     0
102
RTVSPost2010PropOp32
 70
     1
102
RTVSPost2010Prop33
280
     0
102
RTVSPost2010PropOp33
 70
     1
102
RTVSPost2010Prop34
280
     0
102
RTVSPost2010PropOp34
 70
     1
102
RTVSPost2010Prop35
280
     0
102
RTVSPost2010PropOp35
 70
     1
102
RTVSPost2010Prop36
280
     0
102
RTVSPost2010PropOp36
 70
     1
102
RTVSPost2010Prop37
 90
       50
102
RTVSPost2010PropOp37
 70
     1
102
RTVSPost2010Prop38
140
0.0
102
RTVSPost2010PropOp38
 70
     1
102
RTVSPost2010Prop39
140
1.0
102
RTVSPost2010PropOp39
 70
     1
102
RTVSPost2010Prop40
 90
        0
102
RTVSPost2010PropOp40
 70
     1
102
RTVSPost2010Prop41ColorIndex
 90
       18
102
RTVSPost2010Prop41ColorRGB
 90
        0
102
RTVSPost2010PropOp41
 70
     1
102
RTVSPost2010Prop42
 90
       50
102
RTVSPost2010PropOp42
 70
     1
102
RTVSPost2010Prop43
 90
        3
102
RTVSPost2010PropOp43
 70
     1
102
RTVSPost2010Prop44ColorIndex
 90
        5
102
RTVSPost2010Prop44ColorRGB
 90
      255
102
RTVSPost2010PropOp44
 70
     1
102
RTVSPost2010Prop45
280
     0
102
RTVSPost2010PropOp45
 70
     1
102
RTVSPost2010Prop46
 90
       50
102
RTVSPost2010PropOp46
 70
     1
102
RTVSPost2010Prop47
 90
       50
102
RTVSPost2010PropOp47
 70
     1
102
RTVSPost2010Prop48
 90
       50
102
RTVSPost2010PropOp48
 70
     1
102
RTVSPost2010Prop49
280
     0
102
RTVSPost2010PropOp49
 70
     1
102
RTVSPost2010Prop50
 90
       50
102
RTVSPost2010PropOp50
 70
     1
102
RTVSPost2010Prop51ColorIndex
 90
      256
102
RTVSPost2010Prop51ColorRGB
 90
-16777216
102
RTVSPost2010PropOp51
 70
     0
102
RTVSPost2010Prop52
140
1.0
102
RTVSPost2010PropOp52
 70
     0
102
RTVSPost2010Prop53
 90
        2
102
RTVSPost2010PropOp53
 70
     1
102
RTVSPost2010Prop54
  1
strokes_ogs.tif
102
RTVSPost2010PropOp54
 70
     1
102
RTVSPost2010Prop55
280
     0
102
RTVSPost2010PropOp55
 70
     1
102
RTVSPost2010Prop56
140
1.0
102
RTVSPost2010PropOp56
 70
     1
102
RTVSPost2010Prop57
140
1.0
102
RTVSPost2010PropOp57
 70
     1
102
RTVSPropertyOp0
 70
     1
102
RTVSPropertyOp1
 70
     1
102
RTVSPropertyOp2
 70
     1
102
RTVSPropertyOp3
 70
     1
102
RTVSPropertyOp4
 70
     1
102
RTVSPropertyOp5
 70
     1
102
RTVSPropertyOp6
 70
     1
102
RTVSPropertyOp7
 70
     1
102
RTVSPropertyOp8
 70
     1
102
RTVSPropertyOp9
 70
     1
102
RTVSPropertyOp10
 70
     1
102
RTVSPropertyOp11
 70
     1
102
RTVSPropertyOp12
 70
     1
102
RTVSPropertyOp13
 70
     1
102
RTVSPropertyOp14
 70
     1
102
RTVSPropertyOp15
 70
     1
102
RTVSPropertyOp16
 70
     1
102
RTVSPropertyOp17
 70
     1
102
RTVSPropertyOp18
 70
     1
102
RTVSPropertyOp19
 70
     1
102
RTVSPropertyOp20
 70
     1
102
RTVSPropertyOp21
 70
     1
102
RTVSPropertyOp22
 70
     1
102
RTVSPropertyOp23
 70
     1
102
RTVSPropertyOp24
 70
     1
102
RTVSPropertyOp25
 70
     1
102
RTVSPropertyOp26
 70
     1
102
RTVSPropertyOp27
 70
     1
102
RTVSPropertyOp28
 70
     1
102
RTVSPropertyOp29
 70
     1
102
RTVSPropertyOp30
 70
     1
102
RTVSPropertyOp31
 70
     1
102
RTVSPropertyOp32
 70
     1
102
RTVSPropertyOp33
 70
     1
102
RTVSPropertyOp34
 70
     1
102
RTVSPropertyOp35
 70
     1
102
RTVSPropertyOp36
 70
     1
102
RTVSPropertyOp37
 70
     1
102
RTVSPropertyOp38
 70
     1
102
RTVSPropertyOp39
 70
     1
102
RTVSPropertyOp40
 70
     1
102
RTVSPropertyOp41
 70
     1
102
RTVSPropertyOp42
 70
     1
102
RTVSPropertyOp43
 70
     1
102
RTVSPropertyOp44
 70
     1
102
RTVSPropertyOp45
 70
     1
102
RTVSPropertyOp46
 70
     1
102
RTVSPropertyOp47
 70
     1
102
RTVSPropertyOp48
 70
     1
102
RTVSPropertyOp49
 70
     1
102
RTVSPropertyOp50
 70
     1
102
RTVSPropertyOp51
 70
     0
102
RTVSPropertyOp52
 70
     0
102
RTVSPropertyOp53
 70
     1
102
RTVSPropertyOp54
 70
     1
102
RTVSPropertyOp55
 70
     1
102
RTVSPropertyOp56
 70
     1
102
RTVSPropertyOp57
 70
     1
102
RTVSPropertyOp58
 70
     1
102
RTVSPropertyOp59
 70
     1
102
RTVSPropertyOp60
 70
     1
102
RTVSPropertyOp61
 70
     1
102
RTVSPropertyOp62
 70
     1
  0
XRECORD
  5
822D
102
{ACAD_REACTORS
330
822C
102
}
330
822C
100
AcDbXrecord
280
     1
102
RTVSPost2010Prop28
280
     0
102
RTVSPost2010PropOp28
 70
     1
102
RTVSPost2010Prop29
280
     1
102
RTVSPost2010PropOp29
 70
     1
102
RTVSPost2010Prop30
280
     1
102
RTVSPost2010PropOp30
 70
     1
102
RTVSPost2010Prop31
280
     0
102
RTVSPost2010PropOp31
 70
     1
102
RTVSPost2010Prop32
280
     0
102
RTVSPost2010PropOp32
 70
     1
102
RTVSPost2010Prop33
280
     0
102
RTVSPost2010PropOp33
 70
     1
102
RTVSPost2010Prop34
280
     0
102
RTVSPost2010PropOp34
 70
     1
102
RTVSPost2010Prop35
280
     0
102
RTVSPost2010PropOp35
 70
     1
102
RTVSPost2010Prop36
280
     0
102
RTVSPost2010PropOp36
 70
     1
102
RTVSPost2010Prop37
 90
       50
102
RTVSPost2010PropOp37
 70
     1
102
RTVSPost2010Prop38
140
0.0
102
RTVSPost2010PropOp38
 70
     1
102
RTVSPost2010Prop39
140
1.0
102
RTVSPost2010PropOp39
 70
     1
102
RTVSPost2010Prop40
 90
        0
102
RTVSPost2010PropOp40
 70
     1
102
RTVSPost2010Prop41ColorIndex
 90
       18
102
RTVSPost2010Prop41ColorRGB
 90
        0
102
RTVSPost2010PropOp41
 70
     1
102
RTVSPost2010Prop42
 90
       50
102
RTVSPost2010PropOp42
 70
     1
102
RTVSPost2010Prop43
 90
        3
102
RTVSPost2010PropOp43
 70
     1
102
RTVSPost2010Prop44ColorIndex
 90
        5
102
RTVSPost2010Prop44ColorRGB
 90
      255
102
RTVSPost2010PropOp44
 70
     1
102
RTVSPost2010Prop45
280
     0
102
RTVSPost2010PropOp45
 70
     1
102
RTVSPost2010Prop46
 90
       50
102
RTVSPost2010PropOp46
 70
     1
102
RTVSPost2010Prop47
 90
       50
102
RTVSPost2010PropOp47
 70
     1
102
RTVSPost2010Prop48
 90
       50
102
RTVSPost2010PropOp48
 70
     1
102
RTVSPost2010Prop49
280
     0
102
RTVSPost2010PropOp49
 70
     1
102
RTVSPost2010Prop50
 90
       50
102
RTVSPost2010PropOp50
 70
     1
102
RTVSPost2010Prop51ColorIndex
 90
      256
102
RTVSPost2010Prop51ColorRGB
 90
-16777216
102
RTVSPost2010PropOp51
 70
     0
102
RTVSPost2010Prop52
140
1.0
102
RTVSPost2010PropOp52
 70
     0
102
RTVSPost2010Prop53
 90
        2
102
RTVSPost2010PropOp53
 70
     1
102
RTVSPost2010Prop54
  1
strokes_ogs.tif
102
RTVSPost2010PropOp54
 70
     1
102
RTVSPost2010Prop55
280
     0
102
RTVSPost2010PropOp55
 70
     1
102
RTVSPost2010Prop56
140
1.0
102
RTVSPost2010PropOp56
 70
     1
102
RTVSPost2010Prop57
140
1.0
102
RTVSPost2010PropOp57
 70
     1
102
RTVSPropertyOp0
 70
     1
102
RTVSPropertyOp1
 70
     1
102
RTVSPropertyOp2
 70
     1
102
RTVSPropertyOp3
 70
     1
102
RTVSPropertyOp4
 70
     1
102
RTVSPropertyOp5
 70
     1
102
RTVSPropertyOp6
 70
     1
102
RTVSPropertyOp7
 70
     1
102
RTVSPropertyOp8
 70
     1
102
RTVSPropertyOp9
 70
     1
102
RTVSPropertyOp10
 70
     1
102
RTVSPropertyOp11
 70
     1
102
RTVSPropertyOp12
 70
     1
102
RTVSPropertyOp13
 70
     1
102
RTVSPropertyOp14
 70
     1
102
RTVSPropertyOp15
 70
     1
102
RTVSPropertyOp16
 70
     1
102
RTVSPropertyOp17
 70
     1
102
RTVSPropertyOp18
 70
     1
102
RTVSPropertyOp19
 70
     1
102
RTVSPropertyOp20
 70
     1
102
RTVSPropertyOp21
 70
     1
102
RTVSPropertyOp22
 70
     1
102
RTVSPropertyOp23
 70
     1
102
RTVSPropertyOp24
 70
     1
102
RTVSPropertyOp25
 70
     1
102
RTVSPropertyOp26
 70
     1
102
RTVSPropertyOp27
 70
     1
102
RTVSPropertyOp28
 70
     1
102
RTVSPropertyOp29
 70
     1
102
RTVSPropertyOp30
 70
     1
102
RTVSPropertyOp31
 70
     1
102
RTVSPropertyOp32
 70
     1
102
RTVSPropertyOp33
 70
     1
102
RTVSPropertyOp34
 70
     1
102
RTVSPropertyOp35
 70
     1
102
RTVSPropertyOp36
 70
     1
102
RTVSPropertyOp37
 70
     1
102
RTVSPropertyOp38
 70
     1
102
RTVSPropertyOp39
 70
     1
102
RTVSPropertyOp40
 70
     1
102
RTVSPropertyOp41
 70
     1
102
RTVSPropertyOp42
 70
     1
102
RTVSPropertyOp43
 70
     1
102
RTVSPropertyOp44
 70
     1
102
RTVSPropertyOp45
 70
     1
102
RTVSPropertyOp46
 70
     1
102
RTVSPropertyOp47
 70
     1
102
RTVSPropertyOp48
 70
     1
102
RTVSPropertyOp49
 70
     1
102
RTVSPropertyOp50
 70
     1
102
RTVSPropertyOp51
 70
     0
102
RTVSPropertyOp52
 70
     0
102
RTVSPropertyOp53
 70
     1
102
RTVSPropertyOp54
 70
     1
102
RTVSPropertyOp55
 70
     1
102
RTVSPropertyOp56
 70
     1
102
RTVSPropertyOp57
 70
     1
102
RTVSPropertyOp58
 70
     1
102
RTVSPropertyOp59
 70
     1
102
RTVSPropertyOp60
 70
     1
102
RTVSPropertyOp61
 70
     1
102
RTVSPropertyOp62
 70
     1
  0
XRECORD
  5
821F
102
{ACAD_REACTORS
330
821E
102
}
330
821E
100
AcDbXrecord
280
     1
102
RTVSPost2010Prop28
280
     0
102
RTVSPost2010PropOp28
 70
     1
102
RTVSPost2010Prop29
280
     1
102
RTVSPost2010PropOp29
 70
     1
102
RTVSPost2010Prop30
280
     1
102
RTVSPost2010PropOp30
 70
     1
102
RTVSPost2010Prop31
280
     0
102
RTVSPost2010PropOp31
 70
     1
102
RTVSPost2010Prop32
280
     0
102
RTVSPost2010PropOp32
 70
     1
102
RTVSPost2010Prop33
280
     0
102
RTVSPost2010PropOp33
 70
     1
102
RTVSPost2010Prop34
280
     0
102
RTVSPost2010PropOp34
 70
     1
102
RTVSPost2010Prop35
280
     0
102
RTVSPost2010PropOp35
 70
     1
102
RTVSPost2010Prop36
280
     0
102
RTVSPost2010PropOp36
 70
     1
102
RTVSPost2010Prop37
 90
       50
102
RTVSPost2010PropOp37
 70
     1
102
RTVSPost2010Prop38
140
0.0
102
RTVSPost2010PropOp38
 70
     1
102
RTVSPost2010Prop39
140
1.0
102
RTVSPost2010PropOp39
 70
     1
102
RTVSPost2010Prop40
 90
        0
102
RTVSPost2010PropOp40
 70
     1
102
RTVSPost2010Prop41ColorIndex
 90
       18
102
RTVSPost2010Prop41ColorRGB
 90
        0
102
RTVSPost2010PropOp41
 70
     1
102
RTVSPost2010Prop42
 90
       50
102
RTVSPost2010PropOp42
 70
     1
102
RTVSPost2010Prop43
 90
        3
102
RTVSPost2010PropOp43
 70
     1
102
RTVSPost2010Prop44ColorIndex
 90
        5
102
RTVSPost2010Prop44ColorRGB
 90
      255
102
RTVSPost2010PropOp44
 70
     1
102
RTVSPost2010Prop45
280
     0
102
RTVSPost2010PropOp45
 70
     1
102
RTVSPost2010Prop46
 90
       50
102
RTVSPost2010PropOp46
 70
     1
102
RTVSPost2010Prop47
 90
       50
102
RTVSPost2010PropOp47
 70
     1
102
RTVSPost2010Prop48
 90
       50
102
RTVSPost2010PropOp48
 70
     1
102
RTVSPost2010Prop49
280
     0
102
RTVSPost2010PropOp49
 70
     1
102
RTVSPost2010Prop50
 90
       50
102
RTVSPost2010PropOp50
 70
     1
102
RTVSPost2010Prop51ColorIndex
 90
      256
102
RTVSPost2010Prop51ColorRGB
 90
-16777216
102
RTVSPost2010PropOp51
 70
     0
102
RTVSPost2010Prop52
140
1.0
102
RTVSPost2010PropOp52
 70
     0
102
RTVSPost2010Prop53
 90
        2
102
RTVSPost2010PropOp53
 70
     1
102
RTVSPost2010Prop54
  1
strokes_ogs.tif
102
RTVSPost2010PropOp54
 70
     1
102
RTVSPost2010Prop55
280
     0
102
RTVSPost2010PropOp55
 70
     1
102
RTVSPost2010Prop56
140
1.0
102
RTVSPost2010PropOp56
 70
     1
102
RTVSPost2010Prop57
140
1.0
102
RTVSPost2010PropOp57
 70
     1
102
RTVSPropertyOp0
 70
     1
102
RTVSPropertyOp1
 70
     1
102
RTVSPropertyOp2
 70
     1
102
RTVSPropertyOp3
 70
     1
102
RTVSPropertyOp4
 70
     1
102
RTVSPropertyOp5
 70
     1
102
RTVSPropertyOp6
 70
     1
102
RTVSPropertyOp7
 70
     1
102
RTVSPropertyOp8
 70
     1
102
RTVSPropertyOp9
 70
     1
102
RTVSPropertyOp10
 70
     1
102
RTVSPropertyOp11
 70
     1
102
RTVSPropertyOp12
 70
     1
102
RTVSPropertyOp13
 70
     1
102
RTVSPropertyOp14
 70
     1
102
RTVSPropertyOp15
 70
     1
102
RTVSPropertyOp16
 70
     1
102
RTVSPropertyOp17
 70
     1
102
RTVSPropertyOp18
 70
     1
102
RTVSPropertyOp19
 70
     1
102
RTVSPropertyOp20
 70
     1
102
RTVSPropertyOp21
 70
     1
102
RTVSPropertyOp22
 70
     1
102
RTVSPropertyOp23
 70
     1
102
RTVSPropertyOp24
 70
     1
102
RTVSPropertyOp25
 70
     1
102
RTVSPropertyOp26
 70
     1
102
RTVSPropertyOp27
 70
     1
102
RTVSPropertyOp28
 70
     1
102
RTVSPropertyOp29
 70
     1
102
RTVSPropertyOp30
 70
     1
102
RTVSPropertyOp31
 70
     1
102
RTVSPropertyOp32
 70
     1
102
RTVSPropertyOp33
 70
     1
102
RTVSPropertyOp34
 70
     1
102
RTVSPropertyOp35
 70
     1
102
RTVSPropertyOp36
 70
     1
102
RTVSPropertyOp37
 70
     1
102
RTVSPropertyOp38
 70
     1
102
RTVSPropertyOp39
 70
     1
102
RTVSPropertyOp40
 70
     1
102
RTVSPropertyOp41
 70
     1
102
RTVSPropertyOp42
 70
     1
102
RTVSPropertyOp43
 70
     1
102
RTVSPropertyOp44
 70
     1
102
RTVSPropertyOp45
 70
     1
102
RTVSPropertyOp46
 70
     1
102
RTVSPropertyOp47
 70
     1
102
RTVSPropertyOp48
 70
     1
102
RTVSPropertyOp49
 70
     1
102
RTVSPropertyOp50
 70
     1
102
RTVSPropertyOp51
 70
     0
102
RTVSPropertyOp52
 70
     0
102
RTVSPropertyOp53
 70
     1
102
RTVSPropertyOp54
 70
     1
102
RTVSPropertyOp55
 70
     1
102
RTVSPropertyOp56
 70
     1
102
RTVSPropertyOp57
 70
     1
102
RTVSPropertyOp58
 70
     1
102
RTVSPropertyOp59
 70
     1
102
RTVSPropertyOp60
 70
     1
102
RTVSPropertyOp61
 70
     1
102
RTVSPropertyOp62
 70
     1
  0
XRECORD
  5
8223
102
{ACAD_REACTORS
330
8222
102
}
330
8222
100
AcDbXrecord
280
     1
102
RTVSPost2010Prop28
280
     0
102
RTVSPost2010PropOp28
 70
     1
102
RTVSPost2010Prop29
280
     1
102
RTVSPost2010PropOp29
 70
     1
102
RTVSPost2010Prop30
280
     1
102
RTVSPost2010PropOp30
 70
     1
102
RTVSPost2010Prop31
280
     0
102
RTVSPost2010PropOp31
 70
     1
102
RTVSPost2010Prop32
280
     0
102
RTVSPost2010PropOp32
 70
     1
102
RTVSPost2010Prop33
280
     0
102
RTVSPost2010PropOp33
 70
     1
102
RTVSPost2010Prop34
280
     0
102
RTVSPost2010PropOp34
 70
     1
102
RTVSPost2010Prop35
280
     0
102
RTVSPost2010PropOp35
 70
     1
102
RTVSPost2010Prop36
280
     0
102
RTVSPost2010PropOp36
 70
     1
102
RTVSPost2010Prop37
 90
       50
102
RTVSPost2010PropOp37
 70
     1
102
RTVSPost2010Prop38
140
0.0
102
RTVSPost2010PropOp38
 70
     1
102
RTVSPost2010Prop39
140
1.0
102
RTVSPost2010PropOp39
 70
     1
102
RTVSPost2010Prop40
 90
        0
102
RTVSPost2010PropOp40
 70
     1
102
RTVSPost2010Prop41ColorIndex
 90
       18
102
RTVSPost2010Prop41ColorRGB
 90
        0
102
RTVSPost2010PropOp41
 70
     1
102
RTVSPost2010Prop42
 90
       50
102
RTVSPost2010PropOp42
 70
     1
102
RTVSPost2010Prop43
 90
        3
102
RTVSPost2010PropOp43
 70
     1
102
RTVSPost2010Prop44ColorIndex
 90
        5
102
RTVSPost2010Prop44ColorRGB
 90
      255
102
RTVSPost2010PropOp44
 70
     1
102
RTVSPost2010Prop45
280
     0
102
RTVSPost2010PropOp45
 70
     1
102
RTVSPost2010Prop46
 90
       50
102
RTVSPost2010PropOp46
 70
     1
102
RTVSPost2010Prop47
 90
       50
102
RTVSPost2010PropOp47
 70
     1
102
RTVSPost2010Prop48
 90
       50
102
RTVSPost2010PropOp48
 70
     1
102
RTVSPost2010Prop49
280
     0
102
RTVSPost2010PropOp49
 70
     1
102
RTVSPost2010Prop50
 90
       50
102
RTVSPost2010PropOp50
 70
     1
102
RTVSPost2010Prop51ColorIndex
 90
      256
102
RTVSPost2010Prop51ColorRGB
 90
-16777216
102
RTVSPost2010PropOp51
 70
     0
102
RTVSPost2010Prop52
140
1.0
102
RTVSPost2010PropOp52
 70
     0
102
RTVSPost2010Prop53
 90
        2
102
RTVSPost2010PropOp53
 70
     1
102
RTVSPost2010Prop54
  1
strokes_ogs.tif
102
RTVSPost2010PropOp54
 70
     1
102
RTVSPost2010Prop55
280
     0
102
RTVSPost2010PropOp55
 70
     1
102
RTVSPost2010Prop56
140
1.0
102
RTVSPost2010PropOp56
 70
     1
102
RTVSPost2010Prop57
140
1.0
102
RTVSPost2010PropOp57
 70
     1
102
RTVSPropertyOp0
 70
     1
102
RTVSPropertyOp1
 70
     1
102
RTVSPropertyOp2
 70
     1
102
RTVSPropertyOp3
 70
     1
102
RTVSPropertyOp4
 70
     1
102
RTVSPropertyOp5
 70
     1
102
RTVSPropertyOp6
 70
     1
102
RTVSPropertyOp7
 70
     1
102
RTVSPropertyOp8
 70
     1
102
RTVSPropertyOp9
 70
     1
102
RTVSPropertyOp10
 70
     1
102
RTVSPropertyOp11
 70
     1
102
RTVSPropertyOp12
 70
     1
102
RTVSPropertyOp13
 70
     1
102
RTVSPropertyOp14
 70
     1
102
RTVSPropertyOp15
 70
     1
102
RTVSPropertyOp16
 70
     1
102
RTVSPropertyOp17
 70
     1
102
RTVSPropertyOp18
 70
     1
102
RTVSPropertyOp19
 70
     1
102
RTVSPropertyOp20
 70
     1
102
RTVSPropertyOp21
 70
     1
102
RTVSPropertyOp22
 70
     1
102
RTVSPropertyOp23
 70
     1
102
RTVSPropertyOp24
 70
     1
102
RTVSPropertyOp25
 70
     1
102
RTVSPropertyOp26
 70
     1
102
RTVSPropertyOp27
 70
     1
102
RTVSPropertyOp28
 70
     1
102
RTVSPropertyOp29
 70
     1
102
RTVSPropertyOp30
 70
     1
102
RTVSPropertyOp31
 70
     1
102
RTVSPropertyOp32
 70
     1
102
RTVSPropertyOp33
 70
     1
102
RTVSPropertyOp34
 70
     1
102
RTVSPropertyOp35
 70
     1
102
RTVSPropertyOp36
 70
     1
102
RTVSPropertyOp37
 70
     1
102
RTVSPropertyOp38
 70
     1
102
RTVSPropertyOp39
 70
     1
102
RTVSPropertyOp40
 70
     1
102
RTVSPropertyOp41
 70
     1
102
RTVSPropertyOp42
 70
     1
102
RTVSPropertyOp43
 70
     1
102
RTVSPropertyOp44
 70
     1
102
RTVSPropertyOp45
 70
     1
102
RTVSPropertyOp46
 70
     1
102
RTVSPropertyOp47
 70
     1
102
RTVSPropertyOp48
 70
     1
102
RTVSPropertyOp49
 70
     1
102
RTVSPropertyOp50
 70
     1
102
RTVSPropertyOp51
 70
     0
102
RTVSPropertyOp52
 70
     0
102
RTVSPropertyOp53
 70
     1
102
RTVSPropertyOp54
 70
     1
102
RTVSPropertyOp55
 70
     1
102
RTVSPropertyOp56
 70
     1
102
RTVSPropertyOp57
 70
     1
102
RTVSPropertyOp58
 70
     1
102
RTVSPropertyOp59
 70
     1
102
RTVSPropertyOp60
 70
     1
102
RTVSPropertyOp61
 70
     1
102
RTVSPropertyOp62
 70
     1
  0
XRECORD
  5
8235
102
{ACAD_REACTORS
330
8234
102
}
330
8234
100
AcDbXrecord
280
     1
102
RTVSPost2010Prop28
280
     0
102
RTVSPost2010PropOp28
 70
     1
102
RTVSPost2010Prop29
280
     1
102
RTVSPost2010PropOp29
 70
     1
102
RTVSPost2010Prop30
280
     1
102
RTVSPost2010PropOp30
 70
     1
102
RTVSPost2010Prop31
280
     0
102
RTVSPost2010PropOp31
 70
     1
102
RTVSPost2010Prop32
280
     0
102
RTVSPost2010PropOp32
 70
     1
102
RTVSPost2010Prop33
280
     0
102
RTVSPost2010PropOp33
 70
     1
102
RTVSPost2010Prop34
280
     0
102
RTVSPost2010PropOp34
 70
     1
102
RTVSPost2010Prop35
280
     0
102
RTVSPost2010PropOp35
 70
     1
102
RTVSPost2010Prop36
280
     0
102
RTVSPost2010PropOp36
 70
     1
102
RTVSPost2010Prop37
 90
       50
102
RTVSPost2010PropOp37
 70
     1
102
RTVSPost2010Prop38
140
0.0
102
RTVSPost2010PropOp38
 70
     1
102
RTVSPost2010Prop39
140
1.0
102
RTVSPost2010PropOp39
 70
     1
102
RTVSPost2010Prop40
 90
        0
102
RTVSPost2010PropOp40
 70
     1
102
RTVSPost2010Prop41ColorIndex
 90
       18
102
RTVSPost2010Prop41ColorRGB
 90
        0
102
RTVSPost2010PropOp41
 70
     1
102
RTVSPost2010Prop42
 90
       50
102
RTVSPost2010PropOp42
 70
     1
102
RTVSPost2010Prop43
 90
        3
102
RTVSPost2010PropOp43
 70
     1
102
RTVSPost2010Prop44ColorIndex
 90
        5
102
RTVSPost2010Prop44ColorRGB
 90
      255
102
RTVSPost2010PropOp44
 70
     1
102
RTVSPost2010Prop45
280
     0
102
RTVSPost2010PropOp45
 70
     1
102
RTVSPost2010Prop46
 90
       50
102
RTVSPost2010PropOp46
 70
     1
102
RTVSPost2010Prop47
 90
       50
102
RTVSPost2010PropOp47
 70
     1
102
RTVSPost2010Prop48
 90
       50
102
RTVSPost2010PropOp48
 70
     1
102
RTVSPost2010Prop49
280
     0
102
RTVSPost2010PropOp49
 70
     1
102
RTVSPost2010Prop50
 90
       50
102
RTVSPost2010PropOp50
 70
     1
102
RTVSPost2010Prop51ColorIndex
 90
      256
102
RTVSPost2010Prop51ColorRGB
 90
-16777216
102
RTVSPost2010PropOp51
 70
     0
102
RTVSPost2010Prop52
140
1.0
102
RTVSPost2010PropOp52
 70
     0
102
RTVSPost2010Prop53
 90
        2
102
RTVSPost2010PropOp53
 70
     1
102
RTVSPost2010Prop54
  1
strokes_ogs.tif
102
RTVSPost2010PropOp54
 70
     1
102
RTVSPost2010Prop55
280
     0
102
RTVSPost2010PropOp55
 70
     1
102
RTVSPost2010Prop56
140
1.0
102
RTVSPost2010PropOp56
 70
     1
102
RTVSPost2010Prop57
140
1.0
102
RTVSPost2010PropOp57
 70
     1
102
RTVSPropertyOp0
 70
     0
102
RTVSPropertyOp1
 70
     0
102
RTVSPropertyOp2
 70
     0
102
RTVSPropertyOp3
 70
     0
102
RTVSPropertyOp4
 70
     0
102
RTVSPropertyOp5
 70
     0
102
RTVSPropertyOp6
 70
     0
102
RTVSPropertyOp7
 70
     0
102
RTVSPropertyOp8
 70
     0
102
RTVSPropertyOp9
 70
     0
102
RTVSPropertyOp10
 70
     0
102
RTVSPropertyOp11
 70
     0
102
RTVSPropertyOp12
 70
     0
102
RTVSPropertyOp13
 70
     0
102
RTVSPropertyOp14
 70
     2
102
RTVSPropertyOp15
 70
     0
102
RTVSPropertyOp16
 70
     0
102
RTVSPropertyOp17
 70
     0
102
RTVSPropertyOp18
 70
     0
102
RTVSPropertyOp19
 70
     0
102
RTVSPropertyOp20
 70
     0
102
RTVSPropertyOp21
 70
     0
102
RTVSPropertyOp22
 70
     0
102
RTVSPropertyOp23
 70
     0
102
RTVSPropertyOp24
 70
     0
102
RTVSPropertyOp25
 70
     0
102
RTVSPropertyOp26
 70
     0
102
RTVSPropertyOp27
 70
     0
102
RTVSPropertyOp28
 70
     1
102
RTVSPropertyOp29
 70
     1
102
RTVSPropertyOp30
 70
     1
102
RTVSPropertyOp31
 70
     1
102
RTVSPropertyOp32
 70
     1
102
RTVSPropertyOp33
 70
     1
102
RTVSPropertyOp34
 70
     1
102
RTVSPropertyOp35
 70
     1
102
RTVSPropertyOp36
 70
     1
102
RTVSPropertyOp37
 70
     1
102
RTVSPropertyOp38
 70
     1
102
RTVSPropertyOp39
 70
     1
102
RTVSPropertyOp40
 70
     1
102
RTVSPropertyOp41
 70
     1
102
RTVSPropertyOp42
 70
     1
102
RTVSPropertyOp43
 70
     1
102
RTVSPropertyOp44
 70
     1
102
RTVSPropertyOp45
 70
     1
102
RTVSPropertyOp46
 70
     1
102
RTVSPropertyOp47
 70
     1
102
RTVSPropertyOp48
 70
     1
102
RTVSPropertyOp49
 70
     1
102
RTVSPropertyOp50
 70
     1
102
RTVSPropertyOp51
 70
     0
102
RTVSPropertyOp52
 70
     0
102
RTVSPropertyOp53
 70
     1
102
RTVSPropertyOp54
 70
     1
102
RTVSPropertyOp55
 70
     1
102
RTVSPropertyOp56
 70
     1
102
RTVSPropertyOp57
 70
     1
102
RTVSPropertyOp58
 70
     1
102
RTVSPropertyOp59
 70
     1
102
RTVSPropertyOp60
 70
     1
102
RTVSPropertyOp61
 70
     1
102
RTVSPropertyOp62
 70
     1
  0
XRECORD
  5
822B
102
{ACAD_REACTORS
330
822A
102
}
330
822A
100
AcDbXrecord
280
     1
102
RTVSPost2010Prop28
280
     0
102
RTVSPost2010PropOp28
 70
     1
102
RTVSPost2010Prop29
280
     1
102
RTVSPost2010PropOp29
 70
     1
102
RTVSPost2010Prop30
280
     1
102
RTVSPost2010PropOp30
 70
     1
102
RTVSPost2010Prop31
280
     0
102
RTVSPost2010PropOp31
 70
     1
102
RTVSPost2010Prop32
280
     0
102
RTVSPost2010PropOp32
 70
     1
102
RTVSPost2010Prop33
280
     0
102
RTVSPost2010PropOp33
 70
     1
102
RTVSPost2010Prop34
280
     0
102
RTVSPost2010PropOp34
 70
     1
102
RTVSPost2010Prop35
280
     0
102
RTVSPost2010PropOp35
 70
     1
102
RTVSPost2010Prop36
280
     0
102
RTVSPost2010PropOp36
 70
     1
102
RTVSPost2010Prop37
 90
       50
102
RTVSPost2010PropOp37
 70
     1
102
RTVSPost2010Prop38
140
0.0
102
RTVSPost2010PropOp38
 70
     1
102
RTVSPost2010Prop39
140
1.0
102
RTVSPost2010PropOp39
 70
     1
102
RTVSPost2010Prop40
 90
        0
102
RTVSPost2010PropOp40
 70
     1
102
RTVSPost2010Prop41ColorIndex
 90
       18
102
RTVSPost2010Prop41ColorRGB
 90
        0
102
RTVSPost2010PropOp41
 70
     1
102
RTVSPost2010Prop42
 90
       50
102
RTVSPost2010PropOp42
 70
     1
102
RTVSPost2010Prop43
 90
        3
102
RTVSPost2010PropOp43
 70
     1
102
RTVSPost2010Prop44ColorIndex
 90
        5
102
RTVSPost2010Prop44ColorRGB
 90
      255
102
RTVSPost2010PropOp44
 70
     1
102
RTVSPost2010Prop45
280
     0
102
RTVSPost2010PropOp45
 70
     1
102
RTVSPost2010Prop46
 90
       50
102
RTVSPost2010PropOp46
 70
     1
102
RTVSPost2010Prop47
 90
       50
102
RTVSPost2010PropOp47
 70
     1
102
RTVSPost2010Prop48
 90
       50
102
RTVSPost2010PropOp48
 70
     1
102
RTVSPost2010Prop49
280
     0
102
RTVSPost2010PropOp49
 70
     1
102
RTVSPost2010Prop50
 90
       50
102
RTVSPost2010PropOp50
 70
     1
102
RTVSPost2010Prop51ColorIndex
 90
      256
102
RTVSPost2010Prop51ColorRGB
 90
-16777216
102
RTVSPost2010PropOp51
 70
     0
102
RTVSPost2010Prop52
140
1.0
102
RTVSPost2010PropOp52
 70
     0
102
RTVSPost2010Prop53
 90
        2
102
RTVSPost2010PropOp53
 70
     1
102
RTVSPost2010Prop54
  1
strokes_ogs.tif
102
RTVSPost2010PropOp54
 70
     1
102
RTVSPost2010Prop55
280
     0
102
RTVSPost2010PropOp55
 70
     1
102
RTVSPost2010Prop56
140
1.0
102
RTVSPost2010PropOp56
 70
     1
102
RTVSPost2010Prop57
140
1.0
102
RTVSPost2010PropOp57
 70
     1
102
RTVSPropertyOp0
 70
     1
102
RTVSPropertyOp1
 70
     1
102
RTVSPropertyOp2
 70
     1
102
RTVSPropertyOp3
 70
     1
102
RTVSPropertyOp4
 70
     1
102
RTVSPropertyOp5
 70
     1
102
RTVSPropertyOp6
 70
     1
102
RTVSPropertyOp7
 70
     1
102
RTVSPropertyOp8
 70
     1
102
RTVSPropertyOp9
 70
     1
102
RTVSPropertyOp10
 70
     1
102
RTVSPropertyOp11
 70
     1
102
RTVSPropertyOp12
 70
     1
102
RTVSPropertyOp13
 70
     1
102
RTVSPropertyOp14
 70
     1
102
RTVSPropertyOp15
 70
     1
102
RTVSPropertyOp16
 70
     1
102
RTVSPropertyOp17
 70
     1
102
RTVSPropertyOp18
 70
     1
102
RTVSPropertyOp19
 70
     1
102
RTVSPropertyOp20
 70
     1
102
RTVSPropertyOp21
 70
     1
102
RTVSPropertyOp22
 70
     1
102
RTVSPropertyOp23
 70
     1
102
RTVSPropertyOp24
 70
     1
102
RTVSPropertyOp25
 70
     1
102
RTVSPropertyOp26
 70
     1
102
RTVSPropertyOp27
 70
     1
102
RTVSPropertyOp28
 70
     1
102
RTVSPropertyOp29
 70
     1
102
RTVSPropertyOp30
 70
     1
102
RTVSPropertyOp31
 70
     1
102
RTVSPropertyOp32
 70
     1
102
RTVSPropertyOp33
 70
     1
102
RTVSPropertyOp34
 70
     1
102
RTVSPropertyOp35
 70
     1
102
RTVSPropertyOp36
 70
     1
102
RTVSPropertyOp37
 70
     1
102
RTVSPropertyOp38
 70
     1
102
RTVSPropertyOp39
 70
     1
102
RTVSPropertyOp40
 70
     1
102
RTVSPropertyOp41
 70
     1
102
RTVSPropertyOp42
 70
     1
102
RTVSPropertyOp43
 70
     1
102
RTVSPropertyOp44
 70
     1
102
RTVSPropertyOp45
 70
     1
102
RTVSPropertyOp46
 70
     1
102
RTVSPropertyOp47
 70
     1
102
RTVSPropertyOp48
 70
     1
102
RTVSPropertyOp49
 70
     1
102
RTVSPropertyOp50
 70
     1
102
RTVSPropertyOp51
 70
     0
102
RTVSPropertyOp52
 70
     0
102
RTVSPropertyOp53
 70
     1
102
RTVSPropertyOp54
 70
     1
102
RTVSPropertyOp55
 70
     1
102
RTVSPropertyOp56
 70
     1
102
RTVSPropertyOp57
 70
     1
102
RTVSPropertyOp58
 70
     1
102
RTVSPropertyOp59
 70
     1
102
RTVSPropertyOp60
 70
     1
102
RTVSPropertyOp61
 70
     1
102
RTVSPropertyOp62
 70
     1
  0
XRECORD
  5
820F
102
{ACAD_REACTORS
330
820E
102
}
330
820E
100
AcDbXrecord
280
     1
102
RTVSPost2010Prop28
280
     0
102
RTVSPost2010PropOp28
 70
     1
102
RTVSPost2010Prop29
280
     1
102
RTVSPost2010PropOp29
 70
     1
102
RTVSPost2010Prop30
280
     1
102
RTVSPost2010PropOp30
 70
     1
102
RTVSPost2010Prop31
280
     0
102
RTVSPost2010PropOp31
 70
     1
102
RTVSPost2010Prop32
280
     0
102
RTVSPost2010PropOp32
 70
     1
102
RTVSPost2010Prop33
280
     0
102
RTVSPost2010PropOp33
 70
     1
102
RTVSPost2010Prop34
280
     0
102
RTVSPost2010PropOp34
 70
     1
102
RTVSPost2010Prop35
280
     0
102
RTVSPost2010PropOp35
 70
     1
102
RTVSPost2010Prop36
280
     0
102
RTVSPost2010PropOp36
 70
     1
102
RTVSPost2010Prop37
 90
       50
102
RTVSPost2010PropOp37
 70
     1
102
RTVSPost2010Prop38
140
0.0
102
RTVSPost2010PropOp38
 70
     1
102
RTVSPost2010Prop39
140
1.0
102
RTVSPost2010PropOp39
 70
     1
102
RTVSPost2010Prop40
 90
        0
102
RTVSPost2010PropOp40
 70
     1
102
RTVSPost2010Prop41ColorIndex
 90
       18
102
RTVSPost2010Prop41ColorRGB
 90
        0
102
RTVSPost2010PropOp41
 70
     1
102
RTVSPost2010Prop42
 90
       50
102
RTVSPost2010PropOp42
 70
     1
102
RTVSPost2010Prop43
 90
        3
102
RTVSPost2010PropOp43
 70
     1
102
RTVSPost2010Prop44ColorIndex
 90
        5
102
RTVSPost2010Prop44ColorRGB
 90
      255
102
RTVSPost2010PropOp44
 70
     1
102
RTVSPost2010Prop45
280
     0
102
RTVSPost2010PropOp45
 70
     1
102
RTVSPost2010Prop46
 90
       50
102
RTVSPost2010PropOp46
 70
     1
102
RTVSPost2010Prop47
 90
       50
102
RTVSPost2010PropOp47
 70
     1
102
RTVSPost2010Prop48
 90
       50
102
RTVSPost2010PropOp48
 70
     1
102
RTVSPost2010Prop49
280
     0
102
RTVSPost2010PropOp49
 70
     1
102
RTVSPost2010Prop50
 90
       50
102
RTVSPost2010PropOp50
 70
     1
102
RTVSPost2010Prop51ColorIndex
 90
      256
102
RTVSPost2010Prop51ColorRGB
 90
-16777216
102
RTVSPost2010PropOp51
 70
     0
102
RTVSPost2010Prop52
140
1.0
102
RTVSPost2010PropOp52
 70
     0
102
RTVSPost2010Prop53
 90
        2
102
RTVSPost2010PropOp53
 70
     1
102
RTVSPost2010Prop54
  1
strokes_ogs.tif
102
RTVSPost2010PropOp54
 70
     1
102
RTVSPost2010Prop55
280
     0
102
RTVSPost2010PropOp55
 70
     1
102
RTVSPost2010Prop56
140
1.0
102
RTVSPost2010PropOp56
 70
     1
102
RTVSPost2010Prop57
140
1.0
102
RTVSPost2010PropOp57
 70
     1
102
RTVSPropertyOp0
 70
     1
102
RTVSPropertyOp1
 70
     1
102
RTVSPropertyOp2
 70
     1
102
RTVSPropertyOp3
 70
     1
102
RTVSPropertyOp4
 70
     1
102
RTVSPropertyOp5
 70
     1
102
RTVSPropertyOp6
 70
     1
102
RTVSPropertyOp7
 70
     1
102
RTVSPropertyOp8
 70
     1
102
RTVSPropertyOp9
 70
     1
102
RTVSPropertyOp10
 70
     1
102
RTVSPropertyOp11
 70
     1
102
RTVSPropertyOp12
 70
     1
102
RTVSPropertyOp13
 70
     1
102
RTVSPropertyOp14
 70
     1
102
RTVSPropertyOp15
 70
     1
102
RTVSPropertyOp16
 70
     1
102
RTVSPropertyOp17
 70
     1
102
RTVSPropertyOp18
 70
     1
102
RTVSPropertyOp19
 70
     1
102
RTVSPropertyOp20
 70
     1
102
RTVSPropertyOp21
 70
     1
102
RTVSPropertyOp22
 70
     1
102
RTVSPropertyOp23
 70
     1
102
RTVSPropertyOp24
 70
     1
102
RTVSPropertyOp25
 70
     1
102
RTVSPropertyOp26
 70
     1
102
RTVSPropertyOp27
 70
     1
102
RTVSPropertyOp28
 70
     1
102
RTVSPropertyOp29
 70
     1
102
RTVSPropertyOp30
 70
     1
102
RTVSPropertyOp31
 70
     1
102
RTVSPropertyOp32
 70
     1
102
RTVSPropertyOp33
 70
     1
102
RTVSPropertyOp34
 70
     1
102
RTVSPropertyOp35
 70
     1
102
RTVSPropertyOp36
 70
     1
102
RTVSPropertyOp37
 70
     1
102
RTVSPropertyOp38
 70
     1
102
RTVSPropertyOp39
 70
     1
102
RTVSPropertyOp40
 70
     1
102
RTVSPropertyOp41
 70
     1
102
RTVSPropertyOp42
 70
     1
102
RTVSPropertyOp43
 70
     1
102
RTVSPropertyOp44
 70
     1
102
RTVSPropertyOp45
 70
     1
102
RTVSPropertyOp46
 70
     1
102
RTVSPropertyOp47
 70
     1
102
RTVSPropertyOp48
 70
     1
102
RTVSPropertyOp49
 70
     1
102
RTVSPropertyOp50
 70
     1
102
RTVSPropertyOp51
 70
     0
102
RTVSPropertyOp52
 70
     0
102
RTVSPropertyOp53
 70
     1
102
RTVSPropertyOp54
 70
     1
102
RTVSPropertyOp55
 70
     1
102
RTVSPropertyOp56
 70
     1
102
RTVSPropertyOp57
 70
     1
102
RTVSPropertyOp58
 70
     1
102
RTVSPropertyOp59
 70
     1
102
RTVSPropertyOp60
 70
     1
102
RTVSPropertyOp61
 70
     1
102
RTVSPropertyOp62
 70
     1
  0
XRECORD
  5
8211
102
{ACAD_REACTORS
330
8210
102
}
330
8210
100
AcDbXrecord
280
     1
102
RTVSPost2010Prop28
280
     0
102
RTVSPost2010PropOp28
 70
     1
102
RTVSPost2010Prop29
280
     1
102
RTVSPost2010PropOp29
 70
     1
102
RTVSPost2010Prop30
280
     1
102
RTVSPost2010PropOp30
 70
     1
102
RTVSPost2010Prop31
280
     0
102
RTVSPost2010PropOp31
 70
     1
102
RTVSPost2010Prop32
280
     0
102
RTVSPost2010PropOp32
 70
     1
102
RTVSPost2010Prop33
280
     0
102
RTVSPost2010PropOp33
 70
     1
102
RTVSPost2010Prop34
280
     0
102
RTVSPost2010PropOp34
 70
     1
102
RTVSPost2010Prop35
280
     0
102
RTVSPost2010PropOp35
 70
     1
102
RTVSPost2010Prop36
280
     0
102
RTVSPost2010PropOp36
 70
     1
102
RTVSPost2010Prop37
 90
       50
102
RTVSPost2010PropOp37
 70
     1
102
RTVSPost2010Prop38
140
0.0
102
RTVSPost2010PropOp38
 70
     1
102
RTVSPost2010Prop39
140
1.0
102
RTVSPost2010PropOp39
 70
     1
102
RTVSPost2010Prop40
 90
        0
102
RTVSPost2010PropOp40
 70
     1
102
RTVSPost2010Prop41ColorIndex
 90
       18
102
RTVSPost2010Prop41ColorRGB
 90
        0
102
RTVSPost2010PropOp41
 70
     1
102
RTVSPost2010Prop42
 90
       50
102
RTVSPost2010PropOp42
 70
     1
102
RTVSPost2010Prop43
 90
        3
102
RTVSPost2010PropOp43
 70
     1
102
RTVSPost2010Prop44ColorIndex
 90
        5
102
RTVSPost2010Prop44ColorRGB
 90
      255
102
RTVSPost2010PropOp44
 70
     1
102
RTVSPost2010Prop45
280
     0
102
RTVSPost2010PropOp45
 70
     1
102
RTVSPost2010Prop46
 90
       50
102
RTVSPost2010PropOp46
 70
     1
102
RTVSPost2010Prop47
 90
       50
102
RTVSPost2010PropOp47
 70
     1
102
RTVSPost2010Prop48
 90
       50
102
RTVSPost2010PropOp48
 70
     1
102
RTVSPost2010Prop49
280
     0
102
RTVSPost2010PropOp49
 70
     1
102
RTVSPost2010Prop50
 90
       50
102
RTVSPost2010PropOp50
 70
     1
102
RTVSPost2010Prop51ColorIndex
 90
      256
102
RTVSPost2010Prop51ColorRGB
 90
-16777216
102
RTVSPost2010PropOp51
 70
     0
102
RTVSPost2010Prop52
140
1.0
102
RTVSPost2010PropOp52
 70
     0
102
RTVSPost2010Prop53
 90
        2
102
RTVSPost2010PropOp53
 70
     1
102
RTVSPost2010Prop54
  1
strokes_ogs.tif
102
RTVSPost2010PropOp54
 70
     1
102
RTVSPost2010Prop55
280
     0
102
RTVSPost2010PropOp55
 70
     1
102
RTVSPost2010Prop56
140
1.0
102
RTVSPost2010PropOp56
 70
     1
102
RTVSPost2010Prop57
140
1.0
102
RTVSPost2010PropOp57
 70
     1
102
RTVSPropertyOp0
 70
     1
102
RTVSPropertyOp1
 70
     1
102
RTVSPropertyOp2
 70
     1
102
RTVSPropertyOp3
 70
     1
102
RTVSPropertyOp4
 70
     1
102
RTVSPropertyOp5
 70
     1
102
RTVSPropertyOp6
 70
     1
102
RTVSPropertyOp7
 70
     1
102
RTVSPropertyOp8
 70
     1
102
RTVSPropertyOp9
 70
     1
102
RTVSPropertyOp10
 70
     1
102
RTVSPropertyOp11
 70
     1
102
RTVSPropertyOp12
 70
     1
102
RTVSPropertyOp13
 70
     1
102
RTVSPropertyOp14
 70
     1
102
RTVSPropertyOp15
 70
     1
102
RTVSPropertyOp16
 70
     1
102
RTVSPropertyOp17
 70
     1
102
RTVSPropertyOp18
 70
     1
102
RTVSPropertyOp19
 70
     1
102
RTVSPropertyOp20
 70
     1
102
RTVSPropertyOp21
 70
     1
102
RTVSPropertyOp22
 70
     1
102
RTVSPropertyOp23
 70
     1
102
RTVSPropertyOp24
 70
     1
102
RTVSPropertyOp25
 70
     1
102
RTVSPropertyOp26
 70
     1
102
RTVSPropertyOp27
 70
     1
102
RTVSPropertyOp28
 70
     1
102
RTVSPropertyOp29
 70
     1
102
RTVSPropertyOp30
 70
     1
102
RTVSPropertyOp31
 70
     1
102
RTVSPropertyOp32
 70
     1
102
RTVSPropertyOp33
 70
     1
102
RTVSPropertyOp34
 70
     1
102
RTVSPropertyOp35
 70
     1
102
RTVSPropertyOp36
 70
     1
102
RTVSPropertyOp37
 70
     1
102
RTVSPropertyOp38
 70
     1
102
RTVSPropertyOp39
 70
     1
102
RTVSPropertyOp40
 70
     1
102
RTVSPropertyOp41
 70
     1
102
RTVSPropertyOp42
 70
     1
102
RTVSPropertyOp43
 70
     1
102
RTVSPropertyOp44
 70
     1
102
RTVSPropertyOp45
 70
     1
102
RTVSPropertyOp46
 70
     1
102
RTVSPropertyOp47
 70
     1
102
RTVSPropertyOp48
 70
     1
102
RTVSPropertyOp49
 70
     1
102
RTVSPropertyOp50
 70
     1
102
RTVSPropertyOp51
 70
     0
102
RTVSPropertyOp52
 70
     0
102
RTVSPropertyOp53
 70
     1
102
RTVSPropertyOp54
 70
     1
102
RTVSPropertyOp55
 70
     1
102
RTVSPropertyOp56
 70
     1
102
RTVSPropertyOp57
 70
     1
102
RTVSPropertyOp58
 70
     1
102
RTVSPropertyOp59
 70
     1
102
RTVSPropertyOp60
 70
     1
102
RTVSPropertyOp61
 70
     1
102
RTVSPropertyOp62
 70
     1
  0
XRECORD
  5
8213
102
{ACAD_REACTORS
330
8212
102
}
330
8212
100
AcDbXrecord
280
     1
102
RTVSPost2010Prop28
280
     0
102
RTVSPost2010PropOp28
 70
     1
102
RTVSPost2010Prop29
280
     1
102
RTVSPost2010PropOp29
 70
     1
102
RTVSPost2010Prop30
280
     1
102
RTVSPost2010PropOp30
 70
     1
102
RTVSPost2010Prop31
280
     0
102
RTVSPost2010PropOp31
 70
     1
102
RTVSPost2010Prop32
280
     0
102
RTVSPost2010PropOp32
 70
     1
102
RTVSPost2010Prop33
280
     0
102
RTVSPost2010PropOp33
 70
     1
102
RTVSPost2010Prop34
280
     0
102
RTVSPost2010PropOp34
 70
     1
102
RTVSPost2010Prop35
280
     0
102
RTVSPost2010PropOp35
 70
     1
102
RTVSPost2010Prop36
280
     0
102
RTVSPost2010PropOp36
 70
     1
102
RTVSPost2010Prop37
 90
       50
102
RTVSPost2010PropOp37
 70
     1
102
RTVSPost2010Prop38
140
0.0
102
RTVSPost2010PropOp38
 70
     1
102
RTVSPost2010Prop39
140
1.0
102
RTVSPost2010PropOp39
 70
     1
102
RTVSPost2010Prop40
 90
        0
102
RTVSPost2010PropOp40
 70
     1
102
RTVSPost2010Prop41ColorIndex
 90
       18
102
RTVSPost2010Prop41ColorRGB
 90
        0
102
RTVSPost2010PropOp41
 70
     1
102
RTVSPost2010Prop42
 90
       50
102
RTVSPost2010PropOp42
 70
     1
102
RTVSPost2010Prop43
 90
        3
102
RTVSPost2010PropOp43
 70
     1
102
RTVSPost2010Prop44ColorIndex
 90
        5
102
RTVSPost2010Prop44ColorRGB
 90
      255
102
RTVSPost2010PropOp44
 70
     1
102
RTVSPost2010Prop45
280
     0
102
RTVSPost2010PropOp45
 70
     1
102
RTVSPost2010Prop46
 90
       50
102
RTVSPost2010PropOp46
 70
     1
102
RTVSPost2010Prop47
 90
       50
102
RTVSPost2010PropOp47
 70
     1
102
RTVSPost2010Prop48
 90
       50
102
RTVSPost2010PropOp48
 70
     1
102
RTVSPost2010Prop49
280
     0
102
RTVSPost2010PropOp49
 70
     1
102
RTVSPost2010Prop50
 90
       50
102
RTVSPost2010PropOp50
 70
     1
102
RTVSPost2010Prop51ColorIndex
 90
      256
102
RTVSPost2010Prop51ColorRGB
 90
-16777216
102
RTVSPost2010PropOp51
 70
     0
102
RTVSPost2010Prop52
140
1.0
102
RTVSPost2010PropOp52
 70
     0
102
RTVSPost2010Prop53
 90
        2
102
RTVSPost2010PropOp53
 70
     1
102
RTVSPost2010Prop54
  1
strokes_ogs.tif
102
RTVSPost2010PropOp54
 70
     1
102
RTVSPost2010Prop55
280
     0
102
RTVSPost2010PropOp55
 70
     1
102
RTVSPost2010Prop56
140
1.0
102
RTVSPost2010PropOp56
 70
     1
102
RTVSPost2010Prop57
140
1.0
102
RTVSPost2010PropOp57
 70
     1
102
RTVSPropertyOp0
 70
     1
102
RTVSPropertyOp1
 70
     1
102
RTVSPropertyOp2
 70
     1
102
RTVSPropertyOp3
 70
     1
102
RTVSPropertyOp4
 70
     1
102
RTVSPropertyOp5
 70
     1
102
RTVSPropertyOp6
 70
     1
102
RTVSPropertyOp7
 70
     1
102
RTVSPropertyOp8
 70
     1
102
RTVSPropertyOp9
 70
     1
102
RTVSPropertyOp10
 70
     1
102
RTVSPropertyOp11
 70
     1
102
RTVSPropertyOp12
 70
     1
102
RTVSPropertyOp13
 70
     1
102
RTVSPropertyOp14
 70
     1
102
RTVSPropertyOp15
 70
     1
102
RTVSPropertyOp16
 70
     1
102
RTVSPropertyOp17
 70
     1
102
RTVSPropertyOp18
 70
     1
102
RTVSPropertyOp19
 70
     1
102
RTVSPropertyOp20
 70
     1
102
RTVSPropertyOp21
 70
     1
102
RTVSPropertyOp22
 70
     1
102
RTVSPropertyOp23
 70
     1
102
RTVSPropertyOp24
 70
     1
102
RTVSPropertyOp25
 70
     1
102
RTVSPropertyOp26
 70
     1
102
RTVSPropertyOp27
 70
     1
102
RTVSPropertyOp28
 70
     1
102
RTVSPropertyOp29
 70
     1
102
RTVSPropertyOp30
 70
     1
102
RTVSPropertyOp31
 70
     1
102
RTVSPropertyOp32
 70
     1
102
RTVSPropertyOp33
 70
     1
102
RTVSPropertyOp34
 70
     1
102
RTVSPropertyOp35
 70
     1
102
RTVSPropertyOp36
 70
     1
102
RTVSPropertyOp37
 70
     1
102
RTVSPropertyOp38
 70
     1
102
RTVSPropertyOp39
 70
     1
102
RTVSPropertyOp40
 70
     1
102
RTVSPropertyOp41
 70
     1
102
RTVSPropertyOp42
 70
     1
102
RTVSPropertyOp43
 70
     1
102
RTVSPropertyOp44
 70
     1
102
RTVSPropertyOp45
 70
     1
102
RTVSPropertyOp46
 70
     1
102
RTVSPropertyOp47
 70
     1
102
RTVSPropertyOp48
 70
     1
102
RTVSPropertyOp49
 70
     1
102
RTVSPropertyOp50
 70
     1
102
RTVSPropertyOp51
 70
     0
102
RTVSPropertyOp52
 70
     0
102
RTVSPropertyOp53
 70
     1
102
RTVSPropertyOp54
 70
     1
102
RTVSPropertyOp55
 70
     1
102
RTVSPropertyOp56
 70
     1
102
RTVSPropertyOp57
 70
     1
102
RTVSPropertyOp58
 70
     1
102
RTVSPropertyOp59
 70
     1
102
RTVSPropertyOp60
 70
     1
102
RTVSPropertyOp61
 70
     1
102
RTVSPropertyOp62
 70
     1
  0
XRECORD
  5
8215
102
{ACAD_REACTORS
330
8214
102
}
330
8214
100
AcDbXrecord
280
     1
102
RTVSPost2010Prop28
280
     0
102
RTVSPost2010PropOp28
 70
     1
102
RTVSPost2010Prop29
280
     1
102
RTVSPost2010PropOp29
 70
     1
102
RTVSPost2010Prop30
280
     1
102
RTVSPost2010PropOp30
 70
     1
102
RTVSPost2010Prop31
280
     0
102
RTVSPost2010PropOp31
 70
     1
102
RTVSPost2010Prop32
280
     0
102
RTVSPost2010PropOp32
 70
     1
102
RTVSPost2010Prop33
280
     0
102
RTVSPost2010PropOp33
 70
     1
102
RTVSPost2010Prop34
280
     0
102
RTVSPost2010PropOp34
 70
     1
102
RTVSPost2010Prop35
280
     0
102
RTVSPost2010PropOp35
 70
     1
102
RTVSPost2010Prop36
280
     0
102
RTVSPost2010PropOp36
 70
     1
102
RTVSPost2010Prop37
 90
       50
102
RTVSPost2010PropOp37
 70
     1
102
RTVSPost2010Prop38
140
0.0
102
RTVSPost2010PropOp38
 70
     1
102
RTVSPost2010Prop39
140
1.0
102
RTVSPost2010PropOp39
 70
     1
102
RTVSPost2010Prop40
 90
        0
102
RTVSPost2010PropOp40
 70
     1
102
RTVSPost2010Prop41ColorIndex
 90
       18
102
RTVSPost2010Prop41ColorRGB
 90
        0
102
RTVSPost2010PropOp41
 70
     1
102
RTVSPost2010Prop42
 90
       50
102
RTVSPost2010PropOp42
 70
     1
102
RTVSPost2010Prop43
 90
        3
102
RTVSPost2010PropOp43
 70
     1
102
RTVSPost2010Prop44ColorIndex
 90
        5
102
RTVSPost2010Prop44ColorRGB
 90
      255
102
RTVSPost2010PropOp44
 70
     1
102
RTVSPost2010Prop45
280
     0
102
RTVSPost2010PropOp45
 70
     1
102
RTVSPost2010Prop46
 90
       50
102
RTVSPost2010PropOp46
 70
     1
102
RTVSPost2010Prop47
 90
       50
102
RTVSPost2010PropOp47
 70
     1
102
RTVSPost2010Prop48
 90
       50
102
RTVSPost2010PropOp48
 70
     1
102
RTVSPost2010Prop49
280
     0
102
RTVSPost2010PropOp49
 70
     1
102
RTVSPost2010Prop50
 90
       50
102
RTVSPost2010PropOp50
 70
     1
102
RTVSPost2010Prop51ColorIndex
 90
      256
102
RTVSPost2010Prop51ColorRGB
 90
-16777216
102
RTVSPost2010PropOp51
 70
     0
102
RTVSPost2010Prop52
140
1.0
102
RTVSPost2010PropOp52
 70
     0
102
RTVSPost2010Prop53
 90
        2
102
RTVSPost2010PropOp53
 70
     1
102
RTVSPost2010Prop54
  1
strokes_ogs.tif
102
RTVSPost2010PropOp54
 70
     1
102
RTVSPost2010Prop55
280
     0
102
RTVSPost2010PropOp55
 70
     1
102
RTVSPost2010Prop56
140
1.0
102
RTVSPost2010PropOp56
 70
     1
102
RTVSPost2010Prop57
140
1.0
102
RTVSPost2010PropOp57
 70
     1
102
RTVSPropertyOp0
 70
     1
102
RTVSPropertyOp1
 70
     1
102
RTVSPropertyOp2
 70
     1
102
RTVSPropertyOp3
 70
     1
102
RTVSPropertyOp4
 70
     1
102
RTVSPropertyOp5
 70
     1
102
RTVSPropertyOp6
 70
     1
102
RTVSPropertyOp7
 70
     1
102
RTVSPropertyOp8
 70
     1
102
RTVSPropertyOp9
 70
     1
102
RTVSPropertyOp10
 70
     1
102
RTVSPropertyOp11
 70
     1
102
RTVSPropertyOp12
 70
     1
102
RTVSPropertyOp13
 70
     1
102
RTVSPropertyOp14
 70
     1
102
RTVSPropertyOp15
 70
     1
102
RTVSPropertyOp16
 70
     1
102
RTVSPropertyOp17
 70
     1
102
RTVSPropertyOp18
 70
     1
102
RTVSPropertyOp19
 70
     1
102
RTVSPropertyOp20
 70
     1
102
RTVSPropertyOp21
 70
     1
102
RTVSPropertyOp22
 70
     1
102
RTVSPropertyOp23
 70
     1
102
RTVSPropertyOp24
 70
     1
102
RTVSPropertyOp25
 70
     1
102
RTVSPropertyOp26
 70
     1
102
RTVSPropertyOp27
 70
     1
102
RTVSPropertyOp28
 70
     1
102
RTVSPropertyOp29
 70
     1
102
RTVSPropertyOp30
 70
     1
102
RTVSPropertyOp31
 70
     1
102
RTVSPropertyOp32
 70
     1
102
RTVSPropertyOp33
 70
     1
102
RTVSPropertyOp34
 70
     1
102
RTVSPropertyOp35
 70
     1
102
RTVSPropertyOp36
 70
     1
102
RTVSPropertyOp37
 70
     1
102
RTVSPropertyOp38
 70
     1
102
RTVSPropertyOp39
 70
     1
102
RTVSPropertyOp40
 70
     1
102
RTVSPropertyOp41
 70
     1
102
RTVSPropertyOp42
 70
     1
102
RTVSPropertyOp43
 70
     1
102
RTVSPropertyOp44
 70
     1
102
RTVSPropertyOp45
 70
     1
102
RTVSPropertyOp46
 70
     1
102
RTVSPropertyOp47
 70
     1
102
RTVSPropertyOp48
 70
     1
102
RTVSPropertyOp49
 70
     1
102
RTVSPropertyOp50
 70
     1
102
RTVSPropertyOp51
 70
     0
102
RTVSPropertyOp52
 70
     0
102
RTVSPropertyOp53
 70
     1
102
RTVSPropertyOp54
 70
     1
102
RTVSPropertyOp55
 70
     1
102
RTVSPropertyOp56
 70
     1
102
RTVSPropertyOp57
 70
     1
102
RTVSPropertyOp58
 70
     1
102
RTVSPropertyOp59
 70
     1
102
RTVSPropertyOp60
 70
     1
102
RTVSPropertyOp61
 70
     1
102
RTVSPropertyOp62
 70
     1
  0
XRECORD
  5
821D
102
{ACAD_REACTORS
330
821C
102
}
330
821C
100
AcDbXrecord
280
     1
102
RTVSPost2010Prop28
280
     0
102
RTVSPost2010PropOp28
 70
     1
102
RTVSPost2010Prop29
280
     1
102
RTVSPost2010PropOp29
 70
     1
102
RTVSPost2010Prop30
280
     1
102
RTVSPost2010PropOp30
 70
     1
102
RTVSPost2010Prop31
280
     0
102
RTVSPost2010PropOp31
 70
     1
102
RTVSPost2010Prop32
280
     0
102
RTVSPost2010PropOp32
 70
     1
102
RTVSPost2010Prop33
280
     0
102
RTVSPost2010PropOp33
 70
     1
102
RTVSPost2010Prop34
280
     0
102
RTVSPost2010PropOp34
 70
     1
102
RTVSPost2010Prop35
280
     0
102
RTVSPost2010PropOp35
 70
     1
102
RTVSPost2010Prop36
280
     0
102
RTVSPost2010PropOp36
 70
     1
102
RTVSPost2010Prop37
 90
       50
102
RTVSPost2010PropOp37
 70
     1
102
RTVSPost2010Prop38
140
0.0
102
RTVSPost2010PropOp38
 70
     1
102
RTVSPost2010Prop39
140
1.0
102
RTVSPost2010PropOp39
 70
     1
102
RTVSPost2010Prop40
 90
        0
102
RTVSPost2010PropOp40
 70
     1
102
RTVSPost2010Prop41ColorIndex
 90
       18
102
RTVSPost2010Prop41ColorRGB
 90
        0
102
RTVSPost2010PropOp41
 70
     1
102
RTVSPost2010Prop42
 90
       50
102
RTVSPost2010PropOp42
 70
     1
102
RTVSPost2010Prop43
 90
        3
102
RTVSPost2010PropOp43
 70
     1
102
RTVSPost2010Prop44ColorIndex
 90
        5
102
RTVSPost2010Prop44ColorRGB
 90
      255
102
RTVSPost2010PropOp44
 70
     1
102
RTVSPost2010Prop45
280
     0
102
RTVSPost2010PropOp45
 70
     1
102
RTVSPost2010Prop46
 90
       50
102
RTVSPost2010PropOp46
 70
     1
102
RTVSPost2010Prop47
 90
       50
102
RTVSPost2010PropOp47
 70
     1
102
RTVSPost2010Prop48
 90
       50
102
RTVSPost2010PropOp48
 70
     1
102
RTVSPost2010Prop49
280
     0
102
RTVSPost2010PropOp49
 70
     1
102
RTVSPost2010Prop50
 90
       50
102
RTVSPost2010PropOp50
 70
     1
102
RTVSPost2010Prop51ColorIndex
 90
      256
102
RTVSPost2010Prop51ColorRGB
 90
-16777216
102
RTVSPost2010PropOp51
 70
     0
102
RTVSPost2010Prop52
140
1.0
102
RTVSPost2010PropOp52
 70
     0
102
RTVSPost2010Prop53
 90
        2
102
RTVSPost2010PropOp53
 70
     1
102
RTVSPost2010Prop54
  1
strokes_ogs.tif
102
RTVSPost2010PropOp54
 70
     1
102
RTVSPost2010Prop55
280
     0
102
RTVSPost2010PropOp55
 70
     1
102
RTVSPost2010Prop56
140
1.0
102
RTVSPost2010PropOp56
 70
     1
102
RTVSPost2010Prop57
140
1.0
102
RTVSPost2010PropOp57
 70
     1
102
RTVSPropertyOp0
 70
     1
102
RTVSPropertyOp1
 70
     1
102
RTVSPropertyOp2
 70
     1
102
RTVSPropertyOp3
 70
     1
102
RTVSPropertyOp4
 70
     1
102
RTVSPropertyOp5
 70
     1
102
RTVSPropertyOp6
 70
     1
102
RTVSPropertyOp7
 70
     1
102
RTVSPropertyOp8
 70
     1
102
RTVSPropertyOp9
 70
     1
102
RTVSPropertyOp10
 70
     1
102
RTVSPropertyOp11
 70
     1
102
RTVSPropertyOp12
 70
     1
102
RTVSPropertyOp13
 70
     1
102
RTVSPropertyOp14
 70
     1
102
RTVSPropertyOp15
 70
     1
102
RTVSPropertyOp16
 70
     1
102
RTVSPropertyOp17
 70
     1
102
RTVSPropertyOp18
 70
     1
102
RTVSPropertyOp19
 70
     1
102
RTVSPropertyOp20
 70
     1
102
RTVSPropertyOp21
 70
     1
102
RTVSPropertyOp22
 70
     1
102
RTVSPropertyOp23
 70
     1
102
RTVSPropertyOp24
 70
     1
102
RTVSPropertyOp25
 70
     1
102
RTVSPropertyOp26
 70
     1
102
RTVSPropertyOp27
 70
     1
102
RTVSPropertyOp28
 70
     1
102
RTVSPropertyOp29
 70
     1
102
RTVSPropertyOp30
 70
     1
102
RTVSPropertyOp31
 70
     1
102
RTVSPropertyOp32
 70
     1
102
RTVSPropertyOp33
 70
     1
102
RTVSPropertyOp34
 70
     1
102
RTVSPropertyOp35
 70
     1
102
RTVSPropertyOp36
 70
     1
102
RTVSPropertyOp37
 70
     1
102
RTVSPropertyOp38
 70
     1
102
RTVSPropertyOp39
 70
     1
102
RTVSPropertyOp40
 70
     1
102
RTVSPropertyOp41
 70
     1
102
RTVSPropertyOp42
 70
     1
102
RTVSPropertyOp43
 70
     1
102
RTVSPropertyOp44
 70
     1
102
RTVSPropertyOp45
 70
     1
102
RTVSPropertyOp46
 70
     1
102
RTVSPropertyOp47
 70
     1
102
RTVSPropertyOp48
 70
     1
102
RTVSPropertyOp49
 70
     1
102
RTVSPropertyOp50
 70
     1
102
RTVSPropertyOp51
 70
     0
102
RTVSPropertyOp52
 70
     0
102
RTVSPropertyOp53
 70
     1
102
RTVSPropertyOp54
 70
     1
102
RTVSPropertyOp55
 70
     1
102
RTVSPropertyOp56
 70
     1
102
RTVSPropertyOp57
 70
     1
102
RTVSPropertyOp58
 70
     1
102
RTVSPropertyOp59
 70
     1
102
RTVSPropertyOp60
 70
     1
102
RTVSPropertyOp61
 70
     1
102
RTVSPropertyOp62
 70
     1
  0
XRECORD
  5
8231
102
{ACAD_REACTORS
330
8230
102
}
330
8230
100
AcDbXrecord
280
     1
102
RTVSPost2010Prop28
280
     0
102
RTVSPost2010PropOp28
 70
     1
102
RTVSPost2010Prop29
280
     1
102
RTVSPost2010PropOp29
 70
     1
102
RTVSPost2010Prop30
280
     1
102
RTVSPost2010PropOp30
 70
     1
102
RTVSPost2010Prop31
280
     0
102
RTVSPost2010PropOp31
 70
     1
102
RTVSPost2010Prop32
280
     0
102
RTVSPost2010PropOp32
 70
     1
102
RTVSPost2010Prop33
280
     0
102
RTVSPost2010PropOp33
 70
     1
102
RTVSPost2010Prop34
280
     0
102
RTVSPost2010PropOp34
 70
     1
102
RTVSPost2010Prop35
280
     0
102
RTVSPost2010PropOp35
 70
     1
102
RTVSPost2010Prop36
280
     0
102
RTVSPost2010PropOp36
 70
     1
102
RTVSPost2010Prop37
 90
       50
102
RTVSPost2010PropOp37
 70
     1
102
RTVSPost2010Prop38
140
0.0
102
RTVSPost2010PropOp38
 70
     1
102
RTVSPost2010Prop39
140
1.0
102
RTVSPost2010PropOp39
 70
     1
102
RTVSPost2010Prop40
 90
        0
102
RTVSPost2010PropOp40
 70
     1
102
RTVSPost2010Prop41ColorIndex
 90
       18
102
RTVSPost2010Prop41ColorRGB
 90
        0
102
RTVSPost2010PropOp41
 70
     1
102
RTVSPost2010Prop42
 90
       50
102
RTVSPost2010PropOp42
 70
     1
102
RTVSPost2010Prop43
 90
        3
102
RTVSPost2010PropOp43
 70
     1
102
RTVSPost2010Prop44ColorIndex
 90
        5
102
RTVSPost2010Prop44ColorRGB
 90
      255
102
RTVSPost2010PropOp44
 70
     1
102
RTVSPost2010Prop45
280
     0
102
RTVSPost2010PropOp45
 70
     1
102
RTVSPost2010Prop46
 90
       50
102
RTVSPost2010PropOp46
 70
     1
102
RTVSPost2010Prop47
 90
       50
102
RTVSPost2010PropOp47
 70
     1
102
RTVSPost2010Prop48
 90
       50
102
RTVSPost2010PropOp48
 70
     1
102
RTVSPost2010Prop49
280
     0
102
RTVSPost2010PropOp49
 70
     1
102
RTVSPost2010Prop50
 90
       50
102
RTVSPost2010PropOp50
 70
     1
102
RTVSPost2010Prop51ColorIndex
 90
      256
102
RTVSPost2010Prop51ColorRGB
 90
-16777216
102
RTVSPost2010PropOp51
 70
     0
102
RTVSPost2010Prop52
140
1.0
102
RTVSPost2010PropOp52
 70
     0
102
RTVSPost2010Prop53
 90
        2
102
RTVSPost2010PropOp53
 70
     1
102
RTVSPost2010Prop54
  1
strokes_ogs.tif
102
RTVSPost2010PropOp54
 70
     1
102
RTVSPost2010Prop55
280
     0
102
RTVSPost2010PropOp55
 70
     1
102
RTVSPost2010Prop56
140
1.0
102
RTVSPost2010PropOp56
 70
     1
102
RTVSPost2010Prop57
140
1.0
102
RTVSPost2010PropOp57
 70
     1
102
RTVSPropertyOp0
 70
     0
102
RTVSPropertyOp1
 70
     0
102
RTVSPropertyOp2
 70
     0
102
RTVSPropertyOp3
 70
     0
102
RTVSPropertyOp4
 70
     0
102
RTVSPropertyOp5
 70
     0
102
RTVSPropertyOp6
 70
     0
102
RTVSPropertyOp7
 70
     0
102
RTVSPropertyOp8
 70
     0
102
RTVSPropertyOp9
 70
     0
102
RTVSPropertyOp10
 70
     0
102
RTVSPropertyOp11
 70
     0
102
RTVSPropertyOp12
 70
     0
102
RTVSPropertyOp13
 70
     0
102
RTVSPropertyOp14
 70
     2
102
RTVSPropertyOp15
 70
     0
102
RTVSPropertyOp16
 70
     0
102
RTVSPropertyOp17
 70
     0
102
RTVSPropertyOp18
 70
     0
102
RTVSPropertyOp19
 70
     0
102
RTVSPropertyOp20
 70
     0
102
RTVSPropertyOp21
 70
     0
102
RTVSPropertyOp22
 70
     0
102
RTVSPropertyOp23
 70
     0
102
RTVSPropertyOp24
 70
     0
102
RTVSPropertyOp25
 70
     0
102
RTVSPropertyOp26
 70
     0
102
RTVSPropertyOp27
 70
     0
102
RTVSPropertyOp28
 70
     1
102
RTVSPropertyOp29
 70
     1
102
RTVSPropertyOp30
 70
     1
102
RTVSPropertyOp31
 70
     1
102
RTVSPropertyOp32
 70
     1
102
RTVSPropertyOp33
 70
     1
102
RTVSPropertyOp34
 70
     1
102
RTVSPropertyOp35
 70
     1
102
RTVSPropertyOp36
 70
     1
102
RTVSPropertyOp37
 70
     1
102
RTVSPropertyOp38
 70
     1
102
RTVSPropertyOp39
 70
     1
102
RTVSPropertyOp40
 70
     1
102
RTVSPropertyOp41
 70
     1
102
RTVSPropertyOp42
 70
     1
102
RTVSPropertyOp43
 70
     1
102
RTVSPropertyOp44
 70
     1
102
RTVSPropertyOp45
 70
     1
102
RTVSPropertyOp46
 70
     1
102
RTVSPropertyOp47
 70
     1
102
RTVSPropertyOp48
 70
     1
102
RTVSPropertyOp49
 70
     1
102
RTVSPropertyOp50
 70
     1
102
RTVSPropertyOp51
 70
     0
102
RTVSPropertyOp52
 70
     0
102
RTVSPropertyOp53
 70
     1
102
RTVSPropertyOp54
 70
     1
102
RTVSPropertyOp55
 70
     1
102
RTVSPropertyOp56
 70
     1
102
RTVSPropertyOp57
 70
     1
102
RTVSPropertyOp58
 70
     1
102
RTVSPropertyOp59
 70
     1
102
RTVSPropertyOp60
 70
     1
102
RTVSPropertyOp61
 70
     1
102
RTVSPropertyOp62
 70
     1
  0
XRECORD
  5
8229
102
{ACAD_REACTORS
330
8228
102
}
330
8228
100
AcDbXrecord
280
     1
102
RTVSPost2010Prop28
280
     0
102
RTVSPost2010PropOp28
 70
     1
102
RTVSPost2010Prop29
280
     1
102
RTVSPost2010PropOp29
 70
     1
102
RTVSPost2010Prop30
280
     1
102
RTVSPost2010PropOp30
 70
     1
102
RTVSPost2010Prop31
280
     0
102
RTVSPost2010PropOp31
 70
     1
102
RTVSPost2010Prop32
280
     0
102
RTVSPost2010PropOp32
 70
     1
102
RTVSPost2010Prop33
280
     0
102
RTVSPost2010PropOp33
 70
     1
102
RTVSPost2010Prop34
280
     0
102
RTVSPost2010PropOp34
 70
     1
102
RTVSPost2010Prop35
280
     0
102
RTVSPost2010PropOp35
 70
     1
102
RTVSPost2010Prop36
280
     0
102
RTVSPost2010PropOp36
 70
     1
102
RTVSPost2010Prop37
 90
       50
102
RTVSPost2010PropOp37
 70
     1
102
RTVSPost2010Prop38
140
0.0
102
RTVSPost2010PropOp38
 70
     1
102
RTVSPost2010Prop39
140
1.0
102
RTVSPost2010PropOp39
 70
     1
102
RTVSPost2010Prop40
 90
        0
102
RTVSPost2010PropOp40
 70
     1
102
RTVSPost2010Prop41ColorIndex
 90
       18
102
RTVSPost2010Prop41ColorRGB
 90
        0
102
RTVSPost2010PropOp41
 70
     1
102
RTVSPost2010Prop42
 90
       50
102
RTVSPost2010PropOp42
 70
     1
102
RTVSPost2010Prop43
 90
        3
102
RTVSPost2010PropOp43
 70
     1
102
RTVSPost2010Prop44ColorIndex
 90
        5
102
RTVSPost2010Prop44ColorRGB
 90
      255
102
RTVSPost2010PropOp44
 70
     1
102
RTVSPost2010Prop45
280
     0
102
RTVSPost2010PropOp45
 70
     1
102
RTVSPost2010Prop46
 90
       50
102
RTVSPost2010PropOp46
 70
     1
102
RTVSPost2010Prop47
 90
       50
102
RTVSPost2010PropOp47
 70
     1
102
RTVSPost2010Prop48
 90
       50
102
RTVSPost2010PropOp48
 70
     1
102
RTVSPost2010Prop49
280
     0
102
RTVSPost2010PropOp49
 70
     1
102
RTVSPost2010Prop50
 90
       50
102
RTVSPost2010PropOp50
 70
     1
102
RTVSPost2010Prop51ColorIndex
 90
      256
102
RTVSPost2010Prop51ColorRGB
 90
-16777216
102
RTVSPost2010PropOp51
 70
     0
102
RTVSPost2010Prop52
140
1.0
102
RTVSPost2010PropOp52
 70
     0
102
RTVSPost2010Prop53
 90
        2
102
RTVSPost2010PropOp53
 70
     1
102
RTVSPost2010Prop54
  1
strokes_ogs.tif
102
RTVSPost2010PropOp54
 70
     1
102
RTVSPost2010Prop55
280
     0
102
RTVSPost2010PropOp55
 70
     1
102
RTVSPost2010Prop56
140
1.0
102
RTVSPost2010PropOp56
 70
     1
102
RTVSPost2010Prop57
140
1.0
102
RTVSPost2010PropOp57
 70
     1
102
RTVSPropertyOp0
 70
     1
102
RTVSPropertyOp1
 70
     1
102
RTVSPropertyOp2
 70
     1
102
RTVSPropertyOp3
 70
     1
102
RTVSPropertyOp4
 70
     1
102
RTVSPropertyOp5
 70
     1
102
RTVSPropertyOp6
 70
     1
102
RTVSPropertyOp7
 70
     1
102
RTVSPropertyOp8
 70
     1
102
RTVSPropertyOp9
 70
     1
102
RTVSPropertyOp10
 70
     1
102
RTVSPropertyOp11
 70
     1
102
RTVSPropertyOp12
 70
     1
102
RTVSPropertyOp13
 70
     1
102
RTVSPropertyOp14
 70
     1
102
RTVSPropertyOp15
 70
     1
102
RTVSPropertyOp16
 70
     1
102
RTVSPropertyOp17
 70
     1
102
RTVSPropertyOp18
 70
     1
102
RTVSPropertyOp19
 70
     1
102
RTVSPropertyOp20
 70
     1
102
RTVSPropertyOp21
 70
     1
102
RTVSPropertyOp22
 70
     1
102
RTVSPropertyOp23
 70
     1
102
RTVSPropertyOp24
 70
     1
102
RTVSPropertyOp25
 70
     1
102
RTVSPropertyOp26
 70
     1
102
RTVSPropertyOp27
 70
     1
102
RTVSPropertyOp28
 70
     1
102
RTVSPropertyOp29
 70
     1
102
RTVSPropertyOp30
 70
     1
102
RTVSPropertyOp31
 70
     1
102
RTVSPropertyOp32
 70
     1
102
RTVSPropertyOp33
 70
     1
102
RTVSPropertyOp34
 70
     1
102
RTVSPropertyOp35
 70
     1
102
RTVSPropertyOp36
 70
     1
102
RTVSPropertyOp37
 70
     1
102
RTVSPropertyOp38
 70
     1
102
RTVSPropertyOp39
 70
     1
102
RTVSPropertyOp40
 70
     1
102
RTVSPropertyOp41
 70
     1
102
RTVSPropertyOp42
 70
     1
102
RTVSPropertyOp43
 70
     1
102
RTVSPropertyOp44
 70
     1
102
RTVSPropertyOp45
 70
     1
102
RTVSPropertyOp46
 70
     1
102
RTVSPropertyOp47
 70
     1
102
RTVSPropertyOp48
 70
     1
102
RTVSPropertyOp49
 70
     1
102
RTVSPropertyOp50
 70
     1
102
RTVSPropertyOp51
 70
     0
102
RTVSPropertyOp52
 70
     0
102
RTVSPropertyOp53
 70
     1
102
RTVSPropertyOp54
 70
     1
102
RTVSPropertyOp55
 70
     1
102
RTVSPropertyOp56
 70
     1
102
RTVSPropertyOp57
 70
     1
102
RTVSPropertyOp58
 70
     1
102
RTVSPropertyOp59
 70
     1
102
RTVSPropertyOp60
 70
     1
102
RTVSPropertyOp61
 70
     1
102
RTVSPropertyOp62
 70
     1
  0
XRECORD
  5
8233
102
{ACAD_REACTORS
330
8232
102
}
330
8232
100
AcDbXrecord
280
     1
102
RTVSPost2010Prop28
280
     0
102
RTVSPost2010PropOp28
 70
     1
102
RTVSPost2010Prop29
280
     1
102
RTVSPost2010PropOp29
 70
     1
102
RTVSPost2010Prop30
280
     1
102
RTVSPost2010PropOp30
 70
     1
102
RTVSPost2010Prop31
280
     0
102
RTVSPost2010PropOp31
 70
     1
102
RTVSPost2010Prop32
280
     0
102
RTVSPost2010PropOp32
 70
     1
102
RTVSPost2010Prop33
280
     0
102
RTVSPost2010PropOp33
 70
     1
102
RTVSPost2010Prop34
280
     0
102
RTVSPost2010PropOp34
 70
     1
102
RTVSPost2010Prop35
280
     0
102
RTVSPost2010PropOp35
 70
     1
102
RTVSPost2010Prop36
280
     0
102
RTVSPost2010PropOp36
 70
     1
102
RTVSPost2010Prop37
 90
       50
102
RTVSPost2010PropOp37
 70
     1
102
RTVSPost2010Prop38
140
0.0
102
RTVSPost2010PropOp38
 70
     1
102
RTVSPost2010Prop39
140
1.0
102
RTVSPost2010PropOp39
 70
     1
102
RTVSPost2010Prop40
 90
        0
102
RTVSPost2010PropOp40
 70
     1
102
RTVSPost2010Prop41ColorIndex
 90
       18
102
RTVSPost2010Prop41ColorRGB
 90
        0
102
RTVSPost2010PropOp41
 70
     1
102
RTVSPost2010Prop42
 90
       50
102
RTVSPost2010PropOp42
 70
     1
102
RTVSPost2010Prop43
 90
        3
102
RTVSPost2010PropOp43
 70
     1
102
RTVSPost2010Prop44ColorIndex
 90
        5
102
RTVSPost2010Prop44ColorRGB
 90
      255
102
RTVSPost2010PropOp44
 70
     1
102
RTVSPost2010Prop45
280
     0
102
RTVSPost2010PropOp45
 70
     1
102
RTVSPost2010Prop46
 90
       50
102
RTVSPost2010PropOp46
 70
     1
102
RTVSPost2010Prop47
 90
       50
102
RTVSPost2010PropOp47
 70
     1
102
RTVSPost2010Prop48
 90
       50
102
RTVSPost2010PropOp48
 70
     1
102
RTVSPost2010Prop49
280
     0
102
RTVSPost2010PropOp49
 70
     1
102
RTVSPost2010Prop50
 90
       50
102
RTVSPost2010PropOp50
 70
     1
102
RTVSPost2010Prop51ColorIndex
 90
      256
102
RTVSPost2010Prop51ColorRGB
 90
-16777216
102
RTVSPost2010PropOp51
 70
     0
102
RTVSPost2010Prop52
140
1.0
102
RTVSPost2010PropOp52
 70
     0
102
RTVSPost2010Prop53
 90
        2
102
RTVSPost2010PropOp53
 70
     1
102
RTVSPost2010Prop54
  1
strokes_ogs.tif
102
RTVSPost2010PropOp54
 70
     1
102
RTVSPost2010Prop55
280
     0
102
RTVSPost2010PropOp55
 70
     1
102
RTVSPost2010Prop56
140
1.0
102
RTVSPost2010PropOp56
 70
     1
102
RTVSPost2010Prop57
140
1.0
102
RTVSPost2010PropOp57
 70
     1
102
RTVSPropertyOp0
 70
     0
102
RTVSPropertyOp1
 70
     0
102
RTVSPropertyOp2
 70
     0
102
RTVSPropertyOp3
 70
     0
102
RTVSPropertyOp4
 70
     0
102
RTVSPropertyOp5
 70
     0
102
RTVSPropertyOp6
 70
     0
102
RTVSPropertyOp7
 70
     0
102
RTVSPropertyOp8
 70
     0
102
RTVSPropertyOp9
 70
     0
102
RTVSPropertyOp10
 70
     0
102
RTVSPropertyOp11
 70
     0
102
RTVSPropertyOp12
 70
     0
102
RTVSPropertyOp13
 70
     0
102
RTVSPropertyOp14
 70
     2
102
RTVSPropertyOp15
 70
     0
102
RTVSPropertyOp16
 70
     0
102
RTVSPropertyOp17
 70
     0
102
RTVSPropertyOp18
 70
     0
102
RTVSPropertyOp19
 70
     0
102
RTVSPropertyOp20
 70
     0
102
RTVSPropertyOp21
 70
     0
102
RTVSPropertyOp22
 70
     0
102
RTVSPropertyOp23
 70
     0
102
RTVSPropertyOp24
 70
     0
102
RTVSPropertyOp25
 70
     0
102
RTVSPropertyOp26
 70
     0
102
RTVSPropertyOp27
 70
     0
102
RTVSPropertyOp28
 70
     1
102
RTVSPropertyOp29
 70
     1
102
RTVSPropertyOp30
 70
     1
102
RTVSPropertyOp31
 70
     1
102
RTVSPropertyOp32
 70
     1
102
RTVSPropertyOp33
 70
     1
102
RTVSPropertyOp34
 70
     1
102
RTVSPropertyOp35
 70
     1
102
RTVSPropertyOp36
 70
     1
102
RTVSPropertyOp37
 70
     1
102
RTVSPropertyOp38
 70
     1
102
RTVSPropertyOp39
 70
     1
102
RTVSPropertyOp40
 70
     1
102
RTVSPropertyOp41
 70
     1
102
RTVSPropertyOp42
 70
     1
102
RTVSPropertyOp43
 70
     1
102
RTVSPropertyOp44
 70
     1
102
RTVSPropertyOp45
 70
     1
102
RTVSPropertyOp46
 70
     1
102
RTVSPropertyOp47
 70
     1
102
RTVSPropertyOp48
 70
     1
102
RTVSPropertyOp49
 70
     1
102
RTVSPropertyOp50
 70
     1
102
RTVSPropertyOp51
 70
     0
102
RTVSPropertyOp52
 70
     0
102
RTVSPropertyOp53
 70
     1
102
RTVSPropertyOp54
 70
     1
102
RTVSPropertyOp55
 70
     1
102
RTVSPropertyOp56
 70
     1
102
RTVSPropertyOp57
 70
     1
102
RTVSPropertyOp58
 70
     1
102
RTVSPropertyOp59
 70
     1
102
RTVSPropertyOp60
 70
     1
102
RTVSPropertyOp61
 70
     1
102
RTVSPropertyOp62
 70
     1
  0
XRECORD
  5
8221
102
{ACAD_REACTORS
330
8220
102
}
330
8220
100
AcDbXrecord
280
     1
102
RTVSPost2010Prop28
280
     0
102
RTVSPost2010PropOp28
 70
     1
102
RTVSPost2010Prop29
280
     1
102
RTVSPost2010PropOp29
 70
     1
102
RTVSPost2010Prop30
280
     1
102
RTVSPost2010PropOp30
 70
     1
102
RTVSPost2010Prop31
280
     0
102
RTVSPost2010PropOp31
 70
     1
102
RTVSPost2010Prop32
280
     0
102
RTVSPost2010PropOp32
 70
     1
102
RTVSPost2010Prop33
280
     0
102
RTVSPost2010PropOp33
 70
     1
102
RTVSPost2010Prop34
280
     0
102
RTVSPost2010PropOp34
 70
     1
102
RTVSPost2010Prop35
280
     0
102
RTVSPost2010PropOp35
 70
     1
102
RTVSPost2010Prop36
280
     0
102
RTVSPost2010PropOp36
 70
     1
102
RTVSPost2010Prop37
 90
       50
102
RTVSPost2010PropOp37
 70
     1
102
RTVSPost2010Prop38
140
0.0
102
RTVSPost2010PropOp38
 70
     1
102
RTVSPost2010Prop39
140
1.0
102
RTVSPost2010PropOp39
 70
     1
102
RTVSPost2010Prop40
 90
        0
102
RTVSPost2010PropOp40
 70
     1
102
RTVSPost2010Prop41ColorIndex
 90
       18
102
RTVSPost2010Prop41ColorRGB
 90
        0
102
RTVSPost2010PropOp41
 70
     1
102
RTVSPost2010Prop42
 90
       50
102
RTVSPost2010PropOp42
 70
     1
102
RTVSPost2010Prop43
 90
        3
102
RTVSPost2010PropOp43
 70
     1
102
RTVSPost2010Prop44ColorIndex
 90
        5
102
RTVSPost2010Prop44ColorRGB
 90
      255
102
RTVSPost2010PropOp44
 70
     1
102
RTVSPost2010Prop45
280
     0
102
RTVSPost2010PropOp45
 70
     1
102
RTVSPost2010Prop46
 90
       50
102
RTVSPost2010PropOp46
 70
     1
102
RTVSPost2010Prop47
 90
       50
102
RTVSPost2010PropOp47
 70
     1
102
RTVSPost2010Prop48
 90
       50
102
RTVSPost2010PropOp48
 70
     1
102
RTVSPost2010Prop49
280
     0
102
RTVSPost2010PropOp49
 70
     1
102
RTVSPost2010Prop50
 90
       50
102
RTVSPost2010PropOp50
 70
     1
102
RTVSPost2010Prop51ColorIndex
 90
      256
102
RTVSPost2010Prop51ColorRGB
 90
-16777216
102
RTVSPost2010PropOp51
 70
     0
102
RTVSPost2010Prop52
140
1.0
102
RTVSPost2010PropOp52
 70
     0
102
RTVSPost2010Prop53
 90
        2
102
RTVSPost2010PropOp53
 70
     1
102
RTVSPost2010Prop54
  1
strokes_ogs.tif
102
RTVSPost2010PropOp54
 70
     1
102
RTVSPost2010Prop55
280
     0
102
RTVSPost2010PropOp55
 70
     1
102
RTVSPost2010Prop56
140
1.0
102
RTVSPost2010PropOp56
 70
     1
102
RTVSPost2010Prop57
140
1.0
102
RTVSPost2010PropOp57
 70
     1
102
RTVSPropertyOp0
 70
     1
102
RTVSPropertyOp1
 70
     1
102
RTVSPropertyOp2
 70
     1
102
RTVSPropertyOp3
 70
     1
102
RTVSPropertyOp4
 70
     1
102
RTVSPropertyOp5
 70
     1
102
RTVSPropertyOp6
 70
     1
102
RTVSPropertyOp7
 70
     1
102
RTVSPropertyOp8
 70
     1
102
RTVSPropertyOp9
 70
     1
102
RTVSPropertyOp10
 70
     1
102
RTVSPropertyOp11
 70
     1
102
RTVSPropertyOp12
 70
     1
102
RTVSPropertyOp13
 70
     1
102
RTVSPropertyOp14
 70
     1
102
RTVSPropertyOp15
 70
     1
102
RTVSPropertyOp16
 70
     1
102
RTVSPropertyOp17
 70
     1
102
RTVSPropertyOp18
 70
     1
102
RTVSPropertyOp19
 70
     1
102
RTVSPropertyOp20
 70
     1
102
RTVSPropertyOp21
 70
     1
102
RTVSPropertyOp22
 70
     1
102
RTVSPropertyOp23
 70
     1
102
RTVSPropertyOp24
 70
     1
102
RTVSPropertyOp25
 70
     1
102
RTVSPropertyOp26
 70
     1
102
RTVSPropertyOp27
 70
     1
102
RTVSPropertyOp28
 70
     1
102
RTVSPropertyOp29
 70
     1
102
RTVSPropertyOp30
 70
     1
102
RTVSPropertyOp31
 70
     1
102
RTVSPropertyOp32
 70
     1
102
RTVSPropertyOp33
 70
     1
102
RTVSPropertyOp34
 70
     1
102
RTVSPropertyOp35
 70
     1
102
RTVSPropertyOp36
 70
     1
102
RTVSPropertyOp37
 70
     1
102
RTVSPropertyOp38
 70
     1
102
RTVSPropertyOp39
 70
     1
102
RTVSPropertyOp40
 70
     1
102
RTVSPropertyOp41
 70
     1
102
RTVSPropertyOp42
 70
     1
102
RTVSPropertyOp43
 70
     1
102
RTVSPropertyOp44
 70
     1
102
RTVSPropertyOp45
 70
     1
102
RTVSPropertyOp46
 70
     1
102
RTVSPropertyOp47
 70
     1
102
RTVSPropertyOp48
 70
     1
102
RTVSPropertyOp49
 70
     1
102
RTVSPropertyOp50
 70
     1
102
RTVSPropertyOp51
 70
     0
102
RTVSPropertyOp52
 70
     0
102
RTVSPropertyOp53
 70
     1
102
RTVSPropertyOp54
 70
     1
102
RTVSPropertyOp55
 70
     1
102
RTVSPropertyOp56
 70
     1
102
RTVSPropertyOp57
 70
     1
102
RTVSPropertyOp58
 70
     1
102
RTVSPropertyOp59
 70
     1
102
RTVSPropertyOp60
 70
     1
102
RTVSPropertyOp61
 70
     1
102
RTVSPropertyOp62
 70
     1
  0
XRECORD
  5
823F
102
{ACAD_REACTORS
330
823E
102
}
330
823E
100
AcDbXrecord
280
     1
102
RTVSPost2010Prop28
280
     0
102
RTVSPost2010PropOp28
 70
     1
102
RTVSPost2010Prop29
280
     1
102
RTVSPost2010PropOp29
 70
     1
102
RTVSPost2010Prop30
280
     1
102
RTVSPost2010PropOp30
 70
     1
102
RTVSPost2010Prop31
280
     0
102
RTVSPost2010PropOp31
 70
     1
102
RTVSPost2010Prop32
280
     0
102
RTVSPost2010PropOp32
 70
     1
102
RTVSPost2010Prop33
280
     0
102
RTVSPost2010PropOp33
 70
     1
102
RTVSPost2010Prop34
280
     0
102
RTVSPost2010PropOp34
 70
     1
102
RTVSPost2010Prop35
280
     0
102
RTVSPost2010PropOp35
 70
     1
102
RTVSPost2010Prop36
280
     0
102
RTVSPost2010PropOp36
 70
     1
102
RTVSPost2010Prop37
 90
       50
102
RTVSPost2010PropOp37
 70
     1
102
RTVSPost2010Prop38
140
0.0
102
RTVSPost2010PropOp38
 70
     1
102
RTVSPost2010Prop39
140
1.0
102
RTVSPost2010PropOp39
 70
     1
102
RTVSPost2010Prop40
 90
        0
102
RTVSPost2010PropOp40
 70
     1
102
RTVSPost2010Prop41ColorIndex
 90
       18
102
RTVSPost2010Prop41ColorRGB
 90
        0
102
RTVSPost2010PropOp41
 70
     1
102
RTVSPost2010Prop42
 90
       50
102
RTVSPost2010PropOp42
 70
     1
102
RTVSPost2010Prop43
 90
        3
102
RTVSPost2010PropOp43
 70
     1
102
RTVSPost2010Prop44ColorIndex
 90
        5
102
RTVSPost2010Prop44ColorRGB
 90
      255
102
RTVSPost2010PropOp44
 70
     1
102
RTVSPost2010Prop45
280
     0
102
RTVSPost2010PropOp45
 70
     1
102
RTVSPost2010Prop46
 90
       50
102
RTVSPost2010PropOp46
 70
     1
102
RTVSPost2010Prop47
 90
       50
102
RTVSPost2010PropOp47
 70
     1
102
RTVSPost2010Prop48
 90
       50
102
RTVSPost2010PropOp48
 70
     1
102
RTVSPost2010Prop49
280
     0
102
RTVSPost2010PropOp49
 70
     1
102
RTVSPost2010Prop50
 90
       50
102
RTVSPost2010PropOp50
 70
     1
102
RTVSPost2010Prop51ColorIndex
 90
      256
102
RTVSPost2010Prop51ColorRGB
 90
-16777216
102
RTVSPost2010PropOp51
 70
     0
102
RTVSPost2010Prop52
140
1.0
102
RTVSPost2010PropOp52
 70
     0
102
RTVSPost2010Prop53
 90
        2
102
RTVSPost2010PropOp53
 70
     1
102
RTVSPost2010Prop54
  1
strokes_ogs.tif
102
RTVSPost2010PropOp54
 70
     1
102
RTVSPost2010Prop55
280
     0
102
RTVSPost2010PropOp55
 70
     1
102
RTVSPost2010Prop56
140
1.0
102
RTVSPost2010PropOp56
 70
     1
102
RTVSPost2010Prop57
140
1.0
102
RTVSPost2010PropOp57
 70
     1
102
RTVSPropertyOp0
 70
     1
102
RTVSPropertyOp1
 70
     1
102
RTVSPropertyOp2
 70
     1
102
RTVSPropertyOp3
 70
     1
102
RTVSPropertyOp4
 70
     1
102
RTVSPropertyOp5
 70
     1
102
RTVSPropertyOp6
 70
     1
102
RTVSPropertyOp7
 70
     1
102
RTVSPropertyOp8
 70
     1
102
RTVSPropertyOp9
 70
     1
102
RTVSPropertyOp10
 70
     1
102
RTVSPropertyOp11
 70
     1
102
RTVSPropertyOp12
 70
     1
102
RTVSPropertyOp13
 70
     1
102
RTVSPropertyOp14
 70
     1
102
RTVSPropertyOp15
 70
     1
102
RTVSPropertyOp16
 70
     1
102
RTVSPropertyOp17
 70
     1
102
RTVSPropertyOp18
 70
     1
102
RTVSPropertyOp19
 70
     1
102
RTVSPropertyOp20
 70
     1
102
RTVSPropertyOp21
 70
     1
102
RTVSPropertyOp22
 70
     1
102
RTVSPropertyOp23
 70
     1
102
RTVSPropertyOp24
 70
     1
102
RTVSPropertyOp25
 70
     1
102
RTVSPropertyOp26
 70
     1
102
RTVSPropertyOp27
 70
     1
102
RTVSPropertyOp28
 70
     1
102
RTVSPropertyOp29
 70
     1
102
RTVSPropertyOp30
 70
     1
102
RTVSPropertyOp31
 70
     1
102
RTVSPropertyOp32
 70
     1
102
RTVSPropertyOp33
 70
     1
102
RTVSPropertyOp34
 70
     1
102
RTVSPropertyOp35
 70
     1
102
RTVSPropertyOp36
 70
     1
102
RTVSPropertyOp37
 70
     1
102
RTVSPropertyOp38
 70
     1
102
RTVSPropertyOp39
 70
     1
102
RTVSPropertyOp40
 70
     1
102
RTVSPropertyOp41
 70
     1
102
RTVSPropertyOp42
 70
     1
102
RTVSPropertyOp43
 70
     1
102
RTVSPropertyOp44
 70
     1
102
RTVSPropertyOp45
 70
     1
102
RTVSPropertyOp46
 70
     1
102
RTVSPropertyOp47
 70
     1
102
RTVSPropertyOp48
 70
     1
102
RTVSPropertyOp49
 70
     1
102
RTVSPropertyOp50
 70
     1
102
RTVSPropertyOp51
 70
     0
102
RTVSPropertyOp52
 70
     0
102
RTVSPropertyOp53
 70
     1
102
RTVSPropertyOp54
 70
     1
102
RTVSPropertyOp55
 70
     1
102
RTVSPropertyOp56
 70
     1
102
RTVSPropertyOp57
 70
     1
102
RTVSPropertyOp58
 70
     1
102
RTVSPropertyOp59
 70
     1
102
RTVSPropertyOp60
 70
     1
102
RTVSPropertyOp61
 70
     1
102
RTVSPropertyOp62
 70
     1
  0
XRECORD
  5
823D
102
{ACAD_REACTORS
330
823C
102
}
330
823C
100
AcDbXrecord
280
     1
102
RTVSPost2010Prop28
280
     0
102
RTVSPost2010PropOp28
 70
     1
102
RTVSPost2010Prop29
280
     1
102
RTVSPost2010PropOp29
 70
     1
102
RTVSPost2010Prop30
280
     1
102
RTVSPost2010PropOp30
 70
     1
102
RTVSPost2010Prop31
280
     0
102
RTVSPost2010PropOp31
 70
     1
102
RTVSPost2010Prop32
280
     0
102
RTVSPost2010PropOp32
 70
     1
102
RTVSPost2010Prop33
280
     0
102
RTVSPost2010PropOp33
 70
     1
102
RTVSPost2010Prop34
280
     0
102
RTVSPost2010PropOp34
 70
     1
102
RTVSPost2010Prop35
280
     0
102
RTVSPost2010PropOp35
 70
     1
102
RTVSPost2010Prop36
280
     0
102
RTVSPost2010PropOp36
 70
     1
102
RTVSPost2010Prop37
 90
       50
102
RTVSPost2010PropOp37
 70
     1
102
RTVSPost2010Prop38
140
0.0
102
RTVSPost2010PropOp38
 70
     1
102
RTVSPost2010Prop39
140
1.0
102
RTVSPost2010PropOp39
 70
     1
102
RTVSPost2010Prop40
 90
        0
102
RTVSPost2010PropOp40
 70
     1
102
RTVSPost2010Prop41ColorIndex
 90
       18
102
RTVSPost2010Prop41ColorRGB
 90
        0
102
RTVSPost2010PropOp41
 70
     1
102
RTVSPost2010Prop42
 90
       50
102
RTVSPost2010PropOp42
 70
     1
102
RTVSPost2010Prop43
 90
        3
102
RTVSPost2010PropOp43
 70
     1
102
RTVSPost2010Prop44ColorIndex
 90
        5
102
RTVSPost2010Prop44ColorRGB
 90
      255
102
RTVSPost2010PropOp44
 70
     1
102
RTVSPost2010Prop45
280
     0
102
RTVSPost2010PropOp45
 70
     1
102
RTVSPost2010Prop46
 90
       50
102
RTVSPost2010PropOp46
 70
     1
102
RTVSPost2010Prop47
 90
       50
102
RTVSPost2010PropOp47
 70
     1
102
RTVSPost2010Prop48
 90
       50
102
RTVSPost2010PropOp48
 70
     1
102
RTVSPost2010Prop49
280
     0
102
RTVSPost2010PropOp49
 70
     1
102
RTVSPost2010Prop50
 90
       50
102
RTVSPost2010PropOp50
 70
     1
102
RTVSPost2010Prop51ColorIndex
 90
      256
102
RTVSPost2010Prop51ColorRGB
 90
-16777216
102
RTVSPost2010PropOp51
 70
     0
102
RTVSPost2010Prop52
140
1.0
102
RTVSPost2010PropOp52
 70
     0
102
RTVSPost2010Prop53
 90
        2
102
RTVSPost2010PropOp53
 70
     1
102
RTVSPost2010Prop54
  1
strokes_ogs.tif
102
RTVSPost2010PropOp54
 70
     1
102
RTVSPost2010Prop55
280
     0
102
RTVSPost2010PropOp55
 70
     1
102
RTVSPost2010Prop56
140
1.0
102
RTVSPost2010PropOp56
 70
     1
102
RTVSPost2010Prop57
140
1.0
102
RTVSPost2010PropOp57
 70
     1
102
RTVSPropertyOp0
 70
     1
102
RTVSPropertyOp1
 70
     1
102
RTVSPropertyOp2
 70
     1
102
RTVSPropertyOp3
 70
     1
102
RTVSPropertyOp4
 70
     1
102
RTVSPropertyOp5
 70
     1
102
RTVSPropertyOp6
 70
     1
102
RTVSPropertyOp7
 70
     1
102
RTVSPropertyOp8
 70
     1
102
RTVSPropertyOp9
 70
     1
102
RTVSPropertyOp10
 70
     1
102
RTVSPropertyOp11
 70
     1
102
RTVSPropertyOp12
 70
     1
102
RTVSPropertyOp13
 70
     1
102
RTVSPropertyOp14
 70
     1
102
RTVSPropertyOp15
 70
     1
102
RTVSPropertyOp16
 70
     1
102
RTVSPropertyOp17
 70
     1
102
RTVSPropertyOp18
 70
     1
102
RTVSPropertyOp19
 70
     1
102
RTVSPropertyOp20
 70
     1
102
RTVSPropertyOp21
 70
     1
102
RTVSPropertyOp22
 70
     1
102
RTVSPropertyOp23
 70
     1
102
RTVSPropertyOp24
 70
     1
102
RTVSPropertyOp25
 70
     1
102
RTVSPropertyOp26
 70
     1
102
RTVSPropertyOp27
 70
     1
102
RTVSPropertyOp28
 70
     1
102
RTVSPropertyOp29
 70
     1
102
RTVSPropertyOp30
 70
     1
102
RTVSPropertyOp31
 70
     1
102
RTVSPropertyOp32
 70
     1
102
RTVSPropertyOp33
 70
     1
102
RTVSPropertyOp34
 70
     1
102
RTVSPropertyOp35
 70
     1
102
RTVSPropertyOp36
 70
     1
102
RTVSPropertyOp37
 70
     1
102
RTVSPropertyOp38
 70
     1
102
RTVSPropertyOp39
 70
     1
102
RTVSPropertyOp40
 70
     1
102
RTVSPropertyOp41
 70
     1
102
RTVSPropertyOp42
 70
     1
102
RTVSPropertyOp43
 70
     1
102
RTVSPropertyOp44
 70
     1
102
RTVSPropertyOp45
 70
     1
102
RTVSPropertyOp46
 70
     1
102
RTVSPropertyOp47
 70
     1
102
RTVSPropertyOp48
 70
     1
102
RTVSPropertyOp49
 70
     1
102
RTVSPropertyOp50
 70
     1
102
RTVSPropertyOp51
 70
     0
102
RTVSPropertyOp52
 70
     0
102
RTVSPropertyOp53
 70
     1
102
RTVSPropertyOp54
 70
     1
102
RTVSPropertyOp55
 70
     1
102
RTVSPropertyOp56
 70
     1
102
RTVSPropertyOp57
 70
     1
102
RTVSPropertyOp58
 70
     1
102
RTVSPropertyOp59
 70
     1
102
RTVSPropertyOp60
 70
     1
102
RTVSPropertyOp61
 70
     1
102
RTVSPropertyOp62
 70
     1
  0
XRECORD
  5
8237
102
{ACAD_REACTORS
330
8236
102
}
330
8236
100
AcDbXrecord
280
     1
102
RTVSPost2010Prop28
280
     0
102
RTVSPost2010PropOp28
 70
     1
102
RTVSPost2010Prop29
280
     1
102
RTVSPost2010PropOp29
 70
     1
102
RTVSPost2010Prop30
280
     1
102
RTVSPost2010PropOp30
 70
     1
102
RTVSPost2010Prop31
280
     0
102
RTVSPost2010PropOp31
 70
     1
102
RTVSPost2010Prop32
280
     0
102
RTVSPost2010PropOp32
 70
     1
102
RTVSPost2010Prop33
280
     0
102
RTVSPost2010PropOp33
 70
     1
102
RTVSPost2010Prop34
280
     0
102
RTVSPost2010PropOp34
 70
     1
102
RTVSPost2010Prop35
280
     0
102
RTVSPost2010PropOp35
 70
     1
102
RTVSPost2010Prop36
280
     0
102
RTVSPost2010PropOp36
 70
     1
102
RTVSPost2010Prop37
 90
       50
102
RTVSPost2010PropOp37
 70
     1
102
RTVSPost2010Prop38
140
0.0
102
RTVSPost2010PropOp38
 70
     1
102
RTVSPost2010Prop39
140
1.0
102
RTVSPost2010PropOp39
 70
     1
102
RTVSPost2010Prop40
 90
        0
102
RTVSPost2010PropOp40
 70
     1
102
RTVSPost2010Prop41ColorIndex
 90
       18
102
RTVSPost2010Prop41ColorRGB
 90
        0
102
RTVSPost2010PropOp41
 70
     1
102
RTVSPost2010Prop42
 90
       50
102
RTVSPost2010PropOp42
 70
     1
102
RTVSPost2010Prop43
 90
        3
102
RTVSPost2010PropOp43
 70
     1
102
RTVSPost2010Prop44ColorIndex
 90
        5
102
RTVSPost2010Prop44ColorRGB
 90
      255
102
RTVSPost2010PropOp44
 70
     1
102
RTVSPost2010Prop45
280
     0
102
RTVSPost2010PropOp45
 70
     1
102
RTVSPost2010Prop46
 90
       50
102
RTVSPost2010PropOp46
 70
     1
102
RTVSPost2010Prop47
 90
       50
102
RTVSPost2010PropOp47
 70
     1
102
RTVSPost2010Prop48
 90
       50
102
RTVSPost2010PropOp48
 70
     1
102
RTVSPost2010Prop49
280
     0
102
RTVSPost2010PropOp49
 70
     1
102
RTVSPost2010Prop50
 90
       50
102
RTVSPost2010PropOp50
 70
     1
102
RTVSPost2010Prop51ColorIndex
 90
      256
102
RTVSPost2010Prop51ColorRGB
 90
-16777216
102
RTVSPost2010PropOp51
 70
     0
102
RTVSPost2010Prop52
140
1.0
102
RTVSPost2010PropOp52
 70
     0
102
RTVSPost2010Prop53
 90
        2
102
RTVSPost2010PropOp53
 70
     1
102
RTVSPost2010Prop54
  1
strokes_ogs.tif
102
RTVSPost2010PropOp54
 70
     1
102
RTVSPost2010Prop55
280
     0
102
RTVSPost2010PropOp55
 70
     1
102
RTVSPost2010Prop56
140
1.0
102
RTVSPost2010PropOp56
 70
     1
102
RTVSPost2010Prop57
140
1.0
102
RTVSPost2010PropOp57
 70
     1
102
RTVSPropertyOp0
 70
     1
102
RTVSPropertyOp1
 70
     1
102
RTVSPropertyOp2
 70
     1
102
RTVSPropertyOp3
 70
     1
102
RTVSPropertyOp4
 70
     1
102
RTVSPropertyOp5
 70
     1
102
RTVSPropertyOp6
 70
     1
102
RTVSPropertyOp7
 70
     1
102
RTVSPropertyOp8
 70
     1
102
RTVSPropertyOp9
 70
     1
102
RTVSPropertyOp10
 70
     1
102
RTVSPropertyOp11
 70
     1
102
RTVSPropertyOp12
 70
     1
102
RTVSPropertyOp13
 70
     1
102
RTVSPropertyOp14
 70
     1
102
RTVSPropertyOp15
 70
     1
102
RTVSPropertyOp16
 70
     1
102
RTVSPropertyOp17
 70
     1
102
RTVSPropertyOp18
 70
     1
102
RTVSPropertyOp19
 70
     1
102
RTVSPropertyOp20
 70
     1
102
RTVSPropertyOp21
 70
     1
102
RTVSPropertyOp22
 70
     1
102
RTVSPropertyOp23
 70
     1
102
RTVSPropertyOp24
 70
     1
102
RTVSPropertyOp25
 70
     1
102
RTVSPropertyOp26
 70
     1
102
RTVSPropertyOp27
 70
     1
102
RTVSPropertyOp28
 70
     1
102
RTVSPropertyOp29
 70
     1
102
RTVSPropertyOp30
 70
     1
102
RTVSPropertyOp31
 70
     1
102
RTVSPropertyOp32
 70
     1
102
RTVSPropertyOp33
 70
     1
102
RTVSPropertyOp34
 70
     1
102
RTVSPropertyOp35
 70
     1
102
RTVSPropertyOp36
 70
     1
102
RTVSPropertyOp37
 70
     1
102
RTVSPropertyOp38
 70
     1
102
RTVSPropertyOp39
 70
     1
102
RTVSPropertyOp40
 70
     1
102
RTVSPropertyOp41
 70
     1
102
RTVSPropertyOp42
 70
     1
102
RTVSPropertyOp43
 70
     1
102
RTVSPropertyOp44
 70
     1
102
RTVSPropertyOp45
 70
     1
102
RTVSPropertyOp46
 70
     1
102
RTVSPropertyOp47
 70
     1
102
RTVSPropertyOp48
 70
     1
102
RTVSPropertyOp49
 70
     1
102
RTVSPropertyOp50
 70
     1
102
RTVSPropertyOp51
 70
     0
102
RTVSPropertyOp52
 70
     0
102
RTVSPropertyOp53
 70
     1
102
RTVSPropertyOp54
 70
     1
102
RTVSPropertyOp55
 70
     1
102
RTVSPropertyOp56
 70
     1
102
RTVSPropertyOp57
 70
     1
102
RTVSPropertyOp58
 70
     1
102
RTVSPropertyOp59
 70
     1
102
RTVSPropertyOp60
 70
     1
102
RTVSPropertyOp61
 70
     1
102
RTVSPropertyOp62
 70
     1
  0
XRECORD
  5
8239
102
{ACAD_REACTORS
330
8238
102
}
330
8238
100
AcDbXrecord
280
     1
102
RTVSPost2010Prop28
280
     0
102
RTVSPost2010PropOp28
 70
     1
102
RTVSPost2010Prop29
280
     1
102
RTVSPost2010PropOp29
 70
     1
102
RTVSPost2010Prop30
280
     1
102
RTVSPost2010PropOp30
 70
     1
102
RTVSPost2010Prop31
280
     0
102
RTVSPost2010PropOp31
 70
     1
102
RTVSPost2010Prop32
280
     0
102
RTVSPost2010PropOp32
 70
     1
102
RTVSPost2010Prop33
280
     0
102
RTVSPost2010PropOp33
 70
     1
102
RTVSPost2010Prop34
280
     0
102
RTVSPost2010PropOp34
 70
     1
102
RTVSPost2010Prop35
280
     0
102
RTVSPost2010PropOp35
 70
     1
102
RTVSPost2010Prop36
280
     0
102
RTVSPost2010PropOp36
 70
     1
102
RTVSPost2010Prop37
 90
       50
102
RTVSPost2010PropOp37
 70
     1
102
RTVSPost2010Prop38
140
0.0
102
RTVSPost2010PropOp38
 70
     1
102
RTVSPost2010Prop39
140
1.0
102
RTVSPost2010PropOp39
 70
     1
102
RTVSPost2010Prop40
 90
        0
102
RTVSPost2010PropOp40
 70
     1
102
RTVSPost2010Prop41ColorIndex
 90
       18
102
RTVSPost2010Prop41ColorRGB
 90
        0
102
RTVSPost2010PropOp41
 70
     1
102
RTVSPost2010Prop42
 90
       50
102
RTVSPost2010PropOp42
 70
     1
102
RTVSPost2010Prop43
 90
        3
102
RTVSPost2010PropOp43
 70
     1
102
RTVSPost2010Prop44ColorIndex
 90
        5
102
RTVSPost2010Prop44ColorRGB
 90
      255
102
RTVSPost2010PropOp44
 70
     1
102
RTVSPost2010Prop45
280
     0
102
RTVSPost2010PropOp45
 70
     1
102
RTVSPost2010Prop46
 90
       50
102
RTVSPost2010PropOp46
 70
     1
102
RTVSPost2010Prop47
 90
       50
102
RTVSPost2010PropOp47
 70
     1
102
RTVSPost2010Prop48
 90
       50
102
RTVSPost2010PropOp48
 70
     1
102
RTVSPost2010Prop49
280
     0
102
RTVSPost2010PropOp49
 70
     1
102
RTVSPost2010Prop50
 90
       50
102
RTVSPost2010PropOp50
 70
     1
102
RTVSPost2010Prop51ColorIndex
 90
      256
102
RTVSPost2010Prop51ColorRGB
 90
-16777216
102
RTVSPost2010PropOp51
 70
     0
102
RTVSPost2010Prop52
140
1.0
102
RTVSPost2010PropOp52
 70
     0
102
RTVSPost2010Prop53
 90
        2
102
RTVSPost2010PropOp53
 70
     1
102
RTVSPost2010Prop54
  1
strokes_ogs.tif
102
RTVSPost2010PropOp54
 70
     1
102
RTVSPost2010Prop55
280
     0
102
RTVSPost2010PropOp55
 70
     1
102
RTVSPost2010Prop56
140
1.0
102
RTVSPost2010PropOp56
 70
     1
102
RTVSPost2010Prop57
140
1.0
102
RTVSPost2010PropOp57
 70
     1
102
RTVSPropertyOp0
 70
     1
102
RTVSPropertyOp1
 70
     1
102
RTVSPropertyOp2
 70
     1
102
RTVSPropertyOp3
 70
     1
102
RTVSPropertyOp4
 70
     1
102
RTVSPropertyOp5
 70
     1
102
RTVSPropertyOp6
 70
     1
102
RTVSPropertyOp7
 70
     1
102
RTVSPropertyOp8
 70
     1
102
RTVSPropertyOp9
 70
     1
102
RTVSPropertyOp10
 70
     1
102
RTVSPropertyOp11
 70
     1
102
RTVSPropertyOp12
 70
     1
102
RTVSPropertyOp13
 70
     1
102
RTVSPropertyOp14
 70
     1
102
RTVSPropertyOp15
 70
     1
102
RTVSPropertyOp16
 70
     1
102
RTVSPropertyOp17
 70
     1
102
RTVSPropertyOp18
 70
     1
102
RTVSPropertyOp19
 70
     1
102
RTVSPropertyOp20
 70
     1
102
RTVSPropertyOp21
 70
     1
102
RTVSPropertyOp22
 70
     1
102
RTVSPropertyOp23
 70
     1
102
RTVSPropertyOp24
 70
     1
102
RTVSPropertyOp25
 70
     1
102
RTVSPropertyOp26
 70
     1
102
RTVSPropertyOp27
 70
     1
102
RTVSPropertyOp28
 70
     1
102
RTVSPropertyOp29
 70
     1
102
RTVSPropertyOp30
 70
     1
102
RTVSPropertyOp31
 70
     1
102
RTVSPropertyOp32
 70
     1
102
RTVSPropertyOp33
 70
     1
102
RTVSPropertyOp34
 70
     1
102
RTVSPropertyOp35
 70
     1
102
RTVSPropertyOp36
 70
     1
102
RTVSPropertyOp37
 70
     1
102
RTVSPropertyOp38
 70
     1
102
RTVSPropertyOp39
 70
     1
102
RTVSPropertyOp40
 70
     1
102
RTVSPropertyOp41
 70
     1
102
RTVSPropertyOp42
 70
     1
102
RTVSPropertyOp43
 70
     1
102
RTVSPropertyOp44
 70
     1
102
RTVSPropertyOp45
 70
     1
102
RTVSPropertyOp46
 70
     1
102
RTVSPropertyOp47
 70
     1
102
RTVSPropertyOp48
 70
     1
102
RTVSPropertyOp49
 70
     1
102
RTVSPropertyOp50
 70
     1
102
RTVSPropertyOp51
 70
     0
102
RTVSPropertyOp52
 70
     0
102
RTVSPropertyOp53
 70
     1
102
RTVSPropertyOp54
 70
     1
102
RTVSPropertyOp55
 70
     1
102
RTVSPropertyOp56
 70
     1
102
RTVSPropertyOp57
 70
     1
102
RTVSPropertyOp58
 70
     1
102
RTVSPropertyOp59
 70
     1
102
RTVSPropertyOp60
 70
     1
102
RTVSPropertyOp61
 70
     1
102
RTVSPropertyOp62
 70
     1
  0
XRECORD
  5
8227
102
{ACAD_REACTORS
330
8226
102
}
330
8226
100
AcDbXrecord
280
     1
102
RTVSPost2010Prop28
280
     0
102
RTVSPost2010PropOp28
 70
     1
102
RTVSPost2010Prop29
280
     1
102
RTVSPost2010PropOp29
 70
     1
102
RTVSPost2010Prop30
280
     1
102
RTVSPost2010PropOp30
 70
     1
102
RTVSPost2010Prop31
280
     0
102
RTVSPost2010PropOp31
 70
     1
102
RTVSPost2010Prop32
280
     0
102
RTVSPost2010PropOp32
 70
     1
102
RTVSPost2010Prop33
280
     0
102
RTVSPost2010PropOp33
 70
     1
102
RTVSPost2010Prop34
280
     0
102
RTVSPost2010PropOp34
 70
     1
102
RTVSPost2010Prop35
280
     0
102
RTVSPost2010PropOp35
 70
     1
102
RTVSPost2010Prop36
280
     0
102
RTVSPost2010PropOp36
 70
     1
102
RTVSPost2010Prop37
 90
       50
102
RTVSPost2010PropOp37
 70
     1
102
RTVSPost2010Prop38
140
0.0
102
RTVSPost2010PropOp38
 70
     1
102
RTVSPost2010Prop39
140
1.0
102
RTVSPost2010PropOp39
 70
     1
102
RTVSPost2010Prop40
 90
        0
102
RTVSPost2010PropOp40
 70
     1
102
RTVSPost2010Prop41ColorIndex
 90
       18
102
RTVSPost2010Prop41ColorRGB
 90
        0
102
RTVSPost2010PropOp41
 70
     1
102
RTVSPost2010Prop42
 90
       50
102
RTVSPost2010PropOp42
 70
     1
102
RTVSPost2010Prop43
 90
        3
102
RTVSPost2010PropOp43
 70
     1
102
RTVSPost2010Prop44ColorIndex
 90
        5
102
RTVSPost2010Prop44ColorRGB
 90
      255
102
RTVSPost2010PropOp44
 70
     1
102
RTVSPost2010Prop45
280
     0
102
RTVSPost2010PropOp45
 70
     1
102
RTVSPost2010Prop46
 90
       50
102
RTVSPost2010PropOp46
 70
     1
102
RTVSPost2010Prop47
 90
       50
102
RTVSPost2010PropOp47
 70
     1
102
RTVSPost2010Prop48
 90
       50
102
RTVSPost2010PropOp48
 70
     1
102
RTVSPost2010Prop49
280
     0
102
RTVSPost2010PropOp49
 70
     1
102
RTVSPost2010Prop50
 90
       50
102
RTVSPost2010PropOp50
 70
     1
102
RTVSPost2010Prop51ColorIndex
 90
      256
102
RTVSPost2010Prop51ColorRGB
 90
-16777216
102
RTVSPost2010PropOp51
 70
     0
102
RTVSPost2010Prop52
140
1.0
102
RTVSPost2010PropOp52
 70
     0
102
RTVSPost2010Prop53
 90
        2
102
RTVSPost2010PropOp53
 70
     1
102
RTVSPost2010Prop54
  1
strokes_ogs.tif
102
RTVSPost2010PropOp54
 70
     1
102
RTVSPost2010Prop55
280
     0
102
RTVSPost2010PropOp55
 70
     1
102
RTVSPost2010Prop56
140
1.0
102
RTVSPost2010PropOp56
 70
     1
102
RTVSPost2010Prop57
140
1.0
102
RTVSPost2010PropOp57
 70
     1
102
RTVSPropertyOp0
 70
     1
102
RTVSPropertyOp1
 70
     1
102
RTVSPropertyOp2
 70
     1
102
RTVSPropertyOp3
 70
     1
102
RTVSPropertyOp4
 70
     1
102
RTVSPropertyOp5
 70
     1
102
RTVSPropertyOp6
 70
     1
102
RTVSPropertyOp7
 70
     1
102
RTVSPropertyOp8
 70
     1
102
RTVSPropertyOp9
 70
     1
102
RTVSPropertyOp10
 70
     1
102
RTVSPropertyOp11
 70
     1
102
RTVSPropertyOp12
 70
     1
102
RTVSPropertyOp13
 70
     1
102
RTVSPropertyOp14
 70
     1
102
RTVSPropertyOp15
 70
     1
102
RTVSPropertyOp16
 70
     1
102
RTVSPropertyOp17
 70
     1
102
RTVSPropertyOp18
 70
     1
102
RTVSPropertyOp19
 70
     1
102
RTVSPropertyOp20
 70
     1
102
RTVSPropertyOp21
 70
     1
102
RTVSPropertyOp22
 70
     1
102
RTVSPropertyOp23
 70
     1
102
RTVSPropertyOp24
 70
     1
102
RTVSPropertyOp25
 70
     1
102
RTVSPropertyOp26
 70
     1
102
RTVSPropertyOp27
 70
     1
102
RTVSPropertyOp28
 70
     1
102
RTVSPropertyOp29
 70
     1
102
RTVSPropertyOp30
 70
     1
102
RTVSPropertyOp31
 70
     1
102
RTVSPropertyOp32
 70
     1
102
RTVSPropertyOp33
 70
     1
102
RTVSPropertyOp34
 70
     1
102
RTVSPropertyOp35
 70
     1
102
RTVSPropertyOp36
 70
     1
102
RTVSPropertyOp37
 70
     1
102
RTVSPropertyOp38
 70
     1
102
RTVSPropertyOp39
 70
     1
102
RTVSPropertyOp40
 70
     1
102
RTVSPropertyOp41
 70
     1
102
RTVSPropertyOp42
 70
     1
102
RTVSPropertyOp43
 70
     1
102
RTVSPropertyOp44
 70
     1
102
RTVSPropertyOp45
 70
     1
102
RTVSPropertyOp46
 70
     1
102
RTVSPropertyOp47
 70
     1
102
RTVSPropertyOp48
 70
     1
102
RTVSPropertyOp49
 70
     1
102
RTVSPropertyOp50
 70
     1
102
RTVSPropertyOp51
 70
     0
102
RTVSPropertyOp52
 70
     0
102
RTVSPropertyOp53
 70
     1
102
RTVSPropertyOp54
 70
     1
102
RTVSPropertyOp55
 70
     1
102
RTVSPropertyOp56
 70
     1
102
RTVSPropertyOp57
 70
     1
102
RTVSPropertyOp58
 70
     1
102
RTVSPropertyOp59
 70
     1
102
RTVSPropertyOp60
 70
     1
102
RTVSPropertyOp61
 70
     1
102
RTVSPropertyOp62
 70
     1
  0
XRECORD
  5
821B
102
{ACAD_REACTORS
330
821A
102
}
330
821A
100
AcDbXrecord
280
     1
102
RTVSPost2010Prop28
280
     0
102
RTVSPost2010PropOp28
 70
     1
102
RTVSPost2010Prop29
280
     1
102
RTVSPost2010PropOp29
 70
     1
102
RTVSPost2010Prop30
280
     1
102
RTVSPost2010PropOp30
 70
     1
102
RTVSPost2010Prop31
280
     0
102
RTVSPost2010PropOp31
 70
     1
102
RTVSPost2010Prop32
280
     0
102
RTVSPost2010PropOp32
 70
     1
102
RTVSPost2010Prop33
280
     0
102
RTVSPost2010PropOp33
 70
     1
102
RTVSPost2010Prop34
280
     0
102
RTVSPost2010PropOp34
 70
     1
102
RTVSPost2010Prop35
280
     0
102
RTVSPost2010PropOp35
 70
     1
102
RTVSPost2010Prop36
280
     0
102
RTVSPost2010PropOp36
 70
     1
102
RTVSPost2010Prop37
 90
       50
102
RTVSPost2010PropOp37
 70
     1
102
RTVSPost2010Prop38
140
0.0
102
RTVSPost2010PropOp38
 70
     1
102
RTVSPost2010Prop39
140
1.0
102
RTVSPost2010PropOp39
 70
     1
102
RTVSPost2010Prop40
 90
        0
102
RTVSPost2010PropOp40
 70
     1
102
RTVSPost2010Prop41ColorIndex
 90
       18
102
RTVSPost2010Prop41ColorRGB
 90
        0
102
RTVSPost2010PropOp41
 70
     1
102
RTVSPost2010Prop42
 90
       50
102
RTVSPost2010PropOp42
 70
     1
102
RTVSPost2010Prop43
 90
        3
102
RTVSPost2010PropOp43
 70
     1
102
RTVSPost2010Prop44ColorIndex
 90
        5
102
RTVSPost2010Prop44ColorRGB
 90
      255
102
RTVSPost2010PropOp44
 70
     1
102
RTVSPost2010Prop45
280
     0
102
RTVSPost2010PropOp45
 70
     1
102
RTVSPost2010Prop46
 90
       50
102
RTVSPost2010PropOp46
 70
     1
102
RTVSPost2010Prop47
 90
       50
102
RTVSPost2010PropOp47
 70
     1
102
RTVSPost2010Prop48
 90
       50
102
RTVSPost2010PropOp48
 70
     1
102
RTVSPost2010Prop49
280
     0
102
RTVSPost2010PropOp49
 70
     1
102
RTVSPost2010Prop50
 90
       50
102
RTVSPost2010PropOp50
 70
     1
102
RTVSPost2010Prop51ColorIndex
 90
      256
102
RTVSPost2010Prop51ColorRGB
 90
-16777216
102
RTVSPost2010PropOp51
 70
     0
102
RTVSPost2010Prop52
140
1.0
102
RTVSPost2010PropOp52
 70
     0
102
RTVSPost2010Prop53
 90
        2
102
RTVSPost2010PropOp53
 70
     1
102
RTVSPost2010Prop54
  1
strokes_ogs.tif
102
RTVSPost2010PropOp54
 70
     1
102
RTVSPost2010Prop55
280
     0
102
RTVSPost2010PropOp55
 70
     1
102
RTVSPost2010Prop56
140
1.0
102
RTVSPost2010PropOp56
 70
     1
102
RTVSPost2010Prop57
140
1.0
102
RTVSPost2010PropOp57
 70
     1
102
RTVSPropertyOp0
 70
     1
102
RTVSPropertyOp1
 70
     1
102
RTVSPropertyOp2
 70
     1
102
RTVSPropertyOp3
 70
     1
102
RTVSPropertyOp4
 70
     1
102
RTVSPropertyOp5
 70
     1
102
RTVSPropertyOp6
 70
     1
102
RTVSPropertyOp7
 70
     1
102
RTVSPropertyOp8
 70
     1
102
RTVSPropertyOp9
 70
     1
102
RTVSPropertyOp10
 70
     1
102
RTVSPropertyOp11
 70
     1
102
RTVSPropertyOp12
 70
     1
102
RTVSPropertyOp13
 70
     1
102
RTVSPropertyOp14
 70
     1
102
RTVSPropertyOp15
 70
     1
102
RTVSPropertyOp16
 70
     1
102
RTVSPropertyOp17
 70
     1
102
RTVSPropertyOp18
 70
     1
102
RTVSPropertyOp19
 70
     1
102
RTVSPropertyOp20
 70
     1
102
RTVSPropertyOp21
 70
     1
102
RTVSPropertyOp22
 70
     1
102
RTVSPropertyOp23
 70
     1
102
RTVSPropertyOp24
 70
     1
102
RTVSPropertyOp25
 70
     1
102
RTVSPropertyOp26
 70
     1
102
RTVSPropertyOp27
 70
     1
102
RTVSPropertyOp28
 70
     1
102
RTVSPropertyOp29
 70
     1
102
RTVSPropertyOp30
 70
     1
102
RTVSPropertyOp31
 70
     1
102
RTVSPropertyOp32
 70
     1
102
RTVSPropertyOp33
 70
     1
102
RTVSPropertyOp34
 70
     1
102
RTVSPropertyOp35
 70
     1
102
RTVSPropertyOp36
 70
     1
102
RTVSPropertyOp37
 70
     1
102
RTVSPropertyOp38
 70
     1
102
RTVSPropertyOp39
 70
     1
102
RTVSPropertyOp40
 70
     1
102
RTVSPropertyOp41
 70
     1
102
RTVSPropertyOp42
 70
     1
102
RTVSPropertyOp43
 70
     1
102
RTVSPropertyOp44
 70
     1
102
RTVSPropertyOp45
 70
     1
102
RTVSPropertyOp46
 70
     1
102
RTVSPropertyOp47
 70
     1
102
RTVSPropertyOp48
 70
     1
102
RTVSPropertyOp49
 70
     1
102
RTVSPropertyOp50
 70
     1
102
RTVSPropertyOp51
 70
     0
102
RTVSPropertyOp52
 70
     0
102
RTVSPropertyOp53
 70
     1
102
RTVSPropertyOp54
 70
     1
102
RTVSPropertyOp55
 70
     1
102
RTVSPropertyOp56
 70
     1
102
RTVSPropertyOp57
 70
     1
102
RTVSPropertyOp58
 70
     1
102
RTVSPropertyOp59
 70
     1
102
RTVSPropertyOp60
 70
     1
102
RTVSPropertyOp61
 70
     1
102
RTVSPropertyOp62
 70
     1
  0
XRECORD
  5
823B
102
{ACAD_REACTORS
330
823A
102
}
330
823A
100
AcDbXrecord
280
     1
102
RTVSPost2010Prop28
280
     0
102
RTVSPost2010PropOp28
 70
     1
102
RTVSPost2010Prop29
280
     1
102
RTVSPost2010PropOp29
 70
     1
102
RTVSPost2010Prop30
280
     1
102
RTVSPost2010PropOp30
 70
     1
102
RTVSPost2010Prop31
280
     0
102
RTVSPost2010PropOp31
 70
     1
102
RTVSPost2010Prop32
280
     0
102
RTVSPost2010PropOp32
 70
     1
102
RTVSPost2010Prop33
280
     0
102
RTVSPost2010PropOp33
 70
     1
102
RTVSPost2010Prop34
280
     0
102
RTVSPost2010PropOp34
 70
     1
102
RTVSPost2010Prop35
280
     0
102
RTVSPost2010PropOp35
 70
     1
102
RTVSPost2010Prop36
280
     0
102
RTVSPost2010PropOp36
 70
     1
102
RTVSPost2010Prop37
 90
       50
102
RTVSPost2010PropOp37
 70
     1
102
RTVSPost2010Prop38
140
0.0
102
RTVSPost2010PropOp38
 70
     1
102
RTVSPost2010Prop39
140
1.0
102
RTVSPost2010PropOp39
 70
     1
102
RTVSPost2010Prop40
 90
        0
102
RTVSPost2010PropOp40
 70
     1
102
RTVSPost2010Prop41ColorIndex
 90
       18
102
RTVSPost2010Prop41ColorRGB
 90
        0
102
RTVSPost2010PropOp41
 70
     1
102
RTVSPost2010Prop42
 90
       50
102
RTVSPost2010PropOp42
 70
     1
102
RTVSPost2010Prop43
 90
        3
102
RTVSPost2010PropOp43
 70
     1
102
RTVSPost2010Prop44ColorIndex
 90
        5
102
RTVSPost2010Prop44ColorRGB
 90
      255
102
RTVSPost2010PropOp44
 70
     1
102
RTVSPost2010Prop45
280
     0
102
RTVSPost2010PropOp45
 70
     1
102
RTVSPost2010Prop46
 90
       50
102
RTVSPost2010PropOp46
 70
     1
102
RTVSPost2010Prop47
 90
       50
102
RTVSPost2010PropOp47
 70
     1
102
RTVSPost2010Prop48
 90
       50
102
RTVSPost2010PropOp48
 70
     1
102
RTVSPost2010Prop49
280
     0
102
RTVSPost2010PropOp49
 70
     1
102
RTVSPost2010Prop50
 90
       50
102
RTVSPost2010PropOp50
 70
     1
102
RTVSPost2010Prop51ColorIndex
 90
      256
102
RTVSPost2010Prop51ColorRGB
 90
-16777216
102
RTVSPost2010PropOp51
 70
     0
102
RTVSPost2010Prop52
140
1.0
102
RTVSPost2010PropOp52
 70
     0
102
RTVSPost2010Prop53
 90
        2
102
RTVSPost2010PropOp53
 70
     1
102
RTVSPost2010Prop54
  1
strokes_ogs.tif
102
RTVSPost2010PropOp54
 70
     1
102
RTVSPost2010Prop55
280
     0
102
RTVSPost2010PropOp55
 70
     1
102
RTVSPost2010Prop56
140
1.0
102
RTVSPost2010PropOp56
 70
     1
102
RTVSPost2010Prop57
140
1.0
102
RTVSPost2010PropOp57
 70
     1
102
RTVSPropertyOp0
 70
     1
102
RTVSPropertyOp1
 70
     1
102
RTVSPropertyOp2
 70
     1
102
RTVSPropertyOp3
 70
     1
102
RTVSPropertyOp4
 70
     1
102
RTVSPropertyOp5
 70
     1
102
RTVSPropertyOp6
 70
     1
102
RTVSPropertyOp7
 70
     1
102
RTVSPropertyOp8
 70
     1
102
RTVSPropertyOp9
 70
     1
102
RTVSPropertyOp10
 70
     1
102
RTVSPropertyOp11
 70
     1
102
RTVSPropertyOp12
 70
     1
102
RTVSPropertyOp13
 70
     1
102
RTVSPropertyOp14
 70
     1
102
RTVSPropertyOp15
 70
     1
102
RTVSPropertyOp16
 70
     1
102
RTVSPropertyOp17
 70
     1
102
RTVSPropertyOp18
 70
     1
102
RTVSPropertyOp19
 70
     1
102
RTVSPropertyOp20
 70
     1
102
RTVSPropertyOp21
 70
     1
102
RTVSPropertyOp22
 70
     1
102
RTVSPropertyOp23
 70
     1
102
RTVSPropertyOp24
 70
     1
102
RTVSPropertyOp25
 70
     1
102
RTVSPropertyOp26
 70
     1
102
RTVSPropertyOp27
 70
     1
102
RTVSPropertyOp28
 70
     1
102
RTVSPropertyOp29
 70
     1
102
RTVSPropertyOp30
 70
     1
102
RTVSPropertyOp31
 70
     1
102
RTVSPropertyOp32
 70
     1
102
RTVSPropertyOp33
 70
     1
102
RTVSPropertyOp34
 70
     1
102
RTVSPropertyOp35
 70
     1
102
RTVSPropertyOp36
 70
     1
102
RTVSPropertyOp37
 70
     1
102
RTVSPropertyOp38
 70
     1
102
RTVSPropertyOp39
 70
     1
102
RTVSPropertyOp40
 70
     1
102
RTVSPropertyOp41
 70
     1
102
RTVSPropertyOp42
 70
     1
102
RTVSPropertyOp43
 70
     1
102
RTVSPropertyOp44
 70
     1
102
RTVSPropertyOp45
 70
     1
102
RTVSPropertyOp46
 70
     1
102
RTVSPropertyOp47
 70
     1
102
RTVSPropertyOp48
 70
     1
102
RTVSPropertyOp49
 70
     1
102
RTVSPropertyOp50
 70
     1
102
RTVSPropertyOp51
 70
     0
102
RTVSPropertyOp52
 70
     0
102
RTVSPropertyOp53
 70
     1
102
RTVSPropertyOp54
 70
     1
102
RTVSPropertyOp55
 70
     1
102
RTVSPropertyOp56
 70
     1
102
RTVSPropertyOp57
 70
     1
102
RTVSPropertyOp58
 70
     1
102
RTVSPropertyOp59
 70
     1
102
RTVSPropertyOp60
 70
     1
102
RTVSPropertyOp61
 70
     1
102
RTVSPropertyOp62
 70
     1
  0
ENDSEC
  0
EOF
