  0
SECTION
  2
HEADER
  9
$ACADVER
  1
AC1015
  9
$ACADMAINTVER
 70
    18
  9
$DWGCODEPAGE
  3
ANSI_1252
  9
$INSBASE
 10
0.0
 20
0.0
 30
0.0
  9
$EXTMIN
 10
-8.472289071036811
 20
-94.88355959961603
 30
-0.0015258207003583
  9
$EXTMAX
 10
21.77673391273334
 20
1.214538921386179
 30
0.0000000349246037
  9
$LIMMIN
 10
0.0
 20
0.0
  9
$LIMMAX
 10
420.0
 20
297.0
  9
$ORTHOMODE
 70
     0
  9
$REGENMODE
 70
     1
  9
$FILLMODE
 70
     1
  9
$QTEXTMODE
 70
     0
  9
$MIRRTEXT
 70
     0
  9
$LTSCALE
 40
1.0
  9
$ATTMODE
 70
     1
  9
$TEXTSIZE
 40
2.5
  9
$TRACEWID
 40
1.0
  9
$TEXTSTYLE
  7
Standard
  9
$CLAYER
  8
0
  9
$CELTYPE
  6
ByLayer
  9
$CECOLOR
 62
   256
  9
$CELTSCALE
 40
1.0
  9
$DISPSILH
 70
     0
  9
$DIMSCALE
 40
1.0
  9
$DIMASZ
 40
2.5
  9
$DIMEXO
 40
0.625
  9
$DIMDLI
 40
3.75
  9
$DIMRND
 40
0.0
  9
$DIMDLE
 40
0.0
  9
$DIMEXE
 40
1.25
  9
$DIMTP
 40
0.0
  9
$DIMTM
 40
0.0
  9
$DIMTXT
 40
2.5
  9
$DIMCEN
 40
2.5
  9
$DIMTSZ
 40
0.0
  9
$DIMTOL
 70
     0
  9
$DIMLIM
 70
     0
  9
$DIMTIH
 70
     0
  9
$DIMTOH
 70
     0
  9
$DIMSE1
 70
     0
  9
$DIMSE2
 70
     0
  9
$DIMTAD
 70
     1
  9
$DIMZIN
 70
     8
  9
$DIMBLK
  1

  9
$DIMASO
 70
     1
  9
$DIMSHO
 70
     1
  9
$DIMPOST
  1

  9
$DIMAPOST
  1

  9
$DIMALT
 70
     0
  9
$DIMALTD
 70
     3
  9
$DIMALTF
 40
0.03937007874016
  9
$DIMLFAC
 40
1.0
  9
$DIMTOFL
 70
     1
  9
$DIMTVP
 40
0.0
  9
$DIMTIX
 70
     0
  9
$DIMSOXD
 70
     0
  9
$DIMSAH
 70
     0
  9
$DIMBLK1
  1

  9
$DIMBLK2
  1

  9
$DIMSTYLE
  2
ISO-25
  9
$DIMCLRD
 70
     0
  9
$DIMCLRE
 70
     0
  9
$DIMCLRT
 70
     0
  9
$DIMTFAC
 40
1.0
  9
$DIMGAP
 40
0.625
  9
$DIMJUST
 70
     0
  9
$DIMSD1
 70
     0
  9
$DIMSD2
 70
     0
  9
$DIMTOLJ
 70
     0
  9
$DIMTZIN
 70
     8
  9
$DIMALTZ
 70
     0
  9
$DIMALTTZ
 70
     0
  9
$DIMUPT
 70
     0
  9
$DIMDEC
 70
     2
  9
$DIMTDEC
 70
     2
  9
$DIMALTU
 70
     2
  9
$DIMALTTD
 70
     3
  9
$DIMTXSTY
  7
Standard
  9
$DIMAUNIT
 70
     0
  9
$DIMADEC
 70
     0
  9
$DIMALTRND
 40
0.0
  9
$DIMAZIN
 70
     0
  9
$DIMDSEP
 70
    44
  9
$DIMATFIT
 70
     3
  9
$DIMFRAC
 70
     0
  9
$DIMLDRBLK
  1

  9
$DIMLUNIT
 70
     2
  9
$DIMLWD
 70
    -2
  9
$DIMLWE
 70
    -2
  9
$DIMTMOVE
 70
     0
  9
$LUNITS
 70
     2
  9
$LUPREC
 70
     4
  9
$SKETCHINC
 40
1.0
  9
$FILLETRAD
 40
0.0
  9
$AUNITS
 70
     0
  9
$AUPREC
 70
     0
  9
$MENU
  1
.
  9
$ELEVATION
 40
0.0
  9
$PELEVATION
 40
0.0
  9
$THICKNESS
 40
0.0
  9
$LIMCHECK
 70
     0
  9
$CHAMFERA
 40
0.0
  9
$CHAMFERB
 40
0.0
  9
$CHAMFERC
 40
0.0
  9
$CHAMFERD
 40
0.0
  9
$SKPOLY
 70
     0
  9
$TDCREATE
 40
2460733.571354167
  9
$TDUCREATE
 40
2460733.279687500
  9
$TDUPDATE
 40
2460733.598437500
  9
$TDUUPDATE
 40
2460733.306770833
  9
$TDINDWG
 40
0.0020370370
  9
$TDUSRTIMER
 40
0.0020370370
  9
$USRTIMER
 70
     1
  9
$ANGBASE
 50
0.0
  9
$ANGDIR
 70
     0
  9
$PDMODE
 70
     0
  9
$PDSIZE
 40
0.0
  9
$PLINEWID
 40
0.0
  9
$SPLFRAME
 70
     0
  9
$SPLINETYPE
 70
     6
  9
$SPLINESEGS
 70
     8
  9
$HANDSEED
  5
7DAE
  9
$SURFTAB1
 70
     6
  9
$SURFTAB2
 70
     6
  9
$SURFTYPE
 70
     6
  9
$SURFU
 70
     6
  9
$SURFV
 70
     6
  9
$UCSBASE
  2

  9
$UCSNAME
  2

  9
$UCSORG
 10
0.0
 20
0.0
 30
0.0
  9
$UCSXDIR
 10
1.0
 20
0.0
 30
0.0
  9
$UCSYDIR
 10
0.0
 20
1.0
 30
0.0
  9
$UCSORTHOREF
  2

  9
$UCSORTHOVIEW
 70
     0
  9
$UCSORGTOP
 10
0.0
 20
0.0
 30
0.0
  9
$UCSORGBOTTOM
 10
0.0
 20
0.0
 30
0.0
  9
$UCSORGLEFT
 10
0.0
 20
0.0
 30
0.0
  9
$UCSORGRIGHT
 10
0.0
 20
0.0
 30
0.0
  9
$UCSORGFRONT
 10
0.0
 20
0.0
 30
0.0
  9
$UCSORGBACK
 10
0.0
 20
0.0
 30
0.0
  9
$PUCSBASE
  2

  9
$PUCSNAME
  2

  9
$PUCSORG
 10
0.0
 20
0.0
 30
0.0
  9
$PUCSXDIR
 10
1.0
 20
0.0
 30
0.0
  9
$PUCSYDIR
 10
0.0
 20
1.0
 30
0.0
  9
$PUCSORTHOREF
  2

  9
$PUCSORTHOVIEW
 70
     0
  9
$PUCSORGTOP
 10
0.0
 20
0.0
 30
0.0
  9
$PUCSORGBOTTOM
 10
0.0
 20
0.0
 30
0.0
  9
$PUCSORGLEFT
 10
0.0
 20
0.0
 30
0.0
  9
$PUCSORGRIGHT
 10
0.0
 20
0.0
 30
0.0
  9
$PUCSORGFRONT
 10
0.0
 20
0.0
 30
0.0
  9
$PUCSORGBACK
 10
0.0
 20
0.0
 30
0.0
  9
$USERI1
 70
     0
  9
$USERI2
 70
     0
  9
$USERI3
 70
     0
  9
$USERI4
 70
     0
  9
$USERI5
 70
     0
  9
$USERR1
 40
0.0
  9
$USERR2
 40
0.0
  9
$USERR3
 40
0.0
  9
$USERR4
 40
0.0
  9
$USERR5
 40
0.0
  9
$WORLDVIEW
 70
     1
  9
$SHADEDGE
 70
     3
  9
$SHADEDIF
 70
    70
  9
$TILEMODE
 70
     1
  9
$MAXACTVP
 70
    48
  9
$PINSBASE
 10
0.0
 20
0.0
 30
0.0
  9
$PLIMCHECK
 70
     0
  9
$PEXTMIN
 10
0.0
 20
0.0
 30
0.0
  9
$PEXTMAX
 10
0.0
 20
0.0
 30
0.0
  9
$PLIMMIN
 10
0.0
 20
0.0
  9
$PLIMMAX
 10
12.0
 20
9.0
  9
$UNITMODE
 70
     0
  9
$VISRETAIN
 70
     1
  9
$PLINEGEN
 70
     0
  9
$PSLTSCALE
 70
     1
  9
$TREEDEPTH
 70
  3020
  9
$CMLSTYLE
  2
Standard
  9
$CMLJUST
 70
     0
  9
$CMLSCALE
 40
20.0
  9
$PROXYGRAPHICS
 70
     1
  9
$MEASUREMENT
 70
     1
  9
$CELWEIGHT
370
    -1
  9
$ENDCAPS
280
     0
  9
$JOINSTYLE
280
     0
  9
$LWDISPLAY
290
     0
  9
$INSUNITS
 70
     4
  9
$HYPERLINKBASE
  1

  9
$STYLESHEET
  1

  9
$XEDIT
290
     1
  9
$CEPSNTYPE
380
     0
  9
$PSTYLEMODE
290
     1
  9
$FINGERPRINTGUID
  2
{6CB9A169-B505-1E4C-8D04-AD9216FC5A69}
  9
$VERSIONGUID
  2
{EA747364-3774-144F-B0FD-872580171526}
  9
$EXTNAMES
290
     1
  9
$PSVPSCALE
 40
0.0
  9
$OLESTARTUP
290
     0
  0
ENDSEC
  0
SECTION
  2
CLASSES
  0
CLASS
  1
ACDBDICTIONARYWDFLT
  2
AcDbDictionaryWithDefault
  3
ObjectDBX Classes
 90
        0
280
     0
281
     0
  0
CLASS
  1
ACDBPLACEHOLDER
  2
AcDbPlaceHolder
  3
ObjectDBX Classes
 90
        0
280
     0
281
     0
  0
CLASS
  1
LAYOUT
  2
AcDbLayout
  3
ObjectDBX Classes
 90
        0
280
     0
281
     0
  0
CLASS
  1
DICTIONARYVAR
  2
AcDbDictionaryVar
  3
ObjectDBX Classes
 90
        0
280
     0
281
     0
  0
CLASS
  1
TABLESTYLE
  2
AcDbTableStyle
  3
ObjectDBX Classes
 90
     4095
280
     0
281
     0
  0
CLASS
  1
MATERIAL
  2
AcDbMaterial
  3
ObjectDBX Classes
 90
     1153
280
     0
281
     0
  0
CLASS
  1
VISUALSTYLE
  2
AcDbVisualStyle
  3
ObjectDBX Classes
 90
     4095
280
     0
281
     0
  0
CLASS
  1
SCALE
  2
AcDbScale
  3
ObjectDBX Classes
 90
     1153
280
     0
281
     0
  0
CLASS
  1
MLEADERSTYLE
  2
AcDbMLeaderStyle
  3
ACDB_MLEADERSTYLE_CLASS
 90
     4095
280
     0
281
     0
  0
CLASS
  1
CELLSTYLEMAP
  2
AcDbCellStyleMap
  3
ObjectDBX Classes
 90
     1152
280
     0
281
     0
  0
CLASS
  1
EXACXREFPANELOBJECT
  2
ExAcXREFPanelObject
  3
EXAC_ESW
 90
    33793
280
     0
281
     0
  0
CLASS
  1
NPOCOLLECTION
  2
AcDbImpNonPersistentObjectsCollection
  3
ObjectDBX Classes
 90
    33921
280
     0
281
     0
  0
CLASS
  1
LAYER_INDEX
  2
AcDbLayerIndex
  3
ObjectDBX Classes
 90
    32768
280
     0
281
     0
  0
CLASS
  1
SPATIAL_INDEX
  2
AcDbSpatialIndex
  3
ObjectDBX Classes
 90
    32768
280
     0
281
     0
  0
CLASS
  1
IDBUFFER
  2
AcDbIdBuffer
  3
ObjectDBX Classes
 90
    32768
280
     0
281
     0
  0
CLASS
  1
ACDBSECTIONVIEWSTYLE
  2
AcDbSectionViewStyle
  3
ObjectDBX Classes
 90
     1025
280
     0
281
     0
  0
CLASS
  1
ACDBDETAILVIEWSTYLE
  2
AcDbDetailViewStyle
  3
ObjectDBX Classes
 90
     1025
280
     0
281
     0
  0
CLASS
  1
XRECORD
  2
AcDbXrecord
  3
ObjectDBX Classes
 90
        0
280
     0
281
     0
  0
ENDSEC
  0
SECTION
  2
TABLES
  0
TABLE
  2
VPORT
  5
8
102
{ACAD_XDICTIONARY
360
7CBC
102
}
330
0
100
AcDbSymbolTable
 70
     1
  0
VPORT
  5
EA
330
8
100
AcDbSymbolTableRecord
100
AcDbViewportTableRecord
  2
*Active
 70
     0
 10
0.0
 20
0.0
 11
1.0
 21
1.0
 12
6.652222420848261
 22
-46.83451033911492
 13
0.0
 23
0.0
 14
10.0
 24
10.0
 15
10.0
 25
10.0
 16
0.0
 26
0.0
 36
1.0
 17
0.0
 27
0.0
 37
0.0
 40
102.1916190487395
 41
0.9846153846153848
 42
50.0
 43
0.0
 44
0.0
 50
0.0
 51
0.0
 71
     0
 72
  1000
 73
     1
 74
     3
 75
     0
 76
     1
 77
     0
 78
     0
281
     0
 65
     1
110
0.0
120
0.0
130
0.0
111
1.0
121
0.0
131
0.0
112
0.0
122
1.0
132
0.0
 79
     0
146
0.0
1001
ACAD_NAV_VCDISPLAY
1070
     3
  0
ENDTAB
  0
TABLE
  2
LTYPE
  5
5
330
0
100
AcDbSymbolTable
 70
     1
  0
LTYPE
  5
14
330
5
100
AcDbSymbolTableRecord
100
AcDbLinetypeTableRecord
  2
ByBlock
 70
     0
  3

 72
    65
 73
     0
 40
0.0
  0
LTYPE
  5
15
330
5
100
AcDbSymbolTableRecord
100
AcDbLinetypeTableRecord
  2
ByLayer
 70
     0
  3

 72
    65
 73
     0
 40
0.0
  0
LTYPE
  5
16
330
5
100
AcDbSymbolTableRecord
100
AcDbLinetypeTableRecord
  2
Continuous
 70
     0
  3
Solid line
 72
    65
 73
     0
 40
0.0
  0
ENDTAB
  0
TABLE
  2
LAYER
  5
2
102
{ACAD_XDICTIONARY
360
1FF
102
}
330
0
100
AcDbSymbolTable
 70
     1
  0
LAYER
  5
10
102
{ACAD_XDICTIONARY
360
13C
102
}
330
2
100
AcDbSymbolTableRecord
100
AcDbLayerTableRecord
  2
0
 70
     0
 62
     7
  6
Continuous
370
    -3
390
F
  0
ENDTAB
  0
TABLE
  2
STYLE
  5
3
330
0
100
AcDbSymbolTable
 70
     1
  0
STYLE
  5
11
330
3
100
AcDbSymbolTableRecord
100
AcDbTextStyleTableRecord
  2
Standard
 70
     0
 40
0.0
 41
1.0
 50
0.0
 71
     0
 42
2.5
  3
arial.ttf
  4

1001
ACAD
1000
Arial
1071
       34
  0
ENDTAB
  0
TABLE
  2
VIEW
  5
6
330
0
100
AcDbSymbolTable
 70
     0
  0
ENDTAB
  0
TABLE
  2
UCS
  5
7
330
0
100
AcDbSymbolTable
 70
     0
  0
ENDTAB
  0
TABLE
  2
APPID
  5
9
330
0
100
AcDbSymbolTable
 70
     8
  0
APPID
  5
12
330
9
100
AcDbSymbolTableRecord
100
AcDbRegAppTableRecord
  2
ACAD
 70
     0
  0
APPID
  5
9E
330
9
100
AcDbSymbolTableRecord
100
AcDbRegAppTableRecord
  2
ACAD_PSEXT
 70
     0
  0
APPID
  5
133
330
9
100
AcDbSymbolTableRecord
100
AcDbRegAppTableRecord
  2
AcadAnnoPO
 70
     0
  0
APPID
  5
134
330
9
100
AcDbSymbolTableRecord
100
AcDbRegAppTableRecord
  2
AcadAnnotative
 70
     0
  0
APPID
  5
135
330
9
100
AcDbSymbolTableRecord
100
AcDbRegAppTableRecord
  2
ACAD_DSTYLE_DIMJAG
 70
     0
  0
APPID
  5
136
330
9
100
AcDbSymbolTableRecord
100
AcDbRegAppTableRecord
  2
ACAD_DSTYLE_DIMTALN
 70
     0
  0
APPID
  5
165
330
9
100
AcDbSymbolTableRecord
100
AcDbRegAppTableRecord
  2
ACAD_MLEADERVER
 70
     0
  0
APPID
  5
217
330
9
100
AcDbSymbolTableRecord
100
AcDbRegAppTableRecord
  2
ACAD_NAV_VCDISPLAY
 70
     0
  0
ENDTAB
  0
TABLE
  2
DIMSTYLE
  5
A
330
0
100
AcDbSymbolTable
 70
     1
100
AcDbDimStyleTable
 71
     0
  0
DIMSTYLE
105
27
330
A
100
AcDbSymbolTableRecord
100
AcDbDimStyleTableRecord
  2
ISO-25
 70
     0
 41
2.5
 42
0.625
 43
3.75
 44
1.25
 73
     0
 74
     0
 77
     1
 78
     8
140
2.5
141
2.5
143
0.03937007874016
147
0.625
171
     3
172
     1
271
     2
272
     2
274
     3
278
    44
283
     0
284
     8
340
11
  0
ENDTAB
  0
TABLE
  2
BLOCK_RECORD
  5
1
330
0
100
AcDbSymbolTable
 70
     4
  0
BLOCK_RECORD
  5
1F
102
{ACAD_XDICTIONARY
360
1CE
102
}
330
1
100
AcDbSymbolTableRecord
100
AcDbBlockTableRecord
  2
*Model_Space
340
22
  0
BLOCK_RECORD
  5
D2
102
{ACAD_XDICTIONARY
360
7C6D
102
}
330
1
100
AcDbSymbolTableRecord
100
AcDbBlockTableRecord
  2
*Paper_Space
340
D3
  0
BLOCK_RECORD
  5
D6
102
{ACAD_XDICTIONARY
360
7C6F
102
}
330
1
100
AcDbSymbolTableRecord
100
AcDbBlockTableRecord
  2
*Paper_Space0
340
D7
  0
BLOCK_RECORD
  5
78F7
330
1
100
AcDbSymbolTableRecord
100
AcDbBlockTableRecord
  2
ARA423x45-Front
340
0
102
{BLKREFS
331
7C66
102
}
  0
BLOCK_RECORD
  5
7B6A
330
1
100
AcDbSymbolTableRecord
100
AcDbBlockTableRecord
  2
ARA423x45-Top
340
0
102
{BLKREFS
331
7C67
102
}
  0
BLOCK_RECORD
  5
7B9A
330
1
100
AcDbSymbolTableRecord
100
AcDbBlockTableRecord
  2
ARA423x45-ISO
340
0
102
{BLKREFS
331
7C68
102
}
  0
ENDTAB
  0
ENDSEC
  0
SECTION
  2
BLOCKS
  0
BLOCK
  5
20
330
1F
100
AcDbEntity
  8
0
100
AcDbBlockBegin
  2
*Model_Space
 70
     0
 10
0.0
 20
0.0
 30
0.0
  3
*Model_Space
  1

  0
ENDBLK
  5
21
330
1F
100
AcDbEntity
  8
0
100
AcDbBlockEnd
  0
BLOCK
  5
D4
330
D2
100
AcDbEntity
 67
     1
  8
0
100
AcDbBlockBegin
  2
*Paper_Space
 70
     0
 10
0.0
 20
0.0
 30
0.0
  3
*Paper_Space
  1

  0
ENDBLK
  5
D5
330
D2
100
AcDbEntity
 67
     1
  8
0
100
AcDbBlockEnd
  0
BLOCK
  5
D8
330
D6
100
AcDbEntity
 67
     1
  8
0
100
AcDbBlockBegin
  2
*Paper_Space0
 70
     0
 10
0.0
 20
0.0
 30
0.0
  3
*Paper_Space0
  1

  0
ENDBLK
  5
D9
330
D6
100
AcDbEntity
 67
     1
  8
0
100
AcDbBlockEnd
  0
BLOCK
  5
78F8
330
78F7
100
AcDbEntity
  8
0
100
AcDbBlockBegin
  2
ARA423x45-Front
 70
     0
 10
0.0
 20
0.0
 30
0.0
  3
ARA423x45-Front
  1

  0
LINE
  5
78FA
330
78F7
100
AcDbEntity
  8
0
100
AcDbLine
 10
-1.273143024226168
 20
-40.30206828013592
 30
0.0
 11
0.0
 21
-43.79999999999999
 31
0.0
  0
LINE
  5
78FB
330
78F7
100
AcDbEntity
  8
0
100
AcDbLine
 10
1.273143021392153
 20
-40.30206829698882
 30
0.0
 11
0.0
 21
-43.79999999999999
 31
0.0
  0
SPLINE
  5
78FC
330
78F7
100
AcDbEntity
  8
0
100
AcDbSpline
210
0.0
220
0.0
230
1.0
 70
     8
 71
     3
 72
    14
 73
    10
 74
     0
 42
0.000000001
 43
0.0000000001
 40
0.0544119222634631
 40
0.0544119222634631
 40
0.0544119222634631
 40
0.0544119222634631
 40
0.0583945217996133
 40
0.0583945217996133
 40
0.0754229802700105
 40
0.0754229802700105
 40
0.0872744932335599
 40
0.0872744932335599
 40
0.0955554120146439
 40
0.0955554120146439
 40
0.0955554120146439
 40
0.0955554120146439
 10
1.088778038702254
 20
-40.04999999999999
 30
0.0
 10
1.097376367059715
 20
-40.05341522518688
 30
0.0
 10
1.105784446526389
 20
-40.05711075038246
 30
0.0
 10
1.149031295322637
 20
-40.07816203736482
 30
0.0
 10
1.187504739154105
 20
-40.10623901276344
 30
0.0
 10
1.232325005965009
 20
-40.16142545959609
 30
0.0
 10
1.250407134093282
 20
-40.19357167798554
 30
0.0
 10
1.267381583993531
 20
-40.24725668156635
 30
0.0
 10
1.272458065169866
 20
-40.27552612441393
 30
0.0
 10
1.273143021392153
 20
-40.30206829698882
 30
0.0
  0
SPLINE
  5
78FD
330
78F7
100
AcDbEntity
  8
0
100
AcDbSpline
210
0.0
220
0.0
230
1.0
 70
    12
 71
     2
 72
     6
 73
     3
 74
     0
 42
0.000000001
 43
0.0000000001
 40
0.0
 40
0.0
 40
0.0
 40
0.0231305000849338
 40
0.0231305000849338
 40
0.0231305000849338
 10
0.9381785216434307
 20
-40.00089324024123
 30
0.0
 41
1.0
 10
1.011861745809706
 20
-40.01944912431262
 30
0.0
 41
1.00417212811052
 10
1.088778038702254
 20
-40.04999999999999
 30
0.0
 41
1.0
  0
SPLINE
  5
78FE
330
78F7
100
AcDbEntity
  8
0
100
AcDbSpline
210
0.0
220
0.0
230
1.0
 70
    12
 71
     2
 72
     6
 73
     3
 74
     0
 42
0.000000001
 43
0.0000000001
 40
0.0
 40
0.0
 40
0.0
 40
0.0894830231545094
 40
0.0894830231545094
 40
0.0894830231545094
 10
1.127607094853162
 20
-39.1354068968069
 30
0.0
 41
1.0
 10
1.027548859730433
 20
-39.59443732934614
 30
0.0
 41
1.00106743243013
 10
0.9381785216434325
 20
-40.00089324024123
 30
0.0
 41
1.0
  0
SPLINE
  5
78FF
330
78F7
100
AcDbEntity
  8
0
100
AcDbSpline
210
0.0
220
0.0
230
1.0
 70
     8
 71
     3
 72
    27
 73
    23
 74
     0
 42
0.000000001
 43
0.0000000001
 40
-0.0453751077896218
 40
-0.0453751077896218
 40
-0.0453751077896218
 40
-0.0453751077896218
 40
-0.045290057650493
 40
-0.045290057650493
 40
-0.041573789332853
 40
-0.041573789332853
 40
-0.0366377970663582
 40
-0.0366377970663582
 40
-0.0286035440609125
 40
-0.0286035440609125
 40
0.0
 40
0.0
 40
0.0
 40
0.0286035440609125
 40
0.0286035440609125
 40
0.0366377970663581
 40
0.0366377970663581
 40
0.0415737893328529
 40
0.0415737893328529
 40
0.045290057650493
 40
0.045290057650493
 40
0.0453751077896218
 40
0.0453751077896218
 40
0.0453751077896218
 40
0.0453751077896218
 10
0.5701659496725405
 20
-39.1354068968069
 30
0.0
 10
0.570206308540203
 20
-39.13513045274196
 30
0.0
 10
0.5702474747223639
 20
-39.13485502743595
 30
0.0
 10
0.5721219495023277
 20
-39.12259359462015
 30
0.0
 10
0.5765768552096578
 20
-39.10842908120156
 30
0.0
 10
0.5885606743078218
 20
-39.08231316059885
 30
0.0
 10
0.5992158053817424
 20
-39.066420770761
 30
0.0
 10
0.6253830621829964
 20
-39.03538312660804
 30
0.0
 10
0.6471878523898191
 20
-39.01735605924407
 30
0.0
 10
0.7333149764754749
 20
-38.96076207918897
 30
0.0
 10
0.8163599475617015
 20
-38.94367349710186
 30
0.0
 10
0.8837791474664998
 20
-38.94367349710186
 30
0.0
 10
0.9511983473712978
 20
-38.94367349710186
 30
0.0
 10
1.028023583232003
 20
-38.96076207918897
 30
0.0
 10
1.093552183138948
 20
-39.01735605924407
 30
0.0
 10
1.108795657414173
 20
-39.03538312660804
 30
0.0
 10
1.123666135602004
 20
-39.066420770761
 30
0.0
 10
1.128536909823592
 20
-39.08231316059885
 30
0.0
 10
1.13101531118191
 20
-39.10842908120156
 30
0.0
 10
1.130314755622009
 20
-39.12259359462015
 30
0.0
 10
1.127726433827568
 20
-39.13485502743595
 30
0.0
 10
1.127667353396577
 20
-39.13513045274196
 30
0.0
 10
1.127607094853162
 20
-39.1354068968069
 30
0.0
  0
SPLINE
  5
7900
330
78F7
100
AcDbEntity
  8
0
100
AcDbSpline
210
0.0
220
0.0
230
1.0
 70
    12
 71
     2
 72
     6
 73
     3
 74
     0
 42
0.000000001
 43
0.0000000001
 40
0.0
 40
0.0
 40
0.0
 40
0.0894830231545094
 40
0.0894830231545094
 40
0.0894830231545094
 10
0.4445832557082797
 20
-40.00089324024123
 30
0.0
 41
1.0
 10
0.503150770726867
 20
-39.59443732935839
 30
0.0
 41
1.00106743242726
 10
0.5701659496725407
 20
-39.1354068968069
 30
0.0
 41
1.0
  0
SPLINE
  5
7901
330
78F7
100
AcDbEntity
  8
0
100
AcDbSpline
210
0.0
220
0.0
230
1.0
 70
    12
 71
     2
 72
     6
 73
     3
 74
     0
 42
0.000000001
 43
0.0000000001
 40
0.0
 40
0.0
 40
0.0
 40
0.0231305000849338
 40
0.0231305000849338
 40
0.0231305000849338
 10
0.2761103397960015
 20
-40.04999999999999
 30
0.0
 41
1.0
 10
0.3641462420695258
 20
-40.01944912431262
 30
0.0
 41
1.004172128110559
 10
0.4445832557082818
 20
-40.00089324024123
 30
0.0
 41
1.0
  0
SPLINE
  5
7902
330
78F7
100
AcDbEntity
  8
0
100
AcDbSpline
210
0.0
220
0.0
230
1.0
 70
     8
 71
     3
 72
    14
 73
    10
 74
     0
 42
0.000000001
 43
0.0000000001
 40
-0.0955554106323106
 40
-0.0955554106323106
 40
-0.0955554106323106
 40
-0.0955554106323106
 40
-0.0872744932335599
 40
-0.0872744932335599
 40
-0.0754229802700105
 40
-0.0754229802700105
 40
-0.0583945217996133
 40
-0.0583945217996133
 40
-0.0544119222634631
 40
-0.0544119222634631
 40
-0.0544119222634631
 40
-0.0544119222634631
 10
-0.0000000037370954
 20
-40.30206828013592
 30
0.0
 10
0.0103455130096801
 20
-40.27552611131967
 30
0.0
 10
0.0257112364115813
 20
-40.24725667788024
 30
0.0
 10
0.062225427134585
 20
-40.19357167798554
 30
0.0
 10
0.0920078219008407
 20
-40.16142545959609
 30
0.0
 10
0.1569143126937413
 20
-40.10623901276344
 30
0.0
 10
0.2056069398385288
 20
-40.07816203736482
 30
0.0
 10
0.2565158304893516
 20
-40.05711075038246
 30
0.0
 10
0.2662689711272007
 20
-40.05341522518688
 30
0.0
 10
0.2761103397960019
 20
-40.04999999999999
 30
0.0
  0
LINE
  5
7903
330
78F7
100
AcDbEntity
  8
0
100
AcDbLine
 10
0.0
 20
-43.79999999999999
 30
0.0
 11
0.0
 21
-40.30206828013592
 31
0.0
  0
SPLINE
  5
7904
330
78F7
100
AcDbEntity
  8
0
100
AcDbSpline
210
0.0
220
0.0
230
1.0
 70
     8
 71
     3
 72
    27
 73
    23
 74
     0
 42
0.000000001
 43
0.0000000001
 40
-0.0453751077896218
 40
-0.0453751077896218
 40
-0.0453751077896218
 40
-0.0453751077896218
 40
-0.045290057650493
 40
-0.045290057650493
 40
-0.041573789332853
 40
-0.041573789332853
 40
-0.0366377970663582
 40
-0.0366377970663582
 40
-0.0286035440609125
 40
-0.0286035440609125
 40
0.0
 40
0.0
 40
0.0
 40
0.0286035440609125
 40
0.0286035440609125
 40
0.0366377970663581
 40
0.0366377970663581
 40
0.0415737893328529
 40
0.0415737893328529
 40
0.045290057650493
 40
0.045290057650493
 40
0.0453751077896218
 40
0.0453751077896218
 40
0.0453751077896218
 40
0.0453751077896218
 10
-1.127607094853163
 20
-39.1354068968069
 30
0.0
 10
-1.127667353396578
 20
-39.13513045274196
 30
0.0
 10
-1.12772643382757
 20
-39.13485502743595
 30
0.0
 10
-1.130314755622011
 20
-39.12259359462015
 30
0.0
 10
-1.131015311181912
 20
-39.10842908120156
 30
0.0
 10
-1.128536909823594
 20
-39.08231316059885
 30
0.0
 10
-1.123666135602005
 20
-39.066420770761
 30
0.0
 10
-1.108795657414175
 20
-39.03538312660804
 30
0.0
 10
-1.09355218313895
 20
-39.01735605924407
 30
0.0
 10
-1.028023583232005
 20
-38.96076207918897
 30
0.0
 10
-0.9511983473713002
 20
-38.94367349710186
 30
0.0
 10
-0.8837791474665021
 20
-38.94367349710186
 30
0.0
 10
-0.8163599475617042
 20
-38.94367349710186
 30
0.0
 10
-0.7333149764754778
 20
-38.96076207918897
 30
0.0
 10
-0.6471878523898223
 20
-39.01735605924407
 30
0.0
 10
-0.6253830621829994
 20
-39.03538312660804
 30
0.0
 10
-0.5992158053817455
 20
-39.066420770761
 30
0.0
 10
-0.5885606743078248
 20
-39.08231316059885
 30
0.0
 10
-0.5765768552096607
 20
-39.10842908120156
 30
0.0
 10
-0.5721219495023309
 20
-39.12259359462015
 30
0.0
 10
-0.570247474722367
 20
-39.13485502743595
 30
0.0
 10
-0.570206308540206
 20
-39.13513045274196
 30
0.0
 10
-0.5701659496725437
 20
-39.1354068968069
 30
0.0
  0
SPLINE
  5
7905
330
78F7
100
AcDbEntity
  8
0
100
AcDbSpline
210
0.0
220
0.0
230
1.0
 70
     8
 71
     3
 72
    14
 73
    10
 74
     0
 42
0.000000001
 43
0.0000000001
 40
0.0544119222634631
 40
0.0544119222634631
 40
0.0544119222634631
 40
0.0544119222634631
 40
0.0583945217996133
 40
0.0583945217996133
 40
0.0754229802700105
 40
0.0754229802700105
 40
0.0872744932335599
 40
0.0872744932335599
 40
0.09555541013743
 40
0.09555541013743
 40
0.09555541013743
 40
0.09555541013743
 10
-0.276110339796005
 20
-40.04999999999999
 30
0.0
 10
-0.2662689711272037
 20
-40.05341522518688
 30
0.0
 10
-0.2565158304893547
 20
-40.05711075038246
 30
0.0
 10
-0.205606939838532
 20
-40.07816203736482
 30
0.0
 10
-0.1569143126937447
 20
-40.10623901276344
 30
0.0
 10
-0.0920078219008443
 20
-40.16142545959609
 30
0.0
 10
-0.0622254271345885
 20
-40.19357167798554
 30
0.0
 10
-0.02571123730915
 20
-40.24725667656059
 30
0.0
 10
-0.0103455236959075
 20
-40.27552611146419
 30
0.0
 10
-0.0000000070370322
 20
-40.30206827893485
 30
0.0
  0
SPLINE
  5
7906
330
78F7
100
AcDbEntity
  8
0
100
AcDbSpline
210
0.0
220
0.0
230
1.0
 70
    12
 71
     2
 72
     6
 73
     3
 74
     0
 42
0.000000001
 43
0.0000000001
 40
0.0
 40
0.0
 40
0.0
 40
0.0231305000849338
 40
0.0231305000849338
 40
0.0231305000849338
 10
-0.4445832557082846
 20
-40.00089324024123
 30
0.0
 41
1.0
 10
-0.3641462420695285
 20
-40.01944912431262
 30
0.0
 41
1.00417212811052
 10
-0.2761103397960046
 20
-40.04999999999999
 30
0.0
 41
1.0
  0
SPLINE
  5
7907
330
78F7
100
AcDbEntity
  8
0
100
AcDbSpline
210
0.0
220
0.0
230
1.0
 70
    12
 71
     2
 72
     6
 73
     3
 74
     0
 42
0.000000001
 43
0.0000000001
 40
0.0
 40
0.0
 40
0.0
 40
0.0894830231545094
 40
0.0894830231545094
 40
0.0894830231545094
 10
-0.5701659496725437
 20
-39.1354068968069
 30
0.0
 41
1.0
 10
-0.5031507707286477
 20
-39.59443732934614
 30
0.0
 41
1.00106743243013
 10
-0.4445832557082827
 20
-40.00089324024123
 30
0.0
 41
1.0
  0
SPLINE
  5
7908
330
78F7
100
AcDbEntity
  8
0
100
AcDbSpline
210
0.0
220
0.0
230
1.0
 70
    12
 71
     2
 72
     6
 73
     3
 74
     0
 42
0.000000001
 43
0.0000000001
 40
0.0
 40
0.0
 40
0.0
 40
0.0894830231545094
 40
0.0894830231545094
 40
0.0894830231545094
 10
-0.9381785216434341
 20
-40.00089324024123
 30
0.0
 41
1.0
 10
-1.027548859727751
 20
-39.59443732935839
 30
0.0
 41
1.00106743242726
 10
-1.127607094853163
 20
-39.1354068968069
 30
0.0
 41
1.0
  0
SPLINE
  5
7909
330
78F7
100
AcDbEntity
  8
0
100
AcDbSpline
210
0.0
220
0.0
230
1.0
 70
    12
 71
     2
 72
     6
 73
     3
 74
     0
 42
0.000000001
 43
0.0000000001
 40
0.0
 40
0.0
 40
0.0
 40
0.0231305000849338
 40
0.0231305000849338
 40
0.0231305000849338
 10
-1.088778038702255
 20
-40.04999999999999
 30
0.0
 41
1.0
 10
-1.011861745809707
 20
-40.01944912431262
 30
0.0
 41
1.004172128110559
 10
-0.938178521643432
 20
-40.00089324024123
 30
0.0
 41
1.0
  0
SPLINE
  5
790A
330
78F7
100
AcDbEntity
  8
0
100
AcDbSpline
210
0.0
220
0.0
230
1.0
 70
     8
 71
     3
 72
    14
 73
    10
 74
     0
 42
0.000000001
 43
0.0000000001
 40
-0.0955554101374301
 40
-0.0955554101374301
 40
-0.0955554101374301
 40
-0.0955554101374301
 40
-0.0872744932335599
 40
-0.0872744932335599
 40
-0.0754229802700105
 40
-0.0754229802700105
 40
-0.0583945217996133
 40
-0.0583945217996133
 40
-0.0544119222634631
 40
-0.0544119222634631
 40
-0.0544119222634631
 40
-0.0544119222634631
 10
-1.273143020926232
 20
-40.30206827893485
 30
0.0
 10
-1.272458063179582
 20
-40.27552611146419
 30
0.0
 10
-1.267381582410778
 20
-40.24725667656059
 30
0.0
 10
-1.250407134093283
 20
-40.19357167798554
 30
0.0
 10
-1.232325005965009
 20
-40.16142545959609
 30
0.0
 10
-1.187504739154106
 20
-40.10623901276344
 30
0.0
 10
-1.149031295322638
 20
-40.07816203736482
 30
0.0
 10
-1.10578444652639
 20
-40.05711075038246
 30
0.0
 10
-1.097376367059716
 20
-40.05341522518688
 30
0.0
 10
-1.088778038702255
 20
-40.04999999999999
 30
0.0
  0
LINE
  5
790B
330
78F7
100
AcDbEntity
  8
0
100
AcDbLine
 10
0.4445832557082813
 20
-40.00089324024123
 30
0.0
 11
-0.4445832557082836
 21
-40.00089324024123
 31
0.0
  0
LINE
  5
790C
330
78F7
100
AcDbEntity
  8
0
100
AcDbLine
 10
-0.9381785216434334
 20
-40.00089324024123
 30
0.0
 11
-1.038187463673701
 21
-40.00089324024123
 31
0.0
  0
LINE
  5
790D
330
78F7
100
AcDbEntity
  8
0
100
AcDbLine
 10
1.038187463673701
 20
-40.00089324024123
 30
0.0
 11
0.9381785216434323
 21
-40.00089324024123
 31
0.0
  0
LINE
  5
790E
330
78F7
100
AcDbEntity
  8
0
100
AcDbLine
 10
1.038187463673701
 20
-10.00089324024122
 30
0.0
 11
-1.038187463673701
 21
-10.00089324024122
 31
0.0
  0
LINE
  5
790F
330
78F7
100
AcDbEntity
  8
0
100
AcDbLine
 10
1.038187463673701
 20
-38.75089324024123
 30
0.0
 11
-1.038187463673701
 21
-38.75089324024123
 31
0.0
  0
LINE
  5
7910
330
78F7
100
AcDbEntity
  8
0
100
AcDbLine
 10
1.038187463673701
 20
-37.50089324024123
 30
0.0
 11
-1.038187463673701
 21
-37.50089324024123
 31
0.0
  0
LINE
  5
7911
330
78F7
100
AcDbEntity
  8
0
100
AcDbLine
 10
1.038187463673701
 20
-36.25089324024123
 30
0.0
 11
-1.038187463673701
 21
-36.25089324024123
 31
0.0
  0
LINE
  5
7912
330
78F7
100
AcDbEntity
  8
0
100
AcDbLine
 10
1.038187463673701
 20
-35.00089324024123
 30
0.0
 11
-1.038187463673701
 21
-35.00089324024123
 31
0.0
  0
LINE
  5
7913
330
78F7
100
AcDbEntity
  8
0
100
AcDbLine
 10
1.038187463673701
 20
-33.75089324024123
 30
0.0
 11
-1.038187463673701
 21
-33.75089324024123
 31
0.0
  0
LINE
  5
7914
330
78F7
100
AcDbEntity
  8
0
100
AcDbLine
 10
1.038187463673701
 20
-32.50089324024123
 30
0.0
 11
-1.038187463673701
 21
-32.50089324024123
 31
0.0
  0
LINE
  5
7915
330
78F7
100
AcDbEntity
  8
0
100
AcDbLine
 10
1.038187463673701
 20
-31.25089324024122
 30
0.0
 11
-1.038187463673701
 21
-31.25089324024122
 31
0.0
  0
LINE
  5
7916
330
78F7
100
AcDbEntity
  8
0
100
AcDbLine
 10
1.038187463673701
 20
-30.00089324024122
 30
0.0
 11
-1.038187463673701
 21
-30.00089324024122
 31
0.0
  0
LINE
  5
7917
330
78F7
100
AcDbEntity
  8
0
100
AcDbLine
 10
1.038187463673701
 20
-28.75089324024122
 30
0.0
 11
-1.038187463673701
 21
-28.75089324024122
 31
0.0
  0
LINE
  5
7918
330
78F7
100
AcDbEntity
  8
0
100
AcDbLine
 10
1.038187463673701
 20
-27.50089324024122
 30
0.0
 11
-1.038187463673701
 21
-27.50089324024122
 31
0.0
  0
LINE
  5
7919
330
78F7
100
AcDbEntity
  8
0
100
AcDbLine
 10
1.038187463673701
 20
-26.25089324024122
 30
0.0
 11
-1.038187463673701
 21
-26.25089324024122
 31
0.0
  0
LINE
  5
791A
330
78F7
100
AcDbEntity
  8
0
100
AcDbLine
 10
1.038187463673701
 20
-25.00089324024122
 30
0.0
 11
-1.038187463673701
 21
-25.00089324024122
 31
0.0
  0
LINE
  5
791B
330
78F7
100
AcDbEntity
  8
0
100
AcDbLine
 10
1.038187463673701
 20
-23.75089324024122
 30
0.0
 11
-1.038187463673701
 21
-23.75089324024122
 31
0.0
  0
LINE
  5
791C
330
78F7
100
AcDbEntity
  8
0
100
AcDbLine
 10
1.038187463673701
 20
-22.50089324024122
 30
0.0
 11
-1.038187463673701
 21
-22.50089324024122
 31
0.0
  0
LINE
  5
791D
330
78F7
100
AcDbEntity
  8
0
100
AcDbLine
 10
1.038187463673701
 20
-21.25089324024122
 30
0.0
 11
-1.038187463673701
 21
-21.25089324024122
 31
0.0
  0
LINE
  5
791E
330
78F7
100
AcDbEntity
  8
0
100
AcDbLine
 10
1.038187463673701
 20
-20.00089324024122
 30
0.0
 11
-1.038187463673701
 21
-20.00089324024122
 31
0.0
  0
LINE
  5
791F
330
78F7
100
AcDbEntity
  8
0
100
AcDbLine
 10
1.038187463673701
 20
-18.75089324024122
 30
0.0
 11
-1.038187463673701
 21
-18.75089324024122
 31
0.0
  0
LINE
  5
7920
330
78F7
100
AcDbEntity
  8
0
100
AcDbLine
 10
1.038187463673701
 20
-17.50089324024122
 30
0.0
 11
-1.038187463673701
 21
-17.50089324024122
 31
0.0
  0
LINE
  5
7921
330
78F7
100
AcDbEntity
  8
0
100
AcDbLine
 10
1.038187463673701
 20
-16.25089324024122
 30
0.0
 11
-1.038187463673701
 21
-16.25089324024122
 31
0.0
  0
LINE
  5
7922
330
78F7
100
AcDbEntity
  8
0
100
AcDbLine
 10
1.038187463673701
 20
-15.00089324024122
 30
0.0
 11
-1.038187463673701
 21
-15.00089324024122
 31
0.0
  0
LINE
  5
7923
330
78F7
100
AcDbEntity
  8
0
100
AcDbLine
 10
1.038187463673701
 20
-13.75089324024122
 30
0.0
 11
-1.038187463673701
 21
-13.75089324024122
 31
0.0
  0
LINE
  5
7924
330
78F7
100
AcDbEntity
  8
0
100
AcDbLine
 10
1.038187463673701
 20
-12.50089324024122
 30
0.0
 11
-1.038187463673701
 21
-12.50089324024122
 31
0.0
  0
LINE
  5
7925
330
78F7
100
AcDbEntity
  8
0
100
AcDbLine
 10
1.038187463673701
 20
-11.25089324024122
 30
0.0
 11
-1.038187463673701
 21
-11.25089324024122
 31
0.0
  0
ARC
  5
7926
330
78F7
100
AcDbEntity
  8
0
100
AcDbCircle
 10
-0.9732428665709804
 20
-39.05980762113534
 30
0.0
 40
0.3
100
AcDbArc
 50
119.9999999999997
 51
194.5957505503163
  0
ARC
  5
7927
330
78F7
100
AcDbEntity
  8
0
100
AcDbCircle
 10
0.9732428665709804
 20
-39.05980762113534
 30
0.0
 40
0.3
100
AcDbArc
 50
345.4042494496836
 51
60.00000000000035
  0
LINE
  5
7928
330
78F7
100
AcDbEntity
  8
0
100
AcDbLine
 10
-1.038187463673701
 20
-40.00089324024123
 30
0.0
 11
-1.263561225477096
 21
-39.1354068968069
 31
0.0
  0
LINE
  5
7929
330
78F7
100
AcDbEntity
  8
0
100
AcDbLine
 10
1.038187463673701
 20
-40.00089324024123
 30
0.0
 11
1.263561225477096
 21
-39.1354068968069
 31
0.0
  0
ARC
  5
792A
330
78F7
100
AcDbEntity
  8
0
100
AcDbCircle
 10
-0.9732428665709804
 20
-40.30980762113532
 30
0.0
 40
0.3
100
AcDbArc
 50
119.9999999999987
 51
178.5217307623167
  0
ARC
  5
792B
330
78F7
100
AcDbEntity
  8
0
100
AcDbCircle
 10
0.9732428665709804
 20
-40.30980762113532
 30
0.0
 40
0.3
100
AcDbArc
 50
1.478266034051236
 51
60.00000000000149
  0
LINE
  5
792C
330
78F7
100
AcDbEntity
  8
0
100
AcDbLine
 10
-1.038187463673702
 20
-40.00089324024123
 30
0.0
 11
-1.123242866570986
 21
-40.04999999999999
 31
0.0
  0
LINE
  5
792D
330
78F7
100
AcDbEntity
  8
0
100
AcDbLine
 10
1.038187463673702
 20
-40.00089324024123
 30
0.0
 11
1.123242866570986
 21
-40.04999999999999
 31
0.0
  0
LINE
  5
792E
330
78F7
100
AcDbEntity
  8
0
100
AcDbLine
 10
1.038187463673701
 20
-10.00089324024122
 30
0.0
 11
1.12324286657098
 21
-10.05
 31
0.0
  0
LINE
  5
792F
330
78F7
100
AcDbEntity
  8
0
100
AcDbLine
 10
-1.038187463673701
 20
-10.00089324024122
 30
0.0
 11
-1.12324286657098
 21
-10.05
 31
0.0
  0
LINE
  5
7930
330
78F7
100
AcDbEntity
  8
0
100
AcDbLine
 10
1.038187463673701
 20
-38.75089324024123
 30
0.0
 11
1.12324286657098
 21
-38.8
 31
0.0
  0
LINE
  5
7931
330
78F7
100
AcDbEntity
  8
0
100
AcDbLine
 10
-1.038187463673701
 20
-38.75089324024123
 30
0.0
 11
-1.12324286657098
 21
-38.8
 31
0.0
  0
LINE
  5
7932
330
78F7
100
AcDbEntity
  8
0
100
AcDbLine
 10
1.038187463673701
 20
-37.50089324024123
 30
0.0
 11
1.12324286657098
 21
-37.55
 31
0.0
  0
LINE
  5
7933
330
78F7
100
AcDbEntity
  8
0
100
AcDbLine
 10
-1.038187463673701
 20
-37.50089324024123
 30
0.0
 11
-1.12324286657098
 21
-37.55
 31
0.0
  0
ARC
  5
7934
330
78F7
100
AcDbEntity
  8
0
100
AcDbCircle
 10
-0.9732428665709804
 20
-37.80980762113534
 30
0.0
 40
0.3
100
AcDbArc
 50
119.9999999999997
 51
194.5957505503163
  0
ARC
  5
7935
330
78F7
100
AcDbEntity
  8
0
100
AcDbCircle
 10
0.9732428665709804
 20
-37.80980762113534
 30
0.0
 40
0.3
100
AcDbArc
 50
345.4042494496836
 51
60.00000000000035
  0
LINE
  5
7936
330
78F7
100
AcDbEntity
  8
0
100
AcDbLine
 10
-1.038187463673701
 20
-38.75089324024123
 30
0.0
 11
-1.263561225477096
 21
-37.8854068968069
 31
0.0
  0
LINE
  5
7937
330
78F7
100
AcDbEntity
  8
0
100
AcDbLine
 10
1.038187463673701
 20
-38.75089324024123
 30
0.0
 11
1.263561225477096
 21
-37.8854068968069
 31
0.0
  0
LINE
  5
7938
330
78F7
100
AcDbEntity
  8
0
100
AcDbLine
 10
1.038187463673701
 20
-36.25089324024123
 30
0.0
 11
1.12324286657098
 21
-36.3
 31
0.0
  0
LINE
  5
7939
330
78F7
100
AcDbEntity
  8
0
100
AcDbLine
 10
-1.038187463673701
 20
-36.25089324024123
 30
0.0
 11
-1.12324286657098
 21
-36.3
 31
0.0
  0
ARC
  5
793A
330
78F7
100
AcDbEntity
  8
0
100
AcDbCircle
 10
-0.9732428665709804
 20
-36.55980762113534
 30
0.0
 40
0.3
100
AcDbArc
 50
119.9999999999997
 51
194.5957505503163
  0
ARC
  5
793B
330
78F7
100
AcDbEntity
  8
0
100
AcDbCircle
 10
0.9732428665709804
 20
-36.55980762113534
 30
0.0
 40
0.3
100
AcDbArc
 50
345.4042494496836
 51
60.00000000000035
  0
LINE
  5
793C
330
78F7
100
AcDbEntity
  8
0
100
AcDbLine
 10
-1.038187463673701
 20
-37.50089324024123
 30
0.0
 11
-1.263561225477096
 21
-36.6354068968069
 31
0.0
  0
LINE
  5
793D
330
78F7
100
AcDbEntity
  8
0
100
AcDbLine
 10
1.038187463673701
 20
-37.50089324024123
 30
0.0
 11
1.263561225477096
 21
-36.6354068968069
 31
0.0
  0
LINE
  5
793E
330
78F7
100
AcDbEntity
  8
0
100
AcDbLine
 10
1.038187463673701
 20
-35.00089324024123
 30
0.0
 11
1.12324286657098
 21
-35.05
 31
0.0
  0
LINE
  5
793F
330
78F7
100
AcDbEntity
  8
0
100
AcDbLine
 10
-1.038187463673701
 20
-35.00089324024123
 30
0.0
 11
-1.12324286657098
 21
-35.05
 31
0.0
  0
ARC
  5
7940
330
78F7
100
AcDbEntity
  8
0
100
AcDbCircle
 10
-0.9732428665709804
 20
-35.30980762113534
 30
0.0
 40
0.3
100
AcDbArc
 50
119.9999999999997
 51
194.5957505503163
  0
ARC
  5
7941
330
78F7
100
AcDbEntity
  8
0
100
AcDbCircle
 10
0.9732428665709804
 20
-35.30980762113534
 30
0.0
 40
0.3
100
AcDbArc
 50
345.4042494496836
 51
60.00000000000035
  0
LINE
  5
7942
330
78F7
100
AcDbEntity
  8
0
100
AcDbLine
 10
-1.038187463673701
 20
-36.25089324024123
 30
0.0
 11
-1.263561225477096
 21
-35.3854068968069
 31
0.0
  0
LINE
  5
7943
330
78F7
100
AcDbEntity
  8
0
100
AcDbLine
 10
1.038187463673701
 20
-36.25089324024123
 30
0.0
 11
1.263561225477096
 21
-35.3854068968069
 31
0.0
  0
LINE
  5
7944
330
78F7
100
AcDbEntity
  8
0
100
AcDbLine
 10
1.038187463673701
 20
-33.75089324024123
 30
0.0
 11
1.12324286657098
 21
-33.8
 31
0.0
  0
LINE
  5
7945
330
78F7
100
AcDbEntity
  8
0
100
AcDbLine
 10
-1.038187463673701
 20
-33.75089324024123
 30
0.0
 11
-1.12324286657098
 21
-33.8
 31
0.0
  0
ARC
  5
7946
330
78F7
100
AcDbEntity
  8
0
100
AcDbCircle
 10
-0.9732428665709804
 20
-34.05980762113534
 30
0.0
 40
0.3
100
AcDbArc
 50
119.9999999999997
 51
194.5957505503163
  0
ARC
  5
7947
330
78F7
100
AcDbEntity
  8
0
100
AcDbCircle
 10
0.9732428665709804
 20
-34.05980762113534
 30
0.0
 40
0.3
100
AcDbArc
 50
345.4042494496836
 51
60.00000000000035
  0
LINE
  5
7948
330
78F7
100
AcDbEntity
  8
0
100
AcDbLine
 10
-1.038187463673701
 20
-35.00089324024123
 30
0.0
 11
-1.263561225477096
 21
-34.1354068968069
 31
0.0
  0
LINE
  5
7949
330
78F7
100
AcDbEntity
  8
0
100
AcDbLine
 10
1.038187463673701
 20
-35.00089324024123
 30
0.0
 11
1.263561225477096
 21
-34.1354068968069
 31
0.0
  0
LINE
  5
794A
330
78F7
100
AcDbEntity
  8
0
100
AcDbLine
 10
1.038187463673701
 20
-32.50089324024123
 30
0.0
 11
1.12324286657098
 21
-32.55
 31
0.0
  0
LINE
  5
794B
330
78F7
100
AcDbEntity
  8
0
100
AcDbLine
 10
-1.038187463673701
 20
-32.50089324024123
 30
0.0
 11
-1.12324286657098
 21
-32.55
 31
0.0
  0
ARC
  5
794C
330
78F7
100
AcDbEntity
  8
0
100
AcDbCircle
 10
-0.9732428665709804
 20
-32.80980762113534
 30
0.0
 40
0.3
100
AcDbArc
 50
119.9999999999997
 51
194.5957505503163
  0
ARC
  5
794D
330
78F7
100
AcDbEntity
  8
0
100
AcDbCircle
 10
0.9732428665709804
 20
-32.80980762113534
 30
0.0
 40
0.3
100
AcDbArc
 50
345.4042494496836
 51
60.00000000000035
  0
LINE
  5
794E
330
78F7
100
AcDbEntity
  8
0
100
AcDbLine
 10
-1.038187463673701
 20
-33.75089324024123
 30
0.0
 11
-1.263561225477096
 21
-32.8854068968069
 31
0.0
  0
LINE
  5
794F
330
78F7
100
AcDbEntity
  8
0
100
AcDbLine
 10
1.038187463673701
 20
-33.75089324024123
 30
0.0
 11
1.263561225477096
 21
-32.8854068968069
 31
0.0
  0
LINE
  5
7950
330
78F7
100
AcDbEntity
  8
0
100
AcDbLine
 10
1.038187463673701
 20
-31.25089324024122
 30
0.0
 11
1.12324286657098
 21
-31.3
 31
0.0
  0
LINE
  5
7951
330
78F7
100
AcDbEntity
  8
0
100
AcDbLine
 10
-1.038187463673701
 20
-31.25089324024122
 30
0.0
 11
-1.12324286657098
 21
-31.3
 31
0.0
  0
ARC
  5
7952
330
78F7
100
AcDbEntity
  8
0
100
AcDbCircle
 10
-0.9732428665709804
 20
-31.55980762113533
 30
0.0
 40
0.3
100
AcDbArc
 50
119.9999999999997
 51
194.5957505503163
  0
ARC
  5
7953
330
78F7
100
AcDbEntity
  8
0
100
AcDbCircle
 10
0.9732428665709804
 20
-31.55980762113533
 30
0.0
 40
0.3
100
AcDbArc
 50
345.4042494496836
 51
60.00000000000035
  0
LINE
  5
7954
330
78F7
100
AcDbEntity
  8
0
100
AcDbLine
 10
-1.038187463673701
 20
-32.50089324024123
 30
0.0
 11
-1.263561225477096
 21
-31.6354068968069
 31
0.0
  0
LINE
  5
7955
330
78F7
100
AcDbEntity
  8
0
100
AcDbLine
 10
1.038187463673701
 20
-32.50089324024123
 30
0.0
 11
1.263561225477096
 21
-31.6354068968069
 31
0.0
  0
LINE
  5
7956
330
78F7
100
AcDbEntity
  8
0
100
AcDbLine
 10
1.038187463673701
 20
-30.00089324024122
 30
0.0
 11
1.12324286657098
 21
-30.05
 31
0.0
  0
LINE
  5
7957
330
78F7
100
AcDbEntity
  8
0
100
AcDbLine
 10
-1.038187463673701
 20
-30.00089324024122
 30
0.0
 11
-1.12324286657098
 21
-30.05
 31
0.0
  0
ARC
  5
7958
330
78F7
100
AcDbEntity
  8
0
100
AcDbCircle
 10
-0.9732428665709804
 20
-30.30980762113533
 30
0.0
 40
0.3
100
AcDbArc
 50
119.9999999999997
 51
194.5957505503163
  0
ARC
  5
7959
330
78F7
100
AcDbEntity
  8
0
100
AcDbCircle
 10
0.9732428665709804
 20
-30.30980762113533
 30
0.0
 40
0.3
100
AcDbArc
 50
345.4042494496836
 51
60.00000000000035
  0
LINE
  5
795A
330
78F7
100
AcDbEntity
  8
0
100
AcDbLine
 10
-1.038187463673701
 20
-31.25089324024122
 30
0.0
 11
-1.263561225477096
 21
-30.3854068968069
 31
0.0
  0
LINE
  5
795B
330
78F7
100
AcDbEntity
  8
0
100
AcDbLine
 10
1.038187463673701
 20
-31.25089324024122
 30
0.0
 11
1.263561225477096
 21
-30.3854068968069
 31
0.0
  0
LINE
  5
795C
330
78F7
100
AcDbEntity
  8
0
100
AcDbLine
 10
1.038187463673701
 20
-28.75089324024122
 30
0.0
 11
1.12324286657098
 21
-28.8
 31
0.0
  0
LINE
  5
795D
330
78F7
100
AcDbEntity
  8
0
100
AcDbLine
 10
-1.038187463673701
 20
-28.75089324024122
 30
0.0
 11
-1.12324286657098
 21
-28.8
 31
0.0
  0
ARC
  5
795E
330
78F7
100
AcDbEntity
  8
0
100
AcDbCircle
 10
-0.9732428665709804
 20
-29.05980762113533
 30
0.0
 40
0.3
100
AcDbArc
 50
119.9999999999997
 51
194.5957505503163
  0
ARC
  5
795F
330
78F7
100
AcDbEntity
  8
0
100
AcDbCircle
 10
0.9732428665709804
 20
-29.05980762113533
 30
0.0
 40
0.3
100
AcDbArc
 50
345.4042494496836
 51
60.00000000000035
  0
LINE
  5
7960
330
78F7
100
AcDbEntity
  8
0
100
AcDbLine
 10
-1.038187463673701
 20
-30.00089324024122
 30
0.0
 11
-1.263561225477096
 21
-29.1354068968069
 31
0.0
  0
LINE
  5
7961
330
78F7
100
AcDbEntity
  8
0
100
AcDbLine
 10
1.038187463673701
 20
-30.00089324024122
 30
0.0
 11
1.263561225477096
 21
-29.1354068968069
 31
0.0
  0
LINE
  5
7962
330
78F7
100
AcDbEntity
  8
0
100
AcDbLine
 10
1.038187463673701
 20
-27.50089324024122
 30
0.0
 11
1.12324286657098
 21
-27.55
 31
0.0
  0
LINE
  5
7963
330
78F7
100
AcDbEntity
  8
0
100
AcDbLine
 10
-1.038187463673701
 20
-27.50089324024122
 30
0.0
 11
-1.12324286657098
 21
-27.55
 31
0.0
  0
ARC
  5
7964
330
78F7
100
AcDbEntity
  8
0
100
AcDbCircle
 10
-0.9732428665709804
 20
-27.80980762113533
 30
0.0
 40
0.3
100
AcDbArc
 50
119.9999999999997
 51
194.5957505503163
  0
ARC
  5
7965
330
78F7
100
AcDbEntity
  8
0
100
AcDbCircle
 10
0.9732428665709804
 20
-27.80980762113533
 30
0.0
 40
0.3
100
AcDbArc
 50
345.4042494496836
 51
60.00000000000035
  0
LINE
  5
7966
330
78F7
100
AcDbEntity
  8
0
100
AcDbLine
 10
-1.038187463673701
 20
-28.75089324024122
 30
0.0
 11
-1.263561225477096
 21
-27.8854068968069
 31
0.0
  0
LINE
  5
7967
330
78F7
100
AcDbEntity
  8
0
100
AcDbLine
 10
1.038187463673701
 20
-28.75089324024122
 30
0.0
 11
1.263561225477096
 21
-27.8854068968069
 31
0.0
  0
LINE
  5
7968
330
78F7
100
AcDbEntity
  8
0
100
AcDbLine
 10
1.038187463673701
 20
-26.25089324024122
 30
0.0
 11
1.12324286657098
 21
-26.3
 31
0.0
  0
LINE
  5
7969
330
78F7
100
AcDbEntity
  8
0
100
AcDbLine
 10
-1.038187463673701
 20
-26.25089324024122
 30
0.0
 11
-1.12324286657098
 21
-26.3
 31
0.0
  0
ARC
  5
796A
330
78F7
100
AcDbEntity
  8
0
100
AcDbCircle
 10
-0.9732428665709804
 20
-26.55980762113533
 30
0.0
 40
0.3
100
AcDbArc
 50
119.9999999999997
 51
194.5957505503163
  0
ARC
  5
796B
330
78F7
100
AcDbEntity
  8
0
100
AcDbCircle
 10
0.9732428665709804
 20
-26.55980762113533
 30
0.0
 40
0.3
100
AcDbArc
 50
345.4042494496836
 51
60.00000000000035
  0
LINE
  5
796C
330
78F7
100
AcDbEntity
  8
0
100
AcDbLine
 10
-1.038187463673701
 20
-27.50089324024122
 30
0.0
 11
-1.263561225477096
 21
-26.6354068968069
 31
0.0
  0
LINE
  5
796D
330
78F7
100
AcDbEntity
  8
0
100
AcDbLine
 10
1.038187463673701
 20
-27.50089324024122
 30
0.0
 11
1.263561225477096
 21
-26.6354068968069
 31
0.0
  0
LINE
  5
796E
330
78F7
100
AcDbEntity
  8
0
100
AcDbLine
 10
1.038187463673701
 20
-25.00089324024122
 30
0.0
 11
1.12324286657098
 21
-25.05
 31
0.0
  0
LINE
  5
796F
330
78F7
100
AcDbEntity
  8
0
100
AcDbLine
 10
-1.038187463673701
 20
-25.00089324024122
 30
0.0
 11
-1.12324286657098
 21
-25.05
 31
0.0
  0
ARC
  5
7970
330
78F7
100
AcDbEntity
  8
0
100
AcDbCircle
 10
-0.9732428665709804
 20
-25.30980762113533
 30
0.0
 40
0.3
100
AcDbArc
 50
119.9999999999997
 51
194.5957505503163
  0
ARC
  5
7971
330
78F7
100
AcDbEntity
  8
0
100
AcDbCircle
 10
0.9732428665709804
 20
-25.30980762113533
 30
0.0
 40
0.3
100
AcDbArc
 50
345.4042494496836
 51
60.00000000000035
  0
LINE
  5
7972
330
78F7
100
AcDbEntity
  8
0
100
AcDbLine
 10
-1.038187463673701
 20
-26.25089324024122
 30
0.0
 11
-1.263561225477096
 21
-25.3854068968069
 31
0.0
  0
LINE
  5
7973
330
78F7
100
AcDbEntity
  8
0
100
AcDbLine
 10
1.038187463673701
 20
-26.25089324024122
 30
0.0
 11
1.263561225477096
 21
-25.3854068968069
 31
0.0
  0
LINE
  5
7974
330
78F7
100
AcDbEntity
  8
0
100
AcDbLine
 10
1.038187463673701
 20
-23.75089324024122
 30
0.0
 11
1.12324286657098
 21
-23.8
 31
0.0
  0
LINE
  5
7975
330
78F7
100
AcDbEntity
  8
0
100
AcDbLine
 10
-1.038187463673701
 20
-23.75089324024122
 30
0.0
 11
-1.12324286657098
 21
-23.8
 31
0.0
  0
ARC
  5
7976
330
78F7
100
AcDbEntity
  8
0
100
AcDbCircle
 10
-0.9732428665709804
 20
-24.05980762113533
 30
0.0
 40
0.3
100
AcDbArc
 50
119.9999999999997
 51
194.5957505503163
  0
ARC
  5
7977
330
78F7
100
AcDbEntity
  8
0
100
AcDbCircle
 10
0.9732428665709804
 20
-24.05980762113533
 30
0.0
 40
0.3
100
AcDbArc
 50
345.4042494496836
 51
60.00000000000035
  0
LINE
  5
7978
330
78F7
100
AcDbEntity
  8
0
100
AcDbLine
 10
-1.038187463673701
 20
-25.00089324024122
 30
0.0
 11
-1.263561225477096
 21
-24.1354068968069
 31
0.0
  0
LINE
  5
7979
330
78F7
100
AcDbEntity
  8
0
100
AcDbLine
 10
1.038187463673701
 20
-25.00089324024122
 30
0.0
 11
1.263561225477096
 21
-24.1354068968069
 31
0.0
  0
LINE
  5
797A
330
78F7
100
AcDbEntity
  8
0
100
AcDbLine
 10
1.038187463673701
 20
-22.50089324024122
 30
0.0
 11
1.12324286657098
 21
-22.55
 31
0.0
  0
LINE
  5
797B
330
78F7
100
AcDbEntity
  8
0
100
AcDbLine
 10
-1.038187463673701
 20
-22.50089324024122
 30
0.0
 11
-1.12324286657098
 21
-22.55
 31
0.0
  0
ARC
  5
797C
330
78F7
100
AcDbEntity
  8
0
100
AcDbCircle
 10
-0.9732428665709804
 20
-22.80980762113533
 30
0.0
 40
0.3
100
AcDbArc
 50
119.9999999999997
 51
194.5957505503163
  0
ARC
  5
797D
330
78F7
100
AcDbEntity
  8
0
100
AcDbCircle
 10
0.9732428665709804
 20
-22.80980762113533
 30
0.0
 40
0.3
100
AcDbArc
 50
345.4042494496836
 51
60.00000000000035
  0
LINE
  5
797E
330
78F7
100
AcDbEntity
  8
0
100
AcDbLine
 10
-1.038187463673701
 20
-23.75089324024122
 30
0.0
 11
-1.263561225477096
 21
-22.8854068968069
 31
0.0
  0
LINE
  5
797F
330
78F7
100
AcDbEntity
  8
0
100
AcDbLine
 10
1.038187463673701
 20
-23.75089324024122
 30
0.0
 11
1.263561225477096
 21
-22.8854068968069
 31
0.0
  0
LINE
  5
7980
330
78F7
100
AcDbEntity
  8
0
100
AcDbLine
 10
1.038187463673701
 20
-21.25089324024122
 30
0.0
 11
1.12324286657098
 21
-21.3
 31
0.0
  0
LINE
  5
7981
330
78F7
100
AcDbEntity
  8
0
100
AcDbLine
 10
-1.038187463673701
 20
-21.25089324024122
 30
0.0
 11
-1.12324286657098
 21
-21.3
 31
0.0
  0
ARC
  5
7982
330
78F7
100
AcDbEntity
  8
0
100
AcDbCircle
 10
-0.9732428665709804
 20
-21.55980762113533
 30
0.0
 40
0.3
100
AcDbArc
 50
119.9999999999997
 51
194.5957505503163
  0
ARC
  5
7983
330
78F7
100
AcDbEntity
  8
0
100
AcDbCircle
 10
0.9732428665709804
 20
-21.55980762113533
 30
0.0
 40
0.3
100
AcDbArc
 50
345.4042494496836
 51
60.00000000000035
  0
LINE
  5
7984
330
78F7
100
AcDbEntity
  8
0
100
AcDbLine
 10
-1.038187463673701
 20
-22.50089324024122
 30
0.0
 11
-1.263561225477096
 21
-21.6354068968069
 31
0.0
  0
LINE
  5
7985
330
78F7
100
AcDbEntity
  8
0
100
AcDbLine
 10
1.038187463673701
 20
-22.50089324024122
 30
0.0
 11
1.263561225477096
 21
-21.6354068968069
 31
0.0
  0
LINE
  5
7986
330
78F7
100
AcDbEntity
  8
0
100
AcDbLine
 10
1.038187463673701
 20
-20.00089324024122
 30
0.0
 11
1.12324286657098
 21
-20.05
 31
0.0
  0
LINE
  5
7987
330
78F7
100
AcDbEntity
  8
0
100
AcDbLine
 10
-1.038187463673701
 20
-20.00089324024122
 30
0.0
 11
-1.12324286657098
 21
-20.05
 31
0.0
  0
ARC
  5
7988
330
78F7
100
AcDbEntity
  8
0
100
AcDbCircle
 10
-0.9732428665709804
 20
-20.30980762113533
 30
0.0
 40
0.3
100
AcDbArc
 50
119.9999999999997
 51
194.5957505503163
  0
ARC
  5
7989
330
78F7
100
AcDbEntity
  8
0
100
AcDbCircle
 10
0.9732428665709804
 20
-20.30980762113533
 30
0.0
 40
0.3
100
AcDbArc
 50
345.4042494496836
 51
60.00000000000035
  0
LINE
  5
798A
330
78F7
100
AcDbEntity
  8
0
100
AcDbLine
 10
-1.038187463673701
 20
-21.25089324024122
 30
0.0
 11
-1.263561225477096
 21
-20.3854068968069
 31
0.0
  0
LINE
  5
798B
330
78F7
100
AcDbEntity
  8
0
100
AcDbLine
 10
1.038187463673701
 20
-21.25089324024122
 30
0.0
 11
1.263561225477096
 21
-20.3854068968069
 31
0.0
  0
LINE
  5
798C
330
78F7
100
AcDbEntity
  8
0
100
AcDbLine
 10
1.038187463673701
 20
-18.75089324024122
 30
0.0
 11
1.12324286657098
 21
-18.8
 31
0.0
  0
LINE
  5
798D
330
78F7
100
AcDbEntity
  8
0
100
AcDbLine
 10
-1.038187463673701
 20
-18.75089324024122
 30
0.0
 11
-1.12324286657098
 21
-18.8
 31
0.0
  0
ARC
  5
798E
330
78F7
100
AcDbEntity
  8
0
100
AcDbCircle
 10
-0.9732428665709804
 20
-19.05980762113533
 30
0.0
 40
0.3
100
AcDbArc
 50
119.9999999999997
 51
194.5957505503168
  0
ARC
  5
798F
330
78F7
100
AcDbEntity
  8
0
100
AcDbCircle
 10
0.9732428665709804
 20
-19.05980762113533
 30
0.0
 40
0.3
100
AcDbArc
 50
345.4042494496836
 51
60.00000000000035
  0
LINE
  5
7990
330
78F7
100
AcDbEntity
  8
0
100
AcDbLine
 10
-1.038187463673701
 20
-20.00089324024122
 30
0.0
 11
-1.263561225477096
 21
-19.1354068968069
 31
0.0
  0
LINE
  5
7991
330
78F7
100
AcDbEntity
  8
0
100
AcDbLine
 10
1.038187463673701
 20
-20.00089324024122
 30
0.0
 11
1.263561225477096
 21
-19.1354068968069
 31
0.0
  0
LINE
  5
7992
330
78F7
100
AcDbEntity
  8
0
100
AcDbLine
 10
1.038187463673701
 20
-17.50089324024122
 30
0.0
 11
1.12324286657098
 21
-17.55
 31
0.0
  0
LINE
  5
7993
330
78F7
100
AcDbEntity
  8
0
100
AcDbLine
 10
-1.038187463673701
 20
-17.50089324024122
 30
0.0
 11
-1.12324286657098
 21
-17.55
 31
0.0
  0
ARC
  5
7994
330
78F7
100
AcDbEntity
  8
0
100
AcDbCircle
 10
-0.9732428665709804
 20
-17.80980762113533
 30
0.0
 40
0.3
100
AcDbArc
 50
119.9999999999997
 51
194.5957505503168
  0
ARC
  5
7995
330
78F7
100
AcDbEntity
  8
0
100
AcDbCircle
 10
0.9732428665709804
 20
-17.80980762113533
 30
0.0
 40
0.3
100
AcDbArc
 50
345.4042494496836
 51
60.00000000000035
  0
LINE
  5
7996
330
78F7
100
AcDbEntity
  8
0
100
AcDbLine
 10
-1.038187463673701
 20
-18.75089324024122
 30
0.0
 11
-1.263561225477096
 21
-17.8854068968069
 31
0.0
  0
LINE
  5
7997
330
78F7
100
AcDbEntity
  8
0
100
AcDbLine
 10
1.038187463673701
 20
-18.75089324024122
 30
0.0
 11
1.263561225477096
 21
-17.8854068968069
 31
0.0
  0
LINE
  5
7998
330
78F7
100
AcDbEntity
  8
0
100
AcDbLine
 10
1.038187463673701
 20
-16.25089324024122
 30
0.0
 11
1.12324286657098
 21
-16.3
 31
0.0
  0
LINE
  5
7999
330
78F7
100
AcDbEntity
  8
0
100
AcDbLine
 10
-1.038187463673701
 20
-16.25089324024122
 30
0.0
 11
-1.12324286657098
 21
-16.3
 31
0.0
  0
ARC
  5
799A
330
78F7
100
AcDbEntity
  8
0
100
AcDbCircle
 10
-0.9732428665709804
 20
-16.55980762113533
 30
0.0
 40
0.3
100
AcDbArc
 50
119.9999999999997
 51
194.5957505503168
  0
ARC
  5
799B
330
78F7
100
AcDbEntity
  8
0
100
AcDbCircle
 10
0.9732428665709804
 20
-16.55980762113533
 30
0.0
 40
0.3
100
AcDbArc
 50
345.4042494496836
 51
60.00000000000035
  0
LINE
  5
799C
330
78F7
100
AcDbEntity
  8
0
100
AcDbLine
 10
-1.038187463673701
 20
-17.50089324024122
 30
0.0
 11
-1.263561225477096
 21
-16.6354068968069
 31
0.0
  0
LINE
  5
799D
330
78F7
100
AcDbEntity
  8
0
100
AcDbLine
 10
1.038187463673701
 20
-17.50089324024122
 30
0.0
 11
1.263561225477096
 21
-16.6354068968069
 31
0.0
  0
LINE
  5
799E
330
78F7
100
AcDbEntity
  8
0
100
AcDbLine
 10
1.038187463673701
 20
-15.00089324024122
 30
0.0
 11
1.12324286657098
 21
-15.05
 31
0.0
  0
LINE
  5
799F
330
78F7
100
AcDbEntity
  8
0
100
AcDbLine
 10
-1.038187463673701
 20
-15.00089324024122
 30
0.0
 11
-1.12324286657098
 21
-15.05
 31
0.0
  0
ARC
  5
79A0
330
78F7
100
AcDbEntity
  8
0
100
AcDbCircle
 10
-0.9732428665709804
 20
-15.30980762113533
 30
0.0
 40
0.3
100
AcDbArc
 50
119.9999999999997
 51
194.5957505503168
  0
ARC
  5
79A1
330
78F7
100
AcDbEntity
  8
0
100
AcDbCircle
 10
0.9732428665709804
 20
-15.30980762113533
 30
0.0
 40
0.3
100
AcDbArc
 50
345.4042494496836
 51
60.00000000000035
  0
LINE
  5
79A2
330
78F7
100
AcDbEntity
  8
0
100
AcDbLine
 10
-1.038187463673701
 20
-16.25089324024122
 30
0.0
 11
-1.263561225477096
 21
-15.38540689680689
 31
0.0
  0
LINE
  5
79A3
330
78F7
100
AcDbEntity
  8
0
100
AcDbLine
 10
1.038187463673701
 20
-16.25089324024122
 30
0.0
 11
1.263561225477096
 21
-15.38540689680689
 31
0.0
  0
LINE
  5
79A4
330
78F7
100
AcDbEntity
  8
0
100
AcDbLine
 10
1.038187463673701
 20
-13.75089324024122
 30
0.0
 11
1.12324286657098
 21
-13.8
 31
0.0
  0
LINE
  5
79A5
330
78F7
100
AcDbEntity
  8
0
100
AcDbLine
 10
-1.038187463673701
 20
-13.75089324024122
 30
0.0
 11
-1.12324286657098
 21
-13.8
 31
0.0
  0
ARC
  5
79A6
330
78F7
100
AcDbEntity
  8
0
100
AcDbCircle
 10
-0.9732428665709804
 20
-14.05980762113533
 30
0.0
 40
0.3
100
AcDbArc
 50
119.9999999999997
 51
194.5957505503168
  0
ARC
  5
79A7
330
78F7
100
AcDbEntity
  8
0
100
AcDbCircle
 10
0.9732428665709804
 20
-14.05980762113533
 30
0.0
 40
0.3
100
AcDbArc
 50
345.4042494496836
 51
60.00000000000035
  0
LINE
  5
79A8
330
78F7
100
AcDbEntity
  8
0
100
AcDbLine
 10
-1.038187463673701
 20
-15.00089324024122
 30
0.0
 11
-1.263561225477096
 21
-14.13540689680689
 31
0.0
  0
LINE
  5
79A9
330
78F7
100
AcDbEntity
  8
0
100
AcDbLine
 10
1.038187463673701
 20
-15.00089324024122
 30
0.0
 11
1.263561225477096
 21
-14.13540689680689
 31
0.0
  0
LINE
  5
79AA
330
78F7
100
AcDbEntity
  8
0
100
AcDbLine
 10
1.038187463673701
 20
-12.50089324024122
 30
0.0
 11
1.12324286657098
 21
-12.55
 31
0.0
  0
LINE
  5
79AB
330
78F7
100
AcDbEntity
  8
0
100
AcDbLine
 10
-1.038187463673701
 20
-12.50089324024122
 30
0.0
 11
-1.12324286657098
 21
-12.55
 31
0.0
  0
ARC
  5
79AC
330
78F7
100
AcDbEntity
  8
0
100
AcDbCircle
 10
-0.9732428665709804
 20
-12.80980762113533
 30
0.0
 40
0.3
100
AcDbArc
 50
119.9999999999997
 51
194.5957505503168
  0
ARC
  5
79AD
330
78F7
100
AcDbEntity
  8
0
100
AcDbCircle
 10
0.9732428665709804
 20
-12.80980762113533
 30
0.0
 40
0.3
100
AcDbArc
 50
345.4042494496836
 51
60.00000000000035
  0
LINE
  5
79AE
330
78F7
100
AcDbEntity
  8
0
100
AcDbLine
 10
-1.038187463673701
 20
-13.75089324024122
 30
0.0
 11
-1.263561225477096
 21
-12.88540689680689
 31
0.0
  0
LINE
  5
79AF
330
78F7
100
AcDbEntity
  8
0
100
AcDbLine
 10
1.038187463673701
 20
-13.75089324024122
 30
0.0
 11
1.263561225477096
 21
-12.88540689680689
 31
0.0
  0
LINE
  5
79B0
330
78F7
100
AcDbEntity
  8
0
100
AcDbLine
 10
1.038187463673701
 20
-11.25089324024122
 30
0.0
 11
1.12324286657098
 21
-11.3
 31
0.0
  0
LINE
  5
79B1
330
78F7
100
AcDbEntity
  8
0
100
AcDbLine
 10
-1.038187463673701
 20
-11.25089324024122
 30
0.0
 11
-1.12324286657098
 21
-11.3
 31
0.0
  0
ARC
  5
79B2
330
78F7
100
AcDbEntity
  8
0
100
AcDbCircle
 10
-0.9732428665709804
 20
-11.55980762113533
 30
0.0
 40
0.3
100
AcDbArc
 50
119.9999999999997
 51
194.5957505503168
  0
ARC
  5
79B3
330
78F7
100
AcDbEntity
  8
0
100
AcDbCircle
 10
0.9732428665709804
 20
-11.55980762113533
 30
0.0
 40
0.3
100
AcDbArc
 50
345.4042494496836
 51
60.00000000000035
  0
LINE
  5
79B4
330
78F7
100
AcDbEntity
  8
0
100
AcDbLine
 10
-1.038187463673701
 20
-12.50089324024122
 30
0.0
 11
-1.263561225477096
 21
-11.63540689680689
 31
0.0
  0
LINE
  5
79B5
330
78F7
100
AcDbEntity
  8
0
100
AcDbLine
 10
1.038187463673701
 20
-12.50089324024122
 30
0.0
 11
1.263561225477096
 21
-11.63540689680689
 31
0.0
  0
ARC
  5
79B6
330
78F7
100
AcDbEntity
  8
0
100
AcDbCircle
 10
-0.9732428665709804
 20
-10.30980762113533
 30
0.0
 40
0.3
100
AcDbArc
 50
119.9999999999997
 51
194.5957505503168
  0
ARC
  5
79B7
330
78F7
100
AcDbEntity
  8
0
100
AcDbCircle
 10
0.9732428665709804
 20
-10.30980762113533
 30
0.0
 40
0.3
100
AcDbArc
 50
345.4042494496836
 51
60.00000000000035
  0
LINE
  5
79B8
330
78F7
100
AcDbEntity
  8
0
100
AcDbLine
 10
-1.038187463673701
 20
-11.25089324024122
 30
0.0
 11
-1.263561225477096
 21
-10.38540689680689
 31
0.0
  0
LINE
  5
79B9
330
78F7
100
AcDbEntity
  8
0
100
AcDbLine
 10
1.038187463673701
 20
-11.25089324024122
 30
0.0
 11
1.263561225477096
 21
-10.38540689680689
 31
0.0
  0
LINE
  5
79BA
330
78F7
100
AcDbEntity
  8
0
100
AcDbLine
 10
1.149999999999933
 20
-8.799999999999998
 30
0.0
 11
-1.149999999999933
 21
-8.799999999999998
 31
0.0
  0
LINE
  5
79BB
330
78F7
100
AcDbEntity
  8
0
100
AcDbLine
 10
2.749999999999978
 20
0.0
 30
0.0
 11
-2.749999999999978
 21
0.0
 31
0.0
  0
LINE
  5
79BC
330
78F7
100
AcDbEntity
  8
0
100
AcDbLine
 10
2.749999999999979
 20
0.2619517121937687
 30
0.0
 11
-2.749999999999979
 21
0.2619517121937687
 31
0.0
  0
LINE
  5
79BD
330
78F7
100
AcDbEntity
  8
0
100
AcDbLine
 10
-1.149999999999935
 20
-8.799999999999998
 30
0.0
 11
-1.149999999999935
 21
-0.5000000000000071
 31
0.0
  0
LINE
  5
79BE
330
78F7
100
AcDbEntity
  8
0
100
AcDbLine
 10
1.149999999999935
 20
-8.799999999999998
 30
0.0
 11
1.149999999999935
 21
-0.5000000000000071
 31
0.0
  0
ARC
  5
79BF
330
78F7
100
AcDbEntity
  8
0
100
AcDbCircle
 10
0.0
 20
-3.3
 30
0.0
 40
4.5
100
AcDbArc
 50
52.33011303567076
 51
127.6698869643293
  0
LINE
  5
79C0
330
78F7
100
AcDbEntity
  8
0
100
AcDbLine
 10
-2.749999999999979
 20
0.0
 30
0.0
 11
-2.749999999999979
 21
0.2619517121937687
 31
0.0
  0
LINE
  5
79C1
330
78F7
100
AcDbEntity
  8
0
100
AcDbLine
 10
2.749999999999979
 20
0.0
 30
0.0
 11
2.749999999999979
 21
0.2619517121937687
 31
0.0
  0
ARC
  5
79C2
330
78F7
100
AcDbEntity
  8
0
100
AcDbCircle
 10
-0.9732428665709804
 20
-9.05980762113533
 30
0.0
 40
0.3
100
AcDbArc
 50
119.9999999999999
 51
194.5957505503168
  0
ARC
  5
79C3
330
78F7
100
AcDbEntity
  8
0
100
AcDbCircle
 10
0.9732428665709804
 20
-9.05980762113533
 30
0.0
 40
0.3
100
AcDbArc
 50
345.4042494496832
 51
60.0000000000001
  0
LINE
  5
79C4
330
78F7
100
AcDbEntity
  8
0
100
AcDbLine
 10
-1.038187463673701
 20
-10.00089324024122
 30
0.0
 11
-1.263561225477096
 21
-9.135406896806896
 31
0.0
  0
LINE
  5
79C5
330
78F7
100
AcDbEntity
  8
0
100
AcDbLine
 10
1.038187463673701
 20
-10.00089324024122
 30
0.0
 11
1.263561225477096
 21
-9.135406896806896
 31
0.0
  0
ARC
  5
79C6
330
78F7
100
AcDbEntity
  8
0
100
AcDbCircle
 10
1.649999999999934
 20
-0.5000000000000071
 30
0.0
 40
0.5
100
AcDbArc
 50
90.0
 51
180.0
  0
ARC
  5
79C7
330
78F7
100
AcDbEntity
  8
0
100
AcDbCircle
 10
-1.649999999999934
 20
-0.5000000000000071
 30
0.0
 40
0.5
100
AcDbArc
 50
0.0
 51
90.0
  0
ENDBLK
  5
78F9
330
78F7
100
AcDbEntity
  8
0
100
AcDbBlockEnd
  0
BLOCK
  5
7B6B
330
7B6A
100
AcDbEntity
  8
0
100
AcDbBlockBegin
  2
ARA423x45-Top
 70
     0
 10
0.0
 20
0.0
 30
0.0
  3
ARA423x45-Top
  1

  0
CIRCLE
  5
7B6D
330
7B6A
100
AcDbEntity
  8
0
100
AcDbCircle
 10
0.0
 20
0.0
 30
0.0
 40
2.749999999999979
  0
ENDBLK
  5
7B6C
330
7B6A
100
AcDbEntity
  8
0
100
AcDbBlockEnd
  0
BLOCK
  5
7B9B
330
7B9A
100
AcDbEntity
  8
0
100
AcDbBlockBegin
  2
ARA423x45-ISO
 70
     0
 10
0.0
 20
0.0
 30
0.0
  3
ARA423x45-ISO
  1

  0
SPLINE
  5
7B9D
330
7B9A
100
AcDbEntity
  8
0
100
AcDbSpline
210
0.0
220
0.0
230
1.0
 70
     8
 71
     3
 72
    19
 73
    15
 74
     0
 42
0.000000001
 43
0.0000000001
 40
-0.0453751077896218
 40
-0.0453751077896218
 40
-0.0453751077896218
 40
-0.0453751077896218
 40
-0.045290057650493
 40
-0.045290057650493
 40
-0.041573789332853
 40
-0.041573789332853
 40
-0.0366377970663582
 40
-0.0366377970663582
 40
-0.0286035440609125
 40
-0.0286035440609125
 40
0.0
 40
0.0
 40
0.0
 40
0.0229961794413474
 40
0.0229961794413474
 40
0.0229961794413474
 40
0.0229961794413474
 10
1.200506832699855
 20
-14.79012314525182
 30
0.0
 10
1.200577979953534
 20
-14.78990555362658
 30
0.0
 10
1.200648865013485
 20
-14.78968798326738
 30
0.0
 10
1.203804538734302
 20
-14.77996799211933
 30
0.0
 10
1.207450000356506
 20
-14.76687000831305
 30
0.0
 10
1.214171345698362
 20
-14.73964227165549
 30
0.0
 10
1.218261503653449
 20
-14.72032776539531
 30
0.0
 10
1.226249532416564
 20
-14.67823204991057
 30
0.0
 10
1.230889083405304
 20
-14.64838812040428
 30
0.0
 10
1.245454439534505
 20
-14.54026613912917
 30
0.0
 10
1.249852456489656
 20
-14.46104663159995
 30
0.0
 10
1.249852456489657
 20
-14.4059990853888
 30
0.0
 10
1.249852456489657
 20
-14.36174291741949
 30
0.0
 10
1.247009772500831
 20
-14.31989996838346
 30
0.0
 10
1.23998615779599
 20
-14.29882402376028
 30
0.0
  0
SPLINE
  5
7B9E
330
7B9A
100
AcDbEntity
  8
0
100
AcDbSpline
210
0.0
220
0.0
230
1.0
 70
    12
 71
     2
 72
     6
 73
     3
 74
     0
 42
0.000000001
 43
0.0000000001
 40
0.0
 40
0.0
 40
0.0
 40
0.0894830231545094
 40
0.0894830231545094
 40
0.0894830231545094
 10
0.9777602295309597
 20
-15.47072481445046
 30
0.0
 41
1.0
 10
1.082368088654203
 20
-15.15143015277481
 30
0.0
 41
1.00106743242726
 10
1.200506832699855
 20
-14.79012314525182
 30
0.0
 41
1.0
  0
SPLINE
  5
7B9F
330
7B9A
100
AcDbEntity
  8
0
100
AcDbSpline
210
0.0
220
0.0
230
1.0
 70
    12
 71
     2
 72
     6
 73
     3
 74
     0
 42
0.000000001
 43
0.0000000001
 40
0.0
 40
0.0
 40
0.0
 40
0.0231305000849338
 40
0.0231305000849338
 40
0.0231305000849338
 10
0.9651218279988286
 20
-15.64108109118854
 30
0.0
 41
1.0
 10
0.9729845791962626
 20
-15.54879495396062
 30
0.0
 41
1.004172128110559
 10
0.9777602295309597
 20
-15.47072481445046
 30
0.0
 41
1.0
  0
SPLINE
  5
7BA0
330
7B9A
100
AcDbEntity
  8
0
100
AcDbSpline
210
0.0
220
0.0
230
1.0
 70
     8
 71
     3
 72
    14
 73
    10
 74
     0
 42
0.000000001
 43
0.0000000001
 40
-0.0955554120146439
 40
-0.0955554120146439
 40
-0.0955554120146439
 40
-0.0955554120146439
 40
-0.0872744932335599
 40
-0.0872744932335599
 40
-0.0754229802700105
 40
-0.0754229802700105
 40
-0.0583945217996133
 40
-0.0583945217996133
 40
-0.0544119222634631
 40
-0.0544119222634631
 40
-0.0544119222634631
 40
-0.0544119222634631
 10
0.9002480638467201
 20
-16.03488225704586
 30
0.0
 10
0.9070791118772635
 20
-16.0087074920552
 30
0.0
 10
0.9143547002392791
 20
-15.97728009620247
 30
0.0
 10
0.9281713852504914
 20
-15.91160982721443
 30
0.0
 10
0.936444723131899
 20
-15.86582194016412
 30
0.0
 10
0.9506478283180014
 20
-15.77596663380182
 30
0.0
 10
0.9578738821370381
 20
-15.71745647992356
 30
0.0
 10
0.963291763890143
 20
-15.66182925641171
 30
0.0
 10
0.9642428657653917
 20
-15.65139758566437
 30
0.0
 10
0.9651218279988288
 20
-15.64108109118853
 30
0.0
  0
LINE
  5
7BA1
330
7B9A
100
AcDbEntity
  8
0
100
AcDbLine
 10
0.9002480638467201
 20
-16.03488225704586
 30
0.0
 11
0.0
 21
-18.37117307087383
 31
0.0
  0
SPLINE
  5
7BA2
330
7B9A
100
AcDbEntity
  8
0
100
AcDbSpline
210
0.0
220
0.0
230
1.0
 70
     8
 71
     3
 72
    14
 73
    10
 74
     0
 42
0.000000001
 43
0.0000000001
 40
0.0544119222634631
 40
0.0544119222634631
 40
0.0544119222634631
 40
0.0544119222634631
 40
0.0583945217996133
 40
0.0583945217996133
 40
0.0754229802700105
 40
0.0754229802700105
 40
0.0872744932335599
 40
0.0872744932335599
 40
0.0955554120146439
 40
0.0955554120146439
 40
0.0955554120146439
 40
0.0955554120146439
 10
0.5746428407478766
 20
-15.86652423959076
 30
0.0
 10
0.5876816755581717
 20
-15.86880529019688
 30
0.0
 10
0.6005235974487018
 20
-15.8712735549601
 30
0.0
 10
0.6671017592993591
 20
-15.88533384331674
 30
0.0
 10
0.728737479176057
 20
-15.90408663361489
 30
0.0
 10
0.8063260135553193
 20
-15.94094601216477
 30
0.0
 10
0.8401713422723
 20
-15.96241667571659
 30
0.0
 10
0.8779935245462661
 20
-15.99827323077689
 30
0.0
 10
0.8924483414369866
 20
-16.01715457130735
 30
0.0
 10
0.9002480638467201
 20
-16.03488225704586
 30
0.0
  0
SPLINE
  5
7BA3
330
7B9A
100
AcDbEntity
  8
0
100
AcDbSpline
210
0.0
220
0.0
230
1.0
 70
    12
 71
     2
 72
     6
 73
     3
 74
     0
 42
0.000000001
 43
0.0000000001
 40
0.0
 40
0.0
 40
0.0
 40
0.0231305000849338
 40
0.0231305000849338
 40
0.0231305000849338
 10
0.3490245597043191
 20
-15.83372552267399
 30
0.0
 41
1.0
 10
0.4580040249743406
 20
-15.84611911556807
 30
0.0
 41
1.00417212811052
 10
0.574642840747877
 20
-15.86652423959076
 30
0.0
 41
1.0
  0
SPLINE
  5
7BA4
330
7B9A
100
AcDbEntity
  8
0
100
AcDbSpline
210
0.0
220
0.0
230
1.0
 70
    12
 71
     2
 72
     6
 73
     3
 74
     0
 42
0.000000001
 43
0.0000000001
 40
0.0
 40
0.0
 40
0.0
 40
0.0894830231545094
 40
0.0894830231545094
 40
0.0894830231545094
 10
0.39417041386961
 20
-15.25566169372086
 30
0.0
 41
1.0
 10
0.3708054447744294
 20
-15.56225103675626
 30
0.0
 41
1.00106743243013
 10
0.3490245597043217
 20
-15.83372552267399
 30
0.0
 41
1.0
  0
SPLINE
  5
7BA5
330
7B9A
100
AcDbEntity
  8
0
100
AcDbSpline
210
0.0
220
0.0
230
1.0
 70
     8
 71
     3
 72
    27
 73
    23
 74
     0
 42
0.000000001
 43
0.0000000001
 40
-0.0453751077896218
 40
-0.0453751077896218
 40
-0.0453751077896218
 40
-0.0453751077896218
 40
-0.045290057650493
 40
-0.045290057650493
 40
-0.041573789332853
 40
-0.041573789332853
 40
-0.0366377970663582
 40
-0.0366377970663582
 40
-0.0286035440609125
 40
-0.0286035440609125
 40
0.0
 40
0.0
 40
0.0
 40
0.0286035440609125
 40
0.0286035440609125
 40
0.0366377970663581
 40
0.0366377970663581
 40
0.0415737893328529
 40
0.0415737893328529
 40
0.045290057650493
 40
0.045290057650493
 40
0.0453751077896218
 40
0.0453751077896218
 40
0.0453751077896218
 40
0.0453751077896218
 10
-0.3941704138696134
 20
-15.25566169372086
 30
0.0
 10
-0.3941844850652815
 20
-15.25547705497308
 30
0.0
 10
-0.3941971523521095
 20
-15.25529309666086
 30
0.0
 10
-0.3947019184167758
 20
-15.24710360776168
 30
0.0
 10
-0.3920471919685803
 20
-15.23764303923379
 30
0.0
 10
-0.3818208578127869
 20
-15.22020004989634
 30
0.0
 10
-0.3708423848942724
 20
-15.20958542172737
 30
0.0
 10
-0.3418243241989546
 20
-15.18885518195309
 30
0.0
 10
-0.3156272451525057
 20
-15.17681478909853
 30
0.0
 10
-0.2083904543115821
 20
-15.13901531016449
 30
0.0
 10
-0.09534514686971
 20
-15.12760173759042
 30
0.0
 10
-0.0000000000000017
 20
-15.12760173759042
 30
0.0
 10
0.0953451468697066
 20
-15.12760173759042
 30
0.0
 10
0.2083904543115786
 20
-15.13901531016449
 30
0.0
 10
0.3156272451525023
 20
-15.17681478909853
 30
0.0
 10
0.3418243241989512
 20
-15.1888551819531
 30
0.0
 10
0.3708423848942691
 20
-15.20958542172737
 30
0.0
 10
0.3818208578127835
 20
-15.22020004989634
 30
0.0
 10
0.3920471919685768
 20
-15.23764303923379
 30
0.0
 10
0.3947019184167724
 20
-15.24710360776168
 30
0.0
 10
0.3941971523521062
 20
-15.25529309666087
 30
0.0
 10
0.3941844850652782
 20
-15.25547705497308
 30
0.0
 10
0.3941704138696101
 20
-15.25566169372086
 30
0.0
  0
SPLINE
  5
7BA6
330
7B9A
100
AcDbEntity
  8
0
100
AcDbSpline
210
0.0
220
0.0
230
1.0
 70
    12
 71
     2
 72
     6
 73
     3
 74
     0
 42
0.000000001
 43
0.0000000001
 40
0.0
 40
0.0
 40
0.0
 40
0.0894830231545094
 40
0.0894830231545094
 40
0.0894830231545094
 10
-0.3490245597043249
 20
-15.83372552267399
 30
0.0
 41
1.0
 10
-0.3708054447737923
 20
-15.56225103676445
 30
0.0
 41
1.00106743242726
 10
-0.3941704138696132
 20
-15.25566169372086
 30
0.0
 41
1.0
  0
SPLINE
  5
7BA7
330
7B9A
100
AcDbEntity
  8
0
100
AcDbSpline
210
0.0
220
0.0
230
1.0
 70
    12
 71
     2
 72
     6
 73
     3
 74
     0
 42
0.000000001
 43
0.0000000001
 40
0.0
 40
0.0
 40
0.0
 40
0.0231305000849338
 40
0.0231305000849338
 40
0.0231305000849338
 10
-0.5746428407478798
 20
-15.86652423959076
 30
0.0
 41
1.0
 10
-0.4580040249743433
 20
-15.84611911556807
 30
0.0
 41
1.004172128110559
 10
-0.3490245597043219
 20
-15.83372552267399
 30
0.0
 41
1.0
  0
SPLINE
  5
7BA8
330
7B9A
100
AcDbEntity
  8
0
100
AcDbSpline
210
0.0
220
0.0
230
1.0
 70
     8
 71
     3
 72
    14
 73
    10
 74
     0
 42
0.000000001
 43
0.0000000001
 40
-0.0955554106323106
 40
-0.0955554106323106
 40
-0.0955554106323106
 40
-0.0955554106323106
 40
-0.0872744932335599
 40
-0.0872744932335599
 40
-0.0754229802700105
 40
-0.0754229802700105
 40
-0.0583945217996133
 40
-0.0583945217996133
 40
-0.0544119222634631
 40
-0.0544119222634631
 40
-0.0544119222634631
 40
-0.0544119222634631
 10
-0.9002480684931988
 20
-16.03488224291684
 30
0.0
 10
-0.8924483454633508
 20
-16.01715455968875
 30
0.0
 10
-0.8779935219493214
 20
-15.9982732283149
 30
0.0
 10
-0.8401713422723027
 20
-15.96241667571659
 30
0.0
 10
-0.8063260135553219
 20
-15.94094601216477
 30
0.0
 10
-0.7287374791760599
 20
-15.90408663361489
 30
0.0
 10
-0.6671017592993617
 20
-15.88533384331673
 30
0.0
 10
-0.6005235974487043
 20
-15.8712735549601
 30
0.0
 10
-0.5876816755581745
 20
-15.86880529019687
 30
0.0
 10
-0.5746428407478793
 20
-15.86652423959076
 30
0.0
  0
LINE
  5
7BA9
330
7B9A
100
AcDbEntity
  8
0
100
AcDbLine
 10
0.0
 20
-18.37117307087383
 30
0.0
 11
-0.9002480684931988
 21
-16.03488224291684
 31
0.0
  0
ELLIPSE
  5
7BAA
330
7B9A
100
AcDbEntity
  8
0
100
AcDbEllipse
 10
0.0
 20
-14.2886901662352
 30
0.0
 11
1.12324286657098
 21
0.0
 31
0.0
210
0.0
220
0.0
230
1.0
 40
0.5773502691896261
 41
2.906299384212426
 42
6.518478576556955
  0
ELLIPSE
  5
7BAB
330
7B9A
100
AcDbEntity
  8
0
100
AcDbEllipse
 10
0.0
 20
-14.56254875069761
 30
0.0
 11
-1.263561225477096
 21
-0.0000000000000003
 31
0.0
210
0.0
220
0.0
230
1.0
 40
0.5773502691896258
 41
0.3172468353112023
 42
1.253549491483692
  0
ELLIPSE
  5
7BAC
330
7B9A
100
AcDbEntity
  8
0
100
AcDbEllipse
 10
0.0
 20
-14.56254875069761
 30
0.0
 11
1.263561225477096
 21
-0.0000000000000002
 31
0.0
210
0.0
220
0.0
230
1.0
 40
0.5773502691896257
 41
5.02963581569589
 42
5.96593847186838
  0
ELLIPSE
  5
7BAD
330
7B9A
100
AcDbEntity
  8
0
100
AcDbEllipse
 10
0.0
 20
-15.26921539095138
 30
0.0
 11
-1.038187463673701
 21
0.0
 31
0.0
210
0.0
220
0.0
230
1.0
 40
0.5773502691896257
 41
0.3428647238191527
 42
1.227931602975741
  0
ELLIPSE
  5
7BAE
330
7B9A
100
AcDbEntity
  8
0
100
AcDbEllipse
 10
0.0
 20
-15.26921539095138
 30
0.0
 11
1.0381874636737
 21
-0.0000000000000001
 31
0.0
210
0.0
220
0.0
230
1.0
 40
0.577350269189626
 41
5.055253704203842
 42
5.94032058336043
  0
ELLIPSE
  5
7BAF
330
7B9A
100
AcDbEntity
  8
0
100
AcDbEllipse
 10
0.0
 20
-15.30931089239486
 30
0.0
 11
-1.12324286657098
 21
-0.0000000000000001
 31
0.0
210
0.0
220
0.0
230
1.0
 40
0.577350269189626
 41
0.5370373995881419
 42
1.033758927206751
  0
ELLIPSE
  5
7BB0
330
7B9A
100
AcDbEntity
  8
0
100
AcDbEllipse
 10
0.0
 20
-15.30931089239486
 30
0.0
 11
-1.12324286657098
 21
0.0000000000000669
 31
0.0
210
0.0
220
0.0
230
1.0
 40
0.5773502691896261
 41
2.10783372638328
 42
2.604555254002017
  0
ELLIPSE
  5
7BB1
330
7B9A
100
AcDbEntity
  8
0
100
AcDbEllipse
 10
0.0
 20
9.185586535436922
 30
0.0
 11
1.12324286657098
 21
0.0
 31
0.0
210
0.0
220
0.0
230
1.0
 40
0.5773502691896261
 41
2.906299384212423
 42
6.518478576556954
  0
ELLIPSE
  5
7BB2
330
7B9A
100
AcDbEntity
  8
0
100
AcDbEllipse
 10
0.0
 20
9.225682036880401
 30
0.0
 11
-1.038187463673701
 21
0.0
 31
0.0
210
0.0
220
0.0
230
1.0
 40
0.577350269189626
 41
0.1851882003449341
 42
2.956404453244859
  0
ELLIPSE
  5
7BB3
330
7B9A
100
AcDbEntity
  8
0
100
AcDbEllipse
 10
0.0
 20
-14.24859466479172
 30
0.0
 11
-1.038187463673701
 21
0.0
 31
0.0
210
0.0
220
0.0
230
1.0
 40
0.577350269189626
 41
0.1851882003449319
 42
2.956404453244857
  0
ELLIPSE
  5
7BB4
330
7B9A
100
AcDbEntity
  8
0
100
AcDbEllipse
 10
0.0
 20
-13.26806944007554
 30
0.0
 11
1.12324286657098
 21
0.0
 31
0.0
210
0.0
220
0.0
230
1.0
 40
0.5773502691896261
 41
2.906299384212426
 42
6.518478576556955
  0
ELLIPSE
  5
7BB5
330
7B9A
100
AcDbEntity
  8
0
100
AcDbEllipse
 10
0.0
 20
-13.22797393863206
 30
0.0
 11
-1.038187463673701
 21
0.0
 31
0.0
210
0.0
220
0.0
230
1.0
 40
0.577350269189626
 41
0.1851882003449319
 42
2.956404453244857
  0
ELLIPSE
  5
7BB6
330
7B9A
100
AcDbEntity
  8
0
100
AcDbEllipse
 10
0.0
 20
-13.54192802453795
 30
0.0
 11
1.263561225477096
 21
0.0000000000000001
 31
0.0
210
0.0
220
0.0
230
1.0
 40
0.5773502691896257
 41
3.326780853934725
 42
6.097997106834651
  0
ELLIPSE
  5
7BB7
330
7B9A
100
AcDbEntity
  8
0
100
AcDbEllipse
 10
0.0
 20
-12.24744871391588
 30
0.0
 11
1.12324286657098
 21
0.0
 31
0.0
210
0.0
220
0.0
230
1.0
 40
0.5773502691896261
 41
2.906299384212426
 42
6.518478576556955
  0
ELLIPSE
  5
7BB8
330
7B9A
100
AcDbEntity
  8
0
100
AcDbEllipse
 10
0.0
 20
-12.2073532124724
 30
0.0
 11
-1.038187463673701
 21
0.0
 31
0.0
210
0.0
220
0.0
230
1.0
 40
0.577350269189626
 41
0.1851882003449319
 42
2.956404453244857
  0
ELLIPSE
  5
7BB9
330
7B9A
100
AcDbEntity
  8
0
100
AcDbEllipse
 10
0.0
 20
-12.5213072983783
 30
0.0
 11
1.263561225477096
 21
0.0000000000000001
 31
0.0
210
0.0
220
0.0
230
1.0
 40
0.5773502691896257
 41
3.326780853934725
 42
6.097997106834651
  0
ELLIPSE
  5
7BBA
330
7B9A
100
AcDbEntity
  8
0
100
AcDbEllipse
 10
0.0
 20
-11.22682798775623
 30
0.0
 11
1.12324286657098
 21
0.0
 31
0.0
210
0.0
220
0.0
230
1.0
 40
0.5773502691896261
 41
2.906299384212426
 42
6.518478576556955
  0
ELLIPSE
  5
7BBB
330
7B9A
100
AcDbEntity
  8
0
100
AcDbEllipse
 10
0.0
 20
-11.18673248631275
 30
0.0
 11
-1.038187463673701
 21
0.0
 31
0.0
210
0.0
220
0.0
230
1.0
 40
0.577350269189626
 41
0.1851882003449319
 42
2.956404453244857
  0
ELLIPSE
  5
7BBC
330
7B9A
100
AcDbEntity
  8
0
100
AcDbEllipse
 10
0.0
 20
-11.50068657221864
 30
0.0
 11
1.263561225477096
 21
0.0000000000000001
 31
0.0
210
0.0
220
0.0
230
1.0
 40
0.5773502691896257
 41
3.326780853934725
 42
6.097997106834651
  0
ELLIPSE
  5
7BBD
330
7B9A
100
AcDbEntity
  8
0
100
AcDbEllipse
 10
0.0
 20
-10.20620726159657
 30
0.0
 11
1.12324286657098
 21
0.0
 31
0.0
210
0.0
220
0.0
230
1.0
 40
0.5773502691896261
 41
2.906299384212426
 42
6.518478576556955
  0
ELLIPSE
  5
7BBE
330
7B9A
100
AcDbEntity
  8
0
100
AcDbEllipse
 10
0.0
 20
-10.16611176015309
 30
0.0
 11
-1.038187463673701
 21
0.0
 31
0.0
210
0.0
220
0.0
230
1.0
 40
0.577350269189626
 41
0.1851882003449319
 42
2.956404453244857
  0
ELLIPSE
  5
7BBF
330
7B9A
100
AcDbEntity
  8
0
100
AcDbEllipse
 10
0.0
 20
-10.48006584605898
 30
0.0
 11
1.263561225477096
 21
0.0000000000000001
 31
0.0
210
0.0
220
0.0
230
1.0
 40
0.5773502691896257
 41
3.326780853934725
 42
6.097997106834651
  0
ELLIPSE
  5
7BC0
330
7B9A
100
AcDbEntity
  8
0
100
AcDbEllipse
 10
0.0
 20
-9.185586535436915
 30
0.0
 11
1.12324286657098
 21
0.0
 31
0.0
210
0.0
220
0.0
230
1.0
 40
0.5773502691896261
 41
2.906299384212423
 42
6.518478576556954
  0
ELLIPSE
  5
7BC1
330
7B9A
100
AcDbEntity
  8
0
100
AcDbEllipse
 10
0.0
 20
-9.145491033993433
 30
0.0
 11
-1.038187463673701
 21
0.0
 31
0.0
210
0.0
220
0.0
230
1.0
 40
0.577350269189626
 41
0.1851882003449341
 42
2.956404453244859
  0
ELLIPSE
  5
7BC2
330
7B9A
100
AcDbEntity
  8
0
100
AcDbEllipse
 10
0.0
 20
-9.459445119899324
 30
0.0
 11
1.263561225477096
 21
0.0000000000000001
 31
0.0
210
0.0
220
0.0
230
1.0
 40
0.5773502691896257
 41
3.326780853934727
 42
6.097997106834653
  0
ELLIPSE
  5
7BC3
330
7B9A
100
AcDbEntity
  8
0
100
AcDbEllipse
 10
0.0
 20
-8.164965809277259
 30
0.0
 11
1.12324286657098
 21
0.0
 31
0.0
210
0.0
220
0.0
230
1.0
 40
0.5773502691896261
 41
2.906299384212423
 42
6.518478576556954
  0
ELLIPSE
  5
7BC4
330
7B9A
100
AcDbEntity
  8
0
100
AcDbEllipse
 10
0.0
 20
-8.124870307833775
 30
0.0
 11
-1.038187463673701
 21
0.0
 31
0.0
210
0.0
220
0.0
230
1.0
 40
0.577350269189626
 41
0.1851882003449341
 42
2.956404453244859
  0
ELLIPSE
  5
7BC5
330
7B9A
100
AcDbEntity
  8
0
100
AcDbEllipse
 10
0.0
 20
-8.438824393739668
 30
0.0
 11
1.263561225477096
 21
0.0000000000000001
 31
0.0
210
0.0
220
0.0
230
1.0
 40
0.5773502691896257
 41
3.326780853934727
 42
6.097997106834653
  0
ELLIPSE
  5
7BC6
330
7B9A
100
AcDbEntity
  8
0
100
AcDbEllipse
 10
0.0
 20
-7.1443450831176
 30
0.0
 11
1.12324286657098
 21
0.0
 31
0.0
210
0.0
220
0.0
230
1.0
 40
0.5773502691896261
 41
2.906299384212423
 42
6.518478576556954
  0
ELLIPSE
  5
7BC7
330
7B9A
100
AcDbEntity
  8
0
100
AcDbEllipse
 10
0.0
 20
-7.104249581674118
 30
0.0
 11
-1.038187463673701
 21
0.0
 31
0.0
210
0.0
220
0.0
230
1.0
 40
0.577350269189626
 41
0.1851882003449341
 42
2.956404453244859
  0
ELLIPSE
  5
7BC8
330
7B9A
100
AcDbEntity
  8
0
100
AcDbEllipse
 10
0.0
 20
-7.41820366758001
 30
0.0
 11
1.263561225477096
 21
0.0000000000000001
 31
0.0
210
0.0
220
0.0
230
1.0
 40
0.5773502691896257
 41
3.326780853934727
 42
6.097997106834653
  0
ELLIPSE
  5
7BC9
330
7B9A
100
AcDbEntity
  8
0
100
AcDbEllipse
 10
0.0
 20
-6.123724356957942
 30
0.0
 11
1.12324286657098
 21
0.0
 31
0.0
210
0.0
220
0.0
230
1.0
 40
0.5773502691896261
 41
2.906299384212423
 42
6.518478576556954
  0
ELLIPSE
  5
7BCA
330
7B9A
100
AcDbEntity
  8
0
100
AcDbEllipse
 10
0.0
 20
-6.08362885551446
 30
0.0
 11
-1.038187463673701
 21
0.0
 31
0.0
210
0.0
220
0.0
230
1.0
 40
0.577350269189626
 41
0.1851882003449341
 42
2.956404453244859
  0
ELLIPSE
  5
7BCB
330
7B9A
100
AcDbEntity
  8
0
100
AcDbEllipse
 10
0.0
 20
-6.397582941420352
 30
0.0
 11
1.263561225477096
 21
0.0000000000000001
 31
0.0
210
0.0
220
0.0
230
1.0
 40
0.5773502691896257
 41
3.326780853934727
 42
6.097997106834653
  0
ELLIPSE
  5
7BCC
330
7B9A
100
AcDbEntity
  8
0
100
AcDbEllipse
 10
0.0
 20
-5.103103630798284
 30
0.0
 11
1.12324286657098
 21
0.0
 31
0.0
210
0.0
220
0.0
230
1.0
 40
0.5773502691896261
 41
2.906299384212423
 42
6.518478576556954
  0
ELLIPSE
  5
7BCD
330
7B9A
100
AcDbEntity
  8
0
100
AcDbEllipse
 10
0.0
 20
-5.063008129354802
 30
0.0
 11
-1.038187463673701
 21
0.0
 31
0.0
210
0.0
220
0.0
230
1.0
 40
0.577350269189626
 41
0.1851882003449341
 42
2.956404453244859
  0
ELLIPSE
  5
7BCE
330
7B9A
100
AcDbEntity
  8
0
100
AcDbEllipse
 10
0.0
 20
-5.376962215260694
 30
0.0
 11
1.263561225477096
 21
0.0000000000000001
 31
0.0
210
0.0
220
0.0
230
1.0
 40
0.5773502691896257
 41
3.326780853934727
 42
6.097997106834653
  0
ELLIPSE
  5
7BCF
330
7B9A
100
AcDbEntity
  8
0
100
AcDbEllipse
 10
0.0
 20
-4.082482904638626
 30
0.0
 11
1.12324286657098
 21
0.0
 31
0.0
210
0.0
220
0.0
230
1.0
 40
0.5773502691896261
 41
2.906299384212423
 42
6.518478576556954
  0
ELLIPSE
  5
7BD0
330
7B9A
100
AcDbEntity
  8
0
100
AcDbEllipse
 10
0.0
 20
-4.042387403195144
 30
0.0
 11
-1.038187463673701
 21
0.0
 31
0.0
210
0.0
220
0.0
230
1.0
 40
0.577350269189626
 41
0.1851882003449341
 42
2.956404453244859
  0
ELLIPSE
  5
7BD1
330
7B9A
100
AcDbEntity
  8
0
100
AcDbEllipse
 10
0.0
 20
-4.356341489101036
 30
0.0
 11
1.263561225477096
 21
0.0000000000000001
 31
0.0
210
0.0
220
0.0
230
1.0
 40
0.5773502691896257
 41
3.326780853934726
 42
6.097997106834652
  0
ELLIPSE
  5
7BD2
330
7B9A
100
AcDbEntity
  8
0
100
AcDbEllipse
 10
0.0
 20
-3.061862178478969
 30
0.0
 11
1.12324286657098
 21
0.0
 31
0.0
210
0.0
220
0.0
230
1.0
 40
0.5773502691896261
 41
2.906299384212423
 42
6.518478576556954
  0
ELLIPSE
  5
7BD3
330
7B9A
100
AcDbEntity
  8
0
100
AcDbEllipse
 10
0.0
 20
-3.021766677035486
 30
0.0
 11
-1.038187463673701
 21
0.0
 31
0.0
210
0.0
220
0.0
230
1.0
 40
0.577350269189626
 41
0.1851882003449341
 42
2.956404453244859
  0
ELLIPSE
  5
7BD4
330
7B9A
100
AcDbEntity
  8
0
100
AcDbEllipse
 10
0.0
 20
-3.335720762941378
 30
0.0
 11
1.263561225477096
 21
0.0000000000000001
 31
0.0
210
0.0
220
0.0
230
1.0
 40
0.5773502691896257
 41
3.326780853934726
 42
6.097997106834652
  0
ELLIPSE
  5
7BD5
330
7B9A
100
AcDbEntity
  8
0
100
AcDbEllipse
 10
0.0
 20
-2.041241452319311
 30
0.0
 11
1.12324286657098
 21
0.0
 31
0.0
210
0.0
220
0.0
230
1.0
 40
0.5773502691896261
 41
2.906299384212424
 42
6.518478576556955
  0
ELLIPSE
  5
7BD6
330
7B9A
100
AcDbEntity
  8
0
100
AcDbEllipse
 10
0.0
 20
-2.001145950875831
 30
0.0
 11
-1.038187463673701
 21
0.0
 31
0.0
210
0.0
220
0.0
230
1.0
 40
0.577350269189626
 41
0.1851882003449336
 42
2.956404453244859
  0
ELLIPSE
  5
7BD7
330
7B9A
100
AcDbEntity
  8
0
100
AcDbEllipse
 10
0.0
 20
-2.315100036781723
 30
0.0
 11
1.263561225477096
 21
0.0000000000000001
 31
0.0
210
0.0
220
0.0
230
1.0
 40
0.5773502691896257
 41
3.326780853934726
 42
6.097997106834651
  0
ELLIPSE
  5
7BD8
330
7B9A
100
AcDbEntity
  8
0
100
AcDbEllipse
 10
0.0
 20
-1.020620726159653
 30
0.0
 11
1.12324286657098
 21
0.0
 31
0.0
210
0.0
220
0.0
230
1.0
 40
0.5773502691896261
 41
2.906299384212424
 42
6.518478576556955
  0
ELLIPSE
  5
7BD9
330
7B9A
100
AcDbEntity
  8
0
100
AcDbEllipse
 10
0.0
 20
-0.9805252247161732
 30
0.0
 11
-1.038187463673701
 21
0.0
 31
0.0
210
0.0
220
0.0
230
1.0
 40
0.577350269189626
 41
0.1851882003449336
 42
2.956404453244859
  0
ELLIPSE
  5
7BDA
330
7B9A
100
AcDbEntity
  8
0
100
AcDbEllipse
 10
0.0
 20
-1.294479310622065
 30
0.0
 11
1.263561225477096
 21
0.0000000000000001
 31
0.0
210
0.0
220
0.0
230
1.0
 40
0.5773502691896257
 41
3.326780853934726
 42
6.097997106834651
  0
ELLIPSE
  5
7BDB
330
7B9A
100
AcDbEntity
  8
0
100
AcDbEllipse
 10
0.0
 20
0.0000000000000044
 30
0.0
 11
1.12324286657098
 21
0.0
 31
0.0
210
0.0
220
0.0
230
1.0
 40
0.5773502691896261
 41
2.906299384212424
 42
6.518478576556955
  0
ELLIPSE
  5
7BDC
330
7B9A
100
AcDbEntity
  8
0
100
AcDbEllipse
 10
0.0
 20
0.0400955014434845
 30
0.0
 11
-1.038187463673701
 21
0.0
 31
0.0
210
0.0
220
0.0
230
1.0
 40
0.577350269189626
 41
0.1851882003449336
 42
2.956404453244859
  0
ELLIPSE
  5
7BDD
330
7B9A
100
AcDbEntity
  8
0
100
AcDbEllipse
 10
0.0
 20
-0.2738585844624075
 30
0.0
 11
1.263561225477096
 21
0.0000000000000001
 31
0.0
210
0.0
220
0.0
230
1.0
 40
0.5773502691896257
 41
3.326780853934726
 42
6.097997106834652
  0
ELLIPSE
  5
7BDE
330
7B9A
100
AcDbEntity
  8
0
100
AcDbEllipse
 10
0.0
 20
1.02062072615966
 30
0.0
 11
1.12324286657098
 21
0.0
 31
0.0
210
0.0
220
0.0
230
1.0
 40
0.5773502691896261
 41
2.906299384212424
 42
6.518478576556955
  0
ELLIPSE
  5
7BDF
330
7B9A
100
AcDbEntity
  8
0
100
AcDbEllipse
 10
0.0
 20
1.060716227603142
 30
0.0
 11
-1.038187463673701
 21
0.0
 31
0.0
210
0.0
220
0.0
230
1.0
 40
0.577350269189626
 41
0.1851882003449336
 42
2.956404453244859
  0
ELLIPSE
  5
7BE0
330
7B9A
100
AcDbEntity
  8
0
100
AcDbEllipse
 10
0.0
 20
0.7467621416972503
 30
0.0
 11
1.263561225477096
 21
0.0000000000000001
 31
0.0
210
0.0
220
0.0
230
1.0
 40
0.5773502691896257
 41
3.326780853934726
 42
6.097997106834652
  0
ELLIPSE
  5
7BE1
330
7B9A
100
AcDbEntity
  8
0
100
AcDbEllipse
 10
0.0
 20
2.041241452319317
 30
0.0
 11
1.12324286657098
 21
0.0
 31
0.0
210
0.0
220
0.0
230
1.0
 40
0.5773502691896261
 41
2.906299384212424
 42
6.518478576556955
  0
ELLIPSE
  5
7BE2
330
7B9A
100
AcDbEntity
  8
0
100
AcDbEllipse
 10
0.0
 20
2.0813369537628
 30
0.0
 11
-1.038187463673701
 21
0.0
 31
0.0
210
0.0
220
0.0
230
1.0
 40
0.577350269189626
 41
0.1851882003449336
 42
2.956404453244859
  0
ELLIPSE
  5
7BE3
330
7B9A
100
AcDbEntity
  8
0
100
AcDbEllipse
 10
0.0
 20
1.767382867856908
 30
0.0
 11
1.263561225477096
 21
0.0000000000000001
 31
0.0
210
0.0
220
0.0
230
1.0
 40
0.5773502691896257
 41
3.326780853934726
 42
6.097997106834651
  0
ELLIPSE
  5
7BE4
330
7B9A
100
AcDbEntity
  8
0
100
AcDbEllipse
 10
0.0
 20
3.061862178478975
 30
0.0
 11
1.12324286657098
 21
0.0
 31
0.0
210
0.0
220
0.0
230
1.0
 40
0.5773502691896261
 41
2.906299384212423
 42
6.518478576556954
  0
ELLIPSE
  5
7BE5
330
7B9A
100
AcDbEntity
  8
0
100
AcDbEllipse
 10
0.0
 20
3.101957679922455
 30
0.0
 11
-1.038187463673701
 21
0.0
 31
0.0
210
0.0
220
0.0
230
1.0
 40
0.577350269189626
 41
0.1851882003449341
 42
2.956404453244859
  0
ELLIPSE
  5
7BE6
330
7B9A
100
AcDbEntity
  8
0
100
AcDbEllipse
 10
0.0
 20
2.788003594016565
 30
0.0
 11
1.263561225477096
 21
0.0000000000000001
 31
0.0
210
0.0
220
0.0
230
1.0
 40
0.5773502691896257
 41
3.326780853934726
 42
6.097997106834652
  0
ELLIPSE
  5
7BE7
330
7B9A
100
AcDbEntity
  8
0
100
AcDbEllipse
 10
0.0
 20
4.082482904638633
 30
0.0
 11
1.12324286657098
 21
0.0
 31
0.0
210
0.0
220
0.0
230
1.0
 40
0.5773502691896261
 41
2.906299384212423
 42
6.518478576556954
  0
ELLIPSE
  5
7BE8
330
7B9A
100
AcDbEntity
  8
0
100
AcDbEllipse
 10
0.0
 20
4.122578406082113
 30
0.0
 11
-1.038187463673701
 21
0.0
 31
0.0
210
0.0
220
0.0
230
1.0
 40
0.577350269189626
 41
0.1851882003449341
 42
2.956404453244859
  0
ELLIPSE
  5
7BE9
330
7B9A
100
AcDbEntity
  8
0
100
AcDbEllipse
 10
0.0
 20
3.808624320176223
 30
0.0
 11
1.263561225477096
 21
0.0000000000000001
 31
0.0
210
0.0
220
0.0
230
1.0
 40
0.5773502691896257
 41
3.326780853934726
 42
6.097997106834652
  0
ELLIPSE
  5
7BEA
330
7B9A
100
AcDbEntity
  8
0
100
AcDbEllipse
 10
0.0
 20
5.10310363079829
 30
0.0
 11
1.12324286657098
 21
0.0
 31
0.0
210
0.0
220
0.0
230
1.0
 40
0.5773502691896261
 41
2.906299384212423
 42
6.518478576556954
  0
ELLIPSE
  5
7BEB
330
7B9A
100
AcDbEntity
  8
0
100
AcDbEllipse
 10
0.0
 20
5.143199132241771
 30
0.0
 11
-1.038187463673701
 21
0.0
 31
0.0
210
0.0
220
0.0
230
1.0
 40
0.577350269189626
 41
0.1851882003449341
 42
2.956404453244859
  0
ELLIPSE
  5
7BEC
330
7B9A
100
AcDbEntity
  8
0
100
AcDbEllipse
 10
0.0
 20
4.829245046335879
 30
0.0
 11
1.263561225477096
 21
0.0000000000000001
 31
0.0
210
0.0
220
0.0
230
1.0
 40
0.5773502691896257
 41
3.326780853934726
 42
6.097997106834652
  0
ELLIPSE
  5
7BED
330
7B9A
100
AcDbEntity
  8
0
100
AcDbEllipse
 10
0.0
 20
6.123724356957948
 30
0.0
 11
1.12324286657098
 21
0.0
 31
0.0
210
0.0
220
0.0
230
1.0
 40
0.5773502691896261
 41
2.906299384212423
 42
6.518478576556954
  0
ELLIPSE
  5
7BEE
330
7B9A
100
AcDbEntity
  8
0
100
AcDbEllipse
 10
0.0
 20
6.163819858401429
 30
0.0
 11
-1.038187463673701
 21
0.0
 31
0.0
210
0.0
220
0.0
230
1.0
 40
0.577350269189626
 41
0.1851882003449341
 42
2.956404453244859
  0
ELLIPSE
  5
7BEF
330
7B9A
100
AcDbEntity
  8
0
100
AcDbEllipse
 10
0.0
 20
5.849865772495537
 30
0.0
 11
1.263561225477096
 21
0.0000000000000001
 31
0.0
210
0.0
220
0.0
230
1.0
 40
0.5773502691896257
 41
3.326780853934727
 42
6.097997106834653
  0
ELLIPSE
  5
7BF0
330
7B9A
100
AcDbEntity
  8
0
100
AcDbEllipse
 10
0.0
 20
7.144345083117606
 30
0.0
 11
1.12324286657098
 21
0.0
 31
0.0
210
0.0
220
0.0
230
1.0
 40
0.5773502691896261
 41
2.906299384212423
 42
6.518478576556954
  0
ELLIPSE
  5
7BF1
330
7B9A
100
AcDbEntity
  8
0
100
AcDbEllipse
 10
0.0
 20
7.184440584561087
 30
0.0
 11
-1.038187463673701
 21
0.0
 31
0.0
210
0.0
220
0.0
230
1.0
 40
0.577350269189626
 41
0.1851882003449341
 42
2.956404453244859
  0
ELLIPSE
  5
7BF2
330
7B9A
100
AcDbEntity
  8
0
100
AcDbEllipse
 10
0.0
 20
6.870486498655195
 30
0.0
 11
1.263561225477096
 21
0.0000000000000001
 31
0.0
210
0.0
220
0.0
230
1.0
 40
0.5773502691896257
 41
3.326780853934727
 42
6.097997106834653
  0
ELLIPSE
  5
7BF3
330
7B9A
100
AcDbEntity
  8
0
100
AcDbEllipse
 10
0.0
 20
8.164965809277264
 30
0.0
 11
1.12324286657098
 21
0.0
 31
0.0
210
0.0
220
0.0
230
1.0
 40
0.5773502691896261
 41
2.906299384212423
 42
6.518478576556954
  0
ELLIPSE
  5
7BF4
330
7B9A
100
AcDbEntity
  8
0
100
AcDbEllipse
 10
0.0
 20
8.205061310720743
 30
0.0
 11
-1.038187463673701
 21
0.0
 31
0.0
210
0.0
220
0.0
230
1.0
 40
0.577350269189626
 41
0.1851882003449341
 42
2.956404453244859
  0
ELLIPSE
  5
7BF5
330
7B9A
100
AcDbEntity
  8
0
100
AcDbEllipse
 10
0.0
 20
7.891107224814852
 30
0.0
 11
1.263561225477096
 21
0.0000000000000001
 31
0.0
210
0.0
220
0.0
230
1.0
 40
0.5773502691896257
 41
3.326780853934727
 42
6.097997106834653
  0
ELLIPSE
  5
7BF6
330
7B9A
100
AcDbEntity
  8
0
100
AcDbEllipse
 10
0.0
 20
8.91172795097451
 30
0.0
 11
1.263561225477096
 21
0.0000000000000001
 31
0.0
210
0.0
220
0.0
230
1.0
 40
0.5773502691896257
 41
3.326780853934727
 42
6.097997106834653
  0
SPLINE
  5
7BF7
330
7B9A
100
AcDbEntity
  8
0
100
AcDbSpline
210
0.0
220
0.0
230
1.0
 70
     8
 71
     3
 72
    10
 73
     6
 74
     0
 42
0.000000001
 43
0.0000000001
 40
2.54726688437152
 40
2.54726688437152
 40
2.54726688437152
 40
2.54726688437152
 40
2.792617652550308
 40
2.792617652550308
 40
2.795610429309345
 40
2.795610429309345
 40
2.795610429309345
 40
2.795610429309345
 10
-1.239990457196067
 20
-14.2988066468339
 30
0.0
 10
-1.212282565709273
 20
-14.21610498331263
 30
0.0
 10
-1.16870287349622
 20
-14.14078188230347
 30
0.0
 10
-1.114733038428175
 20
-14.07397596789905
 30
0.0
 10
-1.114081171909515
 20
-14.07317220750979
 30
0.0
 10
-1.113427835493923
 20
-14.07236976066014
 30
0.0
  0
SPLINE
  5
7BF8
330
7B9A
100
AcDbEntity
  8
0
100
AcDbSpline
210
0.0
220
0.0
230
1.0
 70
     8
 71
     3
 72
    10
 73
     6
 74
     0
 42
0.000000001
 43
0.0000000001
 40
5.058371204665138
 40
5.058371204665138
 40
5.058371204665138
 40
5.058371204665138
 40
5.217928795435516
 40
5.217928795435516
 40
5.306714749602966
 40
5.306714749602966
 40
5.306714749602966
 40
5.306714749602966
 10
1.113427835493923
 20
-14.07236976066014
 30
0.0
 10
1.148259963924364
 20
-14.11515159718162
 30
0.0
 10
1.17896028045403
 20
-14.16173671359825
 30
0.0
 10
1.217845056858303
 20
-14.23985105092473
 30
0.0
 10
1.22996370406265
 20
-14.26887910203151
 30
0.0
 10
1.239990457196068
 20
-14.2988066468339
 30
0.0
  0
SPLINE
  5
7BF9
330
7B9A
100
AcDbEntity
  8
0
100
AcDbSpline
210
0.0
220
0.0
230
1.0
 70
     8
 71
     3
 72
    12
 73
     8
 74
     0
 42
0.000000001
 43
0.0000000001
 40
2.171006289847392
 40
2.171006289847392
 40
2.171006289847392
 40
2.171006289847392
 40
2.415409818515468
 40
2.415409818515468
 40
2.646257521319924
 40
2.646257521319924
 40
2.795610429309345
 40
2.795610429309345
 40
2.795610429309345
 40
2.795610429309345
 10
-1.24195636844232
 20
-13.67625517420711
 30
0.0
 10
-1.268791143479482
 20
-13.59355255890012
 30
0.0
 10
-1.278954165393002
 20
-13.50381793405312
 30
0.0
 10
-1.261479953389702
 20
-13.33364330822408
 30
0.0
 10
-1.2362797850986
 20
-13.25367337414629
 30
0.0
 10
-1.175012041841632
 20
-13.13516366372897
 30
0.0
 10
-1.146032236496906
 20
-13.09179471119164
 30
0.0
 10
-1.113427835493923
 20
-13.05174903450048
 30
0.0
  0
SPLINE
  5
7BFA
330
7B9A
100
AcDbEntity
  8
0
100
AcDbSpline
210
0.0
220
0.0
230
1.0
 70
     8
 71
     3
 72
    12
 73
     8
 74
     0
 42
0.000000001
 43
0.0000000001
 40
5.058371204665138
 40
5.058371204665138
 40
5.058371204665138
 40
5.058371204665138
 40
5.336951236574329
 40
5.336951236574329
 40
5.57771454979084
 40
5.57771454979084
 40
5.68297534412709
 40
5.68297534412709
 40
5.68297534412709
 40
5.68297534412709
 10
1.113427835493923
 20
-13.05174903450048
 30
0.0
 10
1.174243089740158
 20
-13.12644410432289
 30
0.0
 10
1.222606416409753
 20
-13.21336823139956
 30
0.0
 10
1.272735034528153
 20
-13.39175988011731
 30
0.0
 10
1.279184372236283
 20
-13.48055338661678
 30
0.0
 10
1.262089464550065
 20
-13.60377424187937
 30
0.0
 10
1.253513688222602
 20
-13.64063644550732
 30
0.0
 10
1.24195636844232
 20
-13.67625517420711
 30
0.0
  0
LINE
  5
7BFB
330
7B9A
100
AcDbEntity
  8
0
100
AcDbLine
 10
-1.020436134117443
 20
-14.35896269445714
 30
0.0
 11
-1.241956368442333
 21
-13.6762551742071
 31
0.0
  0
LINE
  5
7BFC
330
7B9A
100
AcDbEntity
  8
0
100
AcDbLine
 10
1.020436134117443
 20
-14.35896269445714
 30
0.0
 11
1.241956368442333
 21
-13.6762551742071
 31
0.0
  0
SPLINE
  5
7BFD
330
7B9A
100
AcDbEntity
  8
0
100
AcDbSpline
210
0.0
220
0.0
230
1.0
 70
     8
 71
     3
 72
    12
 73
     8
 74
     0
 42
0.000000001
 43
0.0000000001
 40
2.171006289847392
 40
2.171006289847392
 40
2.171006289847392
 40
2.171006289847392
 40
2.415409818515468
 40
2.415409818515468
 40
2.646257521319924
 40
2.646257521319924
 40
2.795610429309345
 40
2.795610429309345
 40
2.795610429309345
 40
2.795610429309345
 10
-1.24195636844232
 20
-12.65563444804745
 30
0.0
 10
-1.268791143479482
 20
-12.57293183274046
 30
0.0
 10
-1.278954165393002
 20
-12.48319720789347
 30
0.0
 10
-1.261479953389702
 20
-12.31302258206442
 30
0.0
 10
-1.2362797850986
 20
-12.23305264798663
 30
0.0
 10
-1.175012041841632
 20
-12.11454293756931
 30
0.0
 10
-1.146032236496906
 20
-12.07117398503198
 30
0.0
 10
-1.113427835493923
 20
-12.03112830834083
 30
0.0
  0
SPLINE
  5
7BFE
330
7B9A
100
AcDbEntity
  8
0
100
AcDbSpline
210
0.0
220
0.0
230
1.0
 70
     8
 71
     3
 72
    12
 73
     8
 74
     0
 42
0.000000001
 43
0.0000000001
 40
5.058371204665138
 40
5.058371204665138
 40
5.058371204665138
 40
5.058371204665138
 40
5.336951236574329
 40
5.336951236574329
 40
5.57771454979084
 40
5.57771454979084
 40
5.68297534412709
 40
5.68297534412709
 40
5.68297534412709
 40
5.68297534412709
 10
1.113427835493923
 20
-12.03112830834082
 30
0.0
 10
1.174243089740158
 20
-12.10582337816323
 30
0.0
 10
1.222606416409753
 20
-12.19274750523991
 30
0.0
 10
1.272735034528153
 20
-12.37113915395765
 30
0.0
 10
1.279184372236283
 20
-12.45993266045712
 30
0.0
 10
1.262089464550065
 20
-12.58315351571971
 30
0.0
 10
1.253513688222602
 20
-12.62001571934766
 30
0.0
 10
1.24195636844232
 20
-12.65563444804745
 30
0.0
  0
LINE
  5
7BFF
330
7B9A
100
AcDbEntity
  8
0
100
AcDbLine
 10
-1.020436134117443
 20
-13.33834196829748
 30
0.0
 11
-1.241956368442333
 21
-12.65563444804744
 31
0.0
  0
LINE
  5
7C00
330
7B9A
100
AcDbEntity
  8
0
100
AcDbLine
 10
1.020436134117443
 20
-13.33834196829748
 30
0.0
 11
1.241956368442333
 21
-12.65563444804744
 31
0.0
  0
SPLINE
  5
7C01
330
7B9A
100
AcDbEntity
  8
0
100
AcDbSpline
210
0.0
220
0.0
230
1.0
 70
     8
 71
     3
 72
    12
 73
     8
 74
     0
 42
0.000000001
 43
0.0000000001
 40
2.171006289847392
 40
2.171006289847392
 40
2.171006289847392
 40
2.171006289847392
 40
2.415409818515468
 40
2.415409818515468
 40
2.646257521319924
 40
2.646257521319924
 40
2.795610429309345
 40
2.795610429309345
 40
2.795610429309345
 40
2.795610429309345
 10
-1.24195636844232
 20
-11.63501372188779
 30
0.0
 10
-1.268791143479482
 20
-11.5523111065808
 30
0.0
 10
-1.278954165393002
 20
-11.46257648173381
 30
0.0
 10
-1.261479953389702
 20
-11.29240185590476
 30
0.0
 10
-1.2362797850986
 20
-11.21243192182698
 30
0.0
 10
-1.175012041841632
 20
-11.09392221140965
 30
0.0
 10
-1.146032236496906
 20
-11.05055325887233
 30
0.0
 10
-1.113427835493923
 20
-11.01050758218117
 30
0.0
  0
SPLINE
  5
7C02
330
7B9A
100
AcDbEntity
  8
0
100
AcDbSpline
210
0.0
220
0.0
230
1.0
 70
     8
 71
     3
 72
    12
 73
     8
 74
     0
 42
0.000000001
 43
0.0000000001
 40
5.058371204665138
 40
5.058371204665138
 40
5.058371204665138
 40
5.058371204665138
 40
5.336951236574329
 40
5.336951236574329
 40
5.57771454979084
 40
5.57771454979084
 40
5.68297534412709
 40
5.68297534412709
 40
5.68297534412709
 40
5.68297534412709
 10
1.113427835493923
 20
-11.01050758218117
 30
0.0
 10
1.174243089740158
 20
-11.08520265200358
 30
0.0
 10
1.222606416409753
 20
-11.17212677908025
 30
0.0
 10
1.272735034528153
 20
-11.35051842779799
 30
0.0
 10
1.279184372236283
 20
-11.43931193429747
 30
0.0
 10
1.262089464550065
 20
-11.56253278956005
 30
0.0
 10
1.253513688222602
 20
-11.59939499318801
 30
0.0
 10
1.24195636844232
 20
-11.63501372188779
 30
0.0
  0
LINE
  5
7C03
330
7B9A
100
AcDbEntity
  8
0
100
AcDbLine
 10
-1.020436134117443
 20
-12.31772124213782
 30
0.0
 11
-1.241956368442333
 21
-11.63501372188778
 31
0.0
  0
LINE
  5
7C04
330
7B9A
100
AcDbEntity
  8
0
100
AcDbLine
 10
1.020436134117443
 20
-12.31772124213782
 30
0.0
 11
1.241956368442333
 21
-11.63501372188778
 31
0.0
  0
SPLINE
  5
7C05
330
7B9A
100
AcDbEntity
  8
0
100
AcDbSpline
210
0.0
220
0.0
230
1.0
 70
     8
 71
     3
 72
    12
 73
     8
 74
     0
 42
0.000000001
 43
0.0000000001
 40
2.171006289847392
 40
2.171006289847392
 40
2.171006289847392
 40
2.171006289847392
 40
2.415409818515468
 40
2.415409818515468
 40
2.646257521319924
 40
2.646257521319924
 40
2.795610429309345
 40
2.795610429309345
 40
2.795610429309345
 40
2.795610429309345
 10
-1.24195636844232
 20
-10.61439299572813
 30
0.0
 10
-1.268791143479482
 20
-10.53169038042114
 30
0.0
 10
-1.278954165393002
 20
-10.44195575557415
 30
0.0
 10
-1.261479953389702
 20
-10.27178112974511
 30
0.0
 10
-1.2362797850986
 20
-10.19181119566732
 30
0.0
 10
-1.175012041841632
 20
-10.07330148524999
 30
0.0
 10
-1.146032236496906
 20
-10.02993253271267
 30
0.0
 10
-1.113427835493923
 20
-9.989886856021513
 30
0.0
  0
SPLINE
  5
7C06
330
7B9A
100
AcDbEntity
  8
0
100
AcDbSpline
210
0.0
220
0.0
230
1.0
 70
     8
 71
     3
 72
    12
 73
     8
 74
     0
 42
0.000000001
 43
0.0000000001
 40
5.058371204665138
 40
5.058371204665138
 40
5.058371204665138
 40
5.058371204665138
 40
5.336951236574329
 40
5.336951236574329
 40
5.57771454979084
 40
5.57771454979084
 40
5.68297534412709
 40
5.68297534412709
 40
5.68297534412709
 40
5.68297534412709
 10
1.113427835493923
 20
-9.989886856021513
 30
0.0
 10
1.174243089740158
 20
-10.06458192584392
 30
0.0
 10
1.222606416409753
 20
-10.15150605292059
 30
0.0
 10
1.272735034528153
 20
-10.32989770163833
 30
0.0
 10
1.279184372236283
 20
-10.41869120813781
 30
0.0
 10
1.262089464550065
 20
-10.54191206340039
 30
0.0
 10
1.253513688222602
 20
-10.57877426702835
 30
0.0
 10
1.24195636844232
 20
-10.61439299572813
 30
0.0
  0
LINE
  5
7C07
330
7B9A
100
AcDbEntity
  8
0
100
AcDbLine
 10
-1.020436134117443
 20
-11.29710051597817
 30
0.0
 11
-1.241956368442333
 21
-10.61439299572813
 31
0.0
  0
LINE
  5
7C08
330
7B9A
100
AcDbEntity
  8
0
100
AcDbLine
 10
1.020436134117443
 20
-11.29710051597817
 30
0.0
 11
1.241956368442333
 21
-10.61439299572813
 31
0.0
  0
SPLINE
  5
7C09
330
7B9A
100
AcDbEntity
  8
0
100
AcDbSpline
210
0.0
220
0.0
230
1.0
 70
     8
 71
     3
 72
    12
 73
     8
 74
     0
 42
0.000000001
 43
0.0000000001
 40
2.171006289847392
 40
2.171006289847392
 40
2.171006289847392
 40
2.171006289847392
 40
2.415409818515468
 40
2.415409818515468
 40
2.646257521319924
 40
2.646257521319924
 40
2.795610429309345
 40
2.795610429309345
 40
2.795610429309345
 40
2.795610429309345
 10
-1.24195636844232
 20
-9.593772269568479
 30
0.0
 10
-1.268791143479482
 20
-9.511069654261486
 30
0.0
 10
-1.278954165393002
 20
-9.421335029414494
 30
0.0
 10
-1.261479953389702
 20
-9.251160403585449
 30
0.0
 10
-1.2362797850986
 20
-9.171190469507664
 30
0.0
 10
-1.175012041841632
 20
-9.052680759090335
 30
0.0
 10
-1.146032236496906
 20
-9.009311806553018
 30
0.0
 10
-1.113427835493923
 20
-8.969266129861853
 30
0.0
  0
SPLINE
  5
7C0A
330
7B9A
100
AcDbEntity
  8
0
100
AcDbSpline
210
0.0
220
0.0
230
1.0
 70
     8
 71
     3
 72
    12
 73
     8
 74
     0
 42
0.000000001
 43
0.0000000001
 40
5.058371204665138
 40
5.058371204665138
 40
5.058371204665138
 40
5.058371204665138
 40
5.336951236574329
 40
5.336951236574329
 40
5.57771454979084
 40
5.57771454979084
 40
5.68297534412709
 40
5.68297534412709
 40
5.68297534412709
 40
5.68297534412709
 10
1.113427835493923
 20
-8.96926612986185
 30
0.0
 10
1.174243089740158
 20
-9.043961199684261
 30
0.0
 10
1.222606416409753
 20
-9.130885326760935
 30
0.0
 10
1.272735034528153
 20
-9.309276975478679
 30
0.0
 10
1.279184372236283
 20
-9.398070481978152
 30
0.0
 10
1.262089464550065
 20
-9.521291337240738
 30
0.0
 10
1.253513688222602
 20
-9.558153540868691
 30
0.0
 10
1.24195636844232
 20
-9.593772269568479
 30
0.0
  0
LINE
  5
7C0B
330
7B9A
100
AcDbEntity
  8
0
100
AcDbLine
 10
-1.020436134117443
 20
-10.27647978981851
 30
0.0
 11
-1.241956368442333
 21
-9.59377226956847
 31
0.0
  0
LINE
  5
7C0C
330
7B9A
100
AcDbEntity
  8
0
100
AcDbLine
 10
1.020436134117443
 20
-10.27647978981851
 30
0.0
 11
1.241956368442333
 21
-9.59377226956847
 31
0.0
  0
SPLINE
  5
7C0D
330
7B9A
100
AcDbEntity
  8
0
100
AcDbSpline
210
0.0
220
0.0
230
1.0
 70
     8
 71
     3
 72
    12
 73
     8
 74
     0
 42
0.000000001
 43
0.0000000001
 40
2.171006289847392
 40
2.171006289847392
 40
2.171006289847392
 40
2.171006289847392
 40
2.415409818515468
 40
2.415409818515468
 40
2.646257521319924
 40
2.646257521319924
 40
2.795610429309345
 40
2.795610429309345
 40
2.795610429309345
 40
2.795610429309345
 10
-1.24195636844232
 20
-8.573151543408821
 30
0.0
 10
-1.268791143479482
 20
-8.490448928101827
 30
0.0
 10
-1.278954165393002
 20
-8.400714303254837
 30
0.0
 10
-1.261479953389702
 20
-8.230539677425792
 30
0.0
 10
-1.2362797850986
 20
-8.150569743348006
 30
0.0
 10
-1.175012041841632
 20
-8.032060032930683
 30
0.0
 10
-1.146032236496906
 20
-7.988691080393359
 30
0.0
 10
-1.113427835493923
 20
-7.948645403702196
 30
0.0
  0
SPLINE
  5
7C0E
330
7B9A
100
AcDbEntity
  8
0
100
AcDbSpline
210
0.0
220
0.0
230
1.0
 70
     8
 71
     3
 72
    12
 73
     8
 74
     0
 42
0.000000001
 43
0.0000000001
 40
5.058371204665138
 40
5.058371204665138
 40
5.058371204665138
 40
5.058371204665138
 40
5.336951236574329
 40
5.336951236574329
 40
5.57771454979084
 40
5.57771454979084
 40
5.68297534412709
 40
5.68297534412709
 40
5.68297534412709
 40
5.68297534412709
 10
1.113427835493923
 20
-7.948645403702192
 30
0.0
 10
1.174243089740158
 20
-8.023340473524601
 30
0.0
 10
1.222606416409753
 20
-8.110264600601277
 30
0.0
 10
1.272735034528153
 20
-8.288656249319021
 30
0.0
 10
1.279184372236283
 20
-8.377449755818492
 30
0.0
 10
1.262089464550065
 20
-8.50067061108108
 30
0.0
 10
1.253513688222602
 20
-8.537532814709031
 30
0.0
 10
1.24195636844232
 20
-8.573151543408821
 30
0.0
  0
LINE
  5
7C0F
330
7B9A
100
AcDbEntity
  8
0
100
AcDbLine
 10
-1.020436134117443
 20
-9.255859063658853
 30
0.0
 11
-1.241956368442333
 21
-8.573151543408812
 31
0.0
  0
LINE
  5
7C10
330
7B9A
100
AcDbEntity
  8
0
100
AcDbLine
 10
1.020436134117443
 20
-9.255859063658853
 30
0.0
 11
1.241956368442333
 21
-8.573151543408812
 31
0.0
  0
SPLINE
  5
7C11
330
7B9A
100
AcDbEntity
  8
0
100
AcDbSpline
210
0.0
220
0.0
230
1.0
 70
     8
 71
     3
 72
    12
 73
     8
 74
     0
 42
0.000000001
 43
0.0000000001
 40
2.171006289847392
 40
2.171006289847392
 40
2.171006289847392
 40
2.171006289847392
 40
2.415409818515468
 40
2.415409818515468
 40
2.646257521319924
 40
2.646257521319924
 40
2.795610429309345
 40
2.795610429309345
 40
2.795610429309345
 40
2.795610429309345
 10
-1.24195636844232
 20
-7.552530817249163
 30
0.0
 10
-1.268791143479482
 20
-7.46982820194217
 30
0.0
 10
-1.278954165393002
 20
-7.380093577095183
 30
0.0
 10
-1.261479953389702
 20
-7.209918951266134
 30
0.0
 10
-1.2362797850986
 20
-7.129949017188348
 30
0.0
 10
-1.175012041841632
 20
-7.011439306771025
 30
0.0
 10
-1.146032236496906
 20
-6.968070354233701
 30
0.0
 10
-1.113427835493923
 20
-6.928024677542539
 30
0.0
  0
SPLINE
  5
7C12
330
7B9A
100
AcDbEntity
  8
0
100
AcDbSpline
210
0.0
220
0.0
230
1.0
 70
     8
 71
     3
 72
    12
 73
     8
 74
     0
 42
0.000000001
 43
0.0000000001
 40
5.058371204665138
 40
5.058371204665138
 40
5.058371204665138
 40
5.058371204665138
 40
5.336951236574329
 40
5.336951236574329
 40
5.57771454979084
 40
5.57771454979084
 40
5.68297534412709
 40
5.68297534412709
 40
5.68297534412709
 40
5.68297534412709
 10
1.113427835493923
 20
-6.928024677542539
 30
0.0
 10
1.174243089740158
 20
-7.002719747364949
 30
0.0
 10
1.222606416409753
 20
-7.08964387444162
 30
0.0
 10
1.272735034528153
 20
-7.268035523159364
 30
0.0
 10
1.279184372236283
 20
-7.356829029658835
 30
0.0
 10
1.262089464550065
 20
-7.480049884921426
 30
0.0
 10
1.253513688222602
 20
-7.516912088549378
 30
0.0
 10
1.24195636844232
 20
-7.552530817249163
 30
0.0
  0
LINE
  5
7C13
330
7B9A
100
AcDbEntity
  8
0
100
AcDbLine
 10
-1.020436134117443
 20
-8.235238337499195
 30
0.0
 11
-1.241956368442333
 21
-7.552530817249154
 31
0.0
  0
LINE
  5
7C14
330
7B9A
100
AcDbEntity
  8
0
100
AcDbLine
 10
1.020436134117443
 20
-8.235238337499195
 30
0.0
 11
1.241956368442333
 21
-7.552530817249154
 31
0.0
  0
SPLINE
  5
7C15
330
7B9A
100
AcDbEntity
  8
0
100
AcDbSpline
210
0.0
220
0.0
230
1.0
 70
     8
 71
     3
 72
    12
 73
     8
 74
     0
 42
0.000000001
 43
0.0000000001
 40
2.171006289847392
 40
2.171006289847392
 40
2.171006289847392
 40
2.171006289847392
 40
2.415409818515468
 40
2.415409818515468
 40
2.646257521319924
 40
2.646257521319924
 40
2.795610429309345
 40
2.795610429309345
 40
2.795610429309345
 40
2.795610429309345
 10
-1.24195636844232
 20
-6.531910091089505
 30
0.0
 10
-1.268791143479482
 20
-6.449207475782512
 30
0.0
 10
-1.278954165393002
 20
-6.359472850935525
 30
0.0
 10
-1.261479953389702
 20
-6.189298225106476
 30
0.0
 10
-1.2362797850986
 20
-6.10932829102869
 30
0.0
 10
-1.175012041841632
 20
-5.990818580611367
 30
0.0
 10
-1.146032236496906
 20
-5.947449628074044
 30
0.0
 10
-1.113427835493923
 20
-5.907403951382881
 30
0.0
  0
SPLINE
  5
7C16
330
7B9A
100
AcDbEntity
  8
0
100
AcDbSpline
210
0.0
220
0.0
230
1.0
 70
     8
 71
     3
 72
    12
 73
     8
 74
     0
 42
0.000000001
 43
0.0000000001
 40
5.058371204665138
 40
5.058371204665138
 40
5.058371204665138
 40
5.058371204665138
 40
5.336951236574329
 40
5.336951236574329
 40
5.57771454979084
 40
5.57771454979084
 40
5.68297534412709
 40
5.68297534412709
 40
5.68297534412709
 40
5.68297534412709
 10
1.113427835493923
 20
-5.907403951382881
 30
0.0
 10
1.174243089740158
 20
-5.982099021205291
 30
0.0
 10
1.222606416409753
 20
-6.069023148281962
 30
0.0
 10
1.272735034528153
 20
-6.247414796999706
 30
0.0
 10
1.279184372236283
 20
-6.336208303499177
 30
0.0
 10
1.262089464550065
 20
-6.459429158761769
 30
0.0
 10
1.253513688222602
 20
-6.496291362389721
 30
0.0
 10
1.24195636844232
 20
-6.531910091089505
 30
0.0
  0
LINE
  5
7C17
330
7B9A
100
AcDbEntity
  8
0
100
AcDbLine
 10
-1.020436134117443
 20
-7.214617611339537
 30
0.0
 11
-1.241956368442333
 21
-6.531910091089496
 31
0.0
  0
LINE
  5
7C18
330
7B9A
100
AcDbEntity
  8
0
100
AcDbLine
 10
1.020436134117443
 20
-7.214617611339537
 30
0.0
 11
1.241956368442333
 21
-6.531910091089496
 31
0.0
  0
SPLINE
  5
7C19
330
7B9A
100
AcDbEntity
  8
0
100
AcDbSpline
210
0.0
220
0.0
230
1.0
 70
     8
 71
     3
 72
    12
 73
     8
 74
     0
 42
0.000000001
 43
0.0000000001
 40
2.171006289847392
 40
2.171006289847392
 40
2.171006289847392
 40
2.171006289847392
 40
2.415409818515468
 40
2.415409818515468
 40
2.646257521319924
 40
2.646257521319924
 40
2.795610429309345
 40
2.795610429309345
 40
2.795610429309345
 40
2.795610429309345
 10
-1.24195636844232
 20
-5.511289364929847
 30
0.0
 10
-1.268791143479482
 20
-5.428586749622854
 30
0.0
 10
-1.278954165393002
 20
-5.338852124775868
 30
0.0
 10
-1.261479953389702
 20
-5.168677498946818
 30
0.0
 10
-1.2362797850986
 20
-5.088707564869032
 30
0.0
 10
-1.175012041841632
 20
-4.97019785445171
 30
0.0
 10
-1.146032236496906
 20
-4.926828901914386
 30
0.0
 10
-1.113427835493923
 20
-4.886783225223227
 30
0.0
  0
SPLINE
  5
7C1A
330
7B9A
100
AcDbEntity
  8
0
100
AcDbSpline
210
0.0
220
0.0
230
1.0
 70
     8
 71
     3
 72
    12
 73
     8
 74
     0
 42
0.000000001
 43
0.0000000001
 40
5.058371204665138
 40
5.058371204665138
 40
5.058371204665138
 40
5.058371204665138
 40
5.336951236574329
 40
5.336951236574329
 40
5.57771454979084
 40
5.57771454979084
 40
5.68297534412709
 40
5.68297534412709
 40
5.68297534412709
 40
5.68297534412709
 10
1.113427835493923
 20
-4.886783225223219
 30
0.0
 10
1.174243089740158
 20
-4.961478295045633
 30
0.0
 10
1.222606416409753
 20
-5.048402422122304
 30
0.0
 10
1.272735034528153
 20
-5.226794070840048
 30
0.0
 10
1.279184372236283
 20
-5.31558757733952
 30
0.0
 10
1.262089464550065
 20
-5.438808432602111
 30
0.0
 10
1.253513688222602
 20
-5.475670636230063
 30
0.0
 10
1.24195636844232
 20
-5.511289364929847
 30
0.0
  0
LINE
  5
7C1B
330
7B9A
100
AcDbEntity
  8
0
100
AcDbLine
 10
-1.020436134117443
 20
-6.193996885179879
 30
0.0
 11
-1.241956368442333
 21
-5.511289364929838
 31
0.0
  0
LINE
  5
7C1C
330
7B9A
100
AcDbEntity
  8
0
100
AcDbLine
 10
1.020436134117443
 20
-6.193996885179879
 30
0.0
 11
1.241956368442333
 21
-5.511289364929838
 31
0.0
  0
SPLINE
  5
7C1D
330
7B9A
100
AcDbEntity
  8
0
100
AcDbSpline
210
0.0
220
0.0
230
1.0
 70
     8
 71
     3
 72
    12
 73
     8
 74
     0
 42
0.000000001
 43
0.0000000001
 40
2.171006289847392
 40
2.171006289847392
 40
2.171006289847392
 40
2.171006289847392
 40
2.415409818515468
 40
2.415409818515468
 40
2.646257521319924
 40
2.646257521319924
 40
2.795610429309345
 40
2.795610429309345
 40
2.795610429309345
 40
2.795610429309345
 10
-1.24195636844232
 20
-4.490668638770189
 30
0.0
 10
-1.268791143479482
 20
-4.407966023463201
 30
0.0
 10
-1.278954165393002
 20
-4.31823139861621
 30
0.0
 10
-1.261479953389702
 20
-4.14805677278716
 30
0.0
 10
-1.2362797850986
 20
-4.068086838709374
 30
0.0
 10
-1.175012041841632
 20
-3.949577128292052
 30
0.0
 10
-1.146032236496906
 20
-3.906208175754728
 30
0.0
 10
-1.113427835493923
 20
-3.86616249906357
 30
0.0
  0
SPLINE
  5
7C1E
330
7B9A
100
AcDbEntity
  8
0
100
AcDbSpline
210
0.0
220
0.0
230
1.0
 70
     8
 71
     3
 72
    12
 73
     8
 74
     0
 42
0.000000001
 43
0.0000000001
 40
5.058371204665138
 40
5.058371204665138
 40
5.058371204665138
 40
5.058371204665138
 40
5.336951236574329
 40
5.336951236574329
 40
5.57771454979084
 40
5.57771454979084
 40
5.68297534412709
 40
5.68297534412709
 40
5.68297534412709
 40
5.68297534412709
 10
1.113427835493923
 20
-3.866162499063565
 30
0.0
 10
1.174243089740158
 20
-3.940857568885975
 30
0.0
 10
1.222606416409753
 20
-4.027781695962646
 30
0.0
 10
1.272735034528153
 20
-4.20617334468039
 30
0.0
 10
1.279184372236283
 20
-4.294966851179862
 30
0.0
 10
1.262089464550065
 20
-4.418187706442453
 30
0.0
 10
1.253513688222602
 20
-4.455049910070405
 30
0.0
 10
1.24195636844232
 20
-4.490668638770189
 30
0.0
  0
LINE
  5
7C1F
330
7B9A
100
AcDbEntity
  8
0
100
AcDbLine
 10
-1.020436134117443
 20
-5.173376159020222
 30
0.0
 11
-1.241956368442333
 21
-4.490668638770181
 31
0.0
  0
LINE
  5
7C20
330
7B9A
100
AcDbEntity
  8
0
100
AcDbLine
 10
1.020436134117443
 20
-5.173376159020222
 30
0.0
 11
1.241956368442333
 21
-4.490668638770181
 31
0.0
  0
SPLINE
  5
7C21
330
7B9A
100
AcDbEntity
  8
0
100
AcDbSpline
210
0.0
220
0.0
230
1.0
 70
     8
 71
     3
 72
    12
 73
     8
 74
     0
 42
0.000000001
 43
0.0000000001
 40
2.171006289847392
 40
2.171006289847392
 40
2.171006289847392
 40
2.171006289847392
 40
2.415409818515468
 40
2.415409818515468
 40
2.646257521319924
 40
2.646257521319924
 40
2.795610429309345
 40
2.795610429309345
 40
2.795610429309345
 40
2.795610429309345
 10
-1.24195636844232
 20
-3.470047912610532
 30
0.0
 10
-1.268791143479482
 20
-3.387345297303543
 30
0.0
 10
-1.278954165393002
 20
-3.297610672456552
 30
0.0
 10
-1.261479953389702
 20
-3.127436046627503
 30
0.0
 10
-1.2362797850986
 20
-3.047466112549717
 30
0.0
 10
-1.175012041841632
 20
-2.928956402132394
 30
0.0
 10
-1.146032236496906
 20
-2.88558744959507
 30
0.0
 10
-1.113427835493923
 20
-2.845541772903907
 30
0.0
  0
SPLINE
  5
7C22
330
7B9A
100
AcDbEntity
  8
0
100
AcDbSpline
210
0.0
220
0.0
230
1.0
 70
     8
 71
     3
 72
    12
 73
     8
 74
     0
 42
0.000000001
 43
0.0000000001
 40
5.058371204665138
 40
5.058371204665138
 40
5.058371204665138
 40
5.058371204665138
 40
5.336951236574329
 40
5.336951236574329
 40
5.57771454979084
 40
5.57771454979084
 40
5.68297534412709
 40
5.68297534412709
 40
5.68297534412709
 40
5.68297534412709
 10
1.113427835493923
 20
-2.845541772903907
 30
0.0
 10
1.174243089740158
 20
-2.920236842726318
 30
0.0
 10
1.222606416409753
 20
-3.007160969802988
 30
0.0
 10
1.272735034528153
 20
-3.185552618520732
 30
0.0
 10
1.279184372236283
 20
-3.274346125020204
 30
0.0
 10
1.262089464550065
 20
-3.397566980282795
 30
0.0
 10
1.253513688222602
 20
-3.434429183910747
 30
0.0
 10
1.24195636844232
 20
-3.470047912610532
 30
0.0
  0
LINE
  5
7C23
330
7B9A
100
AcDbEntity
  8
0
100
AcDbLine
 10
-1.020436134117443
 20
-4.152755432860564
 30
0.0
 11
-1.241956368442333
 21
-3.470047912610523
 31
0.0
  0
LINE
  5
7C24
330
7B9A
100
AcDbEntity
  8
0
100
AcDbLine
 10
1.020436134117443
 20
-4.152755432860564
 30
0.0
 11
1.241956368442333
 21
-3.470047912610523
 31
0.0
  0
SPLINE
  5
7C25
330
7B9A
100
AcDbEntity
  8
0
100
AcDbSpline
210
0.0
220
0.0
230
1.0
 70
     8
 71
     3
 72
    12
 73
     8
 74
     0
 42
0.000000001
 43
0.0000000001
 40
2.171006289847392
 40
2.171006289847392
 40
2.171006289847392
 40
2.171006289847392
 40
2.415409818515468
 40
2.415409818515468
 40
2.646257521319924
 40
2.646257521319924
 40
2.795610429309345
 40
2.795610429309345
 40
2.795610429309345
 40
2.795610429309345
 10
-1.24195636844232
 20
-2.449427186450876
 30
0.0
 10
-1.268791143479482
 20
-2.366724571143883
 30
0.0
 10
-1.278954165393002
 20
-2.276989946296892
 30
0.0
 10
-1.261479953389702
 20
-2.106815320467847
 30
0.0
 10
-1.2362797850986
 20
-2.026845386390061
 30
0.0
 10
-1.175012041841632
 20
-1.908335675972738
 30
0.0
 10
-1.146032236496906
 20
-1.864966723435415
 30
0.0
 10
-1.113427835493923
 20
-1.82492104674425
 30
0.0
  0
SPLINE
  5
7C26
330
7B9A
100
AcDbEntity
  8
0
100
AcDbSpline
210
0.0
220
0.0
230
1.0
 70
     8
 71
     3
 72
    12
 73
     8
 74
     0
 42
0.000000001
 43
0.0000000001
 40
5.058371204665138
 40
5.058371204665138
 40
5.058371204665138
 40
5.058371204665138
 40
5.336951236574329
 40
5.336951236574329
 40
5.57771454979084
 40
5.57771454979084
 40
5.68297534412709
 40
5.68297534412709
 40
5.68297534412709
 40
5.68297534412709
 10
1.113427835493923
 20
-1.82492104674425
 30
0.0
 10
1.174243089740158
 20
-1.899616116566658
 30
0.0
 10
1.222606416409753
 20
-1.986540243643331
 30
0.0
 10
1.272735034528153
 20
-2.164931892361074
 30
0.0
 10
1.279184372236283
 20
-2.253725398860548
 30
0.0
 10
1.262089464550065
 20
-2.376946254123137
 30
0.0
 10
1.253513688222602
 20
-2.413808457751089
 30
0.0
 10
1.24195636844232
 20
-2.449427186450876
 30
0.0
  0
LINE
  5
7C27
330
7B9A
100
AcDbEntity
  8
0
100
AcDbLine
 10
-1.020436134117443
 20
-3.132134706700906
 30
0.0
 11
-1.241956368442333
 21
-2.449427186450869
 31
0.0
  0
LINE
  5
7C28
330
7B9A
100
AcDbEntity
  8
0
100
AcDbLine
 10
1.020436134117443
 20
-3.132134706700906
 30
0.0
 11
1.241956368442333
 21
-2.449427186450869
 31
0.0
  0
SPLINE
  5
7C29
330
7B9A
100
AcDbEntity
  8
0
100
AcDbSpline
210
0.0
220
0.0
230
1.0
 70
     8
 71
     3
 72
    12
 73
     8
 74
     0
 42
0.000000001
 43
0.0000000001
 40
2.171006289847392
 40
2.171006289847392
 40
2.171006289847392
 40
2.171006289847392
 40
2.415409818515468
 40
2.415409818515468
 40
2.646257521319924
 40
2.646257521319924
 40
2.795610429309345
 40
2.795610429309345
 40
2.795610429309345
 40
2.795610429309345
 10
-1.24195636844232
 20
-1.428806460291218
 30
0.0
 10
-1.268791143479482
 20
-1.346103844984225
 30
0.0
 10
-1.278954165393002
 20
-1.256369220137234
 30
0.0
 10
-1.261479953389702
 20
-1.086194594308189
 30
0.0
 10
-1.2362797850986
 20
-1.006224660230405
 30
0.0
 10
-1.175012041841632
 20
-0.8877149498130808
 30
0.0
 10
-1.146032236496906
 20
-0.8443459972757572
 30
0.0
 10
-1.113427835493923
 20
-0.8043003205845922
 30
0.0
  0
SPLINE
  5
7C2A
330
7B9A
100
AcDbEntity
  8
0
100
AcDbSpline
210
0.0
220
0.0
230
1.0
 70
     8
 71
     3
 72
    12
 73
     8
 74
     0
 42
0.000000001
 43
0.0000000001
 40
5.058371204665138
 40
5.058371204665138
 40
5.058371204665138
 40
5.058371204665138
 40
5.336951236574329
 40
5.336951236574329
 40
5.57771454979084
 40
5.57771454979084
 40
5.68297534412709
 40
5.68297534412709
 40
5.68297534412709
 40
5.68297534412709
 10
1.113427835493923
 20
-0.8043003205845922
 30
0.0
 10
1.174243089740158
 20
-0.8789953904070003
 30
0.0
 10
1.222606416409753
 20
-0.9659195174836753
 30
0.0
 10
1.272735034528153
 20
-1.144311166201417
 30
0.0
 10
1.279184372236283
 20
-1.23310467270089
 30
0.0
 10
1.262089464550065
 20
-1.35632552796348
 30
0.0
 10
1.253513688222602
 20
-1.393187731591432
 30
0.0
 10
1.24195636844232
 20
-1.428806460291218
 30
0.0
  0
LINE
  5
7C2B
330
7B9A
100
AcDbEntity
  8
0
100
AcDbLine
 10
-1.020436134117443
 20
-2.111513980541248
 30
0.0
 11
-1.241956368442333
 21
-1.428806460291212
 31
0.0
  0
LINE
  5
7C2C
330
7B9A
100
AcDbEntity
  8
0
100
AcDbLine
 10
1.020436134117443
 20
-2.111513980541248
 30
0.0
 11
1.241956368442333
 21
-1.428806460291212
 31
0.0
  0
SPLINE
  5
7C2D
330
7B9A
100
AcDbEntity
  8
0
100
AcDbSpline
210
0.0
220
0.0
230
1.0
 70
     8
 71
     3
 72
    12
 73
     8
 74
     0
 42
0.000000001
 43
0.0000000001
 40
2.171006289847392
 40
2.171006289847392
 40
2.171006289847392
 40
2.171006289847392
 40
2.415409818515468
 40
2.415409818515468
 40
2.646257521319924
 40
2.646257521319924
 40
2.795610429309345
 40
2.795610429309345
 40
2.795610429309345
 40
2.795610429309345
 10
-1.24195636844232
 20
-0.4081857341315609
 30
0.0
 10
-1.268791143479482
 20
-0.3254831188245699
 30
0.0
 10
-1.278954165393002
 20
-0.2357484939775767
 30
0.0
 10
-1.261479953389702
 20
-0.0655738681485318
 30
0.0
 10
-1.2362797850986
 20
0.0143960659292519
 30
0.0
 10
-1.175012041841632
 20
0.1329057763465768
 30
0.0
 10
-1.146032236496906
 20
0.1762747288839006
 30
0.0
 10
-1.113427835493923
 20
0.2163204055750634
 30
0.0
  0
SPLINE
  5
7C2E
330
7B9A
100
AcDbEntity
  8
0
100
AcDbSpline
210
0.0
220
0.0
230
1.0
 70
     8
 71
     3
 72
    12
 73
     8
 74
     0
 42
0.000000001
 43
0.0000000001
 40
5.058371204665138
 40
5.058371204665138
 40
5.058371204665138
 40
5.058371204665138
 40
5.336951236574329
 40
5.336951236574329
 40
5.57771454979084
 40
5.57771454979084
 40
5.68297534412709
 40
5.68297534412709
 40
5.68297534412709
 40
5.68297534412709
 10
1.113427835493923
 20
0.2163204055750612
 30
0.0
 10
1.174243089740158
 20
0.1416253357526576
 30
0.0
 10
1.222606416409753
 20
0.0547012086759824
 30
0.0
 10
1.272735034528153
 20
-0.1236904400417593
 30
0.0
 10
1.279184372236283
 20
-0.2124839465412331
 30
0.0
 10
1.262089464550065
 20
-0.3357048018038222
 30
0.0
 10
1.253513688222602
 20
-0.3725670054317742
 30
0.0
 10
1.24195636844232
 20
-0.4081857341315609
 30
0.0
  0
LINE
  5
7C2F
330
7B9A
100
AcDbEntity
  8
0
100
AcDbLine
 10
-1.020436134117443
 20
-1.09089325438159
 30
0.0
 11
-1.241956368442333
 21
-0.4081857341315543
 31
0.0
  0
LINE
  5
7C30
330
7B9A
100
AcDbEntity
  8
0
100
AcDbLine
 10
1.020436134117443
 20
-1.09089325438159
 30
0.0
 11
1.241956368442333
 21
-0.4081857341315543
 31
0.0
  0
SPLINE
  5
7C31
330
7B9A
100
AcDbEntity
  8
0
100
AcDbSpline
210
0.0
220
0.0
230
1.0
 70
     8
 71
     3
 72
    12
 73
     8
 74
     0
 42
0.000000001
 43
0.0000000001
 40
2.171006289847392
 40
2.171006289847392
 40
2.171006289847392
 40
2.171006289847392
 40
2.415409818515468
 40
2.415409818515468
 40
2.646257521319924
 40
2.646257521319924
 40
2.795610429309345
 40
2.795610429309345
 40
2.795610429309345
 40
2.795610429309345
 10
-1.24195636844232
 20
0.612434992028097
 30
0.0
 10
-1.268791143479482
 20
0.6951376073350879
 30
0.0
 10
-1.278954165393002
 20
0.7848722321820812
 30
0.0
 10
-1.261479953389702
 20
0.955046858011126
 30
0.0
 10
-1.2362797850986
 20
1.035016792088909
 30
0.0
 10
-1.175012041841632
 20
1.153526502506234
 30
0.0
 10
-1.146032236496906
 20
1.196895455043558
 30
0.0
 10
-1.113427835493923
 20
1.236941131734721
 30
0.0
  0
SPLINE
  5
7C32
330
7B9A
100
AcDbEntity
  8
0
100
AcDbSpline
210
0.0
220
0.0
230
1.0
 70
     8
 71
     3
 72
    12
 73
     8
 74
     0
 42
0.000000001
 43
0.0000000001
 40
5.058371204665138
 40
5.058371204665138
 40
5.058371204665138
 40
5.058371204665138
 40
5.336951236574329
 40
5.336951236574329
 40
5.57771454979084
 40
5.57771454979084
 40
5.68297534412709
 40
5.68297534412709
 40
5.68297534412709
 40
5.68297534412709
 10
1.113427835493923
 20
1.236941131734718
 30
0.0
 10
1.174243089740158
 20
1.162246061912315
 30
0.0
 10
1.222606416409753
 20
1.07532193483564
 30
0.0
 10
1.272735034528153
 20
0.8969302861178984
 30
0.0
 10
1.279184372236283
 20
0.8081367796184245
 30
0.0
 10
1.262089464550065
 20
0.6849159243558356
 30
0.0
 10
1.253513688222602
 20
0.6480537207278836
 30
0.0
 10
1.24195636844232
 20
0.612434992028097
 30
0.0
  0
LINE
  5
7C33
330
7B9A
100
AcDbEntity
  8
0
100
AcDbLine
 10
-1.020436134117443
 20
-0.070272528221933
 30
0.0
 11
-1.241956368442333
 21
0.6124349920281036
 31
0.0
  0
LINE
  5
7C34
330
7B9A
100
AcDbEntity
  8
0
100
AcDbLine
 10
1.020436134117443
 20
-0.070272528221933
 30
0.0
 11
1.241956368442333
 21
0.6124349920281036
 31
0.0
  0
SPLINE
  5
7C35
330
7B9A
100
AcDbEntity
  8
0
100
AcDbSpline
210
0.0
220
0.0
230
1.0
 70
     8
 71
     3
 72
    12
 73
     8
 74
     0
 42
0.000000001
 43
0.0000000001
 40
2.171006289847391
 40
2.171006289847391
 40
2.171006289847391
 40
2.171006289847391
 40
2.415409818515467
 40
2.415409818515467
 40
2.646257521319923
 40
2.646257521319923
 40
2.795610429309344
 40
2.795610429309344
 40
2.795610429309344
 40
2.795610429309344
 10
-1.24195636844232
 20
1.63305571818775
 30
0.0
 10
-1.268791143479481
 20
1.715758333494741
 30
0.0
 10
-1.278954165393002
 20
1.805492958341734
 30
0.0
 10
-1.261479953389703
 20
1.975667584170779
 30
0.0
 10
-1.236279785098601
 20
2.055637518248569
 30
0.0
 10
-1.175012041841632
 20
2.174147228665892
 30
0.0
 10
-1.146032236496907
 20
2.217516181203216
 30
0.0
 10
-1.113427835493923
 20
2.257561857894381
 30
0.0
  0
SPLINE
  5
7C36
330
7B9A
100
AcDbEntity
  8
0
100
AcDbSpline
210
0.0
220
0.0
230
1.0
 70
     8
 71
     3
 72
    12
 73
     8
 74
     0
 42
0.000000001
 43
0.0000000001
 40
5.058371204665138
 40
5.058371204665138
 40
5.058371204665138
 40
5.058371204665138
 40
5.336951236574329
 40
5.336951236574329
 40
5.577714549790839
 40
5.577714549790839
 40
5.682975344127092
 40
5.682975344127092
 40
5.682975344127092
 40
5.682975344127092
 10
1.113427835493923
 20
2.257561857894381
 30
0.0
 10
1.174243089740158
 20
2.182866788071975
 30
0.0
 10
1.222606416409753
 20
2.095942660995302
 30
0.0
 10
1.272735034528153
 20
1.917551012277556
 30
0.0
 10
1.279184372236283
 20
1.828757505778082
 30
0.0
 10
1.262089464550065
 20
1.705536650515495
 30
0.0
 10
1.253513688222601
 20
1.668674446887541
 30
0.0
 10
1.24195636844232
 20
1.63305571818775
 30
0.0
  0
LINE
  5
7C37
330
7B9A
100
AcDbEntity
  8
0
100
AcDbLine
 10
-1.020436134117443
 20
0.9503481979377248
 30
0.0
 11
-1.241956368442333
 21
1.633055718187761
 31
0.0
  0
LINE
  5
7C38
330
7B9A
100
AcDbEntity
  8
0
100
AcDbLine
 10
1.020436134117443
 20
0.9503481979377248
 30
0.0
 11
1.241956368442333
 21
1.633055718187761
 31
0.0
  0
SPLINE
  5
7C39
330
7B9A
100
AcDbEntity
  8
0
100
AcDbSpline
210
0.0
220
0.0
230
1.0
 70
     8
 71
     3
 72
    12
 73
     8
 74
     0
 42
0.000000001
 43
0.0000000001
 40
2.171006289847391
 40
2.171006289847391
 40
2.171006289847391
 40
2.171006289847391
 40
2.415409818515467
 40
2.415409818515467
 40
2.646257521319923
 40
2.646257521319923
 40
2.795610429309344
 40
2.795610429309344
 40
2.795610429309344
 40
2.795610429309344
 10
-1.24195636844232
 20
2.653676444347408
 30
0.0
 10
-1.268791143479481
 20
2.736379059654399
 30
0.0
 10
-1.278954165393002
 20
2.826113684501392
 30
0.0
 10
-1.261479953389703
 20
2.996288310330437
 30
0.0
 10
-1.236279785098601
 20
3.076258244408227
 30
0.0
 10
-1.175012041841632
 20
3.19476795482555
 30
0.0
 10
-1.146032236496907
 20
3.238136907362874
 30
0.0
 10
-1.113427835493923
 20
3.278182584054036
 30
0.0
  0
SPLINE
  5
7C3A
330
7B9A
100
AcDbEntity
  8
0
100
AcDbSpline
210
0.0
220
0.0
230
1.0
 70
     8
 71
     3
 72
    12
 73
     8
 74
     0
 42
0.000000001
 43
0.0000000001
 40
5.058371204665138
 40
5.058371204665138
 40
5.058371204665138
 40
5.058371204665138
 40
5.336951236574329
 40
5.336951236574329
 40
5.577714549790839
 40
5.577714549790839
 40
5.682975344127092
 40
5.682975344127092
 40
5.682975344127092
 40
5.682975344127092
 10
1.113427835493923
 20
3.278182584054034
 30
0.0
 10
1.174243089740158
 20
3.203487514231633
 30
0.0
 10
1.222606416409753
 20
3.11656338715496
 30
0.0
 10
1.272735034528153
 20
2.938171738437211
 30
0.0
 10
1.279184372236283
 20
2.84937823193774
 30
0.0
 10
1.262089464550065
 20
2.726157376675153
 30
0.0
 10
1.253513688222601
 20
2.689295173047199
 30
0.0
 10
1.24195636844232
 20
2.653676444347408
 30
0.0
  0
LINE
  5
7C3B
330
7B9A
100
AcDbEntity
  8
0
100
AcDbLine
 10
-1.020436134117443
 20
1.970968924097382
 30
0.0
 11
-1.241956368442333
 21
2.653676444347419
 31
0.0
  0
LINE
  5
7C3C
330
7B9A
100
AcDbEntity
  8
0
100
AcDbLine
 10
1.020436134117443
 20
1.970968924097382
 30
0.0
 11
1.241956368442333
 21
2.653676444347419
 31
0.0
  0
SPLINE
  5
7C3D
330
7B9A
100
AcDbEntity
  8
0
100
AcDbSpline
210
0.0
220
0.0
230
1.0
 70
     8
 71
     3
 72
    12
 73
     8
 74
     0
 42
0.000000001
 43
0.0000000001
 40
2.171006289847391
 40
2.171006289847391
 40
2.171006289847391
 40
2.171006289847391
 40
2.415409818515467
 40
2.415409818515467
 40
2.646257521319923
 40
2.646257521319923
 40
2.795610429309344
 40
2.795610429309344
 40
2.795610429309344
 40
2.795610429309344
 10
-1.24195636844232
 20
3.674297170507063
 30
0.0
 10
-1.268791143479481
 20
3.756999785814056
 30
0.0
 10
-1.278954165393002
 20
3.84673441066105
 30
0.0
 10
-1.261479953389703
 20
4.016909036490094
 30
0.0
 10
-1.236279785098601
 20
4.096878970567885
 30
0.0
 10
-1.175012041841632
 20
4.215388680985205
 30
0.0
 10
-1.146032236496907
 20
4.258757633522531
 30
0.0
 10
-1.113427835493923
 20
4.298803310213696
 30
0.0
  0
SPLINE
  5
7C3E
330
7B9A
100
AcDbEntity
  8
0
100
AcDbSpline
210
0.0
220
0.0
230
1.0
 70
     8
 71
     3
 72
    12
 73
     8
 74
     0
 42
0.000000001
 43
0.0000000001
 40
5.058371204665138
 40
5.058371204665138
 40
5.058371204665138
 40
5.058371204665138
 40
5.336951236574329
 40
5.336951236574329
 40
5.577714549790839
 40
5.577714549790839
 40
5.682975344127092
 40
5.682975344127092
 40
5.682975344127092
 40
5.682975344127092
 10
1.113427835493923
 20
4.298803310213696
 30
0.0
 10
1.174243089740158
 20
4.224108240391288
 30
0.0
 10
1.222606416409753
 20
4.137184113314617
 30
0.0
 10
1.272735034528153
 20
3.958792464596869
 30
0.0
 10
1.279184372236283
 20
3.869998958097398
 30
0.0
 10
1.262089464550065
 20
3.746778102834809
 30
0.0
 10
1.253513688222601
 20
3.709915899206857
 30
0.0
 10
1.24195636844232
 20
3.674297170507063
 30
0.0
  0
LINE
  5
7C3F
330
7B9A
100
AcDbEntity
  8
0
100
AcDbLine
 10
-1.020436134117443
 20
2.991589650257038
 30
0.0
 11
-1.241956368442333
 21
3.674297170507077
 31
0.0
  0
LINE
  5
7C40
330
7B9A
100
AcDbEntity
  8
0
100
AcDbLine
 10
1.020436134117443
 20
2.991589650257038
 30
0.0
 11
1.241956368442333
 21
3.674297170507077
 31
0.0
  0
SPLINE
  5
7C41
330
7B9A
100
AcDbEntity
  8
0
100
AcDbSpline
210
0.0
220
0.0
230
1.0
 70
     8
 71
     3
 72
    12
 73
     8
 74
     0
 42
0.000000001
 43
0.0000000001
 40
2.171006289847391
 40
2.171006289847391
 40
2.171006289847391
 40
2.171006289847391
 40
2.415409818515467
 40
2.415409818515467
 40
2.646257521319923
 40
2.646257521319923
 40
2.795610429309344
 40
2.795610429309344
 40
2.795610429309344
 40
2.795610429309344
 10
-1.24195636844232
 20
4.694917896666721
 30
0.0
 10
-1.268791143479481
 20
4.777620511973714
 30
0.0
 10
-1.278954165393002
 20
4.867355136820707
 30
0.0
 10
-1.261479953389703
 20
5.03752976264975
 30
0.0
 10
-1.236279785098601
 20
5.117499696727541
 30
0.0
 10
-1.175012041841632
 20
5.236009407144863
 30
0.0
 10
-1.146032236496907
 20
5.279378359682189
 30
0.0
 10
-1.113427835493923
 20
5.319424036373352
 30
0.0
  0
SPLINE
  5
7C42
330
7B9A
100
AcDbEntity
  8
0
100
AcDbSpline
210
0.0
220
0.0
230
1.0
 70
     8
 71
     3
 72
    12
 73
     8
 74
     0
 42
0.000000001
 43
0.0000000001
 40
5.058371204665138
 40
5.058371204665138
 40
5.058371204665138
 40
5.058371204665138
 40
5.336951236574329
 40
5.336951236574329
 40
5.577714549790839
 40
5.577714549790839
 40
5.682975344127092
 40
5.682975344127092
 40
5.682975344127092
 40
5.682975344127092
 10
1.113427835493923
 20
5.31942403637335
 30
0.0
 10
1.174243089740158
 20
5.244728966550946
 30
0.0
 10
1.222606416409753
 20
5.157804839474273
 30
0.0
 10
1.272735034528153
 20
4.979413190756527
 30
0.0
 10
1.279184372236283
 20
4.890619684257055
 30
0.0
 10
1.262089464550065
 20
4.767398828994466
 30
0.0
 10
1.253513688222601
 20
4.730536625366513
 30
0.0
 10
1.24195636844232
 20
4.694917896666721
 30
0.0
  0
LINE
  5
7C43
330
7B9A
100
AcDbEntity
  8
0
100
AcDbLine
 10
-1.020436134117443
 20
4.012210376416696
 30
0.0
 11
-1.241956368442333
 21
4.694917896666732
 31
0.0
  0
LINE
  5
7C44
330
7B9A
100
AcDbEntity
  8
0
100
AcDbLine
 10
1.020436134117443
 20
4.012210376416696
 30
0.0
 11
1.241956368442333
 21
4.694917896666732
 31
0.0
  0
SPLINE
  5
7C45
330
7B9A
100
AcDbEntity
  8
0
100
AcDbSpline
210
0.0
220
0.0
230
1.0
 70
     8
 71
     3
 72
    12
 73
     8
 74
     0
 42
0.000000001
 43
0.0000000001
 40
2.171006289847391
 40
2.171006289847391
 40
2.171006289847391
 40
2.171006289847391
 40
2.415409818515467
 40
2.415409818515467
 40
2.646257521319923
 40
2.646257521319923
 40
2.795610429309344
 40
2.795610429309344
 40
2.795610429309344
 40
2.795610429309344
 10
-1.24195636844232
 20
5.715538622826379
 30
0.0
 10
-1.268791143479481
 20
5.798241238133372
 30
0.0
 10
-1.278954165393002
 20
5.887975862980365
 30
0.0
 10
-1.261479953389703
 20
6.058150488809408
 30
0.0
 10
-1.236279785098601
 20
6.138120422887198
 30
0.0
 10
-1.175012041841632
 20
6.256630133304521
 30
0.0
 10
-1.146032236496907
 20
6.299999085841847
 30
0.0
 10
-1.113427835493923
 20
6.340044762533012
 30
0.0
  0
SPLINE
  5
7C46
330
7B9A
100
AcDbEntity
  8
0
100
AcDbSpline
210
0.0
220
0.0
230
1.0
 70
     8
 71
     3
 72
    12
 73
     8
 74
     0
 42
0.000000001
 43
0.0000000001
 40
5.058371204665138
 40
5.058371204665138
 40
5.058371204665138
 40
5.058371204665138
 40
5.336951236574329
 40
5.336951236574329
 40
5.577714549790839
 40
5.577714549790839
 40
5.682975344127092
 40
5.682975344127092
 40
5.682975344127092
 40
5.682975344127092
 10
1.113427835493923
 20
6.340044762533012
 30
0.0
 10
1.174243089740158
 20
6.265349692710604
 30
0.0
 10
1.222606416409753
 20
6.178425565633931
 30
0.0
 10
1.272735034528153
 20
6.000033916916185
 30
0.0
 10
1.279184372236283
 20
5.911240410416713
 30
0.0
 10
1.262089464550065
 20
5.788019555154124
 30
0.0
 10
1.253513688222601
 20
5.75115735152617
 30
0.0
 10
1.24195636844232
 20
5.715538622826379
 30
0.0
  0
LINE
  5
7C47
330
7B9A
100
AcDbEntity
  8
0
100
AcDbLine
 10
-1.020436134117443
 20
5.032831102576354
 30
0.0
 11
-1.241956368442333
 21
5.71553862282639
 31
0.0
  0
LINE
  5
7C48
330
7B9A
100
AcDbEntity
  8
0
100
AcDbLine
 10
1.020436134117443
 20
5.032831102576354
 30
0.0
 11
1.241956368442333
 21
5.71553862282639
 31
0.0
  0
SPLINE
  5
7C49
330
7B9A
100
AcDbEntity
  8
0
100
AcDbSpline
210
0.0
220
0.0
230
1.0
 70
     8
 71
     3
 72
    12
 73
     8
 74
     0
 42
0.000000001
 43
0.0000000001
 40
2.171006289847391
 40
2.171006289847391
 40
2.171006289847391
 40
2.171006289847391
 40
2.415409818515467
 40
2.415409818515467
 40
2.646257521319923
 40
2.646257521319923
 40
2.795610429309344
 40
2.795610429309344
 40
2.795610429309344
 40
2.795610429309344
 10
-1.24195636844232
 20
6.736159348986037
 30
0.0
 10
-1.268791143479481
 20
6.81886196429303
 30
0.0
 10
-1.278954165393002
 20
6.908596589140021
 30
0.0
 10
-1.261479953389703
 20
7.078771214969066
 30
0.0
 10
-1.236279785098601
 20
7.158741149046856
 30
0.0
 10
-1.175012041841632
 20
7.277250859464179
 30
0.0
 10
-1.146032236496907
 20
7.320619812001504
 30
0.0
 10
-1.113427835493923
 20
7.360665488692667
 30
0.0
  0
SPLINE
  5
7C4A
330
7B9A
100
AcDbEntity
  8
0
100
AcDbSpline
210
0.0
220
0.0
230
1.0
 70
     8
 71
     3
 72
    12
 73
     8
 74
     0
 42
0.000000001
 43
0.0000000001
 40
5.058371204665138
 40
5.058371204665138
 40
5.058371204665138
 40
5.058371204665138
 40
5.336951236574329
 40
5.336951236574329
 40
5.577714549790839
 40
5.577714549790839
 40
5.682975344127092
 40
5.682975344127092
 40
5.682975344127092
 40
5.682975344127092
 10
1.113427835493923
 20
7.360665488692665
 30
0.0
 10
1.174243089740158
 20
7.285970418870261
 30
0.0
 10
1.222606416409753
 20
7.199046291793589
 30
0.0
 10
1.272735034528153
 20
7.020654643075843
 30
0.0
 10
1.279184372236283
 20
6.931861136576371
 30
0.0
 10
1.262089464550065
 20
6.808640281313782
 30
0.0
 10
1.253513688222601
 20
6.771778077685828
 30
0.0
 10
1.24195636844232
 20
6.736159348986037
 30
0.0
  0
LINE
  5
7C4B
330
7B9A
100
AcDbEntity
  8
0
100
AcDbLine
 10
-1.020436134117443
 20
6.053451828736012
 30
0.0
 11
-1.241956368442333
 21
6.736159348986047
 31
0.0
  0
LINE
  5
7C4C
330
7B9A
100
AcDbEntity
  8
0
100
AcDbLine
 10
1.020436134117443
 20
6.053451828736012
 30
0.0
 11
1.241956368442333
 21
6.736159348986047
 31
0.0
  0
SPLINE
  5
7C4D
330
7B9A
100
AcDbEntity
  8
0
100
AcDbSpline
210
0.0
220
0.0
230
1.0
 70
     8
 71
     3
 72
    12
 73
     8
 74
     0
 42
0.000000001
 43
0.0000000001
 40
2.171006289847391
 40
2.171006289847391
 40
2.171006289847391
 40
2.171006289847391
 40
2.415409818515467
 40
2.415409818515467
 40
2.646257521319923
 40
2.646257521319923
 40
2.795610429309344
 40
2.795610429309344
 40
2.795610429309344
 40
2.795610429309344
 10
-1.24195636844232
 20
7.756780075145695
 30
0.0
 10
-1.268791143479481
 20
7.839482690452688
 30
0.0
 10
-1.278954165393002
 20
7.92921731529968
 30
0.0
 10
-1.261479953389703
 20
8.099391941128724
 30
0.0
 10
-1.236279785098601
 20
8.179361875206513
 30
0.0
 10
-1.175012041841632
 20
8.297871585623838
 30
0.0
 10
-1.146032236496907
 20
8.341240538161162
 30
0.0
 10
-1.113427835493923
 20
8.381286214852325
 30
0.0
  0
SPLINE
  5
7C4E
330
7B9A
100
AcDbEntity
  8
0
100
AcDbSpline
210
0.0
220
0.0
230
1.0
 70
     8
 71
     3
 72
    12
 73
     8
 74
     0
 42
0.000000001
 43
0.0000000001
 40
5.058371204665138
 40
5.058371204665138
 40
5.058371204665138
 40
5.058371204665138
 40
5.336951236574329
 40
5.336951236574329
 40
5.577714549790839
 40
5.577714549790839
 40
5.682975344127092
 40
5.682975344127092
 40
5.682975344127092
 40
5.682975344127092
 10
1.113427835493923
 20
8.381286214852325
 30
0.0
 10
1.174243089740158
 20
8.306591145029919
 30
0.0
 10
1.222606416409753
 20
8.219667017953245
 30
0.0
 10
1.272735034528153
 20
8.041275369235501
 30
0.0
 10
1.279184372236283
 20
7.952481862736028
 30
0.0
 10
1.262089464550065
 20
7.82926100747344
 30
0.0
 10
1.253513688222601
 20
7.792398803845484
 30
0.0
 10
1.24195636844232
 20
7.756780075145695
 30
0.0
  0
LINE
  5
7C4F
330
7B9A
100
AcDbEntity
  8
0
100
AcDbLine
 10
-1.020436134117443
 20
7.074072554895669
 30
0.0
 11
-1.241956368442333
 21
7.756780075145705
 31
0.0
  0
LINE
  5
7C50
330
7B9A
100
AcDbEntity
  8
0
100
AcDbLine
 10
1.020436134117443
 20
7.074072554895669
 30
0.0
 11
1.241956368442333
 21
7.756780075145705
 31
0.0
  0
SPLINE
  5
7C51
330
7B9A
100
AcDbEntity
  8
0
100
AcDbSpline
210
0.0
220
0.0
230
1.0
 70
     8
 71
     3
 72
    12
 73
     8
 74
     0
 42
0.000000001
 43
0.0000000001
 40
2.171006289847391
 40
2.171006289847391
 40
2.171006289847391
 40
2.171006289847391
 40
2.415409818515467
 40
2.415409818515467
 40
2.646257521319923
 40
2.646257521319923
 40
2.795610429309344
 40
2.795610429309344
 40
2.795610429309344
 40
2.795610429309344
 10
-1.24195636844232
 20
8.777400801305352
 30
0.0
 10
-1.268791143479481
 20
8.860103416612346
 30
0.0
 10
-1.278954165393002
 20
8.949838041459337
 30
0.0
 10
-1.261479953389703
 20
9.120012667288381
 30
0.0
 10
-1.236279785098601
 20
9.199982601366173
 30
0.0
 10
-1.175012041841632
 20
9.318492311783494
 30
0.0
 10
-1.146032236496907
 20
9.36186126432082
 30
0.0
 10
-1.113427835493923
 20
9.401906941011983
 30
0.0
  0
SPLINE
  5
7C52
330
7B9A
100
AcDbEntity
  8
0
100
AcDbSpline
210
0.0
220
0.0
230
1.0
 70
     8
 71
     3
 72
    12
 73
     8
 74
     0
 42
0.000000001
 43
0.0000000001
 40
5.058371204665138
 40
5.058371204665138
 40
5.058371204665138
 40
5.058371204665138
 40
5.336951236574329
 40
5.336951236574329
 40
5.577714549790839
 40
5.577714549790839
 40
5.682975344127092
 40
5.682975344127092
 40
5.682975344127092
 40
5.682975344127092
 10
1.113427835493923
 20
9.401906941011981
 30
0.0
 10
1.174243089740158
 20
9.327211871189577
 30
0.0
 10
1.222606416409753
 20
9.240287744112903
 30
0.0
 10
1.272735034528153
 20
9.061896095395159
 30
0.0
 10
1.279184372236283
 20
8.973102588895686
 30
0.0
 10
1.262089464550065
 20
8.849881733633097
 30
0.0
 10
1.253513688222601
 20
8.813019530005142
 30
0.0
 10
1.24195636844232
 20
8.777400801305352
 30
0.0
  0
LINE
  5
7C53
330
7B9A
100
AcDbEntity
  8
0
100
AcDbLine
 10
-1.020436134117443
 20
8.094693281055326
 30
0.0
 11
-1.241956368442333
 21
8.777400801305363
 31
0.0
  0
LINE
  5
7C54
330
7B9A
100
AcDbEntity
  8
0
100
AcDbLine
 10
1.020436134117443
 20
8.094693281055326
 30
0.0
 11
1.241956368442333
 21
8.777400801305363
 31
0.0
  0
SPLINE
  5
7C55
330
7B9A
100
AcDbEntity
  8
0
100
AcDbSpline
210
0.0
220
0.0
230
1.0
 70
     8
 71
     3
 72
    19
 73
    15
 74
     0
 42
0.000000001
 43
0.0000000001
 40
-0.0229961794413475
 40
-0.0229961794413475
 40
-0.0229961794413475
 40
-0.0229961794413475
 40
0.0
 40
0.0
 40
0.0
 40
0.0286035440609125
 40
0.0286035440609125
 40
0.0366377970663581
 40
0.0366377970663581
 40
0.0415737893328529
 40
0.0415737893328529
 40
0.045290057650493
 40
0.045290057650493
 40
0.0453751077896218
 40
0.0453751077896218
 40
0.0453751077896218
 40
0.0453751077896218
 10
-1.23998615779599
 20
-14.29882402376028
 30
0.0
 10
-1.24700977250083
 20
-14.31989996838345
 30
0.0
 10
-1.249852456489657
 20
-14.36174291741949
 30
0.0
 10
-1.249852456489657
 20
-14.4059990853888
 30
0.0
 10
-1.249852456489657
 20
-14.46104663159995
 30
0.0
 10
-1.245454439534506
 20
-14.54026613912916
 30
0.0
 10
-1.230889083405305
 20
-14.64838812040428
 30
0.0
 10
-1.226249532416565
 20
-14.67823204991057
 30
0.0
 10
-1.21826150365345
 20
-14.72032776539531
 30
0.0
 10
-1.214171345698363
 20
-14.73964227165549
 30
0.0
 10
-1.207450000356507
 20
-14.76687000831305
 30
0.0
 10
-1.203804538734303
 20
-14.77996799211932
 30
0.0
 10
-1.200648865013486
 20
-14.78968798326738
 30
0.0
 10
-1.200577979953534
 20
-14.78990555362658
 30
0.0
 10
-1.200506832699856
 20
-14.79012314525182
 30
0.0
  0
SPLINE
  5
7C56
330
7B9A
100
AcDbEntity
  8
0
100
AcDbSpline
210
0.0
220
0.0
230
1.0
 70
     8
 71
     3
 72
    14
 73
    10
 74
     0
 42
0.000000001
 43
0.0000000001
 40
0.0544119222634631
 40
0.0544119222634631
 40
0.0544119222634631
 40
0.0544119222634631
 40
0.0583945217996133
 40
0.0583945217996133
 40
0.0754229802700105
 40
0.0754229802700105
 40
0.0872744932335599
 40
0.0872744932335599
 40
0.09555541013743
 40
0.09555541013743
 40
0.09555541013743
 40
0.09555541013743
 10
-0.9651218279988304
 20
-15.64108109118853
 30
0.0
 10
-0.9642428657653933
 20
-15.65139758566437
 30
0.0
 10
-0.9632917638901449
 20
-15.6618292564117
 30
0.0
 10
-0.9578738821370398
 20
-15.71745647992356
 30
0.0
 10
-0.9506478283180037
 20
-15.77596663380182
 30
0.0
 10
-0.9364447231319015
 20
-15.86582194016412
 30
0.0
 10
-0.9281713852504937
 20
-15.91160982721443
 30
0.0
 10
-0.9143547015275949
 20
-15.97728009007916
 30
0.0
 10
-0.9070791152100856
 20
-16.00870747793251
 30
0.0
 10
-0.9002480684931985
 20
-16.03488223924178
 30
0.0
  0
SPLINE
  5
7C57
330
7B9A
100
AcDbEntity
  8
0
100
AcDbSpline
210
0.0
220
0.0
230
1.0
 70
    12
 71
     2
 72
     6
 73
     3
 74
     0
 42
0.000000001
 43
0.0000000001
 40
0.0
 40
0.0
 40
0.0
 40
0.0231305000849338
 40
0.0231305000849338
 40
0.0231305000849338
 10
-0.9777602295309607
 20
-15.47072481445046
 30
0.0
 41
1.0
 10
-0.9729845791962638
 20
-15.54879495396062
 30
0.0
 41
1.00417212811052
 10
-0.9651218279988304
 20
-15.64108109118853
 30
0.0
 41
1.0
  0
SPLINE
  5
7C58
330
7B9A
100
AcDbEntity
  8
0
100
AcDbSpline
210
0.0
220
0.0
230
1.0
 70
    12
 71
     2
 72
     6
 73
     3
 74
     0
 42
0.000000001
 43
0.0000000001
 40
0.0
 40
0.0
 40
0.0
 40
0.0894830231545094
 40
0.0894830231545094
 40
0.0894830231545094
 10
-1.200506832699856
 20
-14.79012314525182
 30
0.0
 41
1.0
 10
-1.082368088657358
 20
-15.15143015276517
 30
0.0
 41
1.00106743243013
 10
-0.9777602295309606
 20
-15.47072481445046
 30
0.0
 41
1.0
  0
ELLIPSE
  5
7C59
330
7B9A
100
AcDbEntity
  8
0
100
AcDbEllipse
 10
0.0
 20
9.932348677134168
 30
0.0
 11
1.263561225477096
 21
0.0000000000000001
 31
0.0
210
0.0
220
0.0
230
1.0
 40
0.5773502691896257
 41
3.326780853934727
 42
6.097997106834653
  0
SPLINE
  5
7C5A
330
7B9A
100
AcDbEntity
  8
0
100
AcDbSpline
210
0.0
220
0.0
230
1.0
 70
     8
 71
     3
 72
    12
 73
     8
 74
     0
 42
0.000000001
 43
0.0000000001
 40
2.171006289847391
 40
2.171006289847391
 40
2.171006289847391
 40
2.171006289847391
 40
2.415409818515467
 40
2.415409818515467
 40
2.646257521319923
 40
2.646257521319923
 40
2.737091357622304
 40
2.737091357622304
 40
2.737091357622304
 40
2.737091357622304
 10
-1.24195636844232
 20
9.798021527465008
 30
0.0
 10
-1.268791143479481
 20
9.880724142772002
 30
0.0
 10
-1.278954165393002
 20
9.970458767618994
 30
0.0
 10
-1.261479953389703
 20
10.14063339344804
 30
0.0
 10
-1.236279785098601
 20
10.22060332752583
 30
0.0
 10
-1.184442146260117
 20
10.32087246167201
 30
0.0
 10
-1.167979693079949
 20
10.3480211305633
 30
0.0
 10
-1.149999999999934
 20
10.37394322282971
 30
0.0
  0
SPLINE
  5
7C5B
330
7B9A
100
AcDbEntity
  8
0
100
AcDbSpline
210
0.0
220
0.0
230
1.0
 70
     8
 71
     3
 72
    12
 73
     8
 74
     0
 42
0.000000001
 43
0.0000000001
 40
5.116890276352179
 40
5.116890276352179
 40
5.116890276352179
 40
5.116890276352179
 40
5.336951236574329
 40
5.336951236574329
 40
5.577714549790839
 40
5.577714549790839
 40
5.682975344127092
 40
5.682975344127092
 40
5.682975344127092
 40
5.682975344127092
 10
1.149999999999935
 20
10.37394322282971
 30
0.0
 10
1.193558971906794
 20
10.31114239059223
 30
0.0
 10
1.228254857320328
 20
10.24080748355989
 30
0.0
 10
1.272735034528153
 20
10.08251682155481
 30
0.0
 10
1.279184372236283
 20
9.993723315055342
 30
0.0
 10
1.262089464550065
 20
9.870502459792756
 30
0.0
 10
1.253513688222601
 20
9.8336402561648
 30
0.0
 10
1.24195636844232
 20
9.798021527465008
 30
0.0
  0
LINE
  5
7C5C
330
7B9A
100
AcDbEntity
  8
0
100
AcDbLine
 10
-1.020436134117443
 20
9.115314007214983
 30
0.0
 11
-1.241956368442333
 21
9.798021527465021
 31
0.0
  0
LINE
  5
7C5D
330
7B9A
100
AcDbEntity
  8
0
100
AcDbLine
 10
1.020436134117443
 20
9.115314007214983
 30
0.0
 11
1.241956368442333
 21
9.798021527465021
 31
0.0
  0
ELLIPSE
  5
7C5E
330
7B9A
100
AcDbEntity
  8
0
100
AcDbEllipse
 10
0.0
 20
10.20620726159658
 30
0.0
 11
-1.149999999999933
 21
0.0000000000000004
 31
0.0
210
0.0
220
0.0
230
1.0
 40
0.577350269189626
 41
0.0000000000000017
 42
3.141592653589798
  0
ELLIPSE
  5
7C5F
330
7B9A
100
AcDbEntity
  8
0
100
AcDbEllipse
 10
0.0
 20
17.39137717376056
 30
0.0
 11
-2.749999999999978
 21
0.0000000000000002
 31
0.0
210
0.0
220
0.0
230
1.0
 40
0.5773502691896257
 41
0.0000000000000007
 42
3.141592653589794
  0
ELLIPSE
  5
7C60
330
7B9A
100
AcDbEntity
  8
0
100
AcDbEllipse
 10
0.0
 20
17.60525985113494
 30
0.0
 11
-2.749999999999978
 21
0.0000000000000001
 31
0.0
210
0.0
220
0.0
230
1.0
 40
0.5773502691896259
 41
5.125481548290357
 42
10.58248171965861
  0
LINE
  5
7C61
330
7B9A
100
AcDbEntity
  8
0
100
AcDbLine
 10
-1.149999999999935
 20
10.20620726159658
 30
0.0
 11
-1.149999999999935
 21
15.94915666357496
 31
0.0
  0
LINE
  5
7C62
330
7B9A
100
AcDbEntity
  8
0
100
AcDbLine
 10
1.149999999999935
 20
10.20620726159658
 30
0.0
 11
1.149999999999935
 21
15.94915666357496
 31
0.0
  0
ARC
  5
7C63
330
7B9A
100
AcDbEntity
  8
0
100
AcDbCircle
 10
0.0
 20
14.69693845669907
 30
0.0
 40
4.5
100
AcDbArc
 50
75.79885904929068
 51
104.2011409507094
  0
LINE
  5
7C64
330
7B9A
100
AcDbEntity
  8
0
100
AcDbLine
 10
-2.749999999999979
 20
17.39137717376056
 30
0.0
 11
-2.749999999999979
 21
17.60525985113494
 31
0.0
  0
LINE
  5
7C65
330
7B9A
100
AcDbEntity
  8
0
100
AcDbLine
 10
2.749999999999979
 20
17.39137717376056
 30
0.0
 11
2.749999999999979
 21
17.60525985113494
 31
0.0
  0
ENDBLK
  5
7B9C
330
7B9A
100
AcDbEntity
  8
0
100
AcDbBlockEnd
  0
ENDSEC
  0
SECTION
  2
ENTITIES
  0
INSERT
  5
7C66
330
1F
100
AcDbEntity
  8
0
100
AcDbBlockReference
  2
ARA423x45-Front
 10
0.0
 20
0.0
 30
0.0
  0
INSERT
  5
7C67
330
1F
100
AcDbEntity
  8
0
100
AcDbBlockReference
  2
ARA423x45-Top
 10
0.0
 20
-60.04999999999998
 30
0.0
  0
INSERT
  5
7C68
330
1F
100
AcDbEntity
  8
0
100
AcDbBlockReference
  2
ARA423x45-ISO
 10
18.99999999999996
 20
-76.49693845669907
 30
0.0
  0
MTEXT
  5
7C69
330
1F
100
AcDbEntity
  8
0
100
AcDbMText
 10
0.0
 20
-76.29999999999995
 30
0.0
 40
2.166666666666663
 41
0.0
 71
     5
 72
     5
  1
ARA42,3x45
 73
     1
 44
1.0
1001
ACAD
1000
MTEXTBEGIN
1070
    73
1070
     1
1070
    44
1040
1.0
1070
    74
1070
     0
1000
MTEXTEND
  0
ENDSEC
  0
SECTION
  2
OBJECTS
  0
DICTIONARY
  5
C
330
0
100
AcDbDictionary
281
     1
  3
ACAD_CIP_PREVIOUS_PRODUCT_INFO
350
216
  3
ACAD_COLOR
350
6B
  3
ACAD_DETAILVIEWSTYLE
350
21B
  3
ACAD_GROUP
350
D
  3
ACAD_LAYOUT
350
1A
  3
ACAD_MATERIAL
350
6A
  3
ACAD_MLEADERSTYLE
350
12D
  3
ACAD_MLINESTYLE
350
17
  3
ACAD_PLOTSETTINGS
350
19
  3
ACAD_PLOTSTYLENAME
350
E
  3
ACAD_SCALELIST
350
10C
  3
ACAD_SECTIONVIEWSTYLE
350
219
  3
ACAD_TABLESTYLE
350
7E
  3
ACAD_VISUALSTYLE
350
EF
  3
ACDB_RECOMPOSE_DATA
350
7D6C
  3
AcDbVariableDictionary
350
5E
  3
DWGPROPS
350
7D6D
  0
DICTIONARY
  5
7CBC
330
8
100
AcDbDictionary
280
     1
281
     1
  0
DICTIONARY
  5
1FF
330
2
100
AcDbDictionary
280
     1
281
     1
  3
ACAD_LAYERSTATES
360
200
  0
DICTIONARY
  5
13C
330
10
100
AcDbDictionary
280
     1
281
     1
  0
DICTIONARY
  5
1CE
330
1F
100
AcDbDictionary
280
     1
281
     1
  3
ACAD_LAYOUTSELFREF
360
7CC4
  0
DICTIONARY
  5
7C6D
330
D2
100
AcDbDictionary
280
     1
281
     1
  3
ACAD_LAYOUTSELFREF
360
7CCD
  0
DICTIONARY
  5
7C6F
330
D6
100
AcDbDictionary
280
     1
281
     1
  3
ACAD_LAYOUTSELFREF
360
7CD0
  0
XRECORD
  5
216
102
{ACAD_REACTORS
330
C
102
}
330
C
100
AcDbXrecord
280
     1
300
ACD
300
2021
300
87393ACD_2021_0F
  0
DICTIONARY
  5
6B
102
{ACAD_REACTORS
330
C
102
}
330
C
100
AcDbDictionary
281
     1
  0
DICTIONARY
  5
21B
102
{ACAD_REACTORS
330
C
102
}
330
C
100
AcDbDictionary
281
     1
  3
Metric50
350
21C
  0
DICTIONARY
  5
D
102
{ACAD_REACTORS
330
C
102
}
330
C
100
AcDbDictionary
281
     1
  0
DICTIONARY
  5
1A
102
{ACAD_REACTORS
330
C
102
}
330
C
100
AcDbDictionary
281
     1
  3
Layout1
350
D3
  3
Layout2
350
D7
  3
Model
350
22
  0
DICTIONARY
  5
6A
102
{ACAD_REACTORS
330
C
102
}
330
C
100
AcDbDictionary
281
     1
  3
ByBlock
350
ED
  3
ByLayer
350
EC
  3
Global
350
EE
  0
DICTIONARY
  5
12D
102
{ACAD_REACTORS
330
C
102
}
330
C
100
AcDbDictionary
281
     1
  3
Standard
350
12E
  0
DICTIONARY
  5
17
102
{ACAD_REACTORS
330
C
102
}
330
C
100
AcDbDictionary
281
     1
  3
Standard
350
18
  0
DICTIONARY
  5
19
102
{ACAD_REACTORS
330
C
102
}
330
C
100
AcDbDictionary
281
     1
  0
ACDBDICTIONARYWDFLT
  5
E
102
{ACAD_REACTORS
330
C
102
}
330
C
100
AcDbDictionary
281
     1
  3
Normal
350
F
100
AcDbDictionaryWithDefault
340
F
  0
DICTIONARY
  5
10C
102
{ACAD_REACTORS
330
C
102
}
330
C
100
AcDbDictionary
281
     1
  3
A0
350
10D
  3
A1
350
1BE
  3
A2
350
1BF
  3
A3
350
1C0
  3
A4
350
1C1
  3
A5
350
1C2
  3
A6
350
1C3
  3
A7
350
1C4
  3
A8
350
1C5
  3
A9
350
1C6
  3
B0
350
1C7
  3
B1
350
1C8
  3
B2
350
1C9
  3
B3
350
1CA
  3
B4
350
1CB
  3
B5
350
1CC
  3
B6
350
1CD
  0
DICTIONARY
  5
219
102
{ACAD_REACTORS
330
C
102
}
330
C
100
AcDbDictionary
281
     1
  3
Metric50
350
21A
  0
DICTIONARY
  5
7E
102
{ACAD_REACTORS
330
C
102
}
330
C
100
AcDbDictionary
281
     1
  3
Standard
350
7F
  0
DICTIONARY
  5
EF
102
{ACAD_REACTORS
330
C
102
}
330
C
100
AcDbDictionary
281
     1
  3
2dWireframe
350
F5
  3
Basic
350
F4
  3
Brighten
350
FB
  3
ColorChange
350
FF
  3
Conceptual
350
F8
  3
Dim
350
FA
  3
EdgeColorOff
350
1E6
  3
Facepattern
350
FE
  3
Flat
350
F0
  3
FlatWithEdges
350
F1
  3
Gouraud
350
F2
  3
GouraudWithEdges
350
F3
  3
Hidden
350
F7
  3
JitterOff
350
1E4
  3
Linepattern
350
FD
  3
OverhangOff
350
1E5
  3
Realistic
350
F9
  3
Shaded
350
1F3
  3
Shaded with edges
350
1F2
  3
Shades of Gray
350
1EF
  3
Sketchy
350
1F0
  3
Thicken
350
FC
  3
Wireframe
350
F6
  3
X-Ray
350
1F1
  0
XRECORD
  5
7D6C
102
{ACAD_REACTORS
330
C
102
}
330
C
100
AcDbXrecord
280
     1
 90
        1
330
7F
  0
DICTIONARY
  5
5E
102
{ACAD_REACTORS
330
C
102
}
330
C
100
AcDbDictionary
281
     1
  3
CANNOSCALE
350
146
  3
CENTEREXE
350
259
  3
CENTERLTYPEFILE
350
25A
  3
CMLEADERSTYLE
350
145
  3
CTABLESTYLE
350
84
  3
CVIEWDETAILSTYLE
350
227
  3
CVIEWSECTIONSTYLE
350
228
  3
DIMASSOC
350
5F
  3
HIDETEXT
350
63
  3
INDEXCTL
350
7D19
  3
LAYEREVAL
350
1AE
  3
LAYERNOTIFY
350
1AF
  3
LIGHTINGUNITS
350
7D17
  3
MSLTSCALE
350
7D16
  3
PSOLHEIGHT
350
7D69
  3
PSOLWIDTH
350
7D68
  3
SORTENTS
350
7D18
  3
XCLIPFRAME
350
7D6A
  0
XRECORD
  5
7D6D
102
{ACAD_REACTORS
330
C
102
}
330
C
100
AcDbXrecord
280
     1
  1
DWGPROPS COOKIE
  2

  3

  4

  6

  7

  8
truole
  9

300
=
301
=
302
=
303
=
304
=
305
=
306
=
307
=
308
=
309
=
 40
0.002037037037037
 41
2460733.571354167
 42
2460733.5984375
  1

 90
        0
  0
DICTIONARY
  5
200
102
{ACAD_REACTORS
330
1FF
102
}
330
1FF
100
AcDbDictionary
281
     1
  0
XRECORD
  5
7CC4
102
{ACAD_REACTORS
330
1CE
102
}
330
1CE
100
AcDbXrecord
280
     1
340
1F
  0
XRECORD
  5
7CCD
102
{ACAD_REACTORS
330
7C6D
102
}
330
7C6D
100
AcDbXrecord
280
     1
340
D2
  0
XRECORD
  5
7CD0
102
{ACAD_REACTORS
330
7C6F
102
}
330
7C6F
100
AcDbXrecord
280
     1
340
D6
  0
ACDBDETAILVIEWSTYLE
  5
21C
102
{ACAD_XDICTIONARY
360
7DAC
102
}
102
{ACAD_REACTORS
330
21B
102
}
330
21B
100
AcDbModelDocViewStyle
 70
     0
  3
Metric50
290
     0
100
AcDbDetailViewStyle
 70
     0
 71
     0
 90
        3
 71
     1
340
11
 40
5.0
340
0
 40
5.0
300

 40
0.0
280
     1
 71
     2
340
16
 90
       25
 71
     3
340
11
 40
5.0
 90
        0
 40
15.0
 90
        1
300
%<\AcVar ViewDetailId>% (%<\AcVar ViewScale \f "%sn">%)
 71
     4
340
16
 90
       25
340
16
 90
       25
280
     0
  0
LAYOUT
  5
D3
102
{ACAD_XDICTIONARY
360
7D71
102
}
102
{ACAD_REACTORS
330
1A
102
}
330
1A
100
AcDbPlotSettings
  1

  2
C:\Documents and Settings\basas\Application Data\Autodesk\AutoCAD 2005\R16.1\enu\plotters\Default Windows System Printer.pc3
  4

  6

 40
0.0
 41
0.0
 42
0.0
 43
0.0
 44
0.0
 45
0.0
 46
0.0
 47
0.0
 48
0.0
 49
0.0
140
0.0
141
0.0
142
1.0
143
1.0
 70
   688
 72
     0
 73
     0
 74
     5
  7

 75
    16
147
1.0
148
0.0
149
0.0
100
AcDbLayout
  1
Layout1
 70
     1
 71
     1
 10
0.0
 20
0.0
 11
12.0
 21
9.0
 12
0.0
 22
0.0
 32
0.0
 14
0.0
 24
0.0
 34
0.0
 15
0.0
 25
0.0
 35
0.0
146
0.0
 13
0.0
 23
0.0
 33
0.0
 16
1.0
 26
0.0
 36
0.0
 17
0.0
 27
1.0
 37
0.0
 76
     0
330
D2
  0
LAYOUT
  5
D7
102
{ACAD_XDICTIONARY
360
7D73
102
}
102
{ACAD_REACTORS
330
1A
102
}
330
1A
100
AcDbPlotSettings
  1

  2
C:\Documents and Settings\basas\Application Data\Autodesk\AutoCAD 2005\R16.1\enu\plotters\Default Windows System Printer.pc3
  4

  6

 40
0.0
 41
0.0
 42
0.0
 43
0.0
 44
0.0
 45
0.0
 46
0.0
 47
0.0
 48
0.0
 49
0.0
140
0.0
141
0.0
142
1.0
143
1.0
 70
   688
 72
     0
 73
     0
 74
     5
  7

 75
    16
147
1.0
148
0.0
149
0.0
100
AcDbLayout
  1
Layout2
 70
     1
 71
     2
 10
0.0
 20
0.0
 11
12.0
 21
9.0
 12
0.0
 22
0.0
 32
0.0
 14
0.0
 24
0.0
 34
0.0
 15
0.0
 25
0.0
 35
0.0
146
0.0
 13
0.0
 23
0.0
 33
0.0
 16
1.0
 26
0.0
 36
0.0
 17
0.0
 27
1.0
 37
0.0
 76
     0
330
D6
  0
LAYOUT
  5
22
102
{ACAD_XDICTIONARY
360
7D6E
102
}
102
{ACAD_REACTORS
330
1A
102
}
330
1A
100
AcDbPlotSettings
  1

  2
none_device
  4
ISO_A4_(210.00_x_297.00_MM)
  6

 40
7.5
 41
20.0
 42
7.5
 43
20.0
 44
210.0
 45
297.0
 46
11.54999923706054
 47
-13.65000009536743
 48
0.0
 49
0.0
140
0.0
141
0.0
142
1.0
143
8.704084754739808
 70
 11952
 72
     1
 73
     0
 74
     0
  7

 75
     0
147
0.1148885871608098
148
0.0
149
0.0
100
AcDbLayout
  1
Model
 70
     1
 71
     0
 10
0.0
 20
0.0
 11
12.0
 21
9.0
 12
0.0
 22
0.0
 32
0.0
 14
0.0
 24
0.0
 34
0.0
 15
0.0
 25
0.0
 35
0.0
146
0.0
 13
0.0
 23
0.0
 33
0.0
 16
1.0
 26
0.0
 36
0.0
 17
0.0
 27
1.0
 37
0.0
 76
     0
330
1F
331
EA
1001
ACAD_PSEXT
1000
None
1000
None
1000
Not applicable
1000
The layout will not be plotted unless a new plotter configuration name is selected.
1070
     0
  0
MATERIAL
  5
ED
102
{ACAD_XDICTIONARY
360
1F9
102
}
102
{ACAD_REACTORS
330
6A
102
}
330
6A
100
AcDbMaterial
  1
ByBlock
  0
MATERIAL
  5
EC
102
{ACAD_XDICTIONARY
360
1F7
102
}
102
{ACAD_REACTORS
330
6A
102
}
330
6A
100
AcDbMaterial
  1
ByLayer
  0
MATERIAL
  5
EE
102
{ACAD_XDICTIONARY
360
173
102
}
102
{ACAD_REACTORS
330
6A
102
}
330
6A
100
AcDbMaterial
  1
Global
 43
0.0007999999797903
 43
0.0
 43
0.0
 43
0.0
 43
0.0
 43
0.0007999999797903
 43
0.0
 43
0.0
 43
0.0
 43
0.0
 43
1.0
 43
0.0
 43
0.0
 43
0.0
 43
0.0
 43
1.0
 49
0.0007999999797903
 49
0.0
 49
0.0
 49
0.0
 49
0.0
 49
0.0007999999797903
 49
0.0
 49
0.0
 49
0.0
 49
0.0
 49
1.0
 49
0.0
 49
0.0
 49
0.0
 49
0.0
 49
1.0
142
0.0007999999797903
142
0.0
142
0.0
142
0.0
142
0.0
142
0.0007999999797903
142
0.0
142
0.0
142
0.0
142
0.0
142
1.0
142
0.0
142
0.0
142
0.0
142
0.0
142
1.0
144
0.0007999999797903
144
0.0
144
0.0
144
0.0
144
0.0
144
0.0007999999797903
144
0.0
144
0.0
144
0.0
144
0.0
144
1.0
144
0.0
144
0.0
144
0.0
144
0.0
144
1.0
1001
ACAD
1070
    -1
1070
     3
1070
     0
1000

1071
        0
1070
     0
  0
MLEADERSTYLE
  5
12E
102
{ACAD_XDICTIONARY
360
7D98
102
}
102
{ACAD_REACTORS
330
12D
102
}
330
12D
100
AcDbMLeaderStyle
170
     2
171
     1
172
     0
 90
        2
 40
0.0
 41
0.0
173
     1
 91
-1056964608
340
14
 92
       -2
290
     1
 42
2.0
291
     1
 43
8.0
  3
Standard
 44
4.0
300

342
11
174
     1
178
     1
175
     1
176
     0
 93
-1056964608
 45
4.0
292
     0
297
     0
 46
4.0
 94
-1056964608
 47
1.0
 49
1.0
140
1.0
293
     1
141
0.0
294
     1
177
     0
142
1.0
295
     0
296
     0
143
3.75
1001
ACAD_MLEADERVER
1070
     2
  0
MLINESTYLE
  5
18
102
{ACAD_REACTORS
330
17
102
}
330
17
100
AcDbMlineStyle
  2
STANDARD
 70
     0
  3

 62
   256
 51
90.0
 52
90.0
 71
     2
 49
0.5
 62
   256
  6
BYLAYER
 49
-0.5
 62
   256
  6
BYLAYER
  0
ACDBPLACEHOLDER
  5
F
102
{ACAD_REACTORS
330
E
102
}
330
E
  0
SCALE
  5
10D
102
{ACAD_REACTORS
330
10C
102
}
330
10C
100
AcDbScale
 70
     0
300
1:1
140
1.0
141
1.0
290
     1
  0
SCALE
  5
1BE
102
{ACAD_REACTORS
330
10C
102
}
330
10C
100
AcDbScale
 70
     0
300
1:2
140
1.0
141
2.0
290
     0
  0
SCALE
  5
1BF
102
{ACAD_REACTORS
330
10C
102
}
330
10C
100
AcDbScale
 70
     0
300
1:4
140
1.0
141
4.0
290
     0
  0
SCALE
  5
1C0
102
{ACAD_REACTORS
330
10C
102
}
330
10C
100
AcDbScale
 70
     0
300
1:5
140
1.0
141
5.0
290
     0
  0
SCALE
  5
1C1
102
{ACAD_REACTORS
330
10C
102
}
330
10C
100
AcDbScale
 70
     0
300
1:8
140
1.0
141
8.0
290
     0
  0
SCALE
  5
1C2
102
{ACAD_REACTORS
330
10C
102
}
330
10C
100
AcDbScale
 70
     0
300
1:10
140
1.0
141
10.0
290
     0
  0
SCALE
  5
1C3
102
{ACAD_REACTORS
330
10C
102
}
330
10C
100
AcDbScale
 70
     0
300
1:16
140
1.0
141
16.0
290
     0
  0
SCALE
  5
1C4
102
{ACAD_REACTORS
330
10C
102
}
330
10C
100
AcDbScale
 70
     0
300
1:20
140
1.0
141
20.0
290
     0
  0
SCALE
  5
1C5
102
{ACAD_REACTORS
330
10C
102
}
330
10C
100
AcDbScale
 70
     0
300
1:30
140
1.0
141
30.0
290
     0
  0
SCALE
  5
1C6
102
{ACAD_REACTORS
330
10C
102
}
330
10C
100
AcDbScale
 70
     0
300
1:40
140
1.0
141
40.0
290
     0
  0
SCALE
  5
1C7
102
{ACAD_REACTORS
330
10C
102
}
330
10C
100
AcDbScale
 70
     0
300
1:50
140
1.0
141
50.0
290
     0
  0
SCALE
  5
1C8
102
{ACAD_REACTORS
330
10C
102
}
330
10C
100
AcDbScale
 70
     0
300
1:100
140
1.0
141
100.0
290
     0
  0
SCALE
  5
1C9
102
{ACAD_REACTORS
330
10C
102
}
330
10C
100
AcDbScale
 70
     0
300
2:1
140
2.0
141
1.0
290
     0
  0
SCALE
  5
1CA
102
{ACAD_REACTORS
330
10C
102
}
330
10C
100
AcDbScale
 70
     0
300
4:1
140
4.0
141
1.0
290
     0
  0
SCALE
  5
1CB
102
{ACAD_REACTORS
330
10C
102
}
330
10C
100
AcDbScale
 70
     0
300
8:1
140
8.0
141
1.0
290
     0
  0
SCALE
  5
1CC
102
{ACAD_REACTORS
330
10C
102
}
330
10C
100
AcDbScale
 70
     0
300
10:1
140
10.0
141
1.0
290
     0
  0
SCALE
  5
1CD
102
{ACAD_REACTORS
330
10C
102
}
330
10C
100
AcDbScale
 70
     0
300
100:1
140
100.0
141
1.0
290
     0
  0
ACDBSECTIONVIEWSTYLE
  5
21A
102
{ACAD_XDICTIONARY
360
7DAA
102
}
102
{ACAD_REACTORS
330
219
102
}
330
219
100
AcDbModelDocViewStyle
 70
     0
  3
Metric50
290
     0
100
AcDbSectionViewStyle
 70
     0
 71
     0
 90
      102
 71
     1
340
11
 40
5.0
340
0
340
0
 40
5.0
300
I, O, Q, S, X, Z
 40
10.0
 90
        0
 40
2.5
 90
        0
 71
     2
340
16
 90
       25
340
16
 90
       50
 40
5.0
 40
2.5
 40
5.0
 71
     3
340
11
 40
5.0
 90
        0
 40
15.0
 90
        1
300
%<\AcVar ViewSectionStartId>%-%<\AcVar ViewSectionEndId>% (%<\AcVar ViewScale \f "%sn">%)
 71
     4
300
ANSI31
 40
1.0
 90
        0
290
     0
290
     0
 90
        6
 40
0.0
 40
1.570796326794896
 40
0.2617993877991494
 40
1.308996938995747
 40
-0.2617993877991494
 40
1.832595714594046
  0
TABLESTYLE
  5
7F
102
{ACAD_XDICTIONARY
360
162
102
}
102
{ACAD_REACTORS
330
7E
102
}
330
7E
100
AcDbTableStyle
  3
Standard
 70
     0
 71
     0
 40
1.5
 41
1.5
280
     0
281
     0
  7
Standard
140
4.5
170
     2
 62
     0
 63
     7
283
     0
274
    -2
284
     1
 64
     0
275
    -2
285
     1
 65
     0
276
    -2
286
     1
 66
     0
277
    -2
287
     1
 67
     0
278
    -2
288
     1
 68
     0
279
    -2
289
     1
 69
     0
  7
Standard
140
6.0
170
     5
 62
     0
 63
     7
283
     0
274
    -2
284
     1
 64
     0
275
    -2
285
     1
 65
     0
276
    -2
286
     1
 66
     0
277
    -2
287
     1
 67
     0
278
    -2
288
     1
 68
     0
279
    -2
289
     1
 69
     0
  7
Standard
140
4.5
170
     5
 62
     0
 63
     7
283
     0
274
    -2
284
     1
 64
     0
275
    -2
285
     1
 65
     0
276
    -2
286
     1
 66
     0
277
    -2
287
     1
 67
     0
278
    -2
288
     1
 68
     0
279
    -2
289
     1
 69
     0
  0
VISUALSTYLE
  5
F5
102
{ACAD_XDICTIONARY
360
7D82
102
}
102
{ACAD_REACTORS
330
EF
102
}
330
EF
100
AcDbVisualStyle
  2
2dWireframe
 70
     4
 71
     0
 72
     2
 73
     1
 90
        0
 40
-0.6
 41
-30.0
 62
     5
 63
     7
 74
     1
 91
        4
 64
     7
 65
   257
 75
     1
175
     1
 42
1.0
 92
        0
 66
   257
 43
1.0
 76
     1
 77
     6
 78
     2
 67
     7
 79
     5
170
     0
171
     0
290
     0
174
     0
 93
        1
 44
0.0
173
     0
291
     0
 45
0.0
1001
ACAD
1000
AcDbSavedByObjectVersion
1070
     0
  0
VISUALSTYLE
  5
F4
102
{ACAD_XDICTIONARY
360
7D80
102
}
102
{ACAD_REACTORS
330
EF
102
}
330
EF
100
AcDbVisualStyle
  2
Basic
 70
     7
 71
     1
 72
     0
 73
     1
 90
        0
 40
-0.6
 41
-30.0
 62
     5
 63
     7
 74
     0
 91
        4
 64
     7
 65
   257
 75
     1
175
     1
 42
1.0
 92
        8
 66
     7
 43
1.0
 76
     1
 77
     6
 78
     2
 67
     7
 79
     5
170
     0
171
     0
290
     0
174
     0
 93
        1
 44
0.0
173
     0
291
     1
 45
0.0
1001
ACAD
1000
AcDbSavedByObjectVersion
1070
     0
  0
VISUALSTYLE
  5
FB
102
{ACAD_XDICTIONARY
360
7D8E
102
}
102
{ACAD_REACTORS
330
EF
102
}
330
EF
100
AcDbVisualStyle
  2
Brighten
 70
    12
 71
     2
 72
     2
 73
     1
 90
        0
 40
-0.6
 41
-30.0
 62
     5
 63
     7
 74
     1
 91
        4
 64
     7
 65
   257
 75
     1
175
     1
 42
1.0
 92
        8
 66
     7
 43
1.0
 76
     1
 77
     6
 78
     2
 67
     7
 79
     5
170
     0
171
     0
290
     0
174
     0
 93
        1
 44
50.0
173
     0
291
     1
 45
0.0
1001
ACAD
1000
AcDbSavedByObjectVersion
1070
     0
  0
VISUALSTYLE
  5
FF
102
{ACAD_XDICTIONARY
360
7D96
102
}
102
{ACAD_REACTORS
330
EF
102
}
330
EF
100
AcDbVisualStyle
  2
ColorChange
 70
    16
 71
     2
 72
     2
 73
     3
 90
        0
 40
-0.6
 41
-30.0
 62
     5
 63
     8
 74
     1
 91
        4
 64
     7
 65
   257
 75
     1
175
     1
 42
1.0
 92
        8
 66
     8
 43
1.0
 76
     1
 77
     6
 78
     2
 67
     7
 79
     5
170
     0
171
     0
290
     0
174
     0
 93
        1
 44
0.0
173
     0
291
     1
 45
0.0
1001
ACAD
1000
AcDbSavedByObjectVersion
1070
     0
  0
VISUALSTYLE
  5
F8
102
{ACAD_XDICTIONARY
360
7D88
102
}
102
{ACAD_REACTORS
330
EF
102
}
330
EF
100
AcDbVisualStyle
  2
Conceptual
 70
     9
 71
     3
 72
     2
 73
     1
 90
        0
 40
-0.6
 41
-30.0
 62
     5
 63
     7
 74
     2
 91
        2
 64
     7
 65
   257
 75
     1
175
     1
 42
40.0
 92
        8
 66
     7
 43
1.0
 76
     1
 77
     6
 78
     2
 67
     7
 79
     3
170
     0
171
     0
290
     0
174
     0
 93
        1
 44
0.0
173
     0
291
     0
 45
0.0
1001
ACAD
1000
AcDbSavedByObjectVersion
1070
     0
  0
VISUALSTYLE
  5
FA
102
{ACAD_XDICTIONARY
360
7D8C
102
}
102
{ACAD_REACTORS
330
EF
102
}
330
EF
100
AcDbVisualStyle
  2
Dim
 70
    11
 71
     2
 72
     2
 73
     1
 90
        0
 40
-0.6
 41
-30.0
 62
     5
 63
     7
 74
     1
 91
        4
 64
     7
 65
   257
 75
     1
175
     1
 42
1.0
 92
        8
 66
     7
 43
1.0
 76
     1
 77
     6
 78
     2
 67
     7
 79
     5
170
     0
171
     0
290
     0
174
     0
 93
        1
 44
-50.0
173
     0
291
     1
 45
0.0
1001
ACAD
1000
AcDbSavedByObjectVersion
1070
     0
  0
VISUALSTYLE
  5
1E6
102
{ACAD_XDICTIONARY
360
7D9E
102
}
102
{ACAD_REACTORS
330
EF
102
}
330
EF
100
AcDbVisualStyle
  2
EdgeColorOff
 70
    22
 71
     2
 72
     2
 73
     0
 90
        0
 40
-0.6
 41
-30.0
 62
     5
 63
     7
 74
     1
 91
        4
 64
     7
 65
   257
 75
     1
175
     1
 42
1.0
 92
        8
 66
     7
 43
1.0
 76
     1
 77
     6
 78
     2
 67
     7
 79
     5
170
     0
171
     0
290
     0
174
     0
 93
        1
 44
0.0
173
     0
291
     1
 45
0.0
1001
ACAD
1000
AcDbSavedByObjectVersion
1070
     0
  0
VISUALSTYLE
  5
FE
102
{ACAD_XDICTIONARY
360
7D94
102
}
102
{ACAD_REACTORS
330
EF
102
}
330
EF
100
AcDbVisualStyle
  2
Facepattern
 70
    15
 71
     2
 72
     2
 73
     1
 90
        0
 40
-0.6
 41
-30.0
 62
     5
 63
     7
 74
     1
 91
        4
 64
     7
 65
   257
 75
     1
175
     1
 42
1.0
 92
        8
 66
     7
 43
1.0
 76
     1
 77
     6
 78
     2
 67
     7
 79
     5
170
     0
171
     0
290
     0
174
     0
 93
        1
 44
0.0
173
     0
291
     1
 45
0.0
1001
ACAD
1000
AcDbSavedByObjectVersion
1070
     0
  0
VISUALSTYLE
  5
F0
102
{ACAD_XDICTIONARY
360
7D78
102
}
102
{ACAD_REACTORS
330
EF
102
}
330
EF
100
AcDbVisualStyle
  2
Flat
 70
     0
 71
     2
 72
     1
 73
     1
 90
        2
 40
-0.6
 41
30.0
 62
     5
 63
     7
 74
     0
 91
        0
 64
     7
 65
   257
 75
     1
175
     1
 42
1.0
 92
        8
 66
     7
 43
1.0
 76
     1
 77
     6
 78
     2
 67
     7
 79
     5
170
     0
171
     0
290
     0
174
     0
 93
       13
 44
0.0
173
     0
291
     1
 45
0.0
1001
ACAD
1000
AcDbSavedByObjectVersion
1070
     0
  0
VISUALSTYLE
  5
F1
102
{ACAD_XDICTIONARY
360
7D7A
102
}
102
{ACAD_REACTORS
330
EF
102
}
330
EF
100
AcDbVisualStyle
  2
FlatWithEdges
 70
     1
 71
     2
 72
     1
 73
     1
 90
        2
 40
-0.6
 41
30.0
 62
     5
 63
     7
 74
     1
 91
        0
 64
     7
 65
   257
 75
     1
175
     1
 42
1.0
 92
        0
 66
   257
 43
1.0
 76
     1
 77
     6
 78
     2
 67
     7
 79
     5
170
     0
171
     0
290
     0
174
     0
 93
       13
 44
0.0
173
     0
291
     1
 45
0.0
1001
ACAD
1000
AcDbSavedByObjectVersion
1070
     0
  0
VISUALSTYLE
  5
F2
102
{ACAD_XDICTIONARY
360
7D7C
102
}
102
{ACAD_REACTORS
330
EF
102
}
330
EF
100
AcDbVisualStyle
  2
Gouraud
 70
     2
 71
     2
 72
     2
 73
     1
 90
        2
 40
-0.6
 41
30.0
 62
     5
 63
     7
 74
     0
 91
        0
 64
     7
 65
   257
 75
     1
175
     1
 42
1.0
 92
        0
 66
     7
 43
1.0
 76
     1
 77
     6
 78
     2
 67
     7
 79
     5
170
     0
171
     0
290
     0
174
     0
 93
       13
 44
0.0
173
     0
291
     1
 45
0.0
1001
ACAD
1000
AcDbSavedByObjectVersion
1070
     0
  0
VISUALSTYLE
  5
F3
102
{ACAD_XDICTIONARY
360
7D7E
102
}
102
{ACAD_REACTORS
330
EF
102
}
330
EF
100
AcDbVisualStyle
  2
GouraudWithEdges
 70
     3
 71
     2
 72
     2
 73
     1
 90
        2
 40
-0.6
 41
30.0
 62
     5
 63
     7
 74
     1
 91
        0
 64
     7
 65
   257
 75
     1
175
     1
 42
1.0
 92
        0
 66
   257
 43
1.0
 76
     1
 77
     6
 78
     2
 67
     7
 79
     5
170
     0
171
     0
290
     0
174
     0
 93
       13
 44
0.0
173
     0
291
     1
 45
0.0
1001
ACAD
1000
AcDbSavedByObjectVersion
1070
     0
  0
VISUALSTYLE
  5
F7
102
{ACAD_XDICTIONARY
360
7D86
102
}
102
{ACAD_REACTORS
330
EF
102
}
330
EF
100
AcDbVisualStyle
  2
Hidden
 70
     6
 71
     1
 72
     2
 73
     2
 90
        0
 40
-0.6
 41
-30.0
 62
     5
 63
     7
 74
     2
 91
        2
 64
     7
 65
   257
 75
     2
175
     1
 42
40.0
 92
        0
 66
   257
 43
1.0
 76
     1
 77
     6
 78
     2
 67
     7
 79
     3
170
     0
171
     0
290
     0
174
     0
 93
        1
 44
0.0
173
     0
291
     0
 45
0.0
1001
ACAD
1000
AcDbSavedByObjectVersion
1070
     0
  0
VISUALSTYLE
  5
1E4
102
{ACAD_XDICTIONARY
360
7D9A
102
}
102
{ACAD_REACTORS
330
EF
102
}
330
EF
100
AcDbVisualStyle
  2
JitterOff
 70
    20
 71
     2
 72
     2
 73
     0
 90
        0
 40
-0.6
 41
-30.0
 62
     5
 63
     7
 74
     1
 91
        4
 64
     7
 65
   257
 75
     1
175
     1
 42
1.0
 92
       10
 66
     7
 43
1.0
 76
     1
 77
     6
 78
     2
 67
     7
 79
     5
170
     0
171
     0
290
     0
174
     0
 93
        1
 44
0.0
173
     0
291
     1
 45
0.0
1001
ACAD
1000
AcDbSavedByObjectVersion
1070
     0
  0
VISUALSTYLE
  5
FD
102
{ACAD_XDICTIONARY
360
7D92
102
}
102
{ACAD_REACTORS
330
EF
102
}
330
EF
100
AcDbVisualStyle
  2
Linepattern
 70
    14
 71
     2
 72
     2
 73
     1
 90
        0
 40
-0.6
 41
-30.0
 62
     5
 63
     7
 74
     1
 91
        4
 64
     7
 65
   257
 75
     7
175
     7
 42
1.0
 92
        8
 66
     7
 43
1.0
 76
     1
 77
     6
 78
     2
 67
     7
 79
     5
170
     0
171
     0
290
     0
174
     0
 93
        1
 44
0.0
173
     0
291
     1
 45
0.0
1001
ACAD
1000
AcDbSavedByObjectVersion
1070
     0
  0
VISUALSTYLE
  5
1E5
102
{ACAD_XDICTIONARY
360
7D9C
102
}
102
{ACAD_REACTORS
330
EF
102
}
330
EF
100
AcDbVisualStyle
  2
OverhangOff
 70
    21
 71
     2
 72
     2
 73
     0
 90
        0
 40
-0.6
 41
-30.0
 62
     5
 63
     7
 74
     1
 91
        4
 64
     7
 65
   257
 75
     1
175
     1
 42
1.0
 92
        9
 66
     7
 43
1.0
 76
     1
 77
     6
 78
     2
 67
     7
 79
     5
170
     0
171
     0
290
     0
174
     0
 93
        1
 44
0.0
173
     0
291
     1
 45
0.0
1001
ACAD
1000
AcDbSavedByObjectVersion
1070
     0
  0
VISUALSTYLE
  5
F9
102
{ACAD_XDICTIONARY
360
7D8A
102
}
102
{ACAD_REACTORS
330
EF
102
}
330
EF
100
AcDbVisualStyle
  2
Realistic
 70
     8
 71
     2
 72
     2
 73
     0
 90
        2
 40
-0.6
 41
30.0
 62
     5
 63
     7
 74
     0
 91
        0
 64
     7
 65
   257
 75
     1
175
     1
 42
1.0
 92
        8
 66
   257
 43
1.0
 76
     1
 77
     6
 78
     2
 67
     7
 79
     3
170
     0
171
     0
290
     0
174
     0
 93
       13
 44
0.0
173
     0
291
     0
 45
0.0
1001
ACAD
1000
AcDbSavedByObjectVersion
1070
     0
  0
VISUALSTYLE
  5
1F3
102
{ACAD_XDICTIONARY
360
7DA8
102
}
102
{ACAD_REACTORS
330
EF
102
}
330
EF
100
AcDbVisualStyle
  2
Shaded
 70
    27
 71
     2
 72
     2
 73
     1
 90
        2
 40
-0.6
 41
30.0
 62
     5
 63
     7
 74
     0
 91
        4
 64
     7
 65
   257
 75
     1
175
     1
 42
1.0
 92
        8
 66
   257
 43
1.0
 76
     1
 77
     6
 78
     2
 67
     8
 79
     3
170
     0
171
     0
290
     0
174
     0
 93
        5
 44
0.0
173
     0
291
     0
 45
0.0
1001
ACAD
1000
AcDbSavedByObjectVersion
1070
     0
  0
VISUALSTYLE
  5
1F2
102
{ACAD_XDICTIONARY
360
7DA6
102
}
102
{ACAD_REACTORS
330
EF
102
}
330
EF
100
AcDbVisualStyle
  2
Shaded with edges
 70
    26
 71
     2
 72
     2
 73
     1
 90
        2
 40
-0.6
 41
30.0
 62
     5
 63
     7
 74
     1
 91
        2
 64
     7
 65
   257
 75
     2
175
     1
 42
1.0
 92
        8
 66
   257
 43
1.0
 76
     1
 77
     6
 78
     2
 67
     7
 79
     3
170
     0
171
     0
290
     0
174
     0
 93
        5
 44
0.0
173
     0
291
     0
 45
0.0
1001
ACAD
1000
AcDbSavedByObjectVersion
1070
     0
  0
VISUALSTYLE
  5
1EF
102
{ACAD_XDICTIONARY
360
7DA0
102
}
102
{ACAD_REACTORS
330
EF
102
}
330
EF
100
AcDbVisualStyle
  2
Shades of Gray
 70
    23
 71
     2
 72
     2
 73
     3
 90
        0
 40
-0.6
 41
-30.0
 62
     5
 63
     7
 74
     2
 91
        2
 64
     7
 65
     7
 75
     1
175
     1
 42
40.0
 92
        8
 66
     7
 43
1.0
 76
     1
 77
     6
 78
     2
 67
     7
 79
     3
170
     0
171
     0
290
     0
174
     0
 93
        1
 44
0.0
173
     0
291
     0
 45
0.0
1001
ACAD
1000
AcDbSavedByObjectVersion
1070
     0
  0
VISUALSTYLE
  5
1F0
102
{ACAD_XDICTIONARY
360
7DA2
102
}
102
{ACAD_REACTORS
330
EF
102
}
330
EF
100
AcDbVisualStyle
  2
Sketchy
 70
    24
 71
     1
 72
     2
 73
     2
 90
        0
 40
-0.6
 41
-30.0
 62
     5
 63
     7
 74
     2
 91
        2
 64
     7
 65
     7
 75
     1
175
     1
 42
40.0
 92
       11
 66
     7
 43
1.0
 76
     1
 77
     6
 78
     2
 67
     7
 79
     6
170
     0
171
     0
290
     0
174
     0
 93
        1
 44
0.0
173
     0
291
     0
 45
0.0
1001
ACAD
1000
AcDbSavedByObjectVersion
1070
     0
  0
VISUALSTYLE
  5
FC
102
{ACAD_XDICTIONARY
360
7D90
102
}
102
{ACAD_REACTORS
330
EF
102
}
330
EF
100
AcDbVisualStyle
  2
Thicken
 70
    13
 71
     2
 72
     2
 73
     1
 90
        0
 40
-0.6
 41
-30.0
 62
     5
 63
     7
 74
     1
 91
        4
 64
     7
 65
   257
 75
     1
175
     1
 42
1.0
 92
       12
 66
     7
 43
1.0
 76
     1
 77
     6
 78
     2
 67
     7
 79
     5
170
     0
171
     0
290
     0
174
     0
 93
        1
 44
0.0
173
     0
291
     1
 45
0.0
1001
ACAD
1000
AcDbSavedByObjectVersion
1070
     0
  0
VISUALSTYLE
  5
F6
102
{ACAD_XDICTIONARY
360
7D84
102
}
102
{ACAD_REACTORS
330
EF
102
}
330
EF
100
AcDbVisualStyle
  2
Wireframe
 70
     5
 71
     0
 72
     2
 73
     0
 90
        0
 40
-0.6
 41
-30.0
 62
     5
 63
     7
 74
     1
 91
        4
 64
     7
 65
   257
 75
     1
175
     1
 42
1.0
 92
        0
 66
   257
 43
1.0
 76
     1
 77
     6
 78
     2
 67
     7
 79
     3
170
     0
171
     0
290
     0
174
     0
 93
        1
 44
0.0
173
     0
291
     0
 45
0.0
1001
ACAD
1000
AcDbSavedByObjectVersion
1070
     0
  0
VISUALSTYLE
  5
1F1
102
{ACAD_XDICTIONARY
360
7DA4
102
}
102
{ACAD_REACTORS
330
EF
102
}
330
EF
100
AcDbVisualStyle
  2
X-Ray
 70
    25
 71
     2
 72
     2
 73
     1
 90
        1
 40
0.5
 41
-30.0
 62
     5
 63
     7
 74
     1
 91
        0
 64
     7
 65
   257
 75
     1
175
     1
 42
1.0
 92
        8
 66
     7
 43
1.0
 76
     1
 77
     6
 78
     2
 67
     7
 79
     3
170
     0
171
     0
290
     0
174
     0
 93
       13
 44
0.0
173
     0
291
     0
 45
0.0
1001
ACAD
1000
AcDbSavedByObjectVersion
1070
     0
  0
DICTIONARYVAR
  5
146
102
{ACAD_REACTORS
330
5E
102
}
330
5E
100
DictionaryVariables
280
     0
  1
1:1
  0
DICTIONARYVAR
  5
259
102
{ACAD_REACTORS
330
5E
102
}
330
5E
100
DictionaryVariables
280
     0
  1
3.500000
  0
DICTIONARYVAR
  5
25A
102
{ACAD_REACTORS
330
5E
102
}
330
5E
100
DictionaryVariables
280
     0
  1
acadiso.lin
  0
DICTIONARYVAR
  5
145
102
{ACAD_REACTORS
330
5E
102
}
330
5E
100
DictionaryVariables
280
     0
  1
STANDARD
  0
DICTIONARYVAR
  5
84
102
{ACAD_REACTORS
330
5E
102
}
330
5E
100
DictionaryVariables
280
     0
  1
STANDARD
  0
DICTIONARYVAR
  5
227
102
{ACAD_REACTORS
330
5E
102
}
330
5E
100
DictionaryVariables
280
     0
  1
Metric50
  0
DICTIONARYVAR
  5
228
102
{ACAD_REACTORS
330
5E
102
}
330
5E
100
DictionaryVariables
280
     0
  1
Metric50
  0
DICTIONARYVAR
  5
5F
102
{ACAD_REACTORS
330
5E
102
}
330
5E
100
DictionaryVariables
280
     0
  1
2
  0
DICTIONARYVAR
  5
63
102
{ACAD_REACTORS
330
5E
102
}
330
5E
100
DictionaryVariables
280
     0
  1
1
  0
DICTIONARYVAR
  5
7D19
102
{ACAD_REACTORS
330
5E
102
}
330
5E
100
DictionaryVariables
280
     0
  1
0
  0
DICTIONARYVAR
  5
1AE
102
{ACAD_REACTORS
330
5E
102
}
330
5E
100
DictionaryVariables
280
     0
  1
0
  0
DICTIONARYVAR
  5
1AF
102
{ACAD_REACTORS
330
5E
102
}
330
5E
100
DictionaryVariables
280
     0
  1
0
  0
DICTIONARYVAR
  5
7D17
102
{ACAD_REACTORS
330
5E
102
}
330
5E
100
DictionaryVariables
280
     0
  1
2
  0
DICTIONARYVAR
  5
7D16
102
{ACAD_REACTORS
330
5E
102
}
330
5E
100
DictionaryVariables
280
     0
  1
1
  0
DICTIONARYVAR
  5
7D69
102
{ACAD_REACTORS
330
5E
102
}
330
5E
100
DictionaryVariables
280
     0
  1
80.000000
  0
DICTIONARYVAR
  5
7D68
102
{ACAD_REACTORS
330
5E
102
}
330
5E
100
DictionaryVariables
280
     0
  1
5.000000
  0
DICTIONARYVAR
  5
7D18
102
{ACAD_REACTORS
330
5E
102
}
330
5E
100
DictionaryVariables
280
     0
  1
127
  0
DICTIONARYVAR
  5
7D6A
102
{ACAD_REACTORS
330
5E
102
}
330
5E
100
DictionaryVariables
280
     0
  1
2
  0
DICTIONARY
  5
7DAC
330
21C
100
AcDbDictionary
280
     1
281
     1
  3
ACAD_XREC_ROUNDTRIP
360
7DAD
  0
DICTIONARY
  5
7D71
330
D3
100
AcDbDictionary
280
     1
281
     1
  3
ACAD_XREC_ROUNDTRIP
360
7D72
  0
DICTIONARY
  5
7D73
330
D7
100
AcDbDictionary
280
     1
281
     1
  3
ACAD_XREC_ROUNDTRIP
360
7D74
  0
DICTIONARY
  5
7D6E
330
22
100
AcDbDictionary
280
     1
281
     1
  3
ACAD_XREC_ROUNDTRIP
360
7D6F
  0
DICTIONARY
  5
1F9
330
ED
100
AcDbDictionary
280
     1
281
     1
  3
ACAD_XREC_ROUNDTRIP
360
7D76
  3
FBXASSET
360
1FA
  0
DICTIONARY
  5
1F7
330
EC
100
AcDbDictionary
280
     1
281
     1
  3
ACAD_XREC_ROUNDTRIP
360
7D75
  3
FBXASSET
360
1F8
  0
DICTIONARY
  5
173
330
EE
100
AcDbDictionary
280
     1
281
     1
  3
ACAD_XREC_ROUNDTRIP
360
7D77
  3
BUMPTILE
360
175
  3
DIFFUSETILE
360
174
  3
FBXASSET
360
1FB
  3
OPACITYTILE
360
176
  3
REFLECTIONTILE
360
177
  0
DICTIONARY
  5
7D98
330
12E
100
AcDbDictionary
280
     1
281
     1
  3
ACAD_XREC_ROUNDTRIP
360
7D99
  0
DICTIONARY
  5
7DAA
330
21A
100
AcDbDictionary
280
     1
281
     1
  3
ACAD_XREC_ROUNDTRIP
360
7DAB
  0
DICTIONARY
  5
162
330
7F
100
AcDbDictionary
280
     1
281
     1
  3
ACAD_ROUNDTRIP_2008_TABLESTYLE_CELLSTYLEMAP
360
7D6B
  3
ACAD_XREC_ROUNDTRIP
360
7D70
  0
DICTIONARY
  5
7D82
330
F5
100
AcDbDictionary
280
     1
281
     1
  3
ACAD_XREC_ROUNDTRIP
360
7D83
  0
DICTIONARY
  5
7D80
330
F4
100
AcDbDictionary
280
     1
281
     1
  3
ACAD_XREC_ROUNDTRIP
360
7D81
  0
DICTIONARY
  5
7D8E
330
FB
100
AcDbDictionary
280
     1
281
     1
  3
ACAD_XREC_ROUNDTRIP
360
7D8F
  0
DICTIONARY
  5
7D96
330
FF
100
AcDbDictionary
280
     1
281
     1
  3
ACAD_XREC_ROUNDTRIP
360
7D97
  0
DICTIONARY
  5
7D88
330
F8
100
AcDbDictionary
280
     1
281
     1
  3
ACAD_XREC_ROUNDTRIP
360
7D89
  0
DICTIONARY
  5
7D8C
330
FA
100
AcDbDictionary
280
     1
281
     1
  3
ACAD_XREC_ROUNDTRIP
360
7D8D
  0
DICTIONARY
  5
7D9E
330
1E6
100
AcDbDictionary
280
     1
281
     1
  3
ACAD_XREC_ROUNDTRIP
360
7D9F
  0
DICTIONARY
  5
7D94
330
FE
100
AcDbDictionary
280
     1
281
     1
  3
ACAD_XREC_ROUNDTRIP
360
7D95
  0
DICTIONARY
  5
7D78
330
F0
100
AcDbDictionary
280
     1
281
     1
  3
ACAD_XREC_ROUNDTRIP
360
7D79
  0
DICTIONARY
  5
7D7A
330
F1
100
AcDbDictionary
280
     1
281
     1
  3
ACAD_XREC_ROUNDTRIP
360
7D7B
  0
DICTIONARY
  5
7D7C
330
F2
100
AcDbDictionary
280
     1
281
     1
  3
ACAD_XREC_ROUNDTRIP
360
7D7D
  0
DICTIONARY
  5
7D7E
330
F3
100
AcDbDictionary
280
     1
281
     1
  3
ACAD_XREC_ROUNDTRIP
360
7D7F
  0
DICTIONARY
  5
7D86
330
F7
100
AcDbDictionary
280
     1
281
     1
  3
ACAD_XREC_ROUNDTRIP
360
7D87
  0
DICTIONARY
  5
7D9A
330
1E4
100
AcDbDictionary
280
     1
281
     1
  3
ACAD_XREC_ROUNDTRIP
360
7D9B
  0
DICTIONARY
  5
7D92
330
FD
100
AcDbDictionary
280
     1
281
     1
  3
ACAD_XREC_ROUNDTRIP
360
7D93
  0
DICTIONARY
  5
7D9C
330
1E5
100
AcDbDictionary
280
     1
281
     1
  3
ACAD_XREC_ROUNDTRIP
360
7D9D
  0
DICTIONARY
  5
7D8A
330
F9
100
AcDbDictionary
280
     1
281
     1
  3
ACAD_XREC_ROUNDTRIP
360
7D8B
  0
DICTIONARY
  5
7DA8
330
1F3
100
AcDbDictionary
280
     1
281
     1
  3
ACAD_XREC_ROUNDTRIP
360
7DA9
  0
DICTIONARY
  5
7DA6
330
1F2
100
AcDbDictionary
280
     1
281
     1
  3
ACAD_XREC_ROUNDTRIP
360
7DA7
  0
DICTIONARY
  5
7DA0
330
1EF
100
AcDbDictionary
280
     1
281
     1
  3
ACAD_XREC_ROUNDTRIP
360
7DA1
  0
DICTIONARY
  5
7DA2
330
1F0
100
AcDbDictionary
280
     1
281
     1
  3
ACAD_XREC_ROUNDTRIP
360
7DA3
  0
DICTIONARY
  5
7D90
330
FC
100
AcDbDictionary
280
     1
281
     1
  3
ACAD_XREC_ROUNDTRIP
360
7D91
  0
DICTIONARY
  5
7D84
330
F6
100
AcDbDictionary
280
     1
281
     1
  3
ACAD_XREC_ROUNDTRIP
360
7D85
  0
DICTIONARY
  5
7DA4
330
1F1
100
AcDbDictionary
280
     1
281
     1
  3
ACAD_XREC_ROUNDTRIP
360
7DA5
  0
XRECORD
  5
7DAD
102
{ACAD_REACTORS
330
7DAC
102
}
330
7DAC
100
AcDbXrecord
280
     1
102
DISPLAYNAME
  1
Metric50
102
FLAGS
 90
        0
  0
XRECORD
  5
7D72
102
{ACAD_REACTORS
330
7D71
102
}
330
7D71
100
AcDbXrecord
280
     1
102
SHADEPLOT
 70
     0
102
SHADEPLOTRESLEVEL
 70
     2
102
SHADEPLOTCUSTOMDPI
 70
   300
  0
XRECORD
  5
7D74
102
{ACAD_REACTORS
330
7D73
102
}
330
7D73
100
AcDbXrecord
280
     1
102
SHADEPLOT
 70
     0
102
SHADEPLOTRESLEVEL
 70
     2
102
SHADEPLOTCUSTOMDPI
 70
   300
  0
XRECORD
  5
7D6F
102
{ACAD_REACTORS
330
7D6E
102
}
330
7D6E
100
AcDbXrecord
280
     1
102
SHADEPLOT
 70
     0
102
SHADEPLOTRESLEVEL
 70
     2
102
SHADEPLOTCUSTOMDPI
 70
   300
  0
XRECORD
  5
7D76
102
{ACAD_REACTORS
330
1F9
102
}
330
1F9
100
AcDbXrecord
280
     1
102
MATERIAL
148
0.0
149
0.0
149
0.0
 93
        0
 94
       63
282
     0
 72
     1
 77
     1
171
     1
175
     1
179
     1
273
     0
  0
XRECORD
  5
1FA
102
{ACAD_REACTORS
330
1F9
102
}
330
1F9
100
AcDbXrecord
280
     1
 70
     1
 90
429727718
  1
D62C5603-E3A1-4AEA-B7FB-FE5D8D0755AF
310
504B03040A0000080000CC70623B3DEE336E79000000790000001B0000006175746F6465736B2D64657369676E2D7061636B6167652E786D6C3C3F786D6C2076657273696F6E3D22312E302220656E636F64696E673D227574662D3822203F3E3C666F726D6174733E3C666F726D61743E687474703A2F2F736368656D612E
310
6175746F6465736B2E636F6D2F64657369676E2D7061636B6167652F323030393C2F666F726D61743E3C2F666F726D6174733E504B0304140006080800CC70623BD486FD9CA0000000F4000000130000005B436F6E74656E745F54797065735D2E786D6C7D8EC10E82300C865F65E91D8A1E8C310C0EEA1BF002731658846E
310
D98AC1B77784ABF1D8FE5FBFBF75BBCE937A534CCEB38643598122B6FEE978D0B0485F9C41B54DDD7D022595594E1A469170414C76A4D9A4D207E29CF43ECE46F218070CC6BECC4078ACAA135ACF422C856C0E68EA1BF5669944DDD7BCDE7B1F8E415D77AECB980613C2E4AC91FC167A2B244592486606FC29C8FD7F045B9A
310
EF7053A7E60B504B0304140006080800CC70623B853B8169EB0000007C01000008000000636F72652E786D6C8D90416EC3201045AF62CDB6C206821CC7C244919D9CA01740401C94182C03558F5F9C3852BBEB6A467FFE9B197D7EFC9E1EC5975982F5AE035262288C535E5B377690E21535501C055FBC8FBF6C503839990E
310
5619041F179FE64D52DE45E362569DD7661365082642A11EB9E920A89B99642953CC8E702F67A9EE7234257977194EC9EAE275C4EABCCF5EAD5940D4AC6F0E35A568B8F43562CD7046CD199FD07E60174276A7BE677B5EADB0E0D14EEFFB6A31321A0D82627C4084204C3F096B71DD52F6819B16635EADF63F509AF53FA164
310
5DDCD1EDDD17164090FCC8732078B56691CB33A85CD7DCC40F504B0304140006080800CC70623B55019EA25F0000007C00000007000000636E782E786D6C4DCB3B0E80201045D1AD90E915ED2CF8AC45050C11660C8261F98AB1B07AC9C97D42D718D865D3E909258CFD00CCE24AC6E326A164D74DC0B4128928FF32603847
310
2BA13128B1252AC747C6BAB984FC68F0B87FE8960A5C09FE86CFB69FBA01504B0304140006080800CC70623BDBABAAF470010000D40300000C0000006662782F636F72652E786D6CC553D16E823014FD95A6AF4B694182CC941A83FA05FB810A9511A125A5257EFE2E82712ECEB8A7F100CD39F7F69E734AF9FADC366850B6
310
AF8DCE7018308C942E4C59EB2AC3DE1D498AD15A706B8CFB56869196ADCAF00863C12B6B7C374385D14E6907A836A59A41D9F7CA615434B0C8705F7CAA5606D23BA8E84F41278B93AC54100640439DE0BDB320004D43C63716C7C399D30917DCFBBA9CD9BA8469F5B156168B24CED3F7248AC8769F27244EB73B92EED8862C
310
B7F13E0C179B3C8F979C8ECD82BBBABDAA2BAC924E9558448CBD9330242CFA08E3154B5651FCC6D215639C8EE5774DBE2B5F6CF2B5768B68963BB5F5588420E442FC700B1139D4CB01F450C1E918227C2E09DF070D8140C84E1E9AAB8F1340832A9CB13130A5F1376A908D57309505ECF2A0DF179C4E9D30F5B239B87E3823
310
7A79C6F31DE1A8A5AEC08474B03C7837EAE4938639B44E5932B833D2C6B6B279CDC613877FA26EE21F4A2A4C63EC7F29A2F301D1F9F7A0E37D145F504B0304140006080800CC70623B9C113CC27E0000009D0000000B0000006662782F636E782E786D6C4DCCDF0A83201C86E15B91DFB94BFB330DD428C8FB886521330DA7
310
6397BF1A1DECE883878F57749FCDA1B7892F1BBC047A23808C7F84D9FA55424E0BE6803A256208E9EF06C84F9B91703228B1C690F78B66B34CD9A5439DF5CF0BFBF65E35BCA1B8D6A5C6F540381E886698B5741C695F9503EBA150A2F8958E3DC3EA0B504B0304140006080800CC70623B7DF2F77C2A010000120200003100
310
00006662782F41393633353835312D344632462D344230382D423046372D3739314545314133324237412F636F72652E786D6C8D51DB8EC22014FC15C2939B0D2DB4B45643319AE817EC0F6041255A68B86CFCFC856D4D76DF7CE190393373060EDB3DC707F856CE6B6B7A480A0C81328395DA5C7B18C3057510EC3873D686
310
3F34088C18550F330C39BB3A1BA7051AAC09CA84841A2BD5020AEF55806078A44B0FFD7053A328440C89E1EFC52486BBB8AA8214A99D789CF9E05200300FC927E4FB4D5B375D43103D5527440FB843077C5AA3F5861C8F645F5787F59E95B390B318B55CE45AA638FAA2957BD7248B390B7A7CC51F9C124149C82B8C378810
310
84AB2F42B7B8DD56F413775B8C5999E9FF4471926F8AA236A1AE96B8B3CC434E5839373893369E1FAF30EA395917409EB7F26AF8801C171837A4A6AC9C89E9F9C9B1A58BA30FD6A5EF5DDDCF894B9AD9B6A59C957943A9FCAE2FD5BC4DFE03504B0304140006080800CC70623BAD7543B64E01000033030000300000006662
310
782F41393633353835312D344632462D344230382D423046372D3739314545314133324237412F636E782E786D6CD593CD6EC32010845F0571AD6CE3D48AD20813A9873E410FBD12D82434182C7EAAE6EDBB2424CD25871E7B41D6EC30B3FA84F9E67BB2E40B4234DE8DB46F1925E094D7C6ED479AD3AE5951B2113C789FEE
310
6C943839C1488B4C05DF079FE72A69D8C96C13AAD6B8631503449F83828872B949AC57D26200B826A308D316B4064D6E46FCDA41C05550DC9E483A00797BFD207EFB092A45DE9514C1BBD22178396BD39D891265658C238DEA00936C654E5E433CB65A26D9F6EDB5EBC14EBF49A45CB856E66048291F6939A9A81BB5C89177
310
38143CA680F4AA299D66A042CEB3354A2684DC9D8D178FE0D9B8B41CAAD720F880EE7EF93C0C18769E099ECC04D5A102C8049A8A05632F4DDF376CF1DE0F6BB65C2F8627B65A33C6BB62177CEBBDAD973006829F89F22E814B54F4BC2BE347F8AA8F681390B50FA73F804400B5F542E796F19FF974E7F78DB802FE05E20750
310
4B0304140006080800CC70623BE75B7789680500003C100000340000006662782F41393633353835312D344632462D344230382D423046372D3739314545314133324237412F6F626A656374732E786D6CAD575B8F9B3818FD2B887D06C22499CB8AA1CA655245D5B455A356FB305264C061D8018C6C3393D95FBFC7600890
310
A4CD5EF210B0B1BFEBF98E3F7B1FF6596ABC522E1296DF9BAE3D320D9A872C4AF2F8DE2CE5CEBA358D0FBEC719939D65A691938CDE9B6ADAF4BD98B3B2D05311DD91329583D9D5FC0F438434A7A611A644887B5384CF34233629258BA878B12322891DEFF6B66BD70BFB62634E8AE781D082709A4B588AF91C528CDA28B73F
310
1C998EEF39EABBEFA97FBD6A7C7E9553F9D3D79FE442923C3C523610337627CB87ABE99D359D4CC6D6E4FACAB5E6ABF9D2726FC6A3C5F56271377BB88362213924694B38DD99FE47C48627A1E7D49F5A8BB5E1A74C0A599ED3B0F21F1E56366B89112D681E218F0915D0D6F17AD41FBA2A369DCF6335D62ABBD39779D5DDD1
310
11D4D8DE3CBB96B2E04FB8202E41051754A1AA8E8F76B4C6DFE810B580B1547F4B84911149794252234D024EF8BBE963A95AE27B3D310A9D5C215C7960FAEE415ED75694C6AFB17BCACA5D99A60A9AA65F217B0BFC53292ACB92BF283FAD0D3621576592CB5BED907C2FA8E9DF794E35E97BEA31BED21FEB401ABB94C44839
310
DCACBF0E1C5DA8DA5B2F4DFFD32AD86F543D9E565E7056502E157C00AD2671CD534549AB752FCA9CDA00677A313F04E51B22FF19E57B300579E3C97EB29F682D92935CEC18CF901B7B54FD8C51F362B56FC72FE0B3C1EAE335EDCCBF5AEC39ADB17DC238973F804BA5E6F6BFE7AF1FB32E523BE9F3BD571418E3631DCA4D48
310
5250CF639223210A9446CA30052EDF057BD35F8329C1ECD84552BF0DC8D18BE7BCE23BFE6BD960AB4A7DE79923A103BEBD80F911CBAA2C60DB19B01CF164A5583B772EE6D3FFA56666CBCDA74DC97724A48F9A58967497E489C4D979006FD7A05E227A1EBDD0F737C623387A9C844D3709995625106D157315F8B8392CD4E0
310
A0B9A720C4BE9829CEF37EA1E13111214D53925356365ADA634861B52519DD27A00AEB808EAF0628E6F435519D446F45CF2C9CF5214F0A15B2F6D06B79DA3EE3CBF7F56780D2F4E7EF73A0F5E5B02A38D07DC852C6B7C1FBB6664213E0C39E3EBA7FF4E1AD23EA2829407C85E586727488B751B2DB9502BC7B228A3FD68B6E
310
A65A22397E690AA8D158D7E404EC8CDA235CC3B7D1898680131CEC2CDF2638C65196279577750F15884AEE19F94199155B92B13297978469D4F8D358DF0AEF7631E28DC8F0D9F437D5D39A83B2231A1D52D543813A824EF8D44BCFF2FA6A31BD1E8DAD87F1CCB526B3879935BF59CDADD5C37479BB1CDD4CA7B3556B516589
310
EF352754B706114D9C885EC9131DE6EFEB43D99AFE2391C2F958179413D7CFEF6B1B6DB1E7600F00DE6E5C67454A339A4BA2E0FBA85ED26F045D454F463DBFCE484C2F90F2E5E3666003662ED8F755951A7D1BECD5B30B550B2785C8E7320B7292A4838DDA71BBC863ED7613CAF659337A3354231D4FF4A182A54904C2898C
310
98B28C4AD0CE056CCF332A80986E571EE9DBC305BB5FEB7E509220A58D25CF042D712A806AC0AD0C657FDEF80D2D9CEAA2EE4D1C76F60BFE74219A06527D6F82DF6412526107381E55E353090704D085B52408A8913C4ED159D79BDA71BB4BC506F4831350EB6F975CD22D69BF7AC49B91A2C0A9DDA3D5CA36AD20FC478E37
310
E61844E2352865EBCB61A275A65283CAAA9DD27703B4102F5AF51EF5F573B75CBB5AD38BC845F7A49F82A0966A49C2E3EA5EA0ECD326CD965F1DB402C6FA8B51A4658C5C5E2EC9E214602E55810345408596591009A82E7E7FFACA19EEA299B14A0081A705CB3296EBC14CDF658DCD336EA6D1136881AAEB87B81AB9EE53D5
310
F5EB8BC8362082DA24122F98680A4E7930C01A0079749CEA14382A0783E5EBA5A10F8C098456A03D6A4AEB6BB881E2513747552A5DB22C7EDAF83BD5528081A365F7FF06504B0304140006080000CC70623B000000000000000000000000350000006662782F41393633353835312D344632462D344230382D423046372D37
310
39314545314133324237412F76657274696365732E62696E504B0304140006080800CC70623BF270F1330600000004000000360000006662782F41393633353835312D344632462D344230382D423046372D3739314545314133324237412F747269616E676C65732E62696E636660600000504B0304140006080000CC7062
310
3B000000000000000000000000370000006662782F41393633353835312D344632462D344230382D423046372D3739314545314133324237412F617474726962757465732E62696E504B0304140006080800CC70623B08DA0BD19000000041010000360000006662782F41393633353835312D344632462D344230382D4230
310
46372D3739314545314133324237412F6469726563746F72792E786D6C858F410AC3201045AF22B36F53E9A60B35CBEEBAE80D244E44489C6234F4F835464A48035D0DF398FF9F8AF63D0E6CC63039F212F8F9020C7D47C6792B21C5FE7403D62A1188E2E60C98D7234A5830286103A55745067B9D86B8A3CF9C7F90C11DE6
310
07FB144396D7B6A82D282E9A152AD114D5EF2CB866EEE831B8EEA07A7BB5A8D7D61A2BAAEB7FD5F70921FF497D00504B0304140006080800CC70623BEDD1DC58FD000000A00100003B0000006662782F41393633353835312D344632462D344230382D423046372D3739314545314133324237412F7265736F75726365732F
310
636F72652E786D6C8D504B6E833010BD0A9A6D65B00922041947112427E8052C33A156828DFCA97AFC9A40A576D7CDCCE87D344F8F9FBFE667F689CE6B6B3A6039850C8DB2A336530731DC4903D95970676DF82583CCC8193B5861107C72362E3BA4AC096842428D1D7107A5F7182053CF7474E0D507CE32973124857FE48B
310
540F3961CEF244279DE03EB81420DB9EAC1384436FA353E879B1B182C7A8C75DA3C7F453DF353A1075D537A7BA6464B8F535A99AE14A9A2BBD90E350DD183B5CFABE3AF262350B1EF4FC9351399401471025A527C218A1E53BAB5A5AB765F5469B96525EACF23FA6B88CFF34456DC2A1DCE36E360F82A5202F42F062ED2BAD
310
579969AFDD8A6F504B010214000A0000080000CC70623B3DEE336E79000000790000001B00000000000000000000000000000000006175746F6465736B2D64657369676E2D7061636B6167652E786D6C504B01021400140006080800CC70623BD486FD9CA0000000F40000001300000000000000000000000000B20000005B
310
436F6E74656E745F54797065735D2E786D6C504B01021400140006080800CC70623B853B8169EB0000007C010000080000000000000000000000000083010000636F72652E786D6C504B01021400140006080800CC70623B55019EA25F0000007C000000070000000000000000000000000094020000636E782E786D6C504B
310
01021400140006080800CC70623BDBABAAF470010000D40300000C00000000000000000000000000180300006662782F636F72652E786D6C504B01021400140006080800CC70623B9C113CC27E0000009D0000000B00000000000000000000000000B20400006662782F636E782E786D6C504B01021400140006080800CC70
310
623B7DF2F77C2A010000120200003100000000000000000000000000590500006662782F41393633353835312D344632462D344230382D423046372D3739314545314133324237412F636F72652E786D6C504B01021400140006080800CC70623BAD7543B64E010000330300003000000000000000000000000000D2060000
310
6662782F41393633353835312D344632462D344230382D423046372D3739314545314133324237412F636E782E786D6C504B01021400140006080800CC70623BE75B7789680500003C10000034000000000000000000000000006E0800006662782F41393633353835312D344632462D344230382D423046372D3739314545
310
314133324237412F6F626A656374732E786D6C504B01021400140006080000CC70623B0000000000000000000000003500000000000000000000000000280E00006662782F41393633353835312D344632462D344230382D423046372D3739314545314133324237412F76657274696365732E62696E504B01021400140006
310
080800CC70623BF270F133060000000400000036000000000000000000000000007B0E00006662782F41393633353835312D344632462D344230382D423046372D3739314545314133324237412F747269616E676C65732E62696E504B01021400140006080000CC70623B0000000000000000000000003700000000000000
310
000000000000D50E00006662782F41393633353835312D344632462D344230382D423046372D3739314545314133324237412F617474726962757465732E62696E504B01021400140006080800CC70623B08DA0BD1900000004101000036000000000000000000000000002A0F00006662782F41393633353835312D344632
310
462D344230382D423046372D3739314545314133324237412F6469726563746F72792E786D6C504B01021400140006080800CC70623BEDD1DC58FD000000A00100003B000000000000000000000000000E1000006662782F41393633353835312D344632462D344230382D423046372D3739314545314133324237412F7265
310
736F75726365732F636F72652E786D6C504B0506000000000E000E0080040000641100000000
  0
XRECORD
  5
7D75
102
{ACAD_REACTORS
330
1F7
102
}
330
1F7
100
AcDbXrecord
280
     1
102
MATERIAL
148
0.0
149
0.0
149
0.0
 93
        0
 94
       63
282
     0
 72
     1
 77
     1
171
     1
175
     1
179
     1
273
     0
  0
XRECORD
  5
1F8
102
{ACAD_REACTORS
330
1F7
102
}
330
1F7
100
AcDbXrecord
280
     1
 70
     1
 90
429727718
  1
30362254-06B7-45E0-A893-8CFA70E3D6BC
310
504B03040A0000080000CC70623B3DEE336E79000000790000001B0000006175746F6465736B2D64657369676E2D7061636B6167652E786D6C3C3F786D6C2076657273696F6E3D22312E302220656E636F64696E673D227574662D3822203F3E3C666F726D6174733E3C666F726D61743E687474703A2F2F736368656D612E
310
6175746F6465736B2E636F6D2F64657369676E2D7061636B6167652F323030393C2F666F726D61743E3C2F666F726D6174733E504B0304140006080800CC70623BD486FD9CA0000000F4000000130000005B436F6E74656E745F54797065735D2E786D6C7D8EC10E82300C865F65E91D8A1E8C310C0EEA1BF002731658846E
310
D98AC1B77784ABF1D8FE5FBFBF75BBCE937A534CCEB38643598122B6FEE978D0B0485F9C41B54DDD7D022595594E1A469170414C76A4D9A4D207E29CF43ECE46F218070CC6BECC4078ACAA135ACF422C856C0E68EA1BF5669944DDD7BCDE7B1F8E415D77AECB980613C2E4AC91FC167A2B244592486606FC29C8FD7F045B9A
310
EF7053A7E60B504B0304140006080800CC70623B1EC5D7A3EB0000007C01000008000000636F72652E786D6C8D90416EC3201045AF82665B6103C6756C6122AB4D4ED00B204C5C94182C03558F5F9C3852BBEB6A467FFE9B197D71FC9E6FE8CBACC17AD7032D0820E3B41FAD9B7A48F1820F808E52ACDEC75F36404ECDA687
310
4D0629A6D5A76597B477D1B89855E747B38B2A041301E95B6E7A08FAD3CCAA50296647B8168BD2573599823EBB0CA76447F43862C7BCCF5EAC59410E4DDD9C7973C2755553CCCFA4C603E3040F1565ED3B1FDE4E432BCA0D9622DAF9795FAF464533826484B498524CD807E51D79ED187F21878E10516EF63F505AC67F42C9
310
BA58B1FDDD071640D2FCC87D2045B96591CB3DA85CB7DCE40F504B0304140006080800CC70623B55019EA25F0000007C00000007000000636E782E786D6C4DCB3B0E80201045D1AD90E915ED2CF8AC45050C11660C8261F98AB1B07AC9C97D42D718D865D3E909258CFD00CCE24AC6E326A164D74DC0B4128928FF32603847
310
2BA13128B1252AC747C6BAB984FC68F0B87FE8960A5C09FE86CFB69FBA01504B0304140006080800CC70623B8C9102E971010000D40300000C0000006662782F636F72652E786D6CC5535B6E833010BC8AE5DF0A6C08340F1947A84D4ED00B38C6A128602363A31CBFCB234A53A551FA553EC09AD9F5CE8C31DB9E9B1AF5CA
310
7695D1198E428A91D2D214952E33ECDD315861B4E5CC1AE3BE9561A445A3323CC098B3D21ADFCE9034DA29ED00D5A6503328BA4E398C640D8B0C77F253352214DE4145770A5B214FA2546114020D759C75CE8200340D19DE981F0F6746269C33EFAB6266AB02A655C74A59CCF365BADC27CB5D902ED22848F6340DF238A141
310
BE88E2F57B92BFEDF23523433367AE6A2EEAA455C2A902F398D2751045018D3FA264435F3771F242571B4A1919CA6F9A7C5B3CD9E42BED16F12C776AEB308F40C848FC700B1139D4891EF410CEC810227CC6846F8386402064270EF5C5C709A05E49676C024C61FC95EA45ED154CA5211D1FF4FB8291A913A68E9B83EBBB33
310
E2A7673CDE118E5AE8124C0807CB8377834E366998436B950D7A7746DAD846D4CFD978E0F04FD455FC5D49D2D4C6FE9722321F10997F0F32DC47FE05504B0304140006080800CC70623BFFEA85907E0000009D0000000B0000006662782F636E782E786D6C4DCCD10A83201886E15B91FFDC95D95A811AB6F23E625948A6C3
310
E9D8E5AF46073BFAE0E1E365ED67B3E8ADC3CB78C7815C7240DA3DFC64DCC221C519D7805AC182F7F1EF06C88D9BE6703008B6049F9E274D7A1E938DBB5AE3D6131B2589BA0D3D965551E0B2EA732C9B9A624AAEB41E3A557677029960D9AFB4EF11165F504B0304140006080800CC70623B4FEEA4082C0100001202000031
310
0000006662782F39464131463745442D413632322D343644302D413938332D3331353338454246344243312F636F72652E786D6C8D515B6EC32010BC0AE2AB55850DD871ED0813254D72825EC00192A2C460F1A872FC42ED48ED5F7E00CDCECCCEB26C731F6FE05B39AFADE921293004CA082BB5B9F43086336A21D870E6AC
310
0D7F68109861543DCC30E4ECE26C9C164858139409093556AA051CBC570102714B8F1E7AF1A5C6A11862480C7F2DA6415C878B2A4891CA89C7990F2E050073937C42DE1DB7E4F87ED8A36D4329AA9B3D46DBAEAD504556557BD81DEBDD0761E52CE42C462D17B996298E3E6BE59E35C962CE821E1FF18553435012728A7187
310
0841987E927A8D9B35ADDF70BBC6989599FE4F1427F9A4286A132ABAC49D651EF234CD5CE04CDA78BA3DC2A8FB645D00B9DF8B57E215725C60BCA2A463E54C4CE327C7A65E1C7DB02E7DEFCBF594B864C5CA6CDBD49C957943E9FA5D5FBAF336F90F504B0304140006080800CC70623BAD7543B64E01000033030000300000
310
006662782F39464131463745442D413632322D343644302D413938332D3331353338454246344243312F636E782E786D6CD593CD6EC32010845F0571AD6CE3D48AD20813A9873E410FBD12D82434182C7EAAE6EDBB2424CD25871E7B41D6EC30B3FA84F9E67BB2E40B4234DE8DB46F1925E094D7C6ED479AD3AE5951B2113C
310
789FEE6C943839C1488B4C05DF079FE72A69D8C96C13AAD6B8631503449F83828872B949AC57D26200B826A308D316B4064D6E46FCDA41C05550DC9E483A00797BFD207EFB092A45DE9514C1BBD22178396BD39D891265658C238DEA00936C654E5E433CB65A26D9F6EDB5EBC14EBF49A45CB856E66048291F6939A9A81BB5
310
C8917738143CA680F4AA299D66A042CEB3354A2684DC9D8D178FE0D9B8B41CAAD720F880EE7EF93C0C18769E099ECC04D5A102C8049A8A05632F4DDF376CF1DE0F6BB65C2F8627B65A33C6BB62177CEBBDAD973006829F89F22E814B54F4BC2BE347F8AA8F681390B50FA73F804400B5F542E796F19FF974E7F78DB802FE05
310
E207504B0304140006080800CC70623B16AB87BA640500003C100000340000006662782F39464131463745442D413632322D343644302D413938332D3331353338454246344243312F6F626A656374732E786D6CAD575B6FA33818FD2B887DE6924B3BED8A326A92B68A663B534DD4D13E548A0C38942D60649B369D5FBFC7
310
600890A493BDE42160637FD7F31D7FF63E6FB3D478A55C242CBF3247B66B1A340F5994E4F19559CA8D75611A9F7D8F33263BCB4C232719BD32D5B4E97B316765A1A722BA21652A07B3B7B33F0D11D29C9A46981221AE4C113ED38CD8A4942CA2E2C58E882476BCD9DA23BB5ED8171B73523C0F841684D35CC252CCE79062D4
310
468DFA43D7747CCF51DF7D4FFDEB5593E3AB9CCA9FBEFE241792E4E19EB28198C968BAB8199F5D5A67D3E9C49A9E8F47D6EC76B6B0469F26EEFC7C3EBFBCBEB98462213924694B38DD98FE1D62C393D073EA4FADC5DAF04326852CCF6958F90F0F2B9BB5C48816348F90C7840A68EB78EDF68723159BCEE7891A6B95DDE9D3
310
BCEAEEE8086A6C6F9E5D4B59F0175C10A7A0820BAA5055C7473B5AE3CFDD452D602CD5DF12616444529E90D448938013FE6EFA58AA96F85E4F8C42275708571E98FE6827AF6B2B4AE3D7D83D64E5A64C53054DD3AF90BD06FEA9149565C94FCA0F6B834DC85599E4F2423B24DF0B6AFA979E534DFA9E7A4CC6FA631D486393
310
921829879BF5D781A373557BCB85E97FB90DB62B558F8795179C15944B051F40AB495CF35451D26A4727654E6D8033BD98EF82F21D91FF8AF2DD9982BCF1643BDD4EB516C9492E368C67C88DED563FC36D5EACF66DFF057C3658BDBFA69DF9578B3DA735B64F18C7F20770A9D45CFCF7FCF563D6456A277DBEF78A02637CA2
310
43B90A490AEAB94F72244481D24819A6C0E59B606BFA4B3025981DBB48EAB701D97BF19C577CC77F2D1B6C55A9EF3C732474C0B727303F625995056C3B02963D9EAC146BE78EC5FCEC7FA999EBC5EACBAAE41B12D27B4D2C0BBA49F244E2ECDC81B76B502F113D8F5EE8FB1BE3111CDD4FC2AA9B844CAB1288B68AB90A7CDC
310
1C166AB0D3DC5310625FCC14E779BFD0709F8890A629C9292B1B2DED31A4B0DA928CEE135085754027E3018A397D4D5427D15BD1330B677DC8934285AC3DF45A9EB68FF8F2B8FC0A509AFEECFD0FF2DE25CC6047F7214B195F07EFEB9A094D800F7BFAE8FED187B78EA8A3A400F115961BCAD1215E47C966530AF0EE8128FE
310
58CEBB996A8964FFA529A046635D9353B0336A8F700DDF46271A024E70B0B37C9DE01847591E54DED53D54202AB947E4076556AC49C6CA5C9E1226B7F1A7B1BE15DEED62C41B91E1B3E9AFAAA735036547343A925075041DF0A9979E893B391F8FCFA6967B3EFB644DCF6E5CEBFAE272625DCC6FAF3FB93793C5F90CE1EF57
310
407342756B10D1C489E8953CD1617E5CEECAD6F4EF8914CE5D5D504E5C3F1F9736DA62CFC11E00BCDDB8CC8A9466349744C1F75EBDA4DF09BA8A9E8C7A7E9991989E20E5DBDD6A6003664ED8F7A04A8DBE0DF6EAD9B9AA858342E47399053949D2C146EDB85DE4B176BB0965FBAC19BD19AA918E27FA50C1D22402E144464C
310
59462568E704B6E71915404CB72B8FF4EDE184DDAF753F284990D2C6926782963815403548A70C657FDEF80D2D9CEAA2AE4C1C76F60BFE74219A06527D6582DF6412526107381E55E353090704D085B52408D0933C4ED159D79BDA71BB4BC506F4831350EB6F979CD22D69BF7AC49B91A2C0A9DDA3D5CA36AD20FC478E37E6
310
1844E2352865EBCB6EA275A652E3836BE04EFB400BF1A2556F515F1FBB35B2AB35BD889C744FFA1004B5544B121E57F70215746DD2F5E2C1412B602CBF19455AC6C8E5E9922C4E01E65215385004546899059180EAFCF7A707CE7017CD8CDB0410789AB32C63B91E5CEBBBACB17AC6CD347A022D5075FD106377347AAABA7E
310
7D11590744509B44E205134DC1290F06580320F78E537D3D73540E06CB970B431F185308AD40BBD794D6D77003C5A36E8EAA54BA64597CD8F83BD552A080A365F7FF06504B0304140006080000CC70623B000000000000000000000000350000006662782F39464131463745442D413632322D343644302D413938332D3331
310
353338454246344243312F76657274696365732E62696E504B0304140006080800CC70623BF270F1330600000004000000360000006662782F39464131463745442D413632322D343644302D413938332D3331353338454246344243312F747269616E676C65732E62696E636660600000504B0304140006080000CC70623B
310
000000000000000000000000370000006662782F39464131463745442D413632322D343644302D413938332D3331353338454246344243312F617474726962757465732E62696E504B0304140006080800CC70623B08DA0BD19000000041010000360000006662782F39464131463745442D413632322D343644302D413938
310
332D3331353338454246344243312F6469726563746F72792E786D6C858F410AC3201045AF22B36F53E9A60B35CBEEBAE80D244E44489C6234F4F835464A48035D0DF398FF9F8AF63D0E6CC63039F212F8F9020C7D47C6792B21C5FE7403D62A1188E2E60C98D7234A5830286103A55745067B9D86B8A3CF9C7F90C11DE607
310
FB144396D7B6A82D282E9A152AD114D5EF2CB866EEE831B8EEA07A7BB5A8D7D61A2BAAEB7FD5F70921FF497D00504B0304140006080800CC70623B0D6EF93BFE000000A00100003B0000006662782F39464131463745442D413632322D343644302D413938332D3331353338454246344243312F7265736F75726365732F63
310
6F72652E786D6C8D50596E833010BD0A9ADFCA60B334011947A8694ED00B586642AC041B79A97AFC9A40A5F6AF3F33A3B7689E1E3F7DCD8FEC139DD7D6F4C0720A191A65476DA61E62B892236427C19DB5E1970C322367EC618541F0C9D9B8EC90B226A009093576C41D94DE63804C3DD2D18357379C652E63480A7FCF17A9
310
EE72C29CE5894E3AC17D702940B63D59270887DE46A7D0F36263058F518FBB468FE9A7BE6A7420864373B8D4873369AA8691FA421B3294352543C5CAF65C0F6FEF43CB8BD52C78D0F34F46E550061C419494B6843142CB0F5677F4B52BEB177AEC28E5C52AFF638ACBF84F53D42654E51E77B379102C05791282176B5F693D
310
CB4C7BED567C03504B010214000A0000080000CC70623B3DEE336E79000000790000001B00000000000000000000000000000000006175746F6465736B2D64657369676E2D7061636B6167652E786D6C504B01021400140006080800CC70623BD486FD9CA0000000F40000001300000000000000000000000000B20000005B
310
436F6E74656E745F54797065735D2E786D6C504B01021400140006080800CC70623B1EC5D7A3EB0000007C010000080000000000000000000000000083010000636F72652E786D6C504B01021400140006080800CC70623B55019EA25F0000007C000000070000000000000000000000000094020000636E782E786D6C504B
310
01021400140006080800CC70623B8C9102E971010000D40300000C00000000000000000000000000180300006662782F636F72652E786D6C504B01021400140006080800CC70623BFFEA85907E0000009D0000000B00000000000000000000000000B30400006662782F636E782E786D6C504B01021400140006080800CC70
310
623B4FEEA4082C0100001202000031000000000000000000000000005A0500006662782F39464131463745442D413632322D343644302D413938332D3331353338454246344243312F636F72652E786D6C504B01021400140006080800CC70623BAD7543B64E010000330300003000000000000000000000000000D5060000
310
6662782F39464131463745442D413632322D343644302D413938332D3331353338454246344243312F636E782E786D6C504B01021400140006080800CC70623B16AB87BA640500003C1000003400000000000000000000000000710800006662782F39464131463745442D413632322D343644302D413938332D3331353338
310
454246344243312F6F626A656374732E786D6C504B01021400140006080000CC70623B0000000000000000000000003500000000000000000000000000270E00006662782F39464131463745442D413632322D343644302D413938332D3331353338454246344243312F76657274696365732E62696E504B01021400140006
310
080800CC70623BF270F133060000000400000036000000000000000000000000007A0E00006662782F39464131463745442D413632322D343644302D413938332D3331353338454246344243312F747269616E676C65732E62696E504B01021400140006080000CC70623B0000000000000000000000003700000000000000
310
000000000000D40E00006662782F39464131463745442D413632322D343644302D413938332D3331353338454246344243312F617474726962757465732E62696E504B01021400140006080800CC70623B08DA0BD190000000410100003600000000000000000000000000290F00006662782F39464131463745442D413632
310
322D343644302D413938332D3331353338454246344243312F6469726563746F72792E786D6C504B01021400140006080800CC70623B0D6EF93BFE000000A00100003B000000000000000000000000000D1000006662782F39464131463745442D413632322D343644302D413938332D3331353338454246344243312F7265
310
736F75726365732F636F72652E786D6C504B0506000000000E000E0080040000641100000000
  0
XRECORD
  5
7D77
102
{ACAD_REACTORS
330
173
102
}
330
173
100
AcDbXrecord
280
     1
102
MATERIAL
148
0.0
149
0.0
149
0.0
 93
        0
 94
       63
282
     0
 72
     1
 77
     1
171
     1
175
     1
179
     1
273
     0
  0
XRECORD
  5
175
102
{ACAD_REACTORS
330
173
102
}
330
173
100
AcDbXrecord
280
     1
270
     1
271
     1
  0
XRECORD
  5
174
102
{ACAD_REACTORS
330
173
102
}
330
173
100
AcDbXrecord
280
     1
270
     1
271
     1
  0
XRECORD
  5
1FB
102
{ACAD_REACTORS
330
173
102
}
330
173
100
AcDbXrecord
280
     1
 70
     0
 90
1673772943
  1
ECE7A1D2-D628-4531-984C-D00F80459256
310
504B03040A0000080000CC70623B3DEE336E79000000790000001B0000006175746F6465736B2D64657369676E2D7061636B6167652E786D6C3C3F786D6C2076657273696F6E3D22312E302220656E636F64696E673D227574662D3822203F3E3C666F726D6174733E3C666F726D61743E687474703A2F2F736368656D612E
310
6175746F6465736B2E636F6D2F64657369676E2D7061636B6167652F323030393C2F666F726D61743E3C2F666F726D6174733E504B0304140006080800CC70623BD486FD9CA0000000F4000000130000005B436F6E74656E745F54797065735D2E786D6C7D8EC10E82300C865F65E91D8A1E8C310C0EEA1BF002731658846E
310
D98AC1B77784ABF1D8FE5FBFBF75BBCE937A534CCEB38643598122B6FEE978D0B0485F9C41B54DDD7D022595594E1A469170414C76A4D9A4D207E29CF43ECE46F218070CC6BECC4078ACAA135ACF422C856C0E68EA1BF5669944DDD7BCDE7B1F8E415D77AECB980613C2E4AC91FC167A2B244592486606FC29C8FD7F045B9A
310
EF7053A7E60B504B0304140006080800CC70623BD9DDAED0EC0000007C01000008000000636F72652E786D6C8D90416EC3201045AF82665B61836D9CD8C2444DD39CA01740405C94182C03558F5F9C3852BBEB6A467FFE9B197D7EF89E6EE8CB2CC17A37002D0820E394D7D68D03A478C17B4007C117EFE32F1B20272733C0
310
2A83E0E3E2D3BC49CABB685CCCAAF3DA6CA20CC14440EA969B0182FA34932C648AD911AEC52CD5558EA6A0CF2EC329598D1E47ACCEFBECC59A050463A7EA5833865FEBDD0E37353BE3EE8DBDE3F6786A48D375FBF6CC78B9C282473B3DEFABC5C86834888A900E538A49F5419B9EB47DD5BC907D4F082F57FB1F28CDFA9F50
310
B22ED6D5F6EE030B20687EE43E10BC5CB3C8E51E54AE6B6EE207504B0304140006080800CC70623B55019EA25F0000007C00000007000000636E782E786D6C4DCB3B0E80201045D1AD90E915ED2CF8AC45050C11660C8261F98AB1B07AC9C97D42D718D865D3E909258CFD00CCE24AC6E326A164D74DC0B4128928FF326038
310
472BA13128B1252AC747C6BAB984FC68F0B87FE8960A5C09FE86CFB69FBA01504B0304140006080800CC70623BA24EB22D72010000D40300000C0000006662782F636F72652E786D6CC5535B6E833010BC8AE5DF0A6C5E49888CA3A6694ED00B38E05014B091B1518EDFE511A5A9D228FD2A1F60CDEC7A67C6986DCE4D8D7A
310
69BA4AAB0C073EC548AA5C17952A33ECECD15B61B4E1CC686DBF9561A44423333CC098B3D268D7CE50AE9595CA02AA74216750749DB418E5352C32DCE59FB211BE70162ABA93DF8AFC244AE9073ED050C759670D0840D390E18DF9F1706664C23973AE2A66B62A605A75ACA4C13C4976E1364A12EF355A2EBD384AF65EFA96
310
BC7B8BED2EA6719AAE16FB8491A199335B351775B991C2CA02F390D2D40B028F861F41BCA68B7518BFD0D59A524686F29B26D7164F36B94AD9289CE54E6D1DE6010819891F6E21228B3AD1831EC219194284CF98F06DD01008846CC5A1BEF83801D4CBDC6A1303536877A57A513B0953A94FC707FDBE6064EA84A9E3E6E0FA
310
EE8CF0E9198F7784A316AA0413C2C2F2E0ECA0934D1AE6D05A69BCDE9E91D2A611F573361E38FC1375157F5752AE6B6DFE4B11990F88CCBF0719EE23FF02504B0304140006080800CC70623B408A7D3B7C0000009D0000000B0000006662782F636E782E786D6C4DCCD10A83201886E15B91FFDC552A92A0064DBC8F581632
310
D3703A76F9ABD1C18E3E78F878E5F0D9027ABBFCF2292AE86E2D20171F69F6715550CB827B40839639A5F2770314A7CD293819B45C73AAFB45B35BA61ACAA1C1C7E7855C58C15BC331339661262CC762340413D68D77DA5B42298546CBE6573AF60CEB2F504B0304140006080800CC70623B449FB9BD290100001202000031
310
0000006662782F36394639363044362D344446342D343946362D394244322D3234314243333846323333332F636F72652E786D6C8D515B6EC32010BC0AE22B55850D98B871848994463E412FE002495162B07854397EA176A4F62F3F2C9A9D991D587EB84F37F0AD7D30CEF6905418026DA553C65E7A98E219ED203808EE9D
310
8B7F6810D871D23D2C3014FCE25D9A57483A1BB58D19B54EE9151C43D0110279CB971E06F9A5A7B11A53CC8C70ADE6515EC78BAE4895DB992778883E0700CB907242D17643D7E2538BD869608875438BBAE38922CAC8F1BDD90DB4691A5E2F42C153326A951B95E398B3D1FE599322163C9AE9115F7A3D46ADA0A018778810
310
84E907617BDCEE297BC5BB3DC6BC2EF47FA234AB2745C9D8D8D035EE220B50105E2F0DC1954B9FB747187D9F9D8FA0CCDB042D5FA0C015C65B42DF78BD10F3F3B363CB56C7109DCFDFBBB97E662ED92EB62D13BC2E1BCAE5777DB9966D8A1F504B0304140006080800CC70623BAD7543B64E01000033030000300000006662
310
782F36394639363044362D344446342D343946362D394244322D3234314243333846323333332F636E782E786D6CD593CD6EC32010845F0571AD6CE3D48AD20813A9873E410FBD12D82434182C7EAAE6EDBB2424CD25871E7B41D6EC30B3FA84F9E67BB2E40B4234DE8DB46F1925E094D7C6ED479AD3AE5951B2113C789FEE
310
6C943839C1488B4C05DF079FE72A69D8C96C13AAD6B8631503449F83828872B949AC57D26200B826A308D316B4064D6E46FCDA41C05550DC9E483A00797BFD207EFB092A45DE9514C1BBD22178396BD39D891265658C238DEA00936C654E5E433CB65A26D9F6EDB5EBC14EBF49A45CB856E66048291F6939A9A81BB5C89177
310
38143CA680F4AA299D66A042CEB3354A2684DC9D8D178FE0D9B8B41CAAD720F880EE7EF93C0C18769E099ECC04D5A102C8049A8A05632F4DDF376CF1DE0F6BB65C2F8627B65A33C6BB62177CEBBDAD973006829F89F22E814B54F4BC2BE347F8AA8F681390B50FA73F804400B5F542E796F19FF974E7F78DB802FE05E20750
310
4B0304140006080800CC70623B8D05915C650500003B100000340000006662782F36394639363044362D344446342D343946362D394244322D3234314243333846323333332F6F626A656374732E786D6CAD575B6FA33814FE2B887D06429276DA1565D4266D158D3A339A6846FB502932E050B66023DB74D2FDF5FB190C01
310
9276B2973C046C8ECFF53B17071F77456EBD502133CEAE6CDF9DD81665314F32965ED995DA3A17B6F5310C04E7AA47665B8C14F4CAD6DB7618A48257A5D94AE89654B91AEDDEDDFC61C998326A5B714EA4BCB265FC440BE2924AF184CA6737218AB8E976E7FA6E4338649B0A523E8D98964450A6A029F619B8588D52FE7039
310
B1BD30F0F4F730D0FF866AF6369557DB33949F31A9088B0F848DD8CCFCF9F2767A76E99CCDE733677E3EF59D9BBB9BA5E37F984D16E78BC5E5F5ED25044B25C0C96822E8D60EEFE11B91C581D77CEA34368A1F5329E68CD1B8B61F16D63A1B8E092D294B10C78C4A48EB593D192E7DED9BDEE7995E1B91FDEDD3ACEA9FE831
310
6A756F9F7D4D79F4274C90A7A04248AA51D5F8C718DAE06FB2F75AC4796EBE65D22A88A22223B995679120E2D50E41AA49C260C046A35368846B0BECD0DFF3EBEB8AD4F835768F69B9ADF25C43D30E6B646F807FAA64AD59F61715C7A54127C4AACA98BA3006A9D792DAE165E0D59B61A01FB3A9F9D838D2DAE62445C86166
310
F37564E842E7DE6A69879FEEA2DD5AE7E371E1A5E025154AC307D06A03D73EB5978C58FFA4C8E9033066E0F3BD53BEC1F39F91BE7B55103791EDE6BBB991A2046172CB4581D8B893FA674DDA17A77B3B7C413D1B511FD2743BFF8A38F03A658705E3ADF8015C3A3417FF3D7E439FF591DA0B5F18BC20C1B8981957AE6392A3
310
F43C640C01D1A0B4728E2DD4F26DB4B3C3152A252A3B4E913CEC1C72F012782FF88EFF8637AA552DBEF76408E8A8DE9E50F9E1CB3A2DA0DB1B6039A893B56063DC5B3E3FFB5F72E67AB9FEB4AEC496C4F4C1149625DD662C53E89D7BF0F6151A046260D1337DFDC94502430F83B0EE07A130A224BCAD7DAE1D9FB6CD422FF6
310
920702629C4BB9AE79C12F243C6432A6794E18E5552BA56B431AAB5D91317302B2B071E86C3A42B1A02F999E24061403B5D0EB639195DA655DD3EBEAB4FB862DDF579F014AD0E73C22F99E28DA57FB98E75C6CA2D74D53086D600F4786E0FE3144B771A8A7B900F03594DB8A633CBC49B2EDB69228BB479CF863B5E807AAAB
310
23872F6DFEB4129B949CA33823F58830E86D65621E10047D9DB34D862E8EAC3C2ABC2F7B2C40D67CDFE01F5545B92105AF983AC54D93D69E56FB8E797F88913F898A9FEC705D3F9D1B54EC8426FB500D40A03BD0119B06E1B95DDC7EB8F6975367793EBD70E66733DFB9BC982F9CE564727731999F5D4ECFCE3B8D6A4DC2A0
310
6D50FD148437D110834A64C6CDDF57FBACB5C307A2A477DFE4939736CFEF2B175371E0E10CF0DD1D5C15654E0BCA14D1E87DD02FF93782A162C0A3D95F1524A52770F972BF1EE9809D13CE7DD599467F8ECE9ADD85CE85A34CD45355448C64F9E8A031DC2D596ACC6E5DD93D9B82DE2EF5CAF81363A8E47996A0DE24564A79
310
4115AACE09C55E14540231FDA13C319787134EBF34E3A022514E5B4D9E0826E25C02D5805B15ABE1BEF51B26383D445DD9E875EE33FE4C22DA16427D65A3BCA92CA6D28DD01DF5DC53330704308475351050232CCD31583787BA75774AFB06E5070DD0C8EF484E19968C5D83BA5B90B244D31E54D55A372320FE4786B7EA58
310
44E135AA5467CB7EA333A61683CC6A8C3257034C10CF46F40EF9F5BE59BE5BD30C3C72D235E95D10345C1D45445A5F0BB47E46A5EBE5570F9380B5FA629579952296A773720405982B9DE04011506178964401AA8BDF1FBF0A8EAB6861DD6580C0E38217056766716DAEB2D6FA0917D3E4116581EADB879C4E7CFFB11EFACD
310
3D641311495D92C8676CB409A72D18610D803CE8A626049E8EC1887CB5B44CC39883690DDA8399B4B9855B481E7D71D4A9D22F96E5BB73BF5793020C02137BF837504B0304140006080000CC70623B000000000000000000000000350000006662782F36394639363044362D344446342D343946362D394244322D32343142
310
43333846323333332F76657274696365732E62696E504B0304140006080800CC70623BF270F1330600000004000000360000006662782F36394639363044362D344446342D343946362D394244322D3234314243333846323333332F747269616E676C65732E62696E636660600000504B0304140006080000CC70623B0000
310
00000000000000000000370000006662782F36394639363044362D344446342D343946362D394244322D3234314243333846323333332F617474726962757465732E62696E504B0304140006080800CC70623B08DA0BD19000000041010000360000006662782F36394639363044362D344446342D343946362D394244322D
310
3234314243333846323333332F6469726563746F72792E786D6C858F410AC3201045AF22B36F53E9A60B35CBEEBAE80D244E44489C6234F4F835464A48035D0DF398FF9F8AF63D0E6CC63039F212F8F9020C7D47C6792B21C5FE7403D62A1188E2E60C98D7234A5830286103A55745067B9D86B8A3CF9C7F90C11DE607FB14
310
4396D7B6A82D282E9A152AD114D5EF2CB866EEE831B8EEA07A7BB5A8D7D61A2BAAEB7FD5F70921FF497D00504B0304140006080800CC70623BCA768048FE000000A00100003B0000006662782F36394639363044362D344446342D343946362D394244322D3234314243333846323333332F7265736F75726365732F636F72
310
652E786D6C8D50596E833010BD0A9ADFCA60D600328E9AA639412F609909B1126CE4A5EAF16B0295DABFFECC8CDEA2797AECF8353F924FB44E193D409E5248504B332A3D0D10FC95B4901C39B3C6F85F3248B49871801506CE266BC2B243D2688FDA47549B11775038871E12F988C7004EDE7016A9083E2ADC3D5D84BC8B09
310
D33C8D74D471E6BC8D0192EDC93A815B742658898E651BCB59086ADC356A8C3FD555A1055ED7E7E254D615792D0F075295F585746FF53B694EE78A565DD736979A65AB9933AFE69F8CD2A2F038022F28ED489E135A7CE4554F9BBEA85E68DB53CAB255FEC71496F19FA6A0B42F8B3DEE6673C0F318E4497096AD7DC5F52C33
310
EEB55BFE0D504B010214000A0000080000CC70623B3DEE336E79000000790000001B00000000000000000000000000000000006175746F6465736B2D64657369676E2D7061636B6167652E786D6C504B01021400140006080800CC70623BD486FD9CA0000000F40000001300000000000000000000000000B20000005B436F
310
6E74656E745F54797065735D2E786D6C504B01021400140006080800CC70623BD9DDAED0EC0000007C010000080000000000000000000000000083010000636F72652E786D6C504B01021400140006080800CC70623B55019EA25F0000007C000000070000000000000000000000000095020000636E782E786D6C504B0102
310
1400140006080800CC70623BA24EB22D72010000D40300000C00000000000000000000000000190300006662782F636F72652E786D6C504B01021400140006080800CC70623B408A7D3B7C0000009D0000000B00000000000000000000000000B50400006662782F636E782E786D6C504B01021400140006080800CC70623B
310
449FB9BD290100001202000031000000000000000000000000005A0500006662782F36394639363044362D344446342D343946362D394244322D3234314243333846323333332F636F72652E786D6C504B01021400140006080800CC70623BAD7543B64E010000330300003000000000000000000000000000D20600006662
310
782F36394639363044362D344446342D343946362D394244322D3234314243333846323333332F636E782E786D6C504B01021400140006080800CC70623B8D05915C650500003B10000034000000000000000000000000006E0800006662782F36394639363044362D344446342D343946362D394244322D32343142433338
310
46323333332F6F626A656374732E786D6C504B01021400140006080000CC70623B0000000000000000000000003500000000000000000000000000250E00006662782F36394639363044362D344446342D343946362D394244322D3234314243333846323333332F76657274696365732E62696E504B010214001400060808
310
00CC70623BF270F13306000000040000003600000000000000000000000000780E00006662782F36394639363044362D344446342D343946362D394244322D3234314243333846323333332F747269616E676C65732E62696E504B01021400140006080000CC70623B00000000000000000000000037000000000000000000
310
00000000D20E00006662782F36394639363044362D344446342D343946362D394244322D3234314243333846323333332F617474726962757465732E62696E504B01021400140006080800CC70623B08DA0BD190000000410100003600000000000000000000000000270F00006662782F36394639363044362D344446342D
310
343946362D394244322D3234314243333846323333332F6469726563746F72792E786D6C504B01021400140006080800CC70623BCA768048FE000000A00100003B000000000000000000000000000B1000006662782F36394639363044362D344446342D343946362D394244322D3234314243333846323333332F7265736F
310
75726365732F636F72652E786D6C504B0506000000000E000E0080040000621100000000
  0
XRECORD
  5
176
102
{ACAD_REACTORS
330
173
102
}
330
173
100
AcDbXrecord
280
     1
270
     1
271
     1
  0
XRECORD
  5
177
102
{ACAD_REACTORS
330
173
102
}
330
173
100
AcDbXrecord
280
     1
270
     1
271
     1
  0
XRECORD
  5
7D99
102
{ACAD_REACTORS
330
7D98
102
}
330
7D98
100
AcDbXrecord
280
     1
102
ACAD_ROUNDTRIP_2012_MLEADER_STYLE
298
     1
  0
XRECORD
  5
7DAB
102
{ACAD_REACTORS
330
7DAA
102
}
330
7DAA
100
AcDbXrecord
280
     1
102
DISPLAYNAME
  1
Metric50
102
FLAGS
 90
        0
  0
CELLSTYLEMAP
  5
7D6B
102
{ACAD_REACTORS
330
162
102
}
330
162
100
AcDbCellStyleMap
 90
        3
300
CELLSTYLE
  1
TABLEFORMAT_BEGIN
 90
        5
170
     1
 91
        0
 92
    32768
 62
   257
 93
        1
300
CONTENTFORMAT
  1
CONTENTFORMAT_BEGIN
 90
        0
 91
        0
 92
      512
 93
        0
300

 40
0.0
140
1.0
 94
        5
 62
     0
340
11
144
6.0
309
CONTENTFORMAT_END
171
     1
301
MARGIN
  1
CELLMARGIN_BEGIN
 40
1.5
 40
1.5
 40
1.5
 40
1.5
 40
4.5
 40
4.5
309
CELLMARGIN_END
 94
        6
 95
        1
302
GRIDFORMAT
  1
GRIDFORMAT_BEGIN
 90
        0
 91
        1
 62
     0
 92
       -2
340
14
 93
        0
 40
1.125
309
GRIDFORMAT_END
 95
        2
302
GRIDFORMAT
  1
GRIDFORMAT_BEGIN
 90
        0
 91
        1
 62
     0
 92
       -2
340
14
 93
        0
 40
1.125
309
GRIDFORMAT_END
 95
        4
302
GRIDFORMAT
  1
GRIDFORMAT_BEGIN
 90
        0
 91
        1
 62
     0
 92
       -2
340
14
 93
        0
 40
1.125
309
GRIDFORMAT_END
 95
        8
302
GRIDFORMAT
  1
GRIDFORMAT_BEGIN
 90
        0
 91
        1
 62
     0
 92
       -2
340
14
 93
        0
 40
1.125
309
GRIDFORMAT_END
 95
       16
302
GRIDFORMAT
  1
GRIDFORMAT_BEGIN
 90
        0
 91
        1
 62
     0
 92
       -2
340
14
 93
        0
 40
1.125
309
GRIDFORMAT_END
 95
       32
302
GRIDFORMAT
  1
GRIDFORMAT_BEGIN
 90
        0
 91
        1
 62
     0
 92
       -2
340
14
 93
        0
 40
1.125
309
GRIDFORMAT_END
309
TABLEFORMAT_END
  1
CELLSTYLE_BEGIN
 90
        1
 91
        1
300
_TITLE
309
CELLSTYLE_END
300
CELLSTYLE
  1
TABLEFORMAT_BEGIN
 90
        5
170
     1
 91
        0
 92
        0
 62
   257
 93
        1
300
CONTENTFORMAT
  1
CONTENTFORMAT_BEGIN
 90
        0
 91
        0
 92
      512
 93
        0
300

 40
0.0
140
1.0
 94
        5
 62
     0
340
11
144
4.5
309
CONTENTFORMAT_END
171
     1
301
MARGIN
  1
CELLMARGIN_BEGIN
 40
1.5
 40
1.5
 40
1.5
 40
1.5
 40
4.5
 40
4.5
309
CELLMARGIN_END
 94
        6
 95
        1
302
GRIDFORMAT
  1
GRIDFORMAT_BEGIN
 90
        0
 91
        1
 62
     0
 92
       -2
340
14
 93
        0
 40
1.125
309
GRIDFORMAT_END
 95
        2
302
GRIDFORMAT
  1
GRIDFORMAT_BEGIN
 90
        0
 91
        1
 62
     0
 92
       -2
340
14
 93
        0
 40
1.125
309
GRIDFORMAT_END
 95
        4
302
GRIDFORMAT
  1
GRIDFORMAT_BEGIN
 90
        0
 91
        1
 62
     0
 92
       -2
340
14
 93
        0
 40
1.125
309
GRIDFORMAT_END
 95
        8
302
GRIDFORMAT
  1
GRIDFORMAT_BEGIN
 90
        0
 91
        1
 62
     0
 92
       -2
340
14
 93
        0
 40
1.125
309
GRIDFORMAT_END
 95
       16
302
GRIDFORMAT
  1
GRIDFORMAT_BEGIN
 90
        0
 91
        1
 62
     0
 92
       -2
340
14
 93
        0
 40
1.125
309
GRIDFORMAT_END
 95
       32
302
GRIDFORMAT
  1
GRIDFORMAT_BEGIN
 90
        0
 91
        1
 62
     0
 92
       -2
340
14
 93
        0
 40
1.125
309
GRIDFORMAT_END
309
TABLEFORMAT_END
  1
CELLSTYLE_BEGIN
 90
        2
 91
        1
300
_HEADER
309
CELLSTYLE_END
300
CELLSTYLE
  1
TABLEFORMAT_BEGIN
 90
        5
170
     1
 91
        0
 92
        0
 62
   257
 93
        1
300
CONTENTFORMAT
  1
CONTENTFORMAT_BEGIN
 90
        0
 91
        0
 92
      512
 93
        0
300

 40
0.0
140
1.0
 94
        2
 62
     0
340
11
144
4.5
309
CONTENTFORMAT_END
171
     1
301
MARGIN
  1
CELLMARGIN_BEGIN
 40
1.5
 40
1.5
 40
1.5
 40
1.5
 40
4.5
 40
4.5
309
CELLMARGIN_END
 94
        6
 95
        1
302
GRIDFORMAT
  1
GRIDFORMAT_BEGIN
 90
        0
 91
        1
 62
     0
 92
       -2
340
14
 93
        0
 40
1.125
309
GRIDFORMAT_END
 95
        2
302
GRIDFORMAT
  1
GRIDFORMAT_BEGIN
 90
        0
 91
        1
 62
     0
 92
       -2
340
14
 93
        0
 40
1.125
309
GRIDFORMAT_END
 95
        4
302
GRIDFORMAT
  1
GRIDFORMAT_BEGIN
 90
        0
 91
        1
 62
     0
 92
       -2
340
14
 93
        0
 40
1.125
309
GRIDFORMAT_END
 95
        8
302
GRIDFORMAT
  1
GRIDFORMAT_BEGIN
 90
        0
 91
        1
 62
     0
 92
       -2
340
14
 93
        0
 40
1.125
309
GRIDFORMAT_END
 95
       16
302
GRIDFORMAT
  1
GRIDFORMAT_BEGIN
 90
        0
 91
        1
 62
     0
 92
       -2
340
14
 93
        0
 40
1.125
309
GRIDFORMAT_END
 95
       32
302
GRIDFORMAT
  1
GRIDFORMAT_BEGIN
 90
        0
 91
        1
 62
     0
 92
       -2
340
14
 93
        0
 40
1.125
309
GRIDFORMAT_END
309
TABLEFORMAT_END
  1
CELLSTYLE_BEGIN
 90
        3
 91
        2
300
_DATA
309
CELLSTYLE_END
  0
XRECORD
  5
7D70
102
{ACAD_REACTORS
330
162
102
}
330
162
100
AcDbXrecord
280
     1
102
ACAD_ROUNDTRIP_PRE2007_TABLESTYLE
 90
      512
 91
        0
  1

 92
      512
 93
        0
  2

 94
      512
 95
        0
  3

  0
XRECORD
  5
7D83
102
{ACAD_REACTORS
330
7D82
102
}
330
7D82
100
AcDbXrecord
280
     1
102
RTVSPost2010Prop28
280
     1
102
RTVSPost2010PropOp28
 70
     1
102
RTVSPost2010Prop29
280
     1
102
RTVSPost2010PropOp29
 70
     1
102
RTVSPost2010Prop30
280
     0
102
RTVSPost2010PropOp30
 70
     1
102
RTVSPost2010Prop31
280
     0
102
RTVSPost2010PropOp31
 70
     1
102
RTVSPost2010Prop32
280
     0
102
RTVSPost2010PropOp32
 70
     1
102
RTVSPost2010Prop33
280
     0
102
RTVSPost2010PropOp33
 70
     1
102
RTVSPost2010Prop34
280
     0
102
RTVSPost2010PropOp34
 70
     1
102
RTVSPost2010Prop35
280
     0
102
RTVSPost2010PropOp35
 70
     1
102
RTVSPost2010Prop36
280
     0
102
RTVSPost2010PropOp36
 70
     1
102
RTVSPost2010Prop37
 90
       50
102
RTVSPost2010PropOp37
 70
     1
102
RTVSPost2010Prop38
140
0.0
102
RTVSPost2010PropOp38
 70
     1
102
RTVSPost2010Prop39
140
1.0
102
RTVSPost2010PropOp39
 70
     1
102
RTVSPost2010Prop40
 90
        0
102
RTVSPost2010PropOp40
 70
     1
102
RTVSPost2010Prop41ColorIndex
 90
       18
102
RTVSPost2010Prop41ColorRGB
 90
        0
102
RTVSPost2010PropOp41
 70
     1
102
RTVSPost2010Prop42
 90
       50
102
RTVSPost2010PropOp42
 70
     1
102
RTVSPost2010Prop43
 90
        3
102
RTVSPost2010PropOp43
 70
     1
102
RTVSPost2010Prop44ColorIndex
 90
        5
102
RTVSPost2010Prop44ColorRGB
 90
      255
102
RTVSPost2010PropOp44
 70
     1
102
RTVSPost2010Prop45
280
     0
102
RTVSPost2010PropOp45
 70
     1
102
RTVSPost2010Prop46
 90
       50
102
RTVSPost2010PropOp46
 70
     1
102
RTVSPost2010Prop47
 90
       50
102
RTVSPost2010PropOp47
 70
     1
102
RTVSPost2010Prop48
 90
       50
102
RTVSPost2010PropOp48
 70
     1
102
RTVSPost2010Prop49
280
     0
102
RTVSPost2010PropOp49
 70
     1
102
RTVSPost2010Prop50
 90
       50
102
RTVSPost2010PropOp50
 70
     1
102
RTVSPost2010Prop51ColorIndex
 90
      256
102
RTVSPost2010Prop51ColorRGB
 90
-16777216
102
RTVSPost2010PropOp51
 70
     0
102
RTVSPost2010Prop52
140
1.0
102
RTVSPost2010PropOp52
 70
     0
102
RTVSPost2010Prop53
 90
        2
102
RTVSPost2010PropOp53
 70
     1
102
RTVSPost2010Prop54
  1
strokes_ogs.tif
102
RTVSPost2010PropOp54
 70
     1
102
RTVSPost2010Prop55
280
     0
102
RTVSPost2010PropOp55
 70
     1
102
RTVSPost2010Prop56
140
1.0
102
RTVSPost2010PropOp56
 70
     1
102
RTVSPost2010Prop57
140
1.0
102
RTVSPost2010PropOp57
 70
     1
102
RTVSPropertyOp0
 70
     1
102
RTVSPropertyOp1
 70
     1
102
RTVSPropertyOp2
 70
     1
102
RTVSPropertyOp3
 70
     1
102
RTVSPropertyOp4
 70
     1
102
RTVSPropertyOp5
 70
     1
102
RTVSPropertyOp6
 70
     1
102
RTVSPropertyOp7
 70
     1
102
RTVSPropertyOp8
 70
     1
102
RTVSPropertyOp9
 70
     1
102
RTVSPropertyOp10
 70
     1
102
RTVSPropertyOp11
 70
     1
102
RTVSPropertyOp12
 70
     1
102
RTVSPropertyOp13
 70
     1
102
RTVSPropertyOp14
 70
     1
102
RTVSPropertyOp15
 70
     1
102
RTVSPropertyOp16
 70
     1
102
RTVSPropertyOp17
 70
     1
102
RTVSPropertyOp18
 70
     1
102
RTVSPropertyOp19
 70
     1
102
RTVSPropertyOp20
 70
     1
102
RTVSPropertyOp21
 70
     1
102
RTVSPropertyOp22
 70
     1
102
RTVSPropertyOp23
 70
     1
102
RTVSPropertyOp24
 70
     1
102
RTVSPropertyOp25
 70
     1
102
RTVSPropertyOp26
 70
     1
102
RTVSPropertyOp27
 70
     1
102
RTVSPropertyOp28
 70
     1
102
RTVSPropertyOp29
 70
     1
102
RTVSPropertyOp30
 70
     1
102
RTVSPropertyOp31
 70
     1
102
RTVSPropertyOp32
 70
     1
102
RTVSPropertyOp33
 70
     1
102
RTVSPropertyOp34
 70
     1
102
RTVSPropertyOp35
 70
     1
102
RTVSPropertyOp36
 70
     1
102
RTVSPropertyOp37
 70
     1
102
RTVSPropertyOp38
 70
     1
102
RTVSPropertyOp39
 70
     1
102
RTVSPropertyOp40
 70
     1
102
RTVSPropertyOp41
 70
     1
102
RTVSPropertyOp42
 70
     1
102
RTVSPropertyOp43
 70
     1
102
RTVSPropertyOp44
 70
     1
102
RTVSPropertyOp45
 70
     1
102
RTVSPropertyOp46
 70
     1
102
RTVSPropertyOp47
 70
     1
102
RTVSPropertyOp48
 70
     1
102
RTVSPropertyOp49
 70
     1
102
RTVSPropertyOp50
 70
     1
102
RTVSPropertyOp51
 70
     0
102
RTVSPropertyOp52
 70
     0
102
RTVSPropertyOp53
 70
     1
102
RTVSPropertyOp54
 70
     1
102
RTVSPropertyOp55
 70
     1
102
RTVSPropertyOp56
 70
     1
102
RTVSPropertyOp57
 70
     1
102
RTVSPropertyOp58
 70
     1
102
RTVSPropertyOp59
 70
     1
102
RTVSPropertyOp60
 70
     1
102
RTVSPropertyOp61
 70
     1
102
RTVSPropertyOp62
 70
     1
  0
XRECORD
  5
7D81
102
{ACAD_REACTORS
330
7D80
102
}
330
7D80
100
AcDbXrecord
280
     1
102
RTVSPost2010Prop28
280
     0
102
RTVSPost2010PropOp28
 70
     1
102
RTVSPost2010Prop29
280
     1
102
RTVSPost2010PropOp29
 70
     1
102
RTVSPost2010Prop30
280
     1
102
RTVSPost2010PropOp30
 70
     1
102
RTVSPost2010Prop31
280
     0
102
RTVSPost2010PropOp31
 70
     1
102
RTVSPost2010Prop32
280
     0
102
RTVSPost2010PropOp32
 70
     1
102
RTVSPost2010Prop33
280
     0
102
RTVSPost2010PropOp33
 70
     1
102
RTVSPost2010Prop34
280
     0
102
RTVSPost2010PropOp34
 70
     1
102
RTVSPost2010Prop35
280
     0
102
RTVSPost2010PropOp35
 70
     1
102
RTVSPost2010Prop36
280
     0
102
RTVSPost2010PropOp36
 70
     1
102
RTVSPost2010Prop37
 90
       50
102
RTVSPost2010PropOp37
 70
     1
102
RTVSPost2010Prop38
140
0.0
102
RTVSPost2010PropOp38
 70
     1
102
RTVSPost2010Prop39
140
1.0
102
RTVSPost2010PropOp39
 70
     1
102
RTVSPost2010Prop40
 90
        0
102
RTVSPost2010PropOp40
 70
     1
102
RTVSPost2010Prop41ColorIndex
 90
       18
102
RTVSPost2010Prop41ColorRGB
 90
        0
102
RTVSPost2010PropOp41
 70
     1
102
RTVSPost2010Prop42
 90
       50
102
RTVSPost2010PropOp42
 70
     1
102
RTVSPost2010Prop43
 90
        3
102
RTVSPost2010PropOp43
 70
     1
102
RTVSPost2010Prop44ColorIndex
 90
        5
102
RTVSPost2010Prop44ColorRGB
 90
      255
102
RTVSPost2010PropOp44
 70
     1
102
RTVSPost2010Prop45
280
     0
102
RTVSPost2010PropOp45
 70
     1
102
RTVSPost2010Prop46
 90
       50
102
RTVSPost2010PropOp46
 70
     1
102
RTVSPost2010Prop47
 90
       50
102
RTVSPost2010PropOp47
 70
     1
102
RTVSPost2010Prop48
 90
       50
102
RTVSPost2010PropOp48
 70
     1
102
RTVSPost2010Prop49
280
     0
102
RTVSPost2010PropOp49
 70
     1
102
RTVSPost2010Prop50
 90
       50
102
RTVSPost2010PropOp50
 70
     1
102
RTVSPost2010Prop51ColorIndex
 90
      256
102
RTVSPost2010Prop51ColorRGB
 90
-16777216
102
RTVSPost2010PropOp51
 70
     0
102
RTVSPost2010Prop52
140
1.0
102
RTVSPost2010PropOp52
 70
     0
102
RTVSPost2010Prop53
 90
        2
102
RTVSPost2010PropOp53
 70
     1
102
RTVSPost2010Prop54
  1
strokes_ogs.tif
102
RTVSPost2010PropOp54
 70
     1
102
RTVSPost2010Prop55
280
     0
102
RTVSPost2010PropOp55
 70
     1
102
RTVSPost2010Prop56
140
1.0
102
RTVSPost2010PropOp56
 70
     1
102
RTVSPost2010Prop57
140
1.0
102
RTVSPost2010PropOp57
 70
     1
102
RTVSPropertyOp0
 70
     1
102
RTVSPropertyOp1
 70
     1
102
RTVSPropertyOp2
 70
     1
102
RTVSPropertyOp3
 70
     1
102
RTVSPropertyOp4
 70
     1
102
RTVSPropertyOp5
 70
     1
102
RTVSPropertyOp6
 70
     1
102
RTVSPropertyOp7
 70
     1
102
RTVSPropertyOp8
 70
     1
102
RTVSPropertyOp9
 70
     1
102
RTVSPropertyOp10
 70
     1
102
RTVSPropertyOp11
 70
     1
102
RTVSPropertyOp12
 70
     1
102
RTVSPropertyOp13
 70
     1
102
RTVSPropertyOp14
 70
     1
102
RTVSPropertyOp15
 70
     1
102
RTVSPropertyOp16
 70
     1
102
RTVSPropertyOp17
 70
     1
102
RTVSPropertyOp18
 70
     1
102
RTVSPropertyOp19
 70
     1
102
RTVSPropertyOp20
 70
     1
102
RTVSPropertyOp21
 70
     1
102
RTVSPropertyOp22
 70
     1
102
RTVSPropertyOp23
 70
     1
102
RTVSPropertyOp24
 70
     1
102
RTVSPropertyOp25
 70
     1
102
RTVSPropertyOp26
 70
     1
102
RTVSPropertyOp27
 70
     1
102
RTVSPropertyOp28
 70
     1
102
RTVSPropertyOp29
 70
     1
102
RTVSPropertyOp30
 70
     1
102
RTVSPropertyOp31
 70
     1
102
RTVSPropertyOp32
 70
     1
102
RTVSPropertyOp33
 70
     1
102
RTVSPropertyOp34
 70
     1
102
RTVSPropertyOp35
 70
     1
102
RTVSPropertyOp36
 70
     1
102
RTVSPropertyOp37
 70
     1
102
RTVSPropertyOp38
 70
     1
102
RTVSPropertyOp39
 70
     1
102
RTVSPropertyOp40
 70
     1
102
RTVSPropertyOp41
 70
     1
102
RTVSPropertyOp42
 70
     1
102
RTVSPropertyOp43
 70
     1
102
RTVSPropertyOp44
 70
     1
102
RTVSPropertyOp45
 70
     1
102
RTVSPropertyOp46
 70
     1
102
RTVSPropertyOp47
 70
     1
102
RTVSPropertyOp48
 70
     1
102
RTVSPropertyOp49
 70
     1
102
RTVSPropertyOp50
 70
     1
102
RTVSPropertyOp51
 70
     0
102
RTVSPropertyOp52
 70
     0
102
RTVSPropertyOp53
 70
     1
102
RTVSPropertyOp54
 70
     1
102
RTVSPropertyOp55
 70
     1
102
RTVSPropertyOp56
 70
     1
102
RTVSPropertyOp57
 70
     1
102
RTVSPropertyOp58
 70
     1
102
RTVSPropertyOp59
 70
     1
102
RTVSPropertyOp60
 70
     1
102
RTVSPropertyOp61
 70
     1
102
RTVSPropertyOp62
 70
     1
  0
XRECORD
  5
7D8F
102
{ACAD_REACTORS
330
7D8E
102
}
330
7D8E
100
AcDbXrecord
280
     1
102
RTVSPost2010Prop28
280
     0
102
RTVSPost2010PropOp28
 70
     1
102
RTVSPost2010Prop29
280
     1
102
RTVSPost2010PropOp29
 70
     1
102
RTVSPost2010Prop30
280
     1
102
RTVSPost2010PropOp30
 70
     1
102
RTVSPost2010Prop31
280
     0
102
RTVSPost2010PropOp31
 70
     1
102
RTVSPost2010Prop32
280
     0
102
RTVSPost2010PropOp32
 70
     1
102
RTVSPost2010Prop33
280
     0
102
RTVSPost2010PropOp33
 70
     1
102
RTVSPost2010Prop34
280
     0
102
RTVSPost2010PropOp34
 70
     1
102
RTVSPost2010Prop35
280
     0
102
RTVSPost2010PropOp35
 70
     1
102
RTVSPost2010Prop36
280
     0
102
RTVSPost2010PropOp36
 70
     1
102
RTVSPost2010Prop37
 90
       50
102
RTVSPost2010PropOp37
 70
     1
102
RTVSPost2010Prop38
140
0.0
102
RTVSPost2010PropOp38
 70
     1
102
RTVSPost2010Prop39
140
1.0
102
RTVSPost2010PropOp39
 70
     1
102
RTVSPost2010Prop40
 90
        0
102
RTVSPost2010PropOp40
 70
     1
102
RTVSPost2010Prop41ColorIndex
 90
       18
102
RTVSPost2010Prop41ColorRGB
 90
        0
102
RTVSPost2010PropOp41
 70
     1
102
RTVSPost2010Prop42
 90
       50
102
RTVSPost2010PropOp42
 70
     1
102
RTVSPost2010Prop43
 90
        3
102
RTVSPost2010PropOp43
 70
     1
102
RTVSPost2010Prop44ColorIndex
 90
        5
102
RTVSPost2010Prop44ColorRGB
 90
      255
102
RTVSPost2010PropOp44
 70
     1
102
RTVSPost2010Prop45
280
     0
102
RTVSPost2010PropOp45
 70
     1
102
RTVSPost2010Prop46
 90
       50
102
RTVSPost2010PropOp46
 70
     1
102
RTVSPost2010Prop47
 90
       50
102
RTVSPost2010PropOp47
 70
     1
102
RTVSPost2010Prop48
 90
       50
102
RTVSPost2010PropOp48
 70
     1
102
RTVSPost2010Prop49
280
     0
102
RTVSPost2010PropOp49
 70
     1
102
RTVSPost2010Prop50
 90
       50
102
RTVSPost2010PropOp50
 70
     1
102
RTVSPost2010Prop51ColorIndex
 90
      256
102
RTVSPost2010Prop51ColorRGB
 90
-16777216
102
RTVSPost2010PropOp51
 70
     0
102
RTVSPost2010Prop52
140
1.0
102
RTVSPost2010PropOp52
 70
     0
102
RTVSPost2010Prop53
 90
        2
102
RTVSPost2010PropOp53
 70
     1
102
RTVSPost2010Prop54
  1
strokes_ogs.tif
102
RTVSPost2010PropOp54
 70
     1
102
RTVSPost2010Prop55
280
     0
102
RTVSPost2010PropOp55
 70
     1
102
RTVSPost2010Prop56
140
1.0
102
RTVSPost2010PropOp56
 70
     1
102
RTVSPost2010Prop57
140
1.0
102
RTVSPost2010PropOp57
 70
     1
102
RTVSPropertyOp0
 70
     1
102
RTVSPropertyOp1
 70
     1
102
RTVSPropertyOp2
 70
     1
102
RTVSPropertyOp3
 70
     1
102
RTVSPropertyOp4
 70
     1
102
RTVSPropertyOp5
 70
     1
102
RTVSPropertyOp6
 70
     1
102
RTVSPropertyOp7
 70
     1
102
RTVSPropertyOp8
 70
     1
102
RTVSPropertyOp9
 70
     1
102
RTVSPropertyOp10
 70
     1
102
RTVSPropertyOp11
 70
     1
102
RTVSPropertyOp12
 70
     1
102
RTVSPropertyOp13
 70
     1
102
RTVSPropertyOp14
 70
     1
102
RTVSPropertyOp15
 70
     1
102
RTVSPropertyOp16
 70
     1
102
RTVSPropertyOp17
 70
     1
102
RTVSPropertyOp18
 70
     1
102
RTVSPropertyOp19
 70
     1
102
RTVSPropertyOp20
 70
     1
102
RTVSPropertyOp21
 70
     1
102
RTVSPropertyOp22
 70
     1
102
RTVSPropertyOp23
 70
     1
102
RTVSPropertyOp24
 70
     1
102
RTVSPropertyOp25
 70
     1
102
RTVSPropertyOp26
 70
     1
102
RTVSPropertyOp27
 70
     1
102
RTVSPropertyOp28
 70
     1
102
RTVSPropertyOp29
 70
     1
102
RTVSPropertyOp30
 70
     1
102
RTVSPropertyOp31
 70
     1
102
RTVSPropertyOp32
 70
     1
102
RTVSPropertyOp33
 70
     1
102
RTVSPropertyOp34
 70
     1
102
RTVSPropertyOp35
 70
     1
102
RTVSPropertyOp36
 70
     1
102
RTVSPropertyOp37
 70
     1
102
RTVSPropertyOp38
 70
     1
102
RTVSPropertyOp39
 70
     1
102
RTVSPropertyOp40
 70
     1
102
RTVSPropertyOp41
 70
     1
102
RTVSPropertyOp42
 70
     1
102
RTVSPropertyOp43
 70
     1
102
RTVSPropertyOp44
 70
     1
102
RTVSPropertyOp45
 70
     1
102
RTVSPropertyOp46
 70
     1
102
RTVSPropertyOp47
 70
     1
102
RTVSPropertyOp48
 70
     1
102
RTVSPropertyOp49
 70
     1
102
RTVSPropertyOp50
 70
     1
102
RTVSPropertyOp51
 70
     0
102
RTVSPropertyOp52
 70
     0
102
RTVSPropertyOp53
 70
     1
102
RTVSPropertyOp54
 70
     1
102
RTVSPropertyOp55
 70
     1
102
RTVSPropertyOp56
 70
     1
102
RTVSPropertyOp57
 70
     1
102
RTVSPropertyOp58
 70
     1
102
RTVSPropertyOp59
 70
     1
102
RTVSPropertyOp60
 70
     1
102
RTVSPropertyOp61
 70
     1
102
RTVSPropertyOp62
 70
     1
  0
XRECORD
  5
7D97
102
{ACAD_REACTORS
330
7D96
102
}
330
7D96
100
AcDbXrecord
280
     1
102
RTVSPost2010Prop28
280
     0
102
RTVSPost2010PropOp28
 70
     1
102
RTVSPost2010Prop29
280
     1
102
RTVSPost2010PropOp29
 70
     1
102
RTVSPost2010Prop30
280
     1
102
RTVSPost2010PropOp30
 70
     1
102
RTVSPost2010Prop31
280
     0
102
RTVSPost2010PropOp31
 70
     1
102
RTVSPost2010Prop32
280
     0
102
RTVSPost2010PropOp32
 70
     1
102
RTVSPost2010Prop33
280
     0
102
RTVSPost2010PropOp33
 70
     1
102
RTVSPost2010Prop34
280
     0
102
RTVSPost2010PropOp34
 70
     1
102
RTVSPost2010Prop35
280
     0
102
RTVSPost2010PropOp35
 70
     1
102
RTVSPost2010Prop36
280
     0
102
RTVSPost2010PropOp36
 70
     1
102
RTVSPost2010Prop37
 90
       50
102
RTVSPost2010PropOp37
 70
     1
102
RTVSPost2010Prop38
140
0.0
102
RTVSPost2010PropOp38
 70
     1
102
RTVSPost2010Prop39
140
1.0
102
RTVSPost2010PropOp39
 70
     1
102
RTVSPost2010Prop40
 90
        0
102
RTVSPost2010PropOp40
 70
     1
102
RTVSPost2010Prop41ColorIndex
 90
       18
102
RTVSPost2010Prop41ColorRGB
 90
        0
102
RTVSPost2010PropOp41
 70
     1
102
RTVSPost2010Prop42
 90
       50
102
RTVSPost2010PropOp42
 70
     1
102
RTVSPost2010Prop43
 90
        3
102
RTVSPost2010PropOp43
 70
     1
102
RTVSPost2010Prop44ColorIndex
 90
        5
102
RTVSPost2010Prop44ColorRGB
 90
      255
102
RTVSPost2010PropOp44
 70
     1
102
RTVSPost2010Prop45
280
     0
102
RTVSPost2010PropOp45
 70
     1
102
RTVSPost2010Prop46
 90
       50
102
RTVSPost2010PropOp46
 70
     1
102
RTVSPost2010Prop47
 90
       50
102
RTVSPost2010PropOp47
 70
     1
102
RTVSPost2010Prop48
 90
       50
102
RTVSPost2010PropOp48
 70
     1
102
RTVSPost2010Prop49
280
     0
102
RTVSPost2010PropOp49
 70
     1
102
RTVSPost2010Prop50
 90
       50
102
RTVSPost2010PropOp50
 70
     1
102
RTVSPost2010Prop51ColorIndex
 90
      256
102
RTVSPost2010Prop51ColorRGB
 90
-16777216
102
RTVSPost2010PropOp51
 70
     0
102
RTVSPost2010Prop52
140
1.0
102
RTVSPost2010PropOp52
 70
     0
102
RTVSPost2010Prop53
 90
        2
102
RTVSPost2010PropOp53
 70
     1
102
RTVSPost2010Prop54
  1
strokes_ogs.tif
102
RTVSPost2010PropOp54
 70
     1
102
RTVSPost2010Prop55
280
     0
102
RTVSPost2010PropOp55
 70
     1
102
RTVSPost2010Prop56
140
1.0
102
RTVSPost2010PropOp56
 70
     1
102
RTVSPost2010Prop57
140
1.0
102
RTVSPost2010PropOp57
 70
     1
102
RTVSPropertyOp0
 70
     1
102
RTVSPropertyOp1
 70
     1
102
RTVSPropertyOp2
 70
     1
102
RTVSPropertyOp3
 70
     1
102
RTVSPropertyOp4
 70
     1
102
RTVSPropertyOp5
 70
     1
102
RTVSPropertyOp6
 70
     1
102
RTVSPropertyOp7
 70
     1
102
RTVSPropertyOp8
 70
     1
102
RTVSPropertyOp9
 70
     1
102
RTVSPropertyOp10
 70
     1
102
RTVSPropertyOp11
 70
     1
102
RTVSPropertyOp12
 70
     1
102
RTVSPropertyOp13
 70
     1
102
RTVSPropertyOp14
 70
     1
102
RTVSPropertyOp15
 70
     1
102
RTVSPropertyOp16
 70
     1
102
RTVSPropertyOp17
 70
     1
102
RTVSPropertyOp18
 70
     1
102
RTVSPropertyOp19
 70
     1
102
RTVSPropertyOp20
 70
     1
102
RTVSPropertyOp21
 70
     1
102
RTVSPropertyOp22
 70
     1
102
RTVSPropertyOp23
 70
     1
102
RTVSPropertyOp24
 70
     1
102
RTVSPropertyOp25
 70
     1
102
RTVSPropertyOp26
 70
     1
102
RTVSPropertyOp27
 70
     1
102
RTVSPropertyOp28
 70
     1
102
RTVSPropertyOp29
 70
     1
102
RTVSPropertyOp30
 70
     1
102
RTVSPropertyOp31
 70
     1
102
RTVSPropertyOp32
 70
     1
102
RTVSPropertyOp33
 70
     1
102
RTVSPropertyOp34
 70
     1
102
RTVSPropertyOp35
 70
     1
102
RTVSPropertyOp36
 70
     1
102
RTVSPropertyOp37
 70
     1
102
RTVSPropertyOp38
 70
     1
102
RTVSPropertyOp39
 70
     1
102
RTVSPropertyOp40
 70
     1
102
RTVSPropertyOp41
 70
     1
102
RTVSPropertyOp42
 70
     1
102
RTVSPropertyOp43
 70
     1
102
RTVSPropertyOp44
 70
     1
102
RTVSPropertyOp45
 70
     1
102
RTVSPropertyOp46
 70
     1
102
RTVSPropertyOp47
 70
     1
102
RTVSPropertyOp48
 70
     1
102
RTVSPropertyOp49
 70
     1
102
RTVSPropertyOp50
 70
     1
102
RTVSPropertyOp51
 70
     0
102
RTVSPropertyOp52
 70
     0
102
RTVSPropertyOp53
 70
     1
102
RTVSPropertyOp54
 70
     1
102
RTVSPropertyOp55
 70
     1
102
RTVSPropertyOp56
 70
     1
102
RTVSPropertyOp57
 70
     1
102
RTVSPropertyOp58
 70
     1
102
RTVSPropertyOp59
 70
     1
102
RTVSPropertyOp60
 70
     1
102
RTVSPropertyOp61
 70
     1
102
RTVSPropertyOp62
 70
     1
  0
XRECORD
  5
7D89
102
{ACAD_REACTORS
330
7D88
102
}
330
7D88
100
AcDbXrecord
280
     1
102
RTVSPost2010Prop28
280
     0
102
RTVSPost2010PropOp28
 70
     1
102
RTVSPost2010Prop29
280
     1
102
RTVSPost2010PropOp29
 70
     1
102
RTVSPost2010Prop30
280
     1
102
RTVSPost2010PropOp30
 70
     1
102
RTVSPost2010Prop31
280
     0
102
RTVSPost2010PropOp31
 70
     1
102
RTVSPost2010Prop32
280
     0
102
RTVSPost2010PropOp32
 70
     1
102
RTVSPost2010Prop33
280
     0
102
RTVSPost2010PropOp33
 70
     1
102
RTVSPost2010Prop34
280
     0
102
RTVSPost2010PropOp34
 70
     1
102
RTVSPost2010Prop35
280
     0
102
RTVSPost2010PropOp35
 70
     1
102
RTVSPost2010Prop36
280
     0
102
RTVSPost2010PropOp36
 70
     1
102
RTVSPost2010Prop37
 90
       50
102
RTVSPost2010PropOp37
 70
     1
102
RTVSPost2010Prop38
140
0.0
102
RTVSPost2010PropOp38
 70
     1
102
RTVSPost2010Prop39
140
1.0
102
RTVSPost2010PropOp39
 70
     1
102
RTVSPost2010Prop40
 90
        0
102
RTVSPost2010PropOp40
 70
     1
102
RTVSPost2010Prop41ColorIndex
 90
       18
102
RTVSPost2010Prop41ColorRGB
 90
        0
102
RTVSPost2010PropOp41
 70
     1
102
RTVSPost2010Prop42
 90
       50
102
RTVSPost2010PropOp42
 70
     1
102
RTVSPost2010Prop43
 90
        3
102
RTVSPost2010PropOp43
 70
     1
102
RTVSPost2010Prop44ColorIndex
 90
        5
102
RTVSPost2010Prop44ColorRGB
 90
      255
102
RTVSPost2010PropOp44
 70
     1
102
RTVSPost2010Prop45
280
     0
102
RTVSPost2010PropOp45
 70
     1
102
RTVSPost2010Prop46
 90
       50
102
RTVSPost2010PropOp46
 70
     1
102
RTVSPost2010Prop47
 90
       50
102
RTVSPost2010PropOp47
 70
     1
102
RTVSPost2010Prop48
 90
       50
102
RTVSPost2010PropOp48
 70
     1
102
RTVSPost2010Prop49
280
     0
102
RTVSPost2010PropOp49
 70
     1
102
RTVSPost2010Prop50
 90
       50
102
RTVSPost2010PropOp50
 70
     1
102
RTVSPost2010Prop51ColorIndex
 90
      256
102
RTVSPost2010Prop51ColorRGB
 90
-16777216
102
RTVSPost2010PropOp51
 70
     0
102
RTVSPost2010Prop52
140
1.0
102
RTVSPost2010PropOp52
 70
     0
102
RTVSPost2010Prop53
 90
        2
102
RTVSPost2010PropOp53
 70
     1
102
RTVSPost2010Prop54
  1
strokes_ogs.tif
102
RTVSPost2010PropOp54
 70
     1
102
RTVSPost2010Prop55
280
     0
102
RTVSPost2010PropOp55
 70
     1
102
RTVSPost2010Prop56
140
1.0
102
RTVSPost2010PropOp56
 70
     1
102
RTVSPost2010Prop57
140
1.0
102
RTVSPost2010PropOp57
 70
     1
102
RTVSPropertyOp0
 70
     1
102
RTVSPropertyOp1
 70
     1
102
RTVSPropertyOp2
 70
     1
102
RTVSPropertyOp3
 70
     1
102
RTVSPropertyOp4
 70
     1
102
RTVSPropertyOp5
 70
     1
102
RTVSPropertyOp6
 70
     1
102
RTVSPropertyOp7
 70
     1
102
RTVSPropertyOp8
 70
     1
102
RTVSPropertyOp9
 70
     1
102
RTVSPropertyOp10
 70
     1
102
RTVSPropertyOp11
 70
     1
102
RTVSPropertyOp12
 70
     1
102
RTVSPropertyOp13
 70
     1
102
RTVSPropertyOp14
 70
     1
102
RTVSPropertyOp15
 70
     1
102
RTVSPropertyOp16
 70
     1
102
RTVSPropertyOp17
 70
     1
102
RTVSPropertyOp18
 70
     1
102
RTVSPropertyOp19
 70
     1
102
RTVSPropertyOp20
 70
     1
102
RTVSPropertyOp21
 70
     1
102
RTVSPropertyOp22
 70
     1
102
RTVSPropertyOp23
 70
     1
102
RTVSPropertyOp24
 70
     1
102
RTVSPropertyOp25
 70
     1
102
RTVSPropertyOp26
 70
     1
102
RTVSPropertyOp27
 70
     1
102
RTVSPropertyOp28
 70
     1
102
RTVSPropertyOp29
 70
     1
102
RTVSPropertyOp30
 70
     1
102
RTVSPropertyOp31
 70
     1
102
RTVSPropertyOp32
 70
     1
102
RTVSPropertyOp33
 70
     1
102
RTVSPropertyOp34
 70
     1
102
RTVSPropertyOp35
 70
     1
102
RTVSPropertyOp36
 70
     1
102
RTVSPropertyOp37
 70
     1
102
RTVSPropertyOp38
 70
     1
102
RTVSPropertyOp39
 70
     1
102
RTVSPropertyOp40
 70
     1
102
RTVSPropertyOp41
 70
     1
102
RTVSPropertyOp42
 70
     1
102
RTVSPropertyOp43
 70
     1
102
RTVSPropertyOp44
 70
     1
102
RTVSPropertyOp45
 70
     1
102
RTVSPropertyOp46
 70
     1
102
RTVSPropertyOp47
 70
     1
102
RTVSPropertyOp48
 70
     1
102
RTVSPropertyOp49
 70
     1
102
RTVSPropertyOp50
 70
     1
102
RTVSPropertyOp51
 70
     0
102
RTVSPropertyOp52
 70
     0
102
RTVSPropertyOp53
 70
     1
102
RTVSPropertyOp54
 70
     1
102
RTVSPropertyOp55
 70
     1
102
RTVSPropertyOp56
 70
     1
102
RTVSPropertyOp57
 70
     1
102
RTVSPropertyOp58
 70
     1
102
RTVSPropertyOp59
 70
     1
102
RTVSPropertyOp60
 70
     1
102
RTVSPropertyOp61
 70
     1
102
RTVSPropertyOp62
 70
     1
  0
XRECORD
  5
7D8D
102
{ACAD_REACTORS
330
7D8C
102
}
330
7D8C
100
AcDbXrecord
280
     1
102
RTVSPost2010Prop28
280
     0
102
RTVSPost2010PropOp28
 70
     1
102
RTVSPost2010Prop29
280
     1
102
RTVSPost2010PropOp29
 70
     1
102
RTVSPost2010Prop30
280
     1
102
RTVSPost2010PropOp30
 70
     1
102
RTVSPost2010Prop31
280
     0
102
RTVSPost2010PropOp31
 70
     1
102
RTVSPost2010Prop32
280
     0
102
RTVSPost2010PropOp32
 70
     1
102
RTVSPost2010Prop33
280
     0
102
RTVSPost2010PropOp33
 70
     1
102
RTVSPost2010Prop34
280
     0
102
RTVSPost2010PropOp34
 70
     1
102
RTVSPost2010Prop35
280
     0
102
RTVSPost2010PropOp35
 70
     1
102
RTVSPost2010Prop36
280
     0
102
RTVSPost2010PropOp36
 70
     1
102
RTVSPost2010Prop37
 90
       50
102
RTVSPost2010PropOp37
 70
     1
102
RTVSPost2010Prop38
140
0.0
102
RTVSPost2010PropOp38
 70
     1
102
RTVSPost2010Prop39
140
1.0
102
RTVSPost2010PropOp39
 70
     1
102
RTVSPost2010Prop40
 90
        0
102
RTVSPost2010PropOp40
 70
     1
102
RTVSPost2010Prop41ColorIndex
 90
       18
102
RTVSPost2010Prop41ColorRGB
 90
        0
102
RTVSPost2010PropOp41
 70
     1
102
RTVSPost2010Prop42
 90
       50
102
RTVSPost2010PropOp42
 70
     1
102
RTVSPost2010Prop43
 90
        3
102
RTVSPost2010PropOp43
 70
     1
102
RTVSPost2010Prop44ColorIndex
 90
        5
102
RTVSPost2010Prop44ColorRGB
 90
      255
102
RTVSPost2010PropOp44
 70
     1
102
RTVSPost2010Prop45
280
     0
102
RTVSPost2010PropOp45
 70
     1
102
RTVSPost2010Prop46
 90
       50
102
RTVSPost2010PropOp46
 70
     1
102
RTVSPost2010Prop47
 90
       50
102
RTVSPost2010PropOp47
 70
     1
102
RTVSPost2010Prop48
 90
       50
102
RTVSPost2010PropOp48
 70
     1
102
RTVSPost2010Prop49
280
     0
102
RTVSPost2010PropOp49
 70
     1
102
RTVSPost2010Prop50
 90
       50
102
RTVSPost2010PropOp50
 70
     1
102
RTVSPost2010Prop51ColorIndex
 90
      256
102
RTVSPost2010Prop51ColorRGB
 90
-16777216
102
RTVSPost2010PropOp51
 70
     0
102
RTVSPost2010Prop52
140
1.0
102
RTVSPost2010PropOp52
 70
     0
102
RTVSPost2010Prop53
 90
        2
102
RTVSPost2010PropOp53
 70
     1
102
RTVSPost2010Prop54
  1
strokes_ogs.tif
102
RTVSPost2010PropOp54
 70
     1
102
RTVSPost2010Prop55
280
     0
102
RTVSPost2010PropOp55
 70
     1
102
RTVSPost2010Prop56
140
1.0
102
RTVSPost2010PropOp56
 70
     1
102
RTVSPost2010Prop57
140
1.0
102
RTVSPost2010PropOp57
 70
     1
102
RTVSPropertyOp0
 70
     1
102
RTVSPropertyOp1
 70
     1
102
RTVSPropertyOp2
 70
     1
102
RTVSPropertyOp3
 70
     1
102
RTVSPropertyOp4
 70
     1
102
RTVSPropertyOp5
 70
     1
102
RTVSPropertyOp6
 70
     1
102
RTVSPropertyOp7
 70
     1
102
RTVSPropertyOp8
 70
     1
102
RTVSPropertyOp9
 70
     1
102
RTVSPropertyOp10
 70
     1
102
RTVSPropertyOp11
 70
     1
102
RTVSPropertyOp12
 70
     1
102
RTVSPropertyOp13
 70
     1
102
RTVSPropertyOp14
 70
     1
102
RTVSPropertyOp15
 70
     1
102
RTVSPropertyOp16
 70
     1
102
RTVSPropertyOp17
 70
     1
102
RTVSPropertyOp18
 70
     1
102
RTVSPropertyOp19
 70
     1
102
RTVSPropertyOp20
 70
     1
102
RTVSPropertyOp21
 70
     1
102
RTVSPropertyOp22
 70
     1
102
RTVSPropertyOp23
 70
     1
102
RTVSPropertyOp24
 70
     1
102
RTVSPropertyOp25
 70
     1
102
RTVSPropertyOp26
 70
     1
102
RTVSPropertyOp27
 70
     1
102
RTVSPropertyOp28
 70
     1
102
RTVSPropertyOp29
 70
     1
102
RTVSPropertyOp30
 70
     1
102
RTVSPropertyOp31
 70
     1
102
RTVSPropertyOp32
 70
     1
102
RTVSPropertyOp33
 70
     1
102
RTVSPropertyOp34
 70
     1
102
RTVSPropertyOp35
 70
     1
102
RTVSPropertyOp36
 70
     1
102
RTVSPropertyOp37
 70
     1
102
RTVSPropertyOp38
 70
     1
102
RTVSPropertyOp39
 70
     1
102
RTVSPropertyOp40
 70
     1
102
RTVSPropertyOp41
 70
     1
102
RTVSPropertyOp42
 70
     1
102
RTVSPropertyOp43
 70
     1
102
RTVSPropertyOp44
 70
     1
102
RTVSPropertyOp45
 70
     1
102
RTVSPropertyOp46
 70
     1
102
RTVSPropertyOp47
 70
     1
102
RTVSPropertyOp48
 70
     1
102
RTVSPropertyOp49
 70
     1
102
RTVSPropertyOp50
 70
     1
102
RTVSPropertyOp51
 70
     0
102
RTVSPropertyOp52
 70
     0
102
RTVSPropertyOp53
 70
     1
102
RTVSPropertyOp54
 70
     1
102
RTVSPropertyOp55
 70
     1
102
RTVSPropertyOp56
 70
     1
102
RTVSPropertyOp57
 70
     1
102
RTVSPropertyOp58
 70
     1
102
RTVSPropertyOp59
 70
     1
102
RTVSPropertyOp60
 70
     1
102
RTVSPropertyOp61
 70
     1
102
RTVSPropertyOp62
 70
     1
  0
XRECORD
  5
7D9F
102
{ACAD_REACTORS
330
7D9E
102
}
330
7D9E
100
AcDbXrecord
280
     1
102
RTVSPost2010Prop28
280
     0
102
RTVSPost2010PropOp28
 70
     1
102
RTVSPost2010Prop29
280
     1
102
RTVSPost2010PropOp29
 70
     1
102
RTVSPost2010Prop30
280
     1
102
RTVSPost2010PropOp30
 70
     1
102
RTVSPost2010Prop31
280
     0
102
RTVSPost2010PropOp31
 70
     1
102
RTVSPost2010Prop32
280
     0
102
RTVSPost2010PropOp32
 70
     1
102
RTVSPost2010Prop33
280
     0
102
RTVSPost2010PropOp33
 70
     1
102
RTVSPost2010Prop34
280
     0
102
RTVSPost2010PropOp34
 70
     1
102
RTVSPost2010Prop35
280
     0
102
RTVSPost2010PropOp35
 70
     1
102
RTVSPost2010Prop36
280
     0
102
RTVSPost2010PropOp36
 70
     1
102
RTVSPost2010Prop37
 90
       50
102
RTVSPost2010PropOp37
 70
     1
102
RTVSPost2010Prop38
140
0.0
102
RTVSPost2010PropOp38
 70
     1
102
RTVSPost2010Prop39
140
1.0
102
RTVSPost2010PropOp39
 70
     1
102
RTVSPost2010Prop40
 90
        0
102
RTVSPost2010PropOp40
 70
     1
102
RTVSPost2010Prop41ColorIndex
 90
       18
102
RTVSPost2010Prop41ColorRGB
 90
        0
102
RTVSPost2010PropOp41
 70
     1
102
RTVSPost2010Prop42
 90
       50
102
RTVSPost2010PropOp42
 70
     1
102
RTVSPost2010Prop43
 90
        3
102
RTVSPost2010PropOp43
 70
     1
102
RTVSPost2010Prop44ColorIndex
 90
        5
102
RTVSPost2010Prop44ColorRGB
 90
      255
102
RTVSPost2010PropOp44
 70
     1
102
RTVSPost2010Prop45
280
     0
102
RTVSPost2010PropOp45
 70
     1
102
RTVSPost2010Prop46
 90
       50
102
RTVSPost2010PropOp46
 70
     1
102
RTVSPost2010Prop47
 90
       50
102
RTVSPost2010PropOp47
 70
     1
102
RTVSPost2010Prop48
 90
       50
102
RTVSPost2010PropOp48
 70
     1
102
RTVSPost2010Prop49
280
     0
102
RTVSPost2010PropOp49
 70
     1
102
RTVSPost2010Prop50
 90
       50
102
RTVSPost2010PropOp50
 70
     1
102
RTVSPost2010Prop51ColorIndex
 90
      256
102
RTVSPost2010Prop51ColorRGB
 90
-16777216
102
RTVSPost2010PropOp51
 70
     0
102
RTVSPost2010Prop52
140
1.0
102
RTVSPost2010PropOp52
 70
     0
102
RTVSPost2010Prop53
 90
        2
102
RTVSPost2010PropOp53
 70
     1
102
RTVSPost2010Prop54
  1
strokes_ogs.tif
102
RTVSPost2010PropOp54
 70
     1
102
RTVSPost2010Prop55
280
     0
102
RTVSPost2010PropOp55
 70
     1
102
RTVSPost2010Prop56
140
1.0
102
RTVSPost2010PropOp56
 70
     1
102
RTVSPost2010Prop57
140
1.0
102
RTVSPost2010PropOp57
 70
     1
102
RTVSPropertyOp0
 70
     0
102
RTVSPropertyOp1
 70
     0
102
RTVSPropertyOp2
 70
     0
102
RTVSPropertyOp3
 70
     0
102
RTVSPropertyOp4
 70
     0
102
RTVSPropertyOp5
 70
     0
102
RTVSPropertyOp6
 70
     0
102
RTVSPropertyOp7
 70
     0
102
RTVSPropertyOp8
 70
     0
102
RTVSPropertyOp9
 70
     0
102
RTVSPropertyOp10
 70
     0
102
RTVSPropertyOp11
 70
     0
102
RTVSPropertyOp12
 70
     0
102
RTVSPropertyOp13
 70
     0
102
RTVSPropertyOp14
 70
     2
102
RTVSPropertyOp15
 70
     0
102
RTVSPropertyOp16
 70
     0
102
RTVSPropertyOp17
 70
     0
102
RTVSPropertyOp18
 70
     0
102
RTVSPropertyOp19
 70
     0
102
RTVSPropertyOp20
 70
     0
102
RTVSPropertyOp21
 70
     0
102
RTVSPropertyOp22
 70
     0
102
RTVSPropertyOp23
 70
     0
102
RTVSPropertyOp24
 70
     0
102
RTVSPropertyOp25
 70
     0
102
RTVSPropertyOp26
 70
     0
102
RTVSPropertyOp27
 70
     0
102
RTVSPropertyOp28
 70
     1
102
RTVSPropertyOp29
 70
     1
102
RTVSPropertyOp30
 70
     1
102
RTVSPropertyOp31
 70
     1
102
RTVSPropertyOp32
 70
     1
102
RTVSPropertyOp33
 70
     1
102
RTVSPropertyOp34
 70
     1
102
RTVSPropertyOp35
 70
     1
102
RTVSPropertyOp36
 70
     1
102
RTVSPropertyOp37
 70
     1
102
RTVSPropertyOp38
 70
     1
102
RTVSPropertyOp39
 70
     1
102
RTVSPropertyOp40
 70
     1
102
RTVSPropertyOp41
 70
     1
102
RTVSPropertyOp42
 70
     1
102
RTVSPropertyOp43
 70
     1
102
RTVSPropertyOp44
 70
     1
102
RTVSPropertyOp45
 70
     1
102
RTVSPropertyOp46
 70
     1
102
RTVSPropertyOp47
 70
     1
102
RTVSPropertyOp48
 70
     1
102
RTVSPropertyOp49
 70
     1
102
RTVSPropertyOp50
 70
     1
102
RTVSPropertyOp51
 70
     0
102
RTVSPropertyOp52
 70
     0
102
RTVSPropertyOp53
 70
     1
102
RTVSPropertyOp54
 70
     1
102
RTVSPropertyOp55
 70
     1
102
RTVSPropertyOp56
 70
     1
102
RTVSPropertyOp57
 70
     1
102
RTVSPropertyOp58
 70
     1
102
RTVSPropertyOp59
 70
     1
102
RTVSPropertyOp60
 70
     1
102
RTVSPropertyOp61
 70
     1
102
RTVSPropertyOp62
 70
     1
  0
XRECORD
  5
7D95
102
{ACAD_REACTORS
330
7D94
102
}
330
7D94
100
AcDbXrecord
280
     1
102
RTVSPost2010Prop28
280
     0
102
RTVSPost2010PropOp28
 70
     1
102
RTVSPost2010Prop29
280
     1
102
RTVSPost2010PropOp29
 70
     1
102
RTVSPost2010Prop30
280
     1
102
RTVSPost2010PropOp30
 70
     1
102
RTVSPost2010Prop31
280
     0
102
RTVSPost2010PropOp31
 70
     1
102
RTVSPost2010Prop32
280
     0
102
RTVSPost2010PropOp32
 70
     1
102
RTVSPost2010Prop33
280
     0
102
RTVSPost2010PropOp33
 70
     1
102
RTVSPost2010Prop34
280
     0
102
RTVSPost2010PropOp34
 70
     1
102
RTVSPost2010Prop35
280
     0
102
RTVSPost2010PropOp35
 70
     1
102
RTVSPost2010Prop36
280
     0
102
RTVSPost2010PropOp36
 70
     1
102
RTVSPost2010Prop37
 90
       50
102
RTVSPost2010PropOp37
 70
     1
102
RTVSPost2010Prop38
140
0.0
102
RTVSPost2010PropOp38
 70
     1
102
RTVSPost2010Prop39
140
1.0
102
RTVSPost2010PropOp39
 70
     1
102
RTVSPost2010Prop40
 90
        0
102
RTVSPost2010PropOp40
 70
     1
102
RTVSPost2010Prop41ColorIndex
 90
       18
102
RTVSPost2010Prop41ColorRGB
 90
        0
102
RTVSPost2010PropOp41
 70
     1
102
RTVSPost2010Prop42
 90
       50
102
RTVSPost2010PropOp42
 70
     1
102
RTVSPost2010Prop43
 90
        3
102
RTVSPost2010PropOp43
 70
     1
102
RTVSPost2010Prop44ColorIndex
 90
        5
102
RTVSPost2010Prop44ColorRGB
 90
      255
102
RTVSPost2010PropOp44
 70
     1
102
RTVSPost2010Prop45
280
     0
102
RTVSPost2010PropOp45
 70
     1
102
RTVSPost2010Prop46
 90
       50
102
RTVSPost2010PropOp46
 70
     1
102
RTVSPost2010Prop47
 90
       50
102
RTVSPost2010PropOp47
 70
     1
102
RTVSPost2010Prop48
 90
       50
102
RTVSPost2010PropOp48
 70
     1
102
RTVSPost2010Prop49
280
     0
102
RTVSPost2010PropOp49
 70
     1
102
RTVSPost2010Prop50
 90
       50
102
RTVSPost2010PropOp50
 70
     1
102
RTVSPost2010Prop51ColorIndex
 90
      256
102
RTVSPost2010Prop51ColorRGB
 90
-16777216
102
RTVSPost2010PropOp51
 70
     0
102
RTVSPost2010Prop52
140
1.0
102
RTVSPost2010PropOp52
 70
     0
102
RTVSPost2010Prop53
 90
        2
102
RTVSPost2010PropOp53
 70
     1
102
RTVSPost2010Prop54
  1
strokes_ogs.tif
102
RTVSPost2010PropOp54
 70
     1
102
RTVSPost2010Prop55
280
     0
102
RTVSPost2010PropOp55
 70
     1
102
RTVSPost2010Prop56
140
1.0
102
RTVSPost2010PropOp56
 70
     1
102
RTVSPost2010Prop57
140
1.0
102
RTVSPost2010PropOp57
 70
     1
102
RTVSPropertyOp0
 70
     1
102
RTVSPropertyOp1
 70
     1
102
RTVSPropertyOp2
 70
     1
102
RTVSPropertyOp3
 70
     1
102
RTVSPropertyOp4
 70
     1
102
RTVSPropertyOp5
 70
     1
102
RTVSPropertyOp6
 70
     1
102
RTVSPropertyOp7
 70
     1
102
RTVSPropertyOp8
 70
     1
102
RTVSPropertyOp9
 70
     1
102
RTVSPropertyOp10
 70
     1
102
RTVSPropertyOp11
 70
     1
102
RTVSPropertyOp12
 70
     1
102
RTVSPropertyOp13
 70
     1
102
RTVSPropertyOp14
 70
     1
102
RTVSPropertyOp15
 70
     1
102
RTVSPropertyOp16
 70
     1
102
RTVSPropertyOp17
 70
     1
102
RTVSPropertyOp18
 70
     1
102
RTVSPropertyOp19
 70
     1
102
RTVSPropertyOp20
 70
     1
102
RTVSPropertyOp21
 70
     1
102
RTVSPropertyOp22
 70
     1
102
RTVSPropertyOp23
 70
     1
102
RTVSPropertyOp24
 70
     1
102
RTVSPropertyOp25
 70
     1
102
RTVSPropertyOp26
 70
     1
102
RTVSPropertyOp27
 70
     1
102
RTVSPropertyOp28
 70
     1
102
RTVSPropertyOp29
 70
     1
102
RTVSPropertyOp30
 70
     1
102
RTVSPropertyOp31
 70
     1
102
RTVSPropertyOp32
 70
     1
102
RTVSPropertyOp33
 70
     1
102
RTVSPropertyOp34
 70
     1
102
RTVSPropertyOp35
 70
     1
102
RTVSPropertyOp36
 70
     1
102
RTVSPropertyOp37
 70
     1
102
RTVSPropertyOp38
 70
     1
102
RTVSPropertyOp39
 70
     1
102
RTVSPropertyOp40
 70
     1
102
RTVSPropertyOp41
 70
     1
102
RTVSPropertyOp42
 70
     1
102
RTVSPropertyOp43
 70
     1
102
RTVSPropertyOp44
 70
     1
102
RTVSPropertyOp45
 70
     1
102
RTVSPropertyOp46
 70
     1
102
RTVSPropertyOp47
 70
     1
102
RTVSPropertyOp48
 70
     1
102
RTVSPropertyOp49
 70
     1
102
RTVSPropertyOp50
 70
     1
102
RTVSPropertyOp51
 70
     0
102
RTVSPropertyOp52
 70
     0
102
RTVSPropertyOp53
 70
     1
102
RTVSPropertyOp54
 70
     1
102
RTVSPropertyOp55
 70
     1
102
RTVSPropertyOp56
 70
     1
102
RTVSPropertyOp57
 70
     1
102
RTVSPropertyOp58
 70
     1
102
RTVSPropertyOp59
 70
     1
102
RTVSPropertyOp60
 70
     1
102
RTVSPropertyOp61
 70
     1
102
RTVSPropertyOp62
 70
     1
  0
XRECORD
  5
7D79
102
{ACAD_REACTORS
330
7D78
102
}
330
7D78
100
AcDbXrecord
280
     1
102
RTVSPost2010Prop28
280
     0
102
RTVSPost2010PropOp28
 70
     1
102
RTVSPost2010Prop29
280
     1
102
RTVSPost2010PropOp29
 70
     1
102
RTVSPost2010Prop30
280
     1
102
RTVSPost2010PropOp30
 70
     1
102
RTVSPost2010Prop31
280
     0
102
RTVSPost2010PropOp31
 70
     1
102
RTVSPost2010Prop32
280
     0
102
RTVSPost2010PropOp32
 70
     1
102
RTVSPost2010Prop33
280
     0
102
RTVSPost2010PropOp33
 70
     1
102
RTVSPost2010Prop34
280
     0
102
RTVSPost2010PropOp34
 70
     1
102
RTVSPost2010Prop35
280
     0
102
RTVSPost2010PropOp35
 70
     1
102
RTVSPost2010Prop36
280
     0
102
RTVSPost2010PropOp36
 70
     1
102
RTVSPost2010Prop37
 90
       50
102
RTVSPost2010PropOp37
 70
     1
102
RTVSPost2010Prop38
140
0.0
102
RTVSPost2010PropOp38
 70
     1
102
RTVSPost2010Prop39
140
1.0
102
RTVSPost2010PropOp39
 70
     1
102
RTVSPost2010Prop40
 90
        0
102
RTVSPost2010PropOp40
 70
     1
102
RTVSPost2010Prop41ColorIndex
 90
       18
102
RTVSPost2010Prop41ColorRGB
 90
        0
102
RTVSPost2010PropOp41
 70
     1
102
RTVSPost2010Prop42
 90
       50
102
RTVSPost2010PropOp42
 70
     1
102
RTVSPost2010Prop43
 90
        3
102
RTVSPost2010PropOp43
 70
     1
102
RTVSPost2010Prop44ColorIndex
 90
        5
102
RTVSPost2010Prop44ColorRGB
 90
      255
102
RTVSPost2010PropOp44
 70
     1
102
RTVSPost2010Prop45
280
     0
102
RTVSPost2010PropOp45
 70
     1
102
RTVSPost2010Prop46
 90
       50
102
RTVSPost2010PropOp46
 70
     1
102
RTVSPost2010Prop47
 90
       50
102
RTVSPost2010PropOp47
 70
     1
102
RTVSPost2010Prop48
 90
       50
102
RTVSPost2010PropOp48
 70
     1
102
RTVSPost2010Prop49
280
     0
102
RTVSPost2010PropOp49
 70
     1
102
RTVSPost2010Prop50
 90
       50
102
RTVSPost2010PropOp50
 70
     1
102
RTVSPost2010Prop51ColorIndex
 90
      256
102
RTVSPost2010Prop51ColorRGB
 90
-16777216
102
RTVSPost2010PropOp51
 70
     0
102
RTVSPost2010Prop52
140
1.0
102
RTVSPost2010PropOp52
 70
     0
102
RTVSPost2010Prop53
 90
        2
102
RTVSPost2010PropOp53
 70
     1
102
RTVSPost2010Prop54
  1
strokes_ogs.tif
102
RTVSPost2010PropOp54
 70
     1
102
RTVSPost2010Prop55
280
     0
102
RTVSPost2010PropOp55
 70
     1
102
RTVSPost2010Prop56
140
1.0
102
RTVSPost2010PropOp56
 70
     1
102
RTVSPost2010Prop57
140
1.0
102
RTVSPost2010PropOp57
 70
     1
102
RTVSPropertyOp0
 70
     1
102
RTVSPropertyOp1
 70
     1
102
RTVSPropertyOp2
 70
     1
102
RTVSPropertyOp3
 70
     1
102
RTVSPropertyOp4
 70
     1
102
RTVSPropertyOp5
 70
     1
102
RTVSPropertyOp6
 70
     1
102
RTVSPropertyOp7
 70
     1
102
RTVSPropertyOp8
 70
     1
102
RTVSPropertyOp9
 70
     1
102
RTVSPropertyOp10
 70
     1
102
RTVSPropertyOp11
 70
     1
102
RTVSPropertyOp12
 70
     1
102
RTVSPropertyOp13
 70
     1
102
RTVSPropertyOp14
 70
     1
102
RTVSPropertyOp15
 70
     1
102
RTVSPropertyOp16
 70
     1
102
RTVSPropertyOp17
 70
     1
102
RTVSPropertyOp18
 70
     1
102
RTVSPropertyOp19
 70
     1
102
RTVSPropertyOp20
 70
     1
102
RTVSPropertyOp21
 70
     1
102
RTVSPropertyOp22
 70
     1
102
RTVSPropertyOp23
 70
     1
102
RTVSPropertyOp24
 70
     1
102
RTVSPropertyOp25
 70
     1
102
RTVSPropertyOp26
 70
     1
102
RTVSPropertyOp27
 70
     1
102
RTVSPropertyOp28
 70
     1
102
RTVSPropertyOp29
 70
     1
102
RTVSPropertyOp30
 70
     1
102
RTVSPropertyOp31
 70
     1
102
RTVSPropertyOp32
 70
     1
102
RTVSPropertyOp33
 70
     1
102
RTVSPropertyOp34
 70
     1
102
RTVSPropertyOp35
 70
     1
102
RTVSPropertyOp36
 70
     1
102
RTVSPropertyOp37
 70
     1
102
RTVSPropertyOp38
 70
     1
102
RTVSPropertyOp39
 70
     1
102
RTVSPropertyOp40
 70
     1
102
RTVSPropertyOp41
 70
     1
102
RTVSPropertyOp42
 70
     1
102
RTVSPropertyOp43
 70
     1
102
RTVSPropertyOp44
 70
     1
102
RTVSPropertyOp45
 70
     1
102
RTVSPropertyOp46
 70
     1
102
RTVSPropertyOp47
 70
     1
102
RTVSPropertyOp48
 70
     1
102
RTVSPropertyOp49
 70
     1
102
RTVSPropertyOp50
 70
     1
102
RTVSPropertyOp51
 70
     0
102
RTVSPropertyOp52
 70
     0
102
RTVSPropertyOp53
 70
     1
102
RTVSPropertyOp54
 70
     1
102
RTVSPropertyOp55
 70
     1
102
RTVSPropertyOp56
 70
     1
102
RTVSPropertyOp57
 70
     1
102
RTVSPropertyOp58
 70
     1
102
RTVSPropertyOp59
 70
     1
102
RTVSPropertyOp60
 70
     1
102
RTVSPropertyOp61
 70
     1
102
RTVSPropertyOp62
 70
     1
  0
XRECORD
  5
7D7B
102
{ACAD_REACTORS
330
7D7A
102
}
330
7D7A
100
AcDbXrecord
280
     1
102
RTVSPost2010Prop28
280
     0
102
RTVSPost2010PropOp28
 70
     1
102
RTVSPost2010Prop29
280
     1
102
RTVSPost2010PropOp29
 70
     1
102
RTVSPost2010Prop30
280
     1
102
RTVSPost2010PropOp30
 70
     1
102
RTVSPost2010Prop31
280
     0
102
RTVSPost2010PropOp31
 70
     1
102
RTVSPost2010Prop32
280
     0
102
RTVSPost2010PropOp32
 70
     1
102
RTVSPost2010Prop33
280
     0
102
RTVSPost2010PropOp33
 70
     1
102
RTVSPost2010Prop34
280
     0
102
RTVSPost2010PropOp34
 70
     1
102
RTVSPost2010Prop35
280
     0
102
RTVSPost2010PropOp35
 70
     1
102
RTVSPost2010Prop36
280
     0
102
RTVSPost2010PropOp36
 70
     1
102
RTVSPost2010Prop37
 90
       50
102
RTVSPost2010PropOp37
 70
     1
102
RTVSPost2010Prop38
140
0.0
102
RTVSPost2010PropOp38
 70
     1
102
RTVSPost2010Prop39
140
1.0
102
RTVSPost2010PropOp39
 70
     1
102
RTVSPost2010Prop40
 90
        0
102
RTVSPost2010PropOp40
 70
     1
102
RTVSPost2010Prop41ColorIndex
 90
       18
102
RTVSPost2010Prop41ColorRGB
 90
        0
102
RTVSPost2010PropOp41
 70
     1
102
RTVSPost2010Prop42
 90
       50
102
RTVSPost2010PropOp42
 70
     1
102
RTVSPost2010Prop43
 90
        3
102
RTVSPost2010PropOp43
 70
     1
102
RTVSPost2010Prop44ColorIndex
 90
        5
102
RTVSPost2010Prop44ColorRGB
 90
      255
102
RTVSPost2010PropOp44
 70
     1
102
RTVSPost2010Prop45
280
     0
102
RTVSPost2010PropOp45
 70
     1
102
RTVSPost2010Prop46
 90
       50
102
RTVSPost2010PropOp46
 70
     1
102
RTVSPost2010Prop47
 90
       50
102
RTVSPost2010PropOp47
 70
     1
102
RTVSPost2010Prop48
 90
       50
102
RTVSPost2010PropOp48
 70
     1
102
RTVSPost2010Prop49
280
     0
102
RTVSPost2010PropOp49
 70
     1
102
RTVSPost2010Prop50
 90
       50
102
RTVSPost2010PropOp50
 70
     1
102
RTVSPost2010Prop51ColorIndex
 90
      256
102
RTVSPost2010Prop51ColorRGB
 90
-16777216
102
RTVSPost2010PropOp51
 70
     0
102
RTVSPost2010Prop52
140
1.0
102
RTVSPost2010PropOp52
 70
     0
102
RTVSPost2010Prop53
 90
        2
102
RTVSPost2010PropOp53
 70
     1
102
RTVSPost2010Prop54
  1
strokes_ogs.tif
102
RTVSPost2010PropOp54
 70
     1
102
RTVSPost2010Prop55
280
     0
102
RTVSPost2010PropOp55
 70
     1
102
RTVSPost2010Prop56
140
1.0
102
RTVSPost2010PropOp56
 70
     1
102
RTVSPost2010Prop57
140
1.0
102
RTVSPost2010PropOp57
 70
     1
102
RTVSPropertyOp0
 70
     1
102
RTVSPropertyOp1
 70
     1
102
RTVSPropertyOp2
 70
     1
102
RTVSPropertyOp3
 70
     1
102
RTVSPropertyOp4
 70
     1
102
RTVSPropertyOp5
 70
     1
102
RTVSPropertyOp6
 70
     1
102
RTVSPropertyOp7
 70
     1
102
RTVSPropertyOp8
 70
     1
102
RTVSPropertyOp9
 70
     1
102
RTVSPropertyOp10
 70
     1
102
RTVSPropertyOp11
 70
     1
102
RTVSPropertyOp12
 70
     1
102
RTVSPropertyOp13
 70
     1
102
RTVSPropertyOp14
 70
     1
102
RTVSPropertyOp15
 70
     1
102
RTVSPropertyOp16
 70
     1
102
RTVSPropertyOp17
 70
     1
102
RTVSPropertyOp18
 70
     1
102
RTVSPropertyOp19
 70
     1
102
RTVSPropertyOp20
 70
     1
102
RTVSPropertyOp21
 70
     1
102
RTVSPropertyOp22
 70
     1
102
RTVSPropertyOp23
 70
     1
102
RTVSPropertyOp24
 70
     1
102
RTVSPropertyOp25
 70
     1
102
RTVSPropertyOp26
 70
     1
102
RTVSPropertyOp27
 70
     1
102
RTVSPropertyOp28
 70
     1
102
RTVSPropertyOp29
 70
     1
102
RTVSPropertyOp30
 70
     1
102
RTVSPropertyOp31
 70
     1
102
RTVSPropertyOp32
 70
     1
102
RTVSPropertyOp33
 70
     1
102
RTVSPropertyOp34
 70
     1
102
RTVSPropertyOp35
 70
     1
102
RTVSPropertyOp36
 70
     1
102
RTVSPropertyOp37
 70
     1
102
RTVSPropertyOp38
 70
     1
102
RTVSPropertyOp39
 70
     1
102
RTVSPropertyOp40
 70
     1
102
RTVSPropertyOp41
 70
     1
102
RTVSPropertyOp42
 70
     1
102
RTVSPropertyOp43
 70
     1
102
RTVSPropertyOp44
 70
     1
102
RTVSPropertyOp45
 70
     1
102
RTVSPropertyOp46
 70
     1
102
RTVSPropertyOp47
 70
     1
102
RTVSPropertyOp48
 70
     1
102
RTVSPropertyOp49
 70
     1
102
RTVSPropertyOp50
 70
     1
102
RTVSPropertyOp51
 70
     0
102
RTVSPropertyOp52
 70
     0
102
RTVSPropertyOp53
 70
     1
102
RTVSPropertyOp54
 70
     1
102
RTVSPropertyOp55
 70
     1
102
RTVSPropertyOp56
 70
     1
102
RTVSPropertyOp57
 70
     1
102
RTVSPropertyOp58
 70
     1
102
RTVSPropertyOp59
 70
     1
102
RTVSPropertyOp60
 70
     1
102
RTVSPropertyOp61
 70
     1
102
RTVSPropertyOp62
 70
     1
  0
XRECORD
  5
7D7D
102
{ACAD_REACTORS
330
7D7C
102
}
330
7D7C
100
AcDbXrecord
280
     1
102
RTVSPost2010Prop28
280
     0
102
RTVSPost2010PropOp28
 70
     1
102
RTVSPost2010Prop29
280
     1
102
RTVSPost2010PropOp29
 70
     1
102
RTVSPost2010Prop30
280
     1
102
RTVSPost2010PropOp30
 70
     1
102
RTVSPost2010Prop31
280
     0
102
RTVSPost2010PropOp31
 70
     1
102
RTVSPost2010Prop32
280
     0
102
RTVSPost2010PropOp32
 70
     1
102
RTVSPost2010Prop33
280
     0
102
RTVSPost2010PropOp33
 70
     1
102
RTVSPost2010Prop34
280
     0
102
RTVSPost2010PropOp34
 70
     1
102
RTVSPost2010Prop35
280
     0
102
RTVSPost2010PropOp35
 70
     1
102
RTVSPost2010Prop36
280
     0
102
RTVSPost2010PropOp36
 70
     1
102
RTVSPost2010Prop37
 90
       50
102
RTVSPost2010PropOp37
 70
     1
102
RTVSPost2010Prop38
140
0.0
102
RTVSPost2010PropOp38
 70
     1
102
RTVSPost2010Prop39
140
1.0
102
RTVSPost2010PropOp39
 70
     1
102
RTVSPost2010Prop40
 90
        0
102
RTVSPost2010PropOp40
 70
     1
102
RTVSPost2010Prop41ColorIndex
 90
       18
102
RTVSPost2010Prop41ColorRGB
 90
        0
102
RTVSPost2010PropOp41
 70
     1
102
RTVSPost2010Prop42
 90
       50
102
RTVSPost2010PropOp42
 70
     1
102
RTVSPost2010Prop43
 90
        3
102
RTVSPost2010PropOp43
 70
     1
102
RTVSPost2010Prop44ColorIndex
 90
        5
102
RTVSPost2010Prop44ColorRGB
 90
      255
102
RTVSPost2010PropOp44
 70
     1
102
RTVSPost2010Prop45
280
     0
102
RTVSPost2010PropOp45
 70
     1
102
RTVSPost2010Prop46
 90
       50
102
RTVSPost2010PropOp46
 70
     1
102
RTVSPost2010Prop47
 90
       50
102
RTVSPost2010PropOp47
 70
     1
102
RTVSPost2010Prop48
 90
       50
102
RTVSPost2010PropOp48
 70
     1
102
RTVSPost2010Prop49
280
     0
102
RTVSPost2010PropOp49
 70
     1
102
RTVSPost2010Prop50
 90
       50
102
RTVSPost2010PropOp50
 70
     1
102
RTVSPost2010Prop51ColorIndex
 90
      256
102
RTVSPost2010Prop51ColorRGB
 90
-16777216
102
RTVSPost2010PropOp51
 70
     0
102
RTVSPost2010Prop52
140
1.0
102
RTVSPost2010PropOp52
 70
     0
102
RTVSPost2010Prop53
 90
        2
102
RTVSPost2010PropOp53
 70
     1
102
RTVSPost2010Prop54
  1
strokes_ogs.tif
102
RTVSPost2010PropOp54
 70
     1
102
RTVSPost2010Prop55
280
     0
102
RTVSPost2010PropOp55
 70
     1
102
RTVSPost2010Prop56
140
1.0
102
RTVSPost2010PropOp56
 70
     1
102
RTVSPost2010Prop57
140
1.0
102
RTVSPost2010PropOp57
 70
     1
102
RTVSPropertyOp0
 70
     1
102
RTVSPropertyOp1
 70
     1
102
RTVSPropertyOp2
 70
     1
102
RTVSPropertyOp3
 70
     1
102
RTVSPropertyOp4
 70
     1
102
RTVSPropertyOp5
 70
     1
102
RTVSPropertyOp6
 70
     1
102
RTVSPropertyOp7
 70
     1
102
RTVSPropertyOp8
 70
     1
102
RTVSPropertyOp9
 70
     1
102
RTVSPropertyOp10
 70
     1
102
RTVSPropertyOp11
 70
     1
102
RTVSPropertyOp12
 70
     1
102
RTVSPropertyOp13
 70
     1
102
RTVSPropertyOp14
 70
     1
102
RTVSPropertyOp15
 70
     1
102
RTVSPropertyOp16
 70
     1
102
RTVSPropertyOp17
 70
     1
102
RTVSPropertyOp18
 70
     1
102
RTVSPropertyOp19
 70
     1
102
RTVSPropertyOp20
 70
     1
102
RTVSPropertyOp21
 70
     1
102
RTVSPropertyOp22
 70
     1
102
RTVSPropertyOp23
 70
     1
102
RTVSPropertyOp24
 70
     1
102
RTVSPropertyOp25
 70
     1
102
RTVSPropertyOp26
 70
     1
102
RTVSPropertyOp27
 70
     1
102
RTVSPropertyOp28
 70
     1
102
RTVSPropertyOp29
 70
     1
102
RTVSPropertyOp30
 70
     1
102
RTVSPropertyOp31
 70
     1
102
RTVSPropertyOp32
 70
     1
102
RTVSPropertyOp33
 70
     1
102
RTVSPropertyOp34
 70
     1
102
RTVSPropertyOp35
 70
     1
102
RTVSPropertyOp36
 70
     1
102
RTVSPropertyOp37
 70
     1
102
RTVSPropertyOp38
 70
     1
102
RTVSPropertyOp39
 70
     1
102
RTVSPropertyOp40
 70
     1
102
RTVSPropertyOp41
 70
     1
102
RTVSPropertyOp42
 70
     1
102
RTVSPropertyOp43
 70
     1
102
RTVSPropertyOp44
 70
     1
102
RTVSPropertyOp45
 70
     1
102
RTVSPropertyOp46
 70
     1
102
RTVSPropertyOp47
 70
     1
102
RTVSPropertyOp48
 70
     1
102
RTVSPropertyOp49
 70
     1
102
RTVSPropertyOp50
 70
     1
102
RTVSPropertyOp51
 70
     0
102
RTVSPropertyOp52
 70
     0
102
RTVSPropertyOp53
 70
     1
102
RTVSPropertyOp54
 70
     1
102
RTVSPropertyOp55
 70
     1
102
RTVSPropertyOp56
 70
     1
102
RTVSPropertyOp57
 70
     1
102
RTVSPropertyOp58
 70
     1
102
RTVSPropertyOp59
 70
     1
102
RTVSPropertyOp60
 70
     1
102
RTVSPropertyOp61
 70
     1
102
RTVSPropertyOp62
 70
     1
  0
XRECORD
  5
7D7F
102
{ACAD_REACTORS
330
7D7E
102
}
330
7D7E
100
AcDbXrecord
280
     1
102
RTVSPost2010Prop28
280
     0
102
RTVSPost2010PropOp28
 70
     1
102
RTVSPost2010Prop29
280
     1
102
RTVSPost2010PropOp29
 70
     1
102
RTVSPost2010Prop30
280
     1
102
RTVSPost2010PropOp30
 70
     1
102
RTVSPost2010Prop31
280
     0
102
RTVSPost2010PropOp31
 70
     1
102
RTVSPost2010Prop32
280
     0
102
RTVSPost2010PropOp32
 70
     1
102
RTVSPost2010Prop33
280
     0
102
RTVSPost2010PropOp33
 70
     1
102
RTVSPost2010Prop34
280
     0
102
RTVSPost2010PropOp34
 70
     1
102
RTVSPost2010Prop35
280
     0
102
RTVSPost2010PropOp35
 70
     1
102
RTVSPost2010Prop36
280
     0
102
RTVSPost2010PropOp36
 70
     1
102
RTVSPost2010Prop37
 90
       50
102
RTVSPost2010PropOp37
 70
     1
102
RTVSPost2010Prop38
140
0.0
102
RTVSPost2010PropOp38
 70
     1
102
RTVSPost2010Prop39
140
1.0
102
RTVSPost2010PropOp39
 70
     1
102
RTVSPost2010Prop40
 90
        0
102
RTVSPost2010PropOp40
 70
     1
102
RTVSPost2010Prop41ColorIndex
 90
       18
102
RTVSPost2010Prop41ColorRGB
 90
        0
102
RTVSPost2010PropOp41
 70
     1
102
RTVSPost2010Prop42
 90
       50
102
RTVSPost2010PropOp42
 70
     1
102
RTVSPost2010Prop43
 90
        3
102
RTVSPost2010PropOp43
 70
     1
102
RTVSPost2010Prop44ColorIndex
 90
        5
102
RTVSPost2010Prop44ColorRGB
 90
      255
102
RTVSPost2010PropOp44
 70
     1
102
RTVSPost2010Prop45
280
     0
102
RTVSPost2010PropOp45
 70
     1
102
RTVSPost2010Prop46
 90
       50
102
RTVSPost2010PropOp46
 70
     1
102
RTVSPost2010Prop47
 90
       50
102
RTVSPost2010PropOp47
 70
     1
102
RTVSPost2010Prop48
 90
       50
102
RTVSPost2010PropOp48
 70
     1
102
RTVSPost2010Prop49
280
     0
102
RTVSPost2010PropOp49
 70
     1
102
RTVSPost2010Prop50
 90
       50
102
RTVSPost2010PropOp50
 70
     1
102
RTVSPost2010Prop51ColorIndex
 90
      256
102
RTVSPost2010Prop51ColorRGB
 90
-16777216
102
RTVSPost2010PropOp51
 70
     0
102
RTVSPost2010Prop52
140
1.0
102
RTVSPost2010PropOp52
 70
     0
102
RTVSPost2010Prop53
 90
        2
102
RTVSPost2010PropOp53
 70
     1
102
RTVSPost2010Prop54
  1
strokes_ogs.tif
102
RTVSPost2010PropOp54
 70
     1
102
RTVSPost2010Prop55
280
     0
102
RTVSPost2010PropOp55
 70
     1
102
RTVSPost2010Prop56
140
1.0
102
RTVSPost2010PropOp56
 70
     1
102
RTVSPost2010Prop57
140
1.0
102
RTVSPost2010PropOp57
 70
     1
102
RTVSPropertyOp0
 70
     1
102
RTVSPropertyOp1
 70
     1
102
RTVSPropertyOp2
 70
     1
102
RTVSPropertyOp3
 70
     1
102
RTVSPropertyOp4
 70
     1
102
RTVSPropertyOp5
 70
     1
102
RTVSPropertyOp6
 70
     1
102
RTVSPropertyOp7
 70
     1
102
RTVSPropertyOp8
 70
     1
102
RTVSPropertyOp9
 70
     1
102
RTVSPropertyOp10
 70
     1
102
RTVSPropertyOp11
 70
     1
102
RTVSPropertyOp12
 70
     1
102
RTVSPropertyOp13
 70
     1
102
RTVSPropertyOp14
 70
     1
102
RTVSPropertyOp15
 70
     1
102
RTVSPropertyOp16
 70
     1
102
RTVSPropertyOp17
 70
     1
102
RTVSPropertyOp18
 70
     1
102
RTVSPropertyOp19
 70
     1
102
RTVSPropertyOp20
 70
     1
102
RTVSPropertyOp21
 70
     1
102
RTVSPropertyOp22
 70
     1
102
RTVSPropertyOp23
 70
     1
102
RTVSPropertyOp24
 70
     1
102
RTVSPropertyOp25
 70
     1
102
RTVSPropertyOp26
 70
     1
102
RTVSPropertyOp27
 70
     1
102
RTVSPropertyOp28
 70
     1
102
RTVSPropertyOp29
 70
     1
102
RTVSPropertyOp30
 70
     1
102
RTVSPropertyOp31
 70
     1
102
RTVSPropertyOp32
 70
     1
102
RTVSPropertyOp33
 70
     1
102
RTVSPropertyOp34
 70
     1
102
RTVSPropertyOp35
 70
     1
102
RTVSPropertyOp36
 70
     1
102
RTVSPropertyOp37
 70
     1
102
RTVSPropertyOp38
 70
     1
102
RTVSPropertyOp39
 70
     1
102
RTVSPropertyOp40
 70
     1
102
RTVSPropertyOp41
 70
     1
102
RTVSPropertyOp42
 70
     1
102
RTVSPropertyOp43
 70
     1
102
RTVSPropertyOp44
 70
     1
102
RTVSPropertyOp45
 70
     1
102
RTVSPropertyOp46
 70
     1
102
RTVSPropertyOp47
 70
     1
102
RTVSPropertyOp48
 70
     1
102
RTVSPropertyOp49
 70
     1
102
RTVSPropertyOp50
 70
     1
102
RTVSPropertyOp51
 70
     0
102
RTVSPropertyOp52
 70
     0
102
RTVSPropertyOp53
 70
     1
102
RTVSPropertyOp54
 70
     1
102
RTVSPropertyOp55
 70
     1
102
RTVSPropertyOp56
 70
     1
102
RTVSPropertyOp57
 70
     1
102
RTVSPropertyOp58
 70
     1
102
RTVSPropertyOp59
 70
     1
102
RTVSPropertyOp60
 70
     1
102
RTVSPropertyOp61
 70
     1
102
RTVSPropertyOp62
 70
     1
  0
XRECORD
  5
7D87
102
{ACAD_REACTORS
330
7D86
102
}
330
7D86
100
AcDbXrecord
280
     1
102
RTVSPost2010Prop28
280
     0
102
RTVSPost2010PropOp28
 70
     1
102
RTVSPost2010Prop29
280
     1
102
RTVSPost2010PropOp29
 70
     1
102
RTVSPost2010Prop30
280
     1
102
RTVSPost2010PropOp30
 70
     1
102
RTVSPost2010Prop31
280
     0
102
RTVSPost2010PropOp31
 70
     1
102
RTVSPost2010Prop32
280
     0
102
RTVSPost2010PropOp32
 70
     1
102
RTVSPost2010Prop33
280
     0
102
RTVSPost2010PropOp33
 70
     1
102
RTVSPost2010Prop34
280
     0
102
RTVSPost2010PropOp34
 70
     1
102
RTVSPost2010Prop35
280
     0
102
RTVSPost2010PropOp35
 70
     1
102
RTVSPost2010Prop36
280
     0
102
RTVSPost2010PropOp36
 70
     1
102
RTVSPost2010Prop37
 90
       50
102
RTVSPost2010PropOp37
 70
     1
102
RTVSPost2010Prop38
140
0.0
102
RTVSPost2010PropOp38
 70
     1
102
RTVSPost2010Prop39
140
1.0
102
RTVSPost2010PropOp39
 70
     1
102
RTVSPost2010Prop40
 90
        0
102
RTVSPost2010PropOp40
 70
     1
102
RTVSPost2010Prop41ColorIndex
 90
       18
102
RTVSPost2010Prop41ColorRGB
 90
        0
102
RTVSPost2010PropOp41
 70
     1
102
RTVSPost2010Prop42
 90
       50
102
RTVSPost2010PropOp42
 70
     1
102
RTVSPost2010Prop43
 90
        3
102
RTVSPost2010PropOp43
 70
     1
102
RTVSPost2010Prop44ColorIndex
 90
        5
102
RTVSPost2010Prop44ColorRGB
 90
      255
102
RTVSPost2010PropOp44
 70
     1
102
RTVSPost2010Prop45
280
     0
102
RTVSPost2010PropOp45
 70
     1
102
RTVSPost2010Prop46
 90
       50
102
RTVSPost2010PropOp46
 70
     1
102
RTVSPost2010Prop47
 90
       50
102
RTVSPost2010PropOp47
 70
     1
102
RTVSPost2010Prop48
 90
       50
102
RTVSPost2010PropOp48
 70
     1
102
RTVSPost2010Prop49
280
     0
102
RTVSPost2010PropOp49
 70
     1
102
RTVSPost2010Prop50
 90
       50
102
RTVSPost2010PropOp50
 70
     1
102
RTVSPost2010Prop51ColorIndex
 90
      256
102
RTVSPost2010Prop51ColorRGB
 90
-16777216
102
RTVSPost2010PropOp51
 70
     0
102
RTVSPost2010Prop52
140
1.0
102
RTVSPost2010PropOp52
 70
     0
102
RTVSPost2010Prop53
 90
        2
102
RTVSPost2010PropOp53
 70
     1
102
RTVSPost2010Prop54
  1
strokes_ogs.tif
102
RTVSPost2010PropOp54
 70
     1
102
RTVSPost2010Prop55
280
     0
102
RTVSPost2010PropOp55
 70
     1
102
RTVSPost2010Prop56
140
1.0
102
RTVSPost2010PropOp56
 70
     1
102
RTVSPost2010Prop57
140
1.0
102
RTVSPost2010PropOp57
 70
     1
102
RTVSPropertyOp0
 70
     1
102
RTVSPropertyOp1
 70
     1
102
RTVSPropertyOp2
 70
     1
102
RTVSPropertyOp3
 70
     1
102
RTVSPropertyOp4
 70
     1
102
RTVSPropertyOp5
 70
     1
102
RTVSPropertyOp6
 70
     1
102
RTVSPropertyOp7
 70
     1
102
RTVSPropertyOp8
 70
     1
102
RTVSPropertyOp9
 70
     1
102
RTVSPropertyOp10
 70
     1
102
RTVSPropertyOp11
 70
     1
102
RTVSPropertyOp12
 70
     1
102
RTVSPropertyOp13
 70
     1
102
RTVSPropertyOp14
 70
     1
102
RTVSPropertyOp15
 70
     1
102
RTVSPropertyOp16
 70
     1
102
RTVSPropertyOp17
 70
     1
102
RTVSPropertyOp18
 70
     1
102
RTVSPropertyOp19
 70
     1
102
RTVSPropertyOp20
 70
     1
102
RTVSPropertyOp21
 70
     1
102
RTVSPropertyOp22
 70
     1
102
RTVSPropertyOp23
 70
     1
102
RTVSPropertyOp24
 70
     1
102
RTVSPropertyOp25
 70
     1
102
RTVSPropertyOp26
 70
     1
102
RTVSPropertyOp27
 70
     1
102
RTVSPropertyOp28
 70
     1
102
RTVSPropertyOp29
 70
     1
102
RTVSPropertyOp30
 70
     1
102
RTVSPropertyOp31
 70
     1
102
RTVSPropertyOp32
 70
     1
102
RTVSPropertyOp33
 70
     1
102
RTVSPropertyOp34
 70
     1
102
RTVSPropertyOp35
 70
     1
102
RTVSPropertyOp36
 70
     1
102
RTVSPropertyOp37
 70
     1
102
RTVSPropertyOp38
 70
     1
102
RTVSPropertyOp39
 70
     1
102
RTVSPropertyOp40
 70
     1
102
RTVSPropertyOp41
 70
     1
102
RTVSPropertyOp42
 70
     1
102
RTVSPropertyOp43
 70
     1
102
RTVSPropertyOp44
 70
     1
102
RTVSPropertyOp45
 70
     1
102
RTVSPropertyOp46
 70
     1
102
RTVSPropertyOp47
 70
     1
102
RTVSPropertyOp48
 70
     1
102
RTVSPropertyOp49
 70
     1
102
RTVSPropertyOp50
 70
     1
102
RTVSPropertyOp51
 70
     0
102
RTVSPropertyOp52
 70
     0
102
RTVSPropertyOp53
 70
     1
102
RTVSPropertyOp54
 70
     1
102
RTVSPropertyOp55
 70
     1
102
RTVSPropertyOp56
 70
     1
102
RTVSPropertyOp57
 70
     1
102
RTVSPropertyOp58
 70
     1
102
RTVSPropertyOp59
 70
     1
102
RTVSPropertyOp60
 70
     1
102
RTVSPropertyOp61
 70
     1
102
RTVSPropertyOp62
 70
     1
  0
XRECORD
  5
7D9B
102
{ACAD_REACTORS
330
7D9A
102
}
330
7D9A
100
AcDbXrecord
280
     1
102
RTVSPost2010Prop28
280
     0
102
RTVSPost2010PropOp28
 70
     1
102
RTVSPost2010Prop29
280
     1
102
RTVSPost2010PropOp29
 70
     1
102
RTVSPost2010Prop30
280
     1
102
RTVSPost2010PropOp30
 70
     1
102
RTVSPost2010Prop31
280
     0
102
RTVSPost2010PropOp31
 70
     1
102
RTVSPost2010Prop32
280
     0
102
RTVSPost2010PropOp32
 70
     1
102
RTVSPost2010Prop33
280
     0
102
RTVSPost2010PropOp33
 70
     1
102
RTVSPost2010Prop34
280
     0
102
RTVSPost2010PropOp34
 70
     1
102
RTVSPost2010Prop35
280
     0
102
RTVSPost2010PropOp35
 70
     1
102
RTVSPost2010Prop36
280
     0
102
RTVSPost2010PropOp36
 70
     1
102
RTVSPost2010Prop37
 90
       50
102
RTVSPost2010PropOp37
 70
     1
102
RTVSPost2010Prop38
140
0.0
102
RTVSPost2010PropOp38
 70
     1
102
RTVSPost2010Prop39
140
1.0
102
RTVSPost2010PropOp39
 70
     1
102
RTVSPost2010Prop40
 90
        0
102
RTVSPost2010PropOp40
 70
     1
102
RTVSPost2010Prop41ColorIndex
 90
       18
102
RTVSPost2010Prop41ColorRGB
 90
        0
102
RTVSPost2010PropOp41
 70
     1
102
RTVSPost2010Prop42
 90
       50
102
RTVSPost2010PropOp42
 70
     1
102
RTVSPost2010Prop43
 90
        3
102
RTVSPost2010PropOp43
 70
     1
102
RTVSPost2010Prop44ColorIndex
 90
        5
102
RTVSPost2010Prop44ColorRGB
 90
      255
102
RTVSPost2010PropOp44
 70
     1
102
RTVSPost2010Prop45
280
     0
102
RTVSPost2010PropOp45
 70
     1
102
RTVSPost2010Prop46
 90
       50
102
RTVSPost2010PropOp46
 70
     1
102
RTVSPost2010Prop47
 90
       50
102
RTVSPost2010PropOp47
 70
     1
102
RTVSPost2010Prop48
 90
       50
102
RTVSPost2010PropOp48
 70
     1
102
RTVSPost2010Prop49
280
     0
102
RTVSPost2010PropOp49
 70
     1
102
RTVSPost2010Prop50
 90
       50
102
RTVSPost2010PropOp50
 70
     1
102
RTVSPost2010Prop51ColorIndex
 90
      256
102
RTVSPost2010Prop51ColorRGB
 90
-16777216
102
RTVSPost2010PropOp51
 70
     0
102
RTVSPost2010Prop52
140
1.0
102
RTVSPost2010PropOp52
 70
     0
102
RTVSPost2010Prop53
 90
        2
102
RTVSPost2010PropOp53
 70
     1
102
RTVSPost2010Prop54
  1
strokes_ogs.tif
102
RTVSPost2010PropOp54
 70
     1
102
RTVSPost2010Prop55
280
     0
102
RTVSPost2010PropOp55
 70
     1
102
RTVSPost2010Prop56
140
1.0
102
RTVSPost2010PropOp56
 70
     1
102
RTVSPost2010Prop57
140
1.0
102
RTVSPost2010PropOp57
 70
     1
102
RTVSPropertyOp0
 70
     0
102
RTVSPropertyOp1
 70
     0
102
RTVSPropertyOp2
 70
     0
102
RTVSPropertyOp3
 70
     0
102
RTVSPropertyOp4
 70
     0
102
RTVSPropertyOp5
 70
     0
102
RTVSPropertyOp6
 70
     0
102
RTVSPropertyOp7
 70
     0
102
RTVSPropertyOp8
 70
     0
102
RTVSPropertyOp9
 70
     0
102
RTVSPropertyOp10
 70
     0
102
RTVSPropertyOp11
 70
     0
102
RTVSPropertyOp12
 70
     0
102
RTVSPropertyOp13
 70
     0
102
RTVSPropertyOp14
 70
     2
102
RTVSPropertyOp15
 70
     0
102
RTVSPropertyOp16
 70
     0
102
RTVSPropertyOp17
 70
     0
102
RTVSPropertyOp18
 70
     0
102
RTVSPropertyOp19
 70
     0
102
RTVSPropertyOp20
 70
     0
102
RTVSPropertyOp21
 70
     0
102
RTVSPropertyOp22
 70
     0
102
RTVSPropertyOp23
 70
     0
102
RTVSPropertyOp24
 70
     0
102
RTVSPropertyOp25
 70
     0
102
RTVSPropertyOp26
 70
     0
102
RTVSPropertyOp27
 70
     0
102
RTVSPropertyOp28
 70
     1
102
RTVSPropertyOp29
 70
     1
102
RTVSPropertyOp30
 70
     1
102
RTVSPropertyOp31
 70
     1
102
RTVSPropertyOp32
 70
     1
102
RTVSPropertyOp33
 70
     1
102
RTVSPropertyOp34
 70
     1
102
RTVSPropertyOp35
 70
     1
102
RTVSPropertyOp36
 70
     1
102
RTVSPropertyOp37
 70
     1
102
RTVSPropertyOp38
 70
     1
102
RTVSPropertyOp39
 70
     1
102
RTVSPropertyOp40
 70
     1
102
RTVSPropertyOp41
 70
     1
102
RTVSPropertyOp42
 70
     1
102
RTVSPropertyOp43
 70
     1
102
RTVSPropertyOp44
 70
     1
102
RTVSPropertyOp45
 70
     1
102
RTVSPropertyOp46
 70
     1
102
RTVSPropertyOp47
 70
     1
102
RTVSPropertyOp48
 70
     1
102
RTVSPropertyOp49
 70
     1
102
RTVSPropertyOp50
 70
     1
102
RTVSPropertyOp51
 70
     0
102
RTVSPropertyOp52
 70
     0
102
RTVSPropertyOp53
 70
     1
102
RTVSPropertyOp54
 70
     1
102
RTVSPropertyOp55
 70
     1
102
RTVSPropertyOp56
 70
     1
102
RTVSPropertyOp57
 70
     1
102
RTVSPropertyOp58
 70
     1
102
RTVSPropertyOp59
 70
     1
102
RTVSPropertyOp60
 70
     1
102
RTVSPropertyOp61
 70
     1
102
RTVSPropertyOp62
 70
     1
  0
XRECORD
  5
7D93
102
{ACAD_REACTORS
330
7D92
102
}
330
7D92
100
AcDbXrecord
280
     1
102
RTVSPost2010Prop28
280
     0
102
RTVSPost2010PropOp28
 70
     1
102
RTVSPost2010Prop29
280
     1
102
RTVSPost2010PropOp29
 70
     1
102
RTVSPost2010Prop30
280
     1
102
RTVSPost2010PropOp30
 70
     1
102
RTVSPost2010Prop31
280
     0
102
RTVSPost2010PropOp31
 70
     1
102
RTVSPost2010Prop32
280
     0
102
RTVSPost2010PropOp32
 70
     1
102
RTVSPost2010Prop33
280
     0
102
RTVSPost2010PropOp33
 70
     1
102
RTVSPost2010Prop34
280
     0
102
RTVSPost2010PropOp34
 70
     1
102
RTVSPost2010Prop35
280
     0
102
RTVSPost2010PropOp35
 70
     1
102
RTVSPost2010Prop36
280
     0
102
RTVSPost2010PropOp36
 70
     1
102
RTVSPost2010Prop37
 90
       50
102
RTVSPost2010PropOp37
 70
     1
102
RTVSPost2010Prop38
140
0.0
102
RTVSPost2010PropOp38
 70
     1
102
RTVSPost2010Prop39
140
1.0
102
RTVSPost2010PropOp39
 70
     1
102
RTVSPost2010Prop40
 90
        0
102
RTVSPost2010PropOp40
 70
     1
102
RTVSPost2010Prop41ColorIndex
 90
       18
102
RTVSPost2010Prop41ColorRGB
 90
        0
102
RTVSPost2010PropOp41
 70
     1
102
RTVSPost2010Prop42
 90
       50
102
RTVSPost2010PropOp42
 70
     1
102
RTVSPost2010Prop43
 90
        3
102
RTVSPost2010PropOp43
 70
     1
102
RTVSPost2010Prop44ColorIndex
 90
        5
102
RTVSPost2010Prop44ColorRGB
 90
      255
102
RTVSPost2010PropOp44
 70
     1
102
RTVSPost2010Prop45
280
     0
102
RTVSPost2010PropOp45
 70
     1
102
RTVSPost2010Prop46
 90
       50
102
RTVSPost2010PropOp46
 70
     1
102
RTVSPost2010Prop47
 90
       50
102
RTVSPost2010PropOp47
 70
     1
102
RTVSPost2010Prop48
 90
       50
102
RTVSPost2010PropOp48
 70
     1
102
RTVSPost2010Prop49
280
     0
102
RTVSPost2010PropOp49
 70
     1
102
RTVSPost2010Prop50
 90
       50
102
RTVSPost2010PropOp50
 70
     1
102
RTVSPost2010Prop51ColorIndex
 90
      256
102
RTVSPost2010Prop51ColorRGB
 90
-16777216
102
RTVSPost2010PropOp51
 70
     0
102
RTVSPost2010Prop52
140
1.0
102
RTVSPost2010PropOp52
 70
     0
102
RTVSPost2010Prop53
 90
        2
102
RTVSPost2010PropOp53
 70
     1
102
RTVSPost2010Prop54
  1
strokes_ogs.tif
102
RTVSPost2010PropOp54
 70
     1
102
RTVSPost2010Prop55
280
     0
102
RTVSPost2010PropOp55
 70
     1
102
RTVSPost2010Prop56
140
1.0
102
RTVSPost2010PropOp56
 70
     1
102
RTVSPost2010Prop57
140
1.0
102
RTVSPost2010PropOp57
 70
     1
102
RTVSPropertyOp0
 70
     1
102
RTVSPropertyOp1
 70
     1
102
RTVSPropertyOp2
 70
     1
102
RTVSPropertyOp3
 70
     1
102
RTVSPropertyOp4
 70
     1
102
RTVSPropertyOp5
 70
     1
102
RTVSPropertyOp6
 70
     1
102
RTVSPropertyOp7
 70
     1
102
RTVSPropertyOp8
 70
     1
102
RTVSPropertyOp9
 70
     1
102
RTVSPropertyOp10
 70
     1
102
RTVSPropertyOp11
 70
     1
102
RTVSPropertyOp12
 70
     1
102
RTVSPropertyOp13
 70
     1
102
RTVSPropertyOp14
 70
     1
102
RTVSPropertyOp15
 70
     1
102
RTVSPropertyOp16
 70
     1
102
RTVSPropertyOp17
 70
     1
102
RTVSPropertyOp18
 70
     1
102
RTVSPropertyOp19
 70
     1
102
RTVSPropertyOp20
 70
     1
102
RTVSPropertyOp21
 70
     1
102
RTVSPropertyOp22
 70
     1
102
RTVSPropertyOp23
 70
     1
102
RTVSPropertyOp24
 70
     1
102
RTVSPropertyOp25
 70
     1
102
RTVSPropertyOp26
 70
     1
102
RTVSPropertyOp27
 70
     1
102
RTVSPropertyOp28
 70
     1
102
RTVSPropertyOp29
 70
     1
102
RTVSPropertyOp30
 70
     1
102
RTVSPropertyOp31
 70
     1
102
RTVSPropertyOp32
 70
     1
102
RTVSPropertyOp33
 70
     1
102
RTVSPropertyOp34
 70
     1
102
RTVSPropertyOp35
 70
     1
102
RTVSPropertyOp36
 70
     1
102
RTVSPropertyOp37
 70
     1
102
RTVSPropertyOp38
 70
     1
102
RTVSPropertyOp39
 70
     1
102
RTVSPropertyOp40
 70
     1
102
RTVSPropertyOp41
 70
     1
102
RTVSPropertyOp42
 70
     1
102
RTVSPropertyOp43
 70
     1
102
RTVSPropertyOp44
 70
     1
102
RTVSPropertyOp45
 70
     1
102
RTVSPropertyOp46
 70
     1
102
RTVSPropertyOp47
 70
     1
102
RTVSPropertyOp48
 70
     1
102
RTVSPropertyOp49
 70
     1
102
RTVSPropertyOp50
 70
     1
102
RTVSPropertyOp51
 70
     0
102
RTVSPropertyOp52
 70
     0
102
RTVSPropertyOp53
 70
     1
102
RTVSPropertyOp54
 70
     1
102
RTVSPropertyOp55
 70
     1
102
RTVSPropertyOp56
 70
     1
102
RTVSPropertyOp57
 70
     1
102
RTVSPropertyOp58
 70
     1
102
RTVSPropertyOp59
 70
     1
102
RTVSPropertyOp60
 70
     1
102
RTVSPropertyOp61
 70
     1
102
RTVSPropertyOp62
 70
     1
  0
XRECORD
  5
7D9D
102
{ACAD_REACTORS
330
7D9C
102
}
330
7D9C
100
AcDbXrecord
280
     1
102
RTVSPost2010Prop28
280
     0
102
RTVSPost2010PropOp28
 70
     1
102
RTVSPost2010Prop29
280
     1
102
RTVSPost2010PropOp29
 70
     1
102
RTVSPost2010Prop30
280
     1
102
RTVSPost2010PropOp30
 70
     1
102
RTVSPost2010Prop31
280
     0
102
RTVSPost2010PropOp31
 70
     1
102
RTVSPost2010Prop32
280
     0
102
RTVSPost2010PropOp32
 70
     1
102
RTVSPost2010Prop33
280
     0
102
RTVSPost2010PropOp33
 70
     1
102
RTVSPost2010Prop34
280
     0
102
RTVSPost2010PropOp34
 70
     1
102
RTVSPost2010Prop35
280
     0
102
RTVSPost2010PropOp35
 70
     1
102
RTVSPost2010Prop36
280
     0
102
RTVSPost2010PropOp36
 70
     1
102
RTVSPost2010Prop37
 90
       50
102
RTVSPost2010PropOp37
 70
     1
102
RTVSPost2010Prop38
140
0.0
102
RTVSPost2010PropOp38
 70
     1
102
RTVSPost2010Prop39
140
1.0
102
RTVSPost2010PropOp39
 70
     1
102
RTVSPost2010Prop40
 90
        0
102
RTVSPost2010PropOp40
 70
     1
102
RTVSPost2010Prop41ColorIndex
 90
       18
102
RTVSPost2010Prop41ColorRGB
 90
        0
102
RTVSPost2010PropOp41
 70
     1
102
RTVSPost2010Prop42
 90
       50
102
RTVSPost2010PropOp42
 70
     1
102
RTVSPost2010Prop43
 90
        3
102
RTVSPost2010PropOp43
 70
     1
102
RTVSPost2010Prop44ColorIndex
 90
        5
102
RTVSPost2010Prop44ColorRGB
 90
      255
102
RTVSPost2010PropOp44
 70
     1
102
RTVSPost2010Prop45
280
     0
102
RTVSPost2010PropOp45
 70
     1
102
RTVSPost2010Prop46
 90
       50
102
RTVSPost2010PropOp46
 70
     1
102
RTVSPost2010Prop47
 90
       50
102
RTVSPost2010PropOp47
 70
     1
102
RTVSPost2010Prop48
 90
       50
102
RTVSPost2010PropOp48
 70
     1
102
RTVSPost2010Prop49
280
     0
102
RTVSPost2010PropOp49
 70
     1
102
RTVSPost2010Prop50
 90
       50
102
RTVSPost2010PropOp50
 70
     1
102
RTVSPost2010Prop51ColorIndex
 90
      256
102
RTVSPost2010Prop51ColorRGB
 90
-16777216
102
RTVSPost2010PropOp51
 70
     0
102
RTVSPost2010Prop52
140
1.0
102
RTVSPost2010PropOp52
 70
     0
102
RTVSPost2010Prop53
 90
        2
102
RTVSPost2010PropOp53
 70
     1
102
RTVSPost2010Prop54
  1
strokes_ogs.tif
102
RTVSPost2010PropOp54
 70
     1
102
RTVSPost2010Prop55
280
     0
102
RTVSPost2010PropOp55
 70
     1
102
RTVSPost2010Prop56
140
1.0
102
RTVSPost2010PropOp56
 70
     1
102
RTVSPost2010Prop57
140
1.0
102
RTVSPost2010PropOp57
 70
     1
102
RTVSPropertyOp0
 70
     0
102
RTVSPropertyOp1
 70
     0
102
RTVSPropertyOp2
 70
     0
102
RTVSPropertyOp3
 70
     0
102
RTVSPropertyOp4
 70
     0
102
RTVSPropertyOp5
 70
     0
102
RTVSPropertyOp6
 70
     0
102
RTVSPropertyOp7
 70
     0
102
RTVSPropertyOp8
 70
     0
102
RTVSPropertyOp9
 70
     0
102
RTVSPropertyOp10
 70
     0
102
RTVSPropertyOp11
 70
     0
102
RTVSPropertyOp12
 70
     0
102
RTVSPropertyOp13
 70
     0
102
RTVSPropertyOp14
 70
     2
102
RTVSPropertyOp15
 70
     0
102
RTVSPropertyOp16
 70
     0
102
RTVSPropertyOp17
 70
     0
102
RTVSPropertyOp18
 70
     0
102
RTVSPropertyOp19
 70
     0
102
RTVSPropertyOp20
 70
     0
102
RTVSPropertyOp21
 70
     0
102
RTVSPropertyOp22
 70
     0
102
RTVSPropertyOp23
 70
     0
102
RTVSPropertyOp24
 70
     0
102
RTVSPropertyOp25
 70
     0
102
RTVSPropertyOp26
 70
     0
102
RTVSPropertyOp27
 70
     0
102
RTVSPropertyOp28
 70
     1
102
RTVSPropertyOp29
 70
     1
102
RTVSPropertyOp30
 70
     1
102
RTVSPropertyOp31
 70
     1
102
RTVSPropertyOp32
 70
     1
102
RTVSPropertyOp33
 70
     1
102
RTVSPropertyOp34
 70
     1
102
RTVSPropertyOp35
 70
     1
102
RTVSPropertyOp36
 70
     1
102
RTVSPropertyOp37
 70
     1
102
RTVSPropertyOp38
 70
     1
102
RTVSPropertyOp39
 70
     1
102
RTVSPropertyOp40
 70
     1
102
RTVSPropertyOp41
 70
     1
102
RTVSPropertyOp42
 70
     1
102
RTVSPropertyOp43
 70
     1
102
RTVSPropertyOp44
 70
     1
102
RTVSPropertyOp45
 70
     1
102
RTVSPropertyOp46
 70
     1
102
RTVSPropertyOp47
 70
     1
102
RTVSPropertyOp48
 70
     1
102
RTVSPropertyOp49
 70
     1
102
RTVSPropertyOp50
 70
     1
102
RTVSPropertyOp51
 70
     0
102
RTVSPropertyOp52
 70
     0
102
RTVSPropertyOp53
 70
     1
102
RTVSPropertyOp54
 70
     1
102
RTVSPropertyOp55
 70
     1
102
RTVSPropertyOp56
 70
     1
102
RTVSPropertyOp57
 70
     1
102
RTVSPropertyOp58
 70
     1
102
RTVSPropertyOp59
 70
     1
102
RTVSPropertyOp60
 70
     1
102
RTVSPropertyOp61
 70
     1
102
RTVSPropertyOp62
 70
     1
  0
XRECORD
  5
7D8B
102
{ACAD_REACTORS
330
7D8A
102
}
330
7D8A
100
AcDbXrecord
280
     1
102
RTVSPost2010Prop28
280
     0
102
RTVSPost2010PropOp28
 70
     1
102
RTVSPost2010Prop29
280
     1
102
RTVSPost2010PropOp29
 70
     1
102
RTVSPost2010Prop30
280
     1
102
RTVSPost2010PropOp30
 70
     1
102
RTVSPost2010Prop31
280
     0
102
RTVSPost2010PropOp31
 70
     1
102
RTVSPost2010Prop32
280
     0
102
RTVSPost2010PropOp32
 70
     1
102
RTVSPost2010Prop33
280
     0
102
RTVSPost2010PropOp33
 70
     1
102
RTVSPost2010Prop34
280
     0
102
RTVSPost2010PropOp34
 70
     1
102
RTVSPost2010Prop35
280
     0
102
RTVSPost2010PropOp35
 70
     1
102
RTVSPost2010Prop36
280
     0
102
RTVSPost2010PropOp36
 70
     1
102
RTVSPost2010Prop37
 90
       50
102
RTVSPost2010PropOp37
 70
     1
102
RTVSPost2010Prop38
140
0.0
102
RTVSPost2010PropOp38
 70
     1
102
RTVSPost2010Prop39
140
1.0
102
RTVSPost2010PropOp39
 70
     1
102
RTVSPost2010Prop40
 90
        0
102
RTVSPost2010PropOp40
 70
     1
102
RTVSPost2010Prop41ColorIndex
 90
       18
102
RTVSPost2010Prop41ColorRGB
 90
        0
102
RTVSPost2010PropOp41
 70
     1
102
RTVSPost2010Prop42
 90
       50
102
RTVSPost2010PropOp42
 70
     1
102
RTVSPost2010Prop43
 90
        3
102
RTVSPost2010PropOp43
 70
     1
102
RTVSPost2010Prop44ColorIndex
 90
        5
102
RTVSPost2010Prop44ColorRGB
 90
      255
102
RTVSPost2010PropOp44
 70
     1
102
RTVSPost2010Prop45
280
     0
102
RTVSPost2010PropOp45
 70
     1
102
RTVSPost2010Prop46
 90
       50
102
RTVSPost2010PropOp46
 70
     1
102
RTVSPost2010Prop47
 90
       50
102
RTVSPost2010PropOp47
 70
     1
102
RTVSPost2010Prop48
 90
       50
102
RTVSPost2010PropOp48
 70
     1
102
RTVSPost2010Prop49
280
     0
102
RTVSPost2010PropOp49
 70
     1
102
RTVSPost2010Prop50
 90
       50
102
RTVSPost2010PropOp50
 70
     1
102
RTVSPost2010Prop51ColorIndex
 90
      256
102
RTVSPost2010Prop51ColorRGB
 90
-16777216
102
RTVSPost2010PropOp51
 70
     0
102
RTVSPost2010Prop52
140
1.0
102
RTVSPost2010PropOp52
 70
     0
102
RTVSPost2010Prop53
 90
        2
102
RTVSPost2010PropOp53
 70
     1
102
RTVSPost2010Prop54
  1
strokes_ogs.tif
102
RTVSPost2010PropOp54
 70
     1
102
RTVSPost2010Prop55
280
     0
102
RTVSPost2010PropOp55
 70
     1
102
RTVSPost2010Prop56
140
1.0
102
RTVSPost2010PropOp56
 70
     1
102
RTVSPost2010Prop57
140
1.0
102
RTVSPost2010PropOp57
 70
     1
102
RTVSPropertyOp0
 70
     1
102
RTVSPropertyOp1
 70
     1
102
RTVSPropertyOp2
 70
     1
102
RTVSPropertyOp3
 70
     1
102
RTVSPropertyOp4
 70
     1
102
RTVSPropertyOp5
 70
     1
102
RTVSPropertyOp6
 70
     1
102
RTVSPropertyOp7
 70
     1
102
RTVSPropertyOp8
 70
     1
102
RTVSPropertyOp9
 70
     1
102
RTVSPropertyOp10
 70
     1
102
RTVSPropertyOp11
 70
     1
102
RTVSPropertyOp12
 70
     1
102
RTVSPropertyOp13
 70
     1
102
RTVSPropertyOp14
 70
     1
102
RTVSPropertyOp15
 70
     1
102
RTVSPropertyOp16
 70
     1
102
RTVSPropertyOp17
 70
     1
102
RTVSPropertyOp18
 70
     1
102
RTVSPropertyOp19
 70
     1
102
RTVSPropertyOp20
 70
     1
102
RTVSPropertyOp21
 70
     1
102
RTVSPropertyOp22
 70
     1
102
RTVSPropertyOp23
 70
     1
102
RTVSPropertyOp24
 70
     1
102
RTVSPropertyOp25
 70
     1
102
RTVSPropertyOp26
 70
     1
102
RTVSPropertyOp27
 70
     1
102
RTVSPropertyOp28
 70
     1
102
RTVSPropertyOp29
 70
     1
102
RTVSPropertyOp30
 70
     1
102
RTVSPropertyOp31
 70
     1
102
RTVSPropertyOp32
 70
     1
102
RTVSPropertyOp33
 70
     1
102
RTVSPropertyOp34
 70
     1
102
RTVSPropertyOp35
 70
     1
102
RTVSPropertyOp36
 70
     1
102
RTVSPropertyOp37
 70
     1
102
RTVSPropertyOp38
 70
     1
102
RTVSPropertyOp39
 70
     1
102
RTVSPropertyOp40
 70
     1
102
RTVSPropertyOp41
 70
     1
102
RTVSPropertyOp42
 70
     1
102
RTVSPropertyOp43
 70
     1
102
RTVSPropertyOp44
 70
     1
102
RTVSPropertyOp45
 70
     1
102
RTVSPropertyOp46
 70
     1
102
RTVSPropertyOp47
 70
     1
102
RTVSPropertyOp48
 70
     1
102
RTVSPropertyOp49
 70
     1
102
RTVSPropertyOp50
 70
     1
102
RTVSPropertyOp51
 70
     0
102
RTVSPropertyOp52
 70
     0
102
RTVSPropertyOp53
 70
     1
102
RTVSPropertyOp54
 70
     1
102
RTVSPropertyOp55
 70
     1
102
RTVSPropertyOp56
 70
     1
102
RTVSPropertyOp57
 70
     1
102
RTVSPropertyOp58
 70
     1
102
RTVSPropertyOp59
 70
     1
102
RTVSPropertyOp60
 70
     1
102
RTVSPropertyOp61
 70
     1
102
RTVSPropertyOp62
 70
     1
  0
XRECORD
  5
7DA9
102
{ACAD_REACTORS
330
7DA8
102
}
330
7DA8
100
AcDbXrecord
280
     1
102
RTVSPost2010Prop28
280
     0
102
RTVSPost2010PropOp28
 70
     1
102
RTVSPost2010Prop29
280
     1
102
RTVSPost2010PropOp29
 70
     1
102
RTVSPost2010Prop30
280
     1
102
RTVSPost2010PropOp30
 70
     1
102
RTVSPost2010Prop31
280
     0
102
RTVSPost2010PropOp31
 70
     1
102
RTVSPost2010Prop32
280
     0
102
RTVSPost2010PropOp32
 70
     1
102
RTVSPost2010Prop33
280
     0
102
RTVSPost2010PropOp33
 70
     1
102
RTVSPost2010Prop34
280
     0
102
RTVSPost2010PropOp34
 70
     1
102
RTVSPost2010Prop35
280
     0
102
RTVSPost2010PropOp35
 70
     1
102
RTVSPost2010Prop36
280
     0
102
RTVSPost2010PropOp36
 70
     1
102
RTVSPost2010Prop37
 90
       50
102
RTVSPost2010PropOp37
 70
     1
102
RTVSPost2010Prop38
140
0.0
102
RTVSPost2010PropOp38
 70
     1
102
RTVSPost2010Prop39
140
1.0
102
RTVSPost2010PropOp39
 70
     1
102
RTVSPost2010Prop40
 90
        0
102
RTVSPost2010PropOp40
 70
     1
102
RTVSPost2010Prop41ColorIndex
 90
       18
102
RTVSPost2010Prop41ColorRGB
 90
        0
102
RTVSPost2010PropOp41
 70
     1
102
RTVSPost2010Prop42
 90
       50
102
RTVSPost2010PropOp42
 70
     1
102
RTVSPost2010Prop43
 90
        3
102
RTVSPost2010PropOp43
 70
     1
102
RTVSPost2010Prop44ColorIndex
 90
        5
102
RTVSPost2010Prop44ColorRGB
 90
      255
102
RTVSPost2010PropOp44
 70
     1
102
RTVSPost2010Prop45
280
     0
102
RTVSPost2010PropOp45
 70
     1
102
RTVSPost2010Prop46
 90
       50
102
RTVSPost2010PropOp46
 70
     1
102
RTVSPost2010Prop47
 90
       50
102
RTVSPost2010PropOp47
 70
     1
102
RTVSPost2010Prop48
 90
       50
102
RTVSPost2010PropOp48
 70
     1
102
RTVSPost2010Prop49
280
     0
102
RTVSPost2010PropOp49
 70
     1
102
RTVSPost2010Prop50
 90
       50
102
RTVSPost2010PropOp50
 70
     1
102
RTVSPost2010Prop51ColorIndex
 90
      256
102
RTVSPost2010Prop51ColorRGB
 90
-16777216
102
RTVSPost2010PropOp51
 70
     0
102
RTVSPost2010Prop52
140
1.0
102
RTVSPost2010PropOp52
 70
     0
102
RTVSPost2010Prop53
 90
        2
102
RTVSPost2010PropOp53
 70
     1
102
RTVSPost2010Prop54
  1
strokes_ogs.tif
102
RTVSPost2010PropOp54
 70
     1
102
RTVSPost2010Prop55
280
     0
102
RTVSPost2010PropOp55
 70
     1
102
RTVSPost2010Prop56
140
1.0
102
RTVSPost2010PropOp56
 70
     1
102
RTVSPost2010Prop57
140
1.0
102
RTVSPost2010PropOp57
 70
     1
102
RTVSPropertyOp0
 70
     1
102
RTVSPropertyOp1
 70
     1
102
RTVSPropertyOp2
 70
     1
102
RTVSPropertyOp3
 70
     1
102
RTVSPropertyOp4
 70
     1
102
RTVSPropertyOp5
 70
     1
102
RTVSPropertyOp6
 70
     1
102
RTVSPropertyOp7
 70
     1
102
RTVSPropertyOp8
 70
     1
102
RTVSPropertyOp9
 70
     1
102
RTVSPropertyOp10
 70
     1
102
RTVSPropertyOp11
 70
     1
102
RTVSPropertyOp12
 70
     1
102
RTVSPropertyOp13
 70
     1
102
RTVSPropertyOp14
 70
     1
102
RTVSPropertyOp15
 70
     1
102
RTVSPropertyOp16
 70
     1
102
RTVSPropertyOp17
 70
     1
102
RTVSPropertyOp18
 70
     1
102
RTVSPropertyOp19
 70
     1
102
RTVSPropertyOp20
 70
     1
102
RTVSPropertyOp21
 70
     1
102
RTVSPropertyOp22
 70
     1
102
RTVSPropertyOp23
 70
     1
102
RTVSPropertyOp24
 70
     1
102
RTVSPropertyOp25
 70
     1
102
RTVSPropertyOp26
 70
     1
102
RTVSPropertyOp27
 70
     1
102
RTVSPropertyOp28
 70
     1
102
RTVSPropertyOp29
 70
     1
102
RTVSPropertyOp30
 70
     1
102
RTVSPropertyOp31
 70
     1
102
RTVSPropertyOp32
 70
     1
102
RTVSPropertyOp33
 70
     1
102
RTVSPropertyOp34
 70
     1
102
RTVSPropertyOp35
 70
     1
102
RTVSPropertyOp36
 70
     1
102
RTVSPropertyOp37
 70
     1
102
RTVSPropertyOp38
 70
     1
102
RTVSPropertyOp39
 70
     1
102
RTVSPropertyOp40
 70
     1
102
RTVSPropertyOp41
 70
     1
102
RTVSPropertyOp42
 70
     1
102
RTVSPropertyOp43
 70
     1
102
RTVSPropertyOp44
 70
     1
102
RTVSPropertyOp45
 70
     1
102
RTVSPropertyOp46
 70
     1
102
RTVSPropertyOp47
 70
     1
102
RTVSPropertyOp48
 70
     1
102
RTVSPropertyOp49
 70
     1
102
RTVSPropertyOp50
 70
     1
102
RTVSPropertyOp51
 70
     0
102
RTVSPropertyOp52
 70
     0
102
RTVSPropertyOp53
 70
     1
102
RTVSPropertyOp54
 70
     1
102
RTVSPropertyOp55
 70
     1
102
RTVSPropertyOp56
 70
     1
102
RTVSPropertyOp57
 70
     1
102
RTVSPropertyOp58
 70
     1
102
RTVSPropertyOp59
 70
     1
102
RTVSPropertyOp60
 70
     1
102
RTVSPropertyOp61
 70
     1
102
RTVSPropertyOp62
 70
     1
  0
XRECORD
  5
7DA7
102
{ACAD_REACTORS
330
7DA6
102
}
330
7DA6
100
AcDbXrecord
280
     1
102
RTVSPost2010Prop28
280
     0
102
RTVSPost2010PropOp28
 70
     1
102
RTVSPost2010Prop29
280
     1
102
RTVSPost2010PropOp29
 70
     1
102
RTVSPost2010Prop30
280
     1
102
RTVSPost2010PropOp30
 70
     1
102
RTVSPost2010Prop31
280
     0
102
RTVSPost2010PropOp31
 70
     1
102
RTVSPost2010Prop32
280
     0
102
RTVSPost2010PropOp32
 70
     1
102
RTVSPost2010Prop33
280
     0
102
RTVSPost2010PropOp33
 70
     1
102
RTVSPost2010Prop34
280
     0
102
RTVSPost2010PropOp34
 70
     1
102
RTVSPost2010Prop35
280
     0
102
RTVSPost2010PropOp35
 70
     1
102
RTVSPost2010Prop36
280
     0
102
RTVSPost2010PropOp36
 70
     1
102
RTVSPost2010Prop37
 90
       50
102
RTVSPost2010PropOp37
 70
     1
102
RTVSPost2010Prop38
140
0.0
102
RTVSPost2010PropOp38
 70
     1
102
RTVSPost2010Prop39
140
1.0
102
RTVSPost2010PropOp39
 70
     1
102
RTVSPost2010Prop40
 90
        0
102
RTVSPost2010PropOp40
 70
     1
102
RTVSPost2010Prop41ColorIndex
 90
       18
102
RTVSPost2010Prop41ColorRGB
 90
        0
102
RTVSPost2010PropOp41
 70
     1
102
RTVSPost2010Prop42
 90
       50
102
RTVSPost2010PropOp42
 70
     1
102
RTVSPost2010Prop43
 90
        3
102
RTVSPost2010PropOp43
 70
     1
102
RTVSPost2010Prop44ColorIndex
 90
        5
102
RTVSPost2010Prop44ColorRGB
 90
      255
102
RTVSPost2010PropOp44
 70
     1
102
RTVSPost2010Prop45
280
     0
102
RTVSPost2010PropOp45
 70
     1
102
RTVSPost2010Prop46
 90
       50
102
RTVSPost2010PropOp46
 70
     1
102
RTVSPost2010Prop47
 90
       50
102
RTVSPost2010PropOp47
 70
     1
102
RTVSPost2010Prop48
 90
       50
102
RTVSPost2010PropOp48
 70
     1
102
RTVSPost2010Prop49
280
     0
102
RTVSPost2010PropOp49
 70
     1
102
RTVSPost2010Prop50
 90
       50
102
RTVSPost2010PropOp50
 70
     1
102
RTVSPost2010Prop51ColorIndex
 90
      256
102
RTVSPost2010Prop51ColorRGB
 90
-16777216
102
RTVSPost2010PropOp51
 70
     0
102
RTVSPost2010Prop52
140
1.0
102
RTVSPost2010PropOp52
 70
     0
102
RTVSPost2010Prop53
 90
        2
102
RTVSPost2010PropOp53
 70
     1
102
RTVSPost2010Prop54
  1
strokes_ogs.tif
102
RTVSPost2010PropOp54
 70
     1
102
RTVSPost2010Prop55
280
     0
102
RTVSPost2010PropOp55
 70
     1
102
RTVSPost2010Prop56
140
1.0
102
RTVSPost2010PropOp56
 70
     1
102
RTVSPost2010Prop57
140
1.0
102
RTVSPost2010PropOp57
 70
     1
102
RTVSPropertyOp0
 70
     1
102
RTVSPropertyOp1
 70
     1
102
RTVSPropertyOp2
 70
     1
102
RTVSPropertyOp3
 70
     1
102
RTVSPropertyOp4
 70
     1
102
RTVSPropertyOp5
 70
     1
102
RTVSPropertyOp6
 70
     1
102
RTVSPropertyOp7
 70
     1
102
RTVSPropertyOp8
 70
     1
102
RTVSPropertyOp9
 70
     1
102
RTVSPropertyOp10
 70
     1
102
RTVSPropertyOp11
 70
     1
102
RTVSPropertyOp12
 70
     1
102
RTVSPropertyOp13
 70
     1
102
RTVSPropertyOp14
 70
     1
102
RTVSPropertyOp15
 70
     1
102
RTVSPropertyOp16
 70
     1
102
RTVSPropertyOp17
 70
     1
102
RTVSPropertyOp18
 70
     1
102
RTVSPropertyOp19
 70
     1
102
RTVSPropertyOp20
 70
     1
102
RTVSPropertyOp21
 70
     1
102
RTVSPropertyOp22
 70
     1
102
RTVSPropertyOp23
 70
     1
102
RTVSPropertyOp24
 70
     1
102
RTVSPropertyOp25
 70
     1
102
RTVSPropertyOp26
 70
     1
102
RTVSPropertyOp27
 70
     1
102
RTVSPropertyOp28
 70
     1
102
RTVSPropertyOp29
 70
     1
102
RTVSPropertyOp30
 70
     1
102
RTVSPropertyOp31
 70
     1
102
RTVSPropertyOp32
 70
     1
102
RTVSPropertyOp33
 70
     1
102
RTVSPropertyOp34
 70
     1
102
RTVSPropertyOp35
 70
     1
102
RTVSPropertyOp36
 70
     1
102
RTVSPropertyOp37
 70
     1
102
RTVSPropertyOp38
 70
     1
102
RTVSPropertyOp39
 70
     1
102
RTVSPropertyOp40
 70
     1
102
RTVSPropertyOp41
 70
     1
102
RTVSPropertyOp42
 70
     1
102
RTVSPropertyOp43
 70
     1
102
RTVSPropertyOp44
 70
     1
102
RTVSPropertyOp45
 70
     1
102
RTVSPropertyOp46
 70
     1
102
RTVSPropertyOp47
 70
     1
102
RTVSPropertyOp48
 70
     1
102
RTVSPropertyOp49
 70
     1
102
RTVSPropertyOp50
 70
     1
102
RTVSPropertyOp51
 70
     0
102
RTVSPropertyOp52
 70
     0
102
RTVSPropertyOp53
 70
     1
102
RTVSPropertyOp54
 70
     1
102
RTVSPropertyOp55
 70
     1
102
RTVSPropertyOp56
 70
     1
102
RTVSPropertyOp57
 70
     1
102
RTVSPropertyOp58
 70
     1
102
RTVSPropertyOp59
 70
     1
102
RTVSPropertyOp60
 70
     1
102
RTVSPropertyOp61
 70
     1
102
RTVSPropertyOp62
 70
     1
  0
XRECORD
  5
7DA1
102
{ACAD_REACTORS
330
7DA0
102
}
330
7DA0
100
AcDbXrecord
280
     1
102
RTVSPost2010Prop28
280
     0
102
RTVSPost2010PropOp28
 70
     1
102
RTVSPost2010Prop29
280
     1
102
RTVSPost2010PropOp29
 70
     1
102
RTVSPost2010Prop30
280
     1
102
RTVSPost2010PropOp30
 70
     1
102
RTVSPost2010Prop31
280
     0
102
RTVSPost2010PropOp31
 70
     1
102
RTVSPost2010Prop32
280
     0
102
RTVSPost2010PropOp32
 70
     1
102
RTVSPost2010Prop33
280
     0
102
RTVSPost2010PropOp33
 70
     1
102
RTVSPost2010Prop34
280
     0
102
RTVSPost2010PropOp34
 70
     1
102
RTVSPost2010Prop35
280
     0
102
RTVSPost2010PropOp35
 70
     1
102
RTVSPost2010Prop36
280
     0
102
RTVSPost2010PropOp36
 70
     1
102
RTVSPost2010Prop37
 90
       50
102
RTVSPost2010PropOp37
 70
     1
102
RTVSPost2010Prop38
140
0.0
102
RTVSPost2010PropOp38
 70
     1
102
RTVSPost2010Prop39
140
1.0
102
RTVSPost2010PropOp39
 70
     1
102
RTVSPost2010Prop40
 90
        0
102
RTVSPost2010PropOp40
 70
     1
102
RTVSPost2010Prop41ColorIndex
 90
       18
102
RTVSPost2010Prop41ColorRGB
 90
        0
102
RTVSPost2010PropOp41
 70
     1
102
RTVSPost2010Prop42
 90
       50
102
RTVSPost2010PropOp42
 70
     1
102
RTVSPost2010Prop43
 90
        3
102
RTVSPost2010PropOp43
 70
     1
102
RTVSPost2010Prop44ColorIndex
 90
        5
102
RTVSPost2010Prop44ColorRGB
 90
      255
102
RTVSPost2010PropOp44
 70
     1
102
RTVSPost2010Prop45
280
     0
102
RTVSPost2010PropOp45
 70
     1
102
RTVSPost2010Prop46
 90
       50
102
RTVSPost2010PropOp46
 70
     1
102
RTVSPost2010Prop47
 90
       50
102
RTVSPost2010PropOp47
 70
     1
102
RTVSPost2010Prop48
 90
       50
102
RTVSPost2010PropOp48
 70
     1
102
RTVSPost2010Prop49
280
     0
102
RTVSPost2010PropOp49
 70
     1
102
RTVSPost2010Prop50
 90
       50
102
RTVSPost2010PropOp50
 70
     1
102
RTVSPost2010Prop51ColorIndex
 90
      256
102
RTVSPost2010Prop51ColorRGB
 90
-16777216
102
RTVSPost2010PropOp51
 70
     0
102
RTVSPost2010Prop52
140
1.0
102
RTVSPost2010PropOp52
 70
     0
102
RTVSPost2010Prop53
 90
        2
102
RTVSPost2010PropOp53
 70
     1
102
RTVSPost2010Prop54
  1
strokes_ogs.tif
102
RTVSPost2010PropOp54
 70
     1
102
RTVSPost2010Prop55
280
     0
102
RTVSPost2010PropOp55
 70
     1
102
RTVSPost2010Prop56
140
1.0
102
RTVSPost2010PropOp56
 70
     1
102
RTVSPost2010Prop57
140
1.0
102
RTVSPost2010PropOp57
 70
     1
102
RTVSPropertyOp0
 70
     1
102
RTVSPropertyOp1
 70
     1
102
RTVSPropertyOp2
 70
     1
102
RTVSPropertyOp3
 70
     1
102
RTVSPropertyOp4
 70
     1
102
RTVSPropertyOp5
 70
     1
102
RTVSPropertyOp6
 70
     1
102
RTVSPropertyOp7
 70
     1
102
RTVSPropertyOp8
 70
     1
102
RTVSPropertyOp9
 70
     1
102
RTVSPropertyOp10
 70
     1
102
RTVSPropertyOp11
 70
     1
102
RTVSPropertyOp12
 70
     1
102
RTVSPropertyOp13
 70
     1
102
RTVSPropertyOp14
 70
     1
102
RTVSPropertyOp15
 70
     1
102
RTVSPropertyOp16
 70
     1
102
RTVSPropertyOp17
 70
     1
102
RTVSPropertyOp18
 70
     1
102
RTVSPropertyOp19
 70
     1
102
RTVSPropertyOp20
 70
     1
102
RTVSPropertyOp21
 70
     1
102
RTVSPropertyOp22
 70
     1
102
RTVSPropertyOp23
 70
     1
102
RTVSPropertyOp24
 70
     1
102
RTVSPropertyOp25
 70
     1
102
RTVSPropertyOp26
 70
     1
102
RTVSPropertyOp27
 70
     1
102
RTVSPropertyOp28
 70
     1
102
RTVSPropertyOp29
 70
     1
102
RTVSPropertyOp30
 70
     1
102
RTVSPropertyOp31
 70
     1
102
RTVSPropertyOp32
 70
     1
102
RTVSPropertyOp33
 70
     1
102
RTVSPropertyOp34
 70
     1
102
RTVSPropertyOp35
 70
     1
102
RTVSPropertyOp36
 70
     1
102
RTVSPropertyOp37
 70
     1
102
RTVSPropertyOp38
 70
     1
102
RTVSPropertyOp39
 70
     1
102
RTVSPropertyOp40
 70
     1
102
RTVSPropertyOp41
 70
     1
102
RTVSPropertyOp42
 70
     1
102
RTVSPropertyOp43
 70
     1
102
RTVSPropertyOp44
 70
     1
102
RTVSPropertyOp45
 70
     1
102
RTVSPropertyOp46
 70
     1
102
RTVSPropertyOp47
 70
     1
102
RTVSPropertyOp48
 70
     1
102
RTVSPropertyOp49
 70
     1
102
RTVSPropertyOp50
 70
     1
102
RTVSPropertyOp51
 70
     0
102
RTVSPropertyOp52
 70
     0
102
RTVSPropertyOp53
 70
     1
102
RTVSPropertyOp54
 70
     1
102
RTVSPropertyOp55
 70
     1
102
RTVSPropertyOp56
 70
     1
102
RTVSPropertyOp57
 70
     1
102
RTVSPropertyOp58
 70
     1
102
RTVSPropertyOp59
 70
     1
102
RTVSPropertyOp60
 70
     1
102
RTVSPropertyOp61
 70
     1
102
RTVSPropertyOp62
 70
     1
  0
XRECORD
  5
7DA3
102
{ACAD_REACTORS
330
7DA2
102
}
330
7DA2
100
AcDbXrecord
280
     1
102
RTVSPost2010Prop28
280
     0
102
RTVSPost2010PropOp28
 70
     1
102
RTVSPost2010Prop29
280
     1
102
RTVSPost2010PropOp29
 70
     1
102
RTVSPost2010Prop30
280
     1
102
RTVSPost2010PropOp30
 70
     1
102
RTVSPost2010Prop31
280
     0
102
RTVSPost2010PropOp31
 70
     1
102
RTVSPost2010Prop32
280
     0
102
RTVSPost2010PropOp32
 70
     1
102
RTVSPost2010Prop33
280
     0
102
RTVSPost2010PropOp33
 70
     1
102
RTVSPost2010Prop34
280
     0
102
RTVSPost2010PropOp34
 70
     1
102
RTVSPost2010Prop35
280
     0
102
RTVSPost2010PropOp35
 70
     1
102
RTVSPost2010Prop36
280
     0
102
RTVSPost2010PropOp36
 70
     1
102
RTVSPost2010Prop37
 90
       50
102
RTVSPost2010PropOp37
 70
     1
102
RTVSPost2010Prop38
140
0.0
102
RTVSPost2010PropOp38
 70
     1
102
RTVSPost2010Prop39
140
1.0
102
RTVSPost2010PropOp39
 70
     1
102
RTVSPost2010Prop40
 90
        0
102
RTVSPost2010PropOp40
 70
     1
102
RTVSPost2010Prop41ColorIndex
 90
       18
102
RTVSPost2010Prop41ColorRGB
 90
        0
102
RTVSPost2010PropOp41
 70
     1
102
RTVSPost2010Prop42
 90
       50
102
RTVSPost2010PropOp42
 70
     1
102
RTVSPost2010Prop43
 90
        3
102
RTVSPost2010PropOp43
 70
     1
102
RTVSPost2010Prop44ColorIndex
 90
        5
102
RTVSPost2010Prop44ColorRGB
 90
      255
102
RTVSPost2010PropOp44
 70
     1
102
RTVSPost2010Prop45
280
     0
102
RTVSPost2010PropOp45
 70
     1
102
RTVSPost2010Prop46
 90
       50
102
RTVSPost2010PropOp46
 70
     1
102
RTVSPost2010Prop47
 90
       50
102
RTVSPost2010PropOp47
 70
     1
102
RTVSPost2010Prop48
 90
       50
102
RTVSPost2010PropOp48
 70
     1
102
RTVSPost2010Prop49
280
     0
102
RTVSPost2010PropOp49
 70
     1
102
RTVSPost2010Prop50
 90
       50
102
RTVSPost2010PropOp50
 70
     1
102
RTVSPost2010Prop51ColorIndex
 90
      256
102
RTVSPost2010Prop51ColorRGB
 90
-16777216
102
RTVSPost2010PropOp51
 70
     0
102
RTVSPost2010Prop52
140
1.0
102
RTVSPost2010PropOp52
 70
     0
102
RTVSPost2010Prop53
 90
        2
102
RTVSPost2010PropOp53
 70
     1
102
RTVSPost2010Prop54
  1
strokes_ogs.tif
102
RTVSPost2010PropOp54
 70
     1
102
RTVSPost2010Prop55
280
     0
102
RTVSPost2010PropOp55
 70
     1
102
RTVSPost2010Prop56
140
1.0
102
RTVSPost2010PropOp56
 70
     1
102
RTVSPost2010Prop57
140
1.0
102
RTVSPost2010PropOp57
 70
     1
102
RTVSPropertyOp0
 70
     1
102
RTVSPropertyOp1
 70
     1
102
RTVSPropertyOp2
 70
     1
102
RTVSPropertyOp3
 70
     1
102
RTVSPropertyOp4
 70
     1
102
RTVSPropertyOp5
 70
     1
102
RTVSPropertyOp6
 70
     1
102
RTVSPropertyOp7
 70
     1
102
RTVSPropertyOp8
 70
     1
102
RTVSPropertyOp9
 70
     1
102
RTVSPropertyOp10
 70
     1
102
RTVSPropertyOp11
 70
     1
102
RTVSPropertyOp12
 70
     1
102
RTVSPropertyOp13
 70
     1
102
RTVSPropertyOp14
 70
     1
102
RTVSPropertyOp15
 70
     1
102
RTVSPropertyOp16
 70
     1
102
RTVSPropertyOp17
 70
     1
102
RTVSPropertyOp18
 70
     1
102
RTVSPropertyOp19
 70
     1
102
RTVSPropertyOp20
 70
     1
102
RTVSPropertyOp21
 70
     1
102
RTVSPropertyOp22
 70
     1
102
RTVSPropertyOp23
 70
     1
102
RTVSPropertyOp24
 70
     1
102
RTVSPropertyOp25
 70
     1
102
RTVSPropertyOp26
 70
     1
102
RTVSPropertyOp27
 70
     1
102
RTVSPropertyOp28
 70
     1
102
RTVSPropertyOp29
 70
     1
102
RTVSPropertyOp30
 70
     1
102
RTVSPropertyOp31
 70
     1
102
RTVSPropertyOp32
 70
     1
102
RTVSPropertyOp33
 70
     1
102
RTVSPropertyOp34
 70
     1
102
RTVSPropertyOp35
 70
     1
102
RTVSPropertyOp36
 70
     1
102
RTVSPropertyOp37
 70
     1
102
RTVSPropertyOp38
 70
     1
102
RTVSPropertyOp39
 70
     1
102
RTVSPropertyOp40
 70
     1
102
RTVSPropertyOp41
 70
     1
102
RTVSPropertyOp42
 70
     1
102
RTVSPropertyOp43
 70
     1
102
RTVSPropertyOp44
 70
     1
102
RTVSPropertyOp45
 70
     1
102
RTVSPropertyOp46
 70
     1
102
RTVSPropertyOp47
 70
     1
102
RTVSPropertyOp48
 70
     1
102
RTVSPropertyOp49
 70
     1
102
RTVSPropertyOp50
 70
     1
102
RTVSPropertyOp51
 70
     0
102
RTVSPropertyOp52
 70
     0
102
RTVSPropertyOp53
 70
     1
102
RTVSPropertyOp54
 70
     1
102
RTVSPropertyOp55
 70
     1
102
RTVSPropertyOp56
 70
     1
102
RTVSPropertyOp57
 70
     1
102
RTVSPropertyOp58
 70
     1
102
RTVSPropertyOp59
 70
     1
102
RTVSPropertyOp60
 70
     1
102
RTVSPropertyOp61
 70
     1
102
RTVSPropertyOp62
 70
     1
  0
XRECORD
  5
7D91
102
{ACAD_REACTORS
330
7D90
102
}
330
7D90
100
AcDbXrecord
280
     1
102
RTVSPost2010Prop28
280
     0
102
RTVSPost2010PropOp28
 70
     1
102
RTVSPost2010Prop29
280
     1
102
RTVSPost2010PropOp29
 70
     1
102
RTVSPost2010Prop30
280
     1
102
RTVSPost2010PropOp30
 70
     1
102
RTVSPost2010Prop31
280
     0
102
RTVSPost2010PropOp31
 70
     1
102
RTVSPost2010Prop32
280
     0
102
RTVSPost2010PropOp32
 70
     1
102
RTVSPost2010Prop33
280
     0
102
RTVSPost2010PropOp33
 70
     1
102
RTVSPost2010Prop34
280
     0
102
RTVSPost2010PropOp34
 70
     1
102
RTVSPost2010Prop35
280
     0
102
RTVSPost2010PropOp35
 70
     1
102
RTVSPost2010Prop36
280
     0
102
RTVSPost2010PropOp36
 70
     1
102
RTVSPost2010Prop37
 90
       50
102
RTVSPost2010PropOp37
 70
     1
102
RTVSPost2010Prop38
140
0.0
102
RTVSPost2010PropOp38
 70
     1
102
RTVSPost2010Prop39
140
1.0
102
RTVSPost2010PropOp39
 70
     1
102
RTVSPost2010Prop40
 90
        0
102
RTVSPost2010PropOp40
 70
     1
102
RTVSPost2010Prop41ColorIndex
 90
       18
102
RTVSPost2010Prop41ColorRGB
 90
        0
102
RTVSPost2010PropOp41
 70
     1
102
RTVSPost2010Prop42
 90
       50
102
RTVSPost2010PropOp42
 70
     1
102
RTVSPost2010Prop43
 90
        3
102
RTVSPost2010PropOp43
 70
     1
102
RTVSPost2010Prop44ColorIndex
 90
        5
102
RTVSPost2010Prop44ColorRGB
 90
      255
102
RTVSPost2010PropOp44
 70
     1
102
RTVSPost2010Prop45
280
     0
102
RTVSPost2010PropOp45
 70
     1
102
RTVSPost2010Prop46
 90
       50
102
RTVSPost2010PropOp46
 70
     1
102
RTVSPost2010Prop47
 90
       50
102
RTVSPost2010PropOp47
 70
     1
102
RTVSPost2010Prop48
 90
       50
102
RTVSPost2010PropOp48
 70
     1
102
RTVSPost2010Prop49
280
     0
102
RTVSPost2010PropOp49
 70
     1
102
RTVSPost2010Prop50
 90
       50
102
RTVSPost2010PropOp50
 70
     1
102
RTVSPost2010Prop51ColorIndex
 90
      256
102
RTVSPost2010Prop51ColorRGB
 90
-16777216
102
RTVSPost2010PropOp51
 70
     0
102
RTVSPost2010Prop52
140
1.0
102
RTVSPost2010PropOp52
 70
     0
102
RTVSPost2010Prop53
 90
        2
102
RTVSPost2010PropOp53
 70
     1
102
RTVSPost2010Prop54
  1
strokes_ogs.tif
102
RTVSPost2010PropOp54
 70
     1
102
RTVSPost2010Prop55
280
     0
102
RTVSPost2010PropOp55
 70
     1
102
RTVSPost2010Prop56
140
1.0
102
RTVSPost2010PropOp56
 70
     1
102
RTVSPost2010Prop57
140
1.0
102
RTVSPost2010PropOp57
 70
     1
102
RTVSPropertyOp0
 70
     1
102
RTVSPropertyOp1
 70
     1
102
RTVSPropertyOp2
 70
     1
102
RTVSPropertyOp3
 70
     1
102
RTVSPropertyOp4
 70
     1
102
RTVSPropertyOp5
 70
     1
102
RTVSPropertyOp6
 70
     1
102
RTVSPropertyOp7
 70
     1
102
RTVSPropertyOp8
 70
     1
102
RTVSPropertyOp9
 70
     1
102
RTVSPropertyOp10
 70
     1
102
RTVSPropertyOp11
 70
     1
102
RTVSPropertyOp12
 70
     1
102
RTVSPropertyOp13
 70
     1
102
RTVSPropertyOp14
 70
     1
102
RTVSPropertyOp15
 70
     1
102
RTVSPropertyOp16
 70
     1
102
RTVSPropertyOp17
 70
     1
102
RTVSPropertyOp18
 70
     1
102
RTVSPropertyOp19
 70
     1
102
RTVSPropertyOp20
 70
     1
102
RTVSPropertyOp21
 70
     1
102
RTVSPropertyOp22
 70
     1
102
RTVSPropertyOp23
 70
     1
102
RTVSPropertyOp24
 70
     1
102
RTVSPropertyOp25
 70
     1
102
RTVSPropertyOp26
 70
     1
102
RTVSPropertyOp27
 70
     1
102
RTVSPropertyOp28
 70
     1
102
RTVSPropertyOp29
 70
     1
102
RTVSPropertyOp30
 70
     1
102
RTVSPropertyOp31
 70
     1
102
RTVSPropertyOp32
 70
     1
102
RTVSPropertyOp33
 70
     1
102
RTVSPropertyOp34
 70
     1
102
RTVSPropertyOp35
 70
     1
102
RTVSPropertyOp36
 70
     1
102
RTVSPropertyOp37
 70
     1
102
RTVSPropertyOp38
 70
     1
102
RTVSPropertyOp39
 70
     1
102
RTVSPropertyOp40
 70
     1
102
RTVSPropertyOp41
 70
     1
102
RTVSPropertyOp42
 70
     1
102
RTVSPropertyOp43
 70
     1
102
RTVSPropertyOp44
 70
     1
102
RTVSPropertyOp45
 70
     1
102
RTVSPropertyOp46
 70
     1
102
RTVSPropertyOp47
 70
     1
102
RTVSPropertyOp48
 70
     1
102
RTVSPropertyOp49
 70
     1
102
RTVSPropertyOp50
 70
     1
102
RTVSPropertyOp51
 70
     0
102
RTVSPropertyOp52
 70
     0
102
RTVSPropertyOp53
 70
     1
102
RTVSPropertyOp54
 70
     1
102
RTVSPropertyOp55
 70
     1
102
RTVSPropertyOp56
 70
     1
102
RTVSPropertyOp57
 70
     1
102
RTVSPropertyOp58
 70
     1
102
RTVSPropertyOp59
 70
     1
102
RTVSPropertyOp60
 70
     1
102
RTVSPropertyOp61
 70
     1
102
RTVSPropertyOp62
 70
     1
  0
XRECORD
  5
7D85
102
{ACAD_REACTORS
330
7D84
102
}
330
7D84
100
AcDbXrecord
280
     1
102
RTVSPost2010Prop28
280
     0
102
RTVSPost2010PropOp28
 70
     1
102
RTVSPost2010Prop29
280
     1
102
RTVSPost2010PropOp29
 70
     1
102
RTVSPost2010Prop30
280
     1
102
RTVSPost2010PropOp30
 70
     1
102
RTVSPost2010Prop31
280
     0
102
RTVSPost2010PropOp31
 70
     1
102
RTVSPost2010Prop32
280
     0
102
RTVSPost2010PropOp32
 70
     1
102
RTVSPost2010Prop33
280
     0
102
RTVSPost2010PropOp33
 70
     1
102
RTVSPost2010Prop34
280
     0
102
RTVSPost2010PropOp34
 70
     1
102
RTVSPost2010Prop35
280
     0
102
RTVSPost2010PropOp35
 70
     1
102
RTVSPost2010Prop36
280
     0
102
RTVSPost2010PropOp36
 70
     1
102
RTVSPost2010Prop37
 90
       50
102
RTVSPost2010PropOp37
 70
     1
102
RTVSPost2010Prop38
140
0.0
102
RTVSPost2010PropOp38
 70
     1
102
RTVSPost2010Prop39
140
1.0
102
RTVSPost2010PropOp39
 70
     1
102
RTVSPost2010Prop40
 90
        0
102
RTVSPost2010PropOp40
 70
     1
102
RTVSPost2010Prop41ColorIndex
 90
       18
102
RTVSPost2010Prop41ColorRGB
 90
        0
102
RTVSPost2010PropOp41
 70
     1
102
RTVSPost2010Prop42
 90
       50
102
RTVSPost2010PropOp42
 70
     1
102
RTVSPost2010Prop43
 90
        3
102
RTVSPost2010PropOp43
 70
     1
102
RTVSPost2010Prop44ColorIndex
 90
        5
102
RTVSPost2010Prop44ColorRGB
 90
      255
102
RTVSPost2010PropOp44
 70
     1
102
RTVSPost2010Prop45
280
     0
102
RTVSPost2010PropOp45
 70
     1
102
RTVSPost2010Prop46
 90
       50
102
RTVSPost2010PropOp46
 70
     1
102
RTVSPost2010Prop47
 90
       50
102
RTVSPost2010PropOp47
 70
     1
102
RTVSPost2010Prop48
 90
       50
102
RTVSPost2010PropOp48
 70
     1
102
RTVSPost2010Prop49
280
     0
102
RTVSPost2010PropOp49
 70
     1
102
RTVSPost2010Prop50
 90
       50
102
RTVSPost2010PropOp50
 70
     1
102
RTVSPost2010Prop51ColorIndex
 90
      256
102
RTVSPost2010Prop51ColorRGB
 90
-16777216
102
RTVSPost2010PropOp51
 70
     0
102
RTVSPost2010Prop52
140
1.0
102
RTVSPost2010PropOp52
 70
     0
102
RTVSPost2010Prop53
 90
        2
102
RTVSPost2010PropOp53
 70
     1
102
RTVSPost2010Prop54
  1
strokes_ogs.tif
102
RTVSPost2010PropOp54
 70
     1
102
RTVSPost2010Prop55
280
     0
102
RTVSPost2010PropOp55
 70
     1
102
RTVSPost2010Prop56
140
1.0
102
RTVSPost2010PropOp56
 70
     1
102
RTVSPost2010Prop57
140
1.0
102
RTVSPost2010PropOp57
 70
     1
102
RTVSPropertyOp0
 70
     1
102
RTVSPropertyOp1
 70
     1
102
RTVSPropertyOp2
 70
     1
102
RTVSPropertyOp3
 70
     1
102
RTVSPropertyOp4
 70
     1
102
RTVSPropertyOp5
 70
     1
102
RTVSPropertyOp6
 70
     1
102
RTVSPropertyOp7
 70
     1
102
RTVSPropertyOp8
 70
     1
102
RTVSPropertyOp9
 70
     1
102
RTVSPropertyOp10
 70
     1
102
RTVSPropertyOp11
 70
     1
102
RTVSPropertyOp12
 70
     1
102
RTVSPropertyOp13
 70
     1
102
RTVSPropertyOp14
 70
     1
102
RTVSPropertyOp15
 70
     1
102
RTVSPropertyOp16
 70
     1
102
RTVSPropertyOp17
 70
     1
102
RTVSPropertyOp18
 70
     1
102
RTVSPropertyOp19
 70
     1
102
RTVSPropertyOp20
 70
     1
102
RTVSPropertyOp21
 70
     1
102
RTVSPropertyOp22
 70
     1
102
RTVSPropertyOp23
 70
     1
102
RTVSPropertyOp24
 70
     1
102
RTVSPropertyOp25
 70
     1
102
RTVSPropertyOp26
 70
     1
102
RTVSPropertyOp27
 70
     1
102
RTVSPropertyOp28
 70
     1
102
RTVSPropertyOp29
 70
     1
102
RTVSPropertyOp30
 70
     1
102
RTVSPropertyOp31
 70
     1
102
RTVSPropertyOp32
 70
     1
102
RTVSPropertyOp33
 70
     1
102
RTVSPropertyOp34
 70
     1
102
RTVSPropertyOp35
 70
     1
102
RTVSPropertyOp36
 70
     1
102
RTVSPropertyOp37
 70
     1
102
RTVSPropertyOp38
 70
     1
102
RTVSPropertyOp39
 70
     1
102
RTVSPropertyOp40
 70
     1
102
RTVSPropertyOp41
 70
     1
102
RTVSPropertyOp42
 70
     1
102
RTVSPropertyOp43
 70
     1
102
RTVSPropertyOp44
 70
     1
102
RTVSPropertyOp45
 70
     1
102
RTVSPropertyOp46
 70
     1
102
RTVSPropertyOp47
 70
     1
102
RTVSPropertyOp48
 70
     1
102
RTVSPropertyOp49
 70
     1
102
RTVSPropertyOp50
 70
     1
102
RTVSPropertyOp51
 70
     0
102
RTVSPropertyOp52
 70
     0
102
RTVSPropertyOp53
 70
     1
102
RTVSPropertyOp54
 70
     1
102
RTVSPropertyOp55
 70
     1
102
RTVSPropertyOp56
 70
     1
102
RTVSPropertyOp57
 70
     1
102
RTVSPropertyOp58
 70
     1
102
RTVSPropertyOp59
 70
     1
102
RTVSPropertyOp60
 70
     1
102
RTVSPropertyOp61
 70
     1
102
RTVSPropertyOp62
 70
     1
  0
XRECORD
  5
7DA5
102
{ACAD_REACTORS
330
7DA4
102
}
330
7DA4
100
AcDbXrecord
280
     1
102
RTVSPost2010Prop28
280
     0
102
RTVSPost2010PropOp28
 70
     1
102
RTVSPost2010Prop29
280
     1
102
RTVSPost2010PropOp29
 70
     1
102
RTVSPost2010Prop30
280
     1
102
RTVSPost2010PropOp30
 70
     1
102
RTVSPost2010Prop31
280
     0
102
RTVSPost2010PropOp31
 70
     1
102
RTVSPost2010Prop32
280
     0
102
RTVSPost2010PropOp32
 70
     1
102
RTVSPost2010Prop33
280
     0
102
RTVSPost2010PropOp33
 70
     1
102
RTVSPost2010Prop34
280
     0
102
RTVSPost2010PropOp34
 70
     1
102
RTVSPost2010Prop35
280
     0
102
RTVSPost2010PropOp35
 70
     1
102
RTVSPost2010Prop36
280
     0
102
RTVSPost2010PropOp36
 70
     1
102
RTVSPost2010Prop37
 90
       50
102
RTVSPost2010PropOp37
 70
     1
102
RTVSPost2010Prop38
140
0.0
102
RTVSPost2010PropOp38
 70
     1
102
RTVSPost2010Prop39
140
1.0
102
RTVSPost2010PropOp39
 70
     1
102
RTVSPost2010Prop40
 90
        0
102
RTVSPost2010PropOp40
 70
     1
102
RTVSPost2010Prop41ColorIndex
 90
       18
102
RTVSPost2010Prop41ColorRGB
 90
        0
102
RTVSPost2010PropOp41
 70
     1
102
RTVSPost2010Prop42
 90
       50
102
RTVSPost2010PropOp42
 70
     1
102
RTVSPost2010Prop43
 90
        3
102
RTVSPost2010PropOp43
 70
     1
102
RTVSPost2010Prop44ColorIndex
 90
        5
102
RTVSPost2010Prop44ColorRGB
 90
      255
102
RTVSPost2010PropOp44
 70
     1
102
RTVSPost2010Prop45
280
     0
102
RTVSPost2010PropOp45
 70
     1
102
RTVSPost2010Prop46
 90
       50
102
RTVSPost2010PropOp46
 70
     1
102
RTVSPost2010Prop47
 90
       50
102
RTVSPost2010PropOp47
 70
     1
102
RTVSPost2010Prop48
 90
       50
102
RTVSPost2010PropOp48
 70
     1
102
RTVSPost2010Prop49
280
     0
102
RTVSPost2010PropOp49
 70
     1
102
RTVSPost2010Prop50
 90
       50
102
RTVSPost2010PropOp50
 70
     1
102
RTVSPost2010Prop51ColorIndex
 90
      256
102
RTVSPost2010Prop51ColorRGB
 90
-16777216
102
RTVSPost2010PropOp51
 70
     0
102
RTVSPost2010Prop52
140
1.0
102
RTVSPost2010PropOp52
 70
     0
102
RTVSPost2010Prop53
 90
        2
102
RTVSPost2010PropOp53
 70
     1
102
RTVSPost2010Prop54
  1
strokes_ogs.tif
102
RTVSPost2010PropOp54
 70
     1
102
RTVSPost2010Prop55
280
     0
102
RTVSPost2010PropOp55
 70
     1
102
RTVSPost2010Prop56
140
1.0
102
RTVSPost2010PropOp56
 70
     1
102
RTVSPost2010Prop57
140
1.0
102
RTVSPost2010PropOp57
 70
     1
102
RTVSPropertyOp0
 70
     1
102
RTVSPropertyOp1
 70
     1
102
RTVSPropertyOp2
 70
     1
102
RTVSPropertyOp3
 70
     1
102
RTVSPropertyOp4
 70
     1
102
RTVSPropertyOp5
 70
     1
102
RTVSPropertyOp6
 70
     1
102
RTVSPropertyOp7
 70
     1
102
RTVSPropertyOp8
 70
     1
102
RTVSPropertyOp9
 70
     1
102
RTVSPropertyOp10
 70
     1
102
RTVSPropertyOp11
 70
     1
102
RTVSPropertyOp12
 70
     1
102
RTVSPropertyOp13
 70
     1
102
RTVSPropertyOp14
 70
     1
102
RTVSPropertyOp15
 70
     1
102
RTVSPropertyOp16
 70
     1
102
RTVSPropertyOp17
 70
     1
102
RTVSPropertyOp18
 70
     1
102
RTVSPropertyOp19
 70
     1
102
RTVSPropertyOp20
 70
     1
102
RTVSPropertyOp21
 70
     1
102
RTVSPropertyOp22
 70
     1
102
RTVSPropertyOp23
 70
     1
102
RTVSPropertyOp24
 70
     1
102
RTVSPropertyOp25
 70
     1
102
RTVSPropertyOp26
 70
     1
102
RTVSPropertyOp27
 70
     1
102
RTVSPropertyOp28
 70
     1
102
RTVSPropertyOp29
 70
     1
102
RTVSPropertyOp30
 70
     1
102
RTVSPropertyOp31
 70
     1
102
RTVSPropertyOp32
 70
     1
102
RTVSPropertyOp33
 70
     1
102
RTVSPropertyOp34
 70
     1
102
RTVSPropertyOp35
 70
     1
102
RTVSPropertyOp36
 70
     1
102
RTVSPropertyOp37
 70
     1
102
RTVSPropertyOp38
 70
     1
102
RTVSPropertyOp39
 70
     1
102
RTVSPropertyOp40
 70
     1
102
RTVSPropertyOp41
 70
     1
102
RTVSPropertyOp42
 70
     1
102
RTVSPropertyOp43
 70
     1
102
RTVSPropertyOp44
 70
     1
102
RTVSPropertyOp45
 70
     1
102
RTVSPropertyOp46
 70
     1
102
RTVSPropertyOp47
 70
     1
102
RTVSPropertyOp48
 70
     1
102
RTVSPropertyOp49
 70
     1
102
RTVSPropertyOp50
 70
     1
102
RTVSPropertyOp51
 70
     0
102
RTVSPropertyOp52
 70
     0
102
RTVSPropertyOp53
 70
     1
102
RTVSPropertyOp54
 70
     1
102
RTVSPropertyOp55
 70
     1
102
RTVSPropertyOp56
 70
     1
102
RTVSPropertyOp57
 70
     1
102
RTVSPropertyOp58
 70
     1
102
RTVSPropertyOp59
 70
     1
102
RTVSPropertyOp60
 70
     1
102
RTVSPropertyOp61
 70
     1
102
RTVSPropertyOp62
 70
     1
  0
ENDSEC
  0
EOF
