  0
SECTION
  2
HEADER
  9
$ACADVER
  1
AC1015
  9
$ACADMAINTVER
 70
    18
  9
$DWGCODEPAGE
  3
ANSI_1252
  9
$INSBASE
 10
0.0
 20
0.0
 30
0.0
  9
$EXTMIN
 10
-113.8952628265778
 20
-160.7088312826921
 30
-0.0015258207003583
  9
$EXTMAX
 10
130.5001837463353
 20
88.79274031728597
 30
0.0000000349246037
  9
$LIMMIN
 10
0.0
 20
0.0
  9
$LIMMAX
 10
420.0
 20
297.0
  9
$ORTHOMODE
 70
     0
  9
$REGENMODE
 70
     1
  9
$FILLMODE
 70
     1
  9
$QTEXTMODE
 70
     0
  9
$MIRRTEXT
 70
     0
  9
$LTSCALE
 40
1.0
  9
$ATTMODE
 70
     1
  9
$TEXTSIZE
 40
2.5
  9
$TRACEWID
 40
1.0
  9
$TEXTSTYLE
  7
Standard
  9
$CLAYER
  8
0
  9
$CELTYPE
  6
ByLayer
  9
$CECOLOR
 62
   256
  9
$CELTSCALE
 40
1.0
  9
$DISPSILH
 70
     0
  9
$DIMSCALE
 40
1.0
  9
$DIMASZ
 40
2.5
  9
$DIMEXO
 40
0.625
  9
$DIMDLI
 40
3.75
  9
$DIMRND
 40
0.0
  9
$DIMDLE
 40
0.0
  9
$DIMEXE
 40
1.25
  9
$DIMTP
 40
0.0
  9
$DIMTM
 40
0.0
  9
$DIMTXT
 40
2.5
  9
$DIMCEN
 40
2.5
  9
$DIMTSZ
 40
0.0
  9
$DIMTOL
 70
     0
  9
$DIMLIM
 70
     0
  9
$DIMTIH
 70
     0
  9
$DIMTOH
 70
     0
  9
$DIMSE1
 70
     0
  9
$DIMSE2
 70
     0
  9
$DIMTAD
 70
     1
  9
$DIMZIN
 70
     8
  9
$DIMBLK
  1

  9
$DIMASO
 70
     1
  9
$DIMSHO
 70
     1
  9
$DIMPOST
  1

  9
$DIMAPOST
  1

  9
$DIMALT
 70
     0
  9
$DIMALTD
 70
     3
  9
$DIMALTF
 40
0.03937007874016
  9
$DIMLFAC
 40
1.0
  9
$DIMTOFL
 70
     1
  9
$DIMTVP
 40
0.0
  9
$DIMTIX
 70
     0
  9
$DIMSOXD
 70
     0
  9
$DIMSAH
 70
     0
  9
$DIMBLK1
  1

  9
$DIMBLK2
  1

  9
$DIMSTYLE
  2
ISO-25
  9
$DIMCLRD
 70
     0
  9
$DIMCLRE
 70
     0
  9
$DIMCLRT
 70
     0
  9
$DIMTFAC
 40
1.0
  9
$DIMGAP
 40
0.625
  9
$DIMJUST
 70
     0
  9
$DIMSD1
 70
     0
  9
$DIMSD2
 70
     0
  9
$DIMTOLJ
 70
     0
  9
$DIMTZIN
 70
     8
  9
$DIMALTZ
 70
     0
  9
$DIMALTTZ
 70
     0
  9
$DIMUPT
 70
     0
  9
$DIMDEC
 70
     2
  9
$DIMTDEC
 70
     2
  9
$DIMALTU
 70
     2
  9
$DIMALTTD
 70
     3
  9
$DIMTXSTY
  7
Standard
  9
$DIMAUNIT
 70
     0
  9
$DIMADEC
 70
     0
  9
$DIMALTRND
 40
0.0
  9
$DIMAZIN
 70
     0
  9
$DIMDSEP
 70
    44
  9
$DIMATFIT
 70
     3
  9
$DIMFRAC
 70
     0
  9
$DIMLDRBLK
  1

  9
$DIMLUNIT
 70
     2
  9
$DIMLWD
 70
    -2
  9
$DIMLWE
 70
    -2
  9
$DIMTMOVE
 70
     0
  9
$LUNITS
 70
     2
  9
$LUPREC
 70
     4
  9
$SKETCHINC
 40
1.0
  9
$FILLETRAD
 40
0.0
  9
$AUNITS
 70
     0
  9
$AUPREC
 70
     0
  9
$MENU
  1
.
  9
$ELEVATION
 40
0.0
  9
$PELEVATION
 40
0.0
  9
$THICKNESS
 40
0.0
  9
$LIMCHECK
 70
     0
  9
$CHAMFERA
 40
0.0
  9
$CHAMFERB
 40
0.0
  9
$CHAMFERC
 40
0.0
  9
$CHAMFERD
 40
0.0
  9
$SKPOLY
 70
     0
  9
$TDCREATE
 40
2460781.656018518
  9
$TDUCREATE
 40
2460781.364351852
  9
$TDUPDATE
 40
2460782.412743056
  9
$TDUUPDATE
 40
2460782.121076389
  9
$TDINDWG
 40
0.7542824074
  9
$TDUSRTIMER
 40
0.7542824074
  9
$USRTIMER
 70
     1
  9
$ANGBASE
 50
0.0
  9
$ANGDIR
 70
     0
  9
$PDMODE
 70
     0
  9
$PDSIZE
 40
0.0
  9
$PLINEWID
 40
0.0
  9
$SPLFRAME
 70
     0
  9
$SPLINETYPE
 70
     6
  9
$SPLINESEGS
 70
     8
  9
$HANDSEED
  5
68F2
  9
$SURFTAB1
 70
     6
  9
$SURFTAB2
 70
     6
  9
$SURFTYPE
 70
     6
  9
$SURFU
 70
     6
  9
$SURFV
 70
     6
  9
$UCSBASE
  2

  9
$UCSNAME
  2

  9
$UCSORG
 10
0.0
 20
0.0
 30
0.0
  9
$UCSXDIR
 10
1.0
 20
0.0
 30
0.0
  9
$UCSYDIR
 10
0.0
 20
1.0
 30
0.0
  9
$UCSORTHOREF
  2

  9
$UCSORTHOVIEW
 70
     0
  9
$UCSORGTOP
 10
0.0
 20
0.0
 30
0.0
  9
$UCSORGBOTTOM
 10
0.0
 20
0.0
 30
0.0
  9
$UCSORGLEFT
 10
0.0
 20
0.0
 30
0.0
  9
$UCSORGRIGHT
 10
0.0
 20
0.0
 30
0.0
  9
$UCSORGFRONT
 10
0.0
 20
0.0
 30
0.0
  9
$UCSORGBACK
 10
0.0
 20
0.0
 30
0.0
  9
$PUCSBASE
  2

  9
$PUCSNAME
  2

  9
$PUCSORG
 10
0.0
 20
0.0
 30
0.0
  9
$PUCSXDIR
 10
1.0
 20
0.0
 30
0.0
  9
$PUCSYDIR
 10
0.0
 20
1.0
 30
0.0
  9
$PUCSORTHOREF
  2

  9
$PUCSORTHOVIEW
 70
     0
  9
$PUCSORGTOP
 10
0.0
 20
0.0
 30
0.0
  9
$PUCSORGBOTTOM
 10
0.0
 20
0.0
 30
0.0
  9
$PUCSORGLEFT
 10
0.0
 20
0.0
 30
0.0
  9
$PUCSORGRIGHT
 10
0.0
 20
0.0
 30
0.0
  9
$PUCSORGFRONT
 10
0.0
 20
0.0
 30
0.0
  9
$PUCSORGBACK
 10
0.0
 20
0.0
 30
0.0
  9
$USERI1
 70
     0
  9
$USERI2
 70
     0
  9
$USERI3
 70
     0
  9
$USERI4
 70
     0
  9
$USERI5
 70
     0
  9
$USERR1
 40
0.0
  9
$USERR2
 40
0.0
  9
$USERR3
 40
0.0
  9
$USERR4
 40
0.0
  9
$USERR5
 40
0.0
  9
$WORLDVIEW
 70
     1
  9
$SHADEDGE
 70
     3
  9
$SHADEDIF
 70
    70
  9
$TILEMODE
 70
     1
  9
$MAXACTVP
 70
    48
  9
$PINSBASE
 10
0.0
 20
0.0
 30
0.0
  9
$PLIMCHECK
 70
     0
  9
$PEXTMIN
 10
0.0
 20
0.0
 30
0.0
  9
$PEXTMAX
 10
0.0
 20
0.0
 30
0.0
  9
$PLIMMIN
 10
0.0
 20
0.0
  9
$PLIMMAX
 10
12.0
 20
9.0
  9
$UNITMODE
 70
     0
  9
$VISRETAIN
 70
     1
  9
$PLINEGEN
 70
     0
  9
$PSLTSCALE
 70
     1
  9
$TREEDEPTH
 70
  3020
  9
$CMLSTYLE
  2
Standard
  9
$CMLJUST
 70
     0
  9
$CMLSCALE
 40
20.0
  9
$PROXYGRAPHICS
 70
     1
  9
$MEASUREMENT
 70
     1
  9
$CELWEIGHT
370
    -1
  9
$ENDCAPS
280
     0
  9
$JOINSTYLE
280
     0
  9
$LWDISPLAY
290
     0
  9
$INSUNITS
 70
     4
  9
$HYPERLINKBASE
  1

  9
$STYLESHEET
  1

  9
$XEDIT
290
     1
  9
$CEPSNTYPE
380
     0
  9
$PSTYLEMODE
290
     1
  9
$FINGERPRINTGUID
  2
{0FEB3686-8757-2640-922C-D8687B0D3839}
  9
$VERSIONGUID
  2
{01FB6199-B148-D641-9B78-3F356095B97B}
  9
$EXTNAMES
290
     1
  9
$PSVPSCALE
 40
0.0
  9
$OLESTARTUP
290
     0
  0
ENDSEC
  0
SECTION
  2
CLASSES
  0
CLASS
  1
ACDBDICTIONARYWDFLT
  2
AcDbDictionaryWithDefault
  3
ObjectDBX Classes
 90
        0
280
     0
281
     0
  0
CLASS
  1
ACDBPLACEHOLDER
  2
AcDbPlaceHolder
  3
ObjectDBX Classes
 90
        0
280
     0
281
     0
  0
CLASS
  1
LAYOUT
  2
AcDbLayout
  3
ObjectDBX Classes
 90
        0
280
     0
281
     0
  0
CLASS
  1
DICTIONARYVAR
  2
AcDbDictionaryVar
  3
ObjectDBX Classes
 90
        0
280
     0
281
     0
  0
CLASS
  1
TABLESTYLE
  2
AcDbTableStyle
  3
ObjectDBX Classes
 90
     4095
280
     0
281
     0
  0
CLASS
  1
MATERIAL
  2
AcDbMaterial
  3
ObjectDBX Classes
 90
     1153
280
     0
281
     0
  0
CLASS
  1
VISUALSTYLE
  2
AcDbVisualStyle
  3
ObjectDBX Classes
 90
     4095
280
     0
281
     0
  0
CLASS
  1
SCALE
  2
AcDbScale
  3
ObjectDBX Classes
 90
     1153
280
     0
281
     0
  0
CLASS
  1
MLEADERSTYLE
  2
AcDbMLeaderStyle
  3
ACDB_MLEADERSTYLE_CLASS
 90
     4095
280
     0
281
     0
  0
CLASS
  1
CELLSTYLEMAP
  2
AcDbCellStyleMap
  3
ObjectDBX Classes
 90
     1152
280
     0
281
     0
  0
CLASS
  1
EXACXREFPANELOBJECT
  2
ExAcXREFPanelObject
  3
EXAC_ESW
 90
    33793
280
     0
281
     0
  0
CLASS
  1
NPOCOLLECTION
  2
AcDbImpNonPersistentObjectsCollection
  3
ObjectDBX Classes
 90
    33921
280
     0
281
     0
  0
CLASS
  1
LAYER_INDEX
  2
AcDbLayerIndex
  3
ObjectDBX Classes
 90
    32768
280
     0
281
     0
  0
CLASS
  1
SPATIAL_INDEX
  2
AcDbSpatialIndex
  3
ObjectDBX Classes
 90
    32768
280
     0
281
     0
  0
CLASS
  1
IDBUFFER
  2
AcDbIdBuffer
  3
ObjectDBX Classes
 90
    32768
280
     0
281
     0
  0
CLASS
  1
ACDBSECTIONVIEWSTYLE
  2
AcDbSectionViewStyle
  3
ObjectDBX Classes
 90
     1025
280
     0
281
     0
  0
CLASS
  1
ACDBDETAILVIEWSTYLE
  2
AcDbDetailViewStyle
  3
ObjectDBX Classes
 90
     1025
280
     0
281
     0
  0
CLASS
  1
XRECORD
  2
AcDbXrecord
  3
ObjectDBX Classes
 90
        0
280
     0
281
     0
  0
ENDSEC
  0
SECTION
  2
TABLES
  0
TABLE
  2
VPORT
  5
8
102
{ACAD_XDICTIONARY
360
6800
102
}
330
0
100
AcDbSymbolTable
 70
     1
  0
VPORT
  5
EA
330
8
100
AcDbSymbolTableRecord
100
AcDbViewportTableRecord
  2
*Active
 70
     0
 10
0.0
 20
0.0
 11
1.0
 21
1.0
 12
8.302460459878773
 22
-35.95804548270306
 13
0.0
 23
0.0
 14
10.0
 24
10.0
 15
10.0
 25
10.0
 16
0.0
 26
0.0
 36
1.0
 17
0.0
 27
0.0
 37
0.0
 40
265.3223107368188
 41
0.9846153846153844
 42
50.0
 43
0.0
 44
0.0
 50
0.0
 51
0.0
 71
     0
 72
  1000
 73
     1
 74
     3
 75
     0
 76
     1
 77
     0
 78
     0
281
     0
 65
     1
110
0.0
120
0.0
130
0.0
111
1.0
121
0.0
131
0.0
112
0.0
122
1.0
132
0.0
 79
     0
146
0.0
1001
ACAD_NAV_VCDISPLAY
1070
     3
  0
ENDTAB
  0
TABLE
  2
LTYPE
  5
5
330
0
100
AcDbSymbolTable
 70
     1
  0
LTYPE
  5
14
330
5
100
AcDbSymbolTableRecord
100
AcDbLinetypeTableRecord
  2
ByBlock
 70
     0
  3

 72
    65
 73
     0
 40
0.0
  0
LTYPE
  5
15
330
5
100
AcDbSymbolTableRecord
100
AcDbLinetypeTableRecord
  2
ByLayer
 70
     0
  3

 72
    65
 73
     0
 40
0.0
  0
LTYPE
  5
16
330
5
100
AcDbSymbolTableRecord
100
AcDbLinetypeTableRecord
  2
Continuous
 70
     0
  3
Solid line
 72
    65
 73
     0
 40
0.0
  0
ENDTAB
  0
TABLE
  2
LAYER
  5
2
102
{ACAD_XDICTIONARY
360
1FF
102
}
330
0
100
AcDbSymbolTable
 70
     1
  0
LAYER
  5
10
102
{ACAD_XDICTIONARY
360
13C
102
}
330
2
100
AcDbSymbolTableRecord
100
AcDbLayerTableRecord
  2
0
 70
     0
 62
     7
  6
Continuous
370
    -3
390
F
  0
ENDTAB
  0
TABLE
  2
STYLE
  5
3
330
0
100
AcDbSymbolTable
 70
     1
  0
STYLE
  5
11
330
3
100
AcDbSymbolTableRecord
100
AcDbTextStyleTableRecord
  2
Standard
 70
     0
 40
0.0
 41
1.0
 50
0.0
 71
     0
 42
2.5
  3
arial.ttf
  4

1001
ACAD
1000
Arial
1071
       34
  0
ENDTAB
  0
TABLE
  2
VIEW
  5
6
330
0
100
AcDbSymbolTable
 70
     0
  0
ENDTAB
  0
TABLE
  2
UCS
  5
7
330
0
100
AcDbSymbolTable
 70
     0
  0
ENDTAB
  0
TABLE
  2
APPID
  5
9
330
0
100
AcDbSymbolTable
 70
     8
  0
APPID
  5
12
330
9
100
AcDbSymbolTableRecord
100
AcDbRegAppTableRecord
  2
ACAD
 70
     0
  0
APPID
  5
9E
330
9
100
AcDbSymbolTableRecord
100
AcDbRegAppTableRecord
  2
ACAD_PSEXT
 70
     0
  0
APPID
  5
133
330
9
100
AcDbSymbolTableRecord
100
AcDbRegAppTableRecord
  2
AcadAnnoPO
 70
     0
  0
APPID
  5
134
330
9
100
AcDbSymbolTableRecord
100
AcDbRegAppTableRecord
  2
AcadAnnotative
 70
     0
  0
APPID
  5
135
330
9
100
AcDbSymbolTableRecord
100
AcDbRegAppTableRecord
  2
ACAD_DSTYLE_DIMJAG
 70
     0
  0
APPID
  5
136
330
9
100
AcDbSymbolTableRecord
100
AcDbRegAppTableRecord
  2
ACAD_DSTYLE_DIMTALN
 70
     0
  0
APPID
  5
165
330
9
100
AcDbSymbolTableRecord
100
AcDbRegAppTableRecord
  2
ACAD_MLEADERVER
 70
     0
  0
APPID
  5
217
330
9
100
AcDbSymbolTableRecord
100
AcDbRegAppTableRecord
  2
ACAD_NAV_VCDISPLAY
 70
     0
  0
ENDTAB
  0
TABLE
  2
DIMSTYLE
  5
A
330
0
100
AcDbSymbolTable
 70
     1
100
AcDbDimStyleTable
 71
     0
  0
DIMSTYLE
105
27
330
A
100
AcDbSymbolTableRecord
100
AcDbDimStyleTableRecord
  2
ISO-25
 70
     0
 41
2.5
 42
0.625
 43
3.75
 44
1.25
 73
     0
 74
     0
 77
     1
 78
     8
140
2.5
141
2.5
143
0.03937007874016
147
0.625
171
     3
172
     1
271
     2
272
     2
274
     3
278
    44
283
     0
284
     8
340
11
  0
ENDTAB
  0
TABLE
  2
BLOCK_RECORD
  5
1
330
0
100
AcDbSymbolTable
 70
     7
  0
BLOCK_RECORD
  5
1F
102
{ACAD_XDICTIONARY
360
1CE
102
}
330
1
100
AcDbSymbolTableRecord
100
AcDbBlockTableRecord
  2
*Model_Space
340
22
  0
BLOCK_RECORD
  5
D2
102
{ACAD_XDICTIONARY
360
67B3
102
}
330
1
100
AcDbSymbolTableRecord
100
AcDbBlockTableRecord
  2
*Paper_Space
340
D3
  0
BLOCK_RECORD
  5
D6
102
{ACAD_XDICTIONARY
360
67B5
102
}
330
1
100
AcDbSymbolTableRecord
100
AcDbBlockTableRecord
  2
*Paper_Space0
340
D7
  0
BLOCK_RECORD
  5
65B7
330
1
100
AcDbSymbolTableRecord
100
AcDbBlockTableRecord
  2
ZS47N-Front
340
0
102
{BLKREFS
331
67A9
102
}
  0
BLOCK_RECORD
  5
6605
330
1
100
AcDbSymbolTableRecord
100
AcDbBlockTableRecord
  2
ZS47N-Left
340
0
102
{BLKREFS
331
67AA
102
}
  0
BLOCK_RECORD
  5
662C
330
1
100
AcDbSymbolTableRecord
100
AcDbBlockTableRecord
  2
ZS47N-Right
340
0
102
{BLKREFS
331
67AB
102
}
  0
BLOCK_RECORD
  5
664A
330
1
100
AcDbSymbolTableRecord
100
AcDbBlockTableRecord
  2
ZS47N-Top
340
0
102
{BLKREFS
331
67AC
102
}
  0
BLOCK_RECORD
  5
6698
330
1
100
AcDbSymbolTableRecord
100
AcDbBlockTableRecord
  2
ZS47N-Bottom
340
0
102
{BLKREFS
331
67AD
102
}
  0
BLOCK_RECORD
  5
66FD
330
1
100
AcDbSymbolTableRecord
100
AcDbBlockTableRecord
  2
ZS47N-ISO
340
0
102
{BLKREFS
331
67AE
102
}
  0
ENDTAB
  0
ENDSEC
  0
SECTION
  2
BLOCKS
  0
BLOCK
  5
20
330
1F
100
AcDbEntity
  8
0
100
AcDbBlockBegin
  2
*Model_Space
 70
     0
 10
0.0
 20
0.0
 30
0.0
  3
*Model_Space
  1

  0
ENDBLK
  5
21
330
1F
100
AcDbEntity
  8
0
100
AcDbBlockEnd
  0
BLOCK
  5
D4
330
D2
100
AcDbEntity
 67
     1
  8
0
100
AcDbBlockBegin
  2
*Paper_Space
 70
     0
 10
0.0
 20
0.0
 30
0.0
  3
*Paper_Space
  1

  0
ENDBLK
  5
D5
330
D2
100
AcDbEntity
 67
     1
  8
0
100
AcDbBlockEnd
  0
BLOCK
  5
D8
330
D6
100
AcDbEntity
 67
     1
  8
0
100
AcDbBlockBegin
  2
*Paper_Space0
 70
     0
 10
0.0
 20
0.0
 30
0.0
  3
*Paper_Space0
  1

  0
ENDBLK
  5
D9
330
D6
100
AcDbEntity
 67
     1
  8
0
100
AcDbBlockEnd
  0
BLOCK
  5
65B8
330
65B7
100
AcDbEntity
  8
0
100
AcDbBlockBegin
  2
ZS47N-Front
 70
     0
 10
0.0
 20
0.0
 30
0.0
  3
ZS47N-Front
  1

  0
LINE
  5
65BA
330
65B7
100
AcDbEntity
  8
0
100
AcDbLine
 10
-2.776693950883855
 20
-15.809375
 30
0.0
 11
-0.687407664253894
 21
-12.19062499999999
 31
0.0
  0
ARC
  5
65BB
330
65B7
100
AcDbEntity
  8
0
100
AcDbCircle
 10
-2.089286286629961
 20
-16.20625
 30
0.0
 40
0.79375
100
AcDbArc
 50
149.9999999999999
 51
270.0
  0
LINE
  5
65BC
330
65B7
100
AcDbEntity
  8
0
100
AcDbLine
 10
2.089286286629965
 20
-17.0
 30
0.0
 11
-2.089286286629961
 21
-17.0
 31
0.0
  0
ARC
  5
65BD
330
65B7
100
AcDbEntity
  8
0
100
AcDbCircle
 10
2.089286286629965
 20
-16.20625
 30
0.0
 40
0.79375
100
AcDbArc
 50
269.9999999999999
 51
29.99999999999973
  0
LINE
  5
65BE
330
65B7
100
AcDbEntity
  8
0
100
AcDbLine
 10
0.6874076642539029
 20
-12.19062499999999
 30
0.0
 11
2.776693950883859
 21
-15.80937500000001
 31
0.0
  0
ARC
  5
65BF
330
65B7
100
AcDbEntity
  8
0
100
AcDbCircle
 10
0.0000000000000044
 20
-12.5875
 30
0.0
 40
0.7937500000000002
100
AcDbArc
 50
30.00000000000009
 51
149.9999999999997
  0
SPLINE
  5
65C0
330
65B7
100
AcDbEntity
  8
0
100
AcDbSpline
210
0.0
220
0.0
230
1.0
 70
     8
 71
     3
 72
    11
 73
     7
 74
     0
 42
0.000000001
 43
0.0000000001
 40
0.0
 40
0.0
 40
0.0
 40
0.0
 40
1.166126791552482
 40
1.166126791552482
 40
1.166126791552482
 40
1.570796326794869
 40
1.570796326794869
 40
1.570796326794869
 40
1.570796326794869
 10
5.292835849723765
 20
-47.89999999999999
 30
0.0
 10
5.284110352579164
 20
-47.89999999999999
 30
0.0
 10
5.275384855434563
 20
-47.45185204117432
 30
0.0
 10
5.266659358289963
 20
-46.80868701423915
 30
0.0
 10
5.26363143465435
 20
-46.5854957674387
 30
0.0
 10
5.260603511018735
 20
-46.34280172114549
 30
0.0
 10
5.257575587383121
 20
-46.10000000000005
 30
0.0
  0
LINE
  5
65C1
330
65B7
100
AcDbEntity
  8
0
100
AcDbLine
 10
5.292835849723765
 20
-47.89999999999999
 30
0.0
 11
5.292835849723765
 21
-46.99999999999999
 31
0.0
  0
SPLINE
  5
65C2
330
65B7
100
AcDbEntity
  8
0
100
AcDbSpline
210
0.0
220
0.0
230
1.0
 70
     8
 71
     3
 72
    11
 73
     7
 74
     0
 42
0.000000001
 43
0.0000000001
 40
0.0
 40
0.0
 40
0.0
 40
0.0
 40
1.386766277509507
 40
1.386766277509507
 40
1.386766277509507
 40
1.570796326794869
 40
1.570796326794869
 40
1.570796326794869
 40
1.570796326794869
 10
5.257575587383121
 20
-46.1
 30
0.0
 10
5.267952010669416
 20
-46.51602988325286
 30
0.0
 10
5.278328433955712
 20
-46.90867221041033
 30
0.0
 10
5.288704857242007
 20
-46.9848027865687
 30
0.0
 10
5.290081854735926
 20
-46.99490565242993
 30
0.0
 10
5.291458852229845
 20
-46.99999999999999
 30
0.0
 10
5.292835849723765
 20
-46.99999999999999
 30
0.0
  0
LINE
  5
65C3
330
65B7
100
AcDbEntity
  8
0
100
AcDbLine
 10
6.0
 20
-47.9
 30
0.0
 11
5.292835849723765
 21
-47.89999999999999
 31
0.0
  0
LINE
  5
65C4
330
65B7
100
AcDbEntity
  8
0
100
AcDbLine
 10
6.0
 20
-46.99999999999999
 30
0.0
 11
6.0
 21
-47.9
 31
0.0
  0
LINE
  5
65C5
330
65B7
100
AcDbEntity
  8
0
100
AcDbLine
 10
5.292835849723765
 20
-46.99999999999999
 30
0.0
 11
6.0
 21
-46.99999999999999
 31
0.0
  0
SPLINE
  5
65C6
330
65B7
100
AcDbEntity
  8
0
100
AcDbSpline
210
0.0
220
0.0
230
1.0
 70
     8
 71
     3
 72
    11
 73
     7
 74
     0
 42
0.000000001
 43
0.0000000001
 40
0.0
 40
0.0
 40
0.0
 40
0.0
 40
1.386766277509507
 40
1.386766277509507
 40
1.386766277509507
 40
1.570796326794883
 40
1.570796326794883
 40
1.570796326794883
 40
1.570796326794883
 10
-5.292835849723771
 20
-46.99999999999999
 30
0.0
 10
-5.282459426437476
 20
-46.99999999999999
 30
0.0
 10
-5.272083003151182
 20
-46.67369863157361
 30
0.0
 10
-5.261706579864887
 20
-46.26469374268697
 30
0.0
 10
-5.260329582370967
 20
-46.21041697588028
 30
0.0
 10
-5.258952584877047
 20
-46.15520901478561
 30
0.0
 10
-5.257575587383128
 20
-46.1
 30
0.0
  0
LINE
  5
65C7
330
65B7
100
AcDbEntity
  8
0
100
AcDbLine
 10
-5.292835849723771
 20
-46.99999999999999
 30
0.0
 11
-5.292835849723771
 21
-47.89999999999999
 31
0.0
  0
SPLINE
  5
65C8
330
65B7
100
AcDbEntity
  8
0
100
AcDbSpline
210
0.0
220
0.0
230
1.0
 70
     8
 71
     3
 72
    11
 73
     7
 74
     0
 42
0.000000001
 43
0.0000000001
 40
0.0
 40
0.0
 40
0.0
 40
0.0
 40
1.166126791552483
 40
1.166126791552483
 40
1.166126791552483
 40
1.570796326794883
 40
1.570796326794883
 40
1.570796326794883
 40
1.570796326794883
 10
-5.257575587383128
 20
-46.1
 30
0.0
 10
-5.266301084527729
 20
-46.79967607493149
 30
0.0
 10
-5.275026581672329
 20
-47.47914562994789
 30
0.0
 10
-5.283752078816929
 20
-47.75461860132442
 30
0.0
 10
-5.286780002452543
 20
-47.85021328288592
 30
0.0
 10
-5.289807926088157
 20
-47.89999999999999
 30
0.0
 10
-5.292835849723771
 20
-47.89999999999999
 30
0.0
  0
LINE
  5
65C9
330
65B7
100
AcDbEntity
  8
0
100
AcDbLine
 10
-6.0
 20
-46.99999999999989
 30
0.0
 11
-5.292835849723771
 21
-46.99999999999999
 31
0.0
  0
LINE
  5
65CA
330
65B7
100
AcDbEntity
  8
0
100
AcDbLine
 10
-6.0
 20
-47.89999999999989
 30
0.0
 11
-6.0
 21
-46.99999999999989
 31
0.0
  0
LINE
  5
65CB
330
65B7
100
AcDbEntity
  8
0
100
AcDbLine
 10
-5.292835849723771
 20
-47.89999999999999
 30
0.0
 11
-6.0
 21
-47.89999999999989
 31
0.0
  0
LINE
  5
65CC
330
65B7
100
AcDbEntity
  8
0
100
AcDbLine
 10
4.999040950308777
 20
-32.90207361368917
 30
0.0
 11
5.257575587383121
 21
-46.09999999999999
 31
0.0
  0
ARC
  5
65CD
330
65B7
100
AcDbEntity
  8
0
100
AcDbCircle
 10
-0.0000000000000089
 20
-33.0
 30
0.0
 40
5.0
100
AcDbArc
 50
1.122225479966293
 51
178.8777745200333
  0
LINE
  5
65CE
330
65B7
100
AcDbEntity
  8
0
100
AcDbLine
 10
-5.257575587383128
 20
-46.09999999999999
 30
0.0
 11
-4.999040950308786
 21
-32.90207361368917
 31
0.0
  0
LINE
  5
65CF
330
65B7
100
AcDbEntity
  8
0
100
AcDbLine
 10
19.4
 20
-46.10000000000001
 30
0.0
 11
18.5
 21
-46.10000000000001
 31
0.0
  0
LINE
  5
65D0
330
65B7
100
AcDbEntity
  8
0
100
AcDbLine
 10
19.4
 20
-46.1
 30
0.0
 11
19.40000000000001
 21
-20.39999999999999
 31
0.0
  0
LINE
  5
65D1
330
65B7
100
AcDbEntity
  8
0
100
AcDbLine
 10
18.50000000000001
 20
-20.39999999999999
 30
0.0
 11
19.40000000000001
 21
-20.39999999999999
 31
0.0
  0
LINE
  5
65D2
330
65B7
100
AcDbEntity
  8
0
100
AcDbLine
 10
18.50000000000001
 20
-20.39999999999999
 30
0.0
 11
18.5
 21
-46.09999999999999
 31
0.0
  0
LINE
  5
65D3
330
65B7
100
AcDbEntity
  8
0
100
AcDbLine
 10
23.5
 20
-46.1
 30
0.0
 11
22.6
 21
-46.1
 31
0.0
  0
LINE
  5
65D4
330
65B7
100
AcDbEntity
  8
0
100
AcDbLine
 10
22.6
 20
-46.1
 30
0.0
 11
22.6
 21
-47.0
 31
0.0
  0
LINE
  5
65D5
330
65B7
100
AcDbEntity
  8
0
100
AcDbLine
 10
23.5
 20
-46.99999999999999
 30
0.0
 11
23.5
 21
-46.09999999999999
 31
0.0
  0
LINE
  5
65D6
330
65B7
100
AcDbEntity
  8
0
100
AcDbLine
 10
22.6
 20
-20.39999999999999
 30
0.0
 11
22.6
 21
-46.1
 31
0.0
  0
ARC
  5
65D7
330
65B7
100
AcDbEntity
  8
0
100
AcDbCircle
 10
21.0
 20
-20.39999999999999
 30
0.0
 40
1.599999999999995
100
AcDbArc
 50
0.0
 51
180.0
  0
LINE
  5
65D8
330
65B7
100
AcDbEntity
  8
0
100
AcDbLine
 10
18.5
 20
-46.09999999999999
 30
0.0
 11
18.5
 21
-46.99999999999999
 31
0.0
  0
LINE
  5
65D9
330
65B7
100
AcDbEntity
  8
0
100
AcDbLine
 10
19.4
 20
-47.0
 30
0.0
 11
19.4
 21
-46.1
 31
0.0
  0
ARC
  5
65DA
330
65B7
100
AcDbEntity
  8
0
100
AcDbCircle
 10
21.0
 20
-20.39999999999999
 30
0.0
 40
2.499999999999995
100
AcDbArc
 50
0.0
 51
180.0
  0
LINE
  5
65DB
330
65B7
100
AcDbEntity
  8
0
100
AcDbLine
 10
23.5
 20
-46.09999999999999
 30
0.0
 11
23.5
 21
-20.39999999999999
 31
0.0
  0
LINE
  5
65DC
330
65B7
100
AcDbEntity
  8
0
100
AcDbLine
 10
23.5
 20
-20.39999999999999
 30
0.0
 11
22.6
 21
-20.39999999999999
 31
0.0
  0
LINE
  5
65DD
330
65B7
100
AcDbEntity
  8
0
100
AcDbLine
 10
19.4
 20
-46.1
 30
0.0
 11
22.6
 21
-46.1
 31
0.0
  0
ARC
  5
65DE
330
65B7
100
AcDbEntity
  8
0
100
AcDbCircle
 10
19.4
 20
-47.89999999999999
 30
0.0
 40
0.9000000000000053
100
AcDbArc
 50
180.0
 51
269.9999999999998
  0
LINE
  5
65DF
330
65B7
100
AcDbEntity
  8
0
100
AcDbLine
 10
22.6
 20
-48.79999999999999
 30
0.0
 11
19.4
 21
-48.79999999999999
 31
0.0
  0
ARC
  5
65E0
330
65B7
100
AcDbEntity
  8
0
100
AcDbCircle
 10
22.6
 20
-47.89999999999999
 30
0.0
 40
0.9000000000000012
100
AcDbArc
 50
270.0
 51
0.0
  0
LINE
  5
65E1
330
65B7
100
AcDbEntity
  8
0
100
AcDbLine
 10
-22.6
 20
-46.1
 30
0.0
 11
-19.4
 21
-46.1
 31
0.0
  0
LINE
  5
65E2
330
65B7
100
AcDbEntity
  8
0
100
AcDbLine
 10
-22.6
 20
-46.99999999999989
 30
0.0
 11
-22.6
 21
-46.1
 31
0.0
  0
LINE
  5
65E3
330
65B7
100
AcDbEntity
  8
0
100
AcDbLine
 10
-19.4
 20
-46.1
 30
0.0
 11
-19.4
 21
-46.99999999999989
 31
0.0
  0
ARC
  5
65E4
330
65B7
100
AcDbEntity
  8
0
100
AcDbCircle
 10
-22.6
 20
-47.89999999999998
 30
0.0
 40
0.900000000000003
100
AcDbArc
 50
180.0
 51
270.0
  0
LINE
  5
65E5
330
65B7
100
AcDbEntity
  8
0
100
AcDbLine
 10
-18.5
 20
-46.99999999999999
 30
0.0
 11
-18.5
 21
-46.09999999999999
 31
0.0
  0
ARC
  5
65E6
330
65B7
100
AcDbEntity
  8
0
100
AcDbCircle
 10
-19.4
 20
-47.89999999999998
 30
0.0
 40
0.9000000000000012
100
AcDbArc
 50
270.0
 51
0.0
  0
LINE
  5
65E7
330
65B7
100
AcDbEntity
  8
0
100
AcDbLine
 10
-19.4
 20
-48.79999999999999
 30
0.0
 11
-22.6
 21
-48.79999999999999
 31
0.0
  0
LINE
  5
65E8
330
65B7
100
AcDbEntity
  8
0
100
AcDbLine
 10
-23.5
 20
-46.1
 30
0.0
 11
-22.6
 21
-46.1
 31
0.0
  0
LINE
  5
65E9
330
65B7
100
AcDbEntity
  8
0
100
AcDbLine
 10
-23.5
 20
-46.09999999999999
 30
0.0
 11
-23.5
 21
-46.99999999999999
 31
0.0
  0
LINE
  5
65EA
330
65B7
100
AcDbEntity
  8
0
100
AcDbLine
 10
-23.49999999999999
 20
-20.39999999999999
 30
0.0
 11
-22.59999999999999
 21
-20.39999999999999
 31
0.0
  0
LINE
  5
65EB
330
65B7
100
AcDbEntity
  8
0
100
AcDbLine
 10
-23.49999999999999
 20
-20.39999999999999
 30
0.0
 11
-23.5
 21
-46.09999999999999
 31
0.0
  0
LINE
  5
65EC
330
65B7
100
AcDbEntity
  8
0
100
AcDbLine
 10
-22.6
 20
-46.1
 30
0.0
 11
-22.59999999999999
 21
-20.39999999999999
 31
0.0
  0
ARC
  5
65ED
330
65B7
100
AcDbEntity
  8
0
100
AcDbCircle
 10
-21.0
 20
-20.39999999999999
 30
0.0
 40
1.599999999999995
100
AcDbArc
 50
0.0
 51
180.0
  0
LINE
  5
65EE
330
65B7
100
AcDbEntity
  8
0
100
AcDbLine
 10
-18.50000000000001
 20
-20.39999999999999
 30
0.0
 11
-19.4
 21
-20.39999999999999
 31
0.0
  0
ARC
  5
65EF
330
65B7
100
AcDbEntity
  8
0
100
AcDbCircle
 10
-21.0
 20
-20.39999999999999
 30
0.0
 40
2.499999999999995
100
AcDbArc
 50
0.0
 51
180.0
  0
LINE
  5
65F0
330
65B7
100
AcDbEntity
  8
0
100
AcDbLine
 10
-19.4
 20
-20.39999999999999
 30
0.0
 11
-19.4
 21
-46.1
 31
0.0
  0
LINE
  5
65F1
330
65B7
100
AcDbEntity
  8
0
100
AcDbLine
 10
-18.5
 20
-46.1
 30
0.0
 11
-19.4
 21
-46.1
 31
0.0
  0
LINE
  5
65F2
330
65B7
100
AcDbEntity
  8
0
100
AcDbLine
 10
-18.5
 20
-46.09999999999999
 30
0.0
 11
-18.50000000000001
 21
-20.39999999999999
 31
0.0
  0
LINE
  5
65F3
330
65B7
100
AcDbEntity
  8
0
100
AcDbLine
 10
-18.5
 20
-46.09999999999999
 30
0.0
 11
-5.257575587383129
 21
-46.09999999999999
 31
0.0
  0
LINE
  5
65F4
330
65B7
100
AcDbEntity
  8
0
100
AcDbLine
 10
5.257575587383121
 20
-46.09999999999999
 30
0.0
 11
18.5
 21
-46.09999999999999
 31
0.0
  0
LINE
  5
65F5
330
65B7
100
AcDbEntity
  8
0
100
AcDbLine
 10
-26.0
 20
-46.09999999999999
 30
0.0
 11
-23.5
 21
-46.09999999999999
 31
0.0
  0
LINE
  5
65F6
330
65B7
100
AcDbEntity
  8
0
100
AcDbLine
 10
-26.0
 20
-47.0
 30
0.0
 11
-26.0
 21
-46.09999999999999
 31
0.0
  0
LINE
  5
65F7
330
65B7
100
AcDbEntity
  8
0
100
AcDbLine
 10
23.5
 20
-46.09999999999999
 30
0.0
 11
26.0
 21
-46.09999999999999
 31
0.0
  0
LINE
  5
65F8
330
65B7
100
AcDbEntity
  8
0
100
AcDbLine
 10
-26.0
 20
-0.8999999999999985
 30
0.0
 11
26.0
 21
-0.9000000000000163
 31
0.0
  0
LINE
  5
65F9
330
65B7
100
AcDbEntity
  8
0
100
AcDbLine
 10
-26.0
 20
0.8999999999999896
 30
0.0
 11
26.0
 21
0.8999999999999985
 31
0.0
  0
LINE
  5
65FA
330
65B7
100
AcDbEntity
  8
0
100
AcDbLine
 10
26.0
 20
-0.9000000000000197
 30
0.0
 11
26.0
 21
0.8999999999999896
 31
0.0
  0
LINE
  5
65FB
330
65B7
100
AcDbEntity
  8
0
100
AcDbLine
 10
-26.0
 20
0.899999999999988
 30
0.0
 11
-26.0
 21
-0.9000000000000019
 31
0.0
  0
LINE
  5
65FC
330
65B7
100
AcDbEntity
  8
0
100
AcDbLine
 10
26.0
 20
-46.09999999999999
 30
0.0
 11
26.0
 21
-46.99999999999999
 31
0.0
  0
LINE
  5
65FD
330
65B7
100
AcDbEntity
  8
0
100
AcDbLine
 10
-6.0
 20
-46.99999999999989
 30
0.0
 11
-26.0
 21
-46.99999999999989
 31
0.0
  0
LINE
  5
65FE
330
65B7
100
AcDbEntity
  8
0
100
AcDbLine
 10
26.0
 20
-46.99999999999999
 30
0.0
 11
6.0
 21
-46.99999999999999
 31
0.0
  0
LINE
  5
65FF
330
65B7
100
AcDbEntity
  8
0
100
AcDbLine
 10
-26.0
 20
-47.89999999999989
 30
0.0
 11
-26.0
 21
-46.99999999999989
 31
0.0
  0
LINE
  5
6600
330
65B7
100
AcDbEntity
  8
0
100
AcDbLine
 10
-26.0
 20
-47.89999999999989
 30
0.0
 11
-6.0
 21
-47.89999999999989
 31
0.0
  0
LINE
  5
6601
330
65B7
100
AcDbEntity
  8
0
100
AcDbLine
 10
6.0
 20
-47.9
 30
0.0
 11
26.0
 21
-47.9
 31
0.0
  0
LINE
  5
6602
330
65B7
100
AcDbEntity
  8
0
100
AcDbLine
 10
26.0
 20
-47.9
 30
0.0
 11
26.0
 21
-46.99999999999999
 31
0.0
  0
LINE
  5
6603
330
65B7
100
AcDbEntity
  8
0
100
AcDbLine
 10
26.0
 20
-0.9000000000000163
 30
0.0
 11
26.0
 21
-46.09999999999999
 31
0.0
  0
LINE
  5
6604
330
65B7
100
AcDbEntity
  8
0
100
AcDbLine
 10
-26.0
 20
-46.09999999999999
 30
0.0
 11
-26.0
 21
-0.8999999999999985
 31
0.0
  0
ENDBLK
  5
65B9
330
65B7
100
AcDbEntity
  8
0
100
AcDbBlockEnd
  0
BLOCK
  5
6606
330
6605
100
AcDbEntity
  8
0
100
AcDbBlockBegin
  2
ZS47N-Left
 70
     0
 10
0.0
 20
0.0
 30
0.0
  3
ZS47N-Left
  1

  0
LINE
  5
6608
330
6605
100
AcDbEntity
  8
0
100
AcDbLine
 10
0.8999999999999939
 20
-46.09999999999999
 30
0.0
 11
0.0
 21
-46.09999999999999
 31
0.0
  0
ARC
  5
6609
330
6605
100
AcDbEntity
  8
0
100
AcDbCircle
 10
2.699999999999994
 20
-46.09999999999999
 30
0.0
 40
2.700000000000001
100
AcDbArc
 50
180.0
 51
270.0000000000001
  0
LINE
  5
660A
330
6605
100
AcDbEntity
  8
0
100
AcDbLine
 10
2.699999999999995
 20
-47.89999999999999
 30
0.0
 11
2.699999999999997
 21
-48.79999999999999
 31
0.0
  0
LINE
  5
660B
330
6605
100
AcDbEntity
  8
0
100
AcDbLine
 10
0.0
 20
-20.4
 30
0.0
 11
0.0
 21
-46.1
 31
0.0
  0
LINE
  5
660C
330
6605
100
AcDbEntity
  8
0
100
AcDbLine
 10
0.0
 20
-20.4
 30
0.0
 11
0.0
 21
-18.8
 31
0.0
  0
LINE
  5
660D
330
6605
100
AcDbEntity
  8
0
100
AcDbLine
 10
2.700000000000002
 20
-48.79999999999999
 30
0.0
 11
6.300000000000007
 21
-48.79999999999999
 31
0.0
  0
LINE
  5
660E
330
6605
100
AcDbEntity
  8
0
100
AcDbLine
 10
6.300000000000007
 20
-48.79999999999999
 30
0.0
 11
6.300000000000004
 21
-47.89999999999998
 31
0.0
  0
LINE
  5
660F
330
6605
100
AcDbEntity
  8
0
100
AcDbLine
 10
7.900000000000004
 20
-48.79999999999999
 30
0.0
 11
6.300000000000007
 21
-48.79999999999999
 31
0.0
  0
LINE
  5
6610
330
6605
100
AcDbEntity
  8
0
100
AcDbLine
 10
0.0
 20
-20.4
 30
0.0
 11
0.8999999999998761
 21
-20.39999999999999
 31
0.0
  0
ARC
  5
6611
330
6605
100
AcDbEntity
  8
0
100
AcDbCircle
 10
7.900000000000002
 20
-47.89999999999998
 30
0.0
 40
0.9000000000000001
100
AcDbArc
 50
270.0000000000002
 51
0.0
  0
ARC
  5
6612
330
6605
100
AcDbEntity
  8
0
100
AcDbCircle
 10
0.8999999999998676
 20
-18.8
 30
0.0
 40
0.9000000000000001
100
AcDbArc
 50
90.00000000000019
 51
180.0
  0
LINE
  5
6613
330
6605
100
AcDbEntity
  8
0
100
AcDbLine
 10
0.8999999999999948
 20
-46.09999999999999
 30
0.0
 11
0.899999999999774
 21
-0.9000000000000163
 31
0.0
  0
LINE
  5
6614
330
6605
100
AcDbEntity
  8
0
100
AcDbLine
 10
38.8
 20
-46.99999999999989
 30
0.0
 11
2.699999999999995
 21
-47.0
 31
0.0
  0
LINE
  5
6615
330
6605
100
AcDbEntity
  8
0
100
AcDbLine
 10
38.80000000000001
 20
-47.89999999999989
 30
0.0
 11
38.8
 21
-46.99999999999989
 31
0.0
  0
LINE
  5
6616
330
6605
100
AcDbEntity
  8
0
100
AcDbLine
 10
38.80000000000001
 20
-47.89999999999989
 30
0.0
 11
2.699999999999995
 21
-47.89999999999999
 31
0.0
  0
LINE
  5
6617
330
6605
100
AcDbEntity
  8
0
100
AcDbLine
 10
1.79999999999999
 20
-46.09999999999999
 30
0.0
 11
1.799999999999769
 21
-0.8999999999999985
 31
0.0
  0
LINE
  5
6618
330
6605
100
AcDbEntity
  8
0
100
AcDbLine
 10
0.0
 20
0.8999999999999896
 30
0.0
 11
-7.000000000000234
 21
0.8999999999999985
 31
0.0
  0
LINE
  5
6619
330
6605
100
AcDbEntity
  8
0
100
AcDbLine
 10
0.0
 20
0.0
 30
0.0
 11
-7.000000000000254
 21
0.0
 31
0.0
  0
ARC
  5
661A
330
6605
100
AcDbEntity
  8
0
100
AcDbCircle
 10
2.699999999999994
 20
-46.09999999999999
 30
0.0
 40
0.9000000000000042
100
AcDbArc
 50
180.0
 51
270.0000000000002
  0
ARC
  5
661B
330
6605
100
AcDbEntity
  8
0
100
AcDbCircle
 10
2.699999999999994
 20
-46.09999999999999
 30
0.0
 40
1.799999999999999
100
AcDbArc
 50
180.0
 51
270.0000000000002
  0
LINE
  5
661C
330
6605
100
AcDbEntity
  8
0
100
AcDbLine
 10
0.0
 20
0.0
 30
0.0
 11
0.0
 21
0.8999999999999896
 31
0.0
  0
ARC
  5
661D
330
6605
100
AcDbEntity
  8
0
100
AcDbCircle
 10
-0.0000000000002257
 20
-0.9000000000000074
 30
0.0
 40
0.8999999999999996
100
AcDbArc
 50
0.0
 51
90.00000000000119
  0
LINE
  5
661E
330
6605
100
AcDbEntity
  8
0
100
AcDbLine
 10
0.899999999999774
 20
-0.9000000000000163
 30
0.0
 11
1.799999999999769
 21
-0.8999999999999985
 31
0.0
  0
LINE
  5
661F
330
6605
100
AcDbEntity
  8
0
100
AcDbLine
 10
0.8999999999999948
 20
-46.09999999999999
 30
0.0
 11
1.79999999999999
 21
-46.09999999999999
 31
0.0
  0
ARC
  5
6620
330
6605
100
AcDbEntity
  8
0
100
AcDbCircle
 10
-0.0000000000002257
 20
-0.9000000000000074
 30
0.0
 40
1.799999999999995
100
AcDbArc
 50
0.0
 51
90.00000000000055
  0
LINE
  5
6621
330
6605
100
AcDbEntity
  8
0
100
AcDbLine
 10
2.699999999999999
 20
-47.89999999999999
 30
0.0
 11
2.699999999999996
 21
-47.0
 31
0.0
  0
LINE
  5
6622
330
6605
100
AcDbEntity
  8
0
100
AcDbLine
 10
-11.49702733935589
 20
0.0
 30
0.0
 11
-26.35247721720389
 21
0.0
 31
0.0
  0
LINE
  5
6623
330
6605
100
AcDbEntity
  8
0
100
AcDbLine
 10
-11.49702733935587
 20
0.8999999999999896
 30
0.0
 11
-11.49702733935589
 21
0.0
 31
0.0
  0
LINE
  5
6624
330
6605
100
AcDbEntity
  8
0
100
AcDbLine
 10
-26.35247721720387
 20
0.8999999999999719
 30
0.0
 11
-11.49702733935587
 21
0.8999999999999896
 31
0.0
  0
LINE
  5
6625
330
6605
100
AcDbEntity
  8
0
100
AcDbLine
 10
-26.35247721720387
 20
0.8999999999999719
 30
0.0
 11
-26.35247721720389
 21
0.0
 31
0.0
  0
LINE
  5
6626
330
6605
100
AcDbEntity
  8
0
100
AcDbLine
 10
-30.10000000000026
 20
0.0
 30
0.0
 11
-26.35247721720389
 21
0.0
 31
0.0
  0
LINE
  5
6627
330
6605
100
AcDbEntity
  8
0
100
AcDbLine
 10
-26.35247721720387
 20
0.8999999999999795
 30
0.0
 11
-30.10000000000024
 21
0.8999999999999761
 31
0.0
  0
LINE
  5
6628
330
6605
100
AcDbEntity
  8
0
100
AcDbLine
 10
-7.000000000000234
 20
0.8999999999999985
 30
0.0
 11
-7.000000000000254
 21
0.0
 31
0.0
  0
LINE
  5
6629
330
6605
100
AcDbEntity
  8
0
100
AcDbLine
 10
-7.00000000000025
 20
0.0
 30
0.0
 11
-11.49702733935589
 21
0.0
 31
0.0
  0
LINE
  5
662A
330
6605
100
AcDbEntity
  8
0
100
AcDbLine
 10
-11.49702733935587
 20
0.8999999999999909
 30
0.0
 11
-7.000000000000251
 21
0.8999999999999953
 31
0.0
  0
LINE
  5
662B
330
6605
100
AcDbEntity
  8
0
100
AcDbLine
 10
-30.10000000000024
 20
0.8999999999999758
 30
0.0
 11
-30.10000000000024
 21
0.0
 31
0.0
  0
ENDBLK
  5
6607
330
6605
100
AcDbEntity
  8
0
100
AcDbBlockEnd
  0
BLOCK
  5
662D
330
662C
100
AcDbEntity
  8
0
100
AcDbBlockBegin
  2
ZS47N-Right
 70
     0
 10
0.0
 20
0.0
 30
0.0
  3
ZS47N-Right
  1

  0
ARC
  5
662F
330
662C
100
AcDbEntity
  8
0
100
AcDbCircle
 10
-2.699999999999994
 20
-46.09999999999999
 30
0.0
 40
2.7
100
AcDbArc
 50
270.0000000000001
 51
0.0
  0
LINE
  5
6630
330
662C
100
AcDbEntity
  8
0
100
AcDbLine
 10
0.0
 20
-46.1
 30
0.0
 11
-0.8999999999999939
 21
-46.1
 31
0.0
  0
LINE
  5
6631
330
662C
100
AcDbEntity
  8
0
100
AcDbLine
 10
-2.69999999999999
 20
-48.79999999999999
 30
0.0
 11
-2.699999999999993
 21
-47.89999999999999
 31
0.0
  0
LINE
  5
6632
330
662C
100
AcDbEntity
  8
0
100
AcDbLine
 10
-6.300000000000003
 20
-48.79999999999999
 30
0.0
 11
-2.699999999999991
 21
-48.79999999999999
 31
0.0
  0
LINE
  5
6633
330
662C
100
AcDbEntity
  8
0
100
AcDbLine
 10
-6.300000000000003
 20
-48.79999999999999
 30
0.0
 11
-7.899999999999998
 21
-48.79999999999999
 31
0.0
  0
LINE
  5
6634
330
662C
100
AcDbEntity
  8
0
100
AcDbLine
 10
-6.300000000000003
 20
-47.89999999999999
 30
0.0
 11
-6.300000000000003
 21
-48.79999999999999
 31
0.0
  0
LINE
  5
6635
330
662C
100
AcDbEntity
  8
0
100
AcDbLine
 10
0.0
 20
-20.4
 30
0.0
 11
-0.8999999999998763
 21
-20.39999999999999
 31
0.0
  0
LINE
  5
6636
330
662C
100
AcDbEntity
  8
0
100
AcDbLine
 10
0.0
 20
-18.8
 30
0.0
 11
0.0
 21
-20.4
 31
0.0
  0
LINE
  5
6637
330
662C
100
AcDbEntity
  8
0
100
AcDbLine
 10
0.0
 20
-46.10000000000001
 30
0.0
 11
0.0
 21
-20.4
 31
0.0
  0
ARC
  5
6638
330
662C
100
AcDbEntity
  8
0
100
AcDbCircle
 10
-7.899999999999998
 20
-47.89999999999999
 30
0.0
 40
0.9000000000000001
100
AcDbArc
 50
180.0
 51
270.0
  0
ARC
  5
6639
330
662C
100
AcDbEntity
  8
0
100
AcDbCircle
 10
-0.899999999999868
 20
-18.8
 30
0.0
 40
0.9000000000000001
100
AcDbArc
 50
0.0
 51
89.99999999999976
  0
LINE
  5
663A
330
662C
100
AcDbEntity
  8
0
100
AcDbLine
 10
-0.8999999999999948
 20
-46.09999999999999
 30
0.0
 11
-0.8999999999997738
 21
-0.9000000000000163
 31
0.0
  0
LINE
  5
663B
330
662C
100
AcDbEntity
  8
0
100
AcDbLine
 10
-2.699999999999997
 20
-46.99999999999999
 30
0.0
 11
-38.8
 21
-46.99999999999999
 31
0.0
  0
LINE
  5
663C
330
662C
100
AcDbEntity
  8
0
100
AcDbLine
 10
-38.8
 20
-47.9
 30
0.0
 11
-38.8
 21
-46.99999999999999
 31
0.0
  0
LINE
  5
663D
330
662C
100
AcDbEntity
  8
0
100
AcDbLine
 10
-1.799999999999774
 20
-0.9000000000000163
 30
0.0
 11
-1.799999999999994
 21
-46.09999999999999
 31
0.0
  0
LINE
  5
663E
330
662C
100
AcDbEntity
  8
0
100
AcDbLine
 10
-38.8
 20
-47.9
 30
0.0
 11
-2.699999999999995
 21
-47.89999999999999
 31
0.0
  0
LINE
  5
663F
330
662C
100
AcDbEntity
  8
0
100
AcDbLine
 10
30.10000000000024
 20
0.8999999999999719
 30
0.0
 11
0.0
 21
0.8999999999999985
 31
0.0
  0
LINE
  5
6640
330
662C
100
AcDbEntity
  8
0
100
AcDbLine
 10
0.0
 20
0.0
 30
0.0
 11
30.10000000000026
 21
0.0
 31
0.0
  0
LINE
  5
6641
330
662C
100
AcDbEntity
  8
0
100
AcDbLine
 10
30.10000000000026
 20
0.0
 30
0.0
 11
30.10000000000024
 21
0.8999999999999719
 31
0.0
  0
ARC
  5
6642
330
662C
100
AcDbEntity
  8
0
100
AcDbCircle
 10
-2.699999999999994
 20
-46.09999999999999
 30
0.0
 40
1.799999999999999
100
AcDbArc
 50
269.9999999999999
 51
0.0
  0
ARC
  5
6643
330
662C
100
AcDbEntity
  8
0
100
AcDbCircle
 10
0.0000000000002257
 20
-0.9000000000000074
 30
0.0
 40
0.8999999999999994
100
AcDbArc
 50
89.9999999999988
 51
180.0
  0
LINE
  5
6644
330
662C
100
AcDbEntity
  8
0
100
AcDbLine
 10
0.0
 20
0.8999999999999985
 30
0.0
 11
0.0
 21
0.0
 31
0.0
  0
ARC
  5
6645
330
662C
100
AcDbEntity
  8
0
100
AcDbCircle
 10
0.0000000000002257
 20
-0.9000000000000074
 30
0.0
 40
1.799999999999997
100
AcDbArc
 50
89.99999999999944
 51
180.0
  0
LINE
  5
6646
330
662C
100
AcDbEntity
  8
0
100
AcDbLine
 10
-1.799999999999774
 20
-0.9000000000000163
 30
0.0
 11
-0.8999999999997738
 21
-0.9000000000000163
 31
0.0
  0
LINE
  5
6647
330
662C
100
AcDbEntity
  8
0
100
AcDbLine
 10
-1.799999999999994
 20
-46.09999999999999
 30
0.0
 11
-0.8999999999999948
 21
-46.09999999999999
 31
0.0
  0
ARC
  5
6648
330
662C
100
AcDbEntity
  8
0
100
AcDbCircle
 10
-2.699999999999994
 20
-46.09999999999999
 30
0.0
 40
0.9
100
AcDbArc
 50
269.9999999999998
 51
0.0
  0
LINE
  5
6649
330
662C
100
AcDbEntity
  8
0
100
AcDbLine
 10
-2.699999999999997
 20
-46.99999999999999
 30
0.0
 11
-2.699999999999997
 21
-47.89999999999999
 31
0.0
  0
ENDBLK
  5
662E
330
662C
100
AcDbEntity
  8
0
100
AcDbBlockEnd
  0
BLOCK
  5
664B
330
664A
100
AcDbEntity
  8
0
100
AcDbBlockBegin
  2
ZS47N-Top
 70
     0
 10
0.0
 20
0.0
 30
0.0
  3
ZS47N-Top
  1

  0
CIRCLE
  5
664D
330
664A
100
AcDbEntity
  8
0
100
AcDbCircle
 10
21.0
 20
25.10000000000025
 30
0.0
 40
2.0
  0
CIRCLE
  5
664E
330
664A
100
AcDbEntity
  8
0
100
AcDbCircle
 10
-7.000000000000001
 20
25.10000000000019
 30
0.0
 40
2.0
  0
ARC
  5
664F
330
664A
100
AcDbEntity
  8
0
100
AcDbCircle
 10
-9.089286286629942
 20
15.68750000000018
 30
0.0
 40
0.7937499999999976
100
AcDbArc
 50
150.0000000000002
 51
270.0000000000002
  0
LINE
  5
6650
330
664A
100
AcDbEntity
  8
0
100
AcDbLine
 10
-4.91071371337002
 20
14.89375000000018
 30
0.0
 11
-9.08928628662994
 21
14.89375000000018
 31
0.0
  0
ARC
  5
6651
330
664A
100
AcDbEntity
  8
0
100
AcDbCircle
 10
-4.910713713370022
 20
15.68750000000019
 30
0.0
 40
0.7937500000000003
100
AcDbArc
 50
270.0000000000002
 51
30.00000000000029
  0
LINE
  5
6652
330
664A
100
AcDbEntity
  8
0
100
AcDbLine
 10
-6.312592335746096
 20
19.70312500000019
 30
0.0
 11
-4.223306049116124
 21
16.08437500000019
 31
0.0
  0
ARC
  5
6653
330
664A
100
AcDbEntity
  8
0
100
AcDbCircle
 10
-6.999999999999992
 20
19.3062500000002
 30
0.0
 40
0.7937500000000002
100
AcDbArc
 50
30.00000000000009
 51
150.0000000000002
  0
LINE
  5
6654
330
664A
100
AcDbEntity
  8
0
100
AcDbLine
 10
-9.77669395088384
 20
16.08437500000018
 30
0.0
 11
-7.687407664253886
 21
19.70312500000019
 31
0.0
  0
SPLINE
  5
6655
330
664A
100
AcDbEntity
  8
0
100
AcDbSpline
210
0.0
220
0.0
230
1.0
 70
     8
 71
     3
 72
    11
 73
     7
 74
     0
 42
0.000000001
 43
0.0000000001
 40
0.0
 40
0.0
 40
0.0
 40
0.0
 40
1.386766277509507
 40
1.386766277509507
 40
1.386766277509507
 40
1.570796326794869
 40
1.570796326794869
 40
1.570796326794869
 40
1.570796326794869
 10
5.257575587383121
 20
-1.799999999999993
 30
0.0
 10
5.267952010669416
 20
-1.799999999999997
 30
0.0
 10
5.278328433955712
 20
-2.12630136842638
 30
0.0
 10
5.288704857242007
 20
-2.535306257313025
 30
0.0
 10
5.290081854735926
 20
-2.589583024119714
 30
0.0
 10
5.291458852229845
 20
-2.644790985214368
 30
0.0
 10
5.292835849723765
 20
-2.699999999999977
 30
0.0
  0
LINE
  5
6656
330
664A
100
AcDbEntity
  8
0
100
AcDbLine
 10
5.292835849723765
 20
-2.699999999999997
 30
0.0
 11
6.0
 21
-38.8
 31
0.0
  0
SPLINE
  5
6657
330
664A
100
AcDbEntity
  8
0
100
AcDbSpline
210
0.0
220
0.0
230
1.0
 70
     8
 71
     3
 72
    11
 73
     7
 74
     0
 42
0.000000001
 43
0.0000000001
 40
0.0
 40
0.0
 40
0.0
 40
0.0
 40
1.386766277509507
 40
1.386766277509507
 40
1.386766277509507
 40
1.570796326794883
 40
1.570796326794883
 40
1.570796326794883
 40
1.570796326794883
 10
-5.292835849723771
 20
-2.699999999999996
 30
0.0
 10
-5.282459426437476
 20
-2.283970116747143
 30
0.0
 10
-5.272083003151182
 20
-1.891327789589659
 30
0.0
 10
-5.261706579864887
 20
-1.815197213431283
 30
0.0
 10
-5.260329582370967
 20
-1.805094347570057
 30
0.0
 10
-5.258952584877047
 20
-1.799999999999994
 30
0.0
 10
-5.257575587383128
 20
-1.799999999999993
 30
0.0
  0
LINE
  5
6658
330
664A
100
AcDbEntity
  8
0
100
AcDbLine
 10
-6.0
 20
-38.8
 30
0.0
 11
-5.292835849723771
 21
-2.699999999999995
 31
0.0
  0
LINE
  5
6659
330
664A
100
AcDbEntity
  8
0
100
AcDbLine
 10
22.6
 20
-1.799999999999772
 30
0.0
 11
22.6
 21
-2.699999999999995
 31
0.0
  0
LINE
  5
665A
330
664A
100
AcDbEntity
  8
0
100
AcDbLine
 10
23.5
 20
-2.699999999999999
 30
0.0
 11
22.6
 21
-2.699999999999996
 31
0.0
  0
LINE
  5
665B
330
664A
100
AcDbEntity
  8
0
100
AcDbLine
 10
23.5
 20
-2.699999999999996
 30
0.0
 11
23.5
 21
-1.799999999999993
 31
0.0
  0
LINE
  5
665C
330
664A
100
AcDbEntity
  8
0
100
AcDbLine
 10
18.5
 20
-1.799999999999993
 30
0.0
 11
18.5
 21
-2.699999999999993
 31
0.0
  0
LINE
  5
665D
330
664A
100
AcDbEntity
  8
0
100
AcDbLine
 10
19.4
 20
-2.700000000000003
 30
0.0
 11
18.5
 21
-2.700000000000004
 31
0.0
  0
LINE
  5
665E
330
664A
100
AcDbEntity
  8
0
100
AcDbLine
 10
19.4
 20
-2.699999999999993
 30
0.0
 11
19.4
 21
-1.799999999999772
 31
0.0
  0
LINE
  5
665F
330
664A
100
AcDbEntity
  8
0
100
AcDbLine
 10
22.6
 20
-2.699999999999994
 30
0.0
 11
22.6
 21
-6.300000000000003
 31
0.0
  0
LINE
  5
6660
330
664A
100
AcDbEntity
  8
0
100
AcDbLine
 10
23.5
 20
-6.300000000000003
 30
0.0
 11
22.6
 21
-6.300000000000003
 31
0.0
  0
LINE
  5
6661
330
664A
100
AcDbEntity
  8
0
100
AcDbLine
 10
23.5
 20
-6.300000000000003
 30
0.0
 11
23.5
 21
-2.699999999999997
 31
0.0
  0
ARC
  5
6662
330
664A
100
AcDbEntity
  8
0
100
AcDbCircle
 10
21.0
 20
-6.300000000000003
 30
0.0
 40
2.499999999999995
100
AcDbArc
 50
180.0
 51
0.0
  0
LINE
  5
6663
330
664A
100
AcDbEntity
  8
0
100
AcDbLine
 10
18.5
 20
-2.699999999999997
 30
0.0
 11
18.50000000000001
 21
-6.300000000000002
 31
0.0
  0
LINE
  5
6664
330
664A
100
AcDbEntity
  8
0
100
AcDbLine
 10
18.5
 20
-6.300000000000002
 30
0.0
 11
19.4
 21
-6.300000000000002
 31
0.0
  0
LINE
  5
6665
330
664A
100
AcDbEntity
  8
0
100
AcDbLine
 10
19.4
 20
-6.300000000000002
 30
0.0
 11
19.4
 21
-2.699999999999993
 31
0.0
  0
ARC
  5
6666
330
664A
100
AcDbEntity
  8
0
100
AcDbCircle
 10
21.0
 20
-6.300000000000003
 30
0.0
 40
1.599999999999995
100
AcDbArc
 50
180.0
 51
0.0
  0
LINE
  5
6667
330
664A
100
AcDbEntity
  8
0
100
AcDbLine
 10
19.4
 20
-2.699999999999993
 30
0.0
 11
22.6
 21
-2.699999999999994
 31
0.0
  0
LINE
  5
6668
330
664A
100
AcDbEntity
  8
0
100
AcDbLine
 10
-22.6
 20
-2.699999999999999
 30
0.0
 11
-22.6
 21
-1.799999999999772
 31
0.0
  0
LINE
  5
6669
330
664A
100
AcDbEntity
  8
0
100
AcDbLine
 10
-22.6
 20
-2.699999999999999
 30
0.0
 11
-19.4
 21
-2.699999999999999
 31
0.0
  0
LINE
  5
666A
330
664A
100
AcDbEntity
  8
0
100
AcDbLine
 10
-19.4
 20
-1.799999999999772
 30
0.0
 11
-19.4
 21
-2.699999999999999
 31
0.0
  0
LINE
  5
666B
330
664A
100
AcDbEntity
  8
0
100
AcDbLine
 10
-22.6
 20
-6.300000000000006
 30
0.0
 11
-22.6
 21
-2.699999999999999
 31
0.0
  0
ARC
  5
666C
330
664A
100
AcDbEntity
  8
0
100
AcDbCircle
 10
-21.0
 20
-6.300000000000006
 30
0.0
 40
1.599999999999995
100
AcDbArc
 50
180.0
 51
0.0
  0
LINE
  5
666D
330
664A
100
AcDbEntity
  8
0
100
AcDbLine
 10
-19.4
 20
-2.699999999999999
 30
0.0
 11
-19.4
 21
-6.300000000000006
 31
0.0
  0
LINE
  5
666E
330
664A
100
AcDbEntity
  8
0
100
AcDbLine
 10
-18.5
 20
-2.699999999999996
 30
0.0
 11
-18.5
 21
-1.799999999999993
 31
0.0
  0
LINE
  5
666F
330
664A
100
AcDbEntity
  8
0
100
AcDbLine
 10
-18.5
 20
-6.300000000000003
 30
0.0
 11
-18.5
 21
-2.699999999999996
 31
0.0
  0
ARC
  5
6670
330
664A
100
AcDbEntity
  8
0
100
AcDbCircle
 10
-21.0
 20
-6.300000000000003
 30
0.0
 40
2.499999999999995
100
AcDbArc
 50
180.0
 51
0.0
  0
LINE
  5
6671
330
664A
100
AcDbEntity
  8
0
100
AcDbLine
 10
-23.5
 20
-2.699999999999996
 30
0.0
 11
-23.5
 21
-6.300000000000002
 31
0.0
  0
LINE
  5
6672
330
664A
100
AcDbEntity
  8
0
100
AcDbLine
 10
-22.6
 20
-2.699999999999999
 30
0.0
 11
-23.5
 21
-2.699999999999996
 31
0.0
  0
LINE
  5
6673
330
664A
100
AcDbEntity
  8
0
100
AcDbLine
 10
-23.5
 20
-1.799999999999993
 30
0.0
 11
-23.5
 21
-2.699999999999993
 31
0.0
  0
LINE
  5
6674
330
664A
100
AcDbEntity
  8
0
100
AcDbLine
 10
-18.5
 20
-2.699999999999996
 30
0.0
 11
-19.4
 21
-2.699999999999999
 31
0.0
  0
LINE
  5
6675
330
664A
100
AcDbEntity
  8
0
100
AcDbLine
 10
-18.5
 20
-6.300000000000004
 30
0.0
 11
-19.4
 21
-6.300000000000006
 31
0.0
  0
LINE
  5
6676
330
664A
100
AcDbEntity
  8
0
100
AcDbLine
 10
-23.5
 20
-6.300000000000002
 30
0.0
 11
-22.6
 21
-6.300000000000006
 31
0.0
  0
LINE
  5
6677
330
664A
100
AcDbEntity
  8
0
100
AcDbLine
 10
-18.5
 20
-2.699999999999996
 30
0.0
 11
-5.292835849723771
 21
-2.699999999999996
 31
0.0
  0
LINE
  5
6678
330
664A
100
AcDbEntity
  8
0
100
AcDbLine
 10
5.292835849723765
 20
-2.699999999999997
 30
0.0
 11
18.5
 21
-2.699999999999997
 31
0.0
  0
LINE
  5
6679
330
664A
100
AcDbEntity
  8
0
100
AcDbLine
 10
-26.0
 20
-2.699999999999996
 30
0.0
 11
-23.5
 21
-2.699999999999996
 31
0.0
  0
LINE
  5
667A
330
664A
100
AcDbEntity
  8
0
100
AcDbLine
 10
23.5
 20
-2.699999999999997
 30
0.0
 11
26.0
 21
-2.699999999999997
 31
0.0
  0
LINE
  5
667B
330
664A
100
AcDbEntity
  8
0
100
AcDbLine
 10
-26.0
 20
-2.699999999999996
 30
0.0
 11
-26.0
 21
-1.79999999999999
 31
0.0
  0
LINE
  5
667C
330
664A
100
AcDbEntity
  8
0
100
AcDbLine
 10
-26.0
 20
-1.799999999999769
 30
0.0
 11
26.0
 21
-1.799999999999774
 31
0.0
  0
LINE
  5
667D
330
664A
100
AcDbEntity
  8
0
100
AcDbLine
 10
-26.0
 20
0.0
 30
0.0
 11
26.0
 21
0.0
 31
0.0
  0
LINE
  5
667E
330
664A
100
AcDbEntity
  8
0
100
AcDbLine
 10
26.0
 20
-1.799999999999771
 30
0.0
 11
26.0
 21
0.0
 31
0.0
  0
LINE
  5
667F
330
664A
100
AcDbEntity
  8
0
100
AcDbLine
 10
-26.0
 20
0.0
 30
0.0
 11
-26.0
 21
-1.799999999999769
 31
0.0
  0
LINE
  5
6680
330
664A
100
AcDbEntity
  8
0
100
AcDbLine
 10
26.0
 20
-1.799999999999994
 30
0.0
 11
26.0
 21
-2.699999999999997
 31
0.0
  0
LINE
  5
6681
330
664A
100
AcDbEntity
  8
0
100
AcDbLine
 10
-26.0
 20
-38.8
 30
0.0
 11
-26.0
 21
-2.699999999999995
 31
0.0
  0
LINE
  5
6682
330
664A
100
AcDbEntity
  8
0
100
AcDbLine
 10
-6.0
 20
-38.8
 30
0.0
 11
-26.0
 21
-38.8
 31
0.0
  0
LINE
  5
6683
330
664A
100
AcDbEntity
  8
0
100
AcDbLine
 10
26.0
 20
-38.8
 30
0.0
 11
6.0
 21
-38.8
 31
0.0
  0
LINE
  5
6684
330
664A
100
AcDbEntity
  8
0
100
AcDbLine
 10
26.0
 20
-2.699999999999997
 30
0.0
 11
26.0
 21
-38.8
 31
0.0
  0
LINE
  5
6685
330
664A
100
AcDbEntity
  8
0
100
AcDbLine
 10
-26.0
 20
0.0
 30
0.0
 11
-26.0
 21
7.000000000000234
 31
0.0
  0
LINE
  5
6686
330
664A
100
AcDbEntity
  8
0
100
AcDbLine
 10
26.0
 20
30.10000000000024
 30
0.0
 11
26.0
 21
0.0
 31
0.0
  0
LINE
  5
6687
330
664A
100
AcDbEntity
  8
0
100
AcDbLine
 10
21.0
 20
30.10000000000024
 30
0.0
 11
26.0
 21
30.10000000000024
 31
0.0
  0
ARC
  5
6688
330
664A
100
AcDbEntity
  8
0
100
AcDbCircle
 10
-15.0
 20
-32.80000000000001
 30
0.0
 40
2.0
100
AcDbArc
 50
90.0
 51
270.0
  0
LINE
  5
6689
330
664A
100
AcDbEntity
  8
0
100
AcDbLine
 10
-15.0
 20
-30.8
 30
0.0
 11
-12.99999999999998
 21
-30.8
 31
0.0
  0
ARC
  5
668A
330
664A
100
AcDbEntity
  8
0
100
AcDbCircle
 10
-12.99999999999998
 20
-32.80000000000001
 30
0.0
 40
2.0
100
AcDbArc
 50
270.0
 51
90.0
  0
LINE
  5
668B
330
664A
100
AcDbEntity
  8
0
100
AcDbLine
 10
-12.99999999999998
 20
-34.8
 30
0.0
 11
-15.0
 21
-34.8
 31
0.0
  0
ARC
  5
668C
330
664A
100
AcDbEntity
  8
0
100
AcDbCircle
 10
15.0
 20
-32.80000000000001
 30
0.0
 40
2.0
100
AcDbArc
 50
270.0
 51
90.0
  0
LINE
  5
668D
330
664A
100
AcDbEntity
  8
0
100
AcDbLine
 10
15.0
 20
-34.8
 30
0.0
 11
12.99999999999997
 21
-34.8
 31
0.0
  0
ARC
  5
668E
330
664A
100
AcDbEntity
  8
0
100
AcDbCircle
 10
12.99999999999997
 20
-32.80000000000001
 30
0.0
 40
1.999999999999999
100
AcDbArc
 50
90.0
 51
270.0
  0
LINE
  5
668F
330
664A
100
AcDbEntity
  8
0
100
AcDbLine
 10
12.99999999999997
 20
-30.8
 30
0.0
 11
15.0
 21
-30.8
 31
0.0
  0
LINE
  5
6690
330
664A
100
AcDbEntity
  8
0
100
AcDbLine
 10
15.14183551919429
 20
25.39688431088778
 30
0.0
 11
11.78180373400476
 21
10.21926307426062
 31
0.0
  0
ARC
  5
6691
330
664A
100
AcDbEntity
  8
0
100
AcDbCircle
 10
21.0
 20
24.10000000000025
 30
0.0
 40
6.0
100
AcDbArc
 50
90.0
 51
167.5171494310722
  0
LINE
  5
6692
330
664A
100
AcDbEntity
  8
0
100
AcDbLine
 10
-11.84058889190002
 20
26.35247721720387
 30
0.0
 11
-15.68435933777483
 21
11.49702733935587
 31
0.0
  0
ARC
  5
6693
330
664A
100
AcDbEntity
  8
0
100
AcDbCircle
 10
-7.000000000000006
 20
25.10000000000024
 30
0.0
 40
5.0
100
AcDbArc
 50
14.5068319038826
 51
165.4931680961176
  0
LINE
  5
6694
330
664A
100
AcDbEntity
  8
0
100
AcDbLine
 10
2.059411108099982
 20
10.0475227827966
 30
0.0
 11
-2.159411108099988
 21
26.35247721720389
 31
0.0
  0
ARC
  5
6695
330
664A
100
AcDbEntity
  8
0
100
AcDbCircle
 10
6.899999999999999
 20
11.30000000000023
 30
0.0
 40
5.0
100
AcDbArc
 50
194.5068319038824
 51
347.5171494310722
  0
LINE
  5
6696
330
664A
100
AcDbEntity
  8
0
100
AcDbLine
 10
-21.49306600805486
 20
7.000000000000234
 30
0.0
 11
-26.0
 21
7.000000000000234
 31
0.0
  0
ARC
  5
6697
330
664A
100
AcDbEntity
  8
0
100
AcDbCircle
 10
-21.49306600805486
 20
13.00000000000025
 30
0.0
 40
6.0
100
AcDbArc
 50
270.0
 51
345.4931680961174
  0
ENDBLK
  5
664C
330
664A
100
AcDbEntity
  8
0
100
AcDbBlockEnd
  0
BLOCK
  5
6699
330
6698
100
AcDbEntity
  8
0
100
AcDbBlockBegin
  2
ZS47N-Bottom
 70
     0
 10
0.0
 20
0.0
 30
0.0
  3
ZS47N-Bottom
  1

  0
CIRCLE
  5
669B
330
6698
100
AcDbEntity
  8
0
100
AcDbCircle
 10
21.0
 20
-25.10000000000024
 30
0.0
 40
2.0
  0
CIRCLE
  5
669C
330
6698
100
AcDbEntity
  8
0
100
AcDbCircle
 10
-7.000000000000001
 20
-25.10000000000019
 30
0.0
 40
2.0
  0
ARC
  5
669D
330
6698
100
AcDbEntity
  8
0
100
AcDbCircle
 10
-9.089286286629942
 20
-15.68750000000018
 30
0.0
 40
0.7937499999999976
100
AcDbArc
 50
89.99999999999984
 51
209.9999999999998
  0
LINE
  5
669E
330
6698
100
AcDbEntity
  8
0
100
AcDbLine
 10
-9.08928628662994
 20
-14.89375000000017
 30
0.0
 11
-4.91071371337002
 21
-14.89375000000018
 31
0.0
  0
ARC
  5
669F
330
6698
100
AcDbEntity
  8
0
100
AcDbCircle
 10
-4.910713713370022
 20
-15.68750000000018
 30
0.0
 40
0.7937500000000002
100
AcDbArc
 50
329.9999999999997
 51
89.99999999999992
  0
LINE
  5
66A0
330
6698
100
AcDbEntity
  8
0
100
AcDbLine
 10
-4.223306049116124
 20
-16.08437500000018
 30
0.0
 11
-6.312592335746096
 21
-19.70312500000019
 31
0.0
  0
ARC
  5
66A1
330
6698
100
AcDbEntity
  8
0
100
AcDbCircle
 10
-6.999999999999992
 20
-19.30625000000019
 30
0.0
 40
0.7937500000000002
100
AcDbArc
 50
209.9999999999997
 51
329.9999999999999
  0
LINE
  5
66A2
330
6698
100
AcDbEntity
  8
0
100
AcDbLine
 10
-7.687407664253886
 20
-19.70312500000018
 30
0.0
 11
-9.77669395088384
 21
-16.08437500000017
 31
0.0
  0
ARC
  5
66A3
330
6698
100
AcDbEntity
  8
0
100
AcDbCircle
 10
19.4
 20
0.8999999999999939
 30
0.0
 40
0.9000000000000001
100
AcDbArc
 50
180.0
 51
270.0
  0
LINE
  5
66A4
330
6698
100
AcDbEntity
  8
0
100
AcDbLine
 10
19.4
 20
2.699999999999996
 30
0.0
 11
19.4
 21
0.0
 31
0.0
  0
LINE
  5
66A5
330
6698
100
AcDbEntity
  8
0
100
AcDbLine
 10
18.5
 20
2.699999999999999
 30
0.0
 11
19.4
 21
2.699999999999997
 31
0.0
  0
LINE
  5
66A6
330
6698
100
AcDbEntity
  8
0
100
AcDbLine
 10
18.5
 20
2.699999999999997
 30
0.0
 11
18.5
 21
0.8999999999999936
 31
0.0
  0
LINE
  5
66A7
330
6698
100
AcDbEntity
  8
0
100
AcDbLine
 10
22.6
 20
0.0
 30
0.0
 11
22.6
 21
2.69999999999999
 31
0.0
  0
ARC
  5
66A8
330
6698
100
AcDbEntity
  8
0
100
AcDbCircle
 10
22.6
 20
0.8999999999999939
 30
0.0
 40
0.9000000000000001
100
AcDbArc
 50
270.0
 51
0.0
  0
LINE
  5
66A9
330
6698
100
AcDbEntity
  8
0
100
AcDbLine
 10
23.5
 20
0.8999999999999936
 30
0.0
 11
23.5
 21
2.699999999999996
 31
0.0
  0
LINE
  5
66AA
330
6698
100
AcDbEntity
  8
0
100
AcDbLine
 10
22.6
 20
2.69999999999999
 30
0.0
 11
23.5
 21
2.699999999999993
 31
0.0
  0
LINE
  5
66AB
330
6698
100
AcDbEntity
  8
0
100
AcDbLine
 10
19.4
 20
2.699999999999992
 30
0.0
 11
19.4
 21
6.300000000000003
 31
0.0
  0
LINE
  5
66AC
330
6698
100
AcDbEntity
  8
0
100
AcDbLine
 10
19.4
 20
6.300000000000003
 30
0.0
 11
18.5
 21
6.300000000000003
 31
0.0
  0
LINE
  5
66AD
330
6698
100
AcDbEntity
  8
0
100
AcDbLine
 10
18.5
 20
2.699999999999997
 30
0.0
 11
18.5
 21
6.300000000000002
 31
0.0
  0
LINE
  5
66AE
330
6698
100
AcDbEntity
  8
0
100
AcDbLine
 10
22.6
 20
6.300000000000003
 30
0.0
 11
22.6
 21
2.699999999999991
 31
0.0
  0
ARC
  5
66AF
330
6698
100
AcDbEntity
  8
0
100
AcDbCircle
 10
21.0
 20
6.300000000000003
 30
0.0
 40
1.599999999999995
100
AcDbArc
 50
0.0
 51
180.0
  0
LINE
  5
66B0
330
6698
100
AcDbEntity
  8
0
100
AcDbLine
 10
23.5
 20
6.300000000000003
 30
0.0
 11
23.5
 21
2.699999999999997
 31
0.0
  0
LINE
  5
66B1
330
6698
100
AcDbEntity
  8
0
100
AcDbLine
 10
23.5
 20
6.300000000000003
 30
0.0
 11
22.6
 21
6.300000000000003
 31
0.0
  0
ARC
  5
66B2
330
6698
100
AcDbEntity
  8
0
100
AcDbCircle
 10
21.0
 20
6.300000000000003
 30
0.0
 40
2.499999999999995
100
AcDbArc
 50
0.0
 51
180.0
  0
LINE
  5
66B3
330
6698
100
AcDbEntity
  8
0
100
AcDbLine
 10
22.6
 20
0.0
 30
0.0
 11
19.4
 21
0.0
 31
0.0
  0
LINE
  5
66B4
330
6698
100
AcDbEntity
  8
0
100
AcDbLine
 10
22.6
 20
2.699999999999991
 30
0.0
 11
19.4
 21
2.699999999999992
 31
0.0
  0
LINE
  5
66B5
330
6698
100
AcDbEntity
  8
0
100
AcDbLine
 10
5.257575587383121
 20
0.8999999999999939
 30
0.0
 11
5.257575587383121
 21
1.799999999999994
 31
0.0
  0
SPLINE
  5
66B6
330
6698
100
AcDbEntity
  8
0
100
AcDbSpline
210
0.0
220
0.0
230
1.0
 70
     8
 71
     3
 72
    11
 73
     7
 74
     0
 42
0.000000001
 43
0.0000000001
 40
0.0
 40
0.0
 40
0.0
 40
0.0
 40
1.166126791552482
 40
1.166126791552482
 40
1.166126791552482
 40
1.570796326794869
 40
1.570796326794869
 40
1.570796326794869
 40
1.570796326794869
 10
5.292835849723765
 20
2.700000000000005
 30
0.0
 10
5.284110352579164
 20
2.000323925068515
 30
0.0
 10
5.275384855434563
 20
1.320854370052111
 30
0.0
 10
5.266659358289963
 20
1.045381398675572
 30
0.0
 10
5.26363143465435
 20
0.94978671711408
 30
0.0
 10
5.260603511018735
 20
0.9000000000000019
 30
0.0
 10
5.257575587383121
 20
0.8999999999999939
 30
0.0
  0
SPLINE
  5
66B7
330
6698
100
AcDbEntity
  8
0
100
AcDbSpline
210
0.0
220
0.0
230
1.0
 70
     8
 71
     3
 72
    11
 73
     7
 74
     0
 42
0.000000001
 43
0.0000000001
 40
0.0
 40
0.0
 40
0.0
 40
0.0
 40
1.386766277509507
 40
1.386766277509507
 40
1.386766277509507
 40
1.570796326794869
 40
1.570796326794869
 40
1.570796326794869
 40
1.570796326794869
 10
5.257575587383121
 20
1.799999999999993
 30
0.0
 10
5.267952010669416
 20
1.799999999999997
 30
0.0
 10
5.278328433955712
 20
2.12630136842638
 30
0.0
 10
5.288704857242007
 20
2.535306257313025
 30
0.0
 10
5.290081854735926
 20
2.589583024119714
 30
0.0
 10
5.291458852229845
 20
2.644790985214368
 30
0.0
 10
5.292835849723765
 20
2.699999999999977
 30
0.0
  0
LINE
  5
66B8
330
6698
100
AcDbEntity
  8
0
100
AcDbLine
 10
6.0
 20
38.8
 30
0.0
 11
5.292835849723765
 21
2.699999999999995
 31
0.0
  0
LINE
  5
66B9
330
6698
100
AcDbEntity
  8
0
100
AcDbLine
 10
-5.257575587383128
 20
1.799999999999994
 30
0.0
 11
-5.257575587383128
 21
0.8999999999999939
 31
0.0
  0
SPLINE
  5
66BA
330
6698
100
AcDbEntity
  8
0
100
AcDbSpline
210
0.0
220
0.0
230
1.0
 70
     8
 71
     3
 72
    11
 73
     7
 74
     0
 42
0.000000001
 43
0.0000000001
 40
0.0
 40
0.0
 40
0.0
 40
0.0
 40
1.386766277509507
 40
1.386766277509507
 40
1.386766277509507
 40
1.570796326794883
 40
1.570796326794883
 40
1.570796326794883
 40
1.570796326794883
 10
-5.292835849723771
 20
2.699999999999996
 30
0.0
 10
-5.282459426437476
 20
2.283970116747143
 30
0.0
 10
-5.272083003151182
 20
1.891327789589659
 30
0.0
 10
-5.261706579864887
 20
1.815197213431283
 30
0.0
 10
-5.260329582370967
 20
1.805094347570057
 30
0.0
 10
-5.258952584877047
 20
1.799999999999994
 30
0.0
 10
-5.257575587383128
 20
1.799999999999993
 30
0.0
  0
SPLINE
  5
66BB
330
6698
100
AcDbEntity
  8
0
100
AcDbSpline
210
0.0
220
0.0
230
1.0
 70
     8
 71
     3
 72
    11
 73
     7
 74
     0
 42
0.000000001
 43
0.0000000001
 40
0.0
 40
0.0
 40
0.0
 40
0.0
 40
1.166126791552483
 40
1.166126791552483
 40
1.166126791552483
 40
1.570796326794883
 40
1.570796326794883
 40
1.570796326794883
 40
1.570796326794883
 10
-5.257575587383128
 20
0.8999999999999936
 30
0.0
 10
-5.266301084527729
 20
0.8999999999999953
 30
0.0
 10
-5.275026581672329
 20
1.348147958825679
 30
0.0
 10
-5.283752078816929
 20
1.991312985760851
 30
0.0
 10
-5.286780002452543
 20
2.214504232561313
 30
0.0
 10
-5.289807926088157
 20
2.457198278854535
 30
0.0
 10
-5.292835849723771
 20
2.699999999999976
 30
0.0
  0
LINE
  5
66BC
330
6698
100
AcDbEntity
  8
0
100
AcDbLine
 10
-5.292835849723771
 20
2.699999999999999
 30
0.0
 11
-6.0
 21
38.80000000000001
 31
0.0
  0
LINE
  5
66BD
330
6698
100
AcDbEntity
  8
0
100
AcDbLine
 10
4.999040950308777
 20
1.799999999999933
 30
0.0
 11
5.257575587383121
 21
1.799999999999994
 31
0.0
  0
LINE
  5
66BE
330
6698
100
AcDbEntity
  8
0
100
AcDbLine
 10
4.999040950308777
 20
1.799999999999933
 30
0.0
 11
4.999040950308777
 21
0.8999999999999335
 31
0.0
  0
LINE
  5
66BF
330
6698
100
AcDbEntity
  8
0
100
AcDbLine
 10
5.257575587383121
 20
0.8999999999999939
 30
0.0
 11
4.999040950308777
 21
0.8999999999999335
 31
0.0
  0
LINE
  5
66C0
330
6698
100
AcDbEntity
  8
0
100
AcDbLine
 10
-4.999040950308788
 20
1.799999999999934
 30
0.0
 11
4.999040950308771
 21
1.799999999999934
 31
0.0
  0
LINE
  5
66C1
330
6698
100
AcDbEntity
  8
0
100
AcDbLine
 10
-4.999040950308786
 20
1.799999999999933
 30
0.0
 11
-4.999040950308786
 21
0.8999999999999335
 31
0.0
  0
LINE
  5
66C2
330
6698
100
AcDbEntity
  8
0
100
AcDbLine
 10
4.999040950308771
 20
0.899999999999934
 30
0.0
 11
-4.999040950308788
 21
0.899999999999934
 31
0.0
  0
LINE
  5
66C3
330
6698
100
AcDbEntity
  8
0
100
AcDbLine
 10
-4.999040950308786
 20
0.8999999999999335
 30
0.0
 11
-5.257575587383128
 21
0.8999999999999939
 31
0.0
  0
LINE
  5
66C4
330
6698
100
AcDbEntity
  8
0
100
AcDbLine
 10
-5.257575587383128
 20
1.799999999999994
 30
0.0
 11
-4.999040950308786
 21
1.799999999999933
 31
0.0
  0
ARC
  5
66C5
330
6698
100
AcDbEntity
  8
0
100
AcDbCircle
 10
-19.4
 20
0.8999999999999936
 30
0.0
 40
0.9
100
AcDbArc
 50
270.0
 51
0.0
  0
ARC
  5
66C6
330
6698
100
AcDbEntity
  8
0
100
AcDbCircle
 10
-22.6
 20
0.8999999999999936
 30
0.0
 40
0.9
100
AcDbArc
 50
180.0
 51
270.0
  0
LINE
  5
66C7
330
6698
100
AcDbEntity
  8
0
100
AcDbLine
 10
-22.6
 20
2.699999999999997
 30
0.0
 11
-22.6
 21
0.0
 31
0.0
  0
LINE
  5
66C8
330
6698
100
AcDbEntity
  8
0
100
AcDbLine
 10
-23.5
 20
2.699999999999995
 30
0.0
 11
-22.6
 21
2.699999999999997
 31
0.0
  0
LINE
  5
66C9
330
6698
100
AcDbEntity
  8
0
100
AcDbLine
 10
-23.5
 20
2.699999999999999
 30
0.0
 11
-23.5
 21
0.8999999999999936
 31
0.0
  0
LINE
  5
66CA
330
6698
100
AcDbEntity
  8
0
100
AcDbLine
 10
-19.4
 20
0.0
 30
0.0
 11
-22.6
 21
0.0
 31
0.0
  0
LINE
  5
66CB
330
6698
100
AcDbEntity
  8
0
100
AcDbLine
 10
-18.50000000000001
 20
0.8999999999999939
 30
0.0
 11
-18.50000000000001
 21
2.699999999999999
 31
0.0
  0
LINE
  5
66CC
330
6698
100
AcDbEntity
  8
0
100
AcDbLine
 10
-19.4
 20
2.700000000000001
 30
0.0
 11
-18.50000000000001
 21
2.699999999999999
 31
0.0
  0
LINE
  5
66CD
330
6698
100
AcDbEntity
  8
0
100
AcDbLine
 10
-19.4
 20
0.0
 30
0.0
 11
-19.4
 21
2.700000000000001
 31
0.0
  0
LINE
  5
66CE
330
6698
100
AcDbEntity
  8
0
100
AcDbLine
 10
-22.6
 20
2.700000000000002
 30
0.0
 11
-22.6
 21
6.300000000000007
 31
0.0
  0
LINE
  5
66CF
330
6698
100
AcDbEntity
  8
0
100
AcDbLine
 10
-22.6
 20
6.300000000000007
 30
0.0
 11
-23.5
 21
6.300000000000004
 31
0.0
  0
LINE
  5
66D0
330
6698
100
AcDbEntity
  8
0
100
AcDbLine
 10
-23.5
 20
2.699999999999999
 30
0.0
 11
-23.5
 21
6.300000000000006
 31
0.0
  0
LINE
  5
66D1
330
6698
100
AcDbEntity
  8
0
100
AcDbLine
 10
-19.4
 20
2.700000000000002
 30
0.0
 11
-22.6
 21
2.700000000000002
 31
0.0
  0
ARC
  5
66D2
330
6698
100
AcDbEntity
  8
0
100
AcDbCircle
 10
-21.0
 20
6.300000000000006
 30
0.0
 40
2.499999999999995
100
AcDbArc
 50
0.0
 51
180.0
  0
LINE
  5
66D3
330
6698
100
AcDbEntity
  8
0
100
AcDbLine
 10
-18.50000000000001
 20
6.300000000000006
 30
0.0
 11
-18.50000000000001
 21
2.699999999999999
 31
0.0
  0
LINE
  5
66D4
330
6698
100
AcDbEntity
  8
0
100
AcDbLine
 10
-18.50000000000001
 20
6.300000000000006
 30
0.0
 11
-19.4
 21
6.300000000000008
 31
0.0
  0
ARC
  5
66D5
330
6698
100
AcDbEntity
  8
0
100
AcDbCircle
 10
-21.0
 20
6.300000000000008
 30
0.0
 40
1.599999999999995
100
AcDbArc
 50
0.0
 51
180.0
  0
LINE
  5
66D6
330
6698
100
AcDbEntity
  8
0
100
AcDbLine
 10
-19.4
 20
6.300000000000008
 30
0.0
 11
-19.4
 21
2.700000000000002
 31
0.0
  0
LINE
  5
66D7
330
6698
100
AcDbEntity
  8
0
100
AcDbLine
 10
-5.257575587383128
 20
0.8999999999999939
 30
0.0
 11
-18.50000000000001
 21
0.8999999999999939
 31
0.0
  0
LINE
  5
66D8
330
6698
100
AcDbEntity
  8
0
100
AcDbLine
 10
-23.5
 20
0.8999999999999939
 30
0.0
 11
-26.0
 21
0.8999999999999948
 31
0.0
  0
LINE
  5
66D9
330
6698
100
AcDbEntity
  8
0
100
AcDbLine
 10
26.0
 20
0.8999999999999948
 30
0.0
 11
23.5
 21
0.8999999999999939
 31
0.0
  0
LINE
  5
66DA
330
6698
100
AcDbEntity
  8
0
100
AcDbLine
 10
18.5
 20
0.8999999999999939
 30
0.0
 11
5.25757558738312
 21
0.8999999999999939
 31
0.0
  0
LINE
  5
66DB
330
6698
100
AcDbEntity
  8
0
100
AcDbLine
 10
-5.292835849723771
 20
2.699999999999999
 30
0.0
 11
-18.50000000000001
 21
2.699999999999999
 31
0.0
  0
LINE
  5
66DC
330
6698
100
AcDbEntity
  8
0
100
AcDbLine
 10
-23.5
 20
2.699999999999999
 30
0.0
 11
-26.0
 21
2.699999999999999
 31
0.0
  0
LINE
  5
66DD
330
6698
100
AcDbEntity
  8
0
100
AcDbLine
 10
-26.0
 20
0.8999999999999946
 30
0.0
 11
-26.0
 21
2.699999999999999
 31
0.0
  0
LINE
  5
66DE
330
6698
100
AcDbEntity
  8
0
100
AcDbLine
 10
18.5
 20
2.699999999999997
 30
0.0
 11
5.292835849723765
 21
2.699999999999997
 31
0.0
  0
LINE
  5
66DF
330
6698
100
AcDbEntity
  8
0
100
AcDbLine
 10
26.0
 20
2.699999999999997
 30
0.0
 11
23.5
 21
2.699999999999997
 31
0.0
  0
LINE
  5
66E0
330
6698
100
AcDbEntity
  8
0
100
AcDbLine
 10
26.0
 20
0.8999999999999946
 30
0.0
 11
26.0
 21
2.699999999999996
 31
0.0
  0
LINE
  5
66E1
330
6698
100
AcDbEntity
  8
0
100
AcDbLine
 10
26.0
 20
0.0
 30
0.0
 11
22.6
 21
0.0
 31
0.0
  0
LINE
  5
66E2
330
6698
100
AcDbEntity
  8
0
100
AcDbLine
 10
19.4
 20
0.0
 30
0.0
 11
-19.40000000000001
 21
0.0
 31
0.0
  0
LINE
  5
66E3
330
6698
100
AcDbEntity
  8
0
100
AcDbLine
 10
-22.6
 20
0.0
 30
0.0
 11
-26.0
 21
0.0
 31
0.0
  0
LINE
  5
66E4
330
6698
100
AcDbEntity
  8
0
100
AcDbLine
 10
26.0
 20
0.8999999999997736
 30
0.0
 11
26.0
 21
0.0
 31
0.0
  0
LINE
  5
66E5
330
6698
100
AcDbEntity
  8
0
100
AcDbLine
 10
-26.0
 20
0.8999999999997738
 30
0.0
 11
-26.0
 21
0.0
 31
0.0
  0
LINE
  5
66E6
330
6698
100
AcDbEntity
  8
0
100
AcDbLine
 10
-26.0
 20
38.80000000000001
 30
0.0
 11
-6.0
 21
38.80000000000001
 31
0.0
  0
LINE
  5
66E7
330
6698
100
AcDbEntity
  8
0
100
AcDbLine
 10
6.0
 20
38.8
 30
0.0
 11
26.0
 21
38.8
 31
0.0
  0
LINE
  5
66E8
330
6698
100
AcDbEntity
  8
0
100
AcDbLine
 10
-26.0
 20
38.80000000000001
 30
0.0
 11
-26.0
 21
2.699999999999995
 31
0.0
  0
LINE
  5
66E9
330
6698
100
AcDbEntity
  8
0
100
AcDbLine
 10
26.0
 20
38.8
 30
0.0
 11
26.0
 21
2.699999999999995
 31
0.0
  0
LINE
  5
66EA
330
6698
100
AcDbEntity
  8
0
100
AcDbLine
 10
-26.0
 20
0.0
 30
0.0
 11
-26.0
 21
-7.000000000000254
 31
0.0
  0
LINE
  5
66EB
330
6698
100
AcDbEntity
  8
0
100
AcDbLine
 10
26.0
 20
0.0
 30
0.0
 11
26.0
 21
-30.10000000000026
 31
0.0
  0
LINE
  5
66EC
330
6698
100
AcDbEntity
  8
0
100
AcDbLine
 10
21.0
 20
-30.10000000000026
 30
0.0
 11
26.0
 21
-30.10000000000026
 31
0.0
  0
ARC
  5
66ED
330
6698
100
AcDbEntity
  8
0
100
AcDbCircle
 10
-15.0
 20
32.80000000000001
 30
0.0
 40
2.0
100
AcDbArc
 50
90.0
 51
270.0
  0
LINE
  5
66EE
330
6698
100
AcDbEntity
  8
0
100
AcDbLine
 10
-15.0
 20
34.80000000000001
 30
0.0
 11
-12.99999999999998
 21
34.8
 31
0.0
  0
ARC
  5
66EF
330
6698
100
AcDbEntity
  8
0
100
AcDbCircle
 10
-12.99999999999998
 20
32.80000000000001
 30
0.0
 40
2.0
100
AcDbArc
 50
270.0
 51
90.0
  0
LINE
  5
66F0
330
6698
100
AcDbEntity
  8
0
100
AcDbLine
 10
-12.99999999999998
 20
30.8
 30
0.0
 11
-15.0
 21
30.80000000000001
 31
0.0
  0
ARC
  5
66F1
330
6698
100
AcDbEntity
  8
0
100
AcDbCircle
 10
15.0
 20
32.80000000000001
 30
0.0
 40
2.0
100
AcDbArc
 50
270.0
 51
90.0
  0
LINE
  5
66F2
330
6698
100
AcDbEntity
  8
0
100
AcDbLine
 10
15.0
 20
30.8
 30
0.0
 11
12.99999999999997
 21
30.8
 31
0.0
  0
ARC
  5
66F3
330
6698
100
AcDbEntity
  8
0
100
AcDbCircle
 10
12.99999999999997
 20
32.80000000000001
 30
0.0
 40
1.999999999999999
100
AcDbArc
 50
90.0
 51
270.0
  0
LINE
  5
66F4
330
6698
100
AcDbEntity
  8
0
100
AcDbLine
 10
12.99999999999997
 20
34.8
 30
0.0
 11
15.0
 21
34.8
 31
0.0
  0
LINE
  5
66F5
330
6698
100
AcDbEntity
  8
0
100
AcDbLine
 10
11.78180373400476
 20
-10.21926307426062
 30
0.0
 11
15.14183551919429
 21
-25.3968843108878
 31
0.0
  0
ARC
  5
66F6
330
6698
100
AcDbEntity
  8
0
100
AcDbCircle
 10
21.0
 20
-24.10000000000025
 30
0.0
 40
6.0
100
AcDbArc
 50
192.4828505689279
 51
269.9999999999999
  0
LINE
  5
66F7
330
6698
100
AcDbEntity
  8
0
100
AcDbLine
 10
-15.68435933777483
 20
-11.49702733935589
 30
0.0
 11
-11.84058889190002
 21
-26.35247721720389
 31
0.0
  0
ARC
  5
66F8
330
6698
100
AcDbEntity
  8
0
100
AcDbCircle
 10
-7.000000000000006
 20
-25.10000000000026
 30
0.0
 40
5.0
100
AcDbArc
 50
194.5068319038823
 51
345.4931680961176
  0
LINE
  5
66F9
330
6698
100
AcDbEntity
  8
0
100
AcDbLine
 10
-2.159411108099988
 20
-26.35247721720389
 30
0.0
 11
2.059411108099982
 21
-10.0475227827966
 31
0.0
  0
ARC
  5
66FA
330
6698
100
AcDbEntity
  8
0
100
AcDbCircle
 10
6.899999999999999
 20
-11.30000000000025
 30
0.0
 40
5.0
100
AcDbArc
 50
12.48285056892803
 51
165.4931680961174
  0
LINE
  5
66FB
330
6698
100
AcDbEntity
  8
0
100
AcDbLine
 10
-26.0
 20
-7.000000000000254
 30
0.0
 11
-21.49306600805486
 21
-7.000000000000254
 31
0.0
  0
ARC
  5
66FC
330
6698
100
AcDbEntity
  8
0
100
AcDbCircle
 10
-21.49306600805486
 20
-13.00000000000025
 30
0.0
 40
6.0
100
AcDbArc
 50
14.5068319038824
 51
90.0
  0
ENDBLK
  5
669A
330
6698
100
AcDbEntity
  8
0
100
AcDbBlockEnd
  0
BLOCK
  5
66FE
330
66FD
100
AcDbEntity
  8
0
100
AcDbBlockBegin
  2
ZS47N-ISO
 70
     0
 10
0.0
 20
0.0
 30
0.0
  3
ZS47N-ISO
  1

  0
LINE
  5
6700
330
66FD
100
AcDbEntity
  8
0
100
AcDbLine
 10
1.746388097821177
 20
10.99600569428322
 30
0.0
 11
0.4760992731439667
 21
9.188829639804767
 31
0.0
  0
LINE
  5
6701
330
66FD
100
AcDbEntity
  8
0
100
AcDbLine
 10
1.317051671192191
 20
10.92315562581324
 30
0.0
 11
1.522489288242314
 21
11.0417650893188
 31
0.0
  0
LINE
  5
6702
330
66FD
100
AcDbEntity
  8
0
100
AcDbLine
 10
-0.1602968299239266
 20
8.821406178387295
 30
0.0
 11
1.317051671192191
 21
10.92315562581324
 31
0.0
  0
LINE
  5
6703
330
66FD
100
AcDbEntity
  8
0
100
AcDbLine
 10
-0.1602968299239266
 20
8.821406178387295
 30
0.0
 11
0.4760992731439667
 21
9.188829639804767
 31
0.0
  0
ELLIPSE
  5
6704
330
66FD
100
AcDbEntity
  8
0
100
AcDbEllipse
 10
0.9621698939774979
 20
8.584149555465668
 30
0.0
 11
-0.3968749999999975
 21
0.6874076642538994
 31
0.0
210
0.0
220
0.0
230
1.0
 40
0.5773502691896285
 41
0.2617993877991498
 42
2.356194490192346
  0
ELLIPSE
  5
6705
330
66FD
100
AcDbEntity
  8
0
100
AcDbEllipse
 10
0.3257737909096053
 20
8.216726094048196
 30
0.0
 11
-0.3968749999999566
 21
0.6874076642539232
 31
0.0
210
0.0
220
0.0
230
0.9999999999999998
 40
0.5773502691896285
 41
0.2617993877995097
 42
2.356194490192585
  0
LINE
  5
6706
330
66FD
100
AcDbEntity
  8
0
100
AcDbLine
 10
0.3257737909096037
 20
7.568631932936808
 30
0.0
 11
0.9621698939774963
 21
7.936055394354283
 31
0.0
  0
LINE
  5
6707
330
66FD
100
AcDbEntity
  8
0
100
AcDbLine
 10
0.9621698939774963
 20
7.936055394354283
 30
0.0
 11
3.836685679673996
 21
6.276452931692578
 31
0.0
  0
LINE
  5
6708
330
66FD
100
AcDbEntity
  8
0
100
AcDbLine
 10
3.280470793141819
 20
5.862736823324259
 30
0.0
 11
0.3257737909096037
 21
7.568631932936808
 31
0.0
  0
LINE
  5
6709
330
66FD
100
AcDbEntity
  8
0
100
AcDbLine
 10
3.280470793141819
 20
5.862736823324259
 30
0.0
 11
3.841736800708643
 21
6.186783903879948
 31
0.0
  0
ELLIPSE
  5
670A
330
66FD
100
AcDbEntity
  8
0
100
AcDbEllipse
 10
3.280470793141821
 20
6.510830984435642
 30
0.0
 11
0.3968749999999972
 21
-0.6874076642538995
 31
0.0
210
0.0
220
0.0
230
0.9999999999999998
 40
0.5773502691896283
 41
5.49778714378214
 42
7.592182246175331
  0
LINE
  5
670B
330
66FD
100
AcDbEntity
  8
0
100
AcDbLine
 10
2.289192912859266
 20
10.36188961824642
 30
0.0
 11
3.766541413975357
 21
6.554245061207922
 31
0.0
  0
ELLIPSE
  5
670C
330
66FD
100
AcDbEntity
  8
0
100
AcDbEllipse
 10
1.803122292025726
 20
10.31847554147413
 30
0.0
 11
-0.3968749999999975
 21
0.6874076642539002
 31
0.0
210
0.0
220
0.0
230
0.9999999999999998
 40
0.5773502691896283
 41
4.450589592585545
 42
6.544984694978735
  0
ELLIPSE
  5
670D
330
66FD
100
AcDbEntity
  8
0
100
AcDbEllipse
 10
35.67353711086141
 20
23.00479116763864
 30
0.0
 11
2.0
 21
-0.0000000000000099
 31
0.0
210
0.0
220
0.0
230
1.0
 40
0.5773502691896222
 41
0.323828138575289
 42
2.817764515014502
  0
ELLIPSE
  5
670E
330
66FD
100
AcDbEntity
  8
0
100
AcDbEllipse
 10
35.67353711086141
 20
23.73963809047359
 30
0.0
 11
2.0
 21
-0.0000000000001295
 31
0.0
210
0.0
220
0.0
230
1.0
 40
0.5773502691896225
 41
0.0
 42
6.283185307179586
  0
ELLIPSE
  5
670F
330
66FD
100
AcDbEntity
  8
0
100
AcDbEllipse
 10
15.87454723763804
 20
34.43574330062677
 30
0.0
 11
2.0
 21
-0.0000000000000099
 31
0.0
210
0.0
220
0.0
230
1.0
 40
0.5773502691896225
 41
0.3238281385752884
 42
2.817764515014502
  0
ELLIPSE
  5
6710
330
66FD
100
AcDbEntity
  8
0
100
AcDbEllipse
 10
15.87454723763804
 20
35.17059022346173
 30
0.0
 11
2.0
 21
-0.0000000000001295
 31
0.0
210
0.0
220
0.0
230
1.0
 40
0.5773502691896225
 41
0.0
 42
6.283185307179586
  0
ELLIPSE
  5
6711
330
66FD
100
AcDbEntity
  8
0
100
AcDbEllipse
 10
7.741556158603566
 20
32.18090074427692
 30
0.0
 11
-0.7937499999999977
 21
0.0000000000000037
 31
0.0
210
0.0
220
0.0
230
1.0
 40
0.5773502691896223
 41
4.974188368183849
 42
7.068583470577038
  0
ELLIPSE
  5
6712
330
66FD
100
AcDbEntity
  8
0
100
AcDbEllipse
 10
7.741556158603561
 20
31.44605382144197
 30
0.0
 11
-0.7937499999999977
 21
0.0000000000000039
 31
0.0
210
0.0
220
0.0
230
1.0
 40
0.5773502691896227
 41
4.974188368183845
 42
5.363525871857386
  0
LINE
  5
6713
330
66FD
100
AcDbEntity
  8
0
100
AcDbLine
 10
7.536118541553436
 20
32.62355728833815
 30
0.0
 11
7.536118541553435
 21
31.8887103655032
 31
0.0
  0
LINE
  5
6714
330
66FD
100
AcDbEntity
  8
0
100
AcDbLine
 10
10.13498715326896
 20
30.15095855410867
 30
0.0
 11
7.180290151036744
 21
31.85685366372121
 31
0.0
  0
ELLIPSE
  5
6715
330
66FD
100
AcDbEntity
  8
0
100
AcDbEllipse
 10
10.69625316083578
 20
30.47500563466437
 30
0.0
 11
0.7937499999999999
 21
-0.0000000000000033
 31
0.0
210
0.0
220
0.0
230
1.0
 40
0.5773502691896226
 41
3.926990816987238
 42
6.021385919380441
  0
LINE
  5
6716
330
66FD
100
AcDbEntity
  8
0
100
AcDbLine
 10
12.54445094875544
 20
32.68669222708115
 30
0.0
 11
11.46295678545273
 21
30.35639617115879
 31
0.0
  0
ELLIPSE
  5
6717
330
66FD
100
AcDbEntity
  8
0
100
AcDbEllipse
 10
11.77774732413849
 20
32.80530169058675
 30
0.0
 11
0.7937500000000002
 21
-0.0000000000000037
 31
0.0
210
0.0
220
0.0
230
1.0
 40
0.577350269189622
 41
6.021385919380442
 42
8.115781021773637
  0
LINE
  5
6718
330
66FD
100
AcDbEntity
  8
0
100
AcDbLine
 10
11.57230970708836
 20
33.24795823464797
 30
0.0
 11
11.57230970708836
 21
32.51311131181302
 31
0.0
  0
ELLIPSE
  5
6719
330
66FD
100
AcDbEntity
  8
0
100
AcDbEllipse
 10
11.77774732413849
 20
32.07045476775179
 30
0.0
 11
-0.7937500000000003
 21
-0.0000000000000437
 31
0.0
210
0.0
220
0.0
230
1.0
 40
0.5773502691896223
 41
3.825735341508655
 42
4.9741883681837
  0
LINE
  5
671A
330
66FD
100
AcDbEntity
  8
0
100
AcDbLine
 10
7.536118541553436
 20
32.62355728833815
 30
0.0
 11
11.57230970708836
 21
33.24795823464797
 31
0.0
  0
LINE
  5
671B
330
66FD
100
AcDbEntity
  8
0
100
AcDbLine
 10
11.57230970708836
 20
32.51311131181302
 30
0.0
 11
7.536118541553435
 21
31.8887103655032
 31
0.0
  0
SPLINE
  5
671C
330
66FD
100
AcDbEntity
  8
0
100
AcDbSpline
210
0.0
220
0.0
230
1.0
 70
     8
 71
     3
 72
    11
 73
     7
 74
     0
 42
0.000000001
 43
0.0000000001
 40
0.0
 40
0.0
 40
0.0
 40
0.0
 40
1.386766277509507
 40
1.386766277509507
 40
1.386766277509507
 40
1.570796326794869
 40
1.570796326794869
 40
1.570796326794869
 40
1.570796326794869
 10
5.520789642465066
 20
-19.19076237240004
 30
0.0
 10
5.528126881735264
 20
-19.53468550670751
 30
0.0
 10
5.304734210680721
 20
-19.99272475726295
 30
0.0
 10
5.022861319480726
 20
-20.22609681614742
 30
0.0
 10
4.985455533876461
 20
-20.25706632571428
 30
0.0
 10
4.947391294476576
 20
-20.28432655569704
 30
0.0
 10
4.90932631000467
 20
-20.30742769847432
 30
0.0
  0
LINE
  5
671D
330
66FD
100
AcDbEntity
  8
0
100
AcDbLine
 10
-20.11718792475736
 20
-35.3338895396474
 30
0.0
 11
-20.11718792475736
 21
-36.06873646248235
 31
0.0
  0
LINE
  5
671E
330
66FD
100
AcDbEntity
  8
0
100
AcDbLine
 10
4.909326310004656
 20
-20.30742769847433
 30
0.0
 11
-20.11718792475736
 21
-35.3338895396474
 31
0.0
  0
LINE
  5
671F
330
66FD
100
AcDbEntity
  8
0
100
AcDbLine
 10
-1.914545058413841
 20
-14.89796988133263
 30
0.0
 11
-1.278148955345947
 21
-14.53054641991516
 31
0.0
  0
SPLINE
  5
6720
330
66FD
100
AcDbEntity
  8
0
100
AcDbSpline
210
0.0
220
0.0
230
1.0
 70
     8
 71
     3
 72
    11
 73
     7
 74
     0
 42
0.000000001
 43
0.0000000001
 40
0.0
 40
0.0
 40
0.0
 40
0.0
 40
1.386766277509507
 40
1.386766277509507
 40
1.386766277509507
 40
1.570796326794883
 40
1.570796326794883
 40
1.570796326794883
 40
1.570796326794883
 10
-2.57587393208922
 20
-15.98584532376318
 30
0.0
 10
-2.274359141194679
 20
-15.82023799221109
 30
0.0
 10
-1.989381849810555
 20
-15.39775463878087
 30
0.0
 10
-1.928212163883127
 20
-15.03695952492128
 30
0.0
 10
-1.920094674657608
 20
-14.98908040955604
 30
0.0
 10
-1.915518742679468
 20
-14.94248569626861
 30
0.0
 10
-1.91454505841384
 20
-14.89796988133264
 30
0.0
  0
LINE
  5
6721
330
66FD
100
AcDbEntity
  8
0
100
AcDbLine
 10
-2.57587393208922
 20
-15.98584532376318
 30
0.0
 11
-2.575873932089223
 21
-16.72069224659814
 31
0.0
  0
SPLINE
  5
6722
330
66FD
100
AcDbEntity
  8
0
100
AcDbSpline
210
0.0
220
0.0
230
1.0
 70
     8
 71
     3
 72
    11
 73
     7
 74
     0
 42
0.000000001
 43
0.0000000001
 40
0.0
 40
0.0
 40
0.0
 40
0.0
 40
1.166126791552483
 40
1.166126791552483
 40
1.166126791552483
 40
1.570796326794883
 40
1.570796326794883
 40
1.570796326794883
 40
1.570796326794883
 10
-1.278148955345947
 20
-14.53054641991516
 30
0.0
 10
-1.284318813546119
 20
-15.09826737356092
 30
0.0
 10
-1.607377132406841
 20
-15.83244541084902
 30
0.0
 10
-2.0683333425749
 20
-16.31637700355566
 30
0.0
 10
-2.228294452024646
 20
-16.48431103451039
 30
0.0
 10
-2.402046123247842
 20
-16.62280500366671
 30
0.0
 10
-2.575873932089206
 20
-16.72069224659813
 30
0.0
  0
LINE
  5
6723
330
66FD
100
AcDbEntity
  8
0
100
AcDbLine
 10
-28.60246929899594
 20
-30.43491005408097
 30
0.0
 11
-2.575873932089223
 21
-15.98584532376318
 31
0.0
  0
LINE
  5
6724
330
66FD
100
AcDbEntity
  8
0
100
AcDbLine
 10
-28.60246929899594
 20
-31.16975697691592
 30
0.0
 11
-28.60246929899594
 21
-30.43491005408097
 31
0.0
  0
LINE
  5
6725
330
66FD
100
AcDbEntity
  8
0
100
AcDbLine
 10
-2.575873932089223
 20
-16.72069224659814
 30
0.0
 11
-28.60246929899594
 21
-31.16975697691592
 31
0.0
  0
LINE
  5
6726
330
66FD
100
AcDbEntity
  8
0
100
AcDbLine
 10
5.337978047418237
 20
-8.309154279030108
 30
0.0
 11
5.520789642465066
 21
-19.19076237240004
 31
0.0
  0
ELLIPSE
  5
6727
330
66FD
100
AcDbEntity
  8
0
100
AcDbEllipse
 10
1.803122292025651
 20
-6.348260916713099
 30
0.0
 11
-2.499999999999983
 21
4.330127018922203
 31
0.0
210
0.0
220
0.0
230
0.9999999999999998
 40
0.5773502691896285
 41
3.946577346562431
 42
7.048996941001846
  0
LINE
  5
6728
330
66FD
100
AcDbEntity
  8
0
100
AcDbLine
 10
-1.731733463366927
 20
-4.227454435185298
 30
0.0
 11
-1.095337360299034
 21
-3.860030973767822
 31
0.0
  0
ELLIPSE
  5
6729
330
66FD
100
AcDbEntity
  8
0
100
AcDbEllipse
 10
2.439518395093544
 20
-5.980837455295624
 30
0.0
 11
-2.499999999999983
 21
4.330127018922201
 31
0.0
210
0.0
220
0.0
230
1.0
 40
0.5773502691896288
 41
0.1276254041733335
 42
0.7658116338222606
  0
LINE
  5
672A
330
66FD
100
AcDbEntity
  8
0
100
AcDbLine
 10
-1.095337360299034
 20
-3.860030973767822
 30
0.0
 11
-1.278148955345947
 21
-14.53054641991516
 31
0.0
  0
LINE
  5
672B
330
66FD
100
AcDbEntity
  8
0
100
AcDbLine
 10
-1.914545058413841
 20
-14.89796988133263
 30
0.0
 11
-1.731733463366927
 21
-4.227454435185298
 31
0.0
  0
ELLIPSE
  5
672C
330
66FD
100
AcDbEntity
  8
0
100
AcDbEllipse
 10
15.52099384704463
 20
-24.22953603903034
 30
0.0
 11
0.9000000000000001
 21
0.0000000000000537
 31
0.0
210
0.0
220
0.0
230
1.0
 40
0.5773502691896255
 41
3.926990816987002
 42
5.497787143781896
  0
LINE
  5
672D
330
66FD
100
AcDbEntity
  8
0
100
AcDbLine
 10
16.15738995011253
 20
-24.59695950044781
 30
0.0
 11
16.15738995011263
 21
-3.612997370605195
 31
0.0
  0
ELLIPSE
  5
672E
330
66FD
100
AcDbEntity
  8
0
100
AcDbEllipse
 10
15.52099384704473
 20
-3.24557390918772
 30
0.0
 11
-0.9000000000000007
 21
0.0000000000000571
 31
0.0
210
0.0
220
0.0
230
1.0
 40
0.577350269189623
 41
0.7853981633976917
 42
2.356194490192587
  0
LINE
  5
672F
330
66FD
100
AcDbEntity
  8
0
100
AcDbLine
 10
14.88459774397684
 20
-3.612997370605195
 30
0.0
 11
14.88459774397674
 21
-24.59695950044781
 31
0.0
  0
ELLIPSE
  5
6730
330
66FD
100
AcDbEntity
  8
0
100
AcDbEllipse
 10
19.05652775297737
 20
-26.27077749134964
 30
0.0
 11
-0.9000000000000001
 21
0.0000000000000005
 31
0.0
210
0.0
220
0.0
230
1.0
 40
0.5773502691896228
 41
0.0000000000000028
 42
0.785398163397452
  0
ELLIPSE
  5
6731
330
66FD
100
AcDbEntity
  8
0
100
AcDbEllipse
 10
17.78373554684158
 20
-28.47531825985449
 30
0.0
 11
-0.4500000000000003
 21
0.7794228634059949
 31
0.0
210
0.0
220
0.0
230
0.9999999999999998
 40
0.5773502691896249
 41
5.497787143782137
 42
6.283185307179586
  0
ELLIPSE
  5
6732
330
66FD
100
AcDbEntity
  8
0
100
AcDbEllipse
 10
17.78373554684159
 20
-27.00562441418459
 30
0.0
 11
0.4499999999999542
 21
0.7794228634060221
 31
0.0
210
0.0
220
0.0
230
1.0
 40
0.5773502691896259
 41
3.926990816986998
 42
5.497787143781891
  0
ELLIPSE
  5
6733
330
66FD
100
AcDbEntity
  8
0
100
AcDbEllipse
 10
17.28876080001109
 20
-4.266194635347373
 30
0.0
 11
-0.7999999999999924
 21
1.3856406460551
 31
0.0
210
0.0
220
0.0
230
1.0
 40
0.5773502691896287
 41
0.0093768775261989
 42
0.7853981633974492
  0
ELLIPSE
  5
6734
330
66FD
100
AcDbEntity
  8
0
100
AcDbEllipse
 10
14.24820164090885
 20
-24.96438296186528
 30
0.0
 11
-0.4500000000000471
 21
-0.7794228634059686
 31
0.0
210
0.0
220
0.0
230
1.0
 40
0.5773502691896258
 41
0.7853981633976908
 42
2.356194490192589
  0
ELLIPSE
  5
6735
330
66FD
100
AcDbEntity
  8
0
100
AcDbEllipse
 10
14.24820164090884
 20
-26.43407680753518
 30
0.0
 11
0.4499999999999548
 21
-0.7794228634060211
 31
0.0
210
0.0
220
0.0
230
1.0
 40
0.5773502691896252
 41
0.7853981633976819
 42
2.356194490192583
  0
ELLIPSE
  5
6736
330
66FD
100
AcDbEntity
  8
0
100
AcDbEllipse
 10
14.88459774397674
 20
-25.33180642328276
 30
0.0
 11
0.8999999999999081
 21
1.558845726812044
 31
0.0
210
0.0
220
0.0
230
1.0
 40
0.5773502691896259
 41
3.926990816987
 42
5.497787143781891
  0
ELLIPSE
  5
6737
330
66FD
100
AcDbEntity
  8
0
100
AcDbEllipse
 10
15.23815113457001
 20
-29.94501210552441
 30
0.0
 11
-0.4499999999999996
 21
0.7794228634059936
 31
0.0
210
0.0
220
0.0
230
0.9999999999999998
 40
0.5773502691896259
 41
5.497787143782137
 42
6.283185307179586
  0
LINE
  5
6738
330
66FD
100
AcDbEntity
  8
0
100
AcDbLine
 10
15.23815113457001
 20
-29.21016518268946
 30
0.0
 11
17.78373554684158
 21
-27.74047133701954
 31
0.0
  0
ELLIPSE
  5
6739
330
66FD
100
AcDbEntity
  8
0
100
AcDbEllipse
 10
13.47038418160364
 20
-28.18954445652979
 30
0.0
 11
-2.499999999999996
 21
-0.0000000000000003
 31
0.0
210
0.0
220
0.0
230
1.0
 40
0.5773502691896255
 41
5.497787143782136
 42
8.63937979737193
  0
LINE
  5
673A
330
66FD
100
AcDbEntity
  8
0
100
AcDbLine
 10
14.24820164090885
 20
-25.69922988470023
 30
0.0
 11
11.70261722863728
 21
-27.16892373037014
 31
0.0
  0
ELLIPSE
  5
673B
330
66FD
100
AcDbEntity
  8
0
100
AcDbEllipse
 10
16.6523646969432
 20
-4.633618096764848
 30
0.0
 11
-1.250000000000118
 21
2.165063509461022
 31
0.0
210
0.0
220
0.0
230
1.0
 40
0.5773502691896287
 41
3.926990816987
 42
7.068583470576795
  0
LINE
  5
673C
330
66FD
100
AcDbEntity
  8
0
100
AcDbLine
 10
18.42013164990948
 20
-26.63820095276711
 30
0.0
 11
18.42013164990956
 21
-5.654238822924502
 31
0.0
  0
ELLIPSE
  5
673D
330
66FD
100
AcDbEntity
  8
0
100
AcDbEllipse
 10
11.70261722863728
 20
-27.90377065320509
 30
0.0
 11
-0.450000000000044
 21
0.7794228634059625
 31
0.0
210
0.0
220
0.0
230
1.0
 40
0.577350269189626
 41
3.926990816987
 42
5.497787143781895
  0
LINE
  5
673E
330
66FD
100
AcDbEntity
  8
0
100
AcDbLine
 10
12.33901333170517
 20
-28.27119411462256
 30
0.0
 11
14.88459774397674
 21
-26.80150026895266
 31
0.0
  0
ELLIPSE
  5
673F
330
66FD
100
AcDbEntity
  8
0
100
AcDbEllipse
 10
19.05652775297746
 20
-5.286815361507026
 30
0.0
 11
-0.8999999999999985
 21
0.0000000000000048
 31
0.0
210
0.0
220
0.0
230
1.0
 40
0.5773502691896231
 41
0.0
 42
0.7853981633974474
  0
ELLIPSE
  5
6740
330
66FD
100
AcDbEntity
  8
0
100
AcDbEllipse
 10
13.47038418160364
 20
-28.92439137936474
 30
0.0
 11
-1.599999999999995
 21
-0.0000000000000001
 31
0.0
210
0.0
220
0.0
230
1.0
 40
0.5773502691896257
 41
5.497787143782138
 42
6.273808429653387
  0
SPLINE
  5
6741
330
66FD
100
AcDbEntity
  8
0
100
AcDbSpline
210
0.0
220
0.0
230
1.0
 70
     8
 71
     3
 72
    20
 73
    16
 74
     0
 42
0.000000001
 43
0.0000000001
 40
4.712388980384686
 40
4.712388980384686
 40
4.712388980384686
 40
4.712388980384686
 40
4.919112646862262
 40
4.919112646862262
 40
5.142574119643875
 40
5.142574119643875
 40
5.381628724161132
 40
5.381628724161132
 40
5.629603041756235
 40
5.629603041756235
 40
5.877267536718723
 40
5.877267536718723
 40
6.114931450740436
 40
6.114931450740436
 40
6.283185307179578
 40
6.283185307179578
 40
6.283185307179578
 40
6.283185307179578
 10
17.33373554684158
 20
-27.6958953964485
 30
0.0
 10
17.37492814572295
 20
-27.67211283839572
 30
0.0
 10
17.42326645535863
 20
-27.63908585485824
 30
0.0
 10
17.52990802219196
 20
-27.55169163440037
 30
0.0
 10
17.58868698461909
 20
-27.49586721064078
 30
0.0
 10
17.70863173691866
 20
-27.36306690220264
 30
0.0
 10
17.76967922888256
 20
-27.28491725685036
 30
0.0
 10
17.88431940051831
 20
-27.11401873084085
 30
0.0
 10
17.93754439265377
 20
-27.02084818576395
 30
0.0
 10
18.02784641228684
 20
-26.83256454963434
 30
0.0
 10
18.06492151927649
 20
-26.73746068046308
 30
0.0
 10
18.11912294654434
 20
-26.56054532512389
 30
0.0
 10
18.13694980649336
 20
-26.47836785958255
 30
0.0
 10
18.15362771435109
 20
-26.35536304960551
 30
0.0
 10
18.15652775297737
 20
-26.30949107626762
 30
0.0
 10
18.15652775297737
 20
-26.27077749134964
 30
0.0
  0
LINE
  5
6742
330
66FD
100
AcDbEntity
  8
0
100
AcDbLine
 10
17.33373554684158
 20
-27.6958953964485
 30
0.0
 11
14.78815113457001
 21
-29.16558924211841
 31
0.0
  0
SPLINE
  5
6743
330
66FD
100
AcDbEntity
  8
0
100
AcDbSpline
210
0.0
220
0.0
230
1.0
 70
     8
 71
     3
 72
    24
 73
    20
 74
     0
 42
0.000000001
 43
0.0000000001
 40
4.08995541914775
 40
4.08995541914775
 40
4.08995541914775
 40
4.08995541914775
 40
4.398229715025712
 40
4.398229715025712
 40
4.640084650872372
 40
4.640084650872372
 40
4.876994969012449
 40
4.876994969012449
 40
5.127353086333478
 40
5.127353086333478
 40
5.390670683693929
 40
5.390670683693929
 40
5.660900423611622
 40
5.660900423611622
 40
5.930296042682114
 40
5.930296042682114
 40
6.190907541946706
 40
6.190907541946706
 40
6.283185307179585
 40
6.283185307179585
 40
6.283185307179585
 40
6.283185307179585
 10
16.477436997818
 20
-2.885597985217684
 30
0.0
 10
16.477436997818
 20
-2.885597985217684
 30
0.0
 10
16.50256658318444
 20
-2.879172841354344
 30
0.0
 10
16.61246485175348
 20
-2.901390460099091
 30
0.0
 10
16.68120147153435
 20
-2.923358418172026
 30
0.0
 10
16.84238518497829
 20
-3.002937174559741
 30
0.0
 10
16.93401293793281
 20
-3.059555287053727
 30
0.0
 10
17.13087455893362
 20
-3.210972656327197
 30
0.0
 10
17.2365445120478
 20
-3.307621355572987
 30
0.0
 10
17.44750659161092
 20
-3.536736471525223
 30
0.0
 10
17.55249883247635
 20
-3.670731347199778
 30
0.0
 10
17.74583482604094
 20
-3.962250114591503
 30
0.0
 10
17.83365838364431
 20
-4.120266883223915
 30
0.0
 10
17.97944289938826
 20
-4.439096739754213
 30
0.0
 10
18.03745110021023
 20
-4.599879994847193
 30
0.0
 10
18.11834496710757
 20
-4.900199668435436
 30
0.0
 10
18.14222130697867
 20
-5.040214240607547
 30
0.0
 10
18.15496873216458
 20
-5.206633471559256
 30
0.0
 10
18.15652775297746
 20
-5.24800276166895
 30
0.0
 10
18.15652775297746
 20
-5.286815361507026
 30
0.0
  0
LINE
  5
6744
330
66FD
100
AcDbEntity
  8
0
100
AcDbLine
 10
18.15652775297746
 20
-5.286815361507026
 30
0.0
 11
18.15652775297737
 21
-26.27077749134964
 31
0.0
  0
SPLINE
  5
6745
330
66FD
100
AcDbEntity
  8
0
100
AcDbSpline
210
0.0
220
0.0
230
1.0
 70
     8
 71
     3
 72
    24
 73
    20
 74
     0
 42
0.000000001
 43
0.0000000001
 40
0.0
 40
0.0
 40
0.0
 40
0.0
 40
0.2404833943815377
 40
0.2404833943815377
 40
0.4952826284508357
 40
0.4952826284508357
 40
0.7615079081133704
 40
0.7615079081133704
 40
1.032338512924996
 40
1.032338512924996
 40
1.299839855592316
 40
1.299839855592316
 40
1.556319078585453
 40
1.556319078585453
 40
1.797615147984747
 40
1.797615147984747
 40
2.032802142967348
 40
2.032802142967348
 40
2.193229888031828
 40
2.193229888031828
 40
2.193229888031828
 40
2.193229888031828
 10
14.78815113457001
 20
-29.16558924211841
 30
0.0
 10
14.70055369919757
 20
-29.216163645011
 30
0.0
 10
14.5924549729752
 20
-29.26602570208795
 30
0.0
 10
14.33813425510401
 20
-29.35502508469767
 30
0.0
 10
14.1901291714324
 20
-29.39338789669487
 30
0.0
 10
13.86815078075605
 20
-29.44888452656011
 30
0.0
 10
13.69335557798141
 20
-29.465017369569
 30
0.0
 10
13.33898407348879
 20
-29.46990616190916
 30
0.0
 10
13.15941003611217
 20
-29.45818008722568
 30
0.0
 10
12.82050632551078
 20
-29.40885552411219
 30
0.0
 10
12.66100193664327
 20
-29.37153724544381
 30
0.0
 10
12.38375324567365
 20
-29.28106515209206
 30
0.0
 10
12.26467237271671
 20
-29.22856863596781
 30
0.0
 10
12.07832614064158
 20
-29.12405247406768
 30
0.0
 10
12.00867136937883
 20
-29.07224197789004
 30
0.0
 10
11.91467898505513
 20
-28.98541167375404
 30
0.0
 10
11.88957048130588
 20
-28.95058926930602
 30
0.0
 10
11.87066635443025
 20
-28.91802467322977
 30
0.0
 10
11.86909050911509
 20
-28.91206268103538
 30
0.0
 10
11.86909050911509
 20
-28.9120626810354
 30
0.0
  0
LINE
  5
6746
330
66FD
100
AcDbEntity
  8
0
100
AcDbLine
 10
16.15738995011253
 20
-24.59695950044781
 30
0.0
 11
18.15652775297737
 21
-25.75116224907898
 31
0.0
  0
LINE
  5
6747
330
66FD
100
AcDbEntity
  8
0
100
AcDbLine
 10
14.88459774397674
 20
-26.80150026895266
 30
0.0
 11
16.88373554684158
 21
-27.95570301758383
 31
0.0
  0
LINE
  5
6748
330
66FD
100
AcDbEntity
  8
0
100
AcDbLine
 10
-13.54109485972246
 20
-7.450531300965566
 30
0.0
 11
-11.54195705685762
 21
-8.604734049596739
 31
0.0
  0
ELLIPSE
  5
6749
330
66FD
100
AcDbEntity
  8
0
100
AcDbEllipse
 10
-14.81388706585825
 20
-8.185378223800508
 30
0.0
 11
0.8999999999999081
 21
1.558845726812044
 31
0.0
210
0.0
220
0.0
230
1.0
 40
0.5773502691896259
 41
3.926990816987
 42
5.497787143781892
  0
LINE
  5
674A
330
66FD
100
AcDbEntity
  8
0
100
AcDbLine
 10
-14.81388706585826
 20
-9.655072069470413
 30
0.0
 11
-12.81474926299342
 21
-10.80927481810158
 31
0.0
  0
LINE
  5
674B
330
66FD
100
AcDbEntity
  8
0
100
AcDbLine
 10
-17.35947147812983
 20
-11.12476591514031
 30
0.0
 11
-14.81388706585826
 21
-9.655072069470413
 31
0.0
  0
ELLIPSE
  5
674C
330
66FD
100
AcDbEntity
  8
0
100
AcDbEllipse
 10
-16.22810062823136
 20
-11.7779631798825
 30
0.0
 11
-1.599999999999995
 21
0.0
 31
0.0
210
0.0
220
0.0
230
1.0
 40
0.5773502691896243
 41
5.497787143782137
 42
6.273808429653391
  0
ELLIPSE
  5
674D
330
66FD
100
AcDbEntity
  8
0
100
AcDbEllipse
 10
-11.91474926299341
 20
-9.859196214702343
 30
0.0
 11
0.4499999999999542
 21
0.7794228634060221
 31
0.0
210
0.0
220
0.0
230
1.0
 40
0.5773502691896258
 41
3.926990816987
 42
5.497787143781891
  0
LINE
  5
674E
330
66FD
100
AcDbEntity
  8
0
100
AcDbLine
 10
-14.46033367526499
 20
-12.0637369832072
 30
0.0
 11
-11.91474926299341
 21
-10.5940431375373
 31
0.0
  0
ELLIPSE
  5
674F
330
66FD
100
AcDbEntity
  8
0
100
AcDbEllipse
 10
-16.22810062823135
 20
-11.04311625704754
 30
0.0
 11
-2.499999999999996
 21
0.0000000000000058
 31
0.0
210
0.0
220
0.0
230
1.0
 40
0.577350269189624
 41
5.497787143782138
 42
8.639379797371933
  0
LINE
  5
6750
330
66FD
100
AcDbEntity
  8
0
100
AcDbLine
 10
-15.45028316892614
 20
-8.552801685217982
 30
0.0
 11
-17.99586758119772
 21
-10.02249553088789
 31
0.0
  0
ELLIPSE
  5
6751
330
66FD
100
AcDbEntity
  8
0
100
AcDbEllipse
 10
-15.45028316892614
 20
-9.287648608052938
 30
0.0
 11
0.4499999999999517
 21
-0.7794228634060231
 31
0.0
210
0.0
220
0.0
230
1.0
 40
0.5773502691896275
 41
0.7853981633976908
 42
2.356194490192583
  0
ELLIPSE
  5
6752
330
66FD
100
AcDbEntity
  8
0
100
AcDbEllipse
 10
-14.17749096279036
 20
-7.08310783954809
 30
0.0
 11
-0.8999999999999985
 21
0.0000000000000572
 31
0.0
210
0.0
220
0.0
230
1.0
 40
0.5773502691896231
 41
0.7853981633976908
 42
2.356194490192587
  0
ELLIPSE
  5
6753
330
66FD
100
AcDbEntity
  8
0
100
AcDbEllipse
 10
-15.45028316892614
 20
-7.817954762383032
 30
0.0
 11
-0.4500000000000471
 21
-0.7794228634059684
 31
0.0
210
0.0
220
0.0
230
1.0
 40
0.5773502691896258
 41
0.7853981633976908
 42
2.356194490192587
  0
ELLIPSE
  5
6754
330
66FD
100
AcDbEntity
  8
0
100
AcDbEllipse
 10
-14.17749096279026
 20
13.90085429029452
 30
0.0
 11
-0.8999999999999987
 21
0.0000000000000574
 31
0.0
210
0.0
220
0.0
230
1.0
 40
0.5773502691896228
 41
0.7853981633976952
 42
2.356194490192589
  0
LINE
  5
6755
330
66FD
100
AcDbEntity
  8
0
100
AcDbLine
 10
-14.81388706585816
 20
13.53343082887704
 30
0.0
 11
-14.81388706585825
 21
-7.450531300965559
 31
0.0
  0
LINE
  5
6756
330
66FD
100
AcDbEntity
  8
0
100
AcDbLine
 10
-13.54109485972246
 20
-7.450531300965566
 30
0.0
 11
-13.54109485972237
 21
13.53343082887704
 31
0.0
  0
ELLIPSE
  5
6757
330
66FD
100
AcDbEntity
  8
0
100
AcDbEllipse
 10
-12.4097240098239
 20
12.88023356413487
 30
0.0
 11
-0.7999999999999924
 21
1.3856406460551
 31
0.0
210
0.0
220
0.0
230
1.0
 40
0.5773502691896287
 41
0.0093768775261998
 42
0.7853981633974501
  0
ELLIPSE
  5
6758
330
66FD
100
AcDbEntity
  8
0
100
AcDbEllipse
 10
-10.64195705685754
 20
11.85961283797521
 30
0.0
 11
-0.8999999999999985
 21
0.0000000000000048
 31
0.0
210
0.0
220
0.0
230
1.0
 40
0.5773502691896231
 41
0.0
 42
0.7853981633974474
  0
ELLIPSE
  5
6759
330
66FD
100
AcDbEntity
  8
0
100
AcDbEllipse
 10
-13.0461201128918
 20
12.51281010271739
 30
0.0
 11
-1.250000000000118
 21
2.165063509461022
 31
0.0
210
0.0
220
0.0
230
1.0
 40
0.5773502691896287
 41
3.926990816987
 42
7.068583470576794
  0
ELLIPSE
  5
675A
330
66FD
100
AcDbEntity
  8
0
100
AcDbEllipse
 10
-10.64195705685762
 20
-9.124349291867401
 30
0.0
 11
-0.9000000000000008
 21
0.0000000000000016
 31
0.0
210
0.0
220
0.0
230
1.0
 40
0.577350269189623
 41
0.0000000000000138
 42
0.7853981633974603
  0
LINE
  5
675B
330
66FD
100
AcDbEntity
  8
0
100
AcDbLine
 10
-11.27835315992551
 20
-9.491772753284868
 30
0.0
 11
-11.27835315992543
 21
11.49218937655773
 31
0.0
  0
ELLIPSE
  5
675C
330
66FD
100
AcDbEntity
  8
0
100
AcDbEllipse
 10
-11.91474926299341
 20
-11.32889006037225
 30
0.0
 11
-0.4500000000000002
 21
0.7794228634059959
 31
0.0
210
0.0
220
0.0
230
1.0
 40
0.5773502691896275
 41
5.497787143782126
 42
6.283185307179572
  0
ELLIPSE
  5
675D
330
66FD
100
AcDbEntity
  8
0
100
AcDbEllipse
 10
-14.46033367526499
 20
-12.79858390604215
 30
0.0
 11
-0.4499999999999992
 21
0.7794228634059961
 31
0.0
210
0.0
220
0.0
230
1.0
 40
0.5773502691896276
 41
5.497787143782133
 42
6.283185307179584
  0
ELLIPSE
  5
675E
330
66FD
100
AcDbEntity
  8
0
100
AcDbEllipse
 10
-17.99586758119772
 20
-10.75734245372284
 30
0.0
 11
-0.4500000000000411
 21
0.7794228634059643
 31
0.0
210
0.0
220
0.0
230
0.9999999999999998
 40
0.5773502691896267
 41
3.926990816987
 42
5.4977871437819
  0
SPLINE
  5
675F
330
66FD
100
AcDbEntity
  8
0
100
AcDbSpline
210
0.0
220
0.0
230
1.0
 70
     8
 71
     3
 72
    24
 73
    20
 74
     0
 42
0.000000001
 43
0.0000000001
 40
4.08995541914775
 40
4.08995541914775
 40
4.08995541914775
 40
4.08995541914775
 40
4.398229715025711
 40
4.398229715025711
 40
4.640084650872372
 40
4.640084650872372
 40
4.876994969012449
 40
4.876994969012449
 40
5.127353086333478
 40
5.127353086333478
 40
5.390670683693929
 40
5.390670683693929
 40
5.660900423611622
 40
5.660900423611622
 40
5.930296042682114
 40
5.930296042682114
 40
6.190907541946706
 40
6.190907541946706
 40
6.283185307179585
 40
6.283185307179585
 40
6.283185307179585
 40
6.283185307179585
 10
-13.22104781201699
 20
14.26083021426456
 30
0.0
 10
-13.22104781201699
 20
14.26083021426455
 30
0.0
 10
-13.19591822665055
 20
14.2672553581279
 30
0.0
 10
-13.08601995808151
 20
14.24503773938315
 30
0.0
 10
-13.01728333830064
 20
14.22306978131022
 30
0.0
 10
-12.85609962485671
 20
14.1434910249225
 30
0.0
 10
-12.76447187190218
 20
14.08687291242851
 30
0.0
 10
-12.56761025090137
 20
13.93545554315504
 30
0.0
 10
-12.4619402977872
 20
13.83880684390925
 30
0.0
 10
-12.25097821822408
 20
13.60969172795702
 30
0.0
 10
-12.14598597735865
 20
13.47569685228246
 30
0.0
 10
-11.95264998379405
 20
13.18417808489073
 30
0.0
 10
-11.86482642619069
 20
13.02616131625833
 30
0.0
 10
-11.71904191044675
 20
12.70733145972803
 30
0.0
 10
-11.66103370962477
 20
12.54654820463505
 30
0.0
 10
-11.58013984272743
 20
12.2462285310468
 30
0.0
 10
-11.55626350285633
 20
12.10621395887469
 30
0.0
 10
-11.54351607767042
 20
11.93979472792298
 30
0.0
 10
-11.54195705685754
 20
11.89842543781329
 30
0.0
 10
-11.54195705685754
 20
11.85961283797521
 30
0.0
  0
LINE
  5
6760
330
66FD
100
AcDbEntity
  8
0
100
AcDbLine
 10
-11.54195705685754
 20
11.85961283797521
 30
0.0
 11
-11.54195705685762
 21
-9.1243492918674
 31
0.0
  0
SPLINE
  5
6761
330
66FD
100
AcDbEntity
  8
0
100
AcDbSpline
210
0.0
220
0.0
230
1.0
 70
     8
 71
     3
 72
    20
 73
    16
 74
     0
 42
0.000000001
 43
0.0000000001
 40
4.712388980384687
 40
4.712388980384687
 40
4.712388980384687
 40
4.712388980384687
 40
4.919112646862263
 40
4.919112646862263
 40
5.142574119643876
 40
5.142574119643876
 40
5.381628724161132
 40
5.381628724161132
 40
5.629603041756236
 40
5.629603041756236
 40
5.877267536718724
 40
5.877267536718724
 40
6.114931450740437
 40
6.114931450740437
 40
6.283185307179578
 40
6.283185307179578
 40
6.283185307179578
 40
6.283185307179578
 10
-12.36474926299341
 20
-10.54946719696625
 30
0.0
 10
-12.32355666411204
 20
-10.52568463891347
 30
0.0
 10
-12.27521835447636
 20
-10.49265765537598
 30
0.0
 10
-12.16857678764303
 20
-10.40526343491812
 30
0.0
 10
-12.1097978252159
 20
-10.34943901115854
 30
0.0
 10
-11.98985307291633
 20
-10.21663870272039
 30
0.0
 10
-11.92880558095243
 20
-10.13848905736811
 30
0.0
 10
-11.81416540931669
 20
-9.967590531358613
 30
0.0
 10
-11.76094041718122
 20
-9.874419986281711
 30
0.0
 10
-11.67063839754815
 20
-9.686136350152093
 30
0.0
 10
-11.63356329055851
 20
-9.591032480980828
 30
0.0
 10
-11.57936186329065
 20
-9.414117125641642
 30
0.0
 10
-11.56153500334163
 20
-9.331939660100303
 30
0.0
 10
-11.5448570954839
 20
-9.208934850123263
 30
0.0
 10
-11.54195705685762
 20
-9.163062876785378
 30
0.0
 10
-11.54195705685762
 20
-9.124349291867396
 30
0.0
  0
LINE
  5
6762
330
66FD
100
AcDbEntity
  8
0
100
AcDbLine
 10
-12.36474926299341
 20
-10.54946719696625
 30
0.0
 11
-14.91033367526499
 21
-12.01916104263615
 31
0.0
  0
SPLINE
  5
6763
330
66FD
100
AcDbEntity
  8
0
100
AcDbSpline
210
0.0
220
0.0
230
1.0
 70
     8
 71
     3
 72
    24
 73
    20
 74
     0
 42
0.000000001
 43
0.0000000001
 40
0.0
 40
0.0
 40
0.0
 40
0.0
 40
0.2404833943815374
 40
0.2404833943815374
 40
0.4952826284508351
 40
0.4952826284508351
 40
0.7615079081133699
 40
0.7615079081133699
 40
1.032338512924996
 40
1.032338512924996
 40
1.299839855592315
 40
1.299839855592315
 40
1.556319078585453
 40
1.556319078585453
 40
1.797615147984746
 40
1.797615147984746
 40
2.032802142967347
 40
2.032802142967347
 40
2.193229888031824
 40
2.193229888031824
 40
2.193229888031824
 40
2.193229888031824
 10
-14.91033367526499
 20
-12.01916104263615
 30
0.0
 10
-14.99793111063743
 20
-12.06973544552875
 30
0.0
 10
-15.10602983685979
 20
-12.1195975026057
 30
0.0
 10
-15.36035055473098
 20
-12.20859688521541
 30
0.0
 10
-15.50835563840259
 20
-12.24695969721262
 30
0.0
 10
-15.83033402907894
 20
-12.30245632707785
 30
0.0
 10
-16.00512923185359
 20
-12.31858917008674
 30
0.0
 10
-16.35950073634621
 20
-12.3234779624269
 30
0.0
 10
-16.53907477372283
 20
-12.31175188774342
 30
0.0
 10
-16.87797848432421
 20
-12.26242732462992
 30
0.0
 10
-17.03748287319172
 20
-12.22510904596155
 30
0.0
 10
-17.31473156416135
 20
-12.1346369526098
 30
0.0
 10
-17.43381243711828
 20
-12.08214043648555
 30
0.0
 10
-17.62015866919341
 20
-11.97762427458542
 30
0.0
 10
-17.68981344045617
 20
-11.92581377840777
 30
0.0
 10
-17.78380582477987
 20
-11.83898347427177
 30
0.0
 10
-17.80891432852912
 20
-11.80416106982376
 30
0.0
 10
-17.82781845540474
 20
-11.77159647374752
 30
0.0
 10
-17.82939430071991
 20
-11.76563448155314
 30
0.0
 10
-17.82939430071991
 20
-11.76563448155315
 30
0.0
  0
LINE
  5
6764
330
66FD
100
AcDbEntity
  8
0
100
AcDbLine
 10
-11.27835315992551
 20
-9.491772753284868
 30
0.0
 11
-1.914545058413841
 21
-14.89796988133263
 31
0.0
  0
LINE
  5
6765
330
66FD
100
AcDbEntity
  8
0
100
AcDbLine
 10
-11.91474926299341
 20
-10.5940431375373
 30
0.0
 11
-2.57587393208922
 21
-15.98584532376318
 31
0.0
  0
LINE
  5
6766
330
66FD
100
AcDbEntity
  8
0
100
AcDbLine
 10
4.909326310004656
 20
-20.30742769847433
 30
0.0
 11
14.24820164090885
 21
-25.69922988470023
 31
0.0
  0
LINE
  5
6767
330
66FD
100
AcDbEntity
  8
0
100
AcDbLine
 10
5.520789642465066
 20
-19.19076237240004
 30
0.0
 11
14.88459774397674
 21
-24.59695950044781
 31
0.0
  0
LINE
  5
6768
330
66FD
100
AcDbEntity
  8
0
100
AcDbLine
 10
-17.21805012189252
 20
-7.532180959058334
 30
0.0
 11
-15.45028316892614
 21
-8.552801685217982
 31
0.0
  0
LINE
  5
6769
330
66FD
100
AcDbEntity
  8
0
100
AcDbLine
 10
17.78373554684158
 20
-27.74047133701954
 30
0.0
 11
19.55150249980796
 21
-28.7610920631792
 31
0.0
  0
LINE
  5
676A
330
66FD
100
AcDbEntity
  8
0
100
AcDbLine
 10
-16.58165401882462
 20
-6.429910574805899
 30
0.0
 11
-14.81388706585825
 21
-7.450531300965557
 31
0.0
  0
ELLIPSE
  5
676B
330
66FD
100
AcDbEntity
  8
0
100
AcDbEllipse
 10
-17.21805012189252
 20
-6.797334036223374
 30
0.0
 11
0.4499999999999558
 21
0.7794228634060256
 31
0.0
210
0.0
220
0.0
230
0.9999999999999998
 40
0.5773502691896259
 41
3.926990816986997
 42
5.497787143781891
  0
LINE
  5
676C
330
66FD
100
AcDbEntity
  8
0
100
AcDbLine
 10
18.42013164990948
 20
-26.63820095276711
 30
0.0
 11
20.18789860287585
 21
-27.65882167892677
 31
0.0
  0
LINE
  5
676D
330
66FD
100
AcDbEntity
  8
0
100
AcDbLine
 10
-16.58165401882446
 20
30.4757348831274
 30
0.0
 11
20.18789860287601
 21
9.246823779006509
 31
0.0
  0
ELLIPSE
  5
676E
330
66FD
100
AcDbEntity
  8
0
100
AcDbEllipse
 10
19.55150249980796
 20
-28.02624514034425
 30
0.0
 11
0.8999999999999069
 21
1.558845726812042
 31
0.0
210
0.0
220
0.0
230
1.0
 40
0.5773502691896259
 41
3.926990816986997
 42
5.497787143781893
  0
LINE
  5
676F
330
66FD
100
AcDbEntity
  8
0
100
AcDbLine
 10
-15.30886181268867
 20
32.68027565163225
 30
0.0
 11
21.46069080901181
 21
11.45136454751139
 31
0.0
  0
ELLIPSE
  5
6770
330
66FD
100
AcDbEntity
  8
0
100
AcDbEllipse
 10
21.46069080901179
 20
9.981670701841469
 30
0.0
 11
0.4500000000000464
 21
0.7794228634059673
 31
0.0
210
0.0
220
0.0
230
0.9999999999999998
 40
0.5773502691896259
 41
0.7853981633976695
 42
2.356194490192599
  0
LINE
  5
6771
330
66FD
100
AcDbEntity
  8
0
100
AcDbLine
 10
21.46069080901181
 20
11.45136454751139
 30
0.0
 11
21.46069080901181
 21
10.71651762467644
 31
0.0
  0
ELLIPSE
  5
6772
330
66FD
100
AcDbEntity
  8
0
100
AcDbEllipse
 10
21.46069080901179
 20
9.981670701841469
 30
0.0
 11
-0.899999999999906
 21
-1.55884572681204
 31
0.0
210
0.0
220
0.0
230
0.9999999999999998
 40
0.5773502691896259
 41
3.92699081698699
 42
5.497787143781903
  0
LINE
  5
6773
330
66FD
100
AcDbEntity
  8
0
100
AcDbLine
 10
20.18789860287601
 20
9.246823779006509
 30
0.0
 11
20.8242947059439
 21
9.614247240423987
 31
0.0
  0
ELLIPSE
  5
6774
330
66FD
100
AcDbEntity
  8
0
100
AcDbEllipse
 10
-15.30886181268868
 20
31.21058180596234
 30
0.0
 11
0.9000000000000911
 21
1.558845726811931
 31
0.0
210
0.0
220
0.0
230
1.0
 40
0.5773502691896258
 41
0.7853981633976801
 42
2.356194490192583
  0
LINE
  5
6775
330
66FD
100
AcDbEntity
  8
0
100
AcDbLine
 10
20.18789860287585
 20
-27.65882167892677
 30
0.0
 11
20.82429470594374
 21
-27.29139821750929
 31
0.0
  0
ELLIPSE
  5
6776
330
66FD
100
AcDbEntity
  8
0
100
AcDbEllipse
 10
19.55150249980796
 20
-28.02624514034425
 30
0.0
 11
-0.4500000000000468
 21
-0.7794228634059675
 31
0.0
210
0.0
220
0.0
230
1.0
 40
0.577350269189626
 41
0.7853981633976837
 42
2.356194490192581
  0
LINE
  5
6777
330
66FD
100
AcDbEntity
  8
0
100
AcDbLine
 10
19.55150249980796
 20
-28.7610920631792
 30
0.0
 11
19.55150249980796
 21
-29.49593898601415
 31
0.0
  0
LINE
  5
6778
330
66FD
100
AcDbEntity
  8
0
100
AcDbLine
 10
20.82429470594374
 20
-27.29139821750929
 30
0.0
 11
20.8242947059439
 21
9.614247240423988
 31
0.0
  0
LINE
  5
6779
330
66FD
100
AcDbEntity
  8
0
100
AcDbLine
 10
-42.74460492272687
 20
-22.2699442448037
 30
0.0
 11
-17.21805012189252
 21
-7.532180959058334
 31
0.0
  0
LINE
  5
677A
330
66FD
100
AcDbEntity
  8
0
100
AcDbLine
 10
-28.60246929899594
 20
-30.43491005408097
 30
0.0
 11
-42.74460492272687
 21
-22.2699442448037
 31
0.0
  0
LINE
  5
677B
330
66FD
100
AcDbEntity
  8
0
100
AcDbLine
 10
-5.97505230102641
 20
-43.49885534892464
 30
0.0
 11
-20.11718792475736
 21
-35.3338895396474
 31
0.0
  0
LINE
  5
677C
330
66FD
100
AcDbEntity
  8
0
100
AcDbLine
 10
19.55150249980796
 20
-28.7610920631792
 30
0.0
 11
-5.975052301026408
 21
-43.49885534892464
 31
0.0
  0
LINE
  5
677D
330
66FD
100
AcDbEntity
  8
0
100
AcDbLine
 10
-42.74460492272688
 20
-23.00479116763866
 30
0.0
 11
-42.74460492272687
 21
-22.2699442448037
 31
0.0
  0
LINE
  5
677E
330
66FD
100
AcDbEntity
  8
0
100
AcDbLine
 10
-42.74460492272688
 20
-23.00479116763866
 30
0.0
 11
-28.60246929899594
 21
-31.16975697691592
 31
0.0
  0
LINE
  5
677F
330
66FD
100
AcDbEntity
  8
0
100
AcDbLine
 10
-20.11718792475736
 20
-36.06873646248235
 30
0.0
 11
-5.97505230102641
 21
-44.23370227175961
 31
0.0
  0
LINE
  5
6780
330
66FD
100
AcDbEntity
  8
0
100
AcDbLine
 10
-5.97505230102641
 20
-44.23370227175961
 30
0.0
 11
-5.97505230102641
 21
-43.49885534892464
 31
0.0
  0
LINE
  5
6781
330
66FD
100
AcDbEntity
  8
0
100
AcDbLine
 10
20.18789860287601
 20
9.246823779006509
 30
0.0
 11
20.18789860287585
 21
-27.65882167892677
 31
0.0
  0
LINE
  5
6782
330
66FD
100
AcDbEntity
  8
0
100
AcDbLine
 10
-16.58165401882462
 20
-6.429910574805899
 30
0.0
 11
-16.58165401882446
 21
30.4757348831274
 31
0.0
  0
LINE
  5
6783
330
66FD
100
AcDbEntity
  8
0
100
AcDbLine
 10
-5.97505230102641
 20
-44.23370227175961
 30
0.0
 11
19.55150249980795
 21
-29.49593898601415
 31
0.0
  0
LINE
  5
6784
330
66FD
100
AcDbEntity
  8
0
100
AcDbLine
 10
-15.30886181268867
 20
32.68027565163225
 30
0.0
 11
-10.35911434438284
 21
35.5380136848793
 31
0.0
  0
LINE
  5
6785
330
66FD
100
AcDbEntity
  8
0
100
AcDbLine
 10
42.74460492272688
 20
23.73963809047364
 30
0.0
 11
21.46069080901181
 21
11.45136454751139
 31
0.0
  0
LINE
  5
6786
330
66FD
100
AcDbEntity
  8
0
100
AcDbLine
 10
39.20907101679415
 20
25.78087954279296
 30
0.0
 11
42.74460492272688
 21
23.73963809047364
 31
0.0
  0
LINE
  5
6787
330
66FD
100
AcDbEntity
  8
0
100
AcDbLine
 10
21.46069080901181
 20
10.71651762467644
 30
0.0
 11
42.7446049227269
 21
23.00479116763868
 31
0.0
  0
LINE
  5
6788
330
66FD
100
AcDbEntity
  8
0
100
AcDbLine
 10
42.7446049227269
 20
23.00479116763868
 30
0.0
 11
42.74460492272688
 21
23.73963809047364
 31
0.0
  0
ELLIPSE
  5
6789
330
66FD
100
AcDbEntity
  8
0
100
AcDbEllipse
 10
-30.72378964255558
 20
-24.31118569712302
 30
0.0
 11
-2.0
 21
0.0000000000000076
 31
0.0
210
0.0
220
0.0
230
1.0
 40
0.5773502691896231
 41
3.926990816987243
 42
7.068583470577036
  0
LINE
  5
678A
330
66FD
100
AcDbEntity
  8
0
100
AcDbLine
 10
-29.30957608018248
 20
-23.49468911619531
 30
0.0
 11
-27.89536251780937
 21
-24.31118569712304
 31
0.0
  0
ELLIPSE
  5
678B
330
66FD
100
AcDbEntity
  8
0
100
AcDbEllipse
 10
-29.30957608018247
 20
-25.12768227805076
 30
0.0
 11
2.000000000000001
 21
-0.0000000000000076
 31
0.0
210
0.0
220
0.0
230
1.0
 40
0.5773502691896231
 41
3.926990816987243
 42
7.068583470577036
  0
LINE
  5
678C
330
66FD
100
AcDbEntity
  8
0
100
AcDbLine
 10
-30.72378964255557
 20
-25.94417885897848
 30
0.0
 11
-32.13800320492868
 21
-25.12768227805076
 31
0.0
  0
ELLIPSE
  5
678D
330
66FD
100
AcDbEntity
  8
0
100
AcDbEllipse
 10
-9.510586206959153
 20
-36.55863441103898
 30
0.0
 11
2.0
 21
0.0
 31
0.0
210
0.0
220
0.0
230
1.0
 40
0.5773502691896255
 41
3.926990816987238
 42
7.068583470577031
  0
LINE
  5
678E
330
66FD
100
AcDbEntity
  8
0
100
AcDbLine
 10
-10.92479976933224
 20
-37.3751309919667
 30
0.0
 11
-12.33901333170535
 21
-36.55863441103897
 31
0.0
  0
ELLIPSE
  5
678F
330
66FD
100
AcDbEntity
  8
0
100
AcDbEllipse
 10
-10.92479976933226
 20
-35.74213783011124
 30
0.0
 11
-2.0
 21
0.0
 31
0.0
210
0.0
220
0.0
230
1.0
 40
0.5773502691896258
 41
3.926990816987238
 42
7.068583470577032
  0
LINE
  5
6790
330
66FD
100
AcDbEntity
  8
0
100
AcDbLine
 10
-9.510586206959169
 20
-34.92564124918352
 30
0.0
 11
-8.096372644586057
 21
-35.74213783011126
 31
0.0
  0
ELLIPSE
  5
6791
330
66FD
100
AcDbEntity
  8
0
100
AcDbEllipse
 10
-30.72378964255558
 20
-25.04603261995799
 30
0.0
 11
-2.0
 21
-0.0000000000001117
 31
0.0
210
0.0
220
0.0
230
1.0
 40
0.5773502691896231
 41
3.926990816987
 42
5.959357168603945
  0
ELLIPSE
  5
6792
330
66FD
100
AcDbEntity
  8
0
100
AcDbEllipse
 10
-29.30957608018248
 20
-25.86252920088572
 30
0.0
 11
2.000000000000001
 21
-0.0000000000000096
 31
0.0
210
0.0
220
0.0
230
1.0
 40
0.5773502691896235
 41
0.3238281385752919
 42
0.7853981633974512
  0
LINE
  5
6793
330
66FD
100
AcDbEntity
  8
0
100
AcDbLine
 10
-27.89536251780938
 20
-25.04603261995799
 30
0.0
 11
-29.30957608018249
 21
-24.22953603903027
 31
0.0
  0
ELLIPSE
  5
6794
330
66FD
100
AcDbEntity
  8
0
100
AcDbEllipse
 10
-9.510586206959153
 20
-37.29348133387393
 30
0.0
 11
2.0
 21
0.0000000000000002
 31
0.0
210
0.0
220
0.0
230
1.0
 40
0.5773502691896257
 41
0.3238281385752855
 42
0.7853981633974462
  0
LINE
  5
6795
330
66FD
100
AcDbEntity
  8
0
100
AcDbLine
 10
-8.096372644586057
 20
-36.47698475294621
 30
0.0
 11
-9.510586206959169
 21
-35.66048817201848
 31
0.0
  0
ELLIPSE
  5
6796
330
66FD
100
AcDbEntity
  8
0
100
AcDbEllipse
 10
-10.92479976933226
 20
-36.4769847529462
 30
0.0
 11
-1.999999999999999
 21
-0.0000000000001193
 31
0.0
210
0.0
220
0.0
230
1.0
 40
0.5773502691896257
 41
3.926990816987
 42
5.959357168603945
  0
LINE
  5
6797
330
66FD
100
AcDbEntity
  8
0
100
AcDbLine
 10
-8.096372644586057
 20
-35.74213783011126
 30
0.0
 11
-8.096372644586057
 21
-36.47698475294621
 31
0.0
  0
LINE
  5
6798
330
66FD
100
AcDbEntity
  8
0
100
AcDbLine
 10
-9.510586206959169
 20
-34.92564124918352
 30
0.0
 11
-9.510586206959169
 21
-35.66048817201848
 31
0.0
  0
LINE
  5
6799
330
66FD
100
AcDbEntity
  8
0
100
AcDbLine
 10
-29.30957608018248
 20
-23.49468911619531
 30
0.0
 11
-29.30957608018249
 21
-24.22953603903027
 31
0.0
  0
LINE
  5
679A
330
66FD
100
AcDbEntity
  8
0
100
AcDbLine
 10
-27.89536251780937
 20
-24.31118569712304
 30
0.0
 11
-27.89536251780938
 21
-25.04603261995799
 31
0.0
  0
LINE
  5
679B
330
66FD
100
AcDbEntity
  8
0
100
AcDbLine
 10
31.741118190634
 20
26.25242623740407
 30
0.0
 11
18.63301803162412
 21
21.42791554645089
 31
0.0
  0
ELLIPSE
  5
679C
330
66FD
100
AcDbEntity
  8
0
100
AcDbEllipse
 10
34.96643032967487
 20
23.33138980000978
 30
0.0
 11
-6.0
 21
-0.0000000000003536
 31
0.0
210
0.0
220
0.0
230
1.0
 40
0.5773502691896252
 41
3.926990816987
 42
5.279920301319716
  0
LINE
  5
679D
330
66FD
100
AcDbEntity
  8
0
100
AcDbLine
 10
13.33736914080564
 20
37.65807404618667
 30
0.0
 11
0.1150236469999277
 21
33.16257474294755
 31
0.0
  0
ELLIPSE
  5
679E
330
66FD
100
AcDbEntity
  8
0
100
AcDbEllipse
 10
15.87454723763809
 20
34.43574330062687
 30
0.0
 11
5.0
 21
-0.0000000000000121
 31
0.0
210
0.0
220
0.0
230
1.0
 40
0.5773502691896251
 41
5.750979124538256
 42
6.283185307179596
  0
ELLIPSE
  5
679F
330
66FD
100
AcDbEntity
  8
0
100
AcDbEllipse
 10
15.87454723763807
 20
35.17059022346181
 30
0.0
 11
5.0
 21
-0.0000000000000036
 31
0.0
210
0.0
220
0.0
230
1.0
 40
0.5773502691896251
 41
5.750979124538248
 42
8.386187816615827
  0
LINE
  5
67A0
330
66FD
100
AcDbEntity
  8
0
100
AcDbLine
 10
20.18299560160321
 20
33.70574976627358
 30
0.0
 11
20.18299560160321
 21
32.97090284343862
 31
0.0
  0
LINE
  5
67A1
330
66FD
100
AcDbEntity
  8
0
100
AcDbLine
 10
20.18299560160321
 20
32.97090284343862
 30
0.0
 11
11.6368095517916
 21
24.59210611196608
 31
0.0
  0
LINE
  5
67A2
330
66FD
100
AcDbEntity
  8
0
100
AcDbLine
 10
11.6368095517916
 20
25.32695303480103
 30
0.0
 11
20.18299560160321
 21
33.70574976627358
 31
0.0
  0
LINE
  5
67A3
330
66FD
100
AcDbEntity
  8
0
100
AcDbLine
 10
11.6368095517916
 20
25.32695303480103
 30
0.0
 11
11.6368095517916
 21
24.59210611196608
 31
0.0
  0
ELLIPSE
  5
67A4
330
66FD
100
AcDbEntity
  8
0
100
AcDbEllipse
 10
15.94525791575674
 20
23.12726565477786
 30
0.0
 11
-5.0
 21
0.0000000000000047
 31
0.0
210
0.0
220
0.0
230
1.0
 40
0.5773502691896251
 41
5.750979124538247
 42
6.155559903006265
  0
ELLIPSE
  5
67A5
330
66FD
100
AcDbEntity
  8
0
100
AcDbEllipse
 10
15.94525791575673
 20
23.86211257761281
 30
0.0
 11
-5.0
 21
0.0000000000003025
 31
0.0
210
0.0
220
0.0
230
1.0
 40
0.577350269189625
 41
5.750979124538493
 42
8.421512954909818
  0
LINE
  5
67A6
330
66FD
100
AcDbEntity
  8
0
100
AcDbLine
 10
-7.172230756318272
 20
33.69806558743422
 30
0.0
 11
-10.35911434438284
 21
35.5380136848793
 31
0.0
  0
ELLIPSE
  5
67A7
330
66FD
100
AcDbEntity
  8
0
100
AcDbEllipse
 10
-2.929590069198976
 20
36.14755533021739
 30
0.0
 11
-6.0
 21
0.0000000000003625
 31
0.0
210
0.0
220
0.0
230
1.0
 40
0.5773502691896251
 41
0.7853981633976224
 42
2.103002509436343
  0
LINE
  5
67A8
330
66FD
100
AcDbEntity
  8
0
100
AcDbLine
 10
20.87454723763807
 20
35.17059022346181
 30
0.0
 11
20.87454723763807
 21
34.43574330062685
 31
0.0
  0
ENDBLK
  5
66FF
330
66FD
100
AcDbEntity
  8
0
100
AcDbBlockEnd
  0
ENDSEC
  0
SECTION
  2
ENTITIES
  0
INSERT
  5
67A9
330
1F
100
AcDbEntity
  8
0
100
AcDbBlockReference
  2
ZS47N-Front
 10
0.0
 20
0.0
 30
0.0
  0
INSERT
  5
67AA
330
1F
100
AcDbEntity
  8
0
100
AcDbBlockReference
  2
ZS47N-Left
 10
75.08000000000031
 20
0.0
 30
0.0
  0
INSERT
  5
67AB
330
1F
100
AcDbEntity
  8
0
100
AcDbBlockReference
  2
ZS47N-Right
 10
-75.08000000000031
 20
0.0
 30
0.0
  0
INSERT
  5
67AC
330
1F
100
AcDbEntity
  8
0
100
AcDbBlockReference
  2
ZS47N-Top
 10
0.0
 20
-97.88000000000028
 30
0.0
  0
INSERT
  5
67AD
330
1F
100
AcDbEntity
  8
0
100
AcDbBlockReference
  2
ZS47N-Bottom
 10
0.0
 20
49.98000000000031
 30
0.0
  0
INSERT
  5
67AE
330
1F
100
AcDbEntity
  8
0
100
AcDbBlockReference
  2
ZS47N-ISO
 10
87.72460492272694
 20
-105.83734156941
 30
0.0
  0
MTEXT
  5
67AF
330
1F
100
AcDbEntity
  8
0
100
AcDbMText
 10
0.0
 20
-155.6600000000003
 30
0.0
 40
6.326666666666684
 41
0.0
 71
     5
 72
     5
  1
ZS47N
 73
     1
 44
1.0
1001
ACAD
1000
MTEXTBEGIN
1070
    73
1070
     1
1070
    44
1040
1.0
1070
    74
1070
     0
1000
MTEXTEND
  0
ENDSEC
  0
SECTION
  2
OBJECTS
  0
DICTIONARY
  5
C
330
0
100
AcDbDictionary
281
     1
  3
ACAD_CIP_PREVIOUS_PRODUCT_INFO
350
216
  3
ACAD_COLOR
350
6B
  3
ACAD_DETAILVIEWSTYLE
350
21B
  3
ACAD_GROUP
350
D
  3
ACAD_LAYOUT
350
1A
  3
ACAD_MATERIAL
350
6A
  3
ACAD_MLEADERSTYLE
350
12D
  3
ACAD_MLINESTYLE
350
17
  3
ACAD_PLOTSETTINGS
350
19
  3
ACAD_PLOTSTYLENAME
350
E
  3
ACAD_SCALELIST
350
10C
  3
ACAD_SECTIONVIEWSTYLE
350
219
  3
ACAD_TABLESTYLE
350
7E
  3
ACAD_VISUALSTYLE
350
EF
  3
ACDB_RECOMPOSE_DATA
350
68B0
  3
AcDbVariableDictionary
350
5E
  3
DWGPROPS
350
68B1
  0
DICTIONARY
  5
6800
330
8
100
AcDbDictionary
280
     1
281
     1
  0
DICTIONARY
  5
1FF
330
2
100
AcDbDictionary
280
     1
281
     1
  3
ACAD_LAYERSTATES
360
200
  0
DICTIONARY
  5
13C
330
10
100
AcDbDictionary
280
     1
281
     1
  0
DICTIONARY
  5
1CE
330
1F
100
AcDbDictionary
280
     1
281
     1
  3
ACAD_LAYOUTSELFREF
360
6808
  0
DICTIONARY
  5
67B3
330
D2
100
AcDbDictionary
280
     1
281
     1
  3
ACAD_LAYOUTSELFREF
360
6811
  0
DICTIONARY
  5
67B5
330
D6
100
AcDbDictionary
280
     1
281
     1
  3
ACAD_LAYOUTSELFREF
360
6814
  0
XRECORD
  5
216
102
{ACAD_REACTORS
330
C
102
}
330
C
100
AcDbXrecord
280
     1
300
ACD
300
2021
300
87393ACD_2021_0F
  0
DICTIONARY
  5
6B
102
{ACAD_REACTORS
330
C
102
}
330
C
100
AcDbDictionary
281
     1
  0
DICTIONARY
  5
21B
102
{ACAD_REACTORS
330
C
102
}
330
C
100
AcDbDictionary
281
     1
  3
Metric50
350
21C
  0
DICTIONARY
  5
D
102
{ACAD_REACTORS
330
C
102
}
330
C
100
AcDbDictionary
281
     1
  0
DICTIONARY
  5
1A
102
{ACAD_REACTORS
330
C
102
}
330
C
100
AcDbDictionary
281
     1
  3
Layout1
350
D3
  3
Layout2
350
D7
  3
Model
350
22
  0
DICTIONARY
  5
6A
102
{ACAD_REACTORS
330
C
102
}
330
C
100
AcDbDictionary
281
     1
  3
ByBlock
350
ED
  3
ByLayer
350
EC
  3
Global
350
EE
  0
DICTIONARY
  5
12D
102
{ACAD_REACTORS
330
C
102
}
330
C
100
AcDbDictionary
281
     1
  3
Standard
350
12E
  0
DICTIONARY
  5
17
102
{ACAD_REACTORS
330
C
102
}
330
C
100
AcDbDictionary
281
     1
  3
Standard
350
18
  0
DICTIONARY
  5
19
102
{ACAD_REACTORS
330
C
102
}
330
C
100
AcDbDictionary
281
     1
  0
ACDBDICTIONARYWDFLT
  5
E
102
{ACAD_REACTORS
330
C
102
}
330
C
100
AcDbDictionary
281
     1
  3
Normal
350
F
100
AcDbDictionaryWithDefault
340
F
  0
DICTIONARY
  5
10C
102
{ACAD_REACTORS
330
C
102
}
330
C
100
AcDbDictionary
281
     1
  3
A0
350
10D
  3
A1
350
1BE
  3
A2
350
1BF
  3
A3
350
1C0
  3
A4
350
1C1
  3
A5
350
1C2
  3
A6
350
1C3
  3
A7
350
1C4
  3
A8
350
1C5
  3
A9
350
1C6
  3
B0
350
1C7
  3
B1
350
1C8
  3
B2
350
1C9
  3
B3
350
1CA
  3
B4
350
1CB
  3
B5
350
1CC
  3
B6
350
1CD
  0
DICTIONARY
  5
219
102
{ACAD_REACTORS
330
C
102
}
330
C
100
AcDbDictionary
281
     1
  3
Metric50
350
21A
  0
DICTIONARY
  5
7E
102
{ACAD_REACTORS
330
C
102
}
330
C
100
AcDbDictionary
281
     1
  3
Standard
350
7F
  0
DICTIONARY
  5
EF
102
{ACAD_REACTORS
330
C
102
}
330
C
100
AcDbDictionary
281
     1
  3
2dWireframe
350
F5
  3
Basic
350
F4
  3
Brighten
350
FB
  3
ColorChange
350
FF
  3
Conceptual
350
F8
  3
Dim
350
FA
  3
EdgeColorOff
350
1E6
  3
Facepattern
350
FE
  3
Flat
350
F0
  3
FlatWithEdges
350
F1
  3
Gouraud
350
F2
  3
GouraudWithEdges
350
F3
  3
Hidden
350
F7
  3
JitterOff
350
1E4
  3
Linepattern
350
FD
  3
OverhangOff
350
1E5
  3
Realistic
350
F9
  3
Shaded
350
1F3
  3
Shaded with edges
350
1F2
  3
Shades of Gray
350
1EF
  3
Sketchy
350
1F0
  3
Thicken
350
FC
  3
Wireframe
350
F6
  3
X-Ray
350
1F1
  0
XRECORD
  5
68B0
102
{ACAD_REACTORS
330
C
102
}
330
C
100
AcDbXrecord
280
     1
 90
        1
330
7F
  0
DICTIONARY
  5
5E
102
{ACAD_REACTORS
330
C
102
}
330
C
100
AcDbDictionary
281
     1
  3
CANNOSCALE
350
146
  3
CENTEREXE
350
259
  3
CENTERLTYPEFILE
350
25A
  3
CMLEADERSTYLE
350
145
  3
CTABLESTYLE
350
84
  3
CVIEWDETAILSTYLE
350
227
  3
CVIEWSECTIONSTYLE
350
228
  3
DIMASSOC
350
5F
  3
HIDETEXT
350
63
  3
INDEXCTL
350
685D
  3
LAYEREVAL
350
1AE
  3
LAYERNOTIFY
350
1AF
  3
LIGHTINGUNITS
350
685B
  3
MSLTSCALE
350
685A
  3
PSOLHEIGHT
350
68AD
  3
PSOLWIDTH
350
68AC
  3
SORTENTS
350
685C
  3
XCLIPFRAME
350
68AE
  0
XRECORD
  5
68B1
102
{ACAD_REACTORS
330
C
102
}
330
C
100
AcDbXrecord
280
     1
  1
DWGPROPS COOKIE
  2

  3

  4

  6

  7

  8
tronnguyen
  9

300
=
301
=
302
=
303
=
304
=
305
=
306
=
307
=
308
=
309
=
 40
0.7542824074074074
 41
2460781.656018518
 42
2460782.412743056
  1

 90
        0
  0
DICTIONARY
  5
200
102
{ACAD_REACTORS
330
1FF
102
}
330
1FF
100
AcDbDictionary
281
     1
  0
XRECORD
  5
6808
102
{ACAD_REACTORS
330
1CE
102
}
330
1CE
100
AcDbXrecord
280
     1
340
1F
  0
XRECORD
  5
6811
102
{ACAD_REACTORS
330
67B3
102
}
330
67B3
100
AcDbXrecord
280
     1
340
D2
  0
XRECORD
  5
6814
102
{ACAD_REACTORS
330
67B5
102
}
330
67B5
100
AcDbXrecord
280
     1
340
D6
  0
ACDBDETAILVIEWSTYLE
  5
21C
102
{ACAD_XDICTIONARY
360
68F0
102
}
102
{ACAD_REACTORS
330
21B
102
}
330
21B
100
AcDbModelDocViewStyle
 70
     0
  3
Metric50
290
     0
100
AcDbDetailViewStyle
 70
     0
 71
     0
 90
        3
 71
     1
340
11
 40
5.0
340
0
 40
5.0
300

 40
0.0
280
     1
 71
     2
340
16
 90
       25
 71
     3
340
11
 40
5.0
 90
        0
 40
15.0
 90
        1
300
%<\AcVar ViewDetailId>% (%<\AcVar ViewScale \f "%sn">%)
 71
     4
340
16
 90
       25
340
16
 90
       25
280
     0
  0
LAYOUT
  5
D3
102
{ACAD_XDICTIONARY
360
68B5
102
}
102
{ACAD_REACTORS
330
1A
102
}
330
1A
100
AcDbPlotSettings
  1

  2
C:\Documents and Settings\basas\Application Data\Autodesk\AutoCAD 2005\R16.1\enu\plotters\Default Windows System Printer.pc3
  4

  6

 40
0.0
 41
0.0
 42
0.0
 43
0.0
 44
0.0
 45
0.0
 46
0.0
 47
0.0
 48
0.0
 49
0.0
140
0.0
141
0.0
142
1.0
143
1.0
 70
   688
 72
     0
 73
     0
 74
     5
  7

 75
    16
147
1.0
148
0.0
149
0.0
100
AcDbLayout
  1
Layout1
 70
     1
 71
     1
 10
0.0
 20
0.0
 11
12.0
 21
9.0
 12
0.0
 22
0.0
 32
0.0
 14
0.0
 24
0.0
 34
0.0
 15
0.0
 25
0.0
 35
0.0
146
0.0
 13
0.0
 23
0.0
 33
0.0
 16
1.0
 26
0.0
 36
0.0
 17
0.0
 27
1.0
 37
0.0
 76
     0
330
D2
  0
LAYOUT
  5
D7
102
{ACAD_XDICTIONARY
360
68B7
102
}
102
{ACAD_REACTORS
330
1A
102
}
330
1A
100
AcDbPlotSettings
  1

  2
C:\Documents and Settings\basas\Application Data\Autodesk\AutoCAD 2005\R16.1\enu\plotters\Default Windows System Printer.pc3
  4

  6

 40
0.0
 41
0.0
 42
0.0
 43
0.0
 44
0.0
 45
0.0
 46
0.0
 47
0.0
 48
0.0
 49
0.0
140
0.0
141
0.0
142
1.0
143
1.0
 70
   688
 72
     0
 73
     0
 74
     5
  7

 75
    16
147
1.0
148
0.0
149
0.0
100
AcDbLayout
  1
Layout2
 70
     1
 71
     2
 10
0.0
 20
0.0
 11
12.0
 21
9.0
 12
0.0
 22
0.0
 32
0.0
 14
0.0
 24
0.0
 34
0.0
 15
0.0
 25
0.0
 35
0.0
146
0.0
 13
0.0
 23
0.0
 33
0.0
 16
1.0
 26
0.0
 36
0.0
 17
0.0
 27
1.0
 37
0.0
 76
     0
330
D6
  0
LAYOUT
  5
22
102
{ACAD_XDICTIONARY
360
68B2
102
}
102
{ACAD_REACTORS
330
1A
102
}
330
1A
100
AcDbPlotSettings
  1

  2
none_device
  4
ISO_A4_(210.00_x_297.00_MM)
  6

 40
7.5
 41
20.0
 42
7.5
 43
20.0
 44
210.0
 45
297.0
 46
11.54999923706054
 47
-13.65000009536743
 48
0.0
 49
0.0
140
0.0
141
0.0
142
1.0
143
8.704084754739808
 70
 11952
 72
     1
 73
     0
 74
     0
  7

 75
     0
147
0.1148885871608098
148
0.0
149
0.0
100
AcDbLayout
  1
Model
 70
     1
 71
     0
 10
0.0
 20
0.0
 11
12.0
 21
9.0
 12
0.0
 22
0.0
 32
0.0
 14
0.0
 24
0.0
 34
0.0
 15
0.0
 25
0.0
 35
0.0
146
0.0
 13
0.0
 23
0.0
 33
0.0
 16
1.0
 26
0.0
 36
0.0
 17
0.0
 27
1.0
 37
0.0
 76
     0
330
1F
331
EA
1001
ACAD_PSEXT
1000
None
1000
None
1000
Not applicable
1000
The layout will not be plotted unless a new plotter configuration name is selected.
1070
     0
  0
MATERIAL
  5
ED
102
{ACAD_XDICTIONARY
360
1F9
102
}
102
{ACAD_REACTORS
330
6A
102
}
330
6A
100
AcDbMaterial
  1
ByBlock
  0
MATERIAL
  5
EC
102
{ACAD_XDICTIONARY
360
1F7
102
}
102
{ACAD_REACTORS
330
6A
102
}
330
6A
100
AcDbMaterial
  1
ByLayer
  0
MATERIAL
  5
EE
102
{ACAD_XDICTIONARY
360
173
102
}
102
{ACAD_REACTORS
330
6A
102
}
330
6A
100
AcDbMaterial
  1
Global
 43
0.0007999999797903
 43
0.0
 43
0.0
 43
0.0
 43
0.0
 43
0.0007999999797903
 43
0.0
 43
0.0
 43
0.0
 43
0.0
 43
1.0
 43
0.0
 43
0.0
 43
0.0
 43
0.0
 43
1.0
 49
0.0007999999797903
 49
0.0
 49
0.0
 49
0.0
 49
0.0
 49
0.0007999999797903
 49
0.0
 49
0.0
 49
0.0
 49
0.0
 49
1.0
 49
0.0
 49
0.0
 49
0.0
 49
0.0
 49
1.0
142
0.0007999999797903
142
0.0
142
0.0
142
0.0
142
0.0
142
0.0007999999797903
142
0.0
142
0.0
142
0.0
142
0.0
142
1.0
142
0.0
142
0.0
142
0.0
142
0.0
142
1.0
144
0.0007999999797903
144
0.0
144
0.0
144
0.0
144
0.0
144
0.0007999999797903
144
0.0
144
0.0
144
0.0
144
0.0
144
1.0
144
0.0
144
0.0
144
0.0
144
0.0
144
1.0
1001
ACAD
1070
    -1
1070
     3
1070
     0
1000

1071
        0
1070
     0
  0
MLEADERSTYLE
  5
12E
102
{ACAD_XDICTIONARY
360
68DC
102
}
102
{ACAD_REACTORS
330
12D
102
}
330
12D
100
AcDbMLeaderStyle
170
     2
171
     1
172
     0
 90
        2
 40
0.0
 41
0.0
173
     1
 91
-1056964608
340
14
 92
       -2
290
     1
 42
2.0
291
     1
 43
8.0
  3
Standard
 44
4.0
300

342
11
174
     1
178
     1
175
     1
176
     0
 93
-1056964608
 45
4.0
292
     0
297
     0
 46
4.0
 94
-1056964608
 47
1.0
 49
1.0
140
1.0
293
     1
141
0.0
294
     1
177
     0
142
1.0
295
     0
296
     0
143
3.75
1001
ACAD_MLEADERVER
1070
     2
  0
MLINESTYLE
  5
18
102
{ACAD_REACTORS
330
17
102
}
330
17
100
AcDbMlineStyle
  2
STANDARD
 70
     0
  3

 62
   256
 51
90.0
 52
90.0
 71
     2
 49
0.5
 62
   256
  6
BYLAYER
 49
-0.5
 62
   256
  6
BYLAYER
  0
ACDBPLACEHOLDER
  5
F
102
{ACAD_REACTORS
330
E
102
}
330
E
  0
SCALE
  5
10D
102
{ACAD_REACTORS
330
10C
102
}
330
10C
100
AcDbScale
 70
     0
300
1:1
140
1.0
141
1.0
290
     1
  0
SCALE
  5
1BE
102
{ACAD_REACTORS
330
10C
102
}
330
10C
100
AcDbScale
 70
     0
300
1:2
140
1.0
141
2.0
290
     0
  0
SCALE
  5
1BF
102
{ACAD_REACTORS
330
10C
102
}
330
10C
100
AcDbScale
 70
     0
300
1:4
140
1.0
141
4.0
290
     0
  0
SCALE
  5
1C0
102
{ACAD_REACTORS
330
10C
102
}
330
10C
100
AcDbScale
 70
     0
300
1:5
140
1.0
141
5.0
290
     0
  0
SCALE
  5
1C1
102
{ACAD_REACTORS
330
10C
102
}
330
10C
100
AcDbScale
 70
     0
300
1:8
140
1.0
141
8.0
290
     0
  0
SCALE
  5
1C2
102
{ACAD_REACTORS
330
10C
102
}
330
10C
100
AcDbScale
 70
     0
300
1:10
140
1.0
141
10.0
290
     0
  0
SCALE
  5
1C3
102
{ACAD_REACTORS
330
10C
102
}
330
10C
100
AcDbScale
 70
     0
300
1:16
140
1.0
141
16.0
290
     0
  0
SCALE
  5
1C4
102
{ACAD_REACTORS
330
10C
102
}
330
10C
100
AcDbScale
 70
     0
300
1:20
140
1.0
141
20.0
290
     0
  0
SCALE
  5
1C5
102
{ACAD_REACTORS
330
10C
102
}
330
10C
100
AcDbScale
 70
     0
300
1:30
140
1.0
141
30.0
290
     0
  0
SCALE
  5
1C6
102
{ACAD_REACTORS
330
10C
102
}
330
10C
100
AcDbScale
 70
     0
300
1:40
140
1.0
141
40.0
290
     0
  0
SCALE
  5
1C7
102
{ACAD_REACTORS
330
10C
102
}
330
10C
100
AcDbScale
 70
     0
300
1:50
140
1.0
141
50.0
290
     0
  0
SCALE
  5
1C8
102
{ACAD_REACTORS
330
10C
102
}
330
10C
100
AcDbScale
 70
     0
300
1:100
140
1.0
141
100.0
290
     0
  0
SCALE
  5
1C9
102
{ACAD_REACTORS
330
10C
102
}
330
10C
100
AcDbScale
 70
     0
300
2:1
140
2.0
141
1.0
290
     0
  0
SCALE
  5
1CA
102
{ACAD_REACTORS
330
10C
102
}
330
10C
100
AcDbScale
 70
     0
300
4:1
140
4.0
141
1.0
290
     0
  0
SCALE
  5
1CB
102
{ACAD_REACTORS
330
10C
102
}
330
10C
100
AcDbScale
 70
     0
300
8:1
140
8.0
141
1.0
290
     0
  0
SCALE
  5
1CC
102
{ACAD_REACTORS
330
10C
102
}
330
10C
100
AcDbScale
 70
     0
300
10:1
140
10.0
141
1.0
290
     0
  0
SCALE
  5
1CD
102
{ACAD_REACTORS
330
10C
102
}
330
10C
100
AcDbScale
 70
     0
300
100:1
140
100.0
141
1.0
290
     0
  0
ACDBSECTIONVIEWSTYLE
  5
21A
102
{ACAD_XDICTIONARY
360
68EE
102
}
102
{ACAD_REACTORS
330
219
102
}
330
219
100
AcDbModelDocViewStyle
 70
     0
  3
Metric50
290
     0
100
AcDbSectionViewStyle
 70
     0
 71
     0
 90
      102
 71
     1
340
11
 40
5.0
340
0
340
0
 40
5.0
300
I, O, Q, S, X, Z
 40
10.0
 90
        0
 40
2.5
 90
        0
 71
     2
340
16
 90
       25
340
16
 90
       50
 40
5.0
 40
2.5
 40
5.0
 71
     3
340
11
 40
5.0
 90
        0
 40
15.0
 90
        1
300
%<\AcVar ViewSectionStartId>%-%<\AcVar ViewSectionEndId>% (%<\AcVar ViewScale \f "%sn">%)
 71
     4
300
ANSI31
 40
1.0
 90
        0
290
     0
290
     0
 90
        6
 40
0.0
 40
1.570796326794896
 40
0.2617993877991494
 40
1.308996938995747
 40
-0.2617993877991494
 40
1.832595714594046
  0
TABLESTYLE
  5
7F
102
{ACAD_XDICTIONARY
360
162
102
}
102
{ACAD_REACTORS
330
7E
102
}
330
7E
100
AcDbTableStyle
  3
Standard
 70
     0
 71
     0
 40
1.5
 41
1.5
280
     0
281
     0
  7
Standard
140
4.5
170
     2
 62
     0
 63
     7
283
     0
274
    -2
284
     1
 64
     0
275
    -2
285
     1
 65
     0
276
    -2
286
     1
 66
     0
277
    -2
287
     1
 67
     0
278
    -2
288
     1
 68
     0
279
    -2
289
     1
 69
     0
  7
Standard
140
6.0
170
     5
 62
     0
 63
     7
283
     0
274
    -2
284
     1
 64
     0
275
    -2
285
     1
 65
     0
276
    -2
286
     1
 66
     0
277
    -2
287
     1
 67
     0
278
    -2
288
     1
 68
     0
279
    -2
289
     1
 69
     0
  7
Standard
140
4.5
170
     5
 62
     0
 63
     7
283
     0
274
    -2
284
     1
 64
     0
275
    -2
285
     1
 65
     0
276
    -2
286
     1
 66
     0
277
    -2
287
     1
 67
     0
278
    -2
288
     1
 68
     0
279
    -2
289
     1
 69
     0
  0
VISUALSTYLE
  5
F5
102
{ACAD_XDICTIONARY
360
68C6
102
}
102
{ACAD_REACTORS
330
EF
102
}
330
EF
100
AcDbVisualStyle
  2
2dWireframe
 70
     4
 71
     0
 72
     2
 73
     1
 90
        0
 40
-0.6
 41
-30.0
 62
     5
 63
     7
 74
     1
 91
        4
 64
     7
 65
   257
 75
     1
175
     1
 42
1.0
 92
        0
 66
   257
 43
1.0
 76
     1
 77
     6
 78
     2
 67
     7
 79
     5
170
     0
171
     0
290
     0
174
     0
 93
        1
 44
0.0
173
     0
291
     0
 45
0.0
1001
ACAD
1000
AcDbSavedByObjectVersion
1070
     0
  0
VISUALSTYLE
  5
F4
102
{ACAD_XDICTIONARY
360
68C4
102
}
102
{ACAD_REACTORS
330
EF
102
}
330
EF
100
AcDbVisualStyle
  2
Basic
 70
     7
 71
     1
 72
     0
 73
     1
 90
        0
 40
-0.6
 41
-30.0
 62
     5
 63
     7
 74
     0
 91
        4
 64
     7
 65
   257
 75
     1
175
     1
 42
1.0
 92
        8
 66
     7
 43
1.0
 76
     1
 77
     6
 78
     2
 67
     7
 79
     5
170
     0
171
     0
290
     0
174
     0
 93
        1
 44
0.0
173
     0
291
     1
 45
0.0
1001
ACAD
1000
AcDbSavedByObjectVersion
1070
     0
  0
VISUALSTYLE
  5
FB
102
{ACAD_XDICTIONARY
360
68D2
102
}
102
{ACAD_REACTORS
330
EF
102
}
330
EF
100
AcDbVisualStyle
  2
Brighten
 70
    12
 71
     2
 72
     2
 73
     1
 90
        0
 40
-0.6
 41
-30.0
 62
     5
 63
     7
 74
     1
 91
        4
 64
     7
 65
   257
 75
     1
175
     1
 42
1.0
 92
        8
 66
     7
 43
1.0
 76
     1
 77
     6
 78
     2
 67
     7
 79
     5
170
     0
171
     0
290
     0
174
     0
 93
        1
 44
50.0
173
     0
291
     1
 45
0.0
1001
ACAD
1000
AcDbSavedByObjectVersion
1070
     0
  0
VISUALSTYLE
  5
FF
102
{ACAD_XDICTIONARY
360
68DA
102
}
102
{ACAD_REACTORS
330
EF
102
}
330
EF
100
AcDbVisualStyle
  2
ColorChange
 70
    16
 71
     2
 72
     2
 73
     3
 90
        0
 40
-0.6
 41
-30.0
 62
     5
 63
     8
 74
     1
 91
        4
 64
     7
 65
   257
 75
     1
175
     1
 42
1.0
 92
        8
 66
     8
 43
1.0
 76
     1
 77
     6
 78
     2
 67
     7
 79
     5
170
     0
171
     0
290
     0
174
     0
 93
        1
 44
0.0
173
     0
291
     1
 45
0.0
1001
ACAD
1000
AcDbSavedByObjectVersion
1070
     0
  0
VISUALSTYLE
  5
F8
102
{ACAD_XDICTIONARY
360
68CC
102
}
102
{ACAD_REACTORS
330
EF
102
}
330
EF
100
AcDbVisualStyle
  2
Conceptual
 70
     9
 71
     3
 72
     2
 73
     1
 90
        0
 40
-0.6
 41
-30.0
 62
     5
 63
     7
 74
     2
 91
        2
 64
     7
 65
   257
 75
     1
175
     1
 42
40.0
 92
        8
 66
     7
 43
1.0
 76
     1
 77
     6
 78
     2
 67
     7
 79
     3
170
     0
171
     0
290
     0
174
     0
 93
        1
 44
0.0
173
     0
291
     0
 45
0.0
1001
ACAD
1000
AcDbSavedByObjectVersion
1070
     0
  0
VISUALSTYLE
  5
FA
102
{ACAD_XDICTIONARY
360
68D0
102
}
102
{ACAD_REACTORS
330
EF
102
}
330
EF
100
AcDbVisualStyle
  2
Dim
 70
    11
 71
     2
 72
     2
 73
     1
 90
        0
 40
-0.6
 41
-30.0
 62
     5
 63
     7
 74
     1
 91
        4
 64
     7
 65
   257
 75
     1
175
     1
 42
1.0
 92
        8
 66
     7
 43
1.0
 76
     1
 77
     6
 78
     2
 67
     7
 79
     5
170
     0
171
     0
290
     0
174
     0
 93
        1
 44
-50.0
173
     0
291
     1
 45
0.0
1001
ACAD
1000
AcDbSavedByObjectVersion
1070
     0
  0
VISUALSTYLE
  5
1E6
102
{ACAD_XDICTIONARY
360
68E2
102
}
102
{ACAD_REACTORS
330
EF
102
}
330
EF
100
AcDbVisualStyle
  2
EdgeColorOff
 70
    22
 71
     2
 72
     2
 73
     0
 90
        0
 40
-0.6
 41
-30.0
 62
     5
 63
     7
 74
     1
 91
        4
 64
     7
 65
   257
 75
     1
175
     1
 42
1.0
 92
        8
 66
     7
 43
1.0
 76
     1
 77
     6
 78
     2
 67
     7
 79
     5
170
     0
171
     0
290
     0
174
     0
 93
        1
 44
0.0
173
     0
291
     1
 45
0.0
1001
ACAD
1000
AcDbSavedByObjectVersion
1070
     0
  0
VISUALSTYLE
  5
FE
102
{ACAD_XDICTIONARY
360
68D8
102
}
102
{ACAD_REACTORS
330
EF
102
}
330
EF
100
AcDbVisualStyle
  2
Facepattern
 70
    15
 71
     2
 72
     2
 73
     1
 90
        0
 40
-0.6
 41
-30.0
 62
     5
 63
     7
 74
     1
 91
        4
 64
     7
 65
   257
 75
     1
175
     1
 42
1.0
 92
        8
 66
     7
 43
1.0
 76
     1
 77
     6
 78
     2
 67
     7
 79
     5
170
     0
171
     0
290
     0
174
     0
 93
        1
 44
0.0
173
     0
291
     1
 45
0.0
1001
ACAD
1000
AcDbSavedByObjectVersion
1070
     0
  0
VISUALSTYLE
  5
F0
102
{ACAD_XDICTIONARY
360
68BC
102
}
102
{ACAD_REACTORS
330
EF
102
}
330
EF
100
AcDbVisualStyle
  2
Flat
 70
     0
 71
     2
 72
     1
 73
     1
 90
        2
 40
-0.6
 41
30.0
 62
     5
 63
     7
 74
     0
 91
        0
 64
     7
 65
   257
 75
     1
175
     1
 42
1.0
 92
        8
 66
     7
 43
1.0
 76
     1
 77
     6
 78
     2
 67
     7
 79
     5
170
     0
171
     0
290
     0
174
     0
 93
       13
 44
0.0
173
     0
291
     1
 45
0.0
1001
ACAD
1000
AcDbSavedByObjectVersion
1070
     0
  0
VISUALSTYLE
  5
F1
102
{ACAD_XDICTIONARY
360
68BE
102
}
102
{ACAD_REACTORS
330
EF
102
}
330
EF
100
AcDbVisualStyle
  2
FlatWithEdges
 70
     1
 71
     2
 72
     1
 73
     1
 90
        2
 40
-0.6
 41
30.0
 62
     5
 63
     7
 74
     1
 91
        0
 64
     7
 65
   257
 75
     1
175
     1
 42
1.0
 92
        0
 66
   257
 43
1.0
 76
     1
 77
     6
 78
     2
 67
     7
 79
     5
170
     0
171
     0
290
     0
174
     0
 93
       13
 44
0.0
173
     0
291
     1
 45
0.0
1001
ACAD
1000
AcDbSavedByObjectVersion
1070
     0
  0
VISUALSTYLE
  5
F2
102
{ACAD_XDICTIONARY
360
68C0
102
}
102
{ACAD_REACTORS
330
EF
102
}
330
EF
100
AcDbVisualStyle
  2
Gouraud
 70
     2
 71
     2
 72
     2
 73
     1
 90
        2
 40
-0.6
 41
30.0
 62
     5
 63
     7
 74
     0
 91
        0
 64
     7
 65
   257
 75
     1
175
     1
 42
1.0
 92
        0
 66
     7
 43
1.0
 76
     1
 77
     6
 78
     2
 67
     7
 79
     5
170
     0
171
     0
290
     0
174
     0
 93
       13
 44
0.0
173
     0
291
     1
 45
0.0
1001
ACAD
1000
AcDbSavedByObjectVersion
1070
     0
  0
VISUALSTYLE
  5
F3
102
{ACAD_XDICTIONARY
360
68C2
102
}
102
{ACAD_REACTORS
330
EF
102
}
330
EF
100
AcDbVisualStyle
  2
GouraudWithEdges
 70
     3
 71
     2
 72
     2
 73
     1
 90
        2
 40
-0.6
 41
30.0
 62
     5
 63
     7
 74
     1
 91
        0
 64
     7
 65
   257
 75
     1
175
     1
 42
1.0
 92
        0
 66
   257
 43
1.0
 76
     1
 77
     6
 78
     2
 67
     7
 79
     5
170
     0
171
     0
290
     0
174
     0
 93
       13
 44
0.0
173
     0
291
     1
 45
0.0
1001
ACAD
1000
AcDbSavedByObjectVersion
1070
     0
  0
VISUALSTYLE
  5
F7
102
{ACAD_XDICTIONARY
360
68CA
102
}
102
{ACAD_REACTORS
330
EF
102
}
330
EF
100
AcDbVisualStyle
  2
Hidden
 70
     6
 71
     1
 72
     2
 73
     2
 90
        0
 40
-0.6
 41
-30.0
 62
     5
 63
     7
 74
     2
 91
        2
 64
     7
 65
   257
 75
     2
175
     1
 42
40.0
 92
        0
 66
   257
 43
1.0
 76
     1
 77
     6
 78
     2
 67
     7
 79
     3
170
     0
171
     0
290
     0
174
     0
 93
        1
 44
0.0
173
     0
291
     0
 45
0.0
1001
ACAD
1000
AcDbSavedByObjectVersion
1070
     0
  0
VISUALSTYLE
  5
1E4
102
{ACAD_XDICTIONARY
360
68DE
102
}
102
{ACAD_REACTORS
330
EF
102
}
330
EF
100
AcDbVisualStyle
  2
JitterOff
 70
    20
 71
     2
 72
     2
 73
     0
 90
        0
 40
-0.6
 41
-30.0
 62
     5
 63
     7
 74
     1
 91
        4
 64
     7
 65
   257
 75
     1
175
     1
 42
1.0
 92
       10
 66
     7
 43
1.0
 76
     1
 77
     6
 78
     2
 67
     7
 79
     5
170
     0
171
     0
290
     0
174
     0
 93
        1
 44
0.0
173
     0
291
     1
 45
0.0
1001
ACAD
1000
AcDbSavedByObjectVersion
1070
     0
  0
VISUALSTYLE
  5
FD
102
{ACAD_XDICTIONARY
360
68D6
102
}
102
{ACAD_REACTORS
330
EF
102
}
330
EF
100
AcDbVisualStyle
  2
Linepattern
 70
    14
 71
     2
 72
     2
 73
     1
 90
        0
 40
-0.6
 41
-30.0
 62
     5
 63
     7
 74
     1
 91
        4
 64
     7
 65
   257
 75
     7
175
     7
 42
1.0
 92
        8
 66
     7
 43
1.0
 76
     1
 77
     6
 78
     2
 67
     7
 79
     5
170
     0
171
     0
290
     0
174
     0
 93
        1
 44
0.0
173
     0
291
     1
 45
0.0
1001
ACAD
1000
AcDbSavedByObjectVersion
1070
     0
  0
VISUALSTYLE
  5
1E5
102
{ACAD_XDICTIONARY
360
68E0
102
}
102
{ACAD_REACTORS
330
EF
102
}
330
EF
100
AcDbVisualStyle
  2
OverhangOff
 70
    21
 71
     2
 72
     2
 73
     0
 90
        0
 40
-0.6
 41
-30.0
 62
     5
 63
     7
 74
     1
 91
        4
 64
     7
 65
   257
 75
     1
175
     1
 42
1.0
 92
        9
 66
     7
 43
1.0
 76
     1
 77
     6
 78
     2
 67
     7
 79
     5
170
     0
171
     0
290
     0
174
     0
 93
        1
 44
0.0
173
     0
291
     1
 45
0.0
1001
ACAD
1000
AcDbSavedByObjectVersion
1070
     0
  0
VISUALSTYLE
  5
F9
102
{ACAD_XDICTIONARY
360
68CE
102
}
102
{ACAD_REACTORS
330
EF
102
}
330
EF
100
AcDbVisualStyle
  2
Realistic
 70
     8
 71
     2
 72
     2
 73
     0
 90
        2
 40
-0.6
 41
30.0
 62
     5
 63
     7
 74
     0
 91
        0
 64
     7
 65
   257
 75
     1
175
     1
 42
1.0
 92
        8
 66
   257
 43
1.0
 76
     1
 77
     6
 78
     2
 67
     7
 79
     3
170
     0
171
     0
290
     0
174
     0
 93
       13
 44
0.0
173
     0
291
     0
 45
0.0
1001
ACAD
1000
AcDbSavedByObjectVersion
1070
     0
  0
VISUALSTYLE
  5
1F3
102
{ACAD_XDICTIONARY
360
68EC
102
}
102
{ACAD_REACTORS
330
EF
102
}
330
EF
100
AcDbVisualStyle
  2
Shaded
 70
    27
 71
     2
 72
     2
 73
     1
 90
        2
 40
-0.6
 41
30.0
 62
     5
 63
     7
 74
     0
 91
        4
 64
     7
 65
   257
 75
     1
175
     1
 42
1.0
 92
        8
 66
   257
 43
1.0
 76
     1
 77
     6
 78
     2
 67
     8
 79
     3
170
     0
171
     0
290
     0
174
     0
 93
        5
 44
0.0
173
     0
291
     0
 45
0.0
1001
ACAD
1000
AcDbSavedByObjectVersion
1070
     0
  0
VISUALSTYLE
  5
1F2
102
{ACAD_XDICTIONARY
360
68EA
102
}
102
{ACAD_REACTORS
330
EF
102
}
330
EF
100
AcDbVisualStyle
  2
Shaded with edges
 70
    26
 71
     2
 72
     2
 73
     1
 90
        2
 40
-0.6
 41
30.0
 62
     5
 63
     7
 74
     1
 91
        2
 64
     7
 65
   257
 75
     2
175
     1
 42
1.0
 92
        8
 66
   257
 43
1.0
 76
     1
 77
     6
 78
     2
 67
     7
 79
     3
170
     0
171
     0
290
     0
174
     0
 93
        5
 44
0.0
173
     0
291
     0
 45
0.0
1001
ACAD
1000
AcDbSavedByObjectVersion
1070
     0
  0
VISUALSTYLE
  5
1EF
102
{ACAD_XDICTIONARY
360
68E4
102
}
102
{ACAD_REACTORS
330
EF
102
}
330
EF
100
AcDbVisualStyle
  2
Shades of Gray
 70
    23
 71
     2
 72
     2
 73
     3
 90
        0
 40
-0.6
 41
-30.0
 62
     5
 63
     7
 74
     2
 91
        2
 64
     7
 65
     7
 75
     1
175
     1
 42
40.0
 92
        8
 66
     7
 43
1.0
 76
     1
 77
     6
 78
     2
 67
     7
 79
     3
170
     0
171
     0
290
     0
174
     0
 93
        1
 44
0.0
173
     0
291
     0
 45
0.0
1001
ACAD
1000
AcDbSavedByObjectVersion
1070
     0
  0
VISUALSTYLE
  5
1F0
102
{ACAD_XDICTIONARY
360
68E6
102
}
102
{ACAD_REACTORS
330
EF
102
}
330
EF
100
AcDbVisualStyle
  2
Sketchy
 70
    24
 71
     1
 72
     2
 73
     2
 90
        0
 40
-0.6
 41
-30.0
 62
     5
 63
     7
 74
     2
 91
        2
 64
     7
 65
     7
 75
     1
175
     1
 42
40.0
 92
       11
 66
     7
 43
1.0
 76
     1
 77
     6
 78
     2
 67
     7
 79
     6
170
     0
171
     0
290
     0
174
     0
 93
        1
 44
0.0
173
     0
291
     0
 45
0.0
1001
ACAD
1000
AcDbSavedByObjectVersion
1070
     0
  0
VISUALSTYLE
  5
FC
102
{ACAD_XDICTIONARY
360
68D4
102
}
102
{ACAD_REACTORS
330
EF
102
}
330
EF
100
AcDbVisualStyle
  2
Thicken
 70
    13
 71
     2
 72
     2
 73
     1
 90
        0
 40
-0.6
 41
-30.0
 62
     5
 63
     7
 74
     1
 91
        4
 64
     7
 65
   257
 75
     1
175
     1
 42
1.0
 92
       12
 66
     7
 43
1.0
 76
     1
 77
     6
 78
     2
 67
     7
 79
     5
170
     0
171
     0
290
     0
174
     0
 93
        1
 44
0.0
173
     0
291
     1
 45
0.0
1001
ACAD
1000
AcDbSavedByObjectVersion
1070
     0
  0
VISUALSTYLE
  5
F6
102
{ACAD_XDICTIONARY
360
68C8
102
}
102
{ACAD_REACTORS
330
EF
102
}
330
EF
100
AcDbVisualStyle
  2
Wireframe
 70
     5
 71
     0
 72
     2
 73
     0
 90
        0
 40
-0.6
 41
-30.0
 62
     5
 63
     7
 74
     1
 91
        4
 64
     7
 65
   257
 75
     1
175
     1
 42
1.0
 92
        0
 66
   257
 43
1.0
 76
     1
 77
     6
 78
     2
 67
     7
 79
     3
170
     0
171
     0
290
     0
174
     0
 93
        1
 44
0.0
173
     0
291
     0
 45
0.0
1001
ACAD
1000
AcDbSavedByObjectVersion
1070
     0
  0
VISUALSTYLE
  5
1F1
102
{ACAD_XDICTIONARY
360
68E8
102
}
102
{ACAD_REACTORS
330
EF
102
}
330
EF
100
AcDbVisualStyle
  2
X-Ray
 70
    25
 71
     2
 72
     2
 73
     1
 90
        1
 40
0.5
 41
-30.0
 62
     5
 63
     7
 74
     1
 91
        0
 64
     7
 65
   257
 75
     1
175
     1
 42
1.0
 92
        8
 66
     7
 43
1.0
 76
     1
 77
     6
 78
     2
 67
     7
 79
     3
170
     0
171
     0
290
     0
174
     0
 93
       13
 44
0.0
173
     0
291
     0
 45
0.0
1001
ACAD
1000
AcDbSavedByObjectVersion
1070
     0
  0
DICTIONARYVAR
  5
146
102
{ACAD_REACTORS
330
5E
102
}
330
5E
100
DictionaryVariables
280
     0
  1
1:1
  0
DICTIONARYVAR
  5
259
102
{ACAD_REACTORS
330
5E
102
}
330
5E
100
DictionaryVariables
280
     0
  1
3.500000
  0
DICTIONARYVAR
  5
25A
102
{ACAD_REACTORS
330
5E
102
}
330
5E
100
DictionaryVariables
280
     0
  1
acadiso.lin
  0
DICTIONARYVAR
  5
145
102
{ACAD_REACTORS
330
5E
102
}
330
5E
100
DictionaryVariables
280
     0
  1
STANDARD
  0
DICTIONARYVAR
  5
84
102
{ACAD_REACTORS
330
5E
102
}
330
5E
100
DictionaryVariables
280
     0
  1
STANDARD
  0
DICTIONARYVAR
  5
227
102
{ACAD_REACTORS
330
5E
102
}
330
5E
100
DictionaryVariables
280
     0
  1
Metric50
  0
DICTIONARYVAR
  5
228
102
{ACAD_REACTORS
330
5E
102
}
330
5E
100
DictionaryVariables
280
     0
  1
Metric50
  0
DICTIONARYVAR
  5
5F
102
{ACAD_REACTORS
330
5E
102
}
330
5E
100
DictionaryVariables
280
     0
  1
2
  0
DICTIONARYVAR
  5
63
102
{ACAD_REACTORS
330
5E
102
}
330
5E
100
DictionaryVariables
280
     0
  1
1
  0
DICTIONARYVAR
  5
685D
102
{ACAD_REACTORS
330
5E
102
}
330
5E
100
DictionaryVariables
280
     0
  1
0
  0
DICTIONARYVAR
  5
1AE
102
{ACAD_REACTORS
330
5E
102
}
330
5E
100
DictionaryVariables
280
     0
  1
0
  0
DICTIONARYVAR
  5
1AF
102
{ACAD_REACTORS
330
5E
102
}
330
5E
100
DictionaryVariables
280
     0
  1
0
  0
DICTIONARYVAR
  5
685B
102
{ACAD_REACTORS
330
5E
102
}
330
5E
100
DictionaryVariables
280
     0
  1
2
  0
DICTIONARYVAR
  5
685A
102
{ACAD_REACTORS
330
5E
102
}
330
5E
100
DictionaryVariables
280
     0
  1
1
  0
DICTIONARYVAR
  5
68AD
102
{ACAD_REACTORS
330
5E
102
}
330
5E
100
DictionaryVariables
280
     0
  1
80.000000
  0
DICTIONARYVAR
  5
68AC
102
{ACAD_REACTORS
330
5E
102
}
330
5E
100
DictionaryVariables
280
     0
  1
5.000000
  0
DICTIONARYVAR
  5
685C
102
{ACAD_REACTORS
330
5E
102
}
330
5E
100
DictionaryVariables
280
     0
  1
127
  0
DICTIONARYVAR
  5
68AE
102
{ACAD_REACTORS
330
5E
102
}
330
5E
100
DictionaryVariables
280
     0
  1
2
  0
DICTIONARY
  5
68F0
330
21C
100
AcDbDictionary
280
     1
281
     1
  3
ACAD_XREC_ROUNDTRIP
360
68F1
  0
DICTIONARY
  5
68B5
330
D3
100
AcDbDictionary
280
     1
281
     1
  3
ACAD_XREC_ROUNDTRIP
360
68B6
  0
DICTIONARY
  5
68B7
330
D7
100
AcDbDictionary
280
     1
281
     1
  3
ACAD_XREC_ROUNDTRIP
360
68B8
  0
DICTIONARY
  5
68B2
330
22
100
AcDbDictionary
280
     1
281
     1
  3
ACAD_XREC_ROUNDTRIP
360
68B3
  0
DICTIONARY
  5
1F9
330
ED
100
AcDbDictionary
280
     1
281
     1
  3
ACAD_XREC_ROUNDTRIP
360
68BA
  3
FBXASSET
360
1FA
  0
DICTIONARY
  5
1F7
330
EC
100
AcDbDictionary
280
     1
281
     1
  3
ACAD_XREC_ROUNDTRIP
360
68B9
  3
FBXASSET
360
1F8
  0
DICTIONARY
  5
173
330
EE
100
AcDbDictionary
280
     1
281
     1
  3
ACAD_XREC_ROUNDTRIP
360
68BB
  3
BUMPTILE
360
175
  3
DIFFUSETILE
360
174
  3
FBXASSET
360
1FB
  3
OPACITYTILE
360
176
  3
REFLECTIONTILE
360
177
  0
DICTIONARY
  5
68DC
330
12E
100
AcDbDictionary
280
     1
281
     1
  3
ACAD_XREC_ROUNDTRIP
360
68DD
  0
DICTIONARY
  5
68EE
330
21A
100
AcDbDictionary
280
     1
281
     1
  3
ACAD_XREC_ROUNDTRIP
360
68EF
  0
DICTIONARY
  5
162
330
7F
100
AcDbDictionary
280
     1
281
     1
  3
ACAD_ROUNDTRIP_2008_TABLESTYLE_CELLSTYLEMAP
360
68AF
  3
ACAD_XREC_ROUNDTRIP
360
68B4
  0
DICTIONARY
  5
68C6
330
F5
100
AcDbDictionary
280
     1
281
     1
  3
ACAD_XREC_ROUNDTRIP
360
68C7
  0
DICTIONARY
  5
68C4
330
F4
100
AcDbDictionary
280
     1
281
     1
  3
ACAD_XREC_ROUNDTRIP
360
68C5
  0
DICTIONARY
  5
68D2
330
FB
100
AcDbDictionary
280
     1
281
     1
  3
ACAD_XREC_ROUNDTRIP
360
68D3
  0
DICTIONARY
  5
68DA
330
FF
100
AcDbDictionary
280
     1
281
     1
  3
ACAD_XREC_ROUNDTRIP
360
68DB
  0
DICTIONARY
  5
68CC
330
F8
100
AcDbDictionary
280
     1
281
     1
  3
ACAD_XREC_ROUNDTRIP
360
68CD
  0
DICTIONARY
  5
68D0
330
FA
100
AcDbDictionary
280
     1
281
     1
  3
ACAD_XREC_ROUNDTRIP
360
68D1
  0
DICTIONARY
  5
68E2
330
1E6
100
AcDbDictionary
280
     1
281
     1
  3
ACAD_XREC_ROUNDTRIP
360
68E3
  0
DICTIONARY
  5
68D8
330
FE
100
AcDbDictionary
280
     1
281
     1
  3
ACAD_XREC_ROUNDTRIP
360
68D9
  0
DICTIONARY
  5
68BC
330
F0
100
AcDbDictionary
280
     1
281
     1
  3
ACAD_XREC_ROUNDTRIP
360
68BD
  0
DICTIONARY
  5
68BE
330
F1
100
AcDbDictionary
280
     1
281
     1
  3
ACAD_XREC_ROUNDTRIP
360
68BF
  0
DICTIONARY
  5
68C0
330
F2
100
AcDbDictionary
280
     1
281
     1
  3
ACAD_XREC_ROUNDTRIP
360
68C1
  0
DICTIONARY
  5
68C2
330
F3
100
AcDbDictionary
280
     1
281
     1
  3
ACAD_XREC_ROUNDTRIP
360
68C3
  0
DICTIONARY
  5
68CA
330
F7
100
AcDbDictionary
280
     1
281
     1
  3
ACAD_XREC_ROUNDTRIP
360
68CB
  0
DICTIONARY
  5
68DE
330
1E4
100
AcDbDictionary
280
     1
281
     1
  3
ACAD_XREC_ROUNDTRIP
360
68DF
  0
DICTIONARY
  5
68D6
330
FD
100
AcDbDictionary
280
     1
281
     1
  3
ACAD_XREC_ROUNDTRIP
360
68D7
  0
DICTIONARY
  5
68E0
330
1E5
100
AcDbDictionary
280
     1
281
     1
  3
ACAD_XREC_ROUNDTRIP
360
68E1
  0
DICTIONARY
  5
68CE
330
F9
100
AcDbDictionary
280
     1
281
     1
  3
ACAD_XREC_ROUNDTRIP
360
68CF
  0
DICTIONARY
  5
68EC
330
1F3
100
AcDbDictionary
280
     1
281
     1
  3
ACAD_XREC_ROUNDTRIP
360
68ED
  0
DICTIONARY
  5
68EA
330
1F2
100
AcDbDictionary
280
     1
281
     1
  3
ACAD_XREC_ROUNDTRIP
360
68EB
  0
DICTIONARY
  5
68E4
330
1EF
100
AcDbDictionary
280
     1
281
     1
  3
ACAD_XREC_ROUNDTRIP
360
68E5
  0
DICTIONARY
  5
68E6
330
1F0
100
AcDbDictionary
280
     1
281
     1
  3
ACAD_XREC_ROUNDTRIP
360
68E7
  0
DICTIONARY
  5
68D4
330
FC
100
AcDbDictionary
280
     1
281
     1
  3
ACAD_XREC_ROUNDTRIP
360
68D5
  0
DICTIONARY
  5
68C8
330
F6
100
AcDbDictionary
280
     1
281
     1
  3
ACAD_XREC_ROUNDTRIP
360
68C9
  0
DICTIONARY
  5
68E8
330
1F1
100
AcDbDictionary
280
     1
281
     1
  3
ACAD_XREC_ROUNDTRIP
360
68E9
  0
XRECORD
  5
68F1
102
{ACAD_REACTORS
330
68F0
102
}
330
68F0
100
AcDbXrecord
280
     1
102
DISPLAYNAME
  1
Metric50
102
FLAGS
 90
        0
  0
XRECORD
  5
68B6
102
{ACAD_REACTORS
330
68B5
102
}
330
68B5
100
AcDbXrecord
280
     1
102
SHADEPLOT
 70
     0
102
SHADEPLOTRESLEVEL
 70
     2
102
SHADEPLOTCUSTOMDPI
 70
   300
  0
XRECORD
  5
68B8
102
{ACAD_REACTORS
330
68B7
102
}
330
68B7
100
AcDbXrecord
280
     1
102
SHADEPLOT
 70
     0
102
SHADEPLOTRESLEVEL
 70
     2
102
SHADEPLOTCUSTOMDPI
 70
   300
  0
XRECORD
  5
68B3
102
{ACAD_REACTORS
330
68B2
102
}
330
68B2
100
AcDbXrecord
280
     1
102
SHADEPLOT
 70
     0
102
SHADEPLOTRESLEVEL
 70
     2
102
SHADEPLOTCUSTOMDPI
 70
   300
  0
XRECORD
  5
68BA
102
{ACAD_REACTORS
330
1F9
102
}
330
1F9
100
AcDbXrecord
280
     1
102
MATERIAL
148
0.0
149
0.0
149
0.0
 93
        0
 94
       63
282
     0
 72
     1
 77
     1
171
     1
175
     1
179
     1
273
     0
  0
XRECORD
  5
1FA
102
{ACAD_REACTORS
330
1F9
102
}
330
1F9
100
AcDbXrecord
280
     1
 70
     1
 90
429727718
  1
D62C5603-E3A1-4AEA-B7FB-FE5D8D0755AF
310
504B03040A0000080000CC70623B3DEE336E79000000790000001B0000006175746F6465736B2D64657369676E2D7061636B6167652E786D6C3C3F786D6C2076657273696F6E3D22312E302220656E636F64696E673D227574662D3822203F3E3C666F726D6174733E3C666F726D61743E687474703A2F2F736368656D612E
310
6175746F6465736B2E636F6D2F64657369676E2D7061636B6167652F323030393C2F666F726D61743E3C2F666F726D6174733E504B0304140006080800CC70623BD486FD9CA0000000F4000000130000005B436F6E74656E745F54797065735D2E786D6C7D8EC10E82300C865F65E91D8A1E8C310C0EEA1BF002731658846E
310
D98AC1B77784ABF1D8FE5FBFBF75BBCE937A534CCEB38643598122B6FEE978D0B0485F9C41B54DDD7D022595594E1A469170414C76A4D9A4D207E29CF43ECE46F218070CC6BECC4078ACAA135ACF422C856C0E68EA1BF5669944DDD7BCDE7B1F8E415D77AECB980613C2E4AC91FC167A2B244592486606FC29C8FD7F045B9A
310
EF7053A7E60B504B0304140006080800CC70623B853B8169EB0000007C01000008000000636F72652E786D6C8D90416EC3201045AF62CDB6C206821CC7C244919D9CA01740401C94182C03558F5F9C3852BBEB6A467FFE9B197D7EFC9E1EC5975982F5AE035262288C535E5B377690E21535501C055FBC8FBF6C503839990E
310
5619041F179FE64D52DE45E362569DD7661365082642A11EB9E920A89B99642953CC8E702F67A9EE7234257977194EC9EAE275C4EABCCF5EAD5940D4AC6F0E35A568B8F43562CD7046CD199FD07E60174276A7BE677B5EADB0E0D14EEFFB6A31321A0D82627C4084204C3F096B71DD52F6819B16635EADF63F509AF53FA164
310
5DDCD1EDDD17164090FCC8732078B56691CB33A85CD7DCC40F504B0304140006080800CC70623B55019EA25F0000007C00000007000000636E782E786D6C4DCB3B0E80201045D1AD90E915ED2CF8AC45050C11660C8261F98AB1B07AC9C97D42D718D865D3E909258CFD00CCE24AC6E326A164D74DC0B4128928FF32603847
310
2BA13128B1252AC747C6BAB984FC68F0B87FE8960A5C09FE86CFB69FBA01504B0304140006080800CC70623BDBABAAF470010000D40300000C0000006662782F636F72652E786D6CC553D16E823014FD95A6AF4B694182CC941A83FA05FB810A9511A125A5257EFE2E82712ECEB8A7F100CD39F7F69E734AF9FADC366850B6
310
AF8DCE7018308C942E4C59EB2AC3DE1D498AD15A706B8CFB56869196ADCAF00863C12B6B7C374385D14E6907A836A59A41D9F7CA615434B0C8705F7CAA5606D23BA8E84F41278B93AC54100640439DE0BDB320004D43C63716C7C399D30917DCFBBA9CD9BA8469F5B156168B24CED3F7248AC8769F27244EB73B92EED8862C
310
B7F13E0C179B3C8F979C8ECD82BBBABDAA2BAC924E9558448CBD9330242CFA08E3154B5651FCC6D215639C8EE5774DBE2B5F6CF2B5768B68963BB5F5588420E442FC700B1139D4CB01F450C1E918227C2E09DF070D8140C84E1E9AAB8F1340832A9CB13130A5F1376A908D57309505ECF2A0DF179C4E9D30F5B239B87E3823
310
7A79C6F31DE1A8A5AEC08474B03C7837EAE4938639B44E5932B833D2C6B6B279CDC613877FA26EE21F4A2A4C63EC7F29A2F301D1F9F7A0E37D145F504B0304140006080800CC70623B9C113CC27E0000009D0000000B0000006662782F636E782E786D6C4DCCDF0A83201C86E15B91DFB94BFB330DD428C8FB886521330DA7
310
6397BF1A1DECE883878F57749FCDA1B7892F1BBC047A23808C7F84D9FA55424E0BE6803A256208E9EF06C84F9B91703228B1C690F78B66B34CD9A5439DF5CF0BFBF65E35BCA1B8D6A5C6F540381E886698B5741C695F9503EBA150A2F8958E3DC3EA0B504B0304140006080800CC70623B7DF2F77C2A010000120200003100
310
00006662782F41393633353835312D344632462D344230382D423046372D3739314545314133324237412F636F72652E786D6C8D51DB8EC22014FC15C2939B0D2DB4B45643319AE817EC0F6041255A68B86CFCFC856D4D76DF7CE190393373060EDB3DC707F856CE6B6B7A480A0C81328395DA5C7B18C3057510EC3873D686
310
3F34088C18550F330C39BB3A1BA7051AAC09CA84841A2BD5020AEF55806078A44B0FFD7053A328440C89E1EFC52486BBB8AA8214A99D789CF9E05200300FC927E4FB4D5B375D43103D5527440FB843077C5AA3F5861C8F645F5787F59E95B390B318B55CE45AA638FAA2957BD7248B390B7A7CC51F9C124149C82B8C378810
310
84AB2F42B7B8DD56F413775B8C5999E9FF4471926F8AA236A1AE96B8B3CC434E5839373893369E1FAF30EA395917409EB7F26AF8801C171837A4A6AC9C89E9F9C9B1A58BA30FD6A5EF5DDDCF894B9AD9B6A59C957943A9FCAE2FD5BC4DFE03504B0304140006080800CC70623BAD7543B64E01000033030000300000006662
310
782F41393633353835312D344632462D344230382D423046372D3739314545314133324237412F636E782E786D6CD593CD6EC32010845F0571AD6CE3D48AD20813A9873E410FBD12D82434182C7EAAE6EDBB2424CD25871E7B41D6EC30B3FA84F9E67BB2E40B4234DE8DB46F1925E094D7C6ED479AD3AE5951B2113C789FEE
310
6C943839C1488B4C05DF079FE72A69D8C96C13AAD6B8631503449F83828872B949AC57D26200B826A308D316B4064D6E46FCDA41C05550DC9E483A00797BFD207EFB092A45DE9514C1BBD22178396BD39D891265658C238DEA00936C654E5E433CB65A26D9F6EDB5EBC14EBF49A45CB856E66048291F6939A9A81BB5C89177
310
38143CA680F4AA299D66A042CEB3354A2684DC9D8D178FE0D9B8B41CAAD720F880EE7EF93C0C18769E099ECC04D5A102C8049A8A05632F4DDF376CF1DE0F6BB65C2F8627B65A33C6BB62177CEBBDAD973006829F89F22E814B54F4BC2BE347F8AA8F681390B50FA73F804400B5F542E796F19FF974E7F78DB802FE05E20750
310
4B0304140006080800CC70623BE75B7789680500003C100000340000006662782F41393633353835312D344632462D344230382D423046372D3739314545314133324237412F6F626A656374732E786D6CAD575B8F9B3818FD2B887D06C22499CB8AA1CA655245D5B455A356FB305264C061D8018C6C3393D95FBFC7600890
310
A4CD5EF210B0B1BFEBF98E3F7B1FF6596ABC522E1296DF9BAE3D320D9A872C4AF2F8DE2CE5CEBA358D0FBEC719939D65A691938CDE9B6ADAF4BD98B3B2D05311DD91329583D9D5FC0F438434A7A611A644887B5384CF34233629258BA878B12322891DEFF6B66BD70BFB62634E8AE781D082709A4B588AF91C528CDA28B73F
310
1C998EEF39EABBEFA97FBD6A7C7E9553F9D3D79FE442923C3C523610337627CB87ABE99D359D4CC6D6E4FACAB5E6ABF9D2726FC6A3C5F56271377BB88362213924694B38DD99FE47C48627A1E7D49F5A8BB5E1A74C0A599ED3B0F21F1E56366B89112D681E218F0915D0D6F17AD41FBA2A369DCF6335D62ABBD39779D5DDD1
310
11D4D8DE3CBB96B2E04FB8202E41051754A1AA8E8F76B4C6DFE810B580B1547F4B84911149794252234D024EF8BBE963A95AE27B3D310A9D5C215C7960FAEE415ED75694C6AFB17BCACA5D99A60A9AA65F217B0BFC53292ACB92BF283FAD0D3621576592CB5BED907C2FA8E9DF794E35E97BEA31BED21FEB401ABB94C44839
310
DCACBF0E1C5DA8DA5B2F4DFFD32AD86F543D9E565E7056502E157C00AD2671CD534549AB752FCA9CDA00677A313F04E51B22FF19E57B300579E3C97EB29F682D92935CEC18CF901B7B54FD8C51F362B56FC72FE0B3C1EAE335EDCCBF5AEC39ADB17DC238973F804BA5E6F6BFE7AF1FB32E523BE9F3BD571418E3631DCA4D48
310
5250CF639223210A9446CA30052EDF057BD35F8329C1ECD84552BF0DC8D18BE7BCE23BFE6BD960AB4A7DE79923A103BEBD80F911CBAA2C60DB19B01CF164A5583B772EE6D3FFA56666CBCDA74DC97724A48F9A58967497E489C4D979006FD7A05E227A1EBDD0F737C623387A9C844D3709995625106D157315F8B8392CD4E0
310
A0B9A720C4BE9829CEF37EA1E13111214D53925356365ADA634861B52519DD27A00AEB808EAF0628E6F435519D446F45CF2C9CF5214F0A15B2F6D06B79DA3EE3CBF7F56780D2F4E7EF73A0F5E5B02A38D07DC852C6B7C1FBB6664213E0C39E3EBA7FF4E1AD23EA2829407C85E586727488B751B2DB9502BC7B228A3FD68B6E
310
A65A22397E690AA8D158D7E404EC8CDA235CC3B7D1898680131CEC2CDF2638C65196279577750F15884AEE19F94199155B92B13297978469D4F8D358DF0AEF7631E28DC8F0D9F437D5D39A83B2231A1D52D543813A824EF8D44BCFF2FA6A31BD1E8DAD87F1CCB526B3879935BF59CDADD5C37479BB1CDD4CA7B3556B516589
310
EF352754B706114D9C885EC9131DE6EFEB43D99AFE2391C2F958179413D7CFEF6B1B6DB1E7600F00DE6E5C67454A339A4BA2E0FBA85ED26F045D454F463DBFCE484C2F90F2E5E3666003662ED8F755951A7D1BECD5B30B550B2785C8E7320B7292A4838DDA71BBC863ED7613CAF659337A3354231D4FF4A182A54904C2898C
310
98B28C4AD0CE056CCF332A80986E571EE9DBC305BB5FEB7E509220A58D25CF042D712A806AC0AD0C657FDEF80D2D9CEAA2EE4D1C76F60BFE74219A06527D6F82DF6412526107381E55E353090704D085B52408A8913C4ED159D79BDA71BB4BC506F4831350EB6F975CD22D69BF7AC49B91A2C0A9DDA3D5CA36AD20FC478E37
310
E61844E2352865EBCB61A275A65283CAAA9DD27703B4102F5AF51EF5F573B75CBB5AD38BC845F7A49F82A0966A49C2E3EA5EA0ECD326CD965F1DB402C6FA8B51A4658C5C5E2EC9E214602E55810345408596591009A82E7E7FFACA19EEA299B14A0081A705CB3296EBC14CDF658DCD336EA6D1136881AAEB87B81AB9EE53D5
310
F5EB8BC8362082DA24122F98680A4E7930C01A0079749CEA14382A0783E5EBA5A10F8C098456A03D6A4AEB6BB881E2513747552A5DB22C7EDAF83BD5528081A365F7FF06504B0304140006080000CC70623B000000000000000000000000350000006662782F41393633353835312D344632462D344230382D423046372D37
310
39314545314133324237412F76657274696365732E62696E504B0304140006080800CC70623BF270F1330600000004000000360000006662782F41393633353835312D344632462D344230382D423046372D3739314545314133324237412F747269616E676C65732E62696E636660600000504B0304140006080000CC7062
310
3B000000000000000000000000370000006662782F41393633353835312D344632462D344230382D423046372D3739314545314133324237412F617474726962757465732E62696E504B0304140006080800CC70623B08DA0BD19000000041010000360000006662782F41393633353835312D344632462D344230382D4230
310
46372D3739314545314133324237412F6469726563746F72792E786D6C858F410AC3201045AF22B36F53E9A60B35CBEEBAE80D244E44489C6234F4F835464A48035D0DF398FF9F8AF63D0E6CC63039F212F8F9020C7D47C6792B21C5FE7403D62A1188E2E60C98D7234A5830286103A55745067B9D86B8A3CF9C7F90C11DE6
310
07FB144396D7B6A82D282E9A152AD114D5EF2CB866EEE831B8EEA07A7BB5A8D7D61A2BAAEB7FD5F70921FF497D00504B0304140006080800CC70623BEDD1DC58FD000000A00100003B0000006662782F41393633353835312D344632462D344230382D423046372D3739314545314133324237412F7265736F75726365732F
310
636F72652E786D6C8D504B6E833010BD0A9A6D65B00922041947112427E8052C33A156828DFCA97AFC9A40A576D7CDCCE87D344F8F9FBFE667F689CE6B6B3A6039850C8DB2A336530731DC4903D95970676DF82583CCC8193B5861107C72362E3BA4AC096842428D1D7107A5F7182053CF7474E0D507CE32973124857FE48B
310
540F3961CEF244279DE03EB81420DB9EAC1384436FA353E879B1B182C7A8C75DA3C7F453DF353A1075D537A7BA6464B8F535A99AE14A9A2BBD90E350DD183B5CFABE3AF262350B1EF4FC9351399401471025A527C218A1E53BAB5A5AB765F5469B96525EACF23FA6B88CFF34456DC2A1DCE36E360F82A5202F42F062ED2BAD
310
579969AFDD8A6F504B010214000A0000080000CC70623B3DEE336E79000000790000001B00000000000000000000000000000000006175746F6465736B2D64657369676E2D7061636B6167652E786D6C504B01021400140006080800CC70623BD486FD9CA0000000F40000001300000000000000000000000000B20000005B
310
436F6E74656E745F54797065735D2E786D6C504B01021400140006080800CC70623B853B8169EB0000007C010000080000000000000000000000000083010000636F72652E786D6C504B01021400140006080800CC70623B55019EA25F0000007C000000070000000000000000000000000094020000636E782E786D6C504B
310
01021400140006080800CC70623BDBABAAF470010000D40300000C00000000000000000000000000180300006662782F636F72652E786D6C504B01021400140006080800CC70623B9C113CC27E0000009D0000000B00000000000000000000000000B20400006662782F636E782E786D6C504B01021400140006080800CC70
310
623B7DF2F77C2A010000120200003100000000000000000000000000590500006662782F41393633353835312D344632462D344230382D423046372D3739314545314133324237412F636F72652E786D6C504B01021400140006080800CC70623BAD7543B64E010000330300003000000000000000000000000000D2060000
310
6662782F41393633353835312D344632462D344230382D423046372D3739314545314133324237412F636E782E786D6C504B01021400140006080800CC70623BE75B7789680500003C10000034000000000000000000000000006E0800006662782F41393633353835312D344632462D344230382D423046372D3739314545
310
314133324237412F6F626A656374732E786D6C504B01021400140006080000CC70623B0000000000000000000000003500000000000000000000000000280E00006662782F41393633353835312D344632462D344230382D423046372D3739314545314133324237412F76657274696365732E62696E504B01021400140006
310
080800CC70623BF270F133060000000400000036000000000000000000000000007B0E00006662782F41393633353835312D344632462D344230382D423046372D3739314545314133324237412F747269616E676C65732E62696E504B01021400140006080000CC70623B0000000000000000000000003700000000000000
310
000000000000D50E00006662782F41393633353835312D344632462D344230382D423046372D3739314545314133324237412F617474726962757465732E62696E504B01021400140006080800CC70623B08DA0BD1900000004101000036000000000000000000000000002A0F00006662782F41393633353835312D344632
310
462D344230382D423046372D3739314545314133324237412F6469726563746F72792E786D6C504B01021400140006080800CC70623BEDD1DC58FD000000A00100003B000000000000000000000000000E1000006662782F41393633353835312D344632462D344230382D423046372D3739314545314133324237412F7265
310
736F75726365732F636F72652E786D6C504B0506000000000E000E0080040000641100000000
  0
XRECORD
  5
68B9
102
{ACAD_REACTORS
330
1F7
102
}
330
1F7
100
AcDbXrecord
280
     1
102
MATERIAL
148
0.0
149
0.0
149
0.0
 93
        0
 94
       63
282
     0
 72
     1
 77
     1
171
     1
175
     1
179
     1
273
     0
  0
XRECORD
  5
1F8
102
{ACAD_REACTORS
330
1F7
102
}
330
1F7
100
AcDbXrecord
280
     1
 70
     1
 90
429727718
  1
30362254-06B7-45E0-A893-8CFA70E3D6BC
310
504B03040A0000080000CC70623B3DEE336E79000000790000001B0000006175746F6465736B2D64657369676E2D7061636B6167652E786D6C3C3F786D6C2076657273696F6E3D22312E302220656E636F64696E673D227574662D3822203F3E3C666F726D6174733E3C666F726D61743E687474703A2F2F736368656D612E
310
6175746F6465736B2E636F6D2F64657369676E2D7061636B6167652F323030393C2F666F726D61743E3C2F666F726D6174733E504B0304140006080800CC70623BD486FD9CA0000000F4000000130000005B436F6E74656E745F54797065735D2E786D6C7D8EC10E82300C865F65E91D8A1E8C310C0EEA1BF002731658846E
310
D98AC1B77784ABF1D8FE5FBFBF75BBCE937A534CCEB38643598122B6FEE978D0B0485F9C41B54DDD7D022595594E1A469170414C76A4D9A4D207E29CF43ECE46F218070CC6BECC4078ACAA135ACF422C856C0E68EA1BF5669944DDD7BCDE7B1F8E415D77AECB980613C2E4AC91FC167A2B244592486606FC29C8FD7F045B9A
310
EF7053A7E60B504B0304140006080800CC70623B1EC5D7A3EB0000007C01000008000000636F72652E786D6C8D90416EC3201045AF82665B6103C6756C6122AB4D4ED00B204C5C94182C03558F5F9C3852BBEB6A467FFE9B197D71FC9E6FE8CBACC17AD7032D0820E3B41FAD9B7A48F1820F808E52ACDEC75F36404ECDA687
310
4D0629A6D5A76597B477D1B89855E747B38B2A041301E95B6E7A08FAD3CCAA50296647B8168BD2573599823EBB0CA76447F43862C7BCCF5EAC59410E4DDD9C7973C2755553CCCFA4C603E3040F1565ED3B1FDE4E432BCA0D9622DAF9795FAF464533826484B498524CD807E51D79ED187F21878E10516EF63F505AC67F42C9
310
BA58B1FDDD071640D2FCC87D2045B96591CB3DA85CB7DCE40F504B0304140006080800CC70623B55019EA25F0000007C00000007000000636E782E786D6C4DCB3B0E80201045D1AD90E915ED2CF8AC45050C11660C8261F98AB1B07AC9C97D42D718D865D3E909258CFD00CCE24AC6E326A164D74DC0B4128928FF32603847
310
2BA13128B1252AC747C6BAB984FC68F0B87FE8960A5C09FE86CFB69FBA01504B0304140006080800CC70623B8C9102E971010000D40300000C0000006662782F636F72652E786D6CC5535B6E833010BC8AE5DF0A6C08340F1947A84D4ED00B38C6A128602363A31CBFCB234A53A551FA553EC09AD9F5CE8C31DB9E9B1AF5CA
310
7695D1198E428A91D2D214952E33ECDD315861B4E5CC1AE3BE9561A445A3323CC098B3D21ADFCE9034DA29ED00D5A6503328BA4E398C640D8B0C77F253352214DE4145770A5B214FA2546114020D759C75CE8200340D19DE981F0F6746269C33EFAB6266AB02A655C74A59CCF365BADC27CB5D902ED22848F6340DF238A141
310
BE88E2F57B92BFEDF23523433367AE6A2EEAA455C2A902F398D2751045018D3FA264435F3771F242571B4A1919CA6F9A7C5B3CD9E42BED16F12C776AEB308F40C848FC700B1139D4891EF410CEC810227CC6846F8386402064270EF5C5C709A05E49676C024C61FC95EA45ED154CA5211D1FF4FB8291A913A68E9B83EBBB33
310
E2A7673CDE118E5AE8124C0807CB8377834E366998436B950D7A7746DAD846D4CFD978E0F04FD455FC5D49D2D4C6FE9722321F10997F0F32DC47FE05504B0304140006080800CC70623BFFEA85907E0000009D0000000B0000006662782F636E782E786D6C4DCCD10A83201886E15B91FFDC95D95A811AB6F23E625948A6C3
310
E9D8E5AF46073BFAE0E1E365ED67B3E8ADC3CB78C7815C7240DA3DFC64DCC221C519D7805AC182F7F1EF06C88D9BE6703008B6049F9E274D7A1E938DBB5AE3D6131B2589BA0D3D965551E0B2EA732C9B9A624AAEB41E3A557677029960D9AFB4EF11165F504B0304140006080800CC70623B4FEEA4082C0100001202000031
310
0000006662782F39464131463745442D413632322D343644302D413938332D3331353338454246344243312F636F72652E786D6C8D515B6EC32010BC0AE2AB55850DD871ED0813254D72825EC00192A2C460F1A872FC42ED48ED5F7E00CDCECCCEB26C731F6FE05B39AFADE921293004CA082BB5B9F43086336A21D870E6AC
310
0D7F68109861543DCC30E4ECE26C9C164858139409093556AA051CBC570102714B8F1E7AF1A5C6A11862480C7F2DA6415C878B2A4891CA89C7990F2E050073937C42DE1DB7E4F87ED8A36D4329AA9B3D46DBAEAD504556557BD81DEBDD0761E52CE42C462D17B996298E3E6BE59E35C962CE821E1FF18553435012728A7187
310
0841987E927A8D9B35ADDF70BBC6989599FE4F1427F9A4286A132ABAC49D651EF234CD5CE04CDA78BA3DC2A8FB645D00B9DF8B57E215725C60BCA2A463E54C4CE327C7A65E1C7DB02E7DEFCBF594B864C5CA6CDBD49C957943E9FA5D5FBAF336F90F504B0304140006080800CC70623BAD7543B64E01000033030000300000
310
006662782F39464131463745442D413632322D343644302D413938332D3331353338454246344243312F636E782E786D6CD593CD6EC32010845F0571AD6CE3D48AD20813A9873E410FBD12D82434182C7EAAE6EDBB2424CD25871E7B41D6EC30B3FA84F9E67BB2E40B4234DE8DB46F1925E094D7C6ED479AD3AE5951B2113C
310
789FEE6C943839C1488B4C05DF079FE72A69D8C96C13AAD6B8631503449F83828872B949AC57D26200B826A308D316B4064D6E46FCDA41C05550DC9E483A00797BFD207EFB092A45DE9514C1BBD22178396BD39D891265658C238DEA00936C654E5E433CB65A26D9F6EDB5EBC14EBF49A45CB856E66048291F6939A9A81BB5
310
C8917738143CA680F4AA299D66A042CEB3354A2684DC9D8D178FE0D9B8B41CAAD720F880EE7EF93C0C18769E099ECC04D5A102C8049A8A05632F4DDF376CF1DE0F6BB65C2F8627B65A33C6BB62177CEBBDAD973006829F89F22E814B54F4BC2BE347F8AA8F681390B50FA73F804400B5F542E796F19FF974E7F78DB802FE05
310
E207504B0304140006080800CC70623B16AB87BA640500003C100000340000006662782F39464131463745442D413632322D343644302D413938332D3331353338454246344243312F6F626A656374732E786D6CAD575B6FA33818FD2B887DE6924B3BED8A326A92B68A663B534DD4D13E548A0C38942D60649B369D5FBFC7
310
600890A493BDE42160637FD7F31D7FF63E6FB3D478A55C242CBF3247B66B1A340F5994E4F19559CA8D75611A9F7D8F33263BCB4C232719BD32D5B4E97B316765A1A722BA21652A07B3B7B33F0D11D29C9A46981221AE4C113ED38CD8A4942CA2E2C58E882476BCD9DA23BB5ED8171B73523C0F841684D35CC252CCE79062D4
310
468DFA43D7747CCF51DF7D4FFDEB5593E3AB9CCA9FBEFE241792E4E19EB28198C968BAB8199F5D5A67D3E9C49A9E8F47D6EC76B6B0469F26EEFC7C3EBFBCBEB98462213924694B38DD98FE1D62C393D073EA4FADC5DAF04326852CCF6958F90F0F2B9BB5C48816348F90C7840A68EB78EDF68723159BCEE7891A6B95DDE9D3
310
BCEAEEE8086A6C6F9E5D4B59F0175C10A7A0820BAA5055C7473B5AE3CFDD452D602CD5DF12616444529E90D448938013FE6EFA58AA96F85E4F8C42275708571E98FE6827AF6B2B4AE3D7D83D64E5A64C53054DD3AF90BD06FEA9149565C94FCA0F6B834DC85599E4F2423B24DF0B6AFA979E534DFA9E7A4CC6FA631D486393
310
921829879BF5D781A373557BCB85E97FB90DB62B558F8795179C15944B051F40AB495CF35451D26A4727654E6D8033BD98EF82F21D91FF8AF2DD9982BCF1643BDD4EB516C9492E368C67C88DED563FC36D5EACF66DFF057C3658BDBFA69DF9578B3DA735B64F18C7F20770A9D45CFCF7FCF563D6456A277DBEF78A02637CA2
310
43B90A490AEAB94F72244481D24819A6C0E59B606BFA4B3025981DBB48EAB701D97BF19C577CC77F2D1B6C55A9EF3C732474C0B727303F625995056C3B02963D9EAC146BE78EC5FCEC7FA999EBC5EACBAAE41B12D27B4D2C0BBA49F244E2ECDC81B76B502F113D8F5EE8FB1BE3111CDD4FC2AA9B844CAB1288B68AB90A7CDC
310
1C166AB0D3DC5310625FCC14E779BFD0709F8890A629C9292B1B2DED31A4B0DA928CEE135085754027E3018A397D4D5427D15BD1330B677DC8934285AC3DF45A9EB68FF8F2B8FC0A509AFEECFD0FF2DE25CC6047F7214B195F07EFEB9A094D800F7BFAE8FED187B78EA8A3A400F115961BCAD1215E47C966530AF0EE8128FE
310
58CEBB996A8964FFA529A046635D9353B0336A8F700DDF46271A024E70B0B37C9DE01847591E54DED53D54202AB947E4076556AC49C6CA5C9E1226B7F1A7B1BE15DEED62C41B91E1B3E9AFAAA735036547343A925075041DF0A9979E893B391F8FCFA6967B3EFB644DCF6E5CEBFAE272625DCC6FAF3FB93793C5F90CE1EF57
310
407342756B10D1C489E8953CD1617E5CEECAD6F4EF8914CE5D5D504E5C3F1F9736DA62CFC11E00BCDDB8CC8A9466349744C1F75EBDA4DF09BA8A9E8C7A7E9991989E20E5DBDD6A6003664ED8F7A04A8DBE0DF6EAD9B9AA858342E47399053949D2C146EDB85DE4B176BB0965FBAC19BD19AA918E27FA50C1D22402E144464C
310
59462568E704B6E71915404CB72B8FF4EDE184DDAF753F284990D2C6926782963815403548A70C657FDEF80D2D9CEAA2AE4C1C76F60BFE74219A06527D6582DF6412526107381E55E353090704D085B52408D0933C4ED159D79BDA71BB4BC506F4831350EB6F979CD22D69BF7AC49B91A2C0A9DDA3D5CA36AD20FC478E37E6
310
1844E2352865EBCB6EA275A652E3836BE04EFB400BF1A2556F515F1FBB35B2AB35BD889C744FFA1004B5544B121E57F70215746DD2F5E2C1412B602CBF19455AC6C8E5E9922C4E01E65215385004546899059180EAFCF7A707CE7017CD8CDB0410789AB32C63B91E5CEBBBACB17AC6CD347A022D5075FD106377347AAABA7E
310
7D11590744509B44E205134DC1290F06580320F78E537D3D73540E06CB970B431F185308AD40BBD794D6D77003C5A36E8EAA54BA64597CD8F83BD552A080A365F7FF06504B0304140006080000CC70623B000000000000000000000000350000006662782F39464131463745442D413632322D343644302D413938332D3331
310
353338454246344243312F76657274696365732E62696E504B0304140006080800CC70623BF270F1330600000004000000360000006662782F39464131463745442D413632322D343644302D413938332D3331353338454246344243312F747269616E676C65732E62696E636660600000504B0304140006080000CC70623B
310
000000000000000000000000370000006662782F39464131463745442D413632322D343644302D413938332D3331353338454246344243312F617474726962757465732E62696E504B0304140006080800CC70623B08DA0BD19000000041010000360000006662782F39464131463745442D413632322D343644302D413938
310
332D3331353338454246344243312F6469726563746F72792E786D6C858F410AC3201045AF22B36F53E9A60B35CBEEBAE80D244E44489C6234F4F835464A48035D0DF398FF9F8AF63D0E6CC63039F212F8F9020C7D47C6792B21C5FE7403D62A1188E2E60C98D7234A5830286103A55745067B9D86B8A3CF9C7F90C11DE607
310
FB144396D7B6A82D282E9A152AD114D5EF2CB866EEE831B8EEA07A7BB5A8D7D61A2BAAEB7FD5F70921FF497D00504B0304140006080800CC70623B0D6EF93BFE000000A00100003B0000006662782F39464131463745442D413632322D343644302D413938332D3331353338454246344243312F7265736F75726365732F63
310
6F72652E786D6C8D50596E833010BD0A9ADFCA60B334011947A8694ED00B586642AC041B79A97AFC9A40A5F6AF3F33A3B7689E1E3F7DCD8FEC139DD7D6F4C0720A191A65476DA61E62B892236427C19DB5E1970C322367EC618541F0C9D9B8EC90B226A009093576C41D94DE63804C3DD2D18357379C652E63480A7FCF17A9
310
EE72C29CE5894E3AC17D702940B63D59270887DE46A7D0F36263058F518FBB468FE9A7BE6A7420864373B8D4873369AA8691FA421B3294352543C5CAF65C0F6FEF43CB8BD52C78D0F34F46E550061C419494B6843142CB0F5677F4B52BEB177AEC28E5C52AFF638ACBF84F53D42654E51E77B379102C05791282176B5F693D
310
CB4C7BED567C03504B010214000A0000080000CC70623B3DEE336E79000000790000001B00000000000000000000000000000000006175746F6465736B2D64657369676E2D7061636B6167652E786D6C504B01021400140006080800CC70623BD486FD9CA0000000F40000001300000000000000000000000000B20000005B
310
436F6E74656E745F54797065735D2E786D6C504B01021400140006080800CC70623B1EC5D7A3EB0000007C010000080000000000000000000000000083010000636F72652E786D6C504B01021400140006080800CC70623B55019EA25F0000007C000000070000000000000000000000000094020000636E782E786D6C504B
310
01021400140006080800CC70623B8C9102E971010000D40300000C00000000000000000000000000180300006662782F636F72652E786D6C504B01021400140006080800CC70623BFFEA85907E0000009D0000000B00000000000000000000000000B30400006662782F636E782E786D6C504B01021400140006080800CC70
310
623B4FEEA4082C0100001202000031000000000000000000000000005A0500006662782F39464131463745442D413632322D343644302D413938332D3331353338454246344243312F636F72652E786D6C504B01021400140006080800CC70623BAD7543B64E010000330300003000000000000000000000000000D5060000
310
6662782F39464131463745442D413632322D343644302D413938332D3331353338454246344243312F636E782E786D6C504B01021400140006080800CC70623B16AB87BA640500003C1000003400000000000000000000000000710800006662782F39464131463745442D413632322D343644302D413938332D3331353338
310
454246344243312F6F626A656374732E786D6C504B01021400140006080000CC70623B0000000000000000000000003500000000000000000000000000270E00006662782F39464131463745442D413632322D343644302D413938332D3331353338454246344243312F76657274696365732E62696E504B01021400140006
310
080800CC70623BF270F133060000000400000036000000000000000000000000007A0E00006662782F39464131463745442D413632322D343644302D413938332D3331353338454246344243312F747269616E676C65732E62696E504B01021400140006080000CC70623B0000000000000000000000003700000000000000
310
000000000000D40E00006662782F39464131463745442D413632322D343644302D413938332D3331353338454246344243312F617474726962757465732E62696E504B01021400140006080800CC70623B08DA0BD190000000410100003600000000000000000000000000290F00006662782F39464131463745442D413632
310
322D343644302D413938332D3331353338454246344243312F6469726563746F72792E786D6C504B01021400140006080800CC70623B0D6EF93BFE000000A00100003B000000000000000000000000000D1000006662782F39464131463745442D413632322D343644302D413938332D3331353338454246344243312F7265
310
736F75726365732F636F72652E786D6C504B0506000000000E000E0080040000641100000000
  0
XRECORD
  5
68BB
102
{ACAD_REACTORS
330
173
102
}
330
173
100
AcDbXrecord
280
     1
102
MATERIAL
148
0.0
149
0.0
149
0.0
 93
        0
 94
       63
282
     0
 72
     1
 77
     1
171
     1
175
     1
179
     1
273
     0
  0
XRECORD
  5
175
102
{ACAD_REACTORS
330
173
102
}
330
173
100
AcDbXrecord
280
     1
270
     1
271
     1
  0
XRECORD
  5
174
102
{ACAD_REACTORS
330
173
102
}
330
173
100
AcDbXrecord
280
     1
270
     1
271
     1
  0
XRECORD
  5
1FB
102
{ACAD_REACTORS
330
173
102
}
330
173
100
AcDbXrecord
280
     1
 70
     0
 90
1673772943
  1
ECE7A1D2-D628-4531-984C-D00F80459256
310
504B03040A0000080000CC70623B3DEE336E79000000790000001B0000006175746F6465736B2D64657369676E2D7061636B6167652E786D6C3C3F786D6C2076657273696F6E3D22312E302220656E636F64696E673D227574662D3822203F3E3C666F726D6174733E3C666F726D61743E687474703A2F2F736368656D612E
310
6175746F6465736B2E636F6D2F64657369676E2D7061636B6167652F323030393C2F666F726D61743E3C2F666F726D6174733E504B0304140006080800CC70623BD486FD9CA0000000F4000000130000005B436F6E74656E745F54797065735D2E786D6C7D8EC10E82300C865F65E91D8A1E8C310C0EEA1BF002731658846E
310
D98AC1B77784ABF1D8FE5FBFBF75BBCE937A534CCEB38643598122B6FEE978D0B0485F9C41B54DDD7D022595594E1A469170414C76A4D9A4D207E29CF43ECE46F218070CC6BECC4078ACAA135ACF422C856C0E68EA1BF5669944DDD7BCDE7B1F8E415D77AECB980613C2E4AC91FC167A2B244592486606FC29C8FD7F045B9A
310
EF7053A7E60B504B0304140006080800CC70623BD9DDAED0EC0000007C01000008000000636F72652E786D6C8D90416EC3201045AF82665B61836D9CD8C2444DD39CA01740405C94182C03558F5F9C3852BBEB6A467FFE9B197D7EF89E6EE8CB2CC17A37002D0820E394D7D68D03A478C17B4007C117EFE32F1B20272733C0
310
2A83E0E3E2D3BC49CABB685CCCAAF3DA6CA20CC14440EA969B0182FA34932C648AD911AEC52CD5558EA6A0CF2EC329598D1E47ACCEFBECC59A050463A7EA5833865FEBDD0E37353BE3EE8DBDE3F6786A48D375FBF6CC78B9C282473B3DEFABC5C86834888A900E538A49F5419B9EB47DD5BC907D4F082F57FB1F28CDFA9F50
310
B22ED6D5F6EE030B20687EE43E10BC5CB3C8E51E54AE6B6EE207504B0304140006080800CC70623B55019EA25F0000007C00000007000000636E782E786D6C4DCB3B0E80201045D1AD90E915ED2CF8AC45050C11660C8261F98AB1B07AC9C97D42D718D865D3E909258CFD00CCE24AC6E326A164D74DC0B4128928FF326038
310
472BA13128B1252AC747C6BAB984FC68F0B87FE8960A5C09FE86CFB69FBA01504B0304140006080800CC70623BA24EB22D72010000D40300000C0000006662782F636F72652E786D6CC5535B6E833010BC8AE5DF0A6C5E49888CA3A6694ED00B38E05014B091B1518EDFE511A5A9D228FD2A1F60CDEC7A67C6986DCE4D8D7A
310
69BA4AAB0C073EC548AA5C17952A33ECECD15B61B4E1CC686DBF9561A44423333CC098B3D268D7CE50AE9595CA02AA74216750749DB418E5352C32DCE59FB211BE70162ABA93DF8AFC244AE9073ED050C759670D0840D390E18DF9F1706664C23973AE2A66B62A605A75ACA4C13C4976E1364A12EF355A2EBD384AF65EFA96
310
BC7B8BED2EA6719AAE16FB8491A199335B351775B991C2CA02F390D2D40B028F861F41BCA68B7518BFD0D59A524686F29B26D7164F36B94AD9289CE54E6D1DE6010819891F6E21228B3AD1831EC219194284CF98F06DD01008846CC5A1BEF83801D4CBDC6A1303536877A57A513B0953A94FC707FDBE6064EA84A9E3E6E0FA
310
EE8CF0E9198F7784A316AA0413C2C2F2E0ECA0934D1AE6D05A69BCDE9E91D2A611F573361E38FC1375157F5752AE6B6DFE4B11990F88CCBF0719EE23FF02504B0304140006080800CC70623B408A7D3B7C0000009D0000000B0000006662782F636E782E786D6C4DCCD10A83201886E15B91FFDC552A92A0064DBC8F581632
310
D3703A76F9ABD1C18E3E78F878E5F0D9027ABBFCF2292AE86E2D20171F69F6715550CB827B40839639A5F2770314A7CD293819B45C73AAFB45B35BA61ACAA1C1C7E7855C58C15BC331339661262CC762340413D68D77DA5B42298546CBE6573AF60CEB2F504B0304140006080800CC70623B449FB9BD290100001202000031
310
0000006662782F36394639363044362D344446342D343946362D394244322D3234314243333846323333332F636F72652E786D6C8D515B6EC32010BC0AE22B55850D98B871848994463E412FE002495162B07854397EA176A4F62F3F2C9A9D991D587EB84F37F0AD7D30CEF6905418026DA553C65E7A98E219ED203808EE9D
310
8B7F6810D871D23D2C3014FCE25D9A57483A1BB58D19B54EE9151C43D0110279CB971E06F9A5A7B11A53CC8C70ADE6515EC78BAE4895DB992778883E0700CB907242D17643D7E2538BD869608875438BBAE38922CAC8F1BDD90DB4691A5E2F42C153326A951B95E398B3D1FE599322163C9AE9115F7A3D46ADA0A018778810
310
84E907617BDCEE297BC5BB3DC6BC2EF47FA234AB2745C9D8D8D035EE220B50105E2F0DC1954B9FB747187D9F9D8FA0CCDB042D5FA0C015C65B42DF78BD10F3F3B363CB56C7109DCFDFBBB97E662ED92EB62D13BC2E1BCAE5777DB9966D8A1F504B0304140006080800CC70623BAD7543B64E01000033030000300000006662
310
782F36394639363044362D344446342D343946362D394244322D3234314243333846323333332F636E782E786D6CD593CD6EC32010845F0571AD6CE3D48AD20813A9873E410FBD12D82434182C7EAAE6EDBB2424CD25871E7B41D6EC30B3FA84F9E67BB2E40B4234DE8DB46F1925E094D7C6ED479AD3AE5951B2113C789FEE
310
6C943839C1488B4C05DF079FE72A69D8C96C13AAD6B8631503449F83828872B949AC57D26200B826A308D316B4064D6E46FCDA41C05550DC9E483A00797BFD207EFB092A45DE9514C1BBD22178396BD39D891265658C238DEA00936C654E5E433CB65A26D9F6EDB5EBC14EBF49A45CB856E66048291F6939A9A81BB5C89177
310
38143CA680F4AA299D66A042CEB3354A2684DC9D8D178FE0D9B8B41CAAD720F880EE7EF93C0C18769E099ECC04D5A102C8049A8A05632F4DDF376CF1DE0F6BB65C2F8627B65A33C6BB62177CEBBDAD973006829F89F22E814B54F4BC2BE347F8AA8F681390B50FA73F804400B5F542E796F19FF974E7F78DB802FE05E20750
310
4B0304140006080800CC70623B8D05915C650500003B100000340000006662782F36394639363044362D344446342D343946362D394244322D3234314243333846323333332F6F626A656374732E786D6CAD575B6FA33814FE2B887D06429276DA1565D4266D158D3A339A6846FB502932E050B66023DB74D2FDF5FB190C01
310
9276B2973C046C8ECFF53B17071F77456EBD502133CEAE6CDF9DD81665314F32965ED995DA3A17B6F5310C04E7AA47665B8C14F4CAD6DB7618A48257A5D94AE89654B91AEDDEDDFC61C998326A5B714EA4BCB265FC440BE2924AF184CA6737218AB8E976E7FA6E4338649B0A523E8D98964450A6A029F619B8588D52FE7039
310
B1BD30F0F4F730D0FF866AF6369557DB33949F31A9088B0F848DD8CCFCF9F2767A76E99CCDE733677E3EF59D9BBB9BA5E37F984D16E78BC5E5F5ED25044B25C0C96822E8D60EEFE11B91C581D77CEA34368A1F5329E68CD1B8B61F16D63A1B8E092D294B10C78C4A48EB593D192E7DED9BDEE7995E1B91FDEDD3ACEA9FE831
310
6A756F9F7D4D79F4274C90A7A04248AA51D5F8C718DAE06FB2F75AC4796EBE65D22A88A22223B995679120E2D50E41AA49C260C046A35368846B0BECD0DFF3EBEB8AD4F835768F69B9ADF25C43D30E6B646F807FAA64AD59F61715C7A54127C4AACA98BA3006A9D792DAE165E0D59B61A01FB3A9F9D838D2DAE62445C86166
310
F37564E842E7DE6A69879FEEA2DD5AE7E371E1A5E025154AC307D06A03D73EB5978C58FFA4C8E9033066E0F3BD53BEC1F39F91BE7B55103791EDE6BBB991A2046172CB4581D8B893FA674DDA17A77B3B7C413D1B511FD2743BFF8A38F03A658705E3ADF8015C3A3417FF3D7E439FF591DA0B5F18BC20C1B8981957AE6392A3
310
F43C640C01D1A0B4728E2DD4F26DB4B3C3152A252A3B4E913CEC1C72F012782FF88EFF8637AA552DBEF76408E8A8DE9E50F9E1CB3A2DA0DB1B6039A893B56063DC5B3E3FFB5F72E67AB9FEB4AEC496C4F4C1149625DD662C53E89D7BF0F6151A046260D1337DFDC94502430F83B0EE07A130A224BCAD7DAE1D9FB6CD422FF6
310
920702629C4BB9AE79C12F243C6432A6794E18E5552BA56B431AAB5D91317302B2B071E86C3A42B1A02F999E24061403B5D0EB639195DA655DD3EBEAB4FB862DDF579F014AD0E73C22F99E28DA57FB98E75C6CA2D74D53086D600F4786E0FE3144B771A8A7B900F03594DB8A633CBC49B2EDB69228BB479CF863B5E807AAAB
310
23872F6DFEB4129B949CA33823F58830E86D65621E10047D9DB34D862E8EAC3C2ABC2F7B2C40D67CDFE01F5545B92105AF983AC54D93D69E56FB8E797F88913F898A9FEC705D3F9D1B54EC8426FB500D40A03BD0119B06E1B95DDC7EB8F6975367793EBD70E66733DFB9BC982F9CE564727731999F5D4ECFCE3B8D6A4DC2A0
310
6D50FD148437D110834A64C6CDDF57FBACB5C307A2A477DFE4939736CFEF2B175371E0E10CF0DD1D5C15654E0BCA14D1E87DD02FF93782A162C0A3D95F1524A52770F972BF1EE9809D13CE7DD599467F8ECE9ADD85CE85A34CD45355448C64F9E8A031DC2D596ACC6E5DD93D9B82DE2EF5CAF81363A8E47996A0DE24564A79
310
4115AACE09C55E14540231FDA13C319787134EBF34E3A022514E5B4D9E0826E25C02D5805B15ABE1BEF51B26383D445DD9E875EE33FE4C22DA16427D65A3BCA92CA6D28DD01DF5DC53330704308475351050232CCD31583787BA75774AFB06E5070DD0C8EF484E19968C5D83BA5B90B244D31E54D55A372320FE4786B7EA58
310
44E135AA5467CB7EA333A61683CC6A8C3257034C10CF46F40EF9F5BE59BE5BD30C3C72D235E95D10345C1D45445A5F0BB47E46A5EBE5570F9380B5FA629579952296A773720405982B9DE04011506178964401AA8BDF1FBF0A8EAB6861DD6580C0E38217056766716DAEB2D6FA0917D3E4116581EADB879C4E7CFFB11EFACD
310
3D641311495D92C8676CB409A72D18610D803CE8A626049E8EC1887CB5B44CC39883690DDA8399B4B9855B481E7D71D4A9D22F96E5BB73BF5793020C02137BF837504B0304140006080000CC70623B000000000000000000000000350000006662782F36394639363044362D344446342D343946362D394244322D32343142
310
43333846323333332F76657274696365732E62696E504B0304140006080800CC70623BF270F1330600000004000000360000006662782F36394639363044362D344446342D343946362D394244322D3234314243333846323333332F747269616E676C65732E62696E636660600000504B0304140006080000CC70623B0000
310
00000000000000000000370000006662782F36394639363044362D344446342D343946362D394244322D3234314243333846323333332F617474726962757465732E62696E504B0304140006080800CC70623B08DA0BD19000000041010000360000006662782F36394639363044362D344446342D343946362D394244322D
310
3234314243333846323333332F6469726563746F72792E786D6C858F410AC3201045AF22B36F53E9A60B35CBEEBAE80D244E44489C6234F4F835464A48035D0DF398FF9F8AF63D0E6CC63039F212F8F9020C7D47C6792B21C5FE7403D62A1188E2E60C98D7234A5830286103A55745067B9D86B8A3CF9C7F90C11DE607FB14
310
4396D7B6A82D282E9A152AD114D5EF2CB866EEE831B8EEA07A7BB5A8D7D61A2BAAEB7FD5F70921FF497D00504B0304140006080800CC70623BCA768048FE000000A00100003B0000006662782F36394639363044362D344446342D343946362D394244322D3234314243333846323333332F7265736F75726365732F636F72
310
652E786D6C8D50596E833010BD0A9ADFCA60D600328E9AA639412F609909B1126CE4A5EAF16B0295DABFFECC8CDEA2797AECF8353F924FB44E193D409E5248504B332A3D0D10FC95B4901C39B3C6F85F3248B49871801506CE266BC2B243D2688FDA47549B11775038871E12F988C7004EDE7016A9083E2ADC3D5D84BC8B09
310
D33C8D74D471E6BC8D0192EDC93A815B742658898E651BCB59086ADC356A8C3FD555A1055ED7E7E254D615792D0F075295F585746FF53B694EE78A565DD736979A65AB9933AFE69F8CD2A2F038022F28ED489E135A7CE4554F9BBEA85E68DB53CAB255FEC71496F19FA6A0B42F8B3DEE6673C0F318E4497096AD7DC5F52C33
310
EEB55BFE0D504B010214000A0000080000CC70623B3DEE336E79000000790000001B00000000000000000000000000000000006175746F6465736B2D64657369676E2D7061636B6167652E786D6C504B01021400140006080800CC70623BD486FD9CA0000000F40000001300000000000000000000000000B20000005B436F
310
6E74656E745F54797065735D2E786D6C504B01021400140006080800CC70623BD9DDAED0EC0000007C010000080000000000000000000000000083010000636F72652E786D6C504B01021400140006080800CC70623B55019EA25F0000007C000000070000000000000000000000000095020000636E782E786D6C504B0102
310
1400140006080800CC70623BA24EB22D72010000D40300000C00000000000000000000000000190300006662782F636F72652E786D6C504B01021400140006080800CC70623B408A7D3B7C0000009D0000000B00000000000000000000000000B50400006662782F636E782E786D6C504B01021400140006080800CC70623B
310
449FB9BD290100001202000031000000000000000000000000005A0500006662782F36394639363044362D344446342D343946362D394244322D3234314243333846323333332F636F72652E786D6C504B01021400140006080800CC70623BAD7543B64E010000330300003000000000000000000000000000D20600006662
310
782F36394639363044362D344446342D343946362D394244322D3234314243333846323333332F636E782E786D6C504B01021400140006080800CC70623B8D05915C650500003B10000034000000000000000000000000006E0800006662782F36394639363044362D344446342D343946362D394244322D32343142433338
310
46323333332F6F626A656374732E786D6C504B01021400140006080000CC70623B0000000000000000000000003500000000000000000000000000250E00006662782F36394639363044362D344446342D343946362D394244322D3234314243333846323333332F76657274696365732E62696E504B010214001400060808
310
00CC70623BF270F13306000000040000003600000000000000000000000000780E00006662782F36394639363044362D344446342D343946362D394244322D3234314243333846323333332F747269616E676C65732E62696E504B01021400140006080000CC70623B00000000000000000000000037000000000000000000
310
00000000D20E00006662782F36394639363044362D344446342D343946362D394244322D3234314243333846323333332F617474726962757465732E62696E504B01021400140006080800CC70623B08DA0BD190000000410100003600000000000000000000000000270F00006662782F36394639363044362D344446342D
310
343946362D394244322D3234314243333846323333332F6469726563746F72792E786D6C504B01021400140006080800CC70623BCA768048FE000000A00100003B000000000000000000000000000B1000006662782F36394639363044362D344446342D343946362D394244322D3234314243333846323333332F7265736F
310
75726365732F636F72652E786D6C504B0506000000000E000E0080040000621100000000
  0
XRECORD
  5
176
102
{ACAD_REACTORS
330
173
102
}
330
173
100
AcDbXrecord
280
     1
270
     1
271
     1
  0
XRECORD
  5
177
102
{ACAD_REACTORS
330
173
102
}
330
173
100
AcDbXrecord
280
     1
270
     1
271
     1
  0
XRECORD
  5
68DD
102
{ACAD_REACTORS
330
68DC
102
}
330
68DC
100
AcDbXrecord
280
     1
102
ACAD_ROUNDTRIP_2012_MLEADER_STYLE
298
     1
  0
XRECORD
  5
68EF
102
{ACAD_REACTORS
330
68EE
102
}
330
68EE
100
AcDbXrecord
280
     1
102
DISPLAYNAME
  1
Metric50
102
FLAGS
 90
        0
  0
CELLSTYLEMAP
  5
68AF
102
{ACAD_REACTORS
330
162
102
}
330
162
100
AcDbCellStyleMap
 90
        3
300
CELLSTYLE
  1
TABLEFORMAT_BEGIN
 90
        5
170
     1
 91
        0
 92
    32768
 62
   257
 93
        1
300
CONTENTFORMAT
  1
CONTENTFORMAT_BEGIN
 90
        0
 91
        0
 92
      512
 93
        0
300

 40
0.0
140
1.0
 94
        5
 62
     0
340
11
144
6.0
309
CONTENTFORMAT_END
171
     1
301
MARGIN
  1
CELLMARGIN_BEGIN
 40
1.5
 40
1.5
 40
1.5
 40
1.5
 40
4.5
 40
4.5
309
CELLMARGIN_END
 94
        6
 95
        1
302
GRIDFORMAT
  1
GRIDFORMAT_BEGIN
 90
        0
 91
        1
 62
     0
 92
       -2
340
14
 93
        0
 40
1.125
309
GRIDFORMAT_END
 95
        2
302
GRIDFORMAT
  1
GRIDFORMAT_BEGIN
 90
        0
 91
        1
 62
     0
 92
       -2
340
14
 93
        0
 40
1.125
309
GRIDFORMAT_END
 95
        4
302
GRIDFORMAT
  1
GRIDFORMAT_BEGIN
 90
        0
 91
        1
 62
     0
 92
       -2
340
14
 93
        0
 40
1.125
309
GRIDFORMAT_END
 95
        8
302
GRIDFORMAT
  1
GRIDFORMAT_BEGIN
 90
        0
 91
        1
 62
     0
 92
       -2
340
14
 93
        0
 40
1.125
309
GRIDFORMAT_END
 95
       16
302
GRIDFORMAT
  1
GRIDFORMAT_BEGIN
 90
        0
 91
        1
 62
     0
 92
       -2
340
14
 93
        0
 40
1.125
309
GRIDFORMAT_END
 95
       32
302
GRIDFORMAT
  1
GRIDFORMAT_BEGIN
 90
        0
 91
        1
 62
     0
 92
       -2
340
14
 93
        0
 40
1.125
309
GRIDFORMAT_END
309
TABLEFORMAT_END
  1
CELLSTYLE_BEGIN
 90
        1
 91
        1
300
_TITLE
309
CELLSTYLE_END
300
CELLSTYLE
  1
TABLEFORMAT_BEGIN
 90
        5
170
     1
 91
        0
 92
        0
 62
   257
 93
        1
300
CONTENTFORMAT
  1
CONTENTFORMAT_BEGIN
 90
        0
 91
        0
 92
      512
 93
        0
300

 40
0.0
140
1.0
 94
        5
 62
     0
340
11
144
4.5
309
CONTENTFORMAT_END
171
     1
301
MARGIN
  1
CELLMARGIN_BEGIN
 40
1.5
 40
1.5
 40
1.5
 40
1.5
 40
4.5
 40
4.5
309
CELLMARGIN_END
 94
        6
 95
        1
302
GRIDFORMAT
  1
GRIDFORMAT_BEGIN
 90
        0
 91
        1
 62
     0
 92
       -2
340
14
 93
        0
 40
1.125
309
GRIDFORMAT_END
 95
        2
302
GRIDFORMAT
  1
GRIDFORMAT_BEGIN
 90
        0
 91
        1
 62
     0
 92
       -2
340
14
 93
        0
 40
1.125
309
GRIDFORMAT_END
 95
        4
302
GRIDFORMAT
  1
GRIDFORMAT_BEGIN
 90
        0
 91
        1
 62
     0
 92
       -2
340
14
 93
        0
 40
1.125
309
GRIDFORMAT_END
 95
        8
302
GRIDFORMAT
  1
GRIDFORMAT_BEGIN
 90
        0
 91
        1
 62
     0
 92
       -2
340
14
 93
        0
 40
1.125
309
GRIDFORMAT_END
 95
       16
302
GRIDFORMAT
  1
GRIDFORMAT_BEGIN
 90
        0
 91
        1
 62
     0
 92
       -2
340
14
 93
        0
 40
1.125
309
GRIDFORMAT_END
 95
       32
302
GRIDFORMAT
  1
GRIDFORMAT_BEGIN
 90
        0
 91
        1
 62
     0
 92
       -2
340
14
 93
        0
 40
1.125
309
GRIDFORMAT_END
309
TABLEFORMAT_END
  1
CELLSTYLE_BEGIN
 90
        2
 91
        1
300
_HEADER
309
CELLSTYLE_END
300
CELLSTYLE
  1
TABLEFORMAT_BEGIN
 90
        5
170
     1
 91
        0
 92
        0
 62
   257
 93
        1
300
CONTENTFORMAT
  1
CONTENTFORMAT_BEGIN
 90
        0
 91
        0
 92
      512
 93
        0
300

 40
0.0
140
1.0
 94
        2
 62
     0
340
11
144
4.5
309
CONTENTFORMAT_END
171
     1
301
MARGIN
  1
CELLMARGIN_BEGIN
 40
1.5
 40
1.5
 40
1.5
 40
1.5
 40
4.5
 40
4.5
309
CELLMARGIN_END
 94
        6
 95
        1
302
GRIDFORMAT
  1
GRIDFORMAT_BEGIN
 90
        0
 91
        1
 62
     0
 92
       -2
340
14
 93
        0
 40
1.125
309
GRIDFORMAT_END
 95
        2
302
GRIDFORMAT
  1
GRIDFORMAT_BEGIN
 90
        0
 91
        1
 62
     0
 92
       -2
340
14
 93
        0
 40
1.125
309
GRIDFORMAT_END
 95
        4
302
GRIDFORMAT
  1
GRIDFORMAT_BEGIN
 90
        0
 91
        1
 62
     0
 92
       -2
340
14
 93
        0
 40
1.125
309
GRIDFORMAT_END
 95
        8
302
GRIDFORMAT
  1
GRIDFORMAT_BEGIN
 90
        0
 91
        1
 62
     0
 92
       -2
340
14
 93
        0
 40
1.125
309
GRIDFORMAT_END
 95
       16
302
GRIDFORMAT
  1
GRIDFORMAT_BEGIN
 90
        0
 91
        1
 62
     0
 92
       -2
340
14
 93
        0
 40
1.125
309
GRIDFORMAT_END
 95
       32
302
GRIDFORMAT
  1
GRIDFORMAT_BEGIN
 90
        0
 91
        1
 62
     0
 92
       -2
340
14
 93
        0
 40
1.125
309
GRIDFORMAT_END
309
TABLEFORMAT_END
  1
CELLSTYLE_BEGIN
 90
        3
 91
        2
300
_DATA
309
CELLSTYLE_END
  0
XRECORD
  5
68B4
102
{ACAD_REACTORS
330
162
102
}
330
162
100
AcDbXrecord
280
     1
102
ACAD_ROUNDTRIP_PRE2007_TABLESTYLE
 90
      512
 91
        0
  1

 92
      512
 93
        0
  2

 94
      512
 95
        0
  3

  0
XRECORD
  5
68C7
102
{ACAD_REACTORS
330
68C6
102
}
330
68C6
100
AcDbXrecord
280
     1
102
RTVSPost2010Prop28
280
     1
102
RTVSPost2010PropOp28
 70
     1
102
RTVSPost2010Prop29
280
     1
102
RTVSPost2010PropOp29
 70
     1
102
RTVSPost2010Prop30
280
     0
102
RTVSPost2010PropOp30
 70
     1
102
RTVSPost2010Prop31
280
     0
102
RTVSPost2010PropOp31
 70
     1
102
RTVSPost2010Prop32
280
     0
102
RTVSPost2010PropOp32
 70
     1
102
RTVSPost2010Prop33
280
     0
102
RTVSPost2010PropOp33
 70
     1
102
RTVSPost2010Prop34
280
     0
102
RTVSPost2010PropOp34
 70
     1
102
RTVSPost2010Prop35
280
     0
102
RTVSPost2010PropOp35
 70
     1
102
RTVSPost2010Prop36
280
     0
102
RTVSPost2010PropOp36
 70
     1
102
RTVSPost2010Prop37
 90
       50
102
RTVSPost2010PropOp37
 70
     1
102
RTVSPost2010Prop38
140
0.0
102
RTVSPost2010PropOp38
 70
     1
102
RTVSPost2010Prop39
140
1.0
102
RTVSPost2010PropOp39
 70
     1
102
RTVSPost2010Prop40
 90
        0
102
RTVSPost2010PropOp40
 70
     1
102
RTVSPost2010Prop41ColorIndex
 90
       18
102
RTVSPost2010Prop41ColorRGB
 90
        0
102
RTVSPost2010PropOp41
 70
     1
102
RTVSPost2010Prop42
 90
       50
102
RTVSPost2010PropOp42
 70
     1
102
RTVSPost2010Prop43
 90
        3
102
RTVSPost2010PropOp43
 70
     1
102
RTVSPost2010Prop44ColorIndex
 90
        5
102
RTVSPost2010Prop44ColorRGB
 90
      255
102
RTVSPost2010PropOp44
 70
     1
102
RTVSPost2010Prop45
280
     0
102
RTVSPost2010PropOp45
 70
     1
102
RTVSPost2010Prop46
 90
       50
102
RTVSPost2010PropOp46
 70
     1
102
RTVSPost2010Prop47
 90
       50
102
RTVSPost2010PropOp47
 70
     1
102
RTVSPost2010Prop48
 90
       50
102
RTVSPost2010PropOp48
 70
     1
102
RTVSPost2010Prop49
280
     0
102
RTVSPost2010PropOp49
 70
     1
102
RTVSPost2010Prop50
 90
       50
102
RTVSPost2010PropOp50
 70
     1
102
RTVSPost2010Prop51ColorIndex
 90
      256
102
RTVSPost2010Prop51ColorRGB
 90
-16777216
102
RTVSPost2010PropOp51
 70
     0
102
RTVSPost2010Prop52
140
1.0
102
RTVSPost2010PropOp52
 70
     0
102
RTVSPost2010Prop53
 90
        2
102
RTVSPost2010PropOp53
 70
     1
102
RTVSPost2010Prop54
  1
strokes_ogs.tif
102
RTVSPost2010PropOp54
 70
     1
102
RTVSPost2010Prop55
280
     0
102
RTVSPost2010PropOp55
 70
     1
102
RTVSPost2010Prop56
140
1.0
102
RTVSPost2010PropOp56
 70
     1
102
RTVSPost2010Prop57
140
1.0
102
RTVSPost2010PropOp57
 70
     1
102
RTVSPropertyOp0
 70
     1
102
RTVSPropertyOp1
 70
     1
102
RTVSPropertyOp2
 70
     1
102
RTVSPropertyOp3
 70
     1
102
RTVSPropertyOp4
 70
     1
102
RTVSPropertyOp5
 70
     1
102
RTVSPropertyOp6
 70
     1
102
RTVSPropertyOp7
 70
     1
102
RTVSPropertyOp8
 70
     1
102
RTVSPropertyOp9
 70
     1
102
RTVSPropertyOp10
 70
     1
102
RTVSPropertyOp11
 70
     1
102
RTVSPropertyOp12
 70
     1
102
RTVSPropertyOp13
 70
     1
102
RTVSPropertyOp14
 70
     1
102
RTVSPropertyOp15
 70
     1
102
RTVSPropertyOp16
 70
     1
102
RTVSPropertyOp17
 70
     1
102
RTVSPropertyOp18
 70
     1
102
RTVSPropertyOp19
 70
     1
102
RTVSPropertyOp20
 70
     1
102
RTVSPropertyOp21
 70
     1
102
RTVSPropertyOp22
 70
     1
102
RTVSPropertyOp23
 70
     1
102
RTVSPropertyOp24
 70
     1
102
RTVSPropertyOp25
 70
     1
102
RTVSPropertyOp26
 70
     1
102
RTVSPropertyOp27
 70
     1
102
RTVSPropertyOp28
 70
     1
102
RTVSPropertyOp29
 70
     1
102
RTVSPropertyOp30
 70
     1
102
RTVSPropertyOp31
 70
     1
102
RTVSPropertyOp32
 70
     1
102
RTVSPropertyOp33
 70
     1
102
RTVSPropertyOp34
 70
     1
102
RTVSPropertyOp35
 70
     1
102
RTVSPropertyOp36
 70
     1
102
RTVSPropertyOp37
 70
     1
102
RTVSPropertyOp38
 70
     1
102
RTVSPropertyOp39
 70
     1
102
RTVSPropertyOp40
 70
     1
102
RTVSPropertyOp41
 70
     1
102
RTVSPropertyOp42
 70
     1
102
RTVSPropertyOp43
 70
     1
102
RTVSPropertyOp44
 70
     1
102
RTVSPropertyOp45
 70
     1
102
RTVSPropertyOp46
 70
     1
102
RTVSPropertyOp47
 70
     1
102
RTVSPropertyOp48
 70
     1
102
RTVSPropertyOp49
 70
     1
102
RTVSPropertyOp50
 70
     1
102
RTVSPropertyOp51
 70
     0
102
RTVSPropertyOp52
 70
     0
102
RTVSPropertyOp53
 70
     1
102
RTVSPropertyOp54
 70
     1
102
RTVSPropertyOp55
 70
     1
102
RTVSPropertyOp56
 70
     1
102
RTVSPropertyOp57
 70
     1
102
RTVSPropertyOp58
 70
     1
102
RTVSPropertyOp59
 70
     1
102
RTVSPropertyOp60
 70
     1
102
RTVSPropertyOp61
 70
     1
102
RTVSPropertyOp62
 70
     1
  0
XRECORD
  5
68C5
102
{ACAD_REACTORS
330
68C4
102
}
330
68C4
100
AcDbXrecord
280
     1
102
RTVSPost2010Prop28
280
     0
102
RTVSPost2010PropOp28
 70
     1
102
RTVSPost2010Prop29
280
     1
102
RTVSPost2010PropOp29
 70
     1
102
RTVSPost2010Prop30
280
     1
102
RTVSPost2010PropOp30
 70
     1
102
RTVSPost2010Prop31
280
     0
102
RTVSPost2010PropOp31
 70
     1
102
RTVSPost2010Prop32
280
     0
102
RTVSPost2010PropOp32
 70
     1
102
RTVSPost2010Prop33
280
     0
102
RTVSPost2010PropOp33
 70
     1
102
RTVSPost2010Prop34
280
     0
102
RTVSPost2010PropOp34
 70
     1
102
RTVSPost2010Prop35
280
     0
102
RTVSPost2010PropOp35
 70
     1
102
RTVSPost2010Prop36
280
     0
102
RTVSPost2010PropOp36
 70
     1
102
RTVSPost2010Prop37
 90
       50
102
RTVSPost2010PropOp37
 70
     1
102
RTVSPost2010Prop38
140
0.0
102
RTVSPost2010PropOp38
 70
     1
102
RTVSPost2010Prop39
140
1.0
102
RTVSPost2010PropOp39
 70
     1
102
RTVSPost2010Prop40
 90
        0
102
RTVSPost2010PropOp40
 70
     1
102
RTVSPost2010Prop41ColorIndex
 90
       18
102
RTVSPost2010Prop41ColorRGB
 90
        0
102
RTVSPost2010PropOp41
 70
     1
102
RTVSPost2010Prop42
 90
       50
102
RTVSPost2010PropOp42
 70
     1
102
RTVSPost2010Prop43
 90
        3
102
RTVSPost2010PropOp43
 70
     1
102
RTVSPost2010Prop44ColorIndex
 90
        5
102
RTVSPost2010Prop44ColorRGB
 90
      255
102
RTVSPost2010PropOp44
 70
     1
102
RTVSPost2010Prop45
280
     0
102
RTVSPost2010PropOp45
 70
     1
102
RTVSPost2010Prop46
 90
       50
102
RTVSPost2010PropOp46
 70
     1
102
RTVSPost2010Prop47
 90
       50
102
RTVSPost2010PropOp47
 70
     1
102
RTVSPost2010Prop48
 90
       50
102
RTVSPost2010PropOp48
 70
     1
102
RTVSPost2010Prop49
280
     0
102
RTVSPost2010PropOp49
 70
     1
102
RTVSPost2010Prop50
 90
       50
102
RTVSPost2010PropOp50
 70
     1
102
RTVSPost2010Prop51ColorIndex
 90
      256
102
RTVSPost2010Prop51ColorRGB
 90
-16777216
102
RTVSPost2010PropOp51
 70
     0
102
RTVSPost2010Prop52
140
1.0
102
RTVSPost2010PropOp52
 70
     0
102
RTVSPost2010Prop53
 90
        2
102
RTVSPost2010PropOp53
 70
     1
102
RTVSPost2010Prop54
  1
strokes_ogs.tif
102
RTVSPost2010PropOp54
 70
     1
102
RTVSPost2010Prop55
280
     0
102
RTVSPost2010PropOp55
 70
     1
102
RTVSPost2010Prop56
140
1.0
102
RTVSPost2010PropOp56
 70
     1
102
RTVSPost2010Prop57
140
1.0
102
RTVSPost2010PropOp57
 70
     1
102
RTVSPropertyOp0
 70
     1
102
RTVSPropertyOp1
 70
     1
102
RTVSPropertyOp2
 70
     1
102
RTVSPropertyOp3
 70
     1
102
RTVSPropertyOp4
 70
     1
102
RTVSPropertyOp5
 70
     1
102
RTVSPropertyOp6
 70
     1
102
RTVSPropertyOp7
 70
     1
102
RTVSPropertyOp8
 70
     1
102
RTVSPropertyOp9
 70
     1
102
RTVSPropertyOp10
 70
     1
102
RTVSPropertyOp11
 70
     1
102
RTVSPropertyOp12
 70
     1
102
RTVSPropertyOp13
 70
     1
102
RTVSPropertyOp14
 70
     1
102
RTVSPropertyOp15
 70
     1
102
RTVSPropertyOp16
 70
     1
102
RTVSPropertyOp17
 70
     1
102
RTVSPropertyOp18
 70
     1
102
RTVSPropertyOp19
 70
     1
102
RTVSPropertyOp20
 70
     1
102
RTVSPropertyOp21
 70
     1
102
RTVSPropertyOp22
 70
     1
102
RTVSPropertyOp23
 70
     1
102
RTVSPropertyOp24
 70
     1
102
RTVSPropertyOp25
 70
     1
102
RTVSPropertyOp26
 70
     1
102
RTVSPropertyOp27
 70
     1
102
RTVSPropertyOp28
 70
     1
102
RTVSPropertyOp29
 70
     1
102
RTVSPropertyOp30
 70
     1
102
RTVSPropertyOp31
 70
     1
102
RTVSPropertyOp32
 70
     1
102
RTVSPropertyOp33
 70
     1
102
RTVSPropertyOp34
 70
     1
102
RTVSPropertyOp35
 70
     1
102
RTVSPropertyOp36
 70
     1
102
RTVSPropertyOp37
 70
     1
102
RTVSPropertyOp38
 70
     1
102
RTVSPropertyOp39
 70
     1
102
RTVSPropertyOp40
 70
     1
102
RTVSPropertyOp41
 70
     1
102
RTVSPropertyOp42
 70
     1
102
RTVSPropertyOp43
 70
     1
102
RTVSPropertyOp44
 70
     1
102
RTVSPropertyOp45
 70
     1
102
RTVSPropertyOp46
 70
     1
102
RTVSPropertyOp47
 70
     1
102
RTVSPropertyOp48
 70
     1
102
RTVSPropertyOp49
 70
     1
102
RTVSPropertyOp50
 70
     1
102
RTVSPropertyOp51
 70
     0
102
RTVSPropertyOp52
 70
     0
102
RTVSPropertyOp53
 70
     1
102
RTVSPropertyOp54
 70
     1
102
RTVSPropertyOp55
 70
     1
102
RTVSPropertyOp56
 70
     1
102
RTVSPropertyOp57
 70
     1
102
RTVSPropertyOp58
 70
     1
102
RTVSPropertyOp59
 70
     1
102
RTVSPropertyOp60
 70
     1
102
RTVSPropertyOp61
 70
     1
102
RTVSPropertyOp62
 70
     1
  0
XRECORD
  5
68D3
102
{ACAD_REACTORS
330
68D2
102
}
330
68D2
100
AcDbXrecord
280
     1
102
RTVSPost2010Prop28
280
     0
102
RTVSPost2010PropOp28
 70
     1
102
RTVSPost2010Prop29
280
     1
102
RTVSPost2010PropOp29
 70
     1
102
RTVSPost2010Prop30
280
     1
102
RTVSPost2010PropOp30
 70
     1
102
RTVSPost2010Prop31
280
     0
102
RTVSPost2010PropOp31
 70
     1
102
RTVSPost2010Prop32
280
     0
102
RTVSPost2010PropOp32
 70
     1
102
RTVSPost2010Prop33
280
     0
102
RTVSPost2010PropOp33
 70
     1
102
RTVSPost2010Prop34
280
     0
102
RTVSPost2010PropOp34
 70
     1
102
RTVSPost2010Prop35
280
     0
102
RTVSPost2010PropOp35
 70
     1
102
RTVSPost2010Prop36
280
     0
102
RTVSPost2010PropOp36
 70
     1
102
RTVSPost2010Prop37
 90
       50
102
RTVSPost2010PropOp37
 70
     1
102
RTVSPost2010Prop38
140
0.0
102
RTVSPost2010PropOp38
 70
     1
102
RTVSPost2010Prop39
140
1.0
102
RTVSPost2010PropOp39
 70
     1
102
RTVSPost2010Prop40
 90
        0
102
RTVSPost2010PropOp40
 70
     1
102
RTVSPost2010Prop41ColorIndex
 90
       18
102
RTVSPost2010Prop41ColorRGB
 90
        0
102
RTVSPost2010PropOp41
 70
     1
102
RTVSPost2010Prop42
 90
       50
102
RTVSPost2010PropOp42
 70
     1
102
RTVSPost2010Prop43
 90
        3
102
RTVSPost2010PropOp43
 70
     1
102
RTVSPost2010Prop44ColorIndex
 90
        5
102
RTVSPost2010Prop44ColorRGB
 90
      255
102
RTVSPost2010PropOp44
 70
     1
102
RTVSPost2010Prop45
280
     0
102
RTVSPost2010PropOp45
 70
     1
102
RTVSPost2010Prop46
 90
       50
102
RTVSPost2010PropOp46
 70
     1
102
RTVSPost2010Prop47
 90
       50
102
RTVSPost2010PropOp47
 70
     1
102
RTVSPost2010Prop48
 90
       50
102
RTVSPost2010PropOp48
 70
     1
102
RTVSPost2010Prop49
280
     0
102
RTVSPost2010PropOp49
 70
     1
102
RTVSPost2010Prop50
 90
       50
102
RTVSPost2010PropOp50
 70
     1
102
RTVSPost2010Prop51ColorIndex
 90
      256
102
RTVSPost2010Prop51ColorRGB
 90
-16777216
102
RTVSPost2010PropOp51
 70
     0
102
RTVSPost2010Prop52
140
1.0
102
RTVSPost2010PropOp52
 70
     0
102
RTVSPost2010Prop53
 90
        2
102
RTVSPost2010PropOp53
 70
     1
102
RTVSPost2010Prop54
  1
strokes_ogs.tif
102
RTVSPost2010PropOp54
 70
     1
102
RTVSPost2010Prop55
280
     0
102
RTVSPost2010PropOp55
 70
     1
102
RTVSPost2010Prop56
140
1.0
102
RTVSPost2010PropOp56
 70
     1
102
RTVSPost2010Prop57
140
1.0
102
RTVSPost2010PropOp57
 70
     1
102
RTVSPropertyOp0
 70
     1
102
RTVSPropertyOp1
 70
     1
102
RTVSPropertyOp2
 70
     1
102
RTVSPropertyOp3
 70
     1
102
RTVSPropertyOp4
 70
     1
102
RTVSPropertyOp5
 70
     1
102
RTVSPropertyOp6
 70
     1
102
RTVSPropertyOp7
 70
     1
102
RTVSPropertyOp8
 70
     1
102
RTVSPropertyOp9
 70
     1
102
RTVSPropertyOp10
 70
     1
102
RTVSPropertyOp11
 70
     1
102
RTVSPropertyOp12
 70
     1
102
RTVSPropertyOp13
 70
     1
102
RTVSPropertyOp14
 70
     1
102
RTVSPropertyOp15
 70
     1
102
RTVSPropertyOp16
 70
     1
102
RTVSPropertyOp17
 70
     1
102
RTVSPropertyOp18
 70
     1
102
RTVSPropertyOp19
 70
     1
102
RTVSPropertyOp20
 70
     1
102
RTVSPropertyOp21
 70
     1
102
RTVSPropertyOp22
 70
     1
102
RTVSPropertyOp23
 70
     1
102
RTVSPropertyOp24
 70
     1
102
RTVSPropertyOp25
 70
     1
102
RTVSPropertyOp26
 70
     1
102
RTVSPropertyOp27
 70
     1
102
RTVSPropertyOp28
 70
     1
102
RTVSPropertyOp29
 70
     1
102
RTVSPropertyOp30
 70
     1
102
RTVSPropertyOp31
 70
     1
102
RTVSPropertyOp32
 70
     1
102
RTVSPropertyOp33
 70
     1
102
RTVSPropertyOp34
 70
     1
102
RTVSPropertyOp35
 70
     1
102
RTVSPropertyOp36
 70
     1
102
RTVSPropertyOp37
 70
     1
102
RTVSPropertyOp38
 70
     1
102
RTVSPropertyOp39
 70
     1
102
RTVSPropertyOp40
 70
     1
102
RTVSPropertyOp41
 70
     1
102
RTVSPropertyOp42
 70
     1
102
RTVSPropertyOp43
 70
     1
102
RTVSPropertyOp44
 70
     1
102
RTVSPropertyOp45
 70
     1
102
RTVSPropertyOp46
 70
     1
102
RTVSPropertyOp47
 70
     1
102
RTVSPropertyOp48
 70
     1
102
RTVSPropertyOp49
 70
     1
102
RTVSPropertyOp50
 70
     1
102
RTVSPropertyOp51
 70
     0
102
RTVSPropertyOp52
 70
     0
102
RTVSPropertyOp53
 70
     1
102
RTVSPropertyOp54
 70
     1
102
RTVSPropertyOp55
 70
     1
102
RTVSPropertyOp56
 70
     1
102
RTVSPropertyOp57
 70
     1
102
RTVSPropertyOp58
 70
     1
102
RTVSPropertyOp59
 70
     1
102
RTVSPropertyOp60
 70
     1
102
RTVSPropertyOp61
 70
     1
102
RTVSPropertyOp62
 70
     1
  0
XRECORD
  5
68DB
102
{ACAD_REACTORS
330
68DA
102
}
330
68DA
100
AcDbXrecord
280
     1
102
RTVSPost2010Prop28
280
     0
102
RTVSPost2010PropOp28
 70
     1
102
RTVSPost2010Prop29
280
     1
102
RTVSPost2010PropOp29
 70
     1
102
RTVSPost2010Prop30
280
     1
102
RTVSPost2010PropOp30
 70
     1
102
RTVSPost2010Prop31
280
     0
102
RTVSPost2010PropOp31
 70
     1
102
RTVSPost2010Prop32
280
     0
102
RTVSPost2010PropOp32
 70
     1
102
RTVSPost2010Prop33
280
     0
102
RTVSPost2010PropOp33
 70
     1
102
RTVSPost2010Prop34
280
     0
102
RTVSPost2010PropOp34
 70
     1
102
RTVSPost2010Prop35
280
     0
102
RTVSPost2010PropOp35
 70
     1
102
RTVSPost2010Prop36
280
     0
102
RTVSPost2010PropOp36
 70
     1
102
RTVSPost2010Prop37
 90
       50
102
RTVSPost2010PropOp37
 70
     1
102
RTVSPost2010Prop38
140
0.0
102
RTVSPost2010PropOp38
 70
     1
102
RTVSPost2010Prop39
140
1.0
102
RTVSPost2010PropOp39
 70
     1
102
RTVSPost2010Prop40
 90
        0
102
RTVSPost2010PropOp40
 70
     1
102
RTVSPost2010Prop41ColorIndex
 90
       18
102
RTVSPost2010Prop41ColorRGB
 90
        0
102
RTVSPost2010PropOp41
 70
     1
102
RTVSPost2010Prop42
 90
       50
102
RTVSPost2010PropOp42
 70
     1
102
RTVSPost2010Prop43
 90
        3
102
RTVSPost2010PropOp43
 70
     1
102
RTVSPost2010Prop44ColorIndex
 90
        5
102
RTVSPost2010Prop44ColorRGB
 90
      255
102
RTVSPost2010PropOp44
 70
     1
102
RTVSPost2010Prop45
280
     0
102
RTVSPost2010PropOp45
 70
     1
102
RTVSPost2010Prop46
 90
       50
102
RTVSPost2010PropOp46
 70
     1
102
RTVSPost2010Prop47
 90
       50
102
RTVSPost2010PropOp47
 70
     1
102
RTVSPost2010Prop48
 90
       50
102
RTVSPost2010PropOp48
 70
     1
102
RTVSPost2010Prop49
280
     0
102
RTVSPost2010PropOp49
 70
     1
102
RTVSPost2010Prop50
 90
       50
102
RTVSPost2010PropOp50
 70
     1
102
RTVSPost2010Prop51ColorIndex
 90
      256
102
RTVSPost2010Prop51ColorRGB
 90
-16777216
102
RTVSPost2010PropOp51
 70
     0
102
RTVSPost2010Prop52
140
1.0
102
RTVSPost2010PropOp52
 70
     0
102
RTVSPost2010Prop53
 90
        2
102
RTVSPost2010PropOp53
 70
     1
102
RTVSPost2010Prop54
  1
strokes_ogs.tif
102
RTVSPost2010PropOp54
 70
     1
102
RTVSPost2010Prop55
280
     0
102
RTVSPost2010PropOp55
 70
     1
102
RTVSPost2010Prop56
140
1.0
102
RTVSPost2010PropOp56
 70
     1
102
RTVSPost2010Prop57
140
1.0
102
RTVSPost2010PropOp57
 70
     1
102
RTVSPropertyOp0
 70
     1
102
RTVSPropertyOp1
 70
     1
102
RTVSPropertyOp2
 70
     1
102
RTVSPropertyOp3
 70
     1
102
RTVSPropertyOp4
 70
     1
102
RTVSPropertyOp5
 70
     1
102
RTVSPropertyOp6
 70
     1
102
RTVSPropertyOp7
 70
     1
102
RTVSPropertyOp8
 70
     1
102
RTVSPropertyOp9
 70
     1
102
RTVSPropertyOp10
 70
     1
102
RTVSPropertyOp11
 70
     1
102
RTVSPropertyOp12
 70
     1
102
RTVSPropertyOp13
 70
     1
102
RTVSPropertyOp14
 70
     1
102
RTVSPropertyOp15
 70
     1
102
RTVSPropertyOp16
 70
     1
102
RTVSPropertyOp17
 70
     1
102
RTVSPropertyOp18
 70
     1
102
RTVSPropertyOp19
 70
     1
102
RTVSPropertyOp20
 70
     1
102
RTVSPropertyOp21
 70
     1
102
RTVSPropertyOp22
 70
     1
102
RTVSPropertyOp23
 70
     1
102
RTVSPropertyOp24
 70
     1
102
RTVSPropertyOp25
 70
     1
102
RTVSPropertyOp26
 70
     1
102
RTVSPropertyOp27
 70
     1
102
RTVSPropertyOp28
 70
     1
102
RTVSPropertyOp29
 70
     1
102
RTVSPropertyOp30
 70
     1
102
RTVSPropertyOp31
 70
     1
102
RTVSPropertyOp32
 70
     1
102
RTVSPropertyOp33
 70
     1
102
RTVSPropertyOp34
 70
     1
102
RTVSPropertyOp35
 70
     1
102
RTVSPropertyOp36
 70
     1
102
RTVSPropertyOp37
 70
     1
102
RTVSPropertyOp38
 70
     1
102
RTVSPropertyOp39
 70
     1
102
RTVSPropertyOp40
 70
     1
102
RTVSPropertyOp41
 70
     1
102
RTVSPropertyOp42
 70
     1
102
RTVSPropertyOp43
 70
     1
102
RTVSPropertyOp44
 70
     1
102
RTVSPropertyOp45
 70
     1
102
RTVSPropertyOp46
 70
     1
102
RTVSPropertyOp47
 70
     1
102
RTVSPropertyOp48
 70
     1
102
RTVSPropertyOp49
 70
     1
102
RTVSPropertyOp50
 70
     1
102
RTVSPropertyOp51
 70
     0
102
RTVSPropertyOp52
 70
     0
102
RTVSPropertyOp53
 70
     1
102
RTVSPropertyOp54
 70
     1
102
RTVSPropertyOp55
 70
     1
102
RTVSPropertyOp56
 70
     1
102
RTVSPropertyOp57
 70
     1
102
RTVSPropertyOp58
 70
     1
102
RTVSPropertyOp59
 70
     1
102
RTVSPropertyOp60
 70
     1
102
RTVSPropertyOp61
 70
     1
102
RTVSPropertyOp62
 70
     1
  0
XRECORD
  5
68CD
102
{ACAD_REACTORS
330
68CC
102
}
330
68CC
100
AcDbXrecord
280
     1
102
RTVSPost2010Prop28
280
     0
102
RTVSPost2010PropOp28
 70
     1
102
RTVSPost2010Prop29
280
     1
102
RTVSPost2010PropOp29
 70
     1
102
RTVSPost2010Prop30
280
     1
102
RTVSPost2010PropOp30
 70
     1
102
RTVSPost2010Prop31
280
     0
102
RTVSPost2010PropOp31
 70
     1
102
RTVSPost2010Prop32
280
     0
102
RTVSPost2010PropOp32
 70
     1
102
RTVSPost2010Prop33
280
     0
102
RTVSPost2010PropOp33
 70
     1
102
RTVSPost2010Prop34
280
     0
102
RTVSPost2010PropOp34
 70
     1
102
RTVSPost2010Prop35
280
     0
102
RTVSPost2010PropOp35
 70
     1
102
RTVSPost2010Prop36
280
     0
102
RTVSPost2010PropOp36
 70
     1
102
RTVSPost2010Prop37
 90
       50
102
RTVSPost2010PropOp37
 70
     1
102
RTVSPost2010Prop38
140
0.0
102
RTVSPost2010PropOp38
 70
     1
102
RTVSPost2010Prop39
140
1.0
102
RTVSPost2010PropOp39
 70
     1
102
RTVSPost2010Prop40
 90
        0
102
RTVSPost2010PropOp40
 70
     1
102
RTVSPost2010Prop41ColorIndex
 90
       18
102
RTVSPost2010Prop41ColorRGB
 90
        0
102
RTVSPost2010PropOp41
 70
     1
102
RTVSPost2010Prop42
 90
       50
102
RTVSPost2010PropOp42
 70
     1
102
RTVSPost2010Prop43
 90
        3
102
RTVSPost2010PropOp43
 70
     1
102
RTVSPost2010Prop44ColorIndex
 90
        5
102
RTVSPost2010Prop44ColorRGB
 90
      255
102
RTVSPost2010PropOp44
 70
     1
102
RTVSPost2010Prop45
280
     0
102
RTVSPost2010PropOp45
 70
     1
102
RTVSPost2010Prop46
 90
       50
102
RTVSPost2010PropOp46
 70
     1
102
RTVSPost2010Prop47
 90
       50
102
RTVSPost2010PropOp47
 70
     1
102
RTVSPost2010Prop48
 90
       50
102
RTVSPost2010PropOp48
 70
     1
102
RTVSPost2010Prop49
280
     0
102
RTVSPost2010PropOp49
 70
     1
102
RTVSPost2010Prop50
 90
       50
102
RTVSPost2010PropOp50
 70
     1
102
RTVSPost2010Prop51ColorIndex
 90
      256
102
RTVSPost2010Prop51ColorRGB
 90
-16777216
102
RTVSPost2010PropOp51
 70
     0
102
RTVSPost2010Prop52
140
1.0
102
RTVSPost2010PropOp52
 70
     0
102
RTVSPost2010Prop53
 90
        2
102
RTVSPost2010PropOp53
 70
     1
102
RTVSPost2010Prop54
  1
strokes_ogs.tif
102
RTVSPost2010PropOp54
 70
     1
102
RTVSPost2010Prop55
280
     0
102
RTVSPost2010PropOp55
 70
     1
102
RTVSPost2010Prop56
140
1.0
102
RTVSPost2010PropOp56
 70
     1
102
RTVSPost2010Prop57
140
1.0
102
RTVSPost2010PropOp57
 70
     1
102
RTVSPropertyOp0
 70
     1
102
RTVSPropertyOp1
 70
     1
102
RTVSPropertyOp2
 70
     1
102
RTVSPropertyOp3
 70
     1
102
RTVSPropertyOp4
 70
     1
102
RTVSPropertyOp5
 70
     1
102
RTVSPropertyOp6
 70
     1
102
RTVSPropertyOp7
 70
     1
102
RTVSPropertyOp8
 70
     1
102
RTVSPropertyOp9
 70
     1
102
RTVSPropertyOp10
 70
     1
102
RTVSPropertyOp11
 70
     1
102
RTVSPropertyOp12
 70
     1
102
RTVSPropertyOp13
 70
     1
102
RTVSPropertyOp14
 70
     1
102
RTVSPropertyOp15
 70
     1
102
RTVSPropertyOp16
 70
     1
102
RTVSPropertyOp17
 70
     1
102
RTVSPropertyOp18
 70
     1
102
RTVSPropertyOp19
 70
     1
102
RTVSPropertyOp20
 70
     1
102
RTVSPropertyOp21
 70
     1
102
RTVSPropertyOp22
 70
     1
102
RTVSPropertyOp23
 70
     1
102
RTVSPropertyOp24
 70
     1
102
RTVSPropertyOp25
 70
     1
102
RTVSPropertyOp26
 70
     1
102
RTVSPropertyOp27
 70
     1
102
RTVSPropertyOp28
 70
     1
102
RTVSPropertyOp29
 70
     1
102
RTVSPropertyOp30
 70
     1
102
RTVSPropertyOp31
 70
     1
102
RTVSPropertyOp32
 70
     1
102
RTVSPropertyOp33
 70
     1
102
RTVSPropertyOp34
 70
     1
102
RTVSPropertyOp35
 70
     1
102
RTVSPropertyOp36
 70
     1
102
RTVSPropertyOp37
 70
     1
102
RTVSPropertyOp38
 70
     1
102
RTVSPropertyOp39
 70
     1
102
RTVSPropertyOp40
 70
     1
102
RTVSPropertyOp41
 70
     1
102
RTVSPropertyOp42
 70
     1
102
RTVSPropertyOp43
 70
     1
102
RTVSPropertyOp44
 70
     1
102
RTVSPropertyOp45
 70
     1
102
RTVSPropertyOp46
 70
     1
102
RTVSPropertyOp47
 70
     1
102
RTVSPropertyOp48
 70
     1
102
RTVSPropertyOp49
 70
     1
102
RTVSPropertyOp50
 70
     1
102
RTVSPropertyOp51
 70
     0
102
RTVSPropertyOp52
 70
     0
102
RTVSPropertyOp53
 70
     1
102
RTVSPropertyOp54
 70
     1
102
RTVSPropertyOp55
 70
     1
102
RTVSPropertyOp56
 70
     1
102
RTVSPropertyOp57
 70
     1
102
RTVSPropertyOp58
 70
     1
102
RTVSPropertyOp59
 70
     1
102
RTVSPropertyOp60
 70
     1
102
RTVSPropertyOp61
 70
     1
102
RTVSPropertyOp62
 70
     1
  0
XRECORD
  5
68D1
102
{ACAD_REACTORS
330
68D0
102
}
330
68D0
100
AcDbXrecord
280
     1
102
RTVSPost2010Prop28
280
     0
102
RTVSPost2010PropOp28
 70
     1
102
RTVSPost2010Prop29
280
     1
102
RTVSPost2010PropOp29
 70
     1
102
RTVSPost2010Prop30
280
     1
102
RTVSPost2010PropOp30
 70
     1
102
RTVSPost2010Prop31
280
     0
102
RTVSPost2010PropOp31
 70
     1
102
RTVSPost2010Prop32
280
     0
102
RTVSPost2010PropOp32
 70
     1
102
RTVSPost2010Prop33
280
     0
102
RTVSPost2010PropOp33
 70
     1
102
RTVSPost2010Prop34
280
     0
102
RTVSPost2010PropOp34
 70
     1
102
RTVSPost2010Prop35
280
     0
102
RTVSPost2010PropOp35
 70
     1
102
RTVSPost2010Prop36
280
     0
102
RTVSPost2010PropOp36
 70
     1
102
RTVSPost2010Prop37
 90
       50
102
RTVSPost2010PropOp37
 70
     1
102
RTVSPost2010Prop38
140
0.0
102
RTVSPost2010PropOp38
 70
     1
102
RTVSPost2010Prop39
140
1.0
102
RTVSPost2010PropOp39
 70
     1
102
RTVSPost2010Prop40
 90
        0
102
RTVSPost2010PropOp40
 70
     1
102
RTVSPost2010Prop41ColorIndex
 90
       18
102
RTVSPost2010Prop41ColorRGB
 90
        0
102
RTVSPost2010PropOp41
 70
     1
102
RTVSPost2010Prop42
 90
       50
102
RTVSPost2010PropOp42
 70
     1
102
RTVSPost2010Prop43
 90
        3
102
RTVSPost2010PropOp43
 70
     1
102
RTVSPost2010Prop44ColorIndex
 90
        5
102
RTVSPost2010Prop44ColorRGB
 90
      255
102
RTVSPost2010PropOp44
 70
     1
102
RTVSPost2010Prop45
280
     0
102
RTVSPost2010PropOp45
 70
     1
102
RTVSPost2010Prop46
 90
       50
102
RTVSPost2010PropOp46
 70
     1
102
RTVSPost2010Prop47
 90
       50
102
RTVSPost2010PropOp47
 70
     1
102
RTVSPost2010Prop48
 90
       50
102
RTVSPost2010PropOp48
 70
     1
102
RTVSPost2010Prop49
280
     0
102
RTVSPost2010PropOp49
 70
     1
102
RTVSPost2010Prop50
 90
       50
102
RTVSPost2010PropOp50
 70
     1
102
RTVSPost2010Prop51ColorIndex
 90
      256
102
RTVSPost2010Prop51ColorRGB
 90
-16777216
102
RTVSPost2010PropOp51
 70
     0
102
RTVSPost2010Prop52
140
1.0
102
RTVSPost2010PropOp52
 70
     0
102
RTVSPost2010Prop53
 90
        2
102
RTVSPost2010PropOp53
 70
     1
102
RTVSPost2010Prop54
  1
strokes_ogs.tif
102
RTVSPost2010PropOp54
 70
     1
102
RTVSPost2010Prop55
280
     0
102
RTVSPost2010PropOp55
 70
     1
102
RTVSPost2010Prop56
140
1.0
102
RTVSPost2010PropOp56
 70
     1
102
RTVSPost2010Prop57
140
1.0
102
RTVSPost2010PropOp57
 70
     1
102
RTVSPropertyOp0
 70
     1
102
RTVSPropertyOp1
 70
     1
102
RTVSPropertyOp2
 70
     1
102
RTVSPropertyOp3
 70
     1
102
RTVSPropertyOp4
 70
     1
102
RTVSPropertyOp5
 70
     1
102
RTVSPropertyOp6
 70
     1
102
RTVSPropertyOp7
 70
     1
102
RTVSPropertyOp8
 70
     1
102
RTVSPropertyOp9
 70
     1
102
RTVSPropertyOp10
 70
     1
102
RTVSPropertyOp11
 70
     1
102
RTVSPropertyOp12
 70
     1
102
RTVSPropertyOp13
 70
     1
102
RTVSPropertyOp14
 70
     1
102
RTVSPropertyOp15
 70
     1
102
RTVSPropertyOp16
 70
     1
102
RTVSPropertyOp17
 70
     1
102
RTVSPropertyOp18
 70
     1
102
RTVSPropertyOp19
 70
     1
102
RTVSPropertyOp20
 70
     1
102
RTVSPropertyOp21
 70
     1
102
RTVSPropertyOp22
 70
     1
102
RTVSPropertyOp23
 70
     1
102
RTVSPropertyOp24
 70
     1
102
RTVSPropertyOp25
 70
     1
102
RTVSPropertyOp26
 70
     1
102
RTVSPropertyOp27
 70
     1
102
RTVSPropertyOp28
 70
     1
102
RTVSPropertyOp29
 70
     1
102
RTVSPropertyOp30
 70
     1
102
RTVSPropertyOp31
 70
     1
102
RTVSPropertyOp32
 70
     1
102
RTVSPropertyOp33
 70
     1
102
RTVSPropertyOp34
 70
     1
102
RTVSPropertyOp35
 70
     1
102
RTVSPropertyOp36
 70
     1
102
RTVSPropertyOp37
 70
     1
102
RTVSPropertyOp38
 70
     1
102
RTVSPropertyOp39
 70
     1
102
RTVSPropertyOp40
 70
     1
102
RTVSPropertyOp41
 70
     1
102
RTVSPropertyOp42
 70
     1
102
RTVSPropertyOp43
 70
     1
102
RTVSPropertyOp44
 70
     1
102
RTVSPropertyOp45
 70
     1
102
RTVSPropertyOp46
 70
     1
102
RTVSPropertyOp47
 70
     1
102
RTVSPropertyOp48
 70
     1
102
RTVSPropertyOp49
 70
     1
102
RTVSPropertyOp50
 70
     1
102
RTVSPropertyOp51
 70
     0
102
RTVSPropertyOp52
 70
     0
102
RTVSPropertyOp53
 70
     1
102
RTVSPropertyOp54
 70
     1
102
RTVSPropertyOp55
 70
     1
102
RTVSPropertyOp56
 70
     1
102
RTVSPropertyOp57
 70
     1
102
RTVSPropertyOp58
 70
     1
102
RTVSPropertyOp59
 70
     1
102
RTVSPropertyOp60
 70
     1
102
RTVSPropertyOp61
 70
     1
102
RTVSPropertyOp62
 70
     1
  0
XRECORD
  5
68E3
102
{ACAD_REACTORS
330
68E2
102
}
330
68E2
100
AcDbXrecord
280
     1
102
RTVSPost2010Prop28
280
     0
102
RTVSPost2010PropOp28
 70
     1
102
RTVSPost2010Prop29
280
     1
102
RTVSPost2010PropOp29
 70
     1
102
RTVSPost2010Prop30
280
     1
102
RTVSPost2010PropOp30
 70
     1
102
RTVSPost2010Prop31
280
     0
102
RTVSPost2010PropOp31
 70
     1
102
RTVSPost2010Prop32
280
     0
102
RTVSPost2010PropOp32
 70
     1
102
RTVSPost2010Prop33
280
     0
102
RTVSPost2010PropOp33
 70
     1
102
RTVSPost2010Prop34
280
     0
102
RTVSPost2010PropOp34
 70
     1
102
RTVSPost2010Prop35
280
     0
102
RTVSPost2010PropOp35
 70
     1
102
RTVSPost2010Prop36
280
     0
102
RTVSPost2010PropOp36
 70
     1
102
RTVSPost2010Prop37
 90
       50
102
RTVSPost2010PropOp37
 70
     1
102
RTVSPost2010Prop38
140
0.0
102
RTVSPost2010PropOp38
 70
     1
102
RTVSPost2010Prop39
140
1.0
102
RTVSPost2010PropOp39
 70
     1
102
RTVSPost2010Prop40
 90
        0
102
RTVSPost2010PropOp40
 70
     1
102
RTVSPost2010Prop41ColorIndex
 90
       18
102
RTVSPost2010Prop41ColorRGB
 90
        0
102
RTVSPost2010PropOp41
 70
     1
102
RTVSPost2010Prop42
 90
       50
102
RTVSPost2010PropOp42
 70
     1
102
RTVSPost2010Prop43
 90
        3
102
RTVSPost2010PropOp43
 70
     1
102
RTVSPost2010Prop44ColorIndex
 90
        5
102
RTVSPost2010Prop44ColorRGB
 90
      255
102
RTVSPost2010PropOp44
 70
     1
102
RTVSPost2010Prop45
280
     0
102
RTVSPost2010PropOp45
 70
     1
102
RTVSPost2010Prop46
 90
       50
102
RTVSPost2010PropOp46
 70
     1
102
RTVSPost2010Prop47
 90
       50
102
RTVSPost2010PropOp47
 70
     1
102
RTVSPost2010Prop48
 90
       50
102
RTVSPost2010PropOp48
 70
     1
102
RTVSPost2010Prop49
280
     0
102
RTVSPost2010PropOp49
 70
     1
102
RTVSPost2010Prop50
 90
       50
102
RTVSPost2010PropOp50
 70
     1
102
RTVSPost2010Prop51ColorIndex
 90
      256
102
RTVSPost2010Prop51ColorRGB
 90
-16777216
102
RTVSPost2010PropOp51
 70
     0
102
RTVSPost2010Prop52
140
1.0
102
RTVSPost2010PropOp52
 70
     0
102
RTVSPost2010Prop53
 90
        2
102
RTVSPost2010PropOp53
 70
     1
102
RTVSPost2010Prop54
  1
strokes_ogs.tif
102
RTVSPost2010PropOp54
 70
     1
102
RTVSPost2010Prop55
280
     0
102
RTVSPost2010PropOp55
 70
     1
102
RTVSPost2010Prop56
140
1.0
102
RTVSPost2010PropOp56
 70
     1
102
RTVSPost2010Prop57
140
1.0
102
RTVSPost2010PropOp57
 70
     1
102
RTVSPropertyOp0
 70
     0
102
RTVSPropertyOp1
 70
     0
102
RTVSPropertyOp2
 70
     0
102
RTVSPropertyOp3
 70
     0
102
RTVSPropertyOp4
 70
     0
102
RTVSPropertyOp5
 70
     0
102
RTVSPropertyOp6
 70
     0
102
RTVSPropertyOp7
 70
     0
102
RTVSPropertyOp8
 70
     0
102
RTVSPropertyOp9
 70
     0
102
RTVSPropertyOp10
 70
     0
102
RTVSPropertyOp11
 70
     0
102
RTVSPropertyOp12
 70
     0
102
RTVSPropertyOp13
 70
     0
102
RTVSPropertyOp14
 70
     2
102
RTVSPropertyOp15
 70
     0
102
RTVSPropertyOp16
 70
     0
102
RTVSPropertyOp17
 70
     0
102
RTVSPropertyOp18
 70
     0
102
RTVSPropertyOp19
 70
     0
102
RTVSPropertyOp20
 70
     0
102
RTVSPropertyOp21
 70
     0
102
RTVSPropertyOp22
 70
     0
102
RTVSPropertyOp23
 70
     0
102
RTVSPropertyOp24
 70
     0
102
RTVSPropertyOp25
 70
     0
102
RTVSPropertyOp26
 70
     0
102
RTVSPropertyOp27
 70
     0
102
RTVSPropertyOp28
 70
     1
102
RTVSPropertyOp29
 70
     1
102
RTVSPropertyOp30
 70
     1
102
RTVSPropertyOp31
 70
     1
102
RTVSPropertyOp32
 70
     1
102
RTVSPropertyOp33
 70
     1
102
RTVSPropertyOp34
 70
     1
102
RTVSPropertyOp35
 70
     1
102
RTVSPropertyOp36
 70
     1
102
RTVSPropertyOp37
 70
     1
102
RTVSPropertyOp38
 70
     1
102
RTVSPropertyOp39
 70
     1
102
RTVSPropertyOp40
 70
     1
102
RTVSPropertyOp41
 70
     1
102
RTVSPropertyOp42
 70
     1
102
RTVSPropertyOp43
 70
     1
102
RTVSPropertyOp44
 70
     1
102
RTVSPropertyOp45
 70
     1
102
RTVSPropertyOp46
 70
     1
102
RTVSPropertyOp47
 70
     1
102
RTVSPropertyOp48
 70
     1
102
RTVSPropertyOp49
 70
     1
102
RTVSPropertyOp50
 70
     1
102
RTVSPropertyOp51
 70
     0
102
RTVSPropertyOp52
 70
     0
102
RTVSPropertyOp53
 70
     1
102
RTVSPropertyOp54
 70
     1
102
RTVSPropertyOp55
 70
     1
102
RTVSPropertyOp56
 70
     1
102
RTVSPropertyOp57
 70
     1
102
RTVSPropertyOp58
 70
     1
102
RTVSPropertyOp59
 70
     1
102
RTVSPropertyOp60
 70
     1
102
RTVSPropertyOp61
 70
     1
102
RTVSPropertyOp62
 70
     1
  0
XRECORD
  5
68D9
102
{ACAD_REACTORS
330
68D8
102
}
330
68D8
100
AcDbXrecord
280
     1
102
RTVSPost2010Prop28
280
     0
102
RTVSPost2010PropOp28
 70
     1
102
RTVSPost2010Prop29
280
     1
102
RTVSPost2010PropOp29
 70
     1
102
RTVSPost2010Prop30
280
     1
102
RTVSPost2010PropOp30
 70
     1
102
RTVSPost2010Prop31
280
     0
102
RTVSPost2010PropOp31
 70
     1
102
RTVSPost2010Prop32
280
     0
102
RTVSPost2010PropOp32
 70
     1
102
RTVSPost2010Prop33
280
     0
102
RTVSPost2010PropOp33
 70
     1
102
RTVSPost2010Prop34
280
     0
102
RTVSPost2010PropOp34
 70
     1
102
RTVSPost2010Prop35
280
     0
102
RTVSPost2010PropOp35
 70
     1
102
RTVSPost2010Prop36
280
     0
102
RTVSPost2010PropOp36
 70
     1
102
RTVSPost2010Prop37
 90
       50
102
RTVSPost2010PropOp37
 70
     1
102
RTVSPost2010Prop38
140
0.0
102
RTVSPost2010PropOp38
 70
     1
102
RTVSPost2010Prop39
140
1.0
102
RTVSPost2010PropOp39
 70
     1
102
RTVSPost2010Prop40
 90
        0
102
RTVSPost2010PropOp40
 70
     1
102
RTVSPost2010Prop41ColorIndex
 90
       18
102
RTVSPost2010Prop41ColorRGB
 90
        0
102
RTVSPost2010PropOp41
 70
     1
102
RTVSPost2010Prop42
 90
       50
102
RTVSPost2010PropOp42
 70
     1
102
RTVSPost2010Prop43
 90
        3
102
RTVSPost2010PropOp43
 70
     1
102
RTVSPost2010Prop44ColorIndex
 90
        5
102
RTVSPost2010Prop44ColorRGB
 90
      255
102
RTVSPost2010PropOp44
 70
     1
102
RTVSPost2010Prop45
280
     0
102
RTVSPost2010PropOp45
 70
     1
102
RTVSPost2010Prop46
 90
       50
102
RTVSPost2010PropOp46
 70
     1
102
RTVSPost2010Prop47
 90
       50
102
RTVSPost2010PropOp47
 70
     1
102
RTVSPost2010Prop48
 90
       50
102
RTVSPost2010PropOp48
 70
     1
102
RTVSPost2010Prop49
280
     0
102
RTVSPost2010PropOp49
 70
     1
102
RTVSPost2010Prop50
 90
       50
102
RTVSPost2010PropOp50
 70
     1
102
RTVSPost2010Prop51ColorIndex
 90
      256
102
RTVSPost2010Prop51ColorRGB
 90
-16777216
102
RTVSPost2010PropOp51
 70
     0
102
RTVSPost2010Prop52
140
1.0
102
RTVSPost2010PropOp52
 70
     0
102
RTVSPost2010Prop53
 90
        2
102
RTVSPost2010PropOp53
 70
     1
102
RTVSPost2010Prop54
  1
strokes_ogs.tif
102
RTVSPost2010PropOp54
 70
     1
102
RTVSPost2010Prop55
280
     0
102
RTVSPost2010PropOp55
 70
     1
102
RTVSPost2010Prop56
140
1.0
102
RTVSPost2010PropOp56
 70
     1
102
RTVSPost2010Prop57
140
1.0
102
RTVSPost2010PropOp57
 70
     1
102
RTVSPropertyOp0
 70
     1
102
RTVSPropertyOp1
 70
     1
102
RTVSPropertyOp2
 70
     1
102
RTVSPropertyOp3
 70
     1
102
RTVSPropertyOp4
 70
     1
102
RTVSPropertyOp5
 70
     1
102
RTVSPropertyOp6
 70
     1
102
RTVSPropertyOp7
 70
     1
102
RTVSPropertyOp8
 70
     1
102
RTVSPropertyOp9
 70
     1
102
RTVSPropertyOp10
 70
     1
102
RTVSPropertyOp11
 70
     1
102
RTVSPropertyOp12
 70
     1
102
RTVSPropertyOp13
 70
     1
102
RTVSPropertyOp14
 70
     1
102
RTVSPropertyOp15
 70
     1
102
RTVSPropertyOp16
 70
     1
102
RTVSPropertyOp17
 70
     1
102
RTVSPropertyOp18
 70
     1
102
RTVSPropertyOp19
 70
     1
102
RTVSPropertyOp20
 70
     1
102
RTVSPropertyOp21
 70
     1
102
RTVSPropertyOp22
 70
     1
102
RTVSPropertyOp23
 70
     1
102
RTVSPropertyOp24
 70
     1
102
RTVSPropertyOp25
 70
     1
102
RTVSPropertyOp26
 70
     1
102
RTVSPropertyOp27
 70
     1
102
RTVSPropertyOp28
 70
     1
102
RTVSPropertyOp29
 70
     1
102
RTVSPropertyOp30
 70
     1
102
RTVSPropertyOp31
 70
     1
102
RTVSPropertyOp32
 70
     1
102
RTVSPropertyOp33
 70
     1
102
RTVSPropertyOp34
 70
     1
102
RTVSPropertyOp35
 70
     1
102
RTVSPropertyOp36
 70
     1
102
RTVSPropertyOp37
 70
     1
102
RTVSPropertyOp38
 70
     1
102
RTVSPropertyOp39
 70
     1
102
RTVSPropertyOp40
 70
     1
102
RTVSPropertyOp41
 70
     1
102
RTVSPropertyOp42
 70
     1
102
RTVSPropertyOp43
 70
     1
102
RTVSPropertyOp44
 70
     1
102
RTVSPropertyOp45
 70
     1
102
RTVSPropertyOp46
 70
     1
102
RTVSPropertyOp47
 70
     1
102
RTVSPropertyOp48
 70
     1
102
RTVSPropertyOp49
 70
     1
102
RTVSPropertyOp50
 70
     1
102
RTVSPropertyOp51
 70
     0
102
RTVSPropertyOp52
 70
     0
102
RTVSPropertyOp53
 70
     1
102
RTVSPropertyOp54
 70
     1
102
RTVSPropertyOp55
 70
     1
102
RTVSPropertyOp56
 70
     1
102
RTVSPropertyOp57
 70
     1
102
RTVSPropertyOp58
 70
     1
102
RTVSPropertyOp59
 70
     1
102
RTVSPropertyOp60
 70
     1
102
RTVSPropertyOp61
 70
     1
102
RTVSPropertyOp62
 70
     1
  0
XRECORD
  5
68BD
102
{ACAD_REACTORS
330
68BC
102
}
330
68BC
100
AcDbXrecord
280
     1
102
RTVSPost2010Prop28
280
     0
102
RTVSPost2010PropOp28
 70
     1
102
RTVSPost2010Prop29
280
     1
102
RTVSPost2010PropOp29
 70
     1
102
RTVSPost2010Prop30
280
     1
102
RTVSPost2010PropOp30
 70
     1
102
RTVSPost2010Prop31
280
     0
102
RTVSPost2010PropOp31
 70
     1
102
RTVSPost2010Prop32
280
     0
102
RTVSPost2010PropOp32
 70
     1
102
RTVSPost2010Prop33
280
     0
102
RTVSPost2010PropOp33
 70
     1
102
RTVSPost2010Prop34
280
     0
102
RTVSPost2010PropOp34
 70
     1
102
RTVSPost2010Prop35
280
     0
102
RTVSPost2010PropOp35
 70
     1
102
RTVSPost2010Prop36
280
     0
102
RTVSPost2010PropOp36
 70
     1
102
RTVSPost2010Prop37
 90
       50
102
RTVSPost2010PropOp37
 70
     1
102
RTVSPost2010Prop38
140
0.0
102
RTVSPost2010PropOp38
 70
     1
102
RTVSPost2010Prop39
140
1.0
102
RTVSPost2010PropOp39
 70
     1
102
RTVSPost2010Prop40
 90
        0
102
RTVSPost2010PropOp40
 70
     1
102
RTVSPost2010Prop41ColorIndex
 90
       18
102
RTVSPost2010Prop41ColorRGB
 90
        0
102
RTVSPost2010PropOp41
 70
     1
102
RTVSPost2010Prop42
 90
       50
102
RTVSPost2010PropOp42
 70
     1
102
RTVSPost2010Prop43
 90
        3
102
RTVSPost2010PropOp43
 70
     1
102
RTVSPost2010Prop44ColorIndex
 90
        5
102
RTVSPost2010Prop44ColorRGB
 90
      255
102
RTVSPost2010PropOp44
 70
     1
102
RTVSPost2010Prop45
280
     0
102
RTVSPost2010PropOp45
 70
     1
102
RTVSPost2010Prop46
 90
       50
102
RTVSPost2010PropOp46
 70
     1
102
RTVSPost2010Prop47
 90
       50
102
RTVSPost2010PropOp47
 70
     1
102
RTVSPost2010Prop48
 90
       50
102
RTVSPost2010PropOp48
 70
     1
102
RTVSPost2010Prop49
280
     0
102
RTVSPost2010PropOp49
 70
     1
102
RTVSPost2010Prop50
 90
       50
102
RTVSPost2010PropOp50
 70
     1
102
RTVSPost2010Prop51ColorIndex
 90
      256
102
RTVSPost2010Prop51ColorRGB
 90
-16777216
102
RTVSPost2010PropOp51
 70
     0
102
RTVSPost2010Prop52
140
1.0
102
RTVSPost2010PropOp52
 70
     0
102
RTVSPost2010Prop53
 90
        2
102
RTVSPost2010PropOp53
 70
     1
102
RTVSPost2010Prop54
  1
strokes_ogs.tif
102
RTVSPost2010PropOp54
 70
     1
102
RTVSPost2010Prop55
280
     0
102
RTVSPost2010PropOp55
 70
     1
102
RTVSPost2010Prop56
140
1.0
102
RTVSPost2010PropOp56
 70
     1
102
RTVSPost2010Prop57
140
1.0
102
RTVSPost2010PropOp57
 70
     1
102
RTVSPropertyOp0
 70
     1
102
RTVSPropertyOp1
 70
     1
102
RTVSPropertyOp2
 70
     1
102
RTVSPropertyOp3
 70
     1
102
RTVSPropertyOp4
 70
     1
102
RTVSPropertyOp5
 70
     1
102
RTVSPropertyOp6
 70
     1
102
RTVSPropertyOp7
 70
     1
102
RTVSPropertyOp8
 70
     1
102
RTVSPropertyOp9
 70
     1
102
RTVSPropertyOp10
 70
     1
102
RTVSPropertyOp11
 70
     1
102
RTVSPropertyOp12
 70
     1
102
RTVSPropertyOp13
 70
     1
102
RTVSPropertyOp14
 70
     1
102
RTVSPropertyOp15
 70
     1
102
RTVSPropertyOp16
 70
     1
102
RTVSPropertyOp17
 70
     1
102
RTVSPropertyOp18
 70
     1
102
RTVSPropertyOp19
 70
     1
102
RTVSPropertyOp20
 70
     1
102
RTVSPropertyOp21
 70
     1
102
RTVSPropertyOp22
 70
     1
102
RTVSPropertyOp23
 70
     1
102
RTVSPropertyOp24
 70
     1
102
RTVSPropertyOp25
 70
     1
102
RTVSPropertyOp26
 70
     1
102
RTVSPropertyOp27
 70
     1
102
RTVSPropertyOp28
 70
     1
102
RTVSPropertyOp29
 70
     1
102
RTVSPropertyOp30
 70
     1
102
RTVSPropertyOp31
 70
     1
102
RTVSPropertyOp32
 70
     1
102
RTVSPropertyOp33
 70
     1
102
RTVSPropertyOp34
 70
     1
102
RTVSPropertyOp35
 70
     1
102
RTVSPropertyOp36
 70
     1
102
RTVSPropertyOp37
 70
     1
102
RTVSPropertyOp38
 70
     1
102
RTVSPropertyOp39
 70
     1
102
RTVSPropertyOp40
 70
     1
102
RTVSPropertyOp41
 70
     1
102
RTVSPropertyOp42
 70
     1
102
RTVSPropertyOp43
 70
     1
102
RTVSPropertyOp44
 70
     1
102
RTVSPropertyOp45
 70
     1
102
RTVSPropertyOp46
 70
     1
102
RTVSPropertyOp47
 70
     1
102
RTVSPropertyOp48
 70
     1
102
RTVSPropertyOp49
 70
     1
102
RTVSPropertyOp50
 70
     1
102
RTVSPropertyOp51
 70
     0
102
RTVSPropertyOp52
 70
     0
102
RTVSPropertyOp53
 70
     1
102
RTVSPropertyOp54
 70
     1
102
RTVSPropertyOp55
 70
     1
102
RTVSPropertyOp56
 70
     1
102
RTVSPropertyOp57
 70
     1
102
RTVSPropertyOp58
 70
     1
102
RTVSPropertyOp59
 70
     1
102
RTVSPropertyOp60
 70
     1
102
RTVSPropertyOp61
 70
     1
102
RTVSPropertyOp62
 70
     1
  0
XRECORD
  5
68BF
102
{ACAD_REACTORS
330
68BE
102
}
330
68BE
100
AcDbXrecord
280
     1
102
RTVSPost2010Prop28
280
     0
102
RTVSPost2010PropOp28
 70
     1
102
RTVSPost2010Prop29
280
     1
102
RTVSPost2010PropOp29
 70
     1
102
RTVSPost2010Prop30
280
     1
102
RTVSPost2010PropOp30
 70
     1
102
RTVSPost2010Prop31
280
     0
102
RTVSPost2010PropOp31
 70
     1
102
RTVSPost2010Prop32
280
     0
102
RTVSPost2010PropOp32
 70
     1
102
RTVSPost2010Prop33
280
     0
102
RTVSPost2010PropOp33
 70
     1
102
RTVSPost2010Prop34
280
     0
102
RTVSPost2010PropOp34
 70
     1
102
RTVSPost2010Prop35
280
     0
102
RTVSPost2010PropOp35
 70
     1
102
RTVSPost2010Prop36
280
     0
102
RTVSPost2010PropOp36
 70
     1
102
RTVSPost2010Prop37
 90
       50
102
RTVSPost2010PropOp37
 70
     1
102
RTVSPost2010Prop38
140
0.0
102
RTVSPost2010PropOp38
 70
     1
102
RTVSPost2010Prop39
140
1.0
102
RTVSPost2010PropOp39
 70
     1
102
RTVSPost2010Prop40
 90
        0
102
RTVSPost2010PropOp40
 70
     1
102
RTVSPost2010Prop41ColorIndex
 90
       18
102
RTVSPost2010Prop41ColorRGB
 90
        0
102
RTVSPost2010PropOp41
 70
     1
102
RTVSPost2010Prop42
 90
       50
102
RTVSPost2010PropOp42
 70
     1
102
RTVSPost2010Prop43
 90
        3
102
RTVSPost2010PropOp43
 70
     1
102
RTVSPost2010Prop44ColorIndex
 90
        5
102
RTVSPost2010Prop44ColorRGB
 90
      255
102
RTVSPost2010PropOp44
 70
     1
102
RTVSPost2010Prop45
280
     0
102
RTVSPost2010PropOp45
 70
     1
102
RTVSPost2010Prop46
 90
       50
102
RTVSPost2010PropOp46
 70
     1
102
RTVSPost2010Prop47
 90
       50
102
RTVSPost2010PropOp47
 70
     1
102
RTVSPost2010Prop48
 90
       50
102
RTVSPost2010PropOp48
 70
     1
102
RTVSPost2010Prop49
280
     0
102
RTVSPost2010PropOp49
 70
     1
102
RTVSPost2010Prop50
 90
       50
102
RTVSPost2010PropOp50
 70
     1
102
RTVSPost2010Prop51ColorIndex
 90
      256
102
RTVSPost2010Prop51ColorRGB
 90
-16777216
102
RTVSPost2010PropOp51
 70
     0
102
RTVSPost2010Prop52
140
1.0
102
RTVSPost2010PropOp52
 70
     0
102
RTVSPost2010Prop53
 90
        2
102
RTVSPost2010PropOp53
 70
     1
102
RTVSPost2010Prop54
  1
strokes_ogs.tif
102
RTVSPost2010PropOp54
 70
     1
102
RTVSPost2010Prop55
280
     0
102
RTVSPost2010PropOp55
 70
     1
102
RTVSPost2010Prop56
140
1.0
102
RTVSPost2010PropOp56
 70
     1
102
RTVSPost2010Prop57
140
1.0
102
RTVSPost2010PropOp57
 70
     1
102
RTVSPropertyOp0
 70
     1
102
RTVSPropertyOp1
 70
     1
102
RTVSPropertyOp2
 70
     1
102
RTVSPropertyOp3
 70
     1
102
RTVSPropertyOp4
 70
     1
102
RTVSPropertyOp5
 70
     1
102
RTVSPropertyOp6
 70
     1
102
RTVSPropertyOp7
 70
     1
102
RTVSPropertyOp8
 70
     1
102
RTVSPropertyOp9
 70
     1
102
RTVSPropertyOp10
 70
     1
102
RTVSPropertyOp11
 70
     1
102
RTVSPropertyOp12
 70
     1
102
RTVSPropertyOp13
 70
     1
102
RTVSPropertyOp14
 70
     1
102
RTVSPropertyOp15
 70
     1
102
RTVSPropertyOp16
 70
     1
102
RTVSPropertyOp17
 70
     1
102
RTVSPropertyOp18
 70
     1
102
RTVSPropertyOp19
 70
     1
102
RTVSPropertyOp20
 70
     1
102
RTVSPropertyOp21
 70
     1
102
RTVSPropertyOp22
 70
     1
102
RTVSPropertyOp23
 70
     1
102
RTVSPropertyOp24
 70
     1
102
RTVSPropertyOp25
 70
     1
102
RTVSPropertyOp26
 70
     1
102
RTVSPropertyOp27
 70
     1
102
RTVSPropertyOp28
 70
     1
102
RTVSPropertyOp29
 70
     1
102
RTVSPropertyOp30
 70
     1
102
RTVSPropertyOp31
 70
     1
102
RTVSPropertyOp32
 70
     1
102
RTVSPropertyOp33
 70
     1
102
RTVSPropertyOp34
 70
     1
102
RTVSPropertyOp35
 70
     1
102
RTVSPropertyOp36
 70
     1
102
RTVSPropertyOp37
 70
     1
102
RTVSPropertyOp38
 70
     1
102
RTVSPropertyOp39
 70
     1
102
RTVSPropertyOp40
 70
     1
102
RTVSPropertyOp41
 70
     1
102
RTVSPropertyOp42
 70
     1
102
RTVSPropertyOp43
 70
     1
102
RTVSPropertyOp44
 70
     1
102
RTVSPropertyOp45
 70
     1
102
RTVSPropertyOp46
 70
     1
102
RTVSPropertyOp47
 70
     1
102
RTVSPropertyOp48
 70
     1
102
RTVSPropertyOp49
 70
     1
102
RTVSPropertyOp50
 70
     1
102
RTVSPropertyOp51
 70
     0
102
RTVSPropertyOp52
 70
     0
102
RTVSPropertyOp53
 70
     1
102
RTVSPropertyOp54
 70
     1
102
RTVSPropertyOp55
 70
     1
102
RTVSPropertyOp56
 70
     1
102
RTVSPropertyOp57
 70
     1
102
RTVSPropertyOp58
 70
     1
102
RTVSPropertyOp59
 70
     1
102
RTVSPropertyOp60
 70
     1
102
RTVSPropertyOp61
 70
     1
102
RTVSPropertyOp62
 70
     1
  0
XRECORD
  5
68C1
102
{ACAD_REACTORS
330
68C0
102
}
330
68C0
100
AcDbXrecord
280
     1
102
RTVSPost2010Prop28
280
     0
102
RTVSPost2010PropOp28
 70
     1
102
RTVSPost2010Prop29
280
     1
102
RTVSPost2010PropOp29
 70
     1
102
RTVSPost2010Prop30
280
     1
102
RTVSPost2010PropOp30
 70
     1
102
RTVSPost2010Prop31
280
     0
102
RTVSPost2010PropOp31
 70
     1
102
RTVSPost2010Prop32
280
     0
102
RTVSPost2010PropOp32
 70
     1
102
RTVSPost2010Prop33
280
     0
102
RTVSPost2010PropOp33
 70
     1
102
RTVSPost2010Prop34
280
     0
102
RTVSPost2010PropOp34
 70
     1
102
RTVSPost2010Prop35
280
     0
102
RTVSPost2010PropOp35
 70
     1
102
RTVSPost2010Prop36
280
     0
102
RTVSPost2010PropOp36
 70
     1
102
RTVSPost2010Prop37
 90
       50
102
RTVSPost2010PropOp37
 70
     1
102
RTVSPost2010Prop38
140
0.0
102
RTVSPost2010PropOp38
 70
     1
102
RTVSPost2010Prop39
140
1.0
102
RTVSPost2010PropOp39
 70
     1
102
RTVSPost2010Prop40
 90
        0
102
RTVSPost2010PropOp40
 70
     1
102
RTVSPost2010Prop41ColorIndex
 90
       18
102
RTVSPost2010Prop41ColorRGB
 90
        0
102
RTVSPost2010PropOp41
 70
     1
102
RTVSPost2010Prop42
 90
       50
102
RTVSPost2010PropOp42
 70
     1
102
RTVSPost2010Prop43
 90
        3
102
RTVSPost2010PropOp43
 70
     1
102
RTVSPost2010Prop44ColorIndex
 90
        5
102
RTVSPost2010Prop44ColorRGB
 90
      255
102
RTVSPost2010PropOp44
 70
     1
102
RTVSPost2010Prop45
280
     0
102
RTVSPost2010PropOp45
 70
     1
102
RTVSPost2010Prop46
 90
       50
102
RTVSPost2010PropOp46
 70
     1
102
RTVSPost2010Prop47
 90
       50
102
RTVSPost2010PropOp47
 70
     1
102
RTVSPost2010Prop48
 90
       50
102
RTVSPost2010PropOp48
 70
     1
102
RTVSPost2010Prop49
280
     0
102
RTVSPost2010PropOp49
 70
     1
102
RTVSPost2010Prop50
 90
       50
102
RTVSPost2010PropOp50
 70
     1
102
RTVSPost2010Prop51ColorIndex
 90
      256
102
RTVSPost2010Prop51ColorRGB
 90
-16777216
102
RTVSPost2010PropOp51
 70
     0
102
RTVSPost2010Prop52
140
1.0
102
RTVSPost2010PropOp52
 70
     0
102
RTVSPost2010Prop53
 90
        2
102
RTVSPost2010PropOp53
 70
     1
102
RTVSPost2010Prop54
  1
strokes_ogs.tif
102
RTVSPost2010PropOp54
 70
     1
102
RTVSPost2010Prop55
280
     0
102
RTVSPost2010PropOp55
 70
     1
102
RTVSPost2010Prop56
140
1.0
102
RTVSPost2010PropOp56
 70
     1
102
RTVSPost2010Prop57
140
1.0
102
RTVSPost2010PropOp57
 70
     1
102
RTVSPropertyOp0
 70
     1
102
RTVSPropertyOp1
 70
     1
102
RTVSPropertyOp2
 70
     1
102
RTVSPropertyOp3
 70
     1
102
RTVSPropertyOp4
 70
     1
102
RTVSPropertyOp5
 70
     1
102
RTVSPropertyOp6
 70
     1
102
RTVSPropertyOp7
 70
     1
102
RTVSPropertyOp8
 70
     1
102
RTVSPropertyOp9
 70
     1
102
RTVSPropertyOp10
 70
     1
102
RTVSPropertyOp11
 70
     1
102
RTVSPropertyOp12
 70
     1
102
RTVSPropertyOp13
 70
     1
102
RTVSPropertyOp14
 70
     1
102
RTVSPropertyOp15
 70
     1
102
RTVSPropertyOp16
 70
     1
102
RTVSPropertyOp17
 70
     1
102
RTVSPropertyOp18
 70
     1
102
RTVSPropertyOp19
 70
     1
102
RTVSPropertyOp20
 70
     1
102
RTVSPropertyOp21
 70
     1
102
RTVSPropertyOp22
 70
     1
102
RTVSPropertyOp23
 70
     1
102
RTVSPropertyOp24
 70
     1
102
RTVSPropertyOp25
 70
     1
102
RTVSPropertyOp26
 70
     1
102
RTVSPropertyOp27
 70
     1
102
RTVSPropertyOp28
 70
     1
102
RTVSPropertyOp29
 70
     1
102
RTVSPropertyOp30
 70
     1
102
RTVSPropertyOp31
 70
     1
102
RTVSPropertyOp32
 70
     1
102
RTVSPropertyOp33
 70
     1
102
RTVSPropertyOp34
 70
     1
102
RTVSPropertyOp35
 70
     1
102
RTVSPropertyOp36
 70
     1
102
RTVSPropertyOp37
 70
     1
102
RTVSPropertyOp38
 70
     1
102
RTVSPropertyOp39
 70
     1
102
RTVSPropertyOp40
 70
     1
102
RTVSPropertyOp41
 70
     1
102
RTVSPropertyOp42
 70
     1
102
RTVSPropertyOp43
 70
     1
102
RTVSPropertyOp44
 70
     1
102
RTVSPropertyOp45
 70
     1
102
RTVSPropertyOp46
 70
     1
102
RTVSPropertyOp47
 70
     1
102
RTVSPropertyOp48
 70
     1
102
RTVSPropertyOp49
 70
     1
102
RTVSPropertyOp50
 70
     1
102
RTVSPropertyOp51
 70
     0
102
RTVSPropertyOp52
 70
     0
102
RTVSPropertyOp53
 70
     1
102
RTVSPropertyOp54
 70
     1
102
RTVSPropertyOp55
 70
     1
102
RTVSPropertyOp56
 70
     1
102
RTVSPropertyOp57
 70
     1
102
RTVSPropertyOp58
 70
     1
102
RTVSPropertyOp59
 70
     1
102
RTVSPropertyOp60
 70
     1
102
RTVSPropertyOp61
 70
     1
102
RTVSPropertyOp62
 70
     1
  0
XRECORD
  5
68C3
102
{ACAD_REACTORS
330
68C2
102
}
330
68C2
100
AcDbXrecord
280
     1
102
RTVSPost2010Prop28
280
     0
102
RTVSPost2010PropOp28
 70
     1
102
RTVSPost2010Prop29
280
     1
102
RTVSPost2010PropOp29
 70
     1
102
RTVSPost2010Prop30
280
     1
102
RTVSPost2010PropOp30
 70
     1
102
RTVSPost2010Prop31
280
     0
102
RTVSPost2010PropOp31
 70
     1
102
RTVSPost2010Prop32
280
     0
102
RTVSPost2010PropOp32
 70
     1
102
RTVSPost2010Prop33
280
     0
102
RTVSPost2010PropOp33
 70
     1
102
RTVSPost2010Prop34
280
     0
102
RTVSPost2010PropOp34
 70
     1
102
RTVSPost2010Prop35
280
     0
102
RTVSPost2010PropOp35
 70
     1
102
RTVSPost2010Prop36
280
     0
102
RTVSPost2010PropOp36
 70
     1
102
RTVSPost2010Prop37
 90
       50
102
RTVSPost2010PropOp37
 70
     1
102
RTVSPost2010Prop38
140
0.0
102
RTVSPost2010PropOp38
 70
     1
102
RTVSPost2010Prop39
140
1.0
102
RTVSPost2010PropOp39
 70
     1
102
RTVSPost2010Prop40
 90
        0
102
RTVSPost2010PropOp40
 70
     1
102
RTVSPost2010Prop41ColorIndex
 90
       18
102
RTVSPost2010Prop41ColorRGB
 90
        0
102
RTVSPost2010PropOp41
 70
     1
102
RTVSPost2010Prop42
 90
       50
102
RTVSPost2010PropOp42
 70
     1
102
RTVSPost2010Prop43
 90
        3
102
RTVSPost2010PropOp43
 70
     1
102
RTVSPost2010Prop44ColorIndex
 90
        5
102
RTVSPost2010Prop44ColorRGB
 90
      255
102
RTVSPost2010PropOp44
 70
     1
102
RTVSPost2010Prop45
280
     0
102
RTVSPost2010PropOp45
 70
     1
102
RTVSPost2010Prop46
 90
       50
102
RTVSPost2010PropOp46
 70
     1
102
RTVSPost2010Prop47
 90
       50
102
RTVSPost2010PropOp47
 70
     1
102
RTVSPost2010Prop48
 90
       50
102
RTVSPost2010PropOp48
 70
     1
102
RTVSPost2010Prop49
280
     0
102
RTVSPost2010PropOp49
 70
     1
102
RTVSPost2010Prop50
 90
       50
102
RTVSPost2010PropOp50
 70
     1
102
RTVSPost2010Prop51ColorIndex
 90
      256
102
RTVSPost2010Prop51ColorRGB
 90
-16777216
102
RTVSPost2010PropOp51
 70
     0
102
RTVSPost2010Prop52
140
1.0
102
RTVSPost2010PropOp52
 70
     0
102
RTVSPost2010Prop53
 90
        2
102
RTVSPost2010PropOp53
 70
     1
102
RTVSPost2010Prop54
  1
strokes_ogs.tif
102
RTVSPost2010PropOp54
 70
     1
102
RTVSPost2010Prop55
280
     0
102
RTVSPost2010PropOp55
 70
     1
102
RTVSPost2010Prop56
140
1.0
102
RTVSPost2010PropOp56
 70
     1
102
RTVSPost2010Prop57
140
1.0
102
RTVSPost2010PropOp57
 70
     1
102
RTVSPropertyOp0
 70
     1
102
RTVSPropertyOp1
 70
     1
102
RTVSPropertyOp2
 70
     1
102
RTVSPropertyOp3
 70
     1
102
RTVSPropertyOp4
 70
     1
102
RTVSPropertyOp5
 70
     1
102
RTVSPropertyOp6
 70
     1
102
RTVSPropertyOp7
 70
     1
102
RTVSPropertyOp8
 70
     1
102
RTVSPropertyOp9
 70
     1
102
RTVSPropertyOp10
 70
     1
102
RTVSPropertyOp11
 70
     1
102
RTVSPropertyOp12
 70
     1
102
RTVSPropertyOp13
 70
     1
102
RTVSPropertyOp14
 70
     1
102
RTVSPropertyOp15
 70
     1
102
RTVSPropertyOp16
 70
     1
102
RTVSPropertyOp17
 70
     1
102
RTVSPropertyOp18
 70
     1
102
RTVSPropertyOp19
 70
     1
102
RTVSPropertyOp20
 70
     1
102
RTVSPropertyOp21
 70
     1
102
RTVSPropertyOp22
 70
     1
102
RTVSPropertyOp23
 70
     1
102
RTVSPropertyOp24
 70
     1
102
RTVSPropertyOp25
 70
     1
102
RTVSPropertyOp26
 70
     1
102
RTVSPropertyOp27
 70
     1
102
RTVSPropertyOp28
 70
     1
102
RTVSPropertyOp29
 70
     1
102
RTVSPropertyOp30
 70
     1
102
RTVSPropertyOp31
 70
     1
102
RTVSPropertyOp32
 70
     1
102
RTVSPropertyOp33
 70
     1
102
RTVSPropertyOp34
 70
     1
102
RTVSPropertyOp35
 70
     1
102
RTVSPropertyOp36
 70
     1
102
RTVSPropertyOp37
 70
     1
102
RTVSPropertyOp38
 70
     1
102
RTVSPropertyOp39
 70
     1
102
RTVSPropertyOp40
 70
     1
102
RTVSPropertyOp41
 70
     1
102
RTVSPropertyOp42
 70
     1
102
RTVSPropertyOp43
 70
     1
102
RTVSPropertyOp44
 70
     1
102
RTVSPropertyOp45
 70
     1
102
RTVSPropertyOp46
 70
     1
102
RTVSPropertyOp47
 70
     1
102
RTVSPropertyOp48
 70
     1
102
RTVSPropertyOp49
 70
     1
102
RTVSPropertyOp50
 70
     1
102
RTVSPropertyOp51
 70
     0
102
RTVSPropertyOp52
 70
     0
102
RTVSPropertyOp53
 70
     1
102
RTVSPropertyOp54
 70
     1
102
RTVSPropertyOp55
 70
     1
102
RTVSPropertyOp56
 70
     1
102
RTVSPropertyOp57
 70
     1
102
RTVSPropertyOp58
 70
     1
102
RTVSPropertyOp59
 70
     1
102
RTVSPropertyOp60
 70
     1
102
RTVSPropertyOp61
 70
     1
102
RTVSPropertyOp62
 70
     1
  0
XRECORD
  5
68CB
102
{ACAD_REACTORS
330
68CA
102
}
330
68CA
100
AcDbXrecord
280
     1
102
RTVSPost2010Prop28
280
     0
102
RTVSPost2010PropOp28
 70
     1
102
RTVSPost2010Prop29
280
     1
102
RTVSPost2010PropOp29
 70
     1
102
RTVSPost2010Prop30
280
     1
102
RTVSPost2010PropOp30
 70
     1
102
RTVSPost2010Prop31
280
     0
102
RTVSPost2010PropOp31
 70
     1
102
RTVSPost2010Prop32
280
     0
102
RTVSPost2010PropOp32
 70
     1
102
RTVSPost2010Prop33
280
     0
102
RTVSPost2010PropOp33
 70
     1
102
RTVSPost2010Prop34
280
     0
102
RTVSPost2010PropOp34
 70
     1
102
RTVSPost2010Prop35
280
     0
102
RTVSPost2010PropOp35
 70
     1
102
RTVSPost2010Prop36
280
     0
102
RTVSPost2010PropOp36
 70
     1
102
RTVSPost2010Prop37
 90
       50
102
RTVSPost2010PropOp37
 70
     1
102
RTVSPost2010Prop38
140
0.0
102
RTVSPost2010PropOp38
 70
     1
102
RTVSPost2010Prop39
140
1.0
102
RTVSPost2010PropOp39
 70
     1
102
RTVSPost2010Prop40
 90
        0
102
RTVSPost2010PropOp40
 70
     1
102
RTVSPost2010Prop41ColorIndex
 90
       18
102
RTVSPost2010Prop41ColorRGB
 90
        0
102
RTVSPost2010PropOp41
 70
     1
102
RTVSPost2010Prop42
 90
       50
102
RTVSPost2010PropOp42
 70
     1
102
RTVSPost2010Prop43
 90
        3
102
RTVSPost2010PropOp43
 70
     1
102
RTVSPost2010Prop44ColorIndex
 90
        5
102
RTVSPost2010Prop44ColorRGB
 90
      255
102
RTVSPost2010PropOp44
 70
     1
102
RTVSPost2010Prop45
280
     0
102
RTVSPost2010PropOp45
 70
     1
102
RTVSPost2010Prop46
 90
       50
102
RTVSPost2010PropOp46
 70
     1
102
RTVSPost2010Prop47
 90
       50
102
RTVSPost2010PropOp47
 70
     1
102
RTVSPost2010Prop48
 90
       50
102
RTVSPost2010PropOp48
 70
     1
102
RTVSPost2010Prop49
280
     0
102
RTVSPost2010PropOp49
 70
     1
102
RTVSPost2010Prop50
 90
       50
102
RTVSPost2010PropOp50
 70
     1
102
RTVSPost2010Prop51ColorIndex
 90
      256
102
RTVSPost2010Prop51ColorRGB
 90
-16777216
102
RTVSPost2010PropOp51
 70
     0
102
RTVSPost2010Prop52
140
1.0
102
RTVSPost2010PropOp52
 70
     0
102
RTVSPost2010Prop53
 90
        2
102
RTVSPost2010PropOp53
 70
     1
102
RTVSPost2010Prop54
  1
strokes_ogs.tif
102
RTVSPost2010PropOp54
 70
     1
102
RTVSPost2010Prop55
280
     0
102
RTVSPost2010PropOp55
 70
     1
102
RTVSPost2010Prop56
140
1.0
102
RTVSPost2010PropOp56
 70
     1
102
RTVSPost2010Prop57
140
1.0
102
RTVSPost2010PropOp57
 70
     1
102
RTVSPropertyOp0
 70
     1
102
RTVSPropertyOp1
 70
     1
102
RTVSPropertyOp2
 70
     1
102
RTVSPropertyOp3
 70
     1
102
RTVSPropertyOp4
 70
     1
102
RTVSPropertyOp5
 70
     1
102
RTVSPropertyOp6
 70
     1
102
RTVSPropertyOp7
 70
     1
102
RTVSPropertyOp8
 70
     1
102
RTVSPropertyOp9
 70
     1
102
RTVSPropertyOp10
 70
     1
102
RTVSPropertyOp11
 70
     1
102
RTVSPropertyOp12
 70
     1
102
RTVSPropertyOp13
 70
     1
102
RTVSPropertyOp14
 70
     1
102
RTVSPropertyOp15
 70
     1
102
RTVSPropertyOp16
 70
     1
102
RTVSPropertyOp17
 70
     1
102
RTVSPropertyOp18
 70
     1
102
RTVSPropertyOp19
 70
     1
102
RTVSPropertyOp20
 70
     1
102
RTVSPropertyOp21
 70
     1
102
RTVSPropertyOp22
 70
     1
102
RTVSPropertyOp23
 70
     1
102
RTVSPropertyOp24
 70
     1
102
RTVSPropertyOp25
 70
     1
102
RTVSPropertyOp26
 70
     1
102
RTVSPropertyOp27
 70
     1
102
RTVSPropertyOp28
 70
     1
102
RTVSPropertyOp29
 70
     1
102
RTVSPropertyOp30
 70
     1
102
RTVSPropertyOp31
 70
     1
102
RTVSPropertyOp32
 70
     1
102
RTVSPropertyOp33
 70
     1
102
RTVSPropertyOp34
 70
     1
102
RTVSPropertyOp35
 70
     1
102
RTVSPropertyOp36
 70
     1
102
RTVSPropertyOp37
 70
     1
102
RTVSPropertyOp38
 70
     1
102
RTVSPropertyOp39
 70
     1
102
RTVSPropertyOp40
 70
     1
102
RTVSPropertyOp41
 70
     1
102
RTVSPropertyOp42
 70
     1
102
RTVSPropertyOp43
 70
     1
102
RTVSPropertyOp44
 70
     1
102
RTVSPropertyOp45
 70
     1
102
RTVSPropertyOp46
 70
     1
102
RTVSPropertyOp47
 70
     1
102
RTVSPropertyOp48
 70
     1
102
RTVSPropertyOp49
 70
     1
102
RTVSPropertyOp50
 70
     1
102
RTVSPropertyOp51
 70
     0
102
RTVSPropertyOp52
 70
     0
102
RTVSPropertyOp53
 70
     1
102
RTVSPropertyOp54
 70
     1
102
RTVSPropertyOp55
 70
     1
102
RTVSPropertyOp56
 70
     1
102
RTVSPropertyOp57
 70
     1
102
RTVSPropertyOp58
 70
     1
102
RTVSPropertyOp59
 70
     1
102
RTVSPropertyOp60
 70
     1
102
RTVSPropertyOp61
 70
     1
102
RTVSPropertyOp62
 70
     1
  0
XRECORD
  5
68DF
102
{ACAD_REACTORS
330
68DE
102
}
330
68DE
100
AcDbXrecord
280
     1
102
RTVSPost2010Prop28
280
     0
102
RTVSPost2010PropOp28
 70
     1
102
RTVSPost2010Prop29
280
     1
102
RTVSPost2010PropOp29
 70
     1
102
RTVSPost2010Prop30
280
     1
102
RTVSPost2010PropOp30
 70
     1
102
RTVSPost2010Prop31
280
     0
102
RTVSPost2010PropOp31
 70
     1
102
RTVSPost2010Prop32
280
     0
102
RTVSPost2010PropOp32
 70
     1
102
RTVSPost2010Prop33
280
     0
102
RTVSPost2010PropOp33
 70
     1
102
RTVSPost2010Prop34
280
     0
102
RTVSPost2010PropOp34
 70
     1
102
RTVSPost2010Prop35
280
     0
102
RTVSPost2010PropOp35
 70
     1
102
RTVSPost2010Prop36
280
     0
102
RTVSPost2010PropOp36
 70
     1
102
RTVSPost2010Prop37
 90
       50
102
RTVSPost2010PropOp37
 70
     1
102
RTVSPost2010Prop38
140
0.0
102
RTVSPost2010PropOp38
 70
     1
102
RTVSPost2010Prop39
140
1.0
102
RTVSPost2010PropOp39
 70
     1
102
RTVSPost2010Prop40
 90
        0
102
RTVSPost2010PropOp40
 70
     1
102
RTVSPost2010Prop41ColorIndex
 90
       18
102
RTVSPost2010Prop41ColorRGB
 90
        0
102
RTVSPost2010PropOp41
 70
     1
102
RTVSPost2010Prop42
 90
       50
102
RTVSPost2010PropOp42
 70
     1
102
RTVSPost2010Prop43
 90
        3
102
RTVSPost2010PropOp43
 70
     1
102
RTVSPost2010Prop44ColorIndex
 90
        5
102
RTVSPost2010Prop44ColorRGB
 90
      255
102
RTVSPost2010PropOp44
 70
     1
102
RTVSPost2010Prop45
280
     0
102
RTVSPost2010PropOp45
 70
     1
102
RTVSPost2010Prop46
 90
       50
102
RTVSPost2010PropOp46
 70
     1
102
RTVSPost2010Prop47
 90
       50
102
RTVSPost2010PropOp47
 70
     1
102
RTVSPost2010Prop48
 90
       50
102
RTVSPost2010PropOp48
 70
     1
102
RTVSPost2010Prop49
280
     0
102
RTVSPost2010PropOp49
 70
     1
102
RTVSPost2010Prop50
 90
       50
102
RTVSPost2010PropOp50
 70
     1
102
RTVSPost2010Prop51ColorIndex
 90
      256
102
RTVSPost2010Prop51ColorRGB
 90
-16777216
102
RTVSPost2010PropOp51
 70
     0
102
RTVSPost2010Prop52
140
1.0
102
RTVSPost2010PropOp52
 70
     0
102
RTVSPost2010Prop53
 90
        2
102
RTVSPost2010PropOp53
 70
     1
102
RTVSPost2010Prop54
  1
strokes_ogs.tif
102
RTVSPost2010PropOp54
 70
     1
102
RTVSPost2010Prop55
280
     0
102
RTVSPost2010PropOp55
 70
     1
102
RTVSPost2010Prop56
140
1.0
102
RTVSPost2010PropOp56
 70
     1
102
RTVSPost2010Prop57
140
1.0
102
RTVSPost2010PropOp57
 70
     1
102
RTVSPropertyOp0
 70
     0
102
RTVSPropertyOp1
 70
     0
102
RTVSPropertyOp2
 70
     0
102
RTVSPropertyOp3
 70
     0
102
RTVSPropertyOp4
 70
     0
102
RTVSPropertyOp5
 70
     0
102
RTVSPropertyOp6
 70
     0
102
RTVSPropertyOp7
 70
     0
102
RTVSPropertyOp8
 70
     0
102
RTVSPropertyOp9
 70
     0
102
RTVSPropertyOp10
 70
     0
102
RTVSPropertyOp11
 70
     0
102
RTVSPropertyOp12
 70
     0
102
RTVSPropertyOp13
 70
     0
102
RTVSPropertyOp14
 70
     2
102
RTVSPropertyOp15
 70
     0
102
RTVSPropertyOp16
 70
     0
102
RTVSPropertyOp17
 70
     0
102
RTVSPropertyOp18
 70
     0
102
RTVSPropertyOp19
 70
     0
102
RTVSPropertyOp20
 70
     0
102
RTVSPropertyOp21
 70
     0
102
RTVSPropertyOp22
 70
     0
102
RTVSPropertyOp23
 70
     0
102
RTVSPropertyOp24
 70
     0
102
RTVSPropertyOp25
 70
     0
102
RTVSPropertyOp26
 70
     0
102
RTVSPropertyOp27
 70
     0
102
RTVSPropertyOp28
 70
     1
102
RTVSPropertyOp29
 70
     1
102
RTVSPropertyOp30
 70
     1
102
RTVSPropertyOp31
 70
     1
102
RTVSPropertyOp32
 70
     1
102
RTVSPropertyOp33
 70
     1
102
RTVSPropertyOp34
 70
     1
102
RTVSPropertyOp35
 70
     1
102
RTVSPropertyOp36
 70
     1
102
RTVSPropertyOp37
 70
     1
102
RTVSPropertyOp38
 70
     1
102
RTVSPropertyOp39
 70
     1
102
RTVSPropertyOp40
 70
     1
102
RTVSPropertyOp41
 70
     1
102
RTVSPropertyOp42
 70
     1
102
RTVSPropertyOp43
 70
     1
102
RTVSPropertyOp44
 70
     1
102
RTVSPropertyOp45
 70
     1
102
RTVSPropertyOp46
 70
     1
102
RTVSPropertyOp47
 70
     1
102
RTVSPropertyOp48
 70
     1
102
RTVSPropertyOp49
 70
     1
102
RTVSPropertyOp50
 70
     1
102
RTVSPropertyOp51
 70
     0
102
RTVSPropertyOp52
 70
     0
102
RTVSPropertyOp53
 70
     1
102
RTVSPropertyOp54
 70
     1
102
RTVSPropertyOp55
 70
     1
102
RTVSPropertyOp56
 70
     1
102
RTVSPropertyOp57
 70
     1
102
RTVSPropertyOp58
 70
     1
102
RTVSPropertyOp59
 70
     1
102
RTVSPropertyOp60
 70
     1
102
RTVSPropertyOp61
 70
     1
102
RTVSPropertyOp62
 70
     1
  0
XRECORD
  5
68D7
102
{ACAD_REACTORS
330
68D6
102
}
330
68D6
100
AcDbXrecord
280
     1
102
RTVSPost2010Prop28
280
     0
102
RTVSPost2010PropOp28
 70
     1
102
RTVSPost2010Prop29
280
     1
102
RTVSPost2010PropOp29
 70
     1
102
RTVSPost2010Prop30
280
     1
102
RTVSPost2010PropOp30
 70
     1
102
RTVSPost2010Prop31
280
     0
102
RTVSPost2010PropOp31
 70
     1
102
RTVSPost2010Prop32
280
     0
102
RTVSPost2010PropOp32
 70
     1
102
RTVSPost2010Prop33
280
     0
102
RTVSPost2010PropOp33
 70
     1
102
RTVSPost2010Prop34
280
     0
102
RTVSPost2010PropOp34
 70
     1
102
RTVSPost2010Prop35
280
     0
102
RTVSPost2010PropOp35
 70
     1
102
RTVSPost2010Prop36
280
     0
102
RTVSPost2010PropOp36
 70
     1
102
RTVSPost2010Prop37
 90
       50
102
RTVSPost2010PropOp37
 70
     1
102
RTVSPost2010Prop38
140
0.0
102
RTVSPost2010PropOp38
 70
     1
102
RTVSPost2010Prop39
140
1.0
102
RTVSPost2010PropOp39
 70
     1
102
RTVSPost2010Prop40
 90
        0
102
RTVSPost2010PropOp40
 70
     1
102
RTVSPost2010Prop41ColorIndex
 90
       18
102
RTVSPost2010Prop41ColorRGB
 90
        0
102
RTVSPost2010PropOp41
 70
     1
102
RTVSPost2010Prop42
 90
       50
102
RTVSPost2010PropOp42
 70
     1
102
RTVSPost2010Prop43
 90
        3
102
RTVSPost2010PropOp43
 70
     1
102
RTVSPost2010Prop44ColorIndex
 90
        5
102
RTVSPost2010Prop44ColorRGB
 90
      255
102
RTVSPost2010PropOp44
 70
     1
102
RTVSPost2010Prop45
280
     0
102
RTVSPost2010PropOp45
 70
     1
102
RTVSPost2010Prop46
 90
       50
102
RTVSPost2010PropOp46
 70
     1
102
RTVSPost2010Prop47
 90
       50
102
RTVSPost2010PropOp47
 70
     1
102
RTVSPost2010Prop48
 90
       50
102
RTVSPost2010PropOp48
 70
     1
102
RTVSPost2010Prop49
280
     0
102
RTVSPost2010PropOp49
 70
     1
102
RTVSPost2010Prop50
 90
       50
102
RTVSPost2010PropOp50
 70
     1
102
RTVSPost2010Prop51ColorIndex
 90
      256
102
RTVSPost2010Prop51ColorRGB
 90
-16777216
102
RTVSPost2010PropOp51
 70
     0
102
RTVSPost2010Prop52
140
1.0
102
RTVSPost2010PropOp52
 70
     0
102
RTVSPost2010Prop53
 90
        2
102
RTVSPost2010PropOp53
 70
     1
102
RTVSPost2010Prop54
  1
strokes_ogs.tif
102
RTVSPost2010PropOp54
 70
     1
102
RTVSPost2010Prop55
280
     0
102
RTVSPost2010PropOp55
 70
     1
102
RTVSPost2010Prop56
140
1.0
102
RTVSPost2010PropOp56
 70
     1
102
RTVSPost2010Prop57
140
1.0
102
RTVSPost2010PropOp57
 70
     1
102
RTVSPropertyOp0
 70
     1
102
RTVSPropertyOp1
 70
     1
102
RTVSPropertyOp2
 70
     1
102
RTVSPropertyOp3
 70
     1
102
RTVSPropertyOp4
 70
     1
102
RTVSPropertyOp5
 70
     1
102
RTVSPropertyOp6
 70
     1
102
RTVSPropertyOp7
 70
     1
102
RTVSPropertyOp8
 70
     1
102
RTVSPropertyOp9
 70
     1
102
RTVSPropertyOp10
 70
     1
102
RTVSPropertyOp11
 70
     1
102
RTVSPropertyOp12
 70
     1
102
RTVSPropertyOp13
 70
     1
102
RTVSPropertyOp14
 70
     1
102
RTVSPropertyOp15
 70
     1
102
RTVSPropertyOp16
 70
     1
102
RTVSPropertyOp17
 70
     1
102
RTVSPropertyOp18
 70
     1
102
RTVSPropertyOp19
 70
     1
102
RTVSPropertyOp20
 70
     1
102
RTVSPropertyOp21
 70
     1
102
RTVSPropertyOp22
 70
     1
102
RTVSPropertyOp23
 70
     1
102
RTVSPropertyOp24
 70
     1
102
RTVSPropertyOp25
 70
     1
102
RTVSPropertyOp26
 70
     1
102
RTVSPropertyOp27
 70
     1
102
RTVSPropertyOp28
 70
     1
102
RTVSPropertyOp29
 70
     1
102
RTVSPropertyOp30
 70
     1
102
RTVSPropertyOp31
 70
     1
102
RTVSPropertyOp32
 70
     1
102
RTVSPropertyOp33
 70
     1
102
RTVSPropertyOp34
 70
     1
102
RTVSPropertyOp35
 70
     1
102
RTVSPropertyOp36
 70
     1
102
RTVSPropertyOp37
 70
     1
102
RTVSPropertyOp38
 70
     1
102
RTVSPropertyOp39
 70
     1
102
RTVSPropertyOp40
 70
     1
102
RTVSPropertyOp41
 70
     1
102
RTVSPropertyOp42
 70
     1
102
RTVSPropertyOp43
 70
     1
102
RTVSPropertyOp44
 70
     1
102
RTVSPropertyOp45
 70
     1
102
RTVSPropertyOp46
 70
     1
102
RTVSPropertyOp47
 70
     1
102
RTVSPropertyOp48
 70
     1
102
RTVSPropertyOp49
 70
     1
102
RTVSPropertyOp50
 70
     1
102
RTVSPropertyOp51
 70
     0
102
RTVSPropertyOp52
 70
     0
102
RTVSPropertyOp53
 70
     1
102
RTVSPropertyOp54
 70
     1
102
RTVSPropertyOp55
 70
     1
102
RTVSPropertyOp56
 70
     1
102
RTVSPropertyOp57
 70
     1
102
RTVSPropertyOp58
 70
     1
102
RTVSPropertyOp59
 70
     1
102
RTVSPropertyOp60
 70
     1
102
RTVSPropertyOp61
 70
     1
102
RTVSPropertyOp62
 70
     1
  0
XRECORD
  5
68E1
102
{ACAD_REACTORS
330
68E0
102
}
330
68E0
100
AcDbXrecord
280
     1
102
RTVSPost2010Prop28
280
     0
102
RTVSPost2010PropOp28
 70
     1
102
RTVSPost2010Prop29
280
     1
102
RTVSPost2010PropOp29
 70
     1
102
RTVSPost2010Prop30
280
     1
102
RTVSPost2010PropOp30
 70
     1
102
RTVSPost2010Prop31
280
     0
102
RTVSPost2010PropOp31
 70
     1
102
RTVSPost2010Prop32
280
     0
102
RTVSPost2010PropOp32
 70
     1
102
RTVSPost2010Prop33
280
     0
102
RTVSPost2010PropOp33
 70
     1
102
RTVSPost2010Prop34
280
     0
102
RTVSPost2010PropOp34
 70
     1
102
RTVSPost2010Prop35
280
     0
102
RTVSPost2010PropOp35
 70
     1
102
RTVSPost2010Prop36
280
     0
102
RTVSPost2010PropOp36
 70
     1
102
RTVSPost2010Prop37
 90
       50
102
RTVSPost2010PropOp37
 70
     1
102
RTVSPost2010Prop38
140
0.0
102
RTVSPost2010PropOp38
 70
     1
102
RTVSPost2010Prop39
140
1.0
102
RTVSPost2010PropOp39
 70
     1
102
RTVSPost2010Prop40
 90
        0
102
RTVSPost2010PropOp40
 70
     1
102
RTVSPost2010Prop41ColorIndex
 90
       18
102
RTVSPost2010Prop41ColorRGB
 90
        0
102
RTVSPost2010PropOp41
 70
     1
102
RTVSPost2010Prop42
 90
       50
102
RTVSPost2010PropOp42
 70
     1
102
RTVSPost2010Prop43
 90
        3
102
RTVSPost2010PropOp43
 70
     1
102
RTVSPost2010Prop44ColorIndex
 90
        5
102
RTVSPost2010Prop44ColorRGB
 90
      255
102
RTVSPost2010PropOp44
 70
     1
102
RTVSPost2010Prop45
280
     0
102
RTVSPost2010PropOp45
 70
     1
102
RTVSPost2010Prop46
 90
       50
102
RTVSPost2010PropOp46
 70
     1
102
RTVSPost2010Prop47
 90
       50
102
RTVSPost2010PropOp47
 70
     1
102
RTVSPost2010Prop48
 90
       50
102
RTVSPost2010PropOp48
 70
     1
102
RTVSPost2010Prop49
280
     0
102
RTVSPost2010PropOp49
 70
     1
102
RTVSPost2010Prop50
 90
       50
102
RTVSPost2010PropOp50
 70
     1
102
RTVSPost2010Prop51ColorIndex
 90
      256
102
RTVSPost2010Prop51ColorRGB
 90
-16777216
102
RTVSPost2010PropOp51
 70
     0
102
RTVSPost2010Prop52
140
1.0
102
RTVSPost2010PropOp52
 70
     0
102
RTVSPost2010Prop53
 90
        2
102
RTVSPost2010PropOp53
 70
     1
102
RTVSPost2010Prop54
  1
strokes_ogs.tif
102
RTVSPost2010PropOp54
 70
     1
102
RTVSPost2010Prop55
280
     0
102
RTVSPost2010PropOp55
 70
     1
102
RTVSPost2010Prop56
140
1.0
102
RTVSPost2010PropOp56
 70
     1
102
RTVSPost2010Prop57
140
1.0
102
RTVSPost2010PropOp57
 70
     1
102
RTVSPropertyOp0
 70
     0
102
RTVSPropertyOp1
 70
     0
102
RTVSPropertyOp2
 70
     0
102
RTVSPropertyOp3
 70
     0
102
RTVSPropertyOp4
 70
     0
102
RTVSPropertyOp5
 70
     0
102
RTVSPropertyOp6
 70
     0
102
RTVSPropertyOp7
 70
     0
102
RTVSPropertyOp8
 70
     0
102
RTVSPropertyOp9
 70
     0
102
RTVSPropertyOp10
 70
     0
102
RTVSPropertyOp11
 70
     0
102
RTVSPropertyOp12
 70
     0
102
RTVSPropertyOp13
 70
     0
102
RTVSPropertyOp14
 70
     2
102
RTVSPropertyOp15
 70
     0
102
RTVSPropertyOp16
 70
     0
102
RTVSPropertyOp17
 70
     0
102
RTVSPropertyOp18
 70
     0
102
RTVSPropertyOp19
 70
     0
102
RTVSPropertyOp20
 70
     0
102
RTVSPropertyOp21
 70
     0
102
RTVSPropertyOp22
 70
     0
102
RTVSPropertyOp23
 70
     0
102
RTVSPropertyOp24
 70
     0
102
RTVSPropertyOp25
 70
     0
102
RTVSPropertyOp26
 70
     0
102
RTVSPropertyOp27
 70
     0
102
RTVSPropertyOp28
 70
     1
102
RTVSPropertyOp29
 70
     1
102
RTVSPropertyOp30
 70
     1
102
RTVSPropertyOp31
 70
     1
102
RTVSPropertyOp32
 70
     1
102
RTVSPropertyOp33
 70
     1
102
RTVSPropertyOp34
 70
     1
102
RTVSPropertyOp35
 70
     1
102
RTVSPropertyOp36
 70
     1
102
RTVSPropertyOp37
 70
     1
102
RTVSPropertyOp38
 70
     1
102
RTVSPropertyOp39
 70
     1
102
RTVSPropertyOp40
 70
     1
102
RTVSPropertyOp41
 70
     1
102
RTVSPropertyOp42
 70
     1
102
RTVSPropertyOp43
 70
     1
102
RTVSPropertyOp44
 70
     1
102
RTVSPropertyOp45
 70
     1
102
RTVSPropertyOp46
 70
     1
102
RTVSPropertyOp47
 70
     1
102
RTVSPropertyOp48
 70
     1
102
RTVSPropertyOp49
 70
     1
102
RTVSPropertyOp50
 70
     1
102
RTVSPropertyOp51
 70
     0
102
RTVSPropertyOp52
 70
     0
102
RTVSPropertyOp53
 70
     1
102
RTVSPropertyOp54
 70
     1
102
RTVSPropertyOp55
 70
     1
102
RTVSPropertyOp56
 70
     1
102
RTVSPropertyOp57
 70
     1
102
RTVSPropertyOp58
 70
     1
102
RTVSPropertyOp59
 70
     1
102
RTVSPropertyOp60
 70
     1
102
RTVSPropertyOp61
 70
     1
102
RTVSPropertyOp62
 70
     1
  0
XRECORD
  5
68CF
102
{ACAD_REACTORS
330
68CE
102
}
330
68CE
100
AcDbXrecord
280
     1
102
RTVSPost2010Prop28
280
     0
102
RTVSPost2010PropOp28
 70
     1
102
RTVSPost2010Prop29
280
     1
102
RTVSPost2010PropOp29
 70
     1
102
RTVSPost2010Prop30
280
     1
102
RTVSPost2010PropOp30
 70
     1
102
RTVSPost2010Prop31
280
     0
102
RTVSPost2010PropOp31
 70
     1
102
RTVSPost2010Prop32
280
     0
102
RTVSPost2010PropOp32
 70
     1
102
RTVSPost2010Prop33
280
     0
102
RTVSPost2010PropOp33
 70
     1
102
RTVSPost2010Prop34
280
     0
102
RTVSPost2010PropOp34
 70
     1
102
RTVSPost2010Prop35
280
     0
102
RTVSPost2010PropOp35
 70
     1
102
RTVSPost2010Prop36
280
     0
102
RTVSPost2010PropOp36
 70
     1
102
RTVSPost2010Prop37
 90
       50
102
RTVSPost2010PropOp37
 70
     1
102
RTVSPost2010Prop38
140
0.0
102
RTVSPost2010PropOp38
 70
     1
102
RTVSPost2010Prop39
140
1.0
102
RTVSPost2010PropOp39
 70
     1
102
RTVSPost2010Prop40
 90
        0
102
RTVSPost2010PropOp40
 70
     1
102
RTVSPost2010Prop41ColorIndex
 90
       18
102
RTVSPost2010Prop41ColorRGB
 90
        0
102
RTVSPost2010PropOp41
 70
     1
102
RTVSPost2010Prop42
 90
       50
102
RTVSPost2010PropOp42
 70
     1
102
RTVSPost2010Prop43
 90
        3
102
RTVSPost2010PropOp43
 70
     1
102
RTVSPost2010Prop44ColorIndex
 90
        5
102
RTVSPost2010Prop44ColorRGB
 90
      255
102
RTVSPost2010PropOp44
 70
     1
102
RTVSPost2010Prop45
280
     0
102
RTVSPost2010PropOp45
 70
     1
102
RTVSPost2010Prop46
 90
       50
102
RTVSPost2010PropOp46
 70
     1
102
RTVSPost2010Prop47
 90
       50
102
RTVSPost2010PropOp47
 70
     1
102
RTVSPost2010Prop48
 90
       50
102
RTVSPost2010PropOp48
 70
     1
102
RTVSPost2010Prop49
280
     0
102
RTVSPost2010PropOp49
 70
     1
102
RTVSPost2010Prop50
 90
       50
102
RTVSPost2010PropOp50
 70
     1
102
RTVSPost2010Prop51ColorIndex
 90
      256
102
RTVSPost2010Prop51ColorRGB
 90
-16777216
102
RTVSPost2010PropOp51
 70
     0
102
RTVSPost2010Prop52
140
1.0
102
RTVSPost2010PropOp52
 70
     0
102
RTVSPost2010Prop53
 90
        2
102
RTVSPost2010PropOp53
 70
     1
102
RTVSPost2010Prop54
  1
strokes_ogs.tif
102
RTVSPost2010PropOp54
 70
     1
102
RTVSPost2010Prop55
280
     0
102
RTVSPost2010PropOp55
 70
     1
102
RTVSPost2010Prop56
140
1.0
102
RTVSPost2010PropOp56
 70
     1
102
RTVSPost2010Prop57
140
1.0
102
RTVSPost2010PropOp57
 70
     1
102
RTVSPropertyOp0
 70
     1
102
RTVSPropertyOp1
 70
     1
102
RTVSPropertyOp2
 70
     1
102
RTVSPropertyOp3
 70
     1
102
RTVSPropertyOp4
 70
     1
102
RTVSPropertyOp5
 70
     1
102
RTVSPropertyOp6
 70
     1
102
RTVSPropertyOp7
 70
     1
102
RTVSPropertyOp8
 70
     1
102
RTVSPropertyOp9
 70
     1
102
RTVSPropertyOp10
 70
     1
102
RTVSPropertyOp11
 70
     1
102
RTVSPropertyOp12
 70
     1
102
RTVSPropertyOp13
 70
     1
102
RTVSPropertyOp14
 70
     1
102
RTVSPropertyOp15
 70
     1
102
RTVSPropertyOp16
 70
     1
102
RTVSPropertyOp17
 70
     1
102
RTVSPropertyOp18
 70
     1
102
RTVSPropertyOp19
 70
     1
102
RTVSPropertyOp20
 70
     1
102
RTVSPropertyOp21
 70
     1
102
RTVSPropertyOp22
 70
     1
102
RTVSPropertyOp23
 70
     1
102
RTVSPropertyOp24
 70
     1
102
RTVSPropertyOp25
 70
     1
102
RTVSPropertyOp26
 70
     1
102
RTVSPropertyOp27
 70
     1
102
RTVSPropertyOp28
 70
     1
102
RTVSPropertyOp29
 70
     1
102
RTVSPropertyOp30
 70
     1
102
RTVSPropertyOp31
 70
     1
102
RTVSPropertyOp32
 70
     1
102
RTVSPropertyOp33
 70
     1
102
RTVSPropertyOp34
 70
     1
102
RTVSPropertyOp35
 70
     1
102
RTVSPropertyOp36
 70
     1
102
RTVSPropertyOp37
 70
     1
102
RTVSPropertyOp38
 70
     1
102
RTVSPropertyOp39
 70
     1
102
RTVSPropertyOp40
 70
     1
102
RTVSPropertyOp41
 70
     1
102
RTVSPropertyOp42
 70
     1
102
RTVSPropertyOp43
 70
     1
102
RTVSPropertyOp44
 70
     1
102
RTVSPropertyOp45
 70
     1
102
RTVSPropertyOp46
 70
     1
102
RTVSPropertyOp47
 70
     1
102
RTVSPropertyOp48
 70
     1
102
RTVSPropertyOp49
 70
     1
102
RTVSPropertyOp50
 70
     1
102
RTVSPropertyOp51
 70
     0
102
RTVSPropertyOp52
 70
     0
102
RTVSPropertyOp53
 70
     1
102
RTVSPropertyOp54
 70
     1
102
RTVSPropertyOp55
 70
     1
102
RTVSPropertyOp56
 70
     1
102
RTVSPropertyOp57
 70
     1
102
RTVSPropertyOp58
 70
     1
102
RTVSPropertyOp59
 70
     1
102
RTVSPropertyOp60
 70
     1
102
RTVSPropertyOp61
 70
     1
102
RTVSPropertyOp62
 70
     1
  0
XRECORD
  5
68ED
102
{ACAD_REACTORS
330
68EC
102
}
330
68EC
100
AcDbXrecord
280
     1
102
RTVSPost2010Prop28
280
     0
102
RTVSPost2010PropOp28
 70
     1
102
RTVSPost2010Prop29
280
     1
102
RTVSPost2010PropOp29
 70
     1
102
RTVSPost2010Prop30
280
     1
102
RTVSPost2010PropOp30
 70
     1
102
RTVSPost2010Prop31
280
     0
102
RTVSPost2010PropOp31
 70
     1
102
RTVSPost2010Prop32
280
     0
102
RTVSPost2010PropOp32
 70
     1
102
RTVSPost2010Prop33
280
     0
102
RTVSPost2010PropOp33
 70
     1
102
RTVSPost2010Prop34
280
     0
102
RTVSPost2010PropOp34
 70
     1
102
RTVSPost2010Prop35
280
     0
102
RTVSPost2010PropOp35
 70
     1
102
RTVSPost2010Prop36
280
     0
102
RTVSPost2010PropOp36
 70
     1
102
RTVSPost2010Prop37
 90
       50
102
RTVSPost2010PropOp37
 70
     1
102
RTVSPost2010Prop38
140
0.0
102
RTVSPost2010PropOp38
 70
     1
102
RTVSPost2010Prop39
140
1.0
102
RTVSPost2010PropOp39
 70
     1
102
RTVSPost2010Prop40
 90
        0
102
RTVSPost2010PropOp40
 70
     1
102
RTVSPost2010Prop41ColorIndex
 90
       18
102
RTVSPost2010Prop41ColorRGB
 90
        0
102
RTVSPost2010PropOp41
 70
     1
102
RTVSPost2010Prop42
 90
       50
102
RTVSPost2010PropOp42
 70
     1
102
RTVSPost2010Prop43
 90
        3
102
RTVSPost2010PropOp43
 70
     1
102
RTVSPost2010Prop44ColorIndex
 90
        5
102
RTVSPost2010Prop44ColorRGB
 90
      255
102
RTVSPost2010PropOp44
 70
     1
102
RTVSPost2010Prop45
280
     0
102
RTVSPost2010PropOp45
 70
     1
102
RTVSPost2010Prop46
 90
       50
102
RTVSPost2010PropOp46
 70
     1
102
RTVSPost2010Prop47
 90
       50
102
RTVSPost2010PropOp47
 70
     1
102
RTVSPost2010Prop48
 90
       50
102
RTVSPost2010PropOp48
 70
     1
102
RTVSPost2010Prop49
280
     0
102
RTVSPost2010PropOp49
 70
     1
102
RTVSPost2010Prop50
 90
       50
102
RTVSPost2010PropOp50
 70
     1
102
RTVSPost2010Prop51ColorIndex
 90
      256
102
RTVSPost2010Prop51ColorRGB
 90
-16777216
102
RTVSPost2010PropOp51
 70
     0
102
RTVSPost2010Prop52
140
1.0
102
RTVSPost2010PropOp52
 70
     0
102
RTVSPost2010Prop53
 90
        2
102
RTVSPost2010PropOp53
 70
     1
102
RTVSPost2010Prop54
  1
strokes_ogs.tif
102
RTVSPost2010PropOp54
 70
     1
102
RTVSPost2010Prop55
280
     0
102
RTVSPost2010PropOp55
 70
     1
102
RTVSPost2010Prop56
140
1.0
102
RTVSPost2010PropOp56
 70
     1
102
RTVSPost2010Prop57
140
1.0
102
RTVSPost2010PropOp57
 70
     1
102
RTVSPropertyOp0
 70
     1
102
RTVSPropertyOp1
 70
     1
102
RTVSPropertyOp2
 70
     1
102
RTVSPropertyOp3
 70
     1
102
RTVSPropertyOp4
 70
     1
102
RTVSPropertyOp5
 70
     1
102
RTVSPropertyOp6
 70
     1
102
RTVSPropertyOp7
 70
     1
102
RTVSPropertyOp8
 70
     1
102
RTVSPropertyOp9
 70
     1
102
RTVSPropertyOp10
 70
     1
102
RTVSPropertyOp11
 70
     1
102
RTVSPropertyOp12
 70
     1
102
RTVSPropertyOp13
 70
     1
102
RTVSPropertyOp14
 70
     1
102
RTVSPropertyOp15
 70
     1
102
RTVSPropertyOp16
 70
     1
102
RTVSPropertyOp17
 70
     1
102
RTVSPropertyOp18
 70
     1
102
RTVSPropertyOp19
 70
     1
102
RTVSPropertyOp20
 70
     1
102
RTVSPropertyOp21
 70
     1
102
RTVSPropertyOp22
 70
     1
102
RTVSPropertyOp23
 70
     1
102
RTVSPropertyOp24
 70
     1
102
RTVSPropertyOp25
 70
     1
102
RTVSPropertyOp26
 70
     1
102
RTVSPropertyOp27
 70
     1
102
RTVSPropertyOp28
 70
     1
102
RTVSPropertyOp29
 70
     1
102
RTVSPropertyOp30
 70
     1
102
RTVSPropertyOp31
 70
     1
102
RTVSPropertyOp32
 70
     1
102
RTVSPropertyOp33
 70
     1
102
RTVSPropertyOp34
 70
     1
102
RTVSPropertyOp35
 70
     1
102
RTVSPropertyOp36
 70
     1
102
RTVSPropertyOp37
 70
     1
102
RTVSPropertyOp38
 70
     1
102
RTVSPropertyOp39
 70
     1
102
RTVSPropertyOp40
 70
     1
102
RTVSPropertyOp41
 70
     1
102
RTVSPropertyOp42
 70
     1
102
RTVSPropertyOp43
 70
     1
102
RTVSPropertyOp44
 70
     1
102
RTVSPropertyOp45
 70
     1
102
RTVSPropertyOp46
 70
     1
102
RTVSPropertyOp47
 70
     1
102
RTVSPropertyOp48
 70
     1
102
RTVSPropertyOp49
 70
     1
102
RTVSPropertyOp50
 70
     1
102
RTVSPropertyOp51
 70
     0
102
RTVSPropertyOp52
 70
     0
102
RTVSPropertyOp53
 70
     1
102
RTVSPropertyOp54
 70
     1
102
RTVSPropertyOp55
 70
     1
102
RTVSPropertyOp56
 70
     1
102
RTVSPropertyOp57
 70
     1
102
RTVSPropertyOp58
 70
     1
102
RTVSPropertyOp59
 70
     1
102
RTVSPropertyOp60
 70
     1
102
RTVSPropertyOp61
 70
     1
102
RTVSPropertyOp62
 70
     1
  0
XRECORD
  5
68EB
102
{ACAD_REACTORS
330
68EA
102
}
330
68EA
100
AcDbXrecord
280
     1
102
RTVSPost2010Prop28
280
     0
102
RTVSPost2010PropOp28
 70
     1
102
RTVSPost2010Prop29
280
     1
102
RTVSPost2010PropOp29
 70
     1
102
RTVSPost2010Prop30
280
     1
102
RTVSPost2010PropOp30
 70
     1
102
RTVSPost2010Prop31
280
     0
102
RTVSPost2010PropOp31
 70
     1
102
RTVSPost2010Prop32
280
     0
102
RTVSPost2010PropOp32
 70
     1
102
RTVSPost2010Prop33
280
     0
102
RTVSPost2010PropOp33
 70
     1
102
RTVSPost2010Prop34
280
     0
102
RTVSPost2010PropOp34
 70
     1
102
RTVSPost2010Prop35
280
     0
102
RTVSPost2010PropOp35
 70
     1
102
RTVSPost2010Prop36
280
     0
102
RTVSPost2010PropOp36
 70
     1
102
RTVSPost2010Prop37
 90
       50
102
RTVSPost2010PropOp37
 70
     1
102
RTVSPost2010Prop38
140
0.0
102
RTVSPost2010PropOp38
 70
     1
102
RTVSPost2010Prop39
140
1.0
102
RTVSPost2010PropOp39
 70
     1
102
RTVSPost2010Prop40
 90
        0
102
RTVSPost2010PropOp40
 70
     1
102
RTVSPost2010Prop41ColorIndex
 90
       18
102
RTVSPost2010Prop41ColorRGB
 90
        0
102
RTVSPost2010PropOp41
 70
     1
102
RTVSPost2010Prop42
 90
       50
102
RTVSPost2010PropOp42
 70
     1
102
RTVSPost2010Prop43
 90
        3
102
RTVSPost2010PropOp43
 70
     1
102
RTVSPost2010Prop44ColorIndex
 90
        5
102
RTVSPost2010Prop44ColorRGB
 90
      255
102
RTVSPost2010PropOp44
 70
     1
102
RTVSPost2010Prop45
280
     0
102
RTVSPost2010PropOp45
 70
     1
102
RTVSPost2010Prop46
 90
       50
102
RTVSPost2010PropOp46
 70
     1
102
RTVSPost2010Prop47
 90
       50
102
RTVSPost2010PropOp47
 70
     1
102
RTVSPost2010Prop48
 90
       50
102
RTVSPost2010PropOp48
 70
     1
102
RTVSPost2010Prop49
280
     0
102
RTVSPost2010PropOp49
 70
     1
102
RTVSPost2010Prop50
 90
       50
102
RTVSPost2010PropOp50
 70
     1
102
RTVSPost2010Prop51ColorIndex
 90
      256
102
RTVSPost2010Prop51ColorRGB
 90
-16777216
102
RTVSPost2010PropOp51
 70
     0
102
RTVSPost2010Prop52
140
1.0
102
RTVSPost2010PropOp52
 70
     0
102
RTVSPost2010Prop53
 90
        2
102
RTVSPost2010PropOp53
 70
     1
102
RTVSPost2010Prop54
  1
strokes_ogs.tif
102
RTVSPost2010PropOp54
 70
     1
102
RTVSPost2010Prop55
280
     0
102
RTVSPost2010PropOp55
 70
     1
102
RTVSPost2010Prop56
140
1.0
102
RTVSPost2010PropOp56
 70
     1
102
RTVSPost2010Prop57
140
1.0
102
RTVSPost2010PropOp57
 70
     1
102
RTVSPropertyOp0
 70
     1
102
RTVSPropertyOp1
 70
     1
102
RTVSPropertyOp2
 70
     1
102
RTVSPropertyOp3
 70
     1
102
RTVSPropertyOp4
 70
     1
102
RTVSPropertyOp5
 70
     1
102
RTVSPropertyOp6
 70
     1
102
RTVSPropertyOp7
 70
     1
102
RTVSPropertyOp8
 70
     1
102
RTVSPropertyOp9
 70
     1
102
RTVSPropertyOp10
 70
     1
102
RTVSPropertyOp11
 70
     1
102
RTVSPropertyOp12
 70
     1
102
RTVSPropertyOp13
 70
     1
102
RTVSPropertyOp14
 70
     1
102
RTVSPropertyOp15
 70
     1
102
RTVSPropertyOp16
 70
     1
102
RTVSPropertyOp17
 70
     1
102
RTVSPropertyOp18
 70
     1
102
RTVSPropertyOp19
 70
     1
102
RTVSPropertyOp20
 70
     1
102
RTVSPropertyOp21
 70
     1
102
RTVSPropertyOp22
 70
     1
102
RTVSPropertyOp23
 70
     1
102
RTVSPropertyOp24
 70
     1
102
RTVSPropertyOp25
 70
     1
102
RTVSPropertyOp26
 70
     1
102
RTVSPropertyOp27
 70
     1
102
RTVSPropertyOp28
 70
     1
102
RTVSPropertyOp29
 70
     1
102
RTVSPropertyOp30
 70
     1
102
RTVSPropertyOp31
 70
     1
102
RTVSPropertyOp32
 70
     1
102
RTVSPropertyOp33
 70
     1
102
RTVSPropertyOp34
 70
     1
102
RTVSPropertyOp35
 70
     1
102
RTVSPropertyOp36
 70
     1
102
RTVSPropertyOp37
 70
     1
102
RTVSPropertyOp38
 70
     1
102
RTVSPropertyOp39
 70
     1
102
RTVSPropertyOp40
 70
     1
102
RTVSPropertyOp41
 70
     1
102
RTVSPropertyOp42
 70
     1
102
RTVSPropertyOp43
 70
     1
102
RTVSPropertyOp44
 70
     1
102
RTVSPropertyOp45
 70
     1
102
RTVSPropertyOp46
 70
     1
102
RTVSPropertyOp47
 70
     1
102
RTVSPropertyOp48
 70
     1
102
RTVSPropertyOp49
 70
     1
102
RTVSPropertyOp50
 70
     1
102
RTVSPropertyOp51
 70
     0
102
RTVSPropertyOp52
 70
     0
102
RTVSPropertyOp53
 70
     1
102
RTVSPropertyOp54
 70
     1
102
RTVSPropertyOp55
 70
     1
102
RTVSPropertyOp56
 70
     1
102
RTVSPropertyOp57
 70
     1
102
RTVSPropertyOp58
 70
     1
102
RTVSPropertyOp59
 70
     1
102
RTVSPropertyOp60
 70
     1
102
RTVSPropertyOp61
 70
     1
102
RTVSPropertyOp62
 70
     1
  0
XRECORD
  5
68E5
102
{ACAD_REACTORS
330
68E4
102
}
330
68E4
100
AcDbXrecord
280
     1
102
RTVSPost2010Prop28
280
     0
102
RTVSPost2010PropOp28
 70
     1
102
RTVSPost2010Prop29
280
     1
102
RTVSPost2010PropOp29
 70
     1
102
RTVSPost2010Prop30
280
     1
102
RTVSPost2010PropOp30
 70
     1
102
RTVSPost2010Prop31
280
     0
102
RTVSPost2010PropOp31
 70
     1
102
RTVSPost2010Prop32
280
     0
102
RTVSPost2010PropOp32
 70
     1
102
RTVSPost2010Prop33
280
     0
102
RTVSPost2010PropOp33
 70
     1
102
RTVSPost2010Prop34
280
     0
102
RTVSPost2010PropOp34
 70
     1
102
RTVSPost2010Prop35
280
     0
102
RTVSPost2010PropOp35
 70
     1
102
RTVSPost2010Prop36
280
     0
102
RTVSPost2010PropOp36
 70
     1
102
RTVSPost2010Prop37
 90
       50
102
RTVSPost2010PropOp37
 70
     1
102
RTVSPost2010Prop38
140
0.0
102
RTVSPost2010PropOp38
 70
     1
102
RTVSPost2010Prop39
140
1.0
102
RTVSPost2010PropOp39
 70
     1
102
RTVSPost2010Prop40
 90
        0
102
RTVSPost2010PropOp40
 70
     1
102
RTVSPost2010Prop41ColorIndex
 90
       18
102
RTVSPost2010Prop41ColorRGB
 90
        0
102
RTVSPost2010PropOp41
 70
     1
102
RTVSPost2010Prop42
 90
       50
102
RTVSPost2010PropOp42
 70
     1
102
RTVSPost2010Prop43
 90
        3
102
RTVSPost2010PropOp43
 70
     1
102
RTVSPost2010Prop44ColorIndex
 90
        5
102
RTVSPost2010Prop44ColorRGB
 90
      255
102
RTVSPost2010PropOp44
 70
     1
102
RTVSPost2010Prop45
280
     0
102
RTVSPost2010PropOp45
 70
     1
102
RTVSPost2010Prop46
 90
       50
102
RTVSPost2010PropOp46
 70
     1
102
RTVSPost2010Prop47
 90
       50
102
RTVSPost2010PropOp47
 70
     1
102
RTVSPost2010Prop48
 90
       50
102
RTVSPost2010PropOp48
 70
     1
102
RTVSPost2010Prop49
280
     0
102
RTVSPost2010PropOp49
 70
     1
102
RTVSPost2010Prop50
 90
       50
102
RTVSPost2010PropOp50
 70
     1
102
RTVSPost2010Prop51ColorIndex
 90
      256
102
RTVSPost2010Prop51ColorRGB
 90
-16777216
102
RTVSPost2010PropOp51
 70
     0
102
RTVSPost2010Prop52
140
1.0
102
RTVSPost2010PropOp52
 70
     0
102
RTVSPost2010Prop53
 90
        2
102
RTVSPost2010PropOp53
 70
     1
102
RTVSPost2010Prop54
  1
strokes_ogs.tif
102
RTVSPost2010PropOp54
 70
     1
102
RTVSPost2010Prop55
280
     0
102
RTVSPost2010PropOp55
 70
     1
102
RTVSPost2010Prop56
140
1.0
102
RTVSPost2010PropOp56
 70
     1
102
RTVSPost2010Prop57
140
1.0
102
RTVSPost2010PropOp57
 70
     1
102
RTVSPropertyOp0
 70
     1
102
RTVSPropertyOp1
 70
     1
102
RTVSPropertyOp2
 70
     1
102
RTVSPropertyOp3
 70
     1
102
RTVSPropertyOp4
 70
     1
102
RTVSPropertyOp5
 70
     1
102
RTVSPropertyOp6
 70
     1
102
RTVSPropertyOp7
 70
     1
102
RTVSPropertyOp8
 70
     1
102
RTVSPropertyOp9
 70
     1
102
RTVSPropertyOp10
 70
     1
102
RTVSPropertyOp11
 70
     1
102
RTVSPropertyOp12
 70
     1
102
RTVSPropertyOp13
 70
     1
102
RTVSPropertyOp14
 70
     1
102
RTVSPropertyOp15
 70
     1
102
RTVSPropertyOp16
 70
     1
102
RTVSPropertyOp17
 70
     1
102
RTVSPropertyOp18
 70
     1
102
RTVSPropertyOp19
 70
     1
102
RTVSPropertyOp20
 70
     1
102
RTVSPropertyOp21
 70
     1
102
RTVSPropertyOp22
 70
     1
102
RTVSPropertyOp23
 70
     1
102
RTVSPropertyOp24
 70
     1
102
RTVSPropertyOp25
 70
     1
102
RTVSPropertyOp26
 70
     1
102
RTVSPropertyOp27
 70
     1
102
RTVSPropertyOp28
 70
     1
102
RTVSPropertyOp29
 70
     1
102
RTVSPropertyOp30
 70
     1
102
RTVSPropertyOp31
 70
     1
102
RTVSPropertyOp32
 70
     1
102
RTVSPropertyOp33
 70
     1
102
RTVSPropertyOp34
 70
     1
102
RTVSPropertyOp35
 70
     1
102
RTVSPropertyOp36
 70
     1
102
RTVSPropertyOp37
 70
     1
102
RTVSPropertyOp38
 70
     1
102
RTVSPropertyOp39
 70
     1
102
RTVSPropertyOp40
 70
     1
102
RTVSPropertyOp41
 70
     1
102
RTVSPropertyOp42
 70
     1
102
RTVSPropertyOp43
 70
     1
102
RTVSPropertyOp44
 70
     1
102
RTVSPropertyOp45
 70
     1
102
RTVSPropertyOp46
 70
     1
102
RTVSPropertyOp47
 70
     1
102
RTVSPropertyOp48
 70
     1
102
RTVSPropertyOp49
 70
     1
102
RTVSPropertyOp50
 70
     1
102
RTVSPropertyOp51
 70
     0
102
RTVSPropertyOp52
 70
     0
102
RTVSPropertyOp53
 70
     1
102
RTVSPropertyOp54
 70
     1
102
RTVSPropertyOp55
 70
     1
102
RTVSPropertyOp56
 70
     1
102
RTVSPropertyOp57
 70
     1
102
RTVSPropertyOp58
 70
     1
102
RTVSPropertyOp59
 70
     1
102
RTVSPropertyOp60
 70
     1
102
RTVSPropertyOp61
 70
     1
102
RTVSPropertyOp62
 70
     1
  0
XRECORD
  5
68E7
102
{ACAD_REACTORS
330
68E6
102
}
330
68E6
100
AcDbXrecord
280
     1
102
RTVSPost2010Prop28
280
     0
102
RTVSPost2010PropOp28
 70
     1
102
RTVSPost2010Prop29
280
     1
102
RTVSPost2010PropOp29
 70
     1
102
RTVSPost2010Prop30
280
     1
102
RTVSPost2010PropOp30
 70
     1
102
RTVSPost2010Prop31
280
     0
102
RTVSPost2010PropOp31
 70
     1
102
RTVSPost2010Prop32
280
     0
102
RTVSPost2010PropOp32
 70
     1
102
RTVSPost2010Prop33
280
     0
102
RTVSPost2010PropOp33
 70
     1
102
RTVSPost2010Prop34
280
     0
102
RTVSPost2010PropOp34
 70
     1
102
RTVSPost2010Prop35
280
     0
102
RTVSPost2010PropOp35
 70
     1
102
RTVSPost2010Prop36
280
     0
102
RTVSPost2010PropOp36
 70
     1
102
RTVSPost2010Prop37
 90
       50
102
RTVSPost2010PropOp37
 70
     1
102
RTVSPost2010Prop38
140
0.0
102
RTVSPost2010PropOp38
 70
     1
102
RTVSPost2010Prop39
140
1.0
102
RTVSPost2010PropOp39
 70
     1
102
RTVSPost2010Prop40
 90
        0
102
RTVSPost2010PropOp40
 70
     1
102
RTVSPost2010Prop41ColorIndex
 90
       18
102
RTVSPost2010Prop41ColorRGB
 90
        0
102
RTVSPost2010PropOp41
 70
     1
102
RTVSPost2010Prop42
 90
       50
102
RTVSPost2010PropOp42
 70
     1
102
RTVSPost2010Prop43
 90
        3
102
RTVSPost2010PropOp43
 70
     1
102
RTVSPost2010Prop44ColorIndex
 90
        5
102
RTVSPost2010Prop44ColorRGB
 90
      255
102
RTVSPost2010PropOp44
 70
     1
102
RTVSPost2010Prop45
280
     0
102
RTVSPost2010PropOp45
 70
     1
102
RTVSPost2010Prop46
 90
       50
102
RTVSPost2010PropOp46
 70
     1
102
RTVSPost2010Prop47
 90
       50
102
RTVSPost2010PropOp47
 70
     1
102
RTVSPost2010Prop48
 90
       50
102
RTVSPost2010PropOp48
 70
     1
102
RTVSPost2010Prop49
280
     0
102
RTVSPost2010PropOp49
 70
     1
102
RTVSPost2010Prop50
 90
       50
102
RTVSPost2010PropOp50
 70
     1
102
RTVSPost2010Prop51ColorIndex
 90
      256
102
RTVSPost2010Prop51ColorRGB
 90
-16777216
102
RTVSPost2010PropOp51
 70
     0
102
RTVSPost2010Prop52
140
1.0
102
RTVSPost2010PropOp52
 70
     0
102
RTVSPost2010Prop53
 90
        2
102
RTVSPost2010PropOp53
 70
     1
102
RTVSPost2010Prop54
  1
strokes_ogs.tif
102
RTVSPost2010PropOp54
 70
     1
102
RTVSPost2010Prop55
280
     0
102
RTVSPost2010PropOp55
 70
     1
102
RTVSPost2010Prop56
140
1.0
102
RTVSPost2010PropOp56
 70
     1
102
RTVSPost2010Prop57
140
1.0
102
RTVSPost2010PropOp57
 70
     1
102
RTVSPropertyOp0
 70
     1
102
RTVSPropertyOp1
 70
     1
102
RTVSPropertyOp2
 70
     1
102
RTVSPropertyOp3
 70
     1
102
RTVSPropertyOp4
 70
     1
102
RTVSPropertyOp5
 70
     1
102
RTVSPropertyOp6
 70
     1
102
RTVSPropertyOp7
 70
     1
102
RTVSPropertyOp8
 70
     1
102
RTVSPropertyOp9
 70
     1
102
RTVSPropertyOp10
 70
     1
102
RTVSPropertyOp11
 70
     1
102
RTVSPropertyOp12
 70
     1
102
RTVSPropertyOp13
 70
     1
102
RTVSPropertyOp14
 70
     1
102
RTVSPropertyOp15
 70
     1
102
RTVSPropertyOp16
 70
     1
102
RTVSPropertyOp17
 70
     1
102
RTVSPropertyOp18
 70
     1
102
RTVSPropertyOp19
 70
     1
102
RTVSPropertyOp20
 70
     1
102
RTVSPropertyOp21
 70
     1
102
RTVSPropertyOp22
 70
     1
102
RTVSPropertyOp23
 70
     1
102
RTVSPropertyOp24
 70
     1
102
RTVSPropertyOp25
 70
     1
102
RTVSPropertyOp26
 70
     1
102
RTVSPropertyOp27
 70
     1
102
RTVSPropertyOp28
 70
     1
102
RTVSPropertyOp29
 70
     1
102
RTVSPropertyOp30
 70
     1
102
RTVSPropertyOp31
 70
     1
102
RTVSPropertyOp32
 70
     1
102
RTVSPropertyOp33
 70
     1
102
RTVSPropertyOp34
 70
     1
102
RTVSPropertyOp35
 70
     1
102
RTVSPropertyOp36
 70
     1
102
RTVSPropertyOp37
 70
     1
102
RTVSPropertyOp38
 70
     1
102
RTVSPropertyOp39
 70
     1
102
RTVSPropertyOp40
 70
     1
102
RTVSPropertyOp41
 70
     1
102
RTVSPropertyOp42
 70
     1
102
RTVSPropertyOp43
 70
     1
102
RTVSPropertyOp44
 70
     1
102
RTVSPropertyOp45
 70
     1
102
RTVSPropertyOp46
 70
     1
102
RTVSPropertyOp47
 70
     1
102
RTVSPropertyOp48
 70
     1
102
RTVSPropertyOp49
 70
     1
102
RTVSPropertyOp50
 70
     1
102
RTVSPropertyOp51
 70
     0
102
RTVSPropertyOp52
 70
     0
102
RTVSPropertyOp53
 70
     1
102
RTVSPropertyOp54
 70
     1
102
RTVSPropertyOp55
 70
     1
102
RTVSPropertyOp56
 70
     1
102
RTVSPropertyOp57
 70
     1
102
RTVSPropertyOp58
 70
     1
102
RTVSPropertyOp59
 70
     1
102
RTVSPropertyOp60
 70
     1
102
RTVSPropertyOp61
 70
     1
102
RTVSPropertyOp62
 70
     1
  0
XRECORD
  5
68D5
102
{ACAD_REACTORS
330
68D4
102
}
330
68D4
100
AcDbXrecord
280
     1
102
RTVSPost2010Prop28
280
     0
102
RTVSPost2010PropOp28
 70
     1
102
RTVSPost2010Prop29
280
     1
102
RTVSPost2010PropOp29
 70
     1
102
RTVSPost2010Prop30
280
     1
102
RTVSPost2010PropOp30
 70
     1
102
RTVSPost2010Prop31
280
     0
102
RTVSPost2010PropOp31
 70
     1
102
RTVSPost2010Prop32
280
     0
102
RTVSPost2010PropOp32
 70
     1
102
RTVSPost2010Prop33
280
     0
102
RTVSPost2010PropOp33
 70
     1
102
RTVSPost2010Prop34
280
     0
102
RTVSPost2010PropOp34
 70
     1
102
RTVSPost2010Prop35
280
     0
102
RTVSPost2010PropOp35
 70
     1
102
RTVSPost2010Prop36
280
     0
102
RTVSPost2010PropOp36
 70
     1
102
RTVSPost2010Prop37
 90
       50
102
RTVSPost2010PropOp37
 70
     1
102
RTVSPost2010Prop38
140
0.0
102
RTVSPost2010PropOp38
 70
     1
102
RTVSPost2010Prop39
140
1.0
102
RTVSPost2010PropOp39
 70
     1
102
RTVSPost2010Prop40
 90
        0
102
RTVSPost2010PropOp40
 70
     1
102
RTVSPost2010Prop41ColorIndex
 90
       18
102
RTVSPost2010Prop41ColorRGB
 90
        0
102
RTVSPost2010PropOp41
 70
     1
102
RTVSPost2010Prop42
 90
       50
102
RTVSPost2010PropOp42
 70
     1
102
RTVSPost2010Prop43
 90
        3
102
RTVSPost2010PropOp43
 70
     1
102
RTVSPost2010Prop44ColorIndex
 90
        5
102
RTVSPost2010Prop44ColorRGB
 90
      255
102
RTVSPost2010PropOp44
 70
     1
102
RTVSPost2010Prop45
280
     0
102
RTVSPost2010PropOp45
 70
     1
102
RTVSPost2010Prop46
 90
       50
102
RTVSPost2010PropOp46
 70
     1
102
RTVSPost2010Prop47
 90
       50
102
RTVSPost2010PropOp47
 70
     1
102
RTVSPost2010Prop48
 90
       50
102
RTVSPost2010PropOp48
 70
     1
102
RTVSPost2010Prop49
280
     0
102
RTVSPost2010PropOp49
 70
     1
102
RTVSPost2010Prop50
 90
       50
102
RTVSPost2010PropOp50
 70
     1
102
RTVSPost2010Prop51ColorIndex
 90
      256
102
RTVSPost2010Prop51ColorRGB
 90
-16777216
102
RTVSPost2010PropOp51
 70
     0
102
RTVSPost2010Prop52
140
1.0
102
RTVSPost2010PropOp52
 70
     0
102
RTVSPost2010Prop53
 90
        2
102
RTVSPost2010PropOp53
 70
     1
102
RTVSPost2010Prop54
  1
strokes_ogs.tif
102
RTVSPost2010PropOp54
 70
     1
102
RTVSPost2010Prop55
280
     0
102
RTVSPost2010PropOp55
 70
     1
102
RTVSPost2010Prop56
140
1.0
102
RTVSPost2010PropOp56
 70
     1
102
RTVSPost2010Prop57
140
1.0
102
RTVSPost2010PropOp57
 70
     1
102
RTVSPropertyOp0
 70
     1
102
RTVSPropertyOp1
 70
     1
102
RTVSPropertyOp2
 70
     1
102
RTVSPropertyOp3
 70
     1
102
RTVSPropertyOp4
 70
     1
102
RTVSPropertyOp5
 70
     1
102
RTVSPropertyOp6
 70
     1
102
RTVSPropertyOp7
 70
     1
102
RTVSPropertyOp8
 70
     1
102
RTVSPropertyOp9
 70
     1
102
RTVSPropertyOp10
 70
     1
102
RTVSPropertyOp11
 70
     1
102
RTVSPropertyOp12
 70
     1
102
RTVSPropertyOp13
 70
     1
102
RTVSPropertyOp14
 70
     1
102
RTVSPropertyOp15
 70
     1
102
RTVSPropertyOp16
 70
     1
102
RTVSPropertyOp17
 70
     1
102
RTVSPropertyOp18
 70
     1
102
RTVSPropertyOp19
 70
     1
102
RTVSPropertyOp20
 70
     1
102
RTVSPropertyOp21
 70
     1
102
RTVSPropertyOp22
 70
     1
102
RTVSPropertyOp23
 70
     1
102
RTVSPropertyOp24
 70
     1
102
RTVSPropertyOp25
 70
     1
102
RTVSPropertyOp26
 70
     1
102
RTVSPropertyOp27
 70
     1
102
RTVSPropertyOp28
 70
     1
102
RTVSPropertyOp29
 70
     1
102
RTVSPropertyOp30
 70
     1
102
RTVSPropertyOp31
 70
     1
102
RTVSPropertyOp32
 70
     1
102
RTVSPropertyOp33
 70
     1
102
RTVSPropertyOp34
 70
     1
102
RTVSPropertyOp35
 70
     1
102
RTVSPropertyOp36
 70
     1
102
RTVSPropertyOp37
 70
     1
102
RTVSPropertyOp38
 70
     1
102
RTVSPropertyOp39
 70
     1
102
RTVSPropertyOp40
 70
     1
102
RTVSPropertyOp41
 70
     1
102
RTVSPropertyOp42
 70
     1
102
RTVSPropertyOp43
 70
     1
102
RTVSPropertyOp44
 70
     1
102
RTVSPropertyOp45
 70
     1
102
RTVSPropertyOp46
 70
     1
102
RTVSPropertyOp47
 70
     1
102
RTVSPropertyOp48
 70
     1
102
RTVSPropertyOp49
 70
     1
102
RTVSPropertyOp50
 70
     1
102
RTVSPropertyOp51
 70
     0
102
RTVSPropertyOp52
 70
     0
102
RTVSPropertyOp53
 70
     1
102
RTVSPropertyOp54
 70
     1
102
RTVSPropertyOp55
 70
     1
102
RTVSPropertyOp56
 70
     1
102
RTVSPropertyOp57
 70
     1
102
RTVSPropertyOp58
 70
     1
102
RTVSPropertyOp59
 70
     1
102
RTVSPropertyOp60
 70
     1
102
RTVSPropertyOp61
 70
     1
102
RTVSPropertyOp62
 70
     1
  0
XRECORD
  5
68C9
102
{ACAD_REACTORS
330
68C8
102
}
330
68C8
100
AcDbXrecord
280
     1
102
RTVSPost2010Prop28
280
     0
102
RTVSPost2010PropOp28
 70
     1
102
RTVSPost2010Prop29
280
     1
102
RTVSPost2010PropOp29
 70
     1
102
RTVSPost2010Prop30
280
     1
102
RTVSPost2010PropOp30
 70
     1
102
RTVSPost2010Prop31
280
     0
102
RTVSPost2010PropOp31
 70
     1
102
RTVSPost2010Prop32
280
     0
102
RTVSPost2010PropOp32
 70
     1
102
RTVSPost2010Prop33
280
     0
102
RTVSPost2010PropOp33
 70
     1
102
RTVSPost2010Prop34
280
     0
102
RTVSPost2010PropOp34
 70
     1
102
RTVSPost2010Prop35
280
     0
102
RTVSPost2010PropOp35
 70
     1
102
RTVSPost2010Prop36
280
     0
102
RTVSPost2010PropOp36
 70
     1
102
RTVSPost2010Prop37
 90
       50
102
RTVSPost2010PropOp37
 70
     1
102
RTVSPost2010Prop38
140
0.0
102
RTVSPost2010PropOp38
 70
     1
102
RTVSPost2010Prop39
140
1.0
102
RTVSPost2010PropOp39
 70
     1
102
RTVSPost2010Prop40
 90
        0
102
RTVSPost2010PropOp40
 70
     1
102
RTVSPost2010Prop41ColorIndex
 90
       18
102
RTVSPost2010Prop41ColorRGB
 90
        0
102
RTVSPost2010PropOp41
 70
     1
102
RTVSPost2010Prop42
 90
       50
102
RTVSPost2010PropOp42
 70
     1
102
RTVSPost2010Prop43
 90
        3
102
RTVSPost2010PropOp43
 70
     1
102
RTVSPost2010Prop44ColorIndex
 90
        5
102
RTVSPost2010Prop44ColorRGB
 90
      255
102
RTVSPost2010PropOp44
 70
     1
102
RTVSPost2010Prop45
280
     0
102
RTVSPost2010PropOp45
 70
     1
102
RTVSPost2010Prop46
 90
       50
102
RTVSPost2010PropOp46
 70
     1
102
RTVSPost2010Prop47
 90
       50
102
RTVSPost2010PropOp47
 70
     1
102
RTVSPost2010Prop48
 90
       50
102
RTVSPost2010PropOp48
 70
     1
102
RTVSPost2010Prop49
280
     0
102
RTVSPost2010PropOp49
 70
     1
102
RTVSPost2010Prop50
 90
       50
102
RTVSPost2010PropOp50
 70
     1
102
RTVSPost2010Prop51ColorIndex
 90
      256
102
RTVSPost2010Prop51ColorRGB
 90
-16777216
102
RTVSPost2010PropOp51
 70
     0
102
RTVSPost2010Prop52
140
1.0
102
RTVSPost2010PropOp52
 70
     0
102
RTVSPost2010Prop53
 90
        2
102
RTVSPost2010PropOp53
 70
     1
102
RTVSPost2010Prop54
  1
strokes_ogs.tif
102
RTVSPost2010PropOp54
 70
     1
102
RTVSPost2010Prop55
280
     0
102
RTVSPost2010PropOp55
 70
     1
102
RTVSPost2010Prop56
140
1.0
102
RTVSPost2010PropOp56
 70
     1
102
RTVSPost2010Prop57
140
1.0
102
RTVSPost2010PropOp57
 70
     1
102
RTVSPropertyOp0
 70
     1
102
RTVSPropertyOp1
 70
     1
102
RTVSPropertyOp2
 70
     1
102
RTVSPropertyOp3
 70
     1
102
RTVSPropertyOp4
 70
     1
102
RTVSPropertyOp5
 70
     1
102
RTVSPropertyOp6
 70
     1
102
RTVSPropertyOp7
 70
     1
102
RTVSPropertyOp8
 70
     1
102
RTVSPropertyOp9
 70
     1
102
RTVSPropertyOp10
 70
     1
102
RTVSPropertyOp11
 70
     1
102
RTVSPropertyOp12
 70
     1
102
RTVSPropertyOp13
 70
     1
102
RTVSPropertyOp14
 70
     1
102
RTVSPropertyOp15
 70
     1
102
RTVSPropertyOp16
 70
     1
102
RTVSPropertyOp17
 70
     1
102
RTVSPropertyOp18
 70
     1
102
RTVSPropertyOp19
 70
     1
102
RTVSPropertyOp20
 70
     1
102
RTVSPropertyOp21
 70
     1
102
RTVSPropertyOp22
 70
     1
102
RTVSPropertyOp23
 70
     1
102
RTVSPropertyOp24
 70
     1
102
RTVSPropertyOp25
 70
     1
102
RTVSPropertyOp26
 70
     1
102
RTVSPropertyOp27
 70
     1
102
RTVSPropertyOp28
 70
     1
102
RTVSPropertyOp29
 70
     1
102
RTVSPropertyOp30
 70
     1
102
RTVSPropertyOp31
 70
     1
102
RTVSPropertyOp32
 70
     1
102
RTVSPropertyOp33
 70
     1
102
RTVSPropertyOp34
 70
     1
102
RTVSPropertyOp35
 70
     1
102
RTVSPropertyOp36
 70
     1
102
RTVSPropertyOp37
 70
     1
102
RTVSPropertyOp38
 70
     1
102
RTVSPropertyOp39
 70
     1
102
RTVSPropertyOp40
 70
     1
102
RTVSPropertyOp41
 70
     1
102
RTVSPropertyOp42
 70
     1
102
RTVSPropertyOp43
 70
     1
102
RTVSPropertyOp44
 70
     1
102
RTVSPropertyOp45
 70
     1
102
RTVSPropertyOp46
 70
     1
102
RTVSPropertyOp47
 70
     1
102
RTVSPropertyOp48
 70
     1
102
RTVSPropertyOp49
 70
     1
102
RTVSPropertyOp50
 70
     1
102
RTVSPropertyOp51
 70
     0
102
RTVSPropertyOp52
 70
     0
102
RTVSPropertyOp53
 70
     1
102
RTVSPropertyOp54
 70
     1
102
RTVSPropertyOp55
 70
     1
102
RTVSPropertyOp56
 70
     1
102
RTVSPropertyOp57
 70
     1
102
RTVSPropertyOp58
 70
     1
102
RTVSPropertyOp59
 70
     1
102
RTVSPropertyOp60
 70
     1
102
RTVSPropertyOp61
 70
     1
102
RTVSPropertyOp62
 70
     1
  0
XRECORD
  5
68E9
102
{ACAD_REACTORS
330
68E8
102
}
330
68E8
100
AcDbXrecord
280
     1
102
RTVSPost2010Prop28
280
     0
102
RTVSPost2010PropOp28
 70
     1
102
RTVSPost2010Prop29
280
     1
102
RTVSPost2010PropOp29
 70
     1
102
RTVSPost2010Prop30
280
     1
102
RTVSPost2010PropOp30
 70
     1
102
RTVSPost2010Prop31
280
     0
102
RTVSPost2010PropOp31
 70
     1
102
RTVSPost2010Prop32
280
     0
102
RTVSPost2010PropOp32
 70
     1
102
RTVSPost2010Prop33
280
     0
102
RTVSPost2010PropOp33
 70
     1
102
RTVSPost2010Prop34
280
     0
102
RTVSPost2010PropOp34
 70
     1
102
RTVSPost2010Prop35
280
     0
102
RTVSPost2010PropOp35
 70
     1
102
RTVSPost2010Prop36
280
     0
102
RTVSPost2010PropOp36
 70
     1
102
RTVSPost2010Prop37
 90
       50
102
RTVSPost2010PropOp37
 70
     1
102
RTVSPost2010Prop38
140
0.0
102
RTVSPost2010PropOp38
 70
     1
102
RTVSPost2010Prop39
140
1.0
102
RTVSPost2010PropOp39
 70
     1
102
RTVSPost2010Prop40
 90
        0
102
RTVSPost2010PropOp40
 70
     1
102
RTVSPost2010Prop41ColorIndex
 90
       18
102
RTVSPost2010Prop41ColorRGB
 90
        0
102
RTVSPost2010PropOp41
 70
     1
102
RTVSPost2010Prop42
 90
       50
102
RTVSPost2010PropOp42
 70
     1
102
RTVSPost2010Prop43
 90
        3
102
RTVSPost2010PropOp43
 70
     1
102
RTVSPost2010Prop44ColorIndex
 90
        5
102
RTVSPost2010Prop44ColorRGB
 90
      255
102
RTVSPost2010PropOp44
 70
     1
102
RTVSPost2010Prop45
280
     0
102
RTVSPost2010PropOp45
 70
     1
102
RTVSPost2010Prop46
 90
       50
102
RTVSPost2010PropOp46
 70
     1
102
RTVSPost2010Prop47
 90
       50
102
RTVSPost2010PropOp47
 70
     1
102
RTVSPost2010Prop48
 90
       50
102
RTVSPost2010PropOp48
 70
     1
102
RTVSPost2010Prop49
280
     0
102
RTVSPost2010PropOp49
 70
     1
102
RTVSPost2010Prop50
 90
       50
102
RTVSPost2010PropOp50
 70
     1
102
RTVSPost2010Prop51ColorIndex
 90
      256
102
RTVSPost2010Prop51ColorRGB
 90
-16777216
102
RTVSPost2010PropOp51
 70
     0
102
RTVSPost2010Prop52
140
1.0
102
RTVSPost2010PropOp52
 70
     0
102
RTVSPost2010Prop53
 90
        2
102
RTVSPost2010PropOp53
 70
     1
102
RTVSPost2010Prop54
  1
strokes_ogs.tif
102
RTVSPost2010PropOp54
 70
     1
102
RTVSPost2010Prop55
280
     0
102
RTVSPost2010PropOp55
 70
     1
102
RTVSPost2010Prop56
140
1.0
102
RTVSPost2010PropOp56
 70
     1
102
RTVSPost2010Prop57
140
1.0
102
RTVSPost2010PropOp57
 70
     1
102
RTVSPropertyOp0
 70
     1
102
RTVSPropertyOp1
 70
     1
102
RTVSPropertyOp2
 70
     1
102
RTVSPropertyOp3
 70
     1
102
RTVSPropertyOp4
 70
     1
102
RTVSPropertyOp5
 70
     1
102
RTVSPropertyOp6
 70
     1
102
RTVSPropertyOp7
 70
     1
102
RTVSPropertyOp8
 70
     1
102
RTVSPropertyOp9
 70
     1
102
RTVSPropertyOp10
 70
     1
102
RTVSPropertyOp11
 70
     1
102
RTVSPropertyOp12
 70
     1
102
RTVSPropertyOp13
 70
     1
102
RTVSPropertyOp14
 70
     1
102
RTVSPropertyOp15
 70
     1
102
RTVSPropertyOp16
 70
     1
102
RTVSPropertyOp17
 70
     1
102
RTVSPropertyOp18
 70
     1
102
RTVSPropertyOp19
 70
     1
102
RTVSPropertyOp20
 70
     1
102
RTVSPropertyOp21
 70
     1
102
RTVSPropertyOp22
 70
     1
102
RTVSPropertyOp23
 70
     1
102
RTVSPropertyOp24
 70
     1
102
RTVSPropertyOp25
 70
     1
102
RTVSPropertyOp26
 70
     1
102
RTVSPropertyOp27
 70
     1
102
RTVSPropertyOp28
 70
     1
102
RTVSPropertyOp29
 70
     1
102
RTVSPropertyOp30
 70
     1
102
RTVSPropertyOp31
 70
     1
102
RTVSPropertyOp32
 70
     1
102
RTVSPropertyOp33
 70
     1
102
RTVSPropertyOp34
 70
     1
102
RTVSPropertyOp35
 70
     1
102
RTVSPropertyOp36
 70
     1
102
RTVSPropertyOp37
 70
     1
102
RTVSPropertyOp38
 70
     1
102
RTVSPropertyOp39
 70
     1
102
RTVSPropertyOp40
 70
     1
102
RTVSPropertyOp41
 70
     1
102
RTVSPropertyOp42
 70
     1
102
RTVSPropertyOp43
 70
     1
102
RTVSPropertyOp44
 70
     1
102
RTVSPropertyOp45
 70
     1
102
RTVSPropertyOp46
 70
     1
102
RTVSPropertyOp47
 70
     1
102
RTVSPropertyOp48
 70
     1
102
RTVSPropertyOp49
 70
     1
102
RTVSPropertyOp50
 70
     1
102
RTVSPropertyOp51
 70
     0
102
RTVSPropertyOp52
 70
     0
102
RTVSPropertyOp53
 70
     1
102
RTVSPropertyOp54
 70
     1
102
RTVSPropertyOp55
 70
     1
102
RTVSPropertyOp56
 70
     1
102
RTVSPropertyOp57
 70
     1
102
RTVSPropertyOp58
 70
     1
102
RTVSPropertyOp59
 70
     1
102
RTVSPropertyOp60
 70
     1
102
RTVSPropertyOp61
 70
     1
102
RTVSPropertyOp62
 70
     1
  0
ENDSEC
  0
EOF
