  0
SECTION
  2
HEADER
  9
$ACADVER
  1
AC1015
  9
$ACADMAINTVER
 70
    18
  9
$DWGCODEPAGE
  3
ANSI_1252
  9
$INSBASE
 10
0.0
 20
0.0
 30
0.0
  9
$EXTMIN
 10
-116.2985221067193
 20
-161.6152033540597
 30
-0.0015258207003583
  9
$EXTMAX
 10
132.2946173421743
 20
91.19462630641022
 30
0.0000000349246037
  9
$LIMMIN
 10
0.0
 20
0.0
  9
$LIMMAX
 10
420.0
 20
297.0
  9
$ORTHOMODE
 70
     0
  9
$REGENMODE
 70
     1
  9
$FILLMODE
 70
     1
  9
$QTEXTMODE
 70
     0
  9
$MIRRTEXT
 70
     0
  9
$LTSCALE
 40
1.0
  9
$ATTMODE
 70
     1
  9
$TEXTSIZE
 40
2.5
  9
$TRACEWID
 40
1.0
  9
$TEXTSTYLE
  7
Standard
  9
$CLAYER
  8
0
  9
$CELTYPE
  6
ByLayer
  9
$CECOLOR
 62
   256
  9
$CELTSCALE
 40
1.0
  9
$DISPSILH
 70
     0
  9
$DIMSCALE
 40
1.0
  9
$DIMASZ
 40
2.5
  9
$DIMEXO
 40
0.625
  9
$DIMDLI
 40
3.75
  9
$DIMRND
 40
0.0
  9
$DIMDLE
 40
0.0
  9
$DIMEXE
 40
1.25
  9
$DIMTP
 40
0.0
  9
$DIMTM
 40
0.0
  9
$DIMTXT
 40
2.5
  9
$DIMCEN
 40
2.5
  9
$DIMTSZ
 40
0.0
  9
$DIMTOL
 70
     0
  9
$DIMLIM
 70
     0
  9
$DIMTIH
 70
     0
  9
$DIMTOH
 70
     0
  9
$DIMSE1
 70
     0
  9
$DIMSE2
 70
     0
  9
$DIMTAD
 70
     1
  9
$DIMZIN
 70
     8
  9
$DIMBLK
  1

  9
$DIMASO
 70
     1
  9
$DIMSHO
 70
     1
  9
$DIMPOST
  1

  9
$DIMAPOST
  1

  9
$DIMALT
 70
     0
  9
$DIMALTD
 70
     3
  9
$DIMALTF
 40
0.03937007874016
  9
$DIMLFAC
 40
1.0
  9
$DIMTOFL
 70
     1
  9
$DIMTVP
 40
0.0
  9
$DIMTIX
 70
     0
  9
$DIMSOXD
 70
     0
  9
$DIMSAH
 70
     0
  9
$DIMBLK1
  1

  9
$DIMBLK2
  1

  9
$DIMSTYLE
  2
ISO-25
  9
$DIMCLRD
 70
     0
  9
$DIMCLRE
 70
     0
  9
$DIMCLRT
 70
     0
  9
$DIMTFAC
 40
1.0
  9
$DIMGAP
 40
0.625
  9
$DIMJUST
 70
     0
  9
$DIMSD1
 70
     0
  9
$DIMSD2
 70
     0
  9
$DIMTOLJ
 70
     0
  9
$DIMTZIN
 70
     8
  9
$DIMALTZ
 70
     0
  9
$DIMALTTZ
 70
     0
  9
$DIMUPT
 70
     0
  9
$DIMDEC
 70
     2
  9
$DIMTDEC
 70
     2
  9
$DIMALTU
 70
     2
  9
$DIMALTTD
 70
     3
  9
$DIMTXSTY
  7
Standard
  9
$DIMAUNIT
 70
     0
  9
$DIMADEC
 70
     0
  9
$DIMALTRND
 40
0.0
  9
$DIMAZIN
 70
     0
  9
$DIMDSEP
 70
    44
  9
$DIMATFIT
 70
     3
  9
$DIMFRAC
 70
     0
  9
$DIMLDRBLK
  1

  9
$DIMLUNIT
 70
     2
  9
$DIMLWD
 70
    -2
  9
$DIMLWE
 70
    -2
  9
$DIMTMOVE
 70
     0
  9
$LUNITS
 70
     2
  9
$LUPREC
 70
     4
  9
$SKETCHINC
 40
1.0
  9
$FILLETRAD
 40
0.0
  9
$AUNITS
 70
     0
  9
$AUPREC
 70
     0
  9
$MENU
  1
.
  9
$ELEVATION
 40
0.0
  9
$PELEVATION
 40
0.0
  9
$THICKNESS
 40
0.0
  9
$LIMCHECK
 70
     0
  9
$CHAMFERA
 40
0.0
  9
$CHAMFERB
 40
0.0
  9
$CHAMFERC
 40
0.0
  9
$CHAMFERD
 40
0.0
  9
$SKPOLY
 70
     0
  9
$TDCREATE
 40
2460781.656018518
  9
$TDUCREATE
 40
2460781.364351852
  9
$TDUPDATE
 40
2460782.412662037
  9
$TDUUPDATE
 40
2460782.120995371
  9
$TDINDWG
 40
0.7542824074
  9
$TDUSRTIMER
 40
0.7542824074
  9
$USRTIMER
 70
     1
  9
$ANGBASE
 50
0.0
  9
$ANGDIR
 70
     0
  9
$PDMODE
 70
     0
  9
$PDSIZE
 40
0.0
  9
$PLINEWID
 40
0.0
  9
$SPLFRAME
 70
     0
  9
$SPLINETYPE
 70
     6
  9
$SPLINESEGS
 70
     8
  9
$HANDSEED
  5
6648
  9
$SURFTAB1
 70
     6
  9
$SURFTAB2
 70
     6
  9
$SURFTYPE
 70
     6
  9
$SURFU
 70
     6
  9
$SURFV
 70
     6
  9
$UCSBASE
  2

  9
$UCSNAME
  2

  9
$UCSORG
 10
0.0
 20
0.0
 30
0.0
  9
$UCSXDIR
 10
1.0
 20
0.0
 30
0.0
  9
$UCSYDIR
 10
0.0
 20
1.0
 30
0.0
  9
$UCSORTHOREF
  2

  9
$UCSORTHOVIEW
 70
     0
  9
$UCSORGTOP
 10
0.0
 20
0.0
 30
0.0
  9
$UCSORGBOTTOM
 10
0.0
 20
0.0
 30
0.0
  9
$UCSORGLEFT
 10
0.0
 20
0.0
 30
0.0
  9
$UCSORGRIGHT
 10
0.0
 20
0.0
 30
0.0
  9
$UCSORGFRONT
 10
0.0
 20
0.0
 30
0.0
  9
$UCSORGBACK
 10
0.0
 20
0.0
 30
0.0
  9
$PUCSBASE
  2

  9
$PUCSNAME
  2

  9
$PUCSORG
 10
0.0
 20
0.0
 30
0.0
  9
$PUCSXDIR
 10
1.0
 20
0.0
 30
0.0
  9
$PUCSYDIR
 10
0.0
 20
1.0
 30
0.0
  9
$PUCSORTHOREF
  2

  9
$PUCSORTHOVIEW
 70
     0
  9
$PUCSORGTOP
 10
0.0
 20
0.0
 30
0.0
  9
$PUCSORGBOTTOM
 10
0.0
 20
0.0
 30
0.0
  9
$PUCSORGLEFT
 10
0.0
 20
0.0
 30
0.0
  9
$PUCSORGRIGHT
 10
0.0
 20
0.0
 30
0.0
  9
$PUCSORGFRONT
 10
0.0
 20
0.0
 30
0.0
  9
$PUCSORGBACK
 10
0.0
 20
0.0
 30
0.0
  9
$USERI1
 70
     0
  9
$USERI2
 70
     0
  9
$USERI3
 70
     0
  9
$USERI4
 70
     0
  9
$USERI5
 70
     0
  9
$USERR1
 40
0.0
  9
$USERR2
 40
0.0
  9
$USERR3
 40
0.0
  9
$USERR4
 40
0.0
  9
$USERR5
 40
0.0
  9
$WORLDVIEW
 70
     1
  9
$SHADEDGE
 70
     3
  9
$SHADEDIF
 70
    70
  9
$TILEMODE
 70
     1
  9
$MAXACTVP
 70
    48
  9
$PINSBASE
 10
0.0
 20
0.0
 30
0.0
  9
$PLIMCHECK
 70
     0
  9
$PEXTMIN
 10
0.0
 20
0.0
 30
0.0
  9
$PEXTMAX
 10
0.0
 20
0.0
 30
0.0
  9
$PLIMMIN
 10
0.0
 20
0.0
  9
$PLIMMAX
 10
12.0
 20
9.0
  9
$UNITMODE
 70
     0
  9
$VISRETAIN
 70
     1
  9
$PLINEGEN
 70
     0
  9
$PSLTSCALE
 70
     1
  9
$TREEDEPTH
 70
  3020
  9
$CMLSTYLE
  2
Standard
  9
$CMLJUST
 70
     0
  9
$CMLSCALE
 40
20.0
  9
$PROXYGRAPHICS
 70
     1
  9
$MEASUREMENT
 70
     1
  9
$CELWEIGHT
370
    -1
  9
$ENDCAPS
280
     0
  9
$JOINSTYLE
280
     0
  9
$LWDISPLAY
290
     0
  9
$INSUNITS
 70
     4
  9
$HYPERLINKBASE
  1

  9
$STYLESHEET
  1

  9
$XEDIT
290
     1
  9
$CEPSNTYPE
380
     0
  9
$PSTYLEMODE
290
     1
  9
$FINGERPRINTGUID
  2
{0FEB3686-8757-2640-922C-D8687B0D3839}
  9
$VERSIONGUID
  2
{7FC4AB59-65A0-6F46-B6D2-693EE2075DBE}
  9
$EXTNAMES
290
     1
  9
$PSVPSCALE
 40
0.0
  9
$OLESTARTUP
290
     0
  0
ENDSEC
  0
SECTION
  2
CLASSES
  0
CLASS
  1
ACDBDICTIONARYWDFLT
  2
AcDbDictionaryWithDefault
  3
ObjectDBX Classes
 90
        0
280
     0
281
     0
  0
CLASS
  1
ACDBPLACEHOLDER
  2
AcDbPlaceHolder
  3
ObjectDBX Classes
 90
        0
280
     0
281
     0
  0
CLASS
  1
LAYOUT
  2
AcDbLayout
  3
ObjectDBX Classes
 90
        0
280
     0
281
     0
  0
CLASS
  1
DICTIONARYVAR
  2
AcDbDictionaryVar
  3
ObjectDBX Classes
 90
        0
280
     0
281
     0
  0
CLASS
  1
TABLESTYLE
  2
AcDbTableStyle
  3
ObjectDBX Classes
 90
     4095
280
     0
281
     0
  0
CLASS
  1
MATERIAL
  2
AcDbMaterial
  3
ObjectDBX Classes
 90
     1153
280
     0
281
     0
  0
CLASS
  1
VISUALSTYLE
  2
AcDbVisualStyle
  3
ObjectDBX Classes
 90
     4095
280
     0
281
     0
  0
CLASS
  1
SCALE
  2
AcDbScale
  3
ObjectDBX Classes
 90
     1153
280
     0
281
     0
  0
CLASS
  1
MLEADERSTYLE
  2
AcDbMLeaderStyle
  3
ACDB_MLEADERSTYLE_CLASS
 90
     4095
280
     0
281
     0
  0
CLASS
  1
CELLSTYLEMAP
  2
AcDbCellStyleMap
  3
ObjectDBX Classes
 90
     1152
280
     0
281
     0
  0
CLASS
  1
EXACXREFPANELOBJECT
  2
ExAcXREFPanelObject
  3
EXAC_ESW
 90
    33793
280
     0
281
     0
  0
CLASS
  1
NPOCOLLECTION
  2
AcDbImpNonPersistentObjectsCollection
  3
ObjectDBX Classes
 90
    33921
280
     0
281
     0
  0
CLASS
  1
LAYER_INDEX
  2
AcDbLayerIndex
  3
ObjectDBX Classes
 90
    32768
280
     0
281
     0
  0
CLASS
  1
SPATIAL_INDEX
  2
AcDbSpatialIndex
  3
ObjectDBX Classes
 90
    32768
280
     0
281
     0
  0
CLASS
  1
IDBUFFER
  2
AcDbIdBuffer
  3
ObjectDBX Classes
 90
    32768
280
     0
281
     0
  0
CLASS
  1
ACDBSECTIONVIEWSTYLE
  2
AcDbSectionViewStyle
  3
ObjectDBX Classes
 90
     1025
280
     0
281
     0
  0
CLASS
  1
ACDBDETAILVIEWSTYLE
  2
AcDbDetailViewStyle
  3
ObjectDBX Classes
 90
     1025
280
     0
281
     0
  0
CLASS
  1
XRECORD
  2
AcDbXrecord
  3
ObjectDBX Classes
 90
        0
280
     0
281
     0
  0
ENDSEC
  0
SECTION
  2
TABLES
  0
TABLE
  2
VPORT
  5
8
102
{ACAD_XDICTIONARY
360
6556
102
}
330
0
100
AcDbSymbolTable
 70
     1
  0
VPORT
  5
EA
330
8
100
AcDbSymbolTableRecord
100
AcDbViewportTableRecord
  2
*Active
 70
     0
 10
0.0
 20
0.0
 11
1.0
 21
1.0
 12
7.998047617727491
 22
-35.21028852382475
 13
0.0
 23
0.0
 14
10.0
 24
10.0
 15
10.0
 25
10.0
 16
0.0
 26
0.0
 36
1.0
 17
0.0
 27
0.0
 37
0.0
 40
268.8403433788364
 41
0.9846153846153844
 42
50.0
 43
0.0
 44
0.0
 50
0.0
 51
0.0
 71
     0
 72
  1000
 73
     1
 74
     3
 75
     0
 76
     1
 77
     0
 78
     0
281
     0
 65
     1
110
0.0
120
0.0
130
0.0
111
1.0
121
0.0
131
0.0
112
0.0
122
1.0
132
0.0
 79
     0
146
0.0
1001
ACAD_NAV_VCDISPLAY
1070
     3
  0
ENDTAB
  0
TABLE
  2
LTYPE
  5
5
330
0
100
AcDbSymbolTable
 70
     1
  0
LTYPE
  5
14
330
5
100
AcDbSymbolTableRecord
100
AcDbLinetypeTableRecord
  2
ByBlock
 70
     0
  3

 72
    65
 73
     0
 40
0.0
  0
LTYPE
  5
15
330
5
100
AcDbSymbolTableRecord
100
AcDbLinetypeTableRecord
  2
ByLayer
 70
     0
  3

 72
    65
 73
     0
 40
0.0
  0
LTYPE
  5
16
330
5
100
AcDbSymbolTableRecord
100
AcDbLinetypeTableRecord
  2
Continuous
 70
     0
  3
Solid line
 72
    65
 73
     0
 40
0.0
  0
ENDTAB
  0
TABLE
  2
LAYER
  5
2
102
{ACAD_XDICTIONARY
360
1FF
102
}
330
0
100
AcDbSymbolTable
 70
     1
  0
LAYER
  5
10
102
{ACAD_XDICTIONARY
360
13C
102
}
330
2
100
AcDbSymbolTableRecord
100
AcDbLayerTableRecord
  2
0
 70
     0
 62
     7
  6
Continuous
370
    -3
390
F
  0
ENDTAB
  0
TABLE
  2
STYLE
  5
3
330
0
100
AcDbSymbolTable
 70
     1
  0
STYLE
  5
11
330
3
100
AcDbSymbolTableRecord
100
AcDbTextStyleTableRecord
  2
Standard
 70
     0
 40
0.0
 41
1.0
 50
0.0
 71
     0
 42
2.5
  3
arial.ttf
  4

1001
ACAD
1000
Arial
1071
       34
  0
ENDTAB
  0
TABLE
  2
VIEW
  5
6
330
0
100
AcDbSymbolTable
 70
     0
  0
ENDTAB
  0
TABLE
  2
UCS
  5
7
330
0
100
AcDbSymbolTable
 70
     0
  0
ENDTAB
  0
TABLE
  2
APPID
  5
9
330
0
100
AcDbSymbolTable
 70
     8
  0
APPID
  5
12
330
9
100
AcDbSymbolTableRecord
100
AcDbRegAppTableRecord
  2
ACAD
 70
     0
  0
APPID
  5
9E
330
9
100
AcDbSymbolTableRecord
100
AcDbRegAppTableRecord
  2
ACAD_PSEXT
 70
     0
  0
APPID
  5
133
330
9
100
AcDbSymbolTableRecord
100
AcDbRegAppTableRecord
  2
AcadAnnoPO
 70
     0
  0
APPID
  5
134
330
9
100
AcDbSymbolTableRecord
100
AcDbRegAppTableRecord
  2
AcadAnnotative
 70
     0
  0
APPID
  5
135
330
9
100
AcDbSymbolTableRecord
100
AcDbRegAppTableRecord
  2
ACAD_DSTYLE_DIMJAG
 70
     0
  0
APPID
  5
136
330
9
100
AcDbSymbolTableRecord
100
AcDbRegAppTableRecord
  2
ACAD_DSTYLE_DIMTALN
 70
     0
  0
APPID
  5
165
330
9
100
AcDbSymbolTableRecord
100
AcDbRegAppTableRecord
  2
ACAD_MLEADERVER
 70
     0
  0
APPID
  5
217
330
9
100
AcDbSymbolTableRecord
100
AcDbRegAppTableRecord
  2
ACAD_NAV_VCDISPLAY
 70
     0
  0
ENDTAB
  0
TABLE
  2
DIMSTYLE
  5
A
330
0
100
AcDbSymbolTable
 70
     1
100
AcDbDimStyleTable
 71
     0
  0
DIMSTYLE
105
27
330
A
100
AcDbSymbolTableRecord
100
AcDbDimStyleTableRecord
  2
ISO-25
 70
     0
 41
2.5
 42
0.625
 43
3.75
 44
1.25
 73
     0
 74
     0
 77
     1
 78
     8
140
2.5
141
2.5
143
0.03937007874016
147
0.625
171
     3
172
     1
271
     2
272
     2
274
     3
278
    44
283
     0
284
     8
340
11
  0
ENDTAB
  0
TABLE
  2
BLOCK_RECORD
  5
1
330
0
100
AcDbSymbolTable
 70
     7
  0
BLOCK_RECORD
  5
1F
102
{ACAD_XDICTIONARY
360
1CE
102
}
330
1
100
AcDbSymbolTableRecord
100
AcDbBlockTableRecord
  2
*Model_Space
340
22
  0
BLOCK_RECORD
  5
D2
102
{ACAD_XDICTIONARY
360
6509
102
}
330
1
100
AcDbSymbolTableRecord
100
AcDbBlockTableRecord
  2
*Paper_Space
340
D3
  0
BLOCK_RECORD
  5
D6
102
{ACAD_XDICTIONARY
360
650B
102
}
330
1
100
AcDbSymbolTableRecord
100
AcDbBlockTableRecord
  2
*Paper_Space0
340
D7
  0
BLOCK_RECORD
  5
630D
330
1
100
AcDbSymbolTableRecord
100
AcDbBlockTableRecord
  2
ZS45N-Front
340
0
102
{BLKREFS
331
64FF
102
}
  0
BLOCK_RECORD
  5
635B
330
1
100
AcDbSymbolTableRecord
100
AcDbBlockTableRecord
  2
ZS45N-Left
340
0
102
{BLKREFS
331
6500
102
}
  0
BLOCK_RECORD
  5
6382
330
1
100
AcDbSymbolTableRecord
100
AcDbBlockTableRecord
  2
ZS45N-Right
340
0
102
{BLKREFS
331
6501
102
}
  0
BLOCK_RECORD
  5
63A0
330
1
100
AcDbSymbolTableRecord
100
AcDbBlockTableRecord
  2
ZS45N-Top
340
0
102
{BLKREFS
331
6502
102
}
  0
BLOCK_RECORD
  5
63EE
330
1
100
AcDbSymbolTableRecord
100
AcDbBlockTableRecord
  2
ZS45N-Bottom
340
0
102
{BLKREFS
331
6503
102
}
  0
BLOCK_RECORD
  5
6453
330
1
100
AcDbSymbolTableRecord
100
AcDbBlockTableRecord
  2
ZS45N-ISO
340
0
102
{BLKREFS
331
6504
102
}
  0
ENDTAB
  0
ENDSEC
  0
SECTION
  2
BLOCKS
  0
BLOCK
  5
20
330
1F
100
AcDbEntity
  8
0
100
AcDbBlockBegin
  2
*Model_Space
 70
     0
 10
0.0
 20
0.0
 30
0.0
  3
*Model_Space
  1

  0
ENDBLK
  5
21
330
1F
100
AcDbEntity
  8
0
100
AcDbBlockEnd
  0
BLOCK
  5
D4
330
D2
100
AcDbEntity
 67
     1
  8
0
100
AcDbBlockBegin
  2
*Paper_Space
 70
     0
 10
0.0
 20
0.0
 30
0.0
  3
*Paper_Space
  1

  0
ENDBLK
  5
D5
330
D2
100
AcDbEntity
 67
     1
  8
0
100
AcDbBlockEnd
  0
BLOCK
  5
D8
330
D6
100
AcDbEntity
 67
     1
  8
0
100
AcDbBlockBegin
  2
*Paper_Space0
 70
     0
 10
0.0
 20
0.0
 30
0.0
  3
*Paper_Space0
  1

  0
ENDBLK
  5
D9
330
D6
100
AcDbEntity
 67
     1
  8
0
100
AcDbBlockEnd
  0
BLOCK
  5
630E
330
630D
100
AcDbEntity
  8
0
100
AcDbBlockBegin
  2
ZS45N-Front
 70
     0
 10
0.0
 20
0.0
 30
0.0
  3
ZS45N-Front
  1

  0
LINE
  5
6310
330
630D
100
AcDbEntity
  8
0
100
AcDbLine
 10
-2.776693950883855
 20
-15.80937499999998
 30
0.0
 11
-0.687407664253894
 21
-12.19062499999998
 31
0.0
  0
ARC
  5
6311
330
630D
100
AcDbEntity
  8
0
100
AcDbCircle
 10
-2.089286286629961
 20
-16.20624999999998
 30
0.0
 40
0.79375
100
AcDbArc
 50
149.9999999999999
 51
270.0
  0
LINE
  5
6312
330
630D
100
AcDbEntity
  8
0
100
AcDbLine
 10
2.089286286629965
 20
-16.99999999999998
 30
0.0
 11
-2.089286286629961
 21
-16.99999999999998
 31
0.0
  0
ARC
  5
6313
330
630D
100
AcDbEntity
  8
0
100
AcDbCircle
 10
2.089286286629965
 20
-16.20624999999998
 30
0.0
 40
0.79375
100
AcDbArc
 50
269.9999999999999
 51
29.99999999999973
  0
LINE
  5
6314
330
630D
100
AcDbEntity
  8
0
100
AcDbLine
 10
0.6874076642539029
 20
-12.19062499999998
 30
0.0
 11
2.776693950883859
 21
-15.80937499999999
 31
0.0
  0
ARC
  5
6315
330
630D
100
AcDbEntity
  8
0
100
AcDbCircle
 10
0.0000000000000044
 20
-12.58749999999998
 30
0.0
 40
0.7937500000000002
100
AcDbArc
 50
30.00000000000009
 51
149.9999999999997
  0
SPLINE
  5
6316
330
630D
100
AcDbEntity
  8
0
100
AcDbSpline
210
0.0
220
0.0
230
1.0
 70
     8
 71
     3
 72
    11
 73
     7
 74
     0
 42
0.000000001
 43
0.0000000001
 40
0.0
 40
0.0
 40
0.0
 40
0.0
 40
1.166126791552482
 40
1.166126791552482
 40
1.166126791552482
 40
1.570796326794869
 40
1.570796326794869
 40
1.570796326794869
 40
1.570796326794869
 10
5.253657780456383
 20
-45.89999999999997
 30
0.0
 10
5.244932283311783
 20
-45.89999999999998
 30
0.0
 10
5.236206786167182
 20
-45.4518520411743
 30
0.0
 10
5.227481289022581
 20
-44.80868701423914
 30
0.0
 10
5.224453365386968
 20
-44.58549576743869
 30
0.0
 10
5.221425441751353
 20
-44.34280172114546
 30
0.0
 10
5.21839751811574
 20
-44.10000000000003
 30
0.0
  0
LINE
  5
6317
330
630D
100
AcDbEntity
  8
0
100
AcDbLine
 10
5.253657780456383
 20
-45.89999999999997
 30
0.0
 11
5.253657780456383
 21
-44.99999999999997
 31
0.0
  0
SPLINE
  5
6318
330
630D
100
AcDbEntity
  8
0
100
AcDbSpline
210
0.0
220
0.0
230
1.0
 70
     8
 71
     3
 72
    11
 73
     7
 74
     0
 42
0.000000001
 43
0.0000000001
 40
0.0
 40
0.0
 40
0.0
 40
0.0
 40
1.386766277509507
 40
1.386766277509507
 40
1.386766277509507
 40
1.570796326794869
 40
1.570796326794869
 40
1.570796326794869
 40
1.570796326794869
 10
5.21839751811574
 20
-44.09999999999998
 30
0.0
 10
5.228773941402034
 20
-44.51602988325283
 30
0.0
 10
5.23915036468833
 20
-44.90867221041031
 30
0.0
 10
5.249526787974625
 20
-44.98480278656869
 30
0.0
 10
5.250903785468544
 20
-44.99490565242992
 30
0.0
 10
5.252280782962463
 20
-44.99999999999997
 30
0.0
 10
5.253657780456383
 20
-44.99999999999997
 30
0.0
  0
LINE
  5
6319
330
630D
100
AcDbEntity
  8
0
100
AcDbLine
 10
6.0
 20
-45.89999999999998
 30
0.0
 11
5.253657780456383
 21
-45.89999999999997
 31
0.0
  0
LINE
  5
631A
330
630D
100
AcDbEntity
  8
0
100
AcDbLine
 10
6.0
 20
-44.99999999999997
 30
0.0
 11
6.0
 21
-45.89999999999998
 31
0.0
  0
LINE
  5
631B
330
630D
100
AcDbEntity
  8
0
100
AcDbLine
 10
5.253657780456383
 20
-44.99999999999997
 30
0.0
 11
6.0
 21
-44.99999999999997
 31
0.0
  0
SPLINE
  5
631C
330
630D
100
AcDbEntity
  8
0
100
AcDbSpline
210
0.0
220
0.0
230
1.0
 70
     8
 71
     3
 72
    11
 73
     7
 74
     0
 42
0.000000001
 43
0.0000000001
 40
0.0000000000000495
 40
0.0000000000000495
 40
0.0000000000000495
 40
0.0000000000000495
 40
1.386766277509556
 40
1.386766277509556
 40
1.386766277509556
 40
1.570796326794894
 40
1.570796326794894
 40
1.570796326794894
 40
1.570796326794894
 10
-5.253657780456389
 20
-44.99999999999997
 30
0.0
 10
-5.243281357170095
 20
-44.99999999999995
 30
0.0
 10
-5.2329049338838
 20
-44.67369863157355
 30
0.0
 10
-5.222528510597506
 20
-44.2646937426869
 30
0.0
 10
-5.221151513103587
 20
-44.21041697588022
 30
0.0
 10
-5.219774515609667
 20
-44.15520901478557
 30
0.0
 10
-5.218397518115748
 20
-44.09999999999997
 30
0.0
  0
LINE
  5
631D
330
630D
100
AcDbEntity
  8
0
100
AcDbLine
 10
-5.253657780456389
 20
-44.99999999999997
 30
0.0
 11
-5.253657780456389
 21
-45.89999999999997
 31
0.0
  0
SPLINE
  5
631E
330
630D
100
AcDbEntity
  8
0
100
AcDbSpline
210
0.0
220
0.0
230
1.0
 70
     8
 71
     3
 72
    11
 73
     7
 74
     0
 42
0.000000001
 43
0.0000000001
 40
0.0
 40
0.0
 40
0.0
 40
0.0
 40
1.166126791552483
 40
1.166126791552483
 40
1.166126791552483
 40
1.570796326794883
 40
1.570796326794883
 40
1.570796326794883
 40
1.570796326794883
 10
-5.218397518115747
 20
-44.09999999999998
 30
0.0
 10
-5.227123015260347
 20
-44.79967607493147
 30
0.0
 10
-5.235848512404947
 20
-45.47914562994787
 30
0.0
 10
-5.244574009549548
 20
-45.75461860132441
 30
0.0
 10
-5.247601933185162
 20
-45.8502132828859
 30
0.0
 10
-5.250629856820776
 20
-45.89999999999997
 30
0.0
 10
-5.253657780456389
 20
-45.89999999999997
 30
0.0
  0
LINE
  5
631F
330
630D
100
AcDbEntity
  8
0
100
AcDbLine
 10
-6.0
 20
-44.99999999999985
 30
0.0
 11
-5.253657780456389
 21
-44.99999999999997
 31
0.0
  0
LINE
  5
6320
330
630D
100
AcDbEntity
  8
0
100
AcDbLine
 10
-6.0
 20
-45.89999999999985
 30
0.0
 11
-6.0
 21
-44.99999999999985
 31
0.0
  0
LINE
  5
6321
330
630D
100
AcDbEntity
  8
0
100
AcDbLine
 10
-5.253657780456389
 20
-45.89999999999997
 30
0.0
 11
-6.0
 21
-45.89999999999985
 31
0.0
  0
LINE
  5
6322
330
630D
100
AcDbEntity
  8
0
100
AcDbLine
 10
4.999040950308777
 20
-32.90207361368915
 30
0.0
 11
5.21839751811574
 21
-44.09999999999997
 31
0.0
  0
ARC
  5
6323
330
630D
100
AcDbEntity
  8
0
100
AcDbCircle
 10
-0.0000000000000089
 20
-32.99999999999998
 30
0.0
 40
5.0
100
AcDbArc
 50
1.122225479966293
 51
178.8777745200333
  0
LINE
  5
6324
330
630D
100
AcDbEntity
  8
0
100
AcDbLine
 10
-5.218397518115747
 20
-44.09999999999997
 30
0.0
 11
-4.999040950308786
 21
-32.90207361368915
 31
0.0
  0
LINE
  5
6325
330
630D
100
AcDbEntity
  8
0
100
AcDbLine
 10
19.4
 20
-44.09999999999999
 30
0.0
 11
18.5
 21
-44.09999999999998
 31
0.0
  0
LINE
  5
6326
330
630D
100
AcDbEntity
  8
0
100
AcDbLine
 10
19.4
 20
-44.09999999999998
 30
0.0
 11
19.40000000000001
 21
-18.39999999999997
 31
0.0
  0
LINE
  5
6327
330
630D
100
AcDbEntity
  8
0
100
AcDbLine
 10
18.50000000000001
 20
-18.39999999999997
 30
0.0
 11
19.40000000000001
 21
-18.39999999999997
 31
0.0
  0
LINE
  5
6328
330
630D
100
AcDbEntity
  8
0
100
AcDbLine
 10
18.50000000000001
 20
-18.39999999999997
 30
0.0
 11
18.5
 21
-44.09999999999997
 31
0.0
  0
LINE
  5
6329
330
630D
100
AcDbEntity
  8
0
100
AcDbLine
 10
23.5
 20
-44.09999999999997
 30
0.0
 11
22.6
 21
-44.09999999999998
 31
0.0
  0
LINE
  5
632A
330
630D
100
AcDbEntity
  8
0
100
AcDbLine
 10
22.6
 20
-44.09999999999998
 30
0.0
 11
22.6
 21
-44.99999999999999
 31
0.0
  0
LINE
  5
632B
330
630D
100
AcDbEntity
  8
0
100
AcDbLine
 10
23.5
 20
-44.99999999999997
 30
0.0
 11
23.5
 21
-44.09999999999997
 31
0.0
  0
LINE
  5
632C
330
630D
100
AcDbEntity
  8
0
100
AcDbLine
 10
22.6
 20
-18.39999999999997
 30
0.0
 11
22.6
 21
-44.09999999999998
 31
0.0
  0
ARC
  5
632D
330
630D
100
AcDbEntity
  8
0
100
AcDbCircle
 10
21.0
 20
-18.39999999999997
 30
0.0
 40
1.599999999999995
100
AcDbArc
 50
0.0
 51
180.0
  0
LINE
  5
632E
330
630D
100
AcDbEntity
  8
0
100
AcDbLine
 10
18.5
 20
-44.09999999999997
 30
0.0
 11
18.5
 21
-44.99999999999997
 31
0.0
  0
LINE
  5
632F
330
630D
100
AcDbEntity
  8
0
100
AcDbLine
 10
19.4
 20
-44.99999999999999
 30
0.0
 11
19.4
 21
-44.09999999999998
 31
0.0
  0
ARC
  5
6330
330
630D
100
AcDbEntity
  8
0
100
AcDbCircle
 10
21.0
 20
-18.39999999999997
 30
0.0
 40
2.499999999999995
100
AcDbArc
 50
0.0
 51
180.0
  0
LINE
  5
6331
330
630D
100
AcDbEntity
  8
0
100
AcDbLine
 10
23.5
 20
-44.09999999999997
 30
0.0
 11
23.5
 21
-18.39999999999997
 31
0.0
  0
LINE
  5
6332
330
630D
100
AcDbEntity
  8
0
100
AcDbLine
 10
23.5
 20
-18.39999999999997
 30
0.0
 11
22.6
 21
-18.39999999999997
 31
0.0
  0
LINE
  5
6333
330
630D
100
AcDbEntity
  8
0
100
AcDbLine
 10
19.4
 20
-44.09999999999998
 30
0.0
 11
22.6
 21
-44.09999999999998
 31
0.0
  0
ARC
  5
6334
330
630D
100
AcDbEntity
  8
0
100
AcDbCircle
 10
19.4
 20
-45.89999999999997
 30
0.0
 40
0.9000000000000074
100
AcDbArc
 50
180.0
 51
269.9999999999998
  0
LINE
  5
6335
330
630D
100
AcDbEntity
  8
0
100
AcDbLine
 10
22.6
 20
-46.79999999999998
 30
0.0
 11
19.4
 21
-46.79999999999998
 31
0.0
  0
ARC
  5
6336
330
630D
100
AcDbEntity
  8
0
100
AcDbCircle
 10
22.6
 20
-45.89999999999997
 30
0.0
 40
0.9000000000000012
100
AcDbArc
 50
270.0
 51
0.0
  0
LINE
  5
6337
330
630D
100
AcDbEntity
  8
0
100
AcDbLine
 10
-22.6
 20
-44.09999999999998
 30
0.0
 11
-19.4
 21
-44.09999999999998
 31
0.0
  0
LINE
  5
6338
330
630D
100
AcDbEntity
  8
0
100
AcDbLine
 10
-22.6
 20
-44.99999999999985
 30
0.0
 11
-22.6
 21
-44.09999999999998
 31
0.0
  0
LINE
  5
6339
330
630D
100
AcDbEntity
  8
0
100
AcDbLine
 10
-19.4
 20
-44.09999999999998
 30
0.0
 11
-19.4
 21
-44.99999999999985
 31
0.0
  0
ARC
  5
633A
330
630D
100
AcDbEntity
  8
0
100
AcDbCircle
 10
-22.6
 20
-45.89999999999995
 30
0.0
 40
0.9000000000000074
100
AcDbArc
 50
180.0
 51
270.0
  0
LINE
  5
633B
330
630D
100
AcDbEntity
  8
0
100
AcDbLine
 10
-18.5
 20
-44.99999999999997
 30
0.0
 11
-18.5
 21
-44.09999999999997
 31
0.0
  0
ARC
  5
633C
330
630D
100
AcDbEntity
  8
0
100
AcDbCircle
 10
-19.4
 20
-45.89999999999995
 30
0.0
 40
0.9000000000000012
100
AcDbArc
 50
270.0
 51
0.0
  0
LINE
  5
633D
330
630D
100
AcDbEntity
  8
0
100
AcDbLine
 10
-19.4
 20
-46.79999999999995
 30
0.0
 11
-22.6
 21
-46.79999999999995
 31
0.0
  0
LINE
  5
633E
330
630D
100
AcDbEntity
  8
0
100
AcDbLine
 10
-23.5
 20
-44.09999999999997
 30
0.0
 11
-22.6
 21
-44.09999999999998
 31
0.0
  0
LINE
  5
633F
330
630D
100
AcDbEntity
  8
0
100
AcDbLine
 10
-23.5
 20
-44.09999999999998
 30
0.0
 11
-23.5
 21
-44.99999999999997
 31
0.0
  0
LINE
  5
6340
330
630D
100
AcDbEntity
  8
0
100
AcDbLine
 10
-23.49999999999999
 20
-18.39999999999997
 30
0.0
 11
-22.59999999999999
 21
-18.39999999999997
 31
0.0
  0
LINE
  5
6341
330
630D
100
AcDbEntity
  8
0
100
AcDbLine
 10
-23.49999999999999
 20
-18.39999999999997
 30
0.0
 11
-23.5
 21
-44.09999999999997
 31
0.0
  0
LINE
  5
6342
330
630D
100
AcDbEntity
  8
0
100
AcDbLine
 10
-22.6
 20
-44.09999999999998
 30
0.0
 11
-22.59999999999999
 21
-18.39999999999997
 31
0.0
  0
ARC
  5
6343
330
630D
100
AcDbEntity
  8
0
100
AcDbCircle
 10
-21.0
 20
-18.39999999999997
 30
0.0
 40
1.599999999999995
100
AcDbArc
 50
0.0
 51
180.0
  0
LINE
  5
6344
330
630D
100
AcDbEntity
  8
0
100
AcDbLine
 10
-18.50000000000001
 20
-18.39999999999997
 30
0.0
 11
-19.4
 21
-18.39999999999997
 31
0.0
  0
ARC
  5
6345
330
630D
100
AcDbEntity
  8
0
100
AcDbCircle
 10
-21.0
 20
-18.39999999999997
 30
0.0
 40
2.499999999999995
100
AcDbArc
 50
0.0
 51
180.0
  0
LINE
  5
6346
330
630D
100
AcDbEntity
  8
0
100
AcDbLine
 10
-19.4
 20
-18.39999999999997
 30
0.0
 11
-19.4
 21
-44.09999999999998
 31
0.0
  0
LINE
  5
6347
330
630D
100
AcDbEntity
  8
0
100
AcDbLine
 10
-18.5
 20
-44.09999999999997
 30
0.0
 11
-19.4
 21
-44.09999999999998
 31
0.0
  0
LINE
  5
6348
330
630D
100
AcDbEntity
  8
0
100
AcDbLine
 10
-18.5
 20
-44.09999999999997
 30
0.0
 11
-18.50000000000001
 21
-18.39999999999997
 31
0.0
  0
LINE
  5
6349
330
630D
100
AcDbEntity
  8
0
100
AcDbLine
 10
-18.5
 20
-44.09999999999997
 30
0.0
 11
-5.218397518115747
 21
-44.09999999999997
 31
0.0
  0
LINE
  5
634A
330
630D
100
AcDbEntity
  8
0
100
AcDbLine
 10
5.21839751811574
 20
-44.09999999999997
 30
0.0
 11
18.5
 21
-44.09999999999997
 31
0.0
  0
LINE
  5
634B
330
630D
100
AcDbEntity
  8
0
100
AcDbLine
 10
-26.0
 20
-44.09999999999997
 30
0.0
 11
-23.5
 21
-44.09999999999997
 31
0.0
  0
LINE
  5
634C
330
630D
100
AcDbEntity
  8
0
100
AcDbLine
 10
-26.0
 20
-44.99999999999999
 30
0.0
 11
-26.0
 21
-44.09999999999997
 31
0.0
  0
LINE
  5
634D
330
630D
100
AcDbEntity
  8
0
100
AcDbLine
 10
23.5
 20
-44.09999999999997
 30
0.0
 11
26.0
 21
-44.09999999999997
 31
0.0
  0
LINE
  5
634E
330
630D
100
AcDbEntity
  8
0
100
AcDbLine
 10
-26.0
 20
-0.8999999999999808
 30
0.0
 11
26.0
 21
-0.8999999999999985
 31
0.0
  0
LINE
  5
634F
330
630D
100
AcDbEntity
  8
0
100
AcDbLine
 10
-26.0
 20
0.8999999999999985
 30
0.0
 11
26.0
 21
0.8999999999999985
 31
0.0
  0
LINE
  5
6350
330
630D
100
AcDbEntity
  8
0
100
AcDbLine
 10
26.0
 20
-0.9000000000000024
 30
0.0
 11
26.0
 21
0.8999999999999984
 31
0.0
  0
LINE
  5
6351
330
630D
100
AcDbEntity
  8
0
100
AcDbLine
 10
-26.0
 20
0.8999999999999971
 30
0.0
 11
-26.0
 21
-0.899999999999985
 31
0.0
  0
LINE
  5
6352
330
630D
100
AcDbEntity
  8
0
100
AcDbLine
 10
26.0
 20
-44.09999999999997
 30
0.0
 11
26.0
 21
-44.99999999999997
 31
0.0
  0
LINE
  5
6353
330
630D
100
AcDbEntity
  8
0
100
AcDbLine
 10
-6.0
 20
-44.99999999999985
 30
0.0
 11
-26.0
 21
-44.99999999999985
 31
0.0
  0
LINE
  5
6354
330
630D
100
AcDbEntity
  8
0
100
AcDbLine
 10
26.0
 20
-44.99999999999997
 30
0.0
 11
6.0
 21
-44.99999999999997
 31
0.0
  0
LINE
  5
6355
330
630D
100
AcDbEntity
  8
0
100
AcDbLine
 10
-26.0
 20
-45.89999999999985
 30
0.0
 11
-26.0
 21
-44.99999999999985
 31
0.0
  0
LINE
  5
6356
330
630D
100
AcDbEntity
  8
0
100
AcDbLine
 10
-26.0
 20
-45.89999999999985
 30
0.0
 11
-6.0
 21
-45.89999999999985
 31
0.0
  0
LINE
  5
6357
330
630D
100
AcDbEntity
  8
0
100
AcDbLine
 10
6.0
 20
-45.89999999999998
 30
0.0
 11
26.0
 21
-45.89999999999998
 31
0.0
  0
LINE
  5
6358
330
630D
100
AcDbEntity
  8
0
100
AcDbLine
 10
26.0
 20
-45.89999999999998
 30
0.0
 11
26.0
 21
-44.99999999999997
 31
0.0
  0
LINE
  5
6359
330
630D
100
AcDbEntity
  8
0
100
AcDbLine
 10
26.0
 20
-0.8999999999999985
 30
0.0
 11
26.0
 21
-44.09999999999997
 31
0.0
  0
LINE
  5
635A
330
630D
100
AcDbEntity
  8
0
100
AcDbLine
 10
-26.0
 20
-44.09999999999997
 30
0.0
 11
-26.0
 21
-0.8999999999999808
 31
0.0
  0
ENDBLK
  5
630F
330
630D
100
AcDbEntity
  8
0
100
AcDbBlockEnd
  0
BLOCK
  5
635C
330
635B
100
AcDbEntity
  8
0
100
AcDbBlockBegin
  2
ZS45N-Left
 70
     0
 10
0.0
 20
0.0
 30
0.0
  3
ZS45N-Left
  1

  0
LINE
  5
635E
330
635B
100
AcDbEntity
  8
0
100
AcDbLine
 10
0.8999999999999843
 20
-44.09999999999997
 30
0.0
 11
0.0
 21
-44.09999999999998
 31
0.0
  0
ARC
  5
635F
330
635B
100
AcDbEntity
  8
0
100
AcDbCircle
 10
2.699999999999985
 20
-44.09999999999997
 30
0.0
 40
2.7
100
AcDbArc
 50
180.0
 51
270.0000000000002
  0
LINE
  5
6360
330
635B
100
AcDbEntity
  8
0
100
AcDbLine
 10
2.699999999999986
 20
-45.89999999999997
 30
0.0
 11
2.699999999999989
 21
-46.79999999999997
 31
0.0
  0
LINE
  5
6361
330
635B
100
AcDbEntity
  8
0
100
AcDbLine
 10
0.0
 20
-18.39999999999998
 30
0.0
 11
0.0
 21
-44.09999999999998
 31
0.0
  0
LINE
  5
6362
330
635B
100
AcDbEntity
  8
0
100
AcDbLine
 10
0.0
 20
-18.39999999999998
 30
0.0
 11
0.0
 21
-16.79999999999998
 31
0.0
  0
LINE
  5
6363
330
635B
100
AcDbEntity
  8
0
100
AcDbLine
 10
2.699999999999993
 20
-46.79999999999997
 30
0.0
 11
8.300000000000002
 21
-46.79999999999995
 31
0.0
  0
LINE
  5
6364
330
635B
100
AcDbEntity
  8
0
100
AcDbLine
 10
8.3
 20
-46.79999999999996
 30
0.0
 11
8.299999999999997
 21
-45.89999999999995
 31
0.0
  0
LINE
  5
6365
330
635B
100
AcDbEntity
  8
0
100
AcDbLine
 10
9.899999999999998
 20
-46.79999999999994
 30
0.0
 11
8.300000000000002
 21
-46.79999999999995
 31
0.0
  0
LINE
  5
6366
330
635B
100
AcDbEntity
  8
0
100
AcDbLine
 10
0.0
 20
-18.39999999999998
 30
0.0
 11
0.8999999999998463
 21
-18.39999999999997
 31
0.0
  0
ARC
  5
6367
330
635B
100
AcDbEntity
  8
0
100
AcDbCircle
 10
9.899999999999995
 20
-45.89999999999995
 30
0.0
 40
0.9000000000000001
100
AcDbArc
 50
270.0000000000002
 51
0.0
  0
ARC
  5
6368
330
635B
100
AcDbEntity
  8
0
100
AcDbCircle
 10
0.8999999999998365
 20
-16.79999999999997
 30
0.0
 40
0.9000000000000001
100
AcDbArc
 50
90.0000000000003
 51
180.0
  0
LINE
  5
6369
330
635B
100
AcDbEntity
  8
0
100
AcDbLine
 10
0.8999999999999854
 20
-44.09999999999997
 30
0.0
 11
0.8999999999997736
 21
-0.9000000000000074
 31
0.0
  0
LINE
  5
636A
330
635B
100
AcDbEntity
  8
0
100
AcDbLine
 10
40.79999999999999
 20
-44.99999999999985
 30
0.0
 11
2.699999999999986
 21
-44.99999999999997
 31
0.0
  0
LINE
  5
636B
330
635B
100
AcDbEntity
  8
0
100
AcDbLine
 10
40.8
 20
-45.89999999999985
 30
0.0
 11
40.79999999999999
 21
-44.99999999999985
 31
0.0
  0
LINE
  5
636C
330
635B
100
AcDbEntity
  8
0
100
AcDbLine
 10
40.8
 20
-45.89999999999985
 30
0.0
 11
2.699999999999995
 21
-45.89999999999997
 31
0.0
  0
LINE
  5
636D
330
635B
100
AcDbEntity
  8
0
100
AcDbLine
 10
1.799999999999981
 20
-44.09999999999997
 30
0.0
 11
1.799999999999769
 21
-0.8999999999999808
 31
0.0
  0
LINE
  5
636E
330
635B
100
AcDbEntity
  8
0
100
AcDbLine
 10
0.0
 20
0.8999999999999985
 30
0.0
 11
-7.000000000000248
 21
0.899999999999963
 31
0.0
  0
LINE
  5
636F
330
635B
100
AcDbEntity
  8
0
100
AcDbLine
 10
0.0
 20
0.0
 30
0.0
 11
-7.00000000000025
 21
0.0
 31
0.0
  0
ARC
  5
6370
330
635B
100
AcDbEntity
  8
0
100
AcDbCircle
 10
2.699999999999985
 20
-44.09999999999997
 30
0.0
 40
0.9000000000000039
100
AcDbArc
 50
180.0
 51
270.0000000000002
  0
ARC
  5
6371
330
635B
100
AcDbEntity
  8
0
100
AcDbCircle
 10
2.699999999999985
 20
-44.09999999999997
 30
0.0
 40
1.799999999999999
100
AcDbArc
 50
180.0
 51
270.0000000000002
  0
LINE
  5
6372
330
635B
100
AcDbEntity
  8
0
100
AcDbLine
 10
0.0
 20
0.0
 30
0.0
 11
0.0
 21
0.8999999999999985
 31
0.0
  0
ARC
  5
6373
330
635B
100
AcDbEntity
  8
0
100
AcDbCircle
 10
-0.0000000000002257
 20
-0.8999999999999985
 30
0.0
 40
0.8999999999999996
100
AcDbArc
 50
0.0
 51
90.00000000000088
  0
LINE
  5
6374
330
635B
100
AcDbEntity
  8
0
100
AcDbLine
 10
0.8999999999997736
 20
-0.9000000000000074
 30
0.0
 11
1.799999999999769
 21
-0.8999999999999808
 31
0.0
  0
LINE
  5
6375
330
635B
100
AcDbEntity
  8
0
100
AcDbLine
 10
0.8999999999999854
 20
-44.09999999999997
 30
0.0
 11
1.799999999999981
 21
-44.09999999999997
 31
0.0
  0
ARC
  5
6376
330
635B
100
AcDbEntity
  8
0
100
AcDbCircle
 10
-0.0000000000002257
 20
-0.8999999999999985
 30
0.0
 40
1.799999999999995
100
AcDbArc
 50
0.0
 51
90.00000000000094
  0
LINE
  5
6377
330
635B
100
AcDbEntity
  8
0
100
AcDbLine
 10
2.699999999999991
 20
-45.89999999999997
 30
0.0
 11
2.699999999999987
 21
-44.99999999999997
 31
0.0
  0
LINE
  5
6378
330
635B
100
AcDbEntity
  8
0
100
AcDbLine
 10
-11.49702733935588
 20
0.0
 30
0.0
 11
-26.35247721720389
 21
0.0
 31
0.0
  0
LINE
  5
6379
330
635B
100
AcDbEntity
  8
0
100
AcDbLine
 10
-11.49702733935588
 20
0.8999999999999186
 30
0.0
 11
-11.49702733935588
 21
0.0
 31
0.0
  0
LINE
  5
637A
330
635B
100
AcDbEntity
  8
0
100
AcDbLine
 10
-26.35247721720389
 20
0.899999999999812
 30
0.0
 11
-11.49702733935588
 21
0.8999999999999186
 31
0.0
  0
LINE
  5
637B
330
635B
100
AcDbEntity
  8
0
100
AcDbLine
 10
-26.35247721720389
 20
0.899999999999812
 30
0.0
 11
-26.35247721720389
 21
0.0
 31
0.0
  0
LINE
  5
637C
330
635B
100
AcDbEntity
  8
0
100
AcDbLine
 10
-30.10000000000026
 20
0.0
 30
0.0
 11
-26.35247721720389
 21
0.0
 31
0.0
  0
LINE
  5
637D
330
635B
100
AcDbEntity
  8
0
100
AcDbLine
 10
-26.35247721720389
 20
0.8999999999998117
 30
0.0
 11
-30.10000000000026
 21
0.8999999999997836
 31
0.0
  0
LINE
  5
637E
330
635B
100
AcDbEntity
  8
0
100
AcDbLine
 10
-7.000000000000246
 20
0.899999999999963
 30
0.0
 11
-7.000000000000249
 21
0.0
 31
0.0
  0
LINE
  5
637F
330
635B
100
AcDbEntity
  8
0
100
AcDbLine
 10
-7.000000000000246
 20
0.0
 30
0.0
 11
-11.49702733935588
 21
0.0
 31
0.0
  0
LINE
  5
6380
330
635B
100
AcDbEntity
  8
0
100
AcDbLine
 10
-11.49702733935588
 20
0.8999999999999296
 30
0.0
 11
-7.000000000000242
 21
0.8999999999999632
 31
0.0
  0
LINE
  5
6381
330
635B
100
AcDbEntity
  8
0
100
AcDbLine
 10
-30.10000000000026
 20
0.8999999999997836
 30
0.0
 11
-30.10000000000025
 21
0.0
 31
0.0
  0
ENDBLK
  5
635D
330
635B
100
AcDbEntity
  8
0
100
AcDbBlockEnd
  0
BLOCK
  5
6383
330
6382
100
AcDbEntity
  8
0
100
AcDbBlockBegin
  2
ZS45N-Right
 70
     0
 10
0.0
 20
0.0
 30
0.0
  3
ZS45N-Right
  1

  0
ARC
  5
6385
330
6382
100
AcDbEntity
  8
0
100
AcDbCircle
 10
-2.699999999999985
 20
-44.09999999999997
 30
0.0
 40
2.700000000000001
100
AcDbArc
 50
270.0000000000001
 51
0.0
  0
LINE
  5
6386
330
6382
100
AcDbEntity
  8
0
100
AcDbLine
 10
0.0
 20
-44.09999999999999
 30
0.0
 11
-0.8999999999999845
 21
-44.09999999999998
 31
0.0
  0
LINE
  5
6387
330
6382
100
AcDbEntity
  8
0
100
AcDbLine
 10
-2.699999999999983
 20
-46.79999999999997
 30
0.0
 11
-2.699999999999986
 21
-45.89999999999997
 31
0.0
  0
LINE
  5
6388
330
6382
100
AcDbEntity
  8
0
100
AcDbLine
 10
-8.299999999999997
 20
-46.79999999999998
 30
0.0
 11
-2.699999999999981
 21
-46.79999999999997
 31
0.0
  0
LINE
  5
6389
330
6382
100
AcDbEntity
  8
0
100
AcDbLine
 10
-8.299999999999997
 20
-46.79999999999998
 30
0.0
 11
-9.899999999999993
 21
-46.79999999999998
 31
0.0
  0
LINE
  5
638A
330
6382
100
AcDbEntity
  8
0
100
AcDbLine
 10
-8.299999999999997
 20
-45.89999999999997
 30
0.0
 11
-8.299999999999997
 21
-46.79999999999997
 31
0.0
  0
LINE
  5
638B
330
6382
100
AcDbEntity
  8
0
100
AcDbLine
 10
0.0
 20
-18.39999999999998
 30
0.0
 11
-0.8999999999998463
 21
-18.39999999999997
 31
0.0
  0
LINE
  5
638C
330
6382
100
AcDbEntity
  8
0
100
AcDbLine
 10
0.0
 20
-16.79999999999998
 30
0.0
 11
0.0
 21
-18.39999999999998
 31
0.0
  0
LINE
  5
638D
330
6382
100
AcDbEntity
  8
0
100
AcDbLine
 10
0.0
 20
-44.09999999999998
 30
0.0
 11
0.0
 21
-18.39999999999998
 31
0.0
  0
ARC
  5
638E
330
6382
100
AcDbEntity
  8
0
100
AcDbCircle
 10
-9.899999999999993
 20
-45.89999999999997
 30
0.0
 40
0.9000000000000001
100
AcDbArc
 50
180.0
 51
270.0
  0
ARC
  5
638F
330
6382
100
AcDbEntity
  8
0
100
AcDbCircle
 10
-0.8999999999998365
 20
-16.79999999999997
 30
0.0
 40
0.9000000000000001
100
AcDbArc
 50
0.0
 51
89.99999999999976
  0
LINE
  5
6390
330
6382
100
AcDbEntity
  8
0
100
AcDbLine
 10
-0.8999999999999854
 20
-44.09999999999997
 30
0.0
 11
-0.8999999999997736
 21
-0.9000000000000074
 31
0.0
  0
LINE
  5
6391
330
6382
100
AcDbEntity
  8
0
100
AcDbLine
 10
-2.699999999999988
 20
-44.99999999999997
 30
0.0
 11
-40.79999999999999
 21
-44.99999999999997
 31
0.0
  0
LINE
  5
6392
330
6382
100
AcDbEntity
  8
0
100
AcDbLine
 10
-40.79999999999999
 20
-45.89999999999998
 30
0.0
 11
-40.79999999999999
 21
-44.99999999999997
 31
0.0
  0
LINE
  5
6393
330
6382
100
AcDbEntity
  8
0
100
AcDbLine
 10
-1.799999999999774
 20
-0.8999999999999985
 30
0.0
 11
-1.799999999999985
 21
-44.09999999999997
 31
0.0
  0
LINE
  5
6394
330
6382
100
AcDbEntity
  8
0
100
AcDbLine
 10
-40.79999999999999
 20
-45.89999999999998
 30
0.0
 11
-2.699999999999986
 21
-45.89999999999997
 31
0.0
  0
LINE
  5
6395
330
6382
100
AcDbEntity
  8
0
100
AcDbLine
 10
30.10000000000026
 20
0.8999999999997765
 30
0.0
 11
0.0
 21
0.8999999999999985
 31
0.0
  0
LINE
  5
6396
330
6382
100
AcDbEntity
  8
0
100
AcDbLine
 10
0.0
 20
0.0
 30
0.0
 11
30.10000000000026
 21
0.0
 31
0.0
  0
LINE
  5
6397
330
6382
100
AcDbEntity
  8
0
100
AcDbLine
 10
30.10000000000026
 20
0.0
 30
0.0
 11
30.10000000000026
 21
0.8999999999997765
 31
0.0
  0
ARC
  5
6398
330
6382
100
AcDbEntity
  8
0
100
AcDbCircle
 10
-2.699999999999985
 20
-44.09999999999997
 30
0.0
 40
1.799999999999999
100
AcDbArc
 50
269.9999999999999
 51
0.0
  0
ARC
  5
6399
330
6382
100
AcDbEntity
  8
0
100
AcDbCircle
 10
0.0000000000002257
 20
-0.8999999999999985
 30
0.0
 40
0.8999999999999996
100
AcDbArc
 50
89.99999999999914
 51
180.0
  0
LINE
  5
639A
330
6382
100
AcDbEntity
  8
0
100
AcDbLine
 10
0.0
 20
0.8999999999999985
 30
0.0
 11
0.0
 21
0.0
 31
0.0
  0
ARC
  5
639B
330
6382
100
AcDbEntity
  8
0
100
AcDbCircle
 10
0.0000000000002257
 20
-0.8999999999999985
 30
0.0
 40
1.799999999999997
100
AcDbArc
 50
89.99999999999962
 51
180.0
  0
LINE
  5
639C
330
6382
100
AcDbEntity
  8
0
100
AcDbLine
 10
-1.799999999999774
 20
-0.8999999999999985
 30
0.0
 11
-0.8999999999997736
 21
-0.9000000000000074
 31
0.0
  0
LINE
  5
639D
330
6382
100
AcDbEntity
  8
0
100
AcDbLine
 10
-1.799999999999985
 20
-44.09999999999997
 30
0.0
 11
-0.8999999999999854
 21
-44.09999999999997
 31
0.0
  0
ARC
  5
639E
330
6382
100
AcDbEntity
  8
0
100
AcDbCircle
 10
-2.699999999999985
 20
-44.09999999999997
 30
0.0
 40
0.9
100
AcDbArc
 50
269.9999999999998
 51
0.0
  0
LINE
  5
639F
330
6382
100
AcDbEntity
  8
0
100
AcDbLine
 10
-2.699999999999988
 20
-44.99999999999997
 30
0.0
 11
-2.699999999999988
 21
-45.89999999999997
 31
0.0
  0
ENDBLK
  5
6384
330
6382
100
AcDbEntity
  8
0
100
AcDbBlockEnd
  0
BLOCK
  5
63A1
330
63A0
100
AcDbEntity
  8
0
100
AcDbBlockBegin
  2
ZS45N-Top
 70
     0
 10
0.0
 20
0.0
 30
0.0
  3
ZS45N-Top
  1

  0
CIRCLE
  5
63A3
330
63A0
100
AcDbEntity
  8
0
100
AcDbCircle
 10
21.0
 20
25.1000000000002
 30
0.0
 40
2.0
  0
CIRCLE
  5
63A4
330
63A0
100
AcDbEntity
  8
0
100
AcDbCircle
 10
-7.000000000000001
 20
25.1000000000002
 30
0.0
 40
2.0
  0
ARC
  5
63A5
330
63A0
100
AcDbEntity
  8
0
100
AcDbCircle
 10
-9.08928628662996
 20
15.6875000000002
 30
0.0
 40
0.7937499999999976
100
AcDbArc
 50
150.0
 51
270.0
  0
LINE
  5
63A6
330
63A0
100
AcDbEntity
  8
0
100
AcDbLine
 10
-4.910713713370038
 20
14.89375000000019
 30
0.0
 11
-9.08928628662996
 21
14.8937500000002
 31
0.0
  0
ARC
  5
63A7
330
63A0
100
AcDbEntity
  8
0
100
AcDbCircle
 10
-4.910713713370038
 20
15.6875000000002
 30
0.0
 40
0.7937500000000002
100
AcDbArc
 50
270.0
 51
30.00000000000005
  0
LINE
  5
63A8
330
63A0
100
AcDbEntity
  8
0
100
AcDbLine
 10
-6.312592335746106
 20
19.7031250000002
 30
0.0
 11
-4.223306049116141
 21
16.0843750000002
 31
0.0
  0
ARC
  5
63A9
330
63A0
100
AcDbEntity
  8
0
100
AcDbCircle
 10
-7.000000000000001
 20
19.30625000000021
 30
0.0
 40
0.7937500000000002
100
AcDbArc
 50
30.00000000000005
 51
149.9999999999999
  0
LINE
  5
63AA
330
63A0
100
AcDbEntity
  8
0
100
AcDbLine
 10
-9.776693950883858
 20
16.0843750000002
 30
0.0
 11
-7.687407664253896
 21
19.7031250000002
 31
0.0
  0
SPLINE
  5
63AB
330
63A0
100
AcDbEntity
  8
0
100
AcDbSpline
210
0.0
220
0.0
230
1.0
 70
     8
 71
     3
 72
    11
 73
     7
 74
     0
 42
0.000000001
 43
0.0000000001
 40
0.0
 40
0.0
 40
0.0
 40
0.0
 40
1.386766277509507
 40
1.386766277509507
 40
1.386766277509507
 40
1.570796326794869
 40
1.570796326794869
 40
1.570796326794869
 40
1.570796326794869
 10
5.21839751811574
 20
-1.799999999999984
 30
0.0
 10
5.228773941402034
 20
-1.799999999999987
 30
0.0
 10
5.23915036468833
 20
-2.12630136842637
 30
0.0
 10
5.249526787974625
 20
-2.535306257313015
 30
0.0
 10
5.250903785468544
 20
-2.589583024119704
 30
0.0
 10
5.252280782962463
 20
-2.644790985214358
 30
0.0
 10
5.253657780456383
 20
-2.699999999999967
 30
0.0
  0
LINE
  5
63AC
330
63A0
100
AcDbEntity
  8
0
100
AcDbLine
 10
5.253657780456383
 20
-2.699999999999988
 30
0.0
 11
6.0
 21
-40.79999999999999
 31
0.0
  0
SPLINE
  5
63AD
330
63A0
100
AcDbEntity
  8
0
100
AcDbSpline
210
0.0
220
0.0
230
1.0
 70
     8
 71
     3
 72
    11
 73
     7
 74
     0
 42
0.000000001
 43
0.0000000001
 40
0.0000000000000495
 40
0.0000000000000495
 40
0.0000000000000495
 40
0.0000000000000495
 40
1.386766277509556
 40
1.386766277509556
 40
1.386766277509556
 40
1.570796326794894
 40
1.570796326794894
 40
1.570796326794894
 40
1.570796326794894
 10
-5.253657780456389
 20
-2.699999999999942
 30
0.0
 10
-5.243281357170095
 20
-2.283970116747089
 30
0.0
 10
-5.2329049338838
 20
-1.891327789589621
 30
0.0
 10
-5.222528510597506
 20
-1.815197213431265
 30
0.0
 10
-5.221151513103587
 20
-1.805094347570044
 30
0.0
 10
-5.219774515609667
 20
-1.799999999999985
 30
0.0
 10
-5.218397518115748
 20
-1.799999999999984
 30
0.0
  0
LINE
  5
63AE
330
63A0
100
AcDbEntity
  8
0
100
AcDbLine
 10
-6.0
 20
-40.79999999999999
 30
0.0
 11
-5.253657780456389
 21
-2.699999999999986
 31
0.0
  0
LINE
  5
63AF
330
63A0
100
AcDbEntity
  8
0
100
AcDbLine
 10
22.6
 20
-1.799999999999768
 30
0.0
 11
22.6
 21
-2.699999999999984
 31
0.0
  0
LINE
  5
63B0
330
63A0
100
AcDbEntity
  8
0
100
AcDbLine
 10
23.5
 20
-2.699999999999992
 30
0.0
 11
22.6
 21
-2.699999999999989
 31
0.0
  0
LINE
  5
63B1
330
63A0
100
AcDbEntity
  8
0
100
AcDbLine
 10
23.5
 20
-2.699999999999988
 30
0.0
 11
23.5
 21
-1.799999999999984
 31
0.0
  0
LINE
  5
63B2
330
63A0
100
AcDbEntity
  8
0
100
AcDbLine
 10
18.5
 20
-1.799999999999984
 30
0.0
 11
18.5
 21
-2.699999999999984
 31
0.0
  0
LINE
  5
63B3
330
63A0
100
AcDbEntity
  8
0
100
AcDbLine
 10
19.4
 20
-2.699999999999994
 30
0.0
 11
18.5
 21
-2.699999999999995
 31
0.0
  0
LINE
  5
63B4
330
63A0
100
AcDbEntity
  8
0
100
AcDbLine
 10
19.4
 20
-2.699999999999984
 30
0.0
 11
19.4
 21
-1.799999999999768
 31
0.0
  0
LINE
  5
63B5
330
63A0
100
AcDbEntity
  8
0
100
AcDbLine
 10
22.6
 20
-2.699999999999985
 30
0.0
 11
22.6
 21
-8.299999999999997
 31
0.0
  0
LINE
  5
63B6
330
63A0
100
AcDbEntity
  8
0
100
AcDbLine
 10
23.5
 20
-8.299999999999997
 30
0.0
 11
22.6
 21
-8.299999999999997
 31
0.0
  0
LINE
  5
63B7
330
63A0
100
AcDbEntity
  8
0
100
AcDbLine
 10
23.5
 20
-8.299999999999997
 30
0.0
 11
23.5
 21
-2.699999999999987
 31
0.0
  0
ARC
  5
63B8
330
63A0
100
AcDbEntity
  8
0
100
AcDbCircle
 10
21.0
 20
-8.299999999999997
 30
0.0
 40
2.499999999999995
100
AcDbArc
 50
180.0
 51
0.0
  0
LINE
  5
63B9
330
63A0
100
AcDbEntity
  8
0
100
AcDbLine
 10
18.5
 20
-2.699999999999988
 30
0.0
 11
18.50000000000001
 21
-8.299999999999997
 31
0.0
  0
LINE
  5
63BA
330
63A0
100
AcDbEntity
  8
0
100
AcDbLine
 10
18.5
 20
-8.299999999999997
 30
0.0
 11
19.4
 21
-8.299999999999997
 31
0.0
  0
LINE
  5
63BB
330
63A0
100
AcDbEntity
  8
0
100
AcDbLine
 10
19.4
 20
-8.299999999999997
 30
0.0
 11
19.4
 21
-2.699999999999984
 31
0.0
  0
ARC
  5
63BC
330
63A0
100
AcDbEntity
  8
0
100
AcDbCircle
 10
21.0
 20
-8.299999999999997
 30
0.0
 40
1.599999999999995
100
AcDbArc
 50
180.0
 51
0.0
  0
LINE
  5
63BD
330
63A0
100
AcDbEntity
  8
0
100
AcDbLine
 10
19.4
 20
-2.699999999999984
 30
0.0
 11
22.6
 21
-2.699999999999985
 31
0.0
  0
LINE
  5
63BE
330
63A0
100
AcDbEntity
  8
0
100
AcDbLine
 10
-22.6
 20
-2.699999999999991
 30
0.0
 11
-22.6
 21
-1.799999999999768
 31
0.0
  0
LINE
  5
63BF
330
63A0
100
AcDbEntity
  8
0
100
AcDbLine
 10
-22.6
 20
-2.699999999999991
 30
0.0
 11
-19.4
 21
-2.699999999999991
 31
0.0
  0
LINE
  5
63C0
330
63A0
100
AcDbEntity
  8
0
100
AcDbLine
 10
-19.4
 20
-1.799999999999768
 30
0.0
 11
-19.4
 21
-2.69999999999999
 31
0.0
  0
LINE
  5
63C1
330
63A0
100
AcDbEntity
  8
0
100
AcDbLine
 10
-22.6
 20
-8.299999999999997
 30
0.0
 11
-22.6
 21
-2.699999999999991
 31
0.0
  0
ARC
  5
63C2
330
63A0
100
AcDbEntity
  8
0
100
AcDbCircle
 10
-21.0
 20
-8.299999999999998
 30
0.0
 40
1.599999999999995
100
AcDbArc
 50
180.0
 51
0.0
  0
LINE
  5
63C3
330
63A0
100
AcDbEntity
  8
0
100
AcDbLine
 10
-19.4
 20
-2.699999999999991
 30
0.0
 11
-19.4
 21
-8.299999999999998
 31
0.0
  0
LINE
  5
63C4
330
63A0
100
AcDbEntity
  8
0
100
AcDbLine
 10
-18.5
 20
-2.699999999999988
 30
0.0
 11
-18.5
 21
-1.799999999999984
 31
0.0
  0
LINE
  5
63C5
330
63A0
100
AcDbEntity
  8
0
100
AcDbLine
 10
-18.5
 20
-8.299999999999997
 30
0.0
 11
-18.5
 21
-2.699999999999987
 31
0.0
  0
ARC
  5
63C6
330
63A0
100
AcDbEntity
  8
0
100
AcDbCircle
 10
-21.0
 20
-8.299999999999997
 30
0.0
 40
2.499999999999995
100
AcDbArc
 50
180.0
 51
0.0
  0
LINE
  5
63C7
330
63A0
100
AcDbEntity
  8
0
100
AcDbLine
 10
-23.5
 20
-2.699999999999987
 30
0.0
 11
-23.5
 21
-8.299999999999995
 31
0.0
  0
LINE
  5
63C8
330
63A0
100
AcDbEntity
  8
0
100
AcDbLine
 10
-22.6
 20
-2.699999999999991
 30
0.0
 11
-23.5
 21
-2.699999999999988
 31
0.0
  0
LINE
  5
63C9
330
63A0
100
AcDbEntity
  8
0
100
AcDbLine
 10
-23.5
 20
-1.799999999999984
 30
0.0
 11
-23.5
 21
-2.699999999999992
 31
0.0
  0
LINE
  5
63CA
330
63A0
100
AcDbEntity
  8
0
100
AcDbLine
 10
-18.5
 20
-2.699999999999988
 30
0.0
 11
-19.4
 21
-2.699999999999991
 31
0.0
  0
LINE
  5
63CB
330
63A0
100
AcDbEntity
  8
0
100
AcDbLine
 10
-18.5
 20
-8.299999999999997
 30
0.0
 11
-19.4
 21
-8.299999999999998
 31
0.0
  0
LINE
  5
63CC
330
63A0
100
AcDbEntity
  8
0
100
AcDbLine
 10
-23.5
 20
-8.299999999999993
 30
0.0
 11
-22.6
 21
-8.299999999999997
 31
0.0
  0
LINE
  5
63CD
330
63A0
100
AcDbEntity
  8
0
100
AcDbLine
 10
-18.5
 20
-2.699999999999987
 30
0.0
 11
-5.253657780456388
 21
-2.699999999999987
 31
0.0
  0
LINE
  5
63CE
330
63A0
100
AcDbEntity
  8
0
100
AcDbLine
 10
5.253657780456383
 20
-2.699999999999988
 30
0.0
 11
18.5
 21
-2.699999999999988
 31
0.0
  0
LINE
  5
63CF
330
63A0
100
AcDbEntity
  8
0
100
AcDbLine
 10
-26.0
 20
-2.699999999999987
 30
0.0
 11
-23.5
 21
-2.699999999999987
 31
0.0
  0
LINE
  5
63D0
330
63A0
100
AcDbEntity
  8
0
100
AcDbLine
 10
23.5
 20
-2.699999999999988
 30
0.0
 11
26.0
 21
-2.699999999999988
 31
0.0
  0
LINE
  5
63D1
330
63A0
100
AcDbEntity
  8
0
100
AcDbLine
 10
-26.0
 20
-2.699999999999988
 30
0.0
 11
-26.0
 21
-1.799999999999981
 31
0.0
  0
LINE
  5
63D2
330
63A0
100
AcDbEntity
  8
0
100
AcDbLine
 10
-26.0
 20
-1.799999999999769
 30
0.0
 11
26.0
 21
-1.799999999999774
 31
0.0
  0
LINE
  5
63D3
330
63A0
100
AcDbEntity
  8
0
100
AcDbLine
 10
-26.0
 20
0.0
 30
0.0
 11
26.0
 21
0.0
 31
0.0
  0
LINE
  5
63D4
330
63A0
100
AcDbEntity
  8
0
100
AcDbLine
 10
26.0
 20
-1.799999999999771
 30
0.0
 11
26.0
 21
0.0
 31
0.0
  0
LINE
  5
63D5
330
63A0
100
AcDbEntity
  8
0
100
AcDbLine
 10
-26.0
 20
0.0
 30
0.0
 11
-26.0
 21
-1.79999999999977
 31
0.0
  0
LINE
  5
63D6
330
63A0
100
AcDbEntity
  8
0
100
AcDbLine
 10
26.0
 20
-1.799999999999985
 30
0.0
 11
26.0
 21
-2.699999999999988
 31
0.0
  0
LINE
  5
63D7
330
63A0
100
AcDbEntity
  8
0
100
AcDbLine
 10
-26.0
 20
-40.79999999999999
 30
0.0
 11
-26.0
 21
-2.699999999999986
 31
0.0
  0
LINE
  5
63D8
330
63A0
100
AcDbEntity
  8
0
100
AcDbLine
 10
-6.0
 20
-40.79999999999999
 30
0.0
 11
-26.0
 21
-40.79999999999999
 31
0.0
  0
LINE
  5
63D9
330
63A0
100
AcDbEntity
  8
0
100
AcDbLine
 10
26.0
 20
-40.79999999999999
 30
0.0
 11
6.0
 21
-40.79999999999999
 31
0.0
  0
LINE
  5
63DA
330
63A0
100
AcDbEntity
  8
0
100
AcDbLine
 10
26.0
 20
-2.699999999999988
 30
0.0
 11
26.0
 21
-40.79999999999999
 31
0.0
  0
LINE
  5
63DB
330
63A0
100
AcDbEntity
  8
0
100
AcDbLine
 10
-26.0
 20
0.0
 30
0.0
 11
-26.0
 21
7.000000000000248
 31
0.0
  0
LINE
  5
63DC
330
63A0
100
AcDbEntity
  8
0
100
AcDbLine
 10
26.0
 20
30.10000000000026
 30
0.0
 11
26.0
 21
0.0
 31
0.0
  0
LINE
  5
63DD
330
63A0
100
AcDbEntity
  8
0
100
AcDbLine
 10
21.0
 20
30.10000000000026
 30
0.0
 11
26.0
 21
30.10000000000026
 31
0.0
  0
ARC
  5
63DE
330
63A0
100
AcDbEntity
  8
0
100
AcDbCircle
 10
-15.0
 20
-34.8
 30
0.0
 40
2.0
100
AcDbArc
 50
90.0
 51
270.0
  0
LINE
  5
63DF
330
63A0
100
AcDbEntity
  8
0
100
AcDbLine
 10
-15.0
 20
-32.8
 30
0.0
 11
-12.99999999999998
 21
-32.8
 31
0.0
  0
ARC
  5
63E0
330
63A0
100
AcDbEntity
  8
0
100
AcDbCircle
 10
-12.99999999999998
 20
-34.8
 30
0.0
 40
2.0
100
AcDbArc
 50
270.0
 51
90.0
  0
LINE
  5
63E1
330
63A0
100
AcDbEntity
  8
0
100
AcDbLine
 10
-12.99999999999998
 20
-36.8
 30
0.0
 11
-15.0
 21
-36.8
 31
0.0
  0
ARC
  5
63E2
330
63A0
100
AcDbEntity
  8
0
100
AcDbCircle
 10
15.0
 20
-34.8
 30
0.0
 40
2.0
100
AcDbArc
 50
270.0
 51
90.0
  0
LINE
  5
63E3
330
63A0
100
AcDbEntity
  8
0
100
AcDbLine
 10
15.0
 20
-36.79999999999999
 30
0.0
 11
12.99999999999997
 21
-36.79999999999999
 31
0.0
  0
ARC
  5
63E4
330
63A0
100
AcDbEntity
  8
0
100
AcDbCircle
 10
12.99999999999997
 20
-34.8
 30
0.0
 40
1.999999999999999
100
AcDbArc
 50
90.0
 51
270.0
  0
LINE
  5
63E5
330
63A0
100
AcDbEntity
  8
0
100
AcDbLine
 10
12.99999999999997
 20
-32.8
 30
0.0
 11
15.0
 21
-32.8
 31
0.0
  0
LINE
  5
63E6
330
63A0
100
AcDbEntity
  8
0
100
AcDbLine
 10
15.14183551919429
 20
25.3968843108878
 30
0.0
 11
11.78180373400476
 21
10.21926307426062
 31
0.0
  0
ARC
  5
63E7
330
63A0
100
AcDbEntity
  8
0
100
AcDbCircle
 10
21.0
 20
24.10000000000026
 30
0.0
 40
6.0
100
AcDbArc
 50
90.0
 51
167.5171494310722
  0
LINE
  5
63E8
330
63A0
100
AcDbEntity
  8
0
100
AcDbLine
 10
-11.84058889190002
 20
26.35247721720389
 30
0.0
 11
-15.68435933777483
 21
11.49702733935588
 31
0.0
  0
ARC
  5
63E9
330
63A0
100
AcDbEntity
  8
0
100
AcDbCircle
 10
-7.000000000000006
 20
25.10000000000026
 30
0.0
 40
5.0
100
AcDbArc
 50
14.5068319038824
 51
165.4931680961176
  0
LINE
  5
63EA
330
63A0
100
AcDbEntity
  8
0
100
AcDbLine
 10
2.059411108099982
 20
10.04752278279661
 30
0.0
 11
-2.159411108099988
 21
26.35247721720389
 31
0.0
  0
ARC
  5
63EB
330
63A0
100
AcDbEntity
  8
0
100
AcDbCircle
 10
6.899999999999999
 20
11.30000000000024
 30
0.0
 40
5.0
100
AcDbArc
 50
194.5068319038824
 51
347.5171494310722
  0
LINE
  5
63EC
330
63A0
100
AcDbEntity
  8
0
100
AcDbLine
 10
-21.49306600805486
 20
7.000000000000246
 30
0.0
 11
-26.0
 21
7.000000000000246
 31
0.0
  0
ARC
  5
63ED
330
63A0
100
AcDbEntity
  8
0
100
AcDbCircle
 10
-21.49306600805486
 20
13.00000000000024
 30
0.0
 40
6.000000000000001
100
AcDbArc
 50
270.0
 51
345.4931680961176
  0
ENDBLK
  5
63A2
330
63A0
100
AcDbEntity
  8
0
100
AcDbBlockEnd
  0
BLOCK
  5
63EF
330
63EE
100
AcDbEntity
  8
0
100
AcDbBlockBegin
  2
ZS45N-Bottom
 70
     0
 10
0.0
 20
0.0
 30
0.0
  3
ZS45N-Bottom
  1

  0
CIRCLE
  5
63F1
330
63EE
100
AcDbEntity
  8
0
100
AcDbCircle
 10
21.0
 20
-25.10000000000019
 30
0.0
 40
2.0
  0
CIRCLE
  5
63F2
330
63EE
100
AcDbEntity
  8
0
100
AcDbCircle
 10
-7.000000000000001
 20
-25.10000000000019
 30
0.0
 40
2.0
  0
ARC
  5
63F3
330
63EE
100
AcDbEntity
  8
0
100
AcDbCircle
 10
-9.08928628662996
 20
-15.68750000000018
 30
0.0
 40
0.7937499999999976
100
AcDbArc
 50
90.0
 51
210.0
  0
LINE
  5
63F4
330
63EE
100
AcDbEntity
  8
0
100
AcDbLine
 10
-9.08928628662996
 20
-14.89375000000018
 30
0.0
 11
-4.910713713370038
 21
-14.89375000000018
 31
0.0
  0
ARC
  5
63F5
330
63EE
100
AcDbEntity
  8
0
100
AcDbCircle
 10
-4.910713713370038
 20
-15.68750000000018
 30
0.0
 40
0.7937500000000002
100
AcDbArc
 50
329.9999999999999
 51
90.0
  0
LINE
  5
63F6
330
63EE
100
AcDbEntity
  8
0
100
AcDbLine
 10
-4.223306049116141
 20
-16.08437500000018
 30
0.0
 11
-6.312592335746106
 21
-19.70312500000019
 31
0.0
  0
ARC
  5
63F7
330
63EE
100
AcDbEntity
  8
0
100
AcDbCircle
 10
-7.000000000000001
 20
-19.30625000000019
 30
0.0
 40
0.7937500000000002
100
AcDbArc
 50
210.0
 51
329.9999999999999
  0
LINE
  5
63F8
330
63EE
100
AcDbEntity
  8
0
100
AcDbLine
 10
-7.687407664253896
 20
-19.70312500000019
 30
0.0
 11
-9.776693950883858
 21
-16.08437500000018
 31
0.0
  0
ARC
  5
63F9
330
63EE
100
AcDbEntity
  8
0
100
AcDbCircle
 10
19.4
 20
0.8999999999999847
 30
0.0
 40
0.9
100
AcDbArc
 50
180.0
 51
270.0
  0
LINE
  5
63FA
330
63EE
100
AcDbEntity
  8
0
100
AcDbLine
 10
19.4
 20
2.699999999999978
 30
0.0
 11
19.4
 21
0.0
 31
0.0
  0
LINE
  5
63FB
330
63EE
100
AcDbEntity
  8
0
100
AcDbLine
 10
18.5
 20
2.69999999999999
 30
0.0
 11
19.4
 21
2.699999999999989
 31
0.0
  0
LINE
  5
63FC
330
63EE
100
AcDbEntity
  8
0
100
AcDbLine
 10
18.5
 20
2.699999999999988
 30
0.0
 11
18.5
 21
0.8999999999999847
 31
0.0
  0
LINE
  5
63FD
330
63EE
100
AcDbEntity
  8
0
100
AcDbLine
 10
22.6
 20
0.0
 30
0.0
 11
22.6
 21
2.699999999999981
 31
0.0
  0
ARC
  5
63FE
330
63EE
100
AcDbEntity
  8
0
100
AcDbCircle
 10
22.6
 20
0.8999999999999847
 30
0.0
 40
0.9000000000000001
100
AcDbArc
 50
270.0
 51
0.0
  0
LINE
  5
63FF
330
63EE
100
AcDbEntity
  8
0
100
AcDbLine
 10
23.5
 20
0.8999999999999847
 30
0.0
 11
23.5
 21
2.699999999999988
 31
0.0
  0
LINE
  5
6400
330
63EE
100
AcDbEntity
  8
0
100
AcDbLine
 10
22.6
 20
2.699999999999983
 30
0.0
 11
23.5
 21
2.699999999999986
 31
0.0
  0
LINE
  5
6401
330
63EE
100
AcDbEntity
  8
0
100
AcDbLine
 10
19.4
 20
2.699999999999981
 30
0.0
 11
19.4
 21
8.299999999999997
 31
0.0
  0
LINE
  5
6402
330
63EE
100
AcDbEntity
  8
0
100
AcDbLine
 10
19.4
 20
8.299999999999997
 30
0.0
 11
18.5
 21
8.299999999999997
 31
0.0
  0
LINE
  5
6403
330
63EE
100
AcDbEntity
  8
0
100
AcDbLine
 10
18.5
 20
2.699999999999988
 30
0.0
 11
18.5
 21
8.299999999999997
 31
0.0
  0
LINE
  5
6404
330
63EE
100
AcDbEntity
  8
0
100
AcDbLine
 10
22.6
 20
8.299999999999997
 30
0.0
 11
22.6
 21
2.699999999999981
 31
0.0
  0
ARC
  5
6405
330
63EE
100
AcDbEntity
  8
0
100
AcDbCircle
 10
21.0
 20
8.299999999999997
 30
0.0
 40
1.599999999999995
100
AcDbArc
 50
0.0
 51
180.0
  0
LINE
  5
6406
330
63EE
100
AcDbEntity
  8
0
100
AcDbLine
 10
23.5
 20
8.299999999999997
 30
0.0
 11
23.5
 21
2.699999999999987
 31
0.0
  0
LINE
  5
6407
330
63EE
100
AcDbEntity
  8
0
100
AcDbLine
 10
23.5
 20
8.299999999999997
 30
0.0
 11
22.6
 21
8.299999999999997
 31
0.0
  0
ARC
  5
6408
330
63EE
100
AcDbEntity
  8
0
100
AcDbCircle
 10
21.0
 20
8.299999999999997
 30
0.0
 40
2.499999999999995
100
AcDbArc
 50
0.0
 51
180.0
  0
LINE
  5
6409
330
63EE
100
AcDbEntity
  8
0
100
AcDbLine
 10
22.6
 20
0.0
 30
0.0
 11
19.4
 21
0.0
 31
0.0
  0
LINE
  5
640A
330
63EE
100
AcDbEntity
  8
0
100
AcDbLine
 10
22.6
 20
2.699999999999981
 30
0.0
 11
19.4
 21
2.699999999999981
 31
0.0
  0
LINE
  5
640B
330
63EE
100
AcDbEntity
  8
0
100
AcDbLine
 10
5.21839751811574
 20
0.8999999999999845
 30
0.0
 11
5.21839751811574
 21
1.799999999999984
 31
0.0
  0
SPLINE
  5
640C
330
63EE
100
AcDbEntity
  8
0
100
AcDbSpline
210
0.0
220
0.0
230
1.0
 70
     8
 71
     3
 72
    11
 73
     7
 74
     0
 42
0.000000001
 43
0.0000000001
 40
0.0
 40
0.0
 40
0.0
 40
0.0
 40
1.166126791552482
 40
1.166126791552482
 40
1.166126791552482
 40
1.570796326794869
 40
1.570796326794869
 40
1.570796326794869
 40
1.570796326794869
 10
5.253657780456383
 20
2.699999999999997
 30
0.0
 10
5.244932283311783
 20
2.000323925068507
 30
0.0
 10
5.236206786167182
 20
1.320854370052103
 30
0.0
 10
5.227481289022581
 20
1.045381398675563
 30
0.0
 10
5.224453365386968
 20
0.9497867171140715
 30
0.0
 10
5.221425441751353
 20
0.8999999999999928
 30
0.0
 10
5.21839751811574
 20
0.8999999999999847
 30
0.0
  0
SPLINE
  5
640D
330
63EE
100
AcDbEntity
  8
0
100
AcDbSpline
210
0.0
220
0.0
230
1.0
 70
     8
 71
     3
 72
    11
 73
     7
 74
     0
 42
0.000000001
 43
0.0000000001
 40
0.0
 40
0.0
 40
0.0
 40
0.0
 40
1.386766277509507
 40
1.386766277509507
 40
1.386766277509507
 40
1.570796326794869
 40
1.570796326794869
 40
1.570796326794869
 40
1.570796326794869
 10
5.21839751811574
 20
1.799999999999984
 30
0.0
 10
5.228773941402034
 20
1.799999999999987
 30
0.0
 10
5.23915036468833
 20
2.12630136842637
 30
0.0
 10
5.249526787974625
 20
2.535306257313015
 30
0.0
 10
5.250903785468544
 20
2.589583024119704
 30
0.0
 10
5.252280782962463
 20
2.644790985214358
 30
0.0
 10
5.253657780456383
 20
2.699999999999967
 30
0.0
  0
LINE
  5
640E
330
63EE
100
AcDbEntity
  8
0
100
AcDbLine
 10
6.0
 20
40.79999999999999
 30
0.0
 11
5.253657780456383
 21
2.699999999999986
 31
0.0
  0
LINE
  5
640F
330
63EE
100
AcDbEntity
  8
0
100
AcDbLine
 10
-5.218397518115747
 20
1.799999999999984
 30
0.0
 11
-5.218397518115747
 21
0.8999999999999845
 31
0.0
  0
SPLINE
  5
6410
330
63EE
100
AcDbEntity
  8
0
100
AcDbSpline
210
0.0
220
0.0
230
1.0
 70
     8
 71
     3
 72
    11
 73
     7
 74
     0
 42
0.000000001
 43
0.0000000001
 40
0.0000000000000495
 40
0.0000000000000495
 40
0.0000000000000495
 40
0.0000000000000495
 40
1.386766277509556
 40
1.386766277509556
 40
1.386766277509556
 40
1.570796326794894
 40
1.570796326794894
 40
1.570796326794894
 40
1.570796326794894
 10
-5.253657780456389
 20
2.699999999999942
 30
0.0
 10
-5.243281357170095
 20
2.283970116747089
 30
0.0
 10
-5.2329049338838
 20
1.891327789589621
 30
0.0
 10
-5.222528510597506
 20
1.815197213431265
 30
0.0
 10
-5.221151513103587
 20
1.805094347570044
 30
0.0
 10
-5.219774515609667
 20
1.799999999999985
 30
0.0
 10
-5.218397518115748
 20
1.799999999999984
 30
0.0
  0
SPLINE
  5
6411
330
63EE
100
AcDbEntity
  8
0
100
AcDbSpline
210
0.0
220
0.0
230
1.0
 70
     8
 71
     3
 72
    11
 73
     7
 74
     0
 42
0.000000001
 43
0.0000000001
 40
0.0
 40
0.0
 40
0.0
 40
0.0
 40
1.166126791552483
 40
1.166126791552483
 40
1.166126791552483
 40
1.570796326794883
 40
1.570796326794883
 40
1.570796326794883
 40
1.570796326794883
 10
-5.218397518115747
 20
0.8999999999999847
 30
0.0
 10
-5.227123015260347
 20
0.8999999999999868
 30
0.0
 10
-5.235848512404947
 20
1.348147958825671
 30
0.0
 10
-5.244574009549548
 20
1.991312985760842
 30
0.0
 10
-5.247601933185162
 20
2.214504232561305
 30
0.0
 10
-5.250629856820776
 20
2.457198278854527
 30
0.0
 10
-5.253657780456389
 20
2.699999999999968
 30
0.0
  0
LINE
  5
6412
330
63EE
100
AcDbEntity
  8
0
100
AcDbLine
 10
-5.253657780456389
 20
2.699999999999991
 30
0.0
 11
-6.0
 21
40.8
 31
0.0
  0
LINE
  5
6413
330
63EE
100
AcDbEntity
  8
0
100
AcDbLine
 10
4.999040950308777
 20
1.799999999999924
 30
0.0
 11
5.21839751811574
 21
1.799999999999984
 31
0.0
  0
LINE
  5
6414
330
63EE
100
AcDbEntity
  8
0
100
AcDbLine
 10
4.999040950308777
 20
1.799999999999924
 30
0.0
 11
4.999040950308777
 21
0.8999999999999243
 31
0.0
  0
LINE
  5
6415
330
63EE
100
AcDbEntity
  8
0
100
AcDbLine
 10
5.21839751811574
 20
0.8999999999999845
 30
0.0
 11
4.999040950308777
 21
0.8999999999999243
 31
0.0
  0
LINE
  5
6416
330
63EE
100
AcDbEntity
  8
0
100
AcDbLine
 10
-4.999040950308788
 20
1.799999999999925
 30
0.0
 11
4.999040950308771
 21
1.799999999999925
 31
0.0
  0
LINE
  5
6417
330
63EE
100
AcDbEntity
  8
0
100
AcDbLine
 10
-4.999040950308786
 20
1.799999999999924
 30
0.0
 11
-4.999040950308786
 21
0.8999999999999243
 31
0.0
  0
LINE
  5
6418
330
63EE
100
AcDbEntity
  8
0
100
AcDbLine
 10
4.999040950308771
 20
0.8999999999999246
 30
0.0
 11
-4.999040950308788
 21
0.8999999999999246
 31
0.0
  0
LINE
  5
6419
330
63EE
100
AcDbEntity
  8
0
100
AcDbLine
 10
-4.999040950308786
 20
0.8999999999999243
 30
0.0
 11
-5.218397518115747
 21
0.8999999999999845
 31
0.0
  0
LINE
  5
641A
330
63EE
100
AcDbEntity
  8
0
100
AcDbLine
 10
-5.218397518115747
 20
1.799999999999984
 30
0.0
 11
-4.999040950308786
 21
1.799999999999924
 31
0.0
  0
ARC
  5
641B
330
63EE
100
AcDbEntity
  8
0
100
AcDbCircle
 10
-19.4
 20
0.8999999999999847
 30
0.0
 40
0.9
100
AcDbArc
 50
270.0
 51
0.0
  0
ARC
  5
641C
330
63EE
100
AcDbEntity
  8
0
100
AcDbCircle
 10
-22.60000000000001
 20
0.8999999999999847
 30
0.0
 40
0.9000000000000001
100
AcDbArc
 50
180.0
 51
270.0
  0
LINE
  5
641D
330
63EE
100
AcDbEntity
  8
0
100
AcDbLine
 10
-22.60000000000001
 20
2.699999999999997
 30
0.0
 11
-22.60000000000001
 21
0.0
 31
0.0
  0
LINE
  5
641E
330
63EE
100
AcDbEntity
  8
0
100
AcDbLine
 10
-23.50000000000001
 20
2.699999999999986
 30
0.0
 11
-22.60000000000001
 21
2.699999999999989
 31
0.0
  0
LINE
  5
641F
330
63EE
100
AcDbEntity
  8
0
100
AcDbLine
 10
-23.50000000000001
 20
2.69999999999999
 30
0.0
 11
-23.50000000000001
 21
0.8999999999999847
 31
0.0
  0
LINE
  5
6420
330
63EE
100
AcDbEntity
  8
0
100
AcDbLine
 10
-19.4
 20
0.0
 30
0.0
 11
-22.60000000000001
 21
0.0
 31
0.0
  0
LINE
  5
6421
330
63EE
100
AcDbEntity
  8
0
100
AcDbLine
 10
-18.50000000000001
 20
0.8999999999999847
 30
0.0
 11
-18.50000000000001
 21
2.699999999999991
 31
0.0
  0
LINE
  5
6422
330
63EE
100
AcDbEntity
  8
0
100
AcDbLine
 10
-19.4
 20
2.699999999999993
 30
0.0
 11
-18.50000000000001
 21
2.699999999999991
 31
0.0
  0
LINE
  5
6423
330
63EE
100
AcDbEntity
  8
0
100
AcDbLine
 10
-19.4
 20
0.0
 30
0.0
 11
-19.4
 21
2.699999999999993
 31
0.0
  0
LINE
  5
6424
330
63EE
100
AcDbEntity
  8
0
100
AcDbLine
 10
-22.60000000000001
 20
2.699999999999993
 30
0.0
 11
-22.6
 21
8.300000000000002
 31
0.0
  0
LINE
  5
6425
330
63EE
100
AcDbEntity
  8
0
100
AcDbLine
 10
-22.6
 20
8.3
 30
0.0
 11
-23.50000000000001
 21
8.299999999999997
 31
0.0
  0
LINE
  5
6426
330
63EE
100
AcDbEntity
  8
0
100
AcDbLine
 10
-23.50000000000001
 20
2.699999999999991
 30
0.0
 11
-23.50000000000001
 21
8.299999999999997
 31
0.0
  0
LINE
  5
6427
330
63EE
100
AcDbEntity
  8
0
100
AcDbLine
 10
-19.4
 20
2.699999999999993
 30
0.0
 11
-22.60000000000001
 21
2.699999999999993
 31
0.0
  0
ARC
  5
6428
330
63EE
100
AcDbEntity
  8
0
100
AcDbCircle
 10
-21.0
 20
8.299999999999998
 30
0.0
 40
2.499999999999995
100
AcDbArc
 50
0.0
 51
180.0
  0
LINE
  5
6429
330
63EE
100
AcDbEntity
  8
0
100
AcDbLine
 10
-18.50000000000001
 20
8.299999999999998
 30
0.0
 11
-18.50000000000001
 21
2.699999999999991
 31
0.0
  0
LINE
  5
642A
330
63EE
100
AcDbEntity
  8
0
100
AcDbLine
 10
-18.50000000000001
 20
8.299999999999998
 30
0.0
 11
-19.4
 21
8.300000000000002
 31
0.0
  0
ARC
  5
642B
330
63EE
100
AcDbEntity
  8
0
100
AcDbCircle
 10
-21.0
 20
8.300000000000002
 30
0.0
 40
1.599999999999995
100
AcDbArc
 50
0.0
 51
180.0
  0
LINE
  5
642C
330
63EE
100
AcDbEntity
  8
0
100
AcDbLine
 10
-19.4
 20
8.300000000000002
 30
0.0
 11
-19.4
 21
2.699999999999994
 31
0.0
  0
LINE
  5
642D
330
63EE
100
AcDbEntity
  8
0
100
AcDbLine
 10
-5.218397518115747
 20
0.8999999999999845
 30
0.0
 11
-18.50000000000001
 21
0.8999999999999845
 31
0.0
  0
LINE
  5
642E
330
63EE
100
AcDbEntity
  8
0
100
AcDbLine
 10
-23.50000000000001
 20
0.8999999999999845
 30
0.0
 11
-26.0
 21
0.8999999999999854
 31
0.0
  0
LINE
  5
642F
330
63EE
100
AcDbEntity
  8
0
100
AcDbLine
 10
26.0
 20
0.8999999999999854
 30
0.0
 11
23.5
 21
0.8999999999999845
 31
0.0
  0
LINE
  5
6430
330
63EE
100
AcDbEntity
  8
0
100
AcDbLine
 10
18.5
 20
0.8999999999999845
 30
0.0
 11
5.21839751811574
 21
0.8999999999999845
 31
0.0
  0
LINE
  5
6431
330
63EE
100
AcDbEntity
  8
0
100
AcDbLine
 10
-5.253657780456389
 20
2.699999999999991
 30
0.0
 11
-18.50000000000001
 21
2.699999999999991
 31
0.0
  0
LINE
  5
6432
330
63EE
100
AcDbEntity
  8
0
100
AcDbLine
 10
-23.50000000000001
 20
2.699999999999991
 30
0.0
 11
-26.0
 21
2.699999999999991
 31
0.0
  0
LINE
  5
6433
330
63EE
100
AcDbEntity
  8
0
100
AcDbLine
 10
-26.0
 20
0.8999999999999857
 30
0.0
 11
-26.0
 21
2.699999999999991
 31
0.0
  0
LINE
  5
6434
330
63EE
100
AcDbEntity
  8
0
100
AcDbLine
 10
18.5
 20
2.699999999999988
 30
0.0
 11
5.253657780456384
 21
2.699999999999988
 31
0.0
  0
LINE
  5
6435
330
63EE
100
AcDbEntity
  8
0
100
AcDbLine
 10
26.0
 20
2.699999999999988
 30
0.0
 11
23.5
 21
2.699999999999988
 31
0.0
  0
LINE
  5
6436
330
63EE
100
AcDbEntity
  8
0
100
AcDbLine
 10
26.0
 20
0.8999999999999857
 30
0.0
 11
26.0
 21
2.699999999999988
 31
0.0
  0
LINE
  5
6437
330
63EE
100
AcDbEntity
  8
0
100
AcDbLine
 10
26.0
 20
0.0
 30
0.0
 11
22.6
 21
0.0
 31
0.0
  0
LINE
  5
6438
330
63EE
100
AcDbEntity
  8
0
100
AcDbLine
 10
19.4
 20
0.0
 30
0.0
 11
-19.4
 21
0.0
 31
0.0
  0
LINE
  5
6439
330
63EE
100
AcDbEntity
  8
0
100
AcDbLine
 10
-22.60000000000001
 20
0.0
 30
0.0
 11
-26.0
 21
0.0
 31
0.0
  0
LINE
  5
643A
330
63EE
100
AcDbEntity
  8
0
100
AcDbLine
 10
26.0
 20
0.899999999999774
 30
0.0
 11
26.0
 21
0.0
 31
0.0
  0
LINE
  5
643B
330
63EE
100
AcDbEntity
  8
0
100
AcDbLine
 10
-26.0
 20
0.899999999999774
 30
0.0
 11
-26.0
 21
0.0
 31
0.0
  0
LINE
  5
643C
330
63EE
100
AcDbEntity
  8
0
100
AcDbLine
 10
-26.0
 20
40.8
 30
0.0
 11
-6.0
 21
40.8
 31
0.0
  0
LINE
  5
643D
330
63EE
100
AcDbEntity
  8
0
100
AcDbLine
 10
6.0
 20
40.79999999999999
 30
0.0
 11
26.0
 21
40.79999999999999
 31
0.0
  0
LINE
  5
643E
330
63EE
100
AcDbEntity
  8
0
100
AcDbLine
 10
-26.0
 20
40.8
 30
0.0
 11
-26.0
 21
2.699999999999995
 31
0.0
  0
LINE
  5
643F
330
63EE
100
AcDbEntity
  8
0
100
AcDbLine
 10
26.0
 20
40.79999999999999
 30
0.0
 11
26.0
 21
2.699999999999986
 31
0.0
  0
LINE
  5
6440
330
63EE
100
AcDbEntity
  8
0
100
AcDbLine
 10
-26.0
 20
0.0
 30
0.0
 11
-26.0
 21
-7.00000000000025
 31
0.0
  0
LINE
  5
6441
330
63EE
100
AcDbEntity
  8
0
100
AcDbLine
 10
26.0
 20
0.0
 30
0.0
 11
26.0
 21
-30.10000000000026
 31
0.0
  0
LINE
  5
6442
330
63EE
100
AcDbEntity
  8
0
100
AcDbLine
 10
21.0
 20
-30.10000000000026
 30
0.0
 11
26.0
 21
-30.10000000000026
 31
0.0
  0
ARC
  5
6443
330
63EE
100
AcDbEntity
  8
0
100
AcDbCircle
 10
-15.0
 20
34.8
 30
0.0
 40
2.0
100
AcDbArc
 50
90.0
 51
270.0
  0
LINE
  5
6444
330
63EE
100
AcDbEntity
  8
0
100
AcDbLine
 10
-15.0
 20
36.80000000000001
 30
0.0
 11
-12.99999999999998
 21
36.8
 31
0.0
  0
ARC
  5
6445
330
63EE
100
AcDbEntity
  8
0
100
AcDbCircle
 10
-12.99999999999998
 20
34.8
 30
0.0
 40
2.0
100
AcDbArc
 50
270.0
 51
90.0
  0
LINE
  5
6446
330
63EE
100
AcDbEntity
  8
0
100
AcDbLine
 10
-12.99999999999998
 20
32.8
 30
0.0
 11
-15.0
 21
32.80000000000001
 31
0.0
  0
ARC
  5
6447
330
63EE
100
AcDbEntity
  8
0
100
AcDbCircle
 10
15.0
 20
34.8
 30
0.0
 40
2.0
100
AcDbArc
 50
270.0
 51
90.0
  0
LINE
  5
6448
330
63EE
100
AcDbEntity
  8
0
100
AcDbLine
 10
15.0
 20
32.8
 30
0.0
 11
12.99999999999997
 21
32.8
 31
0.0
  0
ARC
  5
6449
330
63EE
100
AcDbEntity
  8
0
100
AcDbCircle
 10
12.99999999999997
 20
34.8
 30
0.0
 40
1.999999999999999
100
AcDbArc
 50
90.0
 51
270.0
  0
LINE
  5
644A
330
63EE
100
AcDbEntity
  8
0
100
AcDbLine
 10
12.99999999999997
 20
36.79999999999999
 30
0.0
 11
15.0
 21
36.79999999999999
 31
0.0
  0
LINE
  5
644B
330
63EE
100
AcDbEntity
  8
0
100
AcDbLine
 10
11.78180373400476
 20
-10.21926307426063
 30
0.0
 11
15.14183551919429
 21
-25.3968843108878
 31
0.0
  0
ARC
  5
644C
330
63EE
100
AcDbEntity
  8
0
100
AcDbCircle
 10
21.0
 20
-24.10000000000025
 30
0.0
 40
6.0
100
AcDbArc
 50
192.4828505689279
 51
269.9999999999999
  0
LINE
  5
644D
330
63EE
100
AcDbEntity
  8
0
100
AcDbLine
 10
-15.68435933777483
 20
-11.49702733935588
 30
0.0
 11
-11.84058889190002
 21
-26.35247721720389
 31
0.0
  0
ARC
  5
644E
330
63EE
100
AcDbEntity
  8
0
100
AcDbCircle
 10
-7.000000000000006
 20
-25.10000000000026
 30
0.0
 40
5.0
100
AcDbArc
 50
194.5068319038823
 51
345.4931680961176
  0
LINE
  5
644F
330
63EE
100
AcDbEntity
  8
0
100
AcDbLine
 10
-2.159411108099988
 20
-26.35247721720389
 30
0.0
 11
2.059411108099982
 21
-10.04752278279659
 31
0.0
  0
ARC
  5
6450
330
63EE
100
AcDbEntity
  8
0
100
AcDbCircle
 10
6.899999999999999
 20
-11.30000000000024
 30
0.0
 40
5.0
100
AcDbArc
 50
12.48285056892779
 51
165.4931680961174
  0
LINE
  5
6451
330
63EE
100
AcDbEntity
  8
0
100
AcDbLine
 10
-26.0
 20
-7.000000000000249
 30
0.0
 11
-21.49306600805486
 21
-7.000000000000249
 31
0.0
  0
ARC
  5
6452
330
63EE
100
AcDbEntity
  8
0
100
AcDbCircle
 10
-21.49306600805486
 20
-13.00000000000024
 30
0.0
 40
6.0
100
AcDbArc
 50
14.5068319038824
 51
90.0
  0
ENDBLK
  5
63F0
330
63EE
100
AcDbEntity
  8
0
100
AcDbBlockEnd
  0
BLOCK
  5
6454
330
6453
100
AcDbEntity
  8
0
100
AcDbBlockBegin
  2
ZS45N-ISO
 70
     0
 10
0.0
 20
0.0
 30
0.0
  3
ZS45N-ISO
  1

  0
LINE
  5
6456
330
6453
100
AcDbEntity
  8
0
100
AcDbLine
 10
2.453494879007742
 20
10.58775740381939
 30
0.0
 11
1.183206054330528
 21
8.780581349340941
 31
0.0
  0
LINE
  5
6457
330
6453
100
AcDbEntity
  8
0
100
AcDbLine
 10
2.024158452378756
 20
10.51490733534941
 30
0.0
 11
2.229596069428879
 21
10.63351679885498
 31
0.0
  0
LINE
  5
6458
330
6453
100
AcDbEntity
  8
0
100
AcDbLine
 10
0.5468099512626356
 20
8.413157887923469
 30
0.0
 11
2.024158452378756
 21
10.51490733534941
 31
0.0
  0
LINE
  5
6459
330
6453
100
AcDbEntity
  8
0
100
AcDbLine
 10
0.5468099512626356
 20
8.413157887923469
 30
0.0
 11
1.183206054330528
 21
8.780581349340941
 31
0.0
  0
ELLIPSE
  5
645A
330
6453
100
AcDbEntity
  8
0
100
AcDbEllipse
 10
1.66927667516406
 20
8.17590126500184
 30
0.0
 11
-0.3968749999999968
 21
0.6874076642538998
 31
0.0
210
0.0
220
0.0
230
1.0
 40
0.5773502691896289
 41
0.26179938779915
 42
2.356194490192346
  0
ELLIPSE
  5
645B
330
6453
100
AcDbEntity
  8
0
100
AcDbEllipse
 10
1.032880572096168
 20
7.808477803584368
 30
0.0
 11
-0.3968749999999559
 21
0.6874076642539235
 31
0.0
210
0.0
220
0.0
230
0.9999999999999998
 40
0.5773502691896287
 41
0.2617993877995124
 42
2.356194490192589
  0
LINE
  5
645C
330
6453
100
AcDbEntity
  8
0
100
AcDbLine
 10
1.032880572096165
 20
7.160383642472982
 30
0.0
 11
1.669276675164057
 21
7.527807103890456
 31
0.0
  0
LINE
  5
645D
330
6453
100
AcDbEntity
  8
0
100
AcDbLine
 10
1.669276675164057
 20
7.527807103890456
 30
0.0
 11
4.543792460860559
 21
5.868204641228748
 31
0.0
  0
LINE
  5
645E
330
6453
100
AcDbEntity
  8
0
100
AcDbLine
 10
3.98757757432838
 20
5.454488532860432
 30
0.0
 11
1.032880572096165
 21
7.160383642472982
 31
0.0
  0
LINE
  5
645F
330
6453
100
AcDbEntity
  8
0
100
AcDbLine
 10
3.98757757432838
 20
5.454488532860432
 30
0.0
 11
4.548843581895206
 21
5.778535613416122
 31
0.0
  0
ELLIPSE
  5
6460
330
6453
100
AcDbEntity
  8
0
100
AcDbEllipse
 10
3.987577574328383
 20
6.102582693971816
 30
0.0
 11
0.3968749999999969
 21
-0.6874076642538997
 31
0.0
210
0.0
220
0.0
230
1.0
 40
0.5773502691896291
 41
5.49778714378214
 42
7.592182246175331
  0
LINE
  5
6461
330
6453
100
AcDbEntity
  8
0
100
AcDbLine
 10
2.99629969404583
 20
9.953641327782591
 30
0.0
 11
4.473648195161919
 21
6.145996770744092
 31
0.0
  0
ELLIPSE
  5
6462
330
6453
100
AcDbEntity
  8
0
100
AcDbEllipse
 10
2.510229073212291
 20
9.910227251010308
 30
0.0
 11
-0.3968749999999968
 21
0.6874076642539002
 31
0.0
210
0.0
220
0.0
230
1.0
 40
0.5773502691896288
 41
4.450589592585547
 42
6.544984694978735
  0
ELLIPSE
  5
6463
330
6453
100
AcDbEntity
  8
0
100
AcDbEllipse
 10
36.38064389204791
 20
22.59654287717442
 30
0.0
 11
2.0
 21
-0.0000000000000344
 31
0.0
210
0.0
220
0.0
230
1.0
 40
0.5773502691896143
 41
0.3238281385752981
 42
2.817764515014498
  0
ELLIPSE
  5
6464
330
6453
100
AcDbEntity
  8
0
100
AcDbEllipse
 10
36.38064389204792
 20
23.33138980000938
 30
0.0
 11
2.0
 21
-0.000000000000154
 31
0.0
210
0.0
220
0.0
230
1.0
 40
0.5773502691896143
 41
0.0
 42
6.283185307179586
  0
ELLIPSE
  5
6465
330
6453
100
AcDbEntity
  8
0
100
AcDbEllipse
 10
16.58165401882458
 20
34.02749501016258
 30
0.0
 11
1.999999999999999
 21
-0.0000000000000348
 31
0.0
210
0.0
220
0.0
230
1.0
 40
0.5773502691896143
 41
0.3238281385752943
 42
2.817764515014494
  0
ELLIPSE
  5
6466
330
6453
100
AcDbEntity
  8
0
100
AcDbEllipse
 10
16.58165401882459
 20
34.76234193299754
 30
0.0
 11
2.0
 21
-0.000000000000154
 31
0.0
210
0.0
220
0.0
230
1.0
 40
0.5773502691896143
 41
0.0
 42
6.283185307179586
  0
ELLIPSE
  5
6467
330
6453
100
AcDbEntity
  8
0
100
AcDbEllipse
 10
8.448662939790111
 20
31.77265245381285
 30
0.0
 11
-0.7937499999999976
 21
0.0000000000000136
 31
0.0
210
0.0
220
0.0
230
1.0
 40
0.5773502691896145
 41
4.974188368183845
 42
7.06858347057704
  0
ELLIPSE
  5
6468
330
6453
100
AcDbEntity
  8
0
100
AcDbEllipse
 10
8.448662939790096
 20
31.03780553097789
 30
0.0
 11
-0.7937499999999976
 21
0.0000000000000136
 31
0.0
210
0.0
220
0.0
230
1.0
 40
0.5773502691896146
 41
4.974188368183845
 42
5.363525871857336
  0
LINE
  5
6469
330
6453
100
AcDbEntity
  8
0
100
AcDbLine
 10
8.243225322739986
 20
32.2153089978741
 30
0.0
 11
8.243225322739974
 21
31.48046207503913
 31
0.0
  0
LINE
  5
646A
330
6453
100
AcDbEntity
  8
0
100
AcDbLine
 10
10.8420939344555
 20
29.74271026364462
 30
0.0
 11
7.887396932223287
 21
31.44860537325717
 31
0.0
  0
ELLIPSE
  5
646B
330
6453
100
AcDbEntity
  8
0
100
AcDbEllipse
 10
11.40335994202232
 20
30.0667573442003
 30
0.0
 11
0.7937499999999999
 21
-0.0000000000000135
 31
0.0
210
0.0
220
0.0
230
1.0
 40
0.5773502691896146
 41
3.926990816987255
 42
6.02138591938045
  0
LINE
  5
646C
330
6453
100
AcDbEntity
  8
0
100
AcDbLine
 10
13.25155772994198
 20
32.27844393661705
 30
0.0
 11
12.17006356663927
 21
29.94814788069473
 31
0.0
  0
ELLIPSE
  5
646D
330
6453
100
AcDbEntity
  8
0
100
AcDbEllipse
 10
12.48485410532504
 20
32.39705340012263
 30
0.0
 11
0.7937499999999999
 21
-0.0000000000000136
 31
0.0
210
0.0
220
0.0
230
1.0
 40
0.5773502691896143
 41
6.02138591938045
 42
8.115781021773642
  0
LINE
  5
646E
330
6453
100
AcDbEntity
  8
0
100
AcDbLine
 10
12.27941648827491
 20
32.83970994418387
 30
0.0
 11
12.2794164882749
 21
32.10486302134891
 31
0.0
  0
ELLIPSE
  5
646F
330
6453
100
AcDbEntity
  8
0
100
AcDbEllipse
 10
12.48485410532502
 20
31.66220647728767
 30
0.0
 11
-0.7937500000000002
 21
-0.0000000000000339
 31
0.0
210
0.0
220
0.0
230
1.0
 40
0.5773502691896143
 41
3.825735341508675
 42
4.974188368183694
  0
LINE
  5
6470
330
6453
100
AcDbEntity
  8
0
100
AcDbLine
 10
8.243225322739986
 20
32.2153089978741
 30
0.0
 11
12.27941648827491
 21
32.83970994418387
 31
0.0
  0
LINE
  5
6471
330
6453
100
AcDbEntity
  8
0
100
AcDbLine
 10
12.2794164882749
 20
32.10486302134891
 30
0.0
 11
8.243225322739974
 21
31.48046207503913
 31
0.0
  0
SPLINE
  5
6472
330
6453
100
AcDbEntity
  8
0
100
AcDbSpline
210
0.0
220
0.0
230
1.0
 70
     8
 71
     3
 72
    11
 73
     7
 74
     0
 42
0.000000001
 43
0.0000000001
 40
0.0
 40
0.0
 40
0.0
 40
0.0
 40
1.386766277509507
 40
1.386766277509507
 40
1.386766277509507
 40
1.570796326794869
 40
1.570796326794869
 40
1.570796326794869
 40
1.570796326794869
 10
6.200193345198856
 20
-17.95002312120633
 30
0.0
 10
6.207530584469056
 20
-18.29394625551381
 30
0.0
 10
5.98413791341451
 20
-18.75198550606924
 30
0.0
 10
5.702265022214517
 20
-18.98535756495371
 30
0.0
 10
5.664859236610252
 20
-19.01632707452058
 30
0.0
 10
5.626794997210367
 20
-19.04358730450334
 30
0.0
 10
5.588730012738461
 20
-19.06668844728063
 30
0.0
  0
LINE
  5
6473
330
6453
100
AcDbEntity
  8
0
100
AcDbLine
 10
-20.8242947059439
 20
-34.9256412491835
 30
0.0
 11
-20.8242947059439
 21
-35.66048817201847
 31
0.0
  0
LINE
  5
6474
330
6453
100
AcDbEntity
  8
0
100
AcDbLine
 10
5.588730012738447
 20
-19.06668844728064
 30
0.0
 11
-20.8242947059439
 21
-34.9256412491835
 31
0.0
  0
LINE
  5
6475
330
6453
100
AcDbEntity
  8
0
100
AcDbLine
 10
-1.179735198774525
 20
-13.68921938974309
 30
0.0
 11
-0.5433390957066332
 21
-13.32179592832562
 31
0.0
  0
SPLINE
  5
6476
330
6453
100
AcDbEntity
  8
0
100
AcDbSpline
210
0.0
220
0.0
230
1.0
 70
     8
 71
     3
 72
    11
 73
     7
 74
     0
 42
0.000000001
 43
0.0000000001
 40
0.0000000000000495
 40
0.0000000000000495
 40
0.0000000000000495
 40
0.0000000000000495
 40
1.386766277509556
 40
1.386766277509556
 40
1.386766277509556
 40
1.570796326794894
 40
1.570796326794894
 40
1.570796326794894
 40
1.570796326794894
 10
-1.841064072449873
 20
-14.77709483217363
 30
0.0
 10
-1.539549281555332
 20
-14.61148750062151
 30
0.0
 10
-1.25457199017122
 20
-14.18900414719129
 30
0.0
 10
-1.193402304243806
 20
-13.8282090333317
 30
0.0
 10
-1.185284815018292
 20
-13.78032991796647
 30
0.0
 10
-1.180708883040154
 20
-13.73373520467906
 30
0.0
 10
-1.179735198774527
 20
-13.68921938974309
 30
0.0
  0
LINE
  5
6477
330
6453
100
AcDbEntity
  8
0
100
AcDbLine
 10
-1.841064072449906
 20
-14.77709483217365
 30
0.0
 11
-1.841064072449908
 21
-15.5119417550086
 31
0.0
  0
SPLINE
  5
6478
330
6453
100
AcDbEntity
  8
0
100
AcDbSpline
210
0.0
220
0.0
230
1.0
 70
     8
 71
     3
 72
    11
 73
     7
 74
     0
 42
0.000000001
 43
0.0000000001
 40
0.0
 40
0.0
 40
0.0
 40
0.0
 40
1.166126791552483
 40
1.166126791552483
 40
1.166126791552483
 40
1.570796326794883
 40
1.570796326794883
 40
1.570796326794883
 40
1.570796326794883
 10
-0.5433390957066332
 20
-13.32179592832562
 30
0.0
 10
-0.549508953906806
 20
-13.88951688197139
 30
0.0
 10
-0.8725672727675275
 20
-14.62369491925948
 30
0.0
 10
-1.333523482935586
 20
-15.10762651196612
 30
0.0
 10
-1.49348459238533
 20
-15.27556054292085
 30
0.0
 10
-1.667236263608529
 20
-15.41405451207718
 30
0.0
 10
-1.841064072449892
 20
-15.51194175500859
 30
0.0
  0
LINE
  5
6479
330
6453
100
AcDbEntity
  8
0
100
AcDbLine
 10
-29.30957608018247
 20
-30.02666176361705
 30
0.0
 11
-1.841064072449909
 21
-14.77709483217365
 31
0.0
  0
LINE
  5
647A
330
6453
100
AcDbEntity
  8
0
100
AcDbLine
 10
-29.30957608018248
 20
-30.76150868645201
 30
0.0
 11
-29.30957608018247
 21
-30.02666176361705
 31
0.0
  0
LINE
  5
647B
330
6453
100
AcDbEntity
  8
0
100
AcDbLine
 10
-1.841064072449908
 20
-15.5119417550086
 30
0.0
 11
-29.30957608018248
 21
-30.76150868645201
 31
0.0
  0
LINE
  5
647C
330
6453
100
AcDbEntity
  8
0
100
AcDbLine
 10
6.045084828604789
 20
-8.717402569493938
 30
0.0
 11
6.200193345198856
 21
-17.95002312120633
 31
0.0
  0
ELLIPSE
  5
647D
330
6453
100
AcDbEntity
  8
0
100
AcDbEllipse
 10
2.510229073212203
 20
-6.756509207176932
 30
0.0
 11
-2.49999999999998
 21
4.330127018922202
 31
0.0
210
0.0
220
0.0
230
1.0
 40
0.577350269189629
 41
3.946577346562433
 42
7.048996941001846
  0
LINE
  5
647E
330
6453
100
AcDbEntity
  8
0
100
AcDbLine
 10
-1.024626682180374
 20
-4.635702725649126
 30
0.0
 11
-0.3882305791124824
 21
-4.268279264231651
 31
0.0
  0
ELLIPSE
  5
647F
330
6453
100
AcDbEntity
  8
0
100
AcDbEllipse
 10
3.146625176280096
 20
-6.389085745759457
 30
0.0
 11
-2.49999999999998
 21
4.330127018922203
 31
0.0
210
0.0
220
0.0
230
0.9999999999999998
 40
0.5773502691896291
 41
0.1276254041733343
 42
0.7658116338222613
  0
LINE
  5
6480
330
6453
100
AcDbEntity
  8
0
100
AcDbLine
 10
-0.3882305791124824
 20
-4.268279264231651
 30
0.0
 11
-0.5433390957066332
 21
-13.32179592832562
 31
0.0
  0
LINE
  5
6481
330
6453
100
AcDbEntity
  8
0
100
AcDbLine
 10
-1.179735198774525
 20
-13.68921938974309
 30
0.0
 11
-1.024626682180374
 21
-4.635702725649126
 31
0.0
  0
ELLIPSE
  5
6482
330
6453
100
AcDbEntity
  8
0
100
AcDbEllipse
 10
16.22810062823118
 20
-23.00479116763872
 30
0.0
 11
0.8999999999999998
 21
0.000000000000046
 31
0.0
210
0.0
220
0.0
230
1.0
 40
0.5773502691896201
 41
3.926990816987006
 42
5.497787143781901
  0
LINE
  5
6483
330
6453
100
AcDbEntity
  8
0
100
AcDbLine
 10
16.86449673129908
 20
-23.37221462905619
 30
0.0
 11
16.86449673129919
 21
-2.388252499213567
 31
0.0
  0
ELLIPSE
  5
6484
330
6453
100
AcDbEntity
  8
0
100
AcDbEllipse
 10
16.22810062823129
 20
-2.020829037796092
 30
0.0
 11
-0.9000000000000007
 21
0.000000000000058
 31
0.0
210
0.0
220
0.0
230
1.0
 40
0.5773502691896226
 41
0.7853981633976926
 42
2.356194490192589
  0
LINE
  5
6485
330
6453
100
AcDbEntity
  8
0
100
AcDbLine
 10
15.5917045251634
 20
-2.388252499213567
 30
0.0
 11
15.59170452516329
 21
-23.37221462905618
 31
0.0
  0
ELLIPSE
  5
6486
330
6453
100
AcDbEntity
  8
0
100
AcDbEllipse
 10
19.76363453416392
 20
-25.04603261995802
 30
0.0
 11
-0.9
 21
0.0000000000000006
 31
0.0
210
0.0
220
0.0
230
1.0
 40
0.577350269189623
 41
0.0000000000000036
 42
0.7853981633974541
  0
ELLIPSE
  5
6487
330
6453
100
AcDbEntity
  8
0
100
AcDbEllipse
 10
18.49084232802813
 20
-27.25057338846287
 30
0.0
 11
-0.4499999999999986
 21
0.7794228634059958
 31
0.0
210
0.0
220
0.0
230
1.0
 40
0.5773502691896243
 41
5.497787143782153
 42
6.283185307179608
  0
ELLIPSE
  5
6488
330
6453
100
AcDbEntity
  8
0
100
AcDbEllipse
 10
18.49084232802814
 20
-25.78087954279296
 30
0.0
 11
0.449999999999954
 21
0.7794228634060227
 31
0.0
210
0.0
220
0.0
230
1.0
 40
0.5773502691896257
 41
3.926990816986995
 42
5.497787143781891
  0
ELLIPSE
  5
6489
330
6453
100
AcDbEntity
  8
0
100
AcDbEllipse
 10
17.99586758119765
 20
-3.041449763955745
 30
0.0
 11
-0.7999999999999918
 21
1.385640646055101
 31
0.0
210
0.0
220
0.0
230
1.0
 40
0.5773502691896289
 41
0.0093768775261935
 42
0.785398163397451
  0
ELLIPSE
  5
648A
330
6453
100
AcDbEntity
  8
0
100
AcDbEllipse
 10
14.9553084220954
 20
-23.73963809047365
 30
0.0
 11
-0.4500000000000471
 21
-0.7794228634059686
 31
0.0
210
0.0
220
0.0
230
1.0
 40
0.5773502691896259
 41
0.7853981633976908
 42
2.356194490192589
  0
ELLIPSE
  5
648B
330
6453
100
AcDbEntity
  8
0
100
AcDbEllipse
 10
14.95530842209539
 20
-25.20933193614356
 30
0.0
 11
0.4499999999999544
 21
-0.7794228634060212
 31
0.0
210
0.0
220
0.0
230
1.0
 40
0.5773502691896252
 41
0.7853981633976819
 42
2.356194490192585
  0
ELLIPSE
  5
648C
330
6453
100
AcDbEntity
  8
0
100
AcDbEllipse
 10
15.59170452516329
 20
-24.10706155189113
 30
0.0
 11
0.8999999999999076
 21
1.558845726812044
 31
0.0
210
0.0
220
0.0
230
1.0
 40
0.5773502691896258
 41
3.926990816986998
 42
5.497787143781891
  0
ELLIPSE
  5
648D
330
6453
100
AcDbEntity
  8
0
100
AcDbEllipse
 10
14.53104435338346
 20
-29.53676381506051
 30
0.0
 11
-0.4499999999999994
 21
0.7794228634059937
 31
0.0
210
0.0
220
0.0
230
1.0
 40
0.5773502691896259
 41
5.497787143782137
 42
6.283185307179586
  0
LINE
  5
648E
330
6453
100
AcDbEntity
  8
0
100
AcDbLine
 10
14.53104435338346
 20
-28.80191689222556
 30
0.0
 11
18.49084232802813
 21
-26.51572646562792
 31
0.0
  0
ELLIPSE
  5
648F
330
6453
100
AcDbEntity
  8
0
100
AcDbEllipse
 10
12.7632774004171
 20
-27.7812961660659
 30
0.0
 11
-2.499999999999995
 21
-0.0000000000000003
 31
0.0
210
0.0
220
0.0
230
1.0
 40
0.5773502691896257
 41
5.497787143782137
 42
8.63937979737193
  0
LINE
  5
6490
330
6453
100
AcDbEntity
  8
0
100
AcDbLine
 10
14.9553084220954
 20
-24.47448501330861
 30
0.0
 11
10.99551044745073
 21
-26.76067543990625
 31
0.0
  0
ELLIPSE
  5
6491
330
6453
100
AcDbEntity
  8
0
100
AcDbEllipse
 10
17.35947147812976
 20
-3.408873225373221
 30
0.0
 11
-1.250000000000116
 21
2.165063509461023
 31
0.0
210
0.0
220
0.0
230
1.0
 40
0.577350269189629
 41
3.926990816987004
 42
7.068583470576796
  0
LINE
  5
6492
330
6453
100
AcDbEntity
  8
0
100
AcDbLine
 10
19.12723843109603
 20
-25.41345608137549
 30
0.0
 11
19.12723843109613
 21
-4.429493951532874
 31
0.0
  0
ELLIPSE
  5
6493
330
6453
100
AcDbEntity
  8
0
100
AcDbEllipse
 10
10.99551044745073
 20
-27.4955223627412
 30
0.0
 11
-0.4500000000000438
 21
0.7794228634059626
 31
0.0
210
0.0
220
0.0
230
1.0
 40
0.5773502691896258
 41
3.926990816987
 42
5.497787143781895
  0
LINE
  5
6494
330
6453
100
AcDbEntity
  8
0
100
AcDbLine
 10
11.63190655051862
 20
-27.86294582415867
 30
0.0
 11
15.59170452516329
 21
-25.57675539756104
 31
0.0
  0
ELLIPSE
  5
6495
330
6453
100
AcDbEntity
  8
0
100
AcDbEllipse
 10
19.76363453416402
 20
-4.062070490115399
 30
0.0
 11
-0.8999999999999985
 21
0.0000000000000049
 31
0.0
210
0.0
220
0.0
230
1.0
 40
0.5773502691896226
 41
0.0
 42
0.7853981633974483
  0
ELLIPSE
  5
6496
330
6453
100
AcDbEntity
  8
0
100
AcDbEllipse
 10
12.7632774004171
 20
-28.51614308890085
 30
0.0
 11
-1.599999999999995
 21
0.0
 31
0.0
210
0.0
220
0.0
230
1.0
 40
0.5773502691896257
 41
5.497787143782137
 42
6.273808429653387
  0
SPLINE
  5
6497
330
6453
100
AcDbEntity
  8
0
100
AcDbSpline
210
0.0
220
0.0
230
1.0
 70
     8
 71
     3
 72
    20
 73
    16
 74
     0
 42
0.000000001
 43
0.0000000001
 40
4.712388980384684
 40
4.712388980384684
 40
4.712388980384684
 40
4.712388980384684
 40
4.91911264686226
 40
4.91911264686226
 40
5.142574119643874
 40
5.142574119643874
 40
5.38162872416113
 40
5.38162872416113
 40
5.629603041756233
 40
5.629603041756233
 40
5.877267536718721
 40
5.877267536718721
 40
6.114931450740434
 40
6.114931450740434
 40
6.283185307179578
 40
6.283185307179578
 40
6.283185307179578
 40
6.283185307179578
 10
18.04084232802813
 20
-26.47115052505688
 30
0.0
 10
18.0820349269095
 20
-26.4473679670041
 30
0.0
 10
18.13037323654518
 20
-26.41434098346661
 30
0.0
 10
18.23701480337851
 20
-26.32694676300876
 30
0.0
 10
18.29579376580564
 20
-26.27112233924917
 30
0.0
 10
18.41573851810521
 20
-26.13832203081102
 30
0.0
 10
18.47678601006911
 20
-26.06017238545875
 30
0.0
 10
18.59142618170485
 20
-25.88927385944924
 30
0.0
 10
18.64465117384032
 20
-25.79610331437234
 30
0.0
 10
18.73495319347339
 20
-25.60781967824273
 30
0.0
 10
18.77202830046304
 20
-25.51271580907146
 30
0.0
 10
18.82622972773089
 20
-25.33580045373228
 30
0.0
 10
18.84405658767991
 20
-25.25362298819093
 30
0.0
 10
18.86073449553764
 20
-25.13061817821388
 30
0.0
 10
18.86363453416392
 20
-25.084746204876
 30
0.0
 10
18.86363453416392
 20
-25.04603261995802
 30
0.0
  0
LINE
  5
6498
330
6453
100
AcDbEntity
  8
0
100
AcDbLine
 10
18.04084232802813
 20
-26.47115052505688
 30
0.0
 11
14.08104435338346
 21
-28.75734095165451
 31
0.0
  0
SPLINE
  5
6499
330
6453
100
AcDbEntity
  8
0
100
AcDbSpline
210
0.0
220
0.0
230
1.0
 70
     8
 71
     3
 72
    24
 73
    20
 74
     0
 42
0.000000001
 43
0.0000000001
 40
4.08995541914775
 40
4.08995541914775
 40
4.08995541914775
 40
4.08995541914775
 40
4.398229715025712
 40
4.398229715025712
 40
4.640084650872373
 40
4.640084650872373
 40
4.87699496901245
 40
4.87699496901245
 40
5.127353086333479
 40
5.127353086333479
 40
5.39067068369393
 40
5.39067068369393
 40
5.660900423611623
 40
5.660900423611623
 40
5.930296042682115
 40
5.930296042682115
 40
6.190907541946707
 40
6.190907541946707
 40
6.283185307179585
 40
6.283185307179585
 40
6.283185307179585
 40
6.283185307179585
 10
17.18454377900457
 20
-1.660853113826052
 30
0.0
 10
17.18454377900457
 20
-1.660853113826057
 30
0.0
 10
17.20967336437101
 20
-1.654427969962717
 30
0.0
 10
17.31957163294005
 20
-1.676645588707459
 30
0.0
 10
17.38830825272092
 20
-1.698613546780394
 30
0.0
 10
17.54949196616485
 20
-1.778192303168109
 30
0.0
 10
17.64111971911938
 20
-1.8348104156621
 30
0.0
 10
17.83798134012019
 20
-1.98622778493557
 30
0.0
 10
17.94365129323437
 20
-2.082876484181359
 30
0.0
 10
18.15461337279748
 20
-2.311991600133596
 30
0.0
 10
18.25960561366292
 20
-2.44598647580815
 30
0.0
 10
18.45294160722751
 20
-2.737505243199875
 30
0.0
 10
18.54076516483087
 20
-2.895522011832287
 30
0.0
 10
18.68654968057482
 20
-3.214351868362586
 30
0.0
 10
18.7445578813968
 20
-3.375135123455561
 30
0.0
 10
18.82545174829413
 20
-3.675454797043808
 30
0.0
 10
18.84932808816524
 20
-3.81546936921592
 30
0.0
 10
18.86207551335115
 20
-3.981888600167633
 30
0.0
 10
18.86363453416402
 20
-4.023257890277318
 30
0.0
 10
18.86363453416402
 20
-4.062070490115394
 30
0.0
  0
LINE
  5
649A
330
6453
100
AcDbEntity
  8
0
100
AcDbLine
 10
18.86363453416403
 20
-4.062070490115399
 30
0.0
 11
18.86363453416392
 21
-25.04603261995802
 31
0.0
  0
SPLINE
  5
649B
330
6453
100
AcDbEntity
  8
0
100
AcDbSpline
210
0.0
220
0.0
230
1.0
 70
     8
 71
     3
 72
    24
 73
    20
 74
     0
 42
0.000000001
 43
0.0000000001
 40
0.0
 40
0.0
 40
0.0
 40
0.0
 40
0.2404833943815377
 40
0.2404833943815377
 40
0.4952826284508357
 40
0.4952826284508357
 40
0.7615079081133704
 40
0.7615079081133704
 40
1.032338512924996
 40
1.032338512924996
 40
1.299839855592316
 40
1.299839855592316
 40
1.556319078585453
 40
1.556319078585453
 40
1.797615147984747
 40
1.797615147984747
 40
2.032802142967348
 40
2.032802142967348
 40
2.193229888031828
 40
2.193229888031828
 40
2.193229888031828
 40
2.193229888031828
 10
14.08104435338346
 20
-28.75734095165451
 30
0.0
 10
13.99344691801102
 20
-28.80791535454712
 30
0.0
 10
13.88534819178866
 20
-28.85777741162406
 30
0.0
 10
13.63102747391747
 20
-28.94677679423378
 30
0.0
 10
13.48302239024585
 20
-28.98513960623099
 30
0.0
 10
13.16104399956951
 20
-29.04063623609622
 30
0.0
 10
12.98624879679486
 20
-29.05676907910511
 30
0.0
 10
12.63187729230224
 20
-29.06165787144527
 30
0.0
 10
12.45230325492562
 20
-29.04993179676179
 30
0.0
 10
12.11339954432423
 20
-29.00060723364829
 30
0.0
 10
11.95389515545672
 20
-28.96328895497993
 30
0.0
 10
11.6766464644871
 20
-28.87281686162817
 30
0.0
 10
11.55756559153017
 20
-28.82032034550392
 30
0.0
 10
11.37121935945503
 20
-28.71580418360379
 30
0.0
 10
11.30156458819228
 20
-28.66399368742615
 30
0.0
 10
11.20757220386858
 20
-28.57716338329014
 30
0.0
 10
11.18246370011933
 20
-28.54234097884213
 30
0.0
 10
11.16355957324371
 20
-28.50977638276588
 30
0.0
 10
11.16198372792854
 20
-28.5038143905715
 30
0.0
 10
11.16198372792855
 20
-28.50381439057149
 30
0.0
  0
LINE
  5
649C
330
6453
100
AcDbEntity
  8
0
100
AcDbLine
 10
16.86449673129908
 20
-23.37221462905619
 30
0.0
 11
18.86363453416392
 21
-24.52641737768735
 31
0.0
  0
LINE
  5
649D
330
6453
100
AcDbEntity
  8
0
100
AcDbLine
 10
15.59170452516329
 20
-25.57675539756104
 30
0.0
 11
17.59084232802813
 21
-26.7309581461922
 31
0.0
  0
LINE
  5
649E
330
6453
100
AcDbEntity
  8
0
100
AcDbLine
 10
-12.83398807853591
 20
-6.225786429573942
 30
0.0
 11
-10.83485027567106
 21
-7.379989178205117
 31
0.0
  0
ELLIPSE
  5
649F
330
6453
100
AcDbEntity
  8
0
100
AcDbEllipse
 10
-14.1067802846717
 20
-6.960633352408884
 30
0.0
 11
0.8999999999999078
 21
1.558845726812044
 31
0.0
210
0.0
220
0.0
230
1.0
 40
0.5773502691896258
 41
3.926990816986995
 42
5.49778714378189
  0
LINE
  5
64A0
330
6453
100
AcDbEntity
  8
0
100
AcDbLine
 10
-14.1067802846717
 20
-8.430327198078796
 30
0.0
 11
-12.10764248180685
 21
-9.584529946709974
 31
0.0
  0
LINE
  5
64A1
330
6453
100
AcDbEntity
  8
0
100
AcDbLine
 10
-18.06657825931637
 20
-10.71651762467642
 30
0.0
 11
-14.1067802846717
 21
-8.430327198078796
 31
0.0
  0
ELLIPSE
  5
64A2
330
6453
100
AcDbEntity
  8
0
100
AcDbEllipse
 10
-16.93520740941789
 20
-11.3697148894186
 30
0.0
 11
-1.599999999999995
 21
-0.0000000000000001
 31
0.0
210
0.0
220
0.0
230
1.0
 40
0.577350269189624
 41
5.497787143782137
 42
6.27380842965339
  0
ELLIPSE
  5
64A3
330
6453
100
AcDbEntity
  8
0
100
AcDbEllipse
 10
-11.20764248180685
 20
-8.634451343310725
 30
0.0
 11
0.449999999999954
 21
0.7794228634060227
 31
0.0
210
0.0
220
0.0
230
1.0
 40
0.5773502691896257
 41
3.926990816986995
 42
5.497787143781891
  0
LINE
  5
64A4
330
6453
100
AcDbEntity
  8
0
100
AcDbLine
 10
-15.16744045645153
 20
-11.6554886927433
 30
0.0
 11
-11.20764248180686
 21
-9.36929826614568
 31
0.0
  0
ELLIPSE
  5
64A5
330
6453
100
AcDbEntity
  8
0
100
AcDbEllipse
 10
-16.93520740941789
 20
-10.63486796658364
 30
0.0
 11
-2.499999999999995
 21
0.0000000000000069
 31
0.0
210
0.0
220
0.0
230
1.0
 40
0.5773502691896239
 41
5.497787143782137
 42
8.639379797371933
  0
LINE
  5
64A6
330
6453
100
AcDbEntity
  8
0
100
AcDbLine
 10
-14.74317638773959
 20
-7.328056813826369
 30
0.0
 11
-18.70297436238426
 21
-9.614247240423985
 31
0.0
  0
ELLIPSE
  5
64A7
330
6453
100
AcDbEntity
  8
0
100
AcDbEllipse
 10
-14.74317638773959
 20
-8.062903736661318
 30
0.0
 11
0.4499999999999516
 21
-0.779422863406023
 31
0.0
210
0.0
220
0.0
230
1.0
 40
0.5773502691896275
 41
0.7853981633976908
 42
2.356194490192583
  0
ELLIPSE
  5
64A8
330
6453
100
AcDbEntity
  8
0
100
AcDbEllipse
 10
-13.4703841816038
 20
-5.858362968156467
 30
0.0
 11
-0.8999999999999985
 21
0.0000000000000579
 31
0.0
210
0.0
220
0.0
230
1.0
 40
0.5773502691896226
 41
0.7853981633976917
 42
2.356194490192589
  0
ELLIPSE
  5
64A9
330
6453
100
AcDbEntity
  8
0
100
AcDbEllipse
 10
-14.74317638773959
 20
-6.593209890991409
 30
0.0
 11
-0.4500000000000471
 21
-0.7794228634059686
 31
0.0
210
0.0
220
0.0
230
1.0
 40
0.5773502691896259
 41
0.7853981633976837
 42
2.356194490192576
  0
ELLIPSE
  5
64AA
330
6453
100
AcDbEntity
  8
0
100
AcDbEllipse
 10
-13.4703841816037
 20
15.12559916168615
 30
0.0
 11
-0.8999999999999985
 21
0.0000000000000579
 31
0.0
210
0.0
220
0.0
230
1.0
 40
0.5773502691896226
 41
0.7853981633976935
 42
2.35619449019259
  0
LINE
  5
64AB
330
6453
100
AcDbEntity
  8
0
100
AcDbLine
 10
-14.10678028467159
 20
14.75817570026867
 30
0.0
 11
-14.1067802846717
 21
-6.225786429573934
 31
0.0
  0
LINE
  5
64AC
330
6453
100
AcDbEntity
  8
0
100
AcDbLine
 10
-12.83398807853591
 20
-6.225786429573942
 30
0.0
 11
-12.8339880785358
 21
14.75817570026867
 31
0.0
  0
ELLIPSE
  5
64AD
330
6453
100
AcDbEntity
  8
0
100
AcDbEllipse
 10
-11.70261722863733
 20
14.1049784355265
 30
0.0
 11
-0.7999999999999918
 21
1.385640646055101
 31
0.0
210
0.0
220
0.0
230
1.0
 40
0.5773502691896289
 41
0.0093768775261944
 42
0.785398163397451
  0
ELLIPSE
  5
64AE
330
6453
100
AcDbEntity
  8
0
100
AcDbEllipse
 10
-9.934850275670971
 20
13.08435770936684
 30
0.0
 11
-0.8999999999999985
 21
0.0000000000000049
 31
0.0
210
0.0
220
0.0
230
1.0
 40
0.5773502691896226
 41
0.0
 42
0.7853981633974483
  0
ELLIPSE
  5
64AF
330
6453
100
AcDbEntity
  8
0
100
AcDbEllipse
 10
-12.33901333170523
 20
13.73755497410902
 30
0.0
 11
-1.250000000000116
 21
2.165063509461023
 31
0.0
210
0.0
220
0.0
230
1.0
 40
0.577350269189629
 41
3.926990816987002
 42
7.068583470576795
  0
ELLIPSE
  5
64B0
330
6453
100
AcDbEntity
  8
0
100
AcDbEllipse
 10
-9.934850275671067
 20
-7.899604420475778
 30
0.0
 11
-0.9000000000000007
 21
0.0000000000000017
 31
0.0
210
0.0
220
0.0
230
1.0
 40
0.5773502691896227
 41
0.0000000000000123
 42
0.7853981633974609
  0
LINE
  5
64B1
330
6453
100
AcDbEntity
  8
0
100
AcDbLine
 10
-10.57124637873896
 20
-8.267027881893245
 30
0.0
 11
-10.57124637873886
 21
12.71693424794937
 31
0.0
  0
ELLIPSE
  5
64B2
330
6453
100
AcDbEntity
  8
0
100
AcDbEllipse
 10
-11.20764248180686
 20
-10.10414518898063
 30
0.0
 11
-0.449999999999999
 21
0.7794228634059961
 31
0.0
210
0.0
220
0.0
230
0.9999999999999998
 40
0.5773502691896278
 41
5.497787143782133
 42
6.283185307179579
  0
ELLIPSE
  5
64B3
330
6453
100
AcDbEntity
  8
0
100
AcDbEllipse
 10
-15.16744045645153
 20
-12.39033561557825
 30
0.0
 11
-0.4499999999999997
 21
0.7794228634059959
 31
0.0
210
0.0
220
0.0
230
1.0
 40
0.5773502691896276
 41
5.497787143782122
 42
6.283185307179569
  0
ELLIPSE
  5
64B4
330
6453
100
AcDbEntity
  8
0
100
AcDbEllipse
 10
-18.70297436238426
 20
-10.34909416325894
 30
0.0
 11
-0.4500000000000418
 21
0.7794228634059643
 31
0.0
210
0.0
220
0.0
230
0.9999999999999998
 40
0.5773502691896275
 41
3.926990816986998
 42
5.4977871437819
  0
SPLINE
  5
64B5
330
6453
100
AcDbEntity
  8
0
100
AcDbSpline
210
0.0
220
0.0
230
1.0
 70
     8
 71
     3
 72
    24
 73
    20
 74
     0
 42
0.000000001
 43
0.0000000001
 40
4.08995541914775
 40
4.08995541914775
 40
4.08995541914775
 40
4.08995541914775
 40
4.398229715025711
 40
4.398229715025711
 40
4.640084650872372
 40
4.640084650872372
 40
4.876994969012449
 40
4.876994969012449
 40
5.127353086333478
 40
5.127353086333478
 40
5.390670683693929
 40
5.390670683693929
 40
5.660900423611622
 40
5.660900423611622
 40
5.930296042682114
 40
5.930296042682114
 40
6.190907541946705
 40
6.190907541946705
 40
6.283185307179585
 40
6.283185307179585
 40
6.283185307179585
 40
6.283185307179585
 10
-12.51394103083042
 20
15.48557508565619
 30
0.0
 10
-12.51394103083042
 20
15.48557508565618
 30
0.0
 10
-12.48881144546398
 20
15.49200022951952
 30
0.0
 10
-12.37891317689494
 20
15.46978261077478
 30
0.0
 10
-12.31017655711408
 20
15.44781465270185
 30
0.0
 10
-12.14899284367014
 20
15.36823589631414
 30
0.0
 10
-12.05736509071561
 20
15.31161778382015
 30
0.0
 10
-11.8605034697148
 20
15.16020041454667
 30
0.0
 10
-11.75483351660062
 20
15.06355171530089
 30
0.0
 10
-11.54387143703751
 20
14.83443659934865
 30
0.0
 10
-11.43887919617207
 20
14.70044172367409
 30
0.0
 10
-11.24554320260748
 20
14.40892295628237
 30
0.0
 10
-11.15771964500412
 20
14.25090618764996
 30
0.0
 10
-11.01193512926017
 20
13.93207633111966
 30
0.0
 10
-10.9539269284382
 20
13.77129307602668
 30
0.0
 10
-10.87303306154086
 20
13.47097340243844
 30
0.0
 10
-10.84915672166975
 20
13.33095883026633
 30
0.0
 10
-10.83640929648384
 20
13.16453959931461
 30
0.0
 10
-10.83485027567097
 20
13.12317030920493
 30
0.0
 10
-10.83485027567097
 20
13.08435770936685
 30
0.0
  0
LINE
  5
64B6
330
6453
100
AcDbEntity
  8
0
100
AcDbLine
 10
-10.83485027567097
 20
13.08435770936684
 30
0.0
 11
-10.83485027567107
 21
-7.899604420475771
 31
0.0
  0
SPLINE
  5
64B7
330
6453
100
AcDbEntity
  8
0
100
AcDbSpline
210
0.0
220
0.0
230
1.0
 70
     8
 71
     3
 72
    20
 73
    16
 74
     0
 42
0.000000001
 43
0.0000000001
 40
4.712388980384687
 40
4.712388980384687
 40
4.712388980384687
 40
4.712388980384687
 40
4.919112646862263
 40
4.919112646862263
 40
5.142574119643876
 40
5.142574119643876
 40
5.381628724161132
 40
5.381628724161132
 40
5.629603041756236
 40
5.629603041756236
 40
5.877267536718724
 40
5.877267536718724
 40
6.114931450740437
 40
6.114931450740437
 40
6.283185307179578
 40
6.283185307179578
 40
6.283185307179578
 40
6.283185307179578
 10
-11.65764248180686
 20
-9.324722325574633
 30
0.0
 10
-11.61644988292549
 20
-9.300939767521851
 30
0.0
 10
-11.56811157328981
 20
-9.26791278398436
 30
0.0
 10
-11.46147000645648
 20
-9.180518563526508
 30
0.0
 10
-11.40269104402935
 20
-9.124694139766917
 30
0.0
 10
-11.28274629172977
 20
-8.991893831328777
 30
0.0
 10
-11.22169879976588
 20
-8.913744185976497
 30
0.0
 10
-11.10705862813013
 20
-8.742845659966992
 30
0.0
 10
-11.05383363599467
 20
-8.64967511489009
 30
0.0
 10
-10.9635316163616
 20
-8.461391478760479
 30
0.0
 10
-10.92645650937195
 20
-8.366287609589209
 30
0.0
 10
-10.8722550821041
 20
-8.189372254250017
 30
0.0
 10
-10.85442822215508
 20
-8.107194788708685
 30
0.0
 10
-10.83775031429735
 20
-7.984189978731643
 30
0.0
 10
-10.83485027567107
 20
-7.938318005393756
 30
0.0
 10
-10.83485027567107
 20
-7.899604420475774
 30
0.0
  0
LINE
  5
64B8
330
6453
100
AcDbEntity
  8
0
100
AcDbLine
 10
-11.65764248180686
 20
-9.32472232557464
 30
0.0
 11
-15.61744045645153
 21
-11.61091275217226
 31
0.0
  0
SPLINE
  5
64B9
330
6453
100
AcDbEntity
  8
0
100
AcDbSpline
210
0.0
220
0.0
230
1.0
 70
     8
 71
     3
 72
    24
 73
    20
 74
     0
 42
0.000000001
 43
0.0000000001
 40
0.0
 40
0.0
 40
0.0
 40
0.0
 40
0.2404833943815374
 40
0.2404833943815374
 40
0.4952826284508351
 40
0.4952826284508351
 40
0.7615079081133701
 40
0.7615079081133701
 40
1.032338512924996
 40
1.032338512924996
 40
1.299839855592316
 40
1.299839855592316
 40
1.556319078585453
 40
1.556319078585453
 40
1.797615147984746
 40
1.797615147984746
 40
2.032802142967347
 40
2.032802142967347
 40
2.193229888031822
 40
2.193229888031822
 40
2.193229888031822
 40
2.193229888031822
 10
-15.61744045645153
 20
-11.61091275217225
 30
0.0
 10
-15.70503789182397
 20
-11.66148715506485
 30
0.0
 10
-15.81313661804633
 20
-11.7113492121418
 30
0.0
 10
-16.06745733591752
 20
-11.80034859475151
 30
0.0
 10
-16.21546241958914
 20
-11.83871140674872
 30
0.0
 10
-16.53744081026548
 20
-11.89420803661395
 30
0.0
 10
-16.71223601304012
 20
-11.91034087962284
 30
0.0
 10
-17.06660751753275
 20
-11.91522967196301
 30
0.0
 10
-17.24618155490937
 20
-11.90350359727952
 30
0.0
 10
-17.58508526551076
 20
-11.85417903416601
 30
0.0
 10
-17.74458965437826
 20
-11.81686075549765
 30
0.0
 10
-18.02183834534789
 20
-11.7263886621459
 30
0.0
 10
-18.14091921830483
 20
-11.67389214602165
 30
0.0
 10
-18.32726545037996
 20
-11.56937598412151
 30
0.0
 10
-18.39692022164271
 20
-11.51756548794387
 30
0.0
 10
-18.49091260596641
 20
-11.43073518380787
 30
0.0
 10
-18.51602110971566
 20
-11.39591277935985
 30
0.0
 10
-18.53492523659128
 20
-11.36334818328362
 30
0.0
 10
-18.53650108190645
 20
-11.35738619108924
 30
0.0
 10
-18.53650108190645
 20
-11.35738619108924
 30
0.0
  0
LINE
  5
64BA
330
6453
100
AcDbEntity
  8
0
100
AcDbLine
 10
-10.57124637873896
 20
-8.267027881893245
 30
0.0
 11
-1.179735198774525
 21
-13.68921938974309
 31
0.0
  0
LINE
  5
64BB
330
6453
100
AcDbEntity
  8
0
100
AcDbLine
 10
-11.20764248180686
 20
-9.36929826614568
 30
0.0
 11
-1.841064072449904
 21
-14.77709483217365
 31
0.0
  0
LINE
  5
64BC
330
6453
100
AcDbEntity
  8
0
100
AcDbLine
 10
5.588730012738447
 20
-19.06668844728064
 30
0.0
 11
14.9553084220954
 21
-24.47448501330861
 31
0.0
  0
LINE
  5
64BD
330
6453
100
AcDbEntity
  8
0
100
AcDbLine
 10
6.200193345198856
 20
-17.95002312120633
 30
0.0
 11
15.59170452516329
 21
-23.37221462905618
 31
0.0
  0
LINE
  5
64BE
330
6453
100
AcDbEntity
  8
0
100
AcDbLine
 10
-16.51094334070596
 20
-6.307436087666706
 30
0.0
 11
-14.74317638773959
 21
-7.328056813826369
 31
0.0
  0
LINE
  5
64BF
330
6453
100
AcDbEntity
  8
0
100
AcDbLine
 10
18.49084232802813
 20
-26.51572646562792
 30
0.0
 11
20.25860928099451
 21
-27.53634719178758
 31
0.0
  0
LINE
  5
64C0
330
6453
100
AcDbEntity
  8
0
100
AcDbLine
 10
-15.87454723763806
 20
-5.205165703414271
 30
0.0
 11
-14.1067802846717
 21
-6.225786429573934
 31
0.0
  0
ELLIPSE
  5
64C1
330
6453
100
AcDbEntity
  8
0
100
AcDbEllipse
 10
-16.51094334070596
 20
-5.572589164831751
 30
0.0
 11
0.4499999999999552
 21
0.7794228634060249
 31
0.0
210
0.0
220
0.0
230
1.0
 40
0.5773502691896259
 41
3.926990816986995
 42
5.497787143781889
  0
LINE
  5
64C2
330
6453
100
AcDbEntity
  8
0
100
AcDbLine
 10
19.12723843109603
 20
-25.41345608137549
 30
0.0
 11
20.8950053840624
 21
-26.43407680753516
 31
0.0
  0
LINE
  5
64C3
330
6453
100
AcDbEntity
  8
0
100
AcDbLine
 10
-15.87454723763791
 20
30.06748659266357
 30
0.0
 11
20.89500538406256
 21
8.838575488542668
 31
0.0
  0
ELLIPSE
  5
64C4
330
6453
100
AcDbEntity
  8
0
100
AcDbEllipse
 10
20.25860928099451
 20
-26.80150026895263
 30
0.0
 11
0.8999999999999074
 21
1.558845726812042
 31
0.0
210
0.0
220
0.0
230
0.9999999999999998
 40
0.5773502691896259
 41
3.926990816986998
 42
5.497787143781894
  0
LINE
  5
64C5
330
6453
100
AcDbEntity
  8
0
100
AcDbLine
 10
-14.60175503150211
 20
32.27202736116841
 30
0.0
 11
22.16779759019835
 21
11.04311625704753
 31
0.0
  0
ELLIPSE
  5
64C6
330
6453
100
AcDbEntity
  8
0
100
AcDbEllipse
 10
22.16779759019834
 20
9.573422411377624
 30
0.0
 11
0.4500000000000465
 21
0.7794228634059675
 31
0.0
210
0.0
220
0.0
230
0.9999999999999998
 40
0.5773502691896258
 41
0.7853981633976766
 42
2.356194490192597
  0
LINE
  5
64C7
330
6453
100
AcDbEntity
  8
0
100
AcDbLine
 10
22.16779759019835
 20
11.04311625704753
 30
0.0
 11
22.16779759019835
 21
10.30826933421258
 31
0.0
  0
ELLIPSE
  5
64C8
330
6453
100
AcDbEntity
  8
0
100
AcDbEllipse
 10
22.16779759019834
 20
9.573422411377624
 30
0.0
 11
-0.899999999999906
 21
-1.558845726812039
 31
0.0
210
0.0
220
0.0
230
1.0
 40
0.5773502691896258
 41
3.926990816986993
 42
5.497787143781897
  0
LINE
  5
64C9
330
6453
100
AcDbEntity
  8
0
100
AcDbLine
 10
20.89500538406255
 20
8.838575488542669
 30
0.0
 11
21.53140148713045
 21
9.205998949960141
 31
0.0
  0
ELLIPSE
  5
64CA
330
6453
100
AcDbEntity
  8
0
100
AcDbEllipse
 10
-14.60175503150213
 20
30.8023335154985
 30
0.0
 11
0.9000000000000911
 21
1.558845726811931
 31
0.0
210
0.0
220
0.0
230
0.9999999999999998
 40
0.5773502691896259
 41
0.7853981633976748
 42
2.35619449019258
  0
LINE
  5
64CB
330
6453
100
AcDbEntity
  8
0
100
AcDbLine
 10
20.8950053840624
 20
-26.43407680753516
 30
0.0
 11
21.53140148713029
 21
-26.06665334611768
 31
0.0
  0
ELLIPSE
  5
64CC
330
6453
100
AcDbEntity
  8
0
100
AcDbEllipse
 10
20.25860928099451
 20
-26.80150026895263
 30
0.0
 11
-0.4500000000000468
 21
-0.7794228634059675
 31
0.0
210
0.0
220
0.0
230
1.0
 40
0.577350269189626
 41
0.7853981633976837
 42
2.356194490192581
  0
LINE
  5
64CD
330
6453
100
AcDbEntity
  8
0
100
AcDbLine
 10
20.25860928099451
 20
-27.53634719178758
 30
0.0
 11
20.25860928099451
 21
-28.27119411462253
 31
0.0
  0
LINE
  5
64CE
330
6453
100
AcDbEntity
  8
0
100
AcDbLine
 10
21.53140148713029
 20
-26.06665334611768
 30
0.0
 11
21.53140148713045
 21
9.20599894996014
 31
0.0
  0
LINE
  5
64CF
330
6453
100
AcDbEntity
  8
0
100
AcDbLine
 10
-43.45171170391341
 20
-21.86169595433979
 30
0.0
 11
-16.51094334070596
 21
-6.307436087666706
 31
0.0
  0
LINE
  5
64D0
330
6453
100
AcDbEntity
  8
0
100
AcDbLine
 10
-29.30957608018247
 20
-30.02666176361705
 30
0.0
 11
-43.45171170391341
 21
-21.86169595433979
 31
0.0
  0
LINE
  5
64D1
330
6453
100
AcDbEntity
  8
0
100
AcDbLine
 10
-6.682159082212953
 20
-43.09060705846075
 30
0.0
 11
-20.8242947059439
 21
-34.9256412491835
 31
0.0
  0
LINE
  5
64D2
330
6453
100
AcDbEntity
  8
0
100
AcDbLine
 10
20.25860928099451
 20
-27.53634719178758
 30
0.0
 11
-6.68215908221295
 21
-43.09060705846075
 31
0.0
  0
LINE
  5
64D3
330
6453
100
AcDbEntity
  8
0
100
AcDbLine
 10
-43.45171170391342
 20
-22.59654287717475
 30
0.0
 11
-43.45171170391341
 21
-21.86169595433979
 31
0.0
  0
LINE
  5
64D4
330
6453
100
AcDbEntity
  8
0
100
AcDbLine
 10
-43.45171170391342
 20
-22.59654287717475
 30
0.0
 11
-29.30957608018248
 21
-30.76150868645201
 31
0.0
  0
LINE
  5
64D5
330
6453
100
AcDbEntity
  8
0
100
AcDbLine
 10
-20.8242947059439
 20
-35.66048817201847
 30
0.0
 11
-6.682159082212953
 21
-43.82545398129572
 31
0.0
  0
LINE
  5
64D6
330
6453
100
AcDbEntity
  8
0
100
AcDbLine
 10
-6.682159082212953
 20
-43.82545398129572
 30
0.0
 11
-6.682159082212953
 21
-43.09060705846075
 31
0.0
  0
LINE
  5
64D7
330
6453
100
AcDbEntity
  8
0
100
AcDbLine
 10
20.89500538406255
 20
8.838575488542669
 30
0.0
 11
20.8950053840624
 21
-26.43407680753516
 31
0.0
  0
LINE
  5
64D8
330
6453
100
AcDbEntity
  8
0
100
AcDbLine
 10
-15.87454723763806
 20
-5.205165703414271
 30
0.0
 11
-15.87454723763791
 21
30.06748659266357
 31
0.0
  0
LINE
  5
64D9
330
6453
100
AcDbEntity
  8
0
100
AcDbLine
 10
-6.682159082212953
 20
-43.82545398129572
 30
0.0
 11
20.25860928099451
 21
-28.27119411462253
 31
0.0
  0
LINE
  5
64DA
330
6453
100
AcDbEntity
  8
0
100
AcDbLine
 10
-14.60175503150211
 20
32.27202736116841
 30
0.0
 11
-9.652007563196285
 21
35.12976539441543
 31
0.0
  0
LINE
  5
64DB
330
6453
100
AcDbEntity
  8
0
100
AcDbLine
 10
43.45171170391343
 20
23.33138980000963
 30
0.0
 11
22.16779759019835
 21
11.04311625704753
 31
0.0
  0
LINE
  5
64DC
330
6453
100
AcDbEntity
  8
0
100
AcDbLine
 10
39.9161777979807
 20
25.37263125232896
 30
0.0
 11
43.45171170391343
 21
23.33138980000963
 31
0.0
  0
LINE
  5
64DD
330
6453
100
AcDbEntity
  8
0
100
AcDbLine
 10
22.16779759019835
 20
10.30826933421258
 30
0.0
 11
43.45171170391343
 21
22.59654287717468
 31
0.0
  0
LINE
  5
64DE
330
6453
100
AcDbEntity
  8
0
100
AcDbLine
 10
43.45171170391343
 20
22.59654287717468
 30
0.0
 11
43.45171170391343
 21
23.33138980000963
 31
0.0
  0
ELLIPSE
  5
64DF
330
6453
100
AcDbEntity
  8
0
100
AcDbEllipse
 10
-31.43089642374212
 20
-23.90293740665911
 30
0.0
 11
-2.0
 21
0.0000000000000076
 31
0.0
210
0.0
220
0.0
230
1.0
 40
0.5773502691896234
 41
3.926990816987243
 42
7.068583470577036
  0
LINE
  5
64E0
330
6453
100
AcDbEntity
  8
0
100
AcDbLine
 10
-30.01668286136903
 20
-23.0864408257314
 30
0.0
 11
-28.60246929899592
 21
-23.90293740665913
 31
0.0
  0
ELLIPSE
  5
64E1
330
6453
100
AcDbEntity
  8
0
100
AcDbEllipse
 10
-30.01668286136901
 20
-24.71943398758685
 30
0.0
 11
2.0
 21
-0.0000000000000077
 31
0.0
210
0.0
220
0.0
230
1.0
 40
0.5773502691896234
 41
3.926990816987243
 42
7.068583470577036
  0
LINE
  5
64E2
330
6453
100
AcDbEntity
  8
0
100
AcDbLine
 10
-31.43089642374211
 20
-25.53593056851458
 30
0.0
 11
-32.84510998611521
 21
-24.71943398758685
 31
0.0
  0
ELLIPSE
  5
64E3
330
6453
100
AcDbEntity
  8
0
100
AcDbEllipse
 10
-10.21769298814569
 20
-36.15038612057509
 30
0.0
 11
2.0
 21
0.0
 31
0.0
210
0.0
220
0.0
230
1.0
 40
0.5773502691896258
 41
3.926990816987243
 42
7.068583470577037
  0
LINE
  5
64E4
330
6453
100
AcDbEntity
  8
0
100
AcDbLine
 10
-11.63190655051879
 20
-36.96688270150281
 30
0.0
 11
-13.0461201128919
 21
-36.15038612057508
 31
0.0
  0
ELLIPSE
  5
64E5
330
6453
100
AcDbEntity
  8
0
100
AcDbEllipse
 10
-11.6319065505188
 20
-35.33388953964736
 30
0.0
 11
-1.999999999999999
 21
0.0
 31
0.0
210
0.0
220
0.0
230
1.0
 40
0.5773502691896258
 41
3.926990816987238
 42
7.068583470577032
  0
LINE
  5
64E6
330
6453
100
AcDbEntity
  8
0
100
AcDbLine
 10
-10.21769298814571
 20
-34.51739295871964
 30
0.0
 11
-8.8034794257726
 21
-35.33388953964737
 31
0.0
  0
ELLIPSE
  5
64E7
330
6453
100
AcDbEntity
  8
0
100
AcDbEllipse
 10
-31.43089642374212
 20
-24.63778432949408
 30
0.0
 11
-2.0
 21
-0.0000000000001118
 31
0.0
210
0.0
220
0.0
230
1.0
 40
0.5773502691896232
 41
3.926990816987
 42
5.959357168603942
  0
ELLIPSE
  5
64E8
330
6453
100
AcDbEntity
  8
0
100
AcDbEllipse
 10
-30.01668286136902
 20
-25.45428091042181
 30
0.0
 11
2.0
 21
-0.0000000000000092
 31
0.0
210
0.0
220
0.0
230
1.0
 40
0.5773502691896236
 41
0.3238281385752911
 42
0.7853981633974508
  0
LINE
  5
64E9
330
6453
100
AcDbEntity
  8
0
100
AcDbLine
 10
-28.60246929899592
 20
-24.63778432949409
 30
0.0
 11
-30.01668286136903
 21
-23.82128774856636
 31
0.0
  0
ELLIPSE
  5
64EA
330
6453
100
AcDbEntity
  8
0
100
AcDbEllipse
 10
-10.21769298814569
 20
-36.88523304341005
 30
0.0
 11
1.999999999999999
 21
0.0000000000000002
 31
0.0
210
0.0
220
0.0
230
1.0
 40
0.5773502691896259
 41
0.3238281385752852
 42
0.785398163397446
  0
LINE
  5
64EB
330
6453
100
AcDbEntity
  8
0
100
AcDbLine
 10
-8.8034794257726
 20
-36.06873646248233
 30
0.0
 11
-10.21769298814571
 21
-35.25223988155459
 31
0.0
  0
ELLIPSE
  5
64EC
330
6453
100
AcDbEntity
  8
0
100
AcDbEllipse
 10
-11.6319065505188
 20
-36.06873646248231
 30
0.0
 11
-1.999999999999999
 21
-0.0000000000001193
 31
0.0
210
0.0
220
0.0
230
1.0
 40
0.5773502691896258
 41
3.926990816987
 42
5.959357168603945
  0
LINE
  5
64ED
330
6453
100
AcDbEntity
  8
0
100
AcDbLine
 10
-8.8034794257726
 20
-35.33388953964737
 30
0.0
 11
-8.8034794257726
 21
-36.06873646248233
 31
0.0
  0
LINE
  5
64EE
330
6453
100
AcDbEntity
  8
0
100
AcDbLine
 10
-10.21769298814571
 20
-34.51739295871964
 30
0.0
 11
-10.21769298814571
 21
-35.25223988155459
 31
0.0
  0
LINE
  5
64EF
330
6453
100
AcDbEntity
  8
0
100
AcDbLine
 10
-30.01668286136903
 20
-23.0864408257314
 30
0.0
 11
-30.01668286136903
 21
-23.82128774856636
 31
0.0
  0
LINE
  5
64F0
330
6453
100
AcDbEntity
  8
0
100
AcDbLine
 10
-28.60246929899592
 20
-23.90293740665913
 30
0.0
 11
-28.60246929899592
 21
-24.63778432949409
 31
0.0
  0
LINE
  5
64F1
330
6453
100
AcDbEntity
  8
0
100
AcDbLine
 10
32.44822497182055
 20
25.84417794694011
 30
0.0
 11
19.34012481281067
 21
21.019667255987
 31
0.0
  0
ELLIPSE
  5
64F2
330
6453
100
AcDbEntity
  8
0
100
AcDbEllipse
 10
35.67353711086141
 20
22.92314150954582
 30
0.0
 11
-6.0
 21
-0.0000000000003186
 31
0.0
210
0.0
220
0.0
230
1.0
 40
0.5773502691896214
 41
3.926990816987004
 42
5.27992030131972
  0
LINE
  5
64F3
330
6453
100
AcDbEntity
  8
0
100
AcDbLine
 10
14.04447592199219
 20
37.24982575572269
 30
0.0
 11
0.8221304281864828
 21
32.75432645248365
 31
0.0
  0
ELLIPSE
  5
64F4
330
6453
100
AcDbEntity
  8
0
100
AcDbEllipse
 10
16.58165401882463
 20
34.02749501016289
 30
0.0
 11
5.0
 21
-0.0000000000000347
 31
0.0
210
0.0
220
0.0
230
1.0
 40
0.5773502691896214
 41
5.750979124538249
 42
6.283185307179588
  0
ELLIPSE
  5
64F5
330
6453
100
AcDbEntity
  8
0
100
AcDbEllipse
 10
16.58165401882463
 20
34.76234193299784
 30
0.0
 11
4.999999999999999
 21
-0.0000000000000325
 31
0.0
210
0.0
220
0.0
230
1.0
 40
0.5773502691896216
 41
5.750979124538247
 42
8.386187816615828
  0
LINE
  5
64F6
330
6453
100
AcDbEntity
  8
0
100
AcDbLine
 10
20.89010238278975
 20
33.2975014758096
 30
0.0
 11
20.89010238278975
 21
32.56265455297464
 31
0.0
  0
LINE
  5
64F7
330
6453
100
AcDbEntity
  8
0
100
AcDbLine
 10
20.89010238278975
 20
32.56265455297464
 30
0.0
 11
12.34391633297814
 21
24.18385782150218
 31
0.0
  0
LINE
  5
64F8
330
6453
100
AcDbEntity
  8
0
100
AcDbLine
 10
12.34391633297815
 20
24.91870474433715
 30
0.0
 11
20.89010238278975
 21
33.2975014758096
 31
0.0
  0
LINE
  5
64F9
330
6453
100
AcDbEntity
  8
0
100
AcDbLine
 10
12.34391633297815
 20
24.91870474433715
 30
0.0
 11
12.34391633297814
 21
24.18385782150218
 31
0.0
  0
ELLIPSE
  5
64FA
330
6453
100
AcDbEntity
  8
0
100
AcDbEllipse
 10
16.65236469694328
 20
22.71901736431396
 30
0.0
 11
-5.0
 21
0.0000000000000328
 31
0.0
210
0.0
220
0.0
230
1.0
 40
0.5773502691896214
 41
5.75097912453825
 42
6.155559903006257
  0
ELLIPSE
  5
64FB
330
6453
100
AcDbEntity
  8
0
100
AcDbEllipse
 10
16.65236469694328
 20
23.45386428714892
 30
0.0
 11
-5.0
 21
0.00000000000033
 31
0.0
210
0.0
220
0.0
230
1.0
 40
0.5773502691896216
 41
5.750979124538496
 42
8.421512954909822
  0
LINE
  5
64FC
330
6453
100
AcDbEntity
  8
0
100
AcDbLine
 10
-6.465123975131719
 20
33.28981729697035
 30
0.0
 11
-9.652007563196285
 21
35.12976539441543
 31
0.0
  0
ELLIPSE
  5
64FD
330
6453
100
AcDbEntity
  8
0
100
AcDbEllipse
 10
-2.222483288012435
 20
35.73930703975349
 30
0.0
 11
-6.0
 21
0.0000000000003958
 31
0.0
210
0.0
220
0.0
230
1.0
 40
0.5773502691896216
 41
0.7853981633976251
 42
2.10300250943635
  0
LINE
  5
64FE
330
6453
100
AcDbEntity
  8
0
100
AcDbLine
 10
21.58165401882463
 20
34.76234193299781
 30
0.0
 11
21.58165401882462
 21
34.02749501016285
 31
0.0
  0
ENDBLK
  5
6455
330
6453
100
AcDbEntity
  8
0
100
AcDbBlockEnd
  0
ENDSEC
  0
SECTION
  2
ENTITIES
  0
INSERT
  5
64FF
330
1F
100
AcDbEntity
  8
0
100
AcDbBlockReference
  2
ZS45N-Front
 10
0.0
 20
0.0
 30
0.0
  0
INSERT
  5
6500
330
1F
100
AcDbEntity
  8
0
100
AcDbBlockReference
  2
ZS45N-Left
 10
75.4800000000003
 20
0.0
 30
0.0
  0
INSERT
  5
6501
330
1F
100
AcDbEntity
  8
0
100
AcDbBlockReference
  2
ZS45N-Right
 10
-75.4800000000003
 20
0.0
 30
0.0
  0
INSERT
  5
6502
330
1F
100
AcDbEntity
  8
0
100
AcDbBlockReference
  2
ZS45N-Top
 10
0.0
 20
-96.28000000000028
 30
0.0
  0
INSERT
  5
6503
330
1F
100
AcDbEntity
  8
0
100
AcDbBlockReference
  2
ZS45N-Bottom
 10
0.0
 20
50.38000000000031
 30
0.0
  0
INSERT
  5
6504
330
1F
100
AcDbEntity
  8
0
100
AcDbBlockReference
  2
ZS45N-ISO
 10
88.83171170391348
 20
-103.829093278946
 30
0.0
  0
MTEXT
  5
6505
330
1F
100
AcDbEntity
  8
0
100
AcDbMText
 10
0.0
 20
-156.4600000000003
 30
0.0
 40
6.460000000000017
 41
0.0
 71
     5
 72
     5
  1
ZS45N
 73
     1
 44
1.0
1001
ACAD
1000
MTEXTBEGIN
1070
    73
1070
     1
1070
    44
1040
1.0
1070
    74
1070
     0
1000
MTEXTEND
  0
ENDSEC
  0
SECTION
  2
OBJECTS
  0
DICTIONARY
  5
C
330
0
100
AcDbDictionary
281
     1
  3
ACAD_CIP_PREVIOUS_PRODUCT_INFO
350
216
  3
ACAD_COLOR
350
6B
  3
ACAD_DETAILVIEWSTYLE
350
21B
  3
ACAD_GROUP
350
D
  3
ACAD_LAYOUT
350
1A
  3
ACAD_MATERIAL
350
6A
  3
ACAD_MLEADERSTYLE
350
12D
  3
ACAD_MLINESTYLE
350
17
  3
ACAD_PLOTSETTINGS
350
19
  3
ACAD_PLOTSTYLENAME
350
E
  3
ACAD_SCALELIST
350
10C
  3
ACAD_SECTIONVIEWSTYLE
350
219
  3
ACAD_TABLESTYLE
350
7E
  3
ACAD_VISUALSTYLE
350
EF
  3
ACDB_RECOMPOSE_DATA
350
6606
  3
AcDbVariableDictionary
350
5E
  3
DWGPROPS
350
6607
  0
DICTIONARY
  5
6556
330
8
100
AcDbDictionary
280
     1
281
     1
  0
DICTIONARY
  5
1FF
330
2
100
AcDbDictionary
280
     1
281
     1
  3
ACAD_LAYERSTATES
360
200
  0
DICTIONARY
  5
13C
330
10
100
AcDbDictionary
280
     1
281
     1
  0
DICTIONARY
  5
1CE
330
1F
100
AcDbDictionary
280
     1
281
     1
  3
ACAD_LAYOUTSELFREF
360
655E
  0
DICTIONARY
  5
6509
330
D2
100
AcDbDictionary
280
     1
281
     1
  3
ACAD_LAYOUTSELFREF
360
6567
  0
DICTIONARY
  5
650B
330
D6
100
AcDbDictionary
280
     1
281
     1
  3
ACAD_LAYOUTSELFREF
360
656A
  0
XRECORD
  5
216
102
{ACAD_REACTORS
330
C
102
}
330
C
100
AcDbXrecord
280
     1
300
ACD
300
2021
300
87393ACD_2021_0F
  0
DICTIONARY
  5
6B
102
{ACAD_REACTORS
330
C
102
}
330
C
100
AcDbDictionary
281
     1
  0
DICTIONARY
  5
21B
102
{ACAD_REACTORS
330
C
102
}
330
C
100
AcDbDictionary
281
     1
  3
Metric50
350
21C
  0
DICTIONARY
  5
D
102
{ACAD_REACTORS
330
C
102
}
330
C
100
AcDbDictionary
281
     1
  0
DICTIONARY
  5
1A
102
{ACAD_REACTORS
330
C
102
}
330
C
100
AcDbDictionary
281
     1
  3
Layout1
350
D3
  3
Layout2
350
D7
  3
Model
350
22
  0
DICTIONARY
  5
6A
102
{ACAD_REACTORS
330
C
102
}
330
C
100
AcDbDictionary
281
     1
  3
ByBlock
350
ED
  3
ByLayer
350
EC
  3
Global
350
EE
  0
DICTIONARY
  5
12D
102
{ACAD_REACTORS
330
C
102
}
330
C
100
AcDbDictionary
281
     1
  3
Standard
350
12E
  0
DICTIONARY
  5
17
102
{ACAD_REACTORS
330
C
102
}
330
C
100
AcDbDictionary
281
     1
  3
Standard
350
18
  0
DICTIONARY
  5
19
102
{ACAD_REACTORS
330
C
102
}
330
C
100
AcDbDictionary
281
     1
  0
ACDBDICTIONARYWDFLT
  5
E
102
{ACAD_REACTORS
330
C
102
}
330
C
100
AcDbDictionary
281
     1
  3
Normal
350
F
100
AcDbDictionaryWithDefault
340
F
  0
DICTIONARY
  5
10C
102
{ACAD_REACTORS
330
C
102
}
330
C
100
AcDbDictionary
281
     1
  3
A0
350
10D
  3
A1
350
1BE
  3
A2
350
1BF
  3
A3
350
1C0
  3
A4
350
1C1
  3
A5
350
1C2
  3
A6
350
1C3
  3
A7
350
1C4
  3
A8
350
1C5
  3
A9
350
1C6
  3
B0
350
1C7
  3
B1
350
1C8
  3
B2
350
1C9
  3
B3
350
1CA
  3
B4
350
1CB
  3
B5
350
1CC
  3
B6
350
1CD
  0
DICTIONARY
  5
219
102
{ACAD_REACTORS
330
C
102
}
330
C
100
AcDbDictionary
281
     1
  3
Metric50
350
21A
  0
DICTIONARY
  5
7E
102
{ACAD_REACTORS
330
C
102
}
330
C
100
AcDbDictionary
281
     1
  3
Standard
350
7F
  0
DICTIONARY
  5
EF
102
{ACAD_REACTORS
330
C
102
}
330
C
100
AcDbDictionary
281
     1
  3
2dWireframe
350
F5
  3
Basic
350
F4
  3
Brighten
350
FB
  3
ColorChange
350
FF
  3
Conceptual
350
F8
  3
Dim
350
FA
  3
EdgeColorOff
350
1E6
  3
Facepattern
350
FE
  3
Flat
350
F0
  3
FlatWithEdges
350
F1
  3
Gouraud
350
F2
  3
GouraudWithEdges
350
F3
  3
Hidden
350
F7
  3
JitterOff
350
1E4
  3
Linepattern
350
FD
  3
OverhangOff
350
1E5
  3
Realistic
350
F9
  3
Shaded
350
1F3
  3
Shaded with edges
350
1F2
  3
Shades of Gray
350
1EF
  3
Sketchy
350
1F0
  3
Thicken
350
FC
  3
Wireframe
350
F6
  3
X-Ray
350
1F1
  0
XRECORD
  5
6606
102
{ACAD_REACTORS
330
C
102
}
330
C
100
AcDbXrecord
280
     1
 90
        1
330
7F
  0
DICTIONARY
  5
5E
102
{ACAD_REACTORS
330
C
102
}
330
C
100
AcDbDictionary
281
     1
  3
CANNOSCALE
350
146
  3
CENTEREXE
350
259
  3
CENTERLTYPEFILE
350
25A
  3
CMLEADERSTYLE
350
145
  3
CTABLESTYLE
350
84
  3
CVIEWDETAILSTYLE
350
227
  3
CVIEWSECTIONSTYLE
350
228
  3
DIMASSOC
350
5F
  3
HIDETEXT
350
63
  3
INDEXCTL
350
65B3
  3
LAYEREVAL
350
1AE
  3
LAYERNOTIFY
350
1AF
  3
LIGHTINGUNITS
350
65B1
  3
MSLTSCALE
350
65B0
  3
PSOLHEIGHT
350
6603
  3
PSOLWIDTH
350
6602
  3
SORTENTS
350
65B2
  3
XCLIPFRAME
350
6604
  0
XRECORD
  5
6607
102
{ACAD_REACTORS
330
C
102
}
330
C
100
AcDbXrecord
280
     1
  1
DWGPROPS COOKIE
  2

  3

  4

  6

  7

  8
tronnguyen
  9

300
=
301
=
302
=
303
=
304
=
305
=
306
=
307
=
308
=
309
=
 40
0.7542708333333334
 41
2460781.656018518
 42
2460782.412662037
  1

 90
        0
  0
DICTIONARY
  5
200
102
{ACAD_REACTORS
330
1FF
102
}
330
1FF
100
AcDbDictionary
281
     1
  0
XRECORD
  5
655E
102
{ACAD_REACTORS
330
1CE
102
}
330
1CE
100
AcDbXrecord
280
     1
340
1F
  0
XRECORD
  5
6567
102
{ACAD_REACTORS
330
6509
102
}
330
6509
100
AcDbXrecord
280
     1
340
D2
  0
XRECORD
  5
656A
102
{ACAD_REACTORS
330
650B
102
}
330
650B
100
AcDbXrecord
280
     1
340
D6
  0
ACDBDETAILVIEWSTYLE
  5
21C
102
{ACAD_XDICTIONARY
360
6646
102
}
102
{ACAD_REACTORS
330
21B
102
}
330
21B
100
AcDbModelDocViewStyle
 70
     0
  3
Metric50
290
     0
100
AcDbDetailViewStyle
 70
     0
 71
     0
 90
        3
 71
     1
340
11
 40
5.0
340
0
 40
5.0
300

 40
0.0
280
     1
 71
     2
340
16
 90
       25
 71
     3
340
11
 40
5.0
 90
        0
 40
15.0
 90
        1
300
%<\AcVar ViewDetailId>% (%<\AcVar ViewScale \f "%sn">%)
 71
     4
340
16
 90
       25
340
16
 90
       25
280
     0
  0
LAYOUT
  5
D3
102
{ACAD_XDICTIONARY
360
660B
102
}
102
{ACAD_REACTORS
330
1A
102
}
330
1A
100
AcDbPlotSettings
  1

  2
C:\Documents and Settings\basas\Application Data\Autodesk\AutoCAD 2005\R16.1\enu\plotters\Default Windows System Printer.pc3
  4

  6

 40
0.0
 41
0.0
 42
0.0
 43
0.0
 44
0.0
 45
0.0
 46
0.0
 47
0.0
 48
0.0
 49
0.0
140
0.0
141
0.0
142
1.0
143
1.0
 70
   688
 72
     0
 73
     0
 74
     5
  7

 75
    16
147
1.0
148
0.0
149
0.0
100
AcDbLayout
  1
Layout1
 70
     1
 71
     1
 10
0.0
 20
0.0
 11
12.0
 21
9.0
 12
0.0
 22
0.0
 32
0.0
 14
0.0
 24
0.0
 34
0.0
 15
0.0
 25
0.0
 35
0.0
146
0.0
 13
0.0
 23
0.0
 33
0.0
 16
1.0
 26
0.0
 36
0.0
 17
0.0
 27
1.0
 37
0.0
 76
     0
330
D2
  0
LAYOUT
  5
D7
102
{ACAD_XDICTIONARY
360
660D
102
}
102
{ACAD_REACTORS
330
1A
102
}
330
1A
100
AcDbPlotSettings
  1

  2
C:\Documents and Settings\basas\Application Data\Autodesk\AutoCAD 2005\R16.1\enu\plotters\Default Windows System Printer.pc3
  4

  6

 40
0.0
 41
0.0
 42
0.0
 43
0.0
 44
0.0
 45
0.0
 46
0.0
 47
0.0
 48
0.0
 49
0.0
140
0.0
141
0.0
142
1.0
143
1.0
 70
   688
 72
     0
 73
     0
 74
     5
  7

 75
    16
147
1.0
148
0.0
149
0.0
100
AcDbLayout
  1
Layout2
 70
     1
 71
     2
 10
0.0
 20
0.0
 11
12.0
 21
9.0
 12
0.0
 22
0.0
 32
0.0
 14
0.0
 24
0.0
 34
0.0
 15
0.0
 25
0.0
 35
0.0
146
0.0
 13
0.0
 23
0.0
 33
0.0
 16
1.0
 26
0.0
 36
0.0
 17
0.0
 27
1.0
 37
0.0
 76
     0
330
D6
  0
LAYOUT
  5
22
102
{ACAD_XDICTIONARY
360
6608
102
}
102
{ACAD_REACTORS
330
1A
102
}
330
1A
100
AcDbPlotSettings
  1

  2
none_device
  4
ISO_A4_(210.00_x_297.00_MM)
  6

 40
7.5
 41
20.0
 42
7.5
 43
20.0
 44
210.0
 45
297.0
 46
11.54999923706054
 47
-13.65000009536743
 48
0.0
 49
0.0
140
0.0
141
0.0
142
1.0
143
8.704084754739808
 70
 11952
 72
     1
 73
     0
 74
     0
  7

 75
     0
147
0.1148885871608098
148
0.0
149
0.0
100
AcDbLayout
  1
Model
 70
     1
 71
     0
 10
0.0
 20
0.0
 11
12.0
 21
9.0
 12
0.0
 22
0.0
 32
0.0
 14
0.0
 24
0.0
 34
0.0
 15
0.0
 25
0.0
 35
0.0
146
0.0
 13
0.0
 23
0.0
 33
0.0
 16
1.0
 26
0.0
 36
0.0
 17
0.0
 27
1.0
 37
0.0
 76
     0
330
1F
331
EA
1001
ACAD_PSEXT
1000
None
1000
None
1000
Not applicable
1000
The layout will not be plotted unless a new plotter configuration name is selected.
1070
     0
  0
MATERIAL
  5
ED
102
{ACAD_XDICTIONARY
360
1F9
102
}
102
{ACAD_REACTORS
330
6A
102
}
330
6A
100
AcDbMaterial
  1
ByBlock
  0
MATERIAL
  5
EC
102
{ACAD_XDICTIONARY
360
1F7
102
}
102
{ACAD_REACTORS
330
6A
102
}
330
6A
100
AcDbMaterial
  1
ByLayer
  0
MATERIAL
  5
EE
102
{ACAD_XDICTIONARY
360
173
102
}
102
{ACAD_REACTORS
330
6A
102
}
330
6A
100
AcDbMaterial
  1
Global
 43
0.0007999999797903
 43
0.0
 43
0.0
 43
0.0
 43
0.0
 43
0.0007999999797903
 43
0.0
 43
0.0
 43
0.0
 43
0.0
 43
1.0
 43
0.0
 43
0.0
 43
0.0
 43
0.0
 43
1.0
 49
0.0007999999797903
 49
0.0
 49
0.0
 49
0.0
 49
0.0
 49
0.0007999999797903
 49
0.0
 49
0.0
 49
0.0
 49
0.0
 49
1.0
 49
0.0
 49
0.0
 49
0.0
 49
0.0
 49
1.0
142
0.0007999999797903
142
0.0
142
0.0
142
0.0
142
0.0
142
0.0007999999797903
142
0.0
142
0.0
142
0.0
142
0.0
142
1.0
142
0.0
142
0.0
142
0.0
142
0.0
142
1.0
144
0.0007999999797903
144
0.0
144
0.0
144
0.0
144
0.0
144
0.0007999999797903
144
0.0
144
0.0
144
0.0
144
0.0
144
1.0
144
0.0
144
0.0
144
0.0
144
0.0
144
1.0
1001
ACAD
1070
    -1
1070
     3
1070
     0
1000

1071
        0
1070
     0
  0
MLEADERSTYLE
  5
12E
102
{ACAD_XDICTIONARY
360
6632
102
}
102
{ACAD_REACTORS
330
12D
102
}
330
12D
100
AcDbMLeaderStyle
170
     2
171
     1
172
     0
 90
        2
 40
0.0
 41
0.0
173
     1
 91
-1056964608
340
14
 92
       -2
290
     1
 42
2.0
291
     1
 43
8.0
  3
Standard
 44
4.0
300

342
11
174
     1
178
     1
175
     1
176
     0
 93
-1056964608
 45
4.0
292
     0
297
     0
 46
4.0
 94
-1056964608
 47
1.0
 49
1.0
140
1.0
293
     1
141
0.0
294
     1
177
     0
142
1.0
295
     0
296
     0
143
3.75
1001
ACAD_MLEADERVER
1070
     2
  0
MLINESTYLE
  5
18
102
{ACAD_REACTORS
330
17
102
}
330
17
100
AcDbMlineStyle
  2
STANDARD
 70
     0
  3

 62
   256
 51
90.0
 52
90.0
 71
     2
 49
0.5
 62
   256
  6
BYLAYER
 49
-0.5
 62
   256
  6
BYLAYER
  0
ACDBPLACEHOLDER
  5
F
102
{ACAD_REACTORS
330
E
102
}
330
E
  0
SCALE
  5
10D
102
{ACAD_REACTORS
330
10C
102
}
330
10C
100
AcDbScale
 70
     0
300
1:1
140
1.0
141
1.0
290
     1
  0
SCALE
  5
1BE
102
{ACAD_REACTORS
330
10C
102
}
330
10C
100
AcDbScale
 70
     0
300
1:2
140
1.0
141
2.0
290
     0
  0
SCALE
  5
1BF
102
{ACAD_REACTORS
330
10C
102
}
330
10C
100
AcDbScale
 70
     0
300
1:4
140
1.0
141
4.0
290
     0
  0
SCALE
  5
1C0
102
{ACAD_REACTORS
330
10C
102
}
330
10C
100
AcDbScale
 70
     0
300
1:5
140
1.0
141
5.0
290
     0
  0
SCALE
  5
1C1
102
{ACAD_REACTORS
330
10C
102
}
330
10C
100
AcDbScale
 70
     0
300
1:8
140
1.0
141
8.0
290
     0
  0
SCALE
  5
1C2
102
{ACAD_REACTORS
330
10C
102
}
330
10C
100
AcDbScale
 70
     0
300
1:10
140
1.0
141
10.0
290
     0
  0
SCALE
  5
1C3
102
{ACAD_REACTORS
330
10C
102
}
330
10C
100
AcDbScale
 70
     0
300
1:16
140
1.0
141
16.0
290
     0
  0
SCALE
  5
1C4
102
{ACAD_REACTORS
330
10C
102
}
330
10C
100
AcDbScale
 70
     0
300
1:20
140
1.0
141
20.0
290
     0
  0
SCALE
  5
1C5
102
{ACAD_REACTORS
330
10C
102
}
330
10C
100
AcDbScale
 70
     0
300
1:30
140
1.0
141
30.0
290
     0
  0
SCALE
  5
1C6
102
{ACAD_REACTORS
330
10C
102
}
330
10C
100
AcDbScale
 70
     0
300
1:40
140
1.0
141
40.0
290
     0
  0
SCALE
  5
1C7
102
{ACAD_REACTORS
330
10C
102
}
330
10C
100
AcDbScale
 70
     0
300
1:50
140
1.0
141
50.0
290
     0
  0
SCALE
  5
1C8
102
{ACAD_REACTORS
330
10C
102
}
330
10C
100
AcDbScale
 70
     0
300
1:100
140
1.0
141
100.0
290
     0
  0
SCALE
  5
1C9
102
{ACAD_REACTORS
330
10C
102
}
330
10C
100
AcDbScale
 70
     0
300
2:1
140
2.0
141
1.0
290
     0
  0
SCALE
  5
1CA
102
{ACAD_REACTORS
330
10C
102
}
330
10C
100
AcDbScale
 70
     0
300
4:1
140
4.0
141
1.0
290
     0
  0
SCALE
  5
1CB
102
{ACAD_REACTORS
330
10C
102
}
330
10C
100
AcDbScale
 70
     0
300
8:1
140
8.0
141
1.0
290
     0
  0
SCALE
  5
1CC
102
{ACAD_REACTORS
330
10C
102
}
330
10C
100
AcDbScale
 70
     0
300
10:1
140
10.0
141
1.0
290
     0
  0
SCALE
  5
1CD
102
{ACAD_REACTORS
330
10C
102
}
330
10C
100
AcDbScale
 70
     0
300
100:1
140
100.0
141
1.0
290
     0
  0
ACDBSECTIONVIEWSTYLE
  5
21A
102
{ACAD_XDICTIONARY
360
6644
102
}
102
{ACAD_REACTORS
330
219
102
}
330
219
100
AcDbModelDocViewStyle
 70
     0
  3
Metric50
290
     0
100
AcDbSectionViewStyle
 70
     0
 71
     0
 90
      102
 71
     1
340
11
 40
5.0
340
0
340
0
 40
5.0
300
I, O, Q, S, X, Z
 40
10.0
 90
        0
 40
2.5
 90
        0
 71
     2
340
16
 90
       25
340
16
 90
       50
 40
5.0
 40
2.5
 40
5.0
 71
     3
340
11
 40
5.0
 90
        0
 40
15.0
 90
        1
300
%<\AcVar ViewSectionStartId>%-%<\AcVar ViewSectionEndId>% (%<\AcVar ViewScale \f "%sn">%)
 71
     4
300
ANSI31
 40
1.0
 90
        0
290
     0
290
     0
 90
        6
 40
0.0
 40
1.570796326794896
 40
0.2617993877991494
 40
1.308996938995747
 40
-0.2617993877991494
 40
1.832595714594046
  0
TABLESTYLE
  5
7F
102
{ACAD_XDICTIONARY
360
162
102
}
102
{ACAD_REACTORS
330
7E
102
}
330
7E
100
AcDbTableStyle
  3
Standard
 70
     0
 71
     0
 40
1.5
 41
1.5
280
     0
281
     0
  7
Standard
140
4.5
170
     2
 62
     0
 63
     7
283
     0
274
    -2
284
     1
 64
     0
275
    -2
285
     1
 65
     0
276
    -2
286
     1
 66
     0
277
    -2
287
     1
 67
     0
278
    -2
288
     1
 68
     0
279
    -2
289
     1
 69
     0
  7
Standard
140
6.0
170
     5
 62
     0
 63
     7
283
     0
274
    -2
284
     1
 64
     0
275
    -2
285
     1
 65
     0
276
    -2
286
     1
 66
     0
277
    -2
287
     1
 67
     0
278
    -2
288
     1
 68
     0
279
    -2
289
     1
 69
     0
  7
Standard
140
4.5
170
     5
 62
     0
 63
     7
283
     0
274
    -2
284
     1
 64
     0
275
    -2
285
     1
 65
     0
276
    -2
286
     1
 66
     0
277
    -2
287
     1
 67
     0
278
    -2
288
     1
 68
     0
279
    -2
289
     1
 69
     0
  0
VISUALSTYLE
  5
F5
102
{ACAD_XDICTIONARY
360
661C
102
}
102
{ACAD_REACTORS
330
EF
102
}
330
EF
100
AcDbVisualStyle
  2
2dWireframe
 70
     4
 71
     0
 72
     2
 73
     1
 90
        0
 40
-0.6
 41
-30.0
 62
     5
 63
     7
 74
     1
 91
        4
 64
     7
 65
   257
 75
     1
175
     1
 42
1.0
 92
        0
 66
   257
 43
1.0
 76
     1
 77
     6
 78
     2
 67
     7
 79
     5
170
     0
171
     0
290
     0
174
     0
 93
        1
 44
0.0
173
     0
291
     0
 45
0.0
1001
ACAD
1000
AcDbSavedByObjectVersion
1070
     0
  0
VISUALSTYLE
  5
F4
102
{ACAD_XDICTIONARY
360
661A
102
}
102
{ACAD_REACTORS
330
EF
102
}
330
EF
100
AcDbVisualStyle
  2
Basic
 70
     7
 71
     1
 72
     0
 73
     1
 90
        0
 40
-0.6
 41
-30.0
 62
     5
 63
     7
 74
     0
 91
        4
 64
     7
 65
   257
 75
     1
175
     1
 42
1.0
 92
        8
 66
     7
 43
1.0
 76
     1
 77
     6
 78
     2
 67
     7
 79
     5
170
     0
171
     0
290
     0
174
     0
 93
        1
 44
0.0
173
     0
291
     1
 45
0.0
1001
ACAD
1000
AcDbSavedByObjectVersion
1070
     0
  0
VISUALSTYLE
  5
FB
102
{ACAD_XDICTIONARY
360
6628
102
}
102
{ACAD_REACTORS
330
EF
102
}
330
EF
100
AcDbVisualStyle
  2
Brighten
 70
    12
 71
     2
 72
     2
 73
     1
 90
        0
 40
-0.6
 41
-30.0
 62
     5
 63
     7
 74
     1
 91
        4
 64
     7
 65
   257
 75
     1
175
     1
 42
1.0
 92
        8
 66
     7
 43
1.0
 76
     1
 77
     6
 78
     2
 67
     7
 79
     5
170
     0
171
     0
290
     0
174
     0
 93
        1
 44
50.0
173
     0
291
     1
 45
0.0
1001
ACAD
1000
AcDbSavedByObjectVersion
1070
     0
  0
VISUALSTYLE
  5
FF
102
{ACAD_XDICTIONARY
360
6630
102
}
102
{ACAD_REACTORS
330
EF
102
}
330
EF
100
AcDbVisualStyle
  2
ColorChange
 70
    16
 71
     2
 72
     2
 73
     3
 90
        0
 40
-0.6
 41
-30.0
 62
     5
 63
     8
 74
     1
 91
        4
 64
     7
 65
   257
 75
     1
175
     1
 42
1.0
 92
        8
 66
     8
 43
1.0
 76
     1
 77
     6
 78
     2
 67
     7
 79
     5
170
     0
171
     0
290
     0
174
     0
 93
        1
 44
0.0
173
     0
291
     1
 45
0.0
1001
ACAD
1000
AcDbSavedByObjectVersion
1070
     0
  0
VISUALSTYLE
  5
F8
102
{ACAD_XDICTIONARY
360
6622
102
}
102
{ACAD_REACTORS
330
EF
102
}
330
EF
100
AcDbVisualStyle
  2
Conceptual
 70
     9
 71
     3
 72
     2
 73
     1
 90
        0
 40
-0.6
 41
-30.0
 62
     5
 63
     7
 74
     2
 91
        2
 64
     7
 65
   257
 75
     1
175
     1
 42
40.0
 92
        8
 66
     7
 43
1.0
 76
     1
 77
     6
 78
     2
 67
     7
 79
     3
170
     0
171
     0
290
     0
174
     0
 93
        1
 44
0.0
173
     0
291
     0
 45
0.0
1001
ACAD
1000
AcDbSavedByObjectVersion
1070
     0
  0
VISUALSTYLE
  5
FA
102
{ACAD_XDICTIONARY
360
6626
102
}
102
{ACAD_REACTORS
330
EF
102
}
330
EF
100
AcDbVisualStyle
  2
Dim
 70
    11
 71
     2
 72
     2
 73
     1
 90
        0
 40
-0.6
 41
-30.0
 62
     5
 63
     7
 74
     1
 91
        4
 64
     7
 65
   257
 75
     1
175
     1
 42
1.0
 92
        8
 66
     7
 43
1.0
 76
     1
 77
     6
 78
     2
 67
     7
 79
     5
170
     0
171
     0
290
     0
174
     0
 93
        1
 44
-50.0
173
     0
291
     1
 45
0.0
1001
ACAD
1000
AcDbSavedByObjectVersion
1070
     0
  0
VISUALSTYLE
  5
1E6
102
{ACAD_XDICTIONARY
360
6638
102
}
102
{ACAD_REACTORS
330
EF
102
}
330
EF
100
AcDbVisualStyle
  2
EdgeColorOff
 70
    22
 71
     2
 72
     2
 73
     0
 90
        0
 40
-0.6
 41
-30.0
 62
     5
 63
     7
 74
     1
 91
        4
 64
     7
 65
   257
 75
     1
175
     1
 42
1.0
 92
        8
 66
     7
 43
1.0
 76
     1
 77
     6
 78
     2
 67
     7
 79
     5
170
     0
171
     0
290
     0
174
     0
 93
        1
 44
0.0
173
     0
291
     1
 45
0.0
1001
ACAD
1000
AcDbSavedByObjectVersion
1070
     0
  0
VISUALSTYLE
  5
FE
102
{ACAD_XDICTIONARY
360
662E
102
}
102
{ACAD_REACTORS
330
EF
102
}
330
EF
100
AcDbVisualStyle
  2
Facepattern
 70
    15
 71
     2
 72
     2
 73
     1
 90
        0
 40
-0.6
 41
-30.0
 62
     5
 63
     7
 74
     1
 91
        4
 64
     7
 65
   257
 75
     1
175
     1
 42
1.0
 92
        8
 66
     7
 43
1.0
 76
     1
 77
     6
 78
     2
 67
     7
 79
     5
170
     0
171
     0
290
     0
174
     0
 93
        1
 44
0.0
173
     0
291
     1
 45
0.0
1001
ACAD
1000
AcDbSavedByObjectVersion
1070
     0
  0
VISUALSTYLE
  5
F0
102
{ACAD_XDICTIONARY
360
6612
102
}
102
{ACAD_REACTORS
330
EF
102
}
330
EF
100
AcDbVisualStyle
  2
Flat
 70
     0
 71
     2
 72
     1
 73
     1
 90
        2
 40
-0.6
 41
30.0
 62
     5
 63
     7
 74
     0
 91
        0
 64
     7
 65
   257
 75
     1
175
     1
 42
1.0
 92
        8
 66
     7
 43
1.0
 76
     1
 77
     6
 78
     2
 67
     7
 79
     5
170
     0
171
     0
290
     0
174
     0
 93
       13
 44
0.0
173
     0
291
     1
 45
0.0
1001
ACAD
1000
AcDbSavedByObjectVersion
1070
     0
  0
VISUALSTYLE
  5
F1
102
{ACAD_XDICTIONARY
360
6614
102
}
102
{ACAD_REACTORS
330
EF
102
}
330
EF
100
AcDbVisualStyle
  2
FlatWithEdges
 70
     1
 71
     2
 72
     1
 73
     1
 90
        2
 40
-0.6
 41
30.0
 62
     5
 63
     7
 74
     1
 91
        0
 64
     7
 65
   257
 75
     1
175
     1
 42
1.0
 92
        0
 66
   257
 43
1.0
 76
     1
 77
     6
 78
     2
 67
     7
 79
     5
170
     0
171
     0
290
     0
174
     0
 93
       13
 44
0.0
173
     0
291
     1
 45
0.0
1001
ACAD
1000
AcDbSavedByObjectVersion
1070
     0
  0
VISUALSTYLE
  5
F2
102
{ACAD_XDICTIONARY
360
6616
102
}
102
{ACAD_REACTORS
330
EF
102
}
330
EF
100
AcDbVisualStyle
  2
Gouraud
 70
     2
 71
     2
 72
     2
 73
     1
 90
        2
 40
-0.6
 41
30.0
 62
     5
 63
     7
 74
     0
 91
        0
 64
     7
 65
   257
 75
     1
175
     1
 42
1.0
 92
        0
 66
     7
 43
1.0
 76
     1
 77
     6
 78
     2
 67
     7
 79
     5
170
     0
171
     0
290
     0
174
     0
 93
       13
 44
0.0
173
     0
291
     1
 45
0.0
1001
ACAD
1000
AcDbSavedByObjectVersion
1070
     0
  0
VISUALSTYLE
  5
F3
102
{ACAD_XDICTIONARY
360
6618
102
}
102
{ACAD_REACTORS
330
EF
102
}
330
EF
100
AcDbVisualStyle
  2
GouraudWithEdges
 70
     3
 71
     2
 72
     2
 73
     1
 90
        2
 40
-0.6
 41
30.0
 62
     5
 63
     7
 74
     1
 91
        0
 64
     7
 65
   257
 75
     1
175
     1
 42
1.0
 92
        0
 66
   257
 43
1.0
 76
     1
 77
     6
 78
     2
 67
     7
 79
     5
170
     0
171
     0
290
     0
174
     0
 93
       13
 44
0.0
173
     0
291
     1
 45
0.0
1001
ACAD
1000
AcDbSavedByObjectVersion
1070
     0
  0
VISUALSTYLE
  5
F7
102
{ACAD_XDICTIONARY
360
6620
102
}
102
{ACAD_REACTORS
330
EF
102
}
330
EF
100
AcDbVisualStyle
  2
Hidden
 70
     6
 71
     1
 72
     2
 73
     2
 90
        0
 40
-0.6
 41
-30.0
 62
     5
 63
     7
 74
     2
 91
        2
 64
     7
 65
   257
 75
     2
175
     1
 42
40.0
 92
        0
 66
   257
 43
1.0
 76
     1
 77
     6
 78
     2
 67
     7
 79
     3
170
     0
171
     0
290
     0
174
     0
 93
        1
 44
0.0
173
     0
291
     0
 45
0.0
1001
ACAD
1000
AcDbSavedByObjectVersion
1070
     0
  0
VISUALSTYLE
  5
1E4
102
{ACAD_XDICTIONARY
360
6634
102
}
102
{ACAD_REACTORS
330
EF
102
}
330
EF
100
AcDbVisualStyle
  2
JitterOff
 70
    20
 71
     2
 72
     2
 73
     0
 90
        0
 40
-0.6
 41
-30.0
 62
     5
 63
     7
 74
     1
 91
        4
 64
     7
 65
   257
 75
     1
175
     1
 42
1.0
 92
       10
 66
     7
 43
1.0
 76
     1
 77
     6
 78
     2
 67
     7
 79
     5
170
     0
171
     0
290
     0
174
     0
 93
        1
 44
0.0
173
     0
291
     1
 45
0.0
1001
ACAD
1000
AcDbSavedByObjectVersion
1070
     0
  0
VISUALSTYLE
  5
FD
102
{ACAD_XDICTIONARY
360
662C
102
}
102
{ACAD_REACTORS
330
EF
102
}
330
EF
100
AcDbVisualStyle
  2
Linepattern
 70
    14
 71
     2
 72
     2
 73
     1
 90
        0
 40
-0.6
 41
-30.0
 62
     5
 63
     7
 74
     1
 91
        4
 64
     7
 65
   257
 75
     7
175
     7
 42
1.0
 92
        8
 66
     7
 43
1.0
 76
     1
 77
     6
 78
     2
 67
     7
 79
     5
170
     0
171
     0
290
     0
174
     0
 93
        1
 44
0.0
173
     0
291
     1
 45
0.0
1001
ACAD
1000
AcDbSavedByObjectVersion
1070
     0
  0
VISUALSTYLE
  5
1E5
102
{ACAD_XDICTIONARY
360
6636
102
}
102
{ACAD_REACTORS
330
EF
102
}
330
EF
100
AcDbVisualStyle
  2
OverhangOff
 70
    21
 71
     2
 72
     2
 73
     0
 90
        0
 40
-0.6
 41
-30.0
 62
     5
 63
     7
 74
     1
 91
        4
 64
     7
 65
   257
 75
     1
175
     1
 42
1.0
 92
        9
 66
     7
 43
1.0
 76
     1
 77
     6
 78
     2
 67
     7
 79
     5
170
     0
171
     0
290
     0
174
     0
 93
        1
 44
0.0
173
     0
291
     1
 45
0.0
1001
ACAD
1000
AcDbSavedByObjectVersion
1070
     0
  0
VISUALSTYLE
  5
F9
102
{ACAD_XDICTIONARY
360
6624
102
}
102
{ACAD_REACTORS
330
EF
102
}
330
EF
100
AcDbVisualStyle
  2
Realistic
 70
     8
 71
     2
 72
     2
 73
     0
 90
        2
 40
-0.6
 41
30.0
 62
     5
 63
     7
 74
     0
 91
        0
 64
     7
 65
   257
 75
     1
175
     1
 42
1.0
 92
        8
 66
   257
 43
1.0
 76
     1
 77
     6
 78
     2
 67
     7
 79
     3
170
     0
171
     0
290
     0
174
     0
 93
       13
 44
0.0
173
     0
291
     0
 45
0.0
1001
ACAD
1000
AcDbSavedByObjectVersion
1070
     0
  0
VISUALSTYLE
  5
1F3
102
{ACAD_XDICTIONARY
360
6642
102
}
102
{ACAD_REACTORS
330
EF
102
}
330
EF
100
AcDbVisualStyle
  2
Shaded
 70
    27
 71
     2
 72
     2
 73
     1
 90
        2
 40
-0.6
 41
30.0
 62
     5
 63
     7
 74
     0
 91
        4
 64
     7
 65
   257
 75
     1
175
     1
 42
1.0
 92
        8
 66
   257
 43
1.0
 76
     1
 77
     6
 78
     2
 67
     8
 79
     3
170
     0
171
     0
290
     0
174
     0
 93
        5
 44
0.0
173
     0
291
     0
 45
0.0
1001
ACAD
1000
AcDbSavedByObjectVersion
1070
     0
  0
VISUALSTYLE
  5
1F2
102
{ACAD_XDICTIONARY
360
6640
102
}
102
{ACAD_REACTORS
330
EF
102
}
330
EF
100
AcDbVisualStyle
  2
Shaded with edges
 70
    26
 71
     2
 72
     2
 73
     1
 90
        2
 40
-0.6
 41
30.0
 62
     5
 63
     7
 74
     1
 91
        2
 64
     7
 65
   257
 75
     2
175
     1
 42
1.0
 92
        8
 66
   257
 43
1.0
 76
     1
 77
     6
 78
     2
 67
     7
 79
     3
170
     0
171
     0
290
     0
174
     0
 93
        5
 44
0.0
173
     0
291
     0
 45
0.0
1001
ACAD
1000
AcDbSavedByObjectVersion
1070
     0
  0
VISUALSTYLE
  5
1EF
102
{ACAD_XDICTIONARY
360
663A
102
}
102
{ACAD_REACTORS
330
EF
102
}
330
EF
100
AcDbVisualStyle
  2
Shades of Gray
 70
    23
 71
     2
 72
     2
 73
     3
 90
        0
 40
-0.6
 41
-30.0
 62
     5
 63
     7
 74
     2
 91
        2
 64
     7
 65
     7
 75
     1
175
     1
 42
40.0
 92
        8
 66
     7
 43
1.0
 76
     1
 77
     6
 78
     2
 67
     7
 79
     3
170
     0
171
     0
290
     0
174
     0
 93
        1
 44
0.0
173
     0
291
     0
 45
0.0
1001
ACAD
1000
AcDbSavedByObjectVersion
1070
     0
  0
VISUALSTYLE
  5
1F0
102
{ACAD_XDICTIONARY
360
663C
102
}
102
{ACAD_REACTORS
330
EF
102
}
330
EF
100
AcDbVisualStyle
  2
Sketchy
 70
    24
 71
     1
 72
     2
 73
     2
 90
        0
 40
-0.6
 41
-30.0
 62
     5
 63
     7
 74
     2
 91
        2
 64
     7
 65
     7
 75
     1
175
     1
 42
40.0
 92
       11
 66
     7
 43
1.0
 76
     1
 77
     6
 78
     2
 67
     7
 79
     6
170
     0
171
     0
290
     0
174
     0
 93
        1
 44
0.0
173
     0
291
     0
 45
0.0
1001
ACAD
1000
AcDbSavedByObjectVersion
1070
     0
  0
VISUALSTYLE
  5
FC
102
{ACAD_XDICTIONARY
360
662A
102
}
102
{ACAD_REACTORS
330
EF
102
}
330
EF
100
AcDbVisualStyle
  2
Thicken
 70
    13
 71
     2
 72
     2
 73
     1
 90
        0
 40
-0.6
 41
-30.0
 62
     5
 63
     7
 74
     1
 91
        4
 64
     7
 65
   257
 75
     1
175
     1
 42
1.0
 92
       12
 66
     7
 43
1.0
 76
     1
 77
     6
 78
     2
 67
     7
 79
     5
170
     0
171
     0
290
     0
174
     0
 93
        1
 44
0.0
173
     0
291
     1
 45
0.0
1001
ACAD
1000
AcDbSavedByObjectVersion
1070
     0
  0
VISUALSTYLE
  5
F6
102
{ACAD_XDICTIONARY
360
661E
102
}
102
{ACAD_REACTORS
330
EF
102
}
330
EF
100
AcDbVisualStyle
  2
Wireframe
 70
     5
 71
     0
 72
     2
 73
     0
 90
        0
 40
-0.6
 41
-30.0
 62
     5
 63
     7
 74
     1
 91
        4
 64
     7
 65
   257
 75
     1
175
     1
 42
1.0
 92
        0
 66
   257
 43
1.0
 76
     1
 77
     6
 78
     2
 67
     7
 79
     3
170
     0
171
     0
290
     0
174
     0
 93
        1
 44
0.0
173
     0
291
     0
 45
0.0
1001
ACAD
1000
AcDbSavedByObjectVersion
1070
     0
  0
VISUALSTYLE
  5
1F1
102
{ACAD_XDICTIONARY
360
663E
102
}
102
{ACAD_REACTORS
330
EF
102
}
330
EF
100
AcDbVisualStyle
  2
X-Ray
 70
    25
 71
     2
 72
     2
 73
     1
 90
        1
 40
0.5
 41
-30.0
 62
     5
 63
     7
 74
     1
 91
        0
 64
     7
 65
   257
 75
     1
175
     1
 42
1.0
 92
        8
 66
     7
 43
1.0
 76
     1
 77
     6
 78
     2
 67
     7
 79
     3
170
     0
171
     0
290
     0
174
     0
 93
       13
 44
0.0
173
     0
291
     0
 45
0.0
1001
ACAD
1000
AcDbSavedByObjectVersion
1070
     0
  0
DICTIONARYVAR
  5
146
102
{ACAD_REACTORS
330
5E
102
}
330
5E
100
DictionaryVariables
280
     0
  1
1:1
  0
DICTIONARYVAR
  5
259
102
{ACAD_REACTORS
330
5E
102
}
330
5E
100
DictionaryVariables
280
     0
  1
3.500000
  0
DICTIONARYVAR
  5
25A
102
{ACAD_REACTORS
330
5E
102
}
330
5E
100
DictionaryVariables
280
     0
  1
acadiso.lin
  0
DICTIONARYVAR
  5
145
102
{ACAD_REACTORS
330
5E
102
}
330
5E
100
DictionaryVariables
280
     0
  1
STANDARD
  0
DICTIONARYVAR
  5
84
102
{ACAD_REACTORS
330
5E
102
}
330
5E
100
DictionaryVariables
280
     0
  1
STANDARD
  0
DICTIONARYVAR
  5
227
102
{ACAD_REACTORS
330
5E
102
}
330
5E
100
DictionaryVariables
280
     0
  1
Metric50
  0
DICTIONARYVAR
  5
228
102
{ACAD_REACTORS
330
5E
102
}
330
5E
100
DictionaryVariables
280
     0
  1
Metric50
  0
DICTIONARYVAR
  5
5F
102
{ACAD_REACTORS
330
5E
102
}
330
5E
100
DictionaryVariables
280
     0
  1
2
  0
DICTIONARYVAR
  5
63
102
{ACAD_REACTORS
330
5E
102
}
330
5E
100
DictionaryVariables
280
     0
  1
1
  0
DICTIONARYVAR
  5
65B3
102
{ACAD_REACTORS
330
5E
102
}
330
5E
100
DictionaryVariables
280
     0
  1
0
  0
DICTIONARYVAR
  5
1AE
102
{ACAD_REACTORS
330
5E
102
}
330
5E
100
DictionaryVariables
280
     0
  1
0
  0
DICTIONARYVAR
  5
1AF
102
{ACAD_REACTORS
330
5E
102
}
330
5E
100
DictionaryVariables
280
     0
  1
0
  0
DICTIONARYVAR
  5
65B1
102
{ACAD_REACTORS
330
5E
102
}
330
5E
100
DictionaryVariables
280
     0
  1
2
  0
DICTIONARYVAR
  5
65B0
102
{ACAD_REACTORS
330
5E
102
}
330
5E
100
DictionaryVariables
280
     0
  1
1
  0
DICTIONARYVAR
  5
6603
102
{ACAD_REACTORS
330
5E
102
}
330
5E
100
DictionaryVariables
280
     0
  1
80.000000
  0
DICTIONARYVAR
  5
6602
102
{ACAD_REACTORS
330
5E
102
}
330
5E
100
DictionaryVariables
280
     0
  1
5.000000
  0
DICTIONARYVAR
  5
65B2
102
{ACAD_REACTORS
330
5E
102
}
330
5E
100
DictionaryVariables
280
     0
  1
127
  0
DICTIONARYVAR
  5
6604
102
{ACAD_REACTORS
330
5E
102
}
330
5E
100
DictionaryVariables
280
     0
  1
2
  0
DICTIONARY
  5
6646
330
21C
100
AcDbDictionary
280
     1
281
     1
  3
ACAD_XREC_ROUNDTRIP
360
6647
  0
DICTIONARY
  5
660B
330
D3
100
AcDbDictionary
280
     1
281
     1
  3
ACAD_XREC_ROUNDTRIP
360
660C
  0
DICTIONARY
  5
660D
330
D7
100
AcDbDictionary
280
     1
281
     1
  3
ACAD_XREC_ROUNDTRIP
360
660E
  0
DICTIONARY
  5
6608
330
22
100
AcDbDictionary
280
     1
281
     1
  3
ACAD_XREC_ROUNDTRIP
360
6609
  0
DICTIONARY
  5
1F9
330
ED
100
AcDbDictionary
280
     1
281
     1
  3
ACAD_XREC_ROUNDTRIP
360
6610
  3
FBXASSET
360
1FA
  0
DICTIONARY
  5
1F7
330
EC
100
AcDbDictionary
280
     1
281
     1
  3
ACAD_XREC_ROUNDTRIP
360
660F
  3
FBXASSET
360
1F8
  0
DICTIONARY
  5
173
330
EE
100
AcDbDictionary
280
     1
281
     1
  3
ACAD_XREC_ROUNDTRIP
360
6611
  3
BUMPTILE
360
175
  3
DIFFUSETILE
360
174
  3
FBXASSET
360
1FB
  3
OPACITYTILE
360
176
  3
REFLECTIONTILE
360
177
  0
DICTIONARY
  5
6632
330
12E
100
AcDbDictionary
280
     1
281
     1
  3
ACAD_XREC_ROUNDTRIP
360
6633
  0
DICTIONARY
  5
6644
330
21A
100
AcDbDictionary
280
     1
281
     1
  3
ACAD_XREC_ROUNDTRIP
360
6645
  0
DICTIONARY
  5
162
330
7F
100
AcDbDictionary
280
     1
281
     1
  3
ACAD_ROUNDTRIP_2008_TABLESTYLE_CELLSTYLEMAP
360
6605
  3
ACAD_XREC_ROUNDTRIP
360
660A
  0
DICTIONARY
  5
661C
330
F5
100
AcDbDictionary
280
     1
281
     1
  3
ACAD_XREC_ROUNDTRIP
360
661D
  0
DICTIONARY
  5
661A
330
F4
100
AcDbDictionary
280
     1
281
     1
  3
ACAD_XREC_ROUNDTRIP
360
661B
  0
DICTIONARY
  5
6628
330
FB
100
AcDbDictionary
280
     1
281
     1
  3
ACAD_XREC_ROUNDTRIP
360
6629
  0
DICTIONARY
  5
6630
330
FF
100
AcDbDictionary
280
     1
281
     1
  3
ACAD_XREC_ROUNDTRIP
360
6631
  0
DICTIONARY
  5
6622
330
F8
100
AcDbDictionary
280
     1
281
     1
  3
ACAD_XREC_ROUNDTRIP
360
6623
  0
DICTIONARY
  5
6626
330
FA
100
AcDbDictionary
280
     1
281
     1
  3
ACAD_XREC_ROUNDTRIP
360
6627
  0
DICTIONARY
  5
6638
330
1E6
100
AcDbDictionary
280
     1
281
     1
  3
ACAD_XREC_ROUNDTRIP
360
6639
  0
DICTIONARY
  5
662E
330
FE
100
AcDbDictionary
280
     1
281
     1
  3
ACAD_XREC_ROUNDTRIP
360
662F
  0
DICTIONARY
  5
6612
330
F0
100
AcDbDictionary
280
     1
281
     1
  3
ACAD_XREC_ROUNDTRIP
360
6613
  0
DICTIONARY
  5
6614
330
F1
100
AcDbDictionary
280
     1
281
     1
  3
ACAD_XREC_ROUNDTRIP
360
6615
  0
DICTIONARY
  5
6616
330
F2
100
AcDbDictionary
280
     1
281
     1
  3
ACAD_XREC_ROUNDTRIP
360
6617
  0
DICTIONARY
  5
6618
330
F3
100
AcDbDictionary
280
     1
281
     1
  3
ACAD_XREC_ROUNDTRIP
360
6619
  0
DICTIONARY
  5
6620
330
F7
100
AcDbDictionary
280
     1
281
     1
  3
ACAD_XREC_ROUNDTRIP
360
6621
  0
DICTIONARY
  5
6634
330
1E4
100
AcDbDictionary
280
     1
281
     1
  3
ACAD_XREC_ROUNDTRIP
360
6635
  0
DICTIONARY
  5
662C
330
FD
100
AcDbDictionary
280
     1
281
     1
  3
ACAD_XREC_ROUNDTRIP
360
662D
  0
DICTIONARY
  5
6636
330
1E5
100
AcDbDictionary
280
     1
281
     1
  3
ACAD_XREC_ROUNDTRIP
360
6637
  0
DICTIONARY
  5
6624
330
F9
100
AcDbDictionary
280
     1
281
     1
  3
ACAD_XREC_ROUNDTRIP
360
6625
  0
DICTIONARY
  5
6642
330
1F3
100
AcDbDictionary
280
     1
281
     1
  3
ACAD_XREC_ROUNDTRIP
360
6643
  0
DICTIONARY
  5
6640
330
1F2
100
AcDbDictionary
280
     1
281
     1
  3
ACAD_XREC_ROUNDTRIP
360
6641
  0
DICTIONARY
  5
663A
330
1EF
100
AcDbDictionary
280
     1
281
     1
  3
ACAD_XREC_ROUNDTRIP
360
663B
  0
DICTIONARY
  5
663C
330
1F0
100
AcDbDictionary
280
     1
281
     1
  3
ACAD_XREC_ROUNDTRIP
360
663D
  0
DICTIONARY
  5
662A
330
FC
100
AcDbDictionary
280
     1
281
     1
  3
ACAD_XREC_ROUNDTRIP
360
662B
  0
DICTIONARY
  5
661E
330
F6
100
AcDbDictionary
280
     1
281
     1
  3
ACAD_XREC_ROUNDTRIP
360
661F
  0
DICTIONARY
  5
663E
330
1F1
100
AcDbDictionary
280
     1
281
     1
  3
ACAD_XREC_ROUNDTRIP
360
663F
  0
XRECORD
  5
6647
102
{ACAD_REACTORS
330
6646
102
}
330
6646
100
AcDbXrecord
280
     1
102
DISPLAYNAME
  1
Metric50
102
FLAGS
 90
        0
  0
XRECORD
  5
660C
102
{ACAD_REACTORS
330
660B
102
}
330
660B
100
AcDbXrecord
280
     1
102
SHADEPLOT
 70
     0
102
SHADEPLOTRESLEVEL
 70
     2
102
SHADEPLOTCUSTOMDPI
 70
   300
  0
XRECORD
  5
660E
102
{ACAD_REACTORS
330
660D
102
}
330
660D
100
AcDbXrecord
280
     1
102
SHADEPLOT
 70
     0
102
SHADEPLOTRESLEVEL
 70
     2
102
SHADEPLOTCUSTOMDPI
 70
   300
  0
XRECORD
  5
6609
102
{ACAD_REACTORS
330
6608
102
}
330
6608
100
AcDbXrecord
280
     1
102
SHADEPLOT
 70
     0
102
SHADEPLOTRESLEVEL
 70
     2
102
SHADEPLOTCUSTOMDPI
 70
   300
  0
XRECORD
  5
6610
102
{ACAD_REACTORS
330
1F9
102
}
330
1F9
100
AcDbXrecord
280
     1
102
MATERIAL
148
0.0
149
0.0
149
0.0
 93
        0
 94
       63
282
     0
 72
     1
 77
     1
171
     1
175
     1
179
     1
273
     0
  0
XRECORD
  5
1FA
102
{ACAD_REACTORS
330
1F9
102
}
330
1F9
100
AcDbXrecord
280
     1
 70
     1
 90
429727718
  1
D62C5603-E3A1-4AEA-B7FB-FE5D8D0755AF
310
504B03040A0000080000CC70623B3DEE336E79000000790000001B0000006175746F6465736B2D64657369676E2D7061636B6167652E786D6C3C3F786D6C2076657273696F6E3D22312E302220656E636F64696E673D227574662D3822203F3E3C666F726D6174733E3C666F726D61743E687474703A2F2F736368656D612E
310
6175746F6465736B2E636F6D2F64657369676E2D7061636B6167652F323030393C2F666F726D61743E3C2F666F726D6174733E504B0304140006080800CC70623BD486FD9CA0000000F4000000130000005B436F6E74656E745F54797065735D2E786D6C7D8EC10E82300C865F65E91D8A1E8C310C0EEA1BF002731658846E
310
D98AC1B77784ABF1D8FE5FBFBF75BBCE937A534CCEB38643598122B6FEE978D0B0485F9C41B54DDD7D022595594E1A469170414C76A4D9A4D207E29CF43ECE46F218070CC6BECC4078ACAA135ACF422C856C0E68EA1BF5669944DDD7BCDE7B1F8E415D77AECB980613C2E4AC91FC167A2B244592486606FC29C8FD7F045B9A
310
EF7053A7E60B504B0304140006080800CC70623B853B8169EB0000007C01000008000000636F72652E786D6C8D90416EC3201045AF62CDB6C206821CC7C244919D9CA01740401C94182C03558F5F9C3852BBEB6A467FFE9B197D7EFC9E1EC5975982F5AE035262288C535E5B377690E21535501C055FBC8FBF6C503839990E
310
5619041F179FE64D52DE45E362569DD7661365082642A11EB9E920A89B99642953CC8E702F67A9EE7234257977194EC9EAE275C4EABCCF5EAD5940D4AC6F0E35A568B8F43562CD7046CD199FD07E60174276A7BE677B5EADB0E0D14EEFFB6A31321A0D82627C4084204C3F096B71DD52F6819B16635EADF63F509AF53FA164
310
5DDCD1EDDD17164090FCC8732078B56691CB33A85CD7DCC40F504B0304140006080800CC70623B55019EA25F0000007C00000007000000636E782E786D6C4DCB3B0E80201045D1AD90E915ED2CF8AC45050C11660C8261F98AB1B07AC9C97D42D718D865D3E909258CFD00CCE24AC6E326A164D74DC0B4128928FF32603847
310
2BA13128B1252AC747C6BAB984FC68F0B87FE8960A5C09FE86CFB69FBA01504B0304140006080800CC70623BDBABAAF470010000D40300000C0000006662782F636F72652E786D6CC553D16E823014FD95A6AF4B694182CC941A83FA05FB810A9511A125A5257EFE2E82712ECEB8A7F100CD39F7F69E734AF9FADC366850B6
310
AF8DCE7018308C942E4C59EB2AC3DE1D498AD15A706B8CFB56869196ADCAF00863C12B6B7C374385D14E6907A836A59A41D9F7CA615434B0C8705F7CAA5606D23BA8E84F41278B93AC54100640439DE0BDB320004D43C63716C7C399D30917DCFBBA9CD9BA8469F5B156168B24CED3F7248AC8769F27244EB73B92EED8862C
310
B7F13E0C179B3C8F979C8ECD82BBBABDAA2BAC924E9558448CBD9330242CFA08E3154B5651FCC6D215639C8EE5774DBE2B5F6CF2B5768B68963BB5F5588420E442FC700B1139D4CB01F450C1E918227C2E09DF070D8140C84E1E9AAB8F1340832A9CB13130A5F1376A908D57309505ECF2A0DF179C4E9D30F5B239B87E3823
310
7A79C6F31DE1A8A5AEC08474B03C7837EAE4938639B44E5932B833D2C6B6B279CDC613877FA26EE21F4A2A4C63EC7F29A2F301D1F9F7A0E37D145F504B0304140006080800CC70623B9C113CC27E0000009D0000000B0000006662782F636E782E786D6C4DCCDF0A83201C86E15B91DFB94BFB330DD428C8FB886521330DA7
310
6397BF1A1DECE883878F57749FCDA1B7892F1BBC047A23808C7F84D9FA55424E0BE6803A256208E9EF06C84F9B91703228B1C690F78B66B34CD9A5439DF5CF0BFBF65E35BCA1B8D6A5C6F540381E886698B5741C695F9503EBA150A2F8958E3DC3EA0B504B0304140006080800CC70623B7DF2F77C2A010000120200003100
310
00006662782F41393633353835312D344632462D344230382D423046372D3739314545314133324237412F636F72652E786D6C8D51DB8EC22014FC15C2939B0D2DB4B45643319AE817EC0F6041255A68B86CFCFC856D4D76DF7CE190393373060EDB3DC707F856CE6B6B7A480A0C81328395DA5C7B18C3057510EC3873D686
310
3F34088C18550F330C39BB3A1BA7051AAC09CA84841A2BD5020AEF55806078A44B0FFD7053A328440C89E1EFC52486BBB8AA8214A99D789CF9E05200300FC927E4FB4D5B375D43103D5527440FB843077C5AA3F5861C8F645F5787F59E95B390B318B55CE45AA638FAA2957BD7248B390B7A7CC51F9C124149C82B8C378810
310
84AB2F42B7B8DD56F413775B8C5999E9FF4471926F8AA236A1AE96B8B3CC434E5839373893369E1FAF30EA395917409EB7F26AF8801C171837A4A6AC9C89E9F9C9B1A58BA30FD6A5EF5DDDCF894B9AD9B6A59C957943A9FCAE2FD5BC4DFE03504B0304140006080800CC70623BAD7543B64E01000033030000300000006662
310
782F41393633353835312D344632462D344230382D423046372D3739314545314133324237412F636E782E786D6CD593CD6EC32010845F0571AD6CE3D48AD20813A9873E410FBD12D82434182C7EAAE6EDBB2424CD25871E7B41D6EC30B3FA84F9E67BB2E40B4234DE8DB46F1925E094D7C6ED479AD3AE5951B2113C789FEE
310
6C943839C1488B4C05DF079FE72A69D8C96C13AAD6B8631503449F83828872B949AC57D26200B826A308D316B4064D6E46FCDA41C05550DC9E483A00797BFD207EFB092A45DE9514C1BBD22178396BD39D891265658C238DEA00936C654E5E433CB65A26D9F6EDB5EBC14EBF49A45CB856E66048291F6939A9A81BB5C89177
310
38143CA680F4AA299D66A042CEB3354A2684DC9D8D178FE0D9B8B41CAAD720F880EE7EF93C0C18769E099ECC04D5A102C8049A8A05632F4DDF376CF1DE0F6BB65C2F8627B65A33C6BB62177CEBBDAD973006829F89F22E814B54F4BC2BE347F8AA8F681390B50FA73F804400B5F542E796F19FF974E7F78DB802FE05E20750
310
4B0304140006080800CC70623BE75B7789680500003C100000340000006662782F41393633353835312D344632462D344230382D423046372D3739314545314133324237412F6F626A656374732E786D6CAD575B8F9B3818FD2B887D06C22499CB8AA1CA655245D5B455A356FB305264C061D8018C6C3393D95FBFC7600890
310
A4CD5EF210B0B1BFEBF98E3F7B1FF6596ABC522E1296DF9BAE3D320D9A872C4AF2F8DE2CE5CEBA358D0FBEC719939D65A691938CDE9B6ADAF4BD98B3B2D05311DD91329583D9D5FC0F438434A7A611A644887B5384CF34233629258BA878B12322891DEFF6B66BD70BFB62634E8AE781D082709A4B588AF91C528CDA28B73F
310
1C998EEF39EABBEFA97FBD6A7C7E9553F9D3D79FE442923C3C523610337627CB87ABE99D359D4CC6D6E4FACAB5E6ABF9D2726FC6A3C5F56271377BB88362213924694B38DD99FE47C48627A1E7D49F5A8BB5E1A74C0A599ED3B0F21F1E56366B89112D681E218F0915D0D6F17AD41FBA2A369DCF6335D62ABBD39779D5DDD1
310
11D4D8DE3CBB96B2E04FB8202E41051754A1AA8E8F76B4C6DFE810B580B1547F4B84911149794252234D024EF8BBE963A95AE27B3D310A9D5C215C7960FAEE415ED75694C6AFB17BCACA5D99A60A9AA65F217B0BFC53292ACB92BF283FAD0D3621576592CB5BED907C2FA8E9DF794E35E97BEA31BED21FEB401ABB94C44839
310
DCACBF0E1C5DA8DA5B2F4DFFD32AD86F543D9E565E7056502E157C00AD2671CD534549AB752FCA9CDA00677A313F04E51B22FF19E57B300579E3C97EB29F682D92935CEC18CF901B7B54FD8C51F362B56FC72FE0B3C1EAE335EDCCBF5AEC39ADB17DC238973F804BA5E6F6BFE7AF1FB32E523BE9F3BD571418E3631DCA4D48
310
5250CF639223210A9446CA30052EDF057BD35F8329C1ECD84552BF0DC8D18BE7BCE23BFE6BD960AB4A7DE79923A103BEBD80F911CBAA2C60DB19B01CF164A5583B772EE6D3FFA56666CBCDA74DC97724A48F9A58967497E489C4D979006FD7A05E227A1EBDD0F737C623387A9C844D3709995625106D157315F8B8392CD4E0
310
A0B9A720C4BE9829CEF37EA1E13111214D53925356365ADA634861B52519DD27A00AEB808EAF0628E6F435519D446F45CF2C9CF5214F0A15B2F6D06B79DA3EE3CBF7F56780D2F4E7EF73A0F5E5B02A38D07DC852C6B7C1FBB6664213E0C39E3EBA7FF4E1AD23EA2829407C85E586727488B751B2DB9502BC7B228A3FD68B6E
310
A65A22397E690AA8D158D7E404EC8CDA235CC3B7D1898680131CEC2CDF2638C65196279577750F15884AEE19F94199155B92B13297978469D4F8D358DF0AEF7631E28DC8F0D9F437D5D39A83B2231A1D52D543813A824EF8D44BCFF2FA6A31BD1E8DAD87F1CCB526B3879935BF59CDADD5C37479BB1CDD4CA7B3556B516589
310
EF352754B706114D9C885EC9131DE6EFEB43D99AFE2391C2F958179413D7CFEF6B1B6DB1E7600F00DE6E5C67454A339A4BA2E0FBA85ED26F045D454F463DBFCE484C2F90F2E5E3666003662ED8F755951A7D1BECD5B30B550B2785C8E7320B7292A4838DDA71BBC863ED7613CAF659337A3354231D4FF4A182A54904C2898C
310
98B28C4AD0CE056CCF332A80986E571EE9DBC305BB5FEB7E509220A58D25CF042D712A806AC0AD0C657FDEF80D2D9CEAA2EE4D1C76F60BFE74219A06527D6F82DF6412526107381E55E353090704D085B52408A8913C4ED159D79BDA71BB4BC506F4831350EB6F975CD22D69BF7AC49B91A2C0A9DDA3D5CA36AD20FC478E37
310
E61844E2352865EBCB61A275A65283CAAA9DD27703B4102F5AF51EF5F573B75CBB5AD38BC845F7A49F82A0966A49C2E3EA5EA0ECD326CD965F1DB402C6FA8B51A4658C5C5E2EC9E214602E55810345408596591009A82E7E7FFACA19EEA299B14A0081A705CB3296EBC14CDF658DCD336EA6D1136881AAEB87B81AB9EE53D5
310
F5EB8BC8362082DA24122F98680A4E7930C01A0079749CEA14382A0783E5EBA5A10F8C098456A03D6A4AEB6BB881E2513747552A5DB22C7EDAF83BD5528081A365F7FF06504B0304140006080000CC70623B000000000000000000000000350000006662782F41393633353835312D344632462D344230382D423046372D37
310
39314545314133324237412F76657274696365732E62696E504B0304140006080800CC70623BF270F1330600000004000000360000006662782F41393633353835312D344632462D344230382D423046372D3739314545314133324237412F747269616E676C65732E62696E636660600000504B0304140006080000CC7062
310
3B000000000000000000000000370000006662782F41393633353835312D344632462D344230382D423046372D3739314545314133324237412F617474726962757465732E62696E504B0304140006080800CC70623B08DA0BD19000000041010000360000006662782F41393633353835312D344632462D344230382D4230
310
46372D3739314545314133324237412F6469726563746F72792E786D6C858F410AC3201045AF22B36F53E9A60B35CBEEBAE80D244E44489C6234F4F835464A48035D0DF398FF9F8AF63D0E6CC63039F212F8F9020C7D47C6792B21C5FE7403D62A1188E2E60C98D7234A5830286103A55745067B9D86B8A3CF9C7F90C11DE6
310
07FB144396D7B6A82D282E9A152AD114D5EF2CB866EEE831B8EEA07A7BB5A8D7D61A2BAAEB7FD5F70921FF497D00504B0304140006080800CC70623BEDD1DC58FD000000A00100003B0000006662782F41393633353835312D344632462D344230382D423046372D3739314545314133324237412F7265736F75726365732F
310
636F72652E786D6C8D504B6E833010BD0A9A6D65B00922041947112427E8052C33A156828DFCA97AFC9A40A576D7CDCCE87D344F8F9FBFE667F689CE6B6B3A6039850C8DB2A336530731DC4903D95970676DF82583CCC8193B5861107C72362E3BA4AC096842428D1D7107A5F7182053CF7474E0D507CE32973124857FE48B
310
540F3961CEF244279DE03EB81420DB9EAC1384436FA353E879B1B182C7A8C75DA3C7F453DF353A1075D537A7BA6464B8F535A99AE14A9A2BBD90E350DD183B5CFABE3AF262350B1EF4FC9351399401471025A527C218A1E53BAB5A5AB765F5469B96525EACF23FA6B88CFF34456DC2A1DCE36E360F82A5202F42F062ED2BAD
310
579969AFDD8A6F504B010214000A0000080000CC70623B3DEE336E79000000790000001B00000000000000000000000000000000006175746F6465736B2D64657369676E2D7061636B6167652E786D6C504B01021400140006080800CC70623BD486FD9CA0000000F40000001300000000000000000000000000B20000005B
310
436F6E74656E745F54797065735D2E786D6C504B01021400140006080800CC70623B853B8169EB0000007C010000080000000000000000000000000083010000636F72652E786D6C504B01021400140006080800CC70623B55019EA25F0000007C000000070000000000000000000000000094020000636E782E786D6C504B
310
01021400140006080800CC70623BDBABAAF470010000D40300000C00000000000000000000000000180300006662782F636F72652E786D6C504B01021400140006080800CC70623B9C113CC27E0000009D0000000B00000000000000000000000000B20400006662782F636E782E786D6C504B01021400140006080800CC70
310
623B7DF2F77C2A010000120200003100000000000000000000000000590500006662782F41393633353835312D344632462D344230382D423046372D3739314545314133324237412F636F72652E786D6C504B01021400140006080800CC70623BAD7543B64E010000330300003000000000000000000000000000D2060000
310
6662782F41393633353835312D344632462D344230382D423046372D3739314545314133324237412F636E782E786D6C504B01021400140006080800CC70623BE75B7789680500003C10000034000000000000000000000000006E0800006662782F41393633353835312D344632462D344230382D423046372D3739314545
310
314133324237412F6F626A656374732E786D6C504B01021400140006080000CC70623B0000000000000000000000003500000000000000000000000000280E00006662782F41393633353835312D344632462D344230382D423046372D3739314545314133324237412F76657274696365732E62696E504B01021400140006
310
080800CC70623BF270F133060000000400000036000000000000000000000000007B0E00006662782F41393633353835312D344632462D344230382D423046372D3739314545314133324237412F747269616E676C65732E62696E504B01021400140006080000CC70623B0000000000000000000000003700000000000000
310
000000000000D50E00006662782F41393633353835312D344632462D344230382D423046372D3739314545314133324237412F617474726962757465732E62696E504B01021400140006080800CC70623B08DA0BD1900000004101000036000000000000000000000000002A0F00006662782F41393633353835312D344632
310
462D344230382D423046372D3739314545314133324237412F6469726563746F72792E786D6C504B01021400140006080800CC70623BEDD1DC58FD000000A00100003B000000000000000000000000000E1000006662782F41393633353835312D344632462D344230382D423046372D3739314545314133324237412F7265
310
736F75726365732F636F72652E786D6C504B0506000000000E000E0080040000641100000000
  0
XRECORD
  5
660F
102
{ACAD_REACTORS
330
1F7
102
}
330
1F7
100
AcDbXrecord
280
     1
102
MATERIAL
148
0.0
149
0.0
149
0.0
 93
        0
 94
       63
282
     0
 72
     1
 77
     1
171
     1
175
     1
179
     1
273
     0
  0
XRECORD
  5
1F8
102
{ACAD_REACTORS
330
1F7
102
}
330
1F7
100
AcDbXrecord
280
     1
 70
     1
 90
429727718
  1
30362254-06B7-45E0-A893-8CFA70E3D6BC
310
504B03040A0000080000CC70623B3DEE336E79000000790000001B0000006175746F6465736B2D64657369676E2D7061636B6167652E786D6C3C3F786D6C2076657273696F6E3D22312E302220656E636F64696E673D227574662D3822203F3E3C666F726D6174733E3C666F726D61743E687474703A2F2F736368656D612E
310
6175746F6465736B2E636F6D2F64657369676E2D7061636B6167652F323030393C2F666F726D61743E3C2F666F726D6174733E504B0304140006080800CC70623BD486FD9CA0000000F4000000130000005B436F6E74656E745F54797065735D2E786D6C7D8EC10E82300C865F65E91D8A1E8C310C0EEA1BF002731658846E
310
D98AC1B77784ABF1D8FE5FBFBF75BBCE937A534CCEB38643598122B6FEE978D0B0485F9C41B54DDD7D022595594E1A469170414C76A4D9A4D207E29CF43ECE46F218070CC6BECC4078ACAA135ACF422C856C0E68EA1BF5669944DDD7BCDE7B1F8E415D77AECB980613C2E4AC91FC167A2B244592486606FC29C8FD7F045B9A
310
EF7053A7E60B504B0304140006080800CC70623B1EC5D7A3EB0000007C01000008000000636F72652E786D6C8D90416EC3201045AF82665B6103C6756C6122AB4D4ED00B204C5C94182C03558F5F9C3852BBEB6A467FFE9B197D71FC9E6FE8CBACC17AD7032D0820E3B41FAD9B7A48F1820F808E52ACDEC75F36404ECDA687
310
4D0629A6D5A76597B477D1B89855E747B38B2A041301E95B6E7A08FAD3CCAA50296647B8168BD2573599823EBB0CA76447F43862C7BCCF5EAC59410E4DDD9C7973C2755553CCCFA4C603E3040F1565ED3B1FDE4E432BCA0D9622DAF9795FAF464533826484B498524CD807E51D79ED187F21878E10516EF63F505AC67F42C9
310
BA58B1FDDD071640D2FCC87D2045B96591CB3DA85CB7DCE40F504B0304140006080800CC70623B55019EA25F0000007C00000007000000636E782E786D6C4DCB3B0E80201045D1AD90E915ED2CF8AC45050C11660C8261F98AB1B07AC9C97D42D718D865D3E909258CFD00CCE24AC6E326A164D74DC0B4128928FF32603847
310
2BA13128B1252AC747C6BAB984FC68F0B87FE8960A5C09FE86CFB69FBA01504B0304140006080800CC70623B8C9102E971010000D40300000C0000006662782F636F72652E786D6CC5535B6E833010BC8AE5DF0A6C08340F1947A84D4ED00B38C6A128602363A31CBFCB234A53A551FA553EC09AD9F5CE8C31DB9E9B1AF5CA
310
7695D1198E428A91D2D214952E33ECDD315861B4E5CC1AE3BE9561A445A3323CC098B3D21ADFCE9034DA29ED00D5A6503328BA4E398C640D8B0C77F253352214DE4145770A5B214FA2546114020D759C75CE8200340D19DE981F0F6746269C33EFAB6266AB02A655C74A59CCF365BADC27CB5D902ED22848F6340DF238A141
310
BE88E2F57B92BFEDF23523433367AE6A2EEAA455C2A902F398D2751045018D3FA264435F3771F242571B4A1919CA6F9A7C5B3CD9E42BED16F12C776AEB308F40C848FC700B1139D4891EF410CEC810227CC6846F8386402064270EF5C5C709A05E49676C024C61FC95EA45ED154CA5211D1FF4FB8291A913A68E9B83EBBB33
310
E2A7673CDE118E5AE8124C0807CB8377834E366998436B950D7A7746DAD846D4CFD978E0F04FD455FC5D49D2D4C6FE9722321F10997F0F32DC47FE05504B0304140006080800CC70623BFFEA85907E0000009D0000000B0000006662782F636E782E786D6C4DCCD10A83201886E15B91FFDC95D95A811AB6F23E625948A6C3
310
E9D8E5AF46073BFAE0E1E365ED67B3E8ADC3CB78C7815C7240DA3DFC64DCC221C519D7805AC182F7F1EF06C88D9BE6703008B6049F9E274D7A1E938DBB5AE3D6131B2589BA0D3D965551E0B2EA732C9B9A624AAEB41E3A557677029960D9AFB4EF11165F504B0304140006080800CC70623B4FEEA4082C0100001202000031
310
0000006662782F39464131463745442D413632322D343644302D413938332D3331353338454246344243312F636F72652E786D6C8D515B6EC32010BC0AE2AB55850DD871ED0813254D72825EC00192A2C460F1A872FC42ED48ED5F7E00CDCECCCEB26C731F6FE05B39AFADE921293004CA082BB5B9F43086336A21D870E6AC
310
0D7F68109861543DCC30E4ECE26C9C164858139409093556AA051CBC570102714B8F1E7AF1A5C6A11862480C7F2DA6415C878B2A4891CA89C7990F2E050073937C42DE1DB7E4F87ED8A36D4329AA9B3D46DBAEAD504556557BD81DEBDD0761E52CE42C462D17B996298E3E6BE59E35C962CE821E1FF18553435012728A7187
310
0841987E927A8D9B35ADDF70BBC6989599FE4F1427F9A4286A132ABAC49D651EF234CD5CE04CDA78BA3DC2A8FB645D00B9DF8B57E215725C60BCA2A463E54C4CE327C7A65E1C7DB02E7DEFCBF594B864C5CA6CDBD49C957943E9FA5D5FBAF336F90F504B0304140006080800CC70623BAD7543B64E01000033030000300000
310
006662782F39464131463745442D413632322D343644302D413938332D3331353338454246344243312F636E782E786D6CD593CD6EC32010845F0571AD6CE3D48AD20813A9873E410FBD12D82434182C7EAAE6EDBB2424CD25871E7B41D6EC30B3FA84F9E67BB2E40B4234DE8DB46F1925E094D7C6ED479AD3AE5951B2113C
310
789FEE6C943839C1488B4C05DF079FE72A69D8C96C13AAD6B8631503449F83828872B949AC57D26200B826A308D316B4064D6E46FCDA41C05550DC9E483A00797BFD207EFB092A45DE9514C1BBD22178396BD39D891265658C238DEA00936C654E5E433CB65A26D9F6EDB5EBC14EBF49A45CB856E66048291F6939A9A81BB5
310
C8917738143CA680F4AA299D66A042CEB3354A2684DC9D8D178FE0D9B8B41CAAD720F880EE7EF93C0C18769E099ECC04D5A102C8049A8A05632F4DDF376CF1DE0F6BB65C2F8627B65A33C6BB62177CEBBDAD973006829F89F22E814B54F4BC2BE347F8AA8F681390B50FA73F804400B5F542E796F19FF974E7F78DB802FE05
310
E207504B0304140006080800CC70623B16AB87BA640500003C100000340000006662782F39464131463745442D413632322D343644302D413938332D3331353338454246344243312F6F626A656374732E786D6CAD575B6FA33818FD2B887DE6924B3BED8A326A92B68A663B534DD4D13E548A0C38942D60649B369D5FBFC7
310
600890A493BDE42160637FD7F31D7FF63E6FB3D478A55C242CBF3247B66B1A340F5994E4F19559CA8D75611A9F7D8F33263BCB4C232719BD32D5B4E97B316765A1A722BA21652A07B3B7B33F0D11D29C9A46981221AE4C113ED38CD8A4942CA2E2C58E882476BCD9DA23BB5ED8171B73523C0F841684D35CC252CCE79062D4
310
468DFA43D7747CCF51DF7D4FFDEB5593E3AB9CCA9FBEFE241792E4E19EB28198C968BAB8199F5D5A67D3E9C49A9E8F47D6EC76B6B0469F26EEFC7C3EBFBCBEB98462213924694B38DD98FE1D62C393D073EA4FADC5DAF04326852CCF6958F90F0F2B9BB5C48816348F90C7840A68EB78EDF68723159BCEE7891A6B95DDE9D3
310
BCEAEEE8086A6C6F9E5D4B59F0175C10A7A0820BAA5055C7473B5AE3CFDD452D602CD5DF12616444529E90D448938013FE6EFA58AA96F85E4F8C42275708571E98FE6827AF6B2B4AE3D7D83D64E5A64C53054DD3AF90BD06FEA9149565C94FCA0F6B834DC85599E4F2423B24DF0B6AFA979E534DFA9E7A4CC6FA631D486393
310
921829879BF5D781A373557BCB85E97FB90DB62B558F8795179C15944B051F40AB495CF35451D26A4727654E6D8033BD98EF82F21D91FF8AF2DD9982BCF1643BDD4EB516C9492E368C67C88DED563FC36D5EACF66DFF057C3658BDBFA69DF9578B3DA735B64F18C7F20770A9D45CFCF7FCF563D6456A277DBEF78A02637CA2
310
43B90A490AEAB94F72244481D24819A6C0E59B606BFA4B3025981DBB48EAB701D97BF19C577CC77F2D1B6C55A9EF3C732474C0B727303F625995056C3B02963D9EAC146BE78EC5FCEC7FA999EBC5EACBAAE41B12D27B4D2C0BBA49F244E2ECDC81B76B502F113D8F5EE8FB1BE3111CDD4FC2AA9B844CAB1288B68AB90A7CDC
310
1C166AB0D3DC5310625FCC14E779BFD0709F8890A629C9292B1B2DED31A4B0DA928CEE135085754027E3018A397D4D5427D15BD1330B677DC8934285AC3DF45A9EB68FF8F2B8FC0A509AFEECFD0FF2DE25CC6047F7214B195F07EFEB9A094D800F7BFAE8FED187B78EA8A3A400F115961BCAD1215E47C966530AF0EE8128FE
310
58CEBB996A8964FFA529A046635D9353B0336A8F700DDF46271A024E70B0B37C9DE01847591E54DED53D54202AB947E4076556AC49C6CA5C9E1226B7F1A7B1BE15DEED62C41B91E1B3E9AFAAA735036547343A925075041DF0A9979E893B391F8FCFA6967B3EFB644DCF6E5CEBFAE272625DCC6FAF3FB93793C5F90CE1EF57
310
407342756B10D1C489E8953CD1617E5CEECAD6F4EF8914CE5D5D504E5C3F1F9736DA62CFC11E00BCDDB8CC8A9466349744C1F75EBDA4DF09BA8A9E8C7A7E9991989E20E5DBDD6A6003664ED8F7A04A8DBE0DF6EAD9B9AA858342E47399053949D2C146EDB85DE4B176BB0965FBAC19BD19AA918E27FA50C1D22402E144464C
310
59462568E704B6E71915404CB72B8FF4EDE184DDAF753F284990D2C6926782963815403548A70C657FDEF80D2D9CEAA2AE4C1C76F60BFE74219A06527D6582DF6412526107381E55E353090704D085B52408D0933C4ED159D79BDA71BB4BC506F4831350EB6F979CD22D69BF7AC49B91A2C0A9DDA3D5CA36AD20FC478E37E6
310
1844E2352865EBCB6EA275A652E3836BE04EFB400BF1A2556F515F1FBB35B2AB35BD889C744FFA1004B5544B121E57F70215746DD2F5E2C1412B602CBF19455AC6C8E5E9922C4E01E65215385004546899059180EAFCF7A707CE7017CD8CDB0410789AB32C63B91E5CEBBBACB17AC6CD347A022D5075FD106377347AAABA7E
310
7D11590744509B44E205134DC1290F06580320F78E537D3D73540E06CB970B431F185308AD40BBD794D6D77003C5A36E8EAA54BA64597CD8F83BD552A080A365F7FF06504B0304140006080000CC70623B000000000000000000000000350000006662782F39464131463745442D413632322D343644302D413938332D3331
310
353338454246344243312F76657274696365732E62696E504B0304140006080800CC70623BF270F1330600000004000000360000006662782F39464131463745442D413632322D343644302D413938332D3331353338454246344243312F747269616E676C65732E62696E636660600000504B0304140006080000CC70623B
310
000000000000000000000000370000006662782F39464131463745442D413632322D343644302D413938332D3331353338454246344243312F617474726962757465732E62696E504B0304140006080800CC70623B08DA0BD19000000041010000360000006662782F39464131463745442D413632322D343644302D413938
310
332D3331353338454246344243312F6469726563746F72792E786D6C858F410AC3201045AF22B36F53E9A60B35CBEEBAE80D244E44489C6234F4F835464A48035D0DF398FF9F8AF63D0E6CC63039F212F8F9020C7D47C6792B21C5FE7403D62A1188E2E60C98D7234A5830286103A55745067B9D86B8A3CF9C7F90C11DE607
310
FB144396D7B6A82D282E9A152AD114D5EF2CB866EEE831B8EEA07A7BB5A8D7D61A2BAAEB7FD5F70921FF497D00504B0304140006080800CC70623B0D6EF93BFE000000A00100003B0000006662782F39464131463745442D413632322D343644302D413938332D3331353338454246344243312F7265736F75726365732F63
310
6F72652E786D6C8D50596E833010BD0A9ADFCA60B334011947A8694ED00B586642AC041B79A97AFC9A40A5F6AF3F33A3B7689E1E3F7DCD8FEC139DD7D6F4C0720A191A65476DA61E62B892236427C19DB5E1970C322367EC618541F0C9D9B8EC90B226A009093576C41D94DE63804C3DD2D18357379C652E63480A7FCF17A9
310
EE72C29CE5894E3AC17D702940B63D59270887DE46A7D0F36263058F518FBB468FE9A7BE6A7420864373B8D4873369AA8691FA421B3294352543C5CAF65C0F6FEF43CB8BD52C78D0F34F46E550061C419494B6843142CB0F5677F4B52BEB177AEC28E5C52AFF638ACBF84F53D42654E51E77B379102C05791282176B5F693D
310
CB4C7BED567C03504B010214000A0000080000CC70623B3DEE336E79000000790000001B00000000000000000000000000000000006175746F6465736B2D64657369676E2D7061636B6167652E786D6C504B01021400140006080800CC70623BD486FD9CA0000000F40000001300000000000000000000000000B20000005B
310
436F6E74656E745F54797065735D2E786D6C504B01021400140006080800CC70623B1EC5D7A3EB0000007C010000080000000000000000000000000083010000636F72652E786D6C504B01021400140006080800CC70623B55019EA25F0000007C000000070000000000000000000000000094020000636E782E786D6C504B
310
01021400140006080800CC70623B8C9102E971010000D40300000C00000000000000000000000000180300006662782F636F72652E786D6C504B01021400140006080800CC70623BFFEA85907E0000009D0000000B00000000000000000000000000B30400006662782F636E782E786D6C504B01021400140006080800CC70
310
623B4FEEA4082C0100001202000031000000000000000000000000005A0500006662782F39464131463745442D413632322D343644302D413938332D3331353338454246344243312F636F72652E786D6C504B01021400140006080800CC70623BAD7543B64E010000330300003000000000000000000000000000D5060000
310
6662782F39464131463745442D413632322D343644302D413938332D3331353338454246344243312F636E782E786D6C504B01021400140006080800CC70623B16AB87BA640500003C1000003400000000000000000000000000710800006662782F39464131463745442D413632322D343644302D413938332D3331353338
310
454246344243312F6F626A656374732E786D6C504B01021400140006080000CC70623B0000000000000000000000003500000000000000000000000000270E00006662782F39464131463745442D413632322D343644302D413938332D3331353338454246344243312F76657274696365732E62696E504B01021400140006
310
080800CC70623BF270F133060000000400000036000000000000000000000000007A0E00006662782F39464131463745442D413632322D343644302D413938332D3331353338454246344243312F747269616E676C65732E62696E504B01021400140006080000CC70623B0000000000000000000000003700000000000000
310
000000000000D40E00006662782F39464131463745442D413632322D343644302D413938332D3331353338454246344243312F617474726962757465732E62696E504B01021400140006080800CC70623B08DA0BD190000000410100003600000000000000000000000000290F00006662782F39464131463745442D413632
310
322D343644302D413938332D3331353338454246344243312F6469726563746F72792E786D6C504B01021400140006080800CC70623B0D6EF93BFE000000A00100003B000000000000000000000000000D1000006662782F39464131463745442D413632322D343644302D413938332D3331353338454246344243312F7265
310
736F75726365732F636F72652E786D6C504B0506000000000E000E0080040000641100000000
  0
XRECORD
  5
6611
102
{ACAD_REACTORS
330
173
102
}
330
173
100
AcDbXrecord
280
     1
102
MATERIAL
148
0.0
149
0.0
149
0.0
 93
        0
 94
       63
282
     0
 72
     1
 77
     1
171
     1
175
     1
179
     1
273
     0
  0
XRECORD
  5
175
102
{ACAD_REACTORS
330
173
102
}
330
173
100
AcDbXrecord
280
     1
270
     1
271
     1
  0
XRECORD
  5
174
102
{ACAD_REACTORS
330
173
102
}
330
173
100
AcDbXrecord
280
     1
270
     1
271
     1
  0
XRECORD
  5
1FB
102
{ACAD_REACTORS
330
173
102
}
330
173
100
AcDbXrecord
280
     1
 70
     0
 90
1673772943
  1
ECE7A1D2-D628-4531-984C-D00F80459256
310
504B03040A0000080000CC70623B3DEE336E79000000790000001B0000006175746F6465736B2D64657369676E2D7061636B6167652E786D6C3C3F786D6C2076657273696F6E3D22312E302220656E636F64696E673D227574662D3822203F3E3C666F726D6174733E3C666F726D61743E687474703A2F2F736368656D612E
310
6175746F6465736B2E636F6D2F64657369676E2D7061636B6167652F323030393C2F666F726D61743E3C2F666F726D6174733E504B0304140006080800CC70623BD486FD9CA0000000F4000000130000005B436F6E74656E745F54797065735D2E786D6C7D8EC10E82300C865F65E91D8A1E8C310C0EEA1BF002731658846E
310
D98AC1B77784ABF1D8FE5FBFBF75BBCE937A534CCEB38643598122B6FEE978D0B0485F9C41B54DDD7D022595594E1A469170414C76A4D9A4D207E29CF43ECE46F218070CC6BECC4078ACAA135ACF422C856C0E68EA1BF5669944DDD7BCDE7B1F8E415D77AECB980613C2E4AC91FC167A2B244592486606FC29C8FD7F045B9A
310
EF7053A7E60B504B0304140006080800CC70623BD9DDAED0EC0000007C01000008000000636F72652E786D6C8D90416EC3201045AF82665B61836D9CD8C2444DD39CA01740405C94182C03558F5F9C3852BBEB6A467FFE9B197D7EF89E6EE8CB2CC17A37002D0820E394D7D68D03A478C17B4007C117EFE32F1B20272733C0
310
2A83E0E3E2D3BC49CABB685CCCAAF3DA6CA20CC14440EA969B0182FA34932C648AD911AEC52CD5558EA6A0CF2EC329598D1E47ACCEFBECC59A050463A7EA5833865FEBDD0E37353BE3EE8DBDE3F6786A48D375FBF6CC78B9C282473B3DEFABC5C86834888A900E538A49F5419B9EB47DD5BC907D4F082F57FB1F28CDFA9F50
310
B22ED6D5F6EE030B20687EE43E10BC5CB3C8E51E54AE6B6EE207504B0304140006080800CC70623B55019EA25F0000007C00000007000000636E782E786D6C4DCB3B0E80201045D1AD90E915ED2CF8AC45050C11660C8261F98AB1B07AC9C97D42D718D865D3E909258CFD00CCE24AC6E326A164D74DC0B4128928FF326038
310
472BA13128B1252AC747C6BAB984FC68F0B87FE8960A5C09FE86CFB69FBA01504B0304140006080800CC70623BA24EB22D72010000D40300000C0000006662782F636F72652E786D6CC5535B6E833010BC8AE5DF0A6C5E49888CA3A6694ED00B38E05014B091B1518EDFE511A5A9D228FD2A1F60CDEC7A67C6986DCE4D8D7A
310
69BA4AAB0C073EC548AA5C17952A33ECECD15B61B4E1CC686DBF9561A44423333CC098B3D268D7CE50AE9595CA02AA74216750749DB418E5352C32DCE59FB211BE70162ABA93DF8AFC244AE9073ED050C759670D0840D390E18DF9F1706664C23973AE2A66B62A605A75ACA4C13C4976E1364A12EF355A2EBD384AF65EFA96
310
BC7B8BED2EA6719AAE16FB8491A199335B351775B991C2CA02F390D2D40B028F861F41BCA68B7518BFD0D59A524686F29B26D7164F36B94AD9289CE54E6D1DE6010819891F6E21228B3AD1831EC219194284CF98F06DD01008846CC5A1BEF83801D4CBDC6A1303536877A57A513B0953A94FC707FDBE6064EA84A9E3E6E0FA
310
EE8CF0E9198F7784A316AA0413C2C2F2E0ECA0934D1AE6D05A69BCDE9E91D2A611F573361E38FC1375157F5752AE6B6DFE4B11990F88CCBF0719EE23FF02504B0304140006080800CC70623B408A7D3B7C0000009D0000000B0000006662782F636E782E786D6C4DCCD10A83201886E15B91FFDC552A92A0064DBC8F581632
310
D3703A76F9ABD1C18E3E78F878E5F0D9027ABBFCF2292AE86E2D20171F69F6715550CB827B40839639A5F2770314A7CD293819B45C73AAFB45B35BA61ACAA1C1C7E7855C58C15BC331339661262CC762340413D68D77DA5B42298546CBE6573AF60CEB2F504B0304140006080800CC70623B449FB9BD290100001202000031
310
0000006662782F36394639363044362D344446342D343946362D394244322D3234314243333846323333332F636F72652E786D6C8D515B6EC32010BC0AE22B55850D98B871848994463E412FE002495162B07854397EA176A4F62F3F2C9A9D991D587EB84F37F0AD7D30CEF6905418026DA553C65E7A98E219ED203808EE9D
310
8B7F6810D871D23D2C3014FCE25D9A57483A1BB58D19B54EE9151C43D0110279CB971E06F9A5A7B11A53CC8C70ADE6515EC78BAE4895DB992778883E0700CB907242D17643D7E2538BD869608875438BBAE38922CAC8F1BDD90DB4691A5E2F42C153326A951B95E398B3D1FE599322163C9AE9115F7A3D46ADA0A018778810
310
84E907617BDCEE297BC5BB3DC6BC2EF47FA234AB2745C9D8D8D035EE220B50105E2F0DC1954B9FB747187D9F9D8FA0CCDB042D5FA0C015C65B42DF78BD10F3F3B363CB56C7109DCFDFBBB97E662ED92EB62D13BC2E1BCAE5777DB9966D8A1F504B0304140006080800CC70623BAD7543B64E01000033030000300000006662
310
782F36394639363044362D344446342D343946362D394244322D3234314243333846323333332F636E782E786D6CD593CD6EC32010845F0571AD6CE3D48AD20813A9873E410FBD12D82434182C7EAAE6EDBB2424CD25871E7B41D6EC30B3FA84F9E67BB2E40B4234DE8DB46F1925E094D7C6ED479AD3AE5951B2113C789FEE
310
6C943839C1488B4C05DF079FE72A69D8C96C13AAD6B8631503449F83828872B949AC57D26200B826A308D316B4064D6E46FCDA41C05550DC9E483A00797BFD207EFB092A45DE9514C1BBD22178396BD39D891265658C238DEA00936C654E5E433CB65A26D9F6EDB5EBC14EBF49A45CB856E66048291F6939A9A81BB5C89177
310
38143CA680F4AA299D66A042CEB3354A2684DC9D8D178FE0D9B8B41CAAD720F880EE7EF93C0C18769E099ECC04D5A102C8049A8A05632F4DDF376CF1DE0F6BB65C2F8627B65A33C6BB62177CEBBDAD973006829F89F22E814B54F4BC2BE347F8AA8F681390B50FA73F804400B5F542E796F19FF974E7F78DB802FE05E20750
310
4B0304140006080800CC70623B8D05915C650500003B100000340000006662782F36394639363044362D344446342D343946362D394244322D3234314243333846323333332F6F626A656374732E786D6CAD575B6FA33814FE2B887D06429276DA1565D4266D158D3A339A6846FB502932E050B66023DB74D2FDF5FB190C01
310
9276B2973C046C8ECFF53B17071F77456EBD502133CEAE6CDF9DD81665314F32965ED995DA3A17B6F5310C04E7AA47665B8C14F4CAD6DB7618A48257A5D94AE89654B91AEDDEDDFC61C998326A5B714EA4BCB265FC440BE2924AF184CA6737218AB8E976E7FA6E4338649B0A523E8D98964450A6A029F619B8588D52FE7039
310
B1BD30F0F4F730D0FF866AF6369557DB33949F31A9088B0F848DD8CCFCF9F2767A76E99CCDE733677E3EF59D9BBB9BA5E37F984D16E78BC5E5F5ED25044B25C0C96822E8D60EEFE11B91C581D77CEA34368A1F5329E68CD1B8B61F16D63A1B8E092D294B10C78C4A48EB593D192E7DED9BDEE7995E1B91FDEDD3ACEA9FE831
310
6A756F9F7D4D79F4274C90A7A04248AA51D5F8C718DAE06FB2F75AC4796EBE65D22A88A22223B995679120E2D50E41AA49C260C046A35368846B0BECD0DFF3EBEB8AD4F835768F69B9ADF25C43D30E6B646F807FAA64AD59F61715C7A54127C4AACA98BA3006A9D792DAE165E0D59B61A01FB3A9F9D838D2DAE62445C86166
310
F37564E842E7DE6A69879FEEA2DD5AE7E371E1A5E025154AC307D06A03D73EB5978C58FFA4C8E9033066E0F3BD53BEC1F39F91BE7B55103791EDE6BBB991A2046172CB4581D8B893FA674DDA17A77B3B7C413D1B511FD2743BFF8A38F03A658705E3ADF8015C3A3417FF3D7E439FF591DA0B5F18BC20C1B8981957AE6392A3
310
F43C640C01D1A0B4728E2DD4F26DB4B3C3152A252A3B4E913CEC1C72F012782FF88EFF8637AA552DBEF76408E8A8DE9E50F9E1CB3A2DA0DB1B6039A893B56063DC5B3E3FFB5F72E67AB9FEB4AEC496C4F4C1149625DD662C53E89D7BF0F6151A046260D1337DFDC94502430F83B0EE07A130A224BCAD7DAE1D9FB6CD422FF6
310
920702629C4BB9AE79C12F243C6432A6794E18E5552BA56B431AAB5D91317302B2B071E86C3A42B1A02F999E24061403B5D0EB639195DA655DD3EBEAB4FB862DDF579F014AD0E73C22F99E28DA57FB98E75C6CA2D74D53086D600F4786E0FE3144B771A8A7B900F03594DB8A633CBC49B2EDB69228BB479CF863B5E807AAAB
310
23872F6DFEB4129B949CA33823F58830E86D65621E10047D9DB34D862E8EAC3C2ABC2F7B2C40D67CDFE01F5545B92105AF983AC54D93D69E56FB8E797F88913F898A9FEC705D3F9D1B54EC8426FB500D40A03BD0119B06E1B95DDC7EB8F6975367793EBD70E66733DFB9BC982F9CE564727731999F5D4ECFCE3B8D6A4DC2A0
310
6D50FD148437D110834A64C6CDDF57FBACB5C307A2A477DFE4939736CFEF2B175371E0E10CF0DD1D5C15654E0BCA14D1E87DD02FF93782A162C0A3D95F1524A52770F972BF1EE9809D13CE7DD599467F8ECE9ADD85CE85A34CD45355448C64F9E8A031DC2D596ACC6E5DD93D9B82DE2EF5CAF81363A8E47996A0DE24564A79
310
4115AACE09C55E14540231FDA13C319787134EBF34E3A022514E5B4D9E0826E25C02D5805B15ABE1BEF51B26383D445DD9E875EE33FE4C22DA16427D65A3BCA92CA6D28DD01DF5DC53330704308475351050232CCD31583787BA75774AFB06E5070DD0C8EF484E19968C5D83BA5B90B244D31E54D55A372320FE4786B7EA58
310
44E135AA5467CB7EA333A61683CC6A8C3257034C10CF46F40EF9F5BE59BE5BD30C3C72D235E95D10345C1D45445A5F0BB47E46A5EBE5570F9380B5FA629579952296A773720405982B9DE04011506178964401AA8BDF1FBF0A8EAB6861DD6580C0E38217056766716DAEB2D6FA0917D3E4116581EADB879C4E7CFFB11EFACD
310
3D641311495D92C8676CB409A72D18610D803CE8A626049E8EC1887CB5B44CC39883690DDA8399B4B9855B481E7D71D4A9D22F96E5BB73BF5793020C02137BF837504B0304140006080000CC70623B000000000000000000000000350000006662782F36394639363044362D344446342D343946362D394244322D32343142
310
43333846323333332F76657274696365732E62696E504B0304140006080800CC70623BF270F1330600000004000000360000006662782F36394639363044362D344446342D343946362D394244322D3234314243333846323333332F747269616E676C65732E62696E636660600000504B0304140006080000CC70623B0000
310
00000000000000000000370000006662782F36394639363044362D344446342D343946362D394244322D3234314243333846323333332F617474726962757465732E62696E504B0304140006080800CC70623B08DA0BD19000000041010000360000006662782F36394639363044362D344446342D343946362D394244322D
310
3234314243333846323333332F6469726563746F72792E786D6C858F410AC3201045AF22B36F53E9A60B35CBEEBAE80D244E44489C6234F4F835464A48035D0DF398FF9F8AF63D0E6CC63039F212F8F9020C7D47C6792B21C5FE7403D62A1188E2E60C98D7234A5830286103A55745067B9D86B8A3CF9C7F90C11DE607FB14
310
4396D7B6A82D282E9A152AD114D5EF2CB866EEE831B8EEA07A7BB5A8D7D61A2BAAEB7FD5F70921FF497D00504B0304140006080800CC70623BCA768048FE000000A00100003B0000006662782F36394639363044362D344446342D343946362D394244322D3234314243333846323333332F7265736F75726365732F636F72
310
652E786D6C8D50596E833010BD0A9ADFCA60D600328E9AA639412F609909B1126CE4A5EAF16B0295DABFFECC8CDEA2797AECF8353F924FB44E193D409E5248504B332A3D0D10FC95B4901C39B3C6F85F3248B49871801506CE266BC2B243D2688FDA47549B11775038871E12F988C7004EDE7016A9083E2ADC3D5D84BC8B09
310
D33C8D74D471E6BC8D0192EDC93A815B742658898E651BCB59086ADC356A8C3FD555A1055ED7E7E254D615792D0F075295F585746FF53B694EE78A565DD736979A65AB9933AFE69F8CD2A2F038022F28ED489E135A7CE4554F9BBEA85E68DB53CAB255FEC71496F19FA6A0B42F8B3DEE6673C0F318E4497096AD7DC5F52C33
310
EEB55BFE0D504B010214000A0000080000CC70623B3DEE336E79000000790000001B00000000000000000000000000000000006175746F6465736B2D64657369676E2D7061636B6167652E786D6C504B01021400140006080800CC70623BD486FD9CA0000000F40000001300000000000000000000000000B20000005B436F
310
6E74656E745F54797065735D2E786D6C504B01021400140006080800CC70623BD9DDAED0EC0000007C010000080000000000000000000000000083010000636F72652E786D6C504B01021400140006080800CC70623B55019EA25F0000007C000000070000000000000000000000000095020000636E782E786D6C504B0102
310
1400140006080800CC70623BA24EB22D72010000D40300000C00000000000000000000000000190300006662782F636F72652E786D6C504B01021400140006080800CC70623B408A7D3B7C0000009D0000000B00000000000000000000000000B50400006662782F636E782E786D6C504B01021400140006080800CC70623B
310
449FB9BD290100001202000031000000000000000000000000005A0500006662782F36394639363044362D344446342D343946362D394244322D3234314243333846323333332F636F72652E786D6C504B01021400140006080800CC70623BAD7543B64E010000330300003000000000000000000000000000D20600006662
310
782F36394639363044362D344446342D343946362D394244322D3234314243333846323333332F636E782E786D6C504B01021400140006080800CC70623B8D05915C650500003B10000034000000000000000000000000006E0800006662782F36394639363044362D344446342D343946362D394244322D32343142433338
310
46323333332F6F626A656374732E786D6C504B01021400140006080000CC70623B0000000000000000000000003500000000000000000000000000250E00006662782F36394639363044362D344446342D343946362D394244322D3234314243333846323333332F76657274696365732E62696E504B010214001400060808
310
00CC70623BF270F13306000000040000003600000000000000000000000000780E00006662782F36394639363044362D344446342D343946362D394244322D3234314243333846323333332F747269616E676C65732E62696E504B01021400140006080000CC70623B00000000000000000000000037000000000000000000
310
00000000D20E00006662782F36394639363044362D344446342D343946362D394244322D3234314243333846323333332F617474726962757465732E62696E504B01021400140006080800CC70623B08DA0BD190000000410100003600000000000000000000000000270F00006662782F36394639363044362D344446342D
310
343946362D394244322D3234314243333846323333332F6469726563746F72792E786D6C504B01021400140006080800CC70623BCA768048FE000000A00100003B000000000000000000000000000B1000006662782F36394639363044362D344446342D343946362D394244322D3234314243333846323333332F7265736F
310
75726365732F636F72652E786D6C504B0506000000000E000E0080040000621100000000
  0
XRECORD
  5
176
102
{ACAD_REACTORS
330
173
102
}
330
173
100
AcDbXrecord
280
     1
270
     1
271
     1
  0
XRECORD
  5
177
102
{ACAD_REACTORS
330
173
102
}
330
173
100
AcDbXrecord
280
     1
270
     1
271
     1
  0
XRECORD
  5
6633
102
{ACAD_REACTORS
330
6632
102
}
330
6632
100
AcDbXrecord
280
     1
102
ACAD_ROUNDTRIP_2012_MLEADER_STYLE
298
     1
  0
XRECORD
  5
6645
102
{ACAD_REACTORS
330
6644
102
}
330
6644
100
AcDbXrecord
280
     1
102
DISPLAYNAME
  1
Metric50
102
FLAGS
 90
        0
  0
CELLSTYLEMAP
  5
6605
102
{ACAD_REACTORS
330
162
102
}
330
162
100
AcDbCellStyleMap
 90
        3
300
CELLSTYLE
  1
TABLEFORMAT_BEGIN
 90
        5
170
     1
 91
        0
 92
    32768
 62
   257
 93
        1
300
CONTENTFORMAT
  1
CONTENTFORMAT_BEGIN
 90
        0
 91
        0
 92
      512
 93
        0
300

 40
0.0
140
1.0
 94
        5
 62
     0
340
11
144
6.0
309
CONTENTFORMAT_END
171
     1
301
MARGIN
  1
CELLMARGIN_BEGIN
 40
1.5
 40
1.5
 40
1.5
 40
1.5
 40
4.5
 40
4.5
309
CELLMARGIN_END
 94
        6
 95
        1
302
GRIDFORMAT
  1
GRIDFORMAT_BEGIN
 90
        0
 91
        1
 62
     0
 92
       -2
340
14
 93
        0
 40
1.125
309
GRIDFORMAT_END
 95
        2
302
GRIDFORMAT
  1
GRIDFORMAT_BEGIN
 90
        0
 91
        1
 62
     0
 92
       -2
340
14
 93
        0
 40
1.125
309
GRIDFORMAT_END
 95
        4
302
GRIDFORMAT
  1
GRIDFORMAT_BEGIN
 90
        0
 91
        1
 62
     0
 92
       -2
340
14
 93
        0
 40
1.125
309
GRIDFORMAT_END
 95
        8
302
GRIDFORMAT
  1
GRIDFORMAT_BEGIN
 90
        0
 91
        1
 62
     0
 92
       -2
340
14
 93
        0
 40
1.125
309
GRIDFORMAT_END
 95
       16
302
GRIDFORMAT
  1
GRIDFORMAT_BEGIN
 90
        0
 91
        1
 62
     0
 92
       -2
340
14
 93
        0
 40
1.125
309
GRIDFORMAT_END
 95
       32
302
GRIDFORMAT
  1
GRIDFORMAT_BEGIN
 90
        0
 91
        1
 62
     0
 92
       -2
340
14
 93
        0
 40
1.125
309
GRIDFORMAT_END
309
TABLEFORMAT_END
  1
CELLSTYLE_BEGIN
 90
        1
 91
        1
300
_TITLE
309
CELLSTYLE_END
300
CELLSTYLE
  1
TABLEFORMAT_BEGIN
 90
        5
170
     1
 91
        0
 92
        0
 62
   257
 93
        1
300
CONTENTFORMAT
  1
CONTENTFORMAT_BEGIN
 90
        0
 91
        0
 92
      512
 93
        0
300

 40
0.0
140
1.0
 94
        5
 62
     0
340
11
144
4.5
309
CONTENTFORMAT_END
171
     1
301
MARGIN
  1
CELLMARGIN_BEGIN
 40
1.5
 40
1.5
 40
1.5
 40
1.5
 40
4.5
 40
4.5
309
CELLMARGIN_END
 94
        6
 95
        1
302
GRIDFORMAT
  1
GRIDFORMAT_BEGIN
 90
        0
 91
        1
 62
     0
 92
       -2
340
14
 93
        0
 40
1.125
309
GRIDFORMAT_END
 95
        2
302
GRIDFORMAT
  1
GRIDFORMAT_BEGIN
 90
        0
 91
        1
 62
     0
 92
       -2
340
14
 93
        0
 40
1.125
309
GRIDFORMAT_END
 95
        4
302
GRIDFORMAT
  1
GRIDFORMAT_BEGIN
 90
        0
 91
        1
 62
     0
 92
       -2
340
14
 93
        0
 40
1.125
309
GRIDFORMAT_END
 95
        8
302
GRIDFORMAT
  1
GRIDFORMAT_BEGIN
 90
        0
 91
        1
 62
     0
 92
       -2
340
14
 93
        0
 40
1.125
309
GRIDFORMAT_END
 95
       16
302
GRIDFORMAT
  1
GRIDFORMAT_BEGIN
 90
        0
 91
        1
 62
     0
 92
       -2
340
14
 93
        0
 40
1.125
309
GRIDFORMAT_END
 95
       32
302
GRIDFORMAT
  1
GRIDFORMAT_BEGIN
 90
        0
 91
        1
 62
     0
 92
       -2
340
14
 93
        0
 40
1.125
309
GRIDFORMAT_END
309
TABLEFORMAT_END
  1
CELLSTYLE_BEGIN
 90
        2
 91
        1
300
_HEADER
309
CELLSTYLE_END
300
CELLSTYLE
  1
TABLEFORMAT_BEGIN
 90
        5
170
     1
 91
        0
 92
        0
 62
   257
 93
        1
300
CONTENTFORMAT
  1
CONTENTFORMAT_BEGIN
 90
        0
 91
        0
 92
      512
 93
        0
300

 40
0.0
140
1.0
 94
        2
 62
     0
340
11
144
4.5
309
CONTENTFORMAT_END
171
     1
301
MARGIN
  1
CELLMARGIN_BEGIN
 40
1.5
 40
1.5
 40
1.5
 40
1.5
 40
4.5
 40
4.5
309
CELLMARGIN_END
 94
        6
 95
        1
302
GRIDFORMAT
  1
GRIDFORMAT_BEGIN
 90
        0
 91
        1
 62
     0
 92
       -2
340
14
 93
        0
 40
1.125
309
GRIDFORMAT_END
 95
        2
302
GRIDFORMAT
  1
GRIDFORMAT_BEGIN
 90
        0
 91
        1
 62
     0
 92
       -2
340
14
 93
        0
 40
1.125
309
GRIDFORMAT_END
 95
        4
302
GRIDFORMAT
  1
GRIDFORMAT_BEGIN
 90
        0
 91
        1
 62
     0
 92
       -2
340
14
 93
        0
 40
1.125
309
GRIDFORMAT_END
 95
        8
302
GRIDFORMAT
  1
GRIDFORMAT_BEGIN
 90
        0
 91
        1
 62
     0
 92
       -2
340
14
 93
        0
 40
1.125
309
GRIDFORMAT_END
 95
       16
302
GRIDFORMAT
  1
GRIDFORMAT_BEGIN
 90
        0
 91
        1
 62
     0
 92
       -2
340
14
 93
        0
 40
1.125
309
GRIDFORMAT_END
 95
       32
302
GRIDFORMAT
  1
GRIDFORMAT_BEGIN
 90
        0
 91
        1
 62
     0
 92
       -2
340
14
 93
        0
 40
1.125
309
GRIDFORMAT_END
309
TABLEFORMAT_END
  1
CELLSTYLE_BEGIN
 90
        3
 91
        2
300
_DATA
309
CELLSTYLE_END
  0
XRECORD
  5
660A
102
{ACAD_REACTORS
330
162
102
}
330
162
100
AcDbXrecord
280
     1
102
ACAD_ROUNDTRIP_PRE2007_TABLESTYLE
 90
      512
 91
        0
  1

 92
      512
 93
        0
  2

 94
      512
 95
        0
  3

  0
XRECORD
  5
661D
102
{ACAD_REACTORS
330
661C
102
}
330
661C
100
AcDbXrecord
280
     1
102
RTVSPost2010Prop28
280
     1
102
RTVSPost2010PropOp28
 70
     1
102
RTVSPost2010Prop29
280
     1
102
RTVSPost2010PropOp29
 70
     1
102
RTVSPost2010Prop30
280
     0
102
RTVSPost2010PropOp30
 70
     1
102
RTVSPost2010Prop31
280
     0
102
RTVSPost2010PropOp31
 70
     1
102
RTVSPost2010Prop32
280
     0
102
RTVSPost2010PropOp32
 70
     1
102
RTVSPost2010Prop33
280
     0
102
RTVSPost2010PropOp33
 70
     1
102
RTVSPost2010Prop34
280
     0
102
RTVSPost2010PropOp34
 70
     1
102
RTVSPost2010Prop35
280
     0
102
RTVSPost2010PropOp35
 70
     1
102
RTVSPost2010Prop36
280
     0
102
RTVSPost2010PropOp36
 70
     1
102
RTVSPost2010Prop37
 90
       50
102
RTVSPost2010PropOp37
 70
     1
102
RTVSPost2010Prop38
140
0.0
102
RTVSPost2010PropOp38
 70
     1
102
RTVSPost2010Prop39
140
1.0
102
RTVSPost2010PropOp39
 70
     1
102
RTVSPost2010Prop40
 90
        0
102
RTVSPost2010PropOp40
 70
     1
102
RTVSPost2010Prop41ColorIndex
 90
       18
102
RTVSPost2010Prop41ColorRGB
 90
        0
102
RTVSPost2010PropOp41
 70
     1
102
RTVSPost2010Prop42
 90
       50
102
RTVSPost2010PropOp42
 70
     1
102
RTVSPost2010Prop43
 90
        3
102
RTVSPost2010PropOp43
 70
     1
102
RTVSPost2010Prop44ColorIndex
 90
        5
102
RTVSPost2010Prop44ColorRGB
 90
      255
102
RTVSPost2010PropOp44
 70
     1
102
RTVSPost2010Prop45
280
     0
102
RTVSPost2010PropOp45
 70
     1
102
RTVSPost2010Prop46
 90
       50
102
RTVSPost2010PropOp46
 70
     1
102
RTVSPost2010Prop47
 90
       50
102
RTVSPost2010PropOp47
 70
     1
102
RTVSPost2010Prop48
 90
       50
102
RTVSPost2010PropOp48
 70
     1
102
RTVSPost2010Prop49
280
     0
102
RTVSPost2010PropOp49
 70
     1
102
RTVSPost2010Prop50
 90
       50
102
RTVSPost2010PropOp50
 70
     1
102
RTVSPost2010Prop51ColorIndex
 90
      256
102
RTVSPost2010Prop51ColorRGB
 90
-16777216
102
RTVSPost2010PropOp51
 70
     0
102
RTVSPost2010Prop52
140
1.0
102
RTVSPost2010PropOp52
 70
     0
102
RTVSPost2010Prop53
 90
        2
102
RTVSPost2010PropOp53
 70
     1
102
RTVSPost2010Prop54
  1
strokes_ogs.tif
102
RTVSPost2010PropOp54
 70
     1
102
RTVSPost2010Prop55
280
     0
102
RTVSPost2010PropOp55
 70
     1
102
RTVSPost2010Prop56
140
1.0
102
RTVSPost2010PropOp56
 70
     1
102
RTVSPost2010Prop57
140
1.0
102
RTVSPost2010PropOp57
 70
     1
102
RTVSPropertyOp0
 70
     1
102
RTVSPropertyOp1
 70
     1
102
RTVSPropertyOp2
 70
     1
102
RTVSPropertyOp3
 70
     1
102
RTVSPropertyOp4
 70
     1
102
RTVSPropertyOp5
 70
     1
102
RTVSPropertyOp6
 70
     1
102
RTVSPropertyOp7
 70
     1
102
RTVSPropertyOp8
 70
     1
102
RTVSPropertyOp9
 70
     1
102
RTVSPropertyOp10
 70
     1
102
RTVSPropertyOp11
 70
     1
102
RTVSPropertyOp12
 70
     1
102
RTVSPropertyOp13
 70
     1
102
RTVSPropertyOp14
 70
     1
102
RTVSPropertyOp15
 70
     1
102
RTVSPropertyOp16
 70
     1
102
RTVSPropertyOp17
 70
     1
102
RTVSPropertyOp18
 70
     1
102
RTVSPropertyOp19
 70
     1
102
RTVSPropertyOp20
 70
     1
102
RTVSPropertyOp21
 70
     1
102
RTVSPropertyOp22
 70
     1
102
RTVSPropertyOp23
 70
     1
102
RTVSPropertyOp24
 70
     1
102
RTVSPropertyOp25
 70
     1
102
RTVSPropertyOp26
 70
     1
102
RTVSPropertyOp27
 70
     1
102
RTVSPropertyOp28
 70
     1
102
RTVSPropertyOp29
 70
     1
102
RTVSPropertyOp30
 70
     1
102
RTVSPropertyOp31
 70
     1
102
RTVSPropertyOp32
 70
     1
102
RTVSPropertyOp33
 70
     1
102
RTVSPropertyOp34
 70
     1
102
RTVSPropertyOp35
 70
     1
102
RTVSPropertyOp36
 70
     1
102
RTVSPropertyOp37
 70
     1
102
RTVSPropertyOp38
 70
     1
102
RTVSPropertyOp39
 70
     1
102
RTVSPropertyOp40
 70
     1
102
RTVSPropertyOp41
 70
     1
102
RTVSPropertyOp42
 70
     1
102
RTVSPropertyOp43
 70
     1
102
RTVSPropertyOp44
 70
     1
102
RTVSPropertyOp45
 70
     1
102
RTVSPropertyOp46
 70
     1
102
RTVSPropertyOp47
 70
     1
102
RTVSPropertyOp48
 70
     1
102
RTVSPropertyOp49
 70
     1
102
RTVSPropertyOp50
 70
     1
102
RTVSPropertyOp51
 70
     0
102
RTVSPropertyOp52
 70
     0
102
RTVSPropertyOp53
 70
     1
102
RTVSPropertyOp54
 70
     1
102
RTVSPropertyOp55
 70
     1
102
RTVSPropertyOp56
 70
     1
102
RTVSPropertyOp57
 70
     1
102
RTVSPropertyOp58
 70
     1
102
RTVSPropertyOp59
 70
     1
102
RTVSPropertyOp60
 70
     1
102
RTVSPropertyOp61
 70
     1
102
RTVSPropertyOp62
 70
     1
  0
XRECORD
  5
661B
102
{ACAD_REACTORS
330
661A
102
}
330
661A
100
AcDbXrecord
280
     1
102
RTVSPost2010Prop28
280
     0
102
RTVSPost2010PropOp28
 70
     1
102
RTVSPost2010Prop29
280
     1
102
RTVSPost2010PropOp29
 70
     1
102
RTVSPost2010Prop30
280
     1
102
RTVSPost2010PropOp30
 70
     1
102
RTVSPost2010Prop31
280
     0
102
RTVSPost2010PropOp31
 70
     1
102
RTVSPost2010Prop32
280
     0
102
RTVSPost2010PropOp32
 70
     1
102
RTVSPost2010Prop33
280
     0
102
RTVSPost2010PropOp33
 70
     1
102
RTVSPost2010Prop34
280
     0
102
RTVSPost2010PropOp34
 70
     1
102
RTVSPost2010Prop35
280
     0
102
RTVSPost2010PropOp35
 70
     1
102
RTVSPost2010Prop36
280
     0
102
RTVSPost2010PropOp36
 70
     1
102
RTVSPost2010Prop37
 90
       50
102
RTVSPost2010PropOp37
 70
     1
102
RTVSPost2010Prop38
140
0.0
102
RTVSPost2010PropOp38
 70
     1
102
RTVSPost2010Prop39
140
1.0
102
RTVSPost2010PropOp39
 70
     1
102
RTVSPost2010Prop40
 90
        0
102
RTVSPost2010PropOp40
 70
     1
102
RTVSPost2010Prop41ColorIndex
 90
       18
102
RTVSPost2010Prop41ColorRGB
 90
        0
102
RTVSPost2010PropOp41
 70
     1
102
RTVSPost2010Prop42
 90
       50
102
RTVSPost2010PropOp42
 70
     1
102
RTVSPost2010Prop43
 90
        3
102
RTVSPost2010PropOp43
 70
     1
102
RTVSPost2010Prop44ColorIndex
 90
        5
102
RTVSPost2010Prop44ColorRGB
 90
      255
102
RTVSPost2010PropOp44
 70
     1
102
RTVSPost2010Prop45
280
     0
102
RTVSPost2010PropOp45
 70
     1
102
RTVSPost2010Prop46
 90
       50
102
RTVSPost2010PropOp46
 70
     1
102
RTVSPost2010Prop47
 90
       50
102
RTVSPost2010PropOp47
 70
     1
102
RTVSPost2010Prop48
 90
       50
102
RTVSPost2010PropOp48
 70
     1
102
RTVSPost2010Prop49
280
     0
102
RTVSPost2010PropOp49
 70
     1
102
RTVSPost2010Prop50
 90
       50
102
RTVSPost2010PropOp50
 70
     1
102
RTVSPost2010Prop51ColorIndex
 90
      256
102
RTVSPost2010Prop51ColorRGB
 90
-16777216
102
RTVSPost2010PropOp51
 70
     0
102
RTVSPost2010Prop52
140
1.0
102
RTVSPost2010PropOp52
 70
     0
102
RTVSPost2010Prop53
 90
        2
102
RTVSPost2010PropOp53
 70
     1
102
RTVSPost2010Prop54
  1
strokes_ogs.tif
102
RTVSPost2010PropOp54
 70
     1
102
RTVSPost2010Prop55
280
     0
102
RTVSPost2010PropOp55
 70
     1
102
RTVSPost2010Prop56
140
1.0
102
RTVSPost2010PropOp56
 70
     1
102
RTVSPost2010Prop57
140
1.0
102
RTVSPost2010PropOp57
 70
     1
102
RTVSPropertyOp0
 70
     1
102
RTVSPropertyOp1
 70
     1
102
RTVSPropertyOp2
 70
     1
102
RTVSPropertyOp3
 70
     1
102
RTVSPropertyOp4
 70
     1
102
RTVSPropertyOp5
 70
     1
102
RTVSPropertyOp6
 70
     1
102
RTVSPropertyOp7
 70
     1
102
RTVSPropertyOp8
 70
     1
102
RTVSPropertyOp9
 70
     1
102
RTVSPropertyOp10
 70
     1
102
RTVSPropertyOp11
 70
     1
102
RTVSPropertyOp12
 70
     1
102
RTVSPropertyOp13
 70
     1
102
RTVSPropertyOp14
 70
     1
102
RTVSPropertyOp15
 70
     1
102
RTVSPropertyOp16
 70
     1
102
RTVSPropertyOp17
 70
     1
102
RTVSPropertyOp18
 70
     1
102
RTVSPropertyOp19
 70
     1
102
RTVSPropertyOp20
 70
     1
102
RTVSPropertyOp21
 70
     1
102
RTVSPropertyOp22
 70
     1
102
RTVSPropertyOp23
 70
     1
102
RTVSPropertyOp24
 70
     1
102
RTVSPropertyOp25
 70
     1
102
RTVSPropertyOp26
 70
     1
102
RTVSPropertyOp27
 70
     1
102
RTVSPropertyOp28
 70
     1
102
RTVSPropertyOp29
 70
     1
102
RTVSPropertyOp30
 70
     1
102
RTVSPropertyOp31
 70
     1
102
RTVSPropertyOp32
 70
     1
102
RTVSPropertyOp33
 70
     1
102
RTVSPropertyOp34
 70
     1
102
RTVSPropertyOp35
 70
     1
102
RTVSPropertyOp36
 70
     1
102
RTVSPropertyOp37
 70
     1
102
RTVSPropertyOp38
 70
     1
102
RTVSPropertyOp39
 70
     1
102
RTVSPropertyOp40
 70
     1
102
RTVSPropertyOp41
 70
     1
102
RTVSPropertyOp42
 70
     1
102
RTVSPropertyOp43
 70
     1
102
RTVSPropertyOp44
 70
     1
102
RTVSPropertyOp45
 70
     1
102
RTVSPropertyOp46
 70
     1
102
RTVSPropertyOp47
 70
     1
102
RTVSPropertyOp48
 70
     1
102
RTVSPropertyOp49
 70
     1
102
RTVSPropertyOp50
 70
     1
102
RTVSPropertyOp51
 70
     0
102
RTVSPropertyOp52
 70
     0
102
RTVSPropertyOp53
 70
     1
102
RTVSPropertyOp54
 70
     1
102
RTVSPropertyOp55
 70
     1
102
RTVSPropertyOp56
 70
     1
102
RTVSPropertyOp57
 70
     1
102
RTVSPropertyOp58
 70
     1
102
RTVSPropertyOp59
 70
     1
102
RTVSPropertyOp60
 70
     1
102
RTVSPropertyOp61
 70
     1
102
RTVSPropertyOp62
 70
     1
  0
XRECORD
  5
6629
102
{ACAD_REACTORS
330
6628
102
}
330
6628
100
AcDbXrecord
280
     1
102
RTVSPost2010Prop28
280
     0
102
RTVSPost2010PropOp28
 70
     1
102
RTVSPost2010Prop29
280
     1
102
RTVSPost2010PropOp29
 70
     1
102
RTVSPost2010Prop30
280
     1
102
RTVSPost2010PropOp30
 70
     1
102
RTVSPost2010Prop31
280
     0
102
RTVSPost2010PropOp31
 70
     1
102
RTVSPost2010Prop32
280
     0
102
RTVSPost2010PropOp32
 70
     1
102
RTVSPost2010Prop33
280
     0
102
RTVSPost2010PropOp33
 70
     1
102
RTVSPost2010Prop34
280
     0
102
RTVSPost2010PropOp34
 70
     1
102
RTVSPost2010Prop35
280
     0
102
RTVSPost2010PropOp35
 70
     1
102
RTVSPost2010Prop36
280
     0
102
RTVSPost2010PropOp36
 70
     1
102
RTVSPost2010Prop37
 90
       50
102
RTVSPost2010PropOp37
 70
     1
102
RTVSPost2010Prop38
140
0.0
102
RTVSPost2010PropOp38
 70
     1
102
RTVSPost2010Prop39
140
1.0
102
RTVSPost2010PropOp39
 70
     1
102
RTVSPost2010Prop40
 90
        0
102
RTVSPost2010PropOp40
 70
     1
102
RTVSPost2010Prop41ColorIndex
 90
       18
102
RTVSPost2010Prop41ColorRGB
 90
        0
102
RTVSPost2010PropOp41
 70
     1
102
RTVSPost2010Prop42
 90
       50
102
RTVSPost2010PropOp42
 70
     1
102
RTVSPost2010Prop43
 90
        3
102
RTVSPost2010PropOp43
 70
     1
102
RTVSPost2010Prop44ColorIndex
 90
        5
102
RTVSPost2010Prop44ColorRGB
 90
      255
102
RTVSPost2010PropOp44
 70
     1
102
RTVSPost2010Prop45
280
     0
102
RTVSPost2010PropOp45
 70
     1
102
RTVSPost2010Prop46
 90
       50
102
RTVSPost2010PropOp46
 70
     1
102
RTVSPost2010Prop47
 90
       50
102
RTVSPost2010PropOp47
 70
     1
102
RTVSPost2010Prop48
 90
       50
102
RTVSPost2010PropOp48
 70
     1
102
RTVSPost2010Prop49
280
     0
102
RTVSPost2010PropOp49
 70
     1
102
RTVSPost2010Prop50
 90
       50
102
RTVSPost2010PropOp50
 70
     1
102
RTVSPost2010Prop51ColorIndex
 90
      256
102
RTVSPost2010Prop51ColorRGB
 90
-16777216
102
RTVSPost2010PropOp51
 70
     0
102
RTVSPost2010Prop52
140
1.0
102
RTVSPost2010PropOp52
 70
     0
102
RTVSPost2010Prop53
 90
        2
102
RTVSPost2010PropOp53
 70
     1
102
RTVSPost2010Prop54
  1
strokes_ogs.tif
102
RTVSPost2010PropOp54
 70
     1
102
RTVSPost2010Prop55
280
     0
102
RTVSPost2010PropOp55
 70
     1
102
RTVSPost2010Prop56
140
1.0
102
RTVSPost2010PropOp56
 70
     1
102
RTVSPost2010Prop57
140
1.0
102
RTVSPost2010PropOp57
 70
     1
102
RTVSPropertyOp0
 70
     1
102
RTVSPropertyOp1
 70
     1
102
RTVSPropertyOp2
 70
     1
102
RTVSPropertyOp3
 70
     1
102
RTVSPropertyOp4
 70
     1
102
RTVSPropertyOp5
 70
     1
102
RTVSPropertyOp6
 70
     1
102
RTVSPropertyOp7
 70
     1
102
RTVSPropertyOp8
 70
     1
102
RTVSPropertyOp9
 70
     1
102
RTVSPropertyOp10
 70
     1
102
RTVSPropertyOp11
 70
     1
102
RTVSPropertyOp12
 70
     1
102
RTVSPropertyOp13
 70
     1
102
RTVSPropertyOp14
 70
     1
102
RTVSPropertyOp15
 70
     1
102
RTVSPropertyOp16
 70
     1
102
RTVSPropertyOp17
 70
     1
102
RTVSPropertyOp18
 70
     1
102
RTVSPropertyOp19
 70
     1
102
RTVSPropertyOp20
 70
     1
102
RTVSPropertyOp21
 70
     1
102
RTVSPropertyOp22
 70
     1
102
RTVSPropertyOp23
 70
     1
102
RTVSPropertyOp24
 70
     1
102
RTVSPropertyOp25
 70
     1
102
RTVSPropertyOp26
 70
     1
102
RTVSPropertyOp27
 70
     1
102
RTVSPropertyOp28
 70
     1
102
RTVSPropertyOp29
 70
     1
102
RTVSPropertyOp30
 70
     1
102
RTVSPropertyOp31
 70
     1
102
RTVSPropertyOp32
 70
     1
102
RTVSPropertyOp33
 70
     1
102
RTVSPropertyOp34
 70
     1
102
RTVSPropertyOp35
 70
     1
102
RTVSPropertyOp36
 70
     1
102
RTVSPropertyOp37
 70
     1
102
RTVSPropertyOp38
 70
     1
102
RTVSPropertyOp39
 70
     1
102
RTVSPropertyOp40
 70
     1
102
RTVSPropertyOp41
 70
     1
102
RTVSPropertyOp42
 70
     1
102
RTVSPropertyOp43
 70
     1
102
RTVSPropertyOp44
 70
     1
102
RTVSPropertyOp45
 70
     1
102
RTVSPropertyOp46
 70
     1
102
RTVSPropertyOp47
 70
     1
102
RTVSPropertyOp48
 70
     1
102
RTVSPropertyOp49
 70
     1
102
RTVSPropertyOp50
 70
     1
102
RTVSPropertyOp51
 70
     0
102
RTVSPropertyOp52
 70
     0
102
RTVSPropertyOp53
 70
     1
102
RTVSPropertyOp54
 70
     1
102
RTVSPropertyOp55
 70
     1
102
RTVSPropertyOp56
 70
     1
102
RTVSPropertyOp57
 70
     1
102
RTVSPropertyOp58
 70
     1
102
RTVSPropertyOp59
 70
     1
102
RTVSPropertyOp60
 70
     1
102
RTVSPropertyOp61
 70
     1
102
RTVSPropertyOp62
 70
     1
  0
XRECORD
  5
6631
102
{ACAD_REACTORS
330
6630
102
}
330
6630
100
AcDbXrecord
280
     1
102
RTVSPost2010Prop28
280
     0
102
RTVSPost2010PropOp28
 70
     1
102
RTVSPost2010Prop29
280
     1
102
RTVSPost2010PropOp29
 70
     1
102
RTVSPost2010Prop30
280
     1
102
RTVSPost2010PropOp30
 70
     1
102
RTVSPost2010Prop31
280
     0
102
RTVSPost2010PropOp31
 70
     1
102
RTVSPost2010Prop32
280
     0
102
RTVSPost2010PropOp32
 70
     1
102
RTVSPost2010Prop33
280
     0
102
RTVSPost2010PropOp33
 70
     1
102
RTVSPost2010Prop34
280
     0
102
RTVSPost2010PropOp34
 70
     1
102
RTVSPost2010Prop35
280
     0
102
RTVSPost2010PropOp35
 70
     1
102
RTVSPost2010Prop36
280
     0
102
RTVSPost2010PropOp36
 70
     1
102
RTVSPost2010Prop37
 90
       50
102
RTVSPost2010PropOp37
 70
     1
102
RTVSPost2010Prop38
140
0.0
102
RTVSPost2010PropOp38
 70
     1
102
RTVSPost2010Prop39
140
1.0
102
RTVSPost2010PropOp39
 70
     1
102
RTVSPost2010Prop40
 90
        0
102
RTVSPost2010PropOp40
 70
     1
102
RTVSPost2010Prop41ColorIndex
 90
       18
102
RTVSPost2010Prop41ColorRGB
 90
        0
102
RTVSPost2010PropOp41
 70
     1
102
RTVSPost2010Prop42
 90
       50
102
RTVSPost2010PropOp42
 70
     1
102
RTVSPost2010Prop43
 90
        3
102
RTVSPost2010PropOp43
 70
     1
102
RTVSPost2010Prop44ColorIndex
 90
        5
102
RTVSPost2010Prop44ColorRGB
 90
      255
102
RTVSPost2010PropOp44
 70
     1
102
RTVSPost2010Prop45
280
     0
102
RTVSPost2010PropOp45
 70
     1
102
RTVSPost2010Prop46
 90
       50
102
RTVSPost2010PropOp46
 70
     1
102
RTVSPost2010Prop47
 90
       50
102
RTVSPost2010PropOp47
 70
     1
102
RTVSPost2010Prop48
 90
       50
102
RTVSPost2010PropOp48
 70
     1
102
RTVSPost2010Prop49
280
     0
102
RTVSPost2010PropOp49
 70
     1
102
RTVSPost2010Prop50
 90
       50
102
RTVSPost2010PropOp50
 70
     1
102
RTVSPost2010Prop51ColorIndex
 90
      256
102
RTVSPost2010Prop51ColorRGB
 90
-16777216
102
RTVSPost2010PropOp51
 70
     0
102
RTVSPost2010Prop52
140
1.0
102
RTVSPost2010PropOp52
 70
     0
102
RTVSPost2010Prop53
 90
        2
102
RTVSPost2010PropOp53
 70
     1
102
RTVSPost2010Prop54
  1
strokes_ogs.tif
102
RTVSPost2010PropOp54
 70
     1
102
RTVSPost2010Prop55
280
     0
102
RTVSPost2010PropOp55
 70
     1
102
RTVSPost2010Prop56
140
1.0
102
RTVSPost2010PropOp56
 70
     1
102
RTVSPost2010Prop57
140
1.0
102
RTVSPost2010PropOp57
 70
     1
102
RTVSPropertyOp0
 70
     1
102
RTVSPropertyOp1
 70
     1
102
RTVSPropertyOp2
 70
     1
102
RTVSPropertyOp3
 70
     1
102
RTVSPropertyOp4
 70
     1
102
RTVSPropertyOp5
 70
     1
102
RTVSPropertyOp6
 70
     1
102
RTVSPropertyOp7
 70
     1
102
RTVSPropertyOp8
 70
     1
102
RTVSPropertyOp9
 70
     1
102
RTVSPropertyOp10
 70
     1
102
RTVSPropertyOp11
 70
     1
102
RTVSPropertyOp12
 70
     1
102
RTVSPropertyOp13
 70
     1
102
RTVSPropertyOp14
 70
     1
102
RTVSPropertyOp15
 70
     1
102
RTVSPropertyOp16
 70
     1
102
RTVSPropertyOp17
 70
     1
102
RTVSPropertyOp18
 70
     1
102
RTVSPropertyOp19
 70
     1
102
RTVSPropertyOp20
 70
     1
102
RTVSPropertyOp21
 70
     1
102
RTVSPropertyOp22
 70
     1
102
RTVSPropertyOp23
 70
     1
102
RTVSPropertyOp24
 70
     1
102
RTVSPropertyOp25
 70
     1
102
RTVSPropertyOp26
 70
     1
102
RTVSPropertyOp27
 70
     1
102
RTVSPropertyOp28
 70
     1
102
RTVSPropertyOp29
 70
     1
102
RTVSPropertyOp30
 70
     1
102
RTVSPropertyOp31
 70
     1
102
RTVSPropertyOp32
 70
     1
102
RTVSPropertyOp33
 70
     1
102
RTVSPropertyOp34
 70
     1
102
RTVSPropertyOp35
 70
     1
102
RTVSPropertyOp36
 70
     1
102
RTVSPropertyOp37
 70
     1
102
RTVSPropertyOp38
 70
     1
102
RTVSPropertyOp39
 70
     1
102
RTVSPropertyOp40
 70
     1
102
RTVSPropertyOp41
 70
     1
102
RTVSPropertyOp42
 70
     1
102
RTVSPropertyOp43
 70
     1
102
RTVSPropertyOp44
 70
     1
102
RTVSPropertyOp45
 70
     1
102
RTVSPropertyOp46
 70
     1
102
RTVSPropertyOp47
 70
     1
102
RTVSPropertyOp48
 70
     1
102
RTVSPropertyOp49
 70
     1
102
RTVSPropertyOp50
 70
     1
102
RTVSPropertyOp51
 70
     0
102
RTVSPropertyOp52
 70
     0
102
RTVSPropertyOp53
 70
     1
102
RTVSPropertyOp54
 70
     1
102
RTVSPropertyOp55
 70
     1
102
RTVSPropertyOp56
 70
     1
102
RTVSPropertyOp57
 70
     1
102
RTVSPropertyOp58
 70
     1
102
RTVSPropertyOp59
 70
     1
102
RTVSPropertyOp60
 70
     1
102
RTVSPropertyOp61
 70
     1
102
RTVSPropertyOp62
 70
     1
  0
XRECORD
  5
6623
102
{ACAD_REACTORS
330
6622
102
}
330
6622
100
AcDbXrecord
280
     1
102
RTVSPost2010Prop28
280
     0
102
RTVSPost2010PropOp28
 70
     1
102
RTVSPost2010Prop29
280
     1
102
RTVSPost2010PropOp29
 70
     1
102
RTVSPost2010Prop30
280
     1
102
RTVSPost2010PropOp30
 70
     1
102
RTVSPost2010Prop31
280
     0
102
RTVSPost2010PropOp31
 70
     1
102
RTVSPost2010Prop32
280
     0
102
RTVSPost2010PropOp32
 70
     1
102
RTVSPost2010Prop33
280
     0
102
RTVSPost2010PropOp33
 70
     1
102
RTVSPost2010Prop34
280
     0
102
RTVSPost2010PropOp34
 70
     1
102
RTVSPost2010Prop35
280
     0
102
RTVSPost2010PropOp35
 70
     1
102
RTVSPost2010Prop36
280
     0
102
RTVSPost2010PropOp36
 70
     1
102
RTVSPost2010Prop37
 90
       50
102
RTVSPost2010PropOp37
 70
     1
102
RTVSPost2010Prop38
140
0.0
102
RTVSPost2010PropOp38
 70
     1
102
RTVSPost2010Prop39
140
1.0
102
RTVSPost2010PropOp39
 70
     1
102
RTVSPost2010Prop40
 90
        0
102
RTVSPost2010PropOp40
 70
     1
102
RTVSPost2010Prop41ColorIndex
 90
       18
102
RTVSPost2010Prop41ColorRGB
 90
        0
102
RTVSPost2010PropOp41
 70
     1
102
RTVSPost2010Prop42
 90
       50
102
RTVSPost2010PropOp42
 70
     1
102
RTVSPost2010Prop43
 90
        3
102
RTVSPost2010PropOp43
 70
     1
102
RTVSPost2010Prop44ColorIndex
 90
        5
102
RTVSPost2010Prop44ColorRGB
 90
      255
102
RTVSPost2010PropOp44
 70
     1
102
RTVSPost2010Prop45
280
     0
102
RTVSPost2010PropOp45
 70
     1
102
RTVSPost2010Prop46
 90
       50
102
RTVSPost2010PropOp46
 70
     1
102
RTVSPost2010Prop47
 90
       50
102
RTVSPost2010PropOp47
 70
     1
102
RTVSPost2010Prop48
 90
       50
102
RTVSPost2010PropOp48
 70
     1
102
RTVSPost2010Prop49
280
     0
102
RTVSPost2010PropOp49
 70
     1
102
RTVSPost2010Prop50
 90
       50
102
RTVSPost2010PropOp50
 70
     1
102
RTVSPost2010Prop51ColorIndex
 90
      256
102
RTVSPost2010Prop51ColorRGB
 90
-16777216
102
RTVSPost2010PropOp51
 70
     0
102
RTVSPost2010Prop52
140
1.0
102
RTVSPost2010PropOp52
 70
     0
102
RTVSPost2010Prop53
 90
        2
102
RTVSPost2010PropOp53
 70
     1
102
RTVSPost2010Prop54
  1
strokes_ogs.tif
102
RTVSPost2010PropOp54
 70
     1
102
RTVSPost2010Prop55
280
     0
102
RTVSPost2010PropOp55
 70
     1
102
RTVSPost2010Prop56
140
1.0
102
RTVSPost2010PropOp56
 70
     1
102
RTVSPost2010Prop57
140
1.0
102
RTVSPost2010PropOp57
 70
     1
102
RTVSPropertyOp0
 70
     1
102
RTVSPropertyOp1
 70
     1
102
RTVSPropertyOp2
 70
     1
102
RTVSPropertyOp3
 70
     1
102
RTVSPropertyOp4
 70
     1
102
RTVSPropertyOp5
 70
     1
102
RTVSPropertyOp6
 70
     1
102
RTVSPropertyOp7
 70
     1
102
RTVSPropertyOp8
 70
     1
102
RTVSPropertyOp9
 70
     1
102
RTVSPropertyOp10
 70
     1
102
RTVSPropertyOp11
 70
     1
102
RTVSPropertyOp12
 70
     1
102
RTVSPropertyOp13
 70
     1
102
RTVSPropertyOp14
 70
     1
102
RTVSPropertyOp15
 70
     1
102
RTVSPropertyOp16
 70
     1
102
RTVSPropertyOp17
 70
     1
102
RTVSPropertyOp18
 70
     1
102
RTVSPropertyOp19
 70
     1
102
RTVSPropertyOp20
 70
     1
102
RTVSPropertyOp21
 70
     1
102
RTVSPropertyOp22
 70
     1
102
RTVSPropertyOp23
 70
     1
102
RTVSPropertyOp24
 70
     1
102
RTVSPropertyOp25
 70
     1
102
RTVSPropertyOp26
 70
     1
102
RTVSPropertyOp27
 70
     1
102
RTVSPropertyOp28
 70
     1
102
RTVSPropertyOp29
 70
     1
102
RTVSPropertyOp30
 70
     1
102
RTVSPropertyOp31
 70
     1
102
RTVSPropertyOp32
 70
     1
102
RTVSPropertyOp33
 70
     1
102
RTVSPropertyOp34
 70
     1
102
RTVSPropertyOp35
 70
     1
102
RTVSPropertyOp36
 70
     1
102
RTVSPropertyOp37
 70
     1
102
RTVSPropertyOp38
 70
     1
102
RTVSPropertyOp39
 70
     1
102
RTVSPropertyOp40
 70
     1
102
RTVSPropertyOp41
 70
     1
102
RTVSPropertyOp42
 70
     1
102
RTVSPropertyOp43
 70
     1
102
RTVSPropertyOp44
 70
     1
102
RTVSPropertyOp45
 70
     1
102
RTVSPropertyOp46
 70
     1
102
RTVSPropertyOp47
 70
     1
102
RTVSPropertyOp48
 70
     1
102
RTVSPropertyOp49
 70
     1
102
RTVSPropertyOp50
 70
     1
102
RTVSPropertyOp51
 70
     0
102
RTVSPropertyOp52
 70
     0
102
RTVSPropertyOp53
 70
     1
102
RTVSPropertyOp54
 70
     1
102
RTVSPropertyOp55
 70
     1
102
RTVSPropertyOp56
 70
     1
102
RTVSPropertyOp57
 70
     1
102
RTVSPropertyOp58
 70
     1
102
RTVSPropertyOp59
 70
     1
102
RTVSPropertyOp60
 70
     1
102
RTVSPropertyOp61
 70
     1
102
RTVSPropertyOp62
 70
     1
  0
XRECORD
  5
6627
102
{ACAD_REACTORS
330
6626
102
}
330
6626
100
AcDbXrecord
280
     1
102
RTVSPost2010Prop28
280
     0
102
RTVSPost2010PropOp28
 70
     1
102
RTVSPost2010Prop29
280
     1
102
RTVSPost2010PropOp29
 70
     1
102
RTVSPost2010Prop30
280
     1
102
RTVSPost2010PropOp30
 70
     1
102
RTVSPost2010Prop31
280
     0
102
RTVSPost2010PropOp31
 70
     1
102
RTVSPost2010Prop32
280
     0
102
RTVSPost2010PropOp32
 70
     1
102
RTVSPost2010Prop33
280
     0
102
RTVSPost2010PropOp33
 70
     1
102
RTVSPost2010Prop34
280
     0
102
RTVSPost2010PropOp34
 70
     1
102
RTVSPost2010Prop35
280
     0
102
RTVSPost2010PropOp35
 70
     1
102
RTVSPost2010Prop36
280
     0
102
RTVSPost2010PropOp36
 70
     1
102
RTVSPost2010Prop37
 90
       50
102
RTVSPost2010PropOp37
 70
     1
102
RTVSPost2010Prop38
140
0.0
102
RTVSPost2010PropOp38
 70
     1
102
RTVSPost2010Prop39
140
1.0
102
RTVSPost2010PropOp39
 70
     1
102
RTVSPost2010Prop40
 90
        0
102
RTVSPost2010PropOp40
 70
     1
102
RTVSPost2010Prop41ColorIndex
 90
       18
102
RTVSPost2010Prop41ColorRGB
 90
        0
102
RTVSPost2010PropOp41
 70
     1
102
RTVSPost2010Prop42
 90
       50
102
RTVSPost2010PropOp42
 70
     1
102
RTVSPost2010Prop43
 90
        3
102
RTVSPost2010PropOp43
 70
     1
102
RTVSPost2010Prop44ColorIndex
 90
        5
102
RTVSPost2010Prop44ColorRGB
 90
      255
102
RTVSPost2010PropOp44
 70
     1
102
RTVSPost2010Prop45
280
     0
102
RTVSPost2010PropOp45
 70
     1
102
RTVSPost2010Prop46
 90
       50
102
RTVSPost2010PropOp46
 70
     1
102
RTVSPost2010Prop47
 90
       50
102
RTVSPost2010PropOp47
 70
     1
102
RTVSPost2010Prop48
 90
       50
102
RTVSPost2010PropOp48
 70
     1
102
RTVSPost2010Prop49
280
     0
102
RTVSPost2010PropOp49
 70
     1
102
RTVSPost2010Prop50
 90
       50
102
RTVSPost2010PropOp50
 70
     1
102
RTVSPost2010Prop51ColorIndex
 90
      256
102
RTVSPost2010Prop51ColorRGB
 90
-16777216
102
RTVSPost2010PropOp51
 70
     0
102
RTVSPost2010Prop52
140
1.0
102
RTVSPost2010PropOp52
 70
     0
102
RTVSPost2010Prop53
 90
        2
102
RTVSPost2010PropOp53
 70
     1
102
RTVSPost2010Prop54
  1
strokes_ogs.tif
102
RTVSPost2010PropOp54
 70
     1
102
RTVSPost2010Prop55
280
     0
102
RTVSPost2010PropOp55
 70
     1
102
RTVSPost2010Prop56
140
1.0
102
RTVSPost2010PropOp56
 70
     1
102
RTVSPost2010Prop57
140
1.0
102
RTVSPost2010PropOp57
 70
     1
102
RTVSPropertyOp0
 70
     1
102
RTVSPropertyOp1
 70
     1
102
RTVSPropertyOp2
 70
     1
102
RTVSPropertyOp3
 70
     1
102
RTVSPropertyOp4
 70
     1
102
RTVSPropertyOp5
 70
     1
102
RTVSPropertyOp6
 70
     1
102
RTVSPropertyOp7
 70
     1
102
RTVSPropertyOp8
 70
     1
102
RTVSPropertyOp9
 70
     1
102
RTVSPropertyOp10
 70
     1
102
RTVSPropertyOp11
 70
     1
102
RTVSPropertyOp12
 70
     1
102
RTVSPropertyOp13
 70
     1
102
RTVSPropertyOp14
 70
     1
102
RTVSPropertyOp15
 70
     1
102
RTVSPropertyOp16
 70
     1
102
RTVSPropertyOp17
 70
     1
102
RTVSPropertyOp18
 70
     1
102
RTVSPropertyOp19
 70
     1
102
RTVSPropertyOp20
 70
     1
102
RTVSPropertyOp21
 70
     1
102
RTVSPropertyOp22
 70
     1
102
RTVSPropertyOp23
 70
     1
102
RTVSPropertyOp24
 70
     1
102
RTVSPropertyOp25
 70
     1
102
RTVSPropertyOp26
 70
     1
102
RTVSPropertyOp27
 70
     1
102
RTVSPropertyOp28
 70
     1
102
RTVSPropertyOp29
 70
     1
102
RTVSPropertyOp30
 70
     1
102
RTVSPropertyOp31
 70
     1
102
RTVSPropertyOp32
 70
     1
102
RTVSPropertyOp33
 70
     1
102
RTVSPropertyOp34
 70
     1
102
RTVSPropertyOp35
 70
     1
102
RTVSPropertyOp36
 70
     1
102
RTVSPropertyOp37
 70
     1
102
RTVSPropertyOp38
 70
     1
102
RTVSPropertyOp39
 70
     1
102
RTVSPropertyOp40
 70
     1
102
RTVSPropertyOp41
 70
     1
102
RTVSPropertyOp42
 70
     1
102
RTVSPropertyOp43
 70
     1
102
RTVSPropertyOp44
 70
     1
102
RTVSPropertyOp45
 70
     1
102
RTVSPropertyOp46
 70
     1
102
RTVSPropertyOp47
 70
     1
102
RTVSPropertyOp48
 70
     1
102
RTVSPropertyOp49
 70
     1
102
RTVSPropertyOp50
 70
     1
102
RTVSPropertyOp51
 70
     0
102
RTVSPropertyOp52
 70
     0
102
RTVSPropertyOp53
 70
     1
102
RTVSPropertyOp54
 70
     1
102
RTVSPropertyOp55
 70
     1
102
RTVSPropertyOp56
 70
     1
102
RTVSPropertyOp57
 70
     1
102
RTVSPropertyOp58
 70
     1
102
RTVSPropertyOp59
 70
     1
102
RTVSPropertyOp60
 70
     1
102
RTVSPropertyOp61
 70
     1
102
RTVSPropertyOp62
 70
     1
  0
XRECORD
  5
6639
102
{ACAD_REACTORS
330
6638
102
}
330
6638
100
AcDbXrecord
280
     1
102
RTVSPost2010Prop28
280
     0
102
RTVSPost2010PropOp28
 70
     1
102
RTVSPost2010Prop29
280
     1
102
RTVSPost2010PropOp29
 70
     1
102
RTVSPost2010Prop30
280
     1
102
RTVSPost2010PropOp30
 70
     1
102
RTVSPost2010Prop31
280
     0
102
RTVSPost2010PropOp31
 70
     1
102
RTVSPost2010Prop32
280
     0
102
RTVSPost2010PropOp32
 70
     1
102
RTVSPost2010Prop33
280
     0
102
RTVSPost2010PropOp33
 70
     1
102
RTVSPost2010Prop34
280
     0
102
RTVSPost2010PropOp34
 70
     1
102
RTVSPost2010Prop35
280
     0
102
RTVSPost2010PropOp35
 70
     1
102
RTVSPost2010Prop36
280
     0
102
RTVSPost2010PropOp36
 70
     1
102
RTVSPost2010Prop37
 90
       50
102
RTVSPost2010PropOp37
 70
     1
102
RTVSPost2010Prop38
140
0.0
102
RTVSPost2010PropOp38
 70
     1
102
RTVSPost2010Prop39
140
1.0
102
RTVSPost2010PropOp39
 70
     1
102
RTVSPost2010Prop40
 90
        0
102
RTVSPost2010PropOp40
 70
     1
102
RTVSPost2010Prop41ColorIndex
 90
       18
102
RTVSPost2010Prop41ColorRGB
 90
        0
102
RTVSPost2010PropOp41
 70
     1
102
RTVSPost2010Prop42
 90
       50
102
RTVSPost2010PropOp42
 70
     1
102
RTVSPost2010Prop43
 90
        3
102
RTVSPost2010PropOp43
 70
     1
102
RTVSPost2010Prop44ColorIndex
 90
        5
102
RTVSPost2010Prop44ColorRGB
 90
      255
102
RTVSPost2010PropOp44
 70
     1
102
RTVSPost2010Prop45
280
     0
102
RTVSPost2010PropOp45
 70
     1
102
RTVSPost2010Prop46
 90
       50
102
RTVSPost2010PropOp46
 70
     1
102
RTVSPost2010Prop47
 90
       50
102
RTVSPost2010PropOp47
 70
     1
102
RTVSPost2010Prop48
 90
       50
102
RTVSPost2010PropOp48
 70
     1
102
RTVSPost2010Prop49
280
     0
102
RTVSPost2010PropOp49
 70
     1
102
RTVSPost2010Prop50
 90
       50
102
RTVSPost2010PropOp50
 70
     1
102
RTVSPost2010Prop51ColorIndex
 90
      256
102
RTVSPost2010Prop51ColorRGB
 90
-16777216
102
RTVSPost2010PropOp51
 70
     0
102
RTVSPost2010Prop52
140
1.0
102
RTVSPost2010PropOp52
 70
     0
102
RTVSPost2010Prop53
 90
        2
102
RTVSPost2010PropOp53
 70
     1
102
RTVSPost2010Prop54
  1
strokes_ogs.tif
102
RTVSPost2010PropOp54
 70
     1
102
RTVSPost2010Prop55
280
     0
102
RTVSPost2010PropOp55
 70
     1
102
RTVSPost2010Prop56
140
1.0
102
RTVSPost2010PropOp56
 70
     1
102
RTVSPost2010Prop57
140
1.0
102
RTVSPost2010PropOp57
 70
     1
102
RTVSPropertyOp0
 70
     0
102
RTVSPropertyOp1
 70
     0
102
RTVSPropertyOp2
 70
     0
102
RTVSPropertyOp3
 70
     0
102
RTVSPropertyOp4
 70
     0
102
RTVSPropertyOp5
 70
     0
102
RTVSPropertyOp6
 70
     0
102
RTVSPropertyOp7
 70
     0
102
RTVSPropertyOp8
 70
     0
102
RTVSPropertyOp9
 70
     0
102
RTVSPropertyOp10
 70
     0
102
RTVSPropertyOp11
 70
     0
102
RTVSPropertyOp12
 70
     0
102
RTVSPropertyOp13
 70
     0
102
RTVSPropertyOp14
 70
     2
102
RTVSPropertyOp15
 70
     0
102
RTVSPropertyOp16
 70
     0
102
RTVSPropertyOp17
 70
     0
102
RTVSPropertyOp18
 70
     0
102
RTVSPropertyOp19
 70
     0
102
RTVSPropertyOp20
 70
     0
102
RTVSPropertyOp21
 70
     0
102
RTVSPropertyOp22
 70
     0
102
RTVSPropertyOp23
 70
     0
102
RTVSPropertyOp24
 70
     0
102
RTVSPropertyOp25
 70
     0
102
RTVSPropertyOp26
 70
     0
102
RTVSPropertyOp27
 70
     0
102
RTVSPropertyOp28
 70
     1
102
RTVSPropertyOp29
 70
     1
102
RTVSPropertyOp30
 70
     1
102
RTVSPropertyOp31
 70
     1
102
RTVSPropertyOp32
 70
     1
102
RTVSPropertyOp33
 70
     1
102
RTVSPropertyOp34
 70
     1
102
RTVSPropertyOp35
 70
     1
102
RTVSPropertyOp36
 70
     1
102
RTVSPropertyOp37
 70
     1
102
RTVSPropertyOp38
 70
     1
102
RTVSPropertyOp39
 70
     1
102
RTVSPropertyOp40
 70
     1
102
RTVSPropertyOp41
 70
     1
102
RTVSPropertyOp42
 70
     1
102
RTVSPropertyOp43
 70
     1
102
RTVSPropertyOp44
 70
     1
102
RTVSPropertyOp45
 70
     1
102
RTVSPropertyOp46
 70
     1
102
RTVSPropertyOp47
 70
     1
102
RTVSPropertyOp48
 70
     1
102
RTVSPropertyOp49
 70
     1
102
RTVSPropertyOp50
 70
     1
102
RTVSPropertyOp51
 70
     0
102
RTVSPropertyOp52
 70
     0
102
RTVSPropertyOp53
 70
     1
102
RTVSPropertyOp54
 70
     1
102
RTVSPropertyOp55
 70
     1
102
RTVSPropertyOp56
 70
     1
102
RTVSPropertyOp57
 70
     1
102
RTVSPropertyOp58
 70
     1
102
RTVSPropertyOp59
 70
     1
102
RTVSPropertyOp60
 70
     1
102
RTVSPropertyOp61
 70
     1
102
RTVSPropertyOp62
 70
     1
  0
XRECORD
  5
662F
102
{ACAD_REACTORS
330
662E
102
}
330
662E
100
AcDbXrecord
280
     1
102
RTVSPost2010Prop28
280
     0
102
RTVSPost2010PropOp28
 70
     1
102
RTVSPost2010Prop29
280
     1
102
RTVSPost2010PropOp29
 70
     1
102
RTVSPost2010Prop30
280
     1
102
RTVSPost2010PropOp30
 70
     1
102
RTVSPost2010Prop31
280
     0
102
RTVSPost2010PropOp31
 70
     1
102
RTVSPost2010Prop32
280
     0
102
RTVSPost2010PropOp32
 70
     1
102
RTVSPost2010Prop33
280
     0
102
RTVSPost2010PropOp33
 70
     1
102
RTVSPost2010Prop34
280
     0
102
RTVSPost2010PropOp34
 70
     1
102
RTVSPost2010Prop35
280
     0
102
RTVSPost2010PropOp35
 70
     1
102
RTVSPost2010Prop36
280
     0
102
RTVSPost2010PropOp36
 70
     1
102
RTVSPost2010Prop37
 90
       50
102
RTVSPost2010PropOp37
 70
     1
102
RTVSPost2010Prop38
140
0.0
102
RTVSPost2010PropOp38
 70
     1
102
RTVSPost2010Prop39
140
1.0
102
RTVSPost2010PropOp39
 70
     1
102
RTVSPost2010Prop40
 90
        0
102
RTVSPost2010PropOp40
 70
     1
102
RTVSPost2010Prop41ColorIndex
 90
       18
102
RTVSPost2010Prop41ColorRGB
 90
        0
102
RTVSPost2010PropOp41
 70
     1
102
RTVSPost2010Prop42
 90
       50
102
RTVSPost2010PropOp42
 70
     1
102
RTVSPost2010Prop43
 90
        3
102
RTVSPost2010PropOp43
 70
     1
102
RTVSPost2010Prop44ColorIndex
 90
        5
102
RTVSPost2010Prop44ColorRGB
 90
      255
102
RTVSPost2010PropOp44
 70
     1
102
RTVSPost2010Prop45
280
     0
102
RTVSPost2010PropOp45
 70
     1
102
RTVSPost2010Prop46
 90
       50
102
RTVSPost2010PropOp46
 70
     1
102
RTVSPost2010Prop47
 90
       50
102
RTVSPost2010PropOp47
 70
     1
102
RTVSPost2010Prop48
 90
       50
102
RTVSPost2010PropOp48
 70
     1
102
RTVSPost2010Prop49
280
     0
102
RTVSPost2010PropOp49
 70
     1
102
RTVSPost2010Prop50
 90
       50
102
RTVSPost2010PropOp50
 70
     1
102
RTVSPost2010Prop51ColorIndex
 90
      256
102
RTVSPost2010Prop51ColorRGB
 90
-16777216
102
RTVSPost2010PropOp51
 70
     0
102
RTVSPost2010Prop52
140
1.0
102
RTVSPost2010PropOp52
 70
     0
102
RTVSPost2010Prop53
 90
        2
102
RTVSPost2010PropOp53
 70
     1
102
RTVSPost2010Prop54
  1
strokes_ogs.tif
102
RTVSPost2010PropOp54
 70
     1
102
RTVSPost2010Prop55
280
     0
102
RTVSPost2010PropOp55
 70
     1
102
RTVSPost2010Prop56
140
1.0
102
RTVSPost2010PropOp56
 70
     1
102
RTVSPost2010Prop57
140
1.0
102
RTVSPost2010PropOp57
 70
     1
102
RTVSPropertyOp0
 70
     1
102
RTVSPropertyOp1
 70
     1
102
RTVSPropertyOp2
 70
     1
102
RTVSPropertyOp3
 70
     1
102
RTVSPropertyOp4
 70
     1
102
RTVSPropertyOp5
 70
     1
102
RTVSPropertyOp6
 70
     1
102
RTVSPropertyOp7
 70
     1
102
RTVSPropertyOp8
 70
     1
102
RTVSPropertyOp9
 70
     1
102
RTVSPropertyOp10
 70
     1
102
RTVSPropertyOp11
 70
     1
102
RTVSPropertyOp12
 70
     1
102
RTVSPropertyOp13
 70
     1
102
RTVSPropertyOp14
 70
     1
102
RTVSPropertyOp15
 70
     1
102
RTVSPropertyOp16
 70
     1
102
RTVSPropertyOp17
 70
     1
102
RTVSPropertyOp18
 70
     1
102
RTVSPropertyOp19
 70
     1
102
RTVSPropertyOp20
 70
     1
102
RTVSPropertyOp21
 70
     1
102
RTVSPropertyOp22
 70
     1
102
RTVSPropertyOp23
 70
     1
102
RTVSPropertyOp24
 70
     1
102
RTVSPropertyOp25
 70
     1
102
RTVSPropertyOp26
 70
     1
102
RTVSPropertyOp27
 70
     1
102
RTVSPropertyOp28
 70
     1
102
RTVSPropertyOp29
 70
     1
102
RTVSPropertyOp30
 70
     1
102
RTVSPropertyOp31
 70
     1
102
RTVSPropertyOp32
 70
     1
102
RTVSPropertyOp33
 70
     1
102
RTVSPropertyOp34
 70
     1
102
RTVSPropertyOp35
 70
     1
102
RTVSPropertyOp36
 70
     1
102
RTVSPropertyOp37
 70
     1
102
RTVSPropertyOp38
 70
     1
102
RTVSPropertyOp39
 70
     1
102
RTVSPropertyOp40
 70
     1
102
RTVSPropertyOp41
 70
     1
102
RTVSPropertyOp42
 70
     1
102
RTVSPropertyOp43
 70
     1
102
RTVSPropertyOp44
 70
     1
102
RTVSPropertyOp45
 70
     1
102
RTVSPropertyOp46
 70
     1
102
RTVSPropertyOp47
 70
     1
102
RTVSPropertyOp48
 70
     1
102
RTVSPropertyOp49
 70
     1
102
RTVSPropertyOp50
 70
     1
102
RTVSPropertyOp51
 70
     0
102
RTVSPropertyOp52
 70
     0
102
RTVSPropertyOp53
 70
     1
102
RTVSPropertyOp54
 70
     1
102
RTVSPropertyOp55
 70
     1
102
RTVSPropertyOp56
 70
     1
102
RTVSPropertyOp57
 70
     1
102
RTVSPropertyOp58
 70
     1
102
RTVSPropertyOp59
 70
     1
102
RTVSPropertyOp60
 70
     1
102
RTVSPropertyOp61
 70
     1
102
RTVSPropertyOp62
 70
     1
  0
XRECORD
  5
6613
102
{ACAD_REACTORS
330
6612
102
}
330
6612
100
AcDbXrecord
280
     1
102
RTVSPost2010Prop28
280
     0
102
RTVSPost2010PropOp28
 70
     1
102
RTVSPost2010Prop29
280
     1
102
RTVSPost2010PropOp29
 70
     1
102
RTVSPost2010Prop30
280
     1
102
RTVSPost2010PropOp30
 70
     1
102
RTVSPost2010Prop31
280
     0
102
RTVSPost2010PropOp31
 70
     1
102
RTVSPost2010Prop32
280
     0
102
RTVSPost2010PropOp32
 70
     1
102
RTVSPost2010Prop33
280
     0
102
RTVSPost2010PropOp33
 70
     1
102
RTVSPost2010Prop34
280
     0
102
RTVSPost2010PropOp34
 70
     1
102
RTVSPost2010Prop35
280
     0
102
RTVSPost2010PropOp35
 70
     1
102
RTVSPost2010Prop36
280
     0
102
RTVSPost2010PropOp36
 70
     1
102
RTVSPost2010Prop37
 90
       50
102
RTVSPost2010PropOp37
 70
     1
102
RTVSPost2010Prop38
140
0.0
102
RTVSPost2010PropOp38
 70
     1
102
RTVSPost2010Prop39
140
1.0
102
RTVSPost2010PropOp39
 70
     1
102
RTVSPost2010Prop40
 90
        0
102
RTVSPost2010PropOp40
 70
     1
102
RTVSPost2010Prop41ColorIndex
 90
       18
102
RTVSPost2010Prop41ColorRGB
 90
        0
102
RTVSPost2010PropOp41
 70
     1
102
RTVSPost2010Prop42
 90
       50
102
RTVSPost2010PropOp42
 70
     1
102
RTVSPost2010Prop43
 90
        3
102
RTVSPost2010PropOp43
 70
     1
102
RTVSPost2010Prop44ColorIndex
 90
        5
102
RTVSPost2010Prop44ColorRGB
 90
      255
102
RTVSPost2010PropOp44
 70
     1
102
RTVSPost2010Prop45
280
     0
102
RTVSPost2010PropOp45
 70
     1
102
RTVSPost2010Prop46
 90
       50
102
RTVSPost2010PropOp46
 70
     1
102
RTVSPost2010Prop47
 90
       50
102
RTVSPost2010PropOp47
 70
     1
102
RTVSPost2010Prop48
 90
       50
102
RTVSPost2010PropOp48
 70
     1
102
RTVSPost2010Prop49
280
     0
102
RTVSPost2010PropOp49
 70
     1
102
RTVSPost2010Prop50
 90
       50
102
RTVSPost2010PropOp50
 70
     1
102
RTVSPost2010Prop51ColorIndex
 90
      256
102
RTVSPost2010Prop51ColorRGB
 90
-16777216
102
RTVSPost2010PropOp51
 70
     0
102
RTVSPost2010Prop52
140
1.0
102
RTVSPost2010PropOp52
 70
     0
102
RTVSPost2010Prop53
 90
        2
102
RTVSPost2010PropOp53
 70
     1
102
RTVSPost2010Prop54
  1
strokes_ogs.tif
102
RTVSPost2010PropOp54
 70
     1
102
RTVSPost2010Prop55
280
     0
102
RTVSPost2010PropOp55
 70
     1
102
RTVSPost2010Prop56
140
1.0
102
RTVSPost2010PropOp56
 70
     1
102
RTVSPost2010Prop57
140
1.0
102
RTVSPost2010PropOp57
 70
     1
102
RTVSPropertyOp0
 70
     1
102
RTVSPropertyOp1
 70
     1
102
RTVSPropertyOp2
 70
     1
102
RTVSPropertyOp3
 70
     1
102
RTVSPropertyOp4
 70
     1
102
RTVSPropertyOp5
 70
     1
102
RTVSPropertyOp6
 70
     1
102
RTVSPropertyOp7
 70
     1
102
RTVSPropertyOp8
 70
     1
102
RTVSPropertyOp9
 70
     1
102
RTVSPropertyOp10
 70
     1
102
RTVSPropertyOp11
 70
     1
102
RTVSPropertyOp12
 70
     1
102
RTVSPropertyOp13
 70
     1
102
RTVSPropertyOp14
 70
     1
102
RTVSPropertyOp15
 70
     1
102
RTVSPropertyOp16
 70
     1
102
RTVSPropertyOp17
 70
     1
102
RTVSPropertyOp18
 70
     1
102
RTVSPropertyOp19
 70
     1
102
RTVSPropertyOp20
 70
     1
102
RTVSPropertyOp21
 70
     1
102
RTVSPropertyOp22
 70
     1
102
RTVSPropertyOp23
 70
     1
102
RTVSPropertyOp24
 70
     1
102
RTVSPropertyOp25
 70
     1
102
RTVSPropertyOp26
 70
     1
102
RTVSPropertyOp27
 70
     1
102
RTVSPropertyOp28
 70
     1
102
RTVSPropertyOp29
 70
     1
102
RTVSPropertyOp30
 70
     1
102
RTVSPropertyOp31
 70
     1
102
RTVSPropertyOp32
 70
     1
102
RTVSPropertyOp33
 70
     1
102
RTVSPropertyOp34
 70
     1
102
RTVSPropertyOp35
 70
     1
102
RTVSPropertyOp36
 70
     1
102
RTVSPropertyOp37
 70
     1
102
RTVSPropertyOp38
 70
     1
102
RTVSPropertyOp39
 70
     1
102
RTVSPropertyOp40
 70
     1
102
RTVSPropertyOp41
 70
     1
102
RTVSPropertyOp42
 70
     1
102
RTVSPropertyOp43
 70
     1
102
RTVSPropertyOp44
 70
     1
102
RTVSPropertyOp45
 70
     1
102
RTVSPropertyOp46
 70
     1
102
RTVSPropertyOp47
 70
     1
102
RTVSPropertyOp48
 70
     1
102
RTVSPropertyOp49
 70
     1
102
RTVSPropertyOp50
 70
     1
102
RTVSPropertyOp51
 70
     0
102
RTVSPropertyOp52
 70
     0
102
RTVSPropertyOp53
 70
     1
102
RTVSPropertyOp54
 70
     1
102
RTVSPropertyOp55
 70
     1
102
RTVSPropertyOp56
 70
     1
102
RTVSPropertyOp57
 70
     1
102
RTVSPropertyOp58
 70
     1
102
RTVSPropertyOp59
 70
     1
102
RTVSPropertyOp60
 70
     1
102
RTVSPropertyOp61
 70
     1
102
RTVSPropertyOp62
 70
     1
  0
XRECORD
  5
6615
102
{ACAD_REACTORS
330
6614
102
}
330
6614
100
AcDbXrecord
280
     1
102
RTVSPost2010Prop28
280
     0
102
RTVSPost2010PropOp28
 70
     1
102
RTVSPost2010Prop29
280
     1
102
RTVSPost2010PropOp29
 70
     1
102
RTVSPost2010Prop30
280
     1
102
RTVSPost2010PropOp30
 70
     1
102
RTVSPost2010Prop31
280
     0
102
RTVSPost2010PropOp31
 70
     1
102
RTVSPost2010Prop32
280
     0
102
RTVSPost2010PropOp32
 70
     1
102
RTVSPost2010Prop33
280
     0
102
RTVSPost2010PropOp33
 70
     1
102
RTVSPost2010Prop34
280
     0
102
RTVSPost2010PropOp34
 70
     1
102
RTVSPost2010Prop35
280
     0
102
RTVSPost2010PropOp35
 70
     1
102
RTVSPost2010Prop36
280
     0
102
RTVSPost2010PropOp36
 70
     1
102
RTVSPost2010Prop37
 90
       50
102
RTVSPost2010PropOp37
 70
     1
102
RTVSPost2010Prop38
140
0.0
102
RTVSPost2010PropOp38
 70
     1
102
RTVSPost2010Prop39
140
1.0
102
RTVSPost2010PropOp39
 70
     1
102
RTVSPost2010Prop40
 90
        0
102
RTVSPost2010PropOp40
 70
     1
102
RTVSPost2010Prop41ColorIndex
 90
       18
102
RTVSPost2010Prop41ColorRGB
 90
        0
102
RTVSPost2010PropOp41
 70
     1
102
RTVSPost2010Prop42
 90
       50
102
RTVSPost2010PropOp42
 70
     1
102
RTVSPost2010Prop43
 90
        3
102
RTVSPost2010PropOp43
 70
     1
102
RTVSPost2010Prop44ColorIndex
 90
        5
102
RTVSPost2010Prop44ColorRGB
 90
      255
102
RTVSPost2010PropOp44
 70
     1
102
RTVSPost2010Prop45
280
     0
102
RTVSPost2010PropOp45
 70
     1
102
RTVSPost2010Prop46
 90
       50
102
RTVSPost2010PropOp46
 70
     1
102
RTVSPost2010Prop47
 90
       50
102
RTVSPost2010PropOp47
 70
     1
102
RTVSPost2010Prop48
 90
       50
102
RTVSPost2010PropOp48
 70
     1
102
RTVSPost2010Prop49
280
     0
102
RTVSPost2010PropOp49
 70
     1
102
RTVSPost2010Prop50
 90
       50
102
RTVSPost2010PropOp50
 70
     1
102
RTVSPost2010Prop51ColorIndex
 90
      256
102
RTVSPost2010Prop51ColorRGB
 90
-16777216
102
RTVSPost2010PropOp51
 70
     0
102
RTVSPost2010Prop52
140
1.0
102
RTVSPost2010PropOp52
 70
     0
102
RTVSPost2010Prop53
 90
        2
102
RTVSPost2010PropOp53
 70
     1
102
RTVSPost2010Prop54
  1
strokes_ogs.tif
102
RTVSPost2010PropOp54
 70
     1
102
RTVSPost2010Prop55
280
     0
102
RTVSPost2010PropOp55
 70
     1
102
RTVSPost2010Prop56
140
1.0
102
RTVSPost2010PropOp56
 70
     1
102
RTVSPost2010Prop57
140
1.0
102
RTVSPost2010PropOp57
 70
     1
102
RTVSPropertyOp0
 70
     1
102
RTVSPropertyOp1
 70
     1
102
RTVSPropertyOp2
 70
     1
102
RTVSPropertyOp3
 70
     1
102
RTVSPropertyOp4
 70
     1
102
RTVSPropertyOp5
 70
     1
102
RTVSPropertyOp6
 70
     1
102
RTVSPropertyOp7
 70
     1
102
RTVSPropertyOp8
 70
     1
102
RTVSPropertyOp9
 70
     1
102
RTVSPropertyOp10
 70
     1
102
RTVSPropertyOp11
 70
     1
102
RTVSPropertyOp12
 70
     1
102
RTVSPropertyOp13
 70
     1
102
RTVSPropertyOp14
 70
     1
102
RTVSPropertyOp15
 70
     1
102
RTVSPropertyOp16
 70
     1
102
RTVSPropertyOp17
 70
     1
102
RTVSPropertyOp18
 70
     1
102
RTVSPropertyOp19
 70
     1
102
RTVSPropertyOp20
 70
     1
102
RTVSPropertyOp21
 70
     1
102
RTVSPropertyOp22
 70
     1
102
RTVSPropertyOp23
 70
     1
102
RTVSPropertyOp24
 70
     1
102
RTVSPropertyOp25
 70
     1
102
RTVSPropertyOp26
 70
     1
102
RTVSPropertyOp27
 70
     1
102
RTVSPropertyOp28
 70
     1
102
RTVSPropertyOp29
 70
     1
102
RTVSPropertyOp30
 70
     1
102
RTVSPropertyOp31
 70
     1
102
RTVSPropertyOp32
 70
     1
102
RTVSPropertyOp33
 70
     1
102
RTVSPropertyOp34
 70
     1
102
RTVSPropertyOp35
 70
     1
102
RTVSPropertyOp36
 70
     1
102
RTVSPropertyOp37
 70
     1
102
RTVSPropertyOp38
 70
     1
102
RTVSPropertyOp39
 70
     1
102
RTVSPropertyOp40
 70
     1
102
RTVSPropertyOp41
 70
     1
102
RTVSPropertyOp42
 70
     1
102
RTVSPropertyOp43
 70
     1
102
RTVSPropertyOp44
 70
     1
102
RTVSPropertyOp45
 70
     1
102
RTVSPropertyOp46
 70
     1
102
RTVSPropertyOp47
 70
     1
102
RTVSPropertyOp48
 70
     1
102
RTVSPropertyOp49
 70
     1
102
RTVSPropertyOp50
 70
     1
102
RTVSPropertyOp51
 70
     0
102
RTVSPropertyOp52
 70
     0
102
RTVSPropertyOp53
 70
     1
102
RTVSPropertyOp54
 70
     1
102
RTVSPropertyOp55
 70
     1
102
RTVSPropertyOp56
 70
     1
102
RTVSPropertyOp57
 70
     1
102
RTVSPropertyOp58
 70
     1
102
RTVSPropertyOp59
 70
     1
102
RTVSPropertyOp60
 70
     1
102
RTVSPropertyOp61
 70
     1
102
RTVSPropertyOp62
 70
     1
  0
XRECORD
  5
6617
102
{ACAD_REACTORS
330
6616
102
}
330
6616
100
AcDbXrecord
280
     1
102
RTVSPost2010Prop28
280
     0
102
RTVSPost2010PropOp28
 70
     1
102
RTVSPost2010Prop29
280
     1
102
RTVSPost2010PropOp29
 70
     1
102
RTVSPost2010Prop30
280
     1
102
RTVSPost2010PropOp30
 70
     1
102
RTVSPost2010Prop31
280
     0
102
RTVSPost2010PropOp31
 70
     1
102
RTVSPost2010Prop32
280
     0
102
RTVSPost2010PropOp32
 70
     1
102
RTVSPost2010Prop33
280
     0
102
RTVSPost2010PropOp33
 70
     1
102
RTVSPost2010Prop34
280
     0
102
RTVSPost2010PropOp34
 70
     1
102
RTVSPost2010Prop35
280
     0
102
RTVSPost2010PropOp35
 70
     1
102
RTVSPost2010Prop36
280
     0
102
RTVSPost2010PropOp36
 70
     1
102
RTVSPost2010Prop37
 90
       50
102
RTVSPost2010PropOp37
 70
     1
102
RTVSPost2010Prop38
140
0.0
102
RTVSPost2010PropOp38
 70
     1
102
RTVSPost2010Prop39
140
1.0
102
RTVSPost2010PropOp39
 70
     1
102
RTVSPost2010Prop40
 90
        0
102
RTVSPost2010PropOp40
 70
     1
102
RTVSPost2010Prop41ColorIndex
 90
       18
102
RTVSPost2010Prop41ColorRGB
 90
        0
102
RTVSPost2010PropOp41
 70
     1
102
RTVSPost2010Prop42
 90
       50
102
RTVSPost2010PropOp42
 70
     1
102
RTVSPost2010Prop43
 90
        3
102
RTVSPost2010PropOp43
 70
     1
102
RTVSPost2010Prop44ColorIndex
 90
        5
102
RTVSPost2010Prop44ColorRGB
 90
      255
102
RTVSPost2010PropOp44
 70
     1
102
RTVSPost2010Prop45
280
     0
102
RTVSPost2010PropOp45
 70
     1
102
RTVSPost2010Prop46
 90
       50
102
RTVSPost2010PropOp46
 70
     1
102
RTVSPost2010Prop47
 90
       50
102
RTVSPost2010PropOp47
 70
     1
102
RTVSPost2010Prop48
 90
       50
102
RTVSPost2010PropOp48
 70
     1
102
RTVSPost2010Prop49
280
     0
102
RTVSPost2010PropOp49
 70
     1
102
RTVSPost2010Prop50
 90
       50
102
RTVSPost2010PropOp50
 70
     1
102
RTVSPost2010Prop51ColorIndex
 90
      256
102
RTVSPost2010Prop51ColorRGB
 90
-16777216
102
RTVSPost2010PropOp51
 70
     0
102
RTVSPost2010Prop52
140
1.0
102
RTVSPost2010PropOp52
 70
     0
102
RTVSPost2010Prop53
 90
        2
102
RTVSPost2010PropOp53
 70
     1
102
RTVSPost2010Prop54
  1
strokes_ogs.tif
102
RTVSPost2010PropOp54
 70
     1
102
RTVSPost2010Prop55
280
     0
102
RTVSPost2010PropOp55
 70
     1
102
RTVSPost2010Prop56
140
1.0
102
RTVSPost2010PropOp56
 70
     1
102
RTVSPost2010Prop57
140
1.0
102
RTVSPost2010PropOp57
 70
     1
102
RTVSPropertyOp0
 70
     1
102
RTVSPropertyOp1
 70
     1
102
RTVSPropertyOp2
 70
     1
102
RTVSPropertyOp3
 70
     1
102
RTVSPropertyOp4
 70
     1
102
RTVSPropertyOp5
 70
     1
102
RTVSPropertyOp6
 70
     1
102
RTVSPropertyOp7
 70
     1
102
RTVSPropertyOp8
 70
     1
102
RTVSPropertyOp9
 70
     1
102
RTVSPropertyOp10
 70
     1
102
RTVSPropertyOp11
 70
     1
102
RTVSPropertyOp12
 70
     1
102
RTVSPropertyOp13
 70
     1
102
RTVSPropertyOp14
 70
     1
102
RTVSPropertyOp15
 70
     1
102
RTVSPropertyOp16
 70
     1
102
RTVSPropertyOp17
 70
     1
102
RTVSPropertyOp18
 70
     1
102
RTVSPropertyOp19
 70
     1
102
RTVSPropertyOp20
 70
     1
102
RTVSPropertyOp21
 70
     1
102
RTVSPropertyOp22
 70
     1
102
RTVSPropertyOp23
 70
     1
102
RTVSPropertyOp24
 70
     1
102
RTVSPropertyOp25
 70
     1
102
RTVSPropertyOp26
 70
     1
102
RTVSPropertyOp27
 70
     1
102
RTVSPropertyOp28
 70
     1
102
RTVSPropertyOp29
 70
     1
102
RTVSPropertyOp30
 70
     1
102
RTVSPropertyOp31
 70
     1
102
RTVSPropertyOp32
 70
     1
102
RTVSPropertyOp33
 70
     1
102
RTVSPropertyOp34
 70
     1
102
RTVSPropertyOp35
 70
     1
102
RTVSPropertyOp36
 70
     1
102
RTVSPropertyOp37
 70
     1
102
RTVSPropertyOp38
 70
     1
102
RTVSPropertyOp39
 70
     1
102
RTVSPropertyOp40
 70
     1
102
RTVSPropertyOp41
 70
     1
102
RTVSPropertyOp42
 70
     1
102
RTVSPropertyOp43
 70
     1
102
RTVSPropertyOp44
 70
     1
102
RTVSPropertyOp45
 70
     1
102
RTVSPropertyOp46
 70
     1
102
RTVSPropertyOp47
 70
     1
102
RTVSPropertyOp48
 70
     1
102
RTVSPropertyOp49
 70
     1
102
RTVSPropertyOp50
 70
     1
102
RTVSPropertyOp51
 70
     0
102
RTVSPropertyOp52
 70
     0
102
RTVSPropertyOp53
 70
     1
102
RTVSPropertyOp54
 70
     1
102
RTVSPropertyOp55
 70
     1
102
RTVSPropertyOp56
 70
     1
102
RTVSPropertyOp57
 70
     1
102
RTVSPropertyOp58
 70
     1
102
RTVSPropertyOp59
 70
     1
102
RTVSPropertyOp60
 70
     1
102
RTVSPropertyOp61
 70
     1
102
RTVSPropertyOp62
 70
     1
  0
XRECORD
  5
6619
102
{ACAD_REACTORS
330
6618
102
}
330
6618
100
AcDbXrecord
280
     1
102
RTVSPost2010Prop28
280
     0
102
RTVSPost2010PropOp28
 70
     1
102
RTVSPost2010Prop29
280
     1
102
RTVSPost2010PropOp29
 70
     1
102
RTVSPost2010Prop30
280
     1
102
RTVSPost2010PropOp30
 70
     1
102
RTVSPost2010Prop31
280
     0
102
RTVSPost2010PropOp31
 70
     1
102
RTVSPost2010Prop32
280
     0
102
RTVSPost2010PropOp32
 70
     1
102
RTVSPost2010Prop33
280
     0
102
RTVSPost2010PropOp33
 70
     1
102
RTVSPost2010Prop34
280
     0
102
RTVSPost2010PropOp34
 70
     1
102
RTVSPost2010Prop35
280
     0
102
RTVSPost2010PropOp35
 70
     1
102
RTVSPost2010Prop36
280
     0
102
RTVSPost2010PropOp36
 70
     1
102
RTVSPost2010Prop37
 90
       50
102
RTVSPost2010PropOp37
 70
     1
102
RTVSPost2010Prop38
140
0.0
102
RTVSPost2010PropOp38
 70
     1
102
RTVSPost2010Prop39
140
1.0
102
RTVSPost2010PropOp39
 70
     1
102
RTVSPost2010Prop40
 90
        0
102
RTVSPost2010PropOp40
 70
     1
102
RTVSPost2010Prop41ColorIndex
 90
       18
102
RTVSPost2010Prop41ColorRGB
 90
        0
102
RTVSPost2010PropOp41
 70
     1
102
RTVSPost2010Prop42
 90
       50
102
RTVSPost2010PropOp42
 70
     1
102
RTVSPost2010Prop43
 90
        3
102
RTVSPost2010PropOp43
 70
     1
102
RTVSPost2010Prop44ColorIndex
 90
        5
102
RTVSPost2010Prop44ColorRGB
 90
      255
102
RTVSPost2010PropOp44
 70
     1
102
RTVSPost2010Prop45
280
     0
102
RTVSPost2010PropOp45
 70
     1
102
RTVSPost2010Prop46
 90
       50
102
RTVSPost2010PropOp46
 70
     1
102
RTVSPost2010Prop47
 90
       50
102
RTVSPost2010PropOp47
 70
     1
102
RTVSPost2010Prop48
 90
       50
102
RTVSPost2010PropOp48
 70
     1
102
RTVSPost2010Prop49
280
     0
102
RTVSPost2010PropOp49
 70
     1
102
RTVSPost2010Prop50
 90
       50
102
RTVSPost2010PropOp50
 70
     1
102
RTVSPost2010Prop51ColorIndex
 90
      256
102
RTVSPost2010Prop51ColorRGB
 90
-16777216
102
RTVSPost2010PropOp51
 70
     0
102
RTVSPost2010Prop52
140
1.0
102
RTVSPost2010PropOp52
 70
     0
102
RTVSPost2010Prop53
 90
        2
102
RTVSPost2010PropOp53
 70
     1
102
RTVSPost2010Prop54
  1
strokes_ogs.tif
102
RTVSPost2010PropOp54
 70
     1
102
RTVSPost2010Prop55
280
     0
102
RTVSPost2010PropOp55
 70
     1
102
RTVSPost2010Prop56
140
1.0
102
RTVSPost2010PropOp56
 70
     1
102
RTVSPost2010Prop57
140
1.0
102
RTVSPost2010PropOp57
 70
     1
102
RTVSPropertyOp0
 70
     1
102
RTVSPropertyOp1
 70
     1
102
RTVSPropertyOp2
 70
     1
102
RTVSPropertyOp3
 70
     1
102
RTVSPropertyOp4
 70
     1
102
RTVSPropertyOp5
 70
     1
102
RTVSPropertyOp6
 70
     1
102
RTVSPropertyOp7
 70
     1
102
RTVSPropertyOp8
 70
     1
102
RTVSPropertyOp9
 70
     1
102
RTVSPropertyOp10
 70
     1
102
RTVSPropertyOp11
 70
     1
102
RTVSPropertyOp12
 70
     1
102
RTVSPropertyOp13
 70
     1
102
RTVSPropertyOp14
 70
     1
102
RTVSPropertyOp15
 70
     1
102
RTVSPropertyOp16
 70
     1
102
RTVSPropertyOp17
 70
     1
102
RTVSPropertyOp18
 70
     1
102
RTVSPropertyOp19
 70
     1
102
RTVSPropertyOp20
 70
     1
102
RTVSPropertyOp21
 70
     1
102
RTVSPropertyOp22
 70
     1
102
RTVSPropertyOp23
 70
     1
102
RTVSPropertyOp24
 70
     1
102
RTVSPropertyOp25
 70
     1
102
RTVSPropertyOp26
 70
     1
102
RTVSPropertyOp27
 70
     1
102
RTVSPropertyOp28
 70
     1
102
RTVSPropertyOp29
 70
     1
102
RTVSPropertyOp30
 70
     1
102
RTVSPropertyOp31
 70
     1
102
RTVSPropertyOp32
 70
     1
102
RTVSPropertyOp33
 70
     1
102
RTVSPropertyOp34
 70
     1
102
RTVSPropertyOp35
 70
     1
102
RTVSPropertyOp36
 70
     1
102
RTVSPropertyOp37
 70
     1
102
RTVSPropertyOp38
 70
     1
102
RTVSPropertyOp39
 70
     1
102
RTVSPropertyOp40
 70
     1
102
RTVSPropertyOp41
 70
     1
102
RTVSPropertyOp42
 70
     1
102
RTVSPropertyOp43
 70
     1
102
RTVSPropertyOp44
 70
     1
102
RTVSPropertyOp45
 70
     1
102
RTVSPropertyOp46
 70
     1
102
RTVSPropertyOp47
 70
     1
102
RTVSPropertyOp48
 70
     1
102
RTVSPropertyOp49
 70
     1
102
RTVSPropertyOp50
 70
     1
102
RTVSPropertyOp51
 70
     0
102
RTVSPropertyOp52
 70
     0
102
RTVSPropertyOp53
 70
     1
102
RTVSPropertyOp54
 70
     1
102
RTVSPropertyOp55
 70
     1
102
RTVSPropertyOp56
 70
     1
102
RTVSPropertyOp57
 70
     1
102
RTVSPropertyOp58
 70
     1
102
RTVSPropertyOp59
 70
     1
102
RTVSPropertyOp60
 70
     1
102
RTVSPropertyOp61
 70
     1
102
RTVSPropertyOp62
 70
     1
  0
XRECORD
  5
6621
102
{ACAD_REACTORS
330
6620
102
}
330
6620
100
AcDbXrecord
280
     1
102
RTVSPost2010Prop28
280
     0
102
RTVSPost2010PropOp28
 70
     1
102
RTVSPost2010Prop29
280
     1
102
RTVSPost2010PropOp29
 70
     1
102
RTVSPost2010Prop30
280
     1
102
RTVSPost2010PropOp30
 70
     1
102
RTVSPost2010Prop31
280
     0
102
RTVSPost2010PropOp31
 70
     1
102
RTVSPost2010Prop32
280
     0
102
RTVSPost2010PropOp32
 70
     1
102
RTVSPost2010Prop33
280
     0
102
RTVSPost2010PropOp33
 70
     1
102
RTVSPost2010Prop34
280
     0
102
RTVSPost2010PropOp34
 70
     1
102
RTVSPost2010Prop35
280
     0
102
RTVSPost2010PropOp35
 70
     1
102
RTVSPost2010Prop36
280
     0
102
RTVSPost2010PropOp36
 70
     1
102
RTVSPost2010Prop37
 90
       50
102
RTVSPost2010PropOp37
 70
     1
102
RTVSPost2010Prop38
140
0.0
102
RTVSPost2010PropOp38
 70
     1
102
RTVSPost2010Prop39
140
1.0
102
RTVSPost2010PropOp39
 70
     1
102
RTVSPost2010Prop40
 90
        0
102
RTVSPost2010PropOp40
 70
     1
102
RTVSPost2010Prop41ColorIndex
 90
       18
102
RTVSPost2010Prop41ColorRGB
 90
        0
102
RTVSPost2010PropOp41
 70
     1
102
RTVSPost2010Prop42
 90
       50
102
RTVSPost2010PropOp42
 70
     1
102
RTVSPost2010Prop43
 90
        3
102
RTVSPost2010PropOp43
 70
     1
102
RTVSPost2010Prop44ColorIndex
 90
        5
102
RTVSPost2010Prop44ColorRGB
 90
      255
102
RTVSPost2010PropOp44
 70
     1
102
RTVSPost2010Prop45
280
     0
102
RTVSPost2010PropOp45
 70
     1
102
RTVSPost2010Prop46
 90
       50
102
RTVSPost2010PropOp46
 70
     1
102
RTVSPost2010Prop47
 90
       50
102
RTVSPost2010PropOp47
 70
     1
102
RTVSPost2010Prop48
 90
       50
102
RTVSPost2010PropOp48
 70
     1
102
RTVSPost2010Prop49
280
     0
102
RTVSPost2010PropOp49
 70
     1
102
RTVSPost2010Prop50
 90
       50
102
RTVSPost2010PropOp50
 70
     1
102
RTVSPost2010Prop51ColorIndex
 90
      256
102
RTVSPost2010Prop51ColorRGB
 90
-16777216
102
RTVSPost2010PropOp51
 70
     0
102
RTVSPost2010Prop52
140
1.0
102
RTVSPost2010PropOp52
 70
     0
102
RTVSPost2010Prop53
 90
        2
102
RTVSPost2010PropOp53
 70
     1
102
RTVSPost2010Prop54
  1
strokes_ogs.tif
102
RTVSPost2010PropOp54
 70
     1
102
RTVSPost2010Prop55
280
     0
102
RTVSPost2010PropOp55
 70
     1
102
RTVSPost2010Prop56
140
1.0
102
RTVSPost2010PropOp56
 70
     1
102
RTVSPost2010Prop57
140
1.0
102
RTVSPost2010PropOp57
 70
     1
102
RTVSPropertyOp0
 70
     1
102
RTVSPropertyOp1
 70
     1
102
RTVSPropertyOp2
 70
     1
102
RTVSPropertyOp3
 70
     1
102
RTVSPropertyOp4
 70
     1
102
RTVSPropertyOp5
 70
     1
102
RTVSPropertyOp6
 70
     1
102
RTVSPropertyOp7
 70
     1
102
RTVSPropertyOp8
 70
     1
102
RTVSPropertyOp9
 70
     1
102
RTVSPropertyOp10
 70
     1
102
RTVSPropertyOp11
 70
     1
102
RTVSPropertyOp12
 70
     1
102
RTVSPropertyOp13
 70
     1
102
RTVSPropertyOp14
 70
     1
102
RTVSPropertyOp15
 70
     1
102
RTVSPropertyOp16
 70
     1
102
RTVSPropertyOp17
 70
     1
102
RTVSPropertyOp18
 70
     1
102
RTVSPropertyOp19
 70
     1
102
RTVSPropertyOp20
 70
     1
102
RTVSPropertyOp21
 70
     1
102
RTVSPropertyOp22
 70
     1
102
RTVSPropertyOp23
 70
     1
102
RTVSPropertyOp24
 70
     1
102
RTVSPropertyOp25
 70
     1
102
RTVSPropertyOp26
 70
     1
102
RTVSPropertyOp27
 70
     1
102
RTVSPropertyOp28
 70
     1
102
RTVSPropertyOp29
 70
     1
102
RTVSPropertyOp30
 70
     1
102
RTVSPropertyOp31
 70
     1
102
RTVSPropertyOp32
 70
     1
102
RTVSPropertyOp33
 70
     1
102
RTVSPropertyOp34
 70
     1
102
RTVSPropertyOp35
 70
     1
102
RTVSPropertyOp36
 70
     1
102
RTVSPropertyOp37
 70
     1
102
RTVSPropertyOp38
 70
     1
102
RTVSPropertyOp39
 70
     1
102
RTVSPropertyOp40
 70
     1
102
RTVSPropertyOp41
 70
     1
102
RTVSPropertyOp42
 70
     1
102
RTVSPropertyOp43
 70
     1
102
RTVSPropertyOp44
 70
     1
102
RTVSPropertyOp45
 70
     1
102
RTVSPropertyOp46
 70
     1
102
RTVSPropertyOp47
 70
     1
102
RTVSPropertyOp48
 70
     1
102
RTVSPropertyOp49
 70
     1
102
RTVSPropertyOp50
 70
     1
102
RTVSPropertyOp51
 70
     0
102
RTVSPropertyOp52
 70
     0
102
RTVSPropertyOp53
 70
     1
102
RTVSPropertyOp54
 70
     1
102
RTVSPropertyOp55
 70
     1
102
RTVSPropertyOp56
 70
     1
102
RTVSPropertyOp57
 70
     1
102
RTVSPropertyOp58
 70
     1
102
RTVSPropertyOp59
 70
     1
102
RTVSPropertyOp60
 70
     1
102
RTVSPropertyOp61
 70
     1
102
RTVSPropertyOp62
 70
     1
  0
XRECORD
  5
6635
102
{ACAD_REACTORS
330
6634
102
}
330
6634
100
AcDbXrecord
280
     1
102
RTVSPost2010Prop28
280
     0
102
RTVSPost2010PropOp28
 70
     1
102
RTVSPost2010Prop29
280
     1
102
RTVSPost2010PropOp29
 70
     1
102
RTVSPost2010Prop30
280
     1
102
RTVSPost2010PropOp30
 70
     1
102
RTVSPost2010Prop31
280
     0
102
RTVSPost2010PropOp31
 70
     1
102
RTVSPost2010Prop32
280
     0
102
RTVSPost2010PropOp32
 70
     1
102
RTVSPost2010Prop33
280
     0
102
RTVSPost2010PropOp33
 70
     1
102
RTVSPost2010Prop34
280
     0
102
RTVSPost2010PropOp34
 70
     1
102
RTVSPost2010Prop35
280
     0
102
RTVSPost2010PropOp35
 70
     1
102
RTVSPost2010Prop36
280
     0
102
RTVSPost2010PropOp36
 70
     1
102
RTVSPost2010Prop37
 90
       50
102
RTVSPost2010PropOp37
 70
     1
102
RTVSPost2010Prop38
140
0.0
102
RTVSPost2010PropOp38
 70
     1
102
RTVSPost2010Prop39
140
1.0
102
RTVSPost2010PropOp39
 70
     1
102
RTVSPost2010Prop40
 90
        0
102
RTVSPost2010PropOp40
 70
     1
102
RTVSPost2010Prop41ColorIndex
 90
       18
102
RTVSPost2010Prop41ColorRGB
 90
        0
102
RTVSPost2010PropOp41
 70
     1
102
RTVSPost2010Prop42
 90
       50
102
RTVSPost2010PropOp42
 70
     1
102
RTVSPost2010Prop43
 90
        3
102
RTVSPost2010PropOp43
 70
     1
102
RTVSPost2010Prop44ColorIndex
 90
        5
102
RTVSPost2010Prop44ColorRGB
 90
      255
102
RTVSPost2010PropOp44
 70
     1
102
RTVSPost2010Prop45
280
     0
102
RTVSPost2010PropOp45
 70
     1
102
RTVSPost2010Prop46
 90
       50
102
RTVSPost2010PropOp46
 70
     1
102
RTVSPost2010Prop47
 90
       50
102
RTVSPost2010PropOp47
 70
     1
102
RTVSPost2010Prop48
 90
       50
102
RTVSPost2010PropOp48
 70
     1
102
RTVSPost2010Prop49
280
     0
102
RTVSPost2010PropOp49
 70
     1
102
RTVSPost2010Prop50
 90
       50
102
RTVSPost2010PropOp50
 70
     1
102
RTVSPost2010Prop51ColorIndex
 90
      256
102
RTVSPost2010Prop51ColorRGB
 90
-16777216
102
RTVSPost2010PropOp51
 70
     0
102
RTVSPost2010Prop52
140
1.0
102
RTVSPost2010PropOp52
 70
     0
102
RTVSPost2010Prop53
 90
        2
102
RTVSPost2010PropOp53
 70
     1
102
RTVSPost2010Prop54
  1
strokes_ogs.tif
102
RTVSPost2010PropOp54
 70
     1
102
RTVSPost2010Prop55
280
     0
102
RTVSPost2010PropOp55
 70
     1
102
RTVSPost2010Prop56
140
1.0
102
RTVSPost2010PropOp56
 70
     1
102
RTVSPost2010Prop57
140
1.0
102
RTVSPost2010PropOp57
 70
     1
102
RTVSPropertyOp0
 70
     0
102
RTVSPropertyOp1
 70
     0
102
RTVSPropertyOp2
 70
     0
102
RTVSPropertyOp3
 70
     0
102
RTVSPropertyOp4
 70
     0
102
RTVSPropertyOp5
 70
     0
102
RTVSPropertyOp6
 70
     0
102
RTVSPropertyOp7
 70
     0
102
RTVSPropertyOp8
 70
     0
102
RTVSPropertyOp9
 70
     0
102
RTVSPropertyOp10
 70
     0
102
RTVSPropertyOp11
 70
     0
102
RTVSPropertyOp12
 70
     0
102
RTVSPropertyOp13
 70
     0
102
RTVSPropertyOp14
 70
     2
102
RTVSPropertyOp15
 70
     0
102
RTVSPropertyOp16
 70
     0
102
RTVSPropertyOp17
 70
     0
102
RTVSPropertyOp18
 70
     0
102
RTVSPropertyOp19
 70
     0
102
RTVSPropertyOp20
 70
     0
102
RTVSPropertyOp21
 70
     0
102
RTVSPropertyOp22
 70
     0
102
RTVSPropertyOp23
 70
     0
102
RTVSPropertyOp24
 70
     0
102
RTVSPropertyOp25
 70
     0
102
RTVSPropertyOp26
 70
     0
102
RTVSPropertyOp27
 70
     0
102
RTVSPropertyOp28
 70
     1
102
RTVSPropertyOp29
 70
     1
102
RTVSPropertyOp30
 70
     1
102
RTVSPropertyOp31
 70
     1
102
RTVSPropertyOp32
 70
     1
102
RTVSPropertyOp33
 70
     1
102
RTVSPropertyOp34
 70
     1
102
RTVSPropertyOp35
 70
     1
102
RTVSPropertyOp36
 70
     1
102
RTVSPropertyOp37
 70
     1
102
RTVSPropertyOp38
 70
     1
102
RTVSPropertyOp39
 70
     1
102
RTVSPropertyOp40
 70
     1
102
RTVSPropertyOp41
 70
     1
102
RTVSPropertyOp42
 70
     1
102
RTVSPropertyOp43
 70
     1
102
RTVSPropertyOp44
 70
     1
102
RTVSPropertyOp45
 70
     1
102
RTVSPropertyOp46
 70
     1
102
RTVSPropertyOp47
 70
     1
102
RTVSPropertyOp48
 70
     1
102
RTVSPropertyOp49
 70
     1
102
RTVSPropertyOp50
 70
     1
102
RTVSPropertyOp51
 70
     0
102
RTVSPropertyOp52
 70
     0
102
RTVSPropertyOp53
 70
     1
102
RTVSPropertyOp54
 70
     1
102
RTVSPropertyOp55
 70
     1
102
RTVSPropertyOp56
 70
     1
102
RTVSPropertyOp57
 70
     1
102
RTVSPropertyOp58
 70
     1
102
RTVSPropertyOp59
 70
     1
102
RTVSPropertyOp60
 70
     1
102
RTVSPropertyOp61
 70
     1
102
RTVSPropertyOp62
 70
     1
  0
XRECORD
  5
662D
102
{ACAD_REACTORS
330
662C
102
}
330
662C
100
AcDbXrecord
280
     1
102
RTVSPost2010Prop28
280
     0
102
RTVSPost2010PropOp28
 70
     1
102
RTVSPost2010Prop29
280
     1
102
RTVSPost2010PropOp29
 70
     1
102
RTVSPost2010Prop30
280
     1
102
RTVSPost2010PropOp30
 70
     1
102
RTVSPost2010Prop31
280
     0
102
RTVSPost2010PropOp31
 70
     1
102
RTVSPost2010Prop32
280
     0
102
RTVSPost2010PropOp32
 70
     1
102
RTVSPost2010Prop33
280
     0
102
RTVSPost2010PropOp33
 70
     1
102
RTVSPost2010Prop34
280
     0
102
RTVSPost2010PropOp34
 70
     1
102
RTVSPost2010Prop35
280
     0
102
RTVSPost2010PropOp35
 70
     1
102
RTVSPost2010Prop36
280
     0
102
RTVSPost2010PropOp36
 70
     1
102
RTVSPost2010Prop37
 90
       50
102
RTVSPost2010PropOp37
 70
     1
102
RTVSPost2010Prop38
140
0.0
102
RTVSPost2010PropOp38
 70
     1
102
RTVSPost2010Prop39
140
1.0
102
RTVSPost2010PropOp39
 70
     1
102
RTVSPost2010Prop40
 90
        0
102
RTVSPost2010PropOp40
 70
     1
102
RTVSPost2010Prop41ColorIndex
 90
       18
102
RTVSPost2010Prop41ColorRGB
 90
        0
102
RTVSPost2010PropOp41
 70
     1
102
RTVSPost2010Prop42
 90
       50
102
RTVSPost2010PropOp42
 70
     1
102
RTVSPost2010Prop43
 90
        3
102
RTVSPost2010PropOp43
 70
     1
102
RTVSPost2010Prop44ColorIndex
 90
        5
102
RTVSPost2010Prop44ColorRGB
 90
      255
102
RTVSPost2010PropOp44
 70
     1
102
RTVSPost2010Prop45
280
     0
102
RTVSPost2010PropOp45
 70
     1
102
RTVSPost2010Prop46
 90
       50
102
RTVSPost2010PropOp46
 70
     1
102
RTVSPost2010Prop47
 90
       50
102
RTVSPost2010PropOp47
 70
     1
102
RTVSPost2010Prop48
 90
       50
102
RTVSPost2010PropOp48
 70
     1
102
RTVSPost2010Prop49
280
     0
102
RTVSPost2010PropOp49
 70
     1
102
RTVSPost2010Prop50
 90
       50
102
RTVSPost2010PropOp50
 70
     1
102
RTVSPost2010Prop51ColorIndex
 90
      256
102
RTVSPost2010Prop51ColorRGB
 90
-16777216
102
RTVSPost2010PropOp51
 70
     0
102
RTVSPost2010Prop52
140
1.0
102
RTVSPost2010PropOp52
 70
     0
102
RTVSPost2010Prop53
 90
        2
102
RTVSPost2010PropOp53
 70
     1
102
RTVSPost2010Prop54
  1
strokes_ogs.tif
102
RTVSPost2010PropOp54
 70
     1
102
RTVSPost2010Prop55
280
     0
102
RTVSPost2010PropOp55
 70
     1
102
RTVSPost2010Prop56
140
1.0
102
RTVSPost2010PropOp56
 70
     1
102
RTVSPost2010Prop57
140
1.0
102
RTVSPost2010PropOp57
 70
     1
102
RTVSPropertyOp0
 70
     1
102
RTVSPropertyOp1
 70
     1
102
RTVSPropertyOp2
 70
     1
102
RTVSPropertyOp3
 70
     1
102
RTVSPropertyOp4
 70
     1
102
RTVSPropertyOp5
 70
     1
102
RTVSPropertyOp6
 70
     1
102
RTVSPropertyOp7
 70
     1
102
RTVSPropertyOp8
 70
     1
102
RTVSPropertyOp9
 70
     1
102
RTVSPropertyOp10
 70
     1
102
RTVSPropertyOp11
 70
     1
102
RTVSPropertyOp12
 70
     1
102
RTVSPropertyOp13
 70
     1
102
RTVSPropertyOp14
 70
     1
102
RTVSPropertyOp15
 70
     1
102
RTVSPropertyOp16
 70
     1
102
RTVSPropertyOp17
 70
     1
102
RTVSPropertyOp18
 70
     1
102
RTVSPropertyOp19
 70
     1
102
RTVSPropertyOp20
 70
     1
102
RTVSPropertyOp21
 70
     1
102
RTVSPropertyOp22
 70
     1
102
RTVSPropertyOp23
 70
     1
102
RTVSPropertyOp24
 70
     1
102
RTVSPropertyOp25
 70
     1
102
RTVSPropertyOp26
 70
     1
102
RTVSPropertyOp27
 70
     1
102
RTVSPropertyOp28
 70
     1
102
RTVSPropertyOp29
 70
     1
102
RTVSPropertyOp30
 70
     1
102
RTVSPropertyOp31
 70
     1
102
RTVSPropertyOp32
 70
     1
102
RTVSPropertyOp33
 70
     1
102
RTVSPropertyOp34
 70
     1
102
RTVSPropertyOp35
 70
     1
102
RTVSPropertyOp36
 70
     1
102
RTVSPropertyOp37
 70
     1
102
RTVSPropertyOp38
 70
     1
102
RTVSPropertyOp39
 70
     1
102
RTVSPropertyOp40
 70
     1
102
RTVSPropertyOp41
 70
     1
102
RTVSPropertyOp42
 70
     1
102
RTVSPropertyOp43
 70
     1
102
RTVSPropertyOp44
 70
     1
102
RTVSPropertyOp45
 70
     1
102
RTVSPropertyOp46
 70
     1
102
RTVSPropertyOp47
 70
     1
102
RTVSPropertyOp48
 70
     1
102
RTVSPropertyOp49
 70
     1
102
RTVSPropertyOp50
 70
     1
102
RTVSPropertyOp51
 70
     0
102
RTVSPropertyOp52
 70
     0
102
RTVSPropertyOp53
 70
     1
102
RTVSPropertyOp54
 70
     1
102
RTVSPropertyOp55
 70
     1
102
RTVSPropertyOp56
 70
     1
102
RTVSPropertyOp57
 70
     1
102
RTVSPropertyOp58
 70
     1
102
RTVSPropertyOp59
 70
     1
102
RTVSPropertyOp60
 70
     1
102
RTVSPropertyOp61
 70
     1
102
RTVSPropertyOp62
 70
     1
  0
XRECORD
  5
6637
102
{ACAD_REACTORS
330
6636
102
}
330
6636
100
AcDbXrecord
280
     1
102
RTVSPost2010Prop28
280
     0
102
RTVSPost2010PropOp28
 70
     1
102
RTVSPost2010Prop29
280
     1
102
RTVSPost2010PropOp29
 70
     1
102
RTVSPost2010Prop30
280
     1
102
RTVSPost2010PropOp30
 70
     1
102
RTVSPost2010Prop31
280
     0
102
RTVSPost2010PropOp31
 70
     1
102
RTVSPost2010Prop32
280
     0
102
RTVSPost2010PropOp32
 70
     1
102
RTVSPost2010Prop33
280
     0
102
RTVSPost2010PropOp33
 70
     1
102
RTVSPost2010Prop34
280
     0
102
RTVSPost2010PropOp34
 70
     1
102
RTVSPost2010Prop35
280
     0
102
RTVSPost2010PropOp35
 70
     1
102
RTVSPost2010Prop36
280
     0
102
RTVSPost2010PropOp36
 70
     1
102
RTVSPost2010Prop37
 90
       50
102
RTVSPost2010PropOp37
 70
     1
102
RTVSPost2010Prop38
140
0.0
102
RTVSPost2010PropOp38
 70
     1
102
RTVSPost2010Prop39
140
1.0
102
RTVSPost2010PropOp39
 70
     1
102
RTVSPost2010Prop40
 90
        0
102
RTVSPost2010PropOp40
 70
     1
102
RTVSPost2010Prop41ColorIndex
 90
       18
102
RTVSPost2010Prop41ColorRGB
 90
        0
102
RTVSPost2010PropOp41
 70
     1
102
RTVSPost2010Prop42
 90
       50
102
RTVSPost2010PropOp42
 70
     1
102
RTVSPost2010Prop43
 90
        3
102
RTVSPost2010PropOp43
 70
     1
102
RTVSPost2010Prop44ColorIndex
 90
        5
102
RTVSPost2010Prop44ColorRGB
 90
      255
102
RTVSPost2010PropOp44
 70
     1
102
RTVSPost2010Prop45
280
     0
102
RTVSPost2010PropOp45
 70
     1
102
RTVSPost2010Prop46
 90
       50
102
RTVSPost2010PropOp46
 70
     1
102
RTVSPost2010Prop47
 90
       50
102
RTVSPost2010PropOp47
 70
     1
102
RTVSPost2010Prop48
 90
       50
102
RTVSPost2010PropOp48
 70
     1
102
RTVSPost2010Prop49
280
     0
102
RTVSPost2010PropOp49
 70
     1
102
RTVSPost2010Prop50
 90
       50
102
RTVSPost2010PropOp50
 70
     1
102
RTVSPost2010Prop51ColorIndex
 90
      256
102
RTVSPost2010Prop51ColorRGB
 90
-16777216
102
RTVSPost2010PropOp51
 70
     0
102
RTVSPost2010Prop52
140
1.0
102
RTVSPost2010PropOp52
 70
     0
102
RTVSPost2010Prop53
 90
        2
102
RTVSPost2010PropOp53
 70
     1
102
RTVSPost2010Prop54
  1
strokes_ogs.tif
102
RTVSPost2010PropOp54
 70
     1
102
RTVSPost2010Prop55
280
     0
102
RTVSPost2010PropOp55
 70
     1
102
RTVSPost2010Prop56
140
1.0
102
RTVSPost2010PropOp56
 70
     1
102
RTVSPost2010Prop57
140
1.0
102
RTVSPost2010PropOp57
 70
     1
102
RTVSPropertyOp0
 70
     0
102
RTVSPropertyOp1
 70
     0
102
RTVSPropertyOp2
 70
     0
102
RTVSPropertyOp3
 70
     0
102
RTVSPropertyOp4
 70
     0
102
RTVSPropertyOp5
 70
     0
102
RTVSPropertyOp6
 70
     0
102
RTVSPropertyOp7
 70
     0
102
RTVSPropertyOp8
 70
     0
102
RTVSPropertyOp9
 70
     0
102
RTVSPropertyOp10
 70
     0
102
RTVSPropertyOp11
 70
     0
102
RTVSPropertyOp12
 70
     0
102
RTVSPropertyOp13
 70
     0
102
RTVSPropertyOp14
 70
     2
102
RTVSPropertyOp15
 70
     0
102
RTVSPropertyOp16
 70
     0
102
RTVSPropertyOp17
 70
     0
102
RTVSPropertyOp18
 70
     0
102
RTVSPropertyOp19
 70
     0
102
RTVSPropertyOp20
 70
     0
102
RTVSPropertyOp21
 70
     0
102
RTVSPropertyOp22
 70
     0
102
RTVSPropertyOp23
 70
     0
102
RTVSPropertyOp24
 70
     0
102
RTVSPropertyOp25
 70
     0
102
RTVSPropertyOp26
 70
     0
102
RTVSPropertyOp27
 70
     0
102
RTVSPropertyOp28
 70
     1
102
RTVSPropertyOp29
 70
     1
102
RTVSPropertyOp30
 70
     1
102
RTVSPropertyOp31
 70
     1
102
RTVSPropertyOp32
 70
     1
102
RTVSPropertyOp33
 70
     1
102
RTVSPropertyOp34
 70
     1
102
RTVSPropertyOp35
 70
     1
102
RTVSPropertyOp36
 70
     1
102
RTVSPropertyOp37
 70
     1
102
RTVSPropertyOp38
 70
     1
102
RTVSPropertyOp39
 70
     1
102
RTVSPropertyOp40
 70
     1
102
RTVSPropertyOp41
 70
     1
102
RTVSPropertyOp42
 70
     1
102
RTVSPropertyOp43
 70
     1
102
RTVSPropertyOp44
 70
     1
102
RTVSPropertyOp45
 70
     1
102
RTVSPropertyOp46
 70
     1
102
RTVSPropertyOp47
 70
     1
102
RTVSPropertyOp48
 70
     1
102
RTVSPropertyOp49
 70
     1
102
RTVSPropertyOp50
 70
     1
102
RTVSPropertyOp51
 70
     0
102
RTVSPropertyOp52
 70
     0
102
RTVSPropertyOp53
 70
     1
102
RTVSPropertyOp54
 70
     1
102
RTVSPropertyOp55
 70
     1
102
RTVSPropertyOp56
 70
     1
102
RTVSPropertyOp57
 70
     1
102
RTVSPropertyOp58
 70
     1
102
RTVSPropertyOp59
 70
     1
102
RTVSPropertyOp60
 70
     1
102
RTVSPropertyOp61
 70
     1
102
RTVSPropertyOp62
 70
     1
  0
XRECORD
  5
6625
102
{ACAD_REACTORS
330
6624
102
}
330
6624
100
AcDbXrecord
280
     1
102
RTVSPost2010Prop28
280
     0
102
RTVSPost2010PropOp28
 70
     1
102
RTVSPost2010Prop29
280
     1
102
RTVSPost2010PropOp29
 70
     1
102
RTVSPost2010Prop30
280
     1
102
RTVSPost2010PropOp30
 70
     1
102
RTVSPost2010Prop31
280
     0
102
RTVSPost2010PropOp31
 70
     1
102
RTVSPost2010Prop32
280
     0
102
RTVSPost2010PropOp32
 70
     1
102
RTVSPost2010Prop33
280
     0
102
RTVSPost2010PropOp33
 70
     1
102
RTVSPost2010Prop34
280
     0
102
RTVSPost2010PropOp34
 70
     1
102
RTVSPost2010Prop35
280
     0
102
RTVSPost2010PropOp35
 70
     1
102
RTVSPost2010Prop36
280
     0
102
RTVSPost2010PropOp36
 70
     1
102
RTVSPost2010Prop37
 90
       50
102
RTVSPost2010PropOp37
 70
     1
102
RTVSPost2010Prop38
140
0.0
102
RTVSPost2010PropOp38
 70
     1
102
RTVSPost2010Prop39
140
1.0
102
RTVSPost2010PropOp39
 70
     1
102
RTVSPost2010Prop40
 90
        0
102
RTVSPost2010PropOp40
 70
     1
102
RTVSPost2010Prop41ColorIndex
 90
       18
102
RTVSPost2010Prop41ColorRGB
 90
        0
102
RTVSPost2010PropOp41
 70
     1
102
RTVSPost2010Prop42
 90
       50
102
RTVSPost2010PropOp42
 70
     1
102
RTVSPost2010Prop43
 90
        3
102
RTVSPost2010PropOp43
 70
     1
102
RTVSPost2010Prop44ColorIndex
 90
        5
102
RTVSPost2010Prop44ColorRGB
 90
      255
102
RTVSPost2010PropOp44
 70
     1
102
RTVSPost2010Prop45
280
     0
102
RTVSPost2010PropOp45
 70
     1
102
RTVSPost2010Prop46
 90
       50
102
RTVSPost2010PropOp46
 70
     1
102
RTVSPost2010Prop47
 90
       50
102
RTVSPost2010PropOp47
 70
     1
102
RTVSPost2010Prop48
 90
       50
102
RTVSPost2010PropOp48
 70
     1
102
RTVSPost2010Prop49
280
     0
102
RTVSPost2010PropOp49
 70
     1
102
RTVSPost2010Prop50
 90
       50
102
RTVSPost2010PropOp50
 70
     1
102
RTVSPost2010Prop51ColorIndex
 90
      256
102
RTVSPost2010Prop51ColorRGB
 90
-16777216
102
RTVSPost2010PropOp51
 70
     0
102
RTVSPost2010Prop52
140
1.0
102
RTVSPost2010PropOp52
 70
     0
102
RTVSPost2010Prop53
 90
        2
102
RTVSPost2010PropOp53
 70
     1
102
RTVSPost2010Prop54
  1
strokes_ogs.tif
102
RTVSPost2010PropOp54
 70
     1
102
RTVSPost2010Prop55
280
     0
102
RTVSPost2010PropOp55
 70
     1
102
RTVSPost2010Prop56
140
1.0
102
RTVSPost2010PropOp56
 70
     1
102
RTVSPost2010Prop57
140
1.0
102
RTVSPost2010PropOp57
 70
     1
102
RTVSPropertyOp0
 70
     1
102
RTVSPropertyOp1
 70
     1
102
RTVSPropertyOp2
 70
     1
102
RTVSPropertyOp3
 70
     1
102
RTVSPropertyOp4
 70
     1
102
RTVSPropertyOp5
 70
     1
102
RTVSPropertyOp6
 70
     1
102
RTVSPropertyOp7
 70
     1
102
RTVSPropertyOp8
 70
     1
102
RTVSPropertyOp9
 70
     1
102
RTVSPropertyOp10
 70
     1
102
RTVSPropertyOp11
 70
     1
102
RTVSPropertyOp12
 70
     1
102
RTVSPropertyOp13
 70
     1
102
RTVSPropertyOp14
 70
     1
102
RTVSPropertyOp15
 70
     1
102
RTVSPropertyOp16
 70
     1
102
RTVSPropertyOp17
 70
     1
102
RTVSPropertyOp18
 70
     1
102
RTVSPropertyOp19
 70
     1
102
RTVSPropertyOp20
 70
     1
102
RTVSPropertyOp21
 70
     1
102
RTVSPropertyOp22
 70
     1
102
RTVSPropertyOp23
 70
     1
102
RTVSPropertyOp24
 70
     1
102
RTVSPropertyOp25
 70
     1
102
RTVSPropertyOp26
 70
     1
102
RTVSPropertyOp27
 70
     1
102
RTVSPropertyOp28
 70
     1
102
RTVSPropertyOp29
 70
     1
102
RTVSPropertyOp30
 70
     1
102
RTVSPropertyOp31
 70
     1
102
RTVSPropertyOp32
 70
     1
102
RTVSPropertyOp33
 70
     1
102
RTVSPropertyOp34
 70
     1
102
RTVSPropertyOp35
 70
     1
102
RTVSPropertyOp36
 70
     1
102
RTVSPropertyOp37
 70
     1
102
RTVSPropertyOp38
 70
     1
102
RTVSPropertyOp39
 70
     1
102
RTVSPropertyOp40
 70
     1
102
RTVSPropertyOp41
 70
     1
102
RTVSPropertyOp42
 70
     1
102
RTVSPropertyOp43
 70
     1
102
RTVSPropertyOp44
 70
     1
102
RTVSPropertyOp45
 70
     1
102
RTVSPropertyOp46
 70
     1
102
RTVSPropertyOp47
 70
     1
102
RTVSPropertyOp48
 70
     1
102
RTVSPropertyOp49
 70
     1
102
RTVSPropertyOp50
 70
     1
102
RTVSPropertyOp51
 70
     0
102
RTVSPropertyOp52
 70
     0
102
RTVSPropertyOp53
 70
     1
102
RTVSPropertyOp54
 70
     1
102
RTVSPropertyOp55
 70
     1
102
RTVSPropertyOp56
 70
     1
102
RTVSPropertyOp57
 70
     1
102
RTVSPropertyOp58
 70
     1
102
RTVSPropertyOp59
 70
     1
102
RTVSPropertyOp60
 70
     1
102
RTVSPropertyOp61
 70
     1
102
RTVSPropertyOp62
 70
     1
  0
XRECORD
  5
6643
102
{ACAD_REACTORS
330
6642
102
}
330
6642
100
AcDbXrecord
280
     1
102
RTVSPost2010Prop28
280
     0
102
RTVSPost2010PropOp28
 70
     1
102
RTVSPost2010Prop29
280
     1
102
RTVSPost2010PropOp29
 70
     1
102
RTVSPost2010Prop30
280
     1
102
RTVSPost2010PropOp30
 70
     1
102
RTVSPost2010Prop31
280
     0
102
RTVSPost2010PropOp31
 70
     1
102
RTVSPost2010Prop32
280
     0
102
RTVSPost2010PropOp32
 70
     1
102
RTVSPost2010Prop33
280
     0
102
RTVSPost2010PropOp33
 70
     1
102
RTVSPost2010Prop34
280
     0
102
RTVSPost2010PropOp34
 70
     1
102
RTVSPost2010Prop35
280
     0
102
RTVSPost2010PropOp35
 70
     1
102
RTVSPost2010Prop36
280
     0
102
RTVSPost2010PropOp36
 70
     1
102
RTVSPost2010Prop37
 90
       50
102
RTVSPost2010PropOp37
 70
     1
102
RTVSPost2010Prop38
140
0.0
102
RTVSPost2010PropOp38
 70
     1
102
RTVSPost2010Prop39
140
1.0
102
RTVSPost2010PropOp39
 70
     1
102
RTVSPost2010Prop40
 90
        0
102
RTVSPost2010PropOp40
 70
     1
102
RTVSPost2010Prop41ColorIndex
 90
       18
102
RTVSPost2010Prop41ColorRGB
 90
        0
102
RTVSPost2010PropOp41
 70
     1
102
RTVSPost2010Prop42
 90
       50
102
RTVSPost2010PropOp42
 70
     1
102
RTVSPost2010Prop43
 90
        3
102
RTVSPost2010PropOp43
 70
     1
102
RTVSPost2010Prop44ColorIndex
 90
        5
102
RTVSPost2010Prop44ColorRGB
 90
      255
102
RTVSPost2010PropOp44
 70
     1
102
RTVSPost2010Prop45
280
     0
102
RTVSPost2010PropOp45
 70
     1
102
RTVSPost2010Prop46
 90
       50
102
RTVSPost2010PropOp46
 70
     1
102
RTVSPost2010Prop47
 90
       50
102
RTVSPost2010PropOp47
 70
     1
102
RTVSPost2010Prop48
 90
       50
102
RTVSPost2010PropOp48
 70
     1
102
RTVSPost2010Prop49
280
     0
102
RTVSPost2010PropOp49
 70
     1
102
RTVSPost2010Prop50
 90
       50
102
RTVSPost2010PropOp50
 70
     1
102
RTVSPost2010Prop51ColorIndex
 90
      256
102
RTVSPost2010Prop51ColorRGB
 90
-16777216
102
RTVSPost2010PropOp51
 70
     0
102
RTVSPost2010Prop52
140
1.0
102
RTVSPost2010PropOp52
 70
     0
102
RTVSPost2010Prop53
 90
        2
102
RTVSPost2010PropOp53
 70
     1
102
RTVSPost2010Prop54
  1
strokes_ogs.tif
102
RTVSPost2010PropOp54
 70
     1
102
RTVSPost2010Prop55
280
     0
102
RTVSPost2010PropOp55
 70
     1
102
RTVSPost2010Prop56
140
1.0
102
RTVSPost2010PropOp56
 70
     1
102
RTVSPost2010Prop57
140
1.0
102
RTVSPost2010PropOp57
 70
     1
102
RTVSPropertyOp0
 70
     1
102
RTVSPropertyOp1
 70
     1
102
RTVSPropertyOp2
 70
     1
102
RTVSPropertyOp3
 70
     1
102
RTVSPropertyOp4
 70
     1
102
RTVSPropertyOp5
 70
     1
102
RTVSPropertyOp6
 70
     1
102
RTVSPropertyOp7
 70
     1
102
RTVSPropertyOp8
 70
     1
102
RTVSPropertyOp9
 70
     1
102
RTVSPropertyOp10
 70
     1
102
RTVSPropertyOp11
 70
     1
102
RTVSPropertyOp12
 70
     1
102
RTVSPropertyOp13
 70
     1
102
RTVSPropertyOp14
 70
     1
102
RTVSPropertyOp15
 70
     1
102
RTVSPropertyOp16
 70
     1
102
RTVSPropertyOp17
 70
     1
102
RTVSPropertyOp18
 70
     1
102
RTVSPropertyOp19
 70
     1
102
RTVSPropertyOp20
 70
     1
102
RTVSPropertyOp21
 70
     1
102
RTVSPropertyOp22
 70
     1
102
RTVSPropertyOp23
 70
     1
102
RTVSPropertyOp24
 70
     1
102
RTVSPropertyOp25
 70
     1
102
RTVSPropertyOp26
 70
     1
102
RTVSPropertyOp27
 70
     1
102
RTVSPropertyOp28
 70
     1
102
RTVSPropertyOp29
 70
     1
102
RTVSPropertyOp30
 70
     1
102
RTVSPropertyOp31
 70
     1
102
RTVSPropertyOp32
 70
     1
102
RTVSPropertyOp33
 70
     1
102
RTVSPropertyOp34
 70
     1
102
RTVSPropertyOp35
 70
     1
102
RTVSPropertyOp36
 70
     1
102
RTVSPropertyOp37
 70
     1
102
RTVSPropertyOp38
 70
     1
102
RTVSPropertyOp39
 70
     1
102
RTVSPropertyOp40
 70
     1
102
RTVSPropertyOp41
 70
     1
102
RTVSPropertyOp42
 70
     1
102
RTVSPropertyOp43
 70
     1
102
RTVSPropertyOp44
 70
     1
102
RTVSPropertyOp45
 70
     1
102
RTVSPropertyOp46
 70
     1
102
RTVSPropertyOp47
 70
     1
102
RTVSPropertyOp48
 70
     1
102
RTVSPropertyOp49
 70
     1
102
RTVSPropertyOp50
 70
     1
102
RTVSPropertyOp51
 70
     0
102
RTVSPropertyOp52
 70
     0
102
RTVSPropertyOp53
 70
     1
102
RTVSPropertyOp54
 70
     1
102
RTVSPropertyOp55
 70
     1
102
RTVSPropertyOp56
 70
     1
102
RTVSPropertyOp57
 70
     1
102
RTVSPropertyOp58
 70
     1
102
RTVSPropertyOp59
 70
     1
102
RTVSPropertyOp60
 70
     1
102
RTVSPropertyOp61
 70
     1
102
RTVSPropertyOp62
 70
     1
  0
XRECORD
  5
6641
102
{ACAD_REACTORS
330
6640
102
}
330
6640
100
AcDbXrecord
280
     1
102
RTVSPost2010Prop28
280
     0
102
RTVSPost2010PropOp28
 70
     1
102
RTVSPost2010Prop29
280
     1
102
RTVSPost2010PropOp29
 70
     1
102
RTVSPost2010Prop30
280
     1
102
RTVSPost2010PropOp30
 70
     1
102
RTVSPost2010Prop31
280
     0
102
RTVSPost2010PropOp31
 70
     1
102
RTVSPost2010Prop32
280
     0
102
RTVSPost2010PropOp32
 70
     1
102
RTVSPost2010Prop33
280
     0
102
RTVSPost2010PropOp33
 70
     1
102
RTVSPost2010Prop34
280
     0
102
RTVSPost2010PropOp34
 70
     1
102
RTVSPost2010Prop35
280
     0
102
RTVSPost2010PropOp35
 70
     1
102
RTVSPost2010Prop36
280
     0
102
RTVSPost2010PropOp36
 70
     1
102
RTVSPost2010Prop37
 90
       50
102
RTVSPost2010PropOp37
 70
     1
102
RTVSPost2010Prop38
140
0.0
102
RTVSPost2010PropOp38
 70
     1
102
RTVSPost2010Prop39
140
1.0
102
RTVSPost2010PropOp39
 70
     1
102
RTVSPost2010Prop40
 90
        0
102
RTVSPost2010PropOp40
 70
     1
102
RTVSPost2010Prop41ColorIndex
 90
       18
102
RTVSPost2010Prop41ColorRGB
 90
        0
102
RTVSPost2010PropOp41
 70
     1
102
RTVSPost2010Prop42
 90
       50
102
RTVSPost2010PropOp42
 70
     1
102
RTVSPost2010Prop43
 90
        3
102
RTVSPost2010PropOp43
 70
     1
102
RTVSPost2010Prop44ColorIndex
 90
        5
102
RTVSPost2010Prop44ColorRGB
 90
      255
102
RTVSPost2010PropOp44
 70
     1
102
RTVSPost2010Prop45
280
     0
102
RTVSPost2010PropOp45
 70
     1
102
RTVSPost2010Prop46
 90
       50
102
RTVSPost2010PropOp46
 70
     1
102
RTVSPost2010Prop47
 90
       50
102
RTVSPost2010PropOp47
 70
     1
102
RTVSPost2010Prop48
 90
       50
102
RTVSPost2010PropOp48
 70
     1
102
RTVSPost2010Prop49
280
     0
102
RTVSPost2010PropOp49
 70
     1
102
RTVSPost2010Prop50
 90
       50
102
RTVSPost2010PropOp50
 70
     1
102
RTVSPost2010Prop51ColorIndex
 90
      256
102
RTVSPost2010Prop51ColorRGB
 90
-16777216
102
RTVSPost2010PropOp51
 70
     0
102
RTVSPost2010Prop52
140
1.0
102
RTVSPost2010PropOp52
 70
     0
102
RTVSPost2010Prop53
 90
        2
102
RTVSPost2010PropOp53
 70
     1
102
RTVSPost2010Prop54
  1
strokes_ogs.tif
102
RTVSPost2010PropOp54
 70
     1
102
RTVSPost2010Prop55
280
     0
102
RTVSPost2010PropOp55
 70
     1
102
RTVSPost2010Prop56
140
1.0
102
RTVSPost2010PropOp56
 70
     1
102
RTVSPost2010Prop57
140
1.0
102
RTVSPost2010PropOp57
 70
     1
102
RTVSPropertyOp0
 70
     1
102
RTVSPropertyOp1
 70
     1
102
RTVSPropertyOp2
 70
     1
102
RTVSPropertyOp3
 70
     1
102
RTVSPropertyOp4
 70
     1
102
RTVSPropertyOp5
 70
     1
102
RTVSPropertyOp6
 70
     1
102
RTVSPropertyOp7
 70
     1
102
RTVSPropertyOp8
 70
     1
102
RTVSPropertyOp9
 70
     1
102
RTVSPropertyOp10
 70
     1
102
RTVSPropertyOp11
 70
     1
102
RTVSPropertyOp12
 70
     1
102
RTVSPropertyOp13
 70
     1
102
RTVSPropertyOp14
 70
     1
102
RTVSPropertyOp15
 70
     1
102
RTVSPropertyOp16
 70
     1
102
RTVSPropertyOp17
 70
     1
102
RTVSPropertyOp18
 70
     1
102
RTVSPropertyOp19
 70
     1
102
RTVSPropertyOp20
 70
     1
102
RTVSPropertyOp21
 70
     1
102
RTVSPropertyOp22
 70
     1
102
RTVSPropertyOp23
 70
     1
102
RTVSPropertyOp24
 70
     1
102
RTVSPropertyOp25
 70
     1
102
RTVSPropertyOp26
 70
     1
102
RTVSPropertyOp27
 70
     1
102
RTVSPropertyOp28
 70
     1
102
RTVSPropertyOp29
 70
     1
102
RTVSPropertyOp30
 70
     1
102
RTVSPropertyOp31
 70
     1
102
RTVSPropertyOp32
 70
     1
102
RTVSPropertyOp33
 70
     1
102
RTVSPropertyOp34
 70
     1
102
RTVSPropertyOp35
 70
     1
102
RTVSPropertyOp36
 70
     1
102
RTVSPropertyOp37
 70
     1
102
RTVSPropertyOp38
 70
     1
102
RTVSPropertyOp39
 70
     1
102
RTVSPropertyOp40
 70
     1
102
RTVSPropertyOp41
 70
     1
102
RTVSPropertyOp42
 70
     1
102
RTVSPropertyOp43
 70
     1
102
RTVSPropertyOp44
 70
     1
102
RTVSPropertyOp45
 70
     1
102
RTVSPropertyOp46
 70
     1
102
RTVSPropertyOp47
 70
     1
102
RTVSPropertyOp48
 70
     1
102
RTVSPropertyOp49
 70
     1
102
RTVSPropertyOp50
 70
     1
102
RTVSPropertyOp51
 70
     0
102
RTVSPropertyOp52
 70
     0
102
RTVSPropertyOp53
 70
     1
102
RTVSPropertyOp54
 70
     1
102
RTVSPropertyOp55
 70
     1
102
RTVSPropertyOp56
 70
     1
102
RTVSPropertyOp57
 70
     1
102
RTVSPropertyOp58
 70
     1
102
RTVSPropertyOp59
 70
     1
102
RTVSPropertyOp60
 70
     1
102
RTVSPropertyOp61
 70
     1
102
RTVSPropertyOp62
 70
     1
  0
XRECORD
  5
663B
102
{ACAD_REACTORS
330
663A
102
}
330
663A
100
AcDbXrecord
280
     1
102
RTVSPost2010Prop28
280
     0
102
RTVSPost2010PropOp28
 70
     1
102
RTVSPost2010Prop29
280
     1
102
RTVSPost2010PropOp29
 70
     1
102
RTVSPost2010Prop30
280
     1
102
RTVSPost2010PropOp30
 70
     1
102
RTVSPost2010Prop31
280
     0
102
RTVSPost2010PropOp31
 70
     1
102
RTVSPost2010Prop32
280
     0
102
RTVSPost2010PropOp32
 70
     1
102
RTVSPost2010Prop33
280
     0
102
RTVSPost2010PropOp33
 70
     1
102
RTVSPost2010Prop34
280
     0
102
RTVSPost2010PropOp34
 70
     1
102
RTVSPost2010Prop35
280
     0
102
RTVSPost2010PropOp35
 70
     1
102
RTVSPost2010Prop36
280
     0
102
RTVSPost2010PropOp36
 70
     1
102
RTVSPost2010Prop37
 90
       50
102
RTVSPost2010PropOp37
 70
     1
102
RTVSPost2010Prop38
140
0.0
102
RTVSPost2010PropOp38
 70
     1
102
RTVSPost2010Prop39
140
1.0
102
RTVSPost2010PropOp39
 70
     1
102
RTVSPost2010Prop40
 90
        0
102
RTVSPost2010PropOp40
 70
     1
102
RTVSPost2010Prop41ColorIndex
 90
       18
102
RTVSPost2010Prop41ColorRGB
 90
        0
102
RTVSPost2010PropOp41
 70
     1
102
RTVSPost2010Prop42
 90
       50
102
RTVSPost2010PropOp42
 70
     1
102
RTVSPost2010Prop43
 90
        3
102
RTVSPost2010PropOp43
 70
     1
102
RTVSPost2010Prop44ColorIndex
 90
        5
102
RTVSPost2010Prop44ColorRGB
 90
      255
102
RTVSPost2010PropOp44
 70
     1
102
RTVSPost2010Prop45
280
     0
102
RTVSPost2010PropOp45
 70
     1
102
RTVSPost2010Prop46
 90
       50
102
RTVSPost2010PropOp46
 70
     1
102
RTVSPost2010Prop47
 90
       50
102
RTVSPost2010PropOp47
 70
     1
102
RTVSPost2010Prop48
 90
       50
102
RTVSPost2010PropOp48
 70
     1
102
RTVSPost2010Prop49
280
     0
102
RTVSPost2010PropOp49
 70
     1
102
RTVSPost2010Prop50
 90
       50
102
RTVSPost2010PropOp50
 70
     1
102
RTVSPost2010Prop51ColorIndex
 90
      256
102
RTVSPost2010Prop51ColorRGB
 90
-16777216
102
RTVSPost2010PropOp51
 70
     0
102
RTVSPost2010Prop52
140
1.0
102
RTVSPost2010PropOp52
 70
     0
102
RTVSPost2010Prop53
 90
        2
102
RTVSPost2010PropOp53
 70
     1
102
RTVSPost2010Prop54
  1
strokes_ogs.tif
102
RTVSPost2010PropOp54
 70
     1
102
RTVSPost2010Prop55
280
     0
102
RTVSPost2010PropOp55
 70
     1
102
RTVSPost2010Prop56
140
1.0
102
RTVSPost2010PropOp56
 70
     1
102
RTVSPost2010Prop57
140
1.0
102
RTVSPost2010PropOp57
 70
     1
102
RTVSPropertyOp0
 70
     1
102
RTVSPropertyOp1
 70
     1
102
RTVSPropertyOp2
 70
     1
102
RTVSPropertyOp3
 70
     1
102
RTVSPropertyOp4
 70
     1
102
RTVSPropertyOp5
 70
     1
102
RTVSPropertyOp6
 70
     1
102
RTVSPropertyOp7
 70
     1
102
RTVSPropertyOp8
 70
     1
102
RTVSPropertyOp9
 70
     1
102
RTVSPropertyOp10
 70
     1
102
RTVSPropertyOp11
 70
     1
102
RTVSPropertyOp12
 70
     1
102
RTVSPropertyOp13
 70
     1
102
RTVSPropertyOp14
 70
     1
102
RTVSPropertyOp15
 70
     1
102
RTVSPropertyOp16
 70
     1
102
RTVSPropertyOp17
 70
     1
102
RTVSPropertyOp18
 70
     1
102
RTVSPropertyOp19
 70
     1
102
RTVSPropertyOp20
 70
     1
102
RTVSPropertyOp21
 70
     1
102
RTVSPropertyOp22
 70
     1
102
RTVSPropertyOp23
 70
     1
102
RTVSPropertyOp24
 70
     1
102
RTVSPropertyOp25
 70
     1
102
RTVSPropertyOp26
 70
     1
102
RTVSPropertyOp27
 70
     1
102
RTVSPropertyOp28
 70
     1
102
RTVSPropertyOp29
 70
     1
102
RTVSPropertyOp30
 70
     1
102
RTVSPropertyOp31
 70
     1
102
RTVSPropertyOp32
 70
     1
102
RTVSPropertyOp33
 70
     1
102
RTVSPropertyOp34
 70
     1
102
RTVSPropertyOp35
 70
     1
102
RTVSPropertyOp36
 70
     1
102
RTVSPropertyOp37
 70
     1
102
RTVSPropertyOp38
 70
     1
102
RTVSPropertyOp39
 70
     1
102
RTVSPropertyOp40
 70
     1
102
RTVSPropertyOp41
 70
     1
102
RTVSPropertyOp42
 70
     1
102
RTVSPropertyOp43
 70
     1
102
RTVSPropertyOp44
 70
     1
102
RTVSPropertyOp45
 70
     1
102
RTVSPropertyOp46
 70
     1
102
RTVSPropertyOp47
 70
     1
102
RTVSPropertyOp48
 70
     1
102
RTVSPropertyOp49
 70
     1
102
RTVSPropertyOp50
 70
     1
102
RTVSPropertyOp51
 70
     0
102
RTVSPropertyOp52
 70
     0
102
RTVSPropertyOp53
 70
     1
102
RTVSPropertyOp54
 70
     1
102
RTVSPropertyOp55
 70
     1
102
RTVSPropertyOp56
 70
     1
102
RTVSPropertyOp57
 70
     1
102
RTVSPropertyOp58
 70
     1
102
RTVSPropertyOp59
 70
     1
102
RTVSPropertyOp60
 70
     1
102
RTVSPropertyOp61
 70
     1
102
RTVSPropertyOp62
 70
     1
  0
XRECORD
  5
663D
102
{ACAD_REACTORS
330
663C
102
}
330
663C
100
AcDbXrecord
280
     1
102
RTVSPost2010Prop28
280
     0
102
RTVSPost2010PropOp28
 70
     1
102
RTVSPost2010Prop29
280
     1
102
RTVSPost2010PropOp29
 70
     1
102
RTVSPost2010Prop30
280
     1
102
RTVSPost2010PropOp30
 70
     1
102
RTVSPost2010Prop31
280
     0
102
RTVSPost2010PropOp31
 70
     1
102
RTVSPost2010Prop32
280
     0
102
RTVSPost2010PropOp32
 70
     1
102
RTVSPost2010Prop33
280
     0
102
RTVSPost2010PropOp33
 70
     1
102
RTVSPost2010Prop34
280
     0
102
RTVSPost2010PropOp34
 70
     1
102
RTVSPost2010Prop35
280
     0
102
RTVSPost2010PropOp35
 70
     1
102
RTVSPost2010Prop36
280
     0
102
RTVSPost2010PropOp36
 70
     1
102
RTVSPost2010Prop37
 90
       50
102
RTVSPost2010PropOp37
 70
     1
102
RTVSPost2010Prop38
140
0.0
102
RTVSPost2010PropOp38
 70
     1
102
RTVSPost2010Prop39
140
1.0
102
RTVSPost2010PropOp39
 70
     1
102
RTVSPost2010Prop40
 90
        0
102
RTVSPost2010PropOp40
 70
     1
102
RTVSPost2010Prop41ColorIndex
 90
       18
102
RTVSPost2010Prop41ColorRGB
 90
        0
102
RTVSPost2010PropOp41
 70
     1
102
RTVSPost2010Prop42
 90
       50
102
RTVSPost2010PropOp42
 70
     1
102
RTVSPost2010Prop43
 90
        3
102
RTVSPost2010PropOp43
 70
     1
102
RTVSPost2010Prop44ColorIndex
 90
        5
102
RTVSPost2010Prop44ColorRGB
 90
      255
102
RTVSPost2010PropOp44
 70
     1
102
RTVSPost2010Prop45
280
     0
102
RTVSPost2010PropOp45
 70
     1
102
RTVSPost2010Prop46
 90
       50
102
RTVSPost2010PropOp46
 70
     1
102
RTVSPost2010Prop47
 90
       50
102
RTVSPost2010PropOp47
 70
     1
102
RTVSPost2010Prop48
 90
       50
102
RTVSPost2010PropOp48
 70
     1
102
RTVSPost2010Prop49
280
     0
102
RTVSPost2010PropOp49
 70
     1
102
RTVSPost2010Prop50
 90
       50
102
RTVSPost2010PropOp50
 70
     1
102
RTVSPost2010Prop51ColorIndex
 90
      256
102
RTVSPost2010Prop51ColorRGB
 90
-16777216
102
RTVSPost2010PropOp51
 70
     0
102
RTVSPost2010Prop52
140
1.0
102
RTVSPost2010PropOp52
 70
     0
102
RTVSPost2010Prop53
 90
        2
102
RTVSPost2010PropOp53
 70
     1
102
RTVSPost2010Prop54
  1
strokes_ogs.tif
102
RTVSPost2010PropOp54
 70
     1
102
RTVSPost2010Prop55
280
     0
102
RTVSPost2010PropOp55
 70
     1
102
RTVSPost2010Prop56
140
1.0
102
RTVSPost2010PropOp56
 70
     1
102
RTVSPost2010Prop57
140
1.0
102
RTVSPost2010PropOp57
 70
     1
102
RTVSPropertyOp0
 70
     1
102
RTVSPropertyOp1
 70
     1
102
RTVSPropertyOp2
 70
     1
102
RTVSPropertyOp3
 70
     1
102
RTVSPropertyOp4
 70
     1
102
RTVSPropertyOp5
 70
     1
102
RTVSPropertyOp6
 70
     1
102
RTVSPropertyOp7
 70
     1
102
RTVSPropertyOp8
 70
     1
102
RTVSPropertyOp9
 70
     1
102
RTVSPropertyOp10
 70
     1
102
RTVSPropertyOp11
 70
     1
102
RTVSPropertyOp12
 70
     1
102
RTVSPropertyOp13
 70
     1
102
RTVSPropertyOp14
 70
     1
102
RTVSPropertyOp15
 70
     1
102
RTVSPropertyOp16
 70
     1
102
RTVSPropertyOp17
 70
     1
102
RTVSPropertyOp18
 70
     1
102
RTVSPropertyOp19
 70
     1
102
RTVSPropertyOp20
 70
     1
102
RTVSPropertyOp21
 70
     1
102
RTVSPropertyOp22
 70
     1
102
RTVSPropertyOp23
 70
     1
102
RTVSPropertyOp24
 70
     1
102
RTVSPropertyOp25
 70
     1
102
RTVSPropertyOp26
 70
     1
102
RTVSPropertyOp27
 70
     1
102
RTVSPropertyOp28
 70
     1
102
RTVSPropertyOp29
 70
     1
102
RTVSPropertyOp30
 70
     1
102
RTVSPropertyOp31
 70
     1
102
RTVSPropertyOp32
 70
     1
102
RTVSPropertyOp33
 70
     1
102
RTVSPropertyOp34
 70
     1
102
RTVSPropertyOp35
 70
     1
102
RTVSPropertyOp36
 70
     1
102
RTVSPropertyOp37
 70
     1
102
RTVSPropertyOp38
 70
     1
102
RTVSPropertyOp39
 70
     1
102
RTVSPropertyOp40
 70
     1
102
RTVSPropertyOp41
 70
     1
102
RTVSPropertyOp42
 70
     1
102
RTVSPropertyOp43
 70
     1
102
RTVSPropertyOp44
 70
     1
102
RTVSPropertyOp45
 70
     1
102
RTVSPropertyOp46
 70
     1
102
RTVSPropertyOp47
 70
     1
102
RTVSPropertyOp48
 70
     1
102
RTVSPropertyOp49
 70
     1
102
RTVSPropertyOp50
 70
     1
102
RTVSPropertyOp51
 70
     0
102
RTVSPropertyOp52
 70
     0
102
RTVSPropertyOp53
 70
     1
102
RTVSPropertyOp54
 70
     1
102
RTVSPropertyOp55
 70
     1
102
RTVSPropertyOp56
 70
     1
102
RTVSPropertyOp57
 70
     1
102
RTVSPropertyOp58
 70
     1
102
RTVSPropertyOp59
 70
     1
102
RTVSPropertyOp60
 70
     1
102
RTVSPropertyOp61
 70
     1
102
RTVSPropertyOp62
 70
     1
  0
XRECORD
  5
662B
102
{ACAD_REACTORS
330
662A
102
}
330
662A
100
AcDbXrecord
280
     1
102
RTVSPost2010Prop28
280
     0
102
RTVSPost2010PropOp28
 70
     1
102
RTVSPost2010Prop29
280
     1
102
RTVSPost2010PropOp29
 70
     1
102
RTVSPost2010Prop30
280
     1
102
RTVSPost2010PropOp30
 70
     1
102
RTVSPost2010Prop31
280
     0
102
RTVSPost2010PropOp31
 70
     1
102
RTVSPost2010Prop32
280
     0
102
RTVSPost2010PropOp32
 70
     1
102
RTVSPost2010Prop33
280
     0
102
RTVSPost2010PropOp33
 70
     1
102
RTVSPost2010Prop34
280
     0
102
RTVSPost2010PropOp34
 70
     1
102
RTVSPost2010Prop35
280
     0
102
RTVSPost2010PropOp35
 70
     1
102
RTVSPost2010Prop36
280
     0
102
RTVSPost2010PropOp36
 70
     1
102
RTVSPost2010Prop37
 90
       50
102
RTVSPost2010PropOp37
 70
     1
102
RTVSPost2010Prop38
140
0.0
102
RTVSPost2010PropOp38
 70
     1
102
RTVSPost2010Prop39
140
1.0
102
RTVSPost2010PropOp39
 70
     1
102
RTVSPost2010Prop40
 90
        0
102
RTVSPost2010PropOp40
 70
     1
102
RTVSPost2010Prop41ColorIndex
 90
       18
102
RTVSPost2010Prop41ColorRGB
 90
        0
102
RTVSPost2010PropOp41
 70
     1
102
RTVSPost2010Prop42
 90
       50
102
RTVSPost2010PropOp42
 70
     1
102
RTVSPost2010Prop43
 90
        3
102
RTVSPost2010PropOp43
 70
     1
102
RTVSPost2010Prop44ColorIndex
 90
        5
102
RTVSPost2010Prop44ColorRGB
 90
      255
102
RTVSPost2010PropOp44
 70
     1
102
RTVSPost2010Prop45
280
     0
102
RTVSPost2010PropOp45
 70
     1
102
RTVSPost2010Prop46
 90
       50
102
RTVSPost2010PropOp46
 70
     1
102
RTVSPost2010Prop47
 90
       50
102
RTVSPost2010PropOp47
 70
     1
102
RTVSPost2010Prop48
 90
       50
102
RTVSPost2010PropOp48
 70
     1
102
RTVSPost2010Prop49
280
     0
102
RTVSPost2010PropOp49
 70
     1
102
RTVSPost2010Prop50
 90
       50
102
RTVSPost2010PropOp50
 70
     1
102
RTVSPost2010Prop51ColorIndex
 90
      256
102
RTVSPost2010Prop51ColorRGB
 90
-16777216
102
RTVSPost2010PropOp51
 70
     0
102
RTVSPost2010Prop52
140
1.0
102
RTVSPost2010PropOp52
 70
     0
102
RTVSPost2010Prop53
 90
        2
102
RTVSPost2010PropOp53
 70
     1
102
RTVSPost2010Prop54
  1
strokes_ogs.tif
102
RTVSPost2010PropOp54
 70
     1
102
RTVSPost2010Prop55
280
     0
102
RTVSPost2010PropOp55
 70
     1
102
RTVSPost2010Prop56
140
1.0
102
RTVSPost2010PropOp56
 70
     1
102
RTVSPost2010Prop57
140
1.0
102
RTVSPost2010PropOp57
 70
     1
102
RTVSPropertyOp0
 70
     1
102
RTVSPropertyOp1
 70
     1
102
RTVSPropertyOp2
 70
     1
102
RTVSPropertyOp3
 70
     1
102
RTVSPropertyOp4
 70
     1
102
RTVSPropertyOp5
 70
     1
102
RTVSPropertyOp6
 70
     1
102
RTVSPropertyOp7
 70
     1
102
RTVSPropertyOp8
 70
     1
102
RTVSPropertyOp9
 70
     1
102
RTVSPropertyOp10
 70
     1
102
RTVSPropertyOp11
 70
     1
102
RTVSPropertyOp12
 70
     1
102
RTVSPropertyOp13
 70
     1
102
RTVSPropertyOp14
 70
     1
102
RTVSPropertyOp15
 70
     1
102
RTVSPropertyOp16
 70
     1
102
RTVSPropertyOp17
 70
     1
102
RTVSPropertyOp18
 70
     1
102
RTVSPropertyOp19
 70
     1
102
RTVSPropertyOp20
 70
     1
102
RTVSPropertyOp21
 70
     1
102
RTVSPropertyOp22
 70
     1
102
RTVSPropertyOp23
 70
     1
102
RTVSPropertyOp24
 70
     1
102
RTVSPropertyOp25
 70
     1
102
RTVSPropertyOp26
 70
     1
102
RTVSPropertyOp27
 70
     1
102
RTVSPropertyOp28
 70
     1
102
RTVSPropertyOp29
 70
     1
102
RTVSPropertyOp30
 70
     1
102
RTVSPropertyOp31
 70
     1
102
RTVSPropertyOp32
 70
     1
102
RTVSPropertyOp33
 70
     1
102
RTVSPropertyOp34
 70
     1
102
RTVSPropertyOp35
 70
     1
102
RTVSPropertyOp36
 70
     1
102
RTVSPropertyOp37
 70
     1
102
RTVSPropertyOp38
 70
     1
102
RTVSPropertyOp39
 70
     1
102
RTVSPropertyOp40
 70
     1
102
RTVSPropertyOp41
 70
     1
102
RTVSPropertyOp42
 70
     1
102
RTVSPropertyOp43
 70
     1
102
RTVSPropertyOp44
 70
     1
102
RTVSPropertyOp45
 70
     1
102
RTVSPropertyOp46
 70
     1
102
RTVSPropertyOp47
 70
     1
102
RTVSPropertyOp48
 70
     1
102
RTVSPropertyOp49
 70
     1
102
RTVSPropertyOp50
 70
     1
102
RTVSPropertyOp51
 70
     0
102
RTVSPropertyOp52
 70
     0
102
RTVSPropertyOp53
 70
     1
102
RTVSPropertyOp54
 70
     1
102
RTVSPropertyOp55
 70
     1
102
RTVSPropertyOp56
 70
     1
102
RTVSPropertyOp57
 70
     1
102
RTVSPropertyOp58
 70
     1
102
RTVSPropertyOp59
 70
     1
102
RTVSPropertyOp60
 70
     1
102
RTVSPropertyOp61
 70
     1
102
RTVSPropertyOp62
 70
     1
  0
XRECORD
  5
661F
102
{ACAD_REACTORS
330
661E
102
}
330
661E
100
AcDbXrecord
280
     1
102
RTVSPost2010Prop28
280
     0
102
RTVSPost2010PropOp28
 70
     1
102
RTVSPost2010Prop29
280
     1
102
RTVSPost2010PropOp29
 70
     1
102
RTVSPost2010Prop30
280
     1
102
RTVSPost2010PropOp30
 70
     1
102
RTVSPost2010Prop31
280
     0
102
RTVSPost2010PropOp31
 70
     1
102
RTVSPost2010Prop32
280
     0
102
RTVSPost2010PropOp32
 70
     1
102
RTVSPost2010Prop33
280
     0
102
RTVSPost2010PropOp33
 70
     1
102
RTVSPost2010Prop34
280
     0
102
RTVSPost2010PropOp34
 70
     1
102
RTVSPost2010Prop35
280
     0
102
RTVSPost2010PropOp35
 70
     1
102
RTVSPost2010Prop36
280
     0
102
RTVSPost2010PropOp36
 70
     1
102
RTVSPost2010Prop37
 90
       50
102
RTVSPost2010PropOp37
 70
     1
102
RTVSPost2010Prop38
140
0.0
102
RTVSPost2010PropOp38
 70
     1
102
RTVSPost2010Prop39
140
1.0
102
RTVSPost2010PropOp39
 70
     1
102
RTVSPost2010Prop40
 90
        0
102
RTVSPost2010PropOp40
 70
     1
102
RTVSPost2010Prop41ColorIndex
 90
       18
102
RTVSPost2010Prop41ColorRGB
 90
        0
102
RTVSPost2010PropOp41
 70
     1
102
RTVSPost2010Prop42
 90
       50
102
RTVSPost2010PropOp42
 70
     1
102
RTVSPost2010Prop43
 90
        3
102
RTVSPost2010PropOp43
 70
     1
102
RTVSPost2010Prop44ColorIndex
 90
        5
102
RTVSPost2010Prop44ColorRGB
 90
      255
102
RTVSPost2010PropOp44
 70
     1
102
RTVSPost2010Prop45
280
     0
102
RTVSPost2010PropOp45
 70
     1
102
RTVSPost2010Prop46
 90
       50
102
RTVSPost2010PropOp46
 70
     1
102
RTVSPost2010Prop47
 90
       50
102
RTVSPost2010PropOp47
 70
     1
102
RTVSPost2010Prop48
 90
       50
102
RTVSPost2010PropOp48
 70
     1
102
RTVSPost2010Prop49
280
     0
102
RTVSPost2010PropOp49
 70
     1
102
RTVSPost2010Prop50
 90
       50
102
RTVSPost2010PropOp50
 70
     1
102
RTVSPost2010Prop51ColorIndex
 90
      256
102
RTVSPost2010Prop51ColorRGB
 90
-16777216
102
RTVSPost2010PropOp51
 70
     0
102
RTVSPost2010Prop52
140
1.0
102
RTVSPost2010PropOp52
 70
     0
102
RTVSPost2010Prop53
 90
        2
102
RTVSPost2010PropOp53
 70
     1
102
RTVSPost2010Prop54
  1
strokes_ogs.tif
102
RTVSPost2010PropOp54
 70
     1
102
RTVSPost2010Prop55
280
     0
102
RTVSPost2010PropOp55
 70
     1
102
RTVSPost2010Prop56
140
1.0
102
RTVSPost2010PropOp56
 70
     1
102
RTVSPost2010Prop57
140
1.0
102
RTVSPost2010PropOp57
 70
     1
102
RTVSPropertyOp0
 70
     1
102
RTVSPropertyOp1
 70
     1
102
RTVSPropertyOp2
 70
     1
102
RTVSPropertyOp3
 70
     1
102
RTVSPropertyOp4
 70
     1
102
RTVSPropertyOp5
 70
     1
102
RTVSPropertyOp6
 70
     1
102
RTVSPropertyOp7
 70
     1
102
RTVSPropertyOp8
 70
     1
102
RTVSPropertyOp9
 70
     1
102
RTVSPropertyOp10
 70
     1
102
RTVSPropertyOp11
 70
     1
102
RTVSPropertyOp12
 70
     1
102
RTVSPropertyOp13
 70
     1
102
RTVSPropertyOp14
 70
     1
102
RTVSPropertyOp15
 70
     1
102
RTVSPropertyOp16
 70
     1
102
RTVSPropertyOp17
 70
     1
102
RTVSPropertyOp18
 70
     1
102
RTVSPropertyOp19
 70
     1
102
RTVSPropertyOp20
 70
     1
102
RTVSPropertyOp21
 70
     1
102
RTVSPropertyOp22
 70
     1
102
RTVSPropertyOp23
 70
     1
102
RTVSPropertyOp24
 70
     1
102
RTVSPropertyOp25
 70
     1
102
RTVSPropertyOp26
 70
     1
102
RTVSPropertyOp27
 70
     1
102
RTVSPropertyOp28
 70
     1
102
RTVSPropertyOp29
 70
     1
102
RTVSPropertyOp30
 70
     1
102
RTVSPropertyOp31
 70
     1
102
RTVSPropertyOp32
 70
     1
102
RTVSPropertyOp33
 70
     1
102
RTVSPropertyOp34
 70
     1
102
RTVSPropertyOp35
 70
     1
102
RTVSPropertyOp36
 70
     1
102
RTVSPropertyOp37
 70
     1
102
RTVSPropertyOp38
 70
     1
102
RTVSPropertyOp39
 70
     1
102
RTVSPropertyOp40
 70
     1
102
RTVSPropertyOp41
 70
     1
102
RTVSPropertyOp42
 70
     1
102
RTVSPropertyOp43
 70
     1
102
RTVSPropertyOp44
 70
     1
102
RTVSPropertyOp45
 70
     1
102
RTVSPropertyOp46
 70
     1
102
RTVSPropertyOp47
 70
     1
102
RTVSPropertyOp48
 70
     1
102
RTVSPropertyOp49
 70
     1
102
RTVSPropertyOp50
 70
     1
102
RTVSPropertyOp51
 70
     0
102
RTVSPropertyOp52
 70
     0
102
RTVSPropertyOp53
 70
     1
102
RTVSPropertyOp54
 70
     1
102
RTVSPropertyOp55
 70
     1
102
RTVSPropertyOp56
 70
     1
102
RTVSPropertyOp57
 70
     1
102
RTVSPropertyOp58
 70
     1
102
RTVSPropertyOp59
 70
     1
102
RTVSPropertyOp60
 70
     1
102
RTVSPropertyOp61
 70
     1
102
RTVSPropertyOp62
 70
     1
  0
XRECORD
  5
663F
102
{ACAD_REACTORS
330
663E
102
}
330
663E
100
AcDbXrecord
280
     1
102
RTVSPost2010Prop28
280
     0
102
RTVSPost2010PropOp28
 70
     1
102
RTVSPost2010Prop29
280
     1
102
RTVSPost2010PropOp29
 70
     1
102
RTVSPost2010Prop30
280
     1
102
RTVSPost2010PropOp30
 70
     1
102
RTVSPost2010Prop31
280
     0
102
RTVSPost2010PropOp31
 70
     1
102
RTVSPost2010Prop32
280
     0
102
RTVSPost2010PropOp32
 70
     1
102
RTVSPost2010Prop33
280
     0
102
RTVSPost2010PropOp33
 70
     1
102
RTVSPost2010Prop34
280
     0
102
RTVSPost2010PropOp34
 70
     1
102
RTVSPost2010Prop35
280
     0
102
RTVSPost2010PropOp35
 70
     1
102
RTVSPost2010Prop36
280
     0
102
RTVSPost2010PropOp36
 70
     1
102
RTVSPost2010Prop37
 90
       50
102
RTVSPost2010PropOp37
 70
     1
102
RTVSPost2010Prop38
140
0.0
102
RTVSPost2010PropOp38
 70
     1
102
RTVSPost2010Prop39
140
1.0
102
RTVSPost2010PropOp39
 70
     1
102
RTVSPost2010Prop40
 90
        0
102
RTVSPost2010PropOp40
 70
     1
102
RTVSPost2010Prop41ColorIndex
 90
       18
102
RTVSPost2010Prop41ColorRGB
 90
        0
102
RTVSPost2010PropOp41
 70
     1
102
RTVSPost2010Prop42
 90
       50
102
RTVSPost2010PropOp42
 70
     1
102
RTVSPost2010Prop43
 90
        3
102
RTVSPost2010PropOp43
 70
     1
102
RTVSPost2010Prop44ColorIndex
 90
        5
102
RTVSPost2010Prop44ColorRGB
 90
      255
102
RTVSPost2010PropOp44
 70
     1
102
RTVSPost2010Prop45
280
     0
102
RTVSPost2010PropOp45
 70
     1
102
RTVSPost2010Prop46
 90
       50
102
RTVSPost2010PropOp46
 70
     1
102
RTVSPost2010Prop47
 90
       50
102
RTVSPost2010PropOp47
 70
     1
102
RTVSPost2010Prop48
 90
       50
102
RTVSPost2010PropOp48
 70
     1
102
RTVSPost2010Prop49
280
     0
102
RTVSPost2010PropOp49
 70
     1
102
RTVSPost2010Prop50
 90
       50
102
RTVSPost2010PropOp50
 70
     1
102
RTVSPost2010Prop51ColorIndex
 90
      256
102
RTVSPost2010Prop51ColorRGB
 90
-16777216
102
RTVSPost2010PropOp51
 70
     0
102
RTVSPost2010Prop52
140
1.0
102
RTVSPost2010PropOp52
 70
     0
102
RTVSPost2010Prop53
 90
        2
102
RTVSPost2010PropOp53
 70
     1
102
RTVSPost2010Prop54
  1
strokes_ogs.tif
102
RTVSPost2010PropOp54
 70
     1
102
RTVSPost2010Prop55
280
     0
102
RTVSPost2010PropOp55
 70
     1
102
RTVSPost2010Prop56
140
1.0
102
RTVSPost2010PropOp56
 70
     1
102
RTVSPost2010Prop57
140
1.0
102
RTVSPost2010PropOp57
 70
     1
102
RTVSPropertyOp0
 70
     1
102
RTVSPropertyOp1
 70
     1
102
RTVSPropertyOp2
 70
     1
102
RTVSPropertyOp3
 70
     1
102
RTVSPropertyOp4
 70
     1
102
RTVSPropertyOp5
 70
     1
102
RTVSPropertyOp6
 70
     1
102
RTVSPropertyOp7
 70
     1
102
RTVSPropertyOp8
 70
     1
102
RTVSPropertyOp9
 70
     1
102
RTVSPropertyOp10
 70
     1
102
RTVSPropertyOp11
 70
     1
102
RTVSPropertyOp12
 70
     1
102
RTVSPropertyOp13
 70
     1
102
RTVSPropertyOp14
 70
     1
102
RTVSPropertyOp15
 70
     1
102
RTVSPropertyOp16
 70
     1
102
RTVSPropertyOp17
 70
     1
102
RTVSPropertyOp18
 70
     1
102
RTVSPropertyOp19
 70
     1
102
RTVSPropertyOp20
 70
     1
102
RTVSPropertyOp21
 70
     1
102
RTVSPropertyOp22
 70
     1
102
RTVSPropertyOp23
 70
     1
102
RTVSPropertyOp24
 70
     1
102
RTVSPropertyOp25
 70
     1
102
RTVSPropertyOp26
 70
     1
102
RTVSPropertyOp27
 70
     1
102
RTVSPropertyOp28
 70
     1
102
RTVSPropertyOp29
 70
     1
102
RTVSPropertyOp30
 70
     1
102
RTVSPropertyOp31
 70
     1
102
RTVSPropertyOp32
 70
     1
102
RTVSPropertyOp33
 70
     1
102
RTVSPropertyOp34
 70
     1
102
RTVSPropertyOp35
 70
     1
102
RTVSPropertyOp36
 70
     1
102
RTVSPropertyOp37
 70
     1
102
RTVSPropertyOp38
 70
     1
102
RTVSPropertyOp39
 70
     1
102
RTVSPropertyOp40
 70
     1
102
RTVSPropertyOp41
 70
     1
102
RTVSPropertyOp42
 70
     1
102
RTVSPropertyOp43
 70
     1
102
RTVSPropertyOp44
 70
     1
102
RTVSPropertyOp45
 70
     1
102
RTVSPropertyOp46
 70
     1
102
RTVSPropertyOp47
 70
     1
102
RTVSPropertyOp48
 70
     1
102
RTVSPropertyOp49
 70
     1
102
RTVSPropertyOp50
 70
     1
102
RTVSPropertyOp51
 70
     0
102
RTVSPropertyOp52
 70
     0
102
RTVSPropertyOp53
 70
     1
102
RTVSPropertyOp54
 70
     1
102
RTVSPropertyOp55
 70
     1
102
RTVSPropertyOp56
 70
     1
102
RTVSPropertyOp57
 70
     1
102
RTVSPropertyOp58
 70
     1
102
RTVSPropertyOp59
 70
     1
102
RTVSPropertyOp60
 70
     1
102
RTVSPropertyOp61
 70
     1
102
RTVSPropertyOp62
 70
     1
  0
ENDSEC
  0
EOF
