  0
SECTION
  2
HEADER
  9
$ACADVER
  1
AC1015
  9
$ACADMAINTVER
 70
    18
  9
$DWGCODEPAGE
  3
ANSI_1252
  9
$INSBASE
 10
0.0
 20
0.0
 30
0.0
  9
$EXTMIN
 10
-124.6939078586803
 20
-164.7875056038465
 30
-0.0015258207003583
  9
$EXTMAX
 10
138.6392218417479
 20
99.60122726834526
 30
0.0000000349246037
  9
$LIMMIN
 10
0.0
 20
0.0
  9
$LIMMAX
 10
420.0
 20
297.0
  9
$ORTHOMODE
 70
     0
  9
$REGENMODE
 70
     1
  9
$FILLMODE
 70
     1
  9
$QTEXTMODE
 70
     0
  9
$MIRRTEXT
 70
     0
  9
$LTSCALE
 40
1.0
  9
$ATTMODE
 70
     1
  9
$TEXTSIZE
 40
2.5
  9
$TRACEWID
 40
1.0
  9
$TEXTSTYLE
  7
Standard
  9
$CLAYER
  8
0
  9
$CELTYPE
  6
ByLayer
  9
$CECOLOR
 62
   256
  9
$CELTSCALE
 40
1.0
  9
$DISPSILH
 70
     0
  9
$DIMSCALE
 40
1.0
  9
$DIMASZ
 40
2.5
  9
$DIMEXO
 40
0.625
  9
$DIMDLI
 40
3.75
  9
$DIMRND
 40
0.0
  9
$DIMDLE
 40
0.0
  9
$DIMEXE
 40
1.25
  9
$DIMTP
 40
0.0
  9
$DIMTM
 40
0.0
  9
$DIMTXT
 40
2.5
  9
$DIMCEN
 40
2.5
  9
$DIMTSZ
 40
0.0
  9
$DIMTOL
 70
     0
  9
$DIMLIM
 70
     0
  9
$DIMTIH
 70
     0
  9
$DIMTOH
 70
     0
  9
$DIMSE1
 70
     0
  9
$DIMSE2
 70
     0
  9
$DIMTAD
 70
     1
  9
$DIMZIN
 70
     8
  9
$DIMBLK
  1

  9
$DIMASO
 70
     1
  9
$DIMSHO
 70
     1
  9
$DIMPOST
  1

  9
$DIMAPOST
  1

  9
$DIMALT
 70
     0
  9
$DIMALTD
 70
     3
  9
$DIMALTF
 40
0.03937007874016
  9
$DIMLFAC
 40
1.0
  9
$DIMTOFL
 70
     1
  9
$DIMTVP
 40
0.0
  9
$DIMTIX
 70
     0
  9
$DIMSOXD
 70
     0
  9
$DIMSAH
 70
     0
  9
$DIMBLK1
  1

  9
$DIMBLK2
  1

  9
$DIMSTYLE
  2
ISO-25
  9
$DIMCLRD
 70
     0
  9
$DIMCLRE
 70
     0
  9
$DIMCLRT
 70
     0
  9
$DIMTFAC
 40
1.0
  9
$DIMGAP
 40
0.625
  9
$DIMJUST
 70
     0
  9
$DIMSD1
 70
     0
  9
$DIMSD2
 70
     0
  9
$DIMTOLJ
 70
     0
  9
$DIMTZIN
 70
     8
  9
$DIMALTZ
 70
     0
  9
$DIMALTTZ
 70
     0
  9
$DIMUPT
 70
     0
  9
$DIMDEC
 70
     2
  9
$DIMTDEC
 70
     2
  9
$DIMALTU
 70
     2
  9
$DIMALTTD
 70
     3
  9
$DIMTXSTY
  7
Standard
  9
$DIMAUNIT
 70
     0
  9
$DIMADEC
 70
     0
  9
$DIMALTRND
 40
0.0
  9
$DIMAZIN
 70
     0
  9
$DIMDSEP
 70
    44
  9
$DIMATFIT
 70
     3
  9
$DIMFRAC
 70
     0
  9
$DIMLDRBLK
  1

  9
$DIMLUNIT
 70
     2
  9
$DIMLWD
 70
    -2
  9
$DIMLWE
 70
    -2
  9
$DIMTMOVE
 70
     0
  9
$LUNITS
 70
     2
  9
$LUPREC
 70
     4
  9
$SKETCHINC
 40
1.0
  9
$FILLETRAD
 40
0.0
  9
$AUNITS
 70
     0
  9
$AUPREC
 70
     0
  9
$MENU
  1
.
  9
$ELEVATION
 40
0.0
  9
$PELEVATION
 40
0.0
  9
$THICKNESS
 40
0.0
  9
$LIMCHECK
 70
     0
  9
$CHAMFERA
 40
0.0
  9
$CHAMFERB
 40
0.0
  9
$CHAMFERC
 40
0.0
  9
$CHAMFERD
 40
0.0
  9
$SKPOLY
 70
     0
  9
$TDCREATE
 40
2460781.656018518
  9
$TDUCREATE
 40
2460781.364351852
  9
$TDUPDATE
 40
2460782.412581019
  9
$TDUUPDATE
 40
2460782.120914352
  9
$TDINDWG
 40
0.7542476852
  9
$TDUSRTIMER
 40
0.7542476852
  9
$USRTIMER
 70
     1
  9
$ANGBASE
 50
0.0
  9
$ANGDIR
 70
     0
  9
$PDMODE
 70
     0
  9
$PDSIZE
 40
0.0
  9
$PLINEWID
 40
0.0
  9
$SPLFRAME
 70
     0
  9
$SPLINETYPE
 70
     6
  9
$SPLINESEGS
 70
     8
  9
$HANDSEED
  5
639E
  9
$SURFTAB1
 70
     6
  9
$SURFTAB2
 70
     6
  9
$SURFTYPE
 70
     6
  9
$SURFU
 70
     6
  9
$SURFV
 70
     6
  9
$UCSBASE
  2

  9
$UCSNAME
  2

  9
$UCSORG
 10
0.0
 20
0.0
 30
0.0
  9
$UCSXDIR
 10
1.0
 20
0.0
 30
0.0
  9
$UCSYDIR
 10
0.0
 20
1.0
 30
0.0
  9
$UCSORTHOREF
  2

  9
$UCSORTHOVIEW
 70
     0
  9
$UCSORGTOP
 10
0.0
 20
0.0
 30
0.0
  9
$UCSORGBOTTOM
 10
0.0
 20
0.0
 30
0.0
  9
$UCSORGLEFT
 10
0.0
 20
0.0
 30
0.0
  9
$UCSORGRIGHT
 10
0.0
 20
0.0
 30
0.0
  9
$UCSORGFRONT
 10
0.0
 20
0.0
 30
0.0
  9
$UCSORGBACK
 10
0.0
 20
0.0
 30
0.0
  9
$PUCSBASE
  2

  9
$PUCSNAME
  2

  9
$PUCSORG
 10
0.0
 20
0.0
 30
0.0
  9
$PUCSXDIR
 10
1.0
 20
0.0
 30
0.0
  9
$PUCSYDIR
 10
0.0
 20
1.0
 30
0.0
  9
$PUCSORTHOREF
  2

  9
$PUCSORTHOVIEW
 70
     0
  9
$PUCSORGTOP
 10
0.0
 20
0.0
 30
0.0
  9
$PUCSORGBOTTOM
 10
0.0
 20
0.0
 30
0.0
  9
$PUCSORGLEFT
 10
0.0
 20
0.0
 30
0.0
  9
$PUCSORGRIGHT
 10
0.0
 20
0.0
 30
0.0
  9
$PUCSORGFRONT
 10
0.0
 20
0.0
 30
0.0
  9
$PUCSORGBACK
 10
0.0
 20
0.0
 30
0.0
  9
$USERI1
 70
     0
  9
$USERI2
 70
     0
  9
$USERI3
 70
     0
  9
$USERI4
 70
     0
  9
$USERI5
 70
     0
  9
$USERR1
 40
0.0
  9
$USERR2
 40
0.0
  9
$USERR3
 40
0.0
  9
$USERR4
 40
0.0
  9
$USERR5
 40
0.0
  9
$WORLDVIEW
 70
     1
  9
$SHADEDGE
 70
     3
  9
$SHADEDIF
 70
    70
  9
$TILEMODE
 70
     1
  9
$MAXACTVP
 70
    48
  9
$PINSBASE
 10
0.0
 20
0.0
 30
0.0
  9
$PLIMCHECK
 70
     0
  9
$PEXTMIN
 10
0.0
 20
0.0
 30
0.0
  9
$PEXTMAX
 10
0.0
 20
0.0
 30
0.0
  9
$PLIMMIN
 10
0.0
 20
0.0
  9
$PLIMMAX
 10
12.0
 20
9.0
  9
$UNITMODE
 70
     0
  9
$VISRETAIN
 70
     1
  9
$PLINEGEN
 70
     0
  9
$PSLTSCALE
 70
     1
  9
$TREEDEPTH
 70
  3020
  9
$CMLSTYLE
  2
Standard
  9
$CMLJUST
 70
     0
  9
$CMLSCALE
 40
20.0
  9
$PROXYGRAPHICS
 70
     1
  9
$MEASUREMENT
 70
     1
  9
$CELWEIGHT
370
    -1
  9
$ENDCAPS
280
     0
  9
$JOINSTYLE
280
     0
  9
$LWDISPLAY
290
     0
  9
$INSUNITS
 70
     4
  9
$HYPERLINKBASE
  1

  9
$STYLESHEET
  1

  9
$XEDIT
290
     1
  9
$CEPSNTYPE
380
     0
  9
$PSTYLEMODE
290
     1
  9
$FINGERPRINTGUID
  2
{0FEB3686-8757-2640-922C-D8687B0D3839}
  9
$VERSIONGUID
  2
{9814829C-0CC5-164E-9AB0-82493DE711CD}
  9
$EXTNAMES
290
     1
  9
$PSVPSCALE
 40
0.0
  9
$OLESTARTUP
290
     0
  0
ENDSEC
  0
SECTION
  2
CLASSES
  0
CLASS
  1
ACDBDICTIONARYWDFLT
  2
AcDbDictionaryWithDefault
  3
ObjectDBX Classes
 90
        0
280
     0
281
     0
  0
CLASS
  1
ACDBPLACEHOLDER
  2
AcDbPlaceHolder
  3
ObjectDBX Classes
 90
        0
280
     0
281
     0
  0
CLASS
  1
LAYOUT
  2
AcDbLayout
  3
ObjectDBX Classes
 90
        0
280
     0
281
     0
  0
CLASS
  1
DICTIONARYVAR
  2
AcDbDictionaryVar
  3
ObjectDBX Classes
 90
        0
280
     0
281
     0
  0
CLASS
  1
TABLESTYLE
  2
AcDbTableStyle
  3
ObjectDBX Classes
 90
     4095
280
     0
281
     0
  0
CLASS
  1
MATERIAL
  2
AcDbMaterial
  3
ObjectDBX Classes
 90
     1153
280
     0
281
     0
  0
CLASS
  1
VISUALSTYLE
  2
AcDbVisualStyle
  3
ObjectDBX Classes
 90
     4095
280
     0
281
     0
  0
CLASS
  1
SCALE
  2
AcDbScale
  3
ObjectDBX Classes
 90
     1153
280
     0
281
     0
  0
CLASS
  1
MLEADERSTYLE
  2
AcDbMLeaderStyle
  3
ACDB_MLEADERSTYLE_CLASS
 90
     4095
280
     0
281
     0
  0
CLASS
  1
CELLSTYLEMAP
  2
AcDbCellStyleMap
  3
ObjectDBX Classes
 90
     1152
280
     0
281
     0
  0
CLASS
  1
EXACXREFPANELOBJECT
  2
ExAcXREFPanelObject
  3
EXAC_ESW
 90
    33793
280
     0
281
     0
  0
CLASS
  1
NPOCOLLECTION
  2
AcDbImpNonPersistentObjectsCollection
  3
ObjectDBX Classes
 90
    33921
280
     0
281
     0
  0
CLASS
  1
LAYER_INDEX
  2
AcDbLayerIndex
  3
ObjectDBX Classes
 90
    32768
280
     0
281
     0
  0
CLASS
  1
SPATIAL_INDEX
  2
AcDbSpatialIndex
  3
ObjectDBX Classes
 90
    32768
280
     0
281
     0
  0
CLASS
  1
IDBUFFER
  2
AcDbIdBuffer
  3
ObjectDBX Classes
 90
    32768
280
     0
281
     0
  0
CLASS
  1
ACDBSECTIONVIEWSTYLE
  2
AcDbSectionViewStyle
  3
ObjectDBX Classes
 90
     1025
280
     0
281
     0
  0
CLASS
  1
ACDBDETAILVIEWSTYLE
  2
AcDbDetailViewStyle
  3
ObjectDBX Classes
 90
     1025
280
     0
281
     0
  0
CLASS
  1
XRECORD
  2
AcDbXrecord
  3
ObjectDBX Classes
 90
        0
280
     0
281
     0
  0
ENDSEC
  0
SECTION
  2
TABLES
  0
TABLE
  2
VPORT
  5
8
102
{ACAD_XDICTIONARY
360
62AC
102
}
330
0
100
AcDbSymbolTable
 70
     1
  0
VPORT
  5
EA
330
8
100
AcDbSymbolTableRecord
100
AcDbViewportTableRecord
  2
*Active
 70
     0
 10
0.0
 20
0.0
 11
1.0
 21
1.0
 12
6.972656991533838
 22
-32.59313916775062
 13
0.0
 23
0.0
 14
10.0
 24
10.0
 15
10.0
 25
10.0
 16
0.0
 26
0.0
 36
1.0
 17
0.0
 27
0.0
 37
0.0
 40
284.4514414499391
 41
0.9846153846153844
 42
50.0
 43
0.0
 44
0.0
 50
0.0
 51
0.0
 71
     0
 72
  1000
 73
     1
 74
     3
 75
     0
 76
     1
 77
     0
 78
     0
281
     0
 65
     1
110
0.0
120
0.0
130
0.0
111
1.0
121
0.0
131
0.0
112
0.0
122
1.0
132
0.0
 79
     0
146
0.0
1001
ACAD_NAV_VCDISPLAY
1070
     3
  0
ENDTAB
  0
TABLE
  2
LTYPE
  5
5
330
0
100
AcDbSymbolTable
 70
     1
  0
LTYPE
  5
14
330
5
100
AcDbSymbolTableRecord
100
AcDbLinetypeTableRecord
  2
ByBlock
 70
     0
  3

 72
    65
 73
     0
 40
0.0
  0
LTYPE
  5
15
330
5
100
AcDbSymbolTableRecord
100
AcDbLinetypeTableRecord
  2
ByLayer
 70
     0
  3

 72
    65
 73
     0
 40
0.0
  0
LTYPE
  5
16
330
5
100
AcDbSymbolTableRecord
100
AcDbLinetypeTableRecord
  2
Continuous
 70
     0
  3
Solid line
 72
    65
 73
     0
 40
0.0
  0
ENDTAB
  0
TABLE
  2
LAYER
  5
2
102
{ACAD_XDICTIONARY
360
1FF
102
}
330
0
100
AcDbSymbolTable
 70
     1
  0
LAYER
  5
10
102
{ACAD_XDICTIONARY
360
13C
102
}
330
2
100
AcDbSymbolTableRecord
100
AcDbLayerTableRecord
  2
0
 70
     0
 62
     7
  6
Continuous
370
    -3
390
F
  0
ENDTAB
  0
TABLE
  2
STYLE
  5
3
330
0
100
AcDbSymbolTable
 70
     1
  0
STYLE
  5
11
330
3
100
AcDbSymbolTableRecord
100
AcDbTextStyleTableRecord
  2
Standard
 70
     0
 40
0.0
 41
1.0
 50
0.0
 71
     0
 42
2.5
  3
arial.ttf
  4

1001
ACAD
1000
Arial
1071
       34
  0
ENDTAB
  0
TABLE
  2
VIEW
  5
6
330
0
100
AcDbSymbolTable
 70
     0
  0
ENDTAB
  0
TABLE
  2
UCS
  5
7
330
0
100
AcDbSymbolTable
 70
     0
  0
ENDTAB
  0
TABLE
  2
APPID
  5
9
330
0
100
AcDbSymbolTable
 70
     8
  0
APPID
  5
12
330
9
100
AcDbSymbolTableRecord
100
AcDbRegAppTableRecord
  2
ACAD
 70
     0
  0
APPID
  5
9E
330
9
100
AcDbSymbolTableRecord
100
AcDbRegAppTableRecord
  2
ACAD_PSEXT
 70
     0
  0
APPID
  5
133
330
9
100
AcDbSymbolTableRecord
100
AcDbRegAppTableRecord
  2
AcadAnnoPO
 70
     0
  0
APPID
  5
134
330
9
100
AcDbSymbolTableRecord
100
AcDbRegAppTableRecord
  2
AcadAnnotative
 70
     0
  0
APPID
  5
135
330
9
100
AcDbSymbolTableRecord
100
AcDbRegAppTableRecord
  2
ACAD_DSTYLE_DIMJAG
 70
     0
  0
APPID
  5
136
330
9
100
AcDbSymbolTableRecord
100
AcDbRegAppTableRecord
  2
ACAD_DSTYLE_DIMTALN
 70
     0
  0
APPID
  5
165
330
9
100
AcDbSymbolTableRecord
100
AcDbRegAppTableRecord
  2
ACAD_MLEADERVER
 70
     0
  0
APPID
  5
217
330
9
100
AcDbSymbolTableRecord
100
AcDbRegAppTableRecord
  2
ACAD_NAV_VCDISPLAY
 70
     0
  0
ENDTAB
  0
TABLE
  2
DIMSTYLE
  5
A
330
0
100
AcDbSymbolTable
 70
     1
100
AcDbDimStyleTable
 71
     0
  0
DIMSTYLE
105
27
330
A
100
AcDbSymbolTableRecord
100
AcDbDimStyleTableRecord
  2
ISO-25
 70
     0
 41
2.5
 42
0.625
 43
3.75
 44
1.25
 73
     0
 74
     0
 77
     1
 78
     8
140
2.5
141
2.5
143
0.03937007874016
147
0.625
171
     3
172
     1
271
     2
272
     2
274
     3
278
    44
283
     0
284
     8
340
11
  0
ENDTAB
  0
TABLE
  2
BLOCK_RECORD
  5
1
330
0
100
AcDbSymbolTable
 70
     7
  0
BLOCK_RECORD
  5
1F
102
{ACAD_XDICTIONARY
360
1CE
102
}
330
1
100
AcDbSymbolTableRecord
100
AcDbBlockTableRecord
  2
*Model_Space
340
22
  0
BLOCK_RECORD
  5
D2
102
{ACAD_XDICTIONARY
360
625F
102
}
330
1
100
AcDbSymbolTableRecord
100
AcDbBlockTableRecord
  2
*Paper_Space
340
D3
  0
BLOCK_RECORD
  5
D6
102
{ACAD_XDICTIONARY
360
6261
102
}
330
1
100
AcDbSymbolTableRecord
100
AcDbBlockTableRecord
  2
*Paper_Space0
340
D7
  0
BLOCK_RECORD
  5
6063
330
1
100
AcDbSymbolTableRecord
100
AcDbBlockTableRecord
  2
ZS38N-Front
340
0
102
{BLKREFS
331
6255
102
}
  0
BLOCK_RECORD
  5
60B1
330
1
100
AcDbSymbolTableRecord
100
AcDbBlockTableRecord
  2
ZS38N-Left
340
0
102
{BLKREFS
331
6256
102
}
  0
BLOCK_RECORD
  5
60D8
330
1
100
AcDbSymbolTableRecord
100
AcDbBlockTableRecord
  2
ZS38N-Right
340
0
102
{BLKREFS
331
6257
102
}
  0
BLOCK_RECORD
  5
60F6
330
1
100
AcDbSymbolTableRecord
100
AcDbBlockTableRecord
  2
ZS38N-Top
340
0
102
{BLKREFS
331
6258
102
}
  0
BLOCK_RECORD
  5
6144
330
1
100
AcDbSymbolTableRecord
100
AcDbBlockTableRecord
  2
ZS38N-Bottom
340
0
102
{BLKREFS
331
6259
102
}
  0
BLOCK_RECORD
  5
61A9
330
1
100
AcDbSymbolTableRecord
100
AcDbBlockTableRecord
  2
ZS38N-ISO
340
0
102
{BLKREFS
331
625A
102
}
  0
ENDTAB
  0
ENDSEC
  0
SECTION
  2
BLOCKS
  0
BLOCK
  5
20
330
1F
100
AcDbEntity
  8
0
100
AcDbBlockBegin
  2
*Model_Space
 70
     0
 10
0.0
 20
0.0
 30
0.0
  3
*Model_Space
  1

  0
ENDBLK
  5
21
330
1F
100
AcDbEntity
  8
0
100
AcDbBlockEnd
  0
BLOCK
  5
D4
330
D2
100
AcDbEntity
 67
     1
  8
0
100
AcDbBlockBegin
  2
*Paper_Space
 70
     0
 10
0.0
 20
0.0
 30
0.0
  3
*Paper_Space
  1

  0
ENDBLK
  5
D5
330
D2
100
AcDbEntity
 67
     1
  8
0
100
AcDbBlockEnd
  0
BLOCK
  5
D8
330
D6
100
AcDbEntity
 67
     1
  8
0
100
AcDbBlockBegin
  2
*Paper_Space0
 70
     0
 10
0.0
 20
0.0
 30
0.0
  3
*Paper_Space0
  1

  0
ENDBLK
  5
D9
330
D6
100
AcDbEntity
 67
     1
  8
0
100
AcDbBlockEnd
  0
BLOCK
  5
6064
330
6063
100
AcDbEntity
  8
0
100
AcDbBlockBegin
  2
ZS38N-Front
 70
     0
 10
0.0
 20
0.0
 30
0.0
  3
ZS38N-Front
  1

  0
LINE
  5
6066
330
6063
100
AcDbEntity
  8
0
100
AcDbLine
 10
-2.77669395088385
 20
-15.809375
 30
0.0
 11
-0.6874076642538896
 21
-12.19062499999999
 31
0.0
  0
ARC
  5
6067
330
6063
100
AcDbEntity
  8
0
100
AcDbCircle
 10
-2.089286286629956
 20
-16.20625
 30
0.0
 40
0.79375
100
AcDbArc
 50
149.9999999999999
 51
270.0
  0
LINE
  5
6068
330
6063
100
AcDbEntity
  8
0
100
AcDbLine
 10
2.089286286629969
 20
-17.0
 30
0.0
 11
-2.089286286629956
 21
-17.0
 31
0.0
  0
ARC
  5
6069
330
6063
100
AcDbEntity
  8
0
100
AcDbCircle
 10
2.089286286629969
 20
-16.20625
 30
0.0
 40
0.79375
100
AcDbArc
 50
269.9999999999999
 51
29.99999999999973
  0
LINE
  5
606A
330
6063
100
AcDbEntity
  8
0
100
AcDbLine
 10
0.6874076642539074
 20
-12.19062499999999
 30
0.0
 11
2.776693950883863
 21
-15.80937500000001
 31
0.0
  0
ARC
  5
606B
330
6063
100
AcDbEntity
  8
0
100
AcDbCircle
 10
0.0000000000000089
 20
-12.5875
 30
0.0
 40
0.79375
100
AcDbArc
 50
30.00000000000009
 51
149.9999999999997
  0
SPLINE
  5
606C
330
6063
100
AcDbEntity
  8
0
100
AcDbSpline
210
0.0
220
0.0
230
1.0
 70
     8
 71
     3
 72
    11
 73
     7
 74
     0
 42
0.000000001
 43
0.0000000001
 40
0.0
 40
0.0
 40
0.0
 40
0.0
 40
1.166126791552483
 40
1.166126791552483
 40
1.166126791552483
 40
1.570796326794897
 40
1.570796326794897
 40
1.570796326794897
 40
1.570796326794897
 10
5.116534538020548
 20
-38.9
 30
0.0
 10
5.107809040875947
 20
-38.9
 30
0.0
 10
5.099083543731347
 20
-38.45185204117433
 30
0.0
 10
5.090358046586747
 20
-37.80868701423916
 30
0.0
 10
5.087330122951133
 20
-37.58549576743869
 30
0.0
 10
5.084302199315518
 20
-37.34280172114546
 30
0.0
 10
5.081274275679906
 20
-37.10000000000001
 30
0.0
  0
LINE
  5
606D
330
6063
100
AcDbEntity
  8
0
100
AcDbLine
 10
5.116534538020548
 20
-38.9
 30
0.0
 11
5.116534538020548
 21
-38.00000000000001
 31
0.0
  0
SPLINE
  5
606E
330
6063
100
AcDbEntity
  8
0
100
AcDbSpline
210
0.0
220
0.0
230
1.0
 70
     8
 71
     3
 72
    11
 73
     7
 74
     0
 42
0.000000001
 43
0.0000000001
 40
0.0
 40
0.0
 40
0.0
 40
0.0
 40
1.386766277509507
 40
1.386766277509507
 40
1.386766277509507
 40
1.570796326794875
 40
1.570796326794875
 40
1.570796326794875
 40
1.570796326794875
 10
5.081274275679906
 20
-37.10000000000001
 30
0.0
 10
5.0916506989662
 20
-37.51602988325287
 30
0.0
 10
5.102027122252494
 20
-37.90867221041035
 30
0.0
 10
5.112403545538789
 20
-37.98480278656872
 30
0.0
 10
5.113780543032708
 20
-37.99490565242994
 30
0.0
 10
5.115157540526629
 20
-38.00000000000001
 30
0.0
 10
5.116534538020548
 20
-38.00000000000001
 30
0.0
  0
LINE
  5
606F
330
6063
100
AcDbEntity
  8
0
100
AcDbLine
 10
6.0
 20
-38.90000000000001
 30
0.0
 11
5.116534538020548
 21
-38.9
 31
0.0
  0
LINE
  5
6070
330
6063
100
AcDbEntity
  8
0
100
AcDbLine
 10
6.0
 20
-38.00000000000002
 30
0.0
 11
6.0
 21
-38.90000000000001
 31
0.0
  0
LINE
  5
6071
330
6063
100
AcDbEntity
  8
0
100
AcDbLine
 10
5.116534538020548
 20
-38.00000000000001
 30
0.0
 11
6.0
 21
-38.00000000000002
 31
0.0
  0
SPLINE
  5
6072
330
6063
100
AcDbEntity
  8
0
100
AcDbSpline
210
0.0
220
0.0
230
1.0
 70
     8
 71
     3
 72
    11
 73
     7
 74
     0
 42
0.000000001
 43
0.0000000001
 40
0.0
 40
0.0
 40
0.0
 40
0.0
 40
1.386766277509508
 40
1.386766277509508
 40
1.386766277509508
 40
1.570796326794888
 40
1.570796326794888
 40
1.570796326794888
 40
1.570796326794888
 10
-5.116534538020555
 20
-38.00000000000001
 30
0.0
 10
-5.106158114734261
 20
-38.00000000000001
 30
0.0
 10
-5.095781691447966
 20
-37.67369863157362
 30
0.0
 10
-5.085405268161672
 20
-37.26469374268698
 30
0.0
 10
-5.084028270667753
 20
-37.21041697588029
 30
0.0
 10
-5.082651273173832
 20
-37.15520901478563
 30
0.0
 10
-5.081274275679913
 20
-37.10000000000002
 30
0.0
  0
LINE
  5
6073
330
6063
100
AcDbEntity
  8
0
100
AcDbLine
 10
-5.116534538020555
 20
-38.00000000000001
 30
0.0
 11
-5.116534538020555
 21
-38.9
 31
0.0
  0
SPLINE
  5
6074
330
6063
100
AcDbEntity
  8
0
100
AcDbSpline
210
0.0
220
0.0
230
1.0
 70
     8
 71
     3
 72
    11
 73
     7
 74
     0
 42
0.000000001
 43
0.0000000001
 40
0.0
 40
0.0
 40
0.0
 40
0.0
 40
1.166126791552483
 40
1.166126791552483
 40
1.166126791552483
 40
1.570796326794888
 40
1.570796326794888
 40
1.570796326794888
 40
1.570796326794888
 10
-5.081274275679913
 20
-37.1
 30
0.0
 10
-5.089999772824514
 20
-37.79967607493149
 30
0.0
 10
-5.098725269969114
 20
-38.4791456299479
 30
0.0
 10
-5.107450767113714
 20
-38.75461860132443
 30
0.0
 10
-5.110478690749328
 20
-38.85021328288593
 30
0.0
 10
-5.113506614384943
 20
-38.9
 30
0.0
 10
-5.116534538020555
 20
-38.9
 30
0.0
  0
LINE
  5
6075
330
6063
100
AcDbEntity
  8
0
100
AcDbLine
 10
-6.0
 20
-38.00000000000004
 30
0.0
 11
-5.116534538020555
 21
-38.00000000000001
 31
0.0
  0
LINE
  5
6076
330
6063
100
AcDbEntity
  8
0
100
AcDbLine
 10
-6.0
 20
-38.90000000000004
 30
0.0
 11
-6.0
 21
-38.00000000000004
 31
0.0
  0
LINE
  5
6077
330
6063
100
AcDbEntity
  8
0
100
AcDbLine
 10
-5.116534538020555
 20
-38.9
 30
0.0
 11
-6.0
 21
-38.90000000000004
 31
0.0
  0
LINE
  5
6078
330
6063
100
AcDbEntity
  8
0
100
AcDbLine
 10
4.999040950308777
 20
-32.90207361368918
 30
0.0
 11
5.081274275679904
 21
-37.10000000000001
 31
0.0
  0
ARC
  5
6079
330
6063
100
AcDbEntity
  8
0
100
AcDbCircle
 10
-0.0000000000000089
 20
-33.00000000000001
 30
0.0
 40
5.0
100
AcDbArc
 50
1.122225479966293
 51
178.8777745200333
  0
LINE
  5
607A
330
6063
100
AcDbEntity
  8
0
100
AcDbLine
 10
-5.081274275679913
 20
-37.10000000000001
 30
0.0
 11
-4.999040950308786
 21
-32.90207361368918
 31
0.0
  0
LINE
  5
607B
330
6063
100
AcDbEntity
  8
0
100
AcDbLine
 10
19.4
 20
-37.10000000000002
 30
0.0
 11
18.5
 21
-37.10000000000002
 31
0.0
  0
LINE
  5
607C
330
6063
100
AcDbEntity
  8
0
100
AcDbLine
 10
19.4
 20
-37.10000000000001
 30
0.0
 11
19.40000000000001
 21
-11.4
 31
0.0
  0
LINE
  5
607D
330
6063
100
AcDbEntity
  8
0
100
AcDbLine
 10
18.50000000000001
 20
-11.4
 30
0.0
 11
19.40000000000001
 21
-11.4
 31
0.0
  0
LINE
  5
607E
330
6063
100
AcDbEntity
  8
0
100
AcDbLine
 10
18.50000000000001
 20
-11.4
 30
0.0
 11
18.5
 21
-37.10000000000001
 31
0.0
  0
LINE
  5
607F
330
6063
100
AcDbEntity
  8
0
100
AcDbLine
 10
23.5
 20
-37.10000000000002
 30
0.0
 11
22.6
 21
-37.10000000000002
 31
0.0
  0
LINE
  5
6080
330
6063
100
AcDbEntity
  8
0
100
AcDbLine
 10
22.6
 20
-37.10000000000001
 30
0.0
 11
22.6
 21
-38.00000000000002
 31
0.0
  0
LINE
  5
6081
330
6063
100
AcDbEntity
  8
0
100
AcDbLine
 10
23.5
 20
-38.00000000000001
 30
0.0
 11
23.5
 21
-37.10000000000001
 31
0.0
  0
LINE
  5
6082
330
6063
100
AcDbEntity
  8
0
100
AcDbLine
 10
22.6
 20
-11.4
 30
0.0
 11
22.6
 21
-37.10000000000001
 31
0.0
  0
ARC
  5
6083
330
6063
100
AcDbEntity
  8
0
100
AcDbCircle
 10
21.0
 20
-11.4
 30
0.0
 40
1.599999999999995
100
AcDbArc
 50
0.0
 51
180.0
  0
LINE
  5
6084
330
6063
100
AcDbEntity
  8
0
100
AcDbLine
 10
18.5
 20
-37.10000000000001
 30
0.0
 11
18.5
 21
-38.00000000000001
 31
0.0
  0
LINE
  5
6085
330
6063
100
AcDbEntity
  8
0
100
AcDbLine
 10
19.4
 20
-38.00000000000002
 30
0.0
 11
19.4
 21
-37.1
 31
0.0
  0
ARC
  5
6086
330
6063
100
AcDbEntity
  8
0
100
AcDbCircle
 10
21.0
 20
-11.4
 30
0.0
 40
2.499999999999995
100
AcDbArc
 50
0.0
 51
180.0
  0
LINE
  5
6087
330
6063
100
AcDbEntity
  8
0
100
AcDbLine
 10
23.5
 20
-37.10000000000001
 30
0.0
 11
23.5
 21
-11.4
 31
0.0
  0
LINE
  5
6088
330
6063
100
AcDbEntity
  8
0
100
AcDbLine
 10
23.5
 20
-11.4
 30
0.0
 11
22.6
 21
-11.4
 31
0.0
  0
LINE
  5
6089
330
6063
100
AcDbEntity
  8
0
100
AcDbLine
 10
19.4
 20
-37.10000000000001
 30
0.0
 11
22.6
 21
-37.10000000000001
 31
0.0
  0
ARC
  5
608A
330
6063
100
AcDbEntity
  8
0
100
AcDbCircle
 10
19.4
 20
-38.9
 30
0.0
 40
0.9000000000000142
100
AcDbArc
 50
180.0
 51
270.0000000000002
  0
LINE
  5
608B
330
6063
100
AcDbEntity
  8
0
100
AcDbLine
 10
22.6
 20
-39.80000000000001
 30
0.0
 11
19.4
 21
-39.80000000000001
 31
0.0
  0
ARC
  5
608C
330
6063
100
AcDbEntity
  8
0
100
AcDbCircle
 10
22.6
 20
-38.9
 30
0.0
 40
0.9000000000000028
100
AcDbArc
 50
270.0
 51
0.0
  0
LINE
  5
608D
330
6063
100
AcDbEntity
  8
0
100
AcDbLine
 10
-22.6
 20
-37.10000000000001
 30
0.0
 11
-19.4
 21
-37.10000000000001
 31
0.0
  0
LINE
  5
608E
330
6063
100
AcDbEntity
  8
0
100
AcDbLine
 10
-22.6
 20
-38.00000000000004
 30
0.0
 11
-22.6
 21
-37.10000000000001
 31
0.0
  0
LINE
  5
608F
330
6063
100
AcDbEntity
  8
0
100
AcDbLine
 10
-19.4
 20
-37.10000000000001
 30
0.0
 11
-19.4
 21
-38.00000000000004
 31
0.0
  0
ARC
  5
6090
330
6063
100
AcDbEntity
  8
0
100
AcDbCircle
 10
-22.6
 20
-38.90000000000001
 30
0.0
 40
0.9000000000000119
100
AcDbArc
 50
180.0
 51
270.0
  0
LINE
  5
6091
330
6063
100
AcDbEntity
  8
0
100
AcDbLine
 10
-18.5
 20
-38.00000000000001
 30
0.0
 11
-18.5
 21
-37.10000000000001
 31
0.0
  0
ARC
  5
6092
330
6063
100
AcDbEntity
  8
0
100
AcDbCircle
 10
-19.4
 20
-38.90000000000001
 30
0.0
 40
0.9000000000000028
100
AcDbArc
 50
270.0
 51
0.0
  0
LINE
  5
6093
330
6063
100
AcDbEntity
  8
0
100
AcDbLine
 10
-19.4
 20
-39.80000000000002
 30
0.0
 11
-22.6
 21
-39.80000000000002
 31
0.0
  0
LINE
  5
6094
330
6063
100
AcDbEntity
  8
0
100
AcDbLine
 10
-23.5
 20
-37.10000000000001
 30
0.0
 11
-22.6
 21
-37.10000000000001
 31
0.0
  0
LINE
  5
6095
330
6063
100
AcDbEntity
  8
0
100
AcDbLine
 10
-23.5
 20
-37.10000000000001
 30
0.0
 11
-23.5
 21
-38.00000000000001
 31
0.0
  0
LINE
  5
6096
330
6063
100
AcDbEntity
  8
0
100
AcDbLine
 10
-23.49999999999999
 20
-11.4
 30
0.0
 11
-22.59999999999999
 21
-11.4
 31
0.0
  0
LINE
  5
6097
330
6063
100
AcDbEntity
  8
0
100
AcDbLine
 10
-23.49999999999999
 20
-11.4
 30
0.0
 11
-23.5
 21
-37.10000000000001
 31
0.0
  0
LINE
  5
6098
330
6063
100
AcDbEntity
  8
0
100
AcDbLine
 10
-22.6
 20
-37.10000000000001
 30
0.0
 11
-22.59999999999999
 21
-11.4
 31
0.0
  0
ARC
  5
6099
330
6063
100
AcDbEntity
  8
0
100
AcDbCircle
 10
-21.0
 20
-11.4
 30
0.0
 40
1.599999999999995
100
AcDbArc
 50
0.0
 51
180.0
  0
LINE
  5
609A
330
6063
100
AcDbEntity
  8
0
100
AcDbLine
 10
-18.50000000000001
 20
-11.4
 30
0.0
 11
-19.4
 21
-11.4
 31
0.0
  0
ARC
  5
609B
330
6063
100
AcDbEntity
  8
0
100
AcDbCircle
 10
-21.0
 20
-11.4
 30
0.0
 40
2.499999999999995
100
AcDbArc
 50
0.0
 51
180.0
  0
LINE
  5
609C
330
6063
100
AcDbEntity
  8
0
100
AcDbLine
 10
-19.4
 20
-11.4
 30
0.0
 11
-19.4
 21
-37.10000000000001
 31
0.0
  0
LINE
  5
609D
330
6063
100
AcDbEntity
  8
0
100
AcDbLine
 10
-18.5
 20
-37.10000000000001
 30
0.0
 11
-19.4
 21
-37.10000000000001
 31
0.0
  0
LINE
  5
609E
330
6063
100
AcDbEntity
  8
0
100
AcDbLine
 10
-18.5
 20
-37.10000000000001
 30
0.0
 11
-18.50000000000001
 21
-11.4
 31
0.0
  0
LINE
  5
609F
330
6063
100
AcDbEntity
  8
0
100
AcDbLine
 10
-18.5
 20
-37.10000000000001
 30
0.0
 11
-5.081274275679912
 21
-37.10000000000001
 31
0.0
  0
LINE
  5
60A0
330
6063
100
AcDbEntity
  8
0
100
AcDbLine
 10
5.081274275679904
 20
-37.10000000000001
 30
0.0
 11
18.5
 21
-37.10000000000001
 31
0.0
  0
LINE
  5
60A1
330
6063
100
AcDbEntity
  8
0
100
AcDbLine
 10
-26.0
 20
-37.10000000000001
 30
0.0
 11
-23.5
 21
-37.10000000000001
 31
0.0
  0
LINE
  5
60A2
330
6063
100
AcDbEntity
  8
0
100
AcDbLine
 10
-26.0
 20
-38.00000000000001
 30
0.0
 11
-26.0
 21
-37.10000000000001
 31
0.0
  0
LINE
  5
60A3
330
6063
100
AcDbEntity
  8
0
100
AcDbLine
 10
23.5
 20
-37.10000000000001
 30
0.0
 11
26.0
 21
-37.10000000000001
 31
0.0
  0
LINE
  5
60A4
330
6063
100
AcDbEntity
  8
0
100
AcDbLine
 10
-26.0
 20
-0.9000000000000074
 30
0.0
 11
26.0
 21
-0.9000000000000074
 31
0.0
  0
LINE
  5
60A5
330
6063
100
AcDbEntity
  8
0
100
AcDbLine
 10
-26.0
 20
0.8999999999999985
 30
0.0
 11
26.0
 21
0.8999999999999985
 31
0.0
  0
LINE
  5
60A6
330
6063
100
AcDbEntity
  8
0
100
AcDbLine
 10
26.0
 20
-0.900000000000009
 30
0.0
 11
26.0
 21
0.8999999999999941
 31
0.0
  0
LINE
  5
60A7
330
6063
100
AcDbEntity
  8
0
100
AcDbLine
 10
-26.0
 20
0.8999999999999936
 30
0.0
 11
-26.0
 21
-0.900000000000009
 31
0.0
  0
LINE
  5
60A8
330
6063
100
AcDbEntity
  8
0
100
AcDbLine
 10
26.0
 20
-37.10000000000001
 30
0.0
 11
26.0
 21
-38.00000000000001
 31
0.0
  0
LINE
  5
60A9
330
6063
100
AcDbEntity
  8
0
100
AcDbLine
 10
-6.0
 20
-38.00000000000004
 30
0.0
 11
-26.0
 21
-38.00000000000004
 31
0.0
  0
LINE
  5
60AA
330
6063
100
AcDbEntity
  8
0
100
AcDbLine
 10
26.0
 20
-38.00000000000002
 30
0.0
 11
6.0
 21
-38.00000000000002
 31
0.0
  0
LINE
  5
60AB
330
6063
100
AcDbEntity
  8
0
100
AcDbLine
 10
-26.0
 20
-38.90000000000004
 30
0.0
 11
-26.0
 21
-38.00000000000004
 31
0.0
  0
LINE
  5
60AC
330
6063
100
AcDbEntity
  8
0
100
AcDbLine
 10
-26.0
 20
-38.90000000000004
 30
0.0
 11
-6.0
 21
-38.90000000000004
 31
0.0
  0
LINE
  5
60AD
330
6063
100
AcDbEntity
  8
0
100
AcDbLine
 10
6.0
 20
-38.90000000000001
 30
0.0
 11
26.0
 21
-38.90000000000001
 31
0.0
  0
LINE
  5
60AE
330
6063
100
AcDbEntity
  8
0
100
AcDbLine
 10
26.0
 20
-38.90000000000001
 30
0.0
 11
26.0
 21
-38.00000000000002
 31
0.0
  0
LINE
  5
60AF
330
6063
100
AcDbEntity
  8
0
100
AcDbLine
 10
26.0
 20
-0.9000000000000074
 30
0.0
 11
26.0
 21
-37.10000000000001
 31
0.0
  0
LINE
  5
60B0
330
6063
100
AcDbEntity
  8
0
100
AcDbLine
 10
-26.0
 20
-37.10000000000001
 30
0.0
 11
-26.0
 21
-0.9000000000000074
 31
0.0
  0
ENDBLK
  5
6065
330
6063
100
AcDbEntity
  8
0
100
AcDbBlockEnd
  0
BLOCK
  5
60B2
330
60B1
100
AcDbEntity
  8
0
100
AcDbBlockBegin
  2
ZS38N-Left
 70
     0
 10
0.0
 20
0.0
 30
0.0
  3
ZS38N-Left
  1

  0
LINE
  5
60B4
330
60B1
100
AcDbEntity
  8
0
100
AcDbLine
 10
0.8999999999999998
 20
-37.1
 30
0.0
 11
0.0
 21
-37.1
 31
0.0
  0
ARC
  5
60B5
330
60B1
100
AcDbEntity
  8
0
100
AcDbCircle
 10
2.699999999999999
 20
-37.10000000000001
 30
0.0
 40
2.699999999999999
100
AcDbArc
 50
180.0
 51
270.0
  0
LINE
  5
60B6
330
60B1
100
AcDbEntity
  8
0
100
AcDbLine
 10
2.699999999999991
 20
-38.9
 30
0.0
 11
2.69999999999999
 21
-39.8
 31
0.0
  0
LINE
  5
60B7
330
60B1
100
AcDbEntity
  8
0
100
AcDbLine
 10
0.0
 20
-11.4
 30
0.0
 11
0.0
 21
-37.10000000000001
 31
0.0
  0
LINE
  5
60B8
330
60B1
100
AcDbEntity
  8
0
100
AcDbLine
 10
0.0
 20
-11.4
 30
0.0
 11
0.0
 21
-9.800000000000011
 31
0.0
  0
LINE
  5
60B9
330
60B1
100
AcDbEntity
  8
0
100
AcDbLine
 10
2.699999999999997
 20
-39.80000000000001
 30
0.0
 11
15.3
 21
-39.80000000000002
 31
0.0
  0
LINE
  5
60BA
330
60B1
100
AcDbEntity
  8
0
100
AcDbLine
 10
15.3
 20
-39.80000000000003
 30
0.0
 11
15.3
 21
-38.90000000000002
 31
0.0
  0
LINE
  5
60BB
330
60B1
100
AcDbEntity
  8
0
100
AcDbLine
 10
16.9
 20
-39.80000000000002
 30
0.0
 11
15.3
 21
-39.80000000000002
 31
0.0
  0
LINE
  5
60BC
330
60B1
100
AcDbEntity
  8
0
100
AcDbLine
 10
0.0
 20
-11.4
 30
0.0
 11
0.8999999999999969
 21
-11.4
 31
0.0
  0
ARC
  5
60BD
330
60B1
100
AcDbEntity
  8
0
100
AcDbCircle
 10
16.9
 20
-38.90000000000001
 30
0.0
 40
0.9000000000000001
100
AcDbArc
 50
269.9999999999998
 51
0.0
  0
ARC
  5
60BE
330
60B1
100
AcDbEntity
  8
0
100
AcDbCircle
 10
0.8999999999999936
 20
-9.800000000000011
 30
0.0
 40
0.9000000000000001
100
AcDbArc
 50
89.99999999999996
 51
180.0
  0
LINE
  5
60BF
330
60B1
100
AcDbEntity
  8
0
100
AcDbLine
 10
0.8999999999999992
 20
-37.10000000000001
 30
0.0
 11
0.9000000000000095
 21
-0.9000000000000074
 31
0.0
  0
LINE
  5
60C0
330
60B1
100
AcDbEntity
  8
0
100
AcDbLine
 10
47.8
 20
-38.00000000000004
 30
0.0
 11
2.699999999999995
 21
-38.00000000000001
 31
0.0
  0
LINE
  5
60C1
330
60B1
100
AcDbEntity
  8
0
100
AcDbLine
 10
47.8
 20
-38.90000000000004
 30
0.0
 11
47.8
 21
-38.00000000000004
 31
0.0
  0
LINE
  5
60C2
330
60B1
100
AcDbEntity
  8
0
100
AcDbLine
 10
47.8
 20
-38.90000000000004
 30
0.0
 11
2.699999999999995
 21
-38.9
 31
0.0
  0
LINE
  5
60C3
330
60B1
100
AcDbEntity
  8
0
100
AcDbLine
 10
1.8
 20
-37.10000000000001
 30
0.0
 11
1.800000000000011
 21
-0.9000000000000074
 31
0.0
  0
LINE
  5
60C4
330
60B1
100
AcDbEntity
  8
0
100
AcDbLine
 10
0.0
 20
0.8999999999999985
 30
0.0
 11
-6.999999999999984
 21
0.900000000000003
 31
0.0
  0
LINE
  5
60C5
330
60B1
100
AcDbEntity
  8
0
100
AcDbLine
 10
0.0
 20
0.0
 30
0.0
 11
-7.000000000000002
 21
0.0
 31
0.0
  0
ARC
  5
60C6
330
60B1
100
AcDbEntity
  8
0
100
AcDbCircle
 10
2.699999999999999
 20
-37.10000000000001
 30
0.0
 40
0.8999999999999987
100
AcDbArc
 50
180.0
 51
269.9999999999999
  0
ARC
  5
60C7
330
60B1
100
AcDbEntity
  8
0
100
AcDbCircle
 10
2.699999999999999
 20
-37.10000000000001
 30
0.0
 40
1.799999999999999
100
AcDbArc
 50
180.0
 51
269.9999999999999
  0
LINE
  5
60C8
330
60B1
100
AcDbEntity
  8
0
100
AcDbLine
 10
0.0
 20
0.0
 30
0.0
 11
0.0
 21
0.8999999999999985
 31
0.0
  0
ARC
  5
60C9
330
60B1
100
AcDbEntity
  8
0
100
AcDbCircle
 10
0.0000000000000097
 20
-0.9000000000000074
 30
0.0
 40
0.8999999999999998
100
AcDbArc
 50
0.0
 51
90.00000000000017
  0
LINE
  5
60CA
330
60B1
100
AcDbEntity
  8
0
100
AcDbLine
 10
0.9000000000000095
 20
-0.9000000000000074
 30
0.0
 11
1.800000000000011
 21
-0.9000000000000074
 31
0.0
  0
LINE
  5
60CB
330
60B1
100
AcDbEntity
  8
0
100
AcDbLine
 10
0.8999999999999992
 20
-37.10000000000001
 30
0.0
 11
1.8
 21
-37.10000000000001
 31
0.0
  0
ARC
  5
60CC
330
60B1
100
AcDbEntity
  8
0
100
AcDbCircle
 10
0.0000000000000097
 20
-0.9000000000000074
 30
0.0
 40
1.800000000000001
100
AcDbArc
 50
0.0
 51
90.00000000000007
  0
LINE
  5
60CD
330
60B1
100
AcDbEntity
  8
0
100
AcDbLine
 10
2.699999999999997
 20
-38.9
 30
0.0
 11
2.699999999999998
 21
-38.00000000000001
 31
0.0
  0
LINE
  5
60CE
330
60B1
100
AcDbEntity
  8
0
100
AcDbLine
 10
-11.49702733935563
 20
0.0
 30
0.0
 11
-26.35247721720364
 21
0.0
 31
0.0
  0
LINE
  5
60CF
330
60B1
100
AcDbEntity
  8
0
100
AcDbLine
 10
-11.49702733935562
 20
0.900000000000003
 30
0.0
 11
-11.49702733935563
 21
0.0
 31
0.0
  0
LINE
  5
60D0
330
60B1
100
AcDbEntity
  8
0
100
AcDbLine
 10
-26.35247721720364
 20
0.9000000000000119
 30
0.0
 11
-11.49702733935562
 21
0.900000000000003
 31
0.0
  0
LINE
  5
60D1
330
60B1
100
AcDbEntity
  8
0
100
AcDbLine
 10
-26.35247721720364
 20
0.9000000000000119
 30
0.0
 11
-26.35247721720364
 21
0.0
 31
0.0
  0
LINE
  5
60D2
330
60B1
100
AcDbEntity
  8
0
100
AcDbLine
 10
-30.10000000000001
 20
0.0
 30
0.0
 11
-26.35247721720364
 21
0.0
 31
0.0
  0
LINE
  5
60D3
330
60B1
100
AcDbEntity
  8
0
100
AcDbLine
 10
-26.35247721720364
 20
0.900000000000017
 30
0.0
 11
-30.09999999999999
 21
0.9000000000000191
 31
0.0
  0
LINE
  5
60D4
330
60B1
100
AcDbEntity
  8
0
100
AcDbLine
 10
-6.999999999999984
 20
0.900000000000003
 30
0.0
 11
-7.000000000000002
 21
0.0
 31
0.0
  0
LINE
  5
60D5
330
60B1
100
AcDbEntity
  8
0
100
AcDbLine
 10
-7.0
 20
0.0
 30
0.0
 11
-11.49702733935563
 21
0.0
 31
0.0
  0
LINE
  5
60D6
330
60B1
100
AcDbEntity
  8
0
100
AcDbLine
 10
-11.49702733935562
 20
0.9000000000000063
 30
0.0
 11
-7.0
 21
0.900000000000004
 31
0.0
  0
LINE
  5
60D7
330
60B1
100
AcDbEntity
  8
0
100
AcDbLine
 10
-30.09999999999999
 20
0.9000000000000191
 30
0.0
 11
-30.09999999999999
 21
0.0
 31
0.0
  0
ENDBLK
  5
60B3
330
60B1
100
AcDbEntity
  8
0
100
AcDbBlockEnd
  0
BLOCK
  5
60D9
330
60D8
100
AcDbEntity
  8
0
100
AcDbBlockBegin
  2
ZS38N-Right
 70
     0
 10
0.0
 20
0.0
 30
0.0
  3
ZS38N-Right
  1

  0
ARC
  5
60DB
330
60D8
100
AcDbEntity
  8
0
100
AcDbCircle
 10
-2.699999999999999
 20
-37.10000000000001
 30
0.0
 40
2.699999999999999
100
AcDbArc
 50
270.0000000000001
 51
0.0
  0
LINE
  5
60DC
330
60D8
100
AcDbEntity
  8
0
100
AcDbLine
 10
0.0
 20
-37.10000000000001
 30
0.0
 11
-0.9
 21
-37.10000000000001
 31
0.0
  0
LINE
  5
60DD
330
60D8
100
AcDbEntity
  8
0
100
AcDbLine
 10
-2.699999999999996
 20
-39.8
 30
0.0
 11
-2.699999999999998
 21
-38.9
 31
0.0
  0
LINE
  5
60DE
330
60D8
100
AcDbEntity
  8
0
100
AcDbLine
 10
-15.3
 20
-39.80000000000001
 30
0.0
 11
-2.699999999999997
 21
-39.80000000000001
 31
0.0
  0
LINE
  5
60DF
330
60D8
100
AcDbEntity
  8
0
100
AcDbLine
 10
-15.3
 20
-39.80000000000001
 30
0.0
 11
-16.9
 21
-39.80000000000001
 31
0.0
  0
LINE
  5
60E0
330
60D8
100
AcDbEntity
  8
0
100
AcDbLine
 10
-15.3
 20
-38.90000000000001
 30
0.0
 11
-15.3
 21
-39.80000000000001
 31
0.0
  0
LINE
  5
60E1
330
60D8
100
AcDbEntity
  8
0
100
AcDbLine
 10
0.0
 20
-11.4
 30
0.0
 11
-0.8999999999999968
 21
-11.4
 31
0.0
  0
LINE
  5
60E2
330
60D8
100
AcDbEntity
  8
0
100
AcDbLine
 10
0.0
 20
-9.800000000000011
 30
0.0
 11
0.0
 21
-11.4
 31
0.0
  0
LINE
  5
60E3
330
60D8
100
AcDbEntity
  8
0
100
AcDbLine
 10
0.0
 20
-37.10000000000001
 30
0.0
 11
0.0
 21
-11.4
 31
0.0
  0
ARC
  5
60E4
330
60D8
100
AcDbEntity
  8
0
100
AcDbCircle
 10
-16.9
 20
-38.9
 30
0.0
 40
0.9000000000000001
100
AcDbArc
 50
180.0
 51
270.0
  0
ARC
  5
60E5
330
60D8
100
AcDbEntity
  8
0
100
AcDbCircle
 10
-0.8999999999999936
 20
-9.800000000000011
 30
0.0
 40
0.9000000000000001
100
AcDbArc
 50
0.0
 51
90.00000000000005
  0
LINE
  5
60E6
330
60D8
100
AcDbEntity
  8
0
100
AcDbLine
 10
-0.8999999999999992
 20
-37.10000000000001
 30
0.0
 11
-0.9000000000000095
 21
-0.9000000000000074
 31
0.0
  0
LINE
  5
60E7
330
60D8
100
AcDbEntity
  8
0
100
AcDbLine
 10
-2.699999999999997
 20
-38.00000000000001
 30
0.0
 11
-47.8
 21
-38.00000000000002
 31
0.0
  0
LINE
  5
60E8
330
60D8
100
AcDbEntity
  8
0
100
AcDbLine
 10
-47.8
 20
-38.90000000000001
 30
0.0
 11
-47.8
 21
-38.00000000000002
 31
0.0
  0
LINE
  5
60E9
330
60D8
100
AcDbEntity
  8
0
100
AcDbLine
 10
-1.800000000000009
 20
-0.9000000000000074
 30
0.0
 11
-1.799999999999999
 21
-37.10000000000001
 31
0.0
  0
LINE
  5
60EA
330
60D8
100
AcDbEntity
  8
0
100
AcDbLine
 10
-47.8
 20
-38.90000000000001
 30
0.0
 11
-2.699999999999995
 21
-38.9
 31
0.0
  0
LINE
  5
60EB
330
60D8
100
AcDbEntity
  8
0
100
AcDbLine
 10
30.09999999999999
 20
0.9000000000000119
 30
0.0
 11
0.0
 21
0.8999999999999985
 31
0.0
  0
LINE
  5
60EC
330
60D8
100
AcDbEntity
  8
0
100
AcDbLine
 10
0.0
 20
0.0
 30
0.0
 11
30.10000000000001
 21
0.0
 31
0.0
  0
LINE
  5
60ED
330
60D8
100
AcDbEntity
  8
0
100
AcDbLine
 10
30.10000000000001
 20
0.0
 30
0.0
 11
30.09999999999999
 21
0.9000000000000119
 31
0.0
  0
ARC
  5
60EE
330
60D8
100
AcDbEntity
  8
0
100
AcDbCircle
 10
-2.699999999999999
 20
-37.10000000000001
 30
0.0
 40
1.799999999999999
100
AcDbArc
 50
270.0
 51
0.0
  0
ARC
  5
60EF
330
60D8
100
AcDbEntity
  8
0
100
AcDbCircle
 10
-0.0000000000000097
 20
-0.9000000000000074
 30
0.0
 40
0.8999999999999998
100
AcDbArc
 50
89.99999999999984
 51
180.0
  0
LINE
  5
60F0
330
60D8
100
AcDbEntity
  8
0
100
AcDbLine
 10
0.0
 20
0.8999999999999985
 30
0.0
 11
0.0
 21
0.0
 31
0.0
  0
ARC
  5
60F1
330
60D8
100
AcDbEntity
  8
0
100
AcDbCircle
 10
-0.0000000000000097
 20
-0.9000000000000074
 30
0.0
 40
1.800000000000001
100
AcDbArc
 50
89.99999999999994
 51
180.0
  0
LINE
  5
60F2
330
60D8
100
AcDbEntity
  8
0
100
AcDbLine
 10
-1.800000000000009
 20
-0.9000000000000074
 30
0.0
 11
-0.9000000000000095
 21
-0.9000000000000074
 31
0.0
  0
LINE
  5
60F3
330
60D8
100
AcDbEntity
  8
0
100
AcDbLine
 10
-1.799999999999999
 20
-37.10000000000001
 30
0.0
 11
-0.8999999999999992
 21
-37.10000000000001
 31
0.0
  0
ARC
  5
60F4
330
60D8
100
AcDbEntity
  8
0
100
AcDbCircle
 10
-2.699999999999999
 20
-37.10000000000001
 30
0.0
 40
0.9
100
AcDbArc
 50
270.0000000000001
 51
0.0
  0
LINE
  5
60F5
330
60D8
100
AcDbEntity
  8
0
100
AcDbLine
 10
-2.699999999999997
 20
-38.00000000000001
 30
0.0
 11
-2.699999999999997
 21
-38.9
 31
0.0
  0
ENDBLK
  5
60DA
330
60D8
100
AcDbEntity
  8
0
100
AcDbBlockEnd
  0
BLOCK
  5
60F7
330
60F6
100
AcDbEntity
  8
0
100
AcDbBlockBegin
  2
ZS38N-Top
 70
     0
 10
0.0
 20
0.0
 30
0.0
  3
ZS38N-Top
  1

  0
CIRCLE
  5
60F9
330
60F6
100
AcDbEntity
  8
0
100
AcDbCircle
 10
21.0
 20
25.09999999999994
 30
0.0
 40
2.0
  0
CIRCLE
  5
60FA
330
60F6
100
AcDbEntity
  8
0
100
AcDbCircle
 10
-7.000000000000001
 20
25.09999999999994
 30
0.0
 40
2.0
  0
ARC
  5
60FB
330
60F6
100
AcDbEntity
  8
0
100
AcDbCircle
 10
-9.08928628662996
 20
15.68749999999993
 30
0.0
 40
0.7937499999999976
100
AcDbArc
 50
150.0
 51
270.0
  0
LINE
  5
60FC
330
60F6
100
AcDbEntity
  8
0
100
AcDbLine
 10
-4.910713713370038
 20
14.89374999999993
 30
0.0
 11
-9.08928628662996
 21
14.89374999999993
 31
0.0
  0
ARC
  5
60FD
330
60F6
100
AcDbEntity
  8
0
100
AcDbCircle
 10
-4.910713713370038
 20
15.68749999999993
 30
0.0
 40
0.7937500000000002
100
AcDbArc
 50
270.0
 51
30.00000000000005
  0
LINE
  5
60FE
330
60F6
100
AcDbEntity
  8
0
100
AcDbLine
 10
-6.312592335746106
 20
19.70312499999994
 30
0.0
 11
-4.223306049116141
 21
16.08437499999993
 31
0.0
  0
ARC
  5
60FF
330
60F6
100
AcDbEntity
  8
0
100
AcDbCircle
 10
-7.000000000000001
 20
19.30624999999994
 30
0.0
 40
0.7937500000000002
100
AcDbArc
 50
29.99999999999974
 51
150.0000000000003
  0
LINE
  5
6100
330
60F6
100
AcDbEntity
  8
0
100
AcDbLine
 10
-9.776693950883858
 20
16.08437499999993
 30
0.0
 11
-7.687407664253896
 21
19.70312499999994
 31
0.0
  0
SPLINE
  5
6101
330
60F6
100
AcDbEntity
  8
0
100
AcDbSpline
210
0.0
220
0.0
230
1.0
 70
     8
 71
     3
 72
    11
 73
     7
 74
     0
 42
0.000000001
 43
0.0000000001
 40
0.0
 40
0.0
 40
0.0
 40
0.0
 40
1.386766277509507
 40
1.386766277509507
 40
1.386766277509507
 40
1.570796326794875
 40
1.570796326794875
 40
1.570796326794875
 40
1.570796326794875
 10
5.081274275679906
 20
-1.799999999999999
 30
0.0
 10
5.0916506989662
 20
-1.8
 30
0.0
 10
5.102027122252494
 20
-2.126301368426381
 30
0.0
 10
5.112403545538789
 20
-2.535306257313024
 30
0.0
 10
5.113780543032708
 20
-2.589583024119714
 30
0.0
 10
5.115157540526629
 20
-2.64479098521437
 30
0.0
 10
5.116534538020548
 20
-2.69999999999998
 30
0.0
  0
LINE
  5
6102
330
60F6
100
AcDbEntity
  8
0
100
AcDbLine
 10
5.116534538020548
 20
-2.699999999999997
 30
0.0
 11
6.0
 21
-47.8
 31
0.0
  0
SPLINE
  5
6103
330
60F6
100
AcDbEntity
  8
0
100
AcDbSpline
210
0.0
220
0.0
230
1.0
 70
     8
 71
     3
 72
    11
 73
     7
 74
     0
 42
0.000000001
 43
0.0000000001
 40
0.0
 40
0.0
 40
0.0
 40
0.0
 40
1.386766277509508
 40
1.386766277509508
 40
1.386766277509508
 40
1.570796326794888
 40
1.570796326794888
 40
1.570796326794888
 40
1.570796326794888
 10
-5.116534538020555
 20
-2.699999999999994
 30
0.0
 10
-5.106158114734261
 20
-2.283970116747142
 30
0.0
 10
-5.095781691447966
 20
-1.89132778958966
 30
0.0
 10
-5.085405268161672
 20
-1.815197213431287
 30
0.0
 10
-5.084028270667753
 20
-1.805094347570062
 30
0.0
 10
-5.082651273173832
 20
-1.8
 30
0.0
 10
-5.081274275679913
 20
-1.799999999999999
 30
0.0
  0
LINE
  5
6104
330
60F6
100
AcDbEntity
  8
0
100
AcDbLine
 10
-6.0
 20
-47.8
 30
0.0
 11
-5.116534538020555
 21
-2.699999999999995
 31
0.0
  0
LINE
  5
6105
330
60F6
100
AcDbEntity
  8
0
100
AcDbLine
 10
22.6
 20
-1.800000000000011
 30
0.0
 11
22.6
 21
-2.699999999999997
 31
0.0
  0
LINE
  5
6106
330
60F6
100
AcDbEntity
  8
0
100
AcDbLine
 10
23.5
 20
-2.700000000000001
 30
0.0
 11
22.6
 21
-2.699999999999999
 31
0.0
  0
LINE
  5
6107
330
60F6
100
AcDbEntity
  8
0
100
AcDbLine
 10
23.5
 20
-2.699999999999997
 30
0.0
 11
23.5
 21
-1.799999999999999
 31
0.0
  0
LINE
  5
6108
330
60F6
100
AcDbEntity
  8
0
100
AcDbLine
 10
18.5
 20
-1.799999999999999
 30
0.0
 11
18.5
 21
-2.699999999999997
 31
0.0
  0
LINE
  5
6109
330
60F6
100
AcDbEntity
  8
0
100
AcDbLine
 10
19.4
 20
-2.700000000000006
 30
0.0
 11
18.5
 21
-2.700000000000007
 31
0.0
  0
LINE
  5
610A
330
60F6
100
AcDbEntity
  8
0
100
AcDbLine
 10
19.4
 20
-2.699999999999997
 30
0.0
 11
19.4
 21
-1.800000000000011
 31
0.0
  0
LINE
  5
610B
330
60F6
100
AcDbEntity
  8
0
100
AcDbLine
 10
22.6
 20
-2.699999999999997
 30
0.0
 11
22.6
 21
-15.3
 31
0.0
  0
LINE
  5
610C
330
60F6
100
AcDbEntity
  8
0
100
AcDbLine
 10
23.5
 20
-15.30000000000001
 30
0.0
 11
22.6
 21
-15.3
 31
0.0
  0
LINE
  5
610D
330
60F6
100
AcDbEntity
  8
0
100
AcDbLine
 10
23.5
 20
-15.30000000000001
 30
0.0
 11
23.5
 21
-2.699999999999997
 31
0.0
  0
ARC
  5
610E
330
60F6
100
AcDbEntity
  8
0
100
AcDbCircle
 10
21.0
 20
-15.3
 30
0.0
 40
2.499999999999995
100
AcDbArc
 50
180.0
 51
0.0
  0
LINE
  5
610F
330
60F6
100
AcDbEntity
  8
0
100
AcDbLine
 10
18.5
 20
-2.699999999999997
 30
0.0
 11
18.50000000000001
 21
-15.3
 31
0.0
  0
LINE
  5
6110
330
60F6
100
AcDbEntity
  8
0
100
AcDbLine
 10
18.50000000000001
 20
-15.3
 30
0.0
 11
19.39999999999999
 21
-15.3
 31
0.0
  0
LINE
  5
6111
330
60F6
100
AcDbEntity
  8
0
100
AcDbLine
 10
19.39999999999999
 20
-15.3
 30
0.0
 11
19.4
 21
-2.699999999999997
 31
0.0
  0
ARC
  5
6112
330
60F6
100
AcDbEntity
  8
0
100
AcDbCircle
 10
21.0
 20
-15.3
 30
0.0
 40
1.599999999999995
100
AcDbArc
 50
180.0
 51
0.0
  0
LINE
  5
6113
330
60F6
100
AcDbEntity
  8
0
100
AcDbLine
 10
19.4
 20
-2.699999999999997
 30
0.0
 11
22.6
 21
-2.699999999999997
 31
0.0
  0
LINE
  5
6114
330
60F6
100
AcDbEntity
  8
0
100
AcDbLine
 10
-22.6
 20
-2.699999999999997
 30
0.0
 11
-22.6
 21
-1.800000000000012
 31
0.0
  0
LINE
  5
6115
330
60F6
100
AcDbEntity
  8
0
100
AcDbLine
 10
-22.6
 20
-2.699999999999997
 30
0.0
 11
-19.4
 21
-2.699999999999997
 31
0.0
  0
LINE
  5
6116
330
60F6
100
AcDbEntity
  8
0
100
AcDbLine
 10
-19.4
 20
-1.800000000000012
 30
0.0
 11
-19.4
 21
-2.699999999999997
 31
0.0
  0
LINE
  5
6117
330
60F6
100
AcDbEntity
  8
0
100
AcDbLine
 10
-22.60000000000001
 20
-15.3
 30
0.0
 11
-22.6
 21
-2.699999999999997
 31
0.0
  0
ARC
  5
6118
330
60F6
100
AcDbEntity
  8
0
100
AcDbCircle
 10
-21.0
 20
-15.3
 30
0.0
 40
1.599999999999995
100
AcDbArc
 50
180.0
 51
0.0
  0
LINE
  5
6119
330
60F6
100
AcDbEntity
  8
0
100
AcDbLine
 10
-19.4
 20
-2.699999999999997
 30
0.0
 11
-19.4
 21
-15.3
 31
0.0
  0
LINE
  5
611A
330
60F6
100
AcDbEntity
  8
0
100
AcDbLine
 10
-18.5
 20
-2.699999999999997
 30
0.0
 11
-18.5
 21
-1.799999999999999
 31
0.0
  0
LINE
  5
611B
330
60F6
100
AcDbEntity
  8
0
100
AcDbLine
 10
-18.5
 20
-15.3
 30
0.0
 11
-18.5
 21
-2.699999999999997
 31
0.0
  0
ARC
  5
611C
330
60F6
100
AcDbEntity
  8
0
100
AcDbCircle
 10
-21.0
 20
-15.3
 30
0.0
 40
2.499999999999995
100
AcDbArc
 50
180.0
 51
0.0
  0
LINE
  5
611D
330
60F6
100
AcDbEntity
  8
0
100
AcDbLine
 10
-23.5
 20
-2.699999999999998
 30
0.0
 11
-23.5
 21
-15.3
 31
0.0
  0
LINE
  5
611E
330
60F6
100
AcDbEntity
  8
0
100
AcDbLine
 10
-22.6
 20
-2.699999999999997
 30
0.0
 11
-23.5
 21
-2.699999999999998
 31
0.0
  0
LINE
  5
611F
330
60F6
100
AcDbEntity
  8
0
100
AcDbLine
 10
-23.5
 20
-1.799999999999999
 30
0.0
 11
-23.5
 21
-2.699999999999998
 31
0.0
  0
LINE
  5
6120
330
60F6
100
AcDbEntity
  8
0
100
AcDbLine
 10
-18.5
 20
-2.699999999999998
 30
0.0
 11
-19.4
 21
-2.699999999999997
 31
0.0
  0
LINE
  5
6121
330
60F6
100
AcDbEntity
  8
0
100
AcDbLine
 10
-18.5
 20
-15.3
 30
0.0
 11
-19.4
 21
-15.3
 31
0.0
  0
LINE
  5
6122
330
60F6
100
AcDbEntity
  8
0
100
AcDbLine
 10
-23.5
 20
-15.3
 30
0.0
 11
-22.60000000000001
 21
-15.3
 31
0.0
  0
LINE
  5
6123
330
60F6
100
AcDbEntity
  8
0
100
AcDbLine
 10
-18.5
 20
-2.699999999999998
 30
0.0
 11
-5.116534538020555
 21
-2.699999999999998
 31
0.0
  0
LINE
  5
6124
330
60F6
100
AcDbEntity
  8
0
100
AcDbLine
 10
5.116534538020548
 20
-2.699999999999997
 30
0.0
 11
18.5
 21
-2.699999999999997
 31
0.0
  0
LINE
  5
6125
330
60F6
100
AcDbEntity
  8
0
100
AcDbLine
 10
-26.0
 20
-2.699999999999998
 30
0.0
 11
-23.5
 21
-2.699999999999998
 31
0.0
  0
LINE
  5
6126
330
60F6
100
AcDbEntity
  8
0
100
AcDbLine
 10
23.5
 20
-2.699999999999997
 30
0.0
 11
26.0
 21
-2.699999999999997
 31
0.0
  0
LINE
  5
6127
330
60F6
100
AcDbEntity
  8
0
100
AcDbLine
 10
-26.0
 20
-2.699999999999997
 30
0.0
 11
-26.0
 21
-1.8
 31
0.0
  0
LINE
  5
6128
330
60F6
100
AcDbEntity
  8
0
100
AcDbLine
 10
-26.0
 20
-1.800000000000011
 30
0.0
 11
26.0
 21
-1.800000000000009
 31
0.0
  0
LINE
  5
6129
330
60F6
100
AcDbEntity
  8
0
100
AcDbLine
 10
-26.0
 20
0.0
 30
0.0
 11
26.0
 21
0.0
 31
0.0
  0
LINE
  5
612A
330
60F6
100
AcDbEntity
  8
0
100
AcDbLine
 10
26.0
 20
-1.800000000000011
 30
0.0
 11
26.0
 21
0.0
 31
0.0
  0
LINE
  5
612B
330
60F6
100
AcDbEntity
  8
0
100
AcDbLine
 10
-26.0
 20
0.0
 30
0.0
 11
-26.0
 21
-1.80000000000001
 31
0.0
  0
LINE
  5
612C
330
60F6
100
AcDbEntity
  8
0
100
AcDbLine
 10
26.0
 20
-1.799999999999999
 30
0.0
 11
26.0
 21
-2.699999999999997
 31
0.0
  0
LINE
  5
612D
330
60F6
100
AcDbEntity
  8
0
100
AcDbLine
 10
-26.0
 20
-47.8
 30
0.0
 11
-26.0
 21
-2.699999999999995
 31
0.0
  0
LINE
  5
612E
330
60F6
100
AcDbEntity
  8
0
100
AcDbLine
 10
-6.0
 20
-47.8
 30
0.0
 11
-26.0
 21
-47.8
 31
0.0
  0
LINE
  5
612F
330
60F6
100
AcDbEntity
  8
0
100
AcDbLine
 10
26.0
 20
-47.8
 30
0.0
 11
6.0
 21
-47.8
 31
0.0
  0
LINE
  5
6130
330
60F6
100
AcDbEntity
  8
0
100
AcDbLine
 10
26.0
 20
-2.699999999999997
 30
0.0
 11
26.0
 21
-47.8
 31
0.0
  0
LINE
  5
6131
330
60F6
100
AcDbEntity
  8
0
100
AcDbLine
 10
-26.0
 20
0.0
 30
0.0
 11
-26.0
 21
6.999999999999984
 31
0.0
  0
LINE
  5
6132
330
60F6
100
AcDbEntity
  8
0
100
AcDbLine
 10
26.0
 20
30.09999999999999
 30
0.0
 11
26.0
 21
0.0
 31
0.0
  0
LINE
  5
6133
330
60F6
100
AcDbEntity
  8
0
100
AcDbLine
 10
21.0
 20
30.10000000000001
 30
0.0
 11
26.0
 21
30.09999999999999
 31
0.0
  0
ARC
  5
6134
330
60F6
100
AcDbEntity
  8
0
100
AcDbCircle
 10
-15.0
 20
-41.79999999999999
 30
0.0
 40
2.0
100
AcDbArc
 50
90.0
 51
270.0
  0
LINE
  5
6135
330
60F6
100
AcDbEntity
  8
0
100
AcDbLine
 10
-15.0
 20
-39.80000000000001
 30
0.0
 11
-12.99999999999998
 21
-39.8
 31
0.0
  0
ARC
  5
6136
330
60F6
100
AcDbEntity
  8
0
100
AcDbCircle
 10
-12.99999999999998
 20
-41.79999999999999
 30
0.0
 40
2.0
100
AcDbArc
 50
270.0
 51
90.0
  0
LINE
  5
6137
330
60F6
100
AcDbEntity
  8
0
100
AcDbLine
 10
-12.99999999999998
 20
-43.79999999999999
 30
0.0
 11
-15.0
 21
-43.80000000000001
 31
0.0
  0
ARC
  5
6138
330
60F6
100
AcDbEntity
  8
0
100
AcDbCircle
 10
15.0
 20
-41.79999999999999
 30
0.0
 40
2.0
100
AcDbArc
 50
270.0
 51
90.0
  0
LINE
  5
6139
330
60F6
100
AcDbEntity
  8
0
100
AcDbLine
 10
15.0
 20
-43.79999999999999
 30
0.0
 11
12.99999999999997
 21
-43.79999999999999
 31
0.0
  0
ARC
  5
613A
330
60F6
100
AcDbEntity
  8
0
100
AcDbCircle
 10
12.99999999999997
 20
-41.79999999999999
 30
0.0
 40
1.999999999999999
100
AcDbArc
 50
90.0
 51
270.0
  0
LINE
  5
613B
330
60F6
100
AcDbEntity
  8
0
100
AcDbLine
 10
12.99999999999997
 20
-39.80000000000001
 30
0.0
 11
15.0
 21
-39.8
 31
0.0
  0
LINE
  5
613C
330
60F6
100
AcDbEntity
  8
0
100
AcDbLine
 10
15.14183551919429
 20
25.39688431088755
 30
0.0
 11
11.78180373400476
 21
10.21926307426036
 31
0.0
  0
ARC
  5
613D
330
60F6
100
AcDbEntity
  8
0
100
AcDbCircle
 10
21.0
 20
24.1
 30
0.0
 40
6.0
100
AcDbArc
 50
90.0
 51
167.517149431072
  0
LINE
  5
613E
330
60F6
100
AcDbEntity
  8
0
100
AcDbLine
 10
-11.84058889190002
 20
26.35247721720364
 30
0.0
 11
-15.68435933777483
 21
11.49702733935562
 31
0.0
  0
ARC
  5
613F
330
60F6
100
AcDbEntity
  8
0
100
AcDbCircle
 10
-7.000000000000006
 20
25.09999999999999
 30
0.0
 40
5.0
100
AcDbArc
 50
14.5068319038826
 51
165.4931680961174
  0
LINE
  5
6140
330
60F6
100
AcDbEntity
  8
0
100
AcDbLine
 10
2.059411108099982
 20
10.04752278279635
 30
0.0
 11
-2.159411108099988
 21
26.35247721720364
 31
0.0
  0
ARC
  5
6141
330
60F6
100
AcDbEntity
  8
0
100
AcDbCircle
 10
6.899999999999999
 20
11.3
 30
0.0
 40
5.0
100
AcDbArc
 50
194.5068319038825
 51
347.517149431072
  0
LINE
  5
6142
330
60F6
100
AcDbEntity
  8
0
100
AcDbLine
 10
-21.49306600805486
 20
6.999999999999984
 30
0.0
 11
-26.0
 21
6.999999999999984
 31
0.0
  0
ARC
  5
6143
330
60F6
100
AcDbEntity
  8
0
100
AcDbCircle
 10
-21.49306600805486
 20
13.0
 30
0.0
 40
6.0
100
AcDbArc
 50
270.0
 51
345.4931680961174
  0
ENDBLK
  5
60F8
330
60F6
100
AcDbEntity
  8
0
100
AcDbBlockEnd
  0
BLOCK
  5
6145
330
6144
100
AcDbEntity
  8
0
100
AcDbBlockBegin
  2
ZS38N-Bottom
 70
     0
 10
0.0
 20
0.0
 30
0.0
  3
ZS38N-Bottom
  1

  0
CIRCLE
  5
6147
330
6144
100
AcDbEntity
  8
0
100
AcDbCircle
 10
21.0
 20
-25.09999999999994
 30
0.0
 40
2.0
  0
CIRCLE
  5
6148
330
6144
100
AcDbEntity
  8
0
100
AcDbCircle
 10
-7.000000000000001
 20
-25.09999999999994
 30
0.0
 40
2.0
  0
ARC
  5
6149
330
6144
100
AcDbEntity
  8
0
100
AcDbCircle
 10
-9.08928628662996
 20
-15.68749999999993
 30
0.0
 40
0.7937499999999976
100
AcDbArc
 50
90.0
 51
210.0
  0
LINE
  5
614A
330
6144
100
AcDbEntity
  8
0
100
AcDbLine
 10
-9.08928628662996
 20
-14.89374999999993
 30
0.0
 11
-4.910713713370038
 21
-14.89374999999993
 31
0.0
  0
ARC
  5
614B
330
6144
100
AcDbEntity
  8
0
100
AcDbCircle
 10
-4.910713713370038
 20
-15.68749999999993
 30
0.0
 40
0.7937500000000002
100
AcDbArc
 50
329.9999999999999
 51
90.0
  0
LINE
  5
614C
330
6144
100
AcDbEntity
  8
0
100
AcDbLine
 10
-4.223306049116141
 20
-16.08437499999993
 30
0.0
 11
-6.312592335746106
 21
-19.70312499999994
 31
0.0
  0
ARC
  5
614D
330
6144
100
AcDbEntity
  8
0
100
AcDbCircle
 10
-7.000000000000001
 20
-19.30624999999994
 30
0.0
 40
0.7937500000000002
100
AcDbArc
 50
210.0
 51
329.9999999999999
  0
LINE
  5
614E
330
6144
100
AcDbEntity
  8
0
100
AcDbLine
 10
-7.687407664253896
 20
-19.70312499999994
 30
0.0
 11
-9.776693950883858
 21
-16.08437499999993
 31
0.0
  0
ARC
  5
614F
330
6144
100
AcDbEntity
  8
0
100
AcDbCircle
 10
19.4
 20
0.8999999999999998
 30
0.0
 40
0.9000000000000001
100
AcDbArc
 50
180.0
 51
270.0
  0
LINE
  5
6150
330
6144
100
AcDbEntity
  8
0
100
AcDbLine
 10
19.4
 20
2.699999999999994
 30
0.0
 11
19.4
 21
0.0
 31
0.0
  0
LINE
  5
6151
330
6144
100
AcDbEntity
  8
0
100
AcDbLine
 10
18.49999999999999
 20
2.700000000000004
 30
0.0
 11
19.39999999999999
 21
2.700000000000003
 31
0.0
  0
LINE
  5
6152
330
6144
100
AcDbEntity
  8
0
100
AcDbLine
 10
18.49999999999999
 20
2.699999999999997
 30
0.0
 11
18.49999999999999
 21
0.8999999999999996
 31
0.0
  0
LINE
  5
6153
330
6144
100
AcDbEntity
  8
0
100
AcDbLine
 10
22.6
 20
0.0
 30
0.0
 11
22.6
 21
2.699999999999996
 31
0.0
  0
ARC
  5
6154
330
6144
100
AcDbEntity
  8
0
100
AcDbCircle
 10
22.6
 20
0.8999999999999998
 30
0.0
 40
0.9000000000000001
100
AcDbArc
 50
270.0
 51
0.0
  0
LINE
  5
6155
330
6144
100
AcDbEntity
  8
0
100
AcDbLine
 10
23.5
 20
0.8999999999999996
 30
0.0
 11
23.5
 21
2.699999999999997
 31
0.0
  0
LINE
  5
6156
330
6144
100
AcDbEntity
  8
0
100
AcDbLine
 10
22.6
 20
2.699999999999996
 30
0.0
 11
23.5
 21
2.699999999999998
 31
0.0
  0
LINE
  5
6157
330
6144
100
AcDbEntity
  8
0
100
AcDbLine
 10
19.39999999999999
 20
2.699999999999995
 30
0.0
 11
19.4
 21
15.3
 31
0.0
  0
LINE
  5
6158
330
6144
100
AcDbEntity
  8
0
100
AcDbLine
 10
19.40000000000001
 20
15.3
 30
0.0
 11
18.49999999999999
 21
15.3
 31
0.0
  0
LINE
  5
6159
330
6144
100
AcDbEntity
  8
0
100
AcDbLine
 10
18.49999999999999
 20
2.699999999999997
 30
0.0
 11
18.49999999999999
 21
15.3
 31
0.0
  0
LINE
  5
615A
330
6144
100
AcDbEntity
  8
0
100
AcDbLine
 10
22.6
 20
15.3
 30
0.0
 11
22.6
 21
2.699999999999997
 31
0.0
  0
ARC
  5
615B
330
6144
100
AcDbEntity
  8
0
100
AcDbCircle
 10
21.0
 20
15.3
 30
0.0
 40
1.599999999999995
100
AcDbArc
 50
0.0
 51
180.0
  0
LINE
  5
615C
330
6144
100
AcDbEntity
  8
0
100
AcDbLine
 10
23.5
 20
15.3
 30
0.0
 11
23.5
 21
2.699999999999997
 31
0.0
  0
LINE
  5
615D
330
6144
100
AcDbEntity
  8
0
100
AcDbLine
 10
23.5
 20
15.3
 30
0.0
 11
22.6
 21
15.3
 31
0.0
  0
ARC
  5
615E
330
6144
100
AcDbEntity
  8
0
100
AcDbCircle
 10
21.0
 20
15.3
 30
0.0
 40
2.499999999999995
100
AcDbArc
 50
0.0
 51
180.0
  0
LINE
  5
615F
330
6144
100
AcDbEntity
  8
0
100
AcDbLine
 10
22.6
 20
0.0
 30
0.0
 11
19.4
 21
0.0
 31
0.0
  0
LINE
  5
6160
330
6144
100
AcDbEntity
  8
0
100
AcDbLine
 10
22.6
 20
2.699999999999996
 30
0.0
 11
19.39999999999999
 21
2.699999999999995
 31
0.0
  0
LINE
  5
6161
330
6144
100
AcDbEntity
  8
0
100
AcDbLine
 10
5.081274275679904
 20
0.9
 30
0.0
 11
5.081274275679904
 21
1.8
 31
0.0
  0
SPLINE
  5
6162
330
6144
100
AcDbEntity
  8
0
100
AcDbSpline
210
0.0
220
0.0
230
1.0
 70
     8
 71
     3
 72
    11
 73
     7
 74
     0
 42
0.000000001
 43
0.0000000001
 40
0.0
 40
0.0
 40
0.0
 40
0.0
 40
1.166126791552483
 40
1.166126791552483
 40
1.166126791552483
 40
1.570796326794897
 40
1.570796326794897
 40
1.570796326794897
 40
1.570796326794897
 10
5.116534538020548
 20
2.700000000000002
 30
0.0
 10
5.107809040875947
 20
2.000323925068513
 30
0.0
 10
5.099083543731347
 20
1.32085437005211
 30
0.0
 10
5.090358046586747
 20
1.045381398675573
 30
0.0
 10
5.087330122951133
 20
0.9497867171140768
 30
0.0
 10
5.084302199315518
 20
0.9
 30
0.0
 10
5.081274275679906
 20
0.8999999999999996
 30
0.0
  0
SPLINE
  5
6163
330
6144
100
AcDbEntity
  8
0
100
AcDbSpline
210
0.0
220
0.0
230
1.0
 70
     8
 71
     3
 72
    11
 73
     7
 74
     0
 42
0.000000001
 43
0.0000000001
 40
0.0
 40
0.0
 40
0.0
 40
0.0
 40
1.386766277509507
 40
1.386766277509507
 40
1.386766277509507
 40
1.570796326794875
 40
1.570796326794875
 40
1.570796326794875
 40
1.570796326794875
 10
5.081274275679906
 20
1.799999999999999
 30
0.0
 10
5.0916506989662
 20
1.8
 30
0.0
 10
5.102027122252494
 20
2.126301368426381
 30
0.0
 10
5.112403545538789
 20
2.535306257313024
 30
0.0
 10
5.113780543032708
 20
2.589583024119714
 30
0.0
 10
5.115157540526629
 20
2.64479098521437
 30
0.0
 10
5.116534538020548
 20
2.69999999999998
 30
0.0
  0
LINE
  5
6164
330
6144
100
AcDbEntity
  8
0
100
AcDbLine
 10
6.0
 20
47.8
 30
0.0
 11
5.116534538020548
 21
2.699999999999995
 31
0.0
  0
LINE
  5
6165
330
6144
100
AcDbEntity
  8
0
100
AcDbLine
 10
-5.081274275679913
 20
1.8
 30
0.0
 11
-5.081274275679913
 21
0.9
 31
0.0
  0
SPLINE
  5
6166
330
6144
100
AcDbEntity
  8
0
100
AcDbSpline
210
0.0
220
0.0
230
1.0
 70
     8
 71
     3
 72
    11
 73
     7
 74
     0
 42
0.000000001
 43
0.0000000001
 40
0.0
 40
0.0
 40
0.0
 40
0.0
 40
1.386766277509508
 40
1.386766277509508
 40
1.386766277509508
 40
1.570796326794888
 40
1.570796326794888
 40
1.570796326794888
 40
1.570796326794888
 10
-5.116534538020555
 20
2.699999999999994
 30
0.0
 10
-5.106158114734261
 20
2.283970116747142
 30
0.0
 10
-5.095781691447966
 20
1.89132778958966
 30
0.0
 10
-5.085405268161672
 20
1.815197213431287
 30
0.0
 10
-5.084028270667753
 20
1.805094347570062
 30
0.0
 10
-5.082651273173832
 20
1.8
 30
0.0
 10
-5.081274275679913
 20
1.799999999999999
 30
0.0
  0
SPLINE
  5
6167
330
6144
100
AcDbEntity
  8
0
100
AcDbSpline
210
0.0
220
0.0
230
1.0
 70
     8
 71
     3
 72
    11
 73
     7
 74
     0
 42
0.000000001
 43
0.0000000001
 40
0.0
 40
0.0
 40
0.0
 40
0.0
 40
1.166126791552483
 40
1.166126791552483
 40
1.166126791552483
 40
1.570796326794888
 40
1.570796326794888
 40
1.570796326794888
 40
1.570796326794888
 10
-5.081274275679913
 20
0.8999999999999996
 30
0.0
 10
-5.089999772824514
 20
0.8999999999999969
 30
0.0
 10
-5.098725269969114
 20
1.348147958825676
 30
0.0
 10
-5.107450767113714
 20
1.991312985760845
 30
0.0
 10
-5.110478690749328
 20
2.21450423256131
 30
0.0
 10
-5.113506614384943
 20
2.457198278854535
 30
0.0
 10
-5.116534538020555
 20
2.699999999999977
 30
0.0
  0
LINE
  5
6168
330
6144
100
AcDbEntity
  8
0
100
AcDbLine
 10
-5.116534538020555
 20
2.699999999999997
 30
0.0
 11
-6.0
 21
47.8
 31
0.0
  0
LINE
  5
6169
330
6144
100
AcDbEntity
  8
0
100
AcDbLine
 10
4.999040950308777
 20
1.799999999999999
 30
0.0
 11
5.081274275679904
 21
1.8
 31
0.0
  0
LINE
  5
616A
330
6144
100
AcDbEntity
  8
0
100
AcDbLine
 10
4.999040950308777
 20
1.799999999999999
 30
0.0
 11
4.999040950308777
 21
0.8999999999999994
 31
0.0
  0
LINE
  5
616B
330
6144
100
AcDbEntity
  8
0
100
AcDbLine
 10
5.081274275679904
 20
0.9
 30
0.0
 11
4.999040950308777
 21
0.8999999999999994
 31
0.0
  0
LINE
  5
616C
330
6144
100
AcDbEntity
  8
0
100
AcDbLine
 10
-4.999040950308788
 20
1.8
 30
0.0
 11
4.999040950308771
 21
1.8
 31
0.0
  0
LINE
  5
616D
330
6144
100
AcDbEntity
  8
0
100
AcDbLine
 10
-4.999040950308786
 20
1.799999999999999
 30
0.0
 11
-4.999040950308786
 21
0.8999999999999994
 31
0.0
  0
LINE
  5
616E
330
6144
100
AcDbEntity
  8
0
100
AcDbLine
 10
4.999040950308771
 20
0.9000000000000003
 30
0.0
 11
-4.999040950308788
 21
0.9000000000000003
 31
0.0
  0
LINE
  5
616F
330
6144
100
AcDbEntity
  8
0
100
AcDbLine
 10
-4.999040950308786
 20
0.8999999999999994
 30
0.0
 11
-5.081274275679913
 21
0.9
 31
0.0
  0
LINE
  5
6170
330
6144
100
AcDbEntity
  8
0
100
AcDbLine
 10
-5.081274275679913
 20
1.8
 30
0.0
 11
-4.999040950308786
 21
1.799999999999999
 31
0.0
  0
ARC
  5
6171
330
6144
100
AcDbEntity
  8
0
100
AcDbCircle
 10
-19.4
 20
0.9
 30
0.0
 40
0.9
100
AcDbArc
 50
270.0
 51
0.0
  0
ARC
  5
6172
330
6144
100
AcDbEntity
  8
0
100
AcDbCircle
 10
-22.60000000000001
 20
0.8999999999999998
 30
0.0
 40
0.9000000000000001
100
AcDbArc
 50
180.0
 51
270.0
  0
LINE
  5
6173
330
6144
100
AcDbEntity
  8
0
100
AcDbLine
 10
-22.60000000000001
 20
2.699999999999997
 30
0.0
 11
-22.60000000000001
 21
0.0
 31
0.0
  0
LINE
  5
6174
330
6144
100
AcDbEntity
  8
0
100
AcDbLine
 10
-23.50000000000001
 20
2.699999999999991
 30
0.0
 11
-22.60000000000001
 21
2.69999999999999
 31
0.0
  0
LINE
  5
6175
330
6144
100
AcDbEntity
  8
0
100
AcDbLine
 10
-23.50000000000001
 20
2.699999999999997
 30
0.0
 11
-23.50000000000001
 21
0.8999999999999996
 31
0.0
  0
LINE
  5
6176
330
6144
100
AcDbEntity
  8
0
100
AcDbLine
 10
-19.4
 20
0.0
 30
0.0
 11
-22.60000000000001
 21
0.0
 31
0.0
  0
LINE
  5
6177
330
6144
100
AcDbEntity
  8
0
100
AcDbLine
 10
-18.50000000000001
 20
0.8999999999999996
 30
0.0
 11
-18.50000000000001
 21
2.699999999999997
 31
0.0
  0
LINE
  5
6178
330
6144
100
AcDbEntity
  8
0
100
AcDbLine
 10
-19.4
 20
2.699999999999997
 30
0.0
 11
-18.50000000000001
 21
2.699999999999997
 31
0.0
  0
LINE
  5
6179
330
6144
100
AcDbEntity
  8
0
100
AcDbLine
 10
-19.4
 20
0.0
 30
0.0
 11
-19.4
 21
2.699999999999996
 31
0.0
  0
LINE
  5
617A
330
6144
100
AcDbEntity
  8
0
100
AcDbLine
 10
-22.60000000000001
 20
2.699999999999997
 30
0.0
 11
-22.6
 21
15.3
 31
0.0
  0
LINE
  5
617B
330
6144
100
AcDbEntity
  8
0
100
AcDbLine
 10
-22.6
 20
15.3
 30
0.0
 11
-23.50000000000001
 21
15.3
 31
0.0
  0
LINE
  5
617C
330
6144
100
AcDbEntity
  8
0
100
AcDbLine
 10
-23.50000000000001
 20
2.699999999999997
 30
0.0
 11
-23.50000000000001
 21
15.3
 31
0.0
  0
LINE
  5
617D
330
6144
100
AcDbEntity
  8
0
100
AcDbLine
 10
-19.4
 20
2.699999999999997
 30
0.0
 11
-22.60000000000001
 21
2.699999999999997
 31
0.0
  0
ARC
  5
617E
330
6144
100
AcDbEntity
  8
0
100
AcDbCircle
 10
-21.0
 20
15.3
 30
0.0
 40
2.499999999999995
100
AcDbArc
 50
0.0
 51
180.0
  0
LINE
  5
617F
330
6144
100
AcDbEntity
  8
0
100
AcDbLine
 10
-18.50000000000001
 20
15.3
 30
0.0
 11
-18.50000000000001
 21
2.699999999999997
 31
0.0
  0
LINE
  5
6180
330
6144
100
AcDbEntity
  8
0
100
AcDbLine
 10
-18.5
 20
15.3
 30
0.0
 11
-19.4
 21
15.3
 31
0.0
  0
ARC
  5
6181
330
6144
100
AcDbEntity
  8
0
100
AcDbCircle
 10
-21.0
 20
15.3
 30
0.0
 40
1.599999999999995
100
AcDbArc
 50
0.0
 51
180.0
  0
LINE
  5
6182
330
6144
100
AcDbEntity
  8
0
100
AcDbLine
 10
-19.4
 20
15.3
 30
0.0
 11
-19.4
 21
2.699999999999997
 31
0.0
  0
LINE
  5
6183
330
6144
100
AcDbEntity
  8
0
100
AcDbLine
 10
-5.081274275679913
 20
0.9
 30
0.0
 11
-18.50000000000001
 21
0.9
 31
0.0
  0
LINE
  5
6184
330
6144
100
AcDbEntity
  8
0
100
AcDbLine
 10
-23.50000000000001
 20
0.9
 30
0.0
 11
-26.0
 21
0.8999999999999992
 31
0.0
  0
LINE
  5
6185
330
6144
100
AcDbEntity
  8
0
100
AcDbLine
 10
26.0
 20
0.8999999999999992
 30
0.0
 11
23.5
 21
0.9
 31
0.0
  0
LINE
  5
6186
330
6144
100
AcDbEntity
  8
0
100
AcDbLine
 10
18.49999999999999
 20
0.9
 30
0.0
 11
5.081274275679903
 21
0.9
 31
0.0
  0
LINE
  5
6187
330
6144
100
AcDbEntity
  8
0
100
AcDbLine
 10
-5.116534538020555
 20
2.699999999999997
 30
0.0
 11
-18.50000000000001
 21
2.699999999999997
 31
0.0
  0
LINE
  5
6188
330
6144
100
AcDbEntity
  8
0
100
AcDbLine
 10
-23.50000000000001
 20
2.699999999999997
 30
0.0
 11
-26.0
 21
2.699999999999997
 31
0.0
  0
LINE
  5
6189
330
6144
100
AcDbEntity
  8
0
100
AcDbLine
 10
-26.0
 20
0.8999999999999991
 30
0.0
 11
-26.0
 21
2.699999999999997
 31
0.0
  0
LINE
  5
618A
330
6144
100
AcDbEntity
  8
0
100
AcDbLine
 10
18.49999999999999
 20
2.699999999999997
 30
0.0
 11
5.116534538020549
 21
2.699999999999997
 31
0.0
  0
LINE
  5
618B
330
6144
100
AcDbEntity
  8
0
100
AcDbLine
 10
26.0
 20
2.699999999999997
 30
0.0
 11
23.5
 21
2.699999999999997
 31
0.0
  0
LINE
  5
618C
330
6144
100
AcDbEntity
  8
0
100
AcDbLine
 10
26.0
 20
0.8999999999999991
 30
0.0
 11
26.0
 21
2.699999999999997
 31
0.0
  0
LINE
  5
618D
330
6144
100
AcDbEntity
  8
0
100
AcDbLine
 10
26.0
 20
0.0
 30
0.0
 11
22.6
 21
0.0
 31
0.0
  0
LINE
  5
618E
330
6144
100
AcDbEntity
  8
0
100
AcDbLine
 10
19.4
 20
0.0
 30
0.0
 11
-19.40000000000001
 21
0.0
 31
0.0
  0
LINE
  5
618F
330
6144
100
AcDbEntity
  8
0
100
AcDbLine
 10
-22.60000000000001
 20
0.0
 30
0.0
 11
-26.0
 21
0.0
 31
0.0
  0
LINE
  5
6190
330
6144
100
AcDbEntity
  8
0
100
AcDbLine
 10
26.0
 20
0.9000000000000095
 30
0.0
 11
26.0
 21
0.0
 31
0.0
  0
LINE
  5
6191
330
6144
100
AcDbEntity
  8
0
100
AcDbLine
 10
-26.0
 20
0.9000000000000095
 30
0.0
 11
-26.0
 21
0.0
 31
0.0
  0
LINE
  5
6192
330
6144
100
AcDbEntity
  8
0
100
AcDbLine
 10
-26.0
 20
47.8
 30
0.0
 11
-6.0
 21
47.8
 31
0.0
  0
LINE
  5
6193
330
6144
100
AcDbEntity
  8
0
100
AcDbLine
 10
6.0
 20
47.8
 30
0.0
 11
26.0
 21
47.8
 31
0.0
  0
LINE
  5
6194
330
6144
100
AcDbEntity
  8
0
100
AcDbLine
 10
-26.0
 20
47.8
 30
0.0
 11
-26.0
 21
2.699999999999995
 31
0.0
  0
LINE
  5
6195
330
6144
100
AcDbEntity
  8
0
100
AcDbLine
 10
26.0
 20
47.8
 30
0.0
 11
26.0
 21
2.699999999999995
 31
0.0
  0
LINE
  5
6196
330
6144
100
AcDbEntity
  8
0
100
AcDbLine
 10
-26.0
 20
0.0
 30
0.0
 11
-26.0
 21
-7.000000000000002
 31
0.0
  0
LINE
  5
6197
330
6144
100
AcDbEntity
  8
0
100
AcDbLine
 10
26.0
 20
0.0
 30
0.0
 11
26.0
 21
-30.10000000000001
 31
0.0
  0
LINE
  5
6198
330
6144
100
AcDbEntity
  8
0
100
AcDbLine
 10
21.0
 20
-30.10000000000001
 30
0.0
 11
26.0
 21
-30.10000000000001
 31
0.0
  0
ARC
  5
6199
330
6144
100
AcDbEntity
  8
0
100
AcDbCircle
 10
-15.0
 20
41.79999999999999
 30
0.0
 40
2.0
100
AcDbArc
 50
90.0
 51
270.0
  0
LINE
  5
619A
330
6144
100
AcDbEntity
  8
0
100
AcDbLine
 10
-15.0
 20
43.80000000000001
 30
0.0
 11
-12.99999999999998
 21
43.79999999999999
 31
0.0
  0
ARC
  5
619B
330
6144
100
AcDbEntity
  8
0
100
AcDbCircle
 10
-12.99999999999998
 20
41.79999999999999
 30
0.0
 40
2.0
100
AcDbArc
 50
270.0
 51
90.0
  0
LINE
  5
619C
330
6144
100
AcDbEntity
  8
0
100
AcDbLine
 10
-12.99999999999998
 20
39.8
 30
0.0
 11
-15.0
 21
39.80000000000001
 31
0.0
  0
ARC
  5
619D
330
6144
100
AcDbEntity
  8
0
100
AcDbCircle
 10
15.0
 20
41.79999999999999
 30
0.0
 40
2.0
100
AcDbArc
 50
270.0
 51
90.0
  0
LINE
  5
619E
330
6144
100
AcDbEntity
  8
0
100
AcDbLine
 10
15.0
 20
39.8
 30
0.0
 11
12.99999999999997
 21
39.80000000000001
 31
0.0
  0
ARC
  5
619F
330
6144
100
AcDbEntity
  8
0
100
AcDbCircle
 10
12.99999999999997
 20
41.79999999999999
 30
0.0
 40
1.999999999999999
100
AcDbArc
 50
90.0
 51
270.0
  0
LINE
  5
61A0
330
6144
100
AcDbEntity
  8
0
100
AcDbLine
 10
12.99999999999997
 20
43.79999999999999
 30
0.0
 11
15.0
 21
43.79999999999999
 31
0.0
  0
LINE
  5
61A1
330
6144
100
AcDbEntity
  8
0
100
AcDbLine
 10
11.78180373400476
 20
-10.21926307426036
 30
0.0
 11
15.14183551919429
 21
-25.39688431088755
 31
0.0
  0
ARC
  5
61A2
330
6144
100
AcDbEntity
  8
0
100
AcDbCircle
 10
21.0
 20
-24.1
 30
0.0
 40
6.0
100
AcDbArc
 50
192.4828505689279
 51
269.9999999999999
  0
LINE
  5
61A3
330
6144
100
AcDbEntity
  8
0
100
AcDbLine
 10
-15.68435933777483
 20
-11.49702733935563
 30
0.0
 11
-11.84058889190002
 21
-26.35247721720364
 31
0.0
  0
ARC
  5
61A4
330
6144
100
AcDbEntity
  8
0
100
AcDbCircle
 10
-7.000000000000006
 20
-25.10000000000001
 30
0.0
 40
5.0
100
AcDbArc
 50
194.5068319038823
 51
345.4931680961176
  0
LINE
  5
61A5
330
6144
100
AcDbEntity
  8
0
100
AcDbLine
 10
-2.159411108099988
 20
-26.35247721720364
 30
0.0
 11
2.059411108099982
 21
-10.04752278279635
 31
0.0
  0
ARC
  5
61A6
330
6144
100
AcDbEntity
  8
0
100
AcDbCircle
 10
6.899999999999999
 20
-11.3
 30
0.0
 40
5.0
100
AcDbArc
 50
12.48285056892803
 51
165.4931680961174
  0
LINE
  5
61A7
330
6144
100
AcDbEntity
  8
0
100
AcDbLine
 10
-26.0
 20
-7.000000000000002
 30
0.0
 11
-21.49306600805486
 21
-7.000000000000002
 31
0.0
  0
ARC
  5
61A8
330
6144
100
AcDbEntity
  8
0
100
AcDbCircle
 10
-21.49306600805486
 20
-13.0
 30
0.0
 40
6.0
100
AcDbArc
 50
14.5068319038824
 51
90.0
  0
ENDBLK
  5
6146
330
6144
100
AcDbEntity
  8
0
100
AcDbBlockEnd
  0
BLOCK
  5
61AA
330
61A9
100
AcDbEntity
  8
0
100
AcDbBlockBegin
  2
ZS38N-ISO
 70
     0
 10
0.0
 20
0.0
 30
0.0
  3
ZS38N-ISO
  1

  0
LINE
  5
61AC
330
61A9
100
AcDbEntity
  8
0
100
AcDbLine
 10
4.928368613160613
 20
9.158888387195842
 30
0.0
 11
3.658079788483415
 21
7.351712332717401
 31
0.0
  0
LINE
  5
61AD
330
61A9
100
AcDbEntity
  8
0
100
AcDbLine
 10
4.499032186531629
 20
9.086038318725861
 30
0.0
 11
4.704469803581749
 21
9.204647782231422
 31
0.0
  0
LINE
  5
61AE
330
61A9
100
AcDbEntity
  8
0
100
AcDbLine
 10
3.021683685415523
 20
6.984288871299924
 30
0.0
 11
4.499032186531629
 21
9.086038318725861
 31
0.0
  0
LINE
  5
61AF
330
61A9
100
AcDbEntity
  8
0
100
AcDbLine
 10
3.021683685415523
 20
6.984288871299924
 30
0.0
 11
3.658079788483415
 21
7.351712332717401
 31
0.0
  0
ELLIPSE
  5
61B0
330
61A9
100
AcDbEntity
  8
0
100
AcDbEllipse
 10
4.144150409316948
 20
6.747032248378301
 30
0.0
 11
-0.3968749999999999
 21
0.6874076642538984
 31
0.0
210
0.0
220
0.0
230
1.0
 40
0.5773502691896259
 41
0.2617993877991496
 42
2.356194490192344
  0
ELLIPSE
  5
61B1
330
61A9
100
AcDbEntity
  8
0
100
AcDbEllipse
 10
3.507754306249056
 20
6.379608786960824
 30
0.0
 11
-0.3968749999999586
 21
0.6874076642539219
 31
0.0
210
0.0
220
0.0
230
1.0
 40
0.5773502691896258
 41
0.2617993877995106
 42
2.356194490192587
  0
LINE
  5
61B2
330
61A9
100
AcDbEntity
  8
0
100
AcDbLine
 10
3.507754306249056
 20
5.731514625849438
 30
0.0
 11
4.144150409316949
 21
6.098938087266915
 31
0.0
  0
LINE
  5
61B3
330
61A9
100
AcDbEntity
  8
0
100
AcDbLine
 10
4.144150409316949
 20
6.098938087266915
 30
0.0
 11
7.018666195013444
 21
4.439335624605216
 31
0.0
  0
LINE
  5
61B4
330
61A9
100
AcDbEntity
  8
0
100
AcDbLine
 10
6.462451308481272
 20
4.025619516236891
 30
0.0
 11
3.507754306249056
 21
5.731514625849438
 31
0.0
  0
LINE
  5
61B5
330
61A9
100
AcDbEntity
  8
0
100
AcDbLine
 10
6.462451308481272
 20
4.025619516236891
 30
0.0
 11
7.023717316048092
 21
4.34966659679258
 31
0.0
  0
ELLIPSE
  5
61B6
330
61A9
100
AcDbEntity
  8
0
100
AcDbEllipse
 10
6.46245130848127
 20
4.67371367734827
 30
0.0
 11
0.3968749999999999
 21
-0.687407664253898
 31
0.0
210
0.0
220
0.0
230
1.0
 40
0.5773502691896259
 41
5.497787143782137
 42
7.592182246175328
  0
LINE
  5
61B7
330
61A9
100
AcDbEntity
  8
0
100
AcDbLine
 10
5.471173428198703
 20
8.524772311159038
 30
0.0
 11
6.948521929314805
 21
4.717127754120548
 31
0.0
  0
ELLIPSE
  5
61B8
330
61A9
100
AcDbEntity
  8
0
100
AcDbEllipse
 10
4.985102807365165
 20
8.481358234386755
 30
0.0
 11
-0.3968749999999999
 21
0.6874076642538984
 31
0.0
210
0.0
220
0.0
230
1.0
 40
0.5773502691896257
 41
4.450589592585543
 42
6.544984694978731
  0
ELLIPSE
  5
61B9
330
61A9
100
AcDbEntity
  8
0
100
AcDbEllipse
 10
38.85551762620074
 20
21.1676738605513
 30
0.0
 11
1.999999999999999
 21
-0.0000000000000027
 31
0.0
210
0.0
220
0.0
230
1.0
 40
0.577350269189625
 41
0.3238281385752888
 42
2.817764515014505
  0
ELLIPSE
  5
61BA
330
61A9
100
AcDbEntity
  8
0
100
AcDbEllipse
 10
38.85551762620074
 20
21.90252078338625
 30
0.0
 11
1.999999999999999
 21
-0.0000000000001221
 31
0.0
210
0.0
220
0.0
230
1.0
 40
0.577350269189625
 41
0.0
 42
6.283185307179586
  0
ELLIPSE
  5
61BB
330
61A9
100
AcDbEntity
  8
0
100
AcDbEllipse
 10
19.05652775297741
 20
32.59862599353946
 30
0.0
 11
1.999999999999999
 21
-0.0000000000000027
 31
0.0
210
0.0
220
0.0
230
1.0
 40
0.577350269189625
 41
0.3238281385752888
 42
2.817764515014505
  0
ELLIPSE
  5
61BC
330
61A9
100
AcDbEntity
  8
0
100
AcDbEllipse
 10
19.05652775297741
 20
33.33347291637442
 30
0.0
 11
1.999999999999999
 21
-0.0000000000001221
 31
0.0
210
0.0
220
0.0
230
1.0
 40
0.577350269189625
 41
0.0
 42
6.283185307179586
  0
ELLIPSE
  5
61BD
330
61A9
100
AcDbEntity
  8
0
100
AcDbEllipse
 10
10.92353667394292
 20
30.34378343718949
 30
0.0
 11
-0.7937499999999976
 21
0.0000000000000011
 31
0.0
210
0.0
220
0.0
230
1.0
 40
0.5773502691896248
 41
4.974188368183838
 42
7.068583470577035
  0
ELLIPSE
  5
61BE
330
61A9
100
AcDbEntity
  8
0
100
AcDbEllipse
 10
10.92353667394292
 20
29.60893651435453
 30
0.0
 11
-0.7937499999999976
 21
0.0000000000000009
 31
0.0
210
0.0
220
0.0
230
1.0
 40
0.5773502691896246
 41
4.97418836818384
 42
5.363525871857317
  0
LINE
  5
61BF
330
61A9
100
AcDbEntity
  8
0
100
AcDbLine
 10
10.7180990568928
 20
30.78643998125077
 30
0.0
 11
10.7180990568928
 21
30.05159305841582
 31
0.0
  0
LINE
  5
61C0
330
61A9
100
AcDbEntity
  8
0
100
AcDbLine
 10
13.31696766860831
 20
28.31384124702127
 30
0.0
 11
10.3622706663761
 21
30.01973635663383
 31
0.0
  0
ELLIPSE
  5
61C1
330
61A9
100
AcDbEntity
  8
0
100
AcDbEllipse
 10
13.87823367617513
 20
28.63788832757695
 30
0.0
 11
0.7937499999999999
 21
-0.0000000000000014
 31
0.0
210
0.0
220
0.0
230
1.0
 40
0.577350269189625
 41
3.92699081698724
 42
6.021385919380438
  0
LINE
  5
61C2
330
61A9
100
AcDbEntity
  8
0
100
AcDbLine
 10
15.72643146409479
 20
30.84957491999379
 30
0.0
 11
14.64493730079208
 21
28.5192788640714
 31
0.0
  0
ELLIPSE
  5
61C3
330
61A9
100
AcDbEntity
  8
0
100
AcDbEllipse
 10
14.95972783947785
 20
30.96818438349932
 30
0.0
 11
0.7937499999999999
 21
-0.000000000000001
 31
0.0
210
0.0
220
0.0
230
1.0
 40
0.5773502691896253
 41
6.021385919380437
 42
8.115781021773639
  0
LINE
  5
61C4
330
61A9
100
AcDbEntity
  8
0
100
AcDbLine
 10
14.75429022242772
 20
31.4108409275606
 30
0.0
 11
14.75429022242772
 21
30.67599400472565
 31
0.0
  0
ELLIPSE
  5
61C5
330
61A9
100
AcDbEntity
  8
0
100
AcDbEllipse
 10
14.95972783947785
 20
30.23333746066436
 30
0.0
 11
-0.7937500000000002
 21
-0.0000000000000461
 31
0.0
210
0.0
220
0.0
230
1.0
 40
0.5773502691896246
 41
3.825735341508696
 42
4.974188368183686
  0
LINE
  5
61C6
330
61A9
100
AcDbEntity
  8
0
100
AcDbLine
 10
10.7180990568928
 20
30.78643998125077
 30
0.0
 11
14.75429022242772
 21
31.4108409275606
 31
0.0
  0
LINE
  5
61C7
330
61A9
100
AcDbEntity
  8
0
100
AcDbLine
 10
14.75429022242772
 20
30.67599400472565
 30
0.0
 11
10.7180990568928
 21
30.05159305841582
 31
0.0
  0
SPLINE
  5
61C8
330
61A9
100
AcDbEntity
  8
0
100
AcDbSpline
210
0.0
220
0.0
230
1.0
 70
     8
 71
     3
 72
    11
 73
     7
 74
     0
 42
0.000000001
 43
0.0000000001
 40
0.0
 40
0.0
 40
0.0
 40
0.0
 40
1.386766277509507
 40
1.386766277509507
 40
1.386766277509507
 40
1.570796326794875
 40
1.570796326794875
 40
1.570796326794875
 40
1.570796326794875
 10
8.57810630476718
 20
-13.60743574202845
 30
0.0
 10
8.585443544037381
 20
-13.95135887633593
 30
0.0
 10
8.362050872982838
 20
-14.40939812689136
 30
0.0
 10
8.080177981782842
 20
-14.64277018577583
 30
0.0
 10
8.042772196178578
 20
-14.6737396953427
 30
0.0
 10
8.004707956778693
 20
-14.70099992532546
 30
0.0
 10
7.966642972306785
 20
-14.72410106810275
 30
0.0
  0
LINE
  5
61C9
330
61A9
100
AcDbEntity
  8
0
100
AcDbLine
 10
-23.29916844009674
 20
-33.49677223255996
 30
0.0
 11
-23.29916844009674
 21
-34.23161915539492
 31
0.0
  0
LINE
  5
61CA
330
61A9
100
AcDbEntity
  8
0
100
AcDbLine
 10
7.966642972306773
 20
-14.72410106810275
 30
0.0
 11
-23.29916844009674
 21
-33.49677223255996
 31
0.0
  0
LINE
  5
61CB
330
61A9
100
AcDbEntity
  8
0
100
AcDbLine
 10
1.392099309963128
 20
-9.4585926691798
 30
0.0
 11
2.028495413031021
 21
-9.091169207762327
 31
0.0
  0
SPLINE
  5
61CC
330
61A9
100
AcDbEntity
  8
0
100
AcDbSpline
210
0.0
220
0.0
230
1.0
 70
     8
 71
     3
 72
    11
 73
     7
 74
     0
 42
0.000000001
 43
0.0000000001
 40
0.0
 40
0.0
 40
0.0
 40
0.0
 40
1.386766277509508
 40
1.386766277509508
 40
1.386766277509508
 40
1.570796326794888
 40
1.570796326794888
 40
1.570796326794888
 40
1.570796326794888
 10
0.7307704362877554
 20
-10.54646811161035
 30
0.0
 10
1.032285227182294
 20
-10.38086078005825
 30
0.0
 10
1.317262518566418
 20
-9.95837742662804
 30
0.0
 10
1.378432204493843
 20
-9.597582312768441
 30
0.0
 10
1.386549693719361
 20
-9.549703197403204
 30
0.0
 10
1.391125625697501
 20
-9.503108484115783
 30
0.0
 10
1.392099309963128
 20
-9.458592669179806
 30
0.0
  0
LINE
  5
61CD
330
61A9
100
AcDbEntity
  8
0
100
AcDbLine
 10
0.7307704362877522
 20
-10.54646811161035
 30
0.0
 11
0.7307704362877532
 21
-11.2813150344453
 31
0.0
  0
SPLINE
  5
61CE
330
61A9
100
AcDbEntity
  8
0
100
AcDbSpline
210
0.0
220
0.0
230
1.0
 70
     8
 71
     3
 72
    11
 73
     7
 74
     0
 42
0.000000001
 43
0.0000000001
 40
0.0
 40
0.0
 40
0.0
 40
0.0
 40
1.166126791552483
 40
1.166126791552483
 40
1.166126791552483
 40
1.570796326794888
 40
1.570796326794888
 40
1.570796326794888
 40
1.570796326794888
 10
2.028495413031021
 20
-9.091169207762312
 30
0.0
 10
2.022325554830852
 20
-9.658890161408075
 30
0.0
 10
1.699267235970134
 20
-10.39306819869617
 30
0.0
 10
1.238311025802077
 20
-10.87699979140282
 30
0.0
 10
1.078349916352331
 20
-11.04493382235754
 30
0.0
 10
0.9045982451291312
 20
-11.18342779151388
 30
0.0
 10
0.7307704362877665
 20
-11.2813150344453
 30
0.0
  0
LINE
  5
61CF
330
61A9
100
AcDbEntity
  8
0
100
AcDbLine
 10
-31.78444981433531
 20
-28.59779274699363
 30
0.0
 11
0.7307704362877532
 21
-10.54646811161035
 31
0.0
  0
LINE
  5
61D0
330
61A9
100
AcDbEntity
  8
0
100
AcDbLine
 10
-31.78444981433531
 20
-29.33263966982858
 30
0.0
 11
-31.78444981433531
 21
-28.59779274699363
 31
0.0
  0
LINE
  5
61D1
330
61A9
100
AcDbEntity
  8
0
100
AcDbLine
 10
0.7307704362877532
 20
-11.2813150344453
 30
0.0
 11
-31.78444981433531
 21
-29.33263966982858
 31
0.0
  0
LINE
  5
61D2
330
61A9
100
AcDbEntity
  8
0
100
AcDbLine
 10
8.519958562757736
 20
-10.14627158611745
 30
0.0
 11
8.578106304767178
 21
-13.60743574202845
 31
0.0
  0
ELLIPSE
  5
61D3
330
61A9
100
AcDbEntity
  8
0
100
AcDbEllipse
 10
4.985102807365151
 20
-8.18537822380045
 30
0.0
 11
-2.499999999999999
 21
4.330127018922194
 31
0.0
210
0.0
220
0.0
230
0.9999999999999998
 40
0.577350269189626
 41
3.94657734656243
 42
7.048996941001844
  0
LINE
  5
61D4
330
61A9
100
AcDbEntity
  8
0
100
AcDbLine
 10
1.450247051972572
 20
-6.064571742272644
 30
0.0
 11
2.086643155040465
 21
-5.697148280855164
 31
0.0
  0
ELLIPSE
  5
61D5
330
61A9
100
AcDbEntity
  8
0
100
AcDbEllipse
 10
5.621498910433043
 20
-7.817954762382974
 30
0.0
 11
-2.499999999999997
 21
4.330127018922192
 31
0.0
210
0.0
220
0.0
230
1.0
 40
0.5773502691896261
 41
0.1276254041733319
 42
0.7658116338222593
  0
LINE
  5
61D6
330
61A9
100
AcDbEntity
  8
0
100
AcDbLine
 10
2.086643155040465
 20
-5.697148280855164
 30
0.0
 11
2.028495413031021
 21
-9.091169207762327
 31
0.0
  0
LINE
  5
61D7
330
61A9
100
AcDbEntity
  8
0
100
AcDbLine
 10
1.392099309963128
 20
-9.4585926691798
 30
0.0
 11
1.450247051972572
 21
-6.064571742272644
 31
0.0
  0
ELLIPSE
  5
61D8
330
61A9
100
AcDbEntity
  8
0
100
AcDbEllipse
 10
18.70297436238417
 20
-18.71818411776812
 30
0.0
 11
0.8999999999999998
 21
0.0000000000000538
 31
0.0
210
0.0
220
0.0
230
1.0
 40
0.5773502691896259
 41
3.926990816987
 42
5.497787143781898
  0
LINE
  5
61D9
330
61A9
100
AcDbEntity
  8
0
100
AcDbLine
 10
19.33937046545207
 20
-19.08560757918559
 30
0.0
 11
19.33937046545208
 21
1.898354550656962
 31
0.0
  0
ELLIPSE
  5
61DA
330
61A9
100
AcDbEntity
  8
0
100
AcDbEllipse
 10
18.70297436238419
 20
2.265778012074437
 30
0.0
 11
-0.8999999999999984
 21
0.0000000000000536
 31
0.0
210
0.0
220
0.0
230
1.0
 40
0.5773502691896257
 41
0.7853981633976872
 42
2.356194490192583
  0
LINE
  5
61DB
330
61A9
100
AcDbEntity
  8
0
100
AcDbLine
 10
18.0665782593163
 20
1.898354550656962
 30
0.0
 11
18.06657825931628
 21
-19.08560757918559
 31
0.0
  0
ELLIPSE
  5
61DC
330
61A9
100
AcDbEntity
  8
0
100
AcDbEllipse
 10
22.23850826831691
 20
-20.75942557008744
 30
0.0
 11
-0.8999999999999998
 21
0.0000000000000002
 31
0.0
210
0.0
220
0.0
230
1.0
 40
0.577350269189626
 41
0.0000000000000018
 42
0.785398163397447
  0
ELLIPSE
  5
61DD
330
61A9
100
AcDbEntity
  8
0
100
AcDbEllipse
 10
20.96571606218113
 20
-22.96396633859229
 30
0.0
 11
-0.45
 21
0.7794228634059948
 31
0.0
210
0.0
220
0.0
230
1.0
 40
0.5773502691896252
 41
5.497787143782137
 42
6.283185307179585
  0
ELLIPSE
  5
61DE
330
61A9
100
AcDbEntity
  8
0
100
AcDbEllipse
 10
20.96571606218113
 20
-21.49427249292239
 30
0.0
 11
0.4499999999999533
 21
0.7794228634060209
 31
0.0
210
0.0
220
0.0
230
1.0
 40
0.5773502691896258
 41
3.926990816986998
 42
5.497787143781897
  0
ELLIPSE
  5
61DF
330
61A9
100
AcDbEntity
  8
0
100
AcDbEllipse
 10
20.47074131535055
 20
1.245157285914786
 30
0.0
 11
-0.7999999999999974
 21
1.385640646055098
 31
0.0
210
0.0
220
0.0
230
1.0
 40
0.5773502691896259
 41
0.0093768775261962
 42
0.7853981633974483
  0
ELLIPSE
  5
61E0
330
61A9
100
AcDbEntity
  8
0
100
AcDbEllipse
 10
17.43018215624839
 20
-19.45303104060307
 30
0.0
 11
-0.450000000000046
 21
-0.7794228634059675
 31
0.0
210
0.0
220
0.0
230
1.0
 40
0.5773502691896257
 41
0.7853981633976908
 42
2.356194490192585
  0
ELLIPSE
  5
61E1
330
61A9
100
AcDbEntity
  8
0
100
AcDbEllipse
 10
17.43018215624838
 20
-20.92272488627298
 30
0.0
 11
0.4499999999999539
 21
-0.7794228634060213
 31
0.0
210
0.0
220
0.0
230
1.0
 40
0.5773502691896253
 41
0.785398163397689
 42
2.356194490192585
  0
ELLIPSE
  5
61E2
330
61A9
100
AcDbEntity
  8
0
100
AcDbEllipse
 10
18.06657825931628
 20
-19.82045450202054
 30
0.0
 11
0.8999999999999069
 21
1.558845726812042
 31
0.0
210
0.0
220
0.0
230
1.0
 40
0.5773502691896258
 41
3.926990816987
 42
5.497787143781899
  0
ELLIPSE
  5
61E3
330
61A9
100
AcDbEntity
  8
0
100
AcDbEllipse
 10
12.05617061923062
 20
-28.10789479843696
 30
0.0
 11
-0.4499999999999976
 21
0.7794228634059943
 31
0.0
210
0.0
220
0.0
230
0.9999999999999998
 40
0.5773502691896244
 41
5.497787143782129
 42
6.283185307179578
  0
LINE
  5
61E4
330
61A9
100
AcDbEntity
  8
0
100
AcDbLine
 10
12.05617061923062
 20
-27.37304787560201
 30
0.0
 11
20.96571606218113
 21
-22.22911941575734
 31
0.0
  0
ELLIPSE
  5
61E5
330
61A9
100
AcDbEntity
  8
0
100
AcDbEllipse
 10
10.28840366626426
 20
-26.35242714944235
 30
0.0
 11
-2.499999999999995
 21
-0.0000000000000004
 31
0.0
210
0.0
220
0.0
230
1.0
 40
0.5773502691896258
 41
5.497787143782138
 42
8.63937979737193
  0
LINE
  5
61E6
330
61A9
100
AcDbEntity
  8
0
100
AcDbLine
 10
17.43018215624839
 20
-20.18787796343802
 30
0.0
 11
8.520636713297895
 21
-25.33180642328269
 31
0.0
  0
ELLIPSE
  5
61E7
330
61A9
100
AcDbEntity
  8
0
100
AcDbEllipse
 10
19.83434521228265
 20
0.8777338244973087
 30
0.0
 11
-1.250000000000126
 21
2.165063509461017
 31
0.0
210
0.0
220
0.0
230
0.9999999999999998
 40
0.5773502691896259
 41
3.926990816986998
 42
7.068583470576792
  0
LINE
  5
61E8
330
61A9
100
AcDbEntity
  8
0
100
AcDbLine
 10
21.60211216524902
 20
-21.12684903150491
 30
0.0
 11
21.60211216524903
 21
-0.1428869016623446
 31
0.0
  0
ELLIPSE
  5
61E9
330
61A9
100
AcDbEntity
  8
0
100
AcDbEllipse
 10
8.520636713297895
 20
-26.06665334611765
 30
0.0
 11
-0.4500000000000413
 21
0.7794228634059587
 31
0.0
210
0.0
220
0.0
230
0.9999999999999998
 40
0.577350269189626
 41
3.926990816986991
 42
5.497787143781895
  0
LINE
  5
61EA
330
61A9
100
AcDbEntity
  8
0
100
AcDbLine
 10
9.157032816365779
 20
-26.43407680753513
 30
0.0
 11
18.06657825931629
 21
-21.29014834769046
 31
0.0
  0
ELLIPSE
  5
61EB
330
61A9
100
AcDbEntity
  8
0
100
AcDbEllipse
 10
22.23850826831692
 20
0.2245365597551308
 30
0.0
 11
-0.8999999999999984
 21
0.0000000000000009
 31
0.0
210
0.0
220
0.0
230
1.0
 40
0.5773502691896258
 41
0.0000000000000084
 42
0.785398163397456
  0
ELLIPSE
  5
61EC
330
61A9
100
AcDbEntity
  8
0
100
AcDbEllipse
 10
10.28840366626426
 20
-27.08727407227731
 30
0.0
 11
-1.599999999999995
 21
-0.0000000000000003
 31
0.0
210
0.0
220
0.0
230
1.0
 40
0.5773502691896262
 41
5.497787143782137
 42
6.273808429653382
  0
SPLINE
  5
61ED
330
61A9
100
AcDbEntity
  8
0
100
AcDbSpline
210
0.0
220
0.0
230
1.0
 70
     8
 71
     3
 72
    20
 73
    16
 74
     0
 42
0.000000001
 43
0.0000000001
 40
4.712388980384687
 40
4.712388980384687
 40
4.712388980384687
 40
4.712388980384687
 40
4.919112646862264
 40
4.919112646862264
 40
5.142574119643877
 40
5.142574119643877
 40
5.381628724161133
 40
5.381628724161133
 40
5.629603041756237
 40
5.629603041756237
 40
5.877267536718724
 40
5.877267536718724
 40
6.114931450740436
 40
6.114931450740436
 40
6.283185307179582
 40
6.283185307179582
 40
6.283185307179582
 40
6.283185307179582
 10
20.51571606218113
 20
-22.1845434751863
 30
0.0
 10
20.5569086610625
 20
-22.16076091713352
 30
0.0
 10
20.60524697069817
 20
-22.12773393359602
 30
0.0
 10
20.7118885375315
 20
-22.04033971313816
 30
0.0
 10
20.77066749995863
 20
-21.98451528937857
 30
0.0
 10
20.89061225225821
 20
-21.85171498094043
 30
0.0
 10
20.9516597442221
 20
-21.77356533558815
 30
0.0
 10
21.06629991585785
 20
-21.60266680957864
 30
0.0
 10
21.11952490799332
 20
-21.50949626450174
 30
0.0
 10
21.20982692762638
 20
-21.32121262837213
 30
0.0
 10
21.24690203461603
 20
-21.22610875920087
 30
0.0
 10
21.30110346188388
 20
-21.04919340386168
 30
0.0
 10
21.3189303218329
 20
-20.96701593832034
 30
0.0
 10
21.33560822969063
 20
-20.8440111283433
 30
0.0
 10
21.33850826831691
 20
-20.79813915500542
 30
0.0
 10
21.33850826831691
 20
-20.75942557008744
 30
0.0
  0
LINE
  5
61EE
330
61A9
100
AcDbEntity
  8
0
100
AcDbLine
 10
20.51571606218113
 20
-22.1845434751863
 30
0.0
 11
11.60617061923062
 21
-27.32847193503097
 31
0.0
  0
SPLINE
  5
61EF
330
61A9
100
AcDbEntity
  8
0
100
AcDbSpline
210
0.0
220
0.0
230
1.0
 70
     8
 71
     3
 72
    24
 73
    20
 74
     0
 42
0.000000001
 43
0.0000000001
 40
4.089955419147758
 40
4.089955419147758
 40
4.089955419147758
 40
4.089955419147758
 40
4.39822971502571
 40
4.39822971502571
 40
4.64008465087237
 40
4.64008465087237
 40
4.876994969012446
 40
4.876994969012446
 40
5.127353086333474
 40
5.127353086333474
 40
5.390670683693926
 40
5.390670683693926
 40
5.660900423611619
 40
5.660900423611619
 40
5.930296042682111
 40
5.930296042682111
 40
6.190907541946702
 40
6.190907541946702
 40
6.283185307179586
 40
6.283185307179586
 40
6.283185307179586
 40
6.283185307179586
 10
19.65941751315746
 20
2.625753936044474
 30
0.0
 10
19.65941751315746
 20
2.625753936044474
 30
0.0
 10
19.68454709852389
 20
2.632179079907812
 30
0.0
 10
19.79444536709293
 20
2.60996146116307
 30
0.0
 10
19.8631819868738
 20
2.587993503090131
 30
0.0
 10
20.02436570031773
 20
2.508414746702423
 30
0.0
 10
20.11599345327226
 20
2.451796634208431
 30
0.0
 10
20.31285507427307
 20
2.300379264934964
 30
0.0
 10
20.41852502738724
 20
2.203730565689174
 30
0.0
 10
20.62948710695037
 20
1.974615449736938
 30
0.0
 10
20.7344793478158
 20
1.840620574062383
 30
0.0
 10
20.92781534138039
 20
1.549101806670658
 30
0.0
 10
21.01563889898376
 20
1.391085038038246
 30
0.0
 10
21.1614234147277
 20
1.07225518150795
 30
0.0
 10
21.21943161554968
 20
0.9114719264149728
 30
0.0
 10
21.30032548244702
 20
0.6111522528267277
 30
0.0
 10
21.32420182231813
 20
0.4711376806546142
 30
0.0
 10
21.33694924750404
 20
0.304718449702901
 30
0.0
 10
21.33850826831691
 20
0.2633491595932114
 30
0.0
 10
21.33850826831691
 20
0.2245365597551308
 30
0.0
  0
LINE
  5
61F0
330
61A9
100
AcDbEntity
  8
0
100
AcDbLine
 10
21.33850826831692
 20
0.2245365597551285
 30
0.0
 11
21.33850826831691
 21
-20.75942557008744
 31
0.0
  0
SPLINE
  5
61F1
330
61A9
100
AcDbEntity
  8
0
100
AcDbSpline
210
0.0
220
0.0
230
1.0
 70
     8
 71
     3
 72
    24
 73
    20
 74
     0
 42
0.000000001
 43
0.0000000001
 40
0.0
 40
0.0
 40
0.0
 40
0.0
 40
0.2404833943815377
 40
0.2404833943815377
 40
0.4952826284508357
 40
0.4952826284508357
 40
0.7615079081133704
 40
0.7615079081133704
 40
1.032338512924996
 40
1.032338512924996
 40
1.299839855592316
 40
1.299839855592316
 40
1.556319078585453
 40
1.556319078585453
 40
1.797615147984747
 40
1.797615147984747
 40
2.032802142967348
 40
2.032802142967348
 40
2.193229888031828
 40
2.193229888031828
 40
2.193229888031828
 40
2.193229888031828
 10
11.60617061923062
 20
-27.32847193503097
 30
0.0
 10
11.51857318385818
 20
-27.37904633792357
 30
0.0
 10
11.41047445763582
 20
-27.42890839500052
 30
0.0
 10
11.15615373976463
 20
-27.51790777761023
 30
0.0
 10
11.00814865609301
 20
-27.55627058960744
 30
0.0
 10
10.68617026541667
 20
-27.61176721947267
 30
0.0
 10
10.51137506264202
 20
-27.62790006248156
 30
0.0
 10
10.1570035581494
 20
-27.63278885482173
 30
0.0
 10
9.977429520772787
 20
-27.62106278013824
 30
0.0
 10
9.638525810171397
 20
-27.57173821702474
 30
0.0
 10
9.47902142130389
 20
-27.53441993835637
 30
0.0
 10
9.201772730334269
 20
-27.44394784500463
 30
0.0
 10
9.08269185737733
 20
-27.39145132888037
 30
0.0
 10
8.896345625302197
 20
-27.28693516698024
 30
0.0
 10
8.826690854039449
 20
-27.23512467080259
 30
0.0
 10
8.732698469715746
 20
-27.14829436666659
 30
0.0
 10
8.707589965966498
 20
-27.11347196221858
 30
0.0
 10
8.688685839090872
 20
-27.08090736614234
 30
0.0
 10
8.68710999377571
 20
-27.07494537394795
 30
0.0
 10
8.687109993775708
 20
-27.07494537394795
 30
0.0
  0
LINE
  5
61F2
330
61A9
100
AcDbEntity
  8
0
100
AcDbLine
 10
19.33937046545207
 20
-19.08560757918559
 30
0.0
 11
21.33850826831691
 21
-20.23981032781676
 31
0.0
  0
LINE
  5
61F3
330
61A9
100
AcDbEntity
  8
0
100
AcDbLine
 10
18.06657825931629
 20
-21.29014834769046
 30
0.0
 11
20.06571606218113
 21
-22.44435109632162
 31
0.0
  0
LINE
  5
61F4
330
61A9
100
AcDbEntity
  8
0
100
AcDbLine
 10
-10.35911434438292
 20
-1.93917937970335
 30
0.0
 11
-8.359976541518074
 21
-3.093382128334525
 31
0.0
  0
ELLIPSE
  5
61F5
330
61A9
100
AcDbEntity
  8
0
100
AcDbEllipse
 10
-11.6319065505187
 20
-2.674026302538301
 30
0.0
 11
0.8999999999999069
 21
1.558845726812042
 31
0.0
210
0.0
220
0.0
230
1.0
 40
0.5773502691896258
 41
3.926990816987
 42
5.497787143781898
  0
LINE
  5
61F6
330
61A9
100
AcDbEntity
  8
0
100
AcDbLine
 10
-11.6319065505187
 20
-4.143720148208207
 30
0.0
 11
-9.632768747653857
 21
-5.297922896839382
 31
0.0
  0
LINE
  5
61F7
330
61A9
100
AcDbEntity
  8
0
100
AcDbLine
 10
-20.54145199346921
 20
-9.287648608052885
 30
0.0
 11
-11.6319065505187
 21
-4.143720148208207
 31
0.0
  0
ELLIPSE
  5
61F8
330
61A9
100
AcDbEntity
  8
0
100
AcDbEllipse
 10
-19.41008114357073
 20
-9.940845872795073
 30
0.0
 11
-1.599999999999995
 21
-0.0000000000000002
 31
0.0
210
0.0
220
0.0
230
1.0
 40
0.5773502691896263
 41
5.497787143782137
 42
6.273808429653386
  0
ELLIPSE
  5
61F9
330
61A9
100
AcDbEntity
  8
0
100
AcDbEllipse
 10
-8.732768747653858
 20
-4.347844293440141
 30
0.0
 11
0.4499999999999533
 21
0.7794228634060209
 31
0.0
210
0.0
220
0.0
230
1.0
 40
0.5773502691896258
 41
3.926990816987
 42
5.497787143781898
  0
LINE
  5
61FA
330
61A9
100
AcDbEntity
  8
0
100
AcDbLine
 10
-17.64231419060436
 20
-10.22661967611977
 30
0.0
 11
-8.732768747653857
 21
-5.082691216275092
 31
0.0
  0
ELLIPSE
  5
61FB
330
61A9
100
AcDbEntity
  8
0
100
AcDbEllipse
 10
-19.41008114357073
 20
-9.205998949960122
 30
0.0
 11
-2.499999999999995
 21
-0.0000000000000019
 31
0.0
210
0.0
220
0.0
230
1.0
 40
0.5773502691896263
 41
5.497787143782137
 42
8.63937979737193
  0
LINE
  5
61FC
330
61A9
100
AcDbEntity
  8
0
100
AcDbLine
 10
-12.26830265358659
 20
-3.041449763955776
 30
0.0
 11
-21.17784809653709
 21
-8.185378223800462
 31
0.0
  0
ELLIPSE
  5
61FD
330
61A9
100
AcDbEntity
  8
0
100
AcDbEllipse
 10
-12.26830265358659
 20
-3.776296686790732
 30
0.0
 11
0.4499999999999539
 21
-0.7794228634060213
 31
0.0
210
0.0
220
0.0
230
1.0
 40
0.5773502691896253
 41
0.785398163397689
 42
2.356194490192585
  0
ELLIPSE
  5
61FE
330
61A9
100
AcDbEntity
  8
0
100
AcDbEllipse
 10
-10.99551044745081
 20
-1.571755918285875
 30
0.0
 11
-0.8999999999999984
 21
0.0000000000000538
 31
0.0
210
0.0
220
0.0
230
1.0
 40
0.5773502691896257
 41
0.7853981633976881
 42
2.356194490192583
  0
ELLIPSE
  5
61FF
330
61A9
100
AcDbEntity
  8
0
100
AcDbEllipse
 10
-12.26830265358659
 20
-2.306602841120826
 30
0.0
 11
-0.450000000000046
 21
-0.7794228634059675
 31
0.0
210
0.0
220
0.0
230
1.0
 40
0.5773502691896257
 41
0.7853981633976908
 42
2.356194490192589
  0
ELLIPSE
  5
6200
330
61A9
100
AcDbEntity
  8
0
100
AcDbEllipse
 10
-10.9955104474508
 20
19.41220621155668
 30
0.0
 11
-0.8999999999999984
 21
0.0000000000000537
 31
0.0
210
0.0
220
0.0
230
1.0
 40
0.5773502691896257
 41
0.785398163397689
 42
2.356194490192585
  0
LINE
  5
6201
330
61A9
100
AcDbEntity
  8
0
100
AcDbLine
 10
-11.63190655051869
 20
19.0447827501392
 30
0.0
 11
-11.6319065505187
 21
-1.939179379703348
 31
0.0
  0
LINE
  5
6202
330
61A9
100
AcDbEntity
  8
0
100
AcDbLine
 10
-10.35911434438292
 20
-1.93917937970335
 30
0.0
 11
-10.35911434438291
 21
19.0447827501392
 31
0.0
  0
ELLIPSE
  5
6203
330
61A9
100
AcDbEntity
  8
0
100
AcDbEllipse
 10
-9.227743494484442
 20
18.39158548539703
 30
0.0
 11
-0.7999999999999974
 21
1.385640646055098
 31
0.0
210
0.0
220
0.0
230
1.0
 40
0.5773502691896259
 41
0.0093768775262006
 42
0.7853981633974492
  0
ELLIPSE
  5
6204
330
61A9
100
AcDbEntity
  8
0
100
AcDbEllipse
 10
-7.459976541518074
 20
17.37096475923737
 30
0.0
 11
-0.8999999999999984
 21
-0.0000000000000005
 31
0.0
210
0.0
220
0.0
230
1.0
 40
0.5773502691896258
 41
0.0
 42
0.7853981633974448
  0
ELLIPSE
  5
6205
330
61A9
100
AcDbEntity
  8
0
100
AcDbEllipse
 10
-9.864139597552334
 20
18.02416202397955
 30
0.0
 11
-1.250000000000126
 21
2.165063509461017
 31
0.0
210
0.0
220
0.0
230
0.9999999999999998
 40
0.5773502691896259
 41
3.926990816986998
 42
7.068583470576792
  0
ELLIPSE
  5
6206
330
61A9
100
AcDbEntity
  8
0
100
AcDbEllipse
 10
-7.459976541518074
 20
-3.612997370605186
 30
0.0
 11
-0.9000000000000007
 21
-0.0000000000000001
 31
0.0
210
0.0
220
0.0
230
1.0
 40
0.5773502691896258
 41
0.0
 42
0.7853981633974465
  0
LINE
  5
6207
330
61A9
100
AcDbEntity
  8
0
100
AcDbLine
 10
-8.096372644585969
 20
-3.980420832022666
 30
0.0
 11
-8.096372644585969
 21
17.00354129781989
 31
0.0
  0
ELLIPSE
  5
6208
330
61A9
100
AcDbEntity
  8
0
100
AcDbEllipse
 10
-8.732768747653857
 20
-5.817538139110047
 30
0.0
 11
-0.4500000000000007
 21
0.7794228634059951
 31
0.0
210
0.0
220
0.0
230
1.0
 40
0.5773502691896252
 41
5.497787143782137
 42
6.283185307179586
  0
ELLIPSE
  5
6209
330
61A9
100
AcDbEntity
  8
0
100
AcDbEllipse
 10
-17.64231419060436
 20
-10.96146659895472
 30
0.0
 11
-0.4500000000000003
 21
0.7794228634059954
 31
0.0
210
0.0
220
0.0
230
1.0
 40
0.5773502691896255
 41
5.497787143782133
 42
6.283185307179581
  0
ELLIPSE
  5
620A
330
61A9
100
AcDbEntity
  8
0
100
AcDbEllipse
 10
-21.17784809653709
 20
-8.920225146635413
 30
0.0
 11
-0.4500000000000418
 21
0.7794228634059586
 31
0.0
210
0.0
220
0.0
230
1.0
 40
0.5773502691896255
 41
3.926990816986991
 42
5.497787143781894
  0
SPLINE
  5
620B
330
61A9
100
AcDbEntity
  8
0
100
AcDbSpline
210
0.0
220
0.0
230
1.0
 70
     8
 71
     3
 72
    24
 73
    20
 74
     0
 42
0.000000001
 43
0.0000000001
 40
4.089955419147758
 40
4.089955419147758
 40
4.089955419147758
 40
4.089955419147758
 40
4.39822971502571
 40
4.39822971502571
 40
4.64008465087237
 40
4.64008465087237
 40
4.876994969012446
 40
4.876994969012446
 40
5.127353086333474
 40
5.127353086333474
 40
5.390670683693926
 40
5.390670683693926
 40
5.660900423611619
 40
5.660900423611619
 40
5.930296042682111
 40
5.930296042682111
 40
6.190907541946702
 40
6.190907541946702
 40
6.283185307179586
 40
6.283185307179586
 40
6.283185307179586
 40
6.283185307179586
 10
-10.03906729667753
 20
19.77218213552671
 30
0.0
 10
-10.03906729667753
 20
19.77218213552671
 30
0.0
 10
-10.01393771131109
 20
19.77860727939005
 30
0.0
 10
-9.904039442742059
 20
19.75638966064531
 30
0.0
 10
-9.835302822961191
 20
19.73442170257238
 30
0.0
 10
-9.674119109517254
 20
19.65484294618466
 30
0.0
 10
-9.58249135656273
 20
19.59822483369067
 30
0.0
 10
-9.385629735561924
 20
19.4468074644172
 30
0.0
 10
-9.279959782447745
 20
19.35015876517142
 30
0.0
 10
-9.068997702884622
 20
19.12104364921918
 30
0.0
 10
-8.964005462019187
 20
18.98704877354463
 30
0.0
 10
-8.770669468454597
 20
18.6955300061529
 30
0.0
 10
-8.682845910851233
 20
18.53751323752049
 30
0.0
 10
-8.537061395107285
 20
18.21868338099019
 30
0.0
 10
-8.479053194285304
 20
18.05790012589721
 30
0.0
 10
-8.398159327387963
 20
17.75758045230897
 30
0.0
 10
-8.374282987516862
 20
17.61756588013686
 30
0.0
 10
-8.361535562330947
 20
17.45114664918514
 30
0.0
 10
-8.359976541518076
 20
17.40977735907545
 30
0.0
 10
-8.359976541518074
 20
17.37096475923737
 30
0.0
  0
LINE
  5
620C
330
61A9
100
AcDbEntity
  8
0
100
AcDbLine
 10
-8.35997654151807
 20
17.37096475923737
 30
0.0
 11
-8.359976541518076
 21
-3.612997370605186
 31
0.0
  0
SPLINE
  5
620D
330
61A9
100
AcDbEntity
  8
0
100
AcDbSpline
210
0.0
220
0.0
230
1.0
 70
     8
 71
     3
 72
    20
 73
    16
 74
     0
 42
0.000000001
 43
0.0000000001
 40
4.712388980384689
 40
4.712388980384689
 40
4.712388980384689
 40
4.712388980384689
 40
4.919112646862266
 40
4.919112646862266
 40
5.142574119643879
 40
5.142574119643879
 40
5.381628724161135
 40
5.381628724161135
 40
5.629603041756238
 40
5.629603041756238
 40
5.877267536718726
 40
5.877267536718726
 40
6.114931450740438
 40
6.114931450740438
 40
6.283185307179586
 40
6.283185307179586
 40
6.283185307179586
 40
6.283185307179586
 10
-9.182768747653861
 20
-5.038115275704049
 30
0.0
 10
-9.141576148772491
 20
-5.014332717651268
 30
0.0
 10
-9.09323783913681
 20
-4.981305734113776
 30
0.0
 10
-8.986596272303485
 20
-4.893911513655919
 30
0.0
 10
-8.927817309876353
 20
-4.838087089896325
 30
0.0
 10
-8.80787255757678
 20
-4.705286781458184
 30
0.0
 10
-8.746825065612883
 20
-4.627137136105909
 30
0.0
 10
-8.632184893977138
 20
-4.456238610096403
 30
0.0
 10
-8.578959901841674
 20
-4.363068065019497
 30
0.0
 10
-8.488657882208604
 20
-4.174784428889886
 30
0.0
 10
-8.451582775218959
 20
-4.079680559718621
 30
0.0
 10
-8.397381347951103
 20
-3.902765204379434
 30
0.0
 10
-8.379554488002087
 20
-3.820587738838097
 30
0.0
 10
-8.362876580144355
 20
-3.697582928861051
 30
0.0
 10
-8.359976541518076
 20
-3.651710955523168
 30
0.0
 10
-8.359976541518076
 20
-3.612997370605186
 30
0.0
  0
LINE
  5
620E
330
61A9
100
AcDbEntity
  8
0
100
AcDbLine
 10
-9.182768747653861
 20
-5.038115275704049
 30
0.0
 11
-18.09231419060436
 21
-10.18204373554873
 31
0.0
  0
SPLINE
  5
620F
330
61A9
100
AcDbEntity
  8
0
100
AcDbSpline
210
0.0
220
0.0
230
1.0
 70
     8
 71
     3
 72
    24
 73
    20
 74
     0
 42
0.000000001
 43
0.0000000001
 40
0.0
 40
0.0
 40
0.0
 40
0.0
 40
0.2404833943815378
 40
0.2404833943815378
 40
0.4952826284508357
 40
0.4952826284508357
 40
0.7615079081133706
 40
0.7615079081133706
 40
1.032338512924996
 40
1.032338512924996
 40
1.299839855592316
 40
1.299839855592316
 40
1.556319078585453
 40
1.556319078585453
 40
1.797615147984747
 40
1.797615147984747
 40
2.032802142967349
 40
2.032802142967349
 40
2.193229888031829
 40
2.193229888031829
 40
2.193229888031829
 40
2.193229888031829
 10
-18.09231419060436
 20
-10.18204373554873
 30
0.0
 10
-18.1799116259768
 20
-10.23261813844133
 30
0.0
 10
-18.28801035219916
 20
-10.28248019551828
 30
0.0
 10
-18.54233107007035
 20
-10.37147957812799
 30
0.0
 10
-18.69033615374197
 20
-10.4098423901252
 30
0.0
 10
-19.01231454441832
 20
-10.46533901999043
 30
0.0
 10
-19.18710974719296
 20
-10.48147186299932
 30
0.0
 10
-19.54148125168558
 20
-10.48636065533948
 30
0.0
 10
-19.72105528906219
 20
-10.474634580656
 30
0.0
 10
-20.05995899966359
 20
-10.4253100175425
 30
0.0
 10
-20.2194633885311
 20
-10.38799173887414
 30
0.0
 10
-20.49671207950072
 20
-10.29751964552239
 30
0.0
 10
-20.61579295245766
 20
-10.24502312939813
 30
0.0
 10
-20.80213918453279
 20
-10.140506967498
 30
0.0
 10
-20.87179395579554
 20
-10.08869647132036
 30
0.0
 10
-20.96578634011924
 20
-10.00186616718435
 30
0.0
 10
-20.99089484386849
 20
-9.967043762736341
 30
0.0
 10
-21.00979897074411
 20
-9.934479166660103
 30
0.0
 10
-21.01137481605928
 20
-9.928517174465714
 30
0.0
 10
-21.01137481605928
 20
-9.928517174465714
 30
0.0
  0
LINE
  5
6210
330
61A9
100
AcDbEntity
  8
0
100
AcDbLine
 10
-8.096372644585969
 20
-3.980420832022666
 30
0.0
 11
1.392099309963129
 21
-9.4585926691798
 31
0.0
  0
LINE
  5
6211
330
61A9
100
AcDbEntity
  8
0
100
AcDbLine
 10
-8.732768747653858
 20
-5.082691216275092
 30
0.0
 11
0.7307704362877522
 21
-10.54646811161035
 31
0.0
  0
LINE
  5
6212
330
61A9
100
AcDbEntity
  8
0
100
AcDbLine
 10
7.966642972306773
 20
-14.72410106810275
 30
0.0
 11
17.43018215624839
 21
-20.18787796343802
 31
0.0
  0
LINE
  5
6213
330
61A9
100
AcDbEntity
  8
0
100
AcDbLine
 10
8.578106304767178
 20
-13.60743574202845
 30
0.0
 11
18.06657825931628
 21
-19.08560757918559
 31
0.0
  0
LINE
  5
6214
330
61A9
100
AcDbEntity
  8
0
100
AcDbLine
 10
-14.03606960655296
 20
-2.020829037796119
 30
0.0
 11
-12.26830265358659
 21
-3.041449763955776
 31
0.0
  0
LINE
  5
6215
330
61A9
100
AcDbEntity
  8
0
100
AcDbLine
 10
20.96571606218113
 20
-22.22911941575734
 30
0.0
 11
22.7334830151475
 21
-23.24974014191699
 31
0.0
  0
LINE
  5
6216
330
61A9
100
AcDbEntity
  8
0
100
AcDbLine
 10
-13.39967350348507
 20
-0.9185586535436929
 30
0.0
 11
-11.6319065505187
 21
-1.93917937970335
 31
0.0
  0
ELLIPSE
  5
6217
330
61A9
100
AcDbEntity
  8
0
100
AcDbEllipse
 10
-14.03606960655296
 20
-1.285982114961168
 30
0.0
 11
0.4499999999999532
 21
0.7794228634060209
 31
0.0
210
0.0
220
0.0
230
0.9999999999999998
 40
0.5773502691896257
 41
3.926990816986998
 42
5.497787143781897
  0
LINE
  5
6218
330
61A9
100
AcDbEntity
  8
0
100
AcDbLine
 10
21.60211216524902
 20
-21.12684903150491
 30
0.0
 11
23.36987911821539
 21
-22.14746975766457
 31
0.0
  0
LINE
  5
6219
330
61A9
100
AcDbEntity
  8
0
100
AcDbLine
 10
-13.39967350348508
 20
28.63861757603999
 30
0.0
 11
23.36987911821538
 21
7.40970647191911
 31
0.0
  0
ELLIPSE
  5
621A
330
61A9
100
AcDbEntity
  8
0
100
AcDbEllipse
 10
22.7334830151475
 20
-22.51489321908204
 30
0.0
 11
0.8999999999999063
 21
1.558845726812043
 31
0.0
210
0.0
220
0.0
230
1.0
 40
0.5773502691896258
 41
3.926990816986998
 42
5.497787143781893
  0
LINE
  5
621B
330
61A9
100
AcDbEntity
  8
0
100
AcDbLine
 10
-12.12688129734929
 20
30.84315834454485
 30
0.0
 11
24.64267132435117
 21
9.614247240423976
 31
0.0
  0
ELLIPSE
  5
621C
330
61A9
100
AcDbEntity
  8
0
100
AcDbEllipse
 10
24.64267132435117
 20
8.144553394754064
 30
0.0
 11
0.4500000000000464
 21
0.7794228634059678
 31
0.0
210
0.0
220
0.0
230
1.0
 40
0.5773502691896255
 41
0.7853981633976908
 42
2.356194490192587
  0
LINE
  5
621D
330
61A9
100
AcDbEntity
  8
0
100
AcDbLine
 10
24.64267132435117
 20
9.614247240423974
 30
0.0
 11
24.64267132435117
 21
8.87940031758902
 31
0.0
  0
ELLIPSE
  5
621E
330
61A9
100
AcDbEntity
  8
0
100
AcDbEllipse
 10
24.64267132435117
 20
8.144553394754064
 30
0.0
 11
-0.8999999999999076
 21
-1.558845726812045
 31
0.0
210
0.0
220
0.0
230
0.9999999999999998
 40
0.5773502691896255
 41
3.926990816986998
 42
5.497787143781898
  0
LINE
  5
621F
330
61A9
100
AcDbEntity
  8
0
100
AcDbLine
 10
23.36987911821538
 20
7.40970647191911
 30
0.0
 11
24.00627522128328
 21
7.777129933336588
 31
0.0
  0
ELLIPSE
  5
6220
330
61A9
100
AcDbEntity
  8
0
100
AcDbEllipse
 10
-12.12688129734929
 20
29.37346449887493
 30
0.0
 11
0.9000000000000934
 21
1.558845726811936
 31
0.0
210
0.0
220
0.0
230
1.0
 40
0.5773502691896258
 41
0.785398163397689
 42
2.356194490192583
  0
LINE
  5
6221
330
61A9
100
AcDbEntity
  8
0
100
AcDbLine
 10
23.36987911821539
 20
-22.14746975766457
 30
0.0
 11
24.00627522128329
 21
-21.78004629624709
 31
0.0
  0
ELLIPSE
  5
6222
330
61A9
100
AcDbEntity
  8
0
100
AcDbEllipse
 10
22.7334830151475
 20
-22.51489321908204
 30
0.0
 11
-0.4500000000000465
 21
-0.7794228634059678
 31
0.0
210
0.0
220
0.0
230
0.9999999999999998
 40
0.5773502691896258
 41
0.7853981633976908
 42
2.356194490192585
  0
LINE
  5
6223
330
61A9
100
AcDbEntity
  8
0
100
AcDbLine
 10
22.7334830151475
 20
-23.24974014191699
 30
0.0
 11
22.7334830151475
 21
-23.98458706475194
 31
0.0
  0
LINE
  5
6224
330
61A9
100
AcDbEntity
  8
0
100
AcDbLine
 10
24.00627522128329
 20
-21.78004629624709
 30
0.0
 11
24.00627522128328
 21
7.77712993333659
 31
0.0
  0
LINE
  5
6225
330
61A9
100
AcDbEntity
  8
0
100
AcDbLine
 10
-45.92658543806625
 20
-20.43282693771637
 30
0.0
 11
-14.03606960655296
 21
-2.020829037796119
 31
0.0
  0
LINE
  5
6226
330
61A9
100
AcDbEntity
  8
0
100
AcDbLine
 10
-31.78444981433531
 20
-28.59779274699363
 30
0.0
 11
-45.92658543806625
 21
-20.43282693771637
 31
0.0
  0
LINE
  5
6227
330
61A9
100
AcDbEntity
  8
0
100
AcDbLine
 10
-9.15703281636579
 20
-41.66173804183721
 30
0.0
 11
-23.29916844009674
 21
-33.49677223255996
 31
0.0
  0
LINE
  5
6228
330
61A9
100
AcDbEntity
  8
0
100
AcDbLine
 10
22.7334830151475
 20
-23.24974014191699
 30
0.0
 11
-9.157032816365791
 21
-41.66173804183721
 31
0.0
  0
LINE
  5
6229
330
61A9
100
AcDbEntity
  8
0
100
AcDbLine
 10
-45.92658543806625
 20
-21.16767386055133
 30
0.0
 11
-45.92658543806625
 21
-20.43282693771637
 31
0.0
  0
LINE
  5
622A
330
61A9
100
AcDbEntity
  8
0
100
AcDbLine
 10
-45.92658543806625
 20
-21.16767386055133
 30
0.0
 11
-31.78444981433531
 21
-29.33263966982858
 31
0.0
  0
LINE
  5
622B
330
61A9
100
AcDbEntity
  8
0
100
AcDbLine
 10
-23.29916844009674
 20
-34.23161915539492
 30
0.0
 11
-9.157032816365791
 21
-42.39658496467217
 31
0.0
  0
LINE
  5
622C
330
61A9
100
AcDbEntity
  8
0
100
AcDbLine
 10
-9.15703281636579
 20
-42.39658496467217
 30
0.0
 11
-9.15703281636579
 21
-41.66173804183721
 31
0.0
  0
LINE
  5
622D
330
61A9
100
AcDbEntity
  8
0
100
AcDbLine
 10
23.36987911821538
 20
7.40970647191911
 30
0.0
 11
23.36987911821539
 21
-22.14746975766457
 31
0.0
  0
LINE
  5
622E
330
61A9
100
AcDbEntity
  8
0
100
AcDbLine
 10
-13.39967350348507
 20
-0.9185586535436929
 30
0.0
 11
-13.39967350348508
 21
28.63861757603999
 31
0.0
  0
LINE
  5
622F
330
61A9
100
AcDbEntity
  8
0
100
AcDbLine
 10
-9.15703281636579
 20
-42.39658496467217
 30
0.0
 11
22.7334830151475
 21
-23.98458706475194
 31
0.0
  0
LINE
  5
6230
330
61A9
100
AcDbEntity
  8
0
100
AcDbLine
 10
-12.12688129734929
 20
30.84315834454485
 30
0.0
 11
-7.177133829043468
 21
33.70089637779189
 31
0.0
  0
LINE
  5
6231
330
61A9
100
AcDbEntity
  8
0
100
AcDbLine
 10
45.92658543806623
 20
21.90252078338627
 30
0.0
 11
24.64267132435117
 21
9.614247240423976
 31
0.0
  0
LINE
  5
6232
330
61A9
100
AcDbEntity
  8
0
100
AcDbLine
 10
42.39105153213351
 20
23.94376223570559
 30
0.0
 11
45.92658543806623
 21
21.90252078338627
 31
0.0
  0
LINE
  5
6233
330
61A9
100
AcDbEntity
  8
0
100
AcDbLine
 10
24.64267132435117
 20
8.87940031758902
 30
0.0
 11
45.92658543806625
 21
21.16767386055132
 31
0.0
  0
LINE
  5
6234
330
61A9
100
AcDbEntity
  8
0
100
AcDbLine
 10
45.92658543806625
 20
21.16767386055132
 30
0.0
 11
45.92658543806623
 21
21.90252078338627
 31
0.0
  0
ELLIPSE
  5
6235
330
61A9
100
AcDbEntity
  8
0
100
AcDbEllipse
 10
-33.90577015789494
 20
-22.47406839003568
 30
0.0
 11
-2.0
 21
-0.0000000000000004
 31
0.0
210
0.0
220
0.0
230
1.0
 40
0.5773502691896258
 41
3.926990816987241
 42
7.068583470577034
  0
LINE
  5
6236
330
61A9
100
AcDbEntity
  8
0
100
AcDbLine
 10
-32.49155659552186
 20
-21.65757180910796
 30
0.0
 11
-31.07734303314875
 21
-22.4740683900357
 31
0.0
  0
ELLIPSE
  5
6237
330
61A9
100
AcDbEntity
  8
0
100
AcDbEllipse
 10
-32.49155659552183
 20
-23.2905649709634
 30
0.0
 11
2.0
 21
0.0000000000000001
 31
0.0
210
0.0
220
0.0
230
1.0
 40
0.5773502691896259
 41
3.926990816987243
 42
7.068583470577036
  0
LINE
  5
6238
330
61A9
100
AcDbEntity
  8
0
100
AcDbLine
 10
-33.90577015789494
 20
-24.10706155189114
 30
0.0
 11
-35.31998372026804
 21
-23.29056497096342
 31
0.0
  0
ELLIPSE
  5
6239
330
61A9
100
AcDbEntity
  8
0
100
AcDbEllipse
 10
-12.69256672229852
 20
-34.72151710395154
 30
0.0
 11
1.999999999999999
 21
0.0000000000000004
 31
0.0
210
0.0
220
0.0
230
1.0
 40
0.5773502691896259
 41
3.926990816987242
 42
7.068583470577036
  0
LINE
  5
623A
330
61A9
100
AcDbEntity
  8
0
100
AcDbLine
 10
-14.10678028467162
 20
-35.53801368487928
 30
0.0
 11
-15.52099384704473
 21
-34.72151710395154
 31
0.0
  0
ELLIPSE
  5
623B
330
61A9
100
AcDbEntity
  8
0
100
AcDbEllipse
 10
-14.10678028467163
 20
-33.90502052302381
 30
0.0
 11
-1.999999999999999
 21
-0.0000000000000003
 31
0.0
210
0.0
220
0.0
230
1.0
 40
0.5773502691896259
 41
3.926990816987242
 42
7.068583470577036
  0
LINE
  5
623C
330
61A9
100
AcDbEntity
  8
0
100
AcDbLine
 10
-12.69256672229855
 20
-33.08852394209609
 30
0.0
 11
-11.27835315992544
 21
-33.90502052302382
 31
0.0
  0
ELLIPSE
  5
623D
330
61A9
100
AcDbEntity
  8
0
100
AcDbEllipse
 10
-33.90577015789494
 20
-23.20891531287063
 30
0.0
 11
-2.0
 21
-0.0000000000001196
 31
0.0
210
0.0
220
0.0
230
1.0
 40
0.5773502691896258
 41
3.926990816987
 42
5.959357168603949
  0
ELLIPSE
  5
623E
330
61A9
100
AcDbEntity
  8
0
100
AcDbEllipse
 10
-32.49155659552183
 20
-24.02541189379836
 30
0.0
 11
2.0
 21
0.0000000000000001
 31
0.0
210
0.0
220
0.0
230
1.0
 40
0.5773502691896261
 41
0.3238281385752852
 42
0.7853981633974484
  0
LINE
  5
623F
330
61A9
100
AcDbEntity
  8
0
100
AcDbLine
 10
-31.07734303314875
 20
-23.20891531287065
 30
0.0
 11
-32.49155659552186
 21
-22.39241873194291
 31
0.0
  0
ELLIPSE
  5
6240
330
61A9
100
AcDbEntity
  8
0
100
AcDbEllipse
 10
-12.69256672229852
 20
-35.45636402678649
 30
0.0
 11
1.999999999999999
 21
0.0000000000000003
 31
0.0
210
0.0
220
0.0
230
1.0
 40
0.5773502691896259
 41
0.3238281385752856
 42
0.785398163397446
  0
LINE
  5
6241
330
61A9
100
AcDbEntity
  8
0
100
AcDbLine
 10
-11.27835315992544
 20
-34.63986744585877
 30
0.0
 11
-12.69256672229855
 21
-33.82337086493104
 31
0.0
  0
ELLIPSE
  5
6242
330
61A9
100
AcDbEntity
  8
0
100
AcDbEllipse
 10
-14.10678028467163
 20
-34.63986744585877
 30
0.0
 11
-1.999999999999999
 21
-0.0000000000001196
 31
0.0
210
0.0
220
0.0
230
1.0
 40
0.5773502691896259
 41
3.926990816987
 42
5.959357168603952
  0
LINE
  5
6243
330
61A9
100
AcDbEntity
  8
0
100
AcDbLine
 10
-11.27835315992544
 20
-33.90502052302382
 30
0.0
 11
-11.27835315992544
 21
-34.63986744585877
 31
0.0
  0
LINE
  5
6244
330
61A9
100
AcDbEntity
  8
0
100
AcDbLine
 10
-12.69256672229855
 20
-33.08852394209609
 30
0.0
 11
-12.69256672229855
 21
-33.82337086493104
 31
0.0
  0
LINE
  5
6245
330
61A9
100
AcDbEntity
  8
0
100
AcDbLine
 10
-32.49155659552186
 20
-21.65757180910796
 30
0.0
 11
-32.49155659552186
 21
-22.39241873194291
 31
0.0
  0
LINE
  5
6246
330
61A9
100
AcDbEntity
  8
0
100
AcDbLine
 10
-31.07734303314875
 20
-22.4740683900357
 30
0.0
 11
-31.07734303314875
 21
-23.20891531287065
 31
0.0
  0
LINE
  5
6247
330
61A9
100
AcDbEntity
  8
0
100
AcDbLine
 10
34.92309870597337
 20
24.41530893031671
 30
0.0
 11
21.81499854696348
 21
19.59079823936349
 31
0.0
  0
ELLIPSE
  5
6248
330
61A9
100
AcDbEntity
  8
0
100
AcDbEllipse
 10
38.14841084501423
 20
21.49427249292241
 30
0.0
 11
-5.999999999999998
 21
-0.0000000000003625
 31
0.0
210
0.0
220
0.0
230
1.0
 40
0.5773502691896264
 41
3.926990816986998
 42
5.279920301319712
  0
LINE
  5
6249
330
61A9
100
AcDbEntity
  8
0
100
AcDbLine
 10
16.51934965614502
 20
35.8209567390993
 30
0.0
 11
3.297004162339298
 21
31.32545743586015
 31
0.0
  0
ELLIPSE
  5
624A
330
61A9
100
AcDbEntity
  8
0
100
AcDbEllipse
 10
19.05652775297745
 20
32.59862599353949
 30
0.0
 11
4.999999999999999
 21
-0.0000000000000041
 31
0.0
210
0.0
220
0.0
230
1.0
 40
0.5773502691896262
 41
5.750979124538253
 42
6.283185307179596
  0
ELLIPSE
  5
624B
330
61A9
100
AcDbEntity
  8
0
100
AcDbEllipse
 10
19.05652775297744
 20
33.33347291637443
 30
0.0
 11
4.999999999999998
 21
0.0000000000000039
 31
0.0
210
0.0
220
0.0
230
1.0
 40
0.5773502691896263
 41
5.750979124538246
 42
8.386187816615821
  0
LINE
  5
624C
330
61A9
100
AcDbEntity
  8
0
100
AcDbLine
 10
23.36497611694257
 20
31.86863245918621
 30
0.0
 11
23.36497611694257
 21
31.13378553635126
 31
0.0
  0
LINE
  5
624D
330
61A9
100
AcDbEntity
  8
0
100
AcDbLine
 10
23.36497611694257
 20
31.13378553635126
 30
0.0
 11
14.81879006713097
 21
22.75498880487868
 31
0.0
  0
LINE
  5
624E
330
61A9
100
AcDbEntity
  8
0
100
AcDbLine
 10
14.81879006713097
 20
23.48983572771363
 30
0.0
 11
23.36497611694257
 21
31.86863245918621
 31
0.0
  0
LINE
  5
624F
330
61A9
100
AcDbEntity
  8
0
100
AcDbLine
 10
14.81879006713097
 20
23.48983572771363
 30
0.0
 11
14.81879006713097
 21
22.75498880487868
 31
0.0
  0
ELLIPSE
  5
6250
330
61A9
100
AcDbEntity
  8
0
100
AcDbEllipse
 10
19.12723843109611
 20
21.29014834769047
 30
0.0
 11
-4.999999999999999
 21
-0.0000000000000028
 31
0.0
210
0.0
220
0.0
230
1.0
 40
0.5773502691896262
 41
5.750979124538248
 42
6.155559903006255
  0
ELLIPSE
  5
6251
330
61A9
100
AcDbEntity
  8
0
100
AcDbEllipse
 10
19.12723843109611
 20
22.02499527052542
 30
0.0
 11
-5.0
 21
0.0000000000002956
 31
0.0
210
0.0
220
0.0
230
1.0
 40
0.5773502691896261
 41
5.750979124538496
 42
8.421512954909813
  0
LINE
  5
6252
330
61A9
100
AcDbEntity
  8
0
100
AcDbLine
 10
-3.990250240978902
 20
31.86094828034681
 30
0.0
 11
-7.177133829043468
 21
33.70089637779189
 31
0.0
  0
ELLIPSE
  5
6253
330
61A9
100
AcDbEntity
  8
0
100
AcDbEllipse
 10
0.2523904461403936
 20
34.31043802313
 30
0.0
 11
-5.999999999999998
 21
0.0000000000003555
 31
0.0
210
0.0
220
0.0
230
1.0
 40
0.5773502691896264
 41
0.7853981633976224
 42
2.103002509436343
  0
LINE
  5
6254
330
61A9
100
AcDbEntity
  8
0
100
AcDbLine
 10
24.05652775297744
 20
33.33347291637443
 30
0.0
 11
24.05652775297744
 21
32.59862599353948
 31
0.0
  0
ENDBLK
  5
61AB
330
61A9
100
AcDbEntity
  8
0
100
AcDbBlockEnd
  0
ENDSEC
  0
SECTION
  2
ENTITIES
  0
INSERT
  5
6255
330
1F
100
AcDbEntity
  8
0
100
AcDbBlockReference
  2
ZS38N-Front
 10
0.0
 20
0.0
 30
0.0
  0
INSERT
  5
6256
330
1F
100
AcDbEntity
  8
0
100
AcDbBlockReference
  2
ZS38N-Left
 10
76.88000000000001
 20
0.0
 30
0.0
  0
INSERT
  5
6257
330
1F
100
AcDbEntity
  8
0
100
AcDbBlockReference
  2
ZS38N-Right
 10
-76.88000000000001
 20
0.0
 30
0.0
  0
INSERT
  5
6258
330
1F
100
AcDbEntity
  8
0
100
AcDbBlockReference
  2
ZS38N-Top
 10
0.0
 20
-90.68000000000003
 30
0.0
  0
INSERT
  5
6259
330
1F
100
AcDbEntity
  8
0
100
AcDbBlockReference
  2
ZS38N-Bottom
 10
0.0
 20
51.78
 30
0.0
  0
INSERT
  5
625A
330
1F
100
AcDbEntity
  8
0
100
AcDbBlockReference
  2
ZS38N-ISO
 10
92.70658543806625
 20
-96.80022426232259
 30
0.0
  0
MTEXT
  5
625B
330
1F
100
AcDbEntity
  8
0
100
AcDbMText
 10
0.0
 20
-159.26
 30
0.0
 40
6.926666666666666
 41
0.0
 71
     5
 72
     5
  1
ZS38N
 73
     1
 44
1.0
1001
ACAD
1000
MTEXTBEGIN
1070
    73
1070
     1
1070
    44
1040
1.0
1070
    74
1070
     0
1000
MTEXTEND
  0
ENDSEC
  0
SECTION
  2
OBJECTS
  0
DICTIONARY
  5
C
330
0
100
AcDbDictionary
281
     1
  3
ACAD_CIP_PREVIOUS_PRODUCT_INFO
350
216
  3
ACAD_COLOR
350
6B
  3
ACAD_DETAILVIEWSTYLE
350
21B
  3
ACAD_GROUP
350
D
  3
ACAD_LAYOUT
350
1A
  3
ACAD_MATERIAL
350
6A
  3
ACAD_MLEADERSTYLE
350
12D
  3
ACAD_MLINESTYLE
350
17
  3
ACAD_PLOTSETTINGS
350
19
  3
ACAD_PLOTSTYLENAME
350
E
  3
ACAD_SCALELIST
350
10C
  3
ACAD_SECTIONVIEWSTYLE
350
219
  3
ACAD_TABLESTYLE
350
7E
  3
ACAD_VISUALSTYLE
350
EF
  3
ACDB_RECOMPOSE_DATA
350
635C
  3
AcDbVariableDictionary
350
5E
  3
DWGPROPS
350
635D
  0
DICTIONARY
  5
62AC
330
8
100
AcDbDictionary
280
     1
281
     1
  0
DICTIONARY
  5
1FF
330
2
100
AcDbDictionary
280
     1
281
     1
  3
ACAD_LAYERSTATES
360
200
  0
DICTIONARY
  5
13C
330
10
100
AcDbDictionary
280
     1
281
     1
  0
DICTIONARY
  5
1CE
330
1F
100
AcDbDictionary
280
     1
281
     1
  3
ACAD_LAYOUTSELFREF
360
62B4
  0
DICTIONARY
  5
625F
330
D2
100
AcDbDictionary
280
     1
281
     1
  3
ACAD_LAYOUTSELFREF
360
62BD
  0
DICTIONARY
  5
6261
330
D6
100
AcDbDictionary
280
     1
281
     1
  3
ACAD_LAYOUTSELFREF
360
62C0
  0
XRECORD
  5
216
102
{ACAD_REACTORS
330
C
102
}
330
C
100
AcDbXrecord
280
     1
300
ACD
300
2021
300
87393ACD_2021_0F
  0
DICTIONARY
  5
6B
102
{ACAD_REACTORS
330
C
102
}
330
C
100
AcDbDictionary
281
     1
  0
DICTIONARY
  5
21B
102
{ACAD_REACTORS
330
C
102
}
330
C
100
AcDbDictionary
281
     1
  3
Metric50
350
21C
  0
DICTIONARY
  5
D
102
{ACAD_REACTORS
330
C
102
}
330
C
100
AcDbDictionary
281
     1
  0
DICTIONARY
  5
1A
102
{ACAD_REACTORS
330
C
102
}
330
C
100
AcDbDictionary
281
     1
  3
Layout1
350
D3
  3
Layout2
350
D7
  3
Model
350
22
  0
DICTIONARY
  5
6A
102
{ACAD_REACTORS
330
C
102
}
330
C
100
AcDbDictionary
281
     1
  3
ByBlock
350
ED
  3
ByLayer
350
EC
  3
Global
350
EE
  0
DICTIONARY
  5
12D
102
{ACAD_REACTORS
330
C
102
}
330
C
100
AcDbDictionary
281
     1
  3
Standard
350
12E
  0
DICTIONARY
  5
17
102
{ACAD_REACTORS
330
C
102
}
330
C
100
AcDbDictionary
281
     1
  3
Standard
350
18
  0
DICTIONARY
  5
19
102
{ACAD_REACTORS
330
C
102
}
330
C
100
AcDbDictionary
281
     1
  0
ACDBDICTIONARYWDFLT
  5
E
102
{ACAD_REACTORS
330
C
102
}
330
C
100
AcDbDictionary
281
     1
  3
Normal
350
F
100
AcDbDictionaryWithDefault
340
F
  0
DICTIONARY
  5
10C
102
{ACAD_REACTORS
330
C
102
}
330
C
100
AcDbDictionary
281
     1
  3
A0
350
10D
  3
A1
350
1BE
  3
A2
350
1BF
  3
A3
350
1C0
  3
A4
350
1C1
  3
A5
350
1C2
  3
A6
350
1C3
  3
A7
350
1C4
  3
A8
350
1C5
  3
A9
350
1C6
  3
B0
350
1C7
  3
B1
350
1C8
  3
B2
350
1C9
  3
B3
350
1CA
  3
B4
350
1CB
  3
B5
350
1CC
  3
B6
350
1CD
  0
DICTIONARY
  5
219
102
{ACAD_REACTORS
330
C
102
}
330
C
100
AcDbDictionary
281
     1
  3
Metric50
350
21A
  0
DICTIONARY
  5
7E
102
{ACAD_REACTORS
330
C
102
}
330
C
100
AcDbDictionary
281
     1
  3
Standard
350
7F
  0
DICTIONARY
  5
EF
102
{ACAD_REACTORS
330
C
102
}
330
C
100
AcDbDictionary
281
     1
  3
2dWireframe
350
F5
  3
Basic
350
F4
  3
Brighten
350
FB
  3
ColorChange
350
FF
  3
Conceptual
350
F8
  3
Dim
350
FA
  3
EdgeColorOff
350
1E6
  3
Facepattern
350
FE
  3
Flat
350
F0
  3
FlatWithEdges
350
F1
  3
Gouraud
350
F2
  3
GouraudWithEdges
350
F3
  3
Hidden
350
F7
  3
JitterOff
350
1E4
  3
Linepattern
350
FD
  3
OverhangOff
350
1E5
  3
Realistic
350
F9
  3
Shaded
350
1F3
  3
Shaded with edges
350
1F2
  3
Shades of Gray
350
1EF
  3
Sketchy
350
1F0
  3
Thicken
350
FC
  3
Wireframe
350
F6
  3
X-Ray
350
1F1
  0
XRECORD
  5
635C
102
{ACAD_REACTORS
330
C
102
}
330
C
100
AcDbXrecord
280
     1
 90
        1
330
7F
  0
DICTIONARY
  5
5E
102
{ACAD_REACTORS
330
C
102
}
330
C
100
AcDbDictionary
281
     1
  3
CANNOSCALE
350
146
  3
CENTEREXE
350
259
  3
CENTERLTYPEFILE
350
25A
  3
CMLEADERSTYLE
350
145
  3
CTABLESTYLE
350
84
  3
CVIEWDETAILSTYLE
350
227
  3
CVIEWSECTIONSTYLE
350
228
  3
DIMASSOC
350
5F
  3
HIDETEXT
350
63
  3
INDEXCTL
350
6309
  3
LAYEREVAL
350
1AE
  3
LAYERNOTIFY
350
1AF
  3
LIGHTINGUNITS
350
6307
  3
MSLTSCALE
350
6306
  3
PSOLHEIGHT
350
6359
  3
PSOLWIDTH
350
6358
  3
SORTENTS
350
6308
  3
XCLIPFRAME
350
635A
  0
XRECORD
  5
635D
102
{ACAD_REACTORS
330
C
102
}
330
C
100
AcDbXrecord
280
     1
  1
DWGPROPS COOKIE
  2

  3

  4

  6

  7

  8
tronnguyen
  9

300
=
301
=
302
=
303
=
304
=
305
=
306
=
307
=
308
=
309
=
 40
0.7542476851851852
 41
2460781.656018518
 42
2460782.412581019
  1

 90
        0
  0
DICTIONARY
  5
200
102
{ACAD_REACTORS
330
1FF
102
}
330
1FF
100
AcDbDictionary
281
     1
  0
XRECORD
  5
62B4
102
{ACAD_REACTORS
330
1CE
102
}
330
1CE
100
AcDbXrecord
280
     1
340
1F
  0
XRECORD
  5
62BD
102
{ACAD_REACTORS
330
625F
102
}
330
625F
100
AcDbXrecord
280
     1
340
D2
  0
XRECORD
  5
62C0
102
{ACAD_REACTORS
330
6261
102
}
330
6261
100
AcDbXrecord
280
     1
340
D6
  0
ACDBDETAILVIEWSTYLE
  5
21C
102
{ACAD_XDICTIONARY
360
639C
102
}
102
{ACAD_REACTORS
330
21B
102
}
330
21B
100
AcDbModelDocViewStyle
 70
     0
  3
Metric50
290
     0
100
AcDbDetailViewStyle
 70
     0
 71
     0
 90
        3
 71
     1
340
11
 40
5.0
340
0
 40
5.0
300

 40
0.0
280
     1
 71
     2
340
16
 90
       25
 71
     3
340
11
 40
5.0
 90
        0
 40
15.0
 90
        1
300
%<\AcVar ViewDetailId>% (%<\AcVar ViewScale \f "%sn">%)
 71
     4
340
16
 90
       25
340
16
 90
       25
280
     0
  0
LAYOUT
  5
D3
102
{ACAD_XDICTIONARY
360
6361
102
}
102
{ACAD_REACTORS
330
1A
102
}
330
1A
100
AcDbPlotSettings
  1

  2
C:\Documents and Settings\basas\Application Data\Autodesk\AutoCAD 2005\R16.1\enu\plotters\Default Windows System Printer.pc3
  4

  6

 40
0.0
 41
0.0
 42
0.0
 43
0.0
 44
0.0
 45
0.0
 46
0.0
 47
0.0
 48
0.0
 49
0.0
140
0.0
141
0.0
142
1.0
143
1.0
 70
   688
 72
     0
 73
     0
 74
     5
  7

 75
    16
147
1.0
148
0.0
149
0.0
100
AcDbLayout
  1
Layout1
 70
     1
 71
     1
 10
0.0
 20
0.0
 11
12.0
 21
9.0
 12
0.0
 22
0.0
 32
0.0
 14
0.0
 24
0.0
 34
0.0
 15
0.0
 25
0.0
 35
0.0
146
0.0
 13
0.0
 23
0.0
 33
0.0
 16
1.0
 26
0.0
 36
0.0
 17
0.0
 27
1.0
 37
0.0
 76
     0
330
D2
  0
LAYOUT
  5
D7
102
{ACAD_XDICTIONARY
360
6363
102
}
102
{ACAD_REACTORS
330
1A
102
}
330
1A
100
AcDbPlotSettings
  1

  2
C:\Documents and Settings\basas\Application Data\Autodesk\AutoCAD 2005\R16.1\enu\plotters\Default Windows System Printer.pc3
  4

  6

 40
0.0
 41
0.0
 42
0.0
 43
0.0
 44
0.0
 45
0.0
 46
0.0
 47
0.0
 48
0.0
 49
0.0
140
0.0
141
0.0
142
1.0
143
1.0
 70
   688
 72
     0
 73
     0
 74
     5
  7

 75
    16
147
1.0
148
0.0
149
0.0
100
AcDbLayout
  1
Layout2
 70
     1
 71
     2
 10
0.0
 20
0.0
 11
12.0
 21
9.0
 12
0.0
 22
0.0
 32
0.0
 14
0.0
 24
0.0
 34
0.0
 15
0.0
 25
0.0
 35
0.0
146
0.0
 13
0.0
 23
0.0
 33
0.0
 16
1.0
 26
0.0
 36
0.0
 17
0.0
 27
1.0
 37
0.0
 76
     0
330
D6
  0
LAYOUT
  5
22
102
{ACAD_XDICTIONARY
360
635E
102
}
102
{ACAD_REACTORS
330
1A
102
}
330
1A
100
AcDbPlotSettings
  1

  2
none_device
  4
ISO_A4_(210.00_x_297.00_MM)
  6

 40
7.5
 41
20.0
 42
7.5
 43
20.0
 44
210.0
 45
297.0
 46
11.54999923706054
 47
-13.65000009536743
 48
0.0
 49
0.0
140
0.0
141
0.0
142
1.0
143
8.704084754739808
 70
 11952
 72
     1
 73
     0
 74
     0
  7

 75
     0
147
0.1148885871608098
148
0.0
149
0.0
100
AcDbLayout
  1
Model
 70
     1
 71
     0
 10
0.0
 20
0.0
 11
12.0
 21
9.0
 12
0.0
 22
0.0
 32
0.0
 14
0.0
 24
0.0
 34
0.0
 15
0.0
 25
0.0
 35
0.0
146
0.0
 13
0.0
 23
0.0
 33
0.0
 16
1.0
 26
0.0
 36
0.0
 17
0.0
 27
1.0
 37
0.0
 76
     0
330
1F
331
EA
1001
ACAD_PSEXT
1000
None
1000
None
1000
Not applicable
1000
The layout will not be plotted unless a new plotter configuration name is selected.
1070
     0
  0
MATERIAL
  5
ED
102
{ACAD_XDICTIONARY
360
1F9
102
}
102
{ACAD_REACTORS
330
6A
102
}
330
6A
100
AcDbMaterial
  1
ByBlock
  0
MATERIAL
  5
EC
102
{ACAD_XDICTIONARY
360
1F7
102
}
102
{ACAD_REACTORS
330
6A
102
}
330
6A
100
AcDbMaterial
  1
ByLayer
  0
MATERIAL
  5
EE
102
{ACAD_XDICTIONARY
360
173
102
}
102
{ACAD_REACTORS
330
6A
102
}
330
6A
100
AcDbMaterial
  1
Global
 43
0.0007999999797903
 43
0.0
 43
0.0
 43
0.0
 43
0.0
 43
0.0007999999797903
 43
0.0
 43
0.0
 43
0.0
 43
0.0
 43
1.0
 43
0.0
 43
0.0
 43
0.0
 43
0.0
 43
1.0
 49
0.0007999999797903
 49
0.0
 49
0.0
 49
0.0
 49
0.0
 49
0.0007999999797903
 49
0.0
 49
0.0
 49
0.0
 49
0.0
 49
1.0
 49
0.0
 49
0.0
 49
0.0
 49
0.0
 49
1.0
142
0.0007999999797903
142
0.0
142
0.0
142
0.0
142
0.0
142
0.0007999999797903
142
0.0
142
0.0
142
0.0
142
0.0
142
1.0
142
0.0
142
0.0
142
0.0
142
0.0
142
1.0
144
0.0007999999797903
144
0.0
144
0.0
144
0.0
144
0.0
144
0.0007999999797903
144
0.0
144
0.0
144
0.0
144
0.0
144
1.0
144
0.0
144
0.0
144
0.0
144
0.0
144
1.0
1001
ACAD
1070
    -1
1070
     3
1070
     0
1000

1071
        0
1070
     0
  0
MLEADERSTYLE
  5
12E
102
{ACAD_XDICTIONARY
360
6388
102
}
102
{ACAD_REACTORS
330
12D
102
}
330
12D
100
AcDbMLeaderStyle
170
     2
171
     1
172
     0
 90
        2
 40
0.0
 41
0.0
173
     1
 91
-1056964608
340
14
 92
       -2
290
     1
 42
2.0
291
     1
 43
8.0
  3
Standard
 44
4.0
300

342
11
174
     1
178
     1
175
     1
176
     0
 93
-1056964608
 45
4.0
292
     0
297
     0
 46
4.0
 94
-1056964608
 47
1.0
 49
1.0
140
1.0
293
     1
141
0.0
294
     1
177
     0
142
1.0
295
     0
296
     0
143
3.75
1001
ACAD_MLEADERVER
1070
     2
  0
MLINESTYLE
  5
18
102
{ACAD_REACTORS
330
17
102
}
330
17
100
AcDbMlineStyle
  2
STANDARD
 70
     0
  3

 62
   256
 51
90.0
 52
90.0
 71
     2
 49
0.5
 62
   256
  6
BYLAYER
 49
-0.5
 62
   256
  6
BYLAYER
  0
ACDBPLACEHOLDER
  5
F
102
{ACAD_REACTORS
330
E
102
}
330
E
  0
SCALE
  5
10D
102
{ACAD_REACTORS
330
10C
102
}
330
10C
100
AcDbScale
 70
     0
300
1:1
140
1.0
141
1.0
290
     1
  0
SCALE
  5
1BE
102
{ACAD_REACTORS
330
10C
102
}
330
10C
100
AcDbScale
 70
     0
300
1:2
140
1.0
141
2.0
290
     0
  0
SCALE
  5
1BF
102
{ACAD_REACTORS
330
10C
102
}
330
10C
100
AcDbScale
 70
     0
300
1:4
140
1.0
141
4.0
290
     0
  0
SCALE
  5
1C0
102
{ACAD_REACTORS
330
10C
102
}
330
10C
100
AcDbScale
 70
     0
300
1:5
140
1.0
141
5.0
290
     0
  0
SCALE
  5
1C1
102
{ACAD_REACTORS
330
10C
102
}
330
10C
100
AcDbScale
 70
     0
300
1:8
140
1.0
141
8.0
290
     0
  0
SCALE
  5
1C2
102
{ACAD_REACTORS
330
10C
102
}
330
10C
100
AcDbScale
 70
     0
300
1:10
140
1.0
141
10.0
290
     0
  0
SCALE
  5
1C3
102
{ACAD_REACTORS
330
10C
102
}
330
10C
100
AcDbScale
 70
     0
300
1:16
140
1.0
141
16.0
290
     0
  0
SCALE
  5
1C4
102
{ACAD_REACTORS
330
10C
102
}
330
10C
100
AcDbScale
 70
     0
300
1:20
140
1.0
141
20.0
290
     0
  0
SCALE
  5
1C5
102
{ACAD_REACTORS
330
10C
102
}
330
10C
100
AcDbScale
 70
     0
300
1:30
140
1.0
141
30.0
290
     0
  0
SCALE
  5
1C6
102
{ACAD_REACTORS
330
10C
102
}
330
10C
100
AcDbScale
 70
     0
300
1:40
140
1.0
141
40.0
290
     0
  0
SCALE
  5
1C7
102
{ACAD_REACTORS
330
10C
102
}
330
10C
100
AcDbScale
 70
     0
300
1:50
140
1.0
141
50.0
290
     0
  0
SCALE
  5
1C8
102
{ACAD_REACTORS
330
10C
102
}
330
10C
100
AcDbScale
 70
     0
300
1:100
140
1.0
141
100.0
290
     0
  0
SCALE
  5
1C9
102
{ACAD_REACTORS
330
10C
102
}
330
10C
100
AcDbScale
 70
     0
300
2:1
140
2.0
141
1.0
290
     0
  0
SCALE
  5
1CA
102
{ACAD_REACTORS
330
10C
102
}
330
10C
100
AcDbScale
 70
     0
300
4:1
140
4.0
141
1.0
290
     0
  0
SCALE
  5
1CB
102
{ACAD_REACTORS
330
10C
102
}
330
10C
100
AcDbScale
 70
     0
300
8:1
140
8.0
141
1.0
290
     0
  0
SCALE
  5
1CC
102
{ACAD_REACTORS
330
10C
102
}
330
10C
100
AcDbScale
 70
     0
300
10:1
140
10.0
141
1.0
290
     0
  0
SCALE
  5
1CD
102
{ACAD_REACTORS
330
10C
102
}
330
10C
100
AcDbScale
 70
     0
300
100:1
140
100.0
141
1.0
290
     0
  0
ACDBSECTIONVIEWSTYLE
  5
21A
102
{ACAD_XDICTIONARY
360
639A
102
}
102
{ACAD_REACTORS
330
219
102
}
330
219
100
AcDbModelDocViewStyle
 70
     0
  3
Metric50
290
     0
100
AcDbSectionViewStyle
 70
     0
 71
     0
 90
      102
 71
     1
340
11
 40
5.0
340
0
340
0
 40
5.0
300
I, O, Q, S, X, Z
 40
10.0
 90
        0
 40
2.5
 90
        0
 71
     2
340
16
 90
       25
340
16
 90
       50
 40
5.0
 40
2.5
 40
5.0
 71
     3
340
11
 40
5.0
 90
        0
 40
15.0
 90
        1
300
%<\AcVar ViewSectionStartId>%-%<\AcVar ViewSectionEndId>% (%<\AcVar ViewScale \f "%sn">%)
 71
     4
300
ANSI31
 40
1.0
 90
        0
290
     0
290
     0
 90
        6
 40
0.0
 40
1.570796326794896
 40
0.2617993877991494
 40
1.308996938995747
 40
-0.2617993877991494
 40
1.832595714594046
  0
TABLESTYLE
  5
7F
102
{ACAD_XDICTIONARY
360
162
102
}
102
{ACAD_REACTORS
330
7E
102
}
330
7E
100
AcDbTableStyle
  3
Standard
 70
     0
 71
     0
 40
1.5
 41
1.5
280
     0
281
     0
  7
Standard
140
4.5
170
     2
 62
     0
 63
     7
283
     0
274
    -2
284
     1
 64
     0
275
    -2
285
     1
 65
     0
276
    -2
286
     1
 66
     0
277
    -2
287
     1
 67
     0
278
    -2
288
     1
 68
     0
279
    -2
289
     1
 69
     0
  7
Standard
140
6.0
170
     5
 62
     0
 63
     7
283
     0
274
    -2
284
     1
 64
     0
275
    -2
285
     1
 65
     0
276
    -2
286
     1
 66
     0
277
    -2
287
     1
 67
     0
278
    -2
288
     1
 68
     0
279
    -2
289
     1
 69
     0
  7
Standard
140
4.5
170
     5
 62
     0
 63
     7
283
     0
274
    -2
284
     1
 64
     0
275
    -2
285
     1
 65
     0
276
    -2
286
     1
 66
     0
277
    -2
287
     1
 67
     0
278
    -2
288
     1
 68
     0
279
    -2
289
     1
 69
     0
  0
VISUALSTYLE
  5
F5
102
{ACAD_XDICTIONARY
360
6372
102
}
102
{ACAD_REACTORS
330
EF
102
}
330
EF
100
AcDbVisualStyle
  2
2dWireframe
 70
     4
 71
     0
 72
     2
 73
     1
 90
        0
 40
-0.6
 41
-30.0
 62
     5
 63
     7
 74
     1
 91
        4
 64
     7
 65
   257
 75
     1
175
     1
 42
1.0
 92
        0
 66
   257
 43
1.0
 76
     1
 77
     6
 78
     2
 67
     7
 79
     5
170
     0
171
     0
290
     0
174
     0
 93
        1
 44
0.0
173
     0
291
     0
 45
0.0
1001
ACAD
1000
AcDbSavedByObjectVersion
1070
     0
  0
VISUALSTYLE
  5
F4
102
{ACAD_XDICTIONARY
360
6370
102
}
102
{ACAD_REACTORS
330
EF
102
}
330
EF
100
AcDbVisualStyle
  2
Basic
 70
     7
 71
     1
 72
     0
 73
     1
 90
        0
 40
-0.6
 41
-30.0
 62
     5
 63
     7
 74
     0
 91
        4
 64
     7
 65
   257
 75
     1
175
     1
 42
1.0
 92
        8
 66
     7
 43
1.0
 76
     1
 77
     6
 78
     2
 67
     7
 79
     5
170
     0
171
     0
290
     0
174
     0
 93
        1
 44
0.0
173
     0
291
     1
 45
0.0
1001
ACAD
1000
AcDbSavedByObjectVersion
1070
     0
  0
VISUALSTYLE
  5
FB
102
{ACAD_XDICTIONARY
360
637E
102
}
102
{ACAD_REACTORS
330
EF
102
}
330
EF
100
AcDbVisualStyle
  2
Brighten
 70
    12
 71
     2
 72
     2
 73
     1
 90
        0
 40
-0.6
 41
-30.0
 62
     5
 63
     7
 74
     1
 91
        4
 64
     7
 65
   257
 75
     1
175
     1
 42
1.0
 92
        8
 66
     7
 43
1.0
 76
     1
 77
     6
 78
     2
 67
     7
 79
     5
170
     0
171
     0
290
     0
174
     0
 93
        1
 44
50.0
173
     0
291
     1
 45
0.0
1001
ACAD
1000
AcDbSavedByObjectVersion
1070
     0
  0
VISUALSTYLE
  5
FF
102
{ACAD_XDICTIONARY
360
6386
102
}
102
{ACAD_REACTORS
330
EF
102
}
330
EF
100
AcDbVisualStyle
  2
ColorChange
 70
    16
 71
     2
 72
     2
 73
     3
 90
        0
 40
-0.6
 41
-30.0
 62
     5
 63
     8
 74
     1
 91
        4
 64
     7
 65
   257
 75
     1
175
     1
 42
1.0
 92
        8
 66
     8
 43
1.0
 76
     1
 77
     6
 78
     2
 67
     7
 79
     5
170
     0
171
     0
290
     0
174
     0
 93
        1
 44
0.0
173
     0
291
     1
 45
0.0
1001
ACAD
1000
AcDbSavedByObjectVersion
1070
     0
  0
VISUALSTYLE
  5
F8
102
{ACAD_XDICTIONARY
360
6378
102
}
102
{ACAD_REACTORS
330
EF
102
}
330
EF
100
AcDbVisualStyle
  2
Conceptual
 70
     9
 71
     3
 72
     2
 73
     1
 90
        0
 40
-0.6
 41
-30.0
 62
     5
 63
     7
 74
     2
 91
        2
 64
     7
 65
   257
 75
     1
175
     1
 42
40.0
 92
        8
 66
     7
 43
1.0
 76
     1
 77
     6
 78
     2
 67
     7
 79
     3
170
     0
171
     0
290
     0
174
     0
 93
        1
 44
0.0
173
     0
291
     0
 45
0.0
1001
ACAD
1000
AcDbSavedByObjectVersion
1070
     0
  0
VISUALSTYLE
  5
FA
102
{ACAD_XDICTIONARY
360
637C
102
}
102
{ACAD_REACTORS
330
EF
102
}
330
EF
100
AcDbVisualStyle
  2
Dim
 70
    11
 71
     2
 72
     2
 73
     1
 90
        0
 40
-0.6
 41
-30.0
 62
     5
 63
     7
 74
     1
 91
        4
 64
     7
 65
   257
 75
     1
175
     1
 42
1.0
 92
        8
 66
     7
 43
1.0
 76
     1
 77
     6
 78
     2
 67
     7
 79
     5
170
     0
171
     0
290
     0
174
     0
 93
        1
 44
-50.0
173
     0
291
     1
 45
0.0
1001
ACAD
1000
AcDbSavedByObjectVersion
1070
     0
  0
VISUALSTYLE
  5
1E6
102
{ACAD_XDICTIONARY
360
638E
102
}
102
{ACAD_REACTORS
330
EF
102
}
330
EF
100
AcDbVisualStyle
  2
EdgeColorOff
 70
    22
 71
     2
 72
     2
 73
     0
 90
        0
 40
-0.6
 41
-30.0
 62
     5
 63
     7
 74
     1
 91
        4
 64
     7
 65
   257
 75
     1
175
     1
 42
1.0
 92
        8
 66
     7
 43
1.0
 76
     1
 77
     6
 78
     2
 67
     7
 79
     5
170
     0
171
     0
290
     0
174
     0
 93
        1
 44
0.0
173
     0
291
     1
 45
0.0
1001
ACAD
1000
AcDbSavedByObjectVersion
1070
     0
  0
VISUALSTYLE
  5
FE
102
{ACAD_XDICTIONARY
360
6384
102
}
102
{ACAD_REACTORS
330
EF
102
}
330
EF
100
AcDbVisualStyle
  2
Facepattern
 70
    15
 71
     2
 72
     2
 73
     1
 90
        0
 40
-0.6
 41
-30.0
 62
     5
 63
     7
 74
     1
 91
        4
 64
     7
 65
   257
 75
     1
175
     1
 42
1.0
 92
        8
 66
     7
 43
1.0
 76
     1
 77
     6
 78
     2
 67
     7
 79
     5
170
     0
171
     0
290
     0
174
     0
 93
        1
 44
0.0
173
     0
291
     1
 45
0.0
1001
ACAD
1000
AcDbSavedByObjectVersion
1070
     0
  0
VISUALSTYLE
  5
F0
102
{ACAD_XDICTIONARY
360
6368
102
}
102
{ACAD_REACTORS
330
EF
102
}
330
EF
100
AcDbVisualStyle
  2
Flat
 70
     0
 71
     2
 72
     1
 73
     1
 90
        2
 40
-0.6
 41
30.0
 62
     5
 63
     7
 74
     0
 91
        0
 64
     7
 65
   257
 75
     1
175
     1
 42
1.0
 92
        8
 66
     7
 43
1.0
 76
     1
 77
     6
 78
     2
 67
     7
 79
     5
170
     0
171
     0
290
     0
174
     0
 93
       13
 44
0.0
173
     0
291
     1
 45
0.0
1001
ACAD
1000
AcDbSavedByObjectVersion
1070
     0
  0
VISUALSTYLE
  5
F1
102
{ACAD_XDICTIONARY
360
636A
102
}
102
{ACAD_REACTORS
330
EF
102
}
330
EF
100
AcDbVisualStyle
  2
FlatWithEdges
 70
     1
 71
     2
 72
     1
 73
     1
 90
        2
 40
-0.6
 41
30.0
 62
     5
 63
     7
 74
     1
 91
        0
 64
     7
 65
   257
 75
     1
175
     1
 42
1.0
 92
        0
 66
   257
 43
1.0
 76
     1
 77
     6
 78
     2
 67
     7
 79
     5
170
     0
171
     0
290
     0
174
     0
 93
       13
 44
0.0
173
     0
291
     1
 45
0.0
1001
ACAD
1000
AcDbSavedByObjectVersion
1070
     0
  0
VISUALSTYLE
  5
F2
102
{ACAD_XDICTIONARY
360
636C
102
}
102
{ACAD_REACTORS
330
EF
102
}
330
EF
100
AcDbVisualStyle
  2
Gouraud
 70
     2
 71
     2
 72
     2
 73
     1
 90
        2
 40
-0.6
 41
30.0
 62
     5
 63
     7
 74
     0
 91
        0
 64
     7
 65
   257
 75
     1
175
     1
 42
1.0
 92
        0
 66
     7
 43
1.0
 76
     1
 77
     6
 78
     2
 67
     7
 79
     5
170
     0
171
     0
290
     0
174
     0
 93
       13
 44
0.0
173
     0
291
     1
 45
0.0
1001
ACAD
1000
AcDbSavedByObjectVersion
1070
     0
  0
VISUALSTYLE
  5
F3
102
{ACAD_XDICTIONARY
360
636E
102
}
102
{ACAD_REACTORS
330
EF
102
}
330
EF
100
AcDbVisualStyle
  2
GouraudWithEdges
 70
     3
 71
     2
 72
     2
 73
     1
 90
        2
 40
-0.6
 41
30.0
 62
     5
 63
     7
 74
     1
 91
        0
 64
     7
 65
   257
 75
     1
175
     1
 42
1.0
 92
        0
 66
   257
 43
1.0
 76
     1
 77
     6
 78
     2
 67
     7
 79
     5
170
     0
171
     0
290
     0
174
     0
 93
       13
 44
0.0
173
     0
291
     1
 45
0.0
1001
ACAD
1000
AcDbSavedByObjectVersion
1070
     0
  0
VISUALSTYLE
  5
F7
102
{ACAD_XDICTIONARY
360
6376
102
}
102
{ACAD_REACTORS
330
EF
102
}
330
EF
100
AcDbVisualStyle
  2
Hidden
 70
     6
 71
     1
 72
     2
 73
     2
 90
        0
 40
-0.6
 41
-30.0
 62
     5
 63
     7
 74
     2
 91
        2
 64
     7
 65
   257
 75
     2
175
     1
 42
40.0
 92
        0
 66
   257
 43
1.0
 76
     1
 77
     6
 78
     2
 67
     7
 79
     3
170
     0
171
     0
290
     0
174
     0
 93
        1
 44
0.0
173
     0
291
     0
 45
0.0
1001
ACAD
1000
AcDbSavedByObjectVersion
1070
     0
  0
VISUALSTYLE
  5
1E4
102
{ACAD_XDICTIONARY
360
638A
102
}
102
{ACAD_REACTORS
330
EF
102
}
330
EF
100
AcDbVisualStyle
  2
JitterOff
 70
    20
 71
     2
 72
     2
 73
     0
 90
        0
 40
-0.6
 41
-30.0
 62
     5
 63
     7
 74
     1
 91
        4
 64
     7
 65
   257
 75
     1
175
     1
 42
1.0
 92
       10
 66
     7
 43
1.0
 76
     1
 77
     6
 78
     2
 67
     7
 79
     5
170
     0
171
     0
290
     0
174
     0
 93
        1
 44
0.0
173
     0
291
     1
 45
0.0
1001
ACAD
1000
AcDbSavedByObjectVersion
1070
     0
  0
VISUALSTYLE
  5
FD
102
{ACAD_XDICTIONARY
360
6382
102
}
102
{ACAD_REACTORS
330
EF
102
}
330
EF
100
AcDbVisualStyle
  2
Linepattern
 70
    14
 71
     2
 72
     2
 73
     1
 90
        0
 40
-0.6
 41
-30.0
 62
     5
 63
     7
 74
     1
 91
        4
 64
     7
 65
   257
 75
     7
175
     7
 42
1.0
 92
        8
 66
     7
 43
1.0
 76
     1
 77
     6
 78
     2
 67
     7
 79
     5
170
     0
171
     0
290
     0
174
     0
 93
        1
 44
0.0
173
     0
291
     1
 45
0.0
1001
ACAD
1000
AcDbSavedByObjectVersion
1070
     0
  0
VISUALSTYLE
  5
1E5
102
{ACAD_XDICTIONARY
360
638C
102
}
102
{ACAD_REACTORS
330
EF
102
}
330
EF
100
AcDbVisualStyle
  2
OverhangOff
 70
    21
 71
     2
 72
     2
 73
     0
 90
        0
 40
-0.6
 41
-30.0
 62
     5
 63
     7
 74
     1
 91
        4
 64
     7
 65
   257
 75
     1
175
     1
 42
1.0
 92
        9
 66
     7
 43
1.0
 76
     1
 77
     6
 78
     2
 67
     7
 79
     5
170
     0
171
     0
290
     0
174
     0
 93
        1
 44
0.0
173
     0
291
     1
 45
0.0
1001
ACAD
1000
AcDbSavedByObjectVersion
1070
     0
  0
VISUALSTYLE
  5
F9
102
{ACAD_XDICTIONARY
360
637A
102
}
102
{ACAD_REACTORS
330
EF
102
}
330
EF
100
AcDbVisualStyle
  2
Realistic
 70
     8
 71
     2
 72
     2
 73
     0
 90
        2
 40
-0.6
 41
30.0
 62
     5
 63
     7
 74
     0
 91
        0
 64
     7
 65
   257
 75
     1
175
     1
 42
1.0
 92
        8
 66
   257
 43
1.0
 76
     1
 77
     6
 78
     2
 67
     7
 79
     3
170
     0
171
     0
290
     0
174
     0
 93
       13
 44
0.0
173
     0
291
     0
 45
0.0
1001
ACAD
1000
AcDbSavedByObjectVersion
1070
     0
  0
VISUALSTYLE
  5
1F3
102
{ACAD_XDICTIONARY
360
6398
102
}
102
{ACAD_REACTORS
330
EF
102
}
330
EF
100
AcDbVisualStyle
  2
Shaded
 70
    27
 71
     2
 72
     2
 73
     1
 90
        2
 40
-0.6
 41
30.0
 62
     5
 63
     7
 74
     0
 91
        4
 64
     7
 65
   257
 75
     1
175
     1
 42
1.0
 92
        8
 66
   257
 43
1.0
 76
     1
 77
     6
 78
     2
 67
     8
 79
     3
170
     0
171
     0
290
     0
174
     0
 93
        5
 44
0.0
173
     0
291
     0
 45
0.0
1001
ACAD
1000
AcDbSavedByObjectVersion
1070
     0
  0
VISUALSTYLE
  5
1F2
102
{ACAD_XDICTIONARY
360
6396
102
}
102
{ACAD_REACTORS
330
EF
102
}
330
EF
100
AcDbVisualStyle
  2
Shaded with edges
 70
    26
 71
     2
 72
     2
 73
     1
 90
        2
 40
-0.6
 41
30.0
 62
     5
 63
     7
 74
     1
 91
        2
 64
     7
 65
   257
 75
     2
175
     1
 42
1.0
 92
        8
 66
   257
 43
1.0
 76
     1
 77
     6
 78
     2
 67
     7
 79
     3
170
     0
171
     0
290
     0
174
     0
 93
        5
 44
0.0
173
     0
291
     0
 45
0.0
1001
ACAD
1000
AcDbSavedByObjectVersion
1070
     0
  0
VISUALSTYLE
  5
1EF
102
{ACAD_XDICTIONARY
360
6390
102
}
102
{ACAD_REACTORS
330
EF
102
}
330
EF
100
AcDbVisualStyle
  2
Shades of Gray
 70
    23
 71
     2
 72
     2
 73
     3
 90
        0
 40
-0.6
 41
-30.0
 62
     5
 63
     7
 74
     2
 91
        2
 64
     7
 65
     7
 75
     1
175
     1
 42
40.0
 92
        8
 66
     7
 43
1.0
 76
     1
 77
     6
 78
     2
 67
     7
 79
     3
170
     0
171
     0
290
     0
174
     0
 93
        1
 44
0.0
173
     0
291
     0
 45
0.0
1001
ACAD
1000
AcDbSavedByObjectVersion
1070
     0
  0
VISUALSTYLE
  5
1F0
102
{ACAD_XDICTIONARY
360
6392
102
}
102
{ACAD_REACTORS
330
EF
102
}
330
EF
100
AcDbVisualStyle
  2
Sketchy
 70
    24
 71
     1
 72
     2
 73
     2
 90
        0
 40
-0.6
 41
-30.0
 62
     5
 63
     7
 74
     2
 91
        2
 64
     7
 65
     7
 75
     1
175
     1
 42
40.0
 92
       11
 66
     7
 43
1.0
 76
     1
 77
     6
 78
     2
 67
     7
 79
     6
170
     0
171
     0
290
     0
174
     0
 93
        1
 44
0.0
173
     0
291
     0
 45
0.0
1001
ACAD
1000
AcDbSavedByObjectVersion
1070
     0
  0
VISUALSTYLE
  5
FC
102
{ACAD_XDICTIONARY
360
6380
102
}
102
{ACAD_REACTORS
330
EF
102
}
330
EF
100
AcDbVisualStyle
  2
Thicken
 70
    13
 71
     2
 72
     2
 73
     1
 90
        0
 40
-0.6
 41
-30.0
 62
     5
 63
     7
 74
     1
 91
        4
 64
     7
 65
   257
 75
     1
175
     1
 42
1.0
 92
       12
 66
     7
 43
1.0
 76
     1
 77
     6
 78
     2
 67
     7
 79
     5
170
     0
171
     0
290
     0
174
     0
 93
        1
 44
0.0
173
     0
291
     1
 45
0.0
1001
ACAD
1000
AcDbSavedByObjectVersion
1070
     0
  0
VISUALSTYLE
  5
F6
102
{ACAD_XDICTIONARY
360
6374
102
}
102
{ACAD_REACTORS
330
EF
102
}
330
EF
100
AcDbVisualStyle
  2
Wireframe
 70
     5
 71
     0
 72
     2
 73
     0
 90
        0
 40
-0.6
 41
-30.0
 62
     5
 63
     7
 74
     1
 91
        4
 64
     7
 65
   257
 75
     1
175
     1
 42
1.0
 92
        0
 66
   257
 43
1.0
 76
     1
 77
     6
 78
     2
 67
     7
 79
     3
170
     0
171
     0
290
     0
174
     0
 93
        1
 44
0.0
173
     0
291
     0
 45
0.0
1001
ACAD
1000
AcDbSavedByObjectVersion
1070
     0
  0
VISUALSTYLE
  5
1F1
102
{ACAD_XDICTIONARY
360
6394
102
}
102
{ACAD_REACTORS
330
EF
102
}
330
EF
100
AcDbVisualStyle
  2
X-Ray
 70
    25
 71
     2
 72
     2
 73
     1
 90
        1
 40
0.5
 41
-30.0
 62
     5
 63
     7
 74
     1
 91
        0
 64
     7
 65
   257
 75
     1
175
     1
 42
1.0
 92
        8
 66
     7
 43
1.0
 76
     1
 77
     6
 78
     2
 67
     7
 79
     3
170
     0
171
     0
290
     0
174
     0
 93
       13
 44
0.0
173
     0
291
     0
 45
0.0
1001
ACAD
1000
AcDbSavedByObjectVersion
1070
     0
  0
DICTIONARYVAR
  5
146
102
{ACAD_REACTORS
330
5E
102
}
330
5E
100
DictionaryVariables
280
     0
  1
1:1
  0
DICTIONARYVAR
  5
259
102
{ACAD_REACTORS
330
5E
102
}
330
5E
100
DictionaryVariables
280
     0
  1
3.500000
  0
DICTIONARYVAR
  5
25A
102
{ACAD_REACTORS
330
5E
102
}
330
5E
100
DictionaryVariables
280
     0
  1
acadiso.lin
  0
DICTIONARYVAR
  5
145
102
{ACAD_REACTORS
330
5E
102
}
330
5E
100
DictionaryVariables
280
     0
  1
STANDARD
  0
DICTIONARYVAR
  5
84
102
{ACAD_REACTORS
330
5E
102
}
330
5E
100
DictionaryVariables
280
     0
  1
STANDARD
  0
DICTIONARYVAR
  5
227
102
{ACAD_REACTORS
330
5E
102
}
330
5E
100
DictionaryVariables
280
     0
  1
Metric50
  0
DICTIONARYVAR
  5
228
102
{ACAD_REACTORS
330
5E
102
}
330
5E
100
DictionaryVariables
280
     0
  1
Metric50
  0
DICTIONARYVAR
  5
5F
102
{ACAD_REACTORS
330
5E
102
}
330
5E
100
DictionaryVariables
280
     0
  1
2
  0
DICTIONARYVAR
  5
63
102
{ACAD_REACTORS
330
5E
102
}
330
5E
100
DictionaryVariables
280
     0
  1
1
  0
DICTIONARYVAR
  5
6309
102
{ACAD_REACTORS
330
5E
102
}
330
5E
100
DictionaryVariables
280
     0
  1
0
  0
DICTIONARYVAR
  5
1AE
102
{ACAD_REACTORS
330
5E
102
}
330
5E
100
DictionaryVariables
280
     0
  1
0
  0
DICTIONARYVAR
  5
1AF
102
{ACAD_REACTORS
330
5E
102
}
330
5E
100
DictionaryVariables
280
     0
  1
0
  0
DICTIONARYVAR
  5
6307
102
{ACAD_REACTORS
330
5E
102
}
330
5E
100
DictionaryVariables
280
     0
  1
2
  0
DICTIONARYVAR
  5
6306
102
{ACAD_REACTORS
330
5E
102
}
330
5E
100
DictionaryVariables
280
     0
  1
1
  0
DICTIONARYVAR
  5
6359
102
{ACAD_REACTORS
330
5E
102
}
330
5E
100
DictionaryVariables
280
     0
  1
80.000000
  0
DICTIONARYVAR
  5
6358
102
{ACAD_REACTORS
330
5E
102
}
330
5E
100
DictionaryVariables
280
     0
  1
5.000000
  0
DICTIONARYVAR
  5
6308
102
{ACAD_REACTORS
330
5E
102
}
330
5E
100
DictionaryVariables
280
     0
  1
127
  0
DICTIONARYVAR
  5
635A
102
{ACAD_REACTORS
330
5E
102
}
330
5E
100
DictionaryVariables
280
     0
  1
2
  0
DICTIONARY
  5
639C
330
21C
100
AcDbDictionary
280
     1
281
     1
  3
ACAD_XREC_ROUNDTRIP
360
639D
  0
DICTIONARY
  5
6361
330
D3
100
AcDbDictionary
280
     1
281
     1
  3
ACAD_XREC_ROUNDTRIP
360
6362
  0
DICTIONARY
  5
6363
330
D7
100
AcDbDictionary
280
     1
281
     1
  3
ACAD_XREC_ROUNDTRIP
360
6364
  0
DICTIONARY
  5
635E
330
22
100
AcDbDictionary
280
     1
281
     1
  3
ACAD_XREC_ROUNDTRIP
360
635F
  0
DICTIONARY
  5
1F9
330
ED
100
AcDbDictionary
280
     1
281
     1
  3
ACAD_XREC_ROUNDTRIP
360
6366
  3
FBXASSET
360
1FA
  0
DICTIONARY
  5
1F7
330
EC
100
AcDbDictionary
280
     1
281
     1
  3
ACAD_XREC_ROUNDTRIP
360
6365
  3
FBXASSET
360
1F8
  0
DICTIONARY
  5
173
330
EE
100
AcDbDictionary
280
     1
281
     1
  3
ACAD_XREC_ROUNDTRIP
360
6367
  3
BUMPTILE
360
175
  3
DIFFUSETILE
360
174
  3
FBXASSET
360
1FB
  3
OPACITYTILE
360
176
  3
REFLECTIONTILE
360
177
  0
DICTIONARY
  5
6388
330
12E
100
AcDbDictionary
280
     1
281
     1
  3
ACAD_XREC_ROUNDTRIP
360
6389
  0
DICTIONARY
  5
639A
330
21A
100
AcDbDictionary
280
     1
281
     1
  3
ACAD_XREC_ROUNDTRIP
360
639B
  0
DICTIONARY
  5
162
330
7F
100
AcDbDictionary
280
     1
281
     1
  3
ACAD_ROUNDTRIP_2008_TABLESTYLE_CELLSTYLEMAP
360
635B
  3
ACAD_XREC_ROUNDTRIP
360
6360
  0
DICTIONARY
  5
6372
330
F5
100
AcDbDictionary
280
     1
281
     1
  3
ACAD_XREC_ROUNDTRIP
360
6373
  0
DICTIONARY
  5
6370
330
F4
100
AcDbDictionary
280
     1
281
     1
  3
ACAD_XREC_ROUNDTRIP
360
6371
  0
DICTIONARY
  5
637E
330
FB
100
AcDbDictionary
280
     1
281
     1
  3
ACAD_XREC_ROUNDTRIP
360
637F
  0
DICTIONARY
  5
6386
330
FF
100
AcDbDictionary
280
     1
281
     1
  3
ACAD_XREC_ROUNDTRIP
360
6387
  0
DICTIONARY
  5
6378
330
F8
100
AcDbDictionary
280
     1
281
     1
  3
ACAD_XREC_ROUNDTRIP
360
6379
  0
DICTIONARY
  5
637C
330
FA
100
AcDbDictionary
280
     1
281
     1
  3
ACAD_XREC_ROUNDTRIP
360
637D
  0
DICTIONARY
  5
638E
330
1E6
100
AcDbDictionary
280
     1
281
     1
  3
ACAD_XREC_ROUNDTRIP
360
638F
  0
DICTIONARY
  5
6384
330
FE
100
AcDbDictionary
280
     1
281
     1
  3
ACAD_XREC_ROUNDTRIP
360
6385
  0
DICTIONARY
  5
6368
330
F0
100
AcDbDictionary
280
     1
281
     1
  3
ACAD_XREC_ROUNDTRIP
360
6369
  0
DICTIONARY
  5
636A
330
F1
100
AcDbDictionary
280
     1
281
     1
  3
ACAD_XREC_ROUNDTRIP
360
636B
  0
DICTIONARY
  5
636C
330
F2
100
AcDbDictionary
280
     1
281
     1
  3
ACAD_XREC_ROUNDTRIP
360
636D
  0
DICTIONARY
  5
636E
330
F3
100
AcDbDictionary
280
     1
281
     1
  3
ACAD_XREC_ROUNDTRIP
360
636F
  0
DICTIONARY
  5
6376
330
F7
100
AcDbDictionary
280
     1
281
     1
  3
ACAD_XREC_ROUNDTRIP
360
6377
  0
DICTIONARY
  5
638A
330
1E4
100
AcDbDictionary
280
     1
281
     1
  3
ACAD_XREC_ROUNDTRIP
360
638B
  0
DICTIONARY
  5
6382
330
FD
100
AcDbDictionary
280
     1
281
     1
  3
ACAD_XREC_ROUNDTRIP
360
6383
  0
DICTIONARY
  5
638C
330
1E5
100
AcDbDictionary
280
     1
281
     1
  3
ACAD_XREC_ROUNDTRIP
360
638D
  0
DICTIONARY
  5
637A
330
F9
100
AcDbDictionary
280
     1
281
     1
  3
ACAD_XREC_ROUNDTRIP
360
637B
  0
DICTIONARY
  5
6398
330
1F3
100
AcDbDictionary
280
     1
281
     1
  3
ACAD_XREC_ROUNDTRIP
360
6399
  0
DICTIONARY
  5
6396
330
1F2
100
AcDbDictionary
280
     1
281
     1
  3
ACAD_XREC_ROUNDTRIP
360
6397
  0
DICTIONARY
  5
6390
330
1EF
100
AcDbDictionary
280
     1
281
     1
  3
ACAD_XREC_ROUNDTRIP
360
6391
  0
DICTIONARY
  5
6392
330
1F0
100
AcDbDictionary
280
     1
281
     1
  3
ACAD_XREC_ROUNDTRIP
360
6393
  0
DICTIONARY
  5
6380
330
FC
100
AcDbDictionary
280
     1
281
     1
  3
ACAD_XREC_ROUNDTRIP
360
6381
  0
DICTIONARY
  5
6374
330
F6
100
AcDbDictionary
280
     1
281
     1
  3
ACAD_XREC_ROUNDTRIP
360
6375
  0
DICTIONARY
  5
6394
330
1F1
100
AcDbDictionary
280
     1
281
     1
  3
ACAD_XREC_ROUNDTRIP
360
6395
  0
XRECORD
  5
639D
102
{ACAD_REACTORS
330
639C
102
}
330
639C
100
AcDbXrecord
280
     1
102
DISPLAYNAME
  1
Metric50
102
FLAGS
 90
        0
  0
XRECORD
  5
6362
102
{ACAD_REACTORS
330
6361
102
}
330
6361
100
AcDbXrecord
280
     1
102
SHADEPLOT
 70
     0
102
SHADEPLOTRESLEVEL
 70
     2
102
SHADEPLOTCUSTOMDPI
 70
   300
  0
XRECORD
  5
6364
102
{ACAD_REACTORS
330
6363
102
}
330
6363
100
AcDbXrecord
280
     1
102
SHADEPLOT
 70
     0
102
SHADEPLOTRESLEVEL
 70
     2
102
SHADEPLOTCUSTOMDPI
 70
   300
  0
XRECORD
  5
635F
102
{ACAD_REACTORS
330
635E
102
}
330
635E
100
AcDbXrecord
280
     1
102
SHADEPLOT
 70
     0
102
SHADEPLOTRESLEVEL
 70
     2
102
SHADEPLOTCUSTOMDPI
 70
   300
  0
XRECORD
  5
6366
102
{ACAD_REACTORS
330
1F9
102
}
330
1F9
100
AcDbXrecord
280
     1
102
MATERIAL
148
0.0
149
0.0
149
0.0
 93
        0
 94
       63
282
     0
 72
     1
 77
     1
171
     1
175
     1
179
     1
273
     0
  0
XRECORD
  5
1FA
102
{ACAD_REACTORS
330
1F9
102
}
330
1F9
100
AcDbXrecord
280
     1
 70
     1
 90
429727718
  1
D62C5603-E3A1-4AEA-B7FB-FE5D8D0755AF
310
504B03040A0000080000CC70623B3DEE336E79000000790000001B0000006175746F6465736B2D64657369676E2D7061636B6167652E786D6C3C3F786D6C2076657273696F6E3D22312E302220656E636F64696E673D227574662D3822203F3E3C666F726D6174733E3C666F726D61743E687474703A2F2F736368656D612E
310
6175746F6465736B2E636F6D2F64657369676E2D7061636B6167652F323030393C2F666F726D61743E3C2F666F726D6174733E504B0304140006080800CC70623BD486FD9CA0000000F4000000130000005B436F6E74656E745F54797065735D2E786D6C7D8EC10E82300C865F65E91D8A1E8C310C0EEA1BF002731658846E
310
D98AC1B77784ABF1D8FE5FBFBF75BBCE937A534CCEB38643598122B6FEE978D0B0485F9C41B54DDD7D022595594E1A469170414C76A4D9A4D207E29CF43ECE46F218070CC6BECC4078ACAA135ACF422C856C0E68EA1BF5669944DDD7BCDE7B1F8E415D77AECB980613C2E4AC91FC167A2B244592486606FC29C8FD7F045B9A
310
EF7053A7E60B504B0304140006080800CC70623B853B8169EB0000007C01000008000000636F72652E786D6C8D90416EC3201045AF62CDB6C206821CC7C244919D9CA01740401C94182C03558F5F9C3852BBEB6A467FFE9B197D7EFC9E1EC5975982F5AE035262288C535E5B377690E21535501C055FBC8FBF6C503839990E
310
5619041F179FE64D52DE45E362569DD7661365082642A11EB9E920A89B99642953CC8E702F67A9EE7234257977194EC9EAE275C4EABCCF5EAD5940D4AC6F0E35A568B8F43562CD7046CD199FD07E60174276A7BE677B5EADB0E0D14EEFFB6A31321A0D82627C4084204C3F096B71DD52F6819B16635EADF63F509AF53FA164
310
5DDCD1EDDD17164090FCC8732078B56691CB33A85CD7DCC40F504B0304140006080800CC70623B55019EA25F0000007C00000007000000636E782E786D6C4DCB3B0E80201045D1AD90E915ED2CF8AC45050C11660C8261F98AB1B07AC9C97D42D718D865D3E909258CFD00CCE24AC6E326A164D74DC0B4128928FF32603847
310
2BA13128B1252AC747C6BAB984FC68F0B87FE8960A5C09FE86CFB69FBA01504B0304140006080800CC70623BDBABAAF470010000D40300000C0000006662782F636F72652E786D6CC553D16E823014FD95A6AF4B694182CC941A83FA05FB810A9511A125A5257EFE2E82712ECEB8A7F100CD39F7F69E734AF9FADC366850B6
310
AF8DCE7018308C942E4C59EB2AC3DE1D498AD15A706B8CFB56869196ADCAF00863C12B6B7C374385D14E6907A836A59A41D9F7CA615434B0C8705F7CAA5606D23BA8E84F41278B93AC54100640439DE0BDB320004D43C63716C7C399D30917DCFBBA9CD9BA8469F5B156168B24CED3F7248AC8769F27244EB73B92EED8862C
310
B7F13E0C179B3C8F979C8ECD82BBBABDAA2BAC924E9558448CBD9330242CFA08E3154B5651FCC6D215639C8EE5774DBE2B5F6CF2B5768B68963BB5F5588420E442FC700B1139D4CB01F450C1E918227C2E09DF070D8140C84E1E9AAB8F1340832A9CB13130A5F1376A908D57309505ECF2A0DF179C4E9D30F5B239B87E3823
310
7A79C6F31DE1A8A5AEC08474B03C7837EAE4938639B44E5932B833D2C6B6B279CDC613877FA26EE21F4A2A4C63EC7F29A2F301D1F9F7A0E37D145F504B0304140006080800CC70623B9C113CC27E0000009D0000000B0000006662782F636E782E786D6C4DCCDF0A83201C86E15B91DFB94BFB330DD428C8FB886521330DA7
310
6397BF1A1DECE883878F57749FCDA1B7892F1BBC047A23808C7F84D9FA55424E0BE6803A256208E9EF06C84F9B91703228B1C690F78B66B34CD9A5439DF5CF0BFBF65E35BCA1B8D6A5C6F540381E886698B5741C695F9503EBA150A2F8958E3DC3EA0B504B0304140006080800CC70623B7DF2F77C2A010000120200003100
310
00006662782F41393633353835312D344632462D344230382D423046372D3739314545314133324237412F636F72652E786D6C8D51DB8EC22014FC15C2939B0D2DB4B45643319AE817EC0F6041255A68B86CFCFC856D4D76DF7CE190393373060EDB3DC707F856CE6B6B7A480A0C81328395DA5C7B18C3057510EC3873D686
310
3F34088C18550F330C39BB3A1BA7051AAC09CA84841A2BD5020AEF55806078A44B0FFD7053A328440C89E1EFC52486BBB8AA8214A99D789CF9E05200300FC927E4FB4D5B375D43103D5527440FB843077C5AA3F5861C8F645F5787F59E95B390B318B55CE45AA638FAA2957BD7248B390B7A7CC51F9C124149C82B8C378810
310
84AB2F42B7B8DD56F413775B8C5999E9FF4471926F8AA236A1AE96B8B3CC434E5839373893369E1FAF30EA395917409EB7F26AF8801C171837A4A6AC9C89E9F9C9B1A58BA30FD6A5EF5DDDCF894B9AD9B6A59C957943A9FCAE2FD5BC4DFE03504B0304140006080800CC70623BAD7543B64E01000033030000300000006662
310
782F41393633353835312D344632462D344230382D423046372D3739314545314133324237412F636E782E786D6CD593CD6EC32010845F0571AD6CE3D48AD20813A9873E410FBD12D82434182C7EAAE6EDBB2424CD25871E7B41D6EC30B3FA84F9E67BB2E40B4234DE8DB46F1925E094D7C6ED479AD3AE5951B2113C789FEE
310
6C943839C1488B4C05DF079FE72A69D8C96C13AAD6B8631503449F83828872B949AC57D26200B826A308D316B4064D6E46FCDA41C05550DC9E483A00797BFD207EFB092A45DE9514C1BBD22178396BD39D891265658C238DEA00936C654E5E433CB65A26D9F6EDB5EBC14EBF49A45CB856E66048291F6939A9A81BB5C89177
310
38143CA680F4AA299D66A042CEB3354A2684DC9D8D178FE0D9B8B41CAAD720F880EE7EF93C0C18769E099ECC04D5A102C8049A8A05632F4DDF376CF1DE0F6BB65C2F8627B65A33C6BB62177CEBBDAD973006829F89F22E814B54F4BC2BE347F8AA8F681390B50FA73F804400B5F542E796F19FF974E7F78DB802FE05E20750
310
4B0304140006080800CC70623BE75B7789680500003C100000340000006662782F41393633353835312D344632462D344230382D423046372D3739314545314133324237412F6F626A656374732E786D6CAD575B8F9B3818FD2B887D06C22499CB8AA1CA655245D5B455A356FB305264C061D8018C6C3393D95FBFC7600890
310
A4CD5EF210B0B1BFEBF98E3F7B1FF6596ABC522E1296DF9BAE3D320D9A872C4AF2F8DE2CE5CEBA358D0FBEC719939D65A691938CDE9B6ADAF4BD98B3B2D05311DD91329583D9D5FC0F438434A7A611A644887B5384CF34233629258BA878B12322891DEFF6B66BD70BFB62634E8AE781D082709A4B588AF91C528CDA28B73F
310
1C998EEF39EABBEFA97FBD6A7C7E9553F9D3D79FE442923C3C523610337627CB87ABE99D359D4CC6D6E4FACAB5E6ABF9D2726FC6A3C5F56271377BB88362213924694B38DD99FE47C48627A1E7D49F5A8BB5E1A74C0A599ED3B0F21F1E56366B89112D681E218F0915D0D6F17AD41FBA2A369DCF6335D62ABBD39779D5DDD1
310
11D4D8DE3CBB96B2E04FB8202E41051754A1AA8E8F76B4C6DFE810B580B1547F4B84911149794252234D024EF8BBE963A95AE27B3D310A9D5C215C7960FAEE415ED75694C6AFB17BCACA5D99A60A9AA65F217B0BFC53292ACB92BF283FAD0D3621576592CB5BED907C2FA8E9DF794E35E97BEA31BED21FEB401ABB94C44839
310
DCACBF0E1C5DA8DA5B2F4DFFD32AD86F543D9E565E7056502E157C00AD2671CD534549AB752FCA9CDA00677A313F04E51B22FF19E57B300579E3C97EB29F682D92935CEC18CF901B7B54FD8C51F362B56FC72FE0B3C1EAE335EDCCBF5AEC39ADB17DC238973F804BA5E6F6BFE7AF1FB32E523BE9F3BD571418E3631DCA4D48
310
5250CF639223210A9446CA30052EDF057BD35F8329C1ECD84552BF0DC8D18BE7BCE23BFE6BD960AB4A7DE79923A103BEBD80F911CBAA2C60DB19B01CF164A5583B772EE6D3FFA56666CBCDA74DC97724A48F9A58967497E489C4D979006FD7A05E227A1EBDD0F737C623387A9C844D3709995625106D157315F8B8392CD4E0
310
A0B9A720C4BE9829CEF37EA1E13111214D53925356365ADA634861B52519DD27A00AEB808EAF0628E6F435519D446F45CF2C9CF5214F0A15B2F6D06B79DA3EE3CBF7F56780D2F4E7EF73A0F5E5B02A38D07DC852C6B7C1FBB6664213E0C39E3EBA7FF4E1AD23EA2829407C85E586727488B751B2DB9502BC7B228A3FD68B6E
310
A65A22397E690AA8D158D7E404EC8CDA235CC3B7D1898680131CEC2CDF2638C65196279577750F15884AEE19F94199155B92B13297978469D4F8D358DF0AEF7631E28DC8F0D9F437D5D39A83B2231A1D52D543813A824EF8D44BCFF2FA6A31BD1E8DAD87F1CCB526B3879935BF59CDADD5C37479BB1CDD4CA7B3556B516589
310
EF352754B706114D9C885EC9131DE6EFEB43D99AFE2391C2F958179413D7CFEF6B1B6DB1E7600F00DE6E5C67454A339A4BA2E0FBA85ED26F045D454F463DBFCE484C2F90F2E5E3666003662ED8F755951A7D1BECD5B30B550B2785C8E7320B7292A4838DDA71BBC863ED7613CAF659337A3354231D4FF4A182A54904C2898C
310
98B28C4AD0CE056CCF332A80986E571EE9DBC305BB5FEB7E509220A58D25CF042D712A806AC0AD0C657FDEF80D2D9CEAA2EE4D1C76F60BFE74219A06527D6F82DF6412526107381E55E353090704D085B52408A8913C4ED159D79BDA71BB4BC506F4831350EB6F975CD22D69BF7AC49B91A2C0A9DDA3D5CA36AD20FC478E37
310
E61844E2352865EBCB61A275A65283CAAA9DD27703B4102F5AF51EF5F573B75CBB5AD38BC845F7A49F82A0966A49C2E3EA5EA0ECD326CD965F1DB402C6FA8B51A4658C5C5E2EC9E214602E55810345408596591009A82E7E7FFACA19EEA299B14A0081A705CB3296EBC14CDF658DCD336EA6D1136881AAEB87B81AB9EE53D5
310
F5EB8BC8362082DA24122F98680A4E7930C01A0079749CEA14382A0783E5EBA5A10F8C098456A03D6A4AEB6BB881E2513747552A5DB22C7EDAF83BD5528081A365F7FF06504B0304140006080000CC70623B000000000000000000000000350000006662782F41393633353835312D344632462D344230382D423046372D37
310
39314545314133324237412F76657274696365732E62696E504B0304140006080800CC70623BF270F1330600000004000000360000006662782F41393633353835312D344632462D344230382D423046372D3739314545314133324237412F747269616E676C65732E62696E636660600000504B0304140006080000CC7062
310
3B000000000000000000000000370000006662782F41393633353835312D344632462D344230382D423046372D3739314545314133324237412F617474726962757465732E62696E504B0304140006080800CC70623B08DA0BD19000000041010000360000006662782F41393633353835312D344632462D344230382D4230
310
46372D3739314545314133324237412F6469726563746F72792E786D6C858F410AC3201045AF22B36F53E9A60B35CBEEBAE80D244E44489C6234F4F835464A48035D0DF398FF9F8AF63D0E6CC63039F212F8F9020C7D47C6792B21C5FE7403D62A1188E2E60C98D7234A5830286103A55745067B9D86B8A3CF9C7F90C11DE6
310
07FB144396D7B6A82D282E9A152AD114D5EF2CB866EEE831B8EEA07A7BB5A8D7D61A2BAAEB7FD5F70921FF497D00504B0304140006080800CC70623BEDD1DC58FD000000A00100003B0000006662782F41393633353835312D344632462D344230382D423046372D3739314545314133324237412F7265736F75726365732F
310
636F72652E786D6C8D504B6E833010BD0A9A6D65B00922041947112427E8052C33A156828DFCA97AFC9A40A576D7CDCCE87D344F8F9FBFE667F689CE6B6B3A6039850C8DB2A336530731DC4903D95970676DF82583CCC8193B5861107C72362E3BA4AC096842428D1D7107A5F7182053CF7474E0D507CE32973124857FE48B
310
540F3961CEF244279DE03EB81420DB9EAC1384436FA353E879B1B182C7A8C75DA3C7F453DF353A1075D537A7BA6464B8F535A99AE14A9A2BBD90E350DD183B5CFABE3AF262350B1EF4FC9351399401471025A527C218A1E53BAB5A5AB765F5469B96525EACF23FA6B88CFF34456DC2A1DCE36E360F82A5202F42F062ED2BAD
310
579969AFDD8A6F504B010214000A0000080000CC70623B3DEE336E79000000790000001B00000000000000000000000000000000006175746F6465736B2D64657369676E2D7061636B6167652E786D6C504B01021400140006080800CC70623BD486FD9CA0000000F40000001300000000000000000000000000B20000005B
310
436F6E74656E745F54797065735D2E786D6C504B01021400140006080800CC70623B853B8169EB0000007C010000080000000000000000000000000083010000636F72652E786D6C504B01021400140006080800CC70623B55019EA25F0000007C000000070000000000000000000000000094020000636E782E786D6C504B
310
01021400140006080800CC70623BDBABAAF470010000D40300000C00000000000000000000000000180300006662782F636F72652E786D6C504B01021400140006080800CC70623B9C113CC27E0000009D0000000B00000000000000000000000000B20400006662782F636E782E786D6C504B01021400140006080800CC70
310
623B7DF2F77C2A010000120200003100000000000000000000000000590500006662782F41393633353835312D344632462D344230382D423046372D3739314545314133324237412F636F72652E786D6C504B01021400140006080800CC70623BAD7543B64E010000330300003000000000000000000000000000D2060000
310
6662782F41393633353835312D344632462D344230382D423046372D3739314545314133324237412F636E782E786D6C504B01021400140006080800CC70623BE75B7789680500003C10000034000000000000000000000000006E0800006662782F41393633353835312D344632462D344230382D423046372D3739314545
310
314133324237412F6F626A656374732E786D6C504B01021400140006080000CC70623B0000000000000000000000003500000000000000000000000000280E00006662782F41393633353835312D344632462D344230382D423046372D3739314545314133324237412F76657274696365732E62696E504B01021400140006
310
080800CC70623BF270F133060000000400000036000000000000000000000000007B0E00006662782F41393633353835312D344632462D344230382D423046372D3739314545314133324237412F747269616E676C65732E62696E504B01021400140006080000CC70623B0000000000000000000000003700000000000000
310
000000000000D50E00006662782F41393633353835312D344632462D344230382D423046372D3739314545314133324237412F617474726962757465732E62696E504B01021400140006080800CC70623B08DA0BD1900000004101000036000000000000000000000000002A0F00006662782F41393633353835312D344632
310
462D344230382D423046372D3739314545314133324237412F6469726563746F72792E786D6C504B01021400140006080800CC70623BEDD1DC58FD000000A00100003B000000000000000000000000000E1000006662782F41393633353835312D344632462D344230382D423046372D3739314545314133324237412F7265
310
736F75726365732F636F72652E786D6C504B0506000000000E000E0080040000641100000000
  0
XRECORD
  5
6365
102
{ACAD_REACTORS
330
1F7
102
}
330
1F7
100
AcDbXrecord
280
     1
102
MATERIAL
148
0.0
149
0.0
149
0.0
 93
        0
 94
       63
282
     0
 72
     1
 77
     1
171
     1
175
     1
179
     1
273
     0
  0
XRECORD
  5
1F8
102
{ACAD_REACTORS
330
1F7
102
}
330
1F7
100
AcDbXrecord
280
     1
 70
     1
 90
429727718
  1
30362254-06B7-45E0-A893-8CFA70E3D6BC
310
504B03040A0000080000CC70623B3DEE336E79000000790000001B0000006175746F6465736B2D64657369676E2D7061636B6167652E786D6C3C3F786D6C2076657273696F6E3D22312E302220656E636F64696E673D227574662D3822203F3E3C666F726D6174733E3C666F726D61743E687474703A2F2F736368656D612E
310
6175746F6465736B2E636F6D2F64657369676E2D7061636B6167652F323030393C2F666F726D61743E3C2F666F726D6174733E504B0304140006080800CC70623BD486FD9CA0000000F4000000130000005B436F6E74656E745F54797065735D2E786D6C7D8EC10E82300C865F65E91D8A1E8C310C0EEA1BF002731658846E
310
D98AC1B77784ABF1D8FE5FBFBF75BBCE937A534CCEB38643598122B6FEE978D0B0485F9C41B54DDD7D022595594E1A469170414C76A4D9A4D207E29CF43ECE46F218070CC6BECC4078ACAA135ACF422C856C0E68EA1BF5669944DDD7BCDE7B1F8E415D77AECB980613C2E4AC91FC167A2B244592486606FC29C8FD7F045B9A
310
EF7053A7E60B504B0304140006080800CC70623B1EC5D7A3EB0000007C01000008000000636F72652E786D6C8D90416EC3201045AF82665B6103C6756C6122AB4D4ED00B204C5C94182C03558F5F9C3852BBEB6A467FFE9B197D71FC9E6FE8CBACC17AD7032D0820E3B41FAD9B7A48F1820F808E52ACDEC75F36404ECDA687
310
4D0629A6D5A76597B477D1B89855E747B38B2A041301E95B6E7A08FAD3CCAA50296647B8168BD2573599823EBB0CA76447F43862C7BCCF5EAC59410E4DDD9C7973C2755553CCCFA4C603E3040F1565ED3B1FDE4E432BCA0D9622DAF9795FAF464533826484B498524CD807E51D79ED187F21878E10516EF63F505AC67F42C9
310
BA58B1FDDD071640D2FCC87D2045B96591CB3DA85CB7DCE40F504B0304140006080800CC70623B55019EA25F0000007C00000007000000636E782E786D6C4DCB3B0E80201045D1AD90E915ED2CF8AC45050C11660C8261F98AB1B07AC9C97D42D718D865D3E909258CFD00CCE24AC6E326A164D74DC0B4128928FF32603847
310
2BA13128B1252AC747C6BAB984FC68F0B87FE8960A5C09FE86CFB69FBA01504B0304140006080800CC70623B8C9102E971010000D40300000C0000006662782F636F72652E786D6CC5535B6E833010BC8AE5DF0A6C08340F1947A84D4ED00B38C6A128602363A31CBFCB234A53A551FA553EC09AD9F5CE8C31DB9E9B1AF5CA
310
7695D1198E428A91D2D214952E33ECDD315861B4E5CC1AE3BE9561A445A3323CC098B3D21ADFCE9034DA29ED00D5A6503328BA4E398C640D8B0C77F253352214DE4145770A5B214FA2546114020D759C75CE8200340D19DE981F0F6746269C33EFAB6266AB02A655C74A59CCF365BADC27CB5D902ED22848F6340DF238A141
310
BE88E2F57B92BFEDF23523433367AE6A2EEAA455C2A902F398D2751045018D3FA264435F3771F242571B4A1919CA6F9A7C5B3CD9E42BED16F12C776AEB308F40C848FC700B1139D4891EF410CEC810227CC6846F8386402064270EF5C5C709A05E49676C024C61FC95EA45ED154CA5211D1FF4FB8291A913A68E9B83EBBB33
310
E2A7673CDE118E5AE8124C0807CB8377834E366998436B950D7A7746DAD846D4CFD978E0F04FD455FC5D49D2D4C6FE9722321F10997F0F32DC47FE05504B0304140006080800CC70623BFFEA85907E0000009D0000000B0000006662782F636E782E786D6C4DCCD10A83201886E15B91FFDC95D95A811AB6F23E625948A6C3
310
E9D8E5AF46073BFAE0E1E365ED67B3E8ADC3CB78C7815C7240DA3DFC64DCC221C519D7805AC182F7F1EF06C88D9BE6703008B6049F9E274D7A1E938DBB5AE3D6131B2589BA0D3D965551E0B2EA732C9B9A624AAEB41E3A557677029960D9AFB4EF11165F504B0304140006080800CC70623B4FEEA4082C0100001202000031
310
0000006662782F39464131463745442D413632322D343644302D413938332D3331353338454246344243312F636F72652E786D6C8D515B6EC32010BC0AE2AB55850DD871ED0813254D72825EC00192A2C460F1A872FC42ED48ED5F7E00CDCECCCEB26C731F6FE05B39AFADE921293004CA082BB5B9F43086336A21D870E6AC
310
0D7F68109861543DCC30E4ECE26C9C164858139409093556AA051CBC570102714B8F1E7AF1A5C6A11862480C7F2DA6415C878B2A4891CA89C7990F2E050073937C42DE1DB7E4F87ED8A36D4329AA9B3D46DBAEAD504556557BD81DEBDD0761E52CE42C462D17B996298E3E6BE59E35C962CE821E1FF18553435012728A7187
310
0841987E927A8D9B35ADDF70BBC6989599FE4F1427F9A4286A132ABAC49D651EF234CD5CE04CDA78BA3DC2A8FB645D00B9DF8B57E215725C60BCA2A463E54C4CE327C7A65E1C7DB02E7DEFCBF594B864C5CA6CDBD49C957943E9FA5D5FBAF336F90F504B0304140006080800CC70623BAD7543B64E01000033030000300000
310
006662782F39464131463745442D413632322D343644302D413938332D3331353338454246344243312F636E782E786D6CD593CD6EC32010845F0571AD6CE3D48AD20813A9873E410FBD12D82434182C7EAAE6EDBB2424CD25871E7B41D6EC30B3FA84F9E67BB2E40B4234DE8DB46F1925E094D7C6ED479AD3AE5951B2113C
310
789FEE6C943839C1488B4C05DF079FE72A69D8C96C13AAD6B8631503449F83828872B949AC57D26200B826A308D316B4064D6E46FCDA41C05550DC9E483A00797BFD207EFB092A45DE9514C1BBD22178396BD39D891265658C238DEA00936C654E5E433CB65A26D9F6EDB5EBC14EBF49A45CB856E66048291F6939A9A81BB5
310
C8917738143CA680F4AA299D66A042CEB3354A2684DC9D8D178FE0D9B8B41CAAD720F880EE7EF93C0C18769E099ECC04D5A102C8049A8A05632F4DDF376CF1DE0F6BB65C2F8627B65A33C6BB62177CEBBDAD973006829F89F22E814B54F4BC2BE347F8AA8F681390B50FA73F804400B5F542E796F19FF974E7F78DB802FE05
310
E207504B0304140006080800CC70623B16AB87BA640500003C100000340000006662782F39464131463745442D413632322D343644302D413938332D3331353338454246344243312F6F626A656374732E786D6CAD575B6FA33818FD2B887DE6924B3BED8A326A92B68A663B534DD4D13E548A0C38942D60649B369D5FBFC7
310
600890A493BDE42160637FD7F31D7FF63E6FB3D478A55C242CBF3247B66B1A340F5994E4F19559CA8D75611A9F7D8F33263BCB4C232719BD32D5B4E97B316765A1A722BA21652A07B3B7B33F0D11D29C9A46981221AE4C113ED38CD8A4942CA2E2C58E882476BCD9DA23BB5ED8171B73523C0F841684D35CC252CCE79062D4
310
468DFA43D7747CCF51DF7D4FFDEB5593E3AB9CCA9FBEFE241792E4E19EB28198C968BAB8199F5D5A67D3E9C49A9E8F47D6EC76B6B0469F26EEFC7C3EBFBCBEB98462213924694B38DD98FE1D62C393D073EA4FADC5DAF04326852CCF6958F90F0F2B9BB5C48816348F90C7840A68EB78EDF68723159BCEE7891A6B95DDE9D3
310
BCEAEEE8086A6C6F9E5D4B59F0175C10A7A0820BAA5055C7473B5AE3CFDD452D602CD5DF12616444529E90D448938013FE6EFA58AA96F85E4F8C42275708571E98FE6827AF6B2B4AE3D7D83D64E5A64C53054DD3AF90BD06FEA9149565C94FCA0F6B834DC85599E4F2423B24DF0B6AFA979E534DFA9E7A4CC6FA631D486393
310
921829879BF5D781A373557BCB85E97FB90DB62B558F8795179C15944B051F40AB495CF35451D26A4727654E6D8033BD98EF82F21D91FF8AF2DD9982BCF1643BDD4EB516C9492E368C67C88DED563FC36D5EACF66DFF057C3658BDBFA69DF9578B3DA735B64F18C7F20770A9D45CFCF7FCF563D6456A277DBEF78A02637CA2
310
43B90A490AEAB94F72244481D24819A6C0E59B606BFA4B3025981DBB48EAB701D97BF19C577CC77F2D1B6C55A9EF3C732474C0B727303F625995056C3B02963D9EAC146BE78EC5FCEC7FA999EBC5EACBAAE41B12D27B4D2C0BBA49F244E2ECDC81B76B502F113D8F5EE8FB1BE3111CDD4FC2AA9B844CAB1288B68AB90A7CDC
310
1C166AB0D3DC5310625FCC14E779BFD0709F8890A629C9292B1B2DED31A4B0DA928CEE135085754027E3018A397D4D5427D15BD1330B677DC8934285AC3DF45A9EB68FF8F2B8FC0A509AFEECFD0FF2DE25CC6047F7214B195F07EFEB9A094D800F7BFAE8FED187B78EA8A3A400F115961BCAD1215E47C966530AF0EE8128FE
310
58CEBB996A8964FFA529A046635D9353B0336A8F700DDF46271A024E70B0B37C9DE01847591E54DED53D54202AB947E4076556AC49C6CA5C9E1226B7F1A7B1BE15DEED62C41B91E1B3E9AFAAA735036547343A925075041DF0A9979E893B391F8FCFA6967B3EFB644DCF6E5CEBFAE272625DCC6FAF3FB93793C5F90CE1EF57
310
407342756B10D1C489E8953CD1617E5CEECAD6F4EF8914CE5D5D504E5C3F1F9736DA62CFC11E00BCDDB8CC8A9466349744C1F75EBDA4DF09BA8A9E8C7A7E9991989E20E5DBDD6A6003664ED8F7A04A8DBE0DF6EAD9B9AA858342E47399053949D2C146EDB85DE4B176BB0965FBAC19BD19AA918E27FA50C1D22402E144464C
310
59462568E704B6E71915404CB72B8FF4EDE184DDAF753F284990D2C6926782963815403548A70C657FDEF80D2D9CEAA2AE4C1C76F60BFE74219A06527D6582DF6412526107381E55E353090704D085B52408D0933C4ED159D79BDA71BB4BC506F4831350EB6F979CD22D69BF7AC49B91A2C0A9DDA3D5CA36AD20FC478E37E6
310
1844E2352865EBCB6EA275A652E3836BE04EFB400BF1A2556F515F1FBB35B2AB35BD889C744FFA1004B5544B121E57F70215746DD2F5E2C1412B602CBF19455AC6C8E5E9922C4E01E65215385004546899059180EAFCF7A707CE7017CD8CDB0410789AB32C63B91E5CEBBBACB17AC6CD347A022D5075FD106377347AAABA7E
310
7D11590744509B44E205134DC1290F06580320F78E537D3D73540E06CB970B431F185308AD40BBD794D6D77003C5A36E8EAA54BA64597CD8F83BD552A080A365F7FF06504B0304140006080000CC70623B000000000000000000000000350000006662782F39464131463745442D413632322D343644302D413938332D3331
310
353338454246344243312F76657274696365732E62696E504B0304140006080800CC70623BF270F1330600000004000000360000006662782F39464131463745442D413632322D343644302D413938332D3331353338454246344243312F747269616E676C65732E62696E636660600000504B0304140006080000CC70623B
310
000000000000000000000000370000006662782F39464131463745442D413632322D343644302D413938332D3331353338454246344243312F617474726962757465732E62696E504B0304140006080800CC70623B08DA0BD19000000041010000360000006662782F39464131463745442D413632322D343644302D413938
310
332D3331353338454246344243312F6469726563746F72792E786D6C858F410AC3201045AF22B36F53E9A60B35CBEEBAE80D244E44489C6234F4F835464A48035D0DF398FF9F8AF63D0E6CC63039F212F8F9020C7D47C6792B21C5FE7403D62A1188E2E60C98D7234A5830286103A55745067B9D86B8A3CF9C7F90C11DE607
310
FB144396D7B6A82D282E9A152AD114D5EF2CB866EEE831B8EEA07A7BB5A8D7D61A2BAAEB7FD5F70921FF497D00504B0304140006080800CC70623B0D6EF93BFE000000A00100003B0000006662782F39464131463745442D413632322D343644302D413938332D3331353338454246344243312F7265736F75726365732F63
310
6F72652E786D6C8D50596E833010BD0A9ADFCA60B334011947A8694ED00B586642AC041B79A97AFC9A40A5F6AF3F33A3B7689E1E3F7DCD8FEC139DD7D6F4C0720A191A65476DA61E62B892236427C19DB5E1970C322367EC618541F0C9D9B8EC90B226A009093576C41D94DE63804C3DD2D18357379C652E63480A7FCF17A9
310
EE72C29CE5894E3AC17D702940B63D59270887DE46A7D0F36263058F518FBB468FE9A7BE6A7420864373B8D4873369AA8691FA421B3294352543C5CAF65C0F6FEF43CB8BD52C78D0F34F46E550061C419494B6843142CB0F5677F4B52BEB177AEC28E5C52AFF638ACBF84F53D42654E51E77B379102C05791282176B5F693D
310
CB4C7BED567C03504B010214000A0000080000CC70623B3DEE336E79000000790000001B00000000000000000000000000000000006175746F6465736B2D64657369676E2D7061636B6167652E786D6C504B01021400140006080800CC70623BD486FD9CA0000000F40000001300000000000000000000000000B20000005B
310
436F6E74656E745F54797065735D2E786D6C504B01021400140006080800CC70623B1EC5D7A3EB0000007C010000080000000000000000000000000083010000636F72652E786D6C504B01021400140006080800CC70623B55019EA25F0000007C000000070000000000000000000000000094020000636E782E786D6C504B
310
01021400140006080800CC70623B8C9102E971010000D40300000C00000000000000000000000000180300006662782F636F72652E786D6C504B01021400140006080800CC70623BFFEA85907E0000009D0000000B00000000000000000000000000B30400006662782F636E782E786D6C504B01021400140006080800CC70
310
623B4FEEA4082C0100001202000031000000000000000000000000005A0500006662782F39464131463745442D413632322D343644302D413938332D3331353338454246344243312F636F72652E786D6C504B01021400140006080800CC70623BAD7543B64E010000330300003000000000000000000000000000D5060000
310
6662782F39464131463745442D413632322D343644302D413938332D3331353338454246344243312F636E782E786D6C504B01021400140006080800CC70623B16AB87BA640500003C1000003400000000000000000000000000710800006662782F39464131463745442D413632322D343644302D413938332D3331353338
310
454246344243312F6F626A656374732E786D6C504B01021400140006080000CC70623B0000000000000000000000003500000000000000000000000000270E00006662782F39464131463745442D413632322D343644302D413938332D3331353338454246344243312F76657274696365732E62696E504B01021400140006
310
080800CC70623BF270F133060000000400000036000000000000000000000000007A0E00006662782F39464131463745442D413632322D343644302D413938332D3331353338454246344243312F747269616E676C65732E62696E504B01021400140006080000CC70623B0000000000000000000000003700000000000000
310
000000000000D40E00006662782F39464131463745442D413632322D343644302D413938332D3331353338454246344243312F617474726962757465732E62696E504B01021400140006080800CC70623B08DA0BD190000000410100003600000000000000000000000000290F00006662782F39464131463745442D413632
310
322D343644302D413938332D3331353338454246344243312F6469726563746F72792E786D6C504B01021400140006080800CC70623B0D6EF93BFE000000A00100003B000000000000000000000000000D1000006662782F39464131463745442D413632322D343644302D413938332D3331353338454246344243312F7265
310
736F75726365732F636F72652E786D6C504B0506000000000E000E0080040000641100000000
  0
XRECORD
  5
6367
102
{ACAD_REACTORS
330
173
102
}
330
173
100
AcDbXrecord
280
     1
102
MATERIAL
148
0.0
149
0.0
149
0.0
 93
        0
 94
       63
282
     0
 72
     1
 77
     1
171
     1
175
     1
179
     1
273
     0
  0
XRECORD
  5
175
102
{ACAD_REACTORS
330
173
102
}
330
173
100
AcDbXrecord
280
     1
270
     1
271
     1
  0
XRECORD
  5
174
102
{ACAD_REACTORS
330
173
102
}
330
173
100
AcDbXrecord
280
     1
270
     1
271
     1
  0
XRECORD
  5
1FB
102
{ACAD_REACTORS
330
173
102
}
330
173
100
AcDbXrecord
280
     1
 70
     0
 90
1673772943
  1
ECE7A1D2-D628-4531-984C-D00F80459256
310
504B03040A0000080000CC70623B3DEE336E79000000790000001B0000006175746F6465736B2D64657369676E2D7061636B6167652E786D6C3C3F786D6C2076657273696F6E3D22312E302220656E636F64696E673D227574662D3822203F3E3C666F726D6174733E3C666F726D61743E687474703A2F2F736368656D612E
310
6175746F6465736B2E636F6D2F64657369676E2D7061636B6167652F323030393C2F666F726D61743E3C2F666F726D6174733E504B0304140006080800CC70623BD486FD9CA0000000F4000000130000005B436F6E74656E745F54797065735D2E786D6C7D8EC10E82300C865F65E91D8A1E8C310C0EEA1BF002731658846E
310
D98AC1B77784ABF1D8FE5FBFBF75BBCE937A534CCEB38643598122B6FEE978D0B0485F9C41B54DDD7D022595594E1A469170414C76A4D9A4D207E29CF43ECE46F218070CC6BECC4078ACAA135ACF422C856C0E68EA1BF5669944DDD7BCDE7B1F8E415D77AECB980613C2E4AC91FC167A2B244592486606FC29C8FD7F045B9A
310
EF7053A7E60B504B0304140006080800CC70623BD9DDAED0EC0000007C01000008000000636F72652E786D6C8D90416EC3201045AF82665B61836D9CD8C2444DD39CA01740405C94182C03558F5F9C3852BBEB6A467FFE9B197D7EF89E6EE8CB2CC17A37002D0820E394D7D68D03A478C17B4007C117EFE32F1B20272733C0
310
2A83E0E3E2D3BC49CABB685CCCAAF3DA6CA20CC14440EA969B0182FA34932C648AD911AEC52CD5558EA6A0CF2EC329598D1E47ACCEFBECC59A050463A7EA5833865FEBDD0E37353BE3EE8DBDE3F6786A48D375FBF6CC78B9C282473B3DEFABC5C86834888A900E538A49F5419B9EB47DD5BC907D4F082F57FB1F28CDFA9F50
310
B22ED6D5F6EE030B20687EE43E10BC5CB3C8E51E54AE6B6EE207504B0304140006080800CC70623B55019EA25F0000007C00000007000000636E782E786D6C4DCB3B0E80201045D1AD90E915ED2CF8AC45050C11660C8261F98AB1B07AC9C97D42D718D865D3E909258CFD00CCE24AC6E326A164D74DC0B4128928FF326038
310
472BA13128B1252AC747C6BAB984FC68F0B87FE8960A5C09FE86CFB69FBA01504B0304140006080800CC70623BA24EB22D72010000D40300000C0000006662782F636F72652E786D6CC5535B6E833010BC8AE5DF0A6C5E49888CA3A6694ED00B38E05014B091B1518EDFE511A5A9D228FD2A1F60CDEC7A67C6986DCE4D8D7A
310
69BA4AAB0C073EC548AA5C17952A33ECECD15B61B4E1CC686DBF9561A44423333CC098B3D268D7CE50AE9595CA02AA74216750749DB418E5352C32DCE59FB211BE70162ABA93DF8AFC244AE9073ED050C759670D0840D390E18DF9F1706664C23973AE2A66B62A605A75ACA4C13C4976E1364A12EF355A2EBD384AF65EFA96
310
BC7B8BED2EA6719AAE16FB8491A199335B351775B991C2CA02F390D2D40B028F861F41BCA68B7518BFD0D59A524686F29B26D7164F36B94AD9289CE54E6D1DE6010819891F6E21228B3AD1831EC219194284CF98F06DD01008846CC5A1BEF83801D4CBDC6A1303536877A57A513B0953A94FC707FDBE6064EA84A9E3E6E0FA
310
EE8CF0E9198F7784A316AA0413C2C2F2E0ECA0934D1AE6D05A69BCDE9E91D2A611F573361E38FC1375157F5752AE6B6DFE4B11990F88CCBF0719EE23FF02504B0304140006080800CC70623B408A7D3B7C0000009D0000000B0000006662782F636E782E786D6C4DCCD10A83201886E15B91FFDC552A92A0064DBC8F581632
310
D3703A76F9ABD1C18E3E78F878E5F0D9027ABBFCF2292AE86E2D20171F69F6715550CB827B40839639A5F2770314A7CD293819B45C73AAFB45B35BA61ACAA1C1C7E7855C58C15BC331339661262CC762340413D68D77DA5B42298546CBE6573AF60CEB2F504B0304140006080800CC70623B449FB9BD290100001202000031
310
0000006662782F36394639363044362D344446342D343946362D394244322D3234314243333846323333332F636F72652E786D6C8D515B6EC32010BC0AE22B55850D98B871848994463E412FE002495162B07854397EA176A4F62F3F2C9A9D991D587EB84F37F0AD7D30CEF6905418026DA553C65E7A98E219ED203808EE9D
310
8B7F6810D871D23D2C3014FCE25D9A57483A1BB58D19B54EE9151C43D0110279CB971E06F9A5A7B11A53CC8C70ADE6515EC78BAE4895DB992778883E0700CB907242D17643D7E2538BD869608875438BBAE38922CAC8F1BDD90DB4691A5E2F42C153326A951B95E398B3D1FE599322163C9AE9115F7A3D46ADA0A018778810
310
84E907617BDCEE297BC5BB3DC6BC2EF47FA234AB2745C9D8D8D035EE220B50105E2F0DC1954B9FB747187D9F9D8FA0CCDB042D5FA0C015C65B42DF78BD10F3F3B363CB56C7109DCFDFBBB97E662ED92EB62D13BC2E1BCAE5777DB9966D8A1F504B0304140006080800CC70623BAD7543B64E01000033030000300000006662
310
782F36394639363044362D344446342D343946362D394244322D3234314243333846323333332F636E782E786D6CD593CD6EC32010845F0571AD6CE3D48AD20813A9873E410FBD12D82434182C7EAAE6EDBB2424CD25871E7B41D6EC30B3FA84F9E67BB2E40B4234DE8DB46F1925E094D7C6ED479AD3AE5951B2113C789FEE
310
6C943839C1488B4C05DF079FE72A69D8C96C13AAD6B8631503449F83828872B949AC57D26200B826A308D316B4064D6E46FCDA41C05550DC9E483A00797BFD207EFB092A45DE9514C1BBD22178396BD39D891265658C238DEA00936C654E5E433CB65A26D9F6EDB5EBC14EBF49A45CB856E66048291F6939A9A81BB5C89177
310
38143CA680F4AA299D66A042CEB3354A2684DC9D8D178FE0D9B8B41CAAD720F880EE7EF93C0C18769E099ECC04D5A102C8049A8A05632F4DDF376CF1DE0F6BB65C2F8627B65A33C6BB62177CEBBDAD973006829F89F22E814B54F4BC2BE347F8AA8F681390B50FA73F804400B5F542E796F19FF974E7F78DB802FE05E20750
310
4B0304140006080800CC70623B8D05915C650500003B100000340000006662782F36394639363044362D344446342D343946362D394244322D3234314243333846323333332F6F626A656374732E786D6CAD575B6FA33814FE2B887D06429276DA1565D4266D158D3A339A6846FB502932E050B66023DB74D2FDF5FB190C01
310
9276B2973C046C8ECFF53B17071F77456EBD502133CEAE6CDF9DD81665314F32965ED995DA3A17B6F5310C04E7AA47665B8C14F4CAD6DB7618A48257A5D94AE89654B91AEDDEDDFC61C998326A5B714EA4BCB265FC440BE2924AF184CA6737218AB8E976E7FA6E4338649B0A523E8D98964450A6A029F619B8588D52FE7039
310
B1BD30F0F4F730D0FF866AF6369557DB33949F31A9088B0F848DD8CCFCF9F2767A76E99CCDE733677E3EF59D9BBB9BA5E37F984D16E78BC5E5F5ED25044B25C0C96822E8D60EEFE11B91C581D77CEA34368A1F5329E68CD1B8B61F16D63A1B8E092D294B10C78C4A48EB593D192E7DED9BDEE7995E1B91FDEDD3ACEA9FE831
310
6A756F9F7D4D79F4274C90A7A04248AA51D5F8C718DAE06FB2F75AC4796EBE65D22A88A22223B995679120E2D50E41AA49C260C046A35368846B0BECD0DFF3EBEB8AD4F835768F69B9ADF25C43D30E6B646F807FAA64AD59F61715C7A54127C4AACA98BA3006A9D792DAE165E0D59B61A01FB3A9F9D838D2DAE62445C86166
310
F37564E842E7DE6A69879FEEA2DD5AE7E371E1A5E025154AC307D06A03D73EB5978C58FFA4C8E9033066E0F3BD53BEC1F39F91BE7B55103791EDE6BBB991A2046172CB4581D8B893FA674DDA17A77B3B7C413D1B511FD2743BFF8A38F03A658705E3ADF8015C3A3417FF3D7E439FF591DA0B5F18BC20C1B8981957AE6392A3
310
F43C640C01D1A0B4728E2DD4F26DB4B3C3152A252A3B4E913CEC1C72F012782FF88EFF8637AA552DBEF76408E8A8DE9E50F9E1CB3A2DA0DB1B6039A893B56063DC5B3E3FFB5F72E67AB9FEB4AEC496C4F4C1149625DD662C53E89D7BF0F6151A046260D1337DFDC94502430F83B0EE07A130A224BCAD7DAE1D9FB6CD422FF6
310
920702629C4BB9AE79C12F243C6432A6794E18E5552BA56B431AAB5D91317302B2B071E86C3A42B1A02F999E24061403B5D0EB639195DA655DD3EBEAB4FB862DDF579F014AD0E73C22F99E28DA57FB98E75C6CA2D74D53086D600F4786E0FE3144B771A8A7B900F03594DB8A633CBC49B2EDB69228BB479CF863B5E807AAAB
310
23872F6DFEB4129B949CA33823F58830E86D65621E10047D9DB34D862E8EAC3C2ABC2F7B2C40D67CDFE01F5545B92105AF983AC54D93D69E56FB8E797F88913F898A9FEC705D3F9D1B54EC8426FB500D40A03BD0119B06E1B95DDC7EB8F6975367793EBD70E66733DFB9BC982F9CE564727731999F5D4ECFCE3B8D6A4DC2A0
310
6D50FD148437D110834A64C6CDDF57FBACB5C307A2A477DFE4939736CFEF2B175371E0E10CF0DD1D5C15654E0BCA14D1E87DD02FF93782A162C0A3D95F1524A52770F972BF1EE9809D13CE7DD599467F8ECE9ADD85CE85A34CD45355448C64F9E8A031DC2D596ACC6E5DD93D9B82DE2EF5CAF81363A8E47996A0DE24564A79
310
4115AACE09C55E14540231FDA13C319787134EBF34E3A022514E5B4D9E0826E25C02D5805B15ABE1BEF51B26383D445DD9E875EE33FE4C22DA16427D65A3BCA92CA6D28DD01DF5DC53330704308475351050232CCD31583787BA75774AFB06E5070DD0C8EF484E19968C5D83BA5B90B244D31E54D55A372320FE4786B7EA58
310
44E135AA5467CB7EA333A61683CC6A8C3257034C10CF46F40EF9F5BE59BE5BD30C3C72D235E95D10345C1D45445A5F0BB47E46A5EBE5570F9380B5FA629579952296A773720405982B9DE04011506178964401AA8BDF1FBF0A8EAB6861DD6580C0E38217056766716DAEB2D6FA0917D3E4116581EADB879C4E7CFFB11EFACD
310
3D641311495D92C8676CB409A72D18610D803CE8A626049E8EC1887CB5B44CC39883690DDA8399B4B9855B481E7D71D4A9D22F96E5BB73BF5793020C02137BF837504B0304140006080000CC70623B000000000000000000000000350000006662782F36394639363044362D344446342D343946362D394244322D32343142
310
43333846323333332F76657274696365732E62696E504B0304140006080800CC70623BF270F1330600000004000000360000006662782F36394639363044362D344446342D343946362D394244322D3234314243333846323333332F747269616E676C65732E62696E636660600000504B0304140006080000CC70623B0000
310
00000000000000000000370000006662782F36394639363044362D344446342D343946362D394244322D3234314243333846323333332F617474726962757465732E62696E504B0304140006080800CC70623B08DA0BD19000000041010000360000006662782F36394639363044362D344446342D343946362D394244322D
310
3234314243333846323333332F6469726563746F72792E786D6C858F410AC3201045AF22B36F53E9A60B35CBEEBAE80D244E44489C6234F4F835464A48035D0DF398FF9F8AF63D0E6CC63039F212F8F9020C7D47C6792B21C5FE7403D62A1188E2E60C98D7234A5830286103A55745067B9D86B8A3CF9C7F90C11DE607FB14
310
4396D7B6A82D282E9A152AD114D5EF2CB866EEE831B8EEA07A7BB5A8D7D61A2BAAEB7FD5F70921FF497D00504B0304140006080800CC70623BCA768048FE000000A00100003B0000006662782F36394639363044362D344446342D343946362D394244322D3234314243333846323333332F7265736F75726365732F636F72
310
652E786D6C8D50596E833010BD0A9ADFCA60D600328E9AA639412F609909B1126CE4A5EAF16B0295DABFFECC8CDEA2797AECF8353F924FB44E193D409E5248504B332A3D0D10FC95B4901C39B3C6F85F3248B49871801506CE266BC2B243D2688FDA47549B11775038871E12F988C7004EDE7016A9083E2ADC3D5D84BC8B09
310
D33C8D74D471E6BC8D0192EDC93A815B742658898E651BCB59086ADC356A8C3FD555A1055ED7E7E254D615792D0F075295F585746FF53B694EE78A565DD736979A65AB9933AFE69F8CD2A2F038022F28ED489E135A7CE4554F9BBEA85E68DB53CAB255FEC71496F19FA6A0B42F8B3DEE6673C0F318E4497096AD7DC5F52C33
310
EEB55BFE0D504B010214000A0000080000CC70623B3DEE336E79000000790000001B00000000000000000000000000000000006175746F6465736B2D64657369676E2D7061636B6167652E786D6C504B01021400140006080800CC70623BD486FD9CA0000000F40000001300000000000000000000000000B20000005B436F
310
6E74656E745F54797065735D2E786D6C504B01021400140006080800CC70623BD9DDAED0EC0000007C010000080000000000000000000000000083010000636F72652E786D6C504B01021400140006080800CC70623B55019EA25F0000007C000000070000000000000000000000000095020000636E782E786D6C504B0102
310
1400140006080800CC70623BA24EB22D72010000D40300000C00000000000000000000000000190300006662782F636F72652E786D6C504B01021400140006080800CC70623B408A7D3B7C0000009D0000000B00000000000000000000000000B50400006662782F636E782E786D6C504B01021400140006080800CC70623B
310
449FB9BD290100001202000031000000000000000000000000005A0500006662782F36394639363044362D344446342D343946362D394244322D3234314243333846323333332F636F72652E786D6C504B01021400140006080800CC70623BAD7543B64E010000330300003000000000000000000000000000D20600006662
310
782F36394639363044362D344446342D343946362D394244322D3234314243333846323333332F636E782E786D6C504B01021400140006080800CC70623B8D05915C650500003B10000034000000000000000000000000006E0800006662782F36394639363044362D344446342D343946362D394244322D32343142433338
310
46323333332F6F626A656374732E786D6C504B01021400140006080000CC70623B0000000000000000000000003500000000000000000000000000250E00006662782F36394639363044362D344446342D343946362D394244322D3234314243333846323333332F76657274696365732E62696E504B010214001400060808
310
00CC70623BF270F13306000000040000003600000000000000000000000000780E00006662782F36394639363044362D344446342D343946362D394244322D3234314243333846323333332F747269616E676C65732E62696E504B01021400140006080000CC70623B00000000000000000000000037000000000000000000
310
00000000D20E00006662782F36394639363044362D344446342D343946362D394244322D3234314243333846323333332F617474726962757465732E62696E504B01021400140006080800CC70623B08DA0BD190000000410100003600000000000000000000000000270F00006662782F36394639363044362D344446342D
310
343946362D394244322D3234314243333846323333332F6469726563746F72792E786D6C504B01021400140006080800CC70623BCA768048FE000000A00100003B000000000000000000000000000B1000006662782F36394639363044362D344446342D343946362D394244322D3234314243333846323333332F7265736F
310
75726365732F636F72652E786D6C504B0506000000000E000E0080040000621100000000
  0
XRECORD
  5
176
102
{ACAD_REACTORS
330
173
102
}
330
173
100
AcDbXrecord
280
     1
270
     1
271
     1
  0
XRECORD
  5
177
102
{ACAD_REACTORS
330
173
102
}
330
173
100
AcDbXrecord
280
     1
270
     1
271
     1
  0
XRECORD
  5
6389
102
{ACAD_REACTORS
330
6388
102
}
330
6388
100
AcDbXrecord
280
     1
102
ACAD_ROUNDTRIP_2012_MLEADER_STYLE
298
     1
  0
XRECORD
  5
639B
102
{ACAD_REACTORS
330
639A
102
}
330
639A
100
AcDbXrecord
280
     1
102
DISPLAYNAME
  1
Metric50
102
FLAGS
 90
        0
  0
CELLSTYLEMAP
  5
635B
102
{ACAD_REACTORS
330
162
102
}
330
162
100
AcDbCellStyleMap
 90
        3
300
CELLSTYLE
  1
TABLEFORMAT_BEGIN
 90
        5
170
     1
 91
        0
 92
    32768
 62
   257
 93
        1
300
CONTENTFORMAT
  1
CONTENTFORMAT_BEGIN
 90
        0
 91
        0
 92
      512
 93
        0
300

 40
0.0
140
1.0
 94
        5
 62
     0
340
11
144
6.0
309
CONTENTFORMAT_END
171
     1
301
MARGIN
  1
CELLMARGIN_BEGIN
 40
1.5
 40
1.5
 40
1.5
 40
1.5
 40
4.5
 40
4.5
309
CELLMARGIN_END
 94
        6
 95
        1
302
GRIDFORMAT
  1
GRIDFORMAT_BEGIN
 90
        0
 91
        1
 62
     0
 92
       -2
340
14
 93
        0
 40
1.125
309
GRIDFORMAT_END
 95
        2
302
GRIDFORMAT
  1
GRIDFORMAT_BEGIN
 90
        0
 91
        1
 62
     0
 92
       -2
340
14
 93
        0
 40
1.125
309
GRIDFORMAT_END
 95
        4
302
GRIDFORMAT
  1
GRIDFORMAT_BEGIN
 90
        0
 91
        1
 62
     0
 92
       -2
340
14
 93
        0
 40
1.125
309
GRIDFORMAT_END
 95
        8
302
GRIDFORMAT
  1
GRIDFORMAT_BEGIN
 90
        0
 91
        1
 62
     0
 92
       -2
340
14
 93
        0
 40
1.125
309
GRIDFORMAT_END
 95
       16
302
GRIDFORMAT
  1
GRIDFORMAT_BEGIN
 90
        0
 91
        1
 62
     0
 92
       -2
340
14
 93
        0
 40
1.125
309
GRIDFORMAT_END
 95
       32
302
GRIDFORMAT
  1
GRIDFORMAT_BEGIN
 90
        0
 91
        1
 62
     0
 92
       -2
340
14
 93
        0
 40
1.125
309
GRIDFORMAT_END
309
TABLEFORMAT_END
  1
CELLSTYLE_BEGIN
 90
        1
 91
        1
300
_TITLE
309
CELLSTYLE_END
300
CELLSTYLE
  1
TABLEFORMAT_BEGIN
 90
        5
170
     1
 91
        0
 92
        0
 62
   257
 93
        1
300
CONTENTFORMAT
  1
CONTENTFORMAT_BEGIN
 90
        0
 91
        0
 92
      512
 93
        0
300

 40
0.0
140
1.0
 94
        5
 62
     0
340
11
144
4.5
309
CONTENTFORMAT_END
171
     1
301
MARGIN
  1
CELLMARGIN_BEGIN
 40
1.5
 40
1.5
 40
1.5
 40
1.5
 40
4.5
 40
4.5
309
CELLMARGIN_END
 94
        6
 95
        1
302
GRIDFORMAT
  1
GRIDFORMAT_BEGIN
 90
        0
 91
        1
 62
     0
 92
       -2
340
14
 93
        0
 40
1.125
309
GRIDFORMAT_END
 95
        2
302
GRIDFORMAT
  1
GRIDFORMAT_BEGIN
 90
        0
 91
        1
 62
     0
 92
       -2
340
14
 93
        0
 40
1.125
309
GRIDFORMAT_END
 95
        4
302
GRIDFORMAT
  1
GRIDFORMAT_BEGIN
 90
        0
 91
        1
 62
     0
 92
       -2
340
14
 93
        0
 40
1.125
309
GRIDFORMAT_END
 95
        8
302
GRIDFORMAT
  1
GRIDFORMAT_BEGIN
 90
        0
 91
        1
 62
     0
 92
       -2
340
14
 93
        0
 40
1.125
309
GRIDFORMAT_END
 95
       16
302
GRIDFORMAT
  1
GRIDFORMAT_BEGIN
 90
        0
 91
        1
 62
     0
 92
       -2
340
14
 93
        0
 40
1.125
309
GRIDFORMAT_END
 95
       32
302
GRIDFORMAT
  1
GRIDFORMAT_BEGIN
 90
        0
 91
        1
 62
     0
 92
       -2
340
14
 93
        0
 40
1.125
309
GRIDFORMAT_END
309
TABLEFORMAT_END
  1
CELLSTYLE_BEGIN
 90
        2
 91
        1
300
_HEADER
309
CELLSTYLE_END
300
CELLSTYLE
  1
TABLEFORMAT_BEGIN
 90
        5
170
     1
 91
        0
 92
        0
 62
   257
 93
        1
300
CONTENTFORMAT
  1
CONTENTFORMAT_BEGIN
 90
        0
 91
        0
 92
      512
 93
        0
300

 40
0.0
140
1.0
 94
        2
 62
     0
340
11
144
4.5
309
CONTENTFORMAT_END
171
     1
301
MARGIN
  1
CELLMARGIN_BEGIN
 40
1.5
 40
1.5
 40
1.5
 40
1.5
 40
4.5
 40
4.5
309
CELLMARGIN_END
 94
        6
 95
        1
302
GRIDFORMAT
  1
GRIDFORMAT_BEGIN
 90
        0
 91
        1
 62
     0
 92
       -2
340
14
 93
        0
 40
1.125
309
GRIDFORMAT_END
 95
        2
302
GRIDFORMAT
  1
GRIDFORMAT_BEGIN
 90
        0
 91
        1
 62
     0
 92
       -2
340
14
 93
        0
 40
1.125
309
GRIDFORMAT_END
 95
        4
302
GRIDFORMAT
  1
GRIDFORMAT_BEGIN
 90
        0
 91
        1
 62
     0
 92
       -2
340
14
 93
        0
 40
1.125
309
GRIDFORMAT_END
 95
        8
302
GRIDFORMAT
  1
GRIDFORMAT_BEGIN
 90
        0
 91
        1
 62
     0
 92
       -2
340
14
 93
        0
 40
1.125
309
GRIDFORMAT_END
 95
       16
302
GRIDFORMAT
  1
GRIDFORMAT_BEGIN
 90
        0
 91
        1
 62
     0
 92
       -2
340
14
 93
        0
 40
1.125
309
GRIDFORMAT_END
 95
       32
302
GRIDFORMAT
  1
GRIDFORMAT_BEGIN
 90
        0
 91
        1
 62
     0
 92
       -2
340
14
 93
        0
 40
1.125
309
GRIDFORMAT_END
309
TABLEFORMAT_END
  1
CELLSTYLE_BEGIN
 90
        3
 91
        2
300
_DATA
309
CELLSTYLE_END
  0
XRECORD
  5
6360
102
{ACAD_REACTORS
330
162
102
}
330
162
100
AcDbXrecord
280
     1
102
ACAD_ROUNDTRIP_PRE2007_TABLESTYLE
 90
      512
 91
        0
  1

 92
      512
 93
        0
  2

 94
      512
 95
        0
  3

  0
XRECORD
  5
6373
102
{ACAD_REACTORS
330
6372
102
}
330
6372
100
AcDbXrecord
280
     1
102
RTVSPost2010Prop28
280
     1
102
RTVSPost2010PropOp28
 70
     1
102
RTVSPost2010Prop29
280
     1
102
RTVSPost2010PropOp29
 70
     1
102
RTVSPost2010Prop30
280
     0
102
RTVSPost2010PropOp30
 70
     1
102
RTVSPost2010Prop31
280
     0
102
RTVSPost2010PropOp31
 70
     1
102
RTVSPost2010Prop32
280
     0
102
RTVSPost2010PropOp32
 70
     1
102
RTVSPost2010Prop33
280
     0
102
RTVSPost2010PropOp33
 70
     1
102
RTVSPost2010Prop34
280
     0
102
RTVSPost2010PropOp34
 70
     1
102
RTVSPost2010Prop35
280
     0
102
RTVSPost2010PropOp35
 70
     1
102
RTVSPost2010Prop36
280
     0
102
RTVSPost2010PropOp36
 70
     1
102
RTVSPost2010Prop37
 90
       50
102
RTVSPost2010PropOp37
 70
     1
102
RTVSPost2010Prop38
140
0.0
102
RTVSPost2010PropOp38
 70
     1
102
RTVSPost2010Prop39
140
1.0
102
RTVSPost2010PropOp39
 70
     1
102
RTVSPost2010Prop40
 90
        0
102
RTVSPost2010PropOp40
 70
     1
102
RTVSPost2010Prop41ColorIndex
 90
       18
102
RTVSPost2010Prop41ColorRGB
 90
        0
102
RTVSPost2010PropOp41
 70
     1
102
RTVSPost2010Prop42
 90
       50
102
RTVSPost2010PropOp42
 70
     1
102
RTVSPost2010Prop43
 90
        3
102
RTVSPost2010PropOp43
 70
     1
102
RTVSPost2010Prop44ColorIndex
 90
        5
102
RTVSPost2010Prop44ColorRGB
 90
      255
102
RTVSPost2010PropOp44
 70
     1
102
RTVSPost2010Prop45
280
     0
102
RTVSPost2010PropOp45
 70
     1
102
RTVSPost2010Prop46
 90
       50
102
RTVSPost2010PropOp46
 70
     1
102
RTVSPost2010Prop47
 90
       50
102
RTVSPost2010PropOp47
 70
     1
102
RTVSPost2010Prop48
 90
       50
102
RTVSPost2010PropOp48
 70
     1
102
RTVSPost2010Prop49
280
     0
102
RTVSPost2010PropOp49
 70
     1
102
RTVSPost2010Prop50
 90
       50
102
RTVSPost2010PropOp50
 70
     1
102
RTVSPost2010Prop51ColorIndex
 90
      256
102
RTVSPost2010Prop51ColorRGB
 90
-16777216
102
RTVSPost2010PropOp51
 70
     0
102
RTVSPost2010Prop52
140
1.0
102
RTVSPost2010PropOp52
 70
     0
102
RTVSPost2010Prop53
 90
        2
102
RTVSPost2010PropOp53
 70
     1
102
RTVSPost2010Prop54
  1
strokes_ogs.tif
102
RTVSPost2010PropOp54
 70
     1
102
RTVSPost2010Prop55
280
     0
102
RTVSPost2010PropOp55
 70
     1
102
RTVSPost2010Prop56
140
1.0
102
RTVSPost2010PropOp56
 70
     1
102
RTVSPost2010Prop57
140
1.0
102
RTVSPost2010PropOp57
 70
     1
102
RTVSPropertyOp0
 70
     1
102
RTVSPropertyOp1
 70
     1
102
RTVSPropertyOp2
 70
     1
102
RTVSPropertyOp3
 70
     1
102
RTVSPropertyOp4
 70
     1
102
RTVSPropertyOp5
 70
     1
102
RTVSPropertyOp6
 70
     1
102
RTVSPropertyOp7
 70
     1
102
RTVSPropertyOp8
 70
     1
102
RTVSPropertyOp9
 70
     1
102
RTVSPropertyOp10
 70
     1
102
RTVSPropertyOp11
 70
     1
102
RTVSPropertyOp12
 70
     1
102
RTVSPropertyOp13
 70
     1
102
RTVSPropertyOp14
 70
     1
102
RTVSPropertyOp15
 70
     1
102
RTVSPropertyOp16
 70
     1
102
RTVSPropertyOp17
 70
     1
102
RTVSPropertyOp18
 70
     1
102
RTVSPropertyOp19
 70
     1
102
RTVSPropertyOp20
 70
     1
102
RTVSPropertyOp21
 70
     1
102
RTVSPropertyOp22
 70
     1
102
RTVSPropertyOp23
 70
     1
102
RTVSPropertyOp24
 70
     1
102
RTVSPropertyOp25
 70
     1
102
RTVSPropertyOp26
 70
     1
102
RTVSPropertyOp27
 70
     1
102
RTVSPropertyOp28
 70
     1
102
RTVSPropertyOp29
 70
     1
102
RTVSPropertyOp30
 70
     1
102
RTVSPropertyOp31
 70
     1
102
RTVSPropertyOp32
 70
     1
102
RTVSPropertyOp33
 70
     1
102
RTVSPropertyOp34
 70
     1
102
RTVSPropertyOp35
 70
     1
102
RTVSPropertyOp36
 70
     1
102
RTVSPropertyOp37
 70
     1
102
RTVSPropertyOp38
 70
     1
102
RTVSPropertyOp39
 70
     1
102
RTVSPropertyOp40
 70
     1
102
RTVSPropertyOp41
 70
     1
102
RTVSPropertyOp42
 70
     1
102
RTVSPropertyOp43
 70
     1
102
RTVSPropertyOp44
 70
     1
102
RTVSPropertyOp45
 70
     1
102
RTVSPropertyOp46
 70
     1
102
RTVSPropertyOp47
 70
     1
102
RTVSPropertyOp48
 70
     1
102
RTVSPropertyOp49
 70
     1
102
RTVSPropertyOp50
 70
     1
102
RTVSPropertyOp51
 70
     0
102
RTVSPropertyOp52
 70
     0
102
RTVSPropertyOp53
 70
     1
102
RTVSPropertyOp54
 70
     1
102
RTVSPropertyOp55
 70
     1
102
RTVSPropertyOp56
 70
     1
102
RTVSPropertyOp57
 70
     1
102
RTVSPropertyOp58
 70
     1
102
RTVSPropertyOp59
 70
     1
102
RTVSPropertyOp60
 70
     1
102
RTVSPropertyOp61
 70
     1
102
RTVSPropertyOp62
 70
     1
  0
XRECORD
  5
6371
102
{ACAD_REACTORS
330
6370
102
}
330
6370
100
AcDbXrecord
280
     1
102
RTVSPost2010Prop28
280
     0
102
RTVSPost2010PropOp28
 70
     1
102
RTVSPost2010Prop29
280
     1
102
RTVSPost2010PropOp29
 70
     1
102
RTVSPost2010Prop30
280
     1
102
RTVSPost2010PropOp30
 70
     1
102
RTVSPost2010Prop31
280
     0
102
RTVSPost2010PropOp31
 70
     1
102
RTVSPost2010Prop32
280
     0
102
RTVSPost2010PropOp32
 70
     1
102
RTVSPost2010Prop33
280
     0
102
RTVSPost2010PropOp33
 70
     1
102
RTVSPost2010Prop34
280
     0
102
RTVSPost2010PropOp34
 70
     1
102
RTVSPost2010Prop35
280
     0
102
RTVSPost2010PropOp35
 70
     1
102
RTVSPost2010Prop36
280
     0
102
RTVSPost2010PropOp36
 70
     1
102
RTVSPost2010Prop37
 90
       50
102
RTVSPost2010PropOp37
 70
     1
102
RTVSPost2010Prop38
140
0.0
102
RTVSPost2010PropOp38
 70
     1
102
RTVSPost2010Prop39
140
1.0
102
RTVSPost2010PropOp39
 70
     1
102
RTVSPost2010Prop40
 90
        0
102
RTVSPost2010PropOp40
 70
     1
102
RTVSPost2010Prop41ColorIndex
 90
       18
102
RTVSPost2010Prop41ColorRGB
 90
        0
102
RTVSPost2010PropOp41
 70
     1
102
RTVSPost2010Prop42
 90
       50
102
RTVSPost2010PropOp42
 70
     1
102
RTVSPost2010Prop43
 90
        3
102
RTVSPost2010PropOp43
 70
     1
102
RTVSPost2010Prop44ColorIndex
 90
        5
102
RTVSPost2010Prop44ColorRGB
 90
      255
102
RTVSPost2010PropOp44
 70
     1
102
RTVSPost2010Prop45
280
     0
102
RTVSPost2010PropOp45
 70
     1
102
RTVSPost2010Prop46
 90
       50
102
RTVSPost2010PropOp46
 70
     1
102
RTVSPost2010Prop47
 90
       50
102
RTVSPost2010PropOp47
 70
     1
102
RTVSPost2010Prop48
 90
       50
102
RTVSPost2010PropOp48
 70
     1
102
RTVSPost2010Prop49
280
     0
102
RTVSPost2010PropOp49
 70
     1
102
RTVSPost2010Prop50
 90
       50
102
RTVSPost2010PropOp50
 70
     1
102
RTVSPost2010Prop51ColorIndex
 90
      256
102
RTVSPost2010Prop51ColorRGB
 90
-16777216
102
RTVSPost2010PropOp51
 70
     0
102
RTVSPost2010Prop52
140
1.0
102
RTVSPost2010PropOp52
 70
     0
102
RTVSPost2010Prop53
 90
        2
102
RTVSPost2010PropOp53
 70
     1
102
RTVSPost2010Prop54
  1
strokes_ogs.tif
102
RTVSPost2010PropOp54
 70
     1
102
RTVSPost2010Prop55
280
     0
102
RTVSPost2010PropOp55
 70
     1
102
RTVSPost2010Prop56
140
1.0
102
RTVSPost2010PropOp56
 70
     1
102
RTVSPost2010Prop57
140
1.0
102
RTVSPost2010PropOp57
 70
     1
102
RTVSPropertyOp0
 70
     1
102
RTVSPropertyOp1
 70
     1
102
RTVSPropertyOp2
 70
     1
102
RTVSPropertyOp3
 70
     1
102
RTVSPropertyOp4
 70
     1
102
RTVSPropertyOp5
 70
     1
102
RTVSPropertyOp6
 70
     1
102
RTVSPropertyOp7
 70
     1
102
RTVSPropertyOp8
 70
     1
102
RTVSPropertyOp9
 70
     1
102
RTVSPropertyOp10
 70
     1
102
RTVSPropertyOp11
 70
     1
102
RTVSPropertyOp12
 70
     1
102
RTVSPropertyOp13
 70
     1
102
RTVSPropertyOp14
 70
     1
102
RTVSPropertyOp15
 70
     1
102
RTVSPropertyOp16
 70
     1
102
RTVSPropertyOp17
 70
     1
102
RTVSPropertyOp18
 70
     1
102
RTVSPropertyOp19
 70
     1
102
RTVSPropertyOp20
 70
     1
102
RTVSPropertyOp21
 70
     1
102
RTVSPropertyOp22
 70
     1
102
RTVSPropertyOp23
 70
     1
102
RTVSPropertyOp24
 70
     1
102
RTVSPropertyOp25
 70
     1
102
RTVSPropertyOp26
 70
     1
102
RTVSPropertyOp27
 70
     1
102
RTVSPropertyOp28
 70
     1
102
RTVSPropertyOp29
 70
     1
102
RTVSPropertyOp30
 70
     1
102
RTVSPropertyOp31
 70
     1
102
RTVSPropertyOp32
 70
     1
102
RTVSPropertyOp33
 70
     1
102
RTVSPropertyOp34
 70
     1
102
RTVSPropertyOp35
 70
     1
102
RTVSPropertyOp36
 70
     1
102
RTVSPropertyOp37
 70
     1
102
RTVSPropertyOp38
 70
     1
102
RTVSPropertyOp39
 70
     1
102
RTVSPropertyOp40
 70
     1
102
RTVSPropertyOp41
 70
     1
102
RTVSPropertyOp42
 70
     1
102
RTVSPropertyOp43
 70
     1
102
RTVSPropertyOp44
 70
     1
102
RTVSPropertyOp45
 70
     1
102
RTVSPropertyOp46
 70
     1
102
RTVSPropertyOp47
 70
     1
102
RTVSPropertyOp48
 70
     1
102
RTVSPropertyOp49
 70
     1
102
RTVSPropertyOp50
 70
     1
102
RTVSPropertyOp51
 70
     0
102
RTVSPropertyOp52
 70
     0
102
RTVSPropertyOp53
 70
     1
102
RTVSPropertyOp54
 70
     1
102
RTVSPropertyOp55
 70
     1
102
RTVSPropertyOp56
 70
     1
102
RTVSPropertyOp57
 70
     1
102
RTVSPropertyOp58
 70
     1
102
RTVSPropertyOp59
 70
     1
102
RTVSPropertyOp60
 70
     1
102
RTVSPropertyOp61
 70
     1
102
RTVSPropertyOp62
 70
     1
  0
XRECORD
  5
637F
102
{ACAD_REACTORS
330
637E
102
}
330
637E
100
AcDbXrecord
280
     1
102
RTVSPost2010Prop28
280
     0
102
RTVSPost2010PropOp28
 70
     1
102
RTVSPost2010Prop29
280
     1
102
RTVSPost2010PropOp29
 70
     1
102
RTVSPost2010Prop30
280
     1
102
RTVSPost2010PropOp30
 70
     1
102
RTVSPost2010Prop31
280
     0
102
RTVSPost2010PropOp31
 70
     1
102
RTVSPost2010Prop32
280
     0
102
RTVSPost2010PropOp32
 70
     1
102
RTVSPost2010Prop33
280
     0
102
RTVSPost2010PropOp33
 70
     1
102
RTVSPost2010Prop34
280
     0
102
RTVSPost2010PropOp34
 70
     1
102
RTVSPost2010Prop35
280
     0
102
RTVSPost2010PropOp35
 70
     1
102
RTVSPost2010Prop36
280
     0
102
RTVSPost2010PropOp36
 70
     1
102
RTVSPost2010Prop37
 90
       50
102
RTVSPost2010PropOp37
 70
     1
102
RTVSPost2010Prop38
140
0.0
102
RTVSPost2010PropOp38
 70
     1
102
RTVSPost2010Prop39
140
1.0
102
RTVSPost2010PropOp39
 70
     1
102
RTVSPost2010Prop40
 90
        0
102
RTVSPost2010PropOp40
 70
     1
102
RTVSPost2010Prop41ColorIndex
 90
       18
102
RTVSPost2010Prop41ColorRGB
 90
        0
102
RTVSPost2010PropOp41
 70
     1
102
RTVSPost2010Prop42
 90
       50
102
RTVSPost2010PropOp42
 70
     1
102
RTVSPost2010Prop43
 90
        3
102
RTVSPost2010PropOp43
 70
     1
102
RTVSPost2010Prop44ColorIndex
 90
        5
102
RTVSPost2010Prop44ColorRGB
 90
      255
102
RTVSPost2010PropOp44
 70
     1
102
RTVSPost2010Prop45
280
     0
102
RTVSPost2010PropOp45
 70
     1
102
RTVSPost2010Prop46
 90
       50
102
RTVSPost2010PropOp46
 70
     1
102
RTVSPost2010Prop47
 90
       50
102
RTVSPost2010PropOp47
 70
     1
102
RTVSPost2010Prop48
 90
       50
102
RTVSPost2010PropOp48
 70
     1
102
RTVSPost2010Prop49
280
     0
102
RTVSPost2010PropOp49
 70
     1
102
RTVSPost2010Prop50
 90
       50
102
RTVSPost2010PropOp50
 70
     1
102
RTVSPost2010Prop51ColorIndex
 90
      256
102
RTVSPost2010Prop51ColorRGB
 90
-16777216
102
RTVSPost2010PropOp51
 70
     0
102
RTVSPost2010Prop52
140
1.0
102
RTVSPost2010PropOp52
 70
     0
102
RTVSPost2010Prop53
 90
        2
102
RTVSPost2010PropOp53
 70
     1
102
RTVSPost2010Prop54
  1
strokes_ogs.tif
102
RTVSPost2010PropOp54
 70
     1
102
RTVSPost2010Prop55
280
     0
102
RTVSPost2010PropOp55
 70
     1
102
RTVSPost2010Prop56
140
1.0
102
RTVSPost2010PropOp56
 70
     1
102
RTVSPost2010Prop57
140
1.0
102
RTVSPost2010PropOp57
 70
     1
102
RTVSPropertyOp0
 70
     1
102
RTVSPropertyOp1
 70
     1
102
RTVSPropertyOp2
 70
     1
102
RTVSPropertyOp3
 70
     1
102
RTVSPropertyOp4
 70
     1
102
RTVSPropertyOp5
 70
     1
102
RTVSPropertyOp6
 70
     1
102
RTVSPropertyOp7
 70
     1
102
RTVSPropertyOp8
 70
     1
102
RTVSPropertyOp9
 70
     1
102
RTVSPropertyOp10
 70
     1
102
RTVSPropertyOp11
 70
     1
102
RTVSPropertyOp12
 70
     1
102
RTVSPropertyOp13
 70
     1
102
RTVSPropertyOp14
 70
     1
102
RTVSPropertyOp15
 70
     1
102
RTVSPropertyOp16
 70
     1
102
RTVSPropertyOp17
 70
     1
102
RTVSPropertyOp18
 70
     1
102
RTVSPropertyOp19
 70
     1
102
RTVSPropertyOp20
 70
     1
102
RTVSPropertyOp21
 70
     1
102
RTVSPropertyOp22
 70
     1
102
RTVSPropertyOp23
 70
     1
102
RTVSPropertyOp24
 70
     1
102
RTVSPropertyOp25
 70
     1
102
RTVSPropertyOp26
 70
     1
102
RTVSPropertyOp27
 70
     1
102
RTVSPropertyOp28
 70
     1
102
RTVSPropertyOp29
 70
     1
102
RTVSPropertyOp30
 70
     1
102
RTVSPropertyOp31
 70
     1
102
RTVSPropertyOp32
 70
     1
102
RTVSPropertyOp33
 70
     1
102
RTVSPropertyOp34
 70
     1
102
RTVSPropertyOp35
 70
     1
102
RTVSPropertyOp36
 70
     1
102
RTVSPropertyOp37
 70
     1
102
RTVSPropertyOp38
 70
     1
102
RTVSPropertyOp39
 70
     1
102
RTVSPropertyOp40
 70
     1
102
RTVSPropertyOp41
 70
     1
102
RTVSPropertyOp42
 70
     1
102
RTVSPropertyOp43
 70
     1
102
RTVSPropertyOp44
 70
     1
102
RTVSPropertyOp45
 70
     1
102
RTVSPropertyOp46
 70
     1
102
RTVSPropertyOp47
 70
     1
102
RTVSPropertyOp48
 70
     1
102
RTVSPropertyOp49
 70
     1
102
RTVSPropertyOp50
 70
     1
102
RTVSPropertyOp51
 70
     0
102
RTVSPropertyOp52
 70
     0
102
RTVSPropertyOp53
 70
     1
102
RTVSPropertyOp54
 70
     1
102
RTVSPropertyOp55
 70
     1
102
RTVSPropertyOp56
 70
     1
102
RTVSPropertyOp57
 70
     1
102
RTVSPropertyOp58
 70
     1
102
RTVSPropertyOp59
 70
     1
102
RTVSPropertyOp60
 70
     1
102
RTVSPropertyOp61
 70
     1
102
RTVSPropertyOp62
 70
     1
  0
XRECORD
  5
6387
102
{ACAD_REACTORS
330
6386
102
}
330
6386
100
AcDbXrecord
280
     1
102
RTVSPost2010Prop28
280
     0
102
RTVSPost2010PropOp28
 70
     1
102
RTVSPost2010Prop29
280
     1
102
RTVSPost2010PropOp29
 70
     1
102
RTVSPost2010Prop30
280
     1
102
RTVSPost2010PropOp30
 70
     1
102
RTVSPost2010Prop31
280
     0
102
RTVSPost2010PropOp31
 70
     1
102
RTVSPost2010Prop32
280
     0
102
RTVSPost2010PropOp32
 70
     1
102
RTVSPost2010Prop33
280
     0
102
RTVSPost2010PropOp33
 70
     1
102
RTVSPost2010Prop34
280
     0
102
RTVSPost2010PropOp34
 70
     1
102
RTVSPost2010Prop35
280
     0
102
RTVSPost2010PropOp35
 70
     1
102
RTVSPost2010Prop36
280
     0
102
RTVSPost2010PropOp36
 70
     1
102
RTVSPost2010Prop37
 90
       50
102
RTVSPost2010PropOp37
 70
     1
102
RTVSPost2010Prop38
140
0.0
102
RTVSPost2010PropOp38
 70
     1
102
RTVSPost2010Prop39
140
1.0
102
RTVSPost2010PropOp39
 70
     1
102
RTVSPost2010Prop40
 90
        0
102
RTVSPost2010PropOp40
 70
     1
102
RTVSPost2010Prop41ColorIndex
 90
       18
102
RTVSPost2010Prop41ColorRGB
 90
        0
102
RTVSPost2010PropOp41
 70
     1
102
RTVSPost2010Prop42
 90
       50
102
RTVSPost2010PropOp42
 70
     1
102
RTVSPost2010Prop43
 90
        3
102
RTVSPost2010PropOp43
 70
     1
102
RTVSPost2010Prop44ColorIndex
 90
        5
102
RTVSPost2010Prop44ColorRGB
 90
      255
102
RTVSPost2010PropOp44
 70
     1
102
RTVSPost2010Prop45
280
     0
102
RTVSPost2010PropOp45
 70
     1
102
RTVSPost2010Prop46
 90
       50
102
RTVSPost2010PropOp46
 70
     1
102
RTVSPost2010Prop47
 90
       50
102
RTVSPost2010PropOp47
 70
     1
102
RTVSPost2010Prop48
 90
       50
102
RTVSPost2010PropOp48
 70
     1
102
RTVSPost2010Prop49
280
     0
102
RTVSPost2010PropOp49
 70
     1
102
RTVSPost2010Prop50
 90
       50
102
RTVSPost2010PropOp50
 70
     1
102
RTVSPost2010Prop51ColorIndex
 90
      256
102
RTVSPost2010Prop51ColorRGB
 90
-16777216
102
RTVSPost2010PropOp51
 70
     0
102
RTVSPost2010Prop52
140
1.0
102
RTVSPost2010PropOp52
 70
     0
102
RTVSPost2010Prop53
 90
        2
102
RTVSPost2010PropOp53
 70
     1
102
RTVSPost2010Prop54
  1
strokes_ogs.tif
102
RTVSPost2010PropOp54
 70
     1
102
RTVSPost2010Prop55
280
     0
102
RTVSPost2010PropOp55
 70
     1
102
RTVSPost2010Prop56
140
1.0
102
RTVSPost2010PropOp56
 70
     1
102
RTVSPost2010Prop57
140
1.0
102
RTVSPost2010PropOp57
 70
     1
102
RTVSPropertyOp0
 70
     1
102
RTVSPropertyOp1
 70
     1
102
RTVSPropertyOp2
 70
     1
102
RTVSPropertyOp3
 70
     1
102
RTVSPropertyOp4
 70
     1
102
RTVSPropertyOp5
 70
     1
102
RTVSPropertyOp6
 70
     1
102
RTVSPropertyOp7
 70
     1
102
RTVSPropertyOp8
 70
     1
102
RTVSPropertyOp9
 70
     1
102
RTVSPropertyOp10
 70
     1
102
RTVSPropertyOp11
 70
     1
102
RTVSPropertyOp12
 70
     1
102
RTVSPropertyOp13
 70
     1
102
RTVSPropertyOp14
 70
     1
102
RTVSPropertyOp15
 70
     1
102
RTVSPropertyOp16
 70
     1
102
RTVSPropertyOp17
 70
     1
102
RTVSPropertyOp18
 70
     1
102
RTVSPropertyOp19
 70
     1
102
RTVSPropertyOp20
 70
     1
102
RTVSPropertyOp21
 70
     1
102
RTVSPropertyOp22
 70
     1
102
RTVSPropertyOp23
 70
     1
102
RTVSPropertyOp24
 70
     1
102
RTVSPropertyOp25
 70
     1
102
RTVSPropertyOp26
 70
     1
102
RTVSPropertyOp27
 70
     1
102
RTVSPropertyOp28
 70
     1
102
RTVSPropertyOp29
 70
     1
102
RTVSPropertyOp30
 70
     1
102
RTVSPropertyOp31
 70
     1
102
RTVSPropertyOp32
 70
     1
102
RTVSPropertyOp33
 70
     1
102
RTVSPropertyOp34
 70
     1
102
RTVSPropertyOp35
 70
     1
102
RTVSPropertyOp36
 70
     1
102
RTVSPropertyOp37
 70
     1
102
RTVSPropertyOp38
 70
     1
102
RTVSPropertyOp39
 70
     1
102
RTVSPropertyOp40
 70
     1
102
RTVSPropertyOp41
 70
     1
102
RTVSPropertyOp42
 70
     1
102
RTVSPropertyOp43
 70
     1
102
RTVSPropertyOp44
 70
     1
102
RTVSPropertyOp45
 70
     1
102
RTVSPropertyOp46
 70
     1
102
RTVSPropertyOp47
 70
     1
102
RTVSPropertyOp48
 70
     1
102
RTVSPropertyOp49
 70
     1
102
RTVSPropertyOp50
 70
     1
102
RTVSPropertyOp51
 70
     0
102
RTVSPropertyOp52
 70
     0
102
RTVSPropertyOp53
 70
     1
102
RTVSPropertyOp54
 70
     1
102
RTVSPropertyOp55
 70
     1
102
RTVSPropertyOp56
 70
     1
102
RTVSPropertyOp57
 70
     1
102
RTVSPropertyOp58
 70
     1
102
RTVSPropertyOp59
 70
     1
102
RTVSPropertyOp60
 70
     1
102
RTVSPropertyOp61
 70
     1
102
RTVSPropertyOp62
 70
     1
  0
XRECORD
  5
6379
102
{ACAD_REACTORS
330
6378
102
}
330
6378
100
AcDbXrecord
280
     1
102
RTVSPost2010Prop28
280
     0
102
RTVSPost2010PropOp28
 70
     1
102
RTVSPost2010Prop29
280
     1
102
RTVSPost2010PropOp29
 70
     1
102
RTVSPost2010Prop30
280
     1
102
RTVSPost2010PropOp30
 70
     1
102
RTVSPost2010Prop31
280
     0
102
RTVSPost2010PropOp31
 70
     1
102
RTVSPost2010Prop32
280
     0
102
RTVSPost2010PropOp32
 70
     1
102
RTVSPost2010Prop33
280
     0
102
RTVSPost2010PropOp33
 70
     1
102
RTVSPost2010Prop34
280
     0
102
RTVSPost2010PropOp34
 70
     1
102
RTVSPost2010Prop35
280
     0
102
RTVSPost2010PropOp35
 70
     1
102
RTVSPost2010Prop36
280
     0
102
RTVSPost2010PropOp36
 70
     1
102
RTVSPost2010Prop37
 90
       50
102
RTVSPost2010PropOp37
 70
     1
102
RTVSPost2010Prop38
140
0.0
102
RTVSPost2010PropOp38
 70
     1
102
RTVSPost2010Prop39
140
1.0
102
RTVSPost2010PropOp39
 70
     1
102
RTVSPost2010Prop40
 90
        0
102
RTVSPost2010PropOp40
 70
     1
102
RTVSPost2010Prop41ColorIndex
 90
       18
102
RTVSPost2010Prop41ColorRGB
 90
        0
102
RTVSPost2010PropOp41
 70
     1
102
RTVSPost2010Prop42
 90
       50
102
RTVSPost2010PropOp42
 70
     1
102
RTVSPost2010Prop43
 90
        3
102
RTVSPost2010PropOp43
 70
     1
102
RTVSPost2010Prop44ColorIndex
 90
        5
102
RTVSPost2010Prop44ColorRGB
 90
      255
102
RTVSPost2010PropOp44
 70
     1
102
RTVSPost2010Prop45
280
     0
102
RTVSPost2010PropOp45
 70
     1
102
RTVSPost2010Prop46
 90
       50
102
RTVSPost2010PropOp46
 70
     1
102
RTVSPost2010Prop47
 90
       50
102
RTVSPost2010PropOp47
 70
     1
102
RTVSPost2010Prop48
 90
       50
102
RTVSPost2010PropOp48
 70
     1
102
RTVSPost2010Prop49
280
     0
102
RTVSPost2010PropOp49
 70
     1
102
RTVSPost2010Prop50
 90
       50
102
RTVSPost2010PropOp50
 70
     1
102
RTVSPost2010Prop51ColorIndex
 90
      256
102
RTVSPost2010Prop51ColorRGB
 90
-16777216
102
RTVSPost2010PropOp51
 70
     0
102
RTVSPost2010Prop52
140
1.0
102
RTVSPost2010PropOp52
 70
     0
102
RTVSPost2010Prop53
 90
        2
102
RTVSPost2010PropOp53
 70
     1
102
RTVSPost2010Prop54
  1
strokes_ogs.tif
102
RTVSPost2010PropOp54
 70
     1
102
RTVSPost2010Prop55
280
     0
102
RTVSPost2010PropOp55
 70
     1
102
RTVSPost2010Prop56
140
1.0
102
RTVSPost2010PropOp56
 70
     1
102
RTVSPost2010Prop57
140
1.0
102
RTVSPost2010PropOp57
 70
     1
102
RTVSPropertyOp0
 70
     1
102
RTVSPropertyOp1
 70
     1
102
RTVSPropertyOp2
 70
     1
102
RTVSPropertyOp3
 70
     1
102
RTVSPropertyOp4
 70
     1
102
RTVSPropertyOp5
 70
     1
102
RTVSPropertyOp6
 70
     1
102
RTVSPropertyOp7
 70
     1
102
RTVSPropertyOp8
 70
     1
102
RTVSPropertyOp9
 70
     1
102
RTVSPropertyOp10
 70
     1
102
RTVSPropertyOp11
 70
     1
102
RTVSPropertyOp12
 70
     1
102
RTVSPropertyOp13
 70
     1
102
RTVSPropertyOp14
 70
     1
102
RTVSPropertyOp15
 70
     1
102
RTVSPropertyOp16
 70
     1
102
RTVSPropertyOp17
 70
     1
102
RTVSPropertyOp18
 70
     1
102
RTVSPropertyOp19
 70
     1
102
RTVSPropertyOp20
 70
     1
102
RTVSPropertyOp21
 70
     1
102
RTVSPropertyOp22
 70
     1
102
RTVSPropertyOp23
 70
     1
102
RTVSPropertyOp24
 70
     1
102
RTVSPropertyOp25
 70
     1
102
RTVSPropertyOp26
 70
     1
102
RTVSPropertyOp27
 70
     1
102
RTVSPropertyOp28
 70
     1
102
RTVSPropertyOp29
 70
     1
102
RTVSPropertyOp30
 70
     1
102
RTVSPropertyOp31
 70
     1
102
RTVSPropertyOp32
 70
     1
102
RTVSPropertyOp33
 70
     1
102
RTVSPropertyOp34
 70
     1
102
RTVSPropertyOp35
 70
     1
102
RTVSPropertyOp36
 70
     1
102
RTVSPropertyOp37
 70
     1
102
RTVSPropertyOp38
 70
     1
102
RTVSPropertyOp39
 70
     1
102
RTVSPropertyOp40
 70
     1
102
RTVSPropertyOp41
 70
     1
102
RTVSPropertyOp42
 70
     1
102
RTVSPropertyOp43
 70
     1
102
RTVSPropertyOp44
 70
     1
102
RTVSPropertyOp45
 70
     1
102
RTVSPropertyOp46
 70
     1
102
RTVSPropertyOp47
 70
     1
102
RTVSPropertyOp48
 70
     1
102
RTVSPropertyOp49
 70
     1
102
RTVSPropertyOp50
 70
     1
102
RTVSPropertyOp51
 70
     0
102
RTVSPropertyOp52
 70
     0
102
RTVSPropertyOp53
 70
     1
102
RTVSPropertyOp54
 70
     1
102
RTVSPropertyOp55
 70
     1
102
RTVSPropertyOp56
 70
     1
102
RTVSPropertyOp57
 70
     1
102
RTVSPropertyOp58
 70
     1
102
RTVSPropertyOp59
 70
     1
102
RTVSPropertyOp60
 70
     1
102
RTVSPropertyOp61
 70
     1
102
RTVSPropertyOp62
 70
     1
  0
XRECORD
  5
637D
102
{ACAD_REACTORS
330
637C
102
}
330
637C
100
AcDbXrecord
280
     1
102
RTVSPost2010Prop28
280
     0
102
RTVSPost2010PropOp28
 70
     1
102
RTVSPost2010Prop29
280
     1
102
RTVSPost2010PropOp29
 70
     1
102
RTVSPost2010Prop30
280
     1
102
RTVSPost2010PropOp30
 70
     1
102
RTVSPost2010Prop31
280
     0
102
RTVSPost2010PropOp31
 70
     1
102
RTVSPost2010Prop32
280
     0
102
RTVSPost2010PropOp32
 70
     1
102
RTVSPost2010Prop33
280
     0
102
RTVSPost2010PropOp33
 70
     1
102
RTVSPost2010Prop34
280
     0
102
RTVSPost2010PropOp34
 70
     1
102
RTVSPost2010Prop35
280
     0
102
RTVSPost2010PropOp35
 70
     1
102
RTVSPost2010Prop36
280
     0
102
RTVSPost2010PropOp36
 70
     1
102
RTVSPost2010Prop37
 90
       50
102
RTVSPost2010PropOp37
 70
     1
102
RTVSPost2010Prop38
140
0.0
102
RTVSPost2010PropOp38
 70
     1
102
RTVSPost2010Prop39
140
1.0
102
RTVSPost2010PropOp39
 70
     1
102
RTVSPost2010Prop40
 90
        0
102
RTVSPost2010PropOp40
 70
     1
102
RTVSPost2010Prop41ColorIndex
 90
       18
102
RTVSPost2010Prop41ColorRGB
 90
        0
102
RTVSPost2010PropOp41
 70
     1
102
RTVSPost2010Prop42
 90
       50
102
RTVSPost2010PropOp42
 70
     1
102
RTVSPost2010Prop43
 90
        3
102
RTVSPost2010PropOp43
 70
     1
102
RTVSPost2010Prop44ColorIndex
 90
        5
102
RTVSPost2010Prop44ColorRGB
 90
      255
102
RTVSPost2010PropOp44
 70
     1
102
RTVSPost2010Prop45
280
     0
102
RTVSPost2010PropOp45
 70
     1
102
RTVSPost2010Prop46
 90
       50
102
RTVSPost2010PropOp46
 70
     1
102
RTVSPost2010Prop47
 90
       50
102
RTVSPost2010PropOp47
 70
     1
102
RTVSPost2010Prop48
 90
       50
102
RTVSPost2010PropOp48
 70
     1
102
RTVSPost2010Prop49
280
     0
102
RTVSPost2010PropOp49
 70
     1
102
RTVSPost2010Prop50
 90
       50
102
RTVSPost2010PropOp50
 70
     1
102
RTVSPost2010Prop51ColorIndex
 90
      256
102
RTVSPost2010Prop51ColorRGB
 90
-16777216
102
RTVSPost2010PropOp51
 70
     0
102
RTVSPost2010Prop52
140
1.0
102
RTVSPost2010PropOp52
 70
     0
102
RTVSPost2010Prop53
 90
        2
102
RTVSPost2010PropOp53
 70
     1
102
RTVSPost2010Prop54
  1
strokes_ogs.tif
102
RTVSPost2010PropOp54
 70
     1
102
RTVSPost2010Prop55
280
     0
102
RTVSPost2010PropOp55
 70
     1
102
RTVSPost2010Prop56
140
1.0
102
RTVSPost2010PropOp56
 70
     1
102
RTVSPost2010Prop57
140
1.0
102
RTVSPost2010PropOp57
 70
     1
102
RTVSPropertyOp0
 70
     1
102
RTVSPropertyOp1
 70
     1
102
RTVSPropertyOp2
 70
     1
102
RTVSPropertyOp3
 70
     1
102
RTVSPropertyOp4
 70
     1
102
RTVSPropertyOp5
 70
     1
102
RTVSPropertyOp6
 70
     1
102
RTVSPropertyOp7
 70
     1
102
RTVSPropertyOp8
 70
     1
102
RTVSPropertyOp9
 70
     1
102
RTVSPropertyOp10
 70
     1
102
RTVSPropertyOp11
 70
     1
102
RTVSPropertyOp12
 70
     1
102
RTVSPropertyOp13
 70
     1
102
RTVSPropertyOp14
 70
     1
102
RTVSPropertyOp15
 70
     1
102
RTVSPropertyOp16
 70
     1
102
RTVSPropertyOp17
 70
     1
102
RTVSPropertyOp18
 70
     1
102
RTVSPropertyOp19
 70
     1
102
RTVSPropertyOp20
 70
     1
102
RTVSPropertyOp21
 70
     1
102
RTVSPropertyOp22
 70
     1
102
RTVSPropertyOp23
 70
     1
102
RTVSPropertyOp24
 70
     1
102
RTVSPropertyOp25
 70
     1
102
RTVSPropertyOp26
 70
     1
102
RTVSPropertyOp27
 70
     1
102
RTVSPropertyOp28
 70
     1
102
RTVSPropertyOp29
 70
     1
102
RTVSPropertyOp30
 70
     1
102
RTVSPropertyOp31
 70
     1
102
RTVSPropertyOp32
 70
     1
102
RTVSPropertyOp33
 70
     1
102
RTVSPropertyOp34
 70
     1
102
RTVSPropertyOp35
 70
     1
102
RTVSPropertyOp36
 70
     1
102
RTVSPropertyOp37
 70
     1
102
RTVSPropertyOp38
 70
     1
102
RTVSPropertyOp39
 70
     1
102
RTVSPropertyOp40
 70
     1
102
RTVSPropertyOp41
 70
     1
102
RTVSPropertyOp42
 70
     1
102
RTVSPropertyOp43
 70
     1
102
RTVSPropertyOp44
 70
     1
102
RTVSPropertyOp45
 70
     1
102
RTVSPropertyOp46
 70
     1
102
RTVSPropertyOp47
 70
     1
102
RTVSPropertyOp48
 70
     1
102
RTVSPropertyOp49
 70
     1
102
RTVSPropertyOp50
 70
     1
102
RTVSPropertyOp51
 70
     0
102
RTVSPropertyOp52
 70
     0
102
RTVSPropertyOp53
 70
     1
102
RTVSPropertyOp54
 70
     1
102
RTVSPropertyOp55
 70
     1
102
RTVSPropertyOp56
 70
     1
102
RTVSPropertyOp57
 70
     1
102
RTVSPropertyOp58
 70
     1
102
RTVSPropertyOp59
 70
     1
102
RTVSPropertyOp60
 70
     1
102
RTVSPropertyOp61
 70
     1
102
RTVSPropertyOp62
 70
     1
  0
XRECORD
  5
638F
102
{ACAD_REACTORS
330
638E
102
}
330
638E
100
AcDbXrecord
280
     1
102
RTVSPost2010Prop28
280
     0
102
RTVSPost2010PropOp28
 70
     1
102
RTVSPost2010Prop29
280
     1
102
RTVSPost2010PropOp29
 70
     1
102
RTVSPost2010Prop30
280
     1
102
RTVSPost2010PropOp30
 70
     1
102
RTVSPost2010Prop31
280
     0
102
RTVSPost2010PropOp31
 70
     1
102
RTVSPost2010Prop32
280
     0
102
RTVSPost2010PropOp32
 70
     1
102
RTVSPost2010Prop33
280
     0
102
RTVSPost2010PropOp33
 70
     1
102
RTVSPost2010Prop34
280
     0
102
RTVSPost2010PropOp34
 70
     1
102
RTVSPost2010Prop35
280
     0
102
RTVSPost2010PropOp35
 70
     1
102
RTVSPost2010Prop36
280
     0
102
RTVSPost2010PropOp36
 70
     1
102
RTVSPost2010Prop37
 90
       50
102
RTVSPost2010PropOp37
 70
     1
102
RTVSPost2010Prop38
140
0.0
102
RTVSPost2010PropOp38
 70
     1
102
RTVSPost2010Prop39
140
1.0
102
RTVSPost2010PropOp39
 70
     1
102
RTVSPost2010Prop40
 90
        0
102
RTVSPost2010PropOp40
 70
     1
102
RTVSPost2010Prop41ColorIndex
 90
       18
102
RTVSPost2010Prop41ColorRGB
 90
        0
102
RTVSPost2010PropOp41
 70
     1
102
RTVSPost2010Prop42
 90
       50
102
RTVSPost2010PropOp42
 70
     1
102
RTVSPost2010Prop43
 90
        3
102
RTVSPost2010PropOp43
 70
     1
102
RTVSPost2010Prop44ColorIndex
 90
        5
102
RTVSPost2010Prop44ColorRGB
 90
      255
102
RTVSPost2010PropOp44
 70
     1
102
RTVSPost2010Prop45
280
     0
102
RTVSPost2010PropOp45
 70
     1
102
RTVSPost2010Prop46
 90
       50
102
RTVSPost2010PropOp46
 70
     1
102
RTVSPost2010Prop47
 90
       50
102
RTVSPost2010PropOp47
 70
     1
102
RTVSPost2010Prop48
 90
       50
102
RTVSPost2010PropOp48
 70
     1
102
RTVSPost2010Prop49
280
     0
102
RTVSPost2010PropOp49
 70
     1
102
RTVSPost2010Prop50
 90
       50
102
RTVSPost2010PropOp50
 70
     1
102
RTVSPost2010Prop51ColorIndex
 90
      256
102
RTVSPost2010Prop51ColorRGB
 90
-16777216
102
RTVSPost2010PropOp51
 70
     0
102
RTVSPost2010Prop52
140
1.0
102
RTVSPost2010PropOp52
 70
     0
102
RTVSPost2010Prop53
 90
        2
102
RTVSPost2010PropOp53
 70
     1
102
RTVSPost2010Prop54
  1
strokes_ogs.tif
102
RTVSPost2010PropOp54
 70
     1
102
RTVSPost2010Prop55
280
     0
102
RTVSPost2010PropOp55
 70
     1
102
RTVSPost2010Prop56
140
1.0
102
RTVSPost2010PropOp56
 70
     1
102
RTVSPost2010Prop57
140
1.0
102
RTVSPost2010PropOp57
 70
     1
102
RTVSPropertyOp0
 70
     0
102
RTVSPropertyOp1
 70
     0
102
RTVSPropertyOp2
 70
     0
102
RTVSPropertyOp3
 70
     0
102
RTVSPropertyOp4
 70
     0
102
RTVSPropertyOp5
 70
     0
102
RTVSPropertyOp6
 70
     0
102
RTVSPropertyOp7
 70
     0
102
RTVSPropertyOp8
 70
     0
102
RTVSPropertyOp9
 70
     0
102
RTVSPropertyOp10
 70
     0
102
RTVSPropertyOp11
 70
     0
102
RTVSPropertyOp12
 70
     0
102
RTVSPropertyOp13
 70
     0
102
RTVSPropertyOp14
 70
     2
102
RTVSPropertyOp15
 70
     0
102
RTVSPropertyOp16
 70
     0
102
RTVSPropertyOp17
 70
     0
102
RTVSPropertyOp18
 70
     0
102
RTVSPropertyOp19
 70
     0
102
RTVSPropertyOp20
 70
     0
102
RTVSPropertyOp21
 70
     0
102
RTVSPropertyOp22
 70
     0
102
RTVSPropertyOp23
 70
     0
102
RTVSPropertyOp24
 70
     0
102
RTVSPropertyOp25
 70
     0
102
RTVSPropertyOp26
 70
     0
102
RTVSPropertyOp27
 70
     0
102
RTVSPropertyOp28
 70
     1
102
RTVSPropertyOp29
 70
     1
102
RTVSPropertyOp30
 70
     1
102
RTVSPropertyOp31
 70
     1
102
RTVSPropertyOp32
 70
     1
102
RTVSPropertyOp33
 70
     1
102
RTVSPropertyOp34
 70
     1
102
RTVSPropertyOp35
 70
     1
102
RTVSPropertyOp36
 70
     1
102
RTVSPropertyOp37
 70
     1
102
RTVSPropertyOp38
 70
     1
102
RTVSPropertyOp39
 70
     1
102
RTVSPropertyOp40
 70
     1
102
RTVSPropertyOp41
 70
     1
102
RTVSPropertyOp42
 70
     1
102
RTVSPropertyOp43
 70
     1
102
RTVSPropertyOp44
 70
     1
102
RTVSPropertyOp45
 70
     1
102
RTVSPropertyOp46
 70
     1
102
RTVSPropertyOp47
 70
     1
102
RTVSPropertyOp48
 70
     1
102
RTVSPropertyOp49
 70
     1
102
RTVSPropertyOp50
 70
     1
102
RTVSPropertyOp51
 70
     0
102
RTVSPropertyOp52
 70
     0
102
RTVSPropertyOp53
 70
     1
102
RTVSPropertyOp54
 70
     1
102
RTVSPropertyOp55
 70
     1
102
RTVSPropertyOp56
 70
     1
102
RTVSPropertyOp57
 70
     1
102
RTVSPropertyOp58
 70
     1
102
RTVSPropertyOp59
 70
     1
102
RTVSPropertyOp60
 70
     1
102
RTVSPropertyOp61
 70
     1
102
RTVSPropertyOp62
 70
     1
  0
XRECORD
  5
6385
102
{ACAD_REACTORS
330
6384
102
}
330
6384
100
AcDbXrecord
280
     1
102
RTVSPost2010Prop28
280
     0
102
RTVSPost2010PropOp28
 70
     1
102
RTVSPost2010Prop29
280
     1
102
RTVSPost2010PropOp29
 70
     1
102
RTVSPost2010Prop30
280
     1
102
RTVSPost2010PropOp30
 70
     1
102
RTVSPost2010Prop31
280
     0
102
RTVSPost2010PropOp31
 70
     1
102
RTVSPost2010Prop32
280
     0
102
RTVSPost2010PropOp32
 70
     1
102
RTVSPost2010Prop33
280
     0
102
RTVSPost2010PropOp33
 70
     1
102
RTVSPost2010Prop34
280
     0
102
RTVSPost2010PropOp34
 70
     1
102
RTVSPost2010Prop35
280
     0
102
RTVSPost2010PropOp35
 70
     1
102
RTVSPost2010Prop36
280
     0
102
RTVSPost2010PropOp36
 70
     1
102
RTVSPost2010Prop37
 90
       50
102
RTVSPost2010PropOp37
 70
     1
102
RTVSPost2010Prop38
140
0.0
102
RTVSPost2010PropOp38
 70
     1
102
RTVSPost2010Prop39
140
1.0
102
RTVSPost2010PropOp39
 70
     1
102
RTVSPost2010Prop40
 90
        0
102
RTVSPost2010PropOp40
 70
     1
102
RTVSPost2010Prop41ColorIndex
 90
       18
102
RTVSPost2010Prop41ColorRGB
 90
        0
102
RTVSPost2010PropOp41
 70
     1
102
RTVSPost2010Prop42
 90
       50
102
RTVSPost2010PropOp42
 70
     1
102
RTVSPost2010Prop43
 90
        3
102
RTVSPost2010PropOp43
 70
     1
102
RTVSPost2010Prop44ColorIndex
 90
        5
102
RTVSPost2010Prop44ColorRGB
 90
      255
102
RTVSPost2010PropOp44
 70
     1
102
RTVSPost2010Prop45
280
     0
102
RTVSPost2010PropOp45
 70
     1
102
RTVSPost2010Prop46
 90
       50
102
RTVSPost2010PropOp46
 70
     1
102
RTVSPost2010Prop47
 90
       50
102
RTVSPost2010PropOp47
 70
     1
102
RTVSPost2010Prop48
 90
       50
102
RTVSPost2010PropOp48
 70
     1
102
RTVSPost2010Prop49
280
     0
102
RTVSPost2010PropOp49
 70
     1
102
RTVSPost2010Prop50
 90
       50
102
RTVSPost2010PropOp50
 70
     1
102
RTVSPost2010Prop51ColorIndex
 90
      256
102
RTVSPost2010Prop51ColorRGB
 90
-16777216
102
RTVSPost2010PropOp51
 70
     0
102
RTVSPost2010Prop52
140
1.0
102
RTVSPost2010PropOp52
 70
     0
102
RTVSPost2010Prop53
 90
        2
102
RTVSPost2010PropOp53
 70
     1
102
RTVSPost2010Prop54
  1
strokes_ogs.tif
102
RTVSPost2010PropOp54
 70
     1
102
RTVSPost2010Prop55
280
     0
102
RTVSPost2010PropOp55
 70
     1
102
RTVSPost2010Prop56
140
1.0
102
RTVSPost2010PropOp56
 70
     1
102
RTVSPost2010Prop57
140
1.0
102
RTVSPost2010PropOp57
 70
     1
102
RTVSPropertyOp0
 70
     1
102
RTVSPropertyOp1
 70
     1
102
RTVSPropertyOp2
 70
     1
102
RTVSPropertyOp3
 70
     1
102
RTVSPropertyOp4
 70
     1
102
RTVSPropertyOp5
 70
     1
102
RTVSPropertyOp6
 70
     1
102
RTVSPropertyOp7
 70
     1
102
RTVSPropertyOp8
 70
     1
102
RTVSPropertyOp9
 70
     1
102
RTVSPropertyOp10
 70
     1
102
RTVSPropertyOp11
 70
     1
102
RTVSPropertyOp12
 70
     1
102
RTVSPropertyOp13
 70
     1
102
RTVSPropertyOp14
 70
     1
102
RTVSPropertyOp15
 70
     1
102
RTVSPropertyOp16
 70
     1
102
RTVSPropertyOp17
 70
     1
102
RTVSPropertyOp18
 70
     1
102
RTVSPropertyOp19
 70
     1
102
RTVSPropertyOp20
 70
     1
102
RTVSPropertyOp21
 70
     1
102
RTVSPropertyOp22
 70
     1
102
RTVSPropertyOp23
 70
     1
102
RTVSPropertyOp24
 70
     1
102
RTVSPropertyOp25
 70
     1
102
RTVSPropertyOp26
 70
     1
102
RTVSPropertyOp27
 70
     1
102
RTVSPropertyOp28
 70
     1
102
RTVSPropertyOp29
 70
     1
102
RTVSPropertyOp30
 70
     1
102
RTVSPropertyOp31
 70
     1
102
RTVSPropertyOp32
 70
     1
102
RTVSPropertyOp33
 70
     1
102
RTVSPropertyOp34
 70
     1
102
RTVSPropertyOp35
 70
     1
102
RTVSPropertyOp36
 70
     1
102
RTVSPropertyOp37
 70
     1
102
RTVSPropertyOp38
 70
     1
102
RTVSPropertyOp39
 70
     1
102
RTVSPropertyOp40
 70
     1
102
RTVSPropertyOp41
 70
     1
102
RTVSPropertyOp42
 70
     1
102
RTVSPropertyOp43
 70
     1
102
RTVSPropertyOp44
 70
     1
102
RTVSPropertyOp45
 70
     1
102
RTVSPropertyOp46
 70
     1
102
RTVSPropertyOp47
 70
     1
102
RTVSPropertyOp48
 70
     1
102
RTVSPropertyOp49
 70
     1
102
RTVSPropertyOp50
 70
     1
102
RTVSPropertyOp51
 70
     0
102
RTVSPropertyOp52
 70
     0
102
RTVSPropertyOp53
 70
     1
102
RTVSPropertyOp54
 70
     1
102
RTVSPropertyOp55
 70
     1
102
RTVSPropertyOp56
 70
     1
102
RTVSPropertyOp57
 70
     1
102
RTVSPropertyOp58
 70
     1
102
RTVSPropertyOp59
 70
     1
102
RTVSPropertyOp60
 70
     1
102
RTVSPropertyOp61
 70
     1
102
RTVSPropertyOp62
 70
     1
  0
XRECORD
  5
6369
102
{ACAD_REACTORS
330
6368
102
}
330
6368
100
AcDbXrecord
280
     1
102
RTVSPost2010Prop28
280
     0
102
RTVSPost2010PropOp28
 70
     1
102
RTVSPost2010Prop29
280
     1
102
RTVSPost2010PropOp29
 70
     1
102
RTVSPost2010Prop30
280
     1
102
RTVSPost2010PropOp30
 70
     1
102
RTVSPost2010Prop31
280
     0
102
RTVSPost2010PropOp31
 70
     1
102
RTVSPost2010Prop32
280
     0
102
RTVSPost2010PropOp32
 70
     1
102
RTVSPost2010Prop33
280
     0
102
RTVSPost2010PropOp33
 70
     1
102
RTVSPost2010Prop34
280
     0
102
RTVSPost2010PropOp34
 70
     1
102
RTVSPost2010Prop35
280
     0
102
RTVSPost2010PropOp35
 70
     1
102
RTVSPost2010Prop36
280
     0
102
RTVSPost2010PropOp36
 70
     1
102
RTVSPost2010Prop37
 90
       50
102
RTVSPost2010PropOp37
 70
     1
102
RTVSPost2010Prop38
140
0.0
102
RTVSPost2010PropOp38
 70
     1
102
RTVSPost2010Prop39
140
1.0
102
RTVSPost2010PropOp39
 70
     1
102
RTVSPost2010Prop40
 90
        0
102
RTVSPost2010PropOp40
 70
     1
102
RTVSPost2010Prop41ColorIndex
 90
       18
102
RTVSPost2010Prop41ColorRGB
 90
        0
102
RTVSPost2010PropOp41
 70
     1
102
RTVSPost2010Prop42
 90
       50
102
RTVSPost2010PropOp42
 70
     1
102
RTVSPost2010Prop43
 90
        3
102
RTVSPost2010PropOp43
 70
     1
102
RTVSPost2010Prop44ColorIndex
 90
        5
102
RTVSPost2010Prop44ColorRGB
 90
      255
102
RTVSPost2010PropOp44
 70
     1
102
RTVSPost2010Prop45
280
     0
102
RTVSPost2010PropOp45
 70
     1
102
RTVSPost2010Prop46
 90
       50
102
RTVSPost2010PropOp46
 70
     1
102
RTVSPost2010Prop47
 90
       50
102
RTVSPost2010PropOp47
 70
     1
102
RTVSPost2010Prop48
 90
       50
102
RTVSPost2010PropOp48
 70
     1
102
RTVSPost2010Prop49
280
     0
102
RTVSPost2010PropOp49
 70
     1
102
RTVSPost2010Prop50
 90
       50
102
RTVSPost2010PropOp50
 70
     1
102
RTVSPost2010Prop51ColorIndex
 90
      256
102
RTVSPost2010Prop51ColorRGB
 90
-16777216
102
RTVSPost2010PropOp51
 70
     0
102
RTVSPost2010Prop52
140
1.0
102
RTVSPost2010PropOp52
 70
     0
102
RTVSPost2010Prop53
 90
        2
102
RTVSPost2010PropOp53
 70
     1
102
RTVSPost2010Prop54
  1
strokes_ogs.tif
102
RTVSPost2010PropOp54
 70
     1
102
RTVSPost2010Prop55
280
     0
102
RTVSPost2010PropOp55
 70
     1
102
RTVSPost2010Prop56
140
1.0
102
RTVSPost2010PropOp56
 70
     1
102
RTVSPost2010Prop57
140
1.0
102
RTVSPost2010PropOp57
 70
     1
102
RTVSPropertyOp0
 70
     1
102
RTVSPropertyOp1
 70
     1
102
RTVSPropertyOp2
 70
     1
102
RTVSPropertyOp3
 70
     1
102
RTVSPropertyOp4
 70
     1
102
RTVSPropertyOp5
 70
     1
102
RTVSPropertyOp6
 70
     1
102
RTVSPropertyOp7
 70
     1
102
RTVSPropertyOp8
 70
     1
102
RTVSPropertyOp9
 70
     1
102
RTVSPropertyOp10
 70
     1
102
RTVSPropertyOp11
 70
     1
102
RTVSPropertyOp12
 70
     1
102
RTVSPropertyOp13
 70
     1
102
RTVSPropertyOp14
 70
     1
102
RTVSPropertyOp15
 70
     1
102
RTVSPropertyOp16
 70
     1
102
RTVSPropertyOp17
 70
     1
102
RTVSPropertyOp18
 70
     1
102
RTVSPropertyOp19
 70
     1
102
RTVSPropertyOp20
 70
     1
102
RTVSPropertyOp21
 70
     1
102
RTVSPropertyOp22
 70
     1
102
RTVSPropertyOp23
 70
     1
102
RTVSPropertyOp24
 70
     1
102
RTVSPropertyOp25
 70
     1
102
RTVSPropertyOp26
 70
     1
102
RTVSPropertyOp27
 70
     1
102
RTVSPropertyOp28
 70
     1
102
RTVSPropertyOp29
 70
     1
102
RTVSPropertyOp30
 70
     1
102
RTVSPropertyOp31
 70
     1
102
RTVSPropertyOp32
 70
     1
102
RTVSPropertyOp33
 70
     1
102
RTVSPropertyOp34
 70
     1
102
RTVSPropertyOp35
 70
     1
102
RTVSPropertyOp36
 70
     1
102
RTVSPropertyOp37
 70
     1
102
RTVSPropertyOp38
 70
     1
102
RTVSPropertyOp39
 70
     1
102
RTVSPropertyOp40
 70
     1
102
RTVSPropertyOp41
 70
     1
102
RTVSPropertyOp42
 70
     1
102
RTVSPropertyOp43
 70
     1
102
RTVSPropertyOp44
 70
     1
102
RTVSPropertyOp45
 70
     1
102
RTVSPropertyOp46
 70
     1
102
RTVSPropertyOp47
 70
     1
102
RTVSPropertyOp48
 70
     1
102
RTVSPropertyOp49
 70
     1
102
RTVSPropertyOp50
 70
     1
102
RTVSPropertyOp51
 70
     0
102
RTVSPropertyOp52
 70
     0
102
RTVSPropertyOp53
 70
     1
102
RTVSPropertyOp54
 70
     1
102
RTVSPropertyOp55
 70
     1
102
RTVSPropertyOp56
 70
     1
102
RTVSPropertyOp57
 70
     1
102
RTVSPropertyOp58
 70
     1
102
RTVSPropertyOp59
 70
     1
102
RTVSPropertyOp60
 70
     1
102
RTVSPropertyOp61
 70
     1
102
RTVSPropertyOp62
 70
     1
  0
XRECORD
  5
636B
102
{ACAD_REACTORS
330
636A
102
}
330
636A
100
AcDbXrecord
280
     1
102
RTVSPost2010Prop28
280
     0
102
RTVSPost2010PropOp28
 70
     1
102
RTVSPost2010Prop29
280
     1
102
RTVSPost2010PropOp29
 70
     1
102
RTVSPost2010Prop30
280
     1
102
RTVSPost2010PropOp30
 70
     1
102
RTVSPost2010Prop31
280
     0
102
RTVSPost2010PropOp31
 70
     1
102
RTVSPost2010Prop32
280
     0
102
RTVSPost2010PropOp32
 70
     1
102
RTVSPost2010Prop33
280
     0
102
RTVSPost2010PropOp33
 70
     1
102
RTVSPost2010Prop34
280
     0
102
RTVSPost2010PropOp34
 70
     1
102
RTVSPost2010Prop35
280
     0
102
RTVSPost2010PropOp35
 70
     1
102
RTVSPost2010Prop36
280
     0
102
RTVSPost2010PropOp36
 70
     1
102
RTVSPost2010Prop37
 90
       50
102
RTVSPost2010PropOp37
 70
     1
102
RTVSPost2010Prop38
140
0.0
102
RTVSPost2010PropOp38
 70
     1
102
RTVSPost2010Prop39
140
1.0
102
RTVSPost2010PropOp39
 70
     1
102
RTVSPost2010Prop40
 90
        0
102
RTVSPost2010PropOp40
 70
     1
102
RTVSPost2010Prop41ColorIndex
 90
       18
102
RTVSPost2010Prop41ColorRGB
 90
        0
102
RTVSPost2010PropOp41
 70
     1
102
RTVSPost2010Prop42
 90
       50
102
RTVSPost2010PropOp42
 70
     1
102
RTVSPost2010Prop43
 90
        3
102
RTVSPost2010PropOp43
 70
     1
102
RTVSPost2010Prop44ColorIndex
 90
        5
102
RTVSPost2010Prop44ColorRGB
 90
      255
102
RTVSPost2010PropOp44
 70
     1
102
RTVSPost2010Prop45
280
     0
102
RTVSPost2010PropOp45
 70
     1
102
RTVSPost2010Prop46
 90
       50
102
RTVSPost2010PropOp46
 70
     1
102
RTVSPost2010Prop47
 90
       50
102
RTVSPost2010PropOp47
 70
     1
102
RTVSPost2010Prop48
 90
       50
102
RTVSPost2010PropOp48
 70
     1
102
RTVSPost2010Prop49
280
     0
102
RTVSPost2010PropOp49
 70
     1
102
RTVSPost2010Prop50
 90
       50
102
RTVSPost2010PropOp50
 70
     1
102
RTVSPost2010Prop51ColorIndex
 90
      256
102
RTVSPost2010Prop51ColorRGB
 90
-16777216
102
RTVSPost2010PropOp51
 70
     0
102
RTVSPost2010Prop52
140
1.0
102
RTVSPost2010PropOp52
 70
     0
102
RTVSPost2010Prop53
 90
        2
102
RTVSPost2010PropOp53
 70
     1
102
RTVSPost2010Prop54
  1
strokes_ogs.tif
102
RTVSPost2010PropOp54
 70
     1
102
RTVSPost2010Prop55
280
     0
102
RTVSPost2010PropOp55
 70
     1
102
RTVSPost2010Prop56
140
1.0
102
RTVSPost2010PropOp56
 70
     1
102
RTVSPost2010Prop57
140
1.0
102
RTVSPost2010PropOp57
 70
     1
102
RTVSPropertyOp0
 70
     1
102
RTVSPropertyOp1
 70
     1
102
RTVSPropertyOp2
 70
     1
102
RTVSPropertyOp3
 70
     1
102
RTVSPropertyOp4
 70
     1
102
RTVSPropertyOp5
 70
     1
102
RTVSPropertyOp6
 70
     1
102
RTVSPropertyOp7
 70
     1
102
RTVSPropertyOp8
 70
     1
102
RTVSPropertyOp9
 70
     1
102
RTVSPropertyOp10
 70
     1
102
RTVSPropertyOp11
 70
     1
102
RTVSPropertyOp12
 70
     1
102
RTVSPropertyOp13
 70
     1
102
RTVSPropertyOp14
 70
     1
102
RTVSPropertyOp15
 70
     1
102
RTVSPropertyOp16
 70
     1
102
RTVSPropertyOp17
 70
     1
102
RTVSPropertyOp18
 70
     1
102
RTVSPropertyOp19
 70
     1
102
RTVSPropertyOp20
 70
     1
102
RTVSPropertyOp21
 70
     1
102
RTVSPropertyOp22
 70
     1
102
RTVSPropertyOp23
 70
     1
102
RTVSPropertyOp24
 70
     1
102
RTVSPropertyOp25
 70
     1
102
RTVSPropertyOp26
 70
     1
102
RTVSPropertyOp27
 70
     1
102
RTVSPropertyOp28
 70
     1
102
RTVSPropertyOp29
 70
     1
102
RTVSPropertyOp30
 70
     1
102
RTVSPropertyOp31
 70
     1
102
RTVSPropertyOp32
 70
     1
102
RTVSPropertyOp33
 70
     1
102
RTVSPropertyOp34
 70
     1
102
RTVSPropertyOp35
 70
     1
102
RTVSPropertyOp36
 70
     1
102
RTVSPropertyOp37
 70
     1
102
RTVSPropertyOp38
 70
     1
102
RTVSPropertyOp39
 70
     1
102
RTVSPropertyOp40
 70
     1
102
RTVSPropertyOp41
 70
     1
102
RTVSPropertyOp42
 70
     1
102
RTVSPropertyOp43
 70
     1
102
RTVSPropertyOp44
 70
     1
102
RTVSPropertyOp45
 70
     1
102
RTVSPropertyOp46
 70
     1
102
RTVSPropertyOp47
 70
     1
102
RTVSPropertyOp48
 70
     1
102
RTVSPropertyOp49
 70
     1
102
RTVSPropertyOp50
 70
     1
102
RTVSPropertyOp51
 70
     0
102
RTVSPropertyOp52
 70
     0
102
RTVSPropertyOp53
 70
     1
102
RTVSPropertyOp54
 70
     1
102
RTVSPropertyOp55
 70
     1
102
RTVSPropertyOp56
 70
     1
102
RTVSPropertyOp57
 70
     1
102
RTVSPropertyOp58
 70
     1
102
RTVSPropertyOp59
 70
     1
102
RTVSPropertyOp60
 70
     1
102
RTVSPropertyOp61
 70
     1
102
RTVSPropertyOp62
 70
     1
  0
XRECORD
  5
636D
102
{ACAD_REACTORS
330
636C
102
}
330
636C
100
AcDbXrecord
280
     1
102
RTVSPost2010Prop28
280
     0
102
RTVSPost2010PropOp28
 70
     1
102
RTVSPost2010Prop29
280
     1
102
RTVSPost2010PropOp29
 70
     1
102
RTVSPost2010Prop30
280
     1
102
RTVSPost2010PropOp30
 70
     1
102
RTVSPost2010Prop31
280
     0
102
RTVSPost2010PropOp31
 70
     1
102
RTVSPost2010Prop32
280
     0
102
RTVSPost2010PropOp32
 70
     1
102
RTVSPost2010Prop33
280
     0
102
RTVSPost2010PropOp33
 70
     1
102
RTVSPost2010Prop34
280
     0
102
RTVSPost2010PropOp34
 70
     1
102
RTVSPost2010Prop35
280
     0
102
RTVSPost2010PropOp35
 70
     1
102
RTVSPost2010Prop36
280
     0
102
RTVSPost2010PropOp36
 70
     1
102
RTVSPost2010Prop37
 90
       50
102
RTVSPost2010PropOp37
 70
     1
102
RTVSPost2010Prop38
140
0.0
102
RTVSPost2010PropOp38
 70
     1
102
RTVSPost2010Prop39
140
1.0
102
RTVSPost2010PropOp39
 70
     1
102
RTVSPost2010Prop40
 90
        0
102
RTVSPost2010PropOp40
 70
     1
102
RTVSPost2010Prop41ColorIndex
 90
       18
102
RTVSPost2010Prop41ColorRGB
 90
        0
102
RTVSPost2010PropOp41
 70
     1
102
RTVSPost2010Prop42
 90
       50
102
RTVSPost2010PropOp42
 70
     1
102
RTVSPost2010Prop43
 90
        3
102
RTVSPost2010PropOp43
 70
     1
102
RTVSPost2010Prop44ColorIndex
 90
        5
102
RTVSPost2010Prop44ColorRGB
 90
      255
102
RTVSPost2010PropOp44
 70
     1
102
RTVSPost2010Prop45
280
     0
102
RTVSPost2010PropOp45
 70
     1
102
RTVSPost2010Prop46
 90
       50
102
RTVSPost2010PropOp46
 70
     1
102
RTVSPost2010Prop47
 90
       50
102
RTVSPost2010PropOp47
 70
     1
102
RTVSPost2010Prop48
 90
       50
102
RTVSPost2010PropOp48
 70
     1
102
RTVSPost2010Prop49
280
     0
102
RTVSPost2010PropOp49
 70
     1
102
RTVSPost2010Prop50
 90
       50
102
RTVSPost2010PropOp50
 70
     1
102
RTVSPost2010Prop51ColorIndex
 90
      256
102
RTVSPost2010Prop51ColorRGB
 90
-16777216
102
RTVSPost2010PropOp51
 70
     0
102
RTVSPost2010Prop52
140
1.0
102
RTVSPost2010PropOp52
 70
     0
102
RTVSPost2010Prop53
 90
        2
102
RTVSPost2010PropOp53
 70
     1
102
RTVSPost2010Prop54
  1
strokes_ogs.tif
102
RTVSPost2010PropOp54
 70
     1
102
RTVSPost2010Prop55
280
     0
102
RTVSPost2010PropOp55
 70
     1
102
RTVSPost2010Prop56
140
1.0
102
RTVSPost2010PropOp56
 70
     1
102
RTVSPost2010Prop57
140
1.0
102
RTVSPost2010PropOp57
 70
     1
102
RTVSPropertyOp0
 70
     1
102
RTVSPropertyOp1
 70
     1
102
RTVSPropertyOp2
 70
     1
102
RTVSPropertyOp3
 70
     1
102
RTVSPropertyOp4
 70
     1
102
RTVSPropertyOp5
 70
     1
102
RTVSPropertyOp6
 70
     1
102
RTVSPropertyOp7
 70
     1
102
RTVSPropertyOp8
 70
     1
102
RTVSPropertyOp9
 70
     1
102
RTVSPropertyOp10
 70
     1
102
RTVSPropertyOp11
 70
     1
102
RTVSPropertyOp12
 70
     1
102
RTVSPropertyOp13
 70
     1
102
RTVSPropertyOp14
 70
     1
102
RTVSPropertyOp15
 70
     1
102
RTVSPropertyOp16
 70
     1
102
RTVSPropertyOp17
 70
     1
102
RTVSPropertyOp18
 70
     1
102
RTVSPropertyOp19
 70
     1
102
RTVSPropertyOp20
 70
     1
102
RTVSPropertyOp21
 70
     1
102
RTVSPropertyOp22
 70
     1
102
RTVSPropertyOp23
 70
     1
102
RTVSPropertyOp24
 70
     1
102
RTVSPropertyOp25
 70
     1
102
RTVSPropertyOp26
 70
     1
102
RTVSPropertyOp27
 70
     1
102
RTVSPropertyOp28
 70
     1
102
RTVSPropertyOp29
 70
     1
102
RTVSPropertyOp30
 70
     1
102
RTVSPropertyOp31
 70
     1
102
RTVSPropertyOp32
 70
     1
102
RTVSPropertyOp33
 70
     1
102
RTVSPropertyOp34
 70
     1
102
RTVSPropertyOp35
 70
     1
102
RTVSPropertyOp36
 70
     1
102
RTVSPropertyOp37
 70
     1
102
RTVSPropertyOp38
 70
     1
102
RTVSPropertyOp39
 70
     1
102
RTVSPropertyOp40
 70
     1
102
RTVSPropertyOp41
 70
     1
102
RTVSPropertyOp42
 70
     1
102
RTVSPropertyOp43
 70
     1
102
RTVSPropertyOp44
 70
     1
102
RTVSPropertyOp45
 70
     1
102
RTVSPropertyOp46
 70
     1
102
RTVSPropertyOp47
 70
     1
102
RTVSPropertyOp48
 70
     1
102
RTVSPropertyOp49
 70
     1
102
RTVSPropertyOp50
 70
     1
102
RTVSPropertyOp51
 70
     0
102
RTVSPropertyOp52
 70
     0
102
RTVSPropertyOp53
 70
     1
102
RTVSPropertyOp54
 70
     1
102
RTVSPropertyOp55
 70
     1
102
RTVSPropertyOp56
 70
     1
102
RTVSPropertyOp57
 70
     1
102
RTVSPropertyOp58
 70
     1
102
RTVSPropertyOp59
 70
     1
102
RTVSPropertyOp60
 70
     1
102
RTVSPropertyOp61
 70
     1
102
RTVSPropertyOp62
 70
     1
  0
XRECORD
  5
636F
102
{ACAD_REACTORS
330
636E
102
}
330
636E
100
AcDbXrecord
280
     1
102
RTVSPost2010Prop28
280
     0
102
RTVSPost2010PropOp28
 70
     1
102
RTVSPost2010Prop29
280
     1
102
RTVSPost2010PropOp29
 70
     1
102
RTVSPost2010Prop30
280
     1
102
RTVSPost2010PropOp30
 70
     1
102
RTVSPost2010Prop31
280
     0
102
RTVSPost2010PropOp31
 70
     1
102
RTVSPost2010Prop32
280
     0
102
RTVSPost2010PropOp32
 70
     1
102
RTVSPost2010Prop33
280
     0
102
RTVSPost2010PropOp33
 70
     1
102
RTVSPost2010Prop34
280
     0
102
RTVSPost2010PropOp34
 70
     1
102
RTVSPost2010Prop35
280
     0
102
RTVSPost2010PropOp35
 70
     1
102
RTVSPost2010Prop36
280
     0
102
RTVSPost2010PropOp36
 70
     1
102
RTVSPost2010Prop37
 90
       50
102
RTVSPost2010PropOp37
 70
     1
102
RTVSPost2010Prop38
140
0.0
102
RTVSPost2010PropOp38
 70
     1
102
RTVSPost2010Prop39
140
1.0
102
RTVSPost2010PropOp39
 70
     1
102
RTVSPost2010Prop40
 90
        0
102
RTVSPost2010PropOp40
 70
     1
102
RTVSPost2010Prop41ColorIndex
 90
       18
102
RTVSPost2010Prop41ColorRGB
 90
        0
102
RTVSPost2010PropOp41
 70
     1
102
RTVSPost2010Prop42
 90
       50
102
RTVSPost2010PropOp42
 70
     1
102
RTVSPost2010Prop43
 90
        3
102
RTVSPost2010PropOp43
 70
     1
102
RTVSPost2010Prop44ColorIndex
 90
        5
102
RTVSPost2010Prop44ColorRGB
 90
      255
102
RTVSPost2010PropOp44
 70
     1
102
RTVSPost2010Prop45
280
     0
102
RTVSPost2010PropOp45
 70
     1
102
RTVSPost2010Prop46
 90
       50
102
RTVSPost2010PropOp46
 70
     1
102
RTVSPost2010Prop47
 90
       50
102
RTVSPost2010PropOp47
 70
     1
102
RTVSPost2010Prop48
 90
       50
102
RTVSPost2010PropOp48
 70
     1
102
RTVSPost2010Prop49
280
     0
102
RTVSPost2010PropOp49
 70
     1
102
RTVSPost2010Prop50
 90
       50
102
RTVSPost2010PropOp50
 70
     1
102
RTVSPost2010Prop51ColorIndex
 90
      256
102
RTVSPost2010Prop51ColorRGB
 90
-16777216
102
RTVSPost2010PropOp51
 70
     0
102
RTVSPost2010Prop52
140
1.0
102
RTVSPost2010PropOp52
 70
     0
102
RTVSPost2010Prop53
 90
        2
102
RTVSPost2010PropOp53
 70
     1
102
RTVSPost2010Prop54
  1
strokes_ogs.tif
102
RTVSPost2010PropOp54
 70
     1
102
RTVSPost2010Prop55
280
     0
102
RTVSPost2010PropOp55
 70
     1
102
RTVSPost2010Prop56
140
1.0
102
RTVSPost2010PropOp56
 70
     1
102
RTVSPost2010Prop57
140
1.0
102
RTVSPost2010PropOp57
 70
     1
102
RTVSPropertyOp0
 70
     1
102
RTVSPropertyOp1
 70
     1
102
RTVSPropertyOp2
 70
     1
102
RTVSPropertyOp3
 70
     1
102
RTVSPropertyOp4
 70
     1
102
RTVSPropertyOp5
 70
     1
102
RTVSPropertyOp6
 70
     1
102
RTVSPropertyOp7
 70
     1
102
RTVSPropertyOp8
 70
     1
102
RTVSPropertyOp9
 70
     1
102
RTVSPropertyOp10
 70
     1
102
RTVSPropertyOp11
 70
     1
102
RTVSPropertyOp12
 70
     1
102
RTVSPropertyOp13
 70
     1
102
RTVSPropertyOp14
 70
     1
102
RTVSPropertyOp15
 70
     1
102
RTVSPropertyOp16
 70
     1
102
RTVSPropertyOp17
 70
     1
102
RTVSPropertyOp18
 70
     1
102
RTVSPropertyOp19
 70
     1
102
RTVSPropertyOp20
 70
     1
102
RTVSPropertyOp21
 70
     1
102
RTVSPropertyOp22
 70
     1
102
RTVSPropertyOp23
 70
     1
102
RTVSPropertyOp24
 70
     1
102
RTVSPropertyOp25
 70
     1
102
RTVSPropertyOp26
 70
     1
102
RTVSPropertyOp27
 70
     1
102
RTVSPropertyOp28
 70
     1
102
RTVSPropertyOp29
 70
     1
102
RTVSPropertyOp30
 70
     1
102
RTVSPropertyOp31
 70
     1
102
RTVSPropertyOp32
 70
     1
102
RTVSPropertyOp33
 70
     1
102
RTVSPropertyOp34
 70
     1
102
RTVSPropertyOp35
 70
     1
102
RTVSPropertyOp36
 70
     1
102
RTVSPropertyOp37
 70
     1
102
RTVSPropertyOp38
 70
     1
102
RTVSPropertyOp39
 70
     1
102
RTVSPropertyOp40
 70
     1
102
RTVSPropertyOp41
 70
     1
102
RTVSPropertyOp42
 70
     1
102
RTVSPropertyOp43
 70
     1
102
RTVSPropertyOp44
 70
     1
102
RTVSPropertyOp45
 70
     1
102
RTVSPropertyOp46
 70
     1
102
RTVSPropertyOp47
 70
     1
102
RTVSPropertyOp48
 70
     1
102
RTVSPropertyOp49
 70
     1
102
RTVSPropertyOp50
 70
     1
102
RTVSPropertyOp51
 70
     0
102
RTVSPropertyOp52
 70
     0
102
RTVSPropertyOp53
 70
     1
102
RTVSPropertyOp54
 70
     1
102
RTVSPropertyOp55
 70
     1
102
RTVSPropertyOp56
 70
     1
102
RTVSPropertyOp57
 70
     1
102
RTVSPropertyOp58
 70
     1
102
RTVSPropertyOp59
 70
     1
102
RTVSPropertyOp60
 70
     1
102
RTVSPropertyOp61
 70
     1
102
RTVSPropertyOp62
 70
     1
  0
XRECORD
  5
6377
102
{ACAD_REACTORS
330
6376
102
}
330
6376
100
AcDbXrecord
280
     1
102
RTVSPost2010Prop28
280
     0
102
RTVSPost2010PropOp28
 70
     1
102
RTVSPost2010Prop29
280
     1
102
RTVSPost2010PropOp29
 70
     1
102
RTVSPost2010Prop30
280
     1
102
RTVSPost2010PropOp30
 70
     1
102
RTVSPost2010Prop31
280
     0
102
RTVSPost2010PropOp31
 70
     1
102
RTVSPost2010Prop32
280
     0
102
RTVSPost2010PropOp32
 70
     1
102
RTVSPost2010Prop33
280
     0
102
RTVSPost2010PropOp33
 70
     1
102
RTVSPost2010Prop34
280
     0
102
RTVSPost2010PropOp34
 70
     1
102
RTVSPost2010Prop35
280
     0
102
RTVSPost2010PropOp35
 70
     1
102
RTVSPost2010Prop36
280
     0
102
RTVSPost2010PropOp36
 70
     1
102
RTVSPost2010Prop37
 90
       50
102
RTVSPost2010PropOp37
 70
     1
102
RTVSPost2010Prop38
140
0.0
102
RTVSPost2010PropOp38
 70
     1
102
RTVSPost2010Prop39
140
1.0
102
RTVSPost2010PropOp39
 70
     1
102
RTVSPost2010Prop40
 90
        0
102
RTVSPost2010PropOp40
 70
     1
102
RTVSPost2010Prop41ColorIndex
 90
       18
102
RTVSPost2010Prop41ColorRGB
 90
        0
102
RTVSPost2010PropOp41
 70
     1
102
RTVSPost2010Prop42
 90
       50
102
RTVSPost2010PropOp42
 70
     1
102
RTVSPost2010Prop43
 90
        3
102
RTVSPost2010PropOp43
 70
     1
102
RTVSPost2010Prop44ColorIndex
 90
        5
102
RTVSPost2010Prop44ColorRGB
 90
      255
102
RTVSPost2010PropOp44
 70
     1
102
RTVSPost2010Prop45
280
     0
102
RTVSPost2010PropOp45
 70
     1
102
RTVSPost2010Prop46
 90
       50
102
RTVSPost2010PropOp46
 70
     1
102
RTVSPost2010Prop47
 90
       50
102
RTVSPost2010PropOp47
 70
     1
102
RTVSPost2010Prop48
 90
       50
102
RTVSPost2010PropOp48
 70
     1
102
RTVSPost2010Prop49
280
     0
102
RTVSPost2010PropOp49
 70
     1
102
RTVSPost2010Prop50
 90
       50
102
RTVSPost2010PropOp50
 70
     1
102
RTVSPost2010Prop51ColorIndex
 90
      256
102
RTVSPost2010Prop51ColorRGB
 90
-16777216
102
RTVSPost2010PropOp51
 70
     0
102
RTVSPost2010Prop52
140
1.0
102
RTVSPost2010PropOp52
 70
     0
102
RTVSPost2010Prop53
 90
        2
102
RTVSPost2010PropOp53
 70
     1
102
RTVSPost2010Prop54
  1
strokes_ogs.tif
102
RTVSPost2010PropOp54
 70
     1
102
RTVSPost2010Prop55
280
     0
102
RTVSPost2010PropOp55
 70
     1
102
RTVSPost2010Prop56
140
1.0
102
RTVSPost2010PropOp56
 70
     1
102
RTVSPost2010Prop57
140
1.0
102
RTVSPost2010PropOp57
 70
     1
102
RTVSPropertyOp0
 70
     1
102
RTVSPropertyOp1
 70
     1
102
RTVSPropertyOp2
 70
     1
102
RTVSPropertyOp3
 70
     1
102
RTVSPropertyOp4
 70
     1
102
RTVSPropertyOp5
 70
     1
102
RTVSPropertyOp6
 70
     1
102
RTVSPropertyOp7
 70
     1
102
RTVSPropertyOp8
 70
     1
102
RTVSPropertyOp9
 70
     1
102
RTVSPropertyOp10
 70
     1
102
RTVSPropertyOp11
 70
     1
102
RTVSPropertyOp12
 70
     1
102
RTVSPropertyOp13
 70
     1
102
RTVSPropertyOp14
 70
     1
102
RTVSPropertyOp15
 70
     1
102
RTVSPropertyOp16
 70
     1
102
RTVSPropertyOp17
 70
     1
102
RTVSPropertyOp18
 70
     1
102
RTVSPropertyOp19
 70
     1
102
RTVSPropertyOp20
 70
     1
102
RTVSPropertyOp21
 70
     1
102
RTVSPropertyOp22
 70
     1
102
RTVSPropertyOp23
 70
     1
102
RTVSPropertyOp24
 70
     1
102
RTVSPropertyOp25
 70
     1
102
RTVSPropertyOp26
 70
     1
102
RTVSPropertyOp27
 70
     1
102
RTVSPropertyOp28
 70
     1
102
RTVSPropertyOp29
 70
     1
102
RTVSPropertyOp30
 70
     1
102
RTVSPropertyOp31
 70
     1
102
RTVSPropertyOp32
 70
     1
102
RTVSPropertyOp33
 70
     1
102
RTVSPropertyOp34
 70
     1
102
RTVSPropertyOp35
 70
     1
102
RTVSPropertyOp36
 70
     1
102
RTVSPropertyOp37
 70
     1
102
RTVSPropertyOp38
 70
     1
102
RTVSPropertyOp39
 70
     1
102
RTVSPropertyOp40
 70
     1
102
RTVSPropertyOp41
 70
     1
102
RTVSPropertyOp42
 70
     1
102
RTVSPropertyOp43
 70
     1
102
RTVSPropertyOp44
 70
     1
102
RTVSPropertyOp45
 70
     1
102
RTVSPropertyOp46
 70
     1
102
RTVSPropertyOp47
 70
     1
102
RTVSPropertyOp48
 70
     1
102
RTVSPropertyOp49
 70
     1
102
RTVSPropertyOp50
 70
     1
102
RTVSPropertyOp51
 70
     0
102
RTVSPropertyOp52
 70
     0
102
RTVSPropertyOp53
 70
     1
102
RTVSPropertyOp54
 70
     1
102
RTVSPropertyOp55
 70
     1
102
RTVSPropertyOp56
 70
     1
102
RTVSPropertyOp57
 70
     1
102
RTVSPropertyOp58
 70
     1
102
RTVSPropertyOp59
 70
     1
102
RTVSPropertyOp60
 70
     1
102
RTVSPropertyOp61
 70
     1
102
RTVSPropertyOp62
 70
     1
  0
XRECORD
  5
638B
102
{ACAD_REACTORS
330
638A
102
}
330
638A
100
AcDbXrecord
280
     1
102
RTVSPost2010Prop28
280
     0
102
RTVSPost2010PropOp28
 70
     1
102
RTVSPost2010Prop29
280
     1
102
RTVSPost2010PropOp29
 70
     1
102
RTVSPost2010Prop30
280
     1
102
RTVSPost2010PropOp30
 70
     1
102
RTVSPost2010Prop31
280
     0
102
RTVSPost2010PropOp31
 70
     1
102
RTVSPost2010Prop32
280
     0
102
RTVSPost2010PropOp32
 70
     1
102
RTVSPost2010Prop33
280
     0
102
RTVSPost2010PropOp33
 70
     1
102
RTVSPost2010Prop34
280
     0
102
RTVSPost2010PropOp34
 70
     1
102
RTVSPost2010Prop35
280
     0
102
RTVSPost2010PropOp35
 70
     1
102
RTVSPost2010Prop36
280
     0
102
RTVSPost2010PropOp36
 70
     1
102
RTVSPost2010Prop37
 90
       50
102
RTVSPost2010PropOp37
 70
     1
102
RTVSPost2010Prop38
140
0.0
102
RTVSPost2010PropOp38
 70
     1
102
RTVSPost2010Prop39
140
1.0
102
RTVSPost2010PropOp39
 70
     1
102
RTVSPost2010Prop40
 90
        0
102
RTVSPost2010PropOp40
 70
     1
102
RTVSPost2010Prop41ColorIndex
 90
       18
102
RTVSPost2010Prop41ColorRGB
 90
        0
102
RTVSPost2010PropOp41
 70
     1
102
RTVSPost2010Prop42
 90
       50
102
RTVSPost2010PropOp42
 70
     1
102
RTVSPost2010Prop43
 90
        3
102
RTVSPost2010PropOp43
 70
     1
102
RTVSPost2010Prop44ColorIndex
 90
        5
102
RTVSPost2010Prop44ColorRGB
 90
      255
102
RTVSPost2010PropOp44
 70
     1
102
RTVSPost2010Prop45
280
     0
102
RTVSPost2010PropOp45
 70
     1
102
RTVSPost2010Prop46
 90
       50
102
RTVSPost2010PropOp46
 70
     1
102
RTVSPost2010Prop47
 90
       50
102
RTVSPost2010PropOp47
 70
     1
102
RTVSPost2010Prop48
 90
       50
102
RTVSPost2010PropOp48
 70
     1
102
RTVSPost2010Prop49
280
     0
102
RTVSPost2010PropOp49
 70
     1
102
RTVSPost2010Prop50
 90
       50
102
RTVSPost2010PropOp50
 70
     1
102
RTVSPost2010Prop51ColorIndex
 90
      256
102
RTVSPost2010Prop51ColorRGB
 90
-16777216
102
RTVSPost2010PropOp51
 70
     0
102
RTVSPost2010Prop52
140
1.0
102
RTVSPost2010PropOp52
 70
     0
102
RTVSPost2010Prop53
 90
        2
102
RTVSPost2010PropOp53
 70
     1
102
RTVSPost2010Prop54
  1
strokes_ogs.tif
102
RTVSPost2010PropOp54
 70
     1
102
RTVSPost2010Prop55
280
     0
102
RTVSPost2010PropOp55
 70
     1
102
RTVSPost2010Prop56
140
1.0
102
RTVSPost2010PropOp56
 70
     1
102
RTVSPost2010Prop57
140
1.0
102
RTVSPost2010PropOp57
 70
     1
102
RTVSPropertyOp0
 70
     0
102
RTVSPropertyOp1
 70
     0
102
RTVSPropertyOp2
 70
     0
102
RTVSPropertyOp3
 70
     0
102
RTVSPropertyOp4
 70
     0
102
RTVSPropertyOp5
 70
     0
102
RTVSPropertyOp6
 70
     0
102
RTVSPropertyOp7
 70
     0
102
RTVSPropertyOp8
 70
     0
102
RTVSPropertyOp9
 70
     0
102
RTVSPropertyOp10
 70
     0
102
RTVSPropertyOp11
 70
     0
102
RTVSPropertyOp12
 70
     0
102
RTVSPropertyOp13
 70
     0
102
RTVSPropertyOp14
 70
     2
102
RTVSPropertyOp15
 70
     0
102
RTVSPropertyOp16
 70
     0
102
RTVSPropertyOp17
 70
     0
102
RTVSPropertyOp18
 70
     0
102
RTVSPropertyOp19
 70
     0
102
RTVSPropertyOp20
 70
     0
102
RTVSPropertyOp21
 70
     0
102
RTVSPropertyOp22
 70
     0
102
RTVSPropertyOp23
 70
     0
102
RTVSPropertyOp24
 70
     0
102
RTVSPropertyOp25
 70
     0
102
RTVSPropertyOp26
 70
     0
102
RTVSPropertyOp27
 70
     0
102
RTVSPropertyOp28
 70
     1
102
RTVSPropertyOp29
 70
     1
102
RTVSPropertyOp30
 70
     1
102
RTVSPropertyOp31
 70
     1
102
RTVSPropertyOp32
 70
     1
102
RTVSPropertyOp33
 70
     1
102
RTVSPropertyOp34
 70
     1
102
RTVSPropertyOp35
 70
     1
102
RTVSPropertyOp36
 70
     1
102
RTVSPropertyOp37
 70
     1
102
RTVSPropertyOp38
 70
     1
102
RTVSPropertyOp39
 70
     1
102
RTVSPropertyOp40
 70
     1
102
RTVSPropertyOp41
 70
     1
102
RTVSPropertyOp42
 70
     1
102
RTVSPropertyOp43
 70
     1
102
RTVSPropertyOp44
 70
     1
102
RTVSPropertyOp45
 70
     1
102
RTVSPropertyOp46
 70
     1
102
RTVSPropertyOp47
 70
     1
102
RTVSPropertyOp48
 70
     1
102
RTVSPropertyOp49
 70
     1
102
RTVSPropertyOp50
 70
     1
102
RTVSPropertyOp51
 70
     0
102
RTVSPropertyOp52
 70
     0
102
RTVSPropertyOp53
 70
     1
102
RTVSPropertyOp54
 70
     1
102
RTVSPropertyOp55
 70
     1
102
RTVSPropertyOp56
 70
     1
102
RTVSPropertyOp57
 70
     1
102
RTVSPropertyOp58
 70
     1
102
RTVSPropertyOp59
 70
     1
102
RTVSPropertyOp60
 70
     1
102
RTVSPropertyOp61
 70
     1
102
RTVSPropertyOp62
 70
     1
  0
XRECORD
  5
6383
102
{ACAD_REACTORS
330
6382
102
}
330
6382
100
AcDbXrecord
280
     1
102
RTVSPost2010Prop28
280
     0
102
RTVSPost2010PropOp28
 70
     1
102
RTVSPost2010Prop29
280
     1
102
RTVSPost2010PropOp29
 70
     1
102
RTVSPost2010Prop30
280
     1
102
RTVSPost2010PropOp30
 70
     1
102
RTVSPost2010Prop31
280
     0
102
RTVSPost2010PropOp31
 70
     1
102
RTVSPost2010Prop32
280
     0
102
RTVSPost2010PropOp32
 70
     1
102
RTVSPost2010Prop33
280
     0
102
RTVSPost2010PropOp33
 70
     1
102
RTVSPost2010Prop34
280
     0
102
RTVSPost2010PropOp34
 70
     1
102
RTVSPost2010Prop35
280
     0
102
RTVSPost2010PropOp35
 70
     1
102
RTVSPost2010Prop36
280
     0
102
RTVSPost2010PropOp36
 70
     1
102
RTVSPost2010Prop37
 90
       50
102
RTVSPost2010PropOp37
 70
     1
102
RTVSPost2010Prop38
140
0.0
102
RTVSPost2010PropOp38
 70
     1
102
RTVSPost2010Prop39
140
1.0
102
RTVSPost2010PropOp39
 70
     1
102
RTVSPost2010Prop40
 90
        0
102
RTVSPost2010PropOp40
 70
     1
102
RTVSPost2010Prop41ColorIndex
 90
       18
102
RTVSPost2010Prop41ColorRGB
 90
        0
102
RTVSPost2010PropOp41
 70
     1
102
RTVSPost2010Prop42
 90
       50
102
RTVSPost2010PropOp42
 70
     1
102
RTVSPost2010Prop43
 90
        3
102
RTVSPost2010PropOp43
 70
     1
102
RTVSPost2010Prop44ColorIndex
 90
        5
102
RTVSPost2010Prop44ColorRGB
 90
      255
102
RTVSPost2010PropOp44
 70
     1
102
RTVSPost2010Prop45
280
     0
102
RTVSPost2010PropOp45
 70
     1
102
RTVSPost2010Prop46
 90
       50
102
RTVSPost2010PropOp46
 70
     1
102
RTVSPost2010Prop47
 90
       50
102
RTVSPost2010PropOp47
 70
     1
102
RTVSPost2010Prop48
 90
       50
102
RTVSPost2010PropOp48
 70
     1
102
RTVSPost2010Prop49
280
     0
102
RTVSPost2010PropOp49
 70
     1
102
RTVSPost2010Prop50
 90
       50
102
RTVSPost2010PropOp50
 70
     1
102
RTVSPost2010Prop51ColorIndex
 90
      256
102
RTVSPost2010Prop51ColorRGB
 90
-16777216
102
RTVSPost2010PropOp51
 70
     0
102
RTVSPost2010Prop52
140
1.0
102
RTVSPost2010PropOp52
 70
     0
102
RTVSPost2010Prop53
 90
        2
102
RTVSPost2010PropOp53
 70
     1
102
RTVSPost2010Prop54
  1
strokes_ogs.tif
102
RTVSPost2010PropOp54
 70
     1
102
RTVSPost2010Prop55
280
     0
102
RTVSPost2010PropOp55
 70
     1
102
RTVSPost2010Prop56
140
1.0
102
RTVSPost2010PropOp56
 70
     1
102
RTVSPost2010Prop57
140
1.0
102
RTVSPost2010PropOp57
 70
     1
102
RTVSPropertyOp0
 70
     1
102
RTVSPropertyOp1
 70
     1
102
RTVSPropertyOp2
 70
     1
102
RTVSPropertyOp3
 70
     1
102
RTVSPropertyOp4
 70
     1
102
RTVSPropertyOp5
 70
     1
102
RTVSPropertyOp6
 70
     1
102
RTVSPropertyOp7
 70
     1
102
RTVSPropertyOp8
 70
     1
102
RTVSPropertyOp9
 70
     1
102
RTVSPropertyOp10
 70
     1
102
RTVSPropertyOp11
 70
     1
102
RTVSPropertyOp12
 70
     1
102
RTVSPropertyOp13
 70
     1
102
RTVSPropertyOp14
 70
     1
102
RTVSPropertyOp15
 70
     1
102
RTVSPropertyOp16
 70
     1
102
RTVSPropertyOp17
 70
     1
102
RTVSPropertyOp18
 70
     1
102
RTVSPropertyOp19
 70
     1
102
RTVSPropertyOp20
 70
     1
102
RTVSPropertyOp21
 70
     1
102
RTVSPropertyOp22
 70
     1
102
RTVSPropertyOp23
 70
     1
102
RTVSPropertyOp24
 70
     1
102
RTVSPropertyOp25
 70
     1
102
RTVSPropertyOp26
 70
     1
102
RTVSPropertyOp27
 70
     1
102
RTVSPropertyOp28
 70
     1
102
RTVSPropertyOp29
 70
     1
102
RTVSPropertyOp30
 70
     1
102
RTVSPropertyOp31
 70
     1
102
RTVSPropertyOp32
 70
     1
102
RTVSPropertyOp33
 70
     1
102
RTVSPropertyOp34
 70
     1
102
RTVSPropertyOp35
 70
     1
102
RTVSPropertyOp36
 70
     1
102
RTVSPropertyOp37
 70
     1
102
RTVSPropertyOp38
 70
     1
102
RTVSPropertyOp39
 70
     1
102
RTVSPropertyOp40
 70
     1
102
RTVSPropertyOp41
 70
     1
102
RTVSPropertyOp42
 70
     1
102
RTVSPropertyOp43
 70
     1
102
RTVSPropertyOp44
 70
     1
102
RTVSPropertyOp45
 70
     1
102
RTVSPropertyOp46
 70
     1
102
RTVSPropertyOp47
 70
     1
102
RTVSPropertyOp48
 70
     1
102
RTVSPropertyOp49
 70
     1
102
RTVSPropertyOp50
 70
     1
102
RTVSPropertyOp51
 70
     0
102
RTVSPropertyOp52
 70
     0
102
RTVSPropertyOp53
 70
     1
102
RTVSPropertyOp54
 70
     1
102
RTVSPropertyOp55
 70
     1
102
RTVSPropertyOp56
 70
     1
102
RTVSPropertyOp57
 70
     1
102
RTVSPropertyOp58
 70
     1
102
RTVSPropertyOp59
 70
     1
102
RTVSPropertyOp60
 70
     1
102
RTVSPropertyOp61
 70
     1
102
RTVSPropertyOp62
 70
     1
  0
XRECORD
  5
638D
102
{ACAD_REACTORS
330
638C
102
}
330
638C
100
AcDbXrecord
280
     1
102
RTVSPost2010Prop28
280
     0
102
RTVSPost2010PropOp28
 70
     1
102
RTVSPost2010Prop29
280
     1
102
RTVSPost2010PropOp29
 70
     1
102
RTVSPost2010Prop30
280
     1
102
RTVSPost2010PropOp30
 70
     1
102
RTVSPost2010Prop31
280
     0
102
RTVSPost2010PropOp31
 70
     1
102
RTVSPost2010Prop32
280
     0
102
RTVSPost2010PropOp32
 70
     1
102
RTVSPost2010Prop33
280
     0
102
RTVSPost2010PropOp33
 70
     1
102
RTVSPost2010Prop34
280
     0
102
RTVSPost2010PropOp34
 70
     1
102
RTVSPost2010Prop35
280
     0
102
RTVSPost2010PropOp35
 70
     1
102
RTVSPost2010Prop36
280
     0
102
RTVSPost2010PropOp36
 70
     1
102
RTVSPost2010Prop37
 90
       50
102
RTVSPost2010PropOp37
 70
     1
102
RTVSPost2010Prop38
140
0.0
102
RTVSPost2010PropOp38
 70
     1
102
RTVSPost2010Prop39
140
1.0
102
RTVSPost2010PropOp39
 70
     1
102
RTVSPost2010Prop40
 90
        0
102
RTVSPost2010PropOp40
 70
     1
102
RTVSPost2010Prop41ColorIndex
 90
       18
102
RTVSPost2010Prop41ColorRGB
 90
        0
102
RTVSPost2010PropOp41
 70
     1
102
RTVSPost2010Prop42
 90
       50
102
RTVSPost2010PropOp42
 70
     1
102
RTVSPost2010Prop43
 90
        3
102
RTVSPost2010PropOp43
 70
     1
102
RTVSPost2010Prop44ColorIndex
 90
        5
102
RTVSPost2010Prop44ColorRGB
 90
      255
102
RTVSPost2010PropOp44
 70
     1
102
RTVSPost2010Prop45
280
     0
102
RTVSPost2010PropOp45
 70
     1
102
RTVSPost2010Prop46
 90
       50
102
RTVSPost2010PropOp46
 70
     1
102
RTVSPost2010Prop47
 90
       50
102
RTVSPost2010PropOp47
 70
     1
102
RTVSPost2010Prop48
 90
       50
102
RTVSPost2010PropOp48
 70
     1
102
RTVSPost2010Prop49
280
     0
102
RTVSPost2010PropOp49
 70
     1
102
RTVSPost2010Prop50
 90
       50
102
RTVSPost2010PropOp50
 70
     1
102
RTVSPost2010Prop51ColorIndex
 90
      256
102
RTVSPost2010Prop51ColorRGB
 90
-16777216
102
RTVSPost2010PropOp51
 70
     0
102
RTVSPost2010Prop52
140
1.0
102
RTVSPost2010PropOp52
 70
     0
102
RTVSPost2010Prop53
 90
        2
102
RTVSPost2010PropOp53
 70
     1
102
RTVSPost2010Prop54
  1
strokes_ogs.tif
102
RTVSPost2010PropOp54
 70
     1
102
RTVSPost2010Prop55
280
     0
102
RTVSPost2010PropOp55
 70
     1
102
RTVSPost2010Prop56
140
1.0
102
RTVSPost2010PropOp56
 70
     1
102
RTVSPost2010Prop57
140
1.0
102
RTVSPost2010PropOp57
 70
     1
102
RTVSPropertyOp0
 70
     0
102
RTVSPropertyOp1
 70
     0
102
RTVSPropertyOp2
 70
     0
102
RTVSPropertyOp3
 70
     0
102
RTVSPropertyOp4
 70
     0
102
RTVSPropertyOp5
 70
     0
102
RTVSPropertyOp6
 70
     0
102
RTVSPropertyOp7
 70
     0
102
RTVSPropertyOp8
 70
     0
102
RTVSPropertyOp9
 70
     0
102
RTVSPropertyOp10
 70
     0
102
RTVSPropertyOp11
 70
     0
102
RTVSPropertyOp12
 70
     0
102
RTVSPropertyOp13
 70
     0
102
RTVSPropertyOp14
 70
     2
102
RTVSPropertyOp15
 70
     0
102
RTVSPropertyOp16
 70
     0
102
RTVSPropertyOp17
 70
     0
102
RTVSPropertyOp18
 70
     0
102
RTVSPropertyOp19
 70
     0
102
RTVSPropertyOp20
 70
     0
102
RTVSPropertyOp21
 70
     0
102
RTVSPropertyOp22
 70
     0
102
RTVSPropertyOp23
 70
     0
102
RTVSPropertyOp24
 70
     0
102
RTVSPropertyOp25
 70
     0
102
RTVSPropertyOp26
 70
     0
102
RTVSPropertyOp27
 70
     0
102
RTVSPropertyOp28
 70
     1
102
RTVSPropertyOp29
 70
     1
102
RTVSPropertyOp30
 70
     1
102
RTVSPropertyOp31
 70
     1
102
RTVSPropertyOp32
 70
     1
102
RTVSPropertyOp33
 70
     1
102
RTVSPropertyOp34
 70
     1
102
RTVSPropertyOp35
 70
     1
102
RTVSPropertyOp36
 70
     1
102
RTVSPropertyOp37
 70
     1
102
RTVSPropertyOp38
 70
     1
102
RTVSPropertyOp39
 70
     1
102
RTVSPropertyOp40
 70
     1
102
RTVSPropertyOp41
 70
     1
102
RTVSPropertyOp42
 70
     1
102
RTVSPropertyOp43
 70
     1
102
RTVSPropertyOp44
 70
     1
102
RTVSPropertyOp45
 70
     1
102
RTVSPropertyOp46
 70
     1
102
RTVSPropertyOp47
 70
     1
102
RTVSPropertyOp48
 70
     1
102
RTVSPropertyOp49
 70
     1
102
RTVSPropertyOp50
 70
     1
102
RTVSPropertyOp51
 70
     0
102
RTVSPropertyOp52
 70
     0
102
RTVSPropertyOp53
 70
     1
102
RTVSPropertyOp54
 70
     1
102
RTVSPropertyOp55
 70
     1
102
RTVSPropertyOp56
 70
     1
102
RTVSPropertyOp57
 70
     1
102
RTVSPropertyOp58
 70
     1
102
RTVSPropertyOp59
 70
     1
102
RTVSPropertyOp60
 70
     1
102
RTVSPropertyOp61
 70
     1
102
RTVSPropertyOp62
 70
     1
  0
XRECORD
  5
637B
102
{ACAD_REACTORS
330
637A
102
}
330
637A
100
AcDbXrecord
280
     1
102
RTVSPost2010Prop28
280
     0
102
RTVSPost2010PropOp28
 70
     1
102
RTVSPost2010Prop29
280
     1
102
RTVSPost2010PropOp29
 70
     1
102
RTVSPost2010Prop30
280
     1
102
RTVSPost2010PropOp30
 70
     1
102
RTVSPost2010Prop31
280
     0
102
RTVSPost2010PropOp31
 70
     1
102
RTVSPost2010Prop32
280
     0
102
RTVSPost2010PropOp32
 70
     1
102
RTVSPost2010Prop33
280
     0
102
RTVSPost2010PropOp33
 70
     1
102
RTVSPost2010Prop34
280
     0
102
RTVSPost2010PropOp34
 70
     1
102
RTVSPost2010Prop35
280
     0
102
RTVSPost2010PropOp35
 70
     1
102
RTVSPost2010Prop36
280
     0
102
RTVSPost2010PropOp36
 70
     1
102
RTVSPost2010Prop37
 90
       50
102
RTVSPost2010PropOp37
 70
     1
102
RTVSPost2010Prop38
140
0.0
102
RTVSPost2010PropOp38
 70
     1
102
RTVSPost2010Prop39
140
1.0
102
RTVSPost2010PropOp39
 70
     1
102
RTVSPost2010Prop40
 90
        0
102
RTVSPost2010PropOp40
 70
     1
102
RTVSPost2010Prop41ColorIndex
 90
       18
102
RTVSPost2010Prop41ColorRGB
 90
        0
102
RTVSPost2010PropOp41
 70
     1
102
RTVSPost2010Prop42
 90
       50
102
RTVSPost2010PropOp42
 70
     1
102
RTVSPost2010Prop43
 90
        3
102
RTVSPost2010PropOp43
 70
     1
102
RTVSPost2010Prop44ColorIndex
 90
        5
102
RTVSPost2010Prop44ColorRGB
 90
      255
102
RTVSPost2010PropOp44
 70
     1
102
RTVSPost2010Prop45
280
     0
102
RTVSPost2010PropOp45
 70
     1
102
RTVSPost2010Prop46
 90
       50
102
RTVSPost2010PropOp46
 70
     1
102
RTVSPost2010Prop47
 90
       50
102
RTVSPost2010PropOp47
 70
     1
102
RTVSPost2010Prop48
 90
       50
102
RTVSPost2010PropOp48
 70
     1
102
RTVSPost2010Prop49
280
     0
102
RTVSPost2010PropOp49
 70
     1
102
RTVSPost2010Prop50
 90
       50
102
RTVSPost2010PropOp50
 70
     1
102
RTVSPost2010Prop51ColorIndex
 90
      256
102
RTVSPost2010Prop51ColorRGB
 90
-16777216
102
RTVSPost2010PropOp51
 70
     0
102
RTVSPost2010Prop52
140
1.0
102
RTVSPost2010PropOp52
 70
     0
102
RTVSPost2010Prop53
 90
        2
102
RTVSPost2010PropOp53
 70
     1
102
RTVSPost2010Prop54
  1
strokes_ogs.tif
102
RTVSPost2010PropOp54
 70
     1
102
RTVSPost2010Prop55
280
     0
102
RTVSPost2010PropOp55
 70
     1
102
RTVSPost2010Prop56
140
1.0
102
RTVSPost2010PropOp56
 70
     1
102
RTVSPost2010Prop57
140
1.0
102
RTVSPost2010PropOp57
 70
     1
102
RTVSPropertyOp0
 70
     1
102
RTVSPropertyOp1
 70
     1
102
RTVSPropertyOp2
 70
     1
102
RTVSPropertyOp3
 70
     1
102
RTVSPropertyOp4
 70
     1
102
RTVSPropertyOp5
 70
     1
102
RTVSPropertyOp6
 70
     1
102
RTVSPropertyOp7
 70
     1
102
RTVSPropertyOp8
 70
     1
102
RTVSPropertyOp9
 70
     1
102
RTVSPropertyOp10
 70
     1
102
RTVSPropertyOp11
 70
     1
102
RTVSPropertyOp12
 70
     1
102
RTVSPropertyOp13
 70
     1
102
RTVSPropertyOp14
 70
     1
102
RTVSPropertyOp15
 70
     1
102
RTVSPropertyOp16
 70
     1
102
RTVSPropertyOp17
 70
     1
102
RTVSPropertyOp18
 70
     1
102
RTVSPropertyOp19
 70
     1
102
RTVSPropertyOp20
 70
     1
102
RTVSPropertyOp21
 70
     1
102
RTVSPropertyOp22
 70
     1
102
RTVSPropertyOp23
 70
     1
102
RTVSPropertyOp24
 70
     1
102
RTVSPropertyOp25
 70
     1
102
RTVSPropertyOp26
 70
     1
102
RTVSPropertyOp27
 70
     1
102
RTVSPropertyOp28
 70
     1
102
RTVSPropertyOp29
 70
     1
102
RTVSPropertyOp30
 70
     1
102
RTVSPropertyOp31
 70
     1
102
RTVSPropertyOp32
 70
     1
102
RTVSPropertyOp33
 70
     1
102
RTVSPropertyOp34
 70
     1
102
RTVSPropertyOp35
 70
     1
102
RTVSPropertyOp36
 70
     1
102
RTVSPropertyOp37
 70
     1
102
RTVSPropertyOp38
 70
     1
102
RTVSPropertyOp39
 70
     1
102
RTVSPropertyOp40
 70
     1
102
RTVSPropertyOp41
 70
     1
102
RTVSPropertyOp42
 70
     1
102
RTVSPropertyOp43
 70
     1
102
RTVSPropertyOp44
 70
     1
102
RTVSPropertyOp45
 70
     1
102
RTVSPropertyOp46
 70
     1
102
RTVSPropertyOp47
 70
     1
102
RTVSPropertyOp48
 70
     1
102
RTVSPropertyOp49
 70
     1
102
RTVSPropertyOp50
 70
     1
102
RTVSPropertyOp51
 70
     0
102
RTVSPropertyOp52
 70
     0
102
RTVSPropertyOp53
 70
     1
102
RTVSPropertyOp54
 70
     1
102
RTVSPropertyOp55
 70
     1
102
RTVSPropertyOp56
 70
     1
102
RTVSPropertyOp57
 70
     1
102
RTVSPropertyOp58
 70
     1
102
RTVSPropertyOp59
 70
     1
102
RTVSPropertyOp60
 70
     1
102
RTVSPropertyOp61
 70
     1
102
RTVSPropertyOp62
 70
     1
  0
XRECORD
  5
6399
102
{ACAD_REACTORS
330
6398
102
}
330
6398
100
AcDbXrecord
280
     1
102
RTVSPost2010Prop28
280
     0
102
RTVSPost2010PropOp28
 70
     1
102
RTVSPost2010Prop29
280
     1
102
RTVSPost2010PropOp29
 70
     1
102
RTVSPost2010Prop30
280
     1
102
RTVSPost2010PropOp30
 70
     1
102
RTVSPost2010Prop31
280
     0
102
RTVSPost2010PropOp31
 70
     1
102
RTVSPost2010Prop32
280
     0
102
RTVSPost2010PropOp32
 70
     1
102
RTVSPost2010Prop33
280
     0
102
RTVSPost2010PropOp33
 70
     1
102
RTVSPost2010Prop34
280
     0
102
RTVSPost2010PropOp34
 70
     1
102
RTVSPost2010Prop35
280
     0
102
RTVSPost2010PropOp35
 70
     1
102
RTVSPost2010Prop36
280
     0
102
RTVSPost2010PropOp36
 70
     1
102
RTVSPost2010Prop37
 90
       50
102
RTVSPost2010PropOp37
 70
     1
102
RTVSPost2010Prop38
140
0.0
102
RTVSPost2010PropOp38
 70
     1
102
RTVSPost2010Prop39
140
1.0
102
RTVSPost2010PropOp39
 70
     1
102
RTVSPost2010Prop40
 90
        0
102
RTVSPost2010PropOp40
 70
     1
102
RTVSPost2010Prop41ColorIndex
 90
       18
102
RTVSPost2010Prop41ColorRGB
 90
        0
102
RTVSPost2010PropOp41
 70
     1
102
RTVSPost2010Prop42
 90
       50
102
RTVSPost2010PropOp42
 70
     1
102
RTVSPost2010Prop43
 90
        3
102
RTVSPost2010PropOp43
 70
     1
102
RTVSPost2010Prop44ColorIndex
 90
        5
102
RTVSPost2010Prop44ColorRGB
 90
      255
102
RTVSPost2010PropOp44
 70
     1
102
RTVSPost2010Prop45
280
     0
102
RTVSPost2010PropOp45
 70
     1
102
RTVSPost2010Prop46
 90
       50
102
RTVSPost2010PropOp46
 70
     1
102
RTVSPost2010Prop47
 90
       50
102
RTVSPost2010PropOp47
 70
     1
102
RTVSPost2010Prop48
 90
       50
102
RTVSPost2010PropOp48
 70
     1
102
RTVSPost2010Prop49
280
     0
102
RTVSPost2010PropOp49
 70
     1
102
RTVSPost2010Prop50
 90
       50
102
RTVSPost2010PropOp50
 70
     1
102
RTVSPost2010Prop51ColorIndex
 90
      256
102
RTVSPost2010Prop51ColorRGB
 90
-16777216
102
RTVSPost2010PropOp51
 70
     0
102
RTVSPost2010Prop52
140
1.0
102
RTVSPost2010PropOp52
 70
     0
102
RTVSPost2010Prop53
 90
        2
102
RTVSPost2010PropOp53
 70
     1
102
RTVSPost2010Prop54
  1
strokes_ogs.tif
102
RTVSPost2010PropOp54
 70
     1
102
RTVSPost2010Prop55
280
     0
102
RTVSPost2010PropOp55
 70
     1
102
RTVSPost2010Prop56
140
1.0
102
RTVSPost2010PropOp56
 70
     1
102
RTVSPost2010Prop57
140
1.0
102
RTVSPost2010PropOp57
 70
     1
102
RTVSPropertyOp0
 70
     1
102
RTVSPropertyOp1
 70
     1
102
RTVSPropertyOp2
 70
     1
102
RTVSPropertyOp3
 70
     1
102
RTVSPropertyOp4
 70
     1
102
RTVSPropertyOp5
 70
     1
102
RTVSPropertyOp6
 70
     1
102
RTVSPropertyOp7
 70
     1
102
RTVSPropertyOp8
 70
     1
102
RTVSPropertyOp9
 70
     1
102
RTVSPropertyOp10
 70
     1
102
RTVSPropertyOp11
 70
     1
102
RTVSPropertyOp12
 70
     1
102
RTVSPropertyOp13
 70
     1
102
RTVSPropertyOp14
 70
     1
102
RTVSPropertyOp15
 70
     1
102
RTVSPropertyOp16
 70
     1
102
RTVSPropertyOp17
 70
     1
102
RTVSPropertyOp18
 70
     1
102
RTVSPropertyOp19
 70
     1
102
RTVSPropertyOp20
 70
     1
102
RTVSPropertyOp21
 70
     1
102
RTVSPropertyOp22
 70
     1
102
RTVSPropertyOp23
 70
     1
102
RTVSPropertyOp24
 70
     1
102
RTVSPropertyOp25
 70
     1
102
RTVSPropertyOp26
 70
     1
102
RTVSPropertyOp27
 70
     1
102
RTVSPropertyOp28
 70
     1
102
RTVSPropertyOp29
 70
     1
102
RTVSPropertyOp30
 70
     1
102
RTVSPropertyOp31
 70
     1
102
RTVSPropertyOp32
 70
     1
102
RTVSPropertyOp33
 70
     1
102
RTVSPropertyOp34
 70
     1
102
RTVSPropertyOp35
 70
     1
102
RTVSPropertyOp36
 70
     1
102
RTVSPropertyOp37
 70
     1
102
RTVSPropertyOp38
 70
     1
102
RTVSPropertyOp39
 70
     1
102
RTVSPropertyOp40
 70
     1
102
RTVSPropertyOp41
 70
     1
102
RTVSPropertyOp42
 70
     1
102
RTVSPropertyOp43
 70
     1
102
RTVSPropertyOp44
 70
     1
102
RTVSPropertyOp45
 70
     1
102
RTVSPropertyOp46
 70
     1
102
RTVSPropertyOp47
 70
     1
102
RTVSPropertyOp48
 70
     1
102
RTVSPropertyOp49
 70
     1
102
RTVSPropertyOp50
 70
     1
102
RTVSPropertyOp51
 70
     0
102
RTVSPropertyOp52
 70
     0
102
RTVSPropertyOp53
 70
     1
102
RTVSPropertyOp54
 70
     1
102
RTVSPropertyOp55
 70
     1
102
RTVSPropertyOp56
 70
     1
102
RTVSPropertyOp57
 70
     1
102
RTVSPropertyOp58
 70
     1
102
RTVSPropertyOp59
 70
     1
102
RTVSPropertyOp60
 70
     1
102
RTVSPropertyOp61
 70
     1
102
RTVSPropertyOp62
 70
     1
  0
XRECORD
  5
6397
102
{ACAD_REACTORS
330
6396
102
}
330
6396
100
AcDbXrecord
280
     1
102
RTVSPost2010Prop28
280
     0
102
RTVSPost2010PropOp28
 70
     1
102
RTVSPost2010Prop29
280
     1
102
RTVSPost2010PropOp29
 70
     1
102
RTVSPost2010Prop30
280
     1
102
RTVSPost2010PropOp30
 70
     1
102
RTVSPost2010Prop31
280
     0
102
RTVSPost2010PropOp31
 70
     1
102
RTVSPost2010Prop32
280
     0
102
RTVSPost2010PropOp32
 70
     1
102
RTVSPost2010Prop33
280
     0
102
RTVSPost2010PropOp33
 70
     1
102
RTVSPost2010Prop34
280
     0
102
RTVSPost2010PropOp34
 70
     1
102
RTVSPost2010Prop35
280
     0
102
RTVSPost2010PropOp35
 70
     1
102
RTVSPost2010Prop36
280
     0
102
RTVSPost2010PropOp36
 70
     1
102
RTVSPost2010Prop37
 90
       50
102
RTVSPost2010PropOp37
 70
     1
102
RTVSPost2010Prop38
140
0.0
102
RTVSPost2010PropOp38
 70
     1
102
RTVSPost2010Prop39
140
1.0
102
RTVSPost2010PropOp39
 70
     1
102
RTVSPost2010Prop40
 90
        0
102
RTVSPost2010PropOp40
 70
     1
102
RTVSPost2010Prop41ColorIndex
 90
       18
102
RTVSPost2010Prop41ColorRGB
 90
        0
102
RTVSPost2010PropOp41
 70
     1
102
RTVSPost2010Prop42
 90
       50
102
RTVSPost2010PropOp42
 70
     1
102
RTVSPost2010Prop43
 90
        3
102
RTVSPost2010PropOp43
 70
     1
102
RTVSPost2010Prop44ColorIndex
 90
        5
102
RTVSPost2010Prop44ColorRGB
 90
      255
102
RTVSPost2010PropOp44
 70
     1
102
RTVSPost2010Prop45
280
     0
102
RTVSPost2010PropOp45
 70
     1
102
RTVSPost2010Prop46
 90
       50
102
RTVSPost2010PropOp46
 70
     1
102
RTVSPost2010Prop47
 90
       50
102
RTVSPost2010PropOp47
 70
     1
102
RTVSPost2010Prop48
 90
       50
102
RTVSPost2010PropOp48
 70
     1
102
RTVSPost2010Prop49
280
     0
102
RTVSPost2010PropOp49
 70
     1
102
RTVSPost2010Prop50
 90
       50
102
RTVSPost2010PropOp50
 70
     1
102
RTVSPost2010Prop51ColorIndex
 90
      256
102
RTVSPost2010Prop51ColorRGB
 90
-16777216
102
RTVSPost2010PropOp51
 70
     0
102
RTVSPost2010Prop52
140
1.0
102
RTVSPost2010PropOp52
 70
     0
102
RTVSPost2010Prop53
 90
        2
102
RTVSPost2010PropOp53
 70
     1
102
RTVSPost2010Prop54
  1
strokes_ogs.tif
102
RTVSPost2010PropOp54
 70
     1
102
RTVSPost2010Prop55
280
     0
102
RTVSPost2010PropOp55
 70
     1
102
RTVSPost2010Prop56
140
1.0
102
RTVSPost2010PropOp56
 70
     1
102
RTVSPost2010Prop57
140
1.0
102
RTVSPost2010PropOp57
 70
     1
102
RTVSPropertyOp0
 70
     1
102
RTVSPropertyOp1
 70
     1
102
RTVSPropertyOp2
 70
     1
102
RTVSPropertyOp3
 70
     1
102
RTVSPropertyOp4
 70
     1
102
RTVSPropertyOp5
 70
     1
102
RTVSPropertyOp6
 70
     1
102
RTVSPropertyOp7
 70
     1
102
RTVSPropertyOp8
 70
     1
102
RTVSPropertyOp9
 70
     1
102
RTVSPropertyOp10
 70
     1
102
RTVSPropertyOp11
 70
     1
102
RTVSPropertyOp12
 70
     1
102
RTVSPropertyOp13
 70
     1
102
RTVSPropertyOp14
 70
     1
102
RTVSPropertyOp15
 70
     1
102
RTVSPropertyOp16
 70
     1
102
RTVSPropertyOp17
 70
     1
102
RTVSPropertyOp18
 70
     1
102
RTVSPropertyOp19
 70
     1
102
RTVSPropertyOp20
 70
     1
102
RTVSPropertyOp21
 70
     1
102
RTVSPropertyOp22
 70
     1
102
RTVSPropertyOp23
 70
     1
102
RTVSPropertyOp24
 70
     1
102
RTVSPropertyOp25
 70
     1
102
RTVSPropertyOp26
 70
     1
102
RTVSPropertyOp27
 70
     1
102
RTVSPropertyOp28
 70
     1
102
RTVSPropertyOp29
 70
     1
102
RTVSPropertyOp30
 70
     1
102
RTVSPropertyOp31
 70
     1
102
RTVSPropertyOp32
 70
     1
102
RTVSPropertyOp33
 70
     1
102
RTVSPropertyOp34
 70
     1
102
RTVSPropertyOp35
 70
     1
102
RTVSPropertyOp36
 70
     1
102
RTVSPropertyOp37
 70
     1
102
RTVSPropertyOp38
 70
     1
102
RTVSPropertyOp39
 70
     1
102
RTVSPropertyOp40
 70
     1
102
RTVSPropertyOp41
 70
     1
102
RTVSPropertyOp42
 70
     1
102
RTVSPropertyOp43
 70
     1
102
RTVSPropertyOp44
 70
     1
102
RTVSPropertyOp45
 70
     1
102
RTVSPropertyOp46
 70
     1
102
RTVSPropertyOp47
 70
     1
102
RTVSPropertyOp48
 70
     1
102
RTVSPropertyOp49
 70
     1
102
RTVSPropertyOp50
 70
     1
102
RTVSPropertyOp51
 70
     0
102
RTVSPropertyOp52
 70
     0
102
RTVSPropertyOp53
 70
     1
102
RTVSPropertyOp54
 70
     1
102
RTVSPropertyOp55
 70
     1
102
RTVSPropertyOp56
 70
     1
102
RTVSPropertyOp57
 70
     1
102
RTVSPropertyOp58
 70
     1
102
RTVSPropertyOp59
 70
     1
102
RTVSPropertyOp60
 70
     1
102
RTVSPropertyOp61
 70
     1
102
RTVSPropertyOp62
 70
     1
  0
XRECORD
  5
6391
102
{ACAD_REACTORS
330
6390
102
}
330
6390
100
AcDbXrecord
280
     1
102
RTVSPost2010Prop28
280
     0
102
RTVSPost2010PropOp28
 70
     1
102
RTVSPost2010Prop29
280
     1
102
RTVSPost2010PropOp29
 70
     1
102
RTVSPost2010Prop30
280
     1
102
RTVSPost2010PropOp30
 70
     1
102
RTVSPost2010Prop31
280
     0
102
RTVSPost2010PropOp31
 70
     1
102
RTVSPost2010Prop32
280
     0
102
RTVSPost2010PropOp32
 70
     1
102
RTVSPost2010Prop33
280
     0
102
RTVSPost2010PropOp33
 70
     1
102
RTVSPost2010Prop34
280
     0
102
RTVSPost2010PropOp34
 70
     1
102
RTVSPost2010Prop35
280
     0
102
RTVSPost2010PropOp35
 70
     1
102
RTVSPost2010Prop36
280
     0
102
RTVSPost2010PropOp36
 70
     1
102
RTVSPost2010Prop37
 90
       50
102
RTVSPost2010PropOp37
 70
     1
102
RTVSPost2010Prop38
140
0.0
102
RTVSPost2010PropOp38
 70
     1
102
RTVSPost2010Prop39
140
1.0
102
RTVSPost2010PropOp39
 70
     1
102
RTVSPost2010Prop40
 90
        0
102
RTVSPost2010PropOp40
 70
     1
102
RTVSPost2010Prop41ColorIndex
 90
       18
102
RTVSPost2010Prop41ColorRGB
 90
        0
102
RTVSPost2010PropOp41
 70
     1
102
RTVSPost2010Prop42
 90
       50
102
RTVSPost2010PropOp42
 70
     1
102
RTVSPost2010Prop43
 90
        3
102
RTVSPost2010PropOp43
 70
     1
102
RTVSPost2010Prop44ColorIndex
 90
        5
102
RTVSPost2010Prop44ColorRGB
 90
      255
102
RTVSPost2010PropOp44
 70
     1
102
RTVSPost2010Prop45
280
     0
102
RTVSPost2010PropOp45
 70
     1
102
RTVSPost2010Prop46
 90
       50
102
RTVSPost2010PropOp46
 70
     1
102
RTVSPost2010Prop47
 90
       50
102
RTVSPost2010PropOp47
 70
     1
102
RTVSPost2010Prop48
 90
       50
102
RTVSPost2010PropOp48
 70
     1
102
RTVSPost2010Prop49
280
     0
102
RTVSPost2010PropOp49
 70
     1
102
RTVSPost2010Prop50
 90
       50
102
RTVSPost2010PropOp50
 70
     1
102
RTVSPost2010Prop51ColorIndex
 90
      256
102
RTVSPost2010Prop51ColorRGB
 90
-16777216
102
RTVSPost2010PropOp51
 70
     0
102
RTVSPost2010Prop52
140
1.0
102
RTVSPost2010PropOp52
 70
     0
102
RTVSPost2010Prop53
 90
        2
102
RTVSPost2010PropOp53
 70
     1
102
RTVSPost2010Prop54
  1
strokes_ogs.tif
102
RTVSPost2010PropOp54
 70
     1
102
RTVSPost2010Prop55
280
     0
102
RTVSPost2010PropOp55
 70
     1
102
RTVSPost2010Prop56
140
1.0
102
RTVSPost2010PropOp56
 70
     1
102
RTVSPost2010Prop57
140
1.0
102
RTVSPost2010PropOp57
 70
     1
102
RTVSPropertyOp0
 70
     1
102
RTVSPropertyOp1
 70
     1
102
RTVSPropertyOp2
 70
     1
102
RTVSPropertyOp3
 70
     1
102
RTVSPropertyOp4
 70
     1
102
RTVSPropertyOp5
 70
     1
102
RTVSPropertyOp6
 70
     1
102
RTVSPropertyOp7
 70
     1
102
RTVSPropertyOp8
 70
     1
102
RTVSPropertyOp9
 70
     1
102
RTVSPropertyOp10
 70
     1
102
RTVSPropertyOp11
 70
     1
102
RTVSPropertyOp12
 70
     1
102
RTVSPropertyOp13
 70
     1
102
RTVSPropertyOp14
 70
     1
102
RTVSPropertyOp15
 70
     1
102
RTVSPropertyOp16
 70
     1
102
RTVSPropertyOp17
 70
     1
102
RTVSPropertyOp18
 70
     1
102
RTVSPropertyOp19
 70
     1
102
RTVSPropertyOp20
 70
     1
102
RTVSPropertyOp21
 70
     1
102
RTVSPropertyOp22
 70
     1
102
RTVSPropertyOp23
 70
     1
102
RTVSPropertyOp24
 70
     1
102
RTVSPropertyOp25
 70
     1
102
RTVSPropertyOp26
 70
     1
102
RTVSPropertyOp27
 70
     1
102
RTVSPropertyOp28
 70
     1
102
RTVSPropertyOp29
 70
     1
102
RTVSPropertyOp30
 70
     1
102
RTVSPropertyOp31
 70
     1
102
RTVSPropertyOp32
 70
     1
102
RTVSPropertyOp33
 70
     1
102
RTVSPropertyOp34
 70
     1
102
RTVSPropertyOp35
 70
     1
102
RTVSPropertyOp36
 70
     1
102
RTVSPropertyOp37
 70
     1
102
RTVSPropertyOp38
 70
     1
102
RTVSPropertyOp39
 70
     1
102
RTVSPropertyOp40
 70
     1
102
RTVSPropertyOp41
 70
     1
102
RTVSPropertyOp42
 70
     1
102
RTVSPropertyOp43
 70
     1
102
RTVSPropertyOp44
 70
     1
102
RTVSPropertyOp45
 70
     1
102
RTVSPropertyOp46
 70
     1
102
RTVSPropertyOp47
 70
     1
102
RTVSPropertyOp48
 70
     1
102
RTVSPropertyOp49
 70
     1
102
RTVSPropertyOp50
 70
     1
102
RTVSPropertyOp51
 70
     0
102
RTVSPropertyOp52
 70
     0
102
RTVSPropertyOp53
 70
     1
102
RTVSPropertyOp54
 70
     1
102
RTVSPropertyOp55
 70
     1
102
RTVSPropertyOp56
 70
     1
102
RTVSPropertyOp57
 70
     1
102
RTVSPropertyOp58
 70
     1
102
RTVSPropertyOp59
 70
     1
102
RTVSPropertyOp60
 70
     1
102
RTVSPropertyOp61
 70
     1
102
RTVSPropertyOp62
 70
     1
  0
XRECORD
  5
6393
102
{ACAD_REACTORS
330
6392
102
}
330
6392
100
AcDbXrecord
280
     1
102
RTVSPost2010Prop28
280
     0
102
RTVSPost2010PropOp28
 70
     1
102
RTVSPost2010Prop29
280
     1
102
RTVSPost2010PropOp29
 70
     1
102
RTVSPost2010Prop30
280
     1
102
RTVSPost2010PropOp30
 70
     1
102
RTVSPost2010Prop31
280
     0
102
RTVSPost2010PropOp31
 70
     1
102
RTVSPost2010Prop32
280
     0
102
RTVSPost2010PropOp32
 70
     1
102
RTVSPost2010Prop33
280
     0
102
RTVSPost2010PropOp33
 70
     1
102
RTVSPost2010Prop34
280
     0
102
RTVSPost2010PropOp34
 70
     1
102
RTVSPost2010Prop35
280
     0
102
RTVSPost2010PropOp35
 70
     1
102
RTVSPost2010Prop36
280
     0
102
RTVSPost2010PropOp36
 70
     1
102
RTVSPost2010Prop37
 90
       50
102
RTVSPost2010PropOp37
 70
     1
102
RTVSPost2010Prop38
140
0.0
102
RTVSPost2010PropOp38
 70
     1
102
RTVSPost2010Prop39
140
1.0
102
RTVSPost2010PropOp39
 70
     1
102
RTVSPost2010Prop40
 90
        0
102
RTVSPost2010PropOp40
 70
     1
102
RTVSPost2010Prop41ColorIndex
 90
       18
102
RTVSPost2010Prop41ColorRGB
 90
        0
102
RTVSPost2010PropOp41
 70
     1
102
RTVSPost2010Prop42
 90
       50
102
RTVSPost2010PropOp42
 70
     1
102
RTVSPost2010Prop43
 90
        3
102
RTVSPost2010PropOp43
 70
     1
102
RTVSPost2010Prop44ColorIndex
 90
        5
102
RTVSPost2010Prop44ColorRGB
 90
      255
102
RTVSPost2010PropOp44
 70
     1
102
RTVSPost2010Prop45
280
     0
102
RTVSPost2010PropOp45
 70
     1
102
RTVSPost2010Prop46
 90
       50
102
RTVSPost2010PropOp46
 70
     1
102
RTVSPost2010Prop47
 90
       50
102
RTVSPost2010PropOp47
 70
     1
102
RTVSPost2010Prop48
 90
       50
102
RTVSPost2010PropOp48
 70
     1
102
RTVSPost2010Prop49
280
     0
102
RTVSPost2010PropOp49
 70
     1
102
RTVSPost2010Prop50
 90
       50
102
RTVSPost2010PropOp50
 70
     1
102
RTVSPost2010Prop51ColorIndex
 90
      256
102
RTVSPost2010Prop51ColorRGB
 90
-16777216
102
RTVSPost2010PropOp51
 70
     0
102
RTVSPost2010Prop52
140
1.0
102
RTVSPost2010PropOp52
 70
     0
102
RTVSPost2010Prop53
 90
        2
102
RTVSPost2010PropOp53
 70
     1
102
RTVSPost2010Prop54
  1
strokes_ogs.tif
102
RTVSPost2010PropOp54
 70
     1
102
RTVSPost2010Prop55
280
     0
102
RTVSPost2010PropOp55
 70
     1
102
RTVSPost2010Prop56
140
1.0
102
RTVSPost2010PropOp56
 70
     1
102
RTVSPost2010Prop57
140
1.0
102
RTVSPost2010PropOp57
 70
     1
102
RTVSPropertyOp0
 70
     1
102
RTVSPropertyOp1
 70
     1
102
RTVSPropertyOp2
 70
     1
102
RTVSPropertyOp3
 70
     1
102
RTVSPropertyOp4
 70
     1
102
RTVSPropertyOp5
 70
     1
102
RTVSPropertyOp6
 70
     1
102
RTVSPropertyOp7
 70
     1
102
RTVSPropertyOp8
 70
     1
102
RTVSPropertyOp9
 70
     1
102
RTVSPropertyOp10
 70
     1
102
RTVSPropertyOp11
 70
     1
102
RTVSPropertyOp12
 70
     1
102
RTVSPropertyOp13
 70
     1
102
RTVSPropertyOp14
 70
     1
102
RTVSPropertyOp15
 70
     1
102
RTVSPropertyOp16
 70
     1
102
RTVSPropertyOp17
 70
     1
102
RTVSPropertyOp18
 70
     1
102
RTVSPropertyOp19
 70
     1
102
RTVSPropertyOp20
 70
     1
102
RTVSPropertyOp21
 70
     1
102
RTVSPropertyOp22
 70
     1
102
RTVSPropertyOp23
 70
     1
102
RTVSPropertyOp24
 70
     1
102
RTVSPropertyOp25
 70
     1
102
RTVSPropertyOp26
 70
     1
102
RTVSPropertyOp27
 70
     1
102
RTVSPropertyOp28
 70
     1
102
RTVSPropertyOp29
 70
     1
102
RTVSPropertyOp30
 70
     1
102
RTVSPropertyOp31
 70
     1
102
RTVSPropertyOp32
 70
     1
102
RTVSPropertyOp33
 70
     1
102
RTVSPropertyOp34
 70
     1
102
RTVSPropertyOp35
 70
     1
102
RTVSPropertyOp36
 70
     1
102
RTVSPropertyOp37
 70
     1
102
RTVSPropertyOp38
 70
     1
102
RTVSPropertyOp39
 70
     1
102
RTVSPropertyOp40
 70
     1
102
RTVSPropertyOp41
 70
     1
102
RTVSPropertyOp42
 70
     1
102
RTVSPropertyOp43
 70
     1
102
RTVSPropertyOp44
 70
     1
102
RTVSPropertyOp45
 70
     1
102
RTVSPropertyOp46
 70
     1
102
RTVSPropertyOp47
 70
     1
102
RTVSPropertyOp48
 70
     1
102
RTVSPropertyOp49
 70
     1
102
RTVSPropertyOp50
 70
     1
102
RTVSPropertyOp51
 70
     0
102
RTVSPropertyOp52
 70
     0
102
RTVSPropertyOp53
 70
     1
102
RTVSPropertyOp54
 70
     1
102
RTVSPropertyOp55
 70
     1
102
RTVSPropertyOp56
 70
     1
102
RTVSPropertyOp57
 70
     1
102
RTVSPropertyOp58
 70
     1
102
RTVSPropertyOp59
 70
     1
102
RTVSPropertyOp60
 70
     1
102
RTVSPropertyOp61
 70
     1
102
RTVSPropertyOp62
 70
     1
  0
XRECORD
  5
6381
102
{ACAD_REACTORS
330
6380
102
}
330
6380
100
AcDbXrecord
280
     1
102
RTVSPost2010Prop28
280
     0
102
RTVSPost2010PropOp28
 70
     1
102
RTVSPost2010Prop29
280
     1
102
RTVSPost2010PropOp29
 70
     1
102
RTVSPost2010Prop30
280
     1
102
RTVSPost2010PropOp30
 70
     1
102
RTVSPost2010Prop31
280
     0
102
RTVSPost2010PropOp31
 70
     1
102
RTVSPost2010Prop32
280
     0
102
RTVSPost2010PropOp32
 70
     1
102
RTVSPost2010Prop33
280
     0
102
RTVSPost2010PropOp33
 70
     1
102
RTVSPost2010Prop34
280
     0
102
RTVSPost2010PropOp34
 70
     1
102
RTVSPost2010Prop35
280
     0
102
RTVSPost2010PropOp35
 70
     1
102
RTVSPost2010Prop36
280
     0
102
RTVSPost2010PropOp36
 70
     1
102
RTVSPost2010Prop37
 90
       50
102
RTVSPost2010PropOp37
 70
     1
102
RTVSPost2010Prop38
140
0.0
102
RTVSPost2010PropOp38
 70
     1
102
RTVSPost2010Prop39
140
1.0
102
RTVSPost2010PropOp39
 70
     1
102
RTVSPost2010Prop40
 90
        0
102
RTVSPost2010PropOp40
 70
     1
102
RTVSPost2010Prop41ColorIndex
 90
       18
102
RTVSPost2010Prop41ColorRGB
 90
        0
102
RTVSPost2010PropOp41
 70
     1
102
RTVSPost2010Prop42
 90
       50
102
RTVSPost2010PropOp42
 70
     1
102
RTVSPost2010Prop43
 90
        3
102
RTVSPost2010PropOp43
 70
     1
102
RTVSPost2010Prop44ColorIndex
 90
        5
102
RTVSPost2010Prop44ColorRGB
 90
      255
102
RTVSPost2010PropOp44
 70
     1
102
RTVSPost2010Prop45
280
     0
102
RTVSPost2010PropOp45
 70
     1
102
RTVSPost2010Prop46
 90
       50
102
RTVSPost2010PropOp46
 70
     1
102
RTVSPost2010Prop47
 90
       50
102
RTVSPost2010PropOp47
 70
     1
102
RTVSPost2010Prop48
 90
       50
102
RTVSPost2010PropOp48
 70
     1
102
RTVSPost2010Prop49
280
     0
102
RTVSPost2010PropOp49
 70
     1
102
RTVSPost2010Prop50
 90
       50
102
RTVSPost2010PropOp50
 70
     1
102
RTVSPost2010Prop51ColorIndex
 90
      256
102
RTVSPost2010Prop51ColorRGB
 90
-16777216
102
RTVSPost2010PropOp51
 70
     0
102
RTVSPost2010Prop52
140
1.0
102
RTVSPost2010PropOp52
 70
     0
102
RTVSPost2010Prop53
 90
        2
102
RTVSPost2010PropOp53
 70
     1
102
RTVSPost2010Prop54
  1
strokes_ogs.tif
102
RTVSPost2010PropOp54
 70
     1
102
RTVSPost2010Prop55
280
     0
102
RTVSPost2010PropOp55
 70
     1
102
RTVSPost2010Prop56
140
1.0
102
RTVSPost2010PropOp56
 70
     1
102
RTVSPost2010Prop57
140
1.0
102
RTVSPost2010PropOp57
 70
     1
102
RTVSPropertyOp0
 70
     1
102
RTVSPropertyOp1
 70
     1
102
RTVSPropertyOp2
 70
     1
102
RTVSPropertyOp3
 70
     1
102
RTVSPropertyOp4
 70
     1
102
RTVSPropertyOp5
 70
     1
102
RTVSPropertyOp6
 70
     1
102
RTVSPropertyOp7
 70
     1
102
RTVSPropertyOp8
 70
     1
102
RTVSPropertyOp9
 70
     1
102
RTVSPropertyOp10
 70
     1
102
RTVSPropertyOp11
 70
     1
102
RTVSPropertyOp12
 70
     1
102
RTVSPropertyOp13
 70
     1
102
RTVSPropertyOp14
 70
     1
102
RTVSPropertyOp15
 70
     1
102
RTVSPropertyOp16
 70
     1
102
RTVSPropertyOp17
 70
     1
102
RTVSPropertyOp18
 70
     1
102
RTVSPropertyOp19
 70
     1
102
RTVSPropertyOp20
 70
     1
102
RTVSPropertyOp21
 70
     1
102
RTVSPropertyOp22
 70
     1
102
RTVSPropertyOp23
 70
     1
102
RTVSPropertyOp24
 70
     1
102
RTVSPropertyOp25
 70
     1
102
RTVSPropertyOp26
 70
     1
102
RTVSPropertyOp27
 70
     1
102
RTVSPropertyOp28
 70
     1
102
RTVSPropertyOp29
 70
     1
102
RTVSPropertyOp30
 70
     1
102
RTVSPropertyOp31
 70
     1
102
RTVSPropertyOp32
 70
     1
102
RTVSPropertyOp33
 70
     1
102
RTVSPropertyOp34
 70
     1
102
RTVSPropertyOp35
 70
     1
102
RTVSPropertyOp36
 70
     1
102
RTVSPropertyOp37
 70
     1
102
RTVSPropertyOp38
 70
     1
102
RTVSPropertyOp39
 70
     1
102
RTVSPropertyOp40
 70
     1
102
RTVSPropertyOp41
 70
     1
102
RTVSPropertyOp42
 70
     1
102
RTVSPropertyOp43
 70
     1
102
RTVSPropertyOp44
 70
     1
102
RTVSPropertyOp45
 70
     1
102
RTVSPropertyOp46
 70
     1
102
RTVSPropertyOp47
 70
     1
102
RTVSPropertyOp48
 70
     1
102
RTVSPropertyOp49
 70
     1
102
RTVSPropertyOp50
 70
     1
102
RTVSPropertyOp51
 70
     0
102
RTVSPropertyOp52
 70
     0
102
RTVSPropertyOp53
 70
     1
102
RTVSPropertyOp54
 70
     1
102
RTVSPropertyOp55
 70
     1
102
RTVSPropertyOp56
 70
     1
102
RTVSPropertyOp57
 70
     1
102
RTVSPropertyOp58
 70
     1
102
RTVSPropertyOp59
 70
     1
102
RTVSPropertyOp60
 70
     1
102
RTVSPropertyOp61
 70
     1
102
RTVSPropertyOp62
 70
     1
  0
XRECORD
  5
6375
102
{ACAD_REACTORS
330
6374
102
}
330
6374
100
AcDbXrecord
280
     1
102
RTVSPost2010Prop28
280
     0
102
RTVSPost2010PropOp28
 70
     1
102
RTVSPost2010Prop29
280
     1
102
RTVSPost2010PropOp29
 70
     1
102
RTVSPost2010Prop30
280
     1
102
RTVSPost2010PropOp30
 70
     1
102
RTVSPost2010Prop31
280
     0
102
RTVSPost2010PropOp31
 70
     1
102
RTVSPost2010Prop32
280
     0
102
RTVSPost2010PropOp32
 70
     1
102
RTVSPost2010Prop33
280
     0
102
RTVSPost2010PropOp33
 70
     1
102
RTVSPost2010Prop34
280
     0
102
RTVSPost2010PropOp34
 70
     1
102
RTVSPost2010Prop35
280
     0
102
RTVSPost2010PropOp35
 70
     1
102
RTVSPost2010Prop36
280
     0
102
RTVSPost2010PropOp36
 70
     1
102
RTVSPost2010Prop37
 90
       50
102
RTVSPost2010PropOp37
 70
     1
102
RTVSPost2010Prop38
140
0.0
102
RTVSPost2010PropOp38
 70
     1
102
RTVSPost2010Prop39
140
1.0
102
RTVSPost2010PropOp39
 70
     1
102
RTVSPost2010Prop40
 90
        0
102
RTVSPost2010PropOp40
 70
     1
102
RTVSPost2010Prop41ColorIndex
 90
       18
102
RTVSPost2010Prop41ColorRGB
 90
        0
102
RTVSPost2010PropOp41
 70
     1
102
RTVSPost2010Prop42
 90
       50
102
RTVSPost2010PropOp42
 70
     1
102
RTVSPost2010Prop43
 90
        3
102
RTVSPost2010PropOp43
 70
     1
102
RTVSPost2010Prop44ColorIndex
 90
        5
102
RTVSPost2010Prop44ColorRGB
 90
      255
102
RTVSPost2010PropOp44
 70
     1
102
RTVSPost2010Prop45
280
     0
102
RTVSPost2010PropOp45
 70
     1
102
RTVSPost2010Prop46
 90
       50
102
RTVSPost2010PropOp46
 70
     1
102
RTVSPost2010Prop47
 90
       50
102
RTVSPost2010PropOp47
 70
     1
102
RTVSPost2010Prop48
 90
       50
102
RTVSPost2010PropOp48
 70
     1
102
RTVSPost2010Prop49
280
     0
102
RTVSPost2010PropOp49
 70
     1
102
RTVSPost2010Prop50
 90
       50
102
RTVSPost2010PropOp50
 70
     1
102
RTVSPost2010Prop51ColorIndex
 90
      256
102
RTVSPost2010Prop51ColorRGB
 90
-16777216
102
RTVSPost2010PropOp51
 70
     0
102
RTVSPost2010Prop52
140
1.0
102
RTVSPost2010PropOp52
 70
     0
102
RTVSPost2010Prop53
 90
        2
102
RTVSPost2010PropOp53
 70
     1
102
RTVSPost2010Prop54
  1
strokes_ogs.tif
102
RTVSPost2010PropOp54
 70
     1
102
RTVSPost2010Prop55
280
     0
102
RTVSPost2010PropOp55
 70
     1
102
RTVSPost2010Prop56
140
1.0
102
RTVSPost2010PropOp56
 70
     1
102
RTVSPost2010Prop57
140
1.0
102
RTVSPost2010PropOp57
 70
     1
102
RTVSPropertyOp0
 70
     1
102
RTVSPropertyOp1
 70
     1
102
RTVSPropertyOp2
 70
     1
102
RTVSPropertyOp3
 70
     1
102
RTVSPropertyOp4
 70
     1
102
RTVSPropertyOp5
 70
     1
102
RTVSPropertyOp6
 70
     1
102
RTVSPropertyOp7
 70
     1
102
RTVSPropertyOp8
 70
     1
102
RTVSPropertyOp9
 70
     1
102
RTVSPropertyOp10
 70
     1
102
RTVSPropertyOp11
 70
     1
102
RTVSPropertyOp12
 70
     1
102
RTVSPropertyOp13
 70
     1
102
RTVSPropertyOp14
 70
     1
102
RTVSPropertyOp15
 70
     1
102
RTVSPropertyOp16
 70
     1
102
RTVSPropertyOp17
 70
     1
102
RTVSPropertyOp18
 70
     1
102
RTVSPropertyOp19
 70
     1
102
RTVSPropertyOp20
 70
     1
102
RTVSPropertyOp21
 70
     1
102
RTVSPropertyOp22
 70
     1
102
RTVSPropertyOp23
 70
     1
102
RTVSPropertyOp24
 70
     1
102
RTVSPropertyOp25
 70
     1
102
RTVSPropertyOp26
 70
     1
102
RTVSPropertyOp27
 70
     1
102
RTVSPropertyOp28
 70
     1
102
RTVSPropertyOp29
 70
     1
102
RTVSPropertyOp30
 70
     1
102
RTVSPropertyOp31
 70
     1
102
RTVSPropertyOp32
 70
     1
102
RTVSPropertyOp33
 70
     1
102
RTVSPropertyOp34
 70
     1
102
RTVSPropertyOp35
 70
     1
102
RTVSPropertyOp36
 70
     1
102
RTVSPropertyOp37
 70
     1
102
RTVSPropertyOp38
 70
     1
102
RTVSPropertyOp39
 70
     1
102
RTVSPropertyOp40
 70
     1
102
RTVSPropertyOp41
 70
     1
102
RTVSPropertyOp42
 70
     1
102
RTVSPropertyOp43
 70
     1
102
RTVSPropertyOp44
 70
     1
102
RTVSPropertyOp45
 70
     1
102
RTVSPropertyOp46
 70
     1
102
RTVSPropertyOp47
 70
     1
102
RTVSPropertyOp48
 70
     1
102
RTVSPropertyOp49
 70
     1
102
RTVSPropertyOp50
 70
     1
102
RTVSPropertyOp51
 70
     0
102
RTVSPropertyOp52
 70
     0
102
RTVSPropertyOp53
 70
     1
102
RTVSPropertyOp54
 70
     1
102
RTVSPropertyOp55
 70
     1
102
RTVSPropertyOp56
 70
     1
102
RTVSPropertyOp57
 70
     1
102
RTVSPropertyOp58
 70
     1
102
RTVSPropertyOp59
 70
     1
102
RTVSPropertyOp60
 70
     1
102
RTVSPropertyOp61
 70
     1
102
RTVSPropertyOp62
 70
     1
  0
XRECORD
  5
6395
102
{ACAD_REACTORS
330
6394
102
}
330
6394
100
AcDbXrecord
280
     1
102
RTVSPost2010Prop28
280
     0
102
RTVSPost2010PropOp28
 70
     1
102
RTVSPost2010Prop29
280
     1
102
RTVSPost2010PropOp29
 70
     1
102
RTVSPost2010Prop30
280
     1
102
RTVSPost2010PropOp30
 70
     1
102
RTVSPost2010Prop31
280
     0
102
RTVSPost2010PropOp31
 70
     1
102
RTVSPost2010Prop32
280
     0
102
RTVSPost2010PropOp32
 70
     1
102
RTVSPost2010Prop33
280
     0
102
RTVSPost2010PropOp33
 70
     1
102
RTVSPost2010Prop34
280
     0
102
RTVSPost2010PropOp34
 70
     1
102
RTVSPost2010Prop35
280
     0
102
RTVSPost2010PropOp35
 70
     1
102
RTVSPost2010Prop36
280
     0
102
RTVSPost2010PropOp36
 70
     1
102
RTVSPost2010Prop37
 90
       50
102
RTVSPost2010PropOp37
 70
     1
102
RTVSPost2010Prop38
140
0.0
102
RTVSPost2010PropOp38
 70
     1
102
RTVSPost2010Prop39
140
1.0
102
RTVSPost2010PropOp39
 70
     1
102
RTVSPost2010Prop40
 90
        0
102
RTVSPost2010PropOp40
 70
     1
102
RTVSPost2010Prop41ColorIndex
 90
       18
102
RTVSPost2010Prop41ColorRGB
 90
        0
102
RTVSPost2010PropOp41
 70
     1
102
RTVSPost2010Prop42
 90
       50
102
RTVSPost2010PropOp42
 70
     1
102
RTVSPost2010Prop43
 90
        3
102
RTVSPost2010PropOp43
 70
     1
102
RTVSPost2010Prop44ColorIndex
 90
        5
102
RTVSPost2010Prop44ColorRGB
 90
      255
102
RTVSPost2010PropOp44
 70
     1
102
RTVSPost2010Prop45
280
     0
102
RTVSPost2010PropOp45
 70
     1
102
RTVSPost2010Prop46
 90
       50
102
RTVSPost2010PropOp46
 70
     1
102
RTVSPost2010Prop47
 90
       50
102
RTVSPost2010PropOp47
 70
     1
102
RTVSPost2010Prop48
 90
       50
102
RTVSPost2010PropOp48
 70
     1
102
RTVSPost2010Prop49
280
     0
102
RTVSPost2010PropOp49
 70
     1
102
RTVSPost2010Prop50
 90
       50
102
RTVSPost2010PropOp50
 70
     1
102
RTVSPost2010Prop51ColorIndex
 90
      256
102
RTVSPost2010Prop51ColorRGB
 90
-16777216
102
RTVSPost2010PropOp51
 70
     0
102
RTVSPost2010Prop52
140
1.0
102
RTVSPost2010PropOp52
 70
     0
102
RTVSPost2010Prop53
 90
        2
102
RTVSPost2010PropOp53
 70
     1
102
RTVSPost2010Prop54
  1
strokes_ogs.tif
102
RTVSPost2010PropOp54
 70
     1
102
RTVSPost2010Prop55
280
     0
102
RTVSPost2010PropOp55
 70
     1
102
RTVSPost2010Prop56
140
1.0
102
RTVSPost2010PropOp56
 70
     1
102
RTVSPost2010Prop57
140
1.0
102
RTVSPost2010PropOp57
 70
     1
102
RTVSPropertyOp0
 70
     1
102
RTVSPropertyOp1
 70
     1
102
RTVSPropertyOp2
 70
     1
102
RTVSPropertyOp3
 70
     1
102
RTVSPropertyOp4
 70
     1
102
RTVSPropertyOp5
 70
     1
102
RTVSPropertyOp6
 70
     1
102
RTVSPropertyOp7
 70
     1
102
RTVSPropertyOp8
 70
     1
102
RTVSPropertyOp9
 70
     1
102
RTVSPropertyOp10
 70
     1
102
RTVSPropertyOp11
 70
     1
102
RTVSPropertyOp12
 70
     1
102
RTVSPropertyOp13
 70
     1
102
RTVSPropertyOp14
 70
     1
102
RTVSPropertyOp15
 70
     1
102
RTVSPropertyOp16
 70
     1
102
RTVSPropertyOp17
 70
     1
102
RTVSPropertyOp18
 70
     1
102
RTVSPropertyOp19
 70
     1
102
RTVSPropertyOp20
 70
     1
102
RTVSPropertyOp21
 70
     1
102
RTVSPropertyOp22
 70
     1
102
RTVSPropertyOp23
 70
     1
102
RTVSPropertyOp24
 70
     1
102
RTVSPropertyOp25
 70
     1
102
RTVSPropertyOp26
 70
     1
102
RTVSPropertyOp27
 70
     1
102
RTVSPropertyOp28
 70
     1
102
RTVSPropertyOp29
 70
     1
102
RTVSPropertyOp30
 70
     1
102
RTVSPropertyOp31
 70
     1
102
RTVSPropertyOp32
 70
     1
102
RTVSPropertyOp33
 70
     1
102
RTVSPropertyOp34
 70
     1
102
RTVSPropertyOp35
 70
     1
102
RTVSPropertyOp36
 70
     1
102
RTVSPropertyOp37
 70
     1
102
RTVSPropertyOp38
 70
     1
102
RTVSPropertyOp39
 70
     1
102
RTVSPropertyOp40
 70
     1
102
RTVSPropertyOp41
 70
     1
102
RTVSPropertyOp42
 70
     1
102
RTVSPropertyOp43
 70
     1
102
RTVSPropertyOp44
 70
     1
102
RTVSPropertyOp45
 70
     1
102
RTVSPropertyOp46
 70
     1
102
RTVSPropertyOp47
 70
     1
102
RTVSPropertyOp48
 70
     1
102
RTVSPropertyOp49
 70
     1
102
RTVSPropertyOp50
 70
     1
102
RTVSPropertyOp51
 70
     0
102
RTVSPropertyOp52
 70
     0
102
RTVSPropertyOp53
 70
     1
102
RTVSPropertyOp54
 70
     1
102
RTVSPropertyOp55
 70
     1
102
RTVSPropertyOp56
 70
     1
102
RTVSPropertyOp57
 70
     1
102
RTVSPropertyOp58
 70
     1
102
RTVSPropertyOp59
 70
     1
102
RTVSPropertyOp60
 70
     1
102
RTVSPropertyOp61
 70
     1
102
RTVSPropertyOp62
 70
     1
  0
ENDSEC
  0
EOF
