  0
SECTION
  2
HEADER
  9
$ACADVER
  1
AC1015
  9
$ACADMAINTVER
 70
    18
  9
$DWGCODEPAGE
  3
ANSI_1252
  9
$INSBASE
 10
0.0
 20
0.0
 30
0.0
  9
$EXTMIN
 10
-128.2827750503582
 20
-166.147063710898
 30
-0.0015258207003583
  9
$EXTMAX
 10
141.362915692575
 20
103.1813969502475
 30
0.0000000349246037
  9
$LIMMIN
 10
0.0
 20
0.0
  9
$LIMMAX
 10
420.0
 20
297.0
  9
$ORTHOMODE
 70
     0
  9
$REGENMODE
 70
     1
  9
$FILLMODE
 70
     1
  9
$QTEXTMODE
 70
     0
  9
$MIRRTEXT
 70
     0
  9
$LTSCALE
 40
1.0
  9
$ATTMODE
 70
     1
  9
$TEXTSIZE
 40
2.5
  9
$TRACEWID
 40
1.0
  9
$TEXTSTYLE
  7
Standard
  9
$CLAYER
  8
0
  9
$CELTYPE
  6
ByLayer
  9
$CECOLOR
 62
   256
  9
$CELTSCALE
 40
1.0
  9
$DISPSILH
 70
     0
  9
$DIMSCALE
 40
1.0
  9
$DIMASZ
 40
2.5
  9
$DIMEXO
 40
0.625
  9
$DIMDLI
 40
3.75
  9
$DIMRND
 40
0.0
  9
$DIMDLE
 40
0.0
  9
$DIMEXE
 40
1.25
  9
$DIMTP
 40
0.0
  9
$DIMTM
 40
0.0
  9
$DIMTXT
 40
2.5
  9
$DIMCEN
 40
2.5
  9
$DIMTSZ
 40
0.0
  9
$DIMTOL
 70
     0
  9
$DIMLIM
 70
     0
  9
$DIMTIH
 70
     0
  9
$DIMTOH
 70
     0
  9
$DIMSE1
 70
     0
  9
$DIMSE2
 70
     0
  9
$DIMTAD
 70
     1
  9
$DIMZIN
 70
     8
  9
$DIMBLK
  1

  9
$DIMASO
 70
     1
  9
$DIMSHO
 70
     1
  9
$DIMPOST
  1

  9
$DIMAPOST
  1

  9
$DIMALT
 70
     0
  9
$DIMALTD
 70
     3
  9
$DIMALTF
 40
0.03937007874016
  9
$DIMLFAC
 40
1.0
  9
$DIMTOFL
 70
     1
  9
$DIMTVP
 40
0.0
  9
$DIMTIX
 70
     0
  9
$DIMSOXD
 70
     0
  9
$DIMSAH
 70
     0
  9
$DIMBLK1
  1

  9
$DIMBLK2
  1

  9
$DIMSTYLE
  2
ISO-25
  9
$DIMCLRD
 70
     0
  9
$DIMCLRE
 70
     0
  9
$DIMCLRT
 70
     0
  9
$DIMTFAC
 40
1.0
  9
$DIMGAP
 40
0.625
  9
$DIMJUST
 70
     0
  9
$DIMSD1
 70
     0
  9
$DIMSD2
 70
     0
  9
$DIMTOLJ
 70
     0
  9
$DIMTZIN
 70
     8
  9
$DIMALTZ
 70
     0
  9
$DIMALTTZ
 70
     0
  9
$DIMUPT
 70
     0
  9
$DIMDEC
 70
     2
  9
$DIMTDEC
 70
     2
  9
$DIMALTU
 70
     2
  9
$DIMALTTD
 70
     3
  9
$DIMTXSTY
  7
Standard
  9
$DIMAUNIT
 70
     0
  9
$DIMADEC
 70
     0
  9
$DIMALTRND
 40
0.0
  9
$DIMAZIN
 70
     0
  9
$DIMDSEP
 70
    44
  9
$DIMATFIT
 70
     3
  9
$DIMFRAC
 70
     0
  9
$DIMLDRBLK
  1

  9
$DIMLUNIT
 70
     2
  9
$DIMLWD
 70
    -2
  9
$DIMLWE
 70
    -2
  9
$DIMTMOVE
 70
     0
  9
$LUNITS
 70
     2
  9
$LUPREC
 70
     4
  9
$SKETCHINC
 40
1.0
  9
$FILLETRAD
 40
0.0
  9
$AUNITS
 70
     0
  9
$AUPREC
 70
     0
  9
$MENU
  1
.
  9
$ELEVATION
 40
0.0
  9
$PELEVATION
 40
0.0
  9
$THICKNESS
 40
0.0
  9
$LIMCHECK
 70
     0
  9
$CHAMFERA
 40
0.0
  9
$CHAMFERB
 40
0.0
  9
$CHAMFERC
 40
0.0
  9
$CHAMFERD
 40
0.0
  9
$SKPOLY
 70
     0
  9
$TDCREATE
 40
2460781.656018518
  9
$TDUCREATE
 40
2460781.364351852
  9
$TDUPDATE
 40
2460782.412511574
  9
$TDUUPDATE
 40
2460782.120844907
  9
$TDINDWG
 40
0.7542476852
  9
$TDUSRTIMER
 40
0.7542476852
  9
$USRTIMER
 70
     1
  9
$ANGBASE
 50
0.0
  9
$ANGDIR
 70
     0
  9
$PDMODE
 70
     0
  9
$PDSIZE
 40
0.0
  9
$PLINEWID
 40
0.0
  9
$SPLFRAME
 70
     0
  9
$SPLINETYPE
 70
     6
  9
$SPLINESEGS
 70
     8
  9
$HANDSEED
  5
60F4
  9
$SURFTAB1
 70
     6
  9
$SURFTAB2
 70
     6
  9
$SURFTYPE
 70
     6
  9
$SURFU
 70
     6
  9
$SURFV
 70
     6
  9
$UCSBASE
  2

  9
$UCSNAME
  2

  9
$UCSORG
 10
0.0
 20
0.0
 30
0.0
  9
$UCSXDIR
 10
1.0
 20
0.0
 30
0.0
  9
$UCSYDIR
 10
0.0
 20
1.0
 30
0.0
  9
$UCSORTHOREF
  2

  9
$UCSORTHOVIEW
 70
     0
  9
$UCSORGTOP
 10
0.0
 20
0.0
 30
0.0
  9
$UCSORGBOTTOM
 10
0.0
 20
0.0
 30
0.0
  9
$UCSORGLEFT
 10
0.0
 20
0.0
 30
0.0
  9
$UCSORGRIGHT
 10
0.0
 20
0.0
 30
0.0
  9
$UCSORGFRONT
 10
0.0
 20
0.0
 30
0.0
  9
$UCSORGBACK
 10
0.0
 20
0.0
 30
0.0
  9
$PUCSBASE
  2

  9
$PUCSNAME
  2

  9
$PUCSORG
 10
0.0
 20
0.0
 30
0.0
  9
$PUCSXDIR
 10
1.0
 20
0.0
 30
0.0
  9
$PUCSYDIR
 10
0.0
 20
1.0
 30
0.0
  9
$PUCSORTHOREF
  2

  9
$PUCSORTHOVIEW
 70
     0
  9
$PUCSORGTOP
 10
0.0
 20
0.0
 30
0.0
  9
$PUCSORGBOTTOM
 10
0.0
 20
0.0
 30
0.0
  9
$PUCSORGLEFT
 10
0.0
 20
0.0
 30
0.0
  9
$PUCSORGRIGHT
 10
0.0
 20
0.0
 30
0.0
  9
$PUCSORGFRONT
 10
0.0
 20
0.0
 30
0.0
  9
$PUCSORGBACK
 10
0.0
 20
0.0
 30
0.0
  9
$USERI1
 70
     0
  9
$USERI2
 70
     0
  9
$USERI3
 70
     0
  9
$USERI4
 70
     0
  9
$USERI5
 70
     0
  9
$USERR1
 40
0.0
  9
$USERR2
 40
0.0
  9
$USERR3
 40
0.0
  9
$USERR4
 40
0.0
  9
$USERR5
 40
0.0
  9
$WORLDVIEW
 70
     1
  9
$SHADEDGE
 70
     3
  9
$SHADEDIF
 70
    70
  9
$TILEMODE
 70
     1
  9
$MAXACTVP
 70
    48
  9
$PINSBASE
 10
0.0
 20
0.0
 30
0.0
  9
$PLIMCHECK
 70
     0
  9
$PEXTMIN
 10
0.0
 20
0.0
 30
0.0
  9
$PEXTMAX
 10
0.0
 20
0.0
 30
0.0
  9
$PLIMMIN
 10
0.0
 20
0.0
  9
$PLIMMAX
 10
12.0
 20
9.0
  9
$UNITMODE
 70
     0
  9
$VISRETAIN
 70
     1
  9
$PLINEGEN
 70
     0
  9
$PSLTSCALE
 70
     1
  9
$TREEDEPTH
 70
  3020
  9
$CMLSTYLE
  2
Standard
  9
$CMLJUST
 70
     0
  9
$CMLSCALE
 40
20.0
  9
$PROXYGRAPHICS
 70
     1
  9
$MEASUREMENT
 70
     1
  9
$CELWEIGHT
370
    -1
  9
$ENDCAPS
280
     0
  9
$JOINSTYLE
280
     0
  9
$LWDISPLAY
290
     0
  9
$INSUNITS
 70
     4
  9
$HYPERLINKBASE
  1

  9
$STYLESHEET
  1

  9
$XEDIT
290
     1
  9
$CEPSNTYPE
380
     0
  9
$PSTYLEMODE
290
     1
  9
$FINGERPRINTGUID
  2
{0FEB3686-8757-2640-922C-D8687B0D3839}
  9
$VERSIONGUID
  2
{DB4E28CF-0EF2-8444-AA4C-6B0AAED6FE0A}
  9
$EXTNAMES
290
     1
  9
$PSVPSCALE
 40
0.0
  9
$OLESTARTUP
290
     0
  0
ENDSEC
  0
SECTION
  2
CLASSES
  0
CLASS
  1
ACDBDICTIONARYWDFLT
  2
AcDbDictionaryWithDefault
  3
ObjectDBX Classes
 90
        0
280
     0
281
     0
  0
CLASS
  1
ACDBPLACEHOLDER
  2
AcDbPlaceHolder
  3
ObjectDBX Classes
 90
        0
280
     0
281
     0
  0
CLASS
  1
LAYOUT
  2
AcDbLayout
  3
ObjectDBX Classes
 90
        0
280
     0
281
     0
  0
CLASS
  1
DICTIONARYVAR
  2
AcDbDictionaryVar
  3
ObjectDBX Classes
 90
        0
280
     0
281
     0
  0
CLASS
  1
TABLESTYLE
  2
AcDbTableStyle
  3
ObjectDBX Classes
 90
     4095
280
     0
281
     0
  0
CLASS
  1
MATERIAL
  2
AcDbMaterial
  3
ObjectDBX Classes
 90
     1153
280
     0
281
     0
  0
CLASS
  1
VISUALSTYLE
  2
AcDbVisualStyle
  3
ObjectDBX Classes
 90
     4095
280
     0
281
     0
  0
CLASS
  1
SCALE
  2
AcDbScale
  3
ObjectDBX Classes
 90
     1153
280
     0
281
     0
  0
CLASS
  1
MLEADERSTYLE
  2
AcDbMLeaderStyle
  3
ACDB_MLEADERSTYLE_CLASS
 90
     4095
280
     0
281
     0
  0
CLASS
  1
CELLSTYLEMAP
  2
AcDbCellStyleMap
  3
ObjectDBX Classes
 90
     1152
280
     0
281
     0
  0
CLASS
  1
EXACXREFPANELOBJECT
  2
ExAcXREFPanelObject
  3
EXAC_ESW
 90
    33793
280
     0
281
     0
  0
CLASS
  1
NPOCOLLECTION
  2
AcDbImpNonPersistentObjectsCollection
  3
ObjectDBX Classes
 90
    33921
280
     0
281
     0
  0
CLASS
  1
LAYER_INDEX
  2
AcDbLayerIndex
  3
ObjectDBX Classes
 90
    32768
280
     0
281
     0
  0
CLASS
  1
SPATIAL_INDEX
  2
AcDbSpatialIndex
  3
ObjectDBX Classes
 90
    32768
280
     0
281
     0
  0
CLASS
  1
IDBUFFER
  2
AcDbIdBuffer
  3
ObjectDBX Classes
 90
    32768
280
     0
281
     0
  0
CLASS
  1
ACDBSECTIONVIEWSTYLE
  2
AcDbSectionViewStyle
  3
ObjectDBX Classes
 90
     1025
280
     0
281
     0
  0
CLASS
  1
ACDBDETAILVIEWSTYLE
  2
AcDbDetailViewStyle
  3
ObjectDBX Classes
 90
     1025
280
     0
281
     0
  0
CLASS
  1
XRECORD
  2
AcDbXrecord
  3
ObjectDBX Classes
 90
        0
280
     0
281
     0
  0
ENDSEC
  0
SECTION
  2
TABLES
  0
TABLE
  2
VPORT
  5
8
102
{ACAD_XDICTIONARY
360
6002
102
}
330
0
100
AcDbSymbolTable
 70
     1
  0
VPORT
  5
EA
330
8
100
AcDbSymbolTableRecord
100
AcDbViewportTableRecord
  2
*Active
 70
     0
 10
0.0
 20
0.0
 11
1.0
 21
1.0
 12
6.540070321108373
 22
-31.48283338032525
 13
0.0
 23
0.0
 14
10.0
 24
10.0
 15
10.0
 25
10.0
 16
0.0
 26
0.0
 36
1.0
 17
0.0
 27
0.0
 37
0.0
 40
291.2702457903729
 41
0.9846153846153846
 42
50.0
 43
0.0
 44
0.0
 50
0.0
 51
0.0
 71
     0
 72
  1000
 73
     1
 74
     3
 75
     0
 76
     1
 77
     0
 78
     0
281
     0
 65
     1
110
0.0
120
0.0
130
0.0
111
1.0
121
0.0
131
0.0
112
0.0
122
1.0
132
0.0
 79
     0
146
0.0
1001
ACAD_NAV_VCDISPLAY
1070
     3
  0
ENDTAB
  0
TABLE
  2
LTYPE
  5
5
330
0
100
AcDbSymbolTable
 70
     1
  0
LTYPE
  5
14
330
5
100
AcDbSymbolTableRecord
100
AcDbLinetypeTableRecord
  2
ByBlock
 70
     0
  3

 72
    65
 73
     0
 40
0.0
  0
LTYPE
  5
15
330
5
100
AcDbSymbolTableRecord
100
AcDbLinetypeTableRecord
  2
ByLayer
 70
     0
  3

 72
    65
 73
     0
 40
0.0
  0
LTYPE
  5
16
330
5
100
AcDbSymbolTableRecord
100
AcDbLinetypeTableRecord
  2
Continuous
 70
     0
  3
Solid line
 72
    65
 73
     0
 40
0.0
  0
ENDTAB
  0
TABLE
  2
LAYER
  5
2
102
{ACAD_XDICTIONARY
360
1FF
102
}
330
0
100
AcDbSymbolTable
 70
     1
  0
LAYER
  5
10
102
{ACAD_XDICTIONARY
360
13C
102
}
330
2
100
AcDbSymbolTableRecord
100
AcDbLayerTableRecord
  2
0
 70
     0
 62
     7
  6
Continuous
370
    -3
390
F
  0
ENDTAB
  0
TABLE
  2
STYLE
  5
3
330
0
100
AcDbSymbolTable
 70
     1
  0
STYLE
  5
11
330
3
100
AcDbSymbolTableRecord
100
AcDbTextStyleTableRecord
  2
Standard
 70
     0
 40
0.0
 41
1.0
 50
0.0
 71
     0
 42
2.5
  3
arial.ttf
  4

1001
ACAD
1000
Arial
1071
       34
  0
ENDTAB
  0
TABLE
  2
VIEW
  5
6
330
0
100
AcDbSymbolTable
 70
     0
  0
ENDTAB
  0
TABLE
  2
UCS
  5
7
330
0
100
AcDbSymbolTable
 70
     0
  0
ENDTAB
  0
TABLE
  2
APPID
  5
9
330
0
100
AcDbSymbolTable
 70
     8
  0
APPID
  5
12
330
9
100
AcDbSymbolTableRecord
100
AcDbRegAppTableRecord
  2
ACAD
 70
     0
  0
APPID
  5
9E
330
9
100
AcDbSymbolTableRecord
100
AcDbRegAppTableRecord
  2
ACAD_PSEXT
 70
     0
  0
APPID
  5
133
330
9
100
AcDbSymbolTableRecord
100
AcDbRegAppTableRecord
  2
AcadAnnoPO
 70
     0
  0
APPID
  5
134
330
9
100
AcDbSymbolTableRecord
100
AcDbRegAppTableRecord
  2
AcadAnnotative
 70
     0
  0
APPID
  5
135
330
9
100
AcDbSymbolTableRecord
100
AcDbRegAppTableRecord
  2
ACAD_DSTYLE_DIMJAG
 70
     0
  0
APPID
  5
136
330
9
100
AcDbSymbolTableRecord
100
AcDbRegAppTableRecord
  2
ACAD_DSTYLE_DIMTALN
 70
     0
  0
APPID
  5
165
330
9
100
AcDbSymbolTableRecord
100
AcDbRegAppTableRecord
  2
ACAD_MLEADERVER
 70
     0
  0
APPID
  5
217
330
9
100
AcDbSymbolTableRecord
100
AcDbRegAppTableRecord
  2
ACAD_NAV_VCDISPLAY
 70
     0
  0
ENDTAB
  0
TABLE
  2
DIMSTYLE
  5
A
330
0
100
AcDbSymbolTable
 70
     1
100
AcDbDimStyleTable
 71
     0
  0
DIMSTYLE
105
27
330
A
100
AcDbSymbolTableRecord
100
AcDbDimStyleTableRecord
  2
ISO-25
 70
     0
 41
2.5
 42
0.625
 43
3.75
 44
1.25
 73
     0
 74
     0
 77
     1
 78
     8
140
2.5
141
2.5
143
0.03937007874016
147
0.625
171
     3
172
     1
271
     2
272
     2
274
     3
278
    44
283
     0
284
     8
340
11
  0
ENDTAB
  0
TABLE
  2
BLOCK_RECORD
  5
1
330
0
100
AcDbSymbolTable
 70
     7
  0
BLOCK_RECORD
  5
1F
102
{ACAD_XDICTIONARY
360
1CE
102
}
330
1
100
AcDbSymbolTableRecord
100
AcDbBlockTableRecord
  2
*Model_Space
340
22
  0
BLOCK_RECORD
  5
D2
102
{ACAD_XDICTIONARY
360
5FB5
102
}
330
1
100
AcDbSymbolTableRecord
100
AcDbBlockTableRecord
  2
*Paper_Space
340
D3
  0
BLOCK_RECORD
  5
D6
102
{ACAD_XDICTIONARY
360
5FB7
102
}
330
1
100
AcDbSymbolTableRecord
100
AcDbBlockTableRecord
  2
*Paper_Space0
340
D7
  0
BLOCK_RECORD
  5
5DB9
330
1
100
AcDbSymbolTableRecord
100
AcDbBlockTableRecord
  2
ZS35N-Front
340
0
102
{BLKREFS
331
5FAB
102
}
  0
BLOCK_RECORD
  5
5E07
330
1
100
AcDbSymbolTableRecord
100
AcDbBlockTableRecord
  2
ZS35N-Left
340
0
102
{BLKREFS
331
5FAC
102
}
  0
BLOCK_RECORD
  5
5E2E
330
1
100
AcDbSymbolTableRecord
100
AcDbBlockTableRecord
  2
ZS35N-Right
340
0
102
{BLKREFS
331
5FAD
102
}
  0
BLOCK_RECORD
  5
5E4C
330
1
100
AcDbSymbolTableRecord
100
AcDbBlockTableRecord
  2
ZS35N-Top
340
0
102
{BLKREFS
331
5FAE
102
}
  0
BLOCK_RECORD
  5
5E9A
330
1
100
AcDbSymbolTableRecord
100
AcDbBlockTableRecord
  2
ZS35N-Bottom
340
0
102
{BLKREFS
331
5FAF
102
}
  0
BLOCK_RECORD
  5
5EFF
330
1
100
AcDbSymbolTableRecord
100
AcDbBlockTableRecord
  2
ZS35N-ISO
340
0
102
{BLKREFS
331
5FB0
102
}
  0
ENDTAB
  0
ENDSEC
  0
SECTION
  2
BLOCKS
  0
BLOCK
  5
20
330
1F
100
AcDbEntity
  8
0
100
AcDbBlockBegin
  2
*Model_Space
 70
     0
 10
0.0
 20
0.0
 30
0.0
  3
*Model_Space
  1

  0
ENDBLK
  5
21
330
1F
100
AcDbEntity
  8
0
100
AcDbBlockEnd
  0
BLOCK
  5
D4
330
D2
100
AcDbEntity
 67
     1
  8
0
100
AcDbBlockBegin
  2
*Paper_Space
 70
     0
 10
0.0
 20
0.0
 30
0.0
  3
*Paper_Space
  1

  0
ENDBLK
  5
D5
330
D2
100
AcDbEntity
 67
     1
  8
0
100
AcDbBlockEnd
  0
BLOCK
  5
D8
330
D6
100
AcDbEntity
 67
     1
  8
0
100
AcDbBlockBegin
  2
*Paper_Space0
 70
     0
 10
0.0
 20
0.0
 30
0.0
  3
*Paper_Space0
  1

  0
ENDBLK
  5
D9
330
D6
100
AcDbEntity
 67
     1
  8
0
100
AcDbBlockEnd
  0
BLOCK
  5
5DBA
330
5DB9
100
AcDbEntity
  8
0
100
AcDbBlockBegin
  2
ZS35N-Front
 70
     0
 10
0.0
 20
0.0
 30
0.0
  3
ZS35N-Front
  1

  0
LINE
  5
5DBC
330
5DB9
100
AcDbEntity
  8
0
100
AcDbLine
 10
-2.776693950883855
 20
-15.809375
 30
0.0
 11
-0.6874076642538896
 21
-12.190625
 31
0.0
  0
ARC
  5
5DBD
330
5DB9
100
AcDbEntity
  8
0
100
AcDbCircle
 10
-2.089286286629961
 20
-16.20625
 30
0.0
 40
0.79375
100
AcDbArc
 50
149.9999999999999
 51
270.0
  0
LINE
  5
5DBE
330
5DB9
100
AcDbEntity
  8
0
100
AcDbLine
 10
2.089286286629965
 20
-17.00000000000001
 30
0.0
 11
-2.089286286629961
 21
-17.0
 31
0.0
  0
ARC
  5
5DBF
330
5DB9
100
AcDbEntity
  8
0
100
AcDbCircle
 10
2.089286286629965
 20
-16.20625000000001
 30
0.0
 40
0.7937499999999999
100
AcDbArc
 50
270.0
 51
29.9999999999999
  0
LINE
  5
5DC0
330
5DB9
100
AcDbEntity
  8
0
100
AcDbLine
 10
0.6874076642539074
 20
-12.190625
 30
0.0
 11
2.776693950883859
 21
-15.80937500000001
 31
0.0
  0
ARC
  5
5DC1
330
5DB9
100
AcDbEntity
  8
0
100
AcDbCircle
 10
0.0000000000000089
 20
-12.5875
 30
0.0
 40
0.7937500000000002
100
AcDbArc
 50
29.99999999999969
 51
150.0000000000001
  0
SPLINE
  5
5DC2
330
5DB9
100
AcDbEntity
  8
0
100
AcDbSpline
210
0.0
220
0.0
230
1.0
 70
     8
 71
     3
 72
    11
 73
     7
 74
     0
 42
0.000000001
 43
0.0000000001
 40
0.0000000000000495
 40
0.0000000000000495
 40
0.0000000000000495
 40
0.0000000000000495
 40
1.166126791552531
 40
1.166126791552531
 40
1.166126791552531
 40
1.570796326794895
 40
1.570796326794895
 40
1.570796326794895
 40
1.570796326794895
 10
5.057767434119475
 20
-35.9
 30
0.0
 10
5.049041936974875
 20
-35.89999999999996
 30
0.0
 10
5.040316439830274
 20
-35.45185204117425
 30
0.0
 10
5.031590942685673
 20
-34.80868701423907
 30
0.0
 10
5.028563019050061
 20
-34.58549576743862
 30
0.0
 10
5.025535095414447
 20
-34.34280172114542
 30
0.0
 10
5.022507171778833
 20
-34.1
 30
0.0
  0
LINE
  5
5DC3
330
5DB9
100
AcDbEntity
  8
0
100
AcDbLine
 10
5.057767434119475
 20
-35.9
 30
0.0
 11
5.057767434119475
 21
-35.0
 31
0.0
  0
SPLINE
  5
5DC4
330
5DB9
100
AcDbEntity
  8
0
100
AcDbSpline
210
0.0
220
0.0
230
1.0
 70
     8
 71
     3
 72
    11
 73
     7
 74
     0
 42
0.000000001
 43
0.0000000001
 40
0.0
 40
0.0
 40
0.0
 40
0.0
 40
1.386766277509508
 40
1.386766277509508
 40
1.386766277509508
 40
1.570796326794875
 40
1.570796326794875
 40
1.570796326794875
 40
1.570796326794875
 10
5.022507171778832
 20
-34.1
 30
0.0
 10
5.032883595065127
 20
-34.51602988325286
 30
0.0
 10
5.043260018351421
 20
-34.90867221041034
 30
0.0
 10
5.053636441637716
 20
-34.98480278656872
 30
0.0
 10
5.055013439131635
 20
-34.99490565242993
 30
0.0
 10
5.056390436625556
 20
-35.0
 30
0.0
 10
5.057767434119475
 20
-35.0
 30
0.0
  0
LINE
  5
5DC5
330
5DB9
100
AcDbEntity
  8
0
100
AcDbLine
 10
6.0
 20
-35.90000000000001
 30
0.0
 11
5.057767434119475
 21
-35.9
 31
0.0
  0
LINE
  5
5DC6
330
5DB9
100
AcDbEntity
  8
0
100
AcDbLine
 10
6.0
 20
-35.00000000000001
 30
0.0
 11
6.0
 21
-35.90000000000001
 31
0.0
  0
LINE
  5
5DC7
330
5DB9
100
AcDbEntity
  8
0
100
AcDbLine
 10
5.057767434119475
 20
-35.0
 30
0.0
 11
6.0
 21
-35.00000000000001
 31
0.0
  0
SPLINE
  5
5DC8
330
5DB9
100
AcDbEntity
  8
0
100
AcDbSpline
210
0.0
220
0.0
230
1.0
 70
     8
 71
     3
 72
    11
 73
     7
 74
     0
 42
0.000000001
 43
0.0000000001
 40
0.0
 40
0.0
 40
0.0
 40
0.0
 40
1.386766277509508
 40
1.386766277509508
 40
1.386766277509508
 40
1.570796326794888
 40
1.570796326794888
 40
1.570796326794888
 40
1.570796326794888
 10
-5.057767434119484
 20
-35.0
 30
0.0
 10
-5.047391010833189
 20
-35.0
 30
0.0
 10
-5.037014587546895
 20
-34.67369863157362
 30
0.0
 10
-5.0266381642606
 20
-34.26469374268697
 30
0.0
 10
-5.02526116676668
 20
-34.21041697588028
 30
0.0
 10
-5.02388416927276
 20
-34.15520901478562
 30
0.0
 10
-5.022507171778841
 20
-34.10000000000001
 30
0.0
  0
LINE
  5
5DC9
330
5DB9
100
AcDbEntity
  8
0
100
AcDbLine
 10
-5.057767434119484
 20
-35.0
 30
0.0
 11
-5.057767434119484
 21
-35.9
 31
0.0
  0
SPLINE
  5
5DCA
330
5DB9
100
AcDbEntity
  8
0
100
AcDbSpline
210
0.0
220
0.0
230
1.0
 70
     8
 71
     3
 72
    11
 73
     7
 74
     0
 42
0.000000001
 43
0.0000000001
 40
0.0
 40
0.0
 40
0.0
 40
0.0
 40
1.166126791552483
 40
1.166126791552483
 40
1.166126791552483
 40
1.570796326794888
 40
1.570796326794888
 40
1.570796326794888
 40
1.570796326794888
 10
-5.022507171778841
 20
-34.1
 30
0.0
 10
-5.031232668923442
 20
-34.79967607493149
 30
0.0
 10
-5.039958166068042
 20
-35.47914562994789
 30
0.0
 10
-5.048683663212642
 20
-35.75461860132443
 30
0.0
 10
-5.051711586848256
 20
-35.85021328288592
 30
0.0
 10
-5.05473951048387
 20
-35.9
 30
0.0
 10
-5.057767434119484
 20
-35.9
 30
0.0
  0
LINE
  5
5DCB
330
5DB9
100
AcDbEntity
  8
0
100
AcDbLine
 10
-6.0
 20
-35.00000000000003
 30
0.0
 11
-5.057767434119484
 21
-35.0
 31
0.0
  0
LINE
  5
5DCC
330
5DB9
100
AcDbEntity
  8
0
100
AcDbLine
 10
-6.0
 20
-35.90000000000003
 30
0.0
 11
-6.0
 21
-35.00000000000003
 31
0.0
  0
LINE
  5
5DCD
330
5DB9
100
AcDbEntity
  8
0
100
AcDbLine
 10
-5.057767434119484
 20
-35.9
 30
0.0
 11
-6.0
 21
-35.90000000000003
 31
0.0
  0
LINE
  5
5DCE
330
5DB9
100
AcDbEntity
  8
0
100
AcDbLine
 10
4.999040950308777
 20
-32.90207361368917
 30
0.0
 11
5.022507171778832
 21
-34.1
 31
0.0
  0
ARC
  5
5DCF
330
5DB9
100
AcDbEntity
  8
0
100
AcDbCircle
 10
-0.0000000000000089
 20
-33.0
 30
0.0
 40
5.0
100
AcDbArc
 50
1.122225479966293
 51
178.8777745200333
  0
LINE
  5
5DD0
330
5DB9
100
AcDbEntity
  8
0
100
AcDbLine
 10
-5.022507171778841
 20
-34.1
 30
0.0
 11
-4.999040950308786
 21
-32.90207361368917
 31
0.0
  0
LINE
  5
5DD1
330
5DB9
100
AcDbEntity
  8
0
100
AcDbLine
 10
19.4
 20
-34.10000000000001
 30
0.0
 11
18.5
 21
-34.10000000000001
 31
0.0
  0
LINE
  5
5DD2
330
5DB9
100
AcDbEntity
  8
0
100
AcDbLine
 10
19.4
 20
-34.1
 30
0.0
 11
19.40000000000001
 21
-8.399999999999998
 31
0.0
  0
LINE
  5
5DD3
330
5DB9
100
AcDbEntity
  8
0
100
AcDbLine
 10
18.50000000000001
 20
-8.399999999999998
 30
0.0
 11
19.40000000000001
 21
-8.399999999999998
 31
0.0
  0
LINE
  5
5DD4
330
5DB9
100
AcDbEntity
  8
0
100
AcDbLine
 10
18.50000000000001
 20
-8.399999999999998
 30
0.0
 11
18.5
 21
-34.1
 31
0.0
  0
LINE
  5
5DD5
330
5DB9
100
AcDbEntity
  8
0
100
AcDbLine
 10
23.5
 20
-34.1
 30
0.0
 11
22.6
 21
-34.1
 31
0.0
  0
LINE
  5
5DD6
330
5DB9
100
AcDbEntity
  8
0
100
AcDbLine
 10
22.59999999999999
 20
-34.1
 30
0.0
 11
22.59999999999999
 21
-35.00000000000001
 31
0.0
  0
LINE
  5
5DD7
330
5DB9
100
AcDbEntity
  8
0
100
AcDbLine
 10
23.5
 20
-35.0
 30
0.0
 11
23.5
 21
-34.1
 31
0.0
  0
LINE
  5
5DD8
330
5DB9
100
AcDbEntity
  8
0
100
AcDbLine
 10
22.6
 20
-8.399999999999998
 30
0.0
 11
22.59999999999999
 21
-34.1
 31
0.0
  0
ARC
  5
5DD9
330
5DB9
100
AcDbEntity
  8
0
100
AcDbCircle
 10
21.0
 20
-8.399999999999998
 30
0.0
 40
1.599999999999995
100
AcDbArc
 50
0.0
 51
180.0
  0
LINE
  5
5DDA
330
5DB9
100
AcDbEntity
  8
0
100
AcDbLine
 10
18.5
 20
-34.1
 30
0.0
 11
18.5
 21
-35.0
 31
0.0
  0
LINE
  5
5DDB
330
5DB9
100
AcDbEntity
  8
0
100
AcDbLine
 10
19.4
 20
-35.00000000000001
 30
0.0
 11
19.4
 21
-34.1
 31
0.0
  0
ARC
  5
5DDC
330
5DB9
100
AcDbEntity
  8
0
100
AcDbCircle
 10
21.0
 20
-8.399999999999998
 30
0.0
 40
2.499999999999995
100
AcDbArc
 50
0.0
 51
180.0
  0
LINE
  5
5DDD
330
5DB9
100
AcDbEntity
  8
0
100
AcDbLine
 10
23.5
 20
-34.1
 30
0.0
 11
23.5
 21
-8.399999999999998
 31
0.0
  0
LINE
  5
5DDE
330
5DB9
100
AcDbEntity
  8
0
100
AcDbLine
 10
23.5
 20
-8.399999999999998
 30
0.0
 11
22.6
 21
-8.399999999999998
 31
0.0
  0
LINE
  5
5DDF
330
5DB9
100
AcDbEntity
  8
0
100
AcDbLine
 10
19.4
 20
-34.1
 30
0.0
 11
22.59999999999999
 21
-34.1
 31
0.0
  0
ARC
  5
5DE0
330
5DB9
100
AcDbEntity
  8
0
100
AcDbCircle
 10
19.4
 20
-35.9
 30
0.0
 40
0.9000000000000119
100
AcDbArc
 50
180.0
 51
270.0000000000002
  0
LINE
  5
5DE1
330
5DB9
100
AcDbEntity
  8
0
100
AcDbLine
 10
22.6
 20
-36.80000000000001
 30
0.0
 11
19.4
 21
-36.80000000000001
 31
0.0
  0
ARC
  5
5DE2
330
5DB9
100
AcDbEntity
  8
0
100
AcDbCircle
 10
22.6
 20
-35.9
 30
0.0
 40
0.9000000000000031
100
AcDbArc
 50
270.0
 51
0.0
  0
LINE
  5
5DE3
330
5DB9
100
AcDbEntity
  8
0
100
AcDbLine
 10
-22.6
 20
-34.1
 30
0.0
 11
-19.4
 21
-34.1
 31
0.0
  0
LINE
  5
5DE4
330
5DB9
100
AcDbEntity
  8
0
100
AcDbLine
 10
-22.6
 20
-35.00000000000003
 30
0.0
 11
-22.6
 21
-34.1
 31
0.0
  0
LINE
  5
5DE5
330
5DB9
100
AcDbEntity
  8
0
100
AcDbLine
 10
-19.4
 20
-34.1
 30
0.0
 11
-19.4
 21
-35.00000000000003
 31
0.0
  0
ARC
  5
5DE6
330
5DB9
100
AcDbEntity
  8
0
100
AcDbCircle
 10
-22.6
 20
-35.90000000000001
 30
0.0
 40
0.9000000000000074
100
AcDbArc
 50
180.0
 51
270.0
  0
LINE
  5
5DE7
330
5DB9
100
AcDbEntity
  8
0
100
AcDbLine
 10
-18.50000000000001
 20
-35.0
 30
0.0
 11
-18.50000000000001
 21
-34.1
 31
0.0
  0
ARC
  5
5DE8
330
5DB9
100
AcDbEntity
  8
0
100
AcDbCircle
 10
-19.4
 20
-35.90000000000001
 30
0.0
 40
0.9000000000000031
100
AcDbArc
 50
270.0
 51
0.0
  0
LINE
  5
5DE9
330
5DB9
100
AcDbEntity
  8
0
100
AcDbLine
 10
-19.4
 20
-36.80000000000001
 30
0.0
 11
-22.6
 21
-36.80000000000001
 31
0.0
  0
LINE
  5
5DEA
330
5DB9
100
AcDbEntity
  8
0
100
AcDbLine
 10
-23.5
 20
-34.1
 30
0.0
 11
-22.6
 21
-34.1
 31
0.0
  0
LINE
  5
5DEB
330
5DB9
100
AcDbEntity
  8
0
100
AcDbLine
 10
-23.5
 20
-34.1
 30
0.0
 11
-23.5
 21
-35.0
 31
0.0
  0
LINE
  5
5DEC
330
5DB9
100
AcDbEntity
  8
0
100
AcDbLine
 10
-23.49999999999999
 20
-8.399999999999998
 30
0.0
 11
-22.59999999999999
 21
-8.399999999999998
 31
0.0
  0
LINE
  5
5DED
330
5DB9
100
AcDbEntity
  8
0
100
AcDbLine
 10
-23.49999999999999
 20
-8.399999999999998
 30
0.0
 11
-23.5
 21
-34.1
 31
0.0
  0
LINE
  5
5DEE
330
5DB9
100
AcDbEntity
  8
0
100
AcDbLine
 10
-22.6
 20
-34.1
 30
0.0
 11
-22.59999999999999
 21
-8.399999999999998
 31
0.0
  0
ARC
  5
5DEF
330
5DB9
100
AcDbEntity
  8
0
100
AcDbCircle
 10
-21.0
 20
-8.399999999999998
 30
0.0
 40
1.599999999999995
100
AcDbArc
 50
0.0
 51
180.0
  0
LINE
  5
5DF0
330
5DB9
100
AcDbEntity
  8
0
100
AcDbLine
 10
-18.50000000000001
 20
-8.399999999999998
 30
0.0
 11
-19.4
 21
-8.399999999999998
 31
0.0
  0
ARC
  5
5DF1
330
5DB9
100
AcDbEntity
  8
0
100
AcDbCircle
 10
-21.0
 20
-8.399999999999998
 30
0.0
 40
2.499999999999995
100
AcDbArc
 50
0.0
 51
180.0
  0
LINE
  5
5DF2
330
5DB9
100
AcDbEntity
  8
0
100
AcDbLine
 10
-19.4
 20
-8.399999999999998
 30
0.0
 11
-19.4
 21
-34.1
 31
0.0
  0
LINE
  5
5DF3
330
5DB9
100
AcDbEntity
  8
0
100
AcDbLine
 10
-18.50000000000001
 20
-34.1
 30
0.0
 11
-19.4
 21
-34.1
 31
0.0
  0
LINE
  5
5DF4
330
5DB9
100
AcDbEntity
  8
0
100
AcDbLine
 10
-18.50000000000001
 20
-34.1
 30
0.0
 11
-18.50000000000001
 21
-8.399999999999998
 31
0.0
  0
LINE
  5
5DF5
330
5DB9
100
AcDbEntity
  8
0
100
AcDbLine
 10
-18.50000000000001
 20
-34.1
 30
0.0
 11
-5.022507171778842
 21
-34.1
 31
0.0
  0
LINE
  5
5DF6
330
5DB9
100
AcDbEntity
  8
0
100
AcDbLine
 10
5.022507171778832
 20
-34.1
 30
0.0
 11
18.50000000000001
 21
-34.1
 31
0.0
  0
LINE
  5
5DF7
330
5DB9
100
AcDbEntity
  8
0
100
AcDbLine
 10
-26.0
 20
-34.1
 30
0.0
 11
-23.5
 21
-34.1
 31
0.0
  0
LINE
  5
5DF8
330
5DB9
100
AcDbEntity
  8
0
100
AcDbLine
 10
-26.0
 20
-35.0
 30
0.0
 11
-26.0
 21
-34.1
 31
0.0
  0
LINE
  5
5DF9
330
5DB9
100
AcDbEntity
  8
0
100
AcDbLine
 10
23.5
 20
-34.1
 30
0.0
 11
26.0
 21
-34.1
 31
0.0
  0
LINE
  5
5DFA
330
5DB9
100
AcDbEntity
  8
0
100
AcDbLine
 10
-26.0
 20
-0.9000000000000074
 30
0.0
 11
26.0
 21
-0.9000000000000163
 31
0.0
  0
LINE
  5
5DFB
330
5DB9
100
AcDbEntity
  8
0
100
AcDbLine
 10
-26.0
 20
0.8999999999999985
 30
0.0
 11
26.0
 21
0.8999999999999985
 31
0.0
  0
LINE
  5
5DFC
330
5DB9
100
AcDbEntity
  8
0
100
AcDbLine
 10
26.0
 20
-0.9000000000000181
 30
0.0
 11
26.0
 21
0.8999999999999939
 31
0.0
  0
LINE
  5
5DFD
330
5DB9
100
AcDbEntity
  8
0
100
AcDbLine
 10
-26.0
 20
0.8999999999999941
 30
0.0
 11
-26.0
 21
-0.900000000000009
 31
0.0
  0
LINE
  5
5DFE
330
5DB9
100
AcDbEntity
  8
0
100
AcDbLine
 10
26.0
 20
-34.1
 30
0.0
 11
26.0
 21
-35.0
 31
0.0
  0
LINE
  5
5DFF
330
5DB9
100
AcDbEntity
  8
0
100
AcDbLine
 10
-6.0
 20
-35.00000000000003
 30
0.0
 11
-26.0
 21
-35.00000000000003
 31
0.0
  0
LINE
  5
5E00
330
5DB9
100
AcDbEntity
  8
0
100
AcDbLine
 10
26.0
 20
-35.00000000000001
 30
0.0
 11
6.0
 21
-35.00000000000001
 31
0.0
  0
LINE
  5
5E01
330
5DB9
100
AcDbEntity
  8
0
100
AcDbLine
 10
-26.0
 20
-35.90000000000003
 30
0.0
 11
-26.0
 21
-35.00000000000003
 31
0.0
  0
LINE
  5
5E02
330
5DB9
100
AcDbEntity
  8
0
100
AcDbLine
 10
-26.0
 20
-35.90000000000003
 30
0.0
 11
-6.0
 21
-35.90000000000003
 31
0.0
  0
LINE
  5
5E03
330
5DB9
100
AcDbEntity
  8
0
100
AcDbLine
 10
6.0
 20
-35.90000000000001
 30
0.0
 11
26.0
 21
-35.90000000000001
 31
0.0
  0
LINE
  5
5E04
330
5DB9
100
AcDbEntity
  8
0
100
AcDbLine
 10
26.0
 20
-35.90000000000001
 30
0.0
 11
26.0
 21
-35.00000000000001
 31
0.0
  0
LINE
  5
5E05
330
5DB9
100
AcDbEntity
  8
0
100
AcDbLine
 10
26.0
 20
-0.9000000000000163
 30
0.0
 11
26.0
 21
-34.1
 31
0.0
  0
LINE
  5
5E06
330
5DB9
100
AcDbEntity
  8
0
100
AcDbLine
 10
-26.0
 20
-34.1
 30
0.0
 11
-26.0
 21
-0.9000000000000074
 31
0.0
  0
ENDBLK
  5
5DBB
330
5DB9
100
AcDbEntity
  8
0
100
AcDbBlockEnd
  0
BLOCK
  5
5E08
330
5E07
100
AcDbEntity
  8
0
100
AcDbBlockBegin
  2
ZS35N-Left
 70
     0
 10
0.0
 20
0.0
 30
0.0
  3
ZS35N-Left
  1

  0
LINE
  5
5E0A
330
5E07
100
AcDbEntity
  8
0
100
AcDbLine
 10
0.8999999999999957
 20
-34.1
 30
0.0
 11
0.0
 21
-34.1
 31
0.0
  0
ARC
  5
5E0B
330
5E07
100
AcDbEntity
  8
0
100
AcDbCircle
 10
2.699999999999995
 20
-34.1
 30
0.0
 40
2.699999999999999
100
AcDbArc
 50
180.0
 51
270.0
  0
LINE
  5
5E0C
330
5E07
100
AcDbEntity
  8
0
100
AcDbLine
 10
2.699999999999987
 20
-35.9
 30
0.0
 11
2.699999999999987
 21
-36.8
 31
0.0
  0
LINE
  5
5E0D
330
5E07
100
AcDbEntity
  8
0
100
AcDbLine
 10
0.0
 20
-8.399999999999998
 30
0.0
 11
0.0
 21
-34.1
 31
0.0
  0
LINE
  5
5E0E
330
5E07
100
AcDbEntity
  8
0
100
AcDbLine
 10
0.0
 20
-8.399999999999998
 30
0.0
 11
0.0
 21
-6.800000000000004
 31
0.0
  0
LINE
  5
5E0F
330
5E07
100
AcDbEntity
  8
0
100
AcDbLine
 10
2.699999999999993
 20
-36.80000000000001
 30
0.0
 11
18.3
 21
-36.80000000000001
 31
0.0
  0
LINE
  5
5E10
330
5E07
100
AcDbEntity
  8
0
100
AcDbLine
 10
18.3
 20
-36.80000000000001
 30
0.0
 11
18.3
 21
-35.90000000000002
 31
0.0
  0
LINE
  5
5E11
330
5E07
100
AcDbEntity
  8
0
100
AcDbLine
 10
19.9
 20
-36.80000000000001
 30
0.0
 11
18.3
 21
-36.80000000000001
 31
0.0
  0
LINE
  5
5E12
330
5E07
100
AcDbEntity
  8
0
100
AcDbLine
 10
0.0
 20
-8.399999999999998
 30
0.0
 11
0.8999999999999898
 21
-8.399999999999998
 31
0.0
  0
ARC
  5
5E13
330
5E07
100
AcDbEntity
  8
0
100
AcDbCircle
 10
19.9
 20
-35.90000000000001
 30
0.0
 40
0.9000000000000001
100
AcDbArc
 50
269.9999999999998
 51
0.0
  0
ARC
  5
5E14
330
5E07
100
AcDbEntity
  8
0
100
AcDbCircle
 10
0.8999999999999861
 20
-6.800000000000004
 30
0.0
 40
0.9000000000000001
100
AcDbArc
 50
90.00000000000003
 51
180.0
  0
LINE
  5
5E15
330
5E07
100
AcDbEntity
  8
0
100
AcDbLine
 10
0.8999999999999952
 20
-34.1
 30
0.0
 11
0.9000000000000007
 21
-0.9000000000000163
 31
0.0
  0
LINE
  5
5E16
330
5E07
100
AcDbEntity
  8
0
100
AcDbLine
 10
50.8
 20
-35.00000000000003
 30
0.0
 11
2.699999999999995
 21
-35.0
 31
0.0
  0
LINE
  5
5E17
330
5E07
100
AcDbEntity
  8
0
100
AcDbLine
 10
50.8
 20
-35.90000000000003
 30
0.0
 11
50.8
 21
-35.00000000000003
 31
0.0
  0
LINE
  5
5E18
330
5E07
100
AcDbEntity
  8
0
100
AcDbLine
 10
50.8
 20
-35.90000000000003
 30
0.0
 11
2.699999999999995
 21
-35.9
 31
0.0
  0
LINE
  5
5E19
330
5E07
100
AcDbEntity
  8
0
100
AcDbLine
 10
1.799999999999996
 20
-34.1
 30
0.0
 11
1.800000000000002
 21
-0.9000000000000074
 31
0.0
  0
LINE
  5
5E1A
330
5E07
100
AcDbEntity
  8
0
100
AcDbLine
 10
0.0
 20
0.8999999999999985
 30
0.0
 11
-6.999999999999996
 21
0.9000000000000252
 31
0.0
  0
LINE
  5
5E1B
330
5E07
100
AcDbEntity
  8
0
100
AcDbLine
 10
0.0
 20
0.0
 30
0.0
 11
-6.999999999999997
 21
0.0
 31
0.0
  0
ARC
  5
5E1C
330
5E07
100
AcDbEntity
  8
0
100
AcDbCircle
 10
2.699999999999995
 20
-34.1
 30
0.0
 40
0.8999999999999982
100
AcDbArc
 50
180.0
 51
269.9999999999999
  0
ARC
  5
5E1D
330
5E07
100
AcDbEntity
  8
0
100
AcDbCircle
 10
2.699999999999995
 20
-34.1
 30
0.0
 40
1.799999999999999
100
AcDbArc
 50
180.0
 51
269.9999999999999
  0
LINE
  5
5E1E
330
5E07
100
AcDbEntity
  8
0
100
AcDbLine
 10
0.0
 20
0.0
 30
0.0
 11
0.0
 21
0.8999999999999985
 31
0.0
  0
ARC
  5
5E1F
330
5E07
100
AcDbEntity
  8
0
100
AcDbCircle
 10
0.0000000000000011
 20
-0.9000000000000074
 30
0.0
 40
0.9
100
AcDbArc
 50
0.0
 51
90.00000000000007
  0
LINE
  5
5E20
330
5E07
100
AcDbEntity
  8
0
100
AcDbLine
 10
0.9000000000000007
 20
-0.9000000000000163
 30
0.0
 11
1.800000000000002
 21
-0.9000000000000074
 31
0.0
  0
LINE
  5
5E21
330
5E07
100
AcDbEntity
  8
0
100
AcDbLine
 10
0.8999999999999952
 20
-34.1
 30
0.0
 11
1.799999999999996
 21
-34.1
 31
0.0
  0
ARC
  5
5E22
330
5E07
100
AcDbEntity
  8
0
100
AcDbCircle
 10
0.0000000000000011
 20
-0.9000000000000074
 30
0.0
 40
1.800000000000001
100
AcDbArc
 50
0.0
 51
89.9999999999996
  0
LINE
  5
5E23
330
5E07
100
AcDbEntity
  8
0
100
AcDbLine
 10
2.699999999999993
 20
-35.9
 30
0.0
 11
2.699999999999993
 21
-35.0
 31
0.0
  0
LINE
  5
5E24
330
5E07
100
AcDbEntity
  8
0
100
AcDbLine
 10
-11.49702733935563
 20
0.0
 30
0.0
 11
-26.35247721720365
 21
0.0
 31
0.0
  0
LINE
  5
5E25
330
5E07
100
AcDbEntity
  8
0
100
AcDbLine
 10
-11.49702733935563
 20
0.9000000000000385
 30
0.0
 11
-11.49702733935563
 21
0.0
 31
0.0
  0
LINE
  5
5E26
330
5E07
100
AcDbEntity
  8
0
100
AcDbLine
 10
-26.35247721720363
 20
0.9000000000000785
 30
0.0
 11
-11.49702733935563
 21
0.9000000000000385
 31
0.0
  0
LINE
  5
5E27
330
5E07
100
AcDbEntity
  8
0
100
AcDbLine
 10
-26.35247721720363
 20
0.9000000000000785
 30
0.0
 11
-26.35247721720365
 21
0.0
 31
0.0
  0
LINE
  5
5E28
330
5E07
100
AcDbEntity
  8
0
100
AcDbLine
 10
-30.1
 20
0.0
 30
0.0
 11
-26.35247721720365
 21
0.0
 31
0.0
  0
LINE
  5
5E29
330
5E07
100
AcDbEntity
  8
0
100
AcDbLine
 10
-26.35247721720363
 20
0.9000000000000818
 30
0.0
 11
-30.1
 21
0.9000000000000923
 31
0.0
  0
LINE
  5
5E2A
330
5E07
100
AcDbEntity
  8
0
100
AcDbLine
 10
-6.999999999999996
 20
0.9000000000000252
 30
0.0
 11
-6.999999999999997
 21
0.0
 31
0.0
  0
LINE
  5
5E2B
330
5E07
100
AcDbEntity
  8
0
100
AcDbLine
 10
-7.00000000000001
 20
0.0
 30
0.0
 11
-11.49702733935563
 21
0.0
 31
0.0
  0
LINE
  5
5E2C
330
5E07
100
AcDbEntity
  8
0
100
AcDbLine
 10
-11.49702733935563
 20
0.9000000000000387
 30
0.0
 11
-6.999999999999992
 21
0.9000000000000262
 31
0.0
  0
LINE
  5
5E2D
330
5E07
100
AcDbEntity
  8
0
100
AcDbLine
 10
-30.1
 20
0.9000000000000923
 30
0.0
 11
-30.1
 21
0.0
 31
0.0
  0
ENDBLK
  5
5E09
330
5E07
100
AcDbEntity
  8
0
100
AcDbBlockEnd
  0
BLOCK
  5
5E2F
330
5E2E
100
AcDbEntity
  8
0
100
AcDbBlockBegin
  2
ZS35N-Right
 70
     0
 10
0.0
 20
0.0
 30
0.0
  3
ZS35N-Right
  1

  0
ARC
  5
5E31
330
5E2E
100
AcDbEntity
  8
0
100
AcDbCircle
 10
-2.699999999999994
 20
-34.1
 30
0.0
 40
2.699999999999999
100
AcDbArc
 50
270.0000000000001
 51
0.0
  0
LINE
  5
5E32
330
5E2E
100
AcDbEntity
  8
0
100
AcDbLine
 10
0.0
 20
-34.1
 30
0.0
 11
-0.8999999999999953
 21
-34.1
 31
0.0
  0
LINE
  5
5E33
330
5E2E
100
AcDbEntity
  8
0
100
AcDbLine
 10
-2.699999999999994
 20
-36.8
 30
0.0
 11
-2.699999999999996
 21
-35.9
 31
0.0
  0
LINE
  5
5E34
330
5E2E
100
AcDbEntity
  8
0
100
AcDbLine
 10
-18.30000000000001
 20
-36.80000000000001
 30
0.0
 11
-2.699999999999993
 21
-36.80000000000001
 31
0.0
  0
LINE
  5
5E35
330
5E2E
100
AcDbEntity
  8
0
100
AcDbLine
 10
-18.30000000000001
 20
-36.80000000000001
 30
0.0
 11
-19.9
 21
-36.80000000000001
 31
0.0
  0
LINE
  5
5E36
330
5E2E
100
AcDbEntity
  8
0
100
AcDbLine
 10
-18.30000000000001
 20
-35.90000000000001
 30
0.0
 11
-18.30000000000001
 21
-36.80000000000001
 31
0.0
  0
LINE
  5
5E37
330
5E2E
100
AcDbEntity
  8
0
100
AcDbLine
 10
0.0
 20
-8.399999999999998
 30
0.0
 11
-0.8999999999999896
 21
-8.399999999999998
 31
0.0
  0
LINE
  5
5E38
330
5E2E
100
AcDbEntity
  8
0
100
AcDbLine
 10
0.0
 20
-6.800000000000004
 30
0.0
 11
0.0
 21
-8.399999999999998
 31
0.0
  0
LINE
  5
5E39
330
5E2E
100
AcDbEntity
  8
0
100
AcDbLine
 10
0.0
 20
-34.1
 30
0.0
 11
0.0
 21
-8.399999999999998
 31
0.0
  0
ARC
  5
5E3A
330
5E2E
100
AcDbEntity
  8
0
100
AcDbCircle
 10
-19.9
 20
-35.9
 30
0.0
 40
0.9000000000000001
100
AcDbArc
 50
180.0
 51
270.0
  0
ARC
  5
5E3B
330
5E2E
100
AcDbEntity
  8
0
100
AcDbCircle
 10
-0.8999999999999861
 20
-6.800000000000004
 30
0.0
 40
0.9000000000000001
100
AcDbArc
 50
0.0
 51
90.00000000000005
  0
LINE
  5
5E3C
330
5E2E
100
AcDbEntity
  8
0
100
AcDbLine
 10
-0.8999999999999952
 20
-34.1
 30
0.0
 11
-0.9000000000000007
 21
-0.9000000000000163
 31
0.0
  0
LINE
  5
5E3D
330
5E2E
100
AcDbEntity
  8
0
100
AcDbLine
 10
-2.699999999999993
 20
-35.0
 30
0.0
 11
-50.8
 21
-35.00000000000001
 31
0.0
  0
LINE
  5
5E3E
330
5E2E
100
AcDbEntity
  8
0
100
AcDbLine
 10
-50.8
 20
-35.90000000000001
 30
0.0
 11
-50.8
 21
-35.00000000000001
 31
0.0
  0
LINE
  5
5E3F
330
5E2E
100
AcDbEntity
  8
0
100
AcDbLine
 10
-1.800000000000001
 20
-0.9000000000000163
 30
0.0
 11
-1.799999999999995
 21
-34.1
 31
0.0
  0
LINE
  5
5E40
330
5E2E
100
AcDbEntity
  8
0
100
AcDbLine
 10
-50.8
 20
-35.90000000000001
 30
0.0
 11
-2.699999999999995
 21
-35.9
 31
0.0
  0
LINE
  5
5E41
330
5E2E
100
AcDbEntity
  8
0
100
AcDbLine
 10
30.1
 20
0.9000000000000873
 30
0.0
 11
0.0
 21
0.8999999999999985
 31
0.0
  0
LINE
  5
5E42
330
5E2E
100
AcDbEntity
  8
0
100
AcDbLine
 10
0.0
 20
0.0
 30
0.0
 11
30.1
 21
0.0
 31
0.0
  0
LINE
  5
5E43
330
5E2E
100
AcDbEntity
  8
0
100
AcDbLine
 10
30.1
 20
0.0
 30
0.0
 11
30.1
 21
0.9000000000000873
 31
0.0
  0
ARC
  5
5E44
330
5E2E
100
AcDbEntity
  8
0
100
AcDbCircle
 10
-2.699999999999994
 20
-34.1
 30
0.0
 40
1.799999999999999
100
AcDbArc
 50
270.0
 51
0.0
  0
ARC
  5
5E45
330
5E2E
100
AcDbEntity
  8
0
100
AcDbCircle
 10
-0.0000000000000011
 20
-0.9000000000000074
 30
0.0
 40
0.9000000000000001
100
AcDbArc
 50
89.99999999999994
 51
180.0
  0
LINE
  5
5E46
330
5E2E
100
AcDbEntity
  8
0
100
AcDbLine
 10
0.0
 20
0.8999999999999985
 30
0.0
 11
0.0
 21
0.0
 31
0.0
  0
ARC
  5
5E47
330
5E2E
100
AcDbEntity
  8
0
100
AcDbCircle
 10
-0.0000000000000011
 20
-0.9000000000000074
 30
0.0
 40
1.800000000000001
100
AcDbArc
 50
89.99999999999984
 51
180.0
  0
LINE
  5
5E48
330
5E2E
100
AcDbEntity
  8
0
100
AcDbLine
 10
-1.800000000000001
 20
-0.9000000000000163
 30
0.0
 11
-0.9000000000000007
 21
-0.9000000000000163
 31
0.0
  0
LINE
  5
5E49
330
5E2E
100
AcDbEntity
  8
0
100
AcDbLine
 10
-1.799999999999995
 20
-34.1
 30
0.0
 11
-0.8999999999999952
 21
-34.1
 31
0.0
  0
ARC
  5
5E4A
330
5E2E
100
AcDbEntity
  8
0
100
AcDbCircle
 10
-2.699999999999994
 20
-34.1
 30
0.0
 40
0.8999999999999996
100
AcDbArc
 50
270.0000000000001
 51
0.0
  0
LINE
  5
5E4B
330
5E2E
100
AcDbEntity
  8
0
100
AcDbLine
 10
-2.699999999999993
 20
-35.0
 30
0.0
 11
-2.699999999999993
 21
-35.9
 31
0.0
  0
ENDBLK
  5
5E30
330
5E2E
100
AcDbEntity
  8
0
100
AcDbBlockEnd
  0
BLOCK
  5
5E4D
330
5E4C
100
AcDbEntity
  8
0
100
AcDbBlockBegin
  2
ZS35N-Top
 70
     0
 10
0.0
 20
0.0
 30
0.0
  3
ZS35N-Top
  1

  0
CIRCLE
  5
5E4F
330
5E4C
100
AcDbEntity
  8
0
100
AcDbCircle
 10
21.0
 20
25.09999999999995
 30
0.0
 40
2.0
  0
CIRCLE
  5
5E50
330
5E4C
100
AcDbEntity
  8
0
100
AcDbCircle
 10
-7.000000000000001
 20
25.09999999999995
 30
0.0
 40
2.0
  0
ARC
  5
5E51
330
5E4C
100
AcDbEntity
  8
0
100
AcDbCircle
 10
-9.08928628662996
 20
15.68749999999994
 30
0.0
 40
0.7937499999999976
100
AcDbArc
 50
150.0
 51
270.0
  0
LINE
  5
5E52
330
5E4C
100
AcDbEntity
  8
0
100
AcDbLine
 10
-4.910713713370038
 20
14.89374999999994
 30
0.0
 11
-9.08928628662996
 21
14.89374999999994
 31
0.0
  0
ARC
  5
5E53
330
5E4C
100
AcDbEntity
  8
0
100
AcDbCircle
 10
-4.910713713370038
 20
15.68749999999994
 30
0.0
 40
0.7937500000000002
100
AcDbArc
 50
270.0
 51
30.00000000000005
  0
LINE
  5
5E54
330
5E4C
100
AcDbEntity
  8
0
100
AcDbLine
 10
-6.312592335746106
 20
19.70312499999995
 30
0.0
 11
-4.223306049116141
 21
16.08437499999994
 31
0.0
  0
ARC
  5
5E55
330
5E4C
100
AcDbEntity
  8
0
100
AcDbCircle
 10
-7.000000000000001
 20
19.30624999999995
 30
0.0
 40
0.7937500000000002
100
AcDbArc
 50
30.00000000000005
 51
149.9999999999999
  0
LINE
  5
5E56
330
5E4C
100
AcDbEntity
  8
0
100
AcDbLine
 10
-9.776693950883858
 20
16.08437499999994
 30
0.0
 11
-7.687407664253896
 21
19.70312499999995
 31
0.0
  0
SPLINE
  5
5E57
330
5E4C
100
AcDbEntity
  8
0
100
AcDbSpline
210
0.0
220
0.0
230
1.0
 70
     8
 71
     3
 72
    11
 73
     7
 74
     0
 42
0.000000001
 43
0.0000000001
 40
0.0
 40
0.0
 40
0.0
 40
0.0
 40
1.386766277509508
 40
1.386766277509508
 40
1.386766277509508
 40
1.570796326794875
 40
1.570796326794875
 40
1.570796326794875
 40
1.570796326794875
 10
5.022507171778832
 20
-1.799999999999995
 30
0.0
 10
5.032883595065127
 20
-1.799999999999996
 30
0.0
 10
5.043260018351421
 20
-2.126301368426377
 30
0.0
 10
5.053636441637716
 20
-2.53530625731302
 30
0.0
 10
5.055013439131635
 20
-2.58958302411971
 30
0.0
 10
5.056390436625556
 20
-2.644790985214366
 30
0.0
 10
5.057767434119475
 20
-2.699999999999976
 30
0.0
  0
LINE
  5
5E58
330
5E4C
100
AcDbEntity
  8
0
100
AcDbLine
 10
5.057767434119475
 20
-2.699999999999993
 30
0.0
 11
6.0
 21
-50.8
 31
0.0
  0
SPLINE
  5
5E59
330
5E4C
100
AcDbEntity
  8
0
100
AcDbSpline
210
0.0
220
0.0
230
1.0
 70
     8
 71
     3
 72
    11
 73
     7
 74
     0
 42
0.000000001
 43
0.0000000001
 40
0.0
 40
0.0
 40
0.0
 40
0.0
 40
1.386766277509508
 40
1.386766277509508
 40
1.386766277509508
 40
1.570796326794888
 40
1.570796326794888
 40
1.570796326794888
 40
1.570796326794888
 10
-5.057767434119484
 20
-2.699999999999993
 30
0.0
 10
-5.047391010833189
 20
-2.28397011674714
 30
0.0
 10
-5.037014587546895
 20
-1.891327789589658
 30
0.0
 10
-5.0266381642606
 20
-1.815197213431284
 30
0.0
 10
-5.02526116676668
 20
-1.805094347570058
 30
0.0
 10
-5.02388416927276
 20
-1.799999999999996
 30
0.0
 10
-5.022507171778841
 20
-1.799999999999996
 30
0.0
  0
LINE
  5
5E5A
330
5E4C
100
AcDbEntity
  8
0
100
AcDbLine
 10
-6.0
 20
-50.8
 30
0.0
 11
-5.057767434119484
 21
-2.699999999999995
 31
0.0
  0
LINE
  5
5E5B
330
5E4C
100
AcDbEntity
  8
0
100
AcDbLine
 10
22.59999999999999
 20
-1.800000000000001
 30
0.0
 11
22.59999999999999
 21
-2.699999999999993
 31
0.0
  0
LINE
  5
5E5C
330
5E4C
100
AcDbEntity
  8
0
100
AcDbLine
 10
23.5
 20
-2.699999999999999
 30
0.0
 11
22.6
 21
-2.699999999999997
 31
0.0
  0
LINE
  5
5E5D
330
5E4C
100
AcDbEntity
  8
0
100
AcDbLine
 10
23.5
 20
-2.699999999999993
 30
0.0
 11
23.5
 21
-1.799999999999995
 31
0.0
  0
LINE
  5
5E5E
330
5E4C
100
AcDbEntity
  8
0
100
AcDbLine
 10
18.5
 20
-1.799999999999995
 30
0.0
 11
18.5
 21
-2.699999999999993
 31
0.0
  0
LINE
  5
5E5F
330
5E4C
100
AcDbEntity
  8
0
100
AcDbLine
 10
19.4
 20
-2.700000000000002
 30
0.0
 11
18.5
 21
-2.700000000000002
 31
0.0
  0
LINE
  5
5E60
330
5E4C
100
AcDbEntity
  8
0
100
AcDbLine
 10
19.4
 20
-2.699999999999993
 30
0.0
 11
19.4
 21
-1.800000000000001
 31
0.0
  0
LINE
  5
5E61
330
5E4C
100
AcDbEntity
  8
0
100
AcDbLine
 10
22.59999999999999
 20
-2.699999999999993
 30
0.0
 11
22.59999999999999
 21
-18.30000000000001
 31
0.0
  0
LINE
  5
5E62
330
5E4C
100
AcDbEntity
  8
0
100
AcDbLine
 10
23.5
 20
-18.30000000000001
 30
0.0
 11
22.59999999999999
 21
-18.30000000000001
 31
0.0
  0
LINE
  5
5E63
330
5E4C
100
AcDbEntity
  8
0
100
AcDbLine
 10
23.5
 20
-18.30000000000001
 30
0.0
 11
23.5
 21
-2.699999999999993
 31
0.0
  0
ARC
  5
5E64
330
5E4C
100
AcDbEntity
  8
0
100
AcDbCircle
 10
21.0
 20
-18.30000000000001
 30
0.0
 40
2.499999999999995
100
AcDbArc
 50
180.0
 51
0.0
  0
LINE
  5
5E65
330
5E4C
100
AcDbEntity
  8
0
100
AcDbLine
 10
18.5
 20
-2.699999999999993
 30
0.0
 11
18.50000000000001
 21
-18.30000000000001
 31
0.0
  0
LINE
  5
5E66
330
5E4C
100
AcDbEntity
  8
0
100
AcDbLine
 10
18.50000000000001
 20
-18.30000000000001
 30
0.0
 11
19.39999999999999
 21
-18.30000000000001
 31
0.0
  0
LINE
  5
5E67
330
5E4C
100
AcDbEntity
  8
0
100
AcDbLine
 10
19.39999999999999
 20
-18.30000000000001
 30
0.0
 11
19.4
 21
-2.699999999999993
 31
0.0
  0
ARC
  5
5E68
330
5E4C
100
AcDbEntity
  8
0
100
AcDbCircle
 10
21.0
 20
-18.30000000000001
 30
0.0
 40
1.599999999999995
100
AcDbArc
 50
180.0
 51
0.0
  0
LINE
  5
5E69
330
5E4C
100
AcDbEntity
  8
0
100
AcDbLine
 10
19.4
 20
-2.699999999999993
 30
0.0
 11
22.59999999999999
 21
-2.699999999999993
 31
0.0
  0
LINE
  5
5E6A
330
5E4C
100
AcDbEntity
  8
0
100
AcDbLine
 10
-22.6
 20
-2.699999999999993
 30
0.0
 11
-22.6
 21
-1.800000000000002
 31
0.0
  0
LINE
  5
5E6B
330
5E4C
100
AcDbEntity
  8
0
100
AcDbLine
 10
-22.6
 20
-2.699999999999993
 30
0.0
 11
-19.4
 21
-2.699999999999993
 31
0.0
  0
LINE
  5
5E6C
330
5E4C
100
AcDbEntity
  8
0
100
AcDbLine
 10
-19.4
 20
-1.800000000000002
 30
0.0
 11
-19.4
 21
-2.699999999999993
 31
0.0
  0
LINE
  5
5E6D
330
5E4C
100
AcDbEntity
  8
0
100
AcDbLine
 10
-22.60000000000001
 20
-18.30000000000001
 30
0.0
 11
-22.6
 21
-2.699999999999993
 31
0.0
  0
ARC
  5
5E6E
330
5E4C
100
AcDbEntity
  8
0
100
AcDbCircle
 10
-21.0
 20
-18.30000000000001
 30
0.0
 40
1.599999999999995
100
AcDbArc
 50
180.0
 51
0.0
  0
LINE
  5
5E6F
330
5E4C
100
AcDbEntity
  8
0
100
AcDbLine
 10
-19.4
 20
-2.699999999999993
 30
0.0
 11
-19.40000000000001
 21
-18.30000000000001
 31
0.0
  0
LINE
  5
5E70
330
5E4C
100
AcDbEntity
  8
0
100
AcDbLine
 10
-18.50000000000001
 20
-2.699999999999993
 30
0.0
 11
-18.50000000000001
 21
-1.799999999999996
 31
0.0
  0
LINE
  5
5E71
330
5E4C
100
AcDbEntity
  8
0
100
AcDbLine
 10
-18.50000000000001
 20
-18.30000000000001
 30
0.0
 11
-18.50000000000001
 21
-2.699999999999993
 31
0.0
  0
ARC
  5
5E72
330
5E4C
100
AcDbEntity
  8
0
100
AcDbCircle
 10
-21.0
 20
-18.30000000000001
 30
0.0
 40
2.499999999999995
100
AcDbArc
 50
180.0
 51
0.0
  0
LINE
  5
5E73
330
5E4C
100
AcDbEntity
  8
0
100
AcDbLine
 10
-23.5
 20
-2.699999999999993
 30
0.0
 11
-23.5
 21
-18.30000000000001
 31
0.0
  0
LINE
  5
5E74
330
5E4C
100
AcDbEntity
  8
0
100
AcDbLine
 10
-22.6
 20
-2.699999999999993
 30
0.0
 11
-23.5
 21
-2.699999999999993
 31
0.0
  0
LINE
  5
5E75
330
5E4C
100
AcDbEntity
  8
0
100
AcDbLine
 10
-23.5
 20
-1.799999999999996
 30
0.0
 11
-23.5
 21
-2.699999999999994
 31
0.0
  0
LINE
  5
5E76
330
5E4C
100
AcDbEntity
  8
0
100
AcDbLine
 10
-18.50000000000001
 20
-2.699999999999993
 30
0.0
 11
-19.4
 21
-2.699999999999993
 31
0.0
  0
LINE
  5
5E77
330
5E4C
100
AcDbEntity
  8
0
100
AcDbLine
 10
-18.50000000000001
 20
-18.30000000000001
 30
0.0
 11
-19.40000000000001
 21
-18.30000000000001
 31
0.0
  0
LINE
  5
5E78
330
5E4C
100
AcDbEntity
  8
0
100
AcDbLine
 10
-23.5
 20
-18.30000000000001
 30
0.0
 11
-22.60000000000001
 21
-18.30000000000001
 31
0.0
  0
LINE
  5
5E79
330
5E4C
100
AcDbEntity
  8
0
100
AcDbLine
 10
-18.50000000000001
 20
-2.699999999999993
 30
0.0
 11
-5.057767434119484
 21
-2.699999999999993
 31
0.0
  0
LINE
  5
5E7A
330
5E4C
100
AcDbEntity
  8
0
100
AcDbLine
 10
5.057767434119475
 20
-2.699999999999993
 30
0.0
 11
18.5
 21
-2.699999999999993
 31
0.0
  0
LINE
  5
5E7B
330
5E4C
100
AcDbEntity
  8
0
100
AcDbLine
 10
-26.0
 20
-2.699999999999993
 30
0.0
 11
-23.5
 21
-2.699999999999993
 31
0.0
  0
LINE
  5
5E7C
330
5E4C
100
AcDbEntity
  8
0
100
AcDbLine
 10
23.5
 20
-2.699999999999993
 30
0.0
 11
26.0
 21
-2.699999999999993
 31
0.0
  0
LINE
  5
5E7D
330
5E4C
100
AcDbEntity
  8
0
100
AcDbLine
 10
-26.0
 20
-2.699999999999993
 30
0.0
 11
-26.0
 21
-1.799999999999997
 31
0.0
  0
LINE
  5
5E7E
330
5E4C
100
AcDbEntity
  8
0
100
AcDbLine
 10
-26.0
 20
-1.800000000000002
 30
0.0
 11
26.0
 21
-1.800000000000001
 31
0.0
  0
LINE
  5
5E7F
330
5E4C
100
AcDbEntity
  8
0
100
AcDbLine
 10
-26.0
 20
0.0
 30
0.0
 11
26.0
 21
0.0
 31
0.0
  0
LINE
  5
5E80
330
5E4C
100
AcDbEntity
  8
0
100
AcDbLine
 10
26.0
 20
-1.800000000000002
 30
0.0
 11
26.0
 21
0.0
 31
0.0
  0
LINE
  5
5E81
330
5E4C
100
AcDbEntity
  8
0
100
AcDbLine
 10
-26.0
 20
0.0
 30
0.0
 11
-26.0
 21
-1.800000000000002
 31
0.0
  0
LINE
  5
5E82
330
5E4C
100
AcDbEntity
  8
0
100
AcDbLine
 10
26.0
 20
-1.799999999999994
 30
0.0
 11
26.0
 21
-2.699999999999993
 31
0.0
  0
LINE
  5
5E83
330
5E4C
100
AcDbEntity
  8
0
100
AcDbLine
 10
-26.0
 20
-50.8
 30
0.0
 11
-26.0
 21
-2.699999999999995
 31
0.0
  0
LINE
  5
5E84
330
5E4C
100
AcDbEntity
  8
0
100
AcDbLine
 10
-6.0
 20
-50.8
 30
0.0
 11
-26.0
 21
-50.8
 31
0.0
  0
LINE
  5
5E85
330
5E4C
100
AcDbEntity
  8
0
100
AcDbLine
 10
26.0
 20
-50.8
 30
0.0
 11
6.0
 21
-50.8
 31
0.0
  0
LINE
  5
5E86
330
5E4C
100
AcDbEntity
  8
0
100
AcDbLine
 10
26.0
 20
-2.699999999999993
 30
0.0
 11
26.0
 21
-50.8
 31
0.0
  0
LINE
  5
5E87
330
5E4C
100
AcDbEntity
  8
0
100
AcDbLine
 10
-26.0
 20
0.0
 30
0.0
 11
-26.0
 21
6.999999999999996
 31
0.0
  0
LINE
  5
5E88
330
5E4C
100
AcDbEntity
  8
0
100
AcDbLine
 10
26.0
 20
30.1
 30
0.0
 11
26.0
 21
0.0
 31
0.0
  0
LINE
  5
5E89
330
5E4C
100
AcDbEntity
  8
0
100
AcDbLine
 10
21.0
 20
30.1
 30
0.0
 11
26.0
 21
30.1
 31
0.0
  0
ARC
  5
5E8A
330
5E4C
100
AcDbEntity
  8
0
100
AcDbCircle
 10
-15.0
 20
-44.8
 30
0.0
 40
2.0
100
AcDbArc
 50
90.0
 51
270.0
  0
LINE
  5
5E8B
330
5E4C
100
AcDbEntity
  8
0
100
AcDbLine
 10
-15.0
 20
-42.8
 30
0.0
 11
-12.99999999999998
 21
-42.8
 31
0.0
  0
ARC
  5
5E8C
330
5E4C
100
AcDbEntity
  8
0
100
AcDbCircle
 10
-12.99999999999998
 20
-44.8
 30
0.0
 40
2.0
100
AcDbArc
 50
270.0
 51
90.0
  0
LINE
  5
5E8D
330
5E4C
100
AcDbEntity
  8
0
100
AcDbLine
 10
-12.99999999999998
 20
-46.79999999999999
 30
0.0
 11
-15.0
 21
-46.79999999999999
 31
0.0
  0
ARC
  5
5E8E
330
5E4C
100
AcDbEntity
  8
0
100
AcDbCircle
 10
15.0
 20
-44.8
 30
0.0
 40
2.0
100
AcDbArc
 50
270.0
 51
90.0
  0
LINE
  5
5E8F
330
5E4C
100
AcDbEntity
  8
0
100
AcDbLine
 10
15.0
 20
-46.79999999999999
 30
0.0
 11
12.99999999999997
 21
-46.79999999999999
 31
0.0
  0
ARC
  5
5E90
330
5E4C
100
AcDbEntity
  8
0
100
AcDbCircle
 10
12.99999999999997
 20
-44.8
 30
0.0
 40
1.999999999999999
100
AcDbArc
 50
90.0
 51
270.0
  0
LINE
  5
5E91
330
5E4C
100
AcDbEntity
  8
0
100
AcDbLine
 10
12.99999999999997
 20
-42.8
 30
0.0
 11
15.0
 21
-42.8
 31
0.0
  0
LINE
  5
5E92
330
5E4C
100
AcDbEntity
  8
0
100
AcDbLine
 10
15.14183551919429
 20
25.39688431088754
 30
0.0
 11
11.78180373400476
 21
10.21926307426037
 31
0.0
  0
ARC
  5
5E93
330
5E4C
100
AcDbEntity
  8
0
100
AcDbCircle
 10
21.0
 20
24.1
 30
0.0
 40
6.0
100
AcDbArc
 50
90.0
 51
167.5171494310722
  0
LINE
  5
5E94
330
5E4C
100
AcDbEntity
  8
0
100
AcDbLine
 10
-11.84058889190002
 20
26.35247721720363
 30
0.0
 11
-15.68435933777483
 21
11.49702733935563
 31
0.0
  0
ARC
  5
5E95
330
5E4C
100
AcDbEntity
  8
0
100
AcDbCircle
 10
-7.000000000000006
 20
25.1
 30
0.0
 40
5.0
100
AcDbArc
 50
14.5068319038824
 51
165.4931680961176
  0
LINE
  5
5E96
330
5E4C
100
AcDbEntity
  8
0
100
AcDbLine
 10
2.059411108099982
 20
10.04752278279636
 30
0.0
 11
-2.159411108099988
 21
26.35247721720363
 31
0.0
  0
ARC
  5
5E97
330
5E4C
100
AcDbEntity
  8
0
100
AcDbCircle
 10
6.899999999999999
 20
11.29999999999999
 30
0.0
 40
5.0
100
AcDbArc
 50
194.5068319038824
 51
347.5171494310722
  0
LINE
  5
5E98
330
5E4C
100
AcDbEntity
  8
0
100
AcDbLine
 10
-21.49306600805486
 20
6.999999999999996
 30
0.0
 11
-26.0
 21
6.999999999999996
 31
0.0
  0
ARC
  5
5E99
330
5E4C
100
AcDbEntity
  8
0
100
AcDbCircle
 10
-21.49306600805486
 20
12.99999999999999
 30
0.0
 40
6.000000000000001
100
AcDbArc
 50
270.0
 51
345.4931680961176
  0
ENDBLK
  5
5E4E
330
5E4C
100
AcDbEntity
  8
0
100
AcDbBlockEnd
  0
BLOCK
  5
5E9B
330
5E9A
100
AcDbEntity
  8
0
100
AcDbBlockBegin
  2
ZS35N-Bottom
 70
     0
 10
0.0
 20
0.0
 30
0.0
  3
ZS35N-Bottom
  1

  0
CIRCLE
  5
5E9D
330
5E9A
100
AcDbEntity
  8
0
100
AcDbCircle
 10
21.0
 20
-25.09999999999994
 30
0.0
 40
2.0
  0
CIRCLE
  5
5E9E
330
5E9A
100
AcDbEntity
  8
0
100
AcDbCircle
 10
-7.000000000000001
 20
-25.09999999999994
 30
0.0
 40
2.0
  0
ARC
  5
5E9F
330
5E9A
100
AcDbEntity
  8
0
100
AcDbCircle
 10
-9.08928628662996
 20
-15.68749999999994
 30
0.0
 40
0.7937499999999976
100
AcDbArc
 50
90.0
 51
210.0
  0
LINE
  5
5EA0
330
5E9A
100
AcDbEntity
  8
0
100
AcDbLine
 10
-9.08928628662996
 20
-14.89374999999994
 30
0.0
 11
-4.910713713370038
 21
-14.89374999999993
 31
0.0
  0
ARC
  5
5EA1
330
5E9A
100
AcDbEntity
  8
0
100
AcDbCircle
 10
-4.910713713370038
 20
-15.68749999999994
 30
0.0
 40
0.7937500000000002
100
AcDbArc
 50
329.9999999999999
 51
90.0
  0
LINE
  5
5EA2
330
5E9A
100
AcDbEntity
  8
0
100
AcDbLine
 10
-4.223306049116141
 20
-16.08437499999994
 30
0.0
 11
-6.312592335746106
 21
-19.70312499999995
 31
0.0
  0
ARC
  5
5EA3
330
5E9A
100
AcDbEntity
  8
0
100
AcDbCircle
 10
-7.000000000000001
 20
-19.30624999999995
 30
0.0
 40
0.7937500000000002
100
AcDbArc
 50
210.0
 51
329.9999999999999
  0
LINE
  5
5EA4
330
5E9A
100
AcDbEntity
  8
0
100
AcDbLine
 10
-7.687407664253896
 20
-19.70312499999995
 30
0.0
 11
-9.776693950883858
 21
-16.08437499999994
 31
0.0
  0
ARC
  5
5EA5
330
5E9A
100
AcDbEntity
  8
0
100
AcDbCircle
 10
19.4
 20
0.8999999999999957
 30
0.0
 40
0.9
100
AcDbArc
 50
180.0
 51
270.0
  0
LINE
  5
5EA6
330
5E9A
100
AcDbEntity
  8
0
100
AcDbLine
 10
19.4
 20
2.699999999999994
 30
0.0
 11
19.4
 21
0.0
 31
0.0
  0
LINE
  5
5EA7
330
5E9A
100
AcDbEntity
  8
0
100
AcDbLine
 10
18.5
 20
2.7
 30
0.0
 11
19.4
 21
2.699999999999999
 31
0.0
  0
LINE
  5
5EA8
330
5E9A
100
AcDbEntity
  8
0
100
AcDbLine
 10
18.5
 20
2.699999999999993
 30
0.0
 11
18.5
 21
0.8999999999999952
 31
0.0
  0
LINE
  5
5EA9
330
5E9A
100
AcDbEntity
  8
0
100
AcDbLine
 10
22.6
 20
0.0
 30
0.0
 11
22.6
 21
2.699999999999992
 31
0.0
  0
ARC
  5
5EAA
330
5E9A
100
AcDbEntity
  8
0
100
AcDbCircle
 10
22.6
 20
0.8999999999999953
 30
0.0
 40
0.9000000000000001
100
AcDbArc
 50
270.0
 51
0.0
  0
LINE
  5
5EAB
330
5E9A
100
AcDbEntity
  8
0
100
AcDbLine
 10
23.5
 20
0.8999999999999952
 30
0.0
 11
23.5
 21
2.699999999999993
 31
0.0
  0
LINE
  5
5EAC
330
5E9A
100
AcDbEntity
  8
0
100
AcDbLine
 10
22.6
 20
2.699999999999994
 30
0.0
 11
23.5
 21
2.699999999999996
 31
0.0
  0
LINE
  5
5EAD
330
5E9A
100
AcDbEntity
  8
0
100
AcDbLine
 10
19.4
 20
2.699999999999993
 30
0.0
 11
19.4
 21
18.3
 31
0.0
  0
LINE
  5
5EAE
330
5E9A
100
AcDbEntity
  8
0
100
AcDbLine
 10
19.40000000000001
 20
18.3
 30
0.0
 11
18.49999999999999
 21
18.3
 31
0.0
  0
LINE
  5
5EAF
330
5E9A
100
AcDbEntity
  8
0
100
AcDbLine
 10
18.5
 20
2.699999999999993
 30
0.0
 11
18.49999999999999
 21
18.3
 31
0.0
  0
LINE
  5
5EB0
330
5E9A
100
AcDbEntity
  8
0
100
AcDbLine
 10
22.6
 20
18.30000000000001
 30
0.0
 11
22.6
 21
2.699999999999993
 31
0.0
  0
ARC
  5
5EB1
330
5E9A
100
AcDbEntity
  8
0
100
AcDbCircle
 10
21.0
 20
18.30000000000001
 30
0.0
 40
1.599999999999995
100
AcDbArc
 50
0.0
 51
180.0
  0
LINE
  5
5EB2
330
5E9A
100
AcDbEntity
  8
0
100
AcDbLine
 10
23.5
 20
18.30000000000001
 30
0.0
 11
23.5
 21
2.699999999999993
 31
0.0
  0
LINE
  5
5EB3
330
5E9A
100
AcDbEntity
  8
0
100
AcDbLine
 10
23.5
 20
18.30000000000001
 30
0.0
 11
22.6
 21
18.30000000000001
 31
0.0
  0
ARC
  5
5EB4
330
5E9A
100
AcDbEntity
  8
0
100
AcDbCircle
 10
21.0
 20
18.30000000000001
 30
0.0
 40
2.499999999999995
100
AcDbArc
 50
0.0
 51
180.0
  0
LINE
  5
5EB5
330
5E9A
100
AcDbEntity
  8
0
100
AcDbLine
 10
22.6
 20
0.0
 30
0.0
 11
19.4
 21
0.0
 31
0.0
  0
LINE
  5
5EB6
330
5E9A
100
AcDbEntity
  8
0
100
AcDbLine
 10
22.6
 20
2.699999999999992
 30
0.0
 11
19.4
 21
2.699999999999993
 31
0.0
  0
LINE
  5
5EB7
330
5E9A
100
AcDbEntity
  8
0
100
AcDbLine
 10
5.022507171778832
 20
0.8999999999999957
 30
0.0
 11
5.022507171778832
 21
1.799999999999995
 31
0.0
  0
SPLINE
  5
5EB8
330
5E9A
100
AcDbEntity
  8
0
100
AcDbSpline
210
0.0
220
0.0
230
1.0
 70
     8
 71
     3
 72
    11
 73
     7
 74
     0
 42
0.000000001
 43
0.0000000001
 40
0.0000000000000495
 40
0.0000000000000495
 40
0.0000000000000495
 40
0.0000000000000495
 40
1.166126791552531
 40
1.166126791552531
 40
1.166126791552531
 40
1.570796326794895
 40
1.570796326794895
 40
1.570796326794895
 40
1.570796326794895
 10
5.057767434119475
 20
2.699999999999905
 30
0.0
 10
5.049041936974875
 20
2.000323925068416
 30
0.0
 10
5.040316439830274
 20
1.320854370052037
 30
0.0
 10
5.031590942685673
 20
1.045381398675533
 30
0.0
 10
5.028563019050061
 20
0.9497867171140601
 30
0.0
 10
5.025535095414447
 20
0.8999999999999953
 30
0.0
 10
5.022507171778833
 20
0.8999999999999952
 30
0.0
  0
SPLINE
  5
5EB9
330
5E9A
100
AcDbEntity
  8
0
100
AcDbSpline
210
0.0
220
0.0
230
1.0
 70
     8
 71
     3
 72
    11
 73
     7
 74
     0
 42
0.000000001
 43
0.0000000001
 40
0.0
 40
0.0
 40
0.0
 40
0.0
 40
1.386766277509508
 40
1.386766277509508
 40
1.386766277509508
 40
1.570796326794875
 40
1.570796326794875
 40
1.570796326794875
 40
1.570796326794875
 10
5.022507171778832
 20
1.799999999999995
 30
0.0
 10
5.032883595065127
 20
1.799999999999996
 30
0.0
 10
5.043260018351421
 20
2.126301368426377
 30
0.0
 10
5.053636441637716
 20
2.53530625731302
 30
0.0
 10
5.055013439131635
 20
2.58958302411971
 30
0.0
 10
5.056390436625556
 20
2.644790985214366
 30
0.0
 10
5.057767434119475
 20
2.699999999999976
 30
0.0
  0
LINE
  5
5EBA
330
5E9A
100
AcDbEntity
  8
0
100
AcDbLine
 10
6.0
 20
50.8
 30
0.0
 11
5.057767434119475
 21
2.699999999999995
 31
0.0
  0
LINE
  5
5EBB
330
5E9A
100
AcDbEntity
  8
0
100
AcDbLine
 10
-5.022507171778841
 20
1.799999999999995
 30
0.0
 11
-5.022507171778841
 21
0.8999999999999957
 31
0.0
  0
SPLINE
  5
5EBC
330
5E9A
100
AcDbEntity
  8
0
100
AcDbSpline
210
0.0
220
0.0
230
1.0
 70
     8
 71
     3
 72
    11
 73
     7
 74
     0
 42
0.000000001
 43
0.0000000001
 40
0.0
 40
0.0
 40
0.0
 40
0.0
 40
1.386766277509508
 40
1.386766277509508
 40
1.386766277509508
 40
1.570796326794888
 40
1.570796326794888
 40
1.570796326794888
 40
1.570796326794888
 10
-5.057767434119484
 20
2.699999999999993
 30
0.0
 10
-5.047391010833189
 20
2.28397011674714
 30
0.0
 10
-5.037014587546895
 20
1.891327789589658
 30
0.0
 10
-5.0266381642606
 20
1.815197213431284
 30
0.0
 10
-5.02526116676668
 20
1.805094347570058
 30
0.0
 10
-5.02388416927276
 20
1.799999999999996
 30
0.0
 10
-5.022507171778841
 20
1.799999999999996
 30
0.0
  0
SPLINE
  5
5EBD
330
5E9A
100
AcDbEntity
  8
0
100
AcDbSpline
210
0.0
220
0.0
230
1.0
 70
     8
 71
     3
 72
    11
 73
     7
 74
     0
 42
0.000000001
 43
0.0000000001
 40
0.0
 40
0.0
 40
0.0
 40
0.0
 40
1.166126791552483
 40
1.166126791552483
 40
1.166126791552483
 40
1.570796326794888
 40
1.570796326794888
 40
1.570796326794888
 40
1.570796326794888
 10
-5.022507171778841
 20
0.8999999999999957
 30
0.0
 10
-5.031232668923442
 20
0.8999999999999959
 30
0.0
 10
-5.039958166068042
 20
1.348147958825678
 30
0.0
 10
-5.048683663212642
 20
1.991312985760848
 30
0.0
 10
-5.051711586848256
 20
2.214504232561313
 30
0.0
 10
-5.05473951048387
 20
2.457198278854538
 30
0.0
 10
-5.057767434119484
 20
2.699999999999981
 30
0.0
  0
LINE
  5
5EBE
330
5E9A
100
AcDbEntity
  8
0
100
AcDbLine
 10
-5.057767434119484
 20
2.699999999999993
 30
0.0
 11
-6.0
 21
50.8
 31
0.0
  0
LINE
  5
5EBF
330
5E9A
100
AcDbEntity
  8
0
100
AcDbLine
 10
4.999040950308777
 20
1.799999999999995
 30
0.0
 11
5.022507171778832
 21
1.799999999999995
 31
0.0
  0
LINE
  5
5EC0
330
5E9A
100
AcDbEntity
  8
0
100
AcDbLine
 10
4.999040950308777
 20
1.799999999999995
 30
0.0
 11
4.999040950308777
 21
0.8999999999999952
 31
0.0
  0
LINE
  5
5EC1
330
5E9A
100
AcDbEntity
  8
0
100
AcDbLine
 10
5.022507171778832
 20
0.8999999999999957
 30
0.0
 11
4.999040950308777
 21
0.8999999999999952
 31
0.0
  0
LINE
  5
5EC2
330
5E9A
100
AcDbEntity
  8
0
100
AcDbLine
 10
-4.999040950308788
 20
1.799999999999996
 30
0.0
 11
4.999040950308771
 21
1.799999999999996
 31
0.0
  0
LINE
  5
5EC3
330
5E9A
100
AcDbEntity
  8
0
100
AcDbLine
 10
-4.999040950308786
 20
1.799999999999995
 30
0.0
 11
-4.999040950308786
 21
0.8999999999999952
 31
0.0
  0
LINE
  5
5EC4
330
5E9A
100
AcDbEntity
  8
0
100
AcDbLine
 10
4.999040950308771
 20
0.8999999999999964
 30
0.0
 11
-4.999040950308788
 21
0.8999999999999964
 31
0.0
  0
LINE
  5
5EC5
330
5E9A
100
AcDbEntity
  8
0
100
AcDbLine
 10
-4.999040950308786
 20
0.8999999999999952
 30
0.0
 11
-5.022507171778841
 21
0.8999999999999957
 31
0.0
  0
LINE
  5
5EC6
330
5E9A
100
AcDbEntity
  8
0
100
AcDbLine
 10
-5.022507171778841
 20
1.799999999999995
 30
0.0
 11
-4.999040950308786
 21
1.799999999999995
 31
0.0
  0
ARC
  5
5EC7
330
5E9A
100
AcDbEntity
  8
0
100
AcDbCircle
 10
-19.4
 20
0.8999999999999957
 30
0.0
 40
0.9
100
AcDbArc
 50
270.0
 51
0.0
  0
ARC
  5
5EC8
330
5E9A
100
AcDbEntity
  8
0
100
AcDbCircle
 10
-22.6
 20
0.8999999999999957
 30
0.0
 40
0.9000000000000001
100
AcDbArc
 50
180.0
 51
270.0
  0
LINE
  5
5EC9
330
5E9A
100
AcDbEntity
  8
0
100
AcDbLine
 10
-22.6
 20
2.699999999999993
 30
0.0
 11
-22.6
 21
0.0
 31
0.0
  0
LINE
  5
5ECA
330
5E9A
100
AcDbEntity
  8
0
100
AcDbLine
 10
-23.5
 20
2.699999999999987
 30
0.0
 11
-22.6
 21
2.699999999999987
 31
0.0
  0
LINE
  5
5ECB
330
5E9A
100
AcDbEntity
  8
0
100
AcDbLine
 10
-23.50000000000001
 20
2.699999999999993
 30
0.0
 11
-23.50000000000001
 21
0.8999999999999957
 31
0.0
  0
LINE
  5
5ECC
330
5E9A
100
AcDbEntity
  8
0
100
AcDbLine
 10
-19.4
 20
0.0
 30
0.0
 11
-22.6
 21
0.0
 31
0.0
  0
LINE
  5
5ECD
330
5E9A
100
AcDbEntity
  8
0
100
AcDbLine
 10
-18.50000000000001
 20
0.8999999999999957
 30
0.0
 11
-18.50000000000001
 21
2.699999999999993
 31
0.0
  0
LINE
  5
5ECE
330
5E9A
100
AcDbEntity
  8
0
100
AcDbLine
 10
-19.4
 20
2.699999999999993
 30
0.0
 11
-18.50000000000001
 21
2.699999999999993
 31
0.0
  0
LINE
  5
5ECF
330
5E9A
100
AcDbEntity
  8
0
100
AcDbLine
 10
-19.4
 20
0.0
 30
0.0
 11
-19.4
 21
2.699999999999993
 31
0.0
  0
LINE
  5
5ED0
330
5E9A
100
AcDbEntity
  8
0
100
AcDbLine
 10
-22.6
 20
2.699999999999993
 30
0.0
 11
-22.6
 21
18.3
 31
0.0
  0
LINE
  5
5ED1
330
5E9A
100
AcDbEntity
  8
0
100
AcDbLine
 10
-22.6
 20
18.3
 30
0.0
 11
-23.50000000000001
 21
18.3
 31
0.0
  0
LINE
  5
5ED2
330
5E9A
100
AcDbEntity
  8
0
100
AcDbLine
 10
-23.5
 20
2.699999999999993
 30
0.0
 11
-23.50000000000001
 21
18.3
 31
0.0
  0
LINE
  5
5ED3
330
5E9A
100
AcDbEntity
  8
0
100
AcDbLine
 10
-19.4
 20
2.699999999999993
 30
0.0
 11
-22.6
 21
2.699999999999993
 31
0.0
  0
ARC
  5
5ED4
330
5E9A
100
AcDbEntity
  8
0
100
AcDbCircle
 10
-21.0
 20
18.30000000000001
 30
0.0
 40
2.499999999999995
100
AcDbArc
 50
0.0
 51
180.0
  0
LINE
  5
5ED5
330
5E9A
100
AcDbEntity
  8
0
100
AcDbLine
 10
-18.50000000000001
 20
18.30000000000001
 30
0.0
 11
-18.50000000000001
 21
2.699999999999993
 31
0.0
  0
LINE
  5
5ED6
330
5E9A
100
AcDbEntity
  8
0
100
AcDbLine
 10
-18.5
 20
18.30000000000001
 30
0.0
 11
-19.4
 21
18.30000000000001
 31
0.0
  0
ARC
  5
5ED7
330
5E9A
100
AcDbEntity
  8
0
100
AcDbCircle
 10
-21.0
 20
18.3
 30
0.0
 40
1.599999999999995
100
AcDbArc
 50
0.0
 51
180.0
  0
LINE
  5
5ED8
330
5E9A
100
AcDbEntity
  8
0
100
AcDbLine
 10
-19.4
 20
18.3
 30
0.0
 11
-19.4
 21
2.699999999999993
 31
0.0
  0
LINE
  5
5ED9
330
5E9A
100
AcDbEntity
  8
0
100
AcDbLine
 10
-5.022507171778841
 20
0.8999999999999957
 30
0.0
 11
-18.50000000000001
 21
0.8999999999999957
 31
0.0
  0
LINE
  5
5EDA
330
5E9A
100
AcDbEntity
  8
0
100
AcDbLine
 10
-23.5
 20
0.8999999999999957
 30
0.0
 11
-26.0
 21
0.8999999999999952
 31
0.0
  0
LINE
  5
5EDB
330
5E9A
100
AcDbEntity
  8
0
100
AcDbLine
 10
26.0
 20
0.8999999999999952
 30
0.0
 11
23.5
 21
0.8999999999999957
 31
0.0
  0
LINE
  5
5EDC
330
5E9A
100
AcDbEntity
  8
0
100
AcDbLine
 10
18.5
 20
0.8999999999999957
 30
0.0
 11
5.022507171778832
 21
0.8999999999999957
 31
0.0
  0
LINE
  5
5EDD
330
5E9A
100
AcDbEntity
  8
0
100
AcDbLine
 10
-5.057767434119484
 20
2.699999999999993
 30
0.0
 11
-18.50000000000001
 21
2.699999999999993
 31
0.0
  0
LINE
  5
5EDE
330
5E9A
100
AcDbEntity
  8
0
100
AcDbLine
 10
-23.5
 20
2.699999999999993
 30
0.0
 11
-26.0
 21
2.699999999999993
 31
0.0
  0
LINE
  5
5EDF
330
5E9A
100
AcDbEntity
  8
0
100
AcDbLine
 10
-26.0
 20
0.8999999999999952
 30
0.0
 11
-26.0
 21
2.699999999999993
 31
0.0
  0
LINE
  5
5EE0
330
5E9A
100
AcDbEntity
  8
0
100
AcDbLine
 10
18.5
 20
2.699999999999993
 30
0.0
 11
5.057767434119475
 21
2.699999999999993
 31
0.0
  0
LINE
  5
5EE1
330
5E9A
100
AcDbEntity
  8
0
100
AcDbLine
 10
26.0
 20
2.699999999999993
 30
0.0
 11
23.5
 21
2.699999999999993
 31
0.0
  0
LINE
  5
5EE2
330
5E9A
100
AcDbEntity
  8
0
100
AcDbLine
 10
26.0
 20
0.8999999999999946
 30
0.0
 11
26.0
 21
2.699999999999993
 31
0.0
  0
LINE
  5
5EE3
330
5E9A
100
AcDbEntity
  8
0
100
AcDbLine
 10
26.0
 20
0.0
 30
0.0
 11
22.6
 21
0.0
 31
0.0
  0
LINE
  5
5EE4
330
5E9A
100
AcDbEntity
  8
0
100
AcDbLine
 10
19.4
 20
0.0
 30
0.0
 11
-19.40000000000001
 21
0.0
 31
0.0
  0
LINE
  5
5EE5
330
5E9A
100
AcDbEntity
  8
0
100
AcDbLine
 10
-22.6
 20
0.0
 30
0.0
 11
-26.0
 21
0.0
 31
0.0
  0
LINE
  5
5EE6
330
5E9A
100
AcDbEntity
  8
0
100
AcDbLine
 10
26.0
 20
0.9000000000000012
 30
0.0
 11
26.0
 21
0.0
 31
0.0
  0
LINE
  5
5EE7
330
5E9A
100
AcDbEntity
  8
0
100
AcDbLine
 10
-26.0
 20
0.900000000000001
 30
0.0
 11
-26.0
 21
0.0
 31
0.0
  0
LINE
  5
5EE8
330
5E9A
100
AcDbEntity
  8
0
100
AcDbLine
 10
-26.0
 20
50.8
 30
0.0
 11
-6.0
 21
50.8
 31
0.0
  0
LINE
  5
5EE9
330
5E9A
100
AcDbEntity
  8
0
100
AcDbLine
 10
6.0
 20
50.8
 30
0.0
 11
26.0
 21
50.8
 31
0.0
  0
LINE
  5
5EEA
330
5E9A
100
AcDbEntity
  8
0
100
AcDbLine
 10
-26.0
 20
50.8
 30
0.0
 11
-26.0
 21
2.699999999999995
 31
0.0
  0
LINE
  5
5EEB
330
5E9A
100
AcDbEntity
  8
0
100
AcDbLine
 10
26.0
 20
50.8
 30
0.0
 11
26.0
 21
2.699999999999995
 31
0.0
  0
LINE
  5
5EEC
330
5E9A
100
AcDbEntity
  8
0
100
AcDbLine
 10
-26.0
 20
0.0
 30
0.0
 11
-26.0
 21
-6.999999999999997
 31
0.0
  0
LINE
  5
5EED
330
5E9A
100
AcDbEntity
  8
0
100
AcDbLine
 10
26.0
 20
0.0
 30
0.0
 11
26.0
 21
-30.1
 31
0.0
  0
LINE
  5
5EEE
330
5E9A
100
AcDbEntity
  8
0
100
AcDbLine
 10
21.0
 20
-30.10000000000002
 30
0.0
 11
26.0
 21
-30.1
 31
0.0
  0
ARC
  5
5EEF
330
5E9A
100
AcDbEntity
  8
0
100
AcDbCircle
 10
-15.0
 20
44.8
 30
0.0
 40
2.0
100
AcDbArc
 50
90.0
 51
270.0
  0
LINE
  5
5EF0
330
5E9A
100
AcDbEntity
  8
0
100
AcDbLine
 10
-15.0
 20
46.79999999999999
 30
0.0
 11
-12.99999999999998
 21
46.79999999999999
 31
0.0
  0
ARC
  5
5EF1
330
5E9A
100
AcDbEntity
  8
0
100
AcDbCircle
 10
-12.99999999999998
 20
44.8
 30
0.0
 40
2.0
100
AcDbArc
 50
270.0
 51
90.0
  0
LINE
  5
5EF2
330
5E9A
100
AcDbEntity
  8
0
100
AcDbLine
 10
-12.99999999999998
 20
42.8
 30
0.0
 11
-15.0
 21
42.8
 31
0.0
  0
ARC
  5
5EF3
330
5E9A
100
AcDbEntity
  8
0
100
AcDbCircle
 10
15.0
 20
44.8
 30
0.0
 40
2.0
100
AcDbArc
 50
270.0
 51
90.0
  0
LINE
  5
5EF4
330
5E9A
100
AcDbEntity
  8
0
100
AcDbLine
 10
15.0
 20
42.8
 30
0.0
 11
12.99999999999997
 21
42.8
 31
0.0
  0
ARC
  5
5EF5
330
5E9A
100
AcDbEntity
  8
0
100
AcDbCircle
 10
12.99999999999997
 20
44.8
 30
0.0
 40
1.999999999999999
100
AcDbArc
 50
90.0
 51
270.0
  0
LINE
  5
5EF6
330
5E9A
100
AcDbEntity
  8
0
100
AcDbLine
 10
12.99999999999997
 20
46.79999999999999
 30
0.0
 11
15.0
 21
46.79999999999999
 31
0.0
  0
LINE
  5
5EF7
330
5E9A
100
AcDbEntity
  8
0
100
AcDbLine
 10
11.78180373400476
 20
-10.21926307426037
 30
0.0
 11
15.14183551919429
 21
-25.39688431088756
 31
0.0
  0
ARC
  5
5EF8
330
5E9A
100
AcDbEntity
  8
0
100
AcDbCircle
 10
21.0
 20
-24.10000000000001
 30
0.0
 40
6.0
100
AcDbArc
 50
192.4828505689279
 51
269.9999999999999
  0
LINE
  5
5EF9
330
5E9A
100
AcDbEntity
  8
0
100
AcDbLine
 10
-15.68435933777483
 20
-11.49702733935563
 30
0.0
 11
-11.84058889190002
 21
-26.35247721720365
 31
0.0
  0
ARC
  5
5EFA
330
5E9A
100
AcDbEntity
  8
0
100
AcDbCircle
 10
-7.000000000000006
 20
-25.1
 30
0.0
 40
5.0
100
AcDbArc
 50
194.5068319038826
 51
345.4931680961174
  0
LINE
  5
5EFB
330
5E9A
100
AcDbEntity
  8
0
100
AcDbLine
 10
-2.159411108099988
 20
-26.35247721720365
 30
0.0
 11
2.059411108099982
 21
-10.04752278279636
 31
0.0
  0
ARC
  5
5EFC
330
5E9A
100
AcDbEntity
  8
0
100
AcDbCircle
 10
6.899999999999999
 20
-11.29999999999999
 30
0.0
 40
5.0
100
AcDbArc
 50
12.48285056892779
 51
165.4931680961176
  0
LINE
  5
5EFD
330
5E9A
100
AcDbEntity
  8
0
100
AcDbLine
 10
-26.0
 20
-6.999999999999997
 30
0.0
 11
-21.49306600805486
 21
-6.999999999999997
 31
0.0
  0
ARC
  5
5EFE
330
5E9A
100
AcDbEntity
  8
0
100
AcDbCircle
 10
-21.49306600805486
 20
-13.00000000000001
 30
0.0
 40
6.0
100
AcDbArc
 50
14.50683190388258
 51
90.0
  0
ENDBLK
  5
5E9C
330
5E9A
100
AcDbEntity
  8
0
100
AcDbBlockEnd
  0
BLOCK
  5
5F00
330
5EFF
100
AcDbEntity
  8
0
100
AcDbBlockBegin
  2
ZS35N-ISO
 70
     0
 10
0.0
 20
0.0
 30
0.0
  3
ZS35N-ISO
  1

  0
LINE
  5
5F02
330
5EFF
100
AcDbEntity
  8
0
100
AcDbLine
 10
5.98902878494044
 20
8.546515951500005
 30
0.0
 11
4.718739960263237
 21
6.739339897021563
 31
0.0
  0
LINE
  5
5F03
330
5EFF
100
AcDbEntity
  8
0
100
AcDbLine
 10
5.559692358311454
 20
8.473665883030022
 30
0.0
 11
5.765129975361582
 21
8.59227534653559
 31
0.0
  0
LINE
  5
5F04
330
5EFF
100
AcDbEntity
  8
0
100
AcDbLine
 10
4.082343857195345
 20
6.371916435604085
 30
0.0
 11
5.559692358311454
 21
8.473665883030022
 31
0.0
  0
LINE
  5
5F05
330
5EFF
100
AcDbEntity
  8
0
100
AcDbLine
 10
4.082343857195345
 20
6.371916435604085
 30
0.0
 11
4.718739960263237
 21
6.739339897021563
 31
0.0
  0
ELLIPSE
  5
5F06
330
5EFF
100
AcDbEntity
  8
0
100
AcDbEllipse
 10
5.204810581096771
 20
6.134659812682463
 30
0.0
 11
-0.3968749999999999
 21
0.6874076642538984
 31
0.0
210
0.0
220
0.0
230
1.0
 40
0.577350269189626
 41
0.2617993877991474
 42
2.356194490192343
  0
ELLIPSE
  5
5F07
330
5EFF
100
AcDbEntity
  8
0
100
AcDbEllipse
 10
4.568414478028878
 20
5.767236351264988
 30
0.0
 11
-0.3968749999999587
 21
0.6874076642539217
 31
0.0
210
0.0
220
0.0
230
1.0
 40
0.577350269189626
 41
0.2617993877995088
 42
2.356194490192587
  0
LINE
  5
5F08
330
5EFF
100
AcDbEntity
  8
0
100
AcDbLine
 10
4.568414478028878
 20
5.119142190153606
 30
0.0
 11
5.204810581096771
 21
5.486565651571082
 31
0.0
  0
LINE
  5
5F09
330
5EFF
100
AcDbEntity
  8
0
100
AcDbLine
 10
5.204810581096771
 20
5.486565651571082
 30
0.0
 11
8.079326366793269
 21
3.82696318890938
 31
0.0
  0
LINE
  5
5F0A
330
5EFF
100
AcDbEntity
  8
0
100
AcDbLine
 10
7.523111480261094
 20
3.413247080541055
 30
0.0
 11
4.568414478028878
 21
5.119142190153606
 31
0.0
  0
LINE
  5
5F0B
330
5EFF
100
AcDbEntity
  8
0
100
AcDbLine
 10
7.523111480261094
 20
3.413247080541055
 30
0.0
 11
8.084377487827916
 21
3.737294161096746
 31
0.0
  0
ELLIPSE
  5
5F0C
330
5EFF
100
AcDbEntity
  8
0
100
AcDbEllipse
 10
7.523111480261094
 20
4.061341241652433
 30
0.0
 11
0.3968749999999997
 21
-0.687407664253898
 31
0.0
210
0.0
220
0.0
230
1.0
 40
0.5773502691896261
 41
5.497787143782137
 42
7.592182246175331
  0
LINE
  5
5F0D
330
5EFF
100
AcDbEntity
  8
0
100
AcDbLine
 10
6.531833599978529
 20
7.912399875463195
 30
0.0
 11
8.009182101094628
 21
4.104755318424713
 31
0.0
  0
ELLIPSE
  5
5F0E
330
5EFF
100
AcDbEntity
  8
0
100
AcDbEllipse
 10
6.045762979144991
 20
7.868985798690921
 30
0.0
 11
-0.3968750000000001
 21
0.6874076642538979
 31
0.0
210
0.0
220
0.0
230
1.0
 40
0.5773502691896259
 41
4.450589592585533
 42
6.544984694978734
  0
ELLIPSE
  5
5F0F
330
5EFF
100
AcDbEntity
  8
0
100
AcDbEllipse
 10
39.91617779798057
 20
20.55530142485532
 30
0.0
 11
2.0
 21
-0.0000000000000079
 31
0.0
210
0.0
220
0.0
230
1.0
 40
0.5773502691896228
 41
0.3238281385752867
 42
2.8177645150145
  0
ELLIPSE
  5
5F10
330
5EFF
100
AcDbEntity
  8
0
100
AcDbEllipse
 10
39.91617779798057
 20
21.29014834769027
 30
0.0
 11
2.0
 21
-0.0000000000001273
 31
0.0
210
0.0
220
0.0
230
1.0
 40
0.5773502691896228
 41
0.0
 42
6.283185307179586
  0
ELLIPSE
  5
5F11
330
5EFF
100
AcDbEntity
  8
0
100
AcDbEllipse
 10
20.11718792475723
 20
31.98625355784348
 30
0.0
 11
1.999999999999999
 21
-0.0000000000000085
 31
0.0
210
0.0
220
0.0
230
1.0
 40
0.5773502691896231
 41
0.3238281385752868
 42
2.817764515014501
  0
ELLIPSE
  5
5F12
330
5EFF
100
AcDbEntity
  8
0
100
AcDbEllipse
 10
20.11718792475723
 20
32.72110048067844
 30
0.0
 11
2.0
 21
-0.0000000000001273
 31
0.0
210
0.0
220
0.0
230
1.0
 40
0.5773502691896228
 41
0.0
 42
6.283185307179586
  0
ELLIPSE
  5
5F13
330
5EFF
100
AcDbEntity
  8
0
100
AcDbEllipse
 10
11.98419684572275
 20
29.73141100149364
 30
0.0
 11
-0.7937499999999976
 21
0.0000000000000032
 31
0.0
210
0.0
220
0.0
230
1.0
 40
0.5773502691896228
 41
4.974188368183835
 42
7.06858347057703
  0
ELLIPSE
  5
5F14
330
5EFF
100
AcDbEntity
  8
0
100
AcDbEllipse
 10
11.98419684572274
 20
28.99656407865867
 30
0.0
 11
-0.7937499999999976
 21
0.0000000000000032
 31
0.0
210
0.0
220
0.0
230
1.0
 40
0.577350269189623
 41
4.974188368183838
 42
5.363525871857341
  0
LINE
  5
5F15
330
5EFF
100
AcDbEntity
  8
0
100
AcDbLine
 10
11.77875922867262
 20
30.17406754555489
 30
0.0
 11
11.77875922867262
 21
29.43922062271994
 31
0.0
  0
LINE
  5
5F16
330
5EFF
100
AcDbEntity
  8
0
100
AcDbLine
 10
14.37762784038814
 20
27.7014688113254
 30
0.0
 11
11.42293083815593
 21
29.40736392093795
 31
0.0
  0
ELLIPSE
  5
5F17
330
5EFF
100
AcDbEntity
  8
0
100
AcDbEllipse
 10
14.93889384795496
 20
28.02551589188109
 30
0.0
 11
0.7937499999999999
 21
-0.0000000000000032
 31
0.0
210
0.0
220
0.0
230
1.0
 40
0.5773502691896232
 41
3.926990816987238
 42
6.021385919380442
  0
LINE
  5
5F18
330
5EFF
100
AcDbEntity
  8
0
100
AcDbLine
 10
16.78709163587462
 20
30.2372024842979
 30
0.0
 11
15.70559747257191
 21
27.90690642837552
 31
0.0
  0
ELLIPSE
  5
5F19
330
5EFF
100
AcDbEntity
  8
0
100
AcDbEllipse
 10
16.02038801125768
 20
30.35581194780345
 30
0.0
 11
0.7937500000000003
 21
-0.0000000000000032
 31
0.0
210
0.0
220
0.0
230
1.0
 40
0.577350269189623
 41
6.021385919380441
 42
8.115781021773635
  0
LINE
  5
5F1A
330
5EFF
100
AcDbEntity
  8
0
100
AcDbLine
 10
15.81495039420755
 20
30.79846849186472
 30
0.0
 11
15.81495039420755
 21
30.06362156902977
 31
0.0
  0
ELLIPSE
  5
5F1B
330
5EFF
100
AcDbEntity
  8
0
100
AcDbEllipse
 10
16.02038801125768
 20
29.6209650249685
 30
0.0
 11
-0.7937499999999999
 21
-0.0000000000000442
 31
0.0
210
0.0
220
0.0
230
1.0
 40
0.5773502691896231
 41
3.825735341508689
 42
4.974188368183694
  0
LINE
  5
5F1C
330
5EFF
100
AcDbEntity
  8
0
100
AcDbLine
 10
11.77875922867262
 20
30.17406754555489
 30
0.0
 11
15.81495039420755
 21
30.79846849186472
 31
0.0
  0
LINE
  5
5F1D
330
5EFF
100
AcDbEntity
  8
0
100
AcDbLine
 10
15.81495039420755
 20
30.06362156902977
 30
0.0
 11
11.77875922867262
 21
29.43922062271994
 31
0.0
  0
SPLINE
  5
5F1E
330
5EFF
100
AcDbEntity
  8
0
100
AcDbSpline
210
0.0
220
0.0
230
1.0
 70
     8
 71
     3
 72
    11
 73
     7
 74
     0
 42
0.000000001
 43
0.0000000001
 40
0.0
 40
0.0
 40
0.0
 40
0.0
 40
1.386766277509508
 40
1.386766277509508
 40
1.386766277509508
 40
1.570796326794875
 40
1.570796326794875
 40
1.570796326794875
 40
1.570796326794875
 10
9.597211858867861
 20
-11.74632686523797
 30
0.0
 10
9.604549098138063
 20
-12.09024999954545
 30
0.0
 10
9.381156427083519
 20
-12.54828925010089
 30
0.0
 10
9.099283535883524
 20
-12.78166130898535
 30
0.0
 10
9.06187775027926
 20
-12.81263081855222
 30
0.0
 10
9.023813510879374
 20
-12.83989104853499
 30
0.0
 10
8.985748526407469
 20
-12.86299219131227
 30
0.0
  0
LINE
  5
5F1F
330
5EFF
100
AcDbEntity
  8
0
100
AcDbLine
 10
-24.35982861187656
 20
-32.8843997968642
 30
0.0
 11
-24.35982861187656
 21
-33.61924671969915
 31
0.0
  0
LINE
  5
5F20
330
5EFF
100
AcDbEntity
  8
0
100
AcDbLine
 10
8.985748526407457
 20
-12.86299219131228
 30
0.0
 11
-24.35982861187656
 21
-32.8843997968642
 31
0.0
  0
LINE
  5
5F21
330
5EFF
100
AcDbEntity
  8
0
100
AcDbLine
 10
2.494314099422095
 20
-7.645466931795574
 30
0.0
 11
3.130710202489987
 21
-7.278043470378099
 31
0.0
  0
SPLINE
  5
5F22
330
5EFF
100
AcDbEntity
  8
0
100
AcDbSpline
210
0.0
220
0.0
230
1.0
 70
     8
 71
     3
 72
    11
 73
     7
 74
     0
 42
0.000000001
 43
0.0000000001
 40
0.0
 40
0.0
 40
0.0
 40
0.0
 40
1.386766277509508
 40
1.386766277509508
 40
1.386766277509508
 40
1.570796326794888
 40
1.570796326794888
 40
1.570796326794888
 40
1.570796326794888
 10
1.832985225746719
 20
-8.733342374226126
 30
0.0
 10
2.134500016641259
 20
-8.56773504267403
 30
0.0
 10
2.419477308025383
 20
-8.145251689243814
 30
0.0
 10
2.480646993952809
 20
-7.784456575384219
 30
0.0
 10
2.488764483178327
 20
-7.73657746001898
 30
0.0
 10
2.493340415156467
 20
-7.689982746731556
 30
0.0
 10
2.494314099422094
 20
-7.645466931795579
 30
0.0
  0
LINE
  5
5F23
330
5EFF
100
AcDbEntity
  8
0
100
AcDbLine
 10
1.832985225746718
 20
-8.733342374226126
 30
0.0
 11
1.832985225746718
 21
-9.46818929706108
 31
0.0
  0
SPLINE
  5
5F24
330
5EFF
100
AcDbEntity
  8
0
100
AcDbSpline
210
0.0
220
0.0
230
1.0
 70
     8
 71
     3
 72
    11
 73
     7
 74
     0
 42
0.000000001
 43
0.0000000001
 40
0.0
 40
0.0
 40
0.0
 40
0.0
 40
1.166126791552483
 40
1.166126791552483
 40
1.166126791552483
 40
1.570796326794888
 40
1.570796326794888
 40
1.570796326794888
 40
1.570796326794888
 10
3.130710202489987
 20
-7.278043470378099
 30
0.0
 10
3.124540344289816
 20
-7.845764424023857
 30
0.0
 10
2.801482025429096
 20
-8.57994246131196
 30
0.0
 10
2.340525815261038
 20
-9.063874054018601
 30
0.0
 10
2.180564705811292
 20
-9.23180808497333
 30
0.0
 10
2.006813034588093
 20
-9.370302054129663
 30
0.0
 10
1.832985225746727
 20
-9.468189297061076
 30
0.0
  0
LINE
  5
5F25
330
5EFF
100
AcDbEntity
  8
0
100
AcDbLine
 10
-32.84510998611513
 20
-27.98542031129786
 30
0.0
 11
1.832985225746721
 21
-8.733342374226126
 31
0.0
  0
LINE
  5
5F26
330
5EFF
100
AcDbEntity
  8
0
100
AcDbLine
 10
-32.84510998611513
 20
-28.72026723413282
 30
0.0
 11
-32.84510998611513
 21
-27.98542031129786
 31
0.0
  0
LINE
  5
5F27
330
5EFF
100
AcDbEntity
  8
0
100
AcDbLine
 10
1.832985225746718
 20
-9.46818929706108
 30
0.0
 11
-32.84510998611513
 21
-28.72026723413282
 31
0.0
  0
LINE
  5
5F28
330
5EFF
100
AcDbEntity
  8
0
100
AcDbLine
 10
9.58061873453756
 20
-10.75864402181328
 30
0.0
 11
9.597211858867861
 21
-11.74632686523797
 31
0.0
  0
ELLIPSE
  5
5F29
330
5EFF
100
AcDbEntity
  8
0
100
AcDbEllipse
 10
6.045762979144974
 20
-8.797750659496275
 30
0.0
 11
-2.499999999999999
 21
4.330127018922191
 31
0.0
210
0.0
220
0.0
230
1.0
 40
0.5773502691896261
 41
3.94657734656243
 42
7.048996941001844
  0
LINE
  5
5F2A
330
5EFF
100
AcDbEntity
  8
0
100
AcDbLine
 10
2.510907223752396
 20
-6.676944177968473
 30
0.0
 11
3.147303326820289
 21
-6.309520716550993
 31
0.0
  0
ELLIPSE
  5
5F2B
330
5EFF
100
AcDbEntity
  8
0
100
AcDbEllipse
 10
6.682159082212867
 20
-8.430327198078799
 30
0.0
 11
-2.499999999999999
 21
4.330127018922192
 31
0.0
210
0.0
220
0.0
230
1.0
 40
0.577350269189626
 41
0.1276254041733313
 42
0.7658116338222584
  0
LINE
  5
5F2C
330
5EFF
100
AcDbEntity
  8
0
100
AcDbLine
 10
3.147303326820289
 20
-6.309520716550993
 30
0.0
 11
3.130710202489987
 21
-7.278043470378099
 31
0.0
  0
LINE
  5
5F2D
330
5EFF
100
AcDbEntity
  8
0
100
AcDbLine
 10
2.494314099422095
 20
-7.645466931795574
 30
0.0
 11
2.510907223752396
 21
-6.676944177968473
 31
0.0
  0
ELLIPSE
  5
5F2E
330
5EFF
100
AcDbEntity
  8
0
100
AcDbEllipse
 10
19.763634534164
 20
-16.88106681068077
 30
0.0
 11
0.8999999999999998
 21
0.0000000000000537
 31
0.0
210
0.0
220
0.0
230
1.0
 40
0.5773502691896257
 41
3.926990816987
 42
5.497787143781896
  0
LINE
  5
5F2F
330
5EFF
100
AcDbEntity
  8
0
100
AcDbLine
 10
20.40003063723189
 20
-17.24849027209824
 30
0.0
 11
20.40003063723191
 21
3.735471857744312
 31
0.0
  0
ELLIPSE
  5
5F30
330
5EFF
100
AcDbEntity
  8
0
100
AcDbEllipse
 10
19.76363453416402
 20
4.102895319161785
 30
0.0
 11
-0.8999999999999984
 21
0.000000000000054
 31
0.0
210
0.0
220
0.0
230
1.0
 40
0.5773502691896257
 41
0.7853981633976908
 42
2.356194490192585
  0
LINE
  5
5F31
330
5EFF
100
AcDbEntity
  8
0
100
AcDbLine
 10
19.12723843109612
 20
3.735471857744308
 30
0.0
 11
19.12723843109611
 21
-17.24849027209824
 31
0.0
  0
ELLIPSE
  5
5F32
330
5EFF
100
AcDbEntity
  8
0
100
AcDbEllipse
 10
23.29916844009674
 20
-18.92230826300008
 30
0.0
 11
-0.9
 21
0.0000000000000002
 31
0.0
210
0.0
220
0.0
230
1.0
 40
0.5773502691896258
 41
0.0000000000000013
 42
0.78539816339745
  0
ELLIPSE
  5
5F33
330
5EFF
100
AcDbEntity
  8
0
100
AcDbEllipse
 10
22.02637623396095
 20
-21.12684903150494
 30
0.0
 11
-0.45
 21
0.7794228634059946
 31
0.0
210
0.0
220
0.0
230
1.0
 40
0.5773502691896252
 41
5.497787143782137
 42
6.283185307179586
  0
ELLIPSE
  5
5F34
330
5EFF
100
AcDbEntity
  8
0
100
AcDbEllipse
 10
22.02637623396095
 20
-19.65715518583503
 30
0.0
 11
0.4499999999999531
 21
0.7794228634060207
 31
0.0
210
0.0
220
0.0
230
1.0
 40
0.5773502691896259
 41
3.926990816986998
 42
5.497787143781893
  0
ELLIPSE
  5
5F35
330
5EFF
100
AcDbEntity
  8
0
100
AcDbEllipse
 10
21.53140148713037
 20
3.082274593002134
 30
0.0
 11
-0.7999999999999976
 21
1.385640646055098
 31
0.0
210
0.0
220
0.0
230
1.0
 40
0.5773502691896259
 41
0.0093768775261953
 42
0.7853981633974474
  0
ELLIPSE
  5
5F36
330
5EFF
100
AcDbEntity
  8
0
100
AcDbEllipse
 10
18.49084232802822
 20
-17.61591373351572
 30
0.0
 11
-0.4500000000000461
 21
-0.7794228634059667
 31
0.0
210
0.0
220
0.0
230
1.0
 40
0.5773502691896259
 41
0.7853981633976917
 42
2.356194490192587
  0
ELLIPSE
  5
5F37
330
5EFF
100
AcDbEntity
  8
0
100
AcDbEllipse
 10
18.49084232802821
 20
-19.08560757918563
 30
0.0
 11
0.4499999999999539
 21
-0.7794228634060213
 31
0.0
210
0.0
220
0.0
230
1.0
 40
0.5773502691896253
 41
0.785398163397689
 42
2.356194490192585
  0
ELLIPSE
  5
5F38
330
5EFF
100
AcDbEntity
  8
0
100
AcDbEllipse
 10
19.12723843109611
 20
-17.98333719493319
 30
0.0
 11
0.899999999999907
 21
1.558845726812042
 31
0.0
210
0.0
220
0.0
230
1.0
 40
0.5773502691896259
 41
3.926990816987
 42
5.497787143781897
  0
ELLIPSE
  5
5F39
330
5EFF
100
AcDbEntity
  8
0
100
AcDbEllipse
 10
10.9955104474508
 20
-27.4955223627412
 30
0.0
 11
-0.4500000000000016
 21
0.7794228634059972
 31
0.0
210
0.0
220
0.0
230
1.0
 40
0.5773502691896259
 41
5.497787143782133
 42
6.283185307179585
  0
LINE
  5
5F3A
330
5EFF
100
AcDbEntity
  8
0
100
AcDbLine
 10
10.9955104474508
 20
-26.76067543990625
 30
0.0
 11
22.02637623396095
 21
-20.39200210866998
 31
0.0
  0
ELLIPSE
  5
5F3B
330
5EFF
100
AcDbEntity
  8
0
100
AcDbEllipse
 10
9.227743494484437
 20
-25.7400547137466
 30
0.0
 11
-2.499999999999995
 21
-0.0000000000000003
 31
0.0
210
0.0
220
0.0
230
1.0
 40
0.5773502691896257
 41
5.497787143782138
 42
8.639379797371931
  0
LINE
  5
5F3C
330
5EFF
100
AcDbEntity
  8
0
100
AcDbLine
 10
18.49084232802822
 20
-18.35076065635067
 30
0.0
 11
7.459976541518074
 21
-24.71943398758694
 31
0.0
  0
ELLIPSE
  5
5F3D
330
5EFF
100
AcDbEntity
  8
0
100
AcDbEllipse
 10
20.89500538406248
 20
2.714851131584659
 30
0.0
 11
-1.250000000000126
 21
2.165063509461017
 31
0.0
210
0.0
220
0.0
230
0.9999999999999998
 40
0.5773502691896259
 41
3.926990816987
 42
7.068583470576793
  0
LINE
  5
5F3E
330
5EFF
100
AcDbEntity
  8
0
100
AcDbLine
 10
22.66277233702885
 20
-19.28973172441756
 30
0.0
 11
22.66277233702885
 21
1.694230405425005
 31
0.0
  0
ELLIPSE
  5
5F3F
330
5EFF
100
AcDbEntity
  8
0
100
AcDbEllipse
 10
7.459976541518073
 20
-25.45428091042189
 30
0.0
 11
-0.4500000000000413
 21
0.7794228634059587
 31
0.0
210
0.0
220
0.0
230
0.9999999999999998
 40
0.5773502691896259
 41
3.926990816986993
 42
5.497787143781897
  0
LINE
  5
5F40
330
5EFF
100
AcDbEntity
  8
0
100
AcDbLine
 10
8.096372644585956
 20
-25.82170437183937
 30
0.0
 11
19.12723843109611
 21
-19.4530310406031
 31
0.0
  0
ELLIPSE
  5
5F41
330
5EFF
100
AcDbEntity
  8
0
100
AcDbEllipse
 10
23.29916844009674
 20
2.061653866842481
 30
0.0
 11
-0.8999999999999985
 21
0.0000000000000012
 31
0.0
210
0.0
220
0.0
230
1.0
 40
0.5773502691896254
 41
0.0000000000000095
 42
0.7853981633974564
  0
ELLIPSE
  5
5F42
330
5EFF
100
AcDbEntity
  8
0
100
AcDbEllipse
 10
9.227743494484437
 20
-26.47490163658155
 30
0.0
 11
-1.599999999999995
 21
0.0000000000000002
 31
0.0
210
0.0
220
0.0
230
1.0
 40
0.577350269189626
 41
5.497787143782138
 42
6.273808429653382
  0
SPLINE
  5
5F43
330
5EFF
100
AcDbEntity
  8
0
100
AcDbSpline
210
0.0
220
0.0
230
1.0
 70
     8
 71
     3
 72
    20
 73
    16
 74
     0
 42
0.000000001
 43
0.0000000001
 40
4.712388980384686
 40
4.712388980384686
 40
4.712388980384686
 40
4.712388980384686
 40
4.919112646862262
 40
4.919112646862262
 40
5.142574119643875
 40
5.142574119643875
 40
5.381628724161132
 40
5.381628724161132
 40
5.629603041756235
 40
5.629603041756235
 40
5.877267536718723
 40
5.877267536718723
 40
6.114931450740435
 40
6.114931450740435
 40
6.283185307179586
 40
6.283185307179586
 40
6.283185307179586
 40
6.283185307179586
 10
21.57637623396095
 20
-20.34742616809894
 30
0.0
 10
21.61756883284232
 20
-20.32364361004616
 30
0.0
 10
21.665907142478
 20
-20.29061662650867
 30
0.0
 10
21.77254870931133
 20
-20.20322240605081
 30
0.0
 10
21.83132767173846
 20
-20.14739798229122
 30
0.0
 10
21.95127242403803
 20
-20.01459767385308
 30
0.0
 10
22.01231991600193
 20
-19.93644802850081
 30
0.0
 10
22.12696008763767
 20
-19.7655495024913
 30
0.0
 10
22.18018507977314
 20
-19.67237895741439
 30
0.0
 10
22.27048709940621
 20
-19.48409532128478
 30
0.0
 10
22.30756220639585
 20
-19.38899145211352
 30
0.0
 10
22.36176363366371
 20
-19.21207609677433
 30
0.0
 10
22.37959049361273
 20
-19.12989863123299
 30
0.0
 10
22.39626840147046
 20
-19.00689382125595
 30
0.0
 10
22.39916844009674
 20
-18.96102184791806
 30
0.0
 10
22.39916844009674
 20
-18.92230826300008
 30
0.0
  0
LINE
  5
5F44
330
5EFF
100
AcDbEntity
  8
0
100
AcDbLine
 10
21.57637623396095
 20
-20.34742616809894
 30
0.0
 11
10.5455104474508
 21
-26.71609949933521
 31
0.0
  0
SPLINE
  5
5F45
330
5EFF
100
AcDbEntity
  8
0
100
AcDbSpline
210
0.0
220
0.0
230
1.0
 70
     8
 71
     3
 72
    24
 73
    20
 74
     0
 42
0.000000001
 43
0.0000000001
 40
4.089955419147758
 40
4.089955419147758
 40
4.089955419147758
 40
4.089955419147758
 40
4.398229715025711
 40
4.398229715025711
 40
4.64008465087237
 40
4.64008465087237
 40
4.876994969012447
 40
4.876994969012447
 40
5.127353086333475
 40
5.127353086333475
 40
5.390670683693927
 40
5.390670683693927
 40
5.66090042361162
 40
5.66090042361162
 40
5.930296042682112
 40
5.930296042682112
 40
6.190907541946703
 40
6.190907541946703
 40
6.283185307179586
 40
6.283185307179586
 40
6.283185307179586
 40
6.283185307179586
 10
20.72007768493729
 20
4.462871243131822
 30
0.0
 10
20.72007768493729
 20
4.462871243131822
 30
0.0
 10
20.74520727030373
 20
4.469296386995158
 30
0.0
 10
20.85510553887276
 20
4.447078768250416
 30
0.0
 10
20.92384215865363
 20
4.425110810177478
 30
0.0
 10
21.08502587209756
 20
4.345532053789771
 30
0.0
 10
21.17665362505209
 20
4.288913941295779
 30
0.0
 10
21.3735152460529
 20
4.137496572022305
 30
0.0
 10
21.47918519916708
 20
4.04084787277652
 30
0.0
 10
21.6901472787302
 20
3.811732756824284
 30
0.0
 10
21.79513951959563
 20
3.677737881149729
 30
0.0
 10
21.98847551316022
 20
3.386219113758004
 30
0.0
 10
22.07629907076359
 20
3.228202345125597
 30
0.0
 10
22.22208358650753
 20
2.909372488595294
 30
0.0
 10
22.28009178732951
 20
2.748589233502316
 30
0.0
 10
22.36098565422685
 20
2.448269559914073
 30
0.0
 10
22.38486199409796
 20
2.30825498774196
 30
0.0
 10
22.39760941928388
 20
2.141835756790246
 30
0.0
 10
22.39916844009674
 20
2.100466466680557
 30
0.0
 10
22.39916844009675
 20
2.061653866842481
 30
0.0
  0
LINE
  5
5F46
330
5EFF
100
AcDbEntity
  8
0
100
AcDbLine
 10
22.39916844009675
 20
2.061653866842481
 30
0.0
 11
22.39916844009674
 21
-18.92230826300008
 31
0.0
  0
SPLINE
  5
5F47
330
5EFF
100
AcDbEntity
  8
0
100
AcDbSpline
210
0.0
220
0.0
230
1.0
 70
     8
 71
     3
 72
    24
 73
    20
 74
     0
 42
0.000000001
 43
0.0000000001
 40
0.0
 40
0.0
 40
0.0
 40
0.0
 40
0.2404833943815377
 40
0.2404833943815377
 40
0.4952826284508357
 40
0.4952826284508357
 40
0.7615079081133704
 40
0.7615079081133704
 40
1.032338512924996
 40
1.032338512924996
 40
1.299839855592316
 40
1.299839855592316
 40
1.556319078585453
 40
1.556319078585453
 40
1.797615147984747
 40
1.797615147984747
 40
2.032802142967349
 40
2.032802142967349
 40
2.193229888031828
 40
2.193229888031828
 40
2.193229888031828
 40
2.193229888031828
 10
10.5455104474508
 20
-26.71609949933521
 30
0.0
 10
10.45791301207836
 20
-26.76667390222781
 30
0.0
 10
10.349814285856
 20
-26.81653595930476
 30
0.0
 10
10.09549356798481
 20
-26.90553534191447
 30
0.0
 10
9.947488484313197
 20
-26.94389815391168
 30
0.0
 10
9.625510093636847
 20
-26.9993947837769
 30
0.0
 10
9.450714890862203
 20
-27.0155276267858
 30
0.0
 10
9.096343386369584
 20
-27.02041641912597
 30
0.0
 10
8.916769348992964
 20
-27.00869034444248
 30
0.0
 10
8.577865638391578
 20
-26.95936578132898
 30
0.0
 10
8.418361249524068
 20
-26.92204750266061
 30
0.0
 10
8.141112558554446
 20
-26.83157540930886
 30
0.0
 10
8.022031685597509
 20
-26.7790788931846
 30
0.0
 10
7.835685453522374
 20
-26.67456273128448
 30
0.0
 10
7.766030682259624
 20
-26.62275223510683
 30
0.0
 10
7.672038297935922
 20
-26.53592193097083
 30
0.0
 10
7.646929794186675
 20
-26.50109952652281
 30
0.0
 10
7.62802566731105
 20
-26.46853493044658
 30
0.0
 10
7.626449821995885
 20
-26.46257293825219
 30
0.0
 10
7.626449821995885
 20
-26.46257293825219
 30
0.0
  0
LINE
  5
5F48
330
5EFF
100
AcDbEntity
  8
0
100
AcDbLine
 10
20.40003063723189
 20
-17.24849027209824
 30
0.0
 11
22.39916844009674
 21
-18.40269302072941
 31
0.0
  0
LINE
  5
5F49
330
5EFF
100
AcDbEntity
  8
0
100
AcDbLine
 10
19.12723843109611
 20
-19.4530310406031
 30
0.0
 11
21.12637623396095
 21
-20.60723378923428
 31
0.0
  0
LINE
  5
5F4A
330
5EFF
100
AcDbEntity
  8
0
100
AcDbLine
 10
-9.298454172603097
 20
-0.1020620726160004
 30
0.0
 11
-7.299316369738258
 21
-1.25626482124717
 31
0.0
  0
ELLIPSE
  5
5F4B
330
5EFF
100
AcDbEntity
  8
0
100
AcDbEllipse
 10
-10.57124637873888
 20
-0.8369089954509512
 30
0.0
 11
0.8999999999999065
 21
1.558845726812042
 31
0.0
210
0.0
220
0.0
230
1.0
 40
0.5773502691896258
 41
3.926990816987
 42
5.497787143781897
  0
LINE
  5
5F4C
330
5EFF
100
AcDbEntity
  8
0
100
AcDbLine
 10
-10.57124637873888
 20
-2.306602841120857
 30
0.0
 11
-8.572108575874043
 21
-3.460805589752031
 31
0.0
  0
LINE
  5
5F4D
330
5EFF
100
AcDbEntity
  8
0
100
AcDbLine
 10
-21.60211216524904
 20
-8.675276172357131
 30
0.0
 11
-10.57124637873888
 21
-2.306602841120857
 31
0.0
  0
ELLIPSE
  5
5F4E
330
5EFF
100
AcDbEntity
  8
0
100
AcDbEllipse
 10
-20.47074131535056
 20
-9.328473437099313
 30
0.0
 11
-1.599999999999995
 21
0.0
 31
0.0
210
0.0
220
0.0
230
1.0
 40
0.5773502691896262
 41
5.497787143782137
 42
6.273808429653377
  0
ELLIPSE
  5
5F4F
330
5EFF
100
AcDbEntity
  8
0
100
AcDbEllipse
 10
-7.672108575874042
 20
-2.510726986352787
 30
0.0
 11
0.4499999999999532
 21
0.7794228634060206
 31
0.0
210
0.0
220
0.0
230
0.9999999999999998
 40
0.577350269189626
 41
3.926990816987
 42
5.497787143781897
  0
LINE
  5
5F50
330
5EFF
100
AcDbEntity
  8
0
100
AcDbLine
 10
-18.7029743623842
 20
-9.614247240424017
 30
0.0
 11
-7.672108575874041
 21
-3.245573909187737
 31
0.0
  0
ELLIPSE
  5
5F51
330
5EFF
100
AcDbEntity
  8
0
100
AcDbEllipse
 10
-20.47074131535056
 20
-8.593626514264357
 30
0.0
 11
-2.499999999999995
 21
-0.0000000000000014
 31
0.0
210
0.0
220
0.0
230
1.0
 40
0.577350269189626
 41
5.497787143782137
 42
8.63937979737193
  0
LINE
  5
5F52
330
5EFF
100
AcDbEntity
  8
0
100
AcDbLine
 10
-11.20764248180677
 20
-1.204332456868426
 30
0.0
 11
-22.23850826831692
 21
-7.573005788104705
 31
0.0
  0
ELLIPSE
  5
5F53
330
5EFF
100
AcDbEntity
  8
0
100
AcDbEllipse
 10
-11.20764248180677
 20
-1.939179379703381
 30
0.0
 11
0.4499999999999539
 21
-0.7794228634060213
 31
0.0
210
0.0
220
0.0
230
1.0
 40
0.5773502691896253
 41
0.785398163397689
 42
2.356194490192585
  0
ELLIPSE
  5
5F54
330
5EFF
100
AcDbEntity
  8
0
100
AcDbEllipse
 10
-9.934850275670989
 20
0.265361388801475
 30
0.0
 11
-0.8999999999999985
 21
0.0000000000000542
 31
0.0
210
0.0
220
0.0
230
1.0
 40
0.5773502691896254
 41
0.7853981633976908
 42
2.356194490192587
  0
ELLIPSE
  5
5F55
330
5EFF
100
AcDbEntity
  8
0
100
AcDbEllipse
 10
-11.20764248180677
 20
-0.4694855340334781
 30
0.0
 11
-0.4500000000000461
 21
-0.7794228634059667
 31
0.0
210
0.0
220
0.0
230
1.0
 40
0.5773502691896259
 41
0.7853981633976917
 42
2.356194490192587
  0
ELLIPSE
  5
5F56
330
5EFF
100
AcDbEntity
  8
0
100
AcDbEllipse
 10
-9.934850275670978
 20
21.24932351864403
 30
0.0
 11
-0.8999999999999985
 21
0.0000000000000538
 31
0.0
210
0.0
220
0.0
230
1.0
 40
0.5773502691896254
 41
0.7853981633976846
 42
2.356194490192583
  0
LINE
  5
5F57
330
5EFF
100
AcDbEntity
  8
0
100
AcDbLine
 10
-10.57124637873887
 20
20.88190005722655
 30
0.0
 11
-10.57124637873888
 21
-0.1020620726160004
 31
0.0
  0
LINE
  5
5F58
330
5EFF
100
AcDbEntity
  8
0
100
AcDbLine
 10
-9.298454172603097
 20
-0.1020620726160004
 30
0.0
 11
-9.298454172603086
 21
20.88190005722655
 31
0.0
  0
ELLIPSE
  5
5F59
330
5EFF
100
AcDbEntity
  8
0
100
AcDbEllipse
 10
-8.167083322704618
 20
20.22870279248438
 30
0.0
 11
-0.7999999999999976
 21
1.385640646055098
 31
0.0
210
0.0
220
0.0
230
1.0
 40
0.5773502691896259
 41
0.0093768775261971
 42
0.7853981633974492
  0
ELLIPSE
  5
5F5A
330
5EFF
100
AcDbEntity
  8
0
100
AcDbEllipse
 10
-6.399316369738251
 20
19.20808206632472
 30
0.0
 11
-0.8999999999999985
 21
-0.0000000000000005
 31
0.0
210
0.0
220
0.0
230
1.0
 40
0.5773502691896254
 41
0.0
 42
0.7853981633974448
  0
ELLIPSE
  5
5F5B
330
5EFF
100
AcDbEntity
  8
0
100
AcDbEllipse
 10
-8.803479425772511
 20
19.8612793310669
 30
0.0
 11
-1.250000000000126
 21
2.165063509461017
 31
0.0
210
0.0
220
0.0
230
0.9999999999999998
 40
0.5773502691896259
 41
3.926990816986998
 42
7.068583470576793
  0
ELLIPSE
  5
5F5C
330
5EFF
100
AcDbEntity
  8
0
100
AcDbEllipse
 10
-6.399316369738258
 20
-1.775880063517836
 30
0.0
 11
-0.9000000000000007
 21
0.0
 31
0.0
210
0.0
220
0.0
230
1.0
 40
0.5773502691896254
 41
0.0
 42
0.7853981633974483
  0
LINE
  5
5F5D
330
5EFF
100
AcDbEntity
  8
0
100
AcDbLine
 10
-7.035712472806149
 20
-2.143303524935311
 30
0.0
 11
-7.035712472806147
 21
18.84065860490725
 31
0.0
  0
ELLIPSE
  5
5F5E
330
5EFF
100
AcDbEntity
  8
0
100
AcDbEllipse
 10
-7.672108575874042
 20
-3.980420832022697
 30
0.0
 11
-0.4500000000000009
 21
0.7794228634059951
 31
0.0
210
0.0
220
0.0
230
1.0
 40
0.5773502691896257
 41
5.497787143782139
 42
6.283185307179587
  0
ELLIPSE
  5
5F5F
330
5EFF
100
AcDbEntity
  8
0
100
AcDbEllipse
 10
-18.7029743623842
 20
-10.34909416325897
 30
0.0
 11
-0.4500000000000004
 21
0.7794228634059954
 31
0.0
210
0.0
220
0.0
230
0.9999999999999998
 40
0.5773502691896258
 41
5.497787143782137
 42
6.283185307179584
  0
ELLIPSE
  5
5F60
330
5EFF
100
AcDbEntity
  8
0
100
AcDbEllipse
 10
-22.23850826831692
 20
-8.307852710939656
 30
0.0
 11
-0.4500000000000418
 21
0.7794228634059586
 31
0.0
210
0.0
220
0.0
230
1.0
 40
0.5773502691896255
 41
3.926990816986991
 42
5.497787143781894
  0
SPLINE
  5
5F61
330
5EFF
100
AcDbEntity
  8
0
100
AcDbSpline
210
0.0
220
0.0
230
1.0
 70
     8
 71
     3
 72
    24
 73
    20
 74
     0
 42
0.000000001
 43
0.0000000001
 40
4.089955419147758
 40
4.089955419147758
 40
4.089955419147758
 40
4.089955419147758
 40
4.398229715025711
 40
4.398229715025711
 40
4.64008465087237
 40
4.64008465087237
 40
4.876994969012447
 40
4.876994969012447
 40
5.127353086333475
 40
5.127353086333475
 40
5.390670683693927
 40
5.390670683693927
 40
5.66090042361162
 40
5.66090042361162
 40
5.930296042682112
 40
5.930296042682112
 40
6.190907541946703
 40
6.190907541946703
 40
6.283185307179586
 40
6.283185307179586
 40
6.283185307179586
 40
6.283185307179586
 10
-8.978407124897708
 20
21.60929944261406
 30
0.0
 10
-8.978407124897708
 20
21.60929944261406
 30
0.0
 10
-8.953277539531264
 20
21.6157245864774
 30
0.0
 10
-8.843379270962234
 20
21.59350696773266
 30
0.0
 10
-8.774642651181366
 20
21.57153900965973
 30
0.0
 10
-8.613458937737433
 20
21.49196025327201
 30
0.0
 10
-8.521831184782906
 20
21.43534214077802
 30
0.0
 10
-8.324969563782095
 20
21.28392477150455
 30
0.0
 10
-8.219299610667917
 20
21.18727607225876
 30
0.0
 10
-8.008337531104794
 20
20.95816095630653
 30
0.0
 10
-7.903345290239363
 20
20.82416608063198
 30
0.0
 10
-7.710009296674774
 20
20.53264731324025
 30
0.0
 10
-7.622185739071406
 20
20.37463054460784
 30
0.0
 10
-7.476401223327458
 20
20.05580068807754
 30
0.0
 10
-7.418393022505481
 20
19.89501743298456
 30
0.0
 10
-7.337499155608139
 20
19.59469775939631
 30
0.0
 10
-7.313622815737033
 20
19.4546831872242
 30
0.0
 10
-7.300875390551123
 20
19.28826395627249
 30
0.0
 10
-7.299316369738252
 20
19.24689466616279
 30
0.0
 10
-7.299316369738249
 20
19.20808206632472
 30
0.0
  0
LINE
  5
5F62
330
5EFF
100
AcDbEntity
  8
0
100
AcDbLine
 10
-7.299316369738249
 20
19.20808206632472
 30
0.0
 11
-7.299316369738257
 21
-1.775880063517838
 31
0.0
  0
SPLINE
  5
5F63
330
5EFF
100
AcDbEntity
  8
0
100
AcDbSpline
210
0.0
220
0.0
230
1.0
 70
     8
 71
     3
 72
    20
 73
    16
 74
     0
 42
0.000000001
 43
0.0000000001
 40
4.71238898038469
 40
4.71238898038469
 40
4.71238898038469
 40
4.71238898038469
 40
4.919112646862267
 40
4.919112646862267
 40
5.14257411964388
 40
5.14257411964388
 40
5.381628724161136
 40
5.381628724161136
 40
5.629603041756239
 40
5.629603041756239
 40
5.877267536718727
 40
5.877267536718727
 40
6.114931450740439
 40
6.114931450740439
 40
6.283185307179586
 40
6.283185307179586
 40
6.283185307179586
 40
6.283185307179586
 10
-8.122108575874042
 20
-3.200997968616698
 30
0.0
 10
-8.080915976992672
 20
-3.177215410563918
 30
0.0
 10
-8.03257766735699
 20
-3.144188427026426
 30
0.0
 10
-7.925936100523664
 20
-3.056794206568573
 30
0.0
 10
-7.867157138096533
 20
-3.000969782808975
 30
0.0
 10
-7.747212385796959
 20
-2.868169474370834
 30
0.0
 10
-7.686164893833064
 20
-2.790019829018559
 30
0.0
 10
-7.571524722197318
 20
-2.619121303009053
 30
0.0
 10
-7.518299730061856
 20
-2.525950757932142
 30
0.0
 10
-7.427997710428785
 20
-2.337667121802535
 30
0.0
 10
-7.390922603439141
 20
-2.242563252631271
 30
0.0
 10
-7.336721176171284
 20
-2.065647897292084
 30
0.0
 10
-7.318894316222267
 20
-1.983470431750746
 30
0.0
 10
-7.302216408364538
 20
-1.860465621773701
 30
0.0
 10
-7.299316369738258
 20
-1.814593648435818
 30
0.0
 10
-7.299316369738257
 20
-1.775880063517836
 30
0.0
  0
LINE
  5
5F64
330
5EFF
100
AcDbEntity
  8
0
100
AcDbLine
 10
-8.122108575874042
 20
-3.200997968616703
 30
0.0
 11
-19.15297436238419
 21
-9.569671299852974
 31
0.0
  0
SPLINE
  5
5F65
330
5EFF
100
AcDbEntity
  8
0
100
AcDbSpline
210
0.0
220
0.0
230
1.0
 70
     8
 71
     3
 72
    24
 73
    20
 74
     0
 42
0.000000001
 43
0.0000000001
 40
0.0
 40
0.0
 40
0.0
 40
0.0
 40
0.2404833943815377
 40
0.2404833943815377
 40
0.4952826284508357
 40
0.4952826284508357
 40
0.7615079081133704
 40
0.7615079081133704
 40
1.032338512924996
 40
1.032338512924996
 40
1.299839855592316
 40
1.299839855592316
 40
1.556319078585453
 40
1.556319078585453
 40
1.797615147984747
 40
1.797615147984747
 40
2.032802142967349
 40
2.032802142967349
 40
2.193229888031829
 40
2.193229888031829
 40
2.193229888031829
 40
2.193229888031829
 10
-19.15297436238419
 20
-9.569671299852974
 30
0.0
 10
-19.24057179775663
 20
-9.620245702745569
 30
0.0
 10
-19.34867052397899
 20
-9.670107759822524
 30
0.0
 10
-19.60299124185018
 20
-9.759107142432238
 30
0.0
 10
-19.75099632552179
 20
-9.797469954429441
 30
0.0
 10
-20.07297471619815
 20
-9.852966584294669
 30
0.0
 10
-20.24776991897279
 20
-9.869099427303563
 30
0.0
 10
-20.60214142346541
 20
-9.873988219643731
 30
0.0
 10
-20.78171546084203
 20
-9.862262144960244
 30
0.0
 10
-21.12061917144341
 20
-9.812937581846741
 30
0.0
 10
-21.28012356031093
 20
-9.77561930317838
 30
0.0
 10
-21.55737225128055
 20
-9.685147209826631
 30
0.0
 10
-21.67645312423748
 20
-9.632650693702377
 30
0.0
 10
-21.86279935631262
 20
-9.528134531802244
 30
0.0
 10
-21.93245412757537
 20
-9.4763240356246
 30
0.0
 10
-22.02644651189907
 20
-9.389493731488594
 30
0.0
 10
-22.05155501564832
 20
-9.354671327040584
 30
0.0
 10
-22.07045914252395
 20
-9.322106730964341
 30
0.0
 10
-22.07203498783911
 20
-9.316144738769956
 30
0.0
 10
-22.07203498783911
 20
-9.316144738769951
 30
0.0
  0
LINE
  5
5F66
330
5EFF
100
AcDbEntity
  8
0
100
AcDbLine
 10
-7.035712472806149
 20
-2.143303524935311
 30
0.0
 11
2.494314099422093
 21
-7.645466931795574
 31
0.0
  0
LINE
  5
5F67
330
5EFF
100
AcDbEntity
  8
0
100
AcDbLine
 10
-7.672108575874042
 20
-3.245573909187737
 30
0.0
 11
1.832985225746718
 21
-8.733342374226126
 31
0.0
  0
LINE
  5
5F68
330
5EFF
100
AcDbEntity
  8
0
100
AcDbLine
 10
8.985748526407457
 20
-12.86299219131228
 30
0.0
 11
18.49084232802822
 21
-18.35076065635067
 31
0.0
  0
LINE
  5
5F69
330
5EFF
100
AcDbEntity
  8
0
100
AcDbLine
 10
9.597211858867861
 20
-11.74632686523797
 30
0.0
 11
19.12723843109612
 21
-17.24849027209824
 31
0.0
  0
LINE
  5
5F6A
330
5EFF
100
AcDbEntity
  8
0
100
AcDbLine
 10
-12.97540943477314
 20
-0.1837117307087688
 30
0.0
 11
-11.20764248180677
 21
-1.204332456868426
 31
0.0
  0
LINE
  5
5F6B
330
5EFF
100
AcDbEntity
  8
0
100
AcDbLine
 10
22.02637623396095
 20
-20.39200210866998
 30
0.0
 11
23.79414318692732
 21
-21.41262283482964
 31
0.0
  0
LINE
  5
5F6C
330
5EFF
100
AcDbEntity
  8
0
100
AcDbLine
 10
-12.33901333170525
 20
0.9185586535436573
 30
0.0
 11
-10.57124637873888
 21
-0.1020620726160004
 31
0.0
  0
ELLIPSE
  5
5F6D
330
5EFF
100
AcDbEntity
  8
0
100
AcDbEllipse
 10
-12.97540943477314
 20
0.551135192126182
 30
0.0
 11
0.4499999999999528
 21
0.7794228634060199
 31
0.0
210
0.0
220
0.0
230
1.0
 40
0.5773502691896259
 41
3.926990816986998
 42
5.497787143781895
  0
LINE
  5
5F6E
330
5EFF
100
AcDbEntity
  8
0
100
AcDbLine
 10
22.66277233702885
 20
-19.28973172441756
 30
0.0
 11
24.43053928999522
 21
-20.31035245057721
 31
0.0
  0
LINE
  5
5F6F
330
5EFF
100
AcDbEntity
  8
0
100
AcDbLine
 10
-12.33901333170525
 20
28.02624514034415
 30
0.0
 11
24.43053928999522
 21
6.797334036223268
 31
0.0
  0
ELLIPSE
  5
5F70
330
5EFF
100
AcDbEntity
  8
0
100
AcDbEllipse
 10
23.79414318692732
 20
-20.67777591199469
 30
0.0
 11
0.8999999999999063
 21
1.558845726812043
 31
0.0
210
0.0
220
0.0
230
1.0
 40
0.577350269189626
 41
3.926990816986998
 42
5.497787143781895
  0
LINE
  5
5F71
330
5EFF
100
AcDbEntity
  8
0
100
AcDbLine
 10
-11.06622112556948
 20
30.23078590884901
 30
0.0
 11
25.703331496131
 21
9.001874804728142
 31
0.0
  0
ELLIPSE
  5
5F72
330
5EFF
100
AcDbEntity
  8
0
100
AcDbEllipse
 10
25.703331496131
 20
7.532180959058227
 30
0.0
 11
0.4500000000000467
 21
0.7794228634059677
 31
0.0
210
0.0
220
0.0
230
1.0
 40
0.577350269189626
 41
0.7853981633976908
 42
2.356194490192599
  0
LINE
  5
5F73
330
5EFF
100
AcDbEntity
  8
0
100
AcDbLine
 10
25.703331496131
 20
9.00187480472814
 30
0.0
 11
25.703331496131
 21
8.267027881893183
 31
0.0
  0
ELLIPSE
  5
5F74
330
5EFF
100
AcDbEntity
  8
0
100
AcDbEllipse
 10
25.703331496131
 20
7.532180959058227
 30
0.0
 11
-0.8999999999999083
 21
-1.558845726812044
 31
0.0
210
0.0
220
0.0
230
1.0
 40
0.5773502691896258
 41
3.926990816986998
 42
5.497787143781901
  0
LINE
  5
5F75
330
5EFF
100
AcDbEntity
  8
0
100
AcDbLine
 10
24.43053928999522
 20
6.797334036223268
 30
0.0
 11
25.06693539306311
 21
7.164757497640746
 31
0.0
  0
ELLIPSE
  5
5F76
330
5EFF
100
AcDbEntity
  8
0
100
AcDbEllipse
 10
-11.06622112556947
 20
28.7610920631791
 30
0.0
 11
0.9000000000000941
 21
1.558845726811936
 31
0.0
210
0.0
220
0.0
230
1.0
 40
0.5773502691896259
 41
0.7853981633976979
 42
2.356194490192585
  0
LINE
  5
5F77
330
5EFF
100
AcDbEntity
  8
0
100
AcDbLine
 10
24.43053928999522
 20
-20.31035245057721
 30
0.0
 11
25.06693539306311
 21
-19.94292898915974
 31
0.0
  0
ELLIPSE
  5
5F78
330
5EFF
100
AcDbEntity
  8
0
100
AcDbEllipse
 10
23.79414318692732
 20
-20.67777591199469
 30
0.0
 11
-0.4500000000000465
 21
-0.7794228634059675
 31
0.0
210
0.0
220
0.0
230
0.9999999999999998
 40
0.5773502691896255
 41
0.7853981633976908
 42
2.356194490192585
  0
LINE
  5
5F79
330
5EFF
100
AcDbEntity
  8
0
100
AcDbLine
 10
23.79414318692732
 20
-21.41262283482964
 30
0.0
 11
23.79414318692732
 21
-22.1474697576646
 31
0.0
  0
LINE
  5
5F7A
330
5EFF
100
AcDbEntity
  8
0
100
AcDbLine
 10
25.06693539306311
 20
-19.94292898915974
 30
0.0
 11
25.06693539306311
 21
7.164757497640743
 31
0.0
  0
LINE
  5
5F7B
330
5EFF
100
AcDbEntity
  8
0
100
AcDbLine
 10
-46.98724560984608
 20
-19.8204545020206
 30
0.0
 11
-12.97540943477314
 21
-0.1837117307087688
 31
0.0
  0
LINE
  5
5F7C
330
5EFF
100
AcDbEntity
  8
0
100
AcDbLine
 10
-32.84510998611513
 20
-27.98542031129786
 30
0.0
 11
-46.98724560984608
 21
-19.8204545020206
 31
0.0
  0
LINE
  5
5F7D
330
5EFF
100
AcDbEntity
  8
0
100
AcDbLine
 10
-10.21769298814561
 20
-41.04936560614143
 30
0.0
 11
-24.35982861187656
 21
-32.8843997968642
 31
0.0
  0
LINE
  5
5F7E
330
5EFF
100
AcDbEntity
  8
0
100
AcDbLine
 10
23.79414318692732
 20
-21.41262283482964
 30
0.0
 11
-10.21769298814561
 21
-41.04936560614143
 31
0.0
  0
LINE
  5
5F7F
330
5EFF
100
AcDbEntity
  8
0
100
AcDbLine
 10
-46.98724560984608
 20
-20.55530142485555
 30
0.0
 11
-46.98724560984608
 21
-19.8204545020206
 31
0.0
  0
LINE
  5
5F80
330
5EFF
100
AcDbEntity
  8
0
100
AcDbLine
 10
-46.98724560984608
 20
-20.55530142485555
 30
0.0
 11
-32.84510998611513
 21
-28.72026723413282
 31
0.0
  0
LINE
  5
5F81
330
5EFF
100
AcDbEntity
  8
0
100
AcDbLine
 10
-24.35982861187656
 20
-33.61924671969915
 30
0.0
 11
-10.21769298814561
 21
-41.78421252897641
 31
0.0
  0
LINE
  5
5F82
330
5EFF
100
AcDbEntity
  8
0
100
AcDbLine
 10
-10.21769298814561
 20
-41.78421252897641
 30
0.0
 11
-10.21769298814561
 21
-41.04936560614143
 31
0.0
  0
LINE
  5
5F83
330
5EFF
100
AcDbEntity
  8
0
100
AcDbLine
 10
24.43053928999522
 20
6.797334036223268
 30
0.0
 11
24.43053928999522
 21
-20.31035245057721
 31
0.0
  0
LINE
  5
5F84
330
5EFF
100
AcDbEntity
  8
0
100
AcDbLine
 10
-12.33901333170525
 20
0.9185586535436573
 30
0.0
 11
-12.33901333170525
 21
28.02624514034415
 31
0.0
  0
LINE
  5
5F85
330
5EFF
100
AcDbEntity
  8
0
100
AcDbLine
 10
-10.21769298814561
 20
-41.78421252897641
 30
0.0
 11
23.79414318692733
 21
-22.1474697576646
 31
0.0
  0
LINE
  5
5F86
330
5EFF
100
AcDbEntity
  8
0
100
AcDbLine
 10
-11.06622112556948
 20
30.23078590884901
 30
0.0
 11
-6.11647365726364
 21
33.08852394209607
 31
0.0
  0
LINE
  5
5F87
330
5EFF
100
AcDbEntity
  8
0
100
AcDbLine
 10
46.98724560984607
 20
21.29014834769049
 30
0.0
 11
25.703331496131
 21
9.001874804728142
 31
0.0
  0
LINE
  5
5F88
330
5EFF
100
AcDbEntity
  8
0
100
AcDbLine
 10
43.45171170391333
 20
23.3313898000098
 30
0.0
 11
46.98724560984607
 21
21.29014834769049
 31
0.0
  0
LINE
  5
5F89
330
5EFF
100
AcDbEntity
  8
0
100
AcDbLine
 10
25.703331496131
 20
8.267027881893183
 30
0.0
 11
46.98724560984607
 21
20.55530142485554
 31
0.0
  0
LINE
  5
5F8A
330
5EFF
100
AcDbEntity
  8
0
100
AcDbLine
 10
46.98724560984607
 20
20.55530142485554
 30
0.0
 11
46.98724560984607
 21
21.29014834769049
 31
0.0
  0
ELLIPSE
  5
5F8B
330
5EFF
100
AcDbEntity
  8
0
100
AcDbEllipse
 10
-34.96643032967477
 20
-21.86169595433992
 30
0.0
 11
-2.0
 21
0.0
 31
0.0
210
0.0
220
0.0
230
1.0
 40
0.5773502691896258
 41
3.926990816987243
 42
7.068583470577037
  0
LINE
  5
5F8C
330
5EFF
100
AcDbEntity
  8
0
100
AcDbLine
 10
-33.55221676730167
 20
-21.04519937341219
 30
0.0
 11
-32.13800320492858
 21
-21.86169595433992
 31
0.0
  0
ELLIPSE
  5
5F8D
330
5EFF
100
AcDbEntity
  8
0
100
AcDbEllipse
 10
-33.55221676730167
 20
-22.67819253526765
 30
0.0
 11
2.0
 21
0.0
 31
0.0
210
0.0
220
0.0
230
1.0
 40
0.5773502691896259
 41
3.926990816987242
 42
7.068583470577037
  0
LINE
  5
5F8E
330
5EFF
100
AcDbEntity
  8
0
100
AcDbLine
 10
-34.96643032967476
 20
-23.49468911619537
 30
0.0
 11
-36.38064389204787
 21
-22.67819253526765
 31
0.0
  0
ELLIPSE
  5
5F8F
330
5EFF
100
AcDbEntity
  8
0
100
AcDbEllipse
 10
-13.75322689407835
 20
-34.10914466825578
 30
0.0
 11
2.0
 21
0.0
 31
0.0
210
0.0
220
0.0
230
1.0
 40
0.5773502691896258
 41
3.926990816987238
 42
7.068583470577032
  0
LINE
  5
5F90
330
5EFF
100
AcDbEntity
  8
0
100
AcDbLine
 10
-15.16744045645144
 20
-34.92564124918351
 30
0.0
 11
-16.58165401882455
 21
-34.10914466825578
 31
0.0
  0
ELLIPSE
  5
5F91
330
5EFF
100
AcDbEntity
  8
0
100
AcDbEllipse
 10
-15.16744045645146
 20
-33.29264808732804
 30
0.0
 11
-1.999999999999999
 21
0.0
 31
0.0
210
0.0
220
0.0
230
1.0
 40
0.5773502691896257
 41
3.926990816987238
 42
7.068583470577032
  0
LINE
  5
5F92
330
5EFF
100
AcDbEntity
  8
0
100
AcDbLine
 10
-13.75322689407836
 20
-32.47615150640032
 30
0.0
 11
-12.33901333170525
 21
-33.29264808732806
 31
0.0
  0
ELLIPSE
  5
5F93
330
5EFF
100
AcDbEntity
  8
0
100
AcDbEllipse
 10
-34.96643032967477
 20
-22.59654287717487
 30
0.0
 11
-2.0
 21
-0.0000000000001193
 31
0.0
210
0.0
220
0.0
230
1.0
 40
0.5773502691896258
 41
3.926990816987
 42
5.959357168603945
  0
ELLIPSE
  5
5F94
330
5EFF
100
AcDbEntity
  8
0
100
AcDbEllipse
 10
-33.55221676730167
 20
-23.4130394581026
 30
0.0
 11
2.0
 21
-0.0000000000000003
 31
0.0
210
0.0
220
0.0
230
1.0
 40
0.577350269189626
 41
0.3238281385752857
 42
0.7853981633974489
  0
LINE
  5
5F95
330
5EFF
100
AcDbEntity
  8
0
100
AcDbLine
 10
-32.13800320492858
 20
-22.59654287717488
 30
0.0
 11
-33.55221676730167
 21
-21.78004629624715
 31
0.0
  0
ELLIPSE
  5
5F96
330
5EFF
100
AcDbEntity
  8
0
100
AcDbEllipse
 10
-13.75322689407835
 20
-34.84399159109073
 30
0.0
 11
1.999999999999999
 21
0.0000000000000001
 31
0.0
210
0.0
220
0.0
230
1.0
 40
0.5773502691896259
 41
0.3238281385752852
 42
0.785398163397446
  0
LINE
  5
5F97
330
5EFF
100
AcDbEntity
  8
0
100
AcDbLine
 10
-12.33901333170525
 20
-34.02749501016301
 30
0.0
 11
-13.75322689407836
 21
-33.21099842923528
 31
0.0
  0
ELLIPSE
  5
5F98
330
5EFF
100
AcDbEntity
  8
0
100
AcDbEllipse
 10
-15.16744045645146
 20
-34.027495010163
 30
0.0
 11
-1.999999999999999
 21
-0.0000000000001194
 31
0.0
210
0.0
220
0.0
230
1.0
 40
0.5773502691896257
 41
3.926990816987
 42
5.959357168603945
  0
LINE
  5
5F99
330
5EFF
100
AcDbEntity
  8
0
100
AcDbLine
 10
-12.33901333170525
 20
-33.29264808732806
 30
0.0
 11
-12.33901333170525
 21
-34.02749501016301
 31
0.0
  0
LINE
  5
5F9A
330
5EFF
100
AcDbEntity
  8
0
100
AcDbLine
 10
-13.75322689407836
 20
-32.47615150640032
 30
0.0
 11
-13.75322689407836
 21
-33.21099842923528
 31
0.0
  0
LINE
  5
5F9B
330
5EFF
100
AcDbEntity
  8
0
100
AcDbLine
 10
-33.55221676730167
 20
-21.04519937341219
 30
0.0
 11
-33.55221676730167
 21
-21.78004629624715
 31
0.0
  0
LINE
  5
5F9C
330
5EFF
100
AcDbEntity
  8
0
100
AcDbLine
 10
-32.13800320492858
 20
-21.86169595433992
 30
0.0
 11
-32.13800320492858
 21
-22.59654287717488
 31
0.0
  0
LINE
  5
5F9D
330
5EFF
100
AcDbEntity
  8
0
100
AcDbLine
 10
35.98375887775319
 20
23.80293649462091
 30
0.0
 11
22.87565871874332
 21
18.97842580366768
 31
0.0
  0
ELLIPSE
  5
5F9E
330
5EFF
100
AcDbEntity
  8
0
100
AcDbEllipse
 10
39.20907101679406
 20
20.88190005722661
 30
0.0
 11
-6.0
 21
-0.0000000000003722
 31
0.0
210
0.0
220
0.0
230
1.0
 40
0.5773502691896272
 41
3.926990816986998
 42
5.279920301319716
  0
LINE
  5
5F9F
330
5EFF
100
AcDbEntity
  8
0
100
AcDbLine
 10
17.58000982792484
 20
35.2085843034035
 30
0.0
 11
4.357664334119125
 21
30.71308500016434
 31
0.0
  0
ELLIPSE
  5
5FA0
330
5EFF
100
AcDbEntity
  8
0
100
AcDbEllipse
 10
20.11718792475727
 20
31.98625355784369
 30
0.0
 11
5.0
 21
0.0000000000000131
 31
0.0
210
0.0
220
0.0
230
1.0
 40
0.5773502691896272
 41
5.750979124538243
 42
6.283185307179583
  0
ELLIPSE
  5
5FA1
330
5EFF
100
AcDbEntity
  8
0
100
AcDbEllipse
 10
20.11718792475727
 20
32.72110048067864
 30
0.0
 11
5.0
 21
0.0000000000000119
 31
0.0
210
0.0
220
0.0
230
1.0
 40
0.5773502691896273
 41
5.750979124538242
 42
8.386187816615823
  0
LINE
  5
5FA2
330
5EFF
100
AcDbEntity
  8
0
100
AcDbLine
 10
24.42563628872239
 20
31.25626002349041
 30
0.0
 11
24.42563628872241
 21
30.52141310065547
 31
0.0
  0
LINE
  5
5FA3
330
5EFF
100
AcDbEntity
  8
0
100
AcDbLine
 10
24.42563628872241
 20
30.52141310065547
 30
0.0
 11
15.8794502389108
 21
22.14261636918287
 31
0.0
  0
LINE
  5
5FA4
330
5EFF
100
AcDbEntity
  8
0
100
AcDbLine
 10
15.8794502389108
 20
22.87746329201782
 30
0.0
 11
24.42563628872239
 21
31.25626002349041
 31
0.0
  0
LINE
  5
5FA5
330
5EFF
100
AcDbEntity
  8
0
100
AcDbLine
 10
15.8794502389108
 20
22.87746329201782
 30
0.0
 11
15.8794502389108
 21
22.14261636918287
 31
0.0
  0
ELLIPSE
  5
5FA6
330
5EFF
100
AcDbEntity
  8
0
100
AcDbEllipse
 10
20.18789860287592
 20
20.67777591199465
 30
0.0
 11
-5.0
 21
-0.0000000000000119
 31
0.0
210
0.0
220
0.0
230
1.0
 40
0.5773502691896273
 41
5.750979124538242
 42
6.155559903006253
  0
ELLIPSE
  5
5FA7
330
5EFF
100
AcDbEntity
  8
0
100
AcDbEllipse
 10
20.18789860287592
 20
21.4126228348296
 30
0.0
 11
-5.0
 21
0.0000000000002864
 31
0.0
210
0.0
220
0.0
230
1.0
 40
0.5773502691896273
 41
5.750979124538491
 42
8.421512954909816
  0
LINE
  5
5FA8
330
5EFF
100
AcDbEntity
  8
0
100
AcDbLine
 10
-2.929590069199075
 20
31.24857584465099
 30
0.0
 11
-6.11647365726364
 21
33.08852394209607
 31
0.0
  0
ELLIPSE
  5
5FA9
330
5EFF
100
AcDbEntity
  8
0
100
AcDbEllipse
 10
1.313050617920208
 20
33.69806558743419
 30
0.0
 11
-6.0
 21
0.0000000000003439
 31
0.0
210
0.0
220
0.0
230
1.0
 40
0.5773502691896273
 41
0.7853981633976206
 42
2.103002509436347
  0
LINE
  5
5FAA
330
5EFF
100
AcDbEntity
  8
0
100
AcDbLine
 10
25.11718792475727
 20
32.72110048067866
 30
0.0
 11
25.11718792475728
 21
31.9862535578437
 31
0.0
  0
ENDBLK
  5
5F01
330
5EFF
100
AcDbEntity
  8
0
100
AcDbBlockEnd
  0
ENDSEC
  0
SECTION
  2
ENTITIES
  0
INSERT
  5
5FAB
330
1F
100
AcDbEntity
  8
0
100
AcDbBlockReference
  2
ZS35N-Front
 10
0.0
 20
0.0
 30
0.0
  0
INSERT
  5
5FAC
330
1F
100
AcDbEntity
  8
0
100
AcDbBlockReference
  2
ZS35N-Left
 10
77.48000000000001
 20
0.0
 30
0.0
  0
INSERT
  5
5FAD
330
1F
100
AcDbEntity
  8
0
100
AcDbBlockReference
  2
ZS35N-Right
 10
-77.48000000000001
 20
0.0
 30
0.0
  0
INSERT
  5
5FAE
330
1F
100
AcDbEntity
  8
0
100
AcDbBlockReference
  2
ZS35N-Top
 10
0.0
 20
-88.28000000000001
 30
0.0
  0
INSERT
  5
5FAF
330
1F
100
AcDbEntity
  8
0
100
AcDbBlockReference
  2
ZS35N-Bottom
 10
0.0
 20
52.38000000000003
 30
0.0
  0
INSERT
  5
5FB0
330
1F
100
AcDbEntity
  8
0
100
AcDbBlockReference
  2
ZS35N-ISO
 10
94.36724560984609
 20
-93.7878518266268
 30
0.0
  0
MTEXT
  5
5FB1
330
1F
100
AcDbEntity
  8
0
100
AcDbMText
 10
0.0
 20
-160.46
 30
0.0
 40
7.126666666666667
 41
0.0
 71
     5
 72
     5
  1
ZS35N
 73
     1
 44
1.0
1001
ACAD
1000
MTEXTBEGIN
1070
    73
1070
     1
1070
    44
1040
1.0
1070
    74
1070
     0
1000
MTEXTEND
  0
ENDSEC
  0
SECTION
  2
OBJECTS
  0
DICTIONARY
  5
C
330
0
100
AcDbDictionary
281
     1
  3
ACAD_CIP_PREVIOUS_PRODUCT_INFO
350
216
  3
ACAD_COLOR
350
6B
  3
ACAD_DETAILVIEWSTYLE
350
21B
  3
ACAD_GROUP
350
D
  3
ACAD_LAYOUT
350
1A
  3
ACAD_MATERIAL
350
6A
  3
ACAD_MLEADERSTYLE
350
12D
  3
ACAD_MLINESTYLE
350
17
  3
ACAD_PLOTSETTINGS
350
19
  3
ACAD_PLOTSTYLENAME
350
E
  3
ACAD_SCALELIST
350
10C
  3
ACAD_SECTIONVIEWSTYLE
350
219
  3
ACAD_TABLESTYLE
350
7E
  3
ACAD_VISUALSTYLE
350
EF
  3
ACDB_RECOMPOSE_DATA
350
60B2
  3
AcDbVariableDictionary
350
5E
  3
DWGPROPS
350
60B3
  0
DICTIONARY
  5
6002
330
8
100
AcDbDictionary
280
     1
281
     1
  0
DICTIONARY
  5
1FF
330
2
100
AcDbDictionary
280
     1
281
     1
  3
ACAD_LAYERSTATES
360
200
  0
DICTIONARY
  5
13C
330
10
100
AcDbDictionary
280
     1
281
     1
  0
DICTIONARY
  5
1CE
330
1F
100
AcDbDictionary
280
     1
281
     1
  3
ACAD_LAYOUTSELFREF
360
600A
  0
DICTIONARY
  5
5FB5
330
D2
100
AcDbDictionary
280
     1
281
     1
  3
ACAD_LAYOUTSELFREF
360
6013
  0
DICTIONARY
  5
5FB7
330
D6
100
AcDbDictionary
280
     1
281
     1
  3
ACAD_LAYOUTSELFREF
360
6016
  0
XRECORD
  5
216
102
{ACAD_REACTORS
330
C
102
}
330
C
100
AcDbXrecord
280
     1
300
ACD
300
2021
300
87393ACD_2021_0F
  0
DICTIONARY
  5
6B
102
{ACAD_REACTORS
330
C
102
}
330
C
100
AcDbDictionary
281
     1
  0
DICTIONARY
  5
21B
102
{ACAD_REACTORS
330
C
102
}
330
C
100
AcDbDictionary
281
     1
  3
Metric50
350
21C
  0
DICTIONARY
  5
D
102
{ACAD_REACTORS
330
C
102
}
330
C
100
AcDbDictionary
281
     1
  0
DICTIONARY
  5
1A
102
{ACAD_REACTORS
330
C
102
}
330
C
100
AcDbDictionary
281
     1
  3
Layout1
350
D3
  3
Layout2
350
D7
  3
Model
350
22
  0
DICTIONARY
  5
6A
102
{ACAD_REACTORS
330
C
102
}
330
C
100
AcDbDictionary
281
     1
  3
ByBlock
350
ED
  3
ByLayer
350
EC
  3
Global
350
EE
  0
DICTIONARY
  5
12D
102
{ACAD_REACTORS
330
C
102
}
330
C
100
AcDbDictionary
281
     1
  3
Standard
350
12E
  0
DICTIONARY
  5
17
102
{ACAD_REACTORS
330
C
102
}
330
C
100
AcDbDictionary
281
     1
  3
Standard
350
18
  0
DICTIONARY
  5
19
102
{ACAD_REACTORS
330
C
102
}
330
C
100
AcDbDictionary
281
     1
  0
ACDBDICTIONARYWDFLT
  5
E
102
{ACAD_REACTORS
330
C
102
}
330
C
100
AcDbDictionary
281
     1
  3
Normal
350
F
100
AcDbDictionaryWithDefault
340
F
  0
DICTIONARY
  5
10C
102
{ACAD_REACTORS
330
C
102
}
330
C
100
AcDbDictionary
281
     1
  3
A0
350
10D
  3
A1
350
1BE
  3
A2
350
1BF
  3
A3
350
1C0
  3
A4
350
1C1
  3
A5
350
1C2
  3
A6
350
1C3
  3
A7
350
1C4
  3
A8
350
1C5
  3
A9
350
1C6
  3
B0
350
1C7
  3
B1
350
1C8
  3
B2
350
1C9
  3
B3
350
1CA
  3
B4
350
1CB
  3
B5
350
1CC
  3
B6
350
1CD
  0
DICTIONARY
  5
219
102
{ACAD_REACTORS
330
C
102
}
330
C
100
AcDbDictionary
281
     1
  3
Metric50
350
21A
  0
DICTIONARY
  5
7E
102
{ACAD_REACTORS
330
C
102
}
330
C
100
AcDbDictionary
281
     1
  3
Standard
350
7F
  0
DICTIONARY
  5
EF
102
{ACAD_REACTORS
330
C
102
}
330
C
100
AcDbDictionary
281
     1
  3
2dWireframe
350
F5
  3
Basic
350
F4
  3
Brighten
350
FB
  3
ColorChange
350
FF
  3
Conceptual
350
F8
  3
Dim
350
FA
  3
EdgeColorOff
350
1E6
  3
Facepattern
350
FE
  3
Flat
350
F0
  3
FlatWithEdges
350
F1
  3
Gouraud
350
F2
  3
GouraudWithEdges
350
F3
  3
Hidden
350
F7
  3
JitterOff
350
1E4
  3
Linepattern
350
FD
  3
OverhangOff
350
1E5
  3
Realistic
350
F9
  3
Shaded
350
1F3
  3
Shaded with edges
350
1F2
  3
Shades of Gray
350
1EF
  3
Sketchy
350
1F0
  3
Thicken
350
FC
  3
Wireframe
350
F6
  3
X-Ray
350
1F1
  0
XRECORD
  5
60B2
102
{ACAD_REACTORS
330
C
102
}
330
C
100
AcDbXrecord
280
     1
 90
        1
330
7F
  0
DICTIONARY
  5
5E
102
{ACAD_REACTORS
330
C
102
}
330
C
100
AcDbDictionary
281
     1
  3
CANNOSCALE
350
146
  3
CENTEREXE
350
259
  3
CENTERLTYPEFILE
350
25A
  3
CMLEADERSTYLE
350
145
  3
CTABLESTYLE
350
84
  3
CVIEWDETAILSTYLE
350
227
  3
CVIEWSECTIONSTYLE
350
228
  3
DIMASSOC
350
5F
  3
HIDETEXT
350
63
  3
INDEXCTL
350
605F
  3
LAYEREVAL
350
1AE
  3
LAYERNOTIFY
350
1AF
  3
LIGHTINGUNITS
350
605D
  3
MSLTSCALE
350
605C
  3
PSOLHEIGHT
350
60AF
  3
PSOLWIDTH
350
60AE
  3
SORTENTS
350
605E
  3
XCLIPFRAME
350
60B0
  0
XRECORD
  5
60B3
102
{ACAD_REACTORS
330
C
102
}
330
C
100
AcDbXrecord
280
     1
  1
DWGPROPS COOKIE
  2

  3

  4

  6

  7

  8
tronnguyen
  9

300
=
301
=
302
=
303
=
304
=
305
=
306
=
307
=
308
=
309
=
 40
0.7542476851851852
 41
2460781.656018518
 42
2460782.412511574
  1

 90
        0
  0
DICTIONARY
  5
200
102
{ACAD_REACTORS
330
1FF
102
}
330
1FF
100
AcDbDictionary
281
     1
  0
XRECORD
  5
600A
102
{ACAD_REACTORS
330
1CE
102
}
330
1CE
100
AcDbXrecord
280
     1
340
1F
  0
XRECORD
  5
6013
102
{ACAD_REACTORS
330
5FB5
102
}
330
5FB5
100
AcDbXrecord
280
     1
340
D2
  0
XRECORD
  5
6016
102
{ACAD_REACTORS
330
5FB7
102
}
330
5FB7
100
AcDbXrecord
280
     1
340
D6
  0
ACDBDETAILVIEWSTYLE
  5
21C
102
{ACAD_XDICTIONARY
360
60F2
102
}
102
{ACAD_REACTORS
330
21B
102
}
330
21B
100
AcDbModelDocViewStyle
 70
     0
  3
Metric50
290
     0
100
AcDbDetailViewStyle
 70
     0
 71
     0
 90
        3
 71
     1
340
11
 40
5.0
340
0
 40
5.0
300

 40
0.0
280
     1
 71
     2
340
16
 90
       25
 71
     3
340
11
 40
5.0
 90
        0
 40
15.0
 90
        1
300
%<\AcVar ViewDetailId>% (%<\AcVar ViewScale \f "%sn">%)
 71
     4
340
16
 90
       25
340
16
 90
       25
280
     0
  0
LAYOUT
  5
D3
102
{ACAD_XDICTIONARY
360
60B7
102
}
102
{ACAD_REACTORS
330
1A
102
}
330
1A
100
AcDbPlotSettings
  1

  2
C:\Documents and Settings\basas\Application Data\Autodesk\AutoCAD 2005\R16.1\enu\plotters\Default Windows System Printer.pc3
  4

  6

 40
0.0
 41
0.0
 42
0.0
 43
0.0
 44
0.0
 45
0.0
 46
0.0
 47
0.0
 48
0.0
 49
0.0
140
0.0
141
0.0
142
1.0
143
1.0
 70
   688
 72
     0
 73
     0
 74
     5
  7

 75
    16
147
1.0
148
0.0
149
0.0
100
AcDbLayout
  1
Layout1
 70
     1
 71
     1
 10
0.0
 20
0.0
 11
12.0
 21
9.0
 12
0.0
 22
0.0
 32
0.0
 14
0.0
 24
0.0
 34
0.0
 15
0.0
 25
0.0
 35
0.0
146
0.0
 13
0.0
 23
0.0
 33
0.0
 16
1.0
 26
0.0
 36
0.0
 17
0.0
 27
1.0
 37
0.0
 76
     0
330
D2
  0
LAYOUT
  5
D7
102
{ACAD_XDICTIONARY
360
60B9
102
}
102
{ACAD_REACTORS
330
1A
102
}
330
1A
100
AcDbPlotSettings
  1

  2
C:\Documents and Settings\basas\Application Data\Autodesk\AutoCAD 2005\R16.1\enu\plotters\Default Windows System Printer.pc3
  4

  6

 40
0.0
 41
0.0
 42
0.0
 43
0.0
 44
0.0
 45
0.0
 46
0.0
 47
0.0
 48
0.0
 49
0.0
140
0.0
141
0.0
142
1.0
143
1.0
 70
   688
 72
     0
 73
     0
 74
     5
  7

 75
    16
147
1.0
148
0.0
149
0.0
100
AcDbLayout
  1
Layout2
 70
     1
 71
     2
 10
0.0
 20
0.0
 11
12.0
 21
9.0
 12
0.0
 22
0.0
 32
0.0
 14
0.0
 24
0.0
 34
0.0
 15
0.0
 25
0.0
 35
0.0
146
0.0
 13
0.0
 23
0.0
 33
0.0
 16
1.0
 26
0.0
 36
0.0
 17
0.0
 27
1.0
 37
0.0
 76
     0
330
D6
  0
LAYOUT
  5
22
102
{ACAD_XDICTIONARY
360
60B4
102
}
102
{ACAD_REACTORS
330
1A
102
}
330
1A
100
AcDbPlotSettings
  1

  2
none_device
  4
ISO_A4_(210.00_x_297.00_MM)
  6

 40
7.5
 41
20.0
 42
7.5
 43
20.0
 44
210.0
 45
297.0
 46
11.54999923706054
 47
-13.65000009536743
 48
0.0
 49
0.0
140
0.0
141
0.0
142
1.0
143
8.704084754739808
 70
 11952
 72
     1
 73
     0
 74
     0
  7

 75
     0
147
0.1148885871608098
148
0.0
149
0.0
100
AcDbLayout
  1
Model
 70
     1
 71
     0
 10
0.0
 20
0.0
 11
12.0
 21
9.0
 12
0.0
 22
0.0
 32
0.0
 14
0.0
 24
0.0
 34
0.0
 15
0.0
 25
0.0
 35
0.0
146
0.0
 13
0.0
 23
0.0
 33
0.0
 16
1.0
 26
0.0
 36
0.0
 17
0.0
 27
1.0
 37
0.0
 76
     0
330
1F
331
EA
1001
ACAD_PSEXT
1000
None
1000
None
1000
Not applicable
1000
The layout will not be plotted unless a new plotter configuration name is selected.
1070
     0
  0
MATERIAL
  5
ED
102
{ACAD_XDICTIONARY
360
1F9
102
}
102
{ACAD_REACTORS
330
6A
102
}
330
6A
100
AcDbMaterial
  1
ByBlock
  0
MATERIAL
  5
EC
102
{ACAD_XDICTIONARY
360
1F7
102
}
102
{ACAD_REACTORS
330
6A
102
}
330
6A
100
AcDbMaterial
  1
ByLayer
  0
MATERIAL
  5
EE
102
{ACAD_XDICTIONARY
360
173
102
}
102
{ACAD_REACTORS
330
6A
102
}
330
6A
100
AcDbMaterial
  1
Global
 43
0.0007999999797903
 43
0.0
 43
0.0
 43
0.0
 43
0.0
 43
0.0007999999797903
 43
0.0
 43
0.0
 43
0.0
 43
0.0
 43
1.0
 43
0.0
 43
0.0
 43
0.0
 43
0.0
 43
1.0
 49
0.0007999999797903
 49
0.0
 49
0.0
 49
0.0
 49
0.0
 49
0.0007999999797903
 49
0.0
 49
0.0
 49
0.0
 49
0.0
 49
1.0
 49
0.0
 49
0.0
 49
0.0
 49
0.0
 49
1.0
142
0.0007999999797903
142
0.0
142
0.0
142
0.0
142
0.0
142
0.0007999999797903
142
0.0
142
0.0
142
0.0
142
0.0
142
1.0
142
0.0
142
0.0
142
0.0
142
0.0
142
1.0
144
0.0007999999797903
144
0.0
144
0.0
144
0.0
144
0.0
144
0.0007999999797903
144
0.0
144
0.0
144
0.0
144
0.0
144
1.0
144
0.0
144
0.0
144
0.0
144
0.0
144
1.0
1001
ACAD
1070
    -1
1070
     3
1070
     0
1000

1071
        0
1070
     0
  0
MLEADERSTYLE
  5
12E
102
{ACAD_XDICTIONARY
360
60DE
102
}
102
{ACAD_REACTORS
330
12D
102
}
330
12D
100
AcDbMLeaderStyle
170
     2
171
     1
172
     0
 90
        2
 40
0.0
 41
0.0
173
     1
 91
-1056964608
340
14
 92
       -2
290
     1
 42
2.0
291
     1
 43
8.0
  3
Standard
 44
4.0
300

342
11
174
     1
178
     1
175
     1
176
     0
 93
-1056964608
 45
4.0
292
     0
297
     0
 46
4.0
 94
-1056964608
 47
1.0
 49
1.0
140
1.0
293
     1
141
0.0
294
     1
177
     0
142
1.0
295
     0
296
     0
143
3.75
1001
ACAD_MLEADERVER
1070
     2
  0
MLINESTYLE
  5
18
102
{ACAD_REACTORS
330
17
102
}
330
17
100
AcDbMlineStyle
  2
STANDARD
 70
     0
  3

 62
   256
 51
90.0
 52
90.0
 71
     2
 49
0.5
 62
   256
  6
BYLAYER
 49
-0.5
 62
   256
  6
BYLAYER
  0
ACDBPLACEHOLDER
  5
F
102
{ACAD_REACTORS
330
E
102
}
330
E
  0
SCALE
  5
10D
102
{ACAD_REACTORS
330
10C
102
}
330
10C
100
AcDbScale
 70
     0
300
1:1
140
1.0
141
1.0
290
     1
  0
SCALE
  5
1BE
102
{ACAD_REACTORS
330
10C
102
}
330
10C
100
AcDbScale
 70
     0
300
1:2
140
1.0
141
2.0
290
     0
  0
SCALE
  5
1BF
102
{ACAD_REACTORS
330
10C
102
}
330
10C
100
AcDbScale
 70
     0
300
1:4
140
1.0
141
4.0
290
     0
  0
SCALE
  5
1C0
102
{ACAD_REACTORS
330
10C
102
}
330
10C
100
AcDbScale
 70
     0
300
1:5
140
1.0
141
5.0
290
     0
  0
SCALE
  5
1C1
102
{ACAD_REACTORS
330
10C
102
}
330
10C
100
AcDbScale
 70
     0
300
1:8
140
1.0
141
8.0
290
     0
  0
SCALE
  5
1C2
102
{ACAD_REACTORS
330
10C
102
}
330
10C
100
AcDbScale
 70
     0
300
1:10
140
1.0
141
10.0
290
     0
  0
SCALE
  5
1C3
102
{ACAD_REACTORS
330
10C
102
}
330
10C
100
AcDbScale
 70
     0
300
1:16
140
1.0
141
16.0
290
     0
  0
SCALE
  5
1C4
102
{ACAD_REACTORS
330
10C
102
}
330
10C
100
AcDbScale
 70
     0
300
1:20
140
1.0
141
20.0
290
     0
  0
SCALE
  5
1C5
102
{ACAD_REACTORS
330
10C
102
}
330
10C
100
AcDbScale
 70
     0
300
1:30
140
1.0
141
30.0
290
     0
  0
SCALE
  5
1C6
102
{ACAD_REACTORS
330
10C
102
}
330
10C
100
AcDbScale
 70
     0
300
1:40
140
1.0
141
40.0
290
     0
  0
SCALE
  5
1C7
102
{ACAD_REACTORS
330
10C
102
}
330
10C
100
AcDbScale
 70
     0
300
1:50
140
1.0
141
50.0
290
     0
  0
SCALE
  5
1C8
102
{ACAD_REACTORS
330
10C
102
}
330
10C
100
AcDbScale
 70
     0
300
1:100
140
1.0
141
100.0
290
     0
  0
SCALE
  5
1C9
102
{ACAD_REACTORS
330
10C
102
}
330
10C
100
AcDbScale
 70
     0
300
2:1
140
2.0
141
1.0
290
     0
  0
SCALE
  5
1CA
102
{ACAD_REACTORS
330
10C
102
}
330
10C
100
AcDbScale
 70
     0
300
4:1
140
4.0
141
1.0
290
     0
  0
SCALE
  5
1CB
102
{ACAD_REACTORS
330
10C
102
}
330
10C
100
AcDbScale
 70
     0
300
8:1
140
8.0
141
1.0
290
     0
  0
SCALE
  5
1CC
102
{ACAD_REACTORS
330
10C
102
}
330
10C
100
AcDbScale
 70
     0
300
10:1
140
10.0
141
1.0
290
     0
  0
SCALE
  5
1CD
102
{ACAD_REACTORS
330
10C
102
}
330
10C
100
AcDbScale
 70
     0
300
100:1
140
100.0
141
1.0
290
     0
  0
ACDBSECTIONVIEWSTYLE
  5
21A
102
{ACAD_XDICTIONARY
360
60F0
102
}
102
{ACAD_REACTORS
330
219
102
}
330
219
100
AcDbModelDocViewStyle
 70
     0
  3
Metric50
290
     0
100
AcDbSectionViewStyle
 70
     0
 71
     0
 90
      102
 71
     1
340
11
 40
5.0
340
0
340
0
 40
5.0
300
I, O, Q, S, X, Z
 40
10.0
 90
        0
 40
2.5
 90
        0
 71
     2
340
16
 90
       25
340
16
 90
       50
 40
5.0
 40
2.5
 40
5.0
 71
     3
340
11
 40
5.0
 90
        0
 40
15.0
 90
        1
300
%<\AcVar ViewSectionStartId>%-%<\AcVar ViewSectionEndId>% (%<\AcVar ViewScale \f "%sn">%)
 71
     4
300
ANSI31
 40
1.0
 90
        0
290
     0
290
     0
 90
        6
 40
0.0
 40
1.570796326794896
 40
0.2617993877991494
 40
1.308996938995747
 40
-0.2617993877991494
 40
1.832595714594046
  0
TABLESTYLE
  5
7F
102
{ACAD_XDICTIONARY
360
162
102
}
102
{ACAD_REACTORS
330
7E
102
}
330
7E
100
AcDbTableStyle
  3
Standard
 70
     0
 71
     0
 40
1.5
 41
1.5
280
     0
281
     0
  7
Standard
140
4.5
170
     2
 62
     0
 63
     7
283
     0
274
    -2
284
     1
 64
     0
275
    -2
285
     1
 65
     0
276
    -2
286
     1
 66
     0
277
    -2
287
     1
 67
     0
278
    -2
288
     1
 68
     0
279
    -2
289
     1
 69
     0
  7
Standard
140
6.0
170
     5
 62
     0
 63
     7
283
     0
274
    -2
284
     1
 64
     0
275
    -2
285
     1
 65
     0
276
    -2
286
     1
 66
     0
277
    -2
287
     1
 67
     0
278
    -2
288
     1
 68
     0
279
    -2
289
     1
 69
     0
  7
Standard
140
4.5
170
     5
 62
     0
 63
     7
283
     0
274
    -2
284
     1
 64
     0
275
    -2
285
     1
 65
     0
276
    -2
286
     1
 66
     0
277
    -2
287
     1
 67
     0
278
    -2
288
     1
 68
     0
279
    -2
289
     1
 69
     0
  0
VISUALSTYLE
  5
F5
102
{ACAD_XDICTIONARY
360
60C8
102
}
102
{ACAD_REACTORS
330
EF
102
}
330
EF
100
AcDbVisualStyle
  2
2dWireframe
 70
     4
 71
     0
 72
     2
 73
     1
 90
        0
 40
-0.6
 41
-30.0
 62
     5
 63
     7
 74
     1
 91
        4
 64
     7
 65
   257
 75
     1
175
     1
 42
1.0
 92
        0
 66
   257
 43
1.0
 76
     1
 77
     6
 78
     2
 67
     7
 79
     5
170
     0
171
     0
290
     0
174
     0
 93
        1
 44
0.0
173
     0
291
     0
 45
0.0
1001
ACAD
1000
AcDbSavedByObjectVersion
1070
     0
  0
VISUALSTYLE
  5
F4
102
{ACAD_XDICTIONARY
360
60C6
102
}
102
{ACAD_REACTORS
330
EF
102
}
330
EF
100
AcDbVisualStyle
  2
Basic
 70
     7
 71
     1
 72
     0
 73
     1
 90
        0
 40
-0.6
 41
-30.0
 62
     5
 63
     7
 74
     0
 91
        4
 64
     7
 65
   257
 75
     1
175
     1
 42
1.0
 92
        8
 66
     7
 43
1.0
 76
     1
 77
     6
 78
     2
 67
     7
 79
     5
170
     0
171
     0
290
     0
174
     0
 93
        1
 44
0.0
173
     0
291
     1
 45
0.0
1001
ACAD
1000
AcDbSavedByObjectVersion
1070
     0
  0
VISUALSTYLE
  5
FB
102
{ACAD_XDICTIONARY
360
60D4
102
}
102
{ACAD_REACTORS
330
EF
102
}
330
EF
100
AcDbVisualStyle
  2
Brighten
 70
    12
 71
     2
 72
     2
 73
     1
 90
        0
 40
-0.6
 41
-30.0
 62
     5
 63
     7
 74
     1
 91
        4
 64
     7
 65
   257
 75
     1
175
     1
 42
1.0
 92
        8
 66
     7
 43
1.0
 76
     1
 77
     6
 78
     2
 67
     7
 79
     5
170
     0
171
     0
290
     0
174
     0
 93
        1
 44
50.0
173
     0
291
     1
 45
0.0
1001
ACAD
1000
AcDbSavedByObjectVersion
1070
     0
  0
VISUALSTYLE
  5
FF
102
{ACAD_XDICTIONARY
360
60DC
102
}
102
{ACAD_REACTORS
330
EF
102
}
330
EF
100
AcDbVisualStyle
  2
ColorChange
 70
    16
 71
     2
 72
     2
 73
     3
 90
        0
 40
-0.6
 41
-30.0
 62
     5
 63
     8
 74
     1
 91
        4
 64
     7
 65
   257
 75
     1
175
     1
 42
1.0
 92
        8
 66
     8
 43
1.0
 76
     1
 77
     6
 78
     2
 67
     7
 79
     5
170
     0
171
     0
290
     0
174
     0
 93
        1
 44
0.0
173
     0
291
     1
 45
0.0
1001
ACAD
1000
AcDbSavedByObjectVersion
1070
     0
  0
VISUALSTYLE
  5
F8
102
{ACAD_XDICTIONARY
360
60CE
102
}
102
{ACAD_REACTORS
330
EF
102
}
330
EF
100
AcDbVisualStyle
  2
Conceptual
 70
     9
 71
     3
 72
     2
 73
     1
 90
        0
 40
-0.6
 41
-30.0
 62
     5
 63
     7
 74
     2
 91
        2
 64
     7
 65
   257
 75
     1
175
     1
 42
40.0
 92
        8
 66
     7
 43
1.0
 76
     1
 77
     6
 78
     2
 67
     7
 79
     3
170
     0
171
     0
290
     0
174
     0
 93
        1
 44
0.0
173
     0
291
     0
 45
0.0
1001
ACAD
1000
AcDbSavedByObjectVersion
1070
     0
  0
VISUALSTYLE
  5
FA
102
{ACAD_XDICTIONARY
360
60D2
102
}
102
{ACAD_REACTORS
330
EF
102
}
330
EF
100
AcDbVisualStyle
  2
Dim
 70
    11
 71
     2
 72
     2
 73
     1
 90
        0
 40
-0.6
 41
-30.0
 62
     5
 63
     7
 74
     1
 91
        4
 64
     7
 65
   257
 75
     1
175
     1
 42
1.0
 92
        8
 66
     7
 43
1.0
 76
     1
 77
     6
 78
     2
 67
     7
 79
     5
170
     0
171
     0
290
     0
174
     0
 93
        1
 44
-50.0
173
     0
291
     1
 45
0.0
1001
ACAD
1000
AcDbSavedByObjectVersion
1070
     0
  0
VISUALSTYLE
  5
1E6
102
{ACAD_XDICTIONARY
360
60E4
102
}
102
{ACAD_REACTORS
330
EF
102
}
330
EF
100
AcDbVisualStyle
  2
EdgeColorOff
 70
    22
 71
     2
 72
     2
 73
     0
 90
        0
 40
-0.6
 41
-30.0
 62
     5
 63
     7
 74
     1
 91
        4
 64
     7
 65
   257
 75
     1
175
     1
 42
1.0
 92
        8
 66
     7
 43
1.0
 76
     1
 77
     6
 78
     2
 67
     7
 79
     5
170
     0
171
     0
290
     0
174
     0
 93
        1
 44
0.0
173
     0
291
     1
 45
0.0
1001
ACAD
1000
AcDbSavedByObjectVersion
1070
     0
  0
VISUALSTYLE
  5
FE
102
{ACAD_XDICTIONARY
360
60DA
102
}
102
{ACAD_REACTORS
330
EF
102
}
330
EF
100
AcDbVisualStyle
  2
Facepattern
 70
    15
 71
     2
 72
     2
 73
     1
 90
        0
 40
-0.6
 41
-30.0
 62
     5
 63
     7
 74
     1
 91
        4
 64
     7
 65
   257
 75
     1
175
     1
 42
1.0
 92
        8
 66
     7
 43
1.0
 76
     1
 77
     6
 78
     2
 67
     7
 79
     5
170
     0
171
     0
290
     0
174
     0
 93
        1
 44
0.0
173
     0
291
     1
 45
0.0
1001
ACAD
1000
AcDbSavedByObjectVersion
1070
     0
  0
VISUALSTYLE
  5
F0
102
{ACAD_XDICTIONARY
360
60BE
102
}
102
{ACAD_REACTORS
330
EF
102
}
330
EF
100
AcDbVisualStyle
  2
Flat
 70
     0
 71
     2
 72
     1
 73
     1
 90
        2
 40
-0.6
 41
30.0
 62
     5
 63
     7
 74
     0
 91
        0
 64
     7
 65
   257
 75
     1
175
     1
 42
1.0
 92
        8
 66
     7
 43
1.0
 76
     1
 77
     6
 78
     2
 67
     7
 79
     5
170
     0
171
     0
290
     0
174
     0
 93
       13
 44
0.0
173
     0
291
     1
 45
0.0
1001
ACAD
1000
AcDbSavedByObjectVersion
1070
     0
  0
VISUALSTYLE
  5
F1
102
{ACAD_XDICTIONARY
360
60C0
102
}
102
{ACAD_REACTORS
330
EF
102
}
330
EF
100
AcDbVisualStyle
  2
FlatWithEdges
 70
     1
 71
     2
 72
     1
 73
     1
 90
        2
 40
-0.6
 41
30.0
 62
     5
 63
     7
 74
     1
 91
        0
 64
     7
 65
   257
 75
     1
175
     1
 42
1.0
 92
        0
 66
   257
 43
1.0
 76
     1
 77
     6
 78
     2
 67
     7
 79
     5
170
     0
171
     0
290
     0
174
     0
 93
       13
 44
0.0
173
     0
291
     1
 45
0.0
1001
ACAD
1000
AcDbSavedByObjectVersion
1070
     0
  0
VISUALSTYLE
  5
F2
102
{ACAD_XDICTIONARY
360
60C2
102
}
102
{ACAD_REACTORS
330
EF
102
}
330
EF
100
AcDbVisualStyle
  2
Gouraud
 70
     2
 71
     2
 72
     2
 73
     1
 90
        2
 40
-0.6
 41
30.0
 62
     5
 63
     7
 74
     0
 91
        0
 64
     7
 65
   257
 75
     1
175
     1
 42
1.0
 92
        0
 66
     7
 43
1.0
 76
     1
 77
     6
 78
     2
 67
     7
 79
     5
170
     0
171
     0
290
     0
174
     0
 93
       13
 44
0.0
173
     0
291
     1
 45
0.0
1001
ACAD
1000
AcDbSavedByObjectVersion
1070
     0
  0
VISUALSTYLE
  5
F3
102
{ACAD_XDICTIONARY
360
60C4
102
}
102
{ACAD_REACTORS
330
EF
102
}
330
EF
100
AcDbVisualStyle
  2
GouraudWithEdges
 70
     3
 71
     2
 72
     2
 73
     1
 90
        2
 40
-0.6
 41
30.0
 62
     5
 63
     7
 74
     1
 91
        0
 64
     7
 65
   257
 75
     1
175
     1
 42
1.0
 92
        0
 66
   257
 43
1.0
 76
     1
 77
     6
 78
     2
 67
     7
 79
     5
170
     0
171
     0
290
     0
174
     0
 93
       13
 44
0.0
173
     0
291
     1
 45
0.0
1001
ACAD
1000
AcDbSavedByObjectVersion
1070
     0
  0
VISUALSTYLE
  5
F7
102
{ACAD_XDICTIONARY
360
60CC
102
}
102
{ACAD_REACTORS
330
EF
102
}
330
EF
100
AcDbVisualStyle
  2
Hidden
 70
     6
 71
     1
 72
     2
 73
     2
 90
        0
 40
-0.6
 41
-30.0
 62
     5
 63
     7
 74
     2
 91
        2
 64
     7
 65
   257
 75
     2
175
     1
 42
40.0
 92
        0
 66
   257
 43
1.0
 76
     1
 77
     6
 78
     2
 67
     7
 79
     3
170
     0
171
     0
290
     0
174
     0
 93
        1
 44
0.0
173
     0
291
     0
 45
0.0
1001
ACAD
1000
AcDbSavedByObjectVersion
1070
     0
  0
VISUALSTYLE
  5
1E4
102
{ACAD_XDICTIONARY
360
60E0
102
}
102
{ACAD_REACTORS
330
EF
102
}
330
EF
100
AcDbVisualStyle
  2
JitterOff
 70
    20
 71
     2
 72
     2
 73
     0
 90
        0
 40
-0.6
 41
-30.0
 62
     5
 63
     7
 74
     1
 91
        4
 64
     7
 65
   257
 75
     1
175
     1
 42
1.0
 92
       10
 66
     7
 43
1.0
 76
     1
 77
     6
 78
     2
 67
     7
 79
     5
170
     0
171
     0
290
     0
174
     0
 93
        1
 44
0.0
173
     0
291
     1
 45
0.0
1001
ACAD
1000
AcDbSavedByObjectVersion
1070
     0
  0
VISUALSTYLE
  5
FD
102
{ACAD_XDICTIONARY
360
60D8
102
}
102
{ACAD_REACTORS
330
EF
102
}
330
EF
100
AcDbVisualStyle
  2
Linepattern
 70
    14
 71
     2
 72
     2
 73
     1
 90
        0
 40
-0.6
 41
-30.0
 62
     5
 63
     7
 74
     1
 91
        4
 64
     7
 65
   257
 75
     7
175
     7
 42
1.0
 92
        8
 66
     7
 43
1.0
 76
     1
 77
     6
 78
     2
 67
     7
 79
     5
170
     0
171
     0
290
     0
174
     0
 93
        1
 44
0.0
173
     0
291
     1
 45
0.0
1001
ACAD
1000
AcDbSavedByObjectVersion
1070
     0
  0
VISUALSTYLE
  5
1E5
102
{ACAD_XDICTIONARY
360
60E2
102
}
102
{ACAD_REACTORS
330
EF
102
}
330
EF
100
AcDbVisualStyle
  2
OverhangOff
 70
    21
 71
     2
 72
     2
 73
     0
 90
        0
 40
-0.6
 41
-30.0
 62
     5
 63
     7
 74
     1
 91
        4
 64
     7
 65
   257
 75
     1
175
     1
 42
1.0
 92
        9
 66
     7
 43
1.0
 76
     1
 77
     6
 78
     2
 67
     7
 79
     5
170
     0
171
     0
290
     0
174
     0
 93
        1
 44
0.0
173
     0
291
     1
 45
0.0
1001
ACAD
1000
AcDbSavedByObjectVersion
1070
     0
  0
VISUALSTYLE
  5
F9
102
{ACAD_XDICTIONARY
360
60D0
102
}
102
{ACAD_REACTORS
330
EF
102
}
330
EF
100
AcDbVisualStyle
  2
Realistic
 70
     8
 71
     2
 72
     2
 73
     0
 90
        2
 40
-0.6
 41
30.0
 62
     5
 63
     7
 74
     0
 91
        0
 64
     7
 65
   257
 75
     1
175
     1
 42
1.0
 92
        8
 66
   257
 43
1.0
 76
     1
 77
     6
 78
     2
 67
     7
 79
     3
170
     0
171
     0
290
     0
174
     0
 93
       13
 44
0.0
173
     0
291
     0
 45
0.0
1001
ACAD
1000
AcDbSavedByObjectVersion
1070
     0
  0
VISUALSTYLE
  5
1F3
102
{ACAD_XDICTIONARY
360
60EE
102
}
102
{ACAD_REACTORS
330
EF
102
}
330
EF
100
AcDbVisualStyle
  2
Shaded
 70
    27
 71
     2
 72
     2
 73
     1
 90
        2
 40
-0.6
 41
30.0
 62
     5
 63
     7
 74
     0
 91
        4
 64
     7
 65
   257
 75
     1
175
     1
 42
1.0
 92
        8
 66
   257
 43
1.0
 76
     1
 77
     6
 78
     2
 67
     8
 79
     3
170
     0
171
     0
290
     0
174
     0
 93
        5
 44
0.0
173
     0
291
     0
 45
0.0
1001
ACAD
1000
AcDbSavedByObjectVersion
1070
     0
  0
VISUALSTYLE
  5
1F2
102
{ACAD_XDICTIONARY
360
60EC
102
}
102
{ACAD_REACTORS
330
EF
102
}
330
EF
100
AcDbVisualStyle
  2
Shaded with edges
 70
    26
 71
     2
 72
     2
 73
     1
 90
        2
 40
-0.6
 41
30.0
 62
     5
 63
     7
 74
     1
 91
        2
 64
     7
 65
   257
 75
     2
175
     1
 42
1.0
 92
        8
 66
   257
 43
1.0
 76
     1
 77
     6
 78
     2
 67
     7
 79
     3
170
     0
171
     0
290
     0
174
     0
 93
        5
 44
0.0
173
     0
291
     0
 45
0.0
1001
ACAD
1000
AcDbSavedByObjectVersion
1070
     0
  0
VISUALSTYLE
  5
1EF
102
{ACAD_XDICTIONARY
360
60E6
102
}
102
{ACAD_REACTORS
330
EF
102
}
330
EF
100
AcDbVisualStyle
  2
Shades of Gray
 70
    23
 71
     2
 72
     2
 73
     3
 90
        0
 40
-0.6
 41
-30.0
 62
     5
 63
     7
 74
     2
 91
        2
 64
     7
 65
     7
 75
     1
175
     1
 42
40.0
 92
        8
 66
     7
 43
1.0
 76
     1
 77
     6
 78
     2
 67
     7
 79
     3
170
     0
171
     0
290
     0
174
     0
 93
        1
 44
0.0
173
     0
291
     0
 45
0.0
1001
ACAD
1000
AcDbSavedByObjectVersion
1070
     0
  0
VISUALSTYLE
  5
1F0
102
{ACAD_XDICTIONARY
360
60E8
102
}
102
{ACAD_REACTORS
330
EF
102
}
330
EF
100
AcDbVisualStyle
  2
Sketchy
 70
    24
 71
     1
 72
     2
 73
     2
 90
        0
 40
-0.6
 41
-30.0
 62
     5
 63
     7
 74
     2
 91
        2
 64
     7
 65
     7
 75
     1
175
     1
 42
40.0
 92
       11
 66
     7
 43
1.0
 76
     1
 77
     6
 78
     2
 67
     7
 79
     6
170
     0
171
     0
290
     0
174
     0
 93
        1
 44
0.0
173
     0
291
     0
 45
0.0
1001
ACAD
1000
AcDbSavedByObjectVersion
1070
     0
  0
VISUALSTYLE
  5
FC
102
{ACAD_XDICTIONARY
360
60D6
102
}
102
{ACAD_REACTORS
330
EF
102
}
330
EF
100
AcDbVisualStyle
  2
Thicken
 70
    13
 71
     2
 72
     2
 73
     1
 90
        0
 40
-0.6
 41
-30.0
 62
     5
 63
     7
 74
     1
 91
        4
 64
     7
 65
   257
 75
     1
175
     1
 42
1.0
 92
       12
 66
     7
 43
1.0
 76
     1
 77
     6
 78
     2
 67
     7
 79
     5
170
     0
171
     0
290
     0
174
     0
 93
        1
 44
0.0
173
     0
291
     1
 45
0.0
1001
ACAD
1000
AcDbSavedByObjectVersion
1070
     0
  0
VISUALSTYLE
  5
F6
102
{ACAD_XDICTIONARY
360
60CA
102
}
102
{ACAD_REACTORS
330
EF
102
}
330
EF
100
AcDbVisualStyle
  2
Wireframe
 70
     5
 71
     0
 72
     2
 73
     0
 90
        0
 40
-0.6
 41
-30.0
 62
     5
 63
     7
 74
     1
 91
        4
 64
     7
 65
   257
 75
     1
175
     1
 42
1.0
 92
        0
 66
   257
 43
1.0
 76
     1
 77
     6
 78
     2
 67
     7
 79
     3
170
     0
171
     0
290
     0
174
     0
 93
        1
 44
0.0
173
     0
291
     0
 45
0.0
1001
ACAD
1000
AcDbSavedByObjectVersion
1070
     0
  0
VISUALSTYLE
  5
1F1
102
{ACAD_XDICTIONARY
360
60EA
102
}
102
{ACAD_REACTORS
330
EF
102
}
330
EF
100
AcDbVisualStyle
  2
X-Ray
 70
    25
 71
     2
 72
     2
 73
     1
 90
        1
 40
0.5
 41
-30.0
 62
     5
 63
     7
 74
     1
 91
        0
 64
     7
 65
   257
 75
     1
175
     1
 42
1.0
 92
        8
 66
     7
 43
1.0
 76
     1
 77
     6
 78
     2
 67
     7
 79
     3
170
     0
171
     0
290
     0
174
     0
 93
       13
 44
0.0
173
     0
291
     0
 45
0.0
1001
ACAD
1000
AcDbSavedByObjectVersion
1070
     0
  0
DICTIONARYVAR
  5
146
102
{ACAD_REACTORS
330
5E
102
}
330
5E
100
DictionaryVariables
280
     0
  1
1:1
  0
DICTIONARYVAR
  5
259
102
{ACAD_REACTORS
330
5E
102
}
330
5E
100
DictionaryVariables
280
     0
  1
3.500000
  0
DICTIONARYVAR
  5
25A
102
{ACAD_REACTORS
330
5E
102
}
330
5E
100
DictionaryVariables
280
     0
  1
acadiso.lin
  0
DICTIONARYVAR
  5
145
102
{ACAD_REACTORS
330
5E
102
}
330
5E
100
DictionaryVariables
280
     0
  1
STANDARD
  0
DICTIONARYVAR
  5
84
102
{ACAD_REACTORS
330
5E
102
}
330
5E
100
DictionaryVariables
280
     0
  1
STANDARD
  0
DICTIONARYVAR
  5
227
102
{ACAD_REACTORS
330
5E
102
}
330
5E
100
DictionaryVariables
280
     0
  1
Metric50
  0
DICTIONARYVAR
  5
228
102
{ACAD_REACTORS
330
5E
102
}
330
5E
100
DictionaryVariables
280
     0
  1
Metric50
  0
DICTIONARYVAR
  5
5F
102
{ACAD_REACTORS
330
5E
102
}
330
5E
100
DictionaryVariables
280
     0
  1
2
  0
DICTIONARYVAR
  5
63
102
{ACAD_REACTORS
330
5E
102
}
330
5E
100
DictionaryVariables
280
     0
  1
1
  0
DICTIONARYVAR
  5
605F
102
{ACAD_REACTORS
330
5E
102
}
330
5E
100
DictionaryVariables
280
     0
  1
0
  0
DICTIONARYVAR
  5
1AE
102
{ACAD_REACTORS
330
5E
102
}
330
5E
100
DictionaryVariables
280
     0
  1
0
  0
DICTIONARYVAR
  5
1AF
102
{ACAD_REACTORS
330
5E
102
}
330
5E
100
DictionaryVariables
280
     0
  1
0
  0
DICTIONARYVAR
  5
605D
102
{ACAD_REACTORS
330
5E
102
}
330
5E
100
DictionaryVariables
280
     0
  1
2
  0
DICTIONARYVAR
  5
605C
102
{ACAD_REACTORS
330
5E
102
}
330
5E
100
DictionaryVariables
280
     0
  1
1
  0
DICTIONARYVAR
  5
60AF
102
{ACAD_REACTORS
330
5E
102
}
330
5E
100
DictionaryVariables
280
     0
  1
80.000000
  0
DICTIONARYVAR
  5
60AE
102
{ACAD_REACTORS
330
5E
102
}
330
5E
100
DictionaryVariables
280
     0
  1
5.000000
  0
DICTIONARYVAR
  5
605E
102
{ACAD_REACTORS
330
5E
102
}
330
5E
100
DictionaryVariables
280
     0
  1
127
  0
DICTIONARYVAR
  5
60B0
102
{ACAD_REACTORS
330
5E
102
}
330
5E
100
DictionaryVariables
280
     0
  1
2
  0
DICTIONARY
  5
60F2
330
21C
100
AcDbDictionary
280
     1
281
     1
  3
ACAD_XREC_ROUNDTRIP
360
60F3
  0
DICTIONARY
  5
60B7
330
D3
100
AcDbDictionary
280
     1
281
     1
  3
ACAD_XREC_ROUNDTRIP
360
60B8
  0
DICTIONARY
  5
60B9
330
D7
100
AcDbDictionary
280
     1
281
     1
  3
ACAD_XREC_ROUNDTRIP
360
60BA
  0
DICTIONARY
  5
60B4
330
22
100
AcDbDictionary
280
     1
281
     1
  3
ACAD_XREC_ROUNDTRIP
360
60B5
  0
DICTIONARY
  5
1F9
330
ED
100
AcDbDictionary
280
     1
281
     1
  3
ACAD_XREC_ROUNDTRIP
360
60BC
  3
FBXASSET
360
1FA
  0
DICTIONARY
  5
1F7
330
EC
100
AcDbDictionary
280
     1
281
     1
  3
ACAD_XREC_ROUNDTRIP
360
60BB
  3
FBXASSET
360
1F8
  0
DICTIONARY
  5
173
330
EE
100
AcDbDictionary
280
     1
281
     1
  3
ACAD_XREC_ROUNDTRIP
360
60BD
  3
BUMPTILE
360
175
  3
DIFFUSETILE
360
174
  3
FBXASSET
360
1FB
  3
OPACITYTILE
360
176
  3
REFLECTIONTILE
360
177
  0
DICTIONARY
  5
60DE
330
12E
100
AcDbDictionary
280
     1
281
     1
  3
ACAD_XREC_ROUNDTRIP
360
60DF
  0
DICTIONARY
  5
60F0
330
21A
100
AcDbDictionary
280
     1
281
     1
  3
ACAD_XREC_ROUNDTRIP
360
60F1
  0
DICTIONARY
  5
162
330
7F
100
AcDbDictionary
280
     1
281
     1
  3
ACAD_ROUNDTRIP_2008_TABLESTYLE_CELLSTYLEMAP
360
60B1
  3
ACAD_XREC_ROUNDTRIP
360
60B6
  0
DICTIONARY
  5
60C8
330
F5
100
AcDbDictionary
280
     1
281
     1
  3
ACAD_XREC_ROUNDTRIP
360
60C9
  0
DICTIONARY
  5
60C6
330
F4
100
AcDbDictionary
280
     1
281
     1
  3
ACAD_XREC_ROUNDTRIP
360
60C7
  0
DICTIONARY
  5
60D4
330
FB
100
AcDbDictionary
280
     1
281
     1
  3
ACAD_XREC_ROUNDTRIP
360
60D5
  0
DICTIONARY
  5
60DC
330
FF
100
AcDbDictionary
280
     1
281
     1
  3
ACAD_XREC_ROUNDTRIP
360
60DD
  0
DICTIONARY
  5
60CE
330
F8
100
AcDbDictionary
280
     1
281
     1
  3
ACAD_XREC_ROUNDTRIP
360
60CF
  0
DICTIONARY
  5
60D2
330
FA
100
AcDbDictionary
280
     1
281
     1
  3
ACAD_XREC_ROUNDTRIP
360
60D3
  0
DICTIONARY
  5
60E4
330
1E6
100
AcDbDictionary
280
     1
281
     1
  3
ACAD_XREC_ROUNDTRIP
360
60E5
  0
DICTIONARY
  5
60DA
330
FE
100
AcDbDictionary
280
     1
281
     1
  3
ACAD_XREC_ROUNDTRIP
360
60DB
  0
DICTIONARY
  5
60BE
330
F0
100
AcDbDictionary
280
     1
281
     1
  3
ACAD_XREC_ROUNDTRIP
360
60BF
  0
DICTIONARY
  5
60C0
330
F1
100
AcDbDictionary
280
     1
281
     1
  3
ACAD_XREC_ROUNDTRIP
360
60C1
  0
DICTIONARY
  5
60C2
330
F2
100
AcDbDictionary
280
     1
281
     1
  3
ACAD_XREC_ROUNDTRIP
360
60C3
  0
DICTIONARY
  5
60C4
330
F3
100
AcDbDictionary
280
     1
281
     1
  3
ACAD_XREC_ROUNDTRIP
360
60C5
  0
DICTIONARY
  5
60CC
330
F7
100
AcDbDictionary
280
     1
281
     1
  3
ACAD_XREC_ROUNDTRIP
360
60CD
  0
DICTIONARY
  5
60E0
330
1E4
100
AcDbDictionary
280
     1
281
     1
  3
ACAD_XREC_ROUNDTRIP
360
60E1
  0
DICTIONARY
  5
60D8
330
FD
100
AcDbDictionary
280
     1
281
     1
  3
ACAD_XREC_ROUNDTRIP
360
60D9
  0
DICTIONARY
  5
60E2
330
1E5
100
AcDbDictionary
280
     1
281
     1
  3
ACAD_XREC_ROUNDTRIP
360
60E3
  0
DICTIONARY
  5
60D0
330
F9
100
AcDbDictionary
280
     1
281
     1
  3
ACAD_XREC_ROUNDTRIP
360
60D1
  0
DICTIONARY
  5
60EE
330
1F3
100
AcDbDictionary
280
     1
281
     1
  3
ACAD_XREC_ROUNDTRIP
360
60EF
  0
DICTIONARY
  5
60EC
330
1F2
100
AcDbDictionary
280
     1
281
     1
  3
ACAD_XREC_ROUNDTRIP
360
60ED
  0
DICTIONARY
  5
60E6
330
1EF
100
AcDbDictionary
280
     1
281
     1
  3
ACAD_XREC_ROUNDTRIP
360
60E7
  0
DICTIONARY
  5
60E8
330
1F0
100
AcDbDictionary
280
     1
281
     1
  3
ACAD_XREC_ROUNDTRIP
360
60E9
  0
DICTIONARY
  5
60D6
330
FC
100
AcDbDictionary
280
     1
281
     1
  3
ACAD_XREC_ROUNDTRIP
360
60D7
  0
DICTIONARY
  5
60CA
330
F6
100
AcDbDictionary
280
     1
281
     1
  3
ACAD_XREC_ROUNDTRIP
360
60CB
  0
DICTIONARY
  5
60EA
330
1F1
100
AcDbDictionary
280
     1
281
     1
  3
ACAD_XREC_ROUNDTRIP
360
60EB
  0
XRECORD
  5
60F3
102
{ACAD_REACTORS
330
60F2
102
}
330
60F2
100
AcDbXrecord
280
     1
102
DISPLAYNAME
  1
Metric50
102
FLAGS
 90
        0
  0
XRECORD
  5
60B8
102
{ACAD_REACTORS
330
60B7
102
}
330
60B7
100
AcDbXrecord
280
     1
102
SHADEPLOT
 70
     0
102
SHADEPLOTRESLEVEL
 70
     2
102
SHADEPLOTCUSTOMDPI
 70
   300
  0
XRECORD
  5
60BA
102
{ACAD_REACTORS
330
60B9
102
}
330
60B9
100
AcDbXrecord
280
     1
102
SHADEPLOT
 70
     0
102
SHADEPLOTRESLEVEL
 70
     2
102
SHADEPLOTCUSTOMDPI
 70
   300
  0
XRECORD
  5
60B5
102
{ACAD_REACTORS
330
60B4
102
}
330
60B4
100
AcDbXrecord
280
     1
102
SHADEPLOT
 70
     0
102
SHADEPLOTRESLEVEL
 70
     2
102
SHADEPLOTCUSTOMDPI
 70
   300
  0
XRECORD
  5
60BC
102
{ACAD_REACTORS
330
1F9
102
}
330
1F9
100
AcDbXrecord
280
     1
102
MATERIAL
148
0.0
149
0.0
149
0.0
 93
        0
 94
       63
282
     0
 72
     1
 77
     1
171
     1
175
     1
179
     1
273
     0
  0
XRECORD
  5
1FA
102
{ACAD_REACTORS
330
1F9
102
}
330
1F9
100
AcDbXrecord
280
     1
 70
     1
 90
429727718
  1
D62C5603-E3A1-4AEA-B7FB-FE5D8D0755AF
310
504B03040A0000080000CC70623B3DEE336E79000000790000001B0000006175746F6465736B2D64657369676E2D7061636B6167652E786D6C3C3F786D6C2076657273696F6E3D22312E302220656E636F64696E673D227574662D3822203F3E3C666F726D6174733E3C666F726D61743E687474703A2F2F736368656D612E
310
6175746F6465736B2E636F6D2F64657369676E2D7061636B6167652F323030393C2F666F726D61743E3C2F666F726D6174733E504B0304140006080800CC70623BD486FD9CA0000000F4000000130000005B436F6E74656E745F54797065735D2E786D6C7D8EC10E82300C865F65E91D8A1E8C310C0EEA1BF002731658846E
310
D98AC1B77784ABF1D8FE5FBFBF75BBCE937A534CCEB38643598122B6FEE978D0B0485F9C41B54DDD7D022595594E1A469170414C76A4D9A4D207E29CF43ECE46F218070CC6BECC4078ACAA135ACF422C856C0E68EA1BF5669944DDD7BCDE7B1F8E415D77AECB980613C2E4AC91FC167A2B244592486606FC29C8FD7F045B9A
310
EF7053A7E60B504B0304140006080800CC70623B853B8169EB0000007C01000008000000636F72652E786D6C8D90416EC3201045AF62CDB6C206821CC7C244919D9CA01740401C94182C03558F5F9C3852BBEB6A467FFE9B197D7EFC9E1EC5975982F5AE035262288C535E5B377690E21535501C055FBC8FBF6C503839990E
310
5619041F179FE64D52DE45E362569DD7661365082642A11EB9E920A89B99642953CC8E702F67A9EE7234257977194EC9EAE275C4EABCCF5EAD5940D4AC6F0E35A568B8F43562CD7046CD199FD07E60174276A7BE677B5EADB0E0D14EEFFB6A31321A0D82627C4084204C3F096B71DD52F6819B16635EADF63F509AF53FA164
310
5DDCD1EDDD17164090FCC8732078B56691CB33A85CD7DCC40F504B0304140006080800CC70623B55019EA25F0000007C00000007000000636E782E786D6C4DCB3B0E80201045D1AD90E915ED2CF8AC45050C11660C8261F98AB1B07AC9C97D42D718D865D3E909258CFD00CCE24AC6E326A164D74DC0B4128928FF32603847
310
2BA13128B1252AC747C6BAB984FC68F0B87FE8960A5C09FE86CFB69FBA01504B0304140006080800CC70623BDBABAAF470010000D40300000C0000006662782F636F72652E786D6CC553D16E823014FD95A6AF4B694182CC941A83FA05FB810A9511A125A5257EFE2E82712ECEB8A7F100CD39F7F69E734AF9FADC366850B6
310
AF8DCE7018308C942E4C59EB2AC3DE1D498AD15A706B8CFB56869196ADCAF00863C12B6B7C374385D14E6907A836A59A41D9F7CA615434B0C8705F7CAA5606D23BA8E84F41278B93AC54100640439DE0BDB320004D43C63716C7C399D30917DCFBBA9CD9BA8469F5B156168B24CED3F7248AC8769F27244EB73B92EED8862C
310
B7F13E0C179B3C8F979C8ECD82BBBABDAA2BAC924E9558448CBD9330242CFA08E3154B5651FCC6D215639C8EE5774DBE2B5F6CF2B5768B68963BB5F5588420E442FC700B1139D4CB01F450C1E918227C2E09DF070D8140C84E1E9AAB8F1340832A9CB13130A5F1376A908D57309505ECF2A0DF179C4E9D30F5B239B87E3823
310
7A79C6F31DE1A8A5AEC08474B03C7837EAE4938639B44E5932B833D2C6B6B279CDC613877FA26EE21F4A2A4C63EC7F29A2F301D1F9F7A0E37D145F504B0304140006080800CC70623B9C113CC27E0000009D0000000B0000006662782F636E782E786D6C4DCCDF0A83201C86E15B91DFB94BFB330DD428C8FB886521330DA7
310
6397BF1A1DECE883878F57749FCDA1B7892F1BBC047A23808C7F84D9FA55424E0BE6803A256208E9EF06C84F9B91703228B1C690F78B66B34CD9A5439DF5CF0BFBF65E35BCA1B8D6A5C6F540381E886698B5741C695F9503EBA150A2F8958E3DC3EA0B504B0304140006080800CC70623B7DF2F77C2A010000120200003100
310
00006662782F41393633353835312D344632462D344230382D423046372D3739314545314133324237412F636F72652E786D6C8D51DB8EC22014FC15C2939B0D2DB4B45643319AE817EC0F6041255A68B86CFCFC856D4D76DF7CE190393373060EDB3DC707F856CE6B6B7A480A0C81328395DA5C7B18C3057510EC3873D686
310
3F34088C18550F330C39BB3A1BA7051AAC09CA84841A2BD5020AEF55806078A44B0FFD7053A328440C89E1EFC52486BBB8AA8214A99D789CF9E05200300FC927E4FB4D5B375D43103D5527440FB843077C5AA3F5861C8F645F5787F59E95B390B318B55CE45AA638FAA2957BD7248B390B7A7CC51F9C124149C82B8C378810
310
84AB2F42B7B8DD56F413775B8C5999E9FF4471926F8AA236A1AE96B8B3CC434E5839373893369E1FAF30EA395917409EB7F26AF8801C171837A4A6AC9C89E9F9C9B1A58BA30FD6A5EF5DDDCF894B9AD9B6A59C957943A9FCAE2FD5BC4DFE03504B0304140006080800CC70623BAD7543B64E01000033030000300000006662
310
782F41393633353835312D344632462D344230382D423046372D3739314545314133324237412F636E782E786D6CD593CD6EC32010845F0571AD6CE3D48AD20813A9873E410FBD12D82434182C7EAAE6EDBB2424CD25871E7B41D6EC30B3FA84F9E67BB2E40B4234DE8DB46F1925E094D7C6ED479AD3AE5951B2113C789FEE
310
6C943839C1488B4C05DF079FE72A69D8C96C13AAD6B8631503449F83828872B949AC57D26200B826A308D316B4064D6E46FCDA41C05550DC9E483A00797BFD207EFB092A45DE9514C1BBD22178396BD39D891265658C238DEA00936C654E5E433CB65A26D9F6EDB5EBC14EBF49A45CB856E66048291F6939A9A81BB5C89177
310
38143CA680F4AA299D66A042CEB3354A2684DC9D8D178FE0D9B8B41CAAD720F880EE7EF93C0C18769E099ECC04D5A102C8049A8A05632F4DDF376CF1DE0F6BB65C2F8627B65A33C6BB62177CEBBDAD973006829F89F22E814B54F4BC2BE347F8AA8F681390B50FA73F804400B5F542E796F19FF974E7F78DB802FE05E20750
310
4B0304140006080800CC70623BE75B7789680500003C100000340000006662782F41393633353835312D344632462D344230382D423046372D3739314545314133324237412F6F626A656374732E786D6CAD575B8F9B3818FD2B887D06C22499CB8AA1CA655245D5B455A356FB305264C061D8018C6C3393D95FBFC7600890
310
A4CD5EF210B0B1BFEBF98E3F7B1FF6596ABC522E1296DF9BAE3D320D9A872C4AF2F8DE2CE5CEBA358D0FBEC719939D65A691938CDE9B6ADAF4BD98B3B2D05311DD91329583D9D5FC0F438434A7A611A644887B5384CF34233629258BA878B12322891DEFF6B66BD70BFB62634E8AE781D082709A4B588AF91C528CDA28B73F
310
1C998EEF39EABBEFA97FBD6A7C7E9553F9D3D79FE442923C3C523610337627CB87ABE99D359D4CC6D6E4FACAB5E6ABF9D2726FC6A3C5F56271377BB88362213924694B38DD99FE47C48627A1E7D49F5A8BB5E1A74C0A599ED3B0F21F1E56366B89112D681E218F0915D0D6F17AD41FBA2A369DCF6335D62ABBD39779D5DDD1
310
11D4D8DE3CBB96B2E04FB8202E41051754A1AA8E8F76B4C6DFE810B580B1547F4B84911149794252234D024EF8BBE963A95AE27B3D310A9D5C215C7960FAEE415ED75694C6AFB17BCACA5D99A60A9AA65F217B0BFC53292ACB92BF283FAD0D3621576592CB5BED907C2FA8E9DF794E35E97BEA31BED21FEB401ABB94C44839
310
DCACBF0E1C5DA8DA5B2F4DFFD32AD86F543D9E565E7056502E157C00AD2671CD534549AB752FCA9CDA00677A313F04E51B22FF19E57B300579E3C97EB29F682D92935CEC18CF901B7B54FD8C51F362B56FC72FE0B3C1EAE335EDCCBF5AEC39ADB17DC238973F804BA5E6F6BFE7AF1FB32E523BE9F3BD571418E3631DCA4D48
310
5250CF639223210A9446CA30052EDF057BD35F8329C1ECD84552BF0DC8D18BE7BCE23BFE6BD960AB4A7DE79923A103BEBD80F911CBAA2C60DB19B01CF164A5583B772EE6D3FFA56666CBCDA74DC97724A48F9A58967497E489C4D979006FD7A05E227A1EBDD0F737C623387A9C844D3709995625106D157315F8B8392CD4E0
310
A0B9A720C4BE9829CEF37EA1E13111214D53925356365ADA634861B52519DD27A00AEB808EAF0628E6F435519D446F45CF2C9CF5214F0A15B2F6D06B79DA3EE3CBF7F56780D2F4E7EF73A0F5E5B02A38D07DC852C6B7C1FBB6664213E0C39E3EBA7FF4E1AD23EA2829407C85E586727488B751B2DB9502BC7B228A3FD68B6E
310
A65A22397E690AA8D158D7E404EC8CDA235CC3B7D1898680131CEC2CDF2638C65196279577750F15884AEE19F94199155B92B13297978469D4F8D358DF0AEF7631E28DC8F0D9F437D5D39A83B2231A1D52D543813A824EF8D44BCFF2FA6A31BD1E8DAD87F1CCB526B3879935BF59CDADD5C37479BB1CDD4CA7B3556B516589
310
EF352754B706114D9C885EC9131DE6EFEB43D99AFE2391C2F958179413D7CFEF6B1B6DB1E7600F00DE6E5C67454A339A4BA2E0FBA85ED26F045D454F463DBFCE484C2F90F2E5E3666003662ED8F755951A7D1BECD5B30B550B2785C8E7320B7292A4838DDA71BBC863ED7613CAF659337A3354231D4FF4A182A54904C2898C
310
98B28C4AD0CE056CCF332A80986E571EE9DBC305BB5FEB7E509220A58D25CF042D712A806AC0AD0C657FDEF80D2D9CEAA2EE4D1C76F60BFE74219A06527D6F82DF6412526107381E55E353090704D085B52408A8913C4ED159D79BDA71BB4BC506F4831350EB6F975CD22D69BF7AC49B91A2C0A9DDA3D5CA36AD20FC478E37
310
E61844E2352865EBCB61A275A65283CAAA9DD27703B4102F5AF51EF5F573B75CBB5AD38BC845F7A49F82A0966A49C2E3EA5EA0ECD326CD965F1DB402C6FA8B51A4658C5C5E2EC9E214602E55810345408596591009A82E7E7FFACA19EEA299B14A0081A705CB3296EBC14CDF658DCD336EA6D1136881AAEB87B81AB9EE53D5
310
F5EB8BC8362082DA24122F98680A4E7930C01A0079749CEA14382A0783E5EBA5A10F8C098456A03D6A4AEB6BB881E2513747552A5DB22C7EDAF83BD5528081A365F7FF06504B0304140006080000CC70623B000000000000000000000000350000006662782F41393633353835312D344632462D344230382D423046372D37
310
39314545314133324237412F76657274696365732E62696E504B0304140006080800CC70623BF270F1330600000004000000360000006662782F41393633353835312D344632462D344230382D423046372D3739314545314133324237412F747269616E676C65732E62696E636660600000504B0304140006080000CC7062
310
3B000000000000000000000000370000006662782F41393633353835312D344632462D344230382D423046372D3739314545314133324237412F617474726962757465732E62696E504B0304140006080800CC70623B08DA0BD19000000041010000360000006662782F41393633353835312D344632462D344230382D4230
310
46372D3739314545314133324237412F6469726563746F72792E786D6C858F410AC3201045AF22B36F53E9A60B35CBEEBAE80D244E44489C6234F4F835464A48035D0DF398FF9F8AF63D0E6CC63039F212F8F9020C7D47C6792B21C5FE7403D62A1188E2E60C98D7234A5830286103A55745067B9D86B8A3CF9C7F90C11DE6
310
07FB144396D7B6A82D282E9A152AD114D5EF2CB866EEE831B8EEA07A7BB5A8D7D61A2BAAEB7FD5F70921FF497D00504B0304140006080800CC70623BEDD1DC58FD000000A00100003B0000006662782F41393633353835312D344632462D344230382D423046372D3739314545314133324237412F7265736F75726365732F
310
636F72652E786D6C8D504B6E833010BD0A9A6D65B00922041947112427E8052C33A156828DFCA97AFC9A40A576D7CDCCE87D344F8F9FBFE667F689CE6B6B3A6039850C8DB2A336530731DC4903D95970676DF82583CCC8193B5861107C72362E3BA4AC096842428D1D7107A5F7182053CF7474E0D507CE32973124857FE48B
310
540F3961CEF244279DE03EB81420DB9EAC1384436FA353E879B1B182C7A8C75DA3C7F453DF353A1075D537A7BA6464B8F535A99AE14A9A2BBD90E350DD183B5CFABE3AF262350B1EF4FC9351399401471025A527C218A1E53BAB5A5AB765F5469B96525EACF23FA6B88CFF34456DC2A1DCE36E360F82A5202F42F062ED2BAD
310
579969AFDD8A6F504B010214000A0000080000CC70623B3DEE336E79000000790000001B00000000000000000000000000000000006175746F6465736B2D64657369676E2D7061636B6167652E786D6C504B01021400140006080800CC70623BD486FD9CA0000000F40000001300000000000000000000000000B20000005B
310
436F6E74656E745F54797065735D2E786D6C504B01021400140006080800CC70623B853B8169EB0000007C010000080000000000000000000000000083010000636F72652E786D6C504B01021400140006080800CC70623B55019EA25F0000007C000000070000000000000000000000000094020000636E782E786D6C504B
310
01021400140006080800CC70623BDBABAAF470010000D40300000C00000000000000000000000000180300006662782F636F72652E786D6C504B01021400140006080800CC70623B9C113CC27E0000009D0000000B00000000000000000000000000B20400006662782F636E782E786D6C504B01021400140006080800CC70
310
623B7DF2F77C2A010000120200003100000000000000000000000000590500006662782F41393633353835312D344632462D344230382D423046372D3739314545314133324237412F636F72652E786D6C504B01021400140006080800CC70623BAD7543B64E010000330300003000000000000000000000000000D2060000
310
6662782F41393633353835312D344632462D344230382D423046372D3739314545314133324237412F636E782E786D6C504B01021400140006080800CC70623BE75B7789680500003C10000034000000000000000000000000006E0800006662782F41393633353835312D344632462D344230382D423046372D3739314545
310
314133324237412F6F626A656374732E786D6C504B01021400140006080000CC70623B0000000000000000000000003500000000000000000000000000280E00006662782F41393633353835312D344632462D344230382D423046372D3739314545314133324237412F76657274696365732E62696E504B01021400140006
310
080800CC70623BF270F133060000000400000036000000000000000000000000007B0E00006662782F41393633353835312D344632462D344230382D423046372D3739314545314133324237412F747269616E676C65732E62696E504B01021400140006080000CC70623B0000000000000000000000003700000000000000
310
000000000000D50E00006662782F41393633353835312D344632462D344230382D423046372D3739314545314133324237412F617474726962757465732E62696E504B01021400140006080800CC70623B08DA0BD1900000004101000036000000000000000000000000002A0F00006662782F41393633353835312D344632
310
462D344230382D423046372D3739314545314133324237412F6469726563746F72792E786D6C504B01021400140006080800CC70623BEDD1DC58FD000000A00100003B000000000000000000000000000E1000006662782F41393633353835312D344632462D344230382D423046372D3739314545314133324237412F7265
310
736F75726365732F636F72652E786D6C504B0506000000000E000E0080040000641100000000
  0
XRECORD
  5
60BB
102
{ACAD_REACTORS
330
1F7
102
}
330
1F7
100
AcDbXrecord
280
     1
102
MATERIAL
148
0.0
149
0.0
149
0.0
 93
        0
 94
       63
282
     0
 72
     1
 77
     1
171
     1
175
     1
179
     1
273
     0
  0
XRECORD
  5
1F8
102
{ACAD_REACTORS
330
1F7
102
}
330
1F7
100
AcDbXrecord
280
     1
 70
     1
 90
429727718
  1
30362254-06B7-45E0-A893-8CFA70E3D6BC
310
504B03040A0000080000CC70623B3DEE336E79000000790000001B0000006175746F6465736B2D64657369676E2D7061636B6167652E786D6C3C3F786D6C2076657273696F6E3D22312E302220656E636F64696E673D227574662D3822203F3E3C666F726D6174733E3C666F726D61743E687474703A2F2F736368656D612E
310
6175746F6465736B2E636F6D2F64657369676E2D7061636B6167652F323030393C2F666F726D61743E3C2F666F726D6174733E504B0304140006080800CC70623BD486FD9CA0000000F4000000130000005B436F6E74656E745F54797065735D2E786D6C7D8EC10E82300C865F65E91D8A1E8C310C0EEA1BF002731658846E
310
D98AC1B77784ABF1D8FE5FBFBF75BBCE937A534CCEB38643598122B6FEE978D0B0485F9C41B54DDD7D022595594E1A469170414C76A4D9A4D207E29CF43ECE46F218070CC6BECC4078ACAA135ACF422C856C0E68EA1BF5669944DDD7BCDE7B1F8E415D77AECB980613C2E4AC91FC167A2B244592486606FC29C8FD7F045B9A
310
EF7053A7E60B504B0304140006080800CC70623B1EC5D7A3EB0000007C01000008000000636F72652E786D6C8D90416EC3201045AF82665B6103C6756C6122AB4D4ED00B204C5C94182C03558F5F9C3852BBEB6A467FFE9B197D71FC9E6FE8CBACC17AD7032D0820E3B41FAD9B7A48F1820F808E52ACDEC75F36404ECDA687
310
4D0629A6D5A76597B477D1B89855E747B38B2A041301E95B6E7A08FAD3CCAA50296647B8168BD2573599823EBB0CA76447F43862C7BCCF5EAC59410E4DDD9C7973C2755553CCCFA4C603E3040F1565ED3B1FDE4E432BCA0D9622DAF9795FAF464533826484B498524CD807E51D79ED187F21878E10516EF63F505AC67F42C9
310
BA58B1FDDD071640D2FCC87D2045B96591CB3DA85CB7DCE40F504B0304140006080800CC70623B55019EA25F0000007C00000007000000636E782E786D6C4DCB3B0E80201045D1AD90E915ED2CF8AC45050C11660C8261F98AB1B07AC9C97D42D718D865D3E909258CFD00CCE24AC6E326A164D74DC0B4128928FF32603847
310
2BA13128B1252AC747C6BAB984FC68F0B87FE8960A5C09FE86CFB69FBA01504B0304140006080800CC70623B8C9102E971010000D40300000C0000006662782F636F72652E786D6CC5535B6E833010BC8AE5DF0A6C08340F1947A84D4ED00B38C6A128602363A31CBFCB234A53A551FA553EC09AD9F5CE8C31DB9E9B1AF5CA
310
7695D1198E428A91D2D214952E33ECDD315861B4E5CC1AE3BE9561A445A3323CC098B3D21ADFCE9034DA29ED00D5A6503328BA4E398C640D8B0C77F253352214DE4145770A5B214FA2546114020D759C75CE8200340D19DE981F0F6746269C33EFAB6266AB02A655C74A59CCF365BADC27CB5D902ED22848F6340DF238A141
310
BE88E2F57B92BFEDF23523433367AE6A2EEAA455C2A902F398D2751045018D3FA264435F3771F242571B4A1919CA6F9A7C5B3CD9E42BED16F12C776AEB308F40C848FC700B1139D4891EF410CEC810227CC6846F8386402064270EF5C5C709A05E49676C024C61FC95EA45ED154CA5211D1FF4FB8291A913A68E9B83EBBB33
310
E2A7673CDE118E5AE8124C0807CB8377834E366998436B950D7A7746DAD846D4CFD978E0F04FD455FC5D49D2D4C6FE9722321F10997F0F32DC47FE05504B0304140006080800CC70623BFFEA85907E0000009D0000000B0000006662782F636E782E786D6C4DCCD10A83201886E15B91FFDC95D95A811AB6F23E625948A6C3
310
E9D8E5AF46073BFAE0E1E365ED67B3E8ADC3CB78C7815C7240DA3DFC64DCC221C519D7805AC182F7F1EF06C88D9BE6703008B6049F9E274D7A1E938DBB5AE3D6131B2589BA0D3D965551E0B2EA732C9B9A624AAEB41E3A557677029960D9AFB4EF11165F504B0304140006080800CC70623B4FEEA4082C0100001202000031
310
0000006662782F39464131463745442D413632322D343644302D413938332D3331353338454246344243312F636F72652E786D6C8D515B6EC32010BC0AE2AB55850DD871ED0813254D72825EC00192A2C460F1A872FC42ED48ED5F7E00CDCECCCEB26C731F6FE05B39AFADE921293004CA082BB5B9F43086336A21D870E6AC
310
0D7F68109861543DCC30E4ECE26C9C164858139409093556AA051CBC570102714B8F1E7AF1A5C6A11862480C7F2DA6415C878B2A4891CA89C7990F2E050073937C42DE1DB7E4F87ED8A36D4329AA9B3D46DBAEAD504556557BD81DEBDD0761E52CE42C462D17B996298E3E6BE59E35C962CE821E1FF18553435012728A7187
310
0841987E927A8D9B35ADDF70BBC6989599FE4F1427F9A4286A132ABAC49D651EF234CD5CE04CDA78BA3DC2A8FB645D00B9DF8B57E215725C60BCA2A463E54C4CE327C7A65E1C7DB02E7DEFCBF594B864C5CA6CDBD49C957943E9FA5D5FBAF336F90F504B0304140006080800CC70623BAD7543B64E01000033030000300000
310
006662782F39464131463745442D413632322D343644302D413938332D3331353338454246344243312F636E782E786D6CD593CD6EC32010845F0571AD6CE3D48AD20813A9873E410FBD12D82434182C7EAAE6EDBB2424CD25871E7B41D6EC30B3FA84F9E67BB2E40B4234DE8DB46F1925E094D7C6ED479AD3AE5951B2113C
310
789FEE6C943839C1488B4C05DF079FE72A69D8C96C13AAD6B8631503449F83828872B949AC57D26200B826A308D316B4064D6E46FCDA41C05550DC9E483A00797BFD207EFB092A45DE9514C1BBD22178396BD39D891265658C238DEA00936C654E5E433CB65A26D9F6EDB5EBC14EBF49A45CB856E66048291F6939A9A81BB5
310
C8917738143CA680F4AA299D66A042CEB3354A2684DC9D8D178FE0D9B8B41CAAD720F880EE7EF93C0C18769E099ECC04D5A102C8049A8A05632F4DDF376CF1DE0F6BB65C2F8627B65A33C6BB62177CEBBDAD973006829F89F22E814B54F4BC2BE347F8AA8F681390B50FA73F804400B5F542E796F19FF974E7F78DB802FE05
310
E207504B0304140006080800CC70623B16AB87BA640500003C100000340000006662782F39464131463745442D413632322D343644302D413938332D3331353338454246344243312F6F626A656374732E786D6CAD575B6FA33818FD2B887DE6924B3BED8A326A92B68A663B534DD4D13E548A0C38942D60649B369D5FBFC7
310
600890A493BDE42160637FD7F31D7FF63E6FB3D478A55C242CBF3247B66B1A340F5994E4F19559CA8D75611A9F7D8F33263BCB4C232719BD32D5B4E97B316765A1A722BA21652A07B3B7B33F0D11D29C9A46981221AE4C113ED38CD8A4942CA2E2C58E882476BCD9DA23BB5ED8171B73523C0F841684D35CC252CCE79062D4
310
468DFA43D7747CCF51DF7D4FFDEB5593E3AB9CCA9FBEFE241792E4E19EB28198C968BAB8199F5D5A67D3E9C49A9E8F47D6EC76B6B0469F26EEFC7C3EBFBCBEB98462213924694B38DD98FE1D62C393D073EA4FADC5DAF04326852CCF6958F90F0F2B9BB5C48816348F90C7840A68EB78EDF68723159BCEE7891A6B95DDE9D3
310
BCEAEEE8086A6C6F9E5D4B59F0175C10A7A0820BAA5055C7473B5AE3CFDD452D602CD5DF12616444529E90D448938013FE6EFA58AA96F85E4F8C42275708571E98FE6827AF6B2B4AE3D7D83D64E5A64C53054DD3AF90BD06FEA9149565C94FCA0F6B834DC85599E4F2423B24DF0B6AFA979E534DFA9E7A4CC6FA631D486393
310
921829879BF5D781A373557BCB85E97FB90DB62B558F8795179C15944B051F40AB495CF35451D26A4727654E6D8033BD98EF82F21D91FF8AF2DD9982BCF1643BDD4EB516C9492E368C67C88DED563FC36D5EACF66DFF057C3658BDBFA69DF9578B3DA735B64F18C7F20770A9D45CFCF7FCF563D6456A277DBEF78A02637CA2
310
43B90A490AEAB94F72244481D24819A6C0E59B606BFA4B3025981DBB48EAB701D97BF19C577CC77F2D1B6C55A9EF3C732474C0B727303F625995056C3B02963D9EAC146BE78EC5FCEC7FA999EBC5EACBAAE41B12D27B4D2C0BBA49F244E2ECDC81B76B502F113D8F5EE8FB1BE3111CDD4FC2AA9B844CAB1288B68AB90A7CDC
310
1C166AB0D3DC5310625FCC14E779BFD0709F8890A629C9292B1B2DED31A4B0DA928CEE135085754027E3018A397D4D5427D15BD1330B677DC8934285AC3DF45A9EB68FF8F2B8FC0A509AFEECFD0FF2DE25CC6047F7214B195F07EFEB9A094D800F7BFAE8FED187B78EA8A3A400F115961BCAD1215E47C966530AF0EE8128FE
310
58CEBB996A8964FFA529A046635D9353B0336A8F700DDF46271A024E70B0B37C9DE01847591E54DED53D54202AB947E4076556AC49C6CA5C9E1226B7F1A7B1BE15DEED62C41B91E1B3E9AFAAA735036547343A925075041DF0A9979E893B391F8FCFA6967B3EFB644DCF6E5CEBFAE272625DCC6FAF3FB93793C5F90CE1EF57
310
407342756B10D1C489E8953CD1617E5CEECAD6F4EF8914CE5D5D504E5C3F1F9736DA62CFC11E00BCDDB8CC8A9466349744C1F75EBDA4DF09BA8A9E8C7A7E9991989E20E5DBDD6A6003664ED8F7A04A8DBE0DF6EAD9B9AA858342E47399053949D2C146EDB85DE4B176BB0965FBAC19BD19AA918E27FA50C1D22402E144464C
310
59462568E704B6E71915404CB72B8FF4EDE184DDAF753F284990D2C6926782963815403548A70C657FDEF80D2D9CEAA2AE4C1C76F60BFE74219A06527D6582DF6412526107381E55E353090704D085B52408D0933C4ED159D79BDA71BB4BC506F4831350EB6F979CD22D69BF7AC49B91A2C0A9DDA3D5CA36AD20FC478E37E6
310
1844E2352865EBCB6EA275A652E3836BE04EFB400BF1A2556F515F1FBB35B2AB35BD889C744FFA1004B5544B121E57F70215746DD2F5E2C1412B602CBF19455AC6C8E5E9922C4E01E65215385004546899059180EAFCF7A707CE7017CD8CDB0410789AB32C63B91E5CEBBBACB17AC6CD347A022D5075FD106377347AAABA7E
310
7D11590744509B44E205134DC1290F06580320F78E537D3D73540E06CB970B431F185308AD40BBD794D6D77003C5A36E8EAA54BA64597CD8F83BD552A080A365F7FF06504B0304140006080000CC70623B000000000000000000000000350000006662782F39464131463745442D413632322D343644302D413938332D3331
310
353338454246344243312F76657274696365732E62696E504B0304140006080800CC70623BF270F1330600000004000000360000006662782F39464131463745442D413632322D343644302D413938332D3331353338454246344243312F747269616E676C65732E62696E636660600000504B0304140006080000CC70623B
310
000000000000000000000000370000006662782F39464131463745442D413632322D343644302D413938332D3331353338454246344243312F617474726962757465732E62696E504B0304140006080800CC70623B08DA0BD19000000041010000360000006662782F39464131463745442D413632322D343644302D413938
310
332D3331353338454246344243312F6469726563746F72792E786D6C858F410AC3201045AF22B36F53E9A60B35CBEEBAE80D244E44489C6234F4F835464A48035D0DF398FF9F8AF63D0E6CC63039F212F8F9020C7D47C6792B21C5FE7403D62A1188E2E60C98D7234A5830286103A55745067B9D86B8A3CF9C7F90C11DE607
310
FB144396D7B6A82D282E9A152AD114D5EF2CB866EEE831B8EEA07A7BB5A8D7D61A2BAAEB7FD5F70921FF497D00504B0304140006080800CC70623B0D6EF93BFE000000A00100003B0000006662782F39464131463745442D413632322D343644302D413938332D3331353338454246344243312F7265736F75726365732F63
310
6F72652E786D6C8D50596E833010BD0A9ADFCA60B334011947A8694ED00B586642AC041B79A97AFC9A40A5F6AF3F33A3B7689E1E3F7DCD8FEC139DD7D6F4C0720A191A65476DA61E62B892236427C19DB5E1970C322367EC618541F0C9D9B8EC90B226A009093576C41D94DE63804C3DD2D18357379C652E63480A7FCF17A9
310
EE72C29CE5894E3AC17D702940B63D59270887DE46A7D0F36263058F518FBB468FE9A7BE6A7420864373B8D4873369AA8691FA421B3294352543C5CAF65C0F6FEF43CB8BD52C78D0F34F46E550061C419494B6843142CB0F5677F4B52BEB177AEC28E5C52AFF638ACBF84F53D42654E51E77B379102C05791282176B5F693D
310
CB4C7BED567C03504B010214000A0000080000CC70623B3DEE336E79000000790000001B00000000000000000000000000000000006175746F6465736B2D64657369676E2D7061636B6167652E786D6C504B01021400140006080800CC70623BD486FD9CA0000000F40000001300000000000000000000000000B20000005B
310
436F6E74656E745F54797065735D2E786D6C504B01021400140006080800CC70623B1EC5D7A3EB0000007C010000080000000000000000000000000083010000636F72652E786D6C504B01021400140006080800CC70623B55019EA25F0000007C000000070000000000000000000000000094020000636E782E786D6C504B
310
01021400140006080800CC70623B8C9102E971010000D40300000C00000000000000000000000000180300006662782F636F72652E786D6C504B01021400140006080800CC70623BFFEA85907E0000009D0000000B00000000000000000000000000B30400006662782F636E782E786D6C504B01021400140006080800CC70
310
623B4FEEA4082C0100001202000031000000000000000000000000005A0500006662782F39464131463745442D413632322D343644302D413938332D3331353338454246344243312F636F72652E786D6C504B01021400140006080800CC70623BAD7543B64E010000330300003000000000000000000000000000D5060000
310
6662782F39464131463745442D413632322D343644302D413938332D3331353338454246344243312F636E782E786D6C504B01021400140006080800CC70623B16AB87BA640500003C1000003400000000000000000000000000710800006662782F39464131463745442D413632322D343644302D413938332D3331353338
310
454246344243312F6F626A656374732E786D6C504B01021400140006080000CC70623B0000000000000000000000003500000000000000000000000000270E00006662782F39464131463745442D413632322D343644302D413938332D3331353338454246344243312F76657274696365732E62696E504B01021400140006
310
080800CC70623BF270F133060000000400000036000000000000000000000000007A0E00006662782F39464131463745442D413632322D343644302D413938332D3331353338454246344243312F747269616E676C65732E62696E504B01021400140006080000CC70623B0000000000000000000000003700000000000000
310
000000000000D40E00006662782F39464131463745442D413632322D343644302D413938332D3331353338454246344243312F617474726962757465732E62696E504B01021400140006080800CC70623B08DA0BD190000000410100003600000000000000000000000000290F00006662782F39464131463745442D413632
310
322D343644302D413938332D3331353338454246344243312F6469726563746F72792E786D6C504B01021400140006080800CC70623B0D6EF93BFE000000A00100003B000000000000000000000000000D1000006662782F39464131463745442D413632322D343644302D413938332D3331353338454246344243312F7265
310
736F75726365732F636F72652E786D6C504B0506000000000E000E0080040000641100000000
  0
XRECORD
  5
60BD
102
{ACAD_REACTORS
330
173
102
}
330
173
100
AcDbXrecord
280
     1
102
MATERIAL
148
0.0
149
0.0
149
0.0
 93
        0
 94
       63
282
     0
 72
     1
 77
     1
171
     1
175
     1
179
     1
273
     0
  0
XRECORD
  5
175
102
{ACAD_REACTORS
330
173
102
}
330
173
100
AcDbXrecord
280
     1
270
     1
271
     1
  0
XRECORD
  5
174
102
{ACAD_REACTORS
330
173
102
}
330
173
100
AcDbXrecord
280
     1
270
     1
271
     1
  0
XRECORD
  5
1FB
102
{ACAD_REACTORS
330
173
102
}
330
173
100
AcDbXrecord
280
     1
 70
     0
 90
1673772943
  1
ECE7A1D2-D628-4531-984C-D00F80459256
310
504B03040A0000080000CC70623B3DEE336E79000000790000001B0000006175746F6465736B2D64657369676E2D7061636B6167652E786D6C3C3F786D6C2076657273696F6E3D22312E302220656E636F64696E673D227574662D3822203F3E3C666F726D6174733E3C666F726D61743E687474703A2F2F736368656D612E
310
6175746F6465736B2E636F6D2F64657369676E2D7061636B6167652F323030393C2F666F726D61743E3C2F666F726D6174733E504B0304140006080800CC70623BD486FD9CA0000000F4000000130000005B436F6E74656E745F54797065735D2E786D6C7D8EC10E82300C865F65E91D8A1E8C310C0EEA1BF002731658846E
310
D98AC1B77784ABF1D8FE5FBFBF75BBCE937A534CCEB38643598122B6FEE978D0B0485F9C41B54DDD7D022595594E1A469170414C76A4D9A4D207E29CF43ECE46F218070CC6BECC4078ACAA135ACF422C856C0E68EA1BF5669944DDD7BCDE7B1F8E415D77AECB980613C2E4AC91FC167A2B244592486606FC29C8FD7F045B9A
310
EF7053A7E60B504B0304140006080800CC70623BD9DDAED0EC0000007C01000008000000636F72652E786D6C8D90416EC3201045AF82665B61836D9CD8C2444DD39CA01740405C94182C03558F5F9C3852BBEB6A467FFE9B197D7EF89E6EE8CB2CC17A37002D0820E394D7D68D03A478C17B4007C117EFE32F1B20272733C0
310
2A83E0E3E2D3BC49CABB685CCCAAF3DA6CA20CC14440EA969B0182FA34932C648AD911AEC52CD5558EA6A0CF2EC329598D1E47ACCEFBECC59A050463A7EA5833865FEBDD0E37353BE3EE8DBDE3F6786A48D375FBF6CC78B9C282473B3DEFABC5C86834888A900E538A49F5419B9EB47DD5BC907D4F082F57FB1F28CDFA9F50
310
B22ED6D5F6EE030B20687EE43E10BC5CB3C8E51E54AE6B6EE207504B0304140006080800CC70623B55019EA25F0000007C00000007000000636E782E786D6C4DCB3B0E80201045D1AD90E915ED2CF8AC45050C11660C8261F98AB1B07AC9C97D42D718D865D3E909258CFD00CCE24AC6E326A164D74DC0B4128928FF326038
310
472BA13128B1252AC747C6BAB984FC68F0B87FE8960A5C09FE86CFB69FBA01504B0304140006080800CC70623BA24EB22D72010000D40300000C0000006662782F636F72652E786D6CC5535B6E833010BC8AE5DF0A6C5E49888CA3A6694ED00B38E05014B091B1518EDFE511A5A9D228FD2A1F60CDEC7A67C6986DCE4D8D7A
310
69BA4AAB0C073EC548AA5C17952A33ECECD15B61B4E1CC686DBF9561A44423333CC098B3D268D7CE50AE9595CA02AA74216750749DB418E5352C32DCE59FB211BE70162ABA93DF8AFC244AE9073ED050C759670D0840D390E18DF9F1706664C23973AE2A66B62A605A75ACA4C13C4976E1364A12EF355A2EBD384AF65EFA96
310
BC7B8BED2EA6719AAE16FB8491A199335B351775B991C2CA02F390D2D40B028F861F41BCA68B7518BFD0D59A524686F29B26D7164F36B94AD9289CE54E6D1DE6010819891F6E21228B3AD1831EC219194284CF98F06DD01008846CC5A1BEF83801D4CBDC6A1303536877A57A513B0953A94FC707FDBE6064EA84A9E3E6E0FA
310
EE8CF0E9198F7784A316AA0413C2C2F2E0ECA0934D1AE6D05A69BCDE9E91D2A611F573361E38FC1375157F5752AE6B6DFE4B11990F88CCBF0719EE23FF02504B0304140006080800CC70623B408A7D3B7C0000009D0000000B0000006662782F636E782E786D6C4DCCD10A83201886E15B91FFDC552A92A0064DBC8F581632
310
D3703A76F9ABD1C18E3E78F878E5F0D9027ABBFCF2292AE86E2D20171F69F6715550CB827B40839639A5F2770314A7CD293819B45C73AAFB45B35BA61ACAA1C1C7E7855C58C15BC331339661262CC762340413D68D77DA5B42298546CBE6573AF60CEB2F504B0304140006080800CC70623B449FB9BD290100001202000031
310
0000006662782F36394639363044362D344446342D343946362D394244322D3234314243333846323333332F636F72652E786D6C8D515B6EC32010BC0AE22B55850D98B871848994463E412FE002495162B07854397EA176A4F62F3F2C9A9D991D587EB84F37F0AD7D30CEF6905418026DA553C65E7A98E219ED203808EE9D
310
8B7F6810D871D23D2C3014FCE25D9A57483A1BB58D19B54EE9151C43D0110279CB971E06F9A5A7B11A53CC8C70ADE6515EC78BAE4895DB992778883E0700CB907242D17643D7E2538BD869608875438BBAE38922CAC8F1BDD90DB4691A5E2F42C153326A951B95E398B3D1FE599322163C9AE9115F7A3D46ADA0A018778810
310
84E907617BDCEE297BC5BB3DC6BC2EF47FA234AB2745C9D8D8D035EE220B50105E2F0DC1954B9FB747187D9F9D8FA0CCDB042D5FA0C015C65B42DF78BD10F3F3B363CB56C7109DCFDFBBB97E662ED92EB62D13BC2E1BCAE5777DB9966D8A1F504B0304140006080800CC70623BAD7543B64E01000033030000300000006662
310
782F36394639363044362D344446342D343946362D394244322D3234314243333846323333332F636E782E786D6CD593CD6EC32010845F0571AD6CE3D48AD20813A9873E410FBD12D82434182C7EAAE6EDBB2424CD25871E7B41D6EC30B3FA84F9E67BB2E40B4234DE8DB46F1925E094D7C6ED479AD3AE5951B2113C789FEE
310
6C943839C1488B4C05DF079FE72A69D8C96C13AAD6B8631503449F83828872B949AC57D26200B826A308D316B4064D6E46FCDA41C05550DC9E483A00797BFD207EFB092A45DE9514C1BBD22178396BD39D891265658C238DEA00936C654E5E433CB65A26D9F6EDB5EBC14EBF49A45CB856E66048291F6939A9A81BB5C89177
310
38143CA680F4AA299D66A042CEB3354A2684DC9D8D178FE0D9B8B41CAAD720F880EE7EF93C0C18769E099ECC04D5A102C8049A8A05632F4DDF376CF1DE0F6BB65C2F8627B65A33C6BB62177CEBBDAD973006829F89F22E814B54F4BC2BE347F8AA8F681390B50FA73F804400B5F542E796F19FF974E7F78DB802FE05E20750
310
4B0304140006080800CC70623B8D05915C650500003B100000340000006662782F36394639363044362D344446342D343946362D394244322D3234314243333846323333332F6F626A656374732E786D6CAD575B6FA33814FE2B887D06429276DA1565D4266D158D3A339A6846FB502932E050B66023DB74D2FDF5FB190C01
310
9276B2973C046C8ECFF53B17071F77456EBD502133CEAE6CDF9DD81665314F32965ED995DA3A17B6F5310C04E7AA47665B8C14F4CAD6DB7618A48257A5D94AE89654B91AEDDEDDFC61C998326A5B714EA4BCB265FC440BE2924AF184CA6737218AB8E976E7FA6E4338649B0A523E8D98964450A6A029F619B8588D52FE7039
310
B1BD30F0F4F730D0FF866AF6369557DB33949F31A9088B0F848DD8CCFCF9F2767A76E99CCDE733677E3EF59D9BBB9BA5E37F984D16E78BC5E5F5ED25044B25C0C96822E8D60EEFE11B91C581D77CEA34368A1F5329E68CD1B8B61F16D63A1B8E092D294B10C78C4A48EB593D192E7DED9BDEE7995E1B91FDEDD3ACEA9FE831
310
6A756F9F7D4D79F4274C90A7A04248AA51D5F8C718DAE06FB2F75AC4796EBE65D22A88A22223B995679120E2D50E41AA49C260C046A35368846B0BECD0DFF3EBEB8AD4F835768F69B9ADF25C43D30E6B646F807FAA64AD59F61715C7A54127C4AACA98BA3006A9D792DAE165E0D59B61A01FB3A9F9D838D2DAE62445C86166
310
F37564E842E7DE6A69879FEEA2DD5AE7E371E1A5E025154AC307D06A03D73EB5978C58FFA4C8E9033066E0F3BD53BEC1F39F91BE7B55103791EDE6BBB991A2046172CB4581D8B893FA674DDA17A77B3B7C413D1B511FD2743BFF8A38F03A658705E3ADF8015C3A3417FF3D7E439FF591DA0B5F18BC20C1B8981957AE6392A3
310
F43C640C01D1A0B4728E2DD4F26DB4B3C3152A252A3B4E913CEC1C72F012782FF88EFF8637AA552DBEF76408E8A8DE9E50F9E1CB3A2DA0DB1B6039A893B56063DC5B3E3FFB5F72E67AB9FEB4AEC496C4F4C1149625DD662C53E89D7BF0F6151A046260D1337DFDC94502430F83B0EE07A130A224BCAD7DAE1D9FB6CD422FF6
310
920702629C4BB9AE79C12F243C6432A6794E18E5552BA56B431AAB5D91317302B2B071E86C3A42B1A02F999E24061403B5D0EB639195DA655DD3EBEAB4FB862DDF579F014AD0E73C22F99E28DA57FB98E75C6CA2D74D53086D600F4786E0FE3144B771A8A7B900F03594DB8A633CBC49B2EDB69228BB479CF863B5E807AAAB
310
23872F6DFEB4129B949CA33823F58830E86D65621E10047D9DB34D862E8EAC3C2ABC2F7B2C40D67CDFE01F5545B92105AF983AC54D93D69E56FB8E797F88913F898A9FEC705D3F9D1B54EC8426FB500D40A03BD0119B06E1B95DDC7EB8F6975367793EBD70E66733DFB9BC982F9CE564727731999F5D4ECFCE3B8D6A4DC2A0
310
6D50FD148437D110834A64C6CDDF57FBACB5C307A2A477DFE4939736CFEF2B175371E0E10CF0DD1D5C15654E0BCA14D1E87DD02FF93782A162C0A3D95F1524A52770F972BF1EE9809D13CE7DD599467F8ECE9ADD85CE85A34CD45355448C64F9E8A031DC2D596ACC6E5DD93D9B82DE2EF5CAF81363A8E47996A0DE24564A79
310
4115AACE09C55E14540231FDA13C319787134EBF34E3A022514E5B4D9E0826E25C02D5805B15ABE1BEF51B26383D445DD9E875EE33FE4C22DA16427D65A3BCA92CA6D28DD01DF5DC53330704308475351050232CCD31583787BA75774AFB06E5070DD0C8EF484E19968C5D83BA5B90B244D31E54D55A372320FE4786B7EA58
310
44E135AA5467CB7EA333A61683CC6A8C3257034C10CF46F40EF9F5BE59BE5BD30C3C72D235E95D10345C1D45445A5F0BB47E46A5EBE5570F9380B5FA629579952296A773720405982B9DE04011506178964401AA8BDF1FBF0A8EAB6861DD6580C0E38217056766716DAEB2D6FA0917D3E4116581EADB879C4E7CFFB11EFACD
310
3D641311495D92C8676CB409A72D18610D803CE8A626049E8EC1887CB5B44CC39883690DDA8399B4B9855B481E7D71D4A9D22F96E5BB73BF5793020C02137BF837504B0304140006080000CC70623B000000000000000000000000350000006662782F36394639363044362D344446342D343946362D394244322D32343142
310
43333846323333332F76657274696365732E62696E504B0304140006080800CC70623BF270F1330600000004000000360000006662782F36394639363044362D344446342D343946362D394244322D3234314243333846323333332F747269616E676C65732E62696E636660600000504B0304140006080000CC70623B0000
310
00000000000000000000370000006662782F36394639363044362D344446342D343946362D394244322D3234314243333846323333332F617474726962757465732E62696E504B0304140006080800CC70623B08DA0BD19000000041010000360000006662782F36394639363044362D344446342D343946362D394244322D
310
3234314243333846323333332F6469726563746F72792E786D6C858F410AC3201045AF22B36F53E9A60B35CBEEBAE80D244E44489C6234F4F835464A48035D0DF398FF9F8AF63D0E6CC63039F212F8F9020C7D47C6792B21C5FE7403D62A1188E2E60C98D7234A5830286103A55745067B9D86B8A3CF9C7F90C11DE607FB14
310
4396D7B6A82D282E9A152AD114D5EF2CB866EEE831B8EEA07A7BB5A8D7D61A2BAAEB7FD5F70921FF497D00504B0304140006080800CC70623BCA768048FE000000A00100003B0000006662782F36394639363044362D344446342D343946362D394244322D3234314243333846323333332F7265736F75726365732F636F72
310
652E786D6C8D50596E833010BD0A9ADFCA60D600328E9AA639412F609909B1126CE4A5EAF16B0295DABFFECC8CDEA2797AECF8353F924FB44E193D409E5248504B332A3D0D10FC95B4901C39B3C6F85F3248B49871801506CE266BC2B243D2688FDA47549B11775038871E12F988C7004EDE7016A9083E2ADC3D5D84BC8B09
310
D33C8D74D471E6BC8D0192EDC93A815B742658898E651BCB59086ADC356A8C3FD555A1055ED7E7E254D615792D0F075295F585746FF53B694EE78A565DD736979A65AB9933AFE69F8CD2A2F038022F28ED489E135A7CE4554F9BBEA85E68DB53CAB255FEC71496F19FA6A0B42F8B3DEE6673C0F318E4497096AD7DC5F52C33
310
EEB55BFE0D504B010214000A0000080000CC70623B3DEE336E79000000790000001B00000000000000000000000000000000006175746F6465736B2D64657369676E2D7061636B6167652E786D6C504B01021400140006080800CC70623BD486FD9CA0000000F40000001300000000000000000000000000B20000005B436F
310
6E74656E745F54797065735D2E786D6C504B01021400140006080800CC70623BD9DDAED0EC0000007C010000080000000000000000000000000083010000636F72652E786D6C504B01021400140006080800CC70623B55019EA25F0000007C000000070000000000000000000000000095020000636E782E786D6C504B0102
310
1400140006080800CC70623BA24EB22D72010000D40300000C00000000000000000000000000190300006662782F636F72652E786D6C504B01021400140006080800CC70623B408A7D3B7C0000009D0000000B00000000000000000000000000B50400006662782F636E782E786D6C504B01021400140006080800CC70623B
310
449FB9BD290100001202000031000000000000000000000000005A0500006662782F36394639363044362D344446342D343946362D394244322D3234314243333846323333332F636F72652E786D6C504B01021400140006080800CC70623BAD7543B64E010000330300003000000000000000000000000000D20600006662
310
782F36394639363044362D344446342D343946362D394244322D3234314243333846323333332F636E782E786D6C504B01021400140006080800CC70623B8D05915C650500003B10000034000000000000000000000000006E0800006662782F36394639363044362D344446342D343946362D394244322D32343142433338
310
46323333332F6F626A656374732E786D6C504B01021400140006080000CC70623B0000000000000000000000003500000000000000000000000000250E00006662782F36394639363044362D344446342D343946362D394244322D3234314243333846323333332F76657274696365732E62696E504B010214001400060808
310
00CC70623BF270F13306000000040000003600000000000000000000000000780E00006662782F36394639363044362D344446342D343946362D394244322D3234314243333846323333332F747269616E676C65732E62696E504B01021400140006080000CC70623B00000000000000000000000037000000000000000000
310
00000000D20E00006662782F36394639363044362D344446342D343946362D394244322D3234314243333846323333332F617474726962757465732E62696E504B01021400140006080800CC70623B08DA0BD190000000410100003600000000000000000000000000270F00006662782F36394639363044362D344446342D
310
343946362D394244322D3234314243333846323333332F6469726563746F72792E786D6C504B01021400140006080800CC70623BCA768048FE000000A00100003B000000000000000000000000000B1000006662782F36394639363044362D344446342D343946362D394244322D3234314243333846323333332F7265736F
310
75726365732F636F72652E786D6C504B0506000000000E000E0080040000621100000000
  0
XRECORD
  5
176
102
{ACAD_REACTORS
330
173
102
}
330
173
100
AcDbXrecord
280
     1
270
     1
271
     1
  0
XRECORD
  5
177
102
{ACAD_REACTORS
330
173
102
}
330
173
100
AcDbXrecord
280
     1
270
     1
271
     1
  0
XRECORD
  5
60DF
102
{ACAD_REACTORS
330
60DE
102
}
330
60DE
100
AcDbXrecord
280
     1
102
ACAD_ROUNDTRIP_2012_MLEADER_STYLE
298
     1
  0
XRECORD
  5
60F1
102
{ACAD_REACTORS
330
60F0
102
}
330
60F0
100
AcDbXrecord
280
     1
102
DISPLAYNAME
  1
Metric50
102
FLAGS
 90
        0
  0
CELLSTYLEMAP
  5
60B1
102
{ACAD_REACTORS
330
162
102
}
330
162
100
AcDbCellStyleMap
 90
        3
300
CELLSTYLE
  1
TABLEFORMAT_BEGIN
 90
        5
170
     1
 91
        0
 92
    32768
 62
   257
 93
        1
300
CONTENTFORMAT
  1
CONTENTFORMAT_BEGIN
 90
        0
 91
        0
 92
      512
 93
        0
300

 40
0.0
140
1.0
 94
        5
 62
     0
340
11
144
6.0
309
CONTENTFORMAT_END
171
     1
301
MARGIN
  1
CELLMARGIN_BEGIN
 40
1.5
 40
1.5
 40
1.5
 40
1.5
 40
4.5
 40
4.5
309
CELLMARGIN_END
 94
        6
 95
        1
302
GRIDFORMAT
  1
GRIDFORMAT_BEGIN
 90
        0
 91
        1
 62
     0
 92
       -2
340
14
 93
        0
 40
1.125
309
GRIDFORMAT_END
 95
        2
302
GRIDFORMAT
  1
GRIDFORMAT_BEGIN
 90
        0
 91
        1
 62
     0
 92
       -2
340
14
 93
        0
 40
1.125
309
GRIDFORMAT_END
 95
        4
302
GRIDFORMAT
  1
GRIDFORMAT_BEGIN
 90
        0
 91
        1
 62
     0
 92
       -2
340
14
 93
        0
 40
1.125
309
GRIDFORMAT_END
 95
        8
302
GRIDFORMAT
  1
GRIDFORMAT_BEGIN
 90
        0
 91
        1
 62
     0
 92
       -2
340
14
 93
        0
 40
1.125
309
GRIDFORMAT_END
 95
       16
302
GRIDFORMAT
  1
GRIDFORMAT_BEGIN
 90
        0
 91
        1
 62
     0
 92
       -2
340
14
 93
        0
 40
1.125
309
GRIDFORMAT_END
 95
       32
302
GRIDFORMAT
  1
GRIDFORMAT_BEGIN
 90
        0
 91
        1
 62
     0
 92
       -2
340
14
 93
        0
 40
1.125
309
GRIDFORMAT_END
309
TABLEFORMAT_END
  1
CELLSTYLE_BEGIN
 90
        1
 91
        1
300
_TITLE
309
CELLSTYLE_END
300
CELLSTYLE
  1
TABLEFORMAT_BEGIN
 90
        5
170
     1
 91
        0
 92
        0
 62
   257
 93
        1
300
CONTENTFORMAT
  1
CONTENTFORMAT_BEGIN
 90
        0
 91
        0
 92
      512
 93
        0
300

 40
0.0
140
1.0
 94
        5
 62
     0
340
11
144
4.5
309
CONTENTFORMAT_END
171
     1
301
MARGIN
  1
CELLMARGIN_BEGIN
 40
1.5
 40
1.5
 40
1.5
 40
1.5
 40
4.5
 40
4.5
309
CELLMARGIN_END
 94
        6
 95
        1
302
GRIDFORMAT
  1
GRIDFORMAT_BEGIN
 90
        0
 91
        1
 62
     0
 92
       -2
340
14
 93
        0
 40
1.125
309
GRIDFORMAT_END
 95
        2
302
GRIDFORMAT
  1
GRIDFORMAT_BEGIN
 90
        0
 91
        1
 62
     0
 92
       -2
340
14
 93
        0
 40
1.125
309
GRIDFORMAT_END
 95
        4
302
GRIDFORMAT
  1
GRIDFORMAT_BEGIN
 90
        0
 91
        1
 62
     0
 92
       -2
340
14
 93
        0
 40
1.125
309
GRIDFORMAT_END
 95
        8
302
GRIDFORMAT
  1
GRIDFORMAT_BEGIN
 90
        0
 91
        1
 62
     0
 92
       -2
340
14
 93
        0
 40
1.125
309
GRIDFORMAT_END
 95
       16
302
GRIDFORMAT
  1
GRIDFORMAT_BEGIN
 90
        0
 91
        1
 62
     0
 92
       -2
340
14
 93
        0
 40
1.125
309
GRIDFORMAT_END
 95
       32
302
GRIDFORMAT
  1
GRIDFORMAT_BEGIN
 90
        0
 91
        1
 62
     0
 92
       -2
340
14
 93
        0
 40
1.125
309
GRIDFORMAT_END
309
TABLEFORMAT_END
  1
CELLSTYLE_BEGIN
 90
        2
 91
        1
300
_HEADER
309
CELLSTYLE_END
300
CELLSTYLE
  1
TABLEFORMAT_BEGIN
 90
        5
170
     1
 91
        0
 92
        0
 62
   257
 93
        1
300
CONTENTFORMAT
  1
CONTENTFORMAT_BEGIN
 90
        0
 91
        0
 92
      512
 93
        0
300

 40
0.0
140
1.0
 94
        2
 62
     0
340
11
144
4.5
309
CONTENTFORMAT_END
171
     1
301
MARGIN
  1
CELLMARGIN_BEGIN
 40
1.5
 40
1.5
 40
1.5
 40
1.5
 40
4.5
 40
4.5
309
CELLMARGIN_END
 94
        6
 95
        1
302
GRIDFORMAT
  1
GRIDFORMAT_BEGIN
 90
        0
 91
        1
 62
     0
 92
       -2
340
14
 93
        0
 40
1.125
309
GRIDFORMAT_END
 95
        2
302
GRIDFORMAT
  1
GRIDFORMAT_BEGIN
 90
        0
 91
        1
 62
     0
 92
       -2
340
14
 93
        0
 40
1.125
309
GRIDFORMAT_END
 95
        4
302
GRIDFORMAT
  1
GRIDFORMAT_BEGIN
 90
        0
 91
        1
 62
     0
 92
       -2
340
14
 93
        0
 40
1.125
309
GRIDFORMAT_END
 95
        8
302
GRIDFORMAT
  1
GRIDFORMAT_BEGIN
 90
        0
 91
        1
 62
     0
 92
       -2
340
14
 93
        0
 40
1.125
309
GRIDFORMAT_END
 95
       16
302
GRIDFORMAT
  1
GRIDFORMAT_BEGIN
 90
        0
 91
        1
 62
     0
 92
       -2
340
14
 93
        0
 40
1.125
309
GRIDFORMAT_END
 95
       32
302
GRIDFORMAT
  1
GRIDFORMAT_BEGIN
 90
        0
 91
        1
 62
     0
 92
       -2
340
14
 93
        0
 40
1.125
309
GRIDFORMAT_END
309
TABLEFORMAT_END
  1
CELLSTYLE_BEGIN
 90
        3
 91
        2
300
_DATA
309
CELLSTYLE_END
  0
XRECORD
  5
60B6
102
{ACAD_REACTORS
330
162
102
}
330
162
100
AcDbXrecord
280
     1
102
ACAD_ROUNDTRIP_PRE2007_TABLESTYLE
 90
      512
 91
        0
  1

 92
      512
 93
        0
  2

 94
      512
 95
        0
  3

  0
XRECORD
  5
60C9
102
{ACAD_REACTORS
330
60C8
102
}
330
60C8
100
AcDbXrecord
280
     1
102
RTVSPost2010Prop28
280
     1
102
RTVSPost2010PropOp28
 70
     1
102
RTVSPost2010Prop29
280
     1
102
RTVSPost2010PropOp29
 70
     1
102
RTVSPost2010Prop30
280
     0
102
RTVSPost2010PropOp30
 70
     1
102
RTVSPost2010Prop31
280
     0
102
RTVSPost2010PropOp31
 70
     1
102
RTVSPost2010Prop32
280
     0
102
RTVSPost2010PropOp32
 70
     1
102
RTVSPost2010Prop33
280
     0
102
RTVSPost2010PropOp33
 70
     1
102
RTVSPost2010Prop34
280
     0
102
RTVSPost2010PropOp34
 70
     1
102
RTVSPost2010Prop35
280
     0
102
RTVSPost2010PropOp35
 70
     1
102
RTVSPost2010Prop36
280
     0
102
RTVSPost2010PropOp36
 70
     1
102
RTVSPost2010Prop37
 90
       50
102
RTVSPost2010PropOp37
 70
     1
102
RTVSPost2010Prop38
140
0.0
102
RTVSPost2010PropOp38
 70
     1
102
RTVSPost2010Prop39
140
1.0
102
RTVSPost2010PropOp39
 70
     1
102
RTVSPost2010Prop40
 90
        0
102
RTVSPost2010PropOp40
 70
     1
102
RTVSPost2010Prop41ColorIndex
 90
       18
102
RTVSPost2010Prop41ColorRGB
 90
        0
102
RTVSPost2010PropOp41
 70
     1
102
RTVSPost2010Prop42
 90
       50
102
RTVSPost2010PropOp42
 70
     1
102
RTVSPost2010Prop43
 90
        3
102
RTVSPost2010PropOp43
 70
     1
102
RTVSPost2010Prop44ColorIndex
 90
        5
102
RTVSPost2010Prop44ColorRGB
 90
      255
102
RTVSPost2010PropOp44
 70
     1
102
RTVSPost2010Prop45
280
     0
102
RTVSPost2010PropOp45
 70
     1
102
RTVSPost2010Prop46
 90
       50
102
RTVSPost2010PropOp46
 70
     1
102
RTVSPost2010Prop47
 90
       50
102
RTVSPost2010PropOp47
 70
     1
102
RTVSPost2010Prop48
 90
       50
102
RTVSPost2010PropOp48
 70
     1
102
RTVSPost2010Prop49
280
     0
102
RTVSPost2010PropOp49
 70
     1
102
RTVSPost2010Prop50
 90
       50
102
RTVSPost2010PropOp50
 70
     1
102
RTVSPost2010Prop51ColorIndex
 90
      256
102
RTVSPost2010Prop51ColorRGB
 90
-16777216
102
RTVSPost2010PropOp51
 70
     0
102
RTVSPost2010Prop52
140
1.0
102
RTVSPost2010PropOp52
 70
     0
102
RTVSPost2010Prop53
 90
        2
102
RTVSPost2010PropOp53
 70
     1
102
RTVSPost2010Prop54
  1
strokes_ogs.tif
102
RTVSPost2010PropOp54
 70
     1
102
RTVSPost2010Prop55
280
     0
102
RTVSPost2010PropOp55
 70
     1
102
RTVSPost2010Prop56
140
1.0
102
RTVSPost2010PropOp56
 70
     1
102
RTVSPost2010Prop57
140
1.0
102
RTVSPost2010PropOp57
 70
     1
102
RTVSPropertyOp0
 70
     1
102
RTVSPropertyOp1
 70
     1
102
RTVSPropertyOp2
 70
     1
102
RTVSPropertyOp3
 70
     1
102
RTVSPropertyOp4
 70
     1
102
RTVSPropertyOp5
 70
     1
102
RTVSPropertyOp6
 70
     1
102
RTVSPropertyOp7
 70
     1
102
RTVSPropertyOp8
 70
     1
102
RTVSPropertyOp9
 70
     1
102
RTVSPropertyOp10
 70
     1
102
RTVSPropertyOp11
 70
     1
102
RTVSPropertyOp12
 70
     1
102
RTVSPropertyOp13
 70
     1
102
RTVSPropertyOp14
 70
     1
102
RTVSPropertyOp15
 70
     1
102
RTVSPropertyOp16
 70
     1
102
RTVSPropertyOp17
 70
     1
102
RTVSPropertyOp18
 70
     1
102
RTVSPropertyOp19
 70
     1
102
RTVSPropertyOp20
 70
     1
102
RTVSPropertyOp21
 70
     1
102
RTVSPropertyOp22
 70
     1
102
RTVSPropertyOp23
 70
     1
102
RTVSPropertyOp24
 70
     1
102
RTVSPropertyOp25
 70
     1
102
RTVSPropertyOp26
 70
     1
102
RTVSPropertyOp27
 70
     1
102
RTVSPropertyOp28
 70
     1
102
RTVSPropertyOp29
 70
     1
102
RTVSPropertyOp30
 70
     1
102
RTVSPropertyOp31
 70
     1
102
RTVSPropertyOp32
 70
     1
102
RTVSPropertyOp33
 70
     1
102
RTVSPropertyOp34
 70
     1
102
RTVSPropertyOp35
 70
     1
102
RTVSPropertyOp36
 70
     1
102
RTVSPropertyOp37
 70
     1
102
RTVSPropertyOp38
 70
     1
102
RTVSPropertyOp39
 70
     1
102
RTVSPropertyOp40
 70
     1
102
RTVSPropertyOp41
 70
     1
102
RTVSPropertyOp42
 70
     1
102
RTVSPropertyOp43
 70
     1
102
RTVSPropertyOp44
 70
     1
102
RTVSPropertyOp45
 70
     1
102
RTVSPropertyOp46
 70
     1
102
RTVSPropertyOp47
 70
     1
102
RTVSPropertyOp48
 70
     1
102
RTVSPropertyOp49
 70
     1
102
RTVSPropertyOp50
 70
     1
102
RTVSPropertyOp51
 70
     0
102
RTVSPropertyOp52
 70
     0
102
RTVSPropertyOp53
 70
     1
102
RTVSPropertyOp54
 70
     1
102
RTVSPropertyOp55
 70
     1
102
RTVSPropertyOp56
 70
     1
102
RTVSPropertyOp57
 70
     1
102
RTVSPropertyOp58
 70
     1
102
RTVSPropertyOp59
 70
     1
102
RTVSPropertyOp60
 70
     1
102
RTVSPropertyOp61
 70
     1
102
RTVSPropertyOp62
 70
     1
  0
XRECORD
  5
60C7
102
{ACAD_REACTORS
330
60C6
102
}
330
60C6
100
AcDbXrecord
280
     1
102
RTVSPost2010Prop28
280
     0
102
RTVSPost2010PropOp28
 70
     1
102
RTVSPost2010Prop29
280
     1
102
RTVSPost2010PropOp29
 70
     1
102
RTVSPost2010Prop30
280
     1
102
RTVSPost2010PropOp30
 70
     1
102
RTVSPost2010Prop31
280
     0
102
RTVSPost2010PropOp31
 70
     1
102
RTVSPost2010Prop32
280
     0
102
RTVSPost2010PropOp32
 70
     1
102
RTVSPost2010Prop33
280
     0
102
RTVSPost2010PropOp33
 70
     1
102
RTVSPost2010Prop34
280
     0
102
RTVSPost2010PropOp34
 70
     1
102
RTVSPost2010Prop35
280
     0
102
RTVSPost2010PropOp35
 70
     1
102
RTVSPost2010Prop36
280
     0
102
RTVSPost2010PropOp36
 70
     1
102
RTVSPost2010Prop37
 90
       50
102
RTVSPost2010PropOp37
 70
     1
102
RTVSPost2010Prop38
140
0.0
102
RTVSPost2010PropOp38
 70
     1
102
RTVSPost2010Prop39
140
1.0
102
RTVSPost2010PropOp39
 70
     1
102
RTVSPost2010Prop40
 90
        0
102
RTVSPost2010PropOp40
 70
     1
102
RTVSPost2010Prop41ColorIndex
 90
       18
102
RTVSPost2010Prop41ColorRGB
 90
        0
102
RTVSPost2010PropOp41
 70
     1
102
RTVSPost2010Prop42
 90
       50
102
RTVSPost2010PropOp42
 70
     1
102
RTVSPost2010Prop43
 90
        3
102
RTVSPost2010PropOp43
 70
     1
102
RTVSPost2010Prop44ColorIndex
 90
        5
102
RTVSPost2010Prop44ColorRGB
 90
      255
102
RTVSPost2010PropOp44
 70
     1
102
RTVSPost2010Prop45
280
     0
102
RTVSPost2010PropOp45
 70
     1
102
RTVSPost2010Prop46
 90
       50
102
RTVSPost2010PropOp46
 70
     1
102
RTVSPost2010Prop47
 90
       50
102
RTVSPost2010PropOp47
 70
     1
102
RTVSPost2010Prop48
 90
       50
102
RTVSPost2010PropOp48
 70
     1
102
RTVSPost2010Prop49
280
     0
102
RTVSPost2010PropOp49
 70
     1
102
RTVSPost2010Prop50
 90
       50
102
RTVSPost2010PropOp50
 70
     1
102
RTVSPost2010Prop51ColorIndex
 90
      256
102
RTVSPost2010Prop51ColorRGB
 90
-16777216
102
RTVSPost2010PropOp51
 70
     0
102
RTVSPost2010Prop52
140
1.0
102
RTVSPost2010PropOp52
 70
     0
102
RTVSPost2010Prop53
 90
        2
102
RTVSPost2010PropOp53
 70
     1
102
RTVSPost2010Prop54
  1
strokes_ogs.tif
102
RTVSPost2010PropOp54
 70
     1
102
RTVSPost2010Prop55
280
     0
102
RTVSPost2010PropOp55
 70
     1
102
RTVSPost2010Prop56
140
1.0
102
RTVSPost2010PropOp56
 70
     1
102
RTVSPost2010Prop57
140
1.0
102
RTVSPost2010PropOp57
 70
     1
102
RTVSPropertyOp0
 70
     1
102
RTVSPropertyOp1
 70
     1
102
RTVSPropertyOp2
 70
     1
102
RTVSPropertyOp3
 70
     1
102
RTVSPropertyOp4
 70
     1
102
RTVSPropertyOp5
 70
     1
102
RTVSPropertyOp6
 70
     1
102
RTVSPropertyOp7
 70
     1
102
RTVSPropertyOp8
 70
     1
102
RTVSPropertyOp9
 70
     1
102
RTVSPropertyOp10
 70
     1
102
RTVSPropertyOp11
 70
     1
102
RTVSPropertyOp12
 70
     1
102
RTVSPropertyOp13
 70
     1
102
RTVSPropertyOp14
 70
     1
102
RTVSPropertyOp15
 70
     1
102
RTVSPropertyOp16
 70
     1
102
RTVSPropertyOp17
 70
     1
102
RTVSPropertyOp18
 70
     1
102
RTVSPropertyOp19
 70
     1
102
RTVSPropertyOp20
 70
     1
102
RTVSPropertyOp21
 70
     1
102
RTVSPropertyOp22
 70
     1
102
RTVSPropertyOp23
 70
     1
102
RTVSPropertyOp24
 70
     1
102
RTVSPropertyOp25
 70
     1
102
RTVSPropertyOp26
 70
     1
102
RTVSPropertyOp27
 70
     1
102
RTVSPropertyOp28
 70
     1
102
RTVSPropertyOp29
 70
     1
102
RTVSPropertyOp30
 70
     1
102
RTVSPropertyOp31
 70
     1
102
RTVSPropertyOp32
 70
     1
102
RTVSPropertyOp33
 70
     1
102
RTVSPropertyOp34
 70
     1
102
RTVSPropertyOp35
 70
     1
102
RTVSPropertyOp36
 70
     1
102
RTVSPropertyOp37
 70
     1
102
RTVSPropertyOp38
 70
     1
102
RTVSPropertyOp39
 70
     1
102
RTVSPropertyOp40
 70
     1
102
RTVSPropertyOp41
 70
     1
102
RTVSPropertyOp42
 70
     1
102
RTVSPropertyOp43
 70
     1
102
RTVSPropertyOp44
 70
     1
102
RTVSPropertyOp45
 70
     1
102
RTVSPropertyOp46
 70
     1
102
RTVSPropertyOp47
 70
     1
102
RTVSPropertyOp48
 70
     1
102
RTVSPropertyOp49
 70
     1
102
RTVSPropertyOp50
 70
     1
102
RTVSPropertyOp51
 70
     0
102
RTVSPropertyOp52
 70
     0
102
RTVSPropertyOp53
 70
     1
102
RTVSPropertyOp54
 70
     1
102
RTVSPropertyOp55
 70
     1
102
RTVSPropertyOp56
 70
     1
102
RTVSPropertyOp57
 70
     1
102
RTVSPropertyOp58
 70
     1
102
RTVSPropertyOp59
 70
     1
102
RTVSPropertyOp60
 70
     1
102
RTVSPropertyOp61
 70
     1
102
RTVSPropertyOp62
 70
     1
  0
XRECORD
  5
60D5
102
{ACAD_REACTORS
330
60D4
102
}
330
60D4
100
AcDbXrecord
280
     1
102
RTVSPost2010Prop28
280
     0
102
RTVSPost2010PropOp28
 70
     1
102
RTVSPost2010Prop29
280
     1
102
RTVSPost2010PropOp29
 70
     1
102
RTVSPost2010Prop30
280
     1
102
RTVSPost2010PropOp30
 70
     1
102
RTVSPost2010Prop31
280
     0
102
RTVSPost2010PropOp31
 70
     1
102
RTVSPost2010Prop32
280
     0
102
RTVSPost2010PropOp32
 70
     1
102
RTVSPost2010Prop33
280
     0
102
RTVSPost2010PropOp33
 70
     1
102
RTVSPost2010Prop34
280
     0
102
RTVSPost2010PropOp34
 70
     1
102
RTVSPost2010Prop35
280
     0
102
RTVSPost2010PropOp35
 70
     1
102
RTVSPost2010Prop36
280
     0
102
RTVSPost2010PropOp36
 70
     1
102
RTVSPost2010Prop37
 90
       50
102
RTVSPost2010PropOp37
 70
     1
102
RTVSPost2010Prop38
140
0.0
102
RTVSPost2010PropOp38
 70
     1
102
RTVSPost2010Prop39
140
1.0
102
RTVSPost2010PropOp39
 70
     1
102
RTVSPost2010Prop40
 90
        0
102
RTVSPost2010PropOp40
 70
     1
102
RTVSPost2010Prop41ColorIndex
 90
       18
102
RTVSPost2010Prop41ColorRGB
 90
        0
102
RTVSPost2010PropOp41
 70
     1
102
RTVSPost2010Prop42
 90
       50
102
RTVSPost2010PropOp42
 70
     1
102
RTVSPost2010Prop43
 90
        3
102
RTVSPost2010PropOp43
 70
     1
102
RTVSPost2010Prop44ColorIndex
 90
        5
102
RTVSPost2010Prop44ColorRGB
 90
      255
102
RTVSPost2010PropOp44
 70
     1
102
RTVSPost2010Prop45
280
     0
102
RTVSPost2010PropOp45
 70
     1
102
RTVSPost2010Prop46
 90
       50
102
RTVSPost2010PropOp46
 70
     1
102
RTVSPost2010Prop47
 90
       50
102
RTVSPost2010PropOp47
 70
     1
102
RTVSPost2010Prop48
 90
       50
102
RTVSPost2010PropOp48
 70
     1
102
RTVSPost2010Prop49
280
     0
102
RTVSPost2010PropOp49
 70
     1
102
RTVSPost2010Prop50
 90
       50
102
RTVSPost2010PropOp50
 70
     1
102
RTVSPost2010Prop51ColorIndex
 90
      256
102
RTVSPost2010Prop51ColorRGB
 90
-16777216
102
RTVSPost2010PropOp51
 70
     0
102
RTVSPost2010Prop52
140
1.0
102
RTVSPost2010PropOp52
 70
     0
102
RTVSPost2010Prop53
 90
        2
102
RTVSPost2010PropOp53
 70
     1
102
RTVSPost2010Prop54
  1
strokes_ogs.tif
102
RTVSPost2010PropOp54
 70
     1
102
RTVSPost2010Prop55
280
     0
102
RTVSPost2010PropOp55
 70
     1
102
RTVSPost2010Prop56
140
1.0
102
RTVSPost2010PropOp56
 70
     1
102
RTVSPost2010Prop57
140
1.0
102
RTVSPost2010PropOp57
 70
     1
102
RTVSPropertyOp0
 70
     1
102
RTVSPropertyOp1
 70
     1
102
RTVSPropertyOp2
 70
     1
102
RTVSPropertyOp3
 70
     1
102
RTVSPropertyOp4
 70
     1
102
RTVSPropertyOp5
 70
     1
102
RTVSPropertyOp6
 70
     1
102
RTVSPropertyOp7
 70
     1
102
RTVSPropertyOp8
 70
     1
102
RTVSPropertyOp9
 70
     1
102
RTVSPropertyOp10
 70
     1
102
RTVSPropertyOp11
 70
     1
102
RTVSPropertyOp12
 70
     1
102
RTVSPropertyOp13
 70
     1
102
RTVSPropertyOp14
 70
     1
102
RTVSPropertyOp15
 70
     1
102
RTVSPropertyOp16
 70
     1
102
RTVSPropertyOp17
 70
     1
102
RTVSPropertyOp18
 70
     1
102
RTVSPropertyOp19
 70
     1
102
RTVSPropertyOp20
 70
     1
102
RTVSPropertyOp21
 70
     1
102
RTVSPropertyOp22
 70
     1
102
RTVSPropertyOp23
 70
     1
102
RTVSPropertyOp24
 70
     1
102
RTVSPropertyOp25
 70
     1
102
RTVSPropertyOp26
 70
     1
102
RTVSPropertyOp27
 70
     1
102
RTVSPropertyOp28
 70
     1
102
RTVSPropertyOp29
 70
     1
102
RTVSPropertyOp30
 70
     1
102
RTVSPropertyOp31
 70
     1
102
RTVSPropertyOp32
 70
     1
102
RTVSPropertyOp33
 70
     1
102
RTVSPropertyOp34
 70
     1
102
RTVSPropertyOp35
 70
     1
102
RTVSPropertyOp36
 70
     1
102
RTVSPropertyOp37
 70
     1
102
RTVSPropertyOp38
 70
     1
102
RTVSPropertyOp39
 70
     1
102
RTVSPropertyOp40
 70
     1
102
RTVSPropertyOp41
 70
     1
102
RTVSPropertyOp42
 70
     1
102
RTVSPropertyOp43
 70
     1
102
RTVSPropertyOp44
 70
     1
102
RTVSPropertyOp45
 70
     1
102
RTVSPropertyOp46
 70
     1
102
RTVSPropertyOp47
 70
     1
102
RTVSPropertyOp48
 70
     1
102
RTVSPropertyOp49
 70
     1
102
RTVSPropertyOp50
 70
     1
102
RTVSPropertyOp51
 70
     0
102
RTVSPropertyOp52
 70
     0
102
RTVSPropertyOp53
 70
     1
102
RTVSPropertyOp54
 70
     1
102
RTVSPropertyOp55
 70
     1
102
RTVSPropertyOp56
 70
     1
102
RTVSPropertyOp57
 70
     1
102
RTVSPropertyOp58
 70
     1
102
RTVSPropertyOp59
 70
     1
102
RTVSPropertyOp60
 70
     1
102
RTVSPropertyOp61
 70
     1
102
RTVSPropertyOp62
 70
     1
  0
XRECORD
  5
60DD
102
{ACAD_REACTORS
330
60DC
102
}
330
60DC
100
AcDbXrecord
280
     1
102
RTVSPost2010Prop28
280
     0
102
RTVSPost2010PropOp28
 70
     1
102
RTVSPost2010Prop29
280
     1
102
RTVSPost2010PropOp29
 70
     1
102
RTVSPost2010Prop30
280
     1
102
RTVSPost2010PropOp30
 70
     1
102
RTVSPost2010Prop31
280
     0
102
RTVSPost2010PropOp31
 70
     1
102
RTVSPost2010Prop32
280
     0
102
RTVSPost2010PropOp32
 70
     1
102
RTVSPost2010Prop33
280
     0
102
RTVSPost2010PropOp33
 70
     1
102
RTVSPost2010Prop34
280
     0
102
RTVSPost2010PropOp34
 70
     1
102
RTVSPost2010Prop35
280
     0
102
RTVSPost2010PropOp35
 70
     1
102
RTVSPost2010Prop36
280
     0
102
RTVSPost2010PropOp36
 70
     1
102
RTVSPost2010Prop37
 90
       50
102
RTVSPost2010PropOp37
 70
     1
102
RTVSPost2010Prop38
140
0.0
102
RTVSPost2010PropOp38
 70
     1
102
RTVSPost2010Prop39
140
1.0
102
RTVSPost2010PropOp39
 70
     1
102
RTVSPost2010Prop40
 90
        0
102
RTVSPost2010PropOp40
 70
     1
102
RTVSPost2010Prop41ColorIndex
 90
       18
102
RTVSPost2010Prop41ColorRGB
 90
        0
102
RTVSPost2010PropOp41
 70
     1
102
RTVSPost2010Prop42
 90
       50
102
RTVSPost2010PropOp42
 70
     1
102
RTVSPost2010Prop43
 90
        3
102
RTVSPost2010PropOp43
 70
     1
102
RTVSPost2010Prop44ColorIndex
 90
        5
102
RTVSPost2010Prop44ColorRGB
 90
      255
102
RTVSPost2010PropOp44
 70
     1
102
RTVSPost2010Prop45
280
     0
102
RTVSPost2010PropOp45
 70
     1
102
RTVSPost2010Prop46
 90
       50
102
RTVSPost2010PropOp46
 70
     1
102
RTVSPost2010Prop47
 90
       50
102
RTVSPost2010PropOp47
 70
     1
102
RTVSPost2010Prop48
 90
       50
102
RTVSPost2010PropOp48
 70
     1
102
RTVSPost2010Prop49
280
     0
102
RTVSPost2010PropOp49
 70
     1
102
RTVSPost2010Prop50
 90
       50
102
RTVSPost2010PropOp50
 70
     1
102
RTVSPost2010Prop51ColorIndex
 90
      256
102
RTVSPost2010Prop51ColorRGB
 90
-16777216
102
RTVSPost2010PropOp51
 70
     0
102
RTVSPost2010Prop52
140
1.0
102
RTVSPost2010PropOp52
 70
     0
102
RTVSPost2010Prop53
 90
        2
102
RTVSPost2010PropOp53
 70
     1
102
RTVSPost2010Prop54
  1
strokes_ogs.tif
102
RTVSPost2010PropOp54
 70
     1
102
RTVSPost2010Prop55
280
     0
102
RTVSPost2010PropOp55
 70
     1
102
RTVSPost2010Prop56
140
1.0
102
RTVSPost2010PropOp56
 70
     1
102
RTVSPost2010Prop57
140
1.0
102
RTVSPost2010PropOp57
 70
     1
102
RTVSPropertyOp0
 70
     1
102
RTVSPropertyOp1
 70
     1
102
RTVSPropertyOp2
 70
     1
102
RTVSPropertyOp3
 70
     1
102
RTVSPropertyOp4
 70
     1
102
RTVSPropertyOp5
 70
     1
102
RTVSPropertyOp6
 70
     1
102
RTVSPropertyOp7
 70
     1
102
RTVSPropertyOp8
 70
     1
102
RTVSPropertyOp9
 70
     1
102
RTVSPropertyOp10
 70
     1
102
RTVSPropertyOp11
 70
     1
102
RTVSPropertyOp12
 70
     1
102
RTVSPropertyOp13
 70
     1
102
RTVSPropertyOp14
 70
     1
102
RTVSPropertyOp15
 70
     1
102
RTVSPropertyOp16
 70
     1
102
RTVSPropertyOp17
 70
     1
102
RTVSPropertyOp18
 70
     1
102
RTVSPropertyOp19
 70
     1
102
RTVSPropertyOp20
 70
     1
102
RTVSPropertyOp21
 70
     1
102
RTVSPropertyOp22
 70
     1
102
RTVSPropertyOp23
 70
     1
102
RTVSPropertyOp24
 70
     1
102
RTVSPropertyOp25
 70
     1
102
RTVSPropertyOp26
 70
     1
102
RTVSPropertyOp27
 70
     1
102
RTVSPropertyOp28
 70
     1
102
RTVSPropertyOp29
 70
     1
102
RTVSPropertyOp30
 70
     1
102
RTVSPropertyOp31
 70
     1
102
RTVSPropertyOp32
 70
     1
102
RTVSPropertyOp33
 70
     1
102
RTVSPropertyOp34
 70
     1
102
RTVSPropertyOp35
 70
     1
102
RTVSPropertyOp36
 70
     1
102
RTVSPropertyOp37
 70
     1
102
RTVSPropertyOp38
 70
     1
102
RTVSPropertyOp39
 70
     1
102
RTVSPropertyOp40
 70
     1
102
RTVSPropertyOp41
 70
     1
102
RTVSPropertyOp42
 70
     1
102
RTVSPropertyOp43
 70
     1
102
RTVSPropertyOp44
 70
     1
102
RTVSPropertyOp45
 70
     1
102
RTVSPropertyOp46
 70
     1
102
RTVSPropertyOp47
 70
     1
102
RTVSPropertyOp48
 70
     1
102
RTVSPropertyOp49
 70
     1
102
RTVSPropertyOp50
 70
     1
102
RTVSPropertyOp51
 70
     0
102
RTVSPropertyOp52
 70
     0
102
RTVSPropertyOp53
 70
     1
102
RTVSPropertyOp54
 70
     1
102
RTVSPropertyOp55
 70
     1
102
RTVSPropertyOp56
 70
     1
102
RTVSPropertyOp57
 70
     1
102
RTVSPropertyOp58
 70
     1
102
RTVSPropertyOp59
 70
     1
102
RTVSPropertyOp60
 70
     1
102
RTVSPropertyOp61
 70
     1
102
RTVSPropertyOp62
 70
     1
  0
XRECORD
  5
60CF
102
{ACAD_REACTORS
330
60CE
102
}
330
60CE
100
AcDbXrecord
280
     1
102
RTVSPost2010Prop28
280
     0
102
RTVSPost2010PropOp28
 70
     1
102
RTVSPost2010Prop29
280
     1
102
RTVSPost2010PropOp29
 70
     1
102
RTVSPost2010Prop30
280
     1
102
RTVSPost2010PropOp30
 70
     1
102
RTVSPost2010Prop31
280
     0
102
RTVSPost2010PropOp31
 70
     1
102
RTVSPost2010Prop32
280
     0
102
RTVSPost2010PropOp32
 70
     1
102
RTVSPost2010Prop33
280
     0
102
RTVSPost2010PropOp33
 70
     1
102
RTVSPost2010Prop34
280
     0
102
RTVSPost2010PropOp34
 70
     1
102
RTVSPost2010Prop35
280
     0
102
RTVSPost2010PropOp35
 70
     1
102
RTVSPost2010Prop36
280
     0
102
RTVSPost2010PropOp36
 70
     1
102
RTVSPost2010Prop37
 90
       50
102
RTVSPost2010PropOp37
 70
     1
102
RTVSPost2010Prop38
140
0.0
102
RTVSPost2010PropOp38
 70
     1
102
RTVSPost2010Prop39
140
1.0
102
RTVSPost2010PropOp39
 70
     1
102
RTVSPost2010Prop40
 90
        0
102
RTVSPost2010PropOp40
 70
     1
102
RTVSPost2010Prop41ColorIndex
 90
       18
102
RTVSPost2010Prop41ColorRGB
 90
        0
102
RTVSPost2010PropOp41
 70
     1
102
RTVSPost2010Prop42
 90
       50
102
RTVSPost2010PropOp42
 70
     1
102
RTVSPost2010Prop43
 90
        3
102
RTVSPost2010PropOp43
 70
     1
102
RTVSPost2010Prop44ColorIndex
 90
        5
102
RTVSPost2010Prop44ColorRGB
 90
      255
102
RTVSPost2010PropOp44
 70
     1
102
RTVSPost2010Prop45
280
     0
102
RTVSPost2010PropOp45
 70
     1
102
RTVSPost2010Prop46
 90
       50
102
RTVSPost2010PropOp46
 70
     1
102
RTVSPost2010Prop47
 90
       50
102
RTVSPost2010PropOp47
 70
     1
102
RTVSPost2010Prop48
 90
       50
102
RTVSPost2010PropOp48
 70
     1
102
RTVSPost2010Prop49
280
     0
102
RTVSPost2010PropOp49
 70
     1
102
RTVSPost2010Prop50
 90
       50
102
RTVSPost2010PropOp50
 70
     1
102
RTVSPost2010Prop51ColorIndex
 90
      256
102
RTVSPost2010Prop51ColorRGB
 90
-16777216
102
RTVSPost2010PropOp51
 70
     0
102
RTVSPost2010Prop52
140
1.0
102
RTVSPost2010PropOp52
 70
     0
102
RTVSPost2010Prop53
 90
        2
102
RTVSPost2010PropOp53
 70
     1
102
RTVSPost2010Prop54
  1
strokes_ogs.tif
102
RTVSPost2010PropOp54
 70
     1
102
RTVSPost2010Prop55
280
     0
102
RTVSPost2010PropOp55
 70
     1
102
RTVSPost2010Prop56
140
1.0
102
RTVSPost2010PropOp56
 70
     1
102
RTVSPost2010Prop57
140
1.0
102
RTVSPost2010PropOp57
 70
     1
102
RTVSPropertyOp0
 70
     1
102
RTVSPropertyOp1
 70
     1
102
RTVSPropertyOp2
 70
     1
102
RTVSPropertyOp3
 70
     1
102
RTVSPropertyOp4
 70
     1
102
RTVSPropertyOp5
 70
     1
102
RTVSPropertyOp6
 70
     1
102
RTVSPropertyOp7
 70
     1
102
RTVSPropertyOp8
 70
     1
102
RTVSPropertyOp9
 70
     1
102
RTVSPropertyOp10
 70
     1
102
RTVSPropertyOp11
 70
     1
102
RTVSPropertyOp12
 70
     1
102
RTVSPropertyOp13
 70
     1
102
RTVSPropertyOp14
 70
     1
102
RTVSPropertyOp15
 70
     1
102
RTVSPropertyOp16
 70
     1
102
RTVSPropertyOp17
 70
     1
102
RTVSPropertyOp18
 70
     1
102
RTVSPropertyOp19
 70
     1
102
RTVSPropertyOp20
 70
     1
102
RTVSPropertyOp21
 70
     1
102
RTVSPropertyOp22
 70
     1
102
RTVSPropertyOp23
 70
     1
102
RTVSPropertyOp24
 70
     1
102
RTVSPropertyOp25
 70
     1
102
RTVSPropertyOp26
 70
     1
102
RTVSPropertyOp27
 70
     1
102
RTVSPropertyOp28
 70
     1
102
RTVSPropertyOp29
 70
     1
102
RTVSPropertyOp30
 70
     1
102
RTVSPropertyOp31
 70
     1
102
RTVSPropertyOp32
 70
     1
102
RTVSPropertyOp33
 70
     1
102
RTVSPropertyOp34
 70
     1
102
RTVSPropertyOp35
 70
     1
102
RTVSPropertyOp36
 70
     1
102
RTVSPropertyOp37
 70
     1
102
RTVSPropertyOp38
 70
     1
102
RTVSPropertyOp39
 70
     1
102
RTVSPropertyOp40
 70
     1
102
RTVSPropertyOp41
 70
     1
102
RTVSPropertyOp42
 70
     1
102
RTVSPropertyOp43
 70
     1
102
RTVSPropertyOp44
 70
     1
102
RTVSPropertyOp45
 70
     1
102
RTVSPropertyOp46
 70
     1
102
RTVSPropertyOp47
 70
     1
102
RTVSPropertyOp48
 70
     1
102
RTVSPropertyOp49
 70
     1
102
RTVSPropertyOp50
 70
     1
102
RTVSPropertyOp51
 70
     0
102
RTVSPropertyOp52
 70
     0
102
RTVSPropertyOp53
 70
     1
102
RTVSPropertyOp54
 70
     1
102
RTVSPropertyOp55
 70
     1
102
RTVSPropertyOp56
 70
     1
102
RTVSPropertyOp57
 70
     1
102
RTVSPropertyOp58
 70
     1
102
RTVSPropertyOp59
 70
     1
102
RTVSPropertyOp60
 70
     1
102
RTVSPropertyOp61
 70
     1
102
RTVSPropertyOp62
 70
     1
  0
XRECORD
  5
60D3
102
{ACAD_REACTORS
330
60D2
102
}
330
60D2
100
AcDbXrecord
280
     1
102
RTVSPost2010Prop28
280
     0
102
RTVSPost2010PropOp28
 70
     1
102
RTVSPost2010Prop29
280
     1
102
RTVSPost2010PropOp29
 70
     1
102
RTVSPost2010Prop30
280
     1
102
RTVSPost2010PropOp30
 70
     1
102
RTVSPost2010Prop31
280
     0
102
RTVSPost2010PropOp31
 70
     1
102
RTVSPost2010Prop32
280
     0
102
RTVSPost2010PropOp32
 70
     1
102
RTVSPost2010Prop33
280
     0
102
RTVSPost2010PropOp33
 70
     1
102
RTVSPost2010Prop34
280
     0
102
RTVSPost2010PropOp34
 70
     1
102
RTVSPost2010Prop35
280
     0
102
RTVSPost2010PropOp35
 70
     1
102
RTVSPost2010Prop36
280
     0
102
RTVSPost2010PropOp36
 70
     1
102
RTVSPost2010Prop37
 90
       50
102
RTVSPost2010PropOp37
 70
     1
102
RTVSPost2010Prop38
140
0.0
102
RTVSPost2010PropOp38
 70
     1
102
RTVSPost2010Prop39
140
1.0
102
RTVSPost2010PropOp39
 70
     1
102
RTVSPost2010Prop40
 90
        0
102
RTVSPost2010PropOp40
 70
     1
102
RTVSPost2010Prop41ColorIndex
 90
       18
102
RTVSPost2010Prop41ColorRGB
 90
        0
102
RTVSPost2010PropOp41
 70
     1
102
RTVSPost2010Prop42
 90
       50
102
RTVSPost2010PropOp42
 70
     1
102
RTVSPost2010Prop43
 90
        3
102
RTVSPost2010PropOp43
 70
     1
102
RTVSPost2010Prop44ColorIndex
 90
        5
102
RTVSPost2010Prop44ColorRGB
 90
      255
102
RTVSPost2010PropOp44
 70
     1
102
RTVSPost2010Prop45
280
     0
102
RTVSPost2010PropOp45
 70
     1
102
RTVSPost2010Prop46
 90
       50
102
RTVSPost2010PropOp46
 70
     1
102
RTVSPost2010Prop47
 90
       50
102
RTVSPost2010PropOp47
 70
     1
102
RTVSPost2010Prop48
 90
       50
102
RTVSPost2010PropOp48
 70
     1
102
RTVSPost2010Prop49
280
     0
102
RTVSPost2010PropOp49
 70
     1
102
RTVSPost2010Prop50
 90
       50
102
RTVSPost2010PropOp50
 70
     1
102
RTVSPost2010Prop51ColorIndex
 90
      256
102
RTVSPost2010Prop51ColorRGB
 90
-16777216
102
RTVSPost2010PropOp51
 70
     0
102
RTVSPost2010Prop52
140
1.0
102
RTVSPost2010PropOp52
 70
     0
102
RTVSPost2010Prop53
 90
        2
102
RTVSPost2010PropOp53
 70
     1
102
RTVSPost2010Prop54
  1
strokes_ogs.tif
102
RTVSPost2010PropOp54
 70
     1
102
RTVSPost2010Prop55
280
     0
102
RTVSPost2010PropOp55
 70
     1
102
RTVSPost2010Prop56
140
1.0
102
RTVSPost2010PropOp56
 70
     1
102
RTVSPost2010Prop57
140
1.0
102
RTVSPost2010PropOp57
 70
     1
102
RTVSPropertyOp0
 70
     1
102
RTVSPropertyOp1
 70
     1
102
RTVSPropertyOp2
 70
     1
102
RTVSPropertyOp3
 70
     1
102
RTVSPropertyOp4
 70
     1
102
RTVSPropertyOp5
 70
     1
102
RTVSPropertyOp6
 70
     1
102
RTVSPropertyOp7
 70
     1
102
RTVSPropertyOp8
 70
     1
102
RTVSPropertyOp9
 70
     1
102
RTVSPropertyOp10
 70
     1
102
RTVSPropertyOp11
 70
     1
102
RTVSPropertyOp12
 70
     1
102
RTVSPropertyOp13
 70
     1
102
RTVSPropertyOp14
 70
     1
102
RTVSPropertyOp15
 70
     1
102
RTVSPropertyOp16
 70
     1
102
RTVSPropertyOp17
 70
     1
102
RTVSPropertyOp18
 70
     1
102
RTVSPropertyOp19
 70
     1
102
RTVSPropertyOp20
 70
     1
102
RTVSPropertyOp21
 70
     1
102
RTVSPropertyOp22
 70
     1
102
RTVSPropertyOp23
 70
     1
102
RTVSPropertyOp24
 70
     1
102
RTVSPropertyOp25
 70
     1
102
RTVSPropertyOp26
 70
     1
102
RTVSPropertyOp27
 70
     1
102
RTVSPropertyOp28
 70
     1
102
RTVSPropertyOp29
 70
     1
102
RTVSPropertyOp30
 70
     1
102
RTVSPropertyOp31
 70
     1
102
RTVSPropertyOp32
 70
     1
102
RTVSPropertyOp33
 70
     1
102
RTVSPropertyOp34
 70
     1
102
RTVSPropertyOp35
 70
     1
102
RTVSPropertyOp36
 70
     1
102
RTVSPropertyOp37
 70
     1
102
RTVSPropertyOp38
 70
     1
102
RTVSPropertyOp39
 70
     1
102
RTVSPropertyOp40
 70
     1
102
RTVSPropertyOp41
 70
     1
102
RTVSPropertyOp42
 70
     1
102
RTVSPropertyOp43
 70
     1
102
RTVSPropertyOp44
 70
     1
102
RTVSPropertyOp45
 70
     1
102
RTVSPropertyOp46
 70
     1
102
RTVSPropertyOp47
 70
     1
102
RTVSPropertyOp48
 70
     1
102
RTVSPropertyOp49
 70
     1
102
RTVSPropertyOp50
 70
     1
102
RTVSPropertyOp51
 70
     0
102
RTVSPropertyOp52
 70
     0
102
RTVSPropertyOp53
 70
     1
102
RTVSPropertyOp54
 70
     1
102
RTVSPropertyOp55
 70
     1
102
RTVSPropertyOp56
 70
     1
102
RTVSPropertyOp57
 70
     1
102
RTVSPropertyOp58
 70
     1
102
RTVSPropertyOp59
 70
     1
102
RTVSPropertyOp60
 70
     1
102
RTVSPropertyOp61
 70
     1
102
RTVSPropertyOp62
 70
     1
  0
XRECORD
  5
60E5
102
{ACAD_REACTORS
330
60E4
102
}
330
60E4
100
AcDbXrecord
280
     1
102
RTVSPost2010Prop28
280
     0
102
RTVSPost2010PropOp28
 70
     1
102
RTVSPost2010Prop29
280
     1
102
RTVSPost2010PropOp29
 70
     1
102
RTVSPost2010Prop30
280
     1
102
RTVSPost2010PropOp30
 70
     1
102
RTVSPost2010Prop31
280
     0
102
RTVSPost2010PropOp31
 70
     1
102
RTVSPost2010Prop32
280
     0
102
RTVSPost2010PropOp32
 70
     1
102
RTVSPost2010Prop33
280
     0
102
RTVSPost2010PropOp33
 70
     1
102
RTVSPost2010Prop34
280
     0
102
RTVSPost2010PropOp34
 70
     1
102
RTVSPost2010Prop35
280
     0
102
RTVSPost2010PropOp35
 70
     1
102
RTVSPost2010Prop36
280
     0
102
RTVSPost2010PropOp36
 70
     1
102
RTVSPost2010Prop37
 90
       50
102
RTVSPost2010PropOp37
 70
     1
102
RTVSPost2010Prop38
140
0.0
102
RTVSPost2010PropOp38
 70
     1
102
RTVSPost2010Prop39
140
1.0
102
RTVSPost2010PropOp39
 70
     1
102
RTVSPost2010Prop40
 90
        0
102
RTVSPost2010PropOp40
 70
     1
102
RTVSPost2010Prop41ColorIndex
 90
       18
102
RTVSPost2010Prop41ColorRGB
 90
        0
102
RTVSPost2010PropOp41
 70
     1
102
RTVSPost2010Prop42
 90
       50
102
RTVSPost2010PropOp42
 70
     1
102
RTVSPost2010Prop43
 90
        3
102
RTVSPost2010PropOp43
 70
     1
102
RTVSPost2010Prop44ColorIndex
 90
        5
102
RTVSPost2010Prop44ColorRGB
 90
      255
102
RTVSPost2010PropOp44
 70
     1
102
RTVSPost2010Prop45
280
     0
102
RTVSPost2010PropOp45
 70
     1
102
RTVSPost2010Prop46
 90
       50
102
RTVSPost2010PropOp46
 70
     1
102
RTVSPost2010Prop47
 90
       50
102
RTVSPost2010PropOp47
 70
     1
102
RTVSPost2010Prop48
 90
       50
102
RTVSPost2010PropOp48
 70
     1
102
RTVSPost2010Prop49
280
     0
102
RTVSPost2010PropOp49
 70
     1
102
RTVSPost2010Prop50
 90
       50
102
RTVSPost2010PropOp50
 70
     1
102
RTVSPost2010Prop51ColorIndex
 90
      256
102
RTVSPost2010Prop51ColorRGB
 90
-16777216
102
RTVSPost2010PropOp51
 70
     0
102
RTVSPost2010Prop52
140
1.0
102
RTVSPost2010PropOp52
 70
     0
102
RTVSPost2010Prop53
 90
        2
102
RTVSPost2010PropOp53
 70
     1
102
RTVSPost2010Prop54
  1
strokes_ogs.tif
102
RTVSPost2010PropOp54
 70
     1
102
RTVSPost2010Prop55
280
     0
102
RTVSPost2010PropOp55
 70
     1
102
RTVSPost2010Prop56
140
1.0
102
RTVSPost2010PropOp56
 70
     1
102
RTVSPost2010Prop57
140
1.0
102
RTVSPost2010PropOp57
 70
     1
102
RTVSPropertyOp0
 70
     0
102
RTVSPropertyOp1
 70
     0
102
RTVSPropertyOp2
 70
     0
102
RTVSPropertyOp3
 70
     0
102
RTVSPropertyOp4
 70
     0
102
RTVSPropertyOp5
 70
     0
102
RTVSPropertyOp6
 70
     0
102
RTVSPropertyOp7
 70
     0
102
RTVSPropertyOp8
 70
     0
102
RTVSPropertyOp9
 70
     0
102
RTVSPropertyOp10
 70
     0
102
RTVSPropertyOp11
 70
     0
102
RTVSPropertyOp12
 70
     0
102
RTVSPropertyOp13
 70
     0
102
RTVSPropertyOp14
 70
     2
102
RTVSPropertyOp15
 70
     0
102
RTVSPropertyOp16
 70
     0
102
RTVSPropertyOp17
 70
     0
102
RTVSPropertyOp18
 70
     0
102
RTVSPropertyOp19
 70
     0
102
RTVSPropertyOp20
 70
     0
102
RTVSPropertyOp21
 70
     0
102
RTVSPropertyOp22
 70
     0
102
RTVSPropertyOp23
 70
     0
102
RTVSPropertyOp24
 70
     0
102
RTVSPropertyOp25
 70
     0
102
RTVSPropertyOp26
 70
     0
102
RTVSPropertyOp27
 70
     0
102
RTVSPropertyOp28
 70
     1
102
RTVSPropertyOp29
 70
     1
102
RTVSPropertyOp30
 70
     1
102
RTVSPropertyOp31
 70
     1
102
RTVSPropertyOp32
 70
     1
102
RTVSPropertyOp33
 70
     1
102
RTVSPropertyOp34
 70
     1
102
RTVSPropertyOp35
 70
     1
102
RTVSPropertyOp36
 70
     1
102
RTVSPropertyOp37
 70
     1
102
RTVSPropertyOp38
 70
     1
102
RTVSPropertyOp39
 70
     1
102
RTVSPropertyOp40
 70
     1
102
RTVSPropertyOp41
 70
     1
102
RTVSPropertyOp42
 70
     1
102
RTVSPropertyOp43
 70
     1
102
RTVSPropertyOp44
 70
     1
102
RTVSPropertyOp45
 70
     1
102
RTVSPropertyOp46
 70
     1
102
RTVSPropertyOp47
 70
     1
102
RTVSPropertyOp48
 70
     1
102
RTVSPropertyOp49
 70
     1
102
RTVSPropertyOp50
 70
     1
102
RTVSPropertyOp51
 70
     0
102
RTVSPropertyOp52
 70
     0
102
RTVSPropertyOp53
 70
     1
102
RTVSPropertyOp54
 70
     1
102
RTVSPropertyOp55
 70
     1
102
RTVSPropertyOp56
 70
     1
102
RTVSPropertyOp57
 70
     1
102
RTVSPropertyOp58
 70
     1
102
RTVSPropertyOp59
 70
     1
102
RTVSPropertyOp60
 70
     1
102
RTVSPropertyOp61
 70
     1
102
RTVSPropertyOp62
 70
     1
  0
XRECORD
  5
60DB
102
{ACAD_REACTORS
330
60DA
102
}
330
60DA
100
AcDbXrecord
280
     1
102
RTVSPost2010Prop28
280
     0
102
RTVSPost2010PropOp28
 70
     1
102
RTVSPost2010Prop29
280
     1
102
RTVSPost2010PropOp29
 70
     1
102
RTVSPost2010Prop30
280
     1
102
RTVSPost2010PropOp30
 70
     1
102
RTVSPost2010Prop31
280
     0
102
RTVSPost2010PropOp31
 70
     1
102
RTVSPost2010Prop32
280
     0
102
RTVSPost2010PropOp32
 70
     1
102
RTVSPost2010Prop33
280
     0
102
RTVSPost2010PropOp33
 70
     1
102
RTVSPost2010Prop34
280
     0
102
RTVSPost2010PropOp34
 70
     1
102
RTVSPost2010Prop35
280
     0
102
RTVSPost2010PropOp35
 70
     1
102
RTVSPost2010Prop36
280
     0
102
RTVSPost2010PropOp36
 70
     1
102
RTVSPost2010Prop37
 90
       50
102
RTVSPost2010PropOp37
 70
     1
102
RTVSPost2010Prop38
140
0.0
102
RTVSPost2010PropOp38
 70
     1
102
RTVSPost2010Prop39
140
1.0
102
RTVSPost2010PropOp39
 70
     1
102
RTVSPost2010Prop40
 90
        0
102
RTVSPost2010PropOp40
 70
     1
102
RTVSPost2010Prop41ColorIndex
 90
       18
102
RTVSPost2010Prop41ColorRGB
 90
        0
102
RTVSPost2010PropOp41
 70
     1
102
RTVSPost2010Prop42
 90
       50
102
RTVSPost2010PropOp42
 70
     1
102
RTVSPost2010Prop43
 90
        3
102
RTVSPost2010PropOp43
 70
     1
102
RTVSPost2010Prop44ColorIndex
 90
        5
102
RTVSPost2010Prop44ColorRGB
 90
      255
102
RTVSPost2010PropOp44
 70
     1
102
RTVSPost2010Prop45
280
     0
102
RTVSPost2010PropOp45
 70
     1
102
RTVSPost2010Prop46
 90
       50
102
RTVSPost2010PropOp46
 70
     1
102
RTVSPost2010Prop47
 90
       50
102
RTVSPost2010PropOp47
 70
     1
102
RTVSPost2010Prop48
 90
       50
102
RTVSPost2010PropOp48
 70
     1
102
RTVSPost2010Prop49
280
     0
102
RTVSPost2010PropOp49
 70
     1
102
RTVSPost2010Prop50
 90
       50
102
RTVSPost2010PropOp50
 70
     1
102
RTVSPost2010Prop51ColorIndex
 90
      256
102
RTVSPost2010Prop51ColorRGB
 90
-16777216
102
RTVSPost2010PropOp51
 70
     0
102
RTVSPost2010Prop52
140
1.0
102
RTVSPost2010PropOp52
 70
     0
102
RTVSPost2010Prop53
 90
        2
102
RTVSPost2010PropOp53
 70
     1
102
RTVSPost2010Prop54
  1
strokes_ogs.tif
102
RTVSPost2010PropOp54
 70
     1
102
RTVSPost2010Prop55
280
     0
102
RTVSPost2010PropOp55
 70
     1
102
RTVSPost2010Prop56
140
1.0
102
RTVSPost2010PropOp56
 70
     1
102
RTVSPost2010Prop57
140
1.0
102
RTVSPost2010PropOp57
 70
     1
102
RTVSPropertyOp0
 70
     1
102
RTVSPropertyOp1
 70
     1
102
RTVSPropertyOp2
 70
     1
102
RTVSPropertyOp3
 70
     1
102
RTVSPropertyOp4
 70
     1
102
RTVSPropertyOp5
 70
     1
102
RTVSPropertyOp6
 70
     1
102
RTVSPropertyOp7
 70
     1
102
RTVSPropertyOp8
 70
     1
102
RTVSPropertyOp9
 70
     1
102
RTVSPropertyOp10
 70
     1
102
RTVSPropertyOp11
 70
     1
102
RTVSPropertyOp12
 70
     1
102
RTVSPropertyOp13
 70
     1
102
RTVSPropertyOp14
 70
     1
102
RTVSPropertyOp15
 70
     1
102
RTVSPropertyOp16
 70
     1
102
RTVSPropertyOp17
 70
     1
102
RTVSPropertyOp18
 70
     1
102
RTVSPropertyOp19
 70
     1
102
RTVSPropertyOp20
 70
     1
102
RTVSPropertyOp21
 70
     1
102
RTVSPropertyOp22
 70
     1
102
RTVSPropertyOp23
 70
     1
102
RTVSPropertyOp24
 70
     1
102
RTVSPropertyOp25
 70
     1
102
RTVSPropertyOp26
 70
     1
102
RTVSPropertyOp27
 70
     1
102
RTVSPropertyOp28
 70
     1
102
RTVSPropertyOp29
 70
     1
102
RTVSPropertyOp30
 70
     1
102
RTVSPropertyOp31
 70
     1
102
RTVSPropertyOp32
 70
     1
102
RTVSPropertyOp33
 70
     1
102
RTVSPropertyOp34
 70
     1
102
RTVSPropertyOp35
 70
     1
102
RTVSPropertyOp36
 70
     1
102
RTVSPropertyOp37
 70
     1
102
RTVSPropertyOp38
 70
     1
102
RTVSPropertyOp39
 70
     1
102
RTVSPropertyOp40
 70
     1
102
RTVSPropertyOp41
 70
     1
102
RTVSPropertyOp42
 70
     1
102
RTVSPropertyOp43
 70
     1
102
RTVSPropertyOp44
 70
     1
102
RTVSPropertyOp45
 70
     1
102
RTVSPropertyOp46
 70
     1
102
RTVSPropertyOp47
 70
     1
102
RTVSPropertyOp48
 70
     1
102
RTVSPropertyOp49
 70
     1
102
RTVSPropertyOp50
 70
     1
102
RTVSPropertyOp51
 70
     0
102
RTVSPropertyOp52
 70
     0
102
RTVSPropertyOp53
 70
     1
102
RTVSPropertyOp54
 70
     1
102
RTVSPropertyOp55
 70
     1
102
RTVSPropertyOp56
 70
     1
102
RTVSPropertyOp57
 70
     1
102
RTVSPropertyOp58
 70
     1
102
RTVSPropertyOp59
 70
     1
102
RTVSPropertyOp60
 70
     1
102
RTVSPropertyOp61
 70
     1
102
RTVSPropertyOp62
 70
     1
  0
XRECORD
  5
60BF
102
{ACAD_REACTORS
330
60BE
102
}
330
60BE
100
AcDbXrecord
280
     1
102
RTVSPost2010Prop28
280
     0
102
RTVSPost2010PropOp28
 70
     1
102
RTVSPost2010Prop29
280
     1
102
RTVSPost2010PropOp29
 70
     1
102
RTVSPost2010Prop30
280
     1
102
RTVSPost2010PropOp30
 70
     1
102
RTVSPost2010Prop31
280
     0
102
RTVSPost2010PropOp31
 70
     1
102
RTVSPost2010Prop32
280
     0
102
RTVSPost2010PropOp32
 70
     1
102
RTVSPost2010Prop33
280
     0
102
RTVSPost2010PropOp33
 70
     1
102
RTVSPost2010Prop34
280
     0
102
RTVSPost2010PropOp34
 70
     1
102
RTVSPost2010Prop35
280
     0
102
RTVSPost2010PropOp35
 70
     1
102
RTVSPost2010Prop36
280
     0
102
RTVSPost2010PropOp36
 70
     1
102
RTVSPost2010Prop37
 90
       50
102
RTVSPost2010PropOp37
 70
     1
102
RTVSPost2010Prop38
140
0.0
102
RTVSPost2010PropOp38
 70
     1
102
RTVSPost2010Prop39
140
1.0
102
RTVSPost2010PropOp39
 70
     1
102
RTVSPost2010Prop40
 90
        0
102
RTVSPost2010PropOp40
 70
     1
102
RTVSPost2010Prop41ColorIndex
 90
       18
102
RTVSPost2010Prop41ColorRGB
 90
        0
102
RTVSPost2010PropOp41
 70
     1
102
RTVSPost2010Prop42
 90
       50
102
RTVSPost2010PropOp42
 70
     1
102
RTVSPost2010Prop43
 90
        3
102
RTVSPost2010PropOp43
 70
     1
102
RTVSPost2010Prop44ColorIndex
 90
        5
102
RTVSPost2010Prop44ColorRGB
 90
      255
102
RTVSPost2010PropOp44
 70
     1
102
RTVSPost2010Prop45
280
     0
102
RTVSPost2010PropOp45
 70
     1
102
RTVSPost2010Prop46
 90
       50
102
RTVSPost2010PropOp46
 70
     1
102
RTVSPost2010Prop47
 90
       50
102
RTVSPost2010PropOp47
 70
     1
102
RTVSPost2010Prop48
 90
       50
102
RTVSPost2010PropOp48
 70
     1
102
RTVSPost2010Prop49
280
     0
102
RTVSPost2010PropOp49
 70
     1
102
RTVSPost2010Prop50
 90
       50
102
RTVSPost2010PropOp50
 70
     1
102
RTVSPost2010Prop51ColorIndex
 90
      256
102
RTVSPost2010Prop51ColorRGB
 90
-16777216
102
RTVSPost2010PropOp51
 70
     0
102
RTVSPost2010Prop52
140
1.0
102
RTVSPost2010PropOp52
 70
     0
102
RTVSPost2010Prop53
 90
        2
102
RTVSPost2010PropOp53
 70
     1
102
RTVSPost2010Prop54
  1
strokes_ogs.tif
102
RTVSPost2010PropOp54
 70
     1
102
RTVSPost2010Prop55
280
     0
102
RTVSPost2010PropOp55
 70
     1
102
RTVSPost2010Prop56
140
1.0
102
RTVSPost2010PropOp56
 70
     1
102
RTVSPost2010Prop57
140
1.0
102
RTVSPost2010PropOp57
 70
     1
102
RTVSPropertyOp0
 70
     1
102
RTVSPropertyOp1
 70
     1
102
RTVSPropertyOp2
 70
     1
102
RTVSPropertyOp3
 70
     1
102
RTVSPropertyOp4
 70
     1
102
RTVSPropertyOp5
 70
     1
102
RTVSPropertyOp6
 70
     1
102
RTVSPropertyOp7
 70
     1
102
RTVSPropertyOp8
 70
     1
102
RTVSPropertyOp9
 70
     1
102
RTVSPropertyOp10
 70
     1
102
RTVSPropertyOp11
 70
     1
102
RTVSPropertyOp12
 70
     1
102
RTVSPropertyOp13
 70
     1
102
RTVSPropertyOp14
 70
     1
102
RTVSPropertyOp15
 70
     1
102
RTVSPropertyOp16
 70
     1
102
RTVSPropertyOp17
 70
     1
102
RTVSPropertyOp18
 70
     1
102
RTVSPropertyOp19
 70
     1
102
RTVSPropertyOp20
 70
     1
102
RTVSPropertyOp21
 70
     1
102
RTVSPropertyOp22
 70
     1
102
RTVSPropertyOp23
 70
     1
102
RTVSPropertyOp24
 70
     1
102
RTVSPropertyOp25
 70
     1
102
RTVSPropertyOp26
 70
     1
102
RTVSPropertyOp27
 70
     1
102
RTVSPropertyOp28
 70
     1
102
RTVSPropertyOp29
 70
     1
102
RTVSPropertyOp30
 70
     1
102
RTVSPropertyOp31
 70
     1
102
RTVSPropertyOp32
 70
     1
102
RTVSPropertyOp33
 70
     1
102
RTVSPropertyOp34
 70
     1
102
RTVSPropertyOp35
 70
     1
102
RTVSPropertyOp36
 70
     1
102
RTVSPropertyOp37
 70
     1
102
RTVSPropertyOp38
 70
     1
102
RTVSPropertyOp39
 70
     1
102
RTVSPropertyOp40
 70
     1
102
RTVSPropertyOp41
 70
     1
102
RTVSPropertyOp42
 70
     1
102
RTVSPropertyOp43
 70
     1
102
RTVSPropertyOp44
 70
     1
102
RTVSPropertyOp45
 70
     1
102
RTVSPropertyOp46
 70
     1
102
RTVSPropertyOp47
 70
     1
102
RTVSPropertyOp48
 70
     1
102
RTVSPropertyOp49
 70
     1
102
RTVSPropertyOp50
 70
     1
102
RTVSPropertyOp51
 70
     0
102
RTVSPropertyOp52
 70
     0
102
RTVSPropertyOp53
 70
     1
102
RTVSPropertyOp54
 70
     1
102
RTVSPropertyOp55
 70
     1
102
RTVSPropertyOp56
 70
     1
102
RTVSPropertyOp57
 70
     1
102
RTVSPropertyOp58
 70
     1
102
RTVSPropertyOp59
 70
     1
102
RTVSPropertyOp60
 70
     1
102
RTVSPropertyOp61
 70
     1
102
RTVSPropertyOp62
 70
     1
  0
XRECORD
  5
60C1
102
{ACAD_REACTORS
330
60C0
102
}
330
60C0
100
AcDbXrecord
280
     1
102
RTVSPost2010Prop28
280
     0
102
RTVSPost2010PropOp28
 70
     1
102
RTVSPost2010Prop29
280
     1
102
RTVSPost2010PropOp29
 70
     1
102
RTVSPost2010Prop30
280
     1
102
RTVSPost2010PropOp30
 70
     1
102
RTVSPost2010Prop31
280
     0
102
RTVSPost2010PropOp31
 70
     1
102
RTVSPost2010Prop32
280
     0
102
RTVSPost2010PropOp32
 70
     1
102
RTVSPost2010Prop33
280
     0
102
RTVSPost2010PropOp33
 70
     1
102
RTVSPost2010Prop34
280
     0
102
RTVSPost2010PropOp34
 70
     1
102
RTVSPost2010Prop35
280
     0
102
RTVSPost2010PropOp35
 70
     1
102
RTVSPost2010Prop36
280
     0
102
RTVSPost2010PropOp36
 70
     1
102
RTVSPost2010Prop37
 90
       50
102
RTVSPost2010PropOp37
 70
     1
102
RTVSPost2010Prop38
140
0.0
102
RTVSPost2010PropOp38
 70
     1
102
RTVSPost2010Prop39
140
1.0
102
RTVSPost2010PropOp39
 70
     1
102
RTVSPost2010Prop40
 90
        0
102
RTVSPost2010PropOp40
 70
     1
102
RTVSPost2010Prop41ColorIndex
 90
       18
102
RTVSPost2010Prop41ColorRGB
 90
        0
102
RTVSPost2010PropOp41
 70
     1
102
RTVSPost2010Prop42
 90
       50
102
RTVSPost2010PropOp42
 70
     1
102
RTVSPost2010Prop43
 90
        3
102
RTVSPost2010PropOp43
 70
     1
102
RTVSPost2010Prop44ColorIndex
 90
        5
102
RTVSPost2010Prop44ColorRGB
 90
      255
102
RTVSPost2010PropOp44
 70
     1
102
RTVSPost2010Prop45
280
     0
102
RTVSPost2010PropOp45
 70
     1
102
RTVSPost2010Prop46
 90
       50
102
RTVSPost2010PropOp46
 70
     1
102
RTVSPost2010Prop47
 90
       50
102
RTVSPost2010PropOp47
 70
     1
102
RTVSPost2010Prop48
 90
       50
102
RTVSPost2010PropOp48
 70
     1
102
RTVSPost2010Prop49
280
     0
102
RTVSPost2010PropOp49
 70
     1
102
RTVSPost2010Prop50
 90
       50
102
RTVSPost2010PropOp50
 70
     1
102
RTVSPost2010Prop51ColorIndex
 90
      256
102
RTVSPost2010Prop51ColorRGB
 90
-16777216
102
RTVSPost2010PropOp51
 70
     0
102
RTVSPost2010Prop52
140
1.0
102
RTVSPost2010PropOp52
 70
     0
102
RTVSPost2010Prop53
 90
        2
102
RTVSPost2010PropOp53
 70
     1
102
RTVSPost2010Prop54
  1
strokes_ogs.tif
102
RTVSPost2010PropOp54
 70
     1
102
RTVSPost2010Prop55
280
     0
102
RTVSPost2010PropOp55
 70
     1
102
RTVSPost2010Prop56
140
1.0
102
RTVSPost2010PropOp56
 70
     1
102
RTVSPost2010Prop57
140
1.0
102
RTVSPost2010PropOp57
 70
     1
102
RTVSPropertyOp0
 70
     1
102
RTVSPropertyOp1
 70
     1
102
RTVSPropertyOp2
 70
     1
102
RTVSPropertyOp3
 70
     1
102
RTVSPropertyOp4
 70
     1
102
RTVSPropertyOp5
 70
     1
102
RTVSPropertyOp6
 70
     1
102
RTVSPropertyOp7
 70
     1
102
RTVSPropertyOp8
 70
     1
102
RTVSPropertyOp9
 70
     1
102
RTVSPropertyOp10
 70
     1
102
RTVSPropertyOp11
 70
     1
102
RTVSPropertyOp12
 70
     1
102
RTVSPropertyOp13
 70
     1
102
RTVSPropertyOp14
 70
     1
102
RTVSPropertyOp15
 70
     1
102
RTVSPropertyOp16
 70
     1
102
RTVSPropertyOp17
 70
     1
102
RTVSPropertyOp18
 70
     1
102
RTVSPropertyOp19
 70
     1
102
RTVSPropertyOp20
 70
     1
102
RTVSPropertyOp21
 70
     1
102
RTVSPropertyOp22
 70
     1
102
RTVSPropertyOp23
 70
     1
102
RTVSPropertyOp24
 70
     1
102
RTVSPropertyOp25
 70
     1
102
RTVSPropertyOp26
 70
     1
102
RTVSPropertyOp27
 70
     1
102
RTVSPropertyOp28
 70
     1
102
RTVSPropertyOp29
 70
     1
102
RTVSPropertyOp30
 70
     1
102
RTVSPropertyOp31
 70
     1
102
RTVSPropertyOp32
 70
     1
102
RTVSPropertyOp33
 70
     1
102
RTVSPropertyOp34
 70
     1
102
RTVSPropertyOp35
 70
     1
102
RTVSPropertyOp36
 70
     1
102
RTVSPropertyOp37
 70
     1
102
RTVSPropertyOp38
 70
     1
102
RTVSPropertyOp39
 70
     1
102
RTVSPropertyOp40
 70
     1
102
RTVSPropertyOp41
 70
     1
102
RTVSPropertyOp42
 70
     1
102
RTVSPropertyOp43
 70
     1
102
RTVSPropertyOp44
 70
     1
102
RTVSPropertyOp45
 70
     1
102
RTVSPropertyOp46
 70
     1
102
RTVSPropertyOp47
 70
     1
102
RTVSPropertyOp48
 70
     1
102
RTVSPropertyOp49
 70
     1
102
RTVSPropertyOp50
 70
     1
102
RTVSPropertyOp51
 70
     0
102
RTVSPropertyOp52
 70
     0
102
RTVSPropertyOp53
 70
     1
102
RTVSPropertyOp54
 70
     1
102
RTVSPropertyOp55
 70
     1
102
RTVSPropertyOp56
 70
     1
102
RTVSPropertyOp57
 70
     1
102
RTVSPropertyOp58
 70
     1
102
RTVSPropertyOp59
 70
     1
102
RTVSPropertyOp60
 70
     1
102
RTVSPropertyOp61
 70
     1
102
RTVSPropertyOp62
 70
     1
  0
XRECORD
  5
60C3
102
{ACAD_REACTORS
330
60C2
102
}
330
60C2
100
AcDbXrecord
280
     1
102
RTVSPost2010Prop28
280
     0
102
RTVSPost2010PropOp28
 70
     1
102
RTVSPost2010Prop29
280
     1
102
RTVSPost2010PropOp29
 70
     1
102
RTVSPost2010Prop30
280
     1
102
RTVSPost2010PropOp30
 70
     1
102
RTVSPost2010Prop31
280
     0
102
RTVSPost2010PropOp31
 70
     1
102
RTVSPost2010Prop32
280
     0
102
RTVSPost2010PropOp32
 70
     1
102
RTVSPost2010Prop33
280
     0
102
RTVSPost2010PropOp33
 70
     1
102
RTVSPost2010Prop34
280
     0
102
RTVSPost2010PropOp34
 70
     1
102
RTVSPost2010Prop35
280
     0
102
RTVSPost2010PropOp35
 70
     1
102
RTVSPost2010Prop36
280
     0
102
RTVSPost2010PropOp36
 70
     1
102
RTVSPost2010Prop37
 90
       50
102
RTVSPost2010PropOp37
 70
     1
102
RTVSPost2010Prop38
140
0.0
102
RTVSPost2010PropOp38
 70
     1
102
RTVSPost2010Prop39
140
1.0
102
RTVSPost2010PropOp39
 70
     1
102
RTVSPost2010Prop40
 90
        0
102
RTVSPost2010PropOp40
 70
     1
102
RTVSPost2010Prop41ColorIndex
 90
       18
102
RTVSPost2010Prop41ColorRGB
 90
        0
102
RTVSPost2010PropOp41
 70
     1
102
RTVSPost2010Prop42
 90
       50
102
RTVSPost2010PropOp42
 70
     1
102
RTVSPost2010Prop43
 90
        3
102
RTVSPost2010PropOp43
 70
     1
102
RTVSPost2010Prop44ColorIndex
 90
        5
102
RTVSPost2010Prop44ColorRGB
 90
      255
102
RTVSPost2010PropOp44
 70
     1
102
RTVSPost2010Prop45
280
     0
102
RTVSPost2010PropOp45
 70
     1
102
RTVSPost2010Prop46
 90
       50
102
RTVSPost2010PropOp46
 70
     1
102
RTVSPost2010Prop47
 90
       50
102
RTVSPost2010PropOp47
 70
     1
102
RTVSPost2010Prop48
 90
       50
102
RTVSPost2010PropOp48
 70
     1
102
RTVSPost2010Prop49
280
     0
102
RTVSPost2010PropOp49
 70
     1
102
RTVSPost2010Prop50
 90
       50
102
RTVSPost2010PropOp50
 70
     1
102
RTVSPost2010Prop51ColorIndex
 90
      256
102
RTVSPost2010Prop51ColorRGB
 90
-16777216
102
RTVSPost2010PropOp51
 70
     0
102
RTVSPost2010Prop52
140
1.0
102
RTVSPost2010PropOp52
 70
     0
102
RTVSPost2010Prop53
 90
        2
102
RTVSPost2010PropOp53
 70
     1
102
RTVSPost2010Prop54
  1
strokes_ogs.tif
102
RTVSPost2010PropOp54
 70
     1
102
RTVSPost2010Prop55
280
     0
102
RTVSPost2010PropOp55
 70
     1
102
RTVSPost2010Prop56
140
1.0
102
RTVSPost2010PropOp56
 70
     1
102
RTVSPost2010Prop57
140
1.0
102
RTVSPost2010PropOp57
 70
     1
102
RTVSPropertyOp0
 70
     1
102
RTVSPropertyOp1
 70
     1
102
RTVSPropertyOp2
 70
     1
102
RTVSPropertyOp3
 70
     1
102
RTVSPropertyOp4
 70
     1
102
RTVSPropertyOp5
 70
     1
102
RTVSPropertyOp6
 70
     1
102
RTVSPropertyOp7
 70
     1
102
RTVSPropertyOp8
 70
     1
102
RTVSPropertyOp9
 70
     1
102
RTVSPropertyOp10
 70
     1
102
RTVSPropertyOp11
 70
     1
102
RTVSPropertyOp12
 70
     1
102
RTVSPropertyOp13
 70
     1
102
RTVSPropertyOp14
 70
     1
102
RTVSPropertyOp15
 70
     1
102
RTVSPropertyOp16
 70
     1
102
RTVSPropertyOp17
 70
     1
102
RTVSPropertyOp18
 70
     1
102
RTVSPropertyOp19
 70
     1
102
RTVSPropertyOp20
 70
     1
102
RTVSPropertyOp21
 70
     1
102
RTVSPropertyOp22
 70
     1
102
RTVSPropertyOp23
 70
     1
102
RTVSPropertyOp24
 70
     1
102
RTVSPropertyOp25
 70
     1
102
RTVSPropertyOp26
 70
     1
102
RTVSPropertyOp27
 70
     1
102
RTVSPropertyOp28
 70
     1
102
RTVSPropertyOp29
 70
     1
102
RTVSPropertyOp30
 70
     1
102
RTVSPropertyOp31
 70
     1
102
RTVSPropertyOp32
 70
     1
102
RTVSPropertyOp33
 70
     1
102
RTVSPropertyOp34
 70
     1
102
RTVSPropertyOp35
 70
     1
102
RTVSPropertyOp36
 70
     1
102
RTVSPropertyOp37
 70
     1
102
RTVSPropertyOp38
 70
     1
102
RTVSPropertyOp39
 70
     1
102
RTVSPropertyOp40
 70
     1
102
RTVSPropertyOp41
 70
     1
102
RTVSPropertyOp42
 70
     1
102
RTVSPropertyOp43
 70
     1
102
RTVSPropertyOp44
 70
     1
102
RTVSPropertyOp45
 70
     1
102
RTVSPropertyOp46
 70
     1
102
RTVSPropertyOp47
 70
     1
102
RTVSPropertyOp48
 70
     1
102
RTVSPropertyOp49
 70
     1
102
RTVSPropertyOp50
 70
     1
102
RTVSPropertyOp51
 70
     0
102
RTVSPropertyOp52
 70
     0
102
RTVSPropertyOp53
 70
     1
102
RTVSPropertyOp54
 70
     1
102
RTVSPropertyOp55
 70
     1
102
RTVSPropertyOp56
 70
     1
102
RTVSPropertyOp57
 70
     1
102
RTVSPropertyOp58
 70
     1
102
RTVSPropertyOp59
 70
     1
102
RTVSPropertyOp60
 70
     1
102
RTVSPropertyOp61
 70
     1
102
RTVSPropertyOp62
 70
     1
  0
XRECORD
  5
60C5
102
{ACAD_REACTORS
330
60C4
102
}
330
60C4
100
AcDbXrecord
280
     1
102
RTVSPost2010Prop28
280
     0
102
RTVSPost2010PropOp28
 70
     1
102
RTVSPost2010Prop29
280
     1
102
RTVSPost2010PropOp29
 70
     1
102
RTVSPost2010Prop30
280
     1
102
RTVSPost2010PropOp30
 70
     1
102
RTVSPost2010Prop31
280
     0
102
RTVSPost2010PropOp31
 70
     1
102
RTVSPost2010Prop32
280
     0
102
RTVSPost2010PropOp32
 70
     1
102
RTVSPost2010Prop33
280
     0
102
RTVSPost2010PropOp33
 70
     1
102
RTVSPost2010Prop34
280
     0
102
RTVSPost2010PropOp34
 70
     1
102
RTVSPost2010Prop35
280
     0
102
RTVSPost2010PropOp35
 70
     1
102
RTVSPost2010Prop36
280
     0
102
RTVSPost2010PropOp36
 70
     1
102
RTVSPost2010Prop37
 90
       50
102
RTVSPost2010PropOp37
 70
     1
102
RTVSPost2010Prop38
140
0.0
102
RTVSPost2010PropOp38
 70
     1
102
RTVSPost2010Prop39
140
1.0
102
RTVSPost2010PropOp39
 70
     1
102
RTVSPost2010Prop40
 90
        0
102
RTVSPost2010PropOp40
 70
     1
102
RTVSPost2010Prop41ColorIndex
 90
       18
102
RTVSPost2010Prop41ColorRGB
 90
        0
102
RTVSPost2010PropOp41
 70
     1
102
RTVSPost2010Prop42
 90
       50
102
RTVSPost2010PropOp42
 70
     1
102
RTVSPost2010Prop43
 90
        3
102
RTVSPost2010PropOp43
 70
     1
102
RTVSPost2010Prop44ColorIndex
 90
        5
102
RTVSPost2010Prop44ColorRGB
 90
      255
102
RTVSPost2010PropOp44
 70
     1
102
RTVSPost2010Prop45
280
     0
102
RTVSPost2010PropOp45
 70
     1
102
RTVSPost2010Prop46
 90
       50
102
RTVSPost2010PropOp46
 70
     1
102
RTVSPost2010Prop47
 90
       50
102
RTVSPost2010PropOp47
 70
     1
102
RTVSPost2010Prop48
 90
       50
102
RTVSPost2010PropOp48
 70
     1
102
RTVSPost2010Prop49
280
     0
102
RTVSPost2010PropOp49
 70
     1
102
RTVSPost2010Prop50
 90
       50
102
RTVSPost2010PropOp50
 70
     1
102
RTVSPost2010Prop51ColorIndex
 90
      256
102
RTVSPost2010Prop51ColorRGB
 90
-16777216
102
RTVSPost2010PropOp51
 70
     0
102
RTVSPost2010Prop52
140
1.0
102
RTVSPost2010PropOp52
 70
     0
102
RTVSPost2010Prop53
 90
        2
102
RTVSPost2010PropOp53
 70
     1
102
RTVSPost2010Prop54
  1
strokes_ogs.tif
102
RTVSPost2010PropOp54
 70
     1
102
RTVSPost2010Prop55
280
     0
102
RTVSPost2010PropOp55
 70
     1
102
RTVSPost2010Prop56
140
1.0
102
RTVSPost2010PropOp56
 70
     1
102
RTVSPost2010Prop57
140
1.0
102
RTVSPost2010PropOp57
 70
     1
102
RTVSPropertyOp0
 70
     1
102
RTVSPropertyOp1
 70
     1
102
RTVSPropertyOp2
 70
     1
102
RTVSPropertyOp3
 70
     1
102
RTVSPropertyOp4
 70
     1
102
RTVSPropertyOp5
 70
     1
102
RTVSPropertyOp6
 70
     1
102
RTVSPropertyOp7
 70
     1
102
RTVSPropertyOp8
 70
     1
102
RTVSPropertyOp9
 70
     1
102
RTVSPropertyOp10
 70
     1
102
RTVSPropertyOp11
 70
     1
102
RTVSPropertyOp12
 70
     1
102
RTVSPropertyOp13
 70
     1
102
RTVSPropertyOp14
 70
     1
102
RTVSPropertyOp15
 70
     1
102
RTVSPropertyOp16
 70
     1
102
RTVSPropertyOp17
 70
     1
102
RTVSPropertyOp18
 70
     1
102
RTVSPropertyOp19
 70
     1
102
RTVSPropertyOp20
 70
     1
102
RTVSPropertyOp21
 70
     1
102
RTVSPropertyOp22
 70
     1
102
RTVSPropertyOp23
 70
     1
102
RTVSPropertyOp24
 70
     1
102
RTVSPropertyOp25
 70
     1
102
RTVSPropertyOp26
 70
     1
102
RTVSPropertyOp27
 70
     1
102
RTVSPropertyOp28
 70
     1
102
RTVSPropertyOp29
 70
     1
102
RTVSPropertyOp30
 70
     1
102
RTVSPropertyOp31
 70
     1
102
RTVSPropertyOp32
 70
     1
102
RTVSPropertyOp33
 70
     1
102
RTVSPropertyOp34
 70
     1
102
RTVSPropertyOp35
 70
     1
102
RTVSPropertyOp36
 70
     1
102
RTVSPropertyOp37
 70
     1
102
RTVSPropertyOp38
 70
     1
102
RTVSPropertyOp39
 70
     1
102
RTVSPropertyOp40
 70
     1
102
RTVSPropertyOp41
 70
     1
102
RTVSPropertyOp42
 70
     1
102
RTVSPropertyOp43
 70
     1
102
RTVSPropertyOp44
 70
     1
102
RTVSPropertyOp45
 70
     1
102
RTVSPropertyOp46
 70
     1
102
RTVSPropertyOp47
 70
     1
102
RTVSPropertyOp48
 70
     1
102
RTVSPropertyOp49
 70
     1
102
RTVSPropertyOp50
 70
     1
102
RTVSPropertyOp51
 70
     0
102
RTVSPropertyOp52
 70
     0
102
RTVSPropertyOp53
 70
     1
102
RTVSPropertyOp54
 70
     1
102
RTVSPropertyOp55
 70
     1
102
RTVSPropertyOp56
 70
     1
102
RTVSPropertyOp57
 70
     1
102
RTVSPropertyOp58
 70
     1
102
RTVSPropertyOp59
 70
     1
102
RTVSPropertyOp60
 70
     1
102
RTVSPropertyOp61
 70
     1
102
RTVSPropertyOp62
 70
     1
  0
XRECORD
  5
60CD
102
{ACAD_REACTORS
330
60CC
102
}
330
60CC
100
AcDbXrecord
280
     1
102
RTVSPost2010Prop28
280
     0
102
RTVSPost2010PropOp28
 70
     1
102
RTVSPost2010Prop29
280
     1
102
RTVSPost2010PropOp29
 70
     1
102
RTVSPost2010Prop30
280
     1
102
RTVSPost2010PropOp30
 70
     1
102
RTVSPost2010Prop31
280
     0
102
RTVSPost2010PropOp31
 70
     1
102
RTVSPost2010Prop32
280
     0
102
RTVSPost2010PropOp32
 70
     1
102
RTVSPost2010Prop33
280
     0
102
RTVSPost2010PropOp33
 70
     1
102
RTVSPost2010Prop34
280
     0
102
RTVSPost2010PropOp34
 70
     1
102
RTVSPost2010Prop35
280
     0
102
RTVSPost2010PropOp35
 70
     1
102
RTVSPost2010Prop36
280
     0
102
RTVSPost2010PropOp36
 70
     1
102
RTVSPost2010Prop37
 90
       50
102
RTVSPost2010PropOp37
 70
     1
102
RTVSPost2010Prop38
140
0.0
102
RTVSPost2010PropOp38
 70
     1
102
RTVSPost2010Prop39
140
1.0
102
RTVSPost2010PropOp39
 70
     1
102
RTVSPost2010Prop40
 90
        0
102
RTVSPost2010PropOp40
 70
     1
102
RTVSPost2010Prop41ColorIndex
 90
       18
102
RTVSPost2010Prop41ColorRGB
 90
        0
102
RTVSPost2010PropOp41
 70
     1
102
RTVSPost2010Prop42
 90
       50
102
RTVSPost2010PropOp42
 70
     1
102
RTVSPost2010Prop43
 90
        3
102
RTVSPost2010PropOp43
 70
     1
102
RTVSPost2010Prop44ColorIndex
 90
        5
102
RTVSPost2010Prop44ColorRGB
 90
      255
102
RTVSPost2010PropOp44
 70
     1
102
RTVSPost2010Prop45
280
     0
102
RTVSPost2010PropOp45
 70
     1
102
RTVSPost2010Prop46
 90
       50
102
RTVSPost2010PropOp46
 70
     1
102
RTVSPost2010Prop47
 90
       50
102
RTVSPost2010PropOp47
 70
     1
102
RTVSPost2010Prop48
 90
       50
102
RTVSPost2010PropOp48
 70
     1
102
RTVSPost2010Prop49
280
     0
102
RTVSPost2010PropOp49
 70
     1
102
RTVSPost2010Prop50
 90
       50
102
RTVSPost2010PropOp50
 70
     1
102
RTVSPost2010Prop51ColorIndex
 90
      256
102
RTVSPost2010Prop51ColorRGB
 90
-16777216
102
RTVSPost2010PropOp51
 70
     0
102
RTVSPost2010Prop52
140
1.0
102
RTVSPost2010PropOp52
 70
     0
102
RTVSPost2010Prop53
 90
        2
102
RTVSPost2010PropOp53
 70
     1
102
RTVSPost2010Prop54
  1
strokes_ogs.tif
102
RTVSPost2010PropOp54
 70
     1
102
RTVSPost2010Prop55
280
     0
102
RTVSPost2010PropOp55
 70
     1
102
RTVSPost2010Prop56
140
1.0
102
RTVSPost2010PropOp56
 70
     1
102
RTVSPost2010Prop57
140
1.0
102
RTVSPost2010PropOp57
 70
     1
102
RTVSPropertyOp0
 70
     1
102
RTVSPropertyOp1
 70
     1
102
RTVSPropertyOp2
 70
     1
102
RTVSPropertyOp3
 70
     1
102
RTVSPropertyOp4
 70
     1
102
RTVSPropertyOp5
 70
     1
102
RTVSPropertyOp6
 70
     1
102
RTVSPropertyOp7
 70
     1
102
RTVSPropertyOp8
 70
     1
102
RTVSPropertyOp9
 70
     1
102
RTVSPropertyOp10
 70
     1
102
RTVSPropertyOp11
 70
     1
102
RTVSPropertyOp12
 70
     1
102
RTVSPropertyOp13
 70
     1
102
RTVSPropertyOp14
 70
     1
102
RTVSPropertyOp15
 70
     1
102
RTVSPropertyOp16
 70
     1
102
RTVSPropertyOp17
 70
     1
102
RTVSPropertyOp18
 70
     1
102
RTVSPropertyOp19
 70
     1
102
RTVSPropertyOp20
 70
     1
102
RTVSPropertyOp21
 70
     1
102
RTVSPropertyOp22
 70
     1
102
RTVSPropertyOp23
 70
     1
102
RTVSPropertyOp24
 70
     1
102
RTVSPropertyOp25
 70
     1
102
RTVSPropertyOp26
 70
     1
102
RTVSPropertyOp27
 70
     1
102
RTVSPropertyOp28
 70
     1
102
RTVSPropertyOp29
 70
     1
102
RTVSPropertyOp30
 70
     1
102
RTVSPropertyOp31
 70
     1
102
RTVSPropertyOp32
 70
     1
102
RTVSPropertyOp33
 70
     1
102
RTVSPropertyOp34
 70
     1
102
RTVSPropertyOp35
 70
     1
102
RTVSPropertyOp36
 70
     1
102
RTVSPropertyOp37
 70
     1
102
RTVSPropertyOp38
 70
     1
102
RTVSPropertyOp39
 70
     1
102
RTVSPropertyOp40
 70
     1
102
RTVSPropertyOp41
 70
     1
102
RTVSPropertyOp42
 70
     1
102
RTVSPropertyOp43
 70
     1
102
RTVSPropertyOp44
 70
     1
102
RTVSPropertyOp45
 70
     1
102
RTVSPropertyOp46
 70
     1
102
RTVSPropertyOp47
 70
     1
102
RTVSPropertyOp48
 70
     1
102
RTVSPropertyOp49
 70
     1
102
RTVSPropertyOp50
 70
     1
102
RTVSPropertyOp51
 70
     0
102
RTVSPropertyOp52
 70
     0
102
RTVSPropertyOp53
 70
     1
102
RTVSPropertyOp54
 70
     1
102
RTVSPropertyOp55
 70
     1
102
RTVSPropertyOp56
 70
     1
102
RTVSPropertyOp57
 70
     1
102
RTVSPropertyOp58
 70
     1
102
RTVSPropertyOp59
 70
     1
102
RTVSPropertyOp60
 70
     1
102
RTVSPropertyOp61
 70
     1
102
RTVSPropertyOp62
 70
     1
  0
XRECORD
  5
60E1
102
{ACAD_REACTORS
330
60E0
102
}
330
60E0
100
AcDbXrecord
280
     1
102
RTVSPost2010Prop28
280
     0
102
RTVSPost2010PropOp28
 70
     1
102
RTVSPost2010Prop29
280
     1
102
RTVSPost2010PropOp29
 70
     1
102
RTVSPost2010Prop30
280
     1
102
RTVSPost2010PropOp30
 70
     1
102
RTVSPost2010Prop31
280
     0
102
RTVSPost2010PropOp31
 70
     1
102
RTVSPost2010Prop32
280
     0
102
RTVSPost2010PropOp32
 70
     1
102
RTVSPost2010Prop33
280
     0
102
RTVSPost2010PropOp33
 70
     1
102
RTVSPost2010Prop34
280
     0
102
RTVSPost2010PropOp34
 70
     1
102
RTVSPost2010Prop35
280
     0
102
RTVSPost2010PropOp35
 70
     1
102
RTVSPost2010Prop36
280
     0
102
RTVSPost2010PropOp36
 70
     1
102
RTVSPost2010Prop37
 90
       50
102
RTVSPost2010PropOp37
 70
     1
102
RTVSPost2010Prop38
140
0.0
102
RTVSPost2010PropOp38
 70
     1
102
RTVSPost2010Prop39
140
1.0
102
RTVSPost2010PropOp39
 70
     1
102
RTVSPost2010Prop40
 90
        0
102
RTVSPost2010PropOp40
 70
     1
102
RTVSPost2010Prop41ColorIndex
 90
       18
102
RTVSPost2010Prop41ColorRGB
 90
        0
102
RTVSPost2010PropOp41
 70
     1
102
RTVSPost2010Prop42
 90
       50
102
RTVSPost2010PropOp42
 70
     1
102
RTVSPost2010Prop43
 90
        3
102
RTVSPost2010PropOp43
 70
     1
102
RTVSPost2010Prop44ColorIndex
 90
        5
102
RTVSPost2010Prop44ColorRGB
 90
      255
102
RTVSPost2010PropOp44
 70
     1
102
RTVSPost2010Prop45
280
     0
102
RTVSPost2010PropOp45
 70
     1
102
RTVSPost2010Prop46
 90
       50
102
RTVSPost2010PropOp46
 70
     1
102
RTVSPost2010Prop47
 90
       50
102
RTVSPost2010PropOp47
 70
     1
102
RTVSPost2010Prop48
 90
       50
102
RTVSPost2010PropOp48
 70
     1
102
RTVSPost2010Prop49
280
     0
102
RTVSPost2010PropOp49
 70
     1
102
RTVSPost2010Prop50
 90
       50
102
RTVSPost2010PropOp50
 70
     1
102
RTVSPost2010Prop51ColorIndex
 90
      256
102
RTVSPost2010Prop51ColorRGB
 90
-16777216
102
RTVSPost2010PropOp51
 70
     0
102
RTVSPost2010Prop52
140
1.0
102
RTVSPost2010PropOp52
 70
     0
102
RTVSPost2010Prop53
 90
        2
102
RTVSPost2010PropOp53
 70
     1
102
RTVSPost2010Prop54
  1
strokes_ogs.tif
102
RTVSPost2010PropOp54
 70
     1
102
RTVSPost2010Prop55
280
     0
102
RTVSPost2010PropOp55
 70
     1
102
RTVSPost2010Prop56
140
1.0
102
RTVSPost2010PropOp56
 70
     1
102
RTVSPost2010Prop57
140
1.0
102
RTVSPost2010PropOp57
 70
     1
102
RTVSPropertyOp0
 70
     0
102
RTVSPropertyOp1
 70
     0
102
RTVSPropertyOp2
 70
     0
102
RTVSPropertyOp3
 70
     0
102
RTVSPropertyOp4
 70
     0
102
RTVSPropertyOp5
 70
     0
102
RTVSPropertyOp6
 70
     0
102
RTVSPropertyOp7
 70
     0
102
RTVSPropertyOp8
 70
     0
102
RTVSPropertyOp9
 70
     0
102
RTVSPropertyOp10
 70
     0
102
RTVSPropertyOp11
 70
     0
102
RTVSPropertyOp12
 70
     0
102
RTVSPropertyOp13
 70
     0
102
RTVSPropertyOp14
 70
     2
102
RTVSPropertyOp15
 70
     0
102
RTVSPropertyOp16
 70
     0
102
RTVSPropertyOp17
 70
     0
102
RTVSPropertyOp18
 70
     0
102
RTVSPropertyOp19
 70
     0
102
RTVSPropertyOp20
 70
     0
102
RTVSPropertyOp21
 70
     0
102
RTVSPropertyOp22
 70
     0
102
RTVSPropertyOp23
 70
     0
102
RTVSPropertyOp24
 70
     0
102
RTVSPropertyOp25
 70
     0
102
RTVSPropertyOp26
 70
     0
102
RTVSPropertyOp27
 70
     0
102
RTVSPropertyOp28
 70
     1
102
RTVSPropertyOp29
 70
     1
102
RTVSPropertyOp30
 70
     1
102
RTVSPropertyOp31
 70
     1
102
RTVSPropertyOp32
 70
     1
102
RTVSPropertyOp33
 70
     1
102
RTVSPropertyOp34
 70
     1
102
RTVSPropertyOp35
 70
     1
102
RTVSPropertyOp36
 70
     1
102
RTVSPropertyOp37
 70
     1
102
RTVSPropertyOp38
 70
     1
102
RTVSPropertyOp39
 70
     1
102
RTVSPropertyOp40
 70
     1
102
RTVSPropertyOp41
 70
     1
102
RTVSPropertyOp42
 70
     1
102
RTVSPropertyOp43
 70
     1
102
RTVSPropertyOp44
 70
     1
102
RTVSPropertyOp45
 70
     1
102
RTVSPropertyOp46
 70
     1
102
RTVSPropertyOp47
 70
     1
102
RTVSPropertyOp48
 70
     1
102
RTVSPropertyOp49
 70
     1
102
RTVSPropertyOp50
 70
     1
102
RTVSPropertyOp51
 70
     0
102
RTVSPropertyOp52
 70
     0
102
RTVSPropertyOp53
 70
     1
102
RTVSPropertyOp54
 70
     1
102
RTVSPropertyOp55
 70
     1
102
RTVSPropertyOp56
 70
     1
102
RTVSPropertyOp57
 70
     1
102
RTVSPropertyOp58
 70
     1
102
RTVSPropertyOp59
 70
     1
102
RTVSPropertyOp60
 70
     1
102
RTVSPropertyOp61
 70
     1
102
RTVSPropertyOp62
 70
     1
  0
XRECORD
  5
60D9
102
{ACAD_REACTORS
330
60D8
102
}
330
60D8
100
AcDbXrecord
280
     1
102
RTVSPost2010Prop28
280
     0
102
RTVSPost2010PropOp28
 70
     1
102
RTVSPost2010Prop29
280
     1
102
RTVSPost2010PropOp29
 70
     1
102
RTVSPost2010Prop30
280
     1
102
RTVSPost2010PropOp30
 70
     1
102
RTVSPost2010Prop31
280
     0
102
RTVSPost2010PropOp31
 70
     1
102
RTVSPost2010Prop32
280
     0
102
RTVSPost2010PropOp32
 70
     1
102
RTVSPost2010Prop33
280
     0
102
RTVSPost2010PropOp33
 70
     1
102
RTVSPost2010Prop34
280
     0
102
RTVSPost2010PropOp34
 70
     1
102
RTVSPost2010Prop35
280
     0
102
RTVSPost2010PropOp35
 70
     1
102
RTVSPost2010Prop36
280
     0
102
RTVSPost2010PropOp36
 70
     1
102
RTVSPost2010Prop37
 90
       50
102
RTVSPost2010PropOp37
 70
     1
102
RTVSPost2010Prop38
140
0.0
102
RTVSPost2010PropOp38
 70
     1
102
RTVSPost2010Prop39
140
1.0
102
RTVSPost2010PropOp39
 70
     1
102
RTVSPost2010Prop40
 90
        0
102
RTVSPost2010PropOp40
 70
     1
102
RTVSPost2010Prop41ColorIndex
 90
       18
102
RTVSPost2010Prop41ColorRGB
 90
        0
102
RTVSPost2010PropOp41
 70
     1
102
RTVSPost2010Prop42
 90
       50
102
RTVSPost2010PropOp42
 70
     1
102
RTVSPost2010Prop43
 90
        3
102
RTVSPost2010PropOp43
 70
     1
102
RTVSPost2010Prop44ColorIndex
 90
        5
102
RTVSPost2010Prop44ColorRGB
 90
      255
102
RTVSPost2010PropOp44
 70
     1
102
RTVSPost2010Prop45
280
     0
102
RTVSPost2010PropOp45
 70
     1
102
RTVSPost2010Prop46
 90
       50
102
RTVSPost2010PropOp46
 70
     1
102
RTVSPost2010Prop47
 90
       50
102
RTVSPost2010PropOp47
 70
     1
102
RTVSPost2010Prop48
 90
       50
102
RTVSPost2010PropOp48
 70
     1
102
RTVSPost2010Prop49
280
     0
102
RTVSPost2010PropOp49
 70
     1
102
RTVSPost2010Prop50
 90
       50
102
RTVSPost2010PropOp50
 70
     1
102
RTVSPost2010Prop51ColorIndex
 90
      256
102
RTVSPost2010Prop51ColorRGB
 90
-16777216
102
RTVSPost2010PropOp51
 70
     0
102
RTVSPost2010Prop52
140
1.0
102
RTVSPost2010PropOp52
 70
     0
102
RTVSPost2010Prop53
 90
        2
102
RTVSPost2010PropOp53
 70
     1
102
RTVSPost2010Prop54
  1
strokes_ogs.tif
102
RTVSPost2010PropOp54
 70
     1
102
RTVSPost2010Prop55
280
     0
102
RTVSPost2010PropOp55
 70
     1
102
RTVSPost2010Prop56
140
1.0
102
RTVSPost2010PropOp56
 70
     1
102
RTVSPost2010Prop57
140
1.0
102
RTVSPost2010PropOp57
 70
     1
102
RTVSPropertyOp0
 70
     1
102
RTVSPropertyOp1
 70
     1
102
RTVSPropertyOp2
 70
     1
102
RTVSPropertyOp3
 70
     1
102
RTVSPropertyOp4
 70
     1
102
RTVSPropertyOp5
 70
     1
102
RTVSPropertyOp6
 70
     1
102
RTVSPropertyOp7
 70
     1
102
RTVSPropertyOp8
 70
     1
102
RTVSPropertyOp9
 70
     1
102
RTVSPropertyOp10
 70
     1
102
RTVSPropertyOp11
 70
     1
102
RTVSPropertyOp12
 70
     1
102
RTVSPropertyOp13
 70
     1
102
RTVSPropertyOp14
 70
     1
102
RTVSPropertyOp15
 70
     1
102
RTVSPropertyOp16
 70
     1
102
RTVSPropertyOp17
 70
     1
102
RTVSPropertyOp18
 70
     1
102
RTVSPropertyOp19
 70
     1
102
RTVSPropertyOp20
 70
     1
102
RTVSPropertyOp21
 70
     1
102
RTVSPropertyOp22
 70
     1
102
RTVSPropertyOp23
 70
     1
102
RTVSPropertyOp24
 70
     1
102
RTVSPropertyOp25
 70
     1
102
RTVSPropertyOp26
 70
     1
102
RTVSPropertyOp27
 70
     1
102
RTVSPropertyOp28
 70
     1
102
RTVSPropertyOp29
 70
     1
102
RTVSPropertyOp30
 70
     1
102
RTVSPropertyOp31
 70
     1
102
RTVSPropertyOp32
 70
     1
102
RTVSPropertyOp33
 70
     1
102
RTVSPropertyOp34
 70
     1
102
RTVSPropertyOp35
 70
     1
102
RTVSPropertyOp36
 70
     1
102
RTVSPropertyOp37
 70
     1
102
RTVSPropertyOp38
 70
     1
102
RTVSPropertyOp39
 70
     1
102
RTVSPropertyOp40
 70
     1
102
RTVSPropertyOp41
 70
     1
102
RTVSPropertyOp42
 70
     1
102
RTVSPropertyOp43
 70
     1
102
RTVSPropertyOp44
 70
     1
102
RTVSPropertyOp45
 70
     1
102
RTVSPropertyOp46
 70
     1
102
RTVSPropertyOp47
 70
     1
102
RTVSPropertyOp48
 70
     1
102
RTVSPropertyOp49
 70
     1
102
RTVSPropertyOp50
 70
     1
102
RTVSPropertyOp51
 70
     0
102
RTVSPropertyOp52
 70
     0
102
RTVSPropertyOp53
 70
     1
102
RTVSPropertyOp54
 70
     1
102
RTVSPropertyOp55
 70
     1
102
RTVSPropertyOp56
 70
     1
102
RTVSPropertyOp57
 70
     1
102
RTVSPropertyOp58
 70
     1
102
RTVSPropertyOp59
 70
     1
102
RTVSPropertyOp60
 70
     1
102
RTVSPropertyOp61
 70
     1
102
RTVSPropertyOp62
 70
     1
  0
XRECORD
  5
60E3
102
{ACAD_REACTORS
330
60E2
102
}
330
60E2
100
AcDbXrecord
280
     1
102
RTVSPost2010Prop28
280
     0
102
RTVSPost2010PropOp28
 70
     1
102
RTVSPost2010Prop29
280
     1
102
RTVSPost2010PropOp29
 70
     1
102
RTVSPost2010Prop30
280
     1
102
RTVSPost2010PropOp30
 70
     1
102
RTVSPost2010Prop31
280
     0
102
RTVSPost2010PropOp31
 70
     1
102
RTVSPost2010Prop32
280
     0
102
RTVSPost2010PropOp32
 70
     1
102
RTVSPost2010Prop33
280
     0
102
RTVSPost2010PropOp33
 70
     1
102
RTVSPost2010Prop34
280
     0
102
RTVSPost2010PropOp34
 70
     1
102
RTVSPost2010Prop35
280
     0
102
RTVSPost2010PropOp35
 70
     1
102
RTVSPost2010Prop36
280
     0
102
RTVSPost2010PropOp36
 70
     1
102
RTVSPost2010Prop37
 90
       50
102
RTVSPost2010PropOp37
 70
     1
102
RTVSPost2010Prop38
140
0.0
102
RTVSPost2010PropOp38
 70
     1
102
RTVSPost2010Prop39
140
1.0
102
RTVSPost2010PropOp39
 70
     1
102
RTVSPost2010Prop40
 90
        0
102
RTVSPost2010PropOp40
 70
     1
102
RTVSPost2010Prop41ColorIndex
 90
       18
102
RTVSPost2010Prop41ColorRGB
 90
        0
102
RTVSPost2010PropOp41
 70
     1
102
RTVSPost2010Prop42
 90
       50
102
RTVSPost2010PropOp42
 70
     1
102
RTVSPost2010Prop43
 90
        3
102
RTVSPost2010PropOp43
 70
     1
102
RTVSPost2010Prop44ColorIndex
 90
        5
102
RTVSPost2010Prop44ColorRGB
 90
      255
102
RTVSPost2010PropOp44
 70
     1
102
RTVSPost2010Prop45
280
     0
102
RTVSPost2010PropOp45
 70
     1
102
RTVSPost2010Prop46
 90
       50
102
RTVSPost2010PropOp46
 70
     1
102
RTVSPost2010Prop47
 90
       50
102
RTVSPost2010PropOp47
 70
     1
102
RTVSPost2010Prop48
 90
       50
102
RTVSPost2010PropOp48
 70
     1
102
RTVSPost2010Prop49
280
     0
102
RTVSPost2010PropOp49
 70
     1
102
RTVSPost2010Prop50
 90
       50
102
RTVSPost2010PropOp50
 70
     1
102
RTVSPost2010Prop51ColorIndex
 90
      256
102
RTVSPost2010Prop51ColorRGB
 90
-16777216
102
RTVSPost2010PropOp51
 70
     0
102
RTVSPost2010Prop52
140
1.0
102
RTVSPost2010PropOp52
 70
     0
102
RTVSPost2010Prop53
 90
        2
102
RTVSPost2010PropOp53
 70
     1
102
RTVSPost2010Prop54
  1
strokes_ogs.tif
102
RTVSPost2010PropOp54
 70
     1
102
RTVSPost2010Prop55
280
     0
102
RTVSPost2010PropOp55
 70
     1
102
RTVSPost2010Prop56
140
1.0
102
RTVSPost2010PropOp56
 70
     1
102
RTVSPost2010Prop57
140
1.0
102
RTVSPost2010PropOp57
 70
     1
102
RTVSPropertyOp0
 70
     0
102
RTVSPropertyOp1
 70
     0
102
RTVSPropertyOp2
 70
     0
102
RTVSPropertyOp3
 70
     0
102
RTVSPropertyOp4
 70
     0
102
RTVSPropertyOp5
 70
     0
102
RTVSPropertyOp6
 70
     0
102
RTVSPropertyOp7
 70
     0
102
RTVSPropertyOp8
 70
     0
102
RTVSPropertyOp9
 70
     0
102
RTVSPropertyOp10
 70
     0
102
RTVSPropertyOp11
 70
     0
102
RTVSPropertyOp12
 70
     0
102
RTVSPropertyOp13
 70
     0
102
RTVSPropertyOp14
 70
     2
102
RTVSPropertyOp15
 70
     0
102
RTVSPropertyOp16
 70
     0
102
RTVSPropertyOp17
 70
     0
102
RTVSPropertyOp18
 70
     0
102
RTVSPropertyOp19
 70
     0
102
RTVSPropertyOp20
 70
     0
102
RTVSPropertyOp21
 70
     0
102
RTVSPropertyOp22
 70
     0
102
RTVSPropertyOp23
 70
     0
102
RTVSPropertyOp24
 70
     0
102
RTVSPropertyOp25
 70
     0
102
RTVSPropertyOp26
 70
     0
102
RTVSPropertyOp27
 70
     0
102
RTVSPropertyOp28
 70
     1
102
RTVSPropertyOp29
 70
     1
102
RTVSPropertyOp30
 70
     1
102
RTVSPropertyOp31
 70
     1
102
RTVSPropertyOp32
 70
     1
102
RTVSPropertyOp33
 70
     1
102
RTVSPropertyOp34
 70
     1
102
RTVSPropertyOp35
 70
     1
102
RTVSPropertyOp36
 70
     1
102
RTVSPropertyOp37
 70
     1
102
RTVSPropertyOp38
 70
     1
102
RTVSPropertyOp39
 70
     1
102
RTVSPropertyOp40
 70
     1
102
RTVSPropertyOp41
 70
     1
102
RTVSPropertyOp42
 70
     1
102
RTVSPropertyOp43
 70
     1
102
RTVSPropertyOp44
 70
     1
102
RTVSPropertyOp45
 70
     1
102
RTVSPropertyOp46
 70
     1
102
RTVSPropertyOp47
 70
     1
102
RTVSPropertyOp48
 70
     1
102
RTVSPropertyOp49
 70
     1
102
RTVSPropertyOp50
 70
     1
102
RTVSPropertyOp51
 70
     0
102
RTVSPropertyOp52
 70
     0
102
RTVSPropertyOp53
 70
     1
102
RTVSPropertyOp54
 70
     1
102
RTVSPropertyOp55
 70
     1
102
RTVSPropertyOp56
 70
     1
102
RTVSPropertyOp57
 70
     1
102
RTVSPropertyOp58
 70
     1
102
RTVSPropertyOp59
 70
     1
102
RTVSPropertyOp60
 70
     1
102
RTVSPropertyOp61
 70
     1
102
RTVSPropertyOp62
 70
     1
  0
XRECORD
  5
60D1
102
{ACAD_REACTORS
330
60D0
102
}
330
60D0
100
AcDbXrecord
280
     1
102
RTVSPost2010Prop28
280
     0
102
RTVSPost2010PropOp28
 70
     1
102
RTVSPost2010Prop29
280
     1
102
RTVSPost2010PropOp29
 70
     1
102
RTVSPost2010Prop30
280
     1
102
RTVSPost2010PropOp30
 70
     1
102
RTVSPost2010Prop31
280
     0
102
RTVSPost2010PropOp31
 70
     1
102
RTVSPost2010Prop32
280
     0
102
RTVSPost2010PropOp32
 70
     1
102
RTVSPost2010Prop33
280
     0
102
RTVSPost2010PropOp33
 70
     1
102
RTVSPost2010Prop34
280
     0
102
RTVSPost2010PropOp34
 70
     1
102
RTVSPost2010Prop35
280
     0
102
RTVSPost2010PropOp35
 70
     1
102
RTVSPost2010Prop36
280
     0
102
RTVSPost2010PropOp36
 70
     1
102
RTVSPost2010Prop37
 90
       50
102
RTVSPost2010PropOp37
 70
     1
102
RTVSPost2010Prop38
140
0.0
102
RTVSPost2010PropOp38
 70
     1
102
RTVSPost2010Prop39
140
1.0
102
RTVSPost2010PropOp39
 70
     1
102
RTVSPost2010Prop40
 90
        0
102
RTVSPost2010PropOp40
 70
     1
102
RTVSPost2010Prop41ColorIndex
 90
       18
102
RTVSPost2010Prop41ColorRGB
 90
        0
102
RTVSPost2010PropOp41
 70
     1
102
RTVSPost2010Prop42
 90
       50
102
RTVSPost2010PropOp42
 70
     1
102
RTVSPost2010Prop43
 90
        3
102
RTVSPost2010PropOp43
 70
     1
102
RTVSPost2010Prop44ColorIndex
 90
        5
102
RTVSPost2010Prop44ColorRGB
 90
      255
102
RTVSPost2010PropOp44
 70
     1
102
RTVSPost2010Prop45
280
     0
102
RTVSPost2010PropOp45
 70
     1
102
RTVSPost2010Prop46
 90
       50
102
RTVSPost2010PropOp46
 70
     1
102
RTVSPost2010Prop47
 90
       50
102
RTVSPost2010PropOp47
 70
     1
102
RTVSPost2010Prop48
 90
       50
102
RTVSPost2010PropOp48
 70
     1
102
RTVSPost2010Prop49
280
     0
102
RTVSPost2010PropOp49
 70
     1
102
RTVSPost2010Prop50
 90
       50
102
RTVSPost2010PropOp50
 70
     1
102
RTVSPost2010Prop51ColorIndex
 90
      256
102
RTVSPost2010Prop51ColorRGB
 90
-16777216
102
RTVSPost2010PropOp51
 70
     0
102
RTVSPost2010Prop52
140
1.0
102
RTVSPost2010PropOp52
 70
     0
102
RTVSPost2010Prop53
 90
        2
102
RTVSPost2010PropOp53
 70
     1
102
RTVSPost2010Prop54
  1
strokes_ogs.tif
102
RTVSPost2010PropOp54
 70
     1
102
RTVSPost2010Prop55
280
     0
102
RTVSPost2010PropOp55
 70
     1
102
RTVSPost2010Prop56
140
1.0
102
RTVSPost2010PropOp56
 70
     1
102
RTVSPost2010Prop57
140
1.0
102
RTVSPost2010PropOp57
 70
     1
102
RTVSPropertyOp0
 70
     1
102
RTVSPropertyOp1
 70
     1
102
RTVSPropertyOp2
 70
     1
102
RTVSPropertyOp3
 70
     1
102
RTVSPropertyOp4
 70
     1
102
RTVSPropertyOp5
 70
     1
102
RTVSPropertyOp6
 70
     1
102
RTVSPropertyOp7
 70
     1
102
RTVSPropertyOp8
 70
     1
102
RTVSPropertyOp9
 70
     1
102
RTVSPropertyOp10
 70
     1
102
RTVSPropertyOp11
 70
     1
102
RTVSPropertyOp12
 70
     1
102
RTVSPropertyOp13
 70
     1
102
RTVSPropertyOp14
 70
     1
102
RTVSPropertyOp15
 70
     1
102
RTVSPropertyOp16
 70
     1
102
RTVSPropertyOp17
 70
     1
102
RTVSPropertyOp18
 70
     1
102
RTVSPropertyOp19
 70
     1
102
RTVSPropertyOp20
 70
     1
102
RTVSPropertyOp21
 70
     1
102
RTVSPropertyOp22
 70
     1
102
RTVSPropertyOp23
 70
     1
102
RTVSPropertyOp24
 70
     1
102
RTVSPropertyOp25
 70
     1
102
RTVSPropertyOp26
 70
     1
102
RTVSPropertyOp27
 70
     1
102
RTVSPropertyOp28
 70
     1
102
RTVSPropertyOp29
 70
     1
102
RTVSPropertyOp30
 70
     1
102
RTVSPropertyOp31
 70
     1
102
RTVSPropertyOp32
 70
     1
102
RTVSPropertyOp33
 70
     1
102
RTVSPropertyOp34
 70
     1
102
RTVSPropertyOp35
 70
     1
102
RTVSPropertyOp36
 70
     1
102
RTVSPropertyOp37
 70
     1
102
RTVSPropertyOp38
 70
     1
102
RTVSPropertyOp39
 70
     1
102
RTVSPropertyOp40
 70
     1
102
RTVSPropertyOp41
 70
     1
102
RTVSPropertyOp42
 70
     1
102
RTVSPropertyOp43
 70
     1
102
RTVSPropertyOp44
 70
     1
102
RTVSPropertyOp45
 70
     1
102
RTVSPropertyOp46
 70
     1
102
RTVSPropertyOp47
 70
     1
102
RTVSPropertyOp48
 70
     1
102
RTVSPropertyOp49
 70
     1
102
RTVSPropertyOp50
 70
     1
102
RTVSPropertyOp51
 70
     0
102
RTVSPropertyOp52
 70
     0
102
RTVSPropertyOp53
 70
     1
102
RTVSPropertyOp54
 70
     1
102
RTVSPropertyOp55
 70
     1
102
RTVSPropertyOp56
 70
     1
102
RTVSPropertyOp57
 70
     1
102
RTVSPropertyOp58
 70
     1
102
RTVSPropertyOp59
 70
     1
102
RTVSPropertyOp60
 70
     1
102
RTVSPropertyOp61
 70
     1
102
RTVSPropertyOp62
 70
     1
  0
XRECORD
  5
60EF
102
{ACAD_REACTORS
330
60EE
102
}
330
60EE
100
AcDbXrecord
280
     1
102
RTVSPost2010Prop28
280
     0
102
RTVSPost2010PropOp28
 70
     1
102
RTVSPost2010Prop29
280
     1
102
RTVSPost2010PropOp29
 70
     1
102
RTVSPost2010Prop30
280
     1
102
RTVSPost2010PropOp30
 70
     1
102
RTVSPost2010Prop31
280
     0
102
RTVSPost2010PropOp31
 70
     1
102
RTVSPost2010Prop32
280
     0
102
RTVSPost2010PropOp32
 70
     1
102
RTVSPost2010Prop33
280
     0
102
RTVSPost2010PropOp33
 70
     1
102
RTVSPost2010Prop34
280
     0
102
RTVSPost2010PropOp34
 70
     1
102
RTVSPost2010Prop35
280
     0
102
RTVSPost2010PropOp35
 70
     1
102
RTVSPost2010Prop36
280
     0
102
RTVSPost2010PropOp36
 70
     1
102
RTVSPost2010Prop37
 90
       50
102
RTVSPost2010PropOp37
 70
     1
102
RTVSPost2010Prop38
140
0.0
102
RTVSPost2010PropOp38
 70
     1
102
RTVSPost2010Prop39
140
1.0
102
RTVSPost2010PropOp39
 70
     1
102
RTVSPost2010Prop40
 90
        0
102
RTVSPost2010PropOp40
 70
     1
102
RTVSPost2010Prop41ColorIndex
 90
       18
102
RTVSPost2010Prop41ColorRGB
 90
        0
102
RTVSPost2010PropOp41
 70
     1
102
RTVSPost2010Prop42
 90
       50
102
RTVSPost2010PropOp42
 70
     1
102
RTVSPost2010Prop43
 90
        3
102
RTVSPost2010PropOp43
 70
     1
102
RTVSPost2010Prop44ColorIndex
 90
        5
102
RTVSPost2010Prop44ColorRGB
 90
      255
102
RTVSPost2010PropOp44
 70
     1
102
RTVSPost2010Prop45
280
     0
102
RTVSPost2010PropOp45
 70
     1
102
RTVSPost2010Prop46
 90
       50
102
RTVSPost2010PropOp46
 70
     1
102
RTVSPost2010Prop47
 90
       50
102
RTVSPost2010PropOp47
 70
     1
102
RTVSPost2010Prop48
 90
       50
102
RTVSPost2010PropOp48
 70
     1
102
RTVSPost2010Prop49
280
     0
102
RTVSPost2010PropOp49
 70
     1
102
RTVSPost2010Prop50
 90
       50
102
RTVSPost2010PropOp50
 70
     1
102
RTVSPost2010Prop51ColorIndex
 90
      256
102
RTVSPost2010Prop51ColorRGB
 90
-16777216
102
RTVSPost2010PropOp51
 70
     0
102
RTVSPost2010Prop52
140
1.0
102
RTVSPost2010PropOp52
 70
     0
102
RTVSPost2010Prop53
 90
        2
102
RTVSPost2010PropOp53
 70
     1
102
RTVSPost2010Prop54
  1
strokes_ogs.tif
102
RTVSPost2010PropOp54
 70
     1
102
RTVSPost2010Prop55
280
     0
102
RTVSPost2010PropOp55
 70
     1
102
RTVSPost2010Prop56
140
1.0
102
RTVSPost2010PropOp56
 70
     1
102
RTVSPost2010Prop57
140
1.0
102
RTVSPost2010PropOp57
 70
     1
102
RTVSPropertyOp0
 70
     1
102
RTVSPropertyOp1
 70
     1
102
RTVSPropertyOp2
 70
     1
102
RTVSPropertyOp3
 70
     1
102
RTVSPropertyOp4
 70
     1
102
RTVSPropertyOp5
 70
     1
102
RTVSPropertyOp6
 70
     1
102
RTVSPropertyOp7
 70
     1
102
RTVSPropertyOp8
 70
     1
102
RTVSPropertyOp9
 70
     1
102
RTVSPropertyOp10
 70
     1
102
RTVSPropertyOp11
 70
     1
102
RTVSPropertyOp12
 70
     1
102
RTVSPropertyOp13
 70
     1
102
RTVSPropertyOp14
 70
     1
102
RTVSPropertyOp15
 70
     1
102
RTVSPropertyOp16
 70
     1
102
RTVSPropertyOp17
 70
     1
102
RTVSPropertyOp18
 70
     1
102
RTVSPropertyOp19
 70
     1
102
RTVSPropertyOp20
 70
     1
102
RTVSPropertyOp21
 70
     1
102
RTVSPropertyOp22
 70
     1
102
RTVSPropertyOp23
 70
     1
102
RTVSPropertyOp24
 70
     1
102
RTVSPropertyOp25
 70
     1
102
RTVSPropertyOp26
 70
     1
102
RTVSPropertyOp27
 70
     1
102
RTVSPropertyOp28
 70
     1
102
RTVSPropertyOp29
 70
     1
102
RTVSPropertyOp30
 70
     1
102
RTVSPropertyOp31
 70
     1
102
RTVSPropertyOp32
 70
     1
102
RTVSPropertyOp33
 70
     1
102
RTVSPropertyOp34
 70
     1
102
RTVSPropertyOp35
 70
     1
102
RTVSPropertyOp36
 70
     1
102
RTVSPropertyOp37
 70
     1
102
RTVSPropertyOp38
 70
     1
102
RTVSPropertyOp39
 70
     1
102
RTVSPropertyOp40
 70
     1
102
RTVSPropertyOp41
 70
     1
102
RTVSPropertyOp42
 70
     1
102
RTVSPropertyOp43
 70
     1
102
RTVSPropertyOp44
 70
     1
102
RTVSPropertyOp45
 70
     1
102
RTVSPropertyOp46
 70
     1
102
RTVSPropertyOp47
 70
     1
102
RTVSPropertyOp48
 70
     1
102
RTVSPropertyOp49
 70
     1
102
RTVSPropertyOp50
 70
     1
102
RTVSPropertyOp51
 70
     0
102
RTVSPropertyOp52
 70
     0
102
RTVSPropertyOp53
 70
     1
102
RTVSPropertyOp54
 70
     1
102
RTVSPropertyOp55
 70
     1
102
RTVSPropertyOp56
 70
     1
102
RTVSPropertyOp57
 70
     1
102
RTVSPropertyOp58
 70
     1
102
RTVSPropertyOp59
 70
     1
102
RTVSPropertyOp60
 70
     1
102
RTVSPropertyOp61
 70
     1
102
RTVSPropertyOp62
 70
     1
  0
XRECORD
  5
60ED
102
{ACAD_REACTORS
330
60EC
102
}
330
60EC
100
AcDbXrecord
280
     1
102
RTVSPost2010Prop28
280
     0
102
RTVSPost2010PropOp28
 70
     1
102
RTVSPost2010Prop29
280
     1
102
RTVSPost2010PropOp29
 70
     1
102
RTVSPost2010Prop30
280
     1
102
RTVSPost2010PropOp30
 70
     1
102
RTVSPost2010Prop31
280
     0
102
RTVSPost2010PropOp31
 70
     1
102
RTVSPost2010Prop32
280
     0
102
RTVSPost2010PropOp32
 70
     1
102
RTVSPost2010Prop33
280
     0
102
RTVSPost2010PropOp33
 70
     1
102
RTVSPost2010Prop34
280
     0
102
RTVSPost2010PropOp34
 70
     1
102
RTVSPost2010Prop35
280
     0
102
RTVSPost2010PropOp35
 70
     1
102
RTVSPost2010Prop36
280
     0
102
RTVSPost2010PropOp36
 70
     1
102
RTVSPost2010Prop37
 90
       50
102
RTVSPost2010PropOp37
 70
     1
102
RTVSPost2010Prop38
140
0.0
102
RTVSPost2010PropOp38
 70
     1
102
RTVSPost2010Prop39
140
1.0
102
RTVSPost2010PropOp39
 70
     1
102
RTVSPost2010Prop40
 90
        0
102
RTVSPost2010PropOp40
 70
     1
102
RTVSPost2010Prop41ColorIndex
 90
       18
102
RTVSPost2010Prop41ColorRGB
 90
        0
102
RTVSPost2010PropOp41
 70
     1
102
RTVSPost2010Prop42
 90
       50
102
RTVSPost2010PropOp42
 70
     1
102
RTVSPost2010Prop43
 90
        3
102
RTVSPost2010PropOp43
 70
     1
102
RTVSPost2010Prop44ColorIndex
 90
        5
102
RTVSPost2010Prop44ColorRGB
 90
      255
102
RTVSPost2010PropOp44
 70
     1
102
RTVSPost2010Prop45
280
     0
102
RTVSPost2010PropOp45
 70
     1
102
RTVSPost2010Prop46
 90
       50
102
RTVSPost2010PropOp46
 70
     1
102
RTVSPost2010Prop47
 90
       50
102
RTVSPost2010PropOp47
 70
     1
102
RTVSPost2010Prop48
 90
       50
102
RTVSPost2010PropOp48
 70
     1
102
RTVSPost2010Prop49
280
     0
102
RTVSPost2010PropOp49
 70
     1
102
RTVSPost2010Prop50
 90
       50
102
RTVSPost2010PropOp50
 70
     1
102
RTVSPost2010Prop51ColorIndex
 90
      256
102
RTVSPost2010Prop51ColorRGB
 90
-16777216
102
RTVSPost2010PropOp51
 70
     0
102
RTVSPost2010Prop52
140
1.0
102
RTVSPost2010PropOp52
 70
     0
102
RTVSPost2010Prop53
 90
        2
102
RTVSPost2010PropOp53
 70
     1
102
RTVSPost2010Prop54
  1
strokes_ogs.tif
102
RTVSPost2010PropOp54
 70
     1
102
RTVSPost2010Prop55
280
     0
102
RTVSPost2010PropOp55
 70
     1
102
RTVSPost2010Prop56
140
1.0
102
RTVSPost2010PropOp56
 70
     1
102
RTVSPost2010Prop57
140
1.0
102
RTVSPost2010PropOp57
 70
     1
102
RTVSPropertyOp0
 70
     1
102
RTVSPropertyOp1
 70
     1
102
RTVSPropertyOp2
 70
     1
102
RTVSPropertyOp3
 70
     1
102
RTVSPropertyOp4
 70
     1
102
RTVSPropertyOp5
 70
     1
102
RTVSPropertyOp6
 70
     1
102
RTVSPropertyOp7
 70
     1
102
RTVSPropertyOp8
 70
     1
102
RTVSPropertyOp9
 70
     1
102
RTVSPropertyOp10
 70
     1
102
RTVSPropertyOp11
 70
     1
102
RTVSPropertyOp12
 70
     1
102
RTVSPropertyOp13
 70
     1
102
RTVSPropertyOp14
 70
     1
102
RTVSPropertyOp15
 70
     1
102
RTVSPropertyOp16
 70
     1
102
RTVSPropertyOp17
 70
     1
102
RTVSPropertyOp18
 70
     1
102
RTVSPropertyOp19
 70
     1
102
RTVSPropertyOp20
 70
     1
102
RTVSPropertyOp21
 70
     1
102
RTVSPropertyOp22
 70
     1
102
RTVSPropertyOp23
 70
     1
102
RTVSPropertyOp24
 70
     1
102
RTVSPropertyOp25
 70
     1
102
RTVSPropertyOp26
 70
     1
102
RTVSPropertyOp27
 70
     1
102
RTVSPropertyOp28
 70
     1
102
RTVSPropertyOp29
 70
     1
102
RTVSPropertyOp30
 70
     1
102
RTVSPropertyOp31
 70
     1
102
RTVSPropertyOp32
 70
     1
102
RTVSPropertyOp33
 70
     1
102
RTVSPropertyOp34
 70
     1
102
RTVSPropertyOp35
 70
     1
102
RTVSPropertyOp36
 70
     1
102
RTVSPropertyOp37
 70
     1
102
RTVSPropertyOp38
 70
     1
102
RTVSPropertyOp39
 70
     1
102
RTVSPropertyOp40
 70
     1
102
RTVSPropertyOp41
 70
     1
102
RTVSPropertyOp42
 70
     1
102
RTVSPropertyOp43
 70
     1
102
RTVSPropertyOp44
 70
     1
102
RTVSPropertyOp45
 70
     1
102
RTVSPropertyOp46
 70
     1
102
RTVSPropertyOp47
 70
     1
102
RTVSPropertyOp48
 70
     1
102
RTVSPropertyOp49
 70
     1
102
RTVSPropertyOp50
 70
     1
102
RTVSPropertyOp51
 70
     0
102
RTVSPropertyOp52
 70
     0
102
RTVSPropertyOp53
 70
     1
102
RTVSPropertyOp54
 70
     1
102
RTVSPropertyOp55
 70
     1
102
RTVSPropertyOp56
 70
     1
102
RTVSPropertyOp57
 70
     1
102
RTVSPropertyOp58
 70
     1
102
RTVSPropertyOp59
 70
     1
102
RTVSPropertyOp60
 70
     1
102
RTVSPropertyOp61
 70
     1
102
RTVSPropertyOp62
 70
     1
  0
XRECORD
  5
60E7
102
{ACAD_REACTORS
330
60E6
102
}
330
60E6
100
AcDbXrecord
280
     1
102
RTVSPost2010Prop28
280
     0
102
RTVSPost2010PropOp28
 70
     1
102
RTVSPost2010Prop29
280
     1
102
RTVSPost2010PropOp29
 70
     1
102
RTVSPost2010Prop30
280
     1
102
RTVSPost2010PropOp30
 70
     1
102
RTVSPost2010Prop31
280
     0
102
RTVSPost2010PropOp31
 70
     1
102
RTVSPost2010Prop32
280
     0
102
RTVSPost2010PropOp32
 70
     1
102
RTVSPost2010Prop33
280
     0
102
RTVSPost2010PropOp33
 70
     1
102
RTVSPost2010Prop34
280
     0
102
RTVSPost2010PropOp34
 70
     1
102
RTVSPost2010Prop35
280
     0
102
RTVSPost2010PropOp35
 70
     1
102
RTVSPost2010Prop36
280
     0
102
RTVSPost2010PropOp36
 70
     1
102
RTVSPost2010Prop37
 90
       50
102
RTVSPost2010PropOp37
 70
     1
102
RTVSPost2010Prop38
140
0.0
102
RTVSPost2010PropOp38
 70
     1
102
RTVSPost2010Prop39
140
1.0
102
RTVSPost2010PropOp39
 70
     1
102
RTVSPost2010Prop40
 90
        0
102
RTVSPost2010PropOp40
 70
     1
102
RTVSPost2010Prop41ColorIndex
 90
       18
102
RTVSPost2010Prop41ColorRGB
 90
        0
102
RTVSPost2010PropOp41
 70
     1
102
RTVSPost2010Prop42
 90
       50
102
RTVSPost2010PropOp42
 70
     1
102
RTVSPost2010Prop43
 90
        3
102
RTVSPost2010PropOp43
 70
     1
102
RTVSPost2010Prop44ColorIndex
 90
        5
102
RTVSPost2010Prop44ColorRGB
 90
      255
102
RTVSPost2010PropOp44
 70
     1
102
RTVSPost2010Prop45
280
     0
102
RTVSPost2010PropOp45
 70
     1
102
RTVSPost2010Prop46
 90
       50
102
RTVSPost2010PropOp46
 70
     1
102
RTVSPost2010Prop47
 90
       50
102
RTVSPost2010PropOp47
 70
     1
102
RTVSPost2010Prop48
 90
       50
102
RTVSPost2010PropOp48
 70
     1
102
RTVSPost2010Prop49
280
     0
102
RTVSPost2010PropOp49
 70
     1
102
RTVSPost2010Prop50
 90
       50
102
RTVSPost2010PropOp50
 70
     1
102
RTVSPost2010Prop51ColorIndex
 90
      256
102
RTVSPost2010Prop51ColorRGB
 90
-16777216
102
RTVSPost2010PropOp51
 70
     0
102
RTVSPost2010Prop52
140
1.0
102
RTVSPost2010PropOp52
 70
     0
102
RTVSPost2010Prop53
 90
        2
102
RTVSPost2010PropOp53
 70
     1
102
RTVSPost2010Prop54
  1
strokes_ogs.tif
102
RTVSPost2010PropOp54
 70
     1
102
RTVSPost2010Prop55
280
     0
102
RTVSPost2010PropOp55
 70
     1
102
RTVSPost2010Prop56
140
1.0
102
RTVSPost2010PropOp56
 70
     1
102
RTVSPost2010Prop57
140
1.0
102
RTVSPost2010PropOp57
 70
     1
102
RTVSPropertyOp0
 70
     1
102
RTVSPropertyOp1
 70
     1
102
RTVSPropertyOp2
 70
     1
102
RTVSPropertyOp3
 70
     1
102
RTVSPropertyOp4
 70
     1
102
RTVSPropertyOp5
 70
     1
102
RTVSPropertyOp6
 70
     1
102
RTVSPropertyOp7
 70
     1
102
RTVSPropertyOp8
 70
     1
102
RTVSPropertyOp9
 70
     1
102
RTVSPropertyOp10
 70
     1
102
RTVSPropertyOp11
 70
     1
102
RTVSPropertyOp12
 70
     1
102
RTVSPropertyOp13
 70
     1
102
RTVSPropertyOp14
 70
     1
102
RTVSPropertyOp15
 70
     1
102
RTVSPropertyOp16
 70
     1
102
RTVSPropertyOp17
 70
     1
102
RTVSPropertyOp18
 70
     1
102
RTVSPropertyOp19
 70
     1
102
RTVSPropertyOp20
 70
     1
102
RTVSPropertyOp21
 70
     1
102
RTVSPropertyOp22
 70
     1
102
RTVSPropertyOp23
 70
     1
102
RTVSPropertyOp24
 70
     1
102
RTVSPropertyOp25
 70
     1
102
RTVSPropertyOp26
 70
     1
102
RTVSPropertyOp27
 70
     1
102
RTVSPropertyOp28
 70
     1
102
RTVSPropertyOp29
 70
     1
102
RTVSPropertyOp30
 70
     1
102
RTVSPropertyOp31
 70
     1
102
RTVSPropertyOp32
 70
     1
102
RTVSPropertyOp33
 70
     1
102
RTVSPropertyOp34
 70
     1
102
RTVSPropertyOp35
 70
     1
102
RTVSPropertyOp36
 70
     1
102
RTVSPropertyOp37
 70
     1
102
RTVSPropertyOp38
 70
     1
102
RTVSPropertyOp39
 70
     1
102
RTVSPropertyOp40
 70
     1
102
RTVSPropertyOp41
 70
     1
102
RTVSPropertyOp42
 70
     1
102
RTVSPropertyOp43
 70
     1
102
RTVSPropertyOp44
 70
     1
102
RTVSPropertyOp45
 70
     1
102
RTVSPropertyOp46
 70
     1
102
RTVSPropertyOp47
 70
     1
102
RTVSPropertyOp48
 70
     1
102
RTVSPropertyOp49
 70
     1
102
RTVSPropertyOp50
 70
     1
102
RTVSPropertyOp51
 70
     0
102
RTVSPropertyOp52
 70
     0
102
RTVSPropertyOp53
 70
     1
102
RTVSPropertyOp54
 70
     1
102
RTVSPropertyOp55
 70
     1
102
RTVSPropertyOp56
 70
     1
102
RTVSPropertyOp57
 70
     1
102
RTVSPropertyOp58
 70
     1
102
RTVSPropertyOp59
 70
     1
102
RTVSPropertyOp60
 70
     1
102
RTVSPropertyOp61
 70
     1
102
RTVSPropertyOp62
 70
     1
  0
XRECORD
  5
60E9
102
{ACAD_REACTORS
330
60E8
102
}
330
60E8
100
AcDbXrecord
280
     1
102
RTVSPost2010Prop28
280
     0
102
RTVSPost2010PropOp28
 70
     1
102
RTVSPost2010Prop29
280
     1
102
RTVSPost2010PropOp29
 70
     1
102
RTVSPost2010Prop30
280
     1
102
RTVSPost2010PropOp30
 70
     1
102
RTVSPost2010Prop31
280
     0
102
RTVSPost2010PropOp31
 70
     1
102
RTVSPost2010Prop32
280
     0
102
RTVSPost2010PropOp32
 70
     1
102
RTVSPost2010Prop33
280
     0
102
RTVSPost2010PropOp33
 70
     1
102
RTVSPost2010Prop34
280
     0
102
RTVSPost2010PropOp34
 70
     1
102
RTVSPost2010Prop35
280
     0
102
RTVSPost2010PropOp35
 70
     1
102
RTVSPost2010Prop36
280
     0
102
RTVSPost2010PropOp36
 70
     1
102
RTVSPost2010Prop37
 90
       50
102
RTVSPost2010PropOp37
 70
     1
102
RTVSPost2010Prop38
140
0.0
102
RTVSPost2010PropOp38
 70
     1
102
RTVSPost2010Prop39
140
1.0
102
RTVSPost2010PropOp39
 70
     1
102
RTVSPost2010Prop40
 90
        0
102
RTVSPost2010PropOp40
 70
     1
102
RTVSPost2010Prop41ColorIndex
 90
       18
102
RTVSPost2010Prop41ColorRGB
 90
        0
102
RTVSPost2010PropOp41
 70
     1
102
RTVSPost2010Prop42
 90
       50
102
RTVSPost2010PropOp42
 70
     1
102
RTVSPost2010Prop43
 90
        3
102
RTVSPost2010PropOp43
 70
     1
102
RTVSPost2010Prop44ColorIndex
 90
        5
102
RTVSPost2010Prop44ColorRGB
 90
      255
102
RTVSPost2010PropOp44
 70
     1
102
RTVSPost2010Prop45
280
     0
102
RTVSPost2010PropOp45
 70
     1
102
RTVSPost2010Prop46
 90
       50
102
RTVSPost2010PropOp46
 70
     1
102
RTVSPost2010Prop47
 90
       50
102
RTVSPost2010PropOp47
 70
     1
102
RTVSPost2010Prop48
 90
       50
102
RTVSPost2010PropOp48
 70
     1
102
RTVSPost2010Prop49
280
     0
102
RTVSPost2010PropOp49
 70
     1
102
RTVSPost2010Prop50
 90
       50
102
RTVSPost2010PropOp50
 70
     1
102
RTVSPost2010Prop51ColorIndex
 90
      256
102
RTVSPost2010Prop51ColorRGB
 90
-16777216
102
RTVSPost2010PropOp51
 70
     0
102
RTVSPost2010Prop52
140
1.0
102
RTVSPost2010PropOp52
 70
     0
102
RTVSPost2010Prop53
 90
        2
102
RTVSPost2010PropOp53
 70
     1
102
RTVSPost2010Prop54
  1
strokes_ogs.tif
102
RTVSPost2010PropOp54
 70
     1
102
RTVSPost2010Prop55
280
     0
102
RTVSPost2010PropOp55
 70
     1
102
RTVSPost2010Prop56
140
1.0
102
RTVSPost2010PropOp56
 70
     1
102
RTVSPost2010Prop57
140
1.0
102
RTVSPost2010PropOp57
 70
     1
102
RTVSPropertyOp0
 70
     1
102
RTVSPropertyOp1
 70
     1
102
RTVSPropertyOp2
 70
     1
102
RTVSPropertyOp3
 70
     1
102
RTVSPropertyOp4
 70
     1
102
RTVSPropertyOp5
 70
     1
102
RTVSPropertyOp6
 70
     1
102
RTVSPropertyOp7
 70
     1
102
RTVSPropertyOp8
 70
     1
102
RTVSPropertyOp9
 70
     1
102
RTVSPropertyOp10
 70
     1
102
RTVSPropertyOp11
 70
     1
102
RTVSPropertyOp12
 70
     1
102
RTVSPropertyOp13
 70
     1
102
RTVSPropertyOp14
 70
     1
102
RTVSPropertyOp15
 70
     1
102
RTVSPropertyOp16
 70
     1
102
RTVSPropertyOp17
 70
     1
102
RTVSPropertyOp18
 70
     1
102
RTVSPropertyOp19
 70
     1
102
RTVSPropertyOp20
 70
     1
102
RTVSPropertyOp21
 70
     1
102
RTVSPropertyOp22
 70
     1
102
RTVSPropertyOp23
 70
     1
102
RTVSPropertyOp24
 70
     1
102
RTVSPropertyOp25
 70
     1
102
RTVSPropertyOp26
 70
     1
102
RTVSPropertyOp27
 70
     1
102
RTVSPropertyOp28
 70
     1
102
RTVSPropertyOp29
 70
     1
102
RTVSPropertyOp30
 70
     1
102
RTVSPropertyOp31
 70
     1
102
RTVSPropertyOp32
 70
     1
102
RTVSPropertyOp33
 70
     1
102
RTVSPropertyOp34
 70
     1
102
RTVSPropertyOp35
 70
     1
102
RTVSPropertyOp36
 70
     1
102
RTVSPropertyOp37
 70
     1
102
RTVSPropertyOp38
 70
     1
102
RTVSPropertyOp39
 70
     1
102
RTVSPropertyOp40
 70
     1
102
RTVSPropertyOp41
 70
     1
102
RTVSPropertyOp42
 70
     1
102
RTVSPropertyOp43
 70
     1
102
RTVSPropertyOp44
 70
     1
102
RTVSPropertyOp45
 70
     1
102
RTVSPropertyOp46
 70
     1
102
RTVSPropertyOp47
 70
     1
102
RTVSPropertyOp48
 70
     1
102
RTVSPropertyOp49
 70
     1
102
RTVSPropertyOp50
 70
     1
102
RTVSPropertyOp51
 70
     0
102
RTVSPropertyOp52
 70
     0
102
RTVSPropertyOp53
 70
     1
102
RTVSPropertyOp54
 70
     1
102
RTVSPropertyOp55
 70
     1
102
RTVSPropertyOp56
 70
     1
102
RTVSPropertyOp57
 70
     1
102
RTVSPropertyOp58
 70
     1
102
RTVSPropertyOp59
 70
     1
102
RTVSPropertyOp60
 70
     1
102
RTVSPropertyOp61
 70
     1
102
RTVSPropertyOp62
 70
     1
  0
XRECORD
  5
60D7
102
{ACAD_REACTORS
330
60D6
102
}
330
60D6
100
AcDbXrecord
280
     1
102
RTVSPost2010Prop28
280
     0
102
RTVSPost2010PropOp28
 70
     1
102
RTVSPost2010Prop29
280
     1
102
RTVSPost2010PropOp29
 70
     1
102
RTVSPost2010Prop30
280
     1
102
RTVSPost2010PropOp30
 70
     1
102
RTVSPost2010Prop31
280
     0
102
RTVSPost2010PropOp31
 70
     1
102
RTVSPost2010Prop32
280
     0
102
RTVSPost2010PropOp32
 70
     1
102
RTVSPost2010Prop33
280
     0
102
RTVSPost2010PropOp33
 70
     1
102
RTVSPost2010Prop34
280
     0
102
RTVSPost2010PropOp34
 70
     1
102
RTVSPost2010Prop35
280
     0
102
RTVSPost2010PropOp35
 70
     1
102
RTVSPost2010Prop36
280
     0
102
RTVSPost2010PropOp36
 70
     1
102
RTVSPost2010Prop37
 90
       50
102
RTVSPost2010PropOp37
 70
     1
102
RTVSPost2010Prop38
140
0.0
102
RTVSPost2010PropOp38
 70
     1
102
RTVSPost2010Prop39
140
1.0
102
RTVSPost2010PropOp39
 70
     1
102
RTVSPost2010Prop40
 90
        0
102
RTVSPost2010PropOp40
 70
     1
102
RTVSPost2010Prop41ColorIndex
 90
       18
102
RTVSPost2010Prop41ColorRGB
 90
        0
102
RTVSPost2010PropOp41
 70
     1
102
RTVSPost2010Prop42
 90
       50
102
RTVSPost2010PropOp42
 70
     1
102
RTVSPost2010Prop43
 90
        3
102
RTVSPost2010PropOp43
 70
     1
102
RTVSPost2010Prop44ColorIndex
 90
        5
102
RTVSPost2010Prop44ColorRGB
 90
      255
102
RTVSPost2010PropOp44
 70
     1
102
RTVSPost2010Prop45
280
     0
102
RTVSPost2010PropOp45
 70
     1
102
RTVSPost2010Prop46
 90
       50
102
RTVSPost2010PropOp46
 70
     1
102
RTVSPost2010Prop47
 90
       50
102
RTVSPost2010PropOp47
 70
     1
102
RTVSPost2010Prop48
 90
       50
102
RTVSPost2010PropOp48
 70
     1
102
RTVSPost2010Prop49
280
     0
102
RTVSPost2010PropOp49
 70
     1
102
RTVSPost2010Prop50
 90
       50
102
RTVSPost2010PropOp50
 70
     1
102
RTVSPost2010Prop51ColorIndex
 90
      256
102
RTVSPost2010Prop51ColorRGB
 90
-16777216
102
RTVSPost2010PropOp51
 70
     0
102
RTVSPost2010Prop52
140
1.0
102
RTVSPost2010PropOp52
 70
     0
102
RTVSPost2010Prop53
 90
        2
102
RTVSPost2010PropOp53
 70
     1
102
RTVSPost2010Prop54
  1
strokes_ogs.tif
102
RTVSPost2010PropOp54
 70
     1
102
RTVSPost2010Prop55
280
     0
102
RTVSPost2010PropOp55
 70
     1
102
RTVSPost2010Prop56
140
1.0
102
RTVSPost2010PropOp56
 70
     1
102
RTVSPost2010Prop57
140
1.0
102
RTVSPost2010PropOp57
 70
     1
102
RTVSPropertyOp0
 70
     1
102
RTVSPropertyOp1
 70
     1
102
RTVSPropertyOp2
 70
     1
102
RTVSPropertyOp3
 70
     1
102
RTVSPropertyOp4
 70
     1
102
RTVSPropertyOp5
 70
     1
102
RTVSPropertyOp6
 70
     1
102
RTVSPropertyOp7
 70
     1
102
RTVSPropertyOp8
 70
     1
102
RTVSPropertyOp9
 70
     1
102
RTVSPropertyOp10
 70
     1
102
RTVSPropertyOp11
 70
     1
102
RTVSPropertyOp12
 70
     1
102
RTVSPropertyOp13
 70
     1
102
RTVSPropertyOp14
 70
     1
102
RTVSPropertyOp15
 70
     1
102
RTVSPropertyOp16
 70
     1
102
RTVSPropertyOp17
 70
     1
102
RTVSPropertyOp18
 70
     1
102
RTVSPropertyOp19
 70
     1
102
RTVSPropertyOp20
 70
     1
102
RTVSPropertyOp21
 70
     1
102
RTVSPropertyOp22
 70
     1
102
RTVSPropertyOp23
 70
     1
102
RTVSPropertyOp24
 70
     1
102
RTVSPropertyOp25
 70
     1
102
RTVSPropertyOp26
 70
     1
102
RTVSPropertyOp27
 70
     1
102
RTVSPropertyOp28
 70
     1
102
RTVSPropertyOp29
 70
     1
102
RTVSPropertyOp30
 70
     1
102
RTVSPropertyOp31
 70
     1
102
RTVSPropertyOp32
 70
     1
102
RTVSPropertyOp33
 70
     1
102
RTVSPropertyOp34
 70
     1
102
RTVSPropertyOp35
 70
     1
102
RTVSPropertyOp36
 70
     1
102
RTVSPropertyOp37
 70
     1
102
RTVSPropertyOp38
 70
     1
102
RTVSPropertyOp39
 70
     1
102
RTVSPropertyOp40
 70
     1
102
RTVSPropertyOp41
 70
     1
102
RTVSPropertyOp42
 70
     1
102
RTVSPropertyOp43
 70
     1
102
RTVSPropertyOp44
 70
     1
102
RTVSPropertyOp45
 70
     1
102
RTVSPropertyOp46
 70
     1
102
RTVSPropertyOp47
 70
     1
102
RTVSPropertyOp48
 70
     1
102
RTVSPropertyOp49
 70
     1
102
RTVSPropertyOp50
 70
     1
102
RTVSPropertyOp51
 70
     0
102
RTVSPropertyOp52
 70
     0
102
RTVSPropertyOp53
 70
     1
102
RTVSPropertyOp54
 70
     1
102
RTVSPropertyOp55
 70
     1
102
RTVSPropertyOp56
 70
     1
102
RTVSPropertyOp57
 70
     1
102
RTVSPropertyOp58
 70
     1
102
RTVSPropertyOp59
 70
     1
102
RTVSPropertyOp60
 70
     1
102
RTVSPropertyOp61
 70
     1
102
RTVSPropertyOp62
 70
     1
  0
XRECORD
  5
60CB
102
{ACAD_REACTORS
330
60CA
102
}
330
60CA
100
AcDbXrecord
280
     1
102
RTVSPost2010Prop28
280
     0
102
RTVSPost2010PropOp28
 70
     1
102
RTVSPost2010Prop29
280
     1
102
RTVSPost2010PropOp29
 70
     1
102
RTVSPost2010Prop30
280
     1
102
RTVSPost2010PropOp30
 70
     1
102
RTVSPost2010Prop31
280
     0
102
RTVSPost2010PropOp31
 70
     1
102
RTVSPost2010Prop32
280
     0
102
RTVSPost2010PropOp32
 70
     1
102
RTVSPost2010Prop33
280
     0
102
RTVSPost2010PropOp33
 70
     1
102
RTVSPost2010Prop34
280
     0
102
RTVSPost2010PropOp34
 70
     1
102
RTVSPost2010Prop35
280
     0
102
RTVSPost2010PropOp35
 70
     1
102
RTVSPost2010Prop36
280
     0
102
RTVSPost2010PropOp36
 70
     1
102
RTVSPost2010Prop37
 90
       50
102
RTVSPost2010PropOp37
 70
     1
102
RTVSPost2010Prop38
140
0.0
102
RTVSPost2010PropOp38
 70
     1
102
RTVSPost2010Prop39
140
1.0
102
RTVSPost2010PropOp39
 70
     1
102
RTVSPost2010Prop40
 90
        0
102
RTVSPost2010PropOp40
 70
     1
102
RTVSPost2010Prop41ColorIndex
 90
       18
102
RTVSPost2010Prop41ColorRGB
 90
        0
102
RTVSPost2010PropOp41
 70
     1
102
RTVSPost2010Prop42
 90
       50
102
RTVSPost2010PropOp42
 70
     1
102
RTVSPost2010Prop43
 90
        3
102
RTVSPost2010PropOp43
 70
     1
102
RTVSPost2010Prop44ColorIndex
 90
        5
102
RTVSPost2010Prop44ColorRGB
 90
      255
102
RTVSPost2010PropOp44
 70
     1
102
RTVSPost2010Prop45
280
     0
102
RTVSPost2010PropOp45
 70
     1
102
RTVSPost2010Prop46
 90
       50
102
RTVSPost2010PropOp46
 70
     1
102
RTVSPost2010Prop47
 90
       50
102
RTVSPost2010PropOp47
 70
     1
102
RTVSPost2010Prop48
 90
       50
102
RTVSPost2010PropOp48
 70
     1
102
RTVSPost2010Prop49
280
     0
102
RTVSPost2010PropOp49
 70
     1
102
RTVSPost2010Prop50
 90
       50
102
RTVSPost2010PropOp50
 70
     1
102
RTVSPost2010Prop51ColorIndex
 90
      256
102
RTVSPost2010Prop51ColorRGB
 90
-16777216
102
RTVSPost2010PropOp51
 70
     0
102
RTVSPost2010Prop52
140
1.0
102
RTVSPost2010PropOp52
 70
     0
102
RTVSPost2010Prop53
 90
        2
102
RTVSPost2010PropOp53
 70
     1
102
RTVSPost2010Prop54
  1
strokes_ogs.tif
102
RTVSPost2010PropOp54
 70
     1
102
RTVSPost2010Prop55
280
     0
102
RTVSPost2010PropOp55
 70
     1
102
RTVSPost2010Prop56
140
1.0
102
RTVSPost2010PropOp56
 70
     1
102
RTVSPost2010Prop57
140
1.0
102
RTVSPost2010PropOp57
 70
     1
102
RTVSPropertyOp0
 70
     1
102
RTVSPropertyOp1
 70
     1
102
RTVSPropertyOp2
 70
     1
102
RTVSPropertyOp3
 70
     1
102
RTVSPropertyOp4
 70
     1
102
RTVSPropertyOp5
 70
     1
102
RTVSPropertyOp6
 70
     1
102
RTVSPropertyOp7
 70
     1
102
RTVSPropertyOp8
 70
     1
102
RTVSPropertyOp9
 70
     1
102
RTVSPropertyOp10
 70
     1
102
RTVSPropertyOp11
 70
     1
102
RTVSPropertyOp12
 70
     1
102
RTVSPropertyOp13
 70
     1
102
RTVSPropertyOp14
 70
     1
102
RTVSPropertyOp15
 70
     1
102
RTVSPropertyOp16
 70
     1
102
RTVSPropertyOp17
 70
     1
102
RTVSPropertyOp18
 70
     1
102
RTVSPropertyOp19
 70
     1
102
RTVSPropertyOp20
 70
     1
102
RTVSPropertyOp21
 70
     1
102
RTVSPropertyOp22
 70
     1
102
RTVSPropertyOp23
 70
     1
102
RTVSPropertyOp24
 70
     1
102
RTVSPropertyOp25
 70
     1
102
RTVSPropertyOp26
 70
     1
102
RTVSPropertyOp27
 70
     1
102
RTVSPropertyOp28
 70
     1
102
RTVSPropertyOp29
 70
     1
102
RTVSPropertyOp30
 70
     1
102
RTVSPropertyOp31
 70
     1
102
RTVSPropertyOp32
 70
     1
102
RTVSPropertyOp33
 70
     1
102
RTVSPropertyOp34
 70
     1
102
RTVSPropertyOp35
 70
     1
102
RTVSPropertyOp36
 70
     1
102
RTVSPropertyOp37
 70
     1
102
RTVSPropertyOp38
 70
     1
102
RTVSPropertyOp39
 70
     1
102
RTVSPropertyOp40
 70
     1
102
RTVSPropertyOp41
 70
     1
102
RTVSPropertyOp42
 70
     1
102
RTVSPropertyOp43
 70
     1
102
RTVSPropertyOp44
 70
     1
102
RTVSPropertyOp45
 70
     1
102
RTVSPropertyOp46
 70
     1
102
RTVSPropertyOp47
 70
     1
102
RTVSPropertyOp48
 70
     1
102
RTVSPropertyOp49
 70
     1
102
RTVSPropertyOp50
 70
     1
102
RTVSPropertyOp51
 70
     0
102
RTVSPropertyOp52
 70
     0
102
RTVSPropertyOp53
 70
     1
102
RTVSPropertyOp54
 70
     1
102
RTVSPropertyOp55
 70
     1
102
RTVSPropertyOp56
 70
     1
102
RTVSPropertyOp57
 70
     1
102
RTVSPropertyOp58
 70
     1
102
RTVSPropertyOp59
 70
     1
102
RTVSPropertyOp60
 70
     1
102
RTVSPropertyOp61
 70
     1
102
RTVSPropertyOp62
 70
     1
  0
XRECORD
  5
60EB
102
{ACAD_REACTORS
330
60EA
102
}
330
60EA
100
AcDbXrecord
280
     1
102
RTVSPost2010Prop28
280
     0
102
RTVSPost2010PropOp28
 70
     1
102
RTVSPost2010Prop29
280
     1
102
RTVSPost2010PropOp29
 70
     1
102
RTVSPost2010Prop30
280
     1
102
RTVSPost2010PropOp30
 70
     1
102
RTVSPost2010Prop31
280
     0
102
RTVSPost2010PropOp31
 70
     1
102
RTVSPost2010Prop32
280
     0
102
RTVSPost2010PropOp32
 70
     1
102
RTVSPost2010Prop33
280
     0
102
RTVSPost2010PropOp33
 70
     1
102
RTVSPost2010Prop34
280
     0
102
RTVSPost2010PropOp34
 70
     1
102
RTVSPost2010Prop35
280
     0
102
RTVSPost2010PropOp35
 70
     1
102
RTVSPost2010Prop36
280
     0
102
RTVSPost2010PropOp36
 70
     1
102
RTVSPost2010Prop37
 90
       50
102
RTVSPost2010PropOp37
 70
     1
102
RTVSPost2010Prop38
140
0.0
102
RTVSPost2010PropOp38
 70
     1
102
RTVSPost2010Prop39
140
1.0
102
RTVSPost2010PropOp39
 70
     1
102
RTVSPost2010Prop40
 90
        0
102
RTVSPost2010PropOp40
 70
     1
102
RTVSPost2010Prop41ColorIndex
 90
       18
102
RTVSPost2010Prop41ColorRGB
 90
        0
102
RTVSPost2010PropOp41
 70
     1
102
RTVSPost2010Prop42
 90
       50
102
RTVSPost2010PropOp42
 70
     1
102
RTVSPost2010Prop43
 90
        3
102
RTVSPost2010PropOp43
 70
     1
102
RTVSPost2010Prop44ColorIndex
 90
        5
102
RTVSPost2010Prop44ColorRGB
 90
      255
102
RTVSPost2010PropOp44
 70
     1
102
RTVSPost2010Prop45
280
     0
102
RTVSPost2010PropOp45
 70
     1
102
RTVSPost2010Prop46
 90
       50
102
RTVSPost2010PropOp46
 70
     1
102
RTVSPost2010Prop47
 90
       50
102
RTVSPost2010PropOp47
 70
     1
102
RTVSPost2010Prop48
 90
       50
102
RTVSPost2010PropOp48
 70
     1
102
RTVSPost2010Prop49
280
     0
102
RTVSPost2010PropOp49
 70
     1
102
RTVSPost2010Prop50
 90
       50
102
RTVSPost2010PropOp50
 70
     1
102
RTVSPost2010Prop51ColorIndex
 90
      256
102
RTVSPost2010Prop51ColorRGB
 90
-16777216
102
RTVSPost2010PropOp51
 70
     0
102
RTVSPost2010Prop52
140
1.0
102
RTVSPost2010PropOp52
 70
     0
102
RTVSPost2010Prop53
 90
        2
102
RTVSPost2010PropOp53
 70
     1
102
RTVSPost2010Prop54
  1
strokes_ogs.tif
102
RTVSPost2010PropOp54
 70
     1
102
RTVSPost2010Prop55
280
     0
102
RTVSPost2010PropOp55
 70
     1
102
RTVSPost2010Prop56
140
1.0
102
RTVSPost2010PropOp56
 70
     1
102
RTVSPost2010Prop57
140
1.0
102
RTVSPost2010PropOp57
 70
     1
102
RTVSPropertyOp0
 70
     1
102
RTVSPropertyOp1
 70
     1
102
RTVSPropertyOp2
 70
     1
102
RTVSPropertyOp3
 70
     1
102
RTVSPropertyOp4
 70
     1
102
RTVSPropertyOp5
 70
     1
102
RTVSPropertyOp6
 70
     1
102
RTVSPropertyOp7
 70
     1
102
RTVSPropertyOp8
 70
     1
102
RTVSPropertyOp9
 70
     1
102
RTVSPropertyOp10
 70
     1
102
RTVSPropertyOp11
 70
     1
102
RTVSPropertyOp12
 70
     1
102
RTVSPropertyOp13
 70
     1
102
RTVSPropertyOp14
 70
     1
102
RTVSPropertyOp15
 70
     1
102
RTVSPropertyOp16
 70
     1
102
RTVSPropertyOp17
 70
     1
102
RTVSPropertyOp18
 70
     1
102
RTVSPropertyOp19
 70
     1
102
RTVSPropertyOp20
 70
     1
102
RTVSPropertyOp21
 70
     1
102
RTVSPropertyOp22
 70
     1
102
RTVSPropertyOp23
 70
     1
102
RTVSPropertyOp24
 70
     1
102
RTVSPropertyOp25
 70
     1
102
RTVSPropertyOp26
 70
     1
102
RTVSPropertyOp27
 70
     1
102
RTVSPropertyOp28
 70
     1
102
RTVSPropertyOp29
 70
     1
102
RTVSPropertyOp30
 70
     1
102
RTVSPropertyOp31
 70
     1
102
RTVSPropertyOp32
 70
     1
102
RTVSPropertyOp33
 70
     1
102
RTVSPropertyOp34
 70
     1
102
RTVSPropertyOp35
 70
     1
102
RTVSPropertyOp36
 70
     1
102
RTVSPropertyOp37
 70
     1
102
RTVSPropertyOp38
 70
     1
102
RTVSPropertyOp39
 70
     1
102
RTVSPropertyOp40
 70
     1
102
RTVSPropertyOp41
 70
     1
102
RTVSPropertyOp42
 70
     1
102
RTVSPropertyOp43
 70
     1
102
RTVSPropertyOp44
 70
     1
102
RTVSPropertyOp45
 70
     1
102
RTVSPropertyOp46
 70
     1
102
RTVSPropertyOp47
 70
     1
102
RTVSPropertyOp48
 70
     1
102
RTVSPropertyOp49
 70
     1
102
RTVSPropertyOp50
 70
     1
102
RTVSPropertyOp51
 70
     0
102
RTVSPropertyOp52
 70
     0
102
RTVSPropertyOp53
 70
     1
102
RTVSPropertyOp54
 70
     1
102
RTVSPropertyOp55
 70
     1
102
RTVSPropertyOp56
 70
     1
102
RTVSPropertyOp57
 70
     1
102
RTVSPropertyOp58
 70
     1
102
RTVSPropertyOp59
 70
     1
102
RTVSPropertyOp60
 70
     1
102
RTVSPropertyOp61
 70
     1
102
RTVSPropertyOp62
 70
     1
  0
ENDSEC
  0
EOF
