  0
SECTION
  2
HEADER
  9
$ACADVER
  1
AC1015
  9
$ACADMAINTVER
 70
    18
  9
$DWGCODEPAGE
  3
ANSI_1252
  9
$INSBASE
 10
0.0
 20
0.0
 30
0.0
  9
$EXTMIN
 10
-236.868023915602
 20
-405.2146374763303
 30
-0.0000000000112498
  9
$EXTMAX
 10
397.4171247643089
 20
111.858705666732
 30
0.0000000000002956
  9
$LIMMIN
 10
0.0
 20
0.0
  9
$LIMMAX
 10
420.0
 20
297.0
  9
$ORTHOMODE
 70
     0
  9
$REGENMODE
 70
     1
  9
$FILLMODE
 70
     1
  9
$QTEXTMODE
 70
     0
  9
$MIRRTEXT
 70
     0
  9
$LTSCALE
 40
1.0
  9
$ATTMODE
 70
     1
  9
$TEXTSIZE
 40
2.5
  9
$TRACEWID
 40
1.0
  9
$TEXTSTYLE
  7
Standard
  9
$CLAYER
  8
0
  9
$CELTYPE
  6
ByLayer
  9
$CECOLOR
 62
   256
  9
$CELTSCALE
 40
1.0
  9
$DISPSILH
 70
     0
  9
$DIMSCALE
 40
1.0
  9
$DIMASZ
 40
2.5
  9
$DIMEXO
 40
0.625
  9
$DIMDLI
 40
3.75
  9
$DIMRND
 40
0.0
  9
$DIMDLE
 40
0.0
  9
$DIMEXE
 40
1.25
  9
$DIMTP
 40
0.0
  9
$DIMTM
 40
0.0
  9
$DIMTXT
 40
2.5
  9
$DIMCEN
 40
2.5
  9
$DIMTSZ
 40
0.0
  9
$DIMTOL
 70
     0
  9
$DIMLIM
 70
     0
  9
$DIMTIH
 70
     0
  9
$DIMTOH
 70
     0
  9
$DIMSE1
 70
     0
  9
$DIMSE2
 70
     0
  9
$DIMTAD
 70
     1
  9
$DIMZIN
 70
     8
  9
$DIMBLK
  1

  9
$DIMASO
 70
     1
  9
$DIMSHO
 70
     1
  9
$DIMPOST
  1

  9
$DIMAPOST
  1

  9
$DIMALT
 70
     0
  9
$DIMALTD
 70
     3
  9
$DIMALTF
 40
0.03937007874016
  9
$DIMLFAC
 40
1.0
  9
$DIMTOFL
 70
     1
  9
$DIMTVP
 40
0.0
  9
$DIMTIX
 70
     0
  9
$DIMSOXD
 70
     0
  9
$DIMSAH
 70
     0
  9
$DIMBLK1
  1

  9
$DIMBLK2
  1

  9
$DIMSTYLE
  2
ISO-25
  9
$DIMCLRD
 70
     0
  9
$DIMCLRE
 70
     0
  9
$DIMCLRT
 70
     0
  9
$DIMTFAC
 40
1.0
  9
$DIMGAP
 40
0.625
  9
$DIMJUST
 70
     0
  9
$DIMSD1
 70
     0
  9
$DIMSD2
 70
     0
  9
$DIMTOLJ
 70
     0
  9
$DIMTZIN
 70
     8
  9
$DIMALTZ
 70
     0
  9
$DIMALTTZ
 70
     0
  9
$DIMUPT
 70
     0
  9
$DIMDEC
 70
     2
  9
$DIMTDEC
 70
     2
  9
$DIMALTU
 70
     2
  9
$DIMALTTD
 70
     3
  9
$DIMTXSTY
  7
Standard
  9
$DIMAUNIT
 70
     0
  9
$DIMADEC
 70
     0
  9
$DIMALTRND
 40
0.0
  9
$DIMAZIN
 70
     0
  9
$DIMDSEP
 70
    44
  9
$DIMATFIT
 70
     3
  9
$DIMFRAC
 70
     0
  9
$DIMLDRBLK
  1

  9
$DIMLUNIT
 70
     2
  9
$DIMLWD
 70
    -2
  9
$DIMLWE
 70
    -2
  9
$DIMTMOVE
 70
     0
  9
$LUNITS
 70
     2
  9
$LUPREC
 70
     4
  9
$SKETCHINC
 40
1.0
  9
$FILLETRAD
 40
0.0
  9
$AUNITS
 70
     0
  9
$AUPREC
 70
     0
  9
$MENU
  1
.
  9
$ELEVATION
 40
0.0
  9
$PELEVATION
 40
0.0
  9
$THICKNESS
 40
0.0
  9
$LIMCHECK
 70
     0
  9
$CHAMFERA
 40
0.0
  9
$CHAMFERB
 40
0.0
  9
$CHAMFERC
 40
0.0
  9
$CHAMFERD
 40
0.0
  9
$SKPOLY
 70
     0
  9
$TDCREATE
 40
2460626.734328704
  9
$TDUCREATE
 40
2460626.442662037
  9
$TDUPDATE
 40
2460627.432384259
  9
$TDUUPDATE
 40
2460627.140717593
  9
$TDINDWG
 40
0.0010069444
  9
$TDUSRTIMER
 40
0.0010069444
  9
$USRTIMER
 70
     1
  9
$ANGBASE
 50
0.0
  9
$ANGDIR
 70
     0
  9
$PDMODE
 70
     0
  9
$PDSIZE
 40
0.0
  9
$PLINEWID
 40
0.0
  9
$SPLFRAME
 70
     0
  9
$SPLINETYPE
 70
     6
  9
$SPLINESEGS
 70
     8
  9
$HANDSEED
  5
8972
  9
$SURFTAB1
 70
     6
  9
$SURFTAB2
 70
     6
  9
$SURFTYPE
 70
     6
  9
$SURFU
 70
     6
  9
$SURFV
 70
     6
  9
$UCSBASE
  2

  9
$UCSNAME
  2

  9
$UCSORG
 10
0.0
 20
0.0
 30
0.0
  9
$UCSXDIR
 10
1.0
 20
0.0
 30
0.0
  9
$UCSYDIR
 10
0.0
 20
1.0
 30
0.0
  9
$UCSORTHOREF
  2

  9
$UCSORTHOVIEW
 70
     0
  9
$UCSORGTOP
 10
0.0
 20
0.0
 30
0.0
  9
$UCSORGBOTTOM
 10
0.0
 20
0.0
 30
0.0
  9
$UCSORGLEFT
 10
0.0
 20
0.0
 30
0.0
  9
$UCSORGRIGHT
 10
0.0
 20
0.0
 30
0.0
  9
$UCSORGFRONT
 10
0.0
 20
0.0
 30
0.0
  9
$UCSORGBACK
 10
0.0
 20
0.0
 30
0.0
  9
$PUCSBASE
  2

  9
$PUCSNAME
  2

  9
$PUCSORG
 10
0.0
 20
0.0
 30
0.0
  9
$PUCSXDIR
 10
1.0
 20
0.0
 30
0.0
  9
$PUCSYDIR
 10
0.0
 20
1.0
 30
0.0
  9
$PUCSORTHOREF
  2

  9
$PUCSORTHOVIEW
 70
     0
  9
$PUCSORGTOP
 10
0.0
 20
0.0
 30
0.0
  9
$PUCSORGBOTTOM
 10
0.0
 20
0.0
 30
0.0
  9
$PUCSORGLEFT
 10
0.0
 20
0.0
 30
0.0
  9
$PUCSORGRIGHT
 10
0.0
 20
0.0
 30
0.0
  9
$PUCSORGFRONT
 10
0.0
 20
0.0
 30
0.0
  9
$PUCSORGBACK
 10
0.0
 20
0.0
 30
0.0
  9
$USERI1
 70
     0
  9
$USERI2
 70
     0
  9
$USERI3
 70
     0
  9
$USERI4
 70
     0
  9
$USERI5
 70
     0
  9
$USERR1
 40
0.0
  9
$USERR2
 40
0.0
  9
$USERR3
 40
0.0
  9
$USERR4
 40
0.0
  9
$USERR5
 40
0.0
  9
$WORLDVIEW
 70
     1
  9
$SHADEDGE
 70
     3
  9
$SHADEDIF
 70
    70
  9
$TILEMODE
 70
     1
  9
$MAXACTVP
 70
    48
  9
$PINSBASE
 10
0.0
 20
0.0
 30
0.0
  9
$PLIMCHECK
 70
     0
  9
$PEXTMIN
 10
0.0
 20
0.0
 30
0.0
  9
$PEXTMAX
 10
0.0
 20
0.0
 30
0.0
  9
$PLIMMIN
 10
0.0
 20
0.0
  9
$PLIMMAX
 10
12.0
 20
9.0
  9
$UNITMODE
 70
     0
  9
$VISRETAIN
 70
     1
  9
$PLINEGEN
 70
     0
  9
$PSLTSCALE
 70
     1
  9
$TREEDEPTH
 70
  3020
  9
$CMLSTYLE
  2
Standard
  9
$CMLJUST
 70
     0
  9
$CMLSCALE
 40
20.0
  9
$PROXYGRAPHICS
 70
     1
  9
$MEASUREMENT
 70
     1
  9
$CELWEIGHT
370
    -1
  9
$ENDCAPS
280
     0
  9
$JOINSTYLE
280
     0
  9
$LWDISPLAY
290
     0
  9
$INSUNITS
 70
     4
  9
$HYPERLINKBASE
  1

  9
$STYLESHEET
  1

  9
$XEDIT
290
     1
  9
$CEPSNTYPE
380
     0
  9
$PSTYLEMODE
290
     1
  9
$FINGERPRINTGUID
  2
{76E384B9-2432-D241-9E55-B75D406078B3}
  9
$VERSIONGUID
  2
{6E948F61-AACF-2844-B329-3C7E300E9CE8}
  9
$EXTNAMES
290
     1
  9
$PSVPSCALE
 40
0.0
  9
$OLESTARTUP
290
     0
  0
ENDSEC
  0
SECTION
  2
CLASSES
  0
CLASS
  1
ACDBDICTIONARYWDFLT
  2
AcDbDictionaryWithDefault
  3
ObjectDBX Classes
 90
        0
280
     0
281
     0
  0
CLASS
  1
ACDBPLACEHOLDER
  2
AcDbPlaceHolder
  3
ObjectDBX Classes
 90
        0
280
     0
281
     0
  0
CLASS
  1
LAYOUT
  2
AcDbLayout
  3
ObjectDBX Classes
 90
        0
280
     0
281
     0
  0
CLASS
  1
DICTIONARYVAR
  2
AcDbDictionaryVar
  3
ObjectDBX Classes
 90
        0
280
     0
281
     0
  0
CLASS
  1
TABLESTYLE
  2
AcDbTableStyle
  3
ObjectDBX Classes
 90
     4095
280
     0
281
     0
  0
CLASS
  1
MATERIAL
  2
AcDbMaterial
  3
ObjectDBX Classes
 90
     1153
280
     0
281
     0
  0
CLASS
  1
VISUALSTYLE
  2
AcDbVisualStyle
  3
ObjectDBX Classes
 90
     4095
280
     0
281
     0
  0
CLASS
  1
SCALE
  2
AcDbScale
  3
ObjectDBX Classes
 90
     1153
280
     0
281
     0
  0
CLASS
  1
MLEADERSTYLE
  2
AcDbMLeaderStyle
  3
ACDB_MLEADERSTYLE_CLASS
 90
     4095
280
     0
281
     0
  0
CLASS
  1
CELLSTYLEMAP
  2
AcDbCellStyleMap
  3
ObjectDBX Classes
 90
     1152
280
     0
281
     0
  0
CLASS
  1
EXACXREFPANELOBJECT
  2
ExAcXREFPanelObject
  3
EXAC_ESW
 90
    33793
280
     0
281
     0
  0
CLASS
  1
NPOCOLLECTION
  2
AcDbImpNonPersistentObjectsCollection
  3
ObjectDBX Classes
 90
    33921
280
     0
281
     0
  0
CLASS
  1
LAYER_INDEX
  2
AcDbLayerIndex
  3
ObjectDBX Classes
 90
    32768
280
     0
281
     0
  0
CLASS
  1
SPATIAL_INDEX
  2
AcDbSpatialIndex
  3
ObjectDBX Classes
 90
    32768
280
     0
281
     0
  0
CLASS
  1
IDBUFFER
  2
AcDbIdBuffer
  3
ObjectDBX Classes
 90
    32768
280
     0
281
     0
  0
CLASS
  1
ACDBSECTIONVIEWSTYLE
  2
AcDbSectionViewStyle
  3
ObjectDBX Classes
 90
     1025
280
     0
281
     0
  0
CLASS
  1
ACDBDETAILVIEWSTYLE
  2
AcDbDetailViewStyle
  3
ObjectDBX Classes
 90
     1025
280
     0
281
     0
  0
CLASS
  1
XRECORD
  2
AcDbXrecord
  3
ObjectDBX Classes
 90
        0
280
     0
281
     0
  0
ENDSEC
  0
SECTION
  2
TABLES
  0
TABLE
  2
VPORT
  5
8
102
{ACAD_XDICTIONARY
360
87EE
102
}
330
0
100
AcDbSymbolTable
 70
     1
  0
VPORT
  5
EA
330
8
100
AcDbSymbolTableRecord
100
AcDbViewportTableRecord
  2
*Active
 70
     0
 10
0.0
 20
0.0
 11
1.0
 21
1.0
 12
80.27455042435349
 22
-146.6779659047992
 13
0.0
 23
0.0
 14
10.0
 24
10.0
 15
10.0
 25
10.0
 16
0.0
 26
0.0
 36
1.0
 17
0.0
 27
0.0
 37
0.0
 40
685.1523962728955
 41
0.9846153846153848
 42
50.0
 43
0.0
 44
0.0
 50
0.0
 51
0.0
 71
     0
 72
  1000
 73
     1
 74
     3
 75
     0
 76
     1
 77
     0
 78
     0
281
     0
 65
     1
110
0.0
120
0.0
130
0.0
111
1.0
121
0.0
131
0.0
112
0.0
122
1.0
132
0.0
 79
     0
146
0.0
1001
ACAD_NAV_VCDISPLAY
1070
     3
  0
ENDTAB
  0
TABLE
  2
LTYPE
  5
5
330
0
100
AcDbSymbolTable
 70
     1
  0
LTYPE
  5
14
330
5
100
AcDbSymbolTableRecord
100
AcDbLinetypeTableRecord
  2
ByBlock
 70
     0
  3

 72
    65
 73
     0
 40
0.0
  0
LTYPE
  5
15
330
5
100
AcDbSymbolTableRecord
100
AcDbLinetypeTableRecord
  2
ByLayer
 70
     0
  3

 72
    65
 73
     0
 40
0.0
  0
LTYPE
  5
16
330
5
100
AcDbSymbolTableRecord
100
AcDbLinetypeTableRecord
  2
Continuous
 70
     0
  3
Solid line
 72
    65
 73
     0
 40
0.0
  0
ENDTAB
  0
TABLE
  2
LAYER
  5
2
102
{ACAD_XDICTIONARY
360
1FF
102
}
330
0
100
AcDbSymbolTable
 70
     1
  0
LAYER
  5
10
102
{ACAD_XDICTIONARY
360
13C
102
}
330
2
100
AcDbSymbolTableRecord
100
AcDbLayerTableRecord
  2
0
 70
     0
 62
     7
  6
Continuous
370
    -3
390
F
  0
ENDTAB
  0
TABLE
  2
STYLE
  5
3
330
0
100
AcDbSymbolTable
 70
     1
  0
STYLE
  5
11
330
3
100
AcDbSymbolTableRecord
100
AcDbTextStyleTableRecord
  2
Standard
 70
     0
 40
0.0
 41
1.0
 50
0.0
 71
     0
 42
2.5
  3
arial_1.ttf
  4

1001
ACAD
1000
Arial
1071
       34
  0
ENDTAB
  0
TABLE
  2
VIEW
  5
6
330
0
100
AcDbSymbolTable
 70
     0
  0
ENDTAB
  0
TABLE
  2
UCS
  5
7
330
0
100
AcDbSymbolTable
 70
     0
  0
ENDTAB
  0
TABLE
  2
APPID
  5
9
330
0
100
AcDbSymbolTable
 70
     8
  0
APPID
  5
12
330
9
100
AcDbSymbolTableRecord
100
AcDbRegAppTableRecord
  2
ACAD
 70
     0
  0
APPID
  5
9E
330
9
100
AcDbSymbolTableRecord
100
AcDbRegAppTableRecord
  2
ACAD_PSEXT
 70
     0
  0
APPID
  5
133
330
9
100
AcDbSymbolTableRecord
100
AcDbRegAppTableRecord
  2
AcadAnnoPO
 70
     0
  0
APPID
  5
134
330
9
100
AcDbSymbolTableRecord
100
AcDbRegAppTableRecord
  2
AcadAnnotative
 70
     0
  0
APPID
  5
135
330
9
100
AcDbSymbolTableRecord
100
AcDbRegAppTableRecord
  2
ACAD_DSTYLE_DIMJAG
 70
     0
  0
APPID
  5
136
330
9
100
AcDbSymbolTableRecord
100
AcDbRegAppTableRecord
  2
ACAD_DSTYLE_DIMTALN
 70
     0
  0
APPID
  5
165
330
9
100
AcDbSymbolTableRecord
100
AcDbRegAppTableRecord
  2
ACAD_MLEADERVER
 70
     0
  0
APPID
  5
217
330
9
100
AcDbSymbolTableRecord
100
AcDbRegAppTableRecord
  2
ACAD_NAV_VCDISPLAY
 70
     0
  0
ENDTAB
  0
TABLE
  2
DIMSTYLE
  5
A
330
0
100
AcDbSymbolTable
 70
     1
100
AcDbDimStyleTable
 71
     0
  0
DIMSTYLE
105
27
330
A
100
AcDbSymbolTableRecord
100
AcDbDimStyleTableRecord
  2
ISO-25
 70
     0
 41
2.5
 42
0.625
 43
3.75
 44
1.25
 73
     0
 74
     0
 77
     1
 78
     8
140
2.5
141
2.5
143
0.03937007874016
147
0.625
171
     3
172
     1
271
     2
272
     2
274
     3
278
    44
283
     0
284
     8
340
11
  0
ENDTAB
  0
TABLE
  2
BLOCK_RECORD
  5
1
330
0
100
AcDbSymbolTable
 70
     7
  0
BLOCK_RECORD
  5
1F
102
{ACAD_XDICTIONARY
360
1CE
102
}
330
1
100
AcDbSymbolTableRecord
100
AcDbBlockTableRecord
  2
*Model_Space
340
22
  0
BLOCK_RECORD
  5
D2
102
{ACAD_XDICTIONARY
360
87A1
102
}
330
1
100
AcDbSymbolTableRecord
100
AcDbBlockTableRecord
  2
*Paper_Space
340
D3
  0
BLOCK_RECORD
  5
D6
102
{ACAD_XDICTIONARY
360
87A3
102
}
330
1
100
AcDbSymbolTableRecord
100
AcDbBlockTableRecord
  2
*Paper_Space0
340
D7
  0
BLOCK_RECORD
  5
85BF
330
1
100
AcDbSymbolTableRecord
100
AcDbBlockTableRecord
  2
WSD-Front
340
0
102
{BLKREFS
331
8797
102
}
  0
BLOCK_RECORD
  5
860E
330
1
100
AcDbSymbolTableRecord
100
AcDbBlockTableRecord
  2
WSD-Left
340
0
102
{BLKREFS
331
8798
102
}
  0
BLOCK_RECORD
  5
8623
330
1
100
AcDbSymbolTableRecord
100
AcDbBlockTableRecord
  2
WSD-Right
340
0
102
{BLKREFS
331
8799
102
}
  0
BLOCK_RECORD
  5
8638
330
1
100
AcDbSymbolTableRecord
100
AcDbBlockTableRecord
  2
WSD-Top
340
0
102
{BLKREFS
331
879A
102
}
  0
BLOCK_RECORD
  5
8655
330
1
100
AcDbSymbolTableRecord
100
AcDbBlockTableRecord
  2
WSD-Bottom
340
0
102
{BLKREFS
331
879B
102
}
  0
BLOCK_RECORD
  5
86A9
330
1
100
AcDbSymbolTableRecord
100
AcDbBlockTableRecord
  2
WSD-ISO
340
0
102
{BLKREFS
331
879C
102
}
  0
ENDTAB
  0
ENDSEC
  0
SECTION
  2
BLOCKS
  0
BLOCK
  5
20
330
1F
100
AcDbEntity
  8
0
100
AcDbBlockBegin
  2
*Model_Space
 70
     0
 10
0.0
 20
0.0
 30
0.0
  3
*Model_Space
  1

  0
ENDBLK
  5
21
330
1F
100
AcDbEntity
  8
0
100
AcDbBlockEnd
  0
BLOCK
  5
D4
330
D2
100
AcDbEntity
 67
     1
  8
0
100
AcDbBlockBegin
  2
*Paper_Space
 70
     0
 10
0.0
 20
0.0
 30
0.0
  3
*Paper_Space
  1

  0
ENDBLK
  5
D5
330
D2
100
AcDbEntity
 67
     1
  8
0
100
AcDbBlockEnd
  0
BLOCK
  5
D8
330
D6
100
AcDbEntity
 67
     1
  8
0
100
AcDbBlockBegin
  2
*Paper_Space0
 70
     0
 10
0.0
 20
0.0
 30
0.0
  3
*Paper_Space0
  1

  0
ENDBLK
  5
D9
330
D6
100
AcDbEntity
 67
     1
  8
0
100
AcDbBlockEnd
  0
BLOCK
  5
85C0
330
85BF
100
AcDbEntity
  8
0
100
AcDbBlockBegin
  2
WSD-Front
 70
     0
 10
0.0
 20
0.0
 30
0.0
  3
WSD-Front
  1

  0
ARC
  5
85C2
330
85BF
100
AcDbEntity
  8
0
100
AcDbCircle
 10
-0.0000000000000355
 20
-137.0
 30
0.0
 40
2.0
100
AcDbArc
 50
0.0
 51
180.0
  0
LINE
  5
85C3
330
85BF
100
AcDbEntity
  8
0
100
AcDbLine
 10
21.15356944097191
 20
-137.0
 30
0.0
 11
1.999999999999964
 21
-137.0
 31
0.0
  0
LINE
  5
85C4
330
85BF
100
AcDbEntity
  8
0
100
AcDbLine
 10
71.49999999999998
 20
-137.0
 30
0.0
 11
45.62496636459761
 21
-137.0
 31
0.0
  0
ARC
  5
85C5
330
85BF
100
AcDbEntity
  8
0
100
AcDbCircle
 10
71.50000000000003
 20
-99.00000000000005
 30
0.0
 40
38.00000000000001
100
AcDbArc
 50
269.9999999999999
 51
347.0552470751544
  0
LINE
  5
85C6
330
85BF
100
AcDbEntity
  8
0
100
AcDbLine
 10
127.5
 20
-25.00000000000002
 30
0.0
 11
108.534287735118
 21
-107.5124339617109
 31
0.0
  0
LINE
  5
85C7
330
85BF
100
AcDbEntity
  8
0
100
AcDbLine
 10
127.5
 20
-2.500000000000026
 30
0.0
 11
127.5
 21
-25.00000000000002
 31
0.0
  0
LINE
  5
85C8
330
85BF
100
AcDbEntity
  8
0
100
AcDbLine
 10
-127.5
 20
-24.99999999999995
 30
0.0
 11
-127.5
 21
-2.499999999999951
 31
0.0
  0
LINE
  5
85C9
330
85BF
100
AcDbEntity
  8
0
100
AcDbLine
 10
-108.534287735118
 20
-107.5124339617109
 30
0.0
 11
-127.5
 21
-24.99999999999995
 31
0.0
  0
ARC
  5
85CA
330
85BF
100
AcDbEntity
  8
0
100
AcDbCircle
 10
-71.50000000000005
 20
-99.0
 30
0.0
 40
38.0
100
AcDbArc
 50
192.9447529248456
 51
270.0
  0
LINE
  5
85CB
330
85BF
100
AcDbEntity
  8
0
100
AcDbLine
 10
-45.62496636459768
 20
-137.0
 30
0.0
 11
-71.50000000000004
 21
-137.0
 31
0.0
  0
LINE
  5
85CC
330
85BF
100
AcDbEntity
  8
0
100
AcDbLine
 10
-2.000000000000035
 20
-137.0
 30
0.0
 11
-21.15356944097198
 21
-137.0
 31
0.0
  0
ARC
  5
85CD
330
85BF
100
AcDbEntity
  8
0
100
AcDbCircle
 10
21.15356944097191
 20
-136.0
 30
0.0
 40
1.0
100
AcDbArc
 50
270.0
 51
312.0726011616213
  0
LINE
  5
85CE
330
85BF
100
AcDbEntity
  8
0
100
AcDbLine
 10
21.82364117048595
 20
-136.7422963540972
 30
0.0
 11
37.53714017048594
 21
-122.5577036459028
 31
0.0
  0
ARC
  5
85CF
330
85BF
100
AcDbEntity
  8
0
100
AcDbCircle
 10
38.20721189999997
 20
-123.3
 30
0.0
 40
1.000000000000015
100
AcDbArc
 50
22.47260116162154
 51
132.0726011616219
  0
LINE
  5
85D0
330
85BF
100
AcDbEntity
  8
0
100
AcDbLine
 10
39.13127432606487
 20
-122.917758410511
 30
0.0
 11
44.70090393853269
 21
-136.382241589489
 31
0.0
  0
ARC
  5
85D1
330
85BF
100
AcDbEntity
  8
0
100
AcDbCircle
 10
45.62496636459761
 20
-136.0
 30
0.0
 40
1.0
100
AcDbArc
 50
202.4726011616219
 51
270.0000000000005
  0
ARC
  5
85D2
330
85BF
100
AcDbEntity
  8
0
100
AcDbCircle
 10
-45.62496636459768
 20
-136.0
 30
0.0
 40
1.0
100
AcDbArc
 50
270.0
 51
337.527398838378
  0
LINE
  5
85D3
330
85BF
100
AcDbEntity
  8
0
100
AcDbLine
 10
-44.70090393853276
 20
-136.382241589489
 30
0.0
 11
-39.13127432606494
 21
-122.917758410511
 31
0.0
  0
ARC
  5
85D4
330
85BF
100
AcDbEntity
  8
0
100
AcDbCircle
 10
-38.20721190000004
 20
-123.3
 30
0.0
 40
1.000000000000015
100
AcDbArc
 50
47.92739883837827
 51
157.5273988383784
  0
LINE
  5
85D5
330
85BF
100
AcDbEntity
  8
0
100
AcDbLine
 10
-37.53714017048601
 20
-122.5577036459028
 30
0.0
 11
-21.82364117048602
 21
-136.7422963540972
 31
0.0
  0
ARC
  5
85D6
330
85BF
100
AcDbEntity
  8
0
100
AcDbCircle
 10
-21.15356944097198
 20
-136.0
 30
0.0
 40
1.0
100
AcDbArc
 50
227.927398838379
 51
270.0000000000002
  0
CIRCLE
  5
85D7
330
85BF
100
AcDbEntity
  8
0
100
AcDbCircle
 10
-71.50000000000005
 20
-99.0
 30
0.0
 40
2.75
  0
CIRCLE
  5
85D8
330
85BF
100
AcDbEntity
  8
0
100
AcDbCircle
 10
71.50000000000003
 20
-99.00000000000005
 30
0.0
 40
2.75
  0
CIRCLE
  5
85D9
330
85BF
100
AcDbEntity
  8
0
100
AcDbCircle
 10
0.0000000000000089
 20
-99.00000000000005
 30
0.0
 40
2.75
  0
CIRCLE
  5
85DA
330
85BF
100
AcDbEntity
  8
0
100
AcDbCircle
 10
-117.5
 20
-22.49999999999995
 30
0.0
 40
2.5
  0
CIRCLE
  5
85DB
330
85BF
100
AcDbEntity
  8
0
100
AcDbCircle
 10
-88.00000000000004
 20
-17.49999999999996
 30
0.0
 40
2.5
  0
CIRCLE
  5
85DC
330
85BF
100
AcDbEntity
  8
0
100
AcDbCircle
 10
-58.50000000000002
 20
-22.49999999999995
 30
0.0
 40
2.5
  0
CIRCLE
  5
85DD
330
85BF
100
AcDbEntity
  8
0
100
AcDbCircle
 10
-29.0
 20
-17.49999999999996
 30
0.0
 40
2.5
  0
CIRCLE
  5
85DE
330
85BF
100
AcDbEntity
  8
0
100
AcDbCircle
 10
58.50000000000004
 20
-22.49999999999995
 30
0.0
 40
2.5
  0
CIRCLE
  5
85DF
330
85BF
100
AcDbEntity
  8
0
100
AcDbCircle
 10
88.00000000000004
 20
-17.49999999999996
 30
0.0
 40
2.5
  0
CIRCLE
  5
85E0
330
85BF
100
AcDbEntity
  8
0
100
AcDbCircle
 10
117.5
 20
-22.49999999999995
 30
0.0
 40
2.5
  0
CIRCLE
  5
85E1
330
85BF
100
AcDbEntity
  8
0
100
AcDbCircle
 10
29.00000000000002
 20
-17.49999999999996
 30
0.0
 40
2.5
  0
CIRCLE
  5
85E2
330
85BF
100
AcDbEntity
  8
0
100
AcDbCircle
 10
0.0000000000000089
 20
-22.49999999999995
 30
0.0
 40
2.5
  0
ARC
  5
85E3
330
85BF
100
AcDbEntity
  8
0
100
AcDbCircle
 10
0.0000000000000089
 20
-99.00000000000005
 30
0.0
 40
19.6
100
AcDbArc
 50
221.0129960085666
 51
318.9870039914333
  0
ARC
  5
85E4
330
85BF
100
AcDbEntity
  8
0
100
AcDbCircle
 10
16.86443279471138
 20
-113.6667449187835
 30
0.0
 40
2.75
100
AcDbArc
 50
318.9870039914333
 51
138.9870039914334
  0
ARC
  5
85E5
330
85BF
100
AcDbEntity
  8
0
100
AcDbCircle
 10
0.0000000000000089
 20
-99.00000000000005
 30
0.0
 40
25.1
100
AcDbArc
 50
221.0129960085667
 51
318.9870039914333
  0
ARC
  5
85E6
330
85BF
100
AcDbEntity
  8
0
100
AcDbCircle
 10
-16.86443279471137
 20
-113.6667449187835
 30
0.0
 40
2.75
100
AcDbArc
 50
41.01299600856669
 51
221.0129960085666
  0
ARC
  5
85E7
330
85BF
100
AcDbEntity
  8
0
100
AcDbCircle
 10
71.50000000000007
 20
-99.0
 30
0.0
 40
25.1
100
AcDbArc
 50
86.01299600856682
 51
183.9870039914331
  0
ARC
  5
85E8
330
85BF
100
AcDbEntity
  8
0
100
AcDbCircle
 10
73.05400000000009
 20
-76.70409041998958
 30
0.0
 40
2.75
100
AcDbArc
 50
266.0129960085667
 51
86.01299600856675
  0
ARC
  5
85E9
330
85BF
100
AcDbEntity
  8
0
100
AcDbCircle
 10
71.50000000000007
 20
-99.0
 30
0.0
 40
19.6
100
AcDbArc
 50
86.01299600856682
 51
183.987003991433
  0
ARC
  5
85EA
330
85BF
100
AcDbEntity
  8
0
100
AcDbCircle
 10
49.20409041998966
 20
-100.554
 30
0.0
 40
2.75
100
AcDbArc
 50
183.9870039914329
 51
3.987003991433003
  0
ARC
  5
85EB
330
85BF
100
AcDbEntity
  8
0
100
AcDbCircle
 10
-71.50000000000005
 20
-99.0
 30
0.0
 40
25.1
100
AcDbArc
 50
176.0129960085669
 51
273.9870039914332
  0
ARC
  5
85EC
330
85BF
100
AcDbEntity
  8
0
100
AcDbCircle
 10
-93.79590958001049
 20
-97.446
 30
0.0
 40
2.75
100
AcDbArc
 50
356.012996008567
 51
176.0129960085671
  0
ARC
  5
85ED
330
85BF
100
AcDbEntity
  8
0
100
AcDbCircle
 10
-71.50000000000005
 20
-99.0
 30
0.0
 40
19.6
100
AcDbArc
 50
176.0129960085669
 51
273.9870039914332
  0
ARC
  5
85EE
330
85BF
100
AcDbEntity
  8
0
100
AcDbCircle
 10
-69.94600000000005
 20
-121.2959095800104
 30
0.0
 40
2.75
100
AcDbArc
 50
273.987003991433
 51
93.98700399143285
  0
ARC
  5
85EF
330
85BF
100
AcDbEntity
  8
0
100
AcDbCircle
 10
0.0000000000000089
 20
-99.00000000000005
 30
0.0
 40
19.6
100
AcDbArc
 50
41.01299600856688
 51
138.9870039914332
  0
ARC
  5
85F0
330
85BF
100
AcDbEntity
  8
0
100
AcDbCircle
 10
-16.86443279471137
 20
-84.33325508121646
 30
0.0
 40
2.75
100
AcDbArc
 50
138.9870039914333
 51
318.9870039914333
  0
ARC
  5
85F1
330
85BF
100
AcDbEntity
  8
0
100
AcDbCircle
 10
0.0000000000000089
 20
-99.00000000000005
 30
0.0
 40
25.10000000000001
100
AcDbArc
 50
41.01299600856683
 51
138.9870039914332
  0
ARC
  5
85F2
330
85BF
100
AcDbEntity
  8
0
100
AcDbCircle
 10
16.86443279471138
 20
-84.33325508121646
 30
0.0
 40
2.75
100
AcDbArc
 50
221.0129960085666
 51
41.01299600856667
  0
ARC
  5
85F3
330
85BF
100
AcDbEntity
  8
0
100
AcDbCircle
 10
-71.50000000000005
 20
-99.0
 30
0.0
 40
19.6
100
AcDbArc
 50
356.0129960085669
 51
93.98700399143317
  0
ARC
  5
85F4
330
85BF
100
AcDbEntity
  8
0
100
AcDbCircle
 10
-73.05400000000007
 20
-76.70409041998958
 30
0.0
 40
2.75
100
AcDbArc
 50
93.9870039914332
 51
273.9870039914332
  0
ARC
  5
85F5
330
85BF
100
AcDbEntity
  8
0
100
AcDbCircle
 10
-71.50000000000005
 20
-99.0
 30
0.0
 40
25.1
100
AcDbArc
 50
356.0129960085669
 51
93.98700399143324
  0
ARC
  5
85F6
330
85BF
100
AcDbEntity
  8
0
100
AcDbCircle
 10
-49.20409041998965
 20
-100.554
 30
0.0
 40
2.75
100
AcDbArc
 50
176.012996008567
 51
356.012996008567
  0
ARC
  5
85F7
330
85BF
100
AcDbEntity
  8
0
100
AcDbCircle
 10
69.94600000000007
 20
-121.2959095800104
 30
0.0
 40
2.75
100
AcDbArc
 50
86.01299600856718
 51
266.012996008567
  0
ARC
  5
85F8
330
85BF
100
AcDbEntity
  8
0
100
AcDbCircle
 10
71.50000000000007
 20
-99.0
 30
0.0
 40
19.6
100
AcDbArc
 50
266.0129960085668
 51
3.987003991433084
  0
ARC
  5
85F9
330
85BF
100
AcDbEntity
  8
0
100
AcDbCircle
 10
93.79590958001049
 20
-97.446
 30
0.0
 40
2.75
100
AcDbArc
 50
3.98700399143298
 51
183.9870039914329
  0
ARC
  5
85FA
330
85BF
100
AcDbEntity
  8
0
100
AcDbCircle
 10
71.50000000000007
 20
-99.0
 30
0.0
 40
25.1
100
AcDbArc
 50
266.0129960085669
 51
3.987003991433084
  0
ARC
  5
85FB
330
85BF
100
AcDbEntity
  8
0
100
AcDbCircle
 10
44.00000000000004
 20
-46.50000000000004
 30
0.0
 40
2.5
100
AcDbArc
 50
23.57817847820308
 51
156.4218215217967
  0
ARC
  5
85FC
330
85BF
100
AcDbEntity
  8
0
100
AcDbCircle
 10
97.50000000000003
 20
-46.50000000000004
 30
0.0
 40
2.5
100
AcDbArc
 50
23.57817847820327
 51
156.4218215217967
  0
SPLINE
  5
85FD
330
85BF
100
AcDbEntity
  8
0
100
AcDbSpline
210
0.0
220
0.0
230
1.0
 70
     8
 71
     3
 72
    12
 73
     8
 74
     0
 42
0.000000001
 43
0.0000000001
 40
1.162904811066612
 40
1.162904811066612
 40
1.162904811066612
 40
1.162904811066612
 40
1.169499356665264
 40
1.169499356665264
 40
1.26365146963673
 40
1.26365146963673
 40
1.363907443907271
 40
1.363907443907271
 40
1.363907443907271
 40
1.363907443907271
 10
46.29128784747794
 20
-45.49999999999999
 30
0.0
 10
46.30053096419588
 20
-45.52117864100863
 30
0.0
 10
46.30947894157432
 20
-45.54248221368538
 30
0.0
 10
46.44158176819769
 20
-45.86961549607639
 30
0.0
 10
46.50000000000004
 20
-46.19924210738656
 30
0.0
 10
46.50000000000004
 20
-46.82025596231348
 30
0.0
 10
46.4354812852278
 20
-47.14066586803205
 30
0.0
 10
46.32353211184152
 20
-47.4226042083372
 30
0.0
  0
SPLINE
  5
85FE
330
85BF
100
AcDbEntity
  8
0
100
AcDbSpline
210
0.0
220
0.0
230
1.0
 70
     8
 71
     3
 72
    12
 73
     8
 74
     0
 42
0.000000001
 43
0.0000000001
 40
0.3992286803382554
 40
0.3992286803382554
 40
0.3992286803382554
 40
0.3992286803382554
 40
0.4994846546087967
 40
0.4994846546087967
 40
0.5936367675802627
 40
0.5936367675802627
 40
0.6002313131789143
 40
0.6002313131789143
 40
0.6002313131789143
 40
0.6002313131789143
 10
41.67646788815854
 20
-47.4226042083372
 30
0.0
 10
41.56451871477227
 20
-47.14066586803207
 30
0.0
 10
41.50000000000004
 20
-46.82025596231348
 30
0.0
 10
41.50000000000004
 20
-46.19924210738656
 30
0.0
 10
41.55841823180238
 20
-45.86961549607638
 30
0.0
 10
41.69052105842576
 20
-45.54248221368538
 30
0.0
 10
41.6994690358042
 20
-45.52117864100861
 30
0.0
 10
41.70871215252214
 20
-45.49999999999998
 30
0.0
  0
ARC
  5
85FF
330
85BF
100
AcDbEntity
  8
0
100
AcDbCircle
 10
44.00000000000004
 20
-46.50000000000004
 30
0.0
 40
2.5
100
AcDbArc
 50
201.6565275525086
 51
338.3434724474914
  0
SPLINE
  5
8600
330
85BF
100
AcDbEntity
  8
0
100
AcDbSpline
210
0.0
220
0.0
230
1.0
 70
     8
 71
     3
 72
    12
 73
     8
 74
     0
 42
0.000000001
 43
0.0000000001
 40
1.162904811066609
 40
1.162904811066609
 40
1.162904811066609
 40
1.162904811066609
 40
1.169499356665265
 40
1.169499356665265
 40
1.26365146963673
 40
1.26365146963673
 40
1.363907443907271
 40
1.363907443907271
 40
1.363907443907271
 40
1.363907443907271
 10
99.79128784747793
 20
-45.49999999999998
 30
0.0
 10
99.80053096419588
 20
-45.52117864100863
 30
0.0
 10
99.80947894157431
 20
-45.54248221368538
 30
0.0
 10
99.9415817681977
 20
-45.86961549607639
 30
0.0
 10
100.0
 20
-46.19924210738656
 30
0.0
 10
100.0
 20
-46.82025596231347
 30
0.0
 10
99.93548128522782
 20
-47.14066586803205
 30
0.0
 10
99.82353211184154
 20
-47.4226042083372
 30
0.0
  0
SPLINE
  5
8601
330
85BF
100
AcDbEntity
  8
0
100
AcDbSpline
210
0.0
220
0.0
230
1.0
 70
     8
 71
     3
 72
    12
 73
     8
 74
     0
 42
0.000000001
 43
0.0000000001
 40
0.3992286803382574
 40
0.3992286803382574
 40
0.3992286803382574
 40
0.3992286803382574
 40
0.4994846546087969
 40
0.4994846546087969
 40
0.5936367675802626
 40
0.5936367675802626
 40
0.6002313131789174
 40
0.6002313131789174
 40
0.6002313131789174
 40
0.6002313131789174
 10
95.17646788815856
 20
-47.4226042083372
 30
0.0
 10
95.06451871477228
 20
-47.14066586803206
 30
0.0
 10
95.00000000000003
 20
-46.82025596231347
 30
0.0
 10
95.0
 20
-46.19924210738656
 30
0.0
 10
95.05841823180237
 20
-45.86961549607639
 30
0.0
 10
95.19052105842575
 20
-45.54248221368538
 30
0.0
 10
95.19946903580422
 20
-45.52117864100863
 30
0.0
 10
95.20871215252213
 20
-45.49999999999998
 30
0.0
  0
ARC
  5
8602
330
85BF
100
AcDbEntity
  8
0
100
AcDbCircle
 10
97.50000000000003
 20
-46.50000000000004
 30
0.0
 40
2.5
100
AcDbArc
 50
201.6565275525086
 51
338.3434724474914
  0
ARC
  5
8603
330
85BF
100
AcDbEntity
  8
0
100
AcDbCircle
 10
-44.00000000000002
 20
-46.50000000000004
 30
0.0
 40
2.5
100
AcDbArc
 50
23.57817847820308
 51
156.4218215217969
  0
ARC
  5
8604
330
85BF
100
AcDbEntity
  8
0
100
AcDbCircle
 10
-97.50000000000003
 20
-46.50000000000004
 30
0.0
 40
2.5
100
AcDbArc
 50
23.57817847820327
 51
156.4218215217967
  0
SPLINE
  5
8605
330
85BF
100
AcDbEntity
  8
0
100
AcDbSpline
210
0.0
220
0.0
230
1.0
 70
     8
 71
     3
 72
    12
 73
     8
 74
     0
 42
0.000000001
 43
0.0000000001
 40
1.162904811066612
 40
1.162904811066612
 40
1.162904811066612
 40
1.162904811066612
 40
1.169499356665264
 40
1.169499356665264
 40
1.26365146963673
 40
1.26365146963673
 40
1.363907443907271
 40
1.363907443907271
 40
1.363907443907271
 40
1.363907443907271
 10
-46.29128784747792
 20
-45.49999999999999
 30
0.0
 10
-46.30053096419586
 20
-45.52117864100863
 30
0.0
 10
-46.3094789415743
 20
-45.54248221368538
 30
0.0
 10
-46.44158176819767
 20
-45.86961549607639
 30
0.0
 10
-46.50000000000003
 20
-46.19924210738656
 30
0.0
 10
-46.50000000000002
 20
-46.82025596231348
 30
0.0
 10
-46.43548128522779
 20
-47.14066586803205
 30
0.0
 10
-46.32353211184152
 20
-47.4226042083372
 30
0.0
  0
ARC
  5
8606
330
85BF
100
AcDbEntity
  8
0
100
AcDbCircle
 10
-44.00000000000002
 20
-46.50000000000004
 30
0.0
 40
2.5
100
AcDbArc
 50
201.6565275525086
 51
338.3434724474914
  0
SPLINE
  5
8607
330
85BF
100
AcDbEntity
  8
0
100
AcDbSpline
210
0.0
220
0.0
230
1.0
 70
     8
 71
     3
 72
    12
 73
     8
 74
     0
 42
0.000000001
 43
0.0000000001
 40
0.3992286803382554
 40
0.3992286803382554
 40
0.3992286803382554
 40
0.3992286803382554
 40
0.4994846546087967
 40
0.4994846546087967
 40
0.5936367675802627
 40
0.5936367675802627
 40
0.6002313131789143
 40
0.6002313131789143
 40
0.6002313131789143
 40
0.6002313131789143
 10
-41.67646788815853
 20
-47.4226042083372
 30
0.0
 10
-41.56451871477226
 20
-47.14066586803207
 30
0.0
 10
-41.50000000000002
 20
-46.82025596231348
 30
0.0
 10
-41.50000000000002
 20
-46.19924210738656
 30
0.0
 10
-41.55841823180236
 20
-45.86961549607638
 30
0.0
 10
-41.69052105842574
 20
-45.54248221368538
 30
0.0
 10
-41.69946903580418
 20
-45.52117864100861
 30
0.0
 10
-41.70871215252212
 20
-45.49999999999998
 30
0.0
  0
SPLINE
  5
8608
330
85BF
100
AcDbEntity
  8
0
100
AcDbSpline
210
0.0
220
0.0
230
1.0
 70
     8
 71
     3
 72
    12
 73
     8
 74
     0
 42
0.000000001
 43
0.0000000001
 40
1.162904811066609
 40
1.162904811066609
 40
1.162904811066609
 40
1.162904811066609
 40
1.169499356665265
 40
1.169499356665265
 40
1.26365146963673
 40
1.26365146963673
 40
1.363907443907271
 40
1.363907443907271
 40
1.363907443907271
 40
1.363907443907271
 10
-99.79128784747793
 20
-45.49999999999998
 30
0.0
 10
-99.80053096419588
 20
-45.52117864100863
 30
0.0
 10
-99.80947894157431
 20
-45.54248221368538
 30
0.0
 10
-99.9415817681977
 20
-45.86961549607639
 30
0.0
 10
-100.0
 20
-46.19924210738656
 30
0.0
 10
-100.0
 20
-46.82025596231347
 30
0.0
 10
-99.93548128522778
 20
-47.14066586803205
 30
0.0
 10
-99.8235321118415
 20
-47.4226042083372
 30
0.0
  0
ARC
  5
8609
330
85BF
100
AcDbEntity
  8
0
100
AcDbCircle
 10
-97.50000000000003
 20
-46.50000000000004
 30
0.0
 40
2.5
100
AcDbArc
 50
201.6565275525086
 51
338.3434724474914
  0
SPLINE
  5
860A
330
85BF
100
AcDbEntity
  8
0
100
AcDbSpline
210
0.0
220
0.0
230
1.0
 70
     8
 71
     3
 72
    12
 73
     8
 74
     0
 42
0.000000001
 43
0.0000000001
 40
0.3992286803382574
 40
0.3992286803382574
 40
0.3992286803382574
 40
0.3992286803382574
 40
0.4994846546087969
 40
0.4994846546087969
 40
0.5936367675802626
 40
0.5936367675802626
 40
0.6002313131789174
 40
0.6002313131789174
 40
0.6002313131789174
 40
0.6002313131789174
 10
-95.17646788815852
 20
-47.4226042083372
 30
0.0
 10
-95.06451871477224
 20
-47.14066586803206
 30
0.0
 10
-95.0
 20
-46.82025596231347
 30
0.0
 10
-95.0
 20
-46.19924210738656
 30
0.0
 10
-95.05841823180237
 20
-45.86961549607639
 30
0.0
 10
-95.19052105842575
 20
-45.54248221368538
 30
0.0
 10
-95.19946903580418
 20
-45.52117864100863
 30
0.0
 10
-95.20871215252213
 20
-45.49999999999998
 30
0.0
  0
LINE
  5
860B
330
85BF
100
AcDbEntity
  8
0
100
AcDbLine
 10
-127.5
 20
2.500000000000051
 30
0.0
 11
127.5
 21
2.499999999999976
 31
0.0
  0
LINE
  5
860C
330
85BF
100
AcDbEntity
  8
0
100
AcDbLine
 10
127.5
 20
2.499999999999975
 30
0.0
 11
127.5
 21
-2.500000000000026
 31
0.0
  0
LINE
  5
860D
330
85BF
100
AcDbEntity
  8
0
100
AcDbLine
 10
-127.5
 20
2.500000000000051
 30
0.0
 11
-127.5
 21
-2.499999999999948
 31
0.0
  0
ENDBLK
  5
85C1
330
85BF
100
AcDbEntity
  8
0
100
AcDbBlockEnd
  0
BLOCK
  5
860F
330
860E
100
AcDbEntity
  8
0
100
AcDbBlockBegin
  2
WSD-Left
 70
     0
 10
0.0
 20
0.0
 30
0.0
  3
WSD-Left
  1

  0
LINE
  5
8611
330
860E
100
AcDbEntity
  8
0
100
AcDbLine
 10
-65.0
 20
0.0
 30
0.0
 11
-2.5
 21
0.0
 31
0.0
  0
LINE
  5
8612
330
860E
100
AcDbEntity
  8
0
100
AcDbLine
 10
-2.5
 20
2.500000000000051
 30
0.0
 11
-65.0
 21
2.500000000000055
 31
0.0
  0
LINE
  5
8613
330
860E
100
AcDbEntity
  8
0
100
AcDbLine
 10
-65.0
 20
2.500000000000055
 30
0.0
 11
-65.0
 21
0.0
 31
0.0
  0
LINE
  5
8614
330
860E
100
AcDbEntity
  8
0
100
AcDbLine
 10
2.5
 20
-24.99999999999995
 30
0.0
 11
2.5
 21
-2.499999999999951
 31
0.0
  0
LINE
  5
8615
330
860E
100
AcDbEntity
  8
0
100
AcDbLine
 10
2.5
 20
-107.5124339617109
 30
0.0
 11
2.5
 21
-24.99999999999995
 31
0.0
  0
LINE
  5
8616
330
860E
100
AcDbEntity
  8
0
100
AcDbLine
 10
2.5
 20
-107.5124339617109
 30
0.0
 11
2.5
 21
-137.0
 31
0.0
  0
LINE
  5
8617
330
860E
100
AcDbEntity
  8
0
100
AcDbLine
 10
0.0
 20
-24.99999999999995
 30
0.0
 11
0.0
 21
-2.499999999999951
 31
0.0
  0
LINE
  5
8618
330
860E
100
AcDbEntity
  8
0
100
AcDbLine
 10
0.0
 20
-24.99999999999995
 30
0.0
 11
2.5
 21
-24.99999999999995
 31
0.0
  0
LINE
  5
8619
330
860E
100
AcDbEntity
  8
0
100
AcDbLine
 10
0.0
 20
-107.5124339617109
 30
0.0
 11
0.0
 21
-137.0
 31
0.0
  0
LINE
  5
861A
330
860E
100
AcDbEntity
  8
0
100
AcDbLine
 10
0.0
 20
-107.5124339617109
 30
0.0
 11
0.0
 21
-24.99999999999995
 31
0.0
  0
LINE
  5
861B
330
860E
100
AcDbEntity
  8
0
100
AcDbLine
 10
0.0
 20
-137.0
 30
0.0
 11
2.5
 21
-137.0
 31
0.0
  0
ARC
  5
861C
330
860E
100
AcDbEntity
  8
0
100
AcDbCircle
 10
-2.5
 20
-2.499999999999948
 30
0.0
 40
2.5
100
AcDbArc
 50
0.0
 51
90.00000000000003
  0
ARC
  5
861D
330
860E
100
AcDbEntity
  8
0
100
AcDbCircle
 10
-2.5
 20
-2.499999999999948
 30
0.0
 40
5.0
100
AcDbArc
 50
0.0
 51
90.0
  0
LINE
  5
861E
330
860E
100
AcDbEntity
  8
0
100
AcDbLine
 10
-1.924652638875944
 20
-48.57739579166277
 30
0.0
 11
-0.0821924801605792
 21
-45.77465774404814
 31
0.0
  0
ARC
  5
861F
330
860E
100
AcDbEntity
  8
0
100
AcDbCircle
 10
-0.5
 20
-45.49999999999997
 30
0.0
 40
0.5000000000000001
100
AcDbArc
 50
326.679934741529
 51
0.0
  0
ARC
  5
8620
330
860E
100
AcDbEntity
  8
0
100
AcDbCircle
 10
1.0
 20
-50.49999999999997
 30
0.0
 40
3.5
100
AcDbArc
 50
146.6799347415285
 51
213.3200652584713
  0
LINE
  5
8621
330
860E
100
AcDbEntity
  8
0
100
AcDbLine
 10
-0.0821924801605789
 20
-55.22534225595176
 30
0.0
 11
-1.924652638875944
 21
-52.42260420833715
 31
0.0
  0
ARC
  5
8622
330
860E
100
AcDbEntity
  8
0
100
AcDbCircle
 10
-0.5
 20
-55.49999999999994
 30
0.0
 40
0.5
100
AcDbArc
 50
0.0
 51
33.32006525847106
  0
ENDBLK
  5
8610
330
860E
100
AcDbEntity
  8
0
100
AcDbBlockEnd
  0
BLOCK
  5
8624
330
8623
100
AcDbEntity
  8
0
100
AcDbBlockBegin
  2
WSD-Right
 70
     0
 10
0.0
 20
0.0
 30
0.0
  3
WSD-Right
  1

  0
LINE
  5
8626
330
8623
100
AcDbEntity
  8
0
100
AcDbLine
 10
2.5
 20
0.0
 30
0.0
 11
65.0
 21
0.0
 31
0.0
  0
LINE
  5
8627
330
8623
100
AcDbEntity
  8
0
100
AcDbLine
 10
65.0
 20
2.49999999999998
 30
0.0
 11
65.0
 21
0.0
 31
0.0
  0
LINE
  5
8628
330
8623
100
AcDbEntity
  8
0
100
AcDbLine
 10
2.5
 20
2.499999999999976
 30
0.0
 11
65.0
 21
2.49999999999998
 31
0.0
  0
LINE
  5
8629
330
8623
100
AcDbEntity
  8
0
100
AcDbLine
 10
-2.5
 20
-137.0
 30
0.0
 11
-2.5
 21
-107.5124339617109
 31
0.0
  0
LINE
  5
862A
330
8623
100
AcDbEntity
  8
0
100
AcDbLine
 10
-2.5
 20
-25.00000000000002
 30
0.0
 11
-2.5
 21
-107.5124339617109
 31
0.0
  0
LINE
  5
862B
330
8623
100
AcDbEntity
  8
0
100
AcDbLine
 10
-2.5
 20
-2.500000000000026
 30
0.0
 11
-2.5
 21
-25.00000000000002
 31
0.0
  0
LINE
  5
862C
330
8623
100
AcDbEntity
  8
0
100
AcDbLine
 10
0.0
 20
-2.500000000000026
 30
0.0
 11
0.0
 21
-25.00000000000002
 31
0.0
  0
LINE
  5
862D
330
8623
100
AcDbEntity
  8
0
100
AcDbLine
 10
0.0
 20
-25.00000000000002
 30
0.0
 11
0.0
 21
-107.5124339617109
 31
0.0
  0
LINE
  5
862E
330
8623
100
AcDbEntity
  8
0
100
AcDbLine
 10
0.0
 20
-137.0
 30
0.0
 11
0.0
 21
-107.5124339617109
 31
0.0
  0
LINE
  5
862F
330
8623
100
AcDbEntity
  8
0
100
AcDbLine
 10
0.0
 20
-137.0
 30
0.0
 11
-2.5
 21
-137.0
 31
0.0
  0
LINE
  5
8630
330
8623
100
AcDbEntity
  8
0
100
AcDbLine
 10
0.0
 20
-25.00000000000002
 30
0.0
 11
-2.5
 21
-25.00000000000002
 31
0.0
  0
ARC
  5
8631
330
8623
100
AcDbEntity
  8
0
100
AcDbCircle
 10
2.5
 20
-2.500000000000026
 30
0.0
 40
2.500000000000003
100
AcDbArc
 50
90.0
 51
180.0
  0
ARC
  5
8632
330
8623
100
AcDbEntity
  8
0
100
AcDbCircle
 10
2.5
 20
-2.500000000000026
 30
0.0
 40
5.000000000000001
100
AcDbArc
 50
90.0
 51
180.0
  0
ARC
  5
8633
330
8623
100
AcDbEntity
  8
0
100
AcDbCircle
 10
0.5
 20
-45.49999999999997
 30
0.0
 40
0.5000000000000001
100
AcDbArc
 50
180.0
 51
213.320065258471
  0
LINE
  5
8634
330
8623
100
AcDbEntity
  8
0
100
AcDbLine
 10
1.924652638875944
 20
-48.57739579166277
 30
0.0
 11
0.0821924801605792
 21
-45.77465774404814
 31
0.0
  0
ARC
  5
8635
330
8623
100
AcDbEntity
  8
0
100
AcDbCircle
 10
-1.0
 20
-50.49999999999997
 30
0.0
 40
3.5
100
AcDbArc
 50
326.6799347415286
 51
33.32006525847148
  0
LINE
  5
8636
330
8623
100
AcDbEntity
  8
0
100
AcDbLine
 10
0.0821924801605789
 20
-55.22534225595176
 30
0.0
 11
1.924652638875944
 21
-52.42260420833715
 31
0.0
  0
ARC
  5
8637
330
8623
100
AcDbEntity
  8
0
100
AcDbCircle
 10
0.5
 20
-55.49999999999994
 30
0.0
 40
0.5
100
AcDbArc
 50
146.6799347415289
 51
180.0
  0
ENDBLK
  5
8625
330
8623
100
AcDbEntity
  8
0
100
AcDbBlockEnd
  0
BLOCK
  5
8639
330
8638
100
AcDbEntity
  8
0
100
AcDbBlockBegin
  2
WSD-Top
 70
     0
 10
0.0
 20
0.0
 30
0.0
  3
WSD-Top
  1

  0
CIRCLE
  5
863B
330
8638
100
AcDbEntity
  8
0
100
AcDbCircle
 10
85.0
 20
39.0
 30
0.0
 40
5.5
  0
CIRCLE
  5
863C
330
8638
100
AcDbEntity
  8
0
100
AcDbCircle
 10
55.0
 20
20.0
 30
0.0
 40
2.5
  0
CIRCLE
  5
863D
330
8638
100
AcDbEntity
  8
0
100
AcDbCircle
 10
117.5
 20
57.5
 30
0.0
 40
2.5
  0
CIRCLE
  5
863E
330
8638
100
AcDbEntity
  8
0
100
AcDbCircle
 10
102.5
 20
42.5
 30
0.0
 40
2.5
  0
CIRCLE
  5
863F
330
8638
100
AcDbEntity
  8
0
100
AcDbCircle
 10
117.5
 20
27.5
 30
0.0
 40
2.5
  0
CIRCLE
  5
8640
330
8638
100
AcDbEntity
  8
0
100
AcDbCircle
 10
37.50000000000001
 20
57.5
 30
0.0
 40
2.5
  0
CIRCLE
  5
8641
330
8638
100
AcDbEntity
  8
0
100
AcDbCircle
 10
37.50000000000001
 20
35.0
 30
0.0
 40
2.5
  0
CIRCLE
  5
8642
330
8638
100
AcDbEntity
  8
0
100
AcDbCircle
 10
85.0
 20
18.0
 30
0.0
 40
6.5
  0
ARC
  5
8643
330
8638
100
AcDbEntity
  8
0
100
AcDbCircle
 10
0.0000000000000089
 20
65.0
 30
0.0
 40
2.0
100
AcDbArc
 50
180.0
 51
0.0
  0
LINE
  5
8644
330
8638
100
AcDbEntity
  8
0
100
AcDbLine
 10
127.5
 20
65.0
 30
0.0
 11
1.999999999999992
 21
65.0
 31
0.0
  0
LINE
  5
8645
330
8638
100
AcDbEntity
  8
0
100
AcDbLine
 10
-127.5
 20
2.5
 30
0.0
 11
-127.5
 21
65.0
 31
0.0
  0
LINE
  5
8646
330
8638
100
AcDbEntity
  8
0
100
AcDbLine
 10
-1.999999999999991
 20
65.0
 30
0.0
 11
-127.5
 21
65.0
 31
0.0
  0
LINE
  5
8647
330
8638
100
AcDbEntity
  8
0
100
AcDbLine
 10
127.5
 20
2.5
 30
0.0
 11
127.5
 21
65.0
 31
0.0
  0
CIRCLE
  5
8648
330
8638
100
AcDbEntity
  8
0
100
AcDbCircle
 10
0.0000000000000089
 20
27.5
 30
0.0
 40
2.5
  0
CIRCLE
  5
8649
330
8638
100
AcDbEntity
  8
0
100
AcDbCircle
 10
0.0000000000000089
 20
50.0
 30
0.0
 40
2.5
  0
CIRCLE
  5
864A
330
8638
100
AcDbEntity
  8
0
100
AcDbCircle
 10
-85.0
 20
18.0
 30
0.0
 40
6.5
  0
CIRCLE
  5
864B
330
8638
100
AcDbEntity
  8
0
100
AcDbCircle
 10
-85.0
 20
39.0
 30
0.0
 40
5.5
  0
CIRCLE
  5
864C
330
8638
100
AcDbEntity
  8
0
100
AcDbCircle
 10
-55.0
 20
20.0
 30
0.0
 40
2.5
  0
CIRCLE
  5
864D
330
8638
100
AcDbEntity
  8
0
100
AcDbCircle
 10
-37.5
 20
35.0
 30
0.0
 40
2.5
  0
CIRCLE
  5
864E
330
8638
100
AcDbEntity
  8
0
100
AcDbCircle
 10
-37.5
 20
57.5
 30
0.0
 40
2.5
  0
CIRCLE
  5
864F
330
8638
100
AcDbEntity
  8
0
100
AcDbCircle
 10
-117.5
 20
27.5
 30
0.0
 40
2.5
  0
CIRCLE
  5
8650
330
8638
100
AcDbEntity
  8
0
100
AcDbCircle
 10
-102.5
 20
42.5
 30
0.0
 40
2.5
  0
CIRCLE
  5
8651
330
8638
100
AcDbEntity
  8
0
100
AcDbCircle
 10
-117.5
 20
57.5
 30
0.0
 40
2.5
  0
LINE
  5
8652
330
8638
100
AcDbEntity
  8
0
100
AcDbLine
 10
127.5
 20
-2.5
 30
0.0
 11
-127.5
 21
-2.5
 31
0.0
  0
LINE
  5
8653
330
8638
100
AcDbEntity
  8
0
100
AcDbLine
 10
127.5
 20
2.5
 30
0.0
 11
127.5
 21
-2.500000000000001
 31
0.0
  0
LINE
  5
8654
330
8638
100
AcDbEntity
  8
0
100
AcDbLine
 10
-127.5
 20
2.5
 30
0.0
 11
-127.5
 21
-2.499999999999999
 31
0.0
  0
ENDBLK
  5
863A
330
8638
100
AcDbEntity
  8
0
100
AcDbBlockEnd
  0
BLOCK
  5
8656
330
8655
100
AcDbEntity
  8
0
100
AcDbBlockBegin
  2
WSD-Bottom
 70
     0
 10
0.0
 20
0.0
 30
0.0
  3
WSD-Bottom
  1

  0
CIRCLE
  5
8658
330
8655
100
AcDbEntity
  8
0
100
AcDbCircle
 10
85.0
 20
-39.0
 30
0.0
 40
5.5
  0
CIRCLE
  5
8659
330
8655
100
AcDbEntity
  8
0
100
AcDbCircle
 10
55.0
 20
-20.0
 30
0.0
 40
2.5
  0
CIRCLE
  5
865A
330
8655
100
AcDbEntity
  8
0
100
AcDbCircle
 10
117.5
 20
-57.5
 30
0.0
 40
2.5
  0
CIRCLE
  5
865B
330
8655
100
AcDbEntity
  8
0
100
AcDbCircle
 10
102.5
 20
-42.5
 30
0.0
 40
2.5
  0
CIRCLE
  5
865C
330
8655
100
AcDbEntity
  8
0
100
AcDbCircle
 10
117.5
 20
-27.5
 30
0.0
 40
2.5
  0
CIRCLE
  5
865D
330
8655
100
AcDbEntity
  8
0
100
AcDbCircle
 10
37.50000000000001
 20
-57.5
 30
0.0
 40
2.5
  0
CIRCLE
  5
865E
330
8655
100
AcDbEntity
  8
0
100
AcDbCircle
 10
37.50000000000001
 20
-35.0
 30
0.0
 40
2.5
  0
CIRCLE
  5
865F
330
8655
100
AcDbEntity
  8
0
100
AcDbCircle
 10
85.0
 20
-18.00000000000001
 30
0.0
 40
6.5
  0
ARC
  5
8660
330
8655
100
AcDbEntity
  8
0
100
AcDbCircle
 10
0.0000000000000081
 20
-65.0
 30
0.0
 40
2.0
100
AcDbArc
 50
0.0
 51
180.0
  0
LINE
  5
8661
330
8655
100
AcDbEntity
  8
0
100
AcDbLine
 10
127.5
 20
-65.0
 30
0.0
 11
1.999999999999992
 21
-65.0
 31
0.0
  0
LINE
  5
8662
330
8655
100
AcDbEntity
  8
0
100
AcDbLine
 10
127.5
 20
-2.5
 30
0.0
 11
127.5
 21
-65.0
 31
0.0
  0
LINE
  5
8663
330
8655
100
AcDbEntity
  8
0
100
AcDbLine
 10
-127.5
 20
-65.0
 30
0.0
 11
-127.5
 21
-2.5
 31
0.0
  0
LINE
  5
8664
330
8655
100
AcDbEntity
  8
0
100
AcDbLine
 10
-1.999999999999992
 20
-65.0
 30
0.0
 11
-127.5
 21
-65.0
 31
0.0
  0
CIRCLE
  5
8665
330
8655
100
AcDbEntity
  8
0
100
AcDbCircle
 10
-117.5
 20
-57.5
 30
0.0
 40
2.5
  0
CIRCLE
  5
8666
330
8655
100
AcDbEntity
  8
0
100
AcDbCircle
 10
-102.5
 20
-42.5
 30
0.0
 40
2.5
  0
CIRCLE
  5
8667
330
8655
100
AcDbEntity
  8
0
100
AcDbCircle
 10
-117.5
 20
-27.5
 30
0.0
 40
2.5
  0
CIRCLE
  5
8668
330
8655
100
AcDbEntity
  8
0
100
AcDbCircle
 10
-37.5
 20
-57.5
 30
0.0
 40
2.5
  0
CIRCLE
  5
8669
330
8655
100
AcDbEntity
  8
0
100
AcDbCircle
 10
-37.5
 20
-35.0
 30
0.0
 40
2.5
  0
CIRCLE
  5
866A
330
8655
100
AcDbEntity
  8
0
100
AcDbCircle
 10
-55.0
 20
-20.0
 30
0.0
 40
2.5
  0
CIRCLE
  5
866B
330
8655
100
AcDbEntity
  8
0
100
AcDbCircle
 10
-85.0
 20
-39.0
 30
0.0
 40
5.5
  0
CIRCLE
  5
866C
330
8655
100
AcDbEntity
  8
0
100
AcDbCircle
 10
-85.0
 20
-18.00000000000001
 30
0.0
 40
6.5
  0
CIRCLE
  5
866D
330
8655
100
AcDbEntity
  8
0
100
AcDbCircle
 10
0.0000000000000081
 20
-50.0
 30
0.0
 40
2.5
  0
CIRCLE
  5
866E
330
8655
100
AcDbEntity
  8
0
100
AcDbCircle
 10
0.0000000000000081
 20
-27.5
 30
0.0
 40
2.5
  0
LINE
  5
866F
330
8655
100
AcDbEntity
  8
0
100
AcDbLine
 10
-2.000000000000035
 20
0.0
 30
0.0
 11
-2.000000000000035
 21
2.5
 31
0.0
  0
LINE
  5
8670
330
8655
100
AcDbEntity
  8
0
100
AcDbLine
 10
1.999999999999964
 20
0.0
 30
0.0
 11
-2.000000000000035
 21
0.0
 31
0.0
  0
LINE
  5
8671
330
8655
100
AcDbEntity
  8
0
100
AcDbLine
 10
1.999999999999964
 20
2.5
 30
0.0
 11
1.999999999999964
 21
0.0
 31
0.0
  0
LINE
  5
8672
330
8655
100
AcDbEntity
  8
0
100
AcDbLine
 10
-2.000000000000035
 20
2.5
 30
0.0
 11
1.999999999999964
 21
2.5
 31
0.0
  0
LINE
  5
8673
330
8655
100
AcDbEntity
  8
0
100
AcDbLine
 10
21.15356944097191
 20
2.5
 30
0.0
 11
1.999999999999964
 21
2.5
 31
0.0
  0
LINE
  5
8674
330
8655
100
AcDbEntity
  8
0
100
AcDbLine
 10
71.49999999999998
 20
2.5
 30
0.0
 11
45.62496636459761
 21
2.5
 31
0.0
  0
LINE
  5
8675
330
8655
100
AcDbEntity
  8
0
100
AcDbLine
 10
71.49999999999998
 20
2.5
 30
0.0
 11
108.534287735118
 21
2.5
 31
0.0
  0
LINE
  5
8676
330
8655
100
AcDbEntity
  8
0
100
AcDbLine
 10
127.5
 20
2.5
 30
0.0
 11
108.534287735118
 21
2.5
 31
0.0
  0
LINE
  5
8677
330
8655
100
AcDbEntity
  8
0
100
AcDbLine
 10
-108.534287735118
 20
2.5
 30
0.0
 11
-127.5
 21
2.5
 31
0.0
  0
LINE
  5
8678
330
8655
100
AcDbEntity
  8
0
100
AcDbLine
 10
-108.534287735118
 20
2.5
 30
0.0
 11
-71.50000000000004
 21
2.5
 31
0.0
  0
LINE
  5
8679
330
8655
100
AcDbEntity
  8
0
100
AcDbLine
 10
-45.62496636459768
 20
2.5
 30
0.0
 11
-71.50000000000004
 21
2.5
 31
0.0
  0
LINE
  5
867A
330
8655
100
AcDbEntity
  8
0
100
AcDbLine
 10
-2.000000000000035
 20
2.5
 30
0.0
 11
-21.15356944097198
 21
2.5
 31
0.0
  0
LINE
  5
867B
330
8655
100
AcDbEntity
  8
0
100
AcDbLine
 10
21.15356944097191
 20
0.0
 30
0.0
 11
1.999999999999964
 21
0.0
 31
0.0
  0
LINE
  5
867C
330
8655
100
AcDbEntity
  8
0
100
AcDbLine
 10
-127.5
 20
0.0
 30
0.0
 11
-127.5
 21
2.5
 31
0.0
  0
LINE
  5
867D
330
8655
100
AcDbEntity
  8
0
100
AcDbLine
 10
-2.000000000000035
 20
0.0
 30
0.0
 11
-21.15356944097198
 21
0.0
 31
0.0
  0
LINE
  5
867E
330
8655
100
AcDbEntity
  8
0
100
AcDbLine
 10
-45.62496636459768
 20
0.0
 30
0.0
 11
-71.50000000000004
 21
0.0
 31
0.0
  0
LINE
  5
867F
330
8655
100
AcDbEntity
  8
0
100
AcDbLine
 10
-108.534287735118
 20
0.0
 30
0.0
 11
-71.50000000000004
 21
0.0
 31
0.0
  0
LINE
  5
8680
330
8655
100
AcDbEntity
  8
0
100
AcDbLine
 10
-108.534287735118
 20
0.0
 30
0.0
 11
-127.5
 21
0.0
 31
0.0
  0
LINE
  5
8681
330
8655
100
AcDbEntity
  8
0
100
AcDbLine
 10
127.5
 20
0.0
 30
0.0
 11
108.534287735118
 21
0.0
 31
0.0
  0
LINE
  5
8682
330
8655
100
AcDbEntity
  8
0
100
AcDbLine
 10
71.49999999999998
 20
0.0
 30
0.0
 11
108.534287735118
 21
0.0
 31
0.0
  0
LINE
  5
8683
330
8655
100
AcDbEntity
  8
0
100
AcDbLine
 10
71.49999999999998
 20
0.0
 30
0.0
 11
45.62496636459761
 21
0.0
 31
0.0
  0
LINE
  5
8684
330
8655
100
AcDbEntity
  8
0
100
AcDbLine
 10
127.5
 20
0.0
 30
0.0
 11
127.5
 21
2.5
 31
0.0
  0
LINE
  5
8685
330
8655
100
AcDbEntity
  8
0
100
AcDbLine
 10
21.82364117048595
 20
2.5
 30
0.0
 11
21.15356944097191
 21
2.5
 31
0.0
  0
LINE
  5
8686
330
8655
100
AcDbEntity
  8
0
100
AcDbLine
 10
21.82364117048595
 20
2.5
 30
0.0
 11
37.53714017048594
 21
2.5
 31
0.0
  0
LINE
  5
8687
330
8655
100
AcDbEntity
  8
0
100
AcDbLine
 10
37.53714017048592
 20
2.5
 30
0.0
 11
39.13127432606489
 21
2.5
 31
0.0
  0
LINE
  5
8688
330
8655
100
AcDbEntity
  8
0
100
AcDbLine
 10
39.13127432606487
 20
2.5
 30
0.0
 11
44.70090393853269
 21
2.5
 31
0.0
  0
LINE
  5
8689
330
8655
100
AcDbEntity
  8
0
100
AcDbLine
 10
45.62496636459761
 20
2.5
 30
0.0
 11
44.7009039385327
 21
2.5
 31
0.0
  0
LINE
  5
868A
330
8655
100
AcDbEntity
  8
0
100
AcDbLine
 10
-44.70090393853277
 20
2.5
 30
0.0
 11
-45.62496636459768
 21
2.5
 31
0.0
  0
LINE
  5
868B
330
8655
100
AcDbEntity
  8
0
100
AcDbLine
 10
-44.70090393853276
 20
2.5
 30
0.0
 11
-39.13127432606494
 21
2.5
 31
0.0
  0
LINE
  5
868C
330
8655
100
AcDbEntity
  8
0
100
AcDbLine
 10
-39.13127432606496
 20
2.5
 30
0.0
 11
-37.53714017048599
 21
2.5
 31
0.0
  0
LINE
  5
868D
330
8655
100
AcDbEntity
  8
0
100
AcDbLine
 10
-37.53714017048601
 20
2.5
 30
0.0
 11
-21.82364117048602
 21
2.5
 31
0.0
  0
LINE
  5
868E
330
8655
100
AcDbEntity
  8
0
100
AcDbLine
 10
-21.15356944097197
 20
2.5
 30
0.0
 11
-21.82364117048601
 21
2.5
 31
0.0
  0
LINE
  5
868F
330
8655
100
AcDbEntity
  8
0
100
AcDbLine
 10
-21.82364117048602
 20
0.0
 30
0.0
 11
-21.15356944097198
 21
0.0
 31
0.0
  0
LINE
  5
8690
330
8655
100
AcDbEntity
  8
0
100
AcDbLine
 10
-21.82364117048602
 20
0.0
 30
0.0
 11
-37.53714017048601
 21
0.0
 31
0.0
  0
LINE
  5
8691
330
8655
100
AcDbEntity
  8
0
100
AcDbLine
 10
-37.53714017048599
 20
0.0
 30
0.0
 11
-39.13127432606496
 21
0.0
 31
0.0
  0
LINE
  5
8692
330
8655
100
AcDbEntity
  8
0
100
AcDbLine
 10
-39.13127432606494
 20
0.0
 30
0.0
 11
-44.70090393853276
 21
0.0
 31
0.0
  0
LINE
  5
8693
330
8655
100
AcDbEntity
  8
0
100
AcDbLine
 10
-45.62496636459768
 20
0.0
 30
0.0
 11
-44.70090393853277
 21
0.0
 31
0.0
  0
LINE
  5
8694
330
8655
100
AcDbEntity
  8
0
100
AcDbLine
 10
44.7009039385327
 20
0.0
 30
0.0
 11
45.62496636459761
 21
0.0
 31
0.0
  0
LINE
  5
8695
330
8655
100
AcDbEntity
  8
0
100
AcDbLine
 10
44.70090393853269
 20
0.0
 30
0.0
 11
39.13127432606487
 21
0.0
 31
0.0
  0
LINE
  5
8696
330
8655
100
AcDbEntity
  8
0
100
AcDbLine
 10
39.13127432606489
 20
0.0
 30
0.0
 11
37.53714017048592
 21
0.0
 31
0.0
  0
LINE
  5
8697
330
8655
100
AcDbEntity
  8
0
100
AcDbLine
 10
37.53714017048594
 20
0.0
 30
0.0
 11
21.82364117048595
 21
0.0
 31
0.0
  0
LINE
  5
8698
330
8655
100
AcDbEntity
  8
0
100
AcDbLine
 10
21.1535694409719
 20
0.0
 30
0.0
 11
21.82364117048594
 21
0.0
 31
0.0
  0
LINE
  5
8699
330
8655
100
AcDbEntity
  8
0
100
AcDbLine
 10
127.5
 20
0.0
 30
0.0
 11
127.5
 21
-2.5
 31
0.0
  0
LINE
  5
869A
330
8655
100
AcDbEntity
  8
0
100
AcDbLine
 10
-127.5
 20
-2.5
 30
0.0
 11
-127.5
 21
0.0
 31
0.0
  0
LINE
  5
869B
330
8655
100
AcDbEntity
  8
0
100
AcDbLine
 10
107.5000000000001
 20
-2.5
 30
0.0
 11
34.00000000000007
 21
-2.5
 31
0.0
  0
LINE
  5
869C
330
8655
100
AcDbEntity
  8
0
100
AcDbLine
 10
32.0773957916629
 20
-1.924652638875948
 30
0.0
 11
29.27465774404828
 21
-0.0821924801605795
 31
0.0
  0
ARC
  5
869D
330
8655
100
AcDbEntity
  8
0
100
AcDbCircle
 10
29.0000000000001
 20
-0.5
 30
0.0
 40
0.5
100
AcDbArc
 50
56.67993474152779
 51
90.00000000000305
  0
ARC
  5
869E
330
8655
100
AcDbEntity
  8
0
100
AcDbCircle
 10
34.00000000000007
 20
1.0
 30
0.0
 40
3.50000000000002
100
AcDbArc
 50
236.6799347415291
 51
270.0
  0
LINE
  5
869F
330
8655
100
AcDbEntity
  8
0
100
AcDbLine
 10
109.4226042083372
 20
-1.924652638875948
 30
0.0
 11
112.2253422559519
 21
-0.0821924801605795
 31
0.0
  0
ARC
  5
86A0
330
8655
100
AcDbEntity
  8
0
100
AcDbCircle
 10
112.5
 20
-0.5
 30
0.0
 40
0.5
100
AcDbArc
 50
89.99999999999797
 51
123.320065258471
  0
ARC
  5
86A1
330
8655
100
AcDbEntity
  8
0
100
AcDbCircle
 10
107.5000000000001
 20
1.0
 30
0.0
 40
3.500000000000018
100
AcDbArc
 50
270.0
 51
303.3200652584712
  0
LINE
  5
86A2
330
8655
100
AcDbEntity
  8
0
100
AcDbLine
 10
-34.00000000000006
 20
-2.5
 30
0.0
 11
-107.5000000000001
 21
-2.5
 31
0.0
  0
LINE
  5
86A3
330
8655
100
AcDbEntity
  8
0
100
AcDbLine
 10
-32.07739579166288
 20
-1.924652638875948
 30
0.0
 11
-29.27465774404826
 21
-0.0821924801605795
 31
0.0
  0
ARC
  5
86A4
330
8655
100
AcDbEntity
  8
0
100
AcDbCircle
 10
-29.00000000000009
 20
-0.5
 30
0.0
 40
0.5000000000000001
100
AcDbArc
 50
89.99999999999694
 51
123.3200652584722
  0
ARC
  5
86A5
330
8655
100
AcDbEntity
  8
0
100
AcDbCircle
 10
-34.00000000000006
 20
1.0
 30
0.0
 40
3.500000000000019
100
AcDbArc
 50
270.0
 51
303.320065258471
  0
LINE
  5
86A6
330
8655
100
AcDbEntity
  8
0
100
AcDbLine
 10
-109.4226042083372
 20
-1.924652638875948
 30
0.0
 11
-112.2253422559518
 21
-0.0821924801605795
 31
0.0
  0
ARC
  5
86A7
330
8655
100
AcDbEntity
  8
0
100
AcDbCircle
 10
-112.5
 20
-0.5
 30
0.0
 40
0.5
100
AcDbArc
 50
56.67993474152897
 51
90.00000000000204
  0
ARC
  5
86A8
330
8655
100
AcDbEntity
  8
0
100
AcDbCircle
 10
-107.5000000000001
 20
1.0
 30
0.0
 40
3.500000000000018
100
AcDbArc
 50
236.6799347415288
 51
270.0
  0
ENDBLK
  5
8657
330
8655
100
AcDbEntity
  8
0
100
AcDbBlockEnd
  0
BLOCK
  5
86AA
330
86A9
100
AcDbEntity
  8
0
100
AcDbBlockBegin
  2
WSD-ISO
 70
     0
 10
0.0
 20
0.0
 30
0.0
  3
WSD-ISO
  1

  0
ELLIPSE
  5
86AC
330
86A9
100
AcDbEntity
  8
0
100
AcDbEllipse
 10
65.58489768546761
 20
23.37264402201169
 30
0.0
 11
5.500000000000001
 21
0.0000000000000011
 31
0.0
210
0.0
220
0.0
230
1.0
 40
0.5773502691896261
 41
0.3272204132950663
 42
2.814372240294729
  0
ELLIPSE
  5
86AD
330
86A9
100
AcDbEntity
  8
0
100
AcDbEllipse
 10
65.58489768546761
 20
25.41388547433101
 30
0.0
 11
5.5
 21
-0.0000000000003259
 31
0.0
210
0.0
220
0.0
230
1.0
 40
0.5773502691896258
 41
0.0
 42
6.283185307179586
  0
ELLIPSE
  5
86AE
330
86A9
100
AcDbEntity
  8
0
100
AcDbEllipse
 10
30.93666540732677
 20
27.86337521711417
 30
0.0
 11
-2.5
 21
-0.0000000000001489
 31
0.0
210
0.0
220
0.0
230
1.0
 40
0.577350269189626
 41
3.926990816986998
 42
5.497787143781895
  0
ELLIPSE
  5
86AF
330
86A9
100
AcDbEntity
  8
0
100
AcDbEllipse
 10
30.93666540732677
 20
29.90461666943348
 30
0.0
 11
2.5
 21
-0.0000000000001481
 31
0.0
210
0.0
220
0.0
230
1.0
 40
0.5773502691896258
 41
0.0
 42
6.283185307179586
  0
ELLIPSE
  5
86B0
330
86A9
100
AcDbEntity
  8
0
100
AcDbEllipse
 10
101.6473435259815
 20
17.65716795551761
 30
0.0
 11
-2.5
 21
-0.0000000000001489
 31
0.0
210
0.0
220
0.0
230
1.0
 40
0.577350269189626
 41
3.926990816987
 42
5.497787143781894
  0
ELLIPSE
  5
86B1
330
86A9
100
AcDbEntity
  8
0
100
AcDbEllipse
 10
101.6473435259815
 20
19.69840940783693
 30
0.0
 11
2.5
 21
-0.0000000000001481
 31
0.0
210
0.0
220
0.0
230
1.0
 40
0.5773502691896258
 41
0.0
 42
6.283185307179586
  0
ELLIPSE
  5
86B2
330
86A9
100
AcDbEntity
  8
0
100
AcDbEllipse
 10
80.43414009038512
 20
17.65716795551762
 30
0.0
 11
-2.5
 21
-0.0000000000001489
 31
0.0
210
0.0
220
0.0
230
1.0
 40
0.577350269189626
 41
3.926990816987
 42
5.497787143781897
  0
ELLIPSE
  5
86B3
330
86A9
100
AcDbEntity
  8
0
100
AcDbEllipse
 10
80.43414009038512
 20
19.69840940783693
 30
0.0
 11
2.5
 21
-0.0000000000001481
 31
0.0
210
0.0
220
0.0
230
1.0
 40
0.5773502691896258
 41
0.0
 42
6.283185307179586
  0
ELLIPSE
  5
86B4
330
86A9
100
AcDbEntity
  8
0
100
AcDbEllipse
 10
80.43414009038512
 20
5.409719241601727
 30
0.0
 11
-2.5
 21
-0.0000000000001489
 31
0.0
210
0.0
220
0.0
230
1.0
 40
0.577350269189626
 41
3.926990816987
 42
5.497787143781897
  0
ELLIPSE
  5
86B5
330
86A9
100
AcDbEntity
  8
0
100
AcDbEllipse
 10
80.43414009038512
 20
7.450960693921038
 30
0.0
 11
2.5
 21
-0.0000000000001481
 31
0.0
210
0.0
220
0.0
230
1.0
 40
0.5773502691896258
 41
0.0
 42
6.283185307179586
  0
ELLIPSE
  5
86B6
330
86A9
100
AcDbEntity
  8
0
100
AcDbEllipse
 10
45.07880103105771
 20
50.31703119262663
 30
0.0
 11
-2.5
 21
-0.0000000000001489
 31
0.0
210
0.0
220
0.0
230
1.0
 40
0.577350269189626
 41
3.926990816987
 42
5.497787143781897
  0
ELLIPSE
  5
86B7
330
86A9
100
AcDbEntity
  8
0
100
AcDbEllipse
 10
45.07880103105771
 20
52.35827264494595
 30
0.0
 11
2.5
 21
-0.0000000000001481
 31
0.0
210
0.0
220
0.0
230
1.0
 40
0.5773502691896258
 41
0.0
 42
6.283185307179586
  0
ELLIPSE
  5
86B8
330
86A9
100
AcDbEntity
  8
0
100
AcDbEllipse
 10
29.1688984543604
 20
41.13144465718971
 30
0.0
 11
-2.5
 21
-0.0000000000001489
 31
0.0
210
0.0
220
0.0
230
1.0
 40
0.577350269189626
 41
3.926990816986998
 42
5.497787143781895
  0
ELLIPSE
  5
86B9
330
86A9
100
AcDbEntity
  8
0
100
AcDbEllipse
 10
29.1688984543604
 20
43.17268610950903
 30
0.0
 11
2.5
 21
-0.0000000000001481
 31
0.0
210
0.0
220
0.0
230
1.0
 40
0.5773502691896258
 41
0.0
 42
6.283185307179586
  0
ELLIPSE
  5
86BA
330
86A9
100
AcDbEntity
  8
0
100
AcDbEllipse
 10
50.73565528055012
 20
14.79942992227057
 30
0.0
 11
6.499999999999998
 21
0.0000000000000004
 31
0.0
210
0.0
220
0.0
230
1.0
 40
0.5773502691896262
 41
0.2754335247933763
 42
2.866159128796417
  0
ELLIPSE
  5
86BB
330
86A9
100
AcDbEntity
  8
0
100
AcDbEllipse
 10
50.73565528055012
 20
16.84067137458989
 30
0.0
 11
6.500000000000001
 21
-0.000000000000385
 31
0.0
210
0.0
220
0.0
230
1.0
 40
0.5773502691896255
 41
0.0
 42
6.283185307179586
  0
LINE
  5
86BC
330
86A9
100
AcDbEntity
  8
0
100
AcDbLine
 10
22.4513840330882
 20
71.54594229674754
 30
0.0
 11
22.4513840330882
 21
69.91294913489212
 31
0.0
  0
ELLIPSE
  5
86BD
330
86A9
100
AcDbEntity
  8
0
100
AcDbEllipse
 10
23.8655975954613
 20
70.72944571581977
 30
0.0
 11
-2.0
 21
0.0000000000001202
 31
0.0
210
0.0
220
0.0
230
1.0
 40
0.5773502691896261
 41
5.497787143782377
 42
8.639379797372171
  0
LINE
  5
86BE
330
86A9
100
AcDbEntity
  8
0
100
AcDbLine
 10
69.82753837258687
 20
-8.878970924633531
 30
0.0
 11
114.0217121967461
 21
16.63654722935791
 31
0.0
  0
LINE
  5
86BF
330
86A9
100
AcDbEntity
  8
0
100
AcDbLine
 10
114.0217121967461
 20
18.67778868167722
 30
0.0
 11
25.27981115783438
 21
69.91294913489207
 31
0.0
  0
LINE
  5
86C0
330
86A9
100
AcDbEntity
  8
0
100
AcDbLine
 10
114.0217121967461
 20
18.67778868167722
 30
0.0
 11
114.0217121967461
 21
16.63654722935791
 31
0.0
  0
LINE
  5
86C1
330
86A9
100
AcDbEntity
  8
0
100
AcDbLine
 10
-110.4846908299827
 20
97.26558459597093
 30
0.0
 11
-66.29051700582351
 21
122.7811027499623
 31
0.0
  0
LINE
  5
86C2
330
86A9
100
AcDbEntity
  8
0
100
AcDbLine
 10
22.4513840330882
 20
71.54594229674754
 30
0.0
 11
-66.29051700582351
 21
122.7811027499623
 31
0.0
  0
LINE
  5
86C3
330
86A9
100
AcDbEntity
  8
0
100
AcDbLine
 10
69.82753837258687
 20
-6.837729472314215
 30
0.0
 11
114.0217121967461
 21
18.67778868167722
 31
0.0
  0
ELLIPSE
  5
86C4
330
86A9
100
AcDbEntity
  8
0
100
AcDbEllipse
 10
-64.52275005285716
 20
113.5955162145254
 30
0.0
 11
-2.5
 21
-0.0000000000001489
 31
0.0
210
0.0
220
0.0
230
1.0
 40
0.577350269189626
 41
3.926990816986995
 42
5.49778714378189
  0
ELLIPSE
  5
86C5
330
86A9
100
AcDbEntity
  8
0
100
AcDbEllipse
 10
-64.52275005285715
 20
101.3480675006095
 30
0.0
 11
-2.5
 21
-0.0000000000001489
 31
0.0
210
0.0
220
0.0
230
1.0
 40
0.577350269189626
 41
3.926990816986995
 42
5.49778714378189
  0
ELLIPSE
  5
86C6
330
86A9
100
AcDbEntity
  8
0
100
AcDbEllipse
 10
-85.73595348845358
 20
101.3480675006095
 30
0.0
 11
-2.5
 21
-0.0000000000001489
 31
0.0
210
0.0
220
0.0
230
1.0
 40
0.577350269189626
 41
3.92699081698699
 42
5.49778714378189
  0
ELLIPSE
  5
86C7
330
86A9
100
AcDbEntity
  8
0
100
AcDbEllipse
 10
-7.95420755793335
 20
80.93565297741635
 30
0.0
 11
-2.5
 21
-0.0000000000001489
 31
0.0
210
0.0
220
0.0
230
1.0
 40
0.577350269189626
 41
3.926990816987006
 42
5.497787143781903
  0
ELLIPSE
  5
86C8
330
86A9
100
AcDbEntity
  8
0
100
AcDbEllipse
 10
-23.86411013463067
 20
71.75006644197944
 30
0.0
 11
-2.5
 21
-0.0000000000001489
 31
0.0
210
0.0
220
0.0
230
1.0
 40
0.577350269189626
 41
3.926990816986998
 42
5.497787143781895
  0
ELLIPSE
  5
86C9
330
86A9
100
AcDbEntity
  8
0
100
AcDbEllipse
 10
-46.84508052319346
 20
72.77068716813909
 30
0.0
 11
-2.5
 21
-0.0000000000001489
 31
0.0
210
0.0
220
0.0
230
1.0
 40
0.577350269189626
 41
3.926990816987
 42
5.497787143781897
  0
ELLIPSE
  5
86CA
330
86A9
100
AcDbEntity
  8
0
100
AcDbEllipse
 10
-46.84508052319346
 20
74.81192862045841
 30
0.0
 11
-2.5
 21
0.0000000000001495
 31
0.0
210
0.0
220
0.0
230
1.0
 40
0.577350269189626
 41
0.0
 42
6.283185307179586
  0
ELLIPSE
  5
86CB
330
86A9
100
AcDbEntity
  8
0
100
AcDbEllipse
 10
-23.86411013463067
 20
73.79130789429876
 30
0.0
 11
-2.5
 21
0.0000000000001495
 31
0.0
210
0.0
220
0.0
230
1.0
 40
0.577350269189626
 41
0.0
 42
6.283185307179586
  0
ELLIPSE
  5
86CC
330
86A9
100
AcDbEntity
  8
0
100
AcDbEllipse
 10
-7.95420755793335
 20
82.97689442973567
 30
0.0
 11
-2.5
 21
0.0000000000001495
 31
0.0
210
0.0
220
0.0
230
1.0
 40
0.577350269189626
 41
0.0
 42
6.283185307179586
  0
ELLIPSE
  5
86CD
330
86A9
100
AcDbEntity
  8
0
100
AcDbEllipse
 10
-85.73595348845358
 20
103.3893089529289
 30
0.0
 11
-2.5
 21
0.0000000000001495
 31
0.0
210
0.0
220
0.0
230
1.0
 40
0.577350269189626
 41
0.0
 42
6.283185307179586
  0
ELLIPSE
  5
86CE
330
86A9
100
AcDbEntity
  8
0
100
AcDbEllipse
 10
-64.52275005285715
 20
103.3893089529289
 30
0.0
 11
-2.5
 21
0.0000000000001495
 31
0.0
210
0.0
220
0.0
230
1.0
 40
0.577350269189626
 41
0.0
 42
6.283185307179586
  0
ELLIPSE
  5
86CF
330
86A9
100
AcDbEntity
  8
0
100
AcDbEllipse
 10
-64.52275005285716
 20
115.6367576668447
 30
0.0
 11
-2.5
 21
0.0000000000001495
 31
0.0
210
0.0
220
0.0
230
1.0
 40
0.577350269189626
 41
0.0
 42
6.283185307179586
  0
ELLIPSE
  5
86D0
330
86A9
100
AcDbEntity
  8
0
100
AcDbEllipse
 10
-54.62325511624548
 20
92.7748534008684
 30
0.0
 11
5.5
 21
-0.0000000000000017
 31
0.0
210
0.0
220
0.0
230
1.0
 40
0.577350269189626
 41
0.3272204132950691
 42
2.814372240294731
  0
ELLIPSE
  5
86D1
330
86A9
100
AcDbEntity
  8
0
100
AcDbEllipse
 10
-54.62325511624548
 20
94.81609485318774
 30
0.0
 11
-5.5
 21
0.0000000000003303
 31
0.0
210
0.0
220
0.0
230
1.0
 40
0.577350269189626
 41
0.0
 42
6.283185307179586
  0
ELLIPSE
  5
86D2
330
86A9
100
AcDbEntity
  8
0
100
AcDbEllipse
 10
-69.47249752116298
 20
84.20163930112728
 30
0.0
 11
6.5
 21
-0.000000000000001
 31
0.0
210
0.0
220
0.0
230
1.0
 40
0.5773502691896261
 41
0.2754335247933776
 42
2.86615912879642
  0
ELLIPSE
  5
86D3
330
86A9
100
AcDbEntity
  8
0
100
AcDbEllipse
 10
-69.47249752116298
 20
86.24288075344663
 30
0.0
 11
-6.500000000000001
 21
0.0000000000003889
 31
0.0
210
0.0
220
0.0
230
1.0
 40
0.5773502691896259
 41
0.0
 42
6.283185307179586
  0
ELLIPSE
  5
86D4
330
86A9
100
AcDbEntity
  8
0
100
AcDbEllipse
 10
13.25899587766308
 20
62.56447990654251
 30
0.0
 11
-2.5
 21
-0.000000000000149
 31
0.0
210
0.0
220
0.0
230
1.0
 40
0.577350269189626
 41
3.926990816986998
 42
5.497787143781896
  0
ELLIPSE
  5
86D5
330
86A9
100
AcDbEntity
  8
0
100
AcDbEllipse
 10
-2.650906699034241
 20
53.3788933711056
 30
0.0
 11
-2.5
 21
-0.000000000000149
 31
0.0
210
0.0
220
0.0
230
1.0
 40
0.577350269189626
 41
3.926990816986998
 42
5.497787143781896
  0
ELLIPSE
  5
86D6
330
86A9
100
AcDbEntity
  8
0
100
AcDbEllipse
 10
-2.650906699034241
 20
55.42013482342492
 30
0.0
 11
-2.5
 21
0.0000000000001495
 31
0.0
210
0.0
220
0.0
230
1.0
 40
0.577350269189626
 41
0.0
 42
6.283185307179586
  0
ELLIPSE
  5
86D7
330
86A9
100
AcDbEntity
  8
0
100
AcDbEllipse
 10
13.25899587766308
 20
64.60572135886183
 30
0.0
 11
-2.5
 21
0.0000000000001495
 31
0.0
210
0.0
220
0.0
230
1.0
 40
0.577350269189626
 41
0.0
 42
6.283185307179586
  0
LINE
  5
86D8
330
86A9
100
AcDbEntity
  8
0
100
AcDbLine
 10
-23.86411013463073
 20
-69.09559376805332
 30
0.0
 11
-25.2783236970038
 21
-69.91209034898102
 31
0.0
  0
ELLIPSE
  5
86D9
330
86A9
100
AcDbEntity
  8
0
100
AcDbEllipse
 10
-23.8641101346307
 20
-70.72858692990878
 30
0.0
 11
-1.0
 21
1.732050807568877
 31
0.0
210
0.0
220
0.0
230
1.0
 40
0.5773502691896258
 41
3.92699081698724
 42
7.068583470577006
  0
LINE
  5
86DA
330
86A9
100
AcDbEntity
  8
0
100
AcDbLine
 10
-8.906277736618912
 20
-79.36449549139421
 30
0.0
 11
-22.4498965722576
 21
-71.54508351083652
 31
0.0
  0
LINE
  5
86DB
330
86A9
100
AcDbEntity
  8
0
100
AcDbLine
 10
26.69402472020748
 20
-99.91833969807501
 30
0.0
 11
8.397612973184438
 21
-89.35490145072703
 31
0.0
  0
ELLIPSE
  5
86DC
330
86A9
100
AcDbEntity
  8
0
100
AcDbEllipse
 10
26.6940247202075
 20
-68.89146962282143
 30
0.0
 11
19.00000000000001
 21
-32.90896534380867
 31
0.0
210
0.0
220
0.0
230
0.9999999999999998
 40
0.5773502691896259
 41
5.497787143782137
 42
6.842654911181312
  0
LINE
  5
86DD
330
86A9
100
AcDbEntity
  8
0
100
AcDbLine
 10
66.29200446665416
 20
-31.33262690014601
 30
0.0
 11
52.8812207141232
 21
-90.96102750434017
 31
0.0
  0
LINE
  5
86DE
330
86A9
100
AcDbEntity
  8
0
100
AcDbLine
 10
66.29200446665414
 20
-12.96145382927216
 30
0.0
 11
66.29200446665416
 21
-31.33262690014601
 31
0.0
  0
LINE
  5
86DF
330
86A9
100
AcDbEntity
  8
0
100
AcDbLine
 10
-114.0202247359155
 20
72.77068716813916
 30
0.0
 11
-114.0202247359154
 21
91.14186023901297
 31
0.0
  0
LINE
  5
86E0
330
86A9
100
AcDbEntity
  8
0
100
AcDbLine
 10
-100.6094409833846
 20
-2.343152655190214
 30
0.0
 11
-114.0202247359155
 21
72.77068716813916
 31
0.0
  0
ELLIPSE
  5
86E1
330
86A9
100
AcDbEntity
  8
0
100
AcDbEllipse
 10
-74.42224498946886
 20
-10.51196408648894
 30
0.0
 11
-18.99999999999803
 21
32.9089653438098
 31
0.0
210
0.0
220
0.0
230
1.0
 40
0.5773502691896259
 41
1.011326722793352
 42
2.356194490192587
  0
LINE
  5
86E2
330
86A9
100
AcDbEntity
  8
0
100
AcDbLine
 10
-56.12583324244583
 20
-52.10227240909053
 30
0.0
 11
-74.42224498946885
 21
-41.53883416174253
 31
0.0
  0
LINE
  5
86E3
330
86A9
100
AcDbEntity
  8
0
100
AcDbLine
 10
-25.2783236970038
 20
-69.91209034898102
 30
0.0
 11
-38.82194253264249
 21
-62.09267836842337
 31
0.0
  0
LINE
  5
86E4
330
86A9
100
AcDbEntity
  8
0
100
AcDbLine
 10
68.05977141962052
 20
-11.9408331031125
 30
0.0
 11
68.05977141962053
 21
-30.31200617398635
 31
0.0
  0
LINE
  5
86E5
330
86A9
100
AcDbEntity
  8
0
100
AcDbLine
 10
68.05977141962053
 20
-30.31200617398635
 30
0.0
 11
54.64898766708957
 21
-89.94040677818048
 31
0.0
  0
ELLIPSE
  5
86E6
330
86A9
100
AcDbEntity
  8
0
100
AcDbEllipse
 10
28.46179167317386
 20
-67.87084889666177
 30
0.0
 11
19.00000000000001
 21
-32.90896534380867
 31
0.0
210
0.0
220
0.0
230
0.9999999999999998
 40
0.5773502691896259
 41
0.0
 42
0.559469604001726
  0
LINE
  5
86E7
330
86A9
100
AcDbEntity
  8
0
100
AcDbLine
 10
68.05977141962053
 20
-30.31200617398635
 30
0.0
 11
66.29200446665416
 21
-31.33262690014601
 31
0.0
  0
LINE
  5
86E8
330
86A9
100
AcDbEntity
  8
0
100
AcDbLine
 10
54.64898766708957
 20
-89.94040677818048
 30
0.0
 11
52.8812207141232
 21
-90.96102750434017
 31
0.0
  0
LINE
  5
86E9
330
86A9
100
AcDbEntity
  8
0
100
AcDbLine
 10
47.46179167317386
 20
-100.7798142404704
 30
0.0
 11
45.69402472020749
 21
-101.8004349666301
 31
0.0
  0
ELLIPSE
  5
86EA
330
86A9
100
AcDbEntity
  8
0
100
AcDbEllipse
 10
-8.906277736618912
 20
-78.54799891046647
 30
0.0
 11
0.5000000000000001
 21
-0.8660254037844389
 31
0.0
210
0.0
220
0.0
230
1.0
 40
0.5773502691896259
 41
5.497787143782137
 42
6.232092558930822
  0
LINE
  5
86EB
330
86A9
100
AcDbEntity
  8
0
100
AcDbLine
 10
-8.432465472798135
 20
-79.42763698368427
 30
0.0
 11
2.678656226269886
 21
-74.26097463954672
 31
0.0
  0
ELLIPSE
  5
86EC
330
86A9
100
AcDbEntity
  8
0
100
AcDbEllipse
 10
3.152468490090658
 20
-75.1406127127645
 30
0.0
 11
-0.5000000000000077
 21
0.8660254037844524
 31
0.0
210
0.0
220
0.0
230
0.9999999999999998
 40
0.5773502691896257
 41
4.319211698745044
 42
6.232092558930837
  0
LINE
  5
86ED
330
86A9
100
AcDbEntity
  8
0
100
AcDbLine
 10
3.805879297800842
 20
-75.20576066758128
 30
0.0
 11
7.744202165474249
 21
-88.47325691498255
 31
0.0
  0
ELLIPSE
  5
86EE
330
86A9
100
AcDbEntity
  8
0
100
AcDbEllipse
 10
8.397612973184438
 20
-88.53840486979931
 30
0.0
 11
0.5000000000000516
 21
-0.8660254037844092
 31
0.0
210
0.0
220
0.0
230
1.0
 40
0.5773502691896257
 41
4.319211698745016
 42
5.497787143782003
  0
ELLIPSE
  5
86EF
330
86A9
100
AcDbEntity
  8
0
100
AcDbEllipse
 10
-56.12583324244583
 20
-51.28577582816284
 30
0.0
 11
0.5000000000000001
 21
-0.8660254037844389
 31
0.0
210
0.0
220
0.0
230
1.0
 40
0.5773502691896259
 41
5.497787143782137
 42
6.676362588819223
  0
LINE
  5
86F0
330
86A9
100
AcDbEntity
  8
0
100
AcDbLine
 10
-55.47242243473565
 20
-51.97512168479183
 30
0.0
 11
-51.53409956706224
 21
-43.25520897300436
 31
0.0
  0
ELLIPSE
  5
86F1
330
86A9
100
AcDbEntity
  8
0
100
AcDbEllipse
 10
-50.88068875935206
 20
-43.94455482963336
 30
0.0
 11
-0.5000000000000079
 21
0.866025403784452
 31
0.0
210
0.0
220
0.0
230
0.9999999999999998
 40
0.5773502691896258
 41
4.763481728633447
 42
6.676362588819233
  0
LINE
  5
86F2
330
86A9
100
AcDbEntity
  8
0
100
AcDbLine
 10
-50.40687649553128
 20
-43.61202803254012
 30
0.0
 11
-39.29575479646326
 21
-61.60870858458889
 31
0.0
  0
ELLIPSE
  5
86F3
330
86A9
100
AcDbEntity
  8
0
100
AcDbEllipse
 10
-38.82194253264249
 20
-61.27618178749564
 30
0.0
 11
0.5
 21
-0.8660254037844389
 31
0.0
210
0.0
220
0.0
230
1.0
 40
0.5773502691896258
 41
4.763481728633452
 42
5.497787143782137
  0
LINE
  5
86F4
330
86A9
100
AcDbEntity
  8
0
100
AcDbLine
 10
-50.39623432609481
 20
-43.62926515125022
 30
0.0
 11
-53.70465548176928
 21
-50.95450095863218
 31
0.0
  0
ELLIPSE
  5
86F5
330
86A9
100
AcDbEntity
  8
0
100
AcDbEllipse
 10
-54.35806628947947
 20
-50.26515510200316
 30
0.0
 11
0.5000000000000002
 21
-0.8660254037844385
 31
0.0
210
0.0
220
0.0
230
1.0
 40
0.5773502691896259
 41
0.0
 42
0.3931772816396366
  0
LINE
  5
86F6
330
86A9
100
AcDbEntity
  8
0
100
AcDbLine
 10
-51.53409956706224
 20
-43.25520897300436
 30
0.0
 11
-51.1509743793312
 21
-43.03401154273452
 31
0.0
  0
LINE
  5
86F7
330
86A9
100
AcDbEntity
  8
0
100
AcDbLine
 10
-55.47242243473565
 20
-51.97512168479183
 30
0.0
 11
-53.70465548176928
 21
-50.95450095863218
 31
0.0
  0
LINE
  5
86F8
330
86A9
100
AcDbEntity
  8
0
100
AcDbLine
 10
-55.62583324244585
 20
-52.15180123194727
 30
0.0
 11
-53.85806628947946
 21
-51.13118050578759
 31
0.0
  0
LINE
  5
86F9
330
86A9
100
AcDbEntity
  8
0
100
AcDbLine
 10
66.29200446665414
 20
-12.96145382927216
 30
0.0
 11
-114.0202247359154
 21
91.14186023901297
 31
0.0
  0
ELLIPSE
  5
86FA
330
86A9
100
AcDbEntity
  8
0
100
AcDbEllipse
 10
69.82753837258687
 20
-10.92021237695284
 30
0.0
 11
1.250000000000131
 21
2.165063509461025
 31
0.0
210
0.0
220
0.0
230
1.0
 40
0.5773502691896255
 41
0.7853981633976863
 42
2.356194490192583
  0
LINE
  5
86FB
330
86A9
100
AcDbEntity
  8
0
100
AcDbLine
 10
-110.4846908299827
 20
97.26558459597093
 30
0.0
 11
69.82753837258687
 21
-6.837729472314215
 31
0.0
  0
LINE
  5
86FC
330
86A9
100
AcDbEntity
  8
0
100
AcDbLine
 10
69.82753837258687
 20
-6.837729472314215
 30
0.0
 11
69.82753837258687
 21
-8.878970924633531
 31
0.0
  0
ELLIPSE
  5
86FD
330
86A9
100
AcDbEntity
  8
0
100
AcDbEllipse
 10
69.82753837258687
 20
-10.92021237695284
 30
0.0
 11
2.500000000000261
 21
4.330127018922045
 31
0.0
210
0.0
220
0.0
230
1.0
 40
0.5773502691896257
 41
0.785398163397689
 42
2.356194490192587
  0
LINE
  5
86FE
330
86A9
100
AcDbEntity
  8
0
100
AcDbLine
 10
68.05977141962052
 20
-11.9408331031125
 30
0.0
 11
66.29200446665414
 21
-12.96145382927216
 31
0.0
  0
ELLIPSE
  5
86FF
330
86A9
100
AcDbEntity
  8
0
100
AcDbEllipse
 10
-110.4846908299827
 20
93.1831016913323
 30
0.0
 11
2.50000000000026
 21
4.330127018922043
 31
0.0
210
0.0
220
0.0
230
1.0
 40
0.5773502691896257
 41
0.7853981633976926
 42
2.356194490192585
  0
ELLIPSE
  5
8700
330
86A9
100
AcDbEntity
  8
0
100
AcDbEllipse
 10
-74.42224498946886
 20
-10.51196408648894
 30
0.0
 11
1.375
 21
-2.381569860407207
 31
0.0
210
0.0
220
0.0
230
1.0
 40
0.5773502691896259
 41
0.0
 42
6.283185307179586
  0
ELLIPSE
  5
8701
330
86A9
100
AcDbEntity
  8
0
100
AcDbEllipse
 10
26.6940247202075
 20
-68.89146962282143
 30
0.0
 11
1.375
 21
-2.381569860407207
 31
0.0
210
0.0
220
0.0
230
1.0
 40
0.5773502691896259
 41
0.0
 42
6.283185307179586
  0
ELLIPSE
  5
8702
330
86A9
100
AcDbEntity
  8
0
100
AcDbEllipse
 10
-23.86411013463067
 20
-39.7017168546552
 30
0.0
 11
1.375
 21
-2.381569860407207
 31
0.0
210
0.0
220
0.0
230
1.0
 40
0.5773502691896259
 41
0.0
 42
6.283185307179586
  0
ELLIPSE
  5
8703
330
86A9
100
AcDbEntity
  8
0
100
AcDbEllipse
 10
-72.6544780365025
 20
-9.491343360329285
 30
0.0
 11
1.375000000000142
 21
-2.381569860407124
 31
0.0
210
0.0
220
0.0
230
1.0
 40
0.5773502691896257
 41
3.83977231189964
 42
5.585005648869167
  0
ELLIPSE
  5
8704
330
86A9
100
AcDbEntity
  8
0
100
AcDbEllipse
 10
28.46179167317386
 20
-67.87084889666177
 30
0.0
 11
1.375000000000142
 21
-2.381569860407124
 31
0.0
210
0.0
220
0.0
230
1.0
 40
0.5773502691896257
 41
3.839772311899636
 42
5.585005648869162
  0
ELLIPSE
  5
8705
330
86A9
100
AcDbEntity
  8
0
100
AcDbEllipse
 10
-22.0963431816643
 20
-38.68109612849556
 30
0.0
 11
1.375000000000142
 21
-2.381569860407124
 31
0.0
210
0.0
220
0.0
230
1.0
 40
0.577350269189626
 41
3.839772311899634
 42
5.585005648869165
  0
ELLIPSE
  5
8706
330
86A9
100
AcDbEntity
  8
0
100
AcDbEllipse
 10
-106.94915692405
 20
70.72944571581984
 30
0.0
 11
1.25
 21
-2.165063509461097
 31
0.0
210
0.0
220
0.0
230
1.0
 40
0.5773502691896259
 41
0.0
 42
6.283185307179586
  0
ELLIPSE
  5
8707
330
86A9
100
AcDbEntity
  8
0
100
AcDbEllipse
 10
-86.08950687904687
 20
62.7686040517745
 30
0.0
 11
1.25
 21
-2.165063509461097
 31
0.0
210
0.0
220
0.0
230
1.0
 40
0.5773502691896259
 41
0.0
 42
6.283185307179586
  0
ELLIPSE
  5
8708
330
86A9
100
AcDbEntity
  8
0
100
AcDbEllipse
 10
-65.22985683404371
 20
46.64279657845191
 30
0.0
 11
1.25
 21
-2.165063509461097
 31
0.0
210
0.0
220
0.0
230
1.0
 40
0.5773502691896259
 41
0.0
 42
6.283185307179586
  0
ELLIPSE
  5
8709
330
86A9
100
AcDbEntity
  8
0
100
AcDbEllipse
 10
-44.37020678904055
 20
38.68195491440657
 30
0.0
 11
1.25
 21
-2.165063509461097
 31
0.0
210
0.0
220
0.0
230
1.0
 40
0.5773502691896259
 41
0.0
 42
6.283185307179586
  0
ELLIPSE
  5
870A
330
86A9
100
AcDbEntity
  8
0
100
AcDbEllipse
 10
-105.1813899710836
 20
71.75006644197949
 30
0.0
 11
1.250000000000129
 21
-2.165063509461022
 31
0.0
210
0.0
220
0.0
230
1.0
 40
0.5773502691896259
 41
3.926990816986997
 42
5.497787143781895
  0
ELLIPSE
  5
870B
330
86A9
100
AcDbEntity
  8
0
100
AcDbEllipse
 10
-84.32173992608051
 20
63.78922477793416
 30
0.0
 11
1.250000000000129
 21
-2.165063509461022
 31
0.0
210
0.0
220
0.0
230
1.0
 40
0.5773502691896259
 41
3.926990816986997
 42
5.497787143781895
  0
ELLIPSE
  5
870C
330
86A9
100
AcDbEntity
  8
0
100
AcDbEllipse
 10
-63.46208988107735
 20
47.66341730461157
 30
0.0
 11
1.250000000000129
 21
-2.165063509461022
 31
0.0
210
0.0
220
0.0
230
1.0
 40
0.5773502691896259
 41
3.926990816987
 42
5.497787143781895
  0
ELLIPSE
  5
870D
330
86A9
100
AcDbEntity
  8
0
100
AcDbEllipse
 10
-42.60243983607418
 20
39.70257564056623
 30
0.0
 11
1.250000000000129
 21
-2.165063509461022
 31
0.0
210
0.0
220
0.0
230
1.0
 40
0.5773502691896259
 41
3.926990816987
 42
5.497787143781895
  0
ELLIPSE
  5
870E
330
86A9
100
AcDbEntity
  8
0
100
AcDbEllipse
 10
17.50163656478239
 20
-1.122253405820092
 30
0.0
 11
-1.25
 21
2.165063509461097
 31
0.0
210
0.0
220
0.0
230
1.0
 40
0.5773502691896259
 41
0.0
 42
6.283185307179586
  0
ELLIPSE
  5
870F
330
86A9
100
AcDbEntity
  8
0
100
AcDbEllipse
 10
38.36128660978555
 20
-9.083095069865434
 30
0.0
 11
-1.25
 21
2.165063509461097
 31
0.0
210
0.0
220
0.0
230
1.0
 40
0.5773502691896259
 41
0.0
 42
6.283185307179586
  0
ELLIPSE
  5
8710
330
86A9
100
AcDbEntity
  8
0
100
AcDbEllipse
 10
59.2209366547887
 20
-25.20890254318801
 30
0.0
 11
-1.25
 21
2.165063509461097
 31
0.0
210
0.0
220
0.0
230
1.0
 40
0.5773502691896259
 41
0.0
 42
6.283185307179586
  0
ELLIPSE
  5
8711
330
86A9
100
AcDbEntity
  8
0
100
AcDbEllipse
 10
-3.358013480220782
 20
15.0035540675025
 30
0.0
 11
-1.25
 21
2.165063509461097
 31
0.0
210
0.0
220
0.0
230
1.0
 40
0.5773502691896259
 41
0.0
 42
6.283185307179586
  0
ELLIPSE
  5
8712
330
86A9
100
AcDbEntity
  8
0
100
AcDbEllipse
 10
19.26940351774875
 20
-0.101632679660435
 30
0.0
 11
1.250000000000129
 21
-2.165063509461022
 31
0.0
210
0.0
220
0.0
230
1.0
 40
0.5773502691896259
 41
3.926990816987
 42
5.497787143781897
  0
ELLIPSE
  5
8713
330
86A9
100
AcDbEntity
  8
0
100
AcDbEllipse
 10
40.12905356275192
 20
-8.062474343705767
 30
0.0
 11
1.250000000000129
 21
-2.165063509461022
 31
0.0
210
0.0
220
0.0
230
1.0
 40
0.5773502691896259
 41
3.926990816987
 42
5.497787143781895
  0
ELLIPSE
  5
8714
330
86A9
100
AcDbEntity
  8
0
100
AcDbEllipse
 10
60.98870360775507
 20
-24.18828181702835
 30
0.0
 11
1.250000000000129
 21
-2.165063509461022
 31
0.0
210
0.0
220
0.0
230
1.0
 40
0.5773502691896259
 41
3.926990816987
 42
5.497787143781895
  0
ELLIPSE
  5
8715
330
86A9
100
AcDbEntity
  8
0
100
AcDbEllipse
 10
-1.590246527254413
 20
16.02417479366216
 30
0.0
 11
1.250000000000129
 21
-2.165063509461022
 31
0.0
210
0.0
220
0.0
230
1.0
 40
0.5773502691896259
 41
3.926990816987
 42
5.497787143781895
  0
ELLIPSE
  5
8716
330
86A9
100
AcDbEntity
  8
0
100
AcDbEllipse
 10
-23.86411013463067
 20
22.76027158631592
 30
0.0
 11
1.25
 21
-2.165063509461097
 31
0.0
210
0.0
220
0.0
230
1.0
 40
0.5773502691896259
 41
0.0
 42
6.283185307179586
  0
ELLIPSE
  5
8717
330
86A9
100
AcDbEntity
  8
0
100
AcDbEllipse
 10
-22.0963431816643
 20
23.78089231247557
 30
0.0
 11
1.250000000000129
 21
-2.165063509461022
 31
0.0
210
0.0
220
0.0
230
1.0
 40
0.5773502691896259
 41
3.926990816987
 42
5.497787143781895
  0
ELLIPSE
  5
8718
330
86A9
100
AcDbEntity
  8
0
100
AcDbEllipse
 10
-23.86411013463067
 20
-39.7017168546552
 30
0.0
 11
9.800000000000002
 21
-16.974097914175
 31
0.0
210
0.0
220
0.0
230
1.0
 40
0.5773502691896258
 41
4.642802633444023
 42
6.352771654120252
  0
ELLIPSE
  5
8719
330
86A9
100
AcDbEntity
  8
0
100
AcDbEllipse
 10
-11.93915534462545
 20
-58.56193979226468
 30
0.0
 11
-1.375
 21
2.381569860407207
 31
0.0
210
0.0
220
0.0
230
1.0
 40
0.5773502691896258
 41
3.211179000530461
 42
6.352771654120253
  0
ELLIPSE
  5
871A
330
86A9
100
AcDbEntity
  8
0
100
AcDbEllipse
 10
-23.86411013463067
 20
-39.7017168546552
 30
0.0
 11
12.55
 21
-21.73723763498941
 31
0.0
210
0.0
220
0.0
230
1.0
 40
0.5773502691896257
 41
4.642802633444023
 42
6.352771654120252
  0
ELLIPSE
  5
871B
330
86A9
100
AcDbEntity
  8
0
100
AcDbEllipse
 10
-35.78906492463589
 20
-44.79218807609741
 30
0.0
 11
-1.375
 21
2.381569860407206
 31
0.0
210
0.0
220
0.0
230
1.0
 40
0.5773502691896258
 41
4.642802633444023
 42
7.784395287033816
  0
ELLIPSE
  5
871C
330
86A9
100
AcDbEntity
  8
0
100
AcDbEllipse
 10
26.69402472020753
 20
-68.89146962282142
 30
0.0
 11
-12.55000000000001
 21
21.73723763498942
 31
0.0
210
0.0
220
0.0
230
1.0
 40
0.5773502691896258
 41
5.428200796841473
 42
7.138169817517698
  0
ELLIPSE
  5
871D
330
86A9
100
AcDbEntity
  8
0
100
AcDbEllipse
 10
27.79286865817145
 20
-51.32135352545002
 30
0.0
 11
1.374999999999858
 21
-2.381569860407289
 31
0.0
210
0.0
220
0.0
230
1.0
 40
0.5773502691896258
 41
5.428200796841675
 42
8.569793450431468
  0
ELLIPSE
  5
871E
330
86A9
100
AcDbEntity
  8
0
100
AcDbEllipse
 10
26.69402472020753
 20
-68.89146962282142
 30
0.0
 11
-9.800000000000007
 21
16.974097914175
 31
0.0
210
0.0
220
0.0
230
1.0
 40
0.5773502691896259
 41
5.428200796841473
 42
7.138169817517699
  0
ELLIPSE
  5
871F
330
86A9
100
AcDbEntity
  8
0
100
AcDbEllipse
 10
10.92843586346005
 20
-61.05803833920699
 30
0.0
 11
1.375
 21
-2.381569860407207
 31
0.0
210
0.0
220
0.0
230
1.0
 40
0.5773502691896257
 41
3.996577163927902
 42
7.138169817517696
  0
ELLIPSE
  5
8720
330
86A9
100
AcDbEntity
  8
0
100
AcDbEllipse
 10
-74.42224498946886
 20
-10.51196408648894
 30
0.0
 11
-12.54999999999871
 21
21.73723763499017
 31
0.0
210
0.0
220
0.0
230
1.0
 40
0.5773502691896259
 41
0.7158118164570642
 42
2.425780837133288
  0
ELLIPSE
  5
8721
330
86A9
100
AcDbEntity
  8
0
100
AcDbEllipse
 10
-90.18783384621634
 20
-0.1408614293511246
 30
0.0
 11
-1.374999999999999
 21
2.381569860407206
 31
0.0
210
0.0
220
0.0
230
0.9999999999999998
 40
0.5773502691896259
 41
3.857404470046581
 42
6.998997123636373
  0
ELLIPSE
  5
8722
330
86A9
100
AcDbEntity
  8
0
100
AcDbEllipse
 10
-74.42224498946886
 20
-10.51196408648894
 30
0.0
 11
9.800000000001018
 21
-16.97409791417442
 31
0.0
210
0.0
220
0.0
230
0.9999999999999998
 40
0.5773502691896259
 41
3.857404470046297
 42
5.567373490722522
  0
ELLIPSE
  5
8723
330
86A9
100
AcDbEntity
  8
0
100
AcDbEllipse
 10
-73.32340105150496
 20
-29.35091587062203
 30
0.0
 11
1.374999999999858
 21
-2.381569860407289
 31
0.0
210
0.0
220
0.0
230
1.0
 40
0.5773502691896257
 41
5.567373490723079
 42
8.708966144312872
  0
ELLIPSE
  5
8724
330
86A9
100
AcDbEntity
  8
0
100
AcDbEllipse
 10
-23.86411013463067
 20
-39.7017168546552
 30
0.0
 11
-9.799999999999998
 21
16.974097914175
 31
0.0
210
0.0
220
0.0
230
1.0
 40
0.5773502691896259
 41
4.642802633444025
 42
6.35277165412025
  0
ELLIPSE
  5
8725
330
86A9
100
AcDbEntity
  8
0
100
AcDbEllipse
 10
-35.78906492463589
 20
-20.84149391704568
 30
0.0
 11
1.375
 21
-2.381569860407206
 31
0.0
210
0.0
220
0.0
230
1.0
 40
0.5773502691896258
 41
3.211179000530457
 42
6.352771654120251
  0
ELLIPSE
  5
8726
330
86A9
100
AcDbEntity
  8
0
100
AcDbEllipse
 10
-23.86411013463067
 20
-39.7017168546552
 30
0.0
 11
-12.55
 21
21.73723763498943
 31
0.0
210
0.0
220
0.0
230
1.0
 40
0.5773502691896259
 41
4.642802633444025
 42
6.352771654120251
  0
ELLIPSE
  5
8727
330
86A9
100
AcDbEntity
  8
0
100
AcDbEllipse
 10
-11.93915534462545
 20
-34.61124563321295
 30
0.0
 11
1.375
 21
-2.381569860407206
 31
0.0
210
0.0
220
0.0
230
1.0
 40
0.5773502691896258
 41
4.642802633444023
 42
7.784395287033816
  0
ELLIPSE
  5
8728
330
86A9
100
AcDbEntity
  8
0
100
AcDbEllipse
 10
-74.42224498946886
 20
-10.51196408648894
 30
0.0
 11
-9.800000000001018
 21
16.97409791417442
 31
0.0
210
0.0
220
0.0
230
0.9999999999999998
 40
0.5773502691896259
 41
3.857404470046297
 42
5.567373490722522
  0
ELLIPSE
  5
8729
330
86A9
100
AcDbEntity
  8
0
100
AcDbEllipse
 10
-75.52108892743277
 20
8.326987697644145
 30
0.0
 11
-1.374999999999858
 21
2.381569860407289
 31
0.0
210
0.0
220
0.0
230
1.0
 40
0.5773502691896258
 41
5.567373490723078
 42
8.708966144312872
  0
ELLIPSE
  5
872A
330
86A9
100
AcDbEntity
  8
0
100
AcDbEllipse
 10
-74.42224498946886
 20
-10.51196408648894
 30
0.0
 11
12.54999999999871
 21
-21.73723763499017
 31
0.0
210
0.0
220
0.0
230
1.0
 40
0.5773502691896258
 41
0.7158118164570633
 42
2.42578083713329
  0
ELLIPSE
  5
872B
330
86A9
100
AcDbEntity
  8
0
100
AcDbEllipse
 10
-58.65665613272139
 20
-20.88306674362674
 30
0.0
 11
1.375
 21
-2.381569860407206
 31
0.0
210
0.0
220
0.0
230
1.0
 40
0.577350269189626
 41
3.857404470046578
 42
6.998997123636372
  0
ELLIPSE
  5
872C
330
86A9
100
AcDbEntity
  8
0
100
AcDbEllipse
 10
25.59518078224364
 20
-86.46158572019281
 30
0.0
 11
-1.374999999999858
 21
2.381569860407289
 31
0.0
210
0.0
220
0.0
230
1.0
 40
0.577350269189626
 41
5.428200796841682
 42
8.569793450431472
  0
ELLIPSE
  5
872D
330
86A9
100
AcDbEntity
  8
0
100
AcDbEllipse
 10
26.69402472020753
 20
-68.89146962282142
 30
0.0
 11
9.800000000000006
 21
-16.974097914175
 31
0.0
210
0.0
220
0.0
230
1.0
 40
0.5773502691896258
 41
5.428200796841473
 42
7.1381698175177
  0
ELLIPSE
  5
872E
330
86A9
100
AcDbEntity
  8
0
100
AcDbEllipse
 10
42.45961357695501
 20
-76.72490090643586
 30
0.0
 11
-1.375
 21
2.381569860407207
 31
0.0
210
0.0
220
0.0
230
1.0
 40
0.5773502691896257
 41
3.996577163927907
 42
7.138169817517696
  0
ELLIPSE
  5
872F
330
86A9
100
AcDbEntity
  8
0
100
AcDbEllipse
 10
26.69402472020753
 20
-68.89146962282142
 30
0.0
 11
12.55000000000001
 21
-21.73723763498942
 31
0.0
210
0.0
220
0.0
230
1.0
 40
0.5773502691896258
 41
5.428200796841474
 42
7.138169817517698
  0
ELLIPSE
  5
8730
330
86A9
100
AcDbEntity
  8
0
100
AcDbEllipse
 10
-34.02129797166951
 20
-43.77156734993776
 30
0.0
 11
1.375000000000142
 21
-2.381569860407124
 31
0.0
210
0.0
220
0.0
230
0.9999999999999998
 40
0.577350269189626
 41
3.839772311899636
 42
4.642802633443888
  0
ELLIPSE
  5
8731
330
86A9
100
AcDbEntity
  8
0
100
AcDbEllipse
 10
-22.0963431816643
 20
-38.68109612849556
 30
0.0
 11
12.55
 21
-21.73723763498941
 31
0.0
210
0.0
220
0.0
230
1.0
 40
0.5773502691896259
 41
4.642802633444022
 42
6.212675652174522
  0
ELLIPSE
  5
8732
330
86A9
100
AcDbEntity
  8
0
100
AcDbEllipse
 10
28.4617916731739
 20
-67.87084889666174
 30
0.0
 11
-12.55
 21
21.73723763498941
 31
0.0
210
0.0
220
0.0
230
1.0
 40
0.5773502691896259
 41
0.070487316694674
 42
0.8549845103381123
  0
ELLIPSE
  5
8733
330
86A9
100
AcDbEntity
  8
0
100
AcDbEllipse
 10
12.69620281642643
 20
-60.03741761304731
 30
0.0
 11
1.375000000000142
 21
-2.381569860407124
 31
0.0
210
0.0
220
0.0
230
1.0
 40
0.5773502691896259
 41
3.9965771639277
 42
5.585005648869207
  0
ELLIPSE
  5
8734
330
86A9
100
AcDbEntity
  8
0
100
AcDbEllipse
 10
28.4617916731739
 20
-67.87084889666174
 30
0.0
 11
-9.8
 21
16.974097914175
 31
0.0
210
0.0
220
0.0
230
0.9999999999999998
 40
0.5773502691896259
 41
5.428200796841473
 42
6.283185307179586
  0
ELLIPSE
  5
8735
330
86A9
100
AcDbEntity
  8
0
100
AcDbEllipse
 10
29.56063561113781
 20
-50.30073279929037
 30
0.0
 11
1.375
 21
-2.381569860407207
 31
0.0
210
0.0
220
0.0
230
1.0
 40
0.5773502691896258
 41
5.428200796841469
 42
5.585005648869453
  0
ELLIPSE
  5
8736
330
86A9
100
AcDbEntity
  8
0
100
AcDbEllipse
 10
-72.6544780365025
 20
-9.491343360329285
 30
0.0
 11
12.55000000000131
 21
-21.73723763498867
 31
0.0
210
0.0
220
0.0
230
1.0
 40
0.5773502691896257
 41
3.857404470046297
 42
5.567373490722522
  0
ELLIPSE
  5
8737
330
86A9
100
AcDbEntity
  8
0
100
AcDbEllipse
 10
-71.5556340985386
 20
-28.33029514446238
 30
0.0
 11
1.375
 21
-2.381569860407207
 31
0.0
210
0.0
220
0.0
230
1.0
 40
0.5773502691896258
 41
5.567373490722797
 42
5.585005648869454
  0
ELLIPSE
  5
8738
330
86A9
100
AcDbEntity
  8
0
100
AcDbEllipse
 10
-88.42006689324998
 20
0.8797592968085243
 30
0.0
 11
1.375000000000142
 21
-2.381569860407124
 31
0.0
210
0.0
220
0.0
230
1.0
 40
0.5773502691896258
 41
3.839772311899636
 42
3.85740447004629
  0
ELLIPSE
  5
8739
330
86A9
100
AcDbEntity
  8
0
100
AcDbEllipse
 10
-22.0963431816643
 20
-38.68109612849556
 30
0.0
 11
-9.800000000000004
 21
16.974097914175
 31
0.0
210
0.0
220
0.0
230
1.0
 40
0.5773502691896258
 41
4.642802633444025
 42
6.283185307179584
  0
ELLIPSE
  5
873A
330
86A9
100
AcDbEntity
  8
0
100
AcDbEllipse
 10
-10.17138839165908
 20
-33.59062490705329
 30
0.0
 11
1.375
 21
-2.381569860407207
 31
0.0
210
0.0
220
0.0
230
1.0
 40
0.5773502691896259
 41
4.642802633444023
 42
5.585005648869453
  0
ELLIPSE
  5
873B
330
86A9
100
AcDbEntity
  8
0
100
AcDbEllipse
 10
-34.02129797166951
 20
-19.82087319088602
 30
0.0
 11
-1.375
 21
2.381569860407207
 31
0.0
210
0.0
220
0.0
230
1.0
 40
0.5773502691896257
 41
0.0776079379205619
 42
2.942926784106811
  0
ELLIPSE
  5
873C
330
86A9
100
AcDbEntity
  8
0
100
AcDbEllipse
 10
-72.6544780365025
 20
-9.491343360329285
 30
0.0
 11
9.799999999998997
 21
-16.97409791417558
 31
0.0
210
0.0
220
0.0
230
1.0
 40
0.5773502691896259
 41
0.7158118164570624
 42
2.425780837133286
  0
ELLIPSE
  5
873D
330
86A9
100
AcDbEntity
  8
0
100
AcDbEllipse
 10
-56.88888917975503
 20
-19.86244601746709
 30
0.0
 11
1.375000000000142
 21
-2.381569860407124
 31
0.0
210
0.0
220
0.0
230
0.9999999999999998
 40
0.577350269189626
 41
3.857404470046301
 42
5.585005648869167
  0
ELLIPSE
  5
873E
330
86A9
100
AcDbEntity
  8
0
100
AcDbEllipse
 10
-73.7533219744664
 20
9.347608423803803
 30
0.0
 11
1.375000000000142
 21
-2.381569860407124
 31
0.0
210
0.0
220
0.0
230
1.0
 40
0.5773502691896257
 41
3.839772311899638
 42
5.567373490722518
  0
ELLIPSE
  5
873F
330
86A9
100
AcDbEntity
  8
0
100
AcDbEllipse
 10
27.36294773521001
 20
-85.44096499403316
 30
0.0
 11
1.375000000000142
 21
-2.381569860407124
 31
0.0
210
0.0
220
0.0
230
1.0
 40
0.5773502691896257
 41
3.839772311899633
 42
5.428200796841232
  0
ELLIPSE
  5
8740
330
86A9
100
AcDbEntity
  8
0
100
AcDbEllipse
 10
28.4617916731739
 20
-67.87084889666174
 30
0.0
 11
12.55
 21
-21.73723763498941
 31
0.0
210
0.0
220
0.0
230
1.0
 40
0.5773502691896259
 41
5.428200796841473
 42
6.212697990484911
  0
ELLIPSE
  5
8741
330
86A9
100
AcDbEntity
  8
0
100
AcDbEllipse
 10
44.22738052992137
 20
-75.70428018027619
 30
0.0
 11
1.375000000000142
 21
-2.381569860407124
 31
0.0
210
0.0
220
0.0
230
1.0
 40
0.5773502691896257
 41
3.839772311899636
 42
3.996577163927653
  0
ELLIPSE
  5
8742
330
86A9
100
AcDbEntity
  8
0
100
AcDbEllipse
 10
28.4617916731739
 20
-67.87084889666174
 30
0.0
 11
9.800000000000004
 21
-16.974097914175
 31
0.0
210
0.0
220
0.0
230
1.0
 40
0.5773502691896258
 41
0.0
 42
0.854984510338113
  0
LINE
  5
8743
330
86A9
100
AcDbEntity
  8
0
100
AcDbLine
 10
25.45997627086106
 20
-88.62345682837052
 30
0.0
 11
27.22774322382742
 21
-87.60283610221083
 31
0.0
  0
LINE
  5
8744
330
86A9
100
AcDbEntity
  8
0
100
AcDbLine
 10
40.5197760218742
 20
-75.76105589391058
 30
0.0
 11
42.28754297484058
 21
-74.74043516775092
 31
0.0
  0
LINE
  5
8745
330
86A9
100
AcDbEntity
  8
0
100
AcDbLine
 10
-60.59649368780218
 20
-19.60698028693194
 30
0.0
 11
-58.82872673483581
 21
-18.58635956077229
 31
0.0
  0
LINE
  5
8746
330
86A9
100
AcDbEntity
  8
0
100
AcDbLine
 10
-75.38588441605018
 20
6.008995867381687
 30
0.0
 11
-73.61811746308382
 21
7.029616593541345
 31
0.0
  0
LINE
  5
8747
330
86A9
100
AcDbEntity
  8
0
100
AcDbLine
 10
-13.40643166106905
 20
-35.23758996694745
 30
0.0
 11
-11.63866470810268
 21
-34.21696924078779
 31
0.0
  0
LINE
  5
8748
330
86A9
100
AcDbEntity
  8
0
100
AcDbLine
 10
-37.25634124107948
 20
-18.52088483076265
 30
0.0
 11
-35.51113318738821
 21
-17.51328849117208
 31
0.0
  0
LINE
  5
8749
330
86A9
100
AcDbEntity
  8
0
100
AcDbLine
 10
-73.18819654012239
 20
-31.66890770088448
 30
0.0
 11
-71.42042958715603
 21
-30.64828697472483
 31
0.0
  0
LINE
  5
874A
330
86A9
100
AcDbEntity
  8
0
100
AcDbLine
 10
-92.12767140129711
 20
1.135225027343667
 30
0.0
 11
-90.35990444833075
 21
2.155845753503324
 31
0.0
  0
LINE
  5
874B
330
86A9
100
AcDbEntity
  8
0
100
AcDbLine
 10
8.988598308379266
 20
-60.0941933266817
 30
0.0
 11
10.75636526134563
 21
-59.07357260052205
 31
0.0
  0
LINE
  5
874C
330
86A9
100
AcDbEntity
  8
0
100
AcDbLine
 10
27.65766414678886
 20
-53.4832246336277
 30
0.0
 11
29.42543109975522
 21
-52.46260390746805
 31
0.0
  0
LINE
  5
874D
330
86A9
100
AcDbEntity
  8
0
100
AcDbLine
 10
-13.40643166106905
 20
-56.24133070598162
 30
0.0
 11
-13.21522360737775
 21
-56.13093668471172
 31
0.0
  0
LINE
  5
874E
330
86A9
100
AcDbEntity
  8
0
100
AcDbLine
 10
-37.25634124107948
 20
-45.41853240983191
 30
0.0
 11
-35.48857428811311
 21
-44.39791168367226
 31
0.0
  0
LINE
  5
874F
330
86A9
100
AcDbEntity
  8
0
100
AcDbLine
 10
36.49402472020754
 20
-85.86556753699642
 30
0.0
 11
38.2617916731739
 21
-84.84494681083674
 31
0.0
  0
LINE
  5
8750
330
86A9
100
AcDbEntity
  8
0
100
AcDbLine
 10
-33.66411013463068
 20
-22.72761894048021
 30
0.0
 11
-31.8963431816643
 21
-21.70699821432055
 31
0.0
  0
LINE
  5
8751
330
86A9
100
AcDbEntity
  8
0
100
AcDbLine
 10
16.89402472020752
 20
-51.91737170864642
 30
0.0
 11
18.66179167317389
 21
-50.89675098248676
 31
0.0
  0
LINE
  5
8752
330
86A9
100
AcDbEntity
  8
0
100
AcDbLine
 10
-14.06411013463066
 20
-56.67581476883022
 30
0.0
 11
-13.01573791036648
 21
-56.07053678294036
 31
0.0
  0
ELLIPSE
  5
8753
330
86A9
100
AcDbEntity
  8
0
100
AcDbEllipse
 10
7.248588237577444
 20
-14.79857113635958
 30
0.0
 11
-1.25
 21
2.165063509461097
 31
0.0
210
0.0
220
0.0
230
1.0
 40
0.5773502691896259
 41
4.338507663054748
 42
6.65706662450952
  0
ELLIPSE
  5
8754
330
86A9
100
AcDbEntity
  8
0
100
AcDbEllipse
 10
45.07880103105775
 20
-36.63985467617626
 30
0.0
 11
-1.25
 21
2.165063509461097
 31
0.0
210
0.0
220
0.0
230
1.0
 40
0.5773502691896259
 41
4.338507663054753
 42
6.657066624509517
  0
SPLINE
  5
8755
330
86A9
100
AcDbEntity
  8
0
100
AcDbSpline
210
0.0
220
0.0
230
1.0
 70
     8
 71
     3
 72
    12
 73
     8
 74
     0
 42
0.000000001
 43
0.0000000001
 40
1.162904811066612
 40
1.162904811066612
 40
1.162904811066612
 40
1.162904811066612
 40
1.169499356665264
 40
1.169499356665264
 40
1.26365146963673
 40
1.26365146963673
 40
1.363907443907271
 40
1.363907443907271
 40
1.363907443907271
 40
1.363907443907271
 10
8.868773412179397
 20
-14.91748890212529
 30
0.0
 10
8.875309282689949
 20
-14.93855467669619
 30
0.0
 10
8.881772435147269
 20
-14.95952346107298
 30
0.0
 10
8.979406840026076
 20
-15.27811892398283
 30
0.0
 10
9.056115348575062
 20
-15.55066853357094
 30
0.0
 10
9.187036564581095
 20
-15.98213682352379
 30
0.0
 10
9.246510245628103
 20
-16.15673396025882
 30
0.0
 10
9.298405570753867
 20
-16.26556775391179
 30
0.0
  0
SPLINE
  5
8756
330
86A9
100
AcDbEntity
  8
0
100
AcDbSpline
210
0.0
220
0.0
230
1.0
 70
     8
 71
     3
 72
    12
 73
     8
 74
     0
 42
0.000000001
 43
0.0000000001
 40
0.3992286803382554
 40
0.3992286803382554
 40
0.3992286803382554
 40
0.3992286803382554
 40
0.4994846546087967
 40
0.4994846546087967
 40
0.5936367675802627
 40
0.5936367675802627
 40
0.6002313131789143
 40
0.6002313131789143
 40
0.6002313131789143
 40
0.6002313131789143
 10
6.012434945578228
 20
-14.36841172891744
 30
0.0
 10
5.802219581153149
 20
-14.1681718179569
 30
0.0
 10
5.651502658648355
 20
-13.94089537120448
 30
0.0
 10
5.520581442642318
 20
-13.50942708125163
 30
0.0
 10
5.526488789798063
 20
-13.28457575819396
 30
0.0
 10
5.61567599395786
 20
-13.07384180155298
 30
0.0
 10
5.621867192464944
 20
-13.06017901011191
 30
0.0
 10
5.628403062975495
 20
-13.04666020873833
 30
0.0
  0
ELLIPSE
  5
8757
330
86A9
100
AcDbEntity
  8
0
100
AcDbEllipse
 10
7.226559775820788
 20
-14.81128927468462
 30
0.0
 11
2.09590212137068
 21
-1.670101081426164
 31
0.0
210
0.0
220
0.0
230
1.0
 40
0.1721415817473168
 41
4.237433988310139
 42
6.623071221222012
  0
SPLINE
  5
8758
330
86A9
100
AcDbEntity
  8
0
100
AcDbSpline
210
0.0
220
0.0
230
1.0
 70
     8
 71
     3
 72
    12
 73
     8
 74
     0
 42
0.000000001
 43
0.0000000001
 40
1.162904811066609
 40
1.162904811066609
 40
1.162904811066609
 40
1.162904811066609
 40
1.169499356665265
 40
1.169499356665265
 40
1.26365146963673
 40
1.26365146963673
 40
1.363907443907271
 40
1.363907443907271
 40
1.363907443907271
 40
1.363907443907271
 10
46.6989862056597
 20
-36.75877244194197
 30
0.0
 10
46.70552207617027
 20
-36.77983821651288
 30
0.0
 10
46.71198522862756
 20
-36.80080700088965
 30
0.0
 10
46.80961963350639
 20
-37.1194024637995
 30
0.0
 10
46.88632814205535
 20
-37.39195207338762
 30
0.0
 10
47.01724935806139
 20
-37.82342036334047
 30
0.0
 10
47.0767230391084
 20
-37.99801750007551
 30
0.0
 10
47.12861836423416
 20
-38.10685129372847
 30
0.0
  0
SPLINE
  5
8759
330
86A9
100
AcDbEntity
  8
0
100
AcDbSpline
210
0.0
220
0.0
230
1.0
 70
     8
 71
     3
 72
    12
 73
     8
 74
     0
 42
0.000000001
 43
0.0000000001
 40
0.3992286803382574
 40
0.3992286803382574
 40
0.3992286803382574
 40
0.3992286803382574
 40
0.4994846546087969
 40
0.4994846546087969
 40
0.5936367675802626
 40
0.5936367675802626
 40
0.6002313131789174
 40
0.6002313131789174
 40
0.6002313131789174
 40
0.6002313131789174
 10
43.84264773905854
 20
-36.20969526873411
 30
0.0
 10
43.63243237463343
 20
-36.00945535777357
 30
0.0
 10
43.48171545212863
 20
-35.78217891102114
 30
0.0
 10
43.35079423612258
 20
-35.35071062106829
 30
0.0
 10
43.35670158327836
 20
-35.12585929801065
 30
0.0
 10
43.44588878743815
 20
-34.91512534136968
 30
0.0
 10
43.45207998594524
 20
-34.90146254992861
 30
0.0
 10
43.45861585645579
 20
-34.88794374855501
 30
0.0
  0
ELLIPSE
  5
875A
330
86A9
100
AcDbEntity
  8
0
100
AcDbEllipse
 10
45.05677256930109
 20
-36.6525728145013
 30
0.0
 11
2.09590212137068
 21
-1.670101081426164
 31
0.0
210
0.0
220
0.0
230
1.0
 40
0.1721415817473168
 41
4.23743398831014
 42
6.623071221222001
  0
LINE
  5
875B
330
86A9
100
AcDbEntity
  8
0
100
AcDbLine
 10
8.868773412179397
 20
-14.91748890212529
 30
0.0
 11
43.45861585645579
 21
-34.88794374855501
 31
0.0
  0
LINE
  5
875C
330
86A9
100
AcDbEntity
  8
0
100
AcDbLine
 10
46.6989862056597
 20
-36.75877244194197
 30
0.0
 11
52.14986884292324
 21
-39.90584099988712
 31
0.0
  0
ELLIPSE
  5
875D
330
86A9
100
AcDbEntity
  8
0
100
AcDbEllipse
 10
52.14986884292324
 20
-43.98832390452574
 30
0.0
 11
2.499999999999741
 21
-4.330127018922342
 31
0.0
210
0.0
220
0.0
230
1.0
 40
0.5773502691896259
 41
5.497787143782377
 42
8.639379797372171
  0
LINE
  5
875E
330
86A9
100
AcDbEntity
  8
0
100
AcDbLine
 10
52.14986884292324
 20
-48.07080680916438
 30
0.0
 11
0.1775204257119967
 21
-18.06455746007043
 31
0.0
  0
ELLIPSE
  5
875F
330
86A9
100
AcDbEntity
  8
0
100
AcDbEllipse
 10
0.1775204257119967
 20
-13.9820745554318
 30
0.0
 11
-2.499999999999741
 21
4.330127018922342
 31
0.0
210
0.0
220
0.0
230
1.0
 40
0.5773502691896259
 41
5.497787143782379
 42
8.639379797372173
  0
LINE
  5
8760
330
86A9
100
AcDbEntity
  8
0
100
AcDbLine
 10
0.1775204257119967
 20
-9.899591650793189
 30
0.0
 11
5.628403062975495
 21
-13.04666020873833
 31
0.0
  0
LINE
  5
8761
330
86A9
100
AcDbEntity
  8
0
100
AcDbLine
 10
0.5843524463006134
 20
-11.234506836776
 30
0.0
 11
6.012434945578228
 21
-14.36841172891744
 31
0.0
  0
LINE
  5
8762
330
86A9
100
AcDbEntity
  8
0
100
AcDbLine
 10
1.887168518594286
 20
-12.77075165984606
 30
0.0
 11
0.5843524463006134
 21
-11.234506836776
 31
0.0
  0
LINE
  5
8763
330
86A9
100
AcDbEntity
  8
0
100
AcDbLine
 10
1.887168518594286
 20
-12.77075165984606
 30
0.0
 11
53.85951693580553
 21
-42.77700100893997
 31
0.0
  0
LINE
  5
8764
330
86A9
100
AcDbEntity
  8
0
100
AcDbLine
 10
52.55670086351184
 20
-41.24075618586991
 30
0.0
 11
53.85951693580553
 21
-42.77700100893997
 31
0.0
  0
LINE
  5
8765
330
86A9
100
AcDbEntity
  8
0
100
AcDbLine
 10
47.12861836423416
 20
-38.10685129372847
 30
0.0
 11
52.55670086351184
 21
-41.24075618586991
 31
0.0
  0
LINE
  5
8766
330
86A9
100
AcDbEntity
  8
0
100
AcDbLine
 10
9.298405570753867
 20
-16.26556775391179
 30
0.0
 11
43.84264773905854
 21
-36.20969526873411
 31
0.0
  0
ELLIPSE
  5
8767
330
86A9
100
AcDbEntity
  8
0
100
AcDbEllipse
 10
54.62474257707615
 20
-38.47697198326361
 30
0.0
 11
-1.749999999999999
 21
-3.031088913245537
 31
0.0
210
0.0
220
0.0
230
1.0
 40
0.577350269189626
 41
5.497787143782135
 42
6.079331989521838
  0
ELLIPSE
  5
8768
330
86A9
100
AcDbEntity
  8
0
100
AcDbEllipse
 10
2.652394159864921
 20
-8.470722634169671
 30
0.0
 11
-1.749999999999999
 21
-3.031088913245536
 31
0.0
210
0.0
220
0.0
230
0.9999999999999998
 40
0.5773502691896259
 41
5.497787143782137
 42
6.079331989521838
  0
ELLIPSE
  5
8769
330
86A9
100
AcDbEntity
  8
0
100
AcDbEllipse
 10
2.652394159864912
 20
-16.6356884434469
 30
0.0
 11
-1.749999999999999
 21
-3.031088913245537
 31
0.0
210
0.0
220
0.0
230
1.0
 40
0.577350269189626
 41
4.916242298042436
 42
5.497787143782137
  0
ELLIPSE
  5
876A
330
86A9
100
AcDbEntity
  8
0
100
AcDbEllipse
 10
0.5843524463006089
 20
-13.74718997883001
 30
0.0
 11
-1.538697895831224
 21
2.66510293307937
 31
0.0
210
0.0
220
0.0
230
1.0
 40
0.5773502691896259
 41
5.497787143782375
 42
8.639379797372169
  0
LINE
  5
876B
330
86A9
100
AcDbEntity
  8
0
100
AcDbLine
 10
1.887168518594277
 20
-13.21926587772732
 30
0.0
 11
0.5843524463006045
 21
-16.25987312088403
 31
0.0
  0
ELLIPSE
  5
876C
330
86A9
100
AcDbEntity
  8
0
100
AcDbEllipse
 10
1.887168518594282
 20
-12.99500876878668
 30
0.0
 11
-0.1373288720240576
 21
0.2378605836918247
 31
0.0
210
0.0
220
0.0
230
0.9999999999999998
 40
0.5773502691896258
 41
5.497787143782345
 42
8.639379797372139
  0
ELLIPSE
  5
876D
330
86A9
100
AcDbEntity
  8
0
100
AcDbEllipse
 10
1.591733988085106
 20
-13.1655779745041
 30
0.0
 11
0.2499999999999998
 21
0.4330127018922196
 31
0.0
210
0.0
220
0.0
230
1.0
 40
0.5773502691896258
 41
4.91624229804244
 42
6.079331989521834
  0
ELLIPSE
  5
876E
330
86A9
100
AcDbEntity
  8
0
100
AcDbEllipse
 10
54.62474257707615
 20
-46.64193779254083
 30
0.0
 11
-1.749999999999999
 21
-3.031088913245537
 31
0.0
210
0.0
220
0.0
230
1.0
 40
0.577350269189626
 41
4.916242298042433
 42
5.497787143782137
  0
LINE
  5
876F
330
86A9
100
AcDbEntity
  8
0
100
AcDbLine
 10
52.55670086351184
 20
-46.26612246997797
 30
0.0
 11
0.5843524463006045
 21
-16.25987312088403
 31
0.0
  0
LINE
  5
8770
330
86A9
100
AcDbEntity
  8
0
100
AcDbLine
 10
53.85951693580553
 20
-43.22551522682124
 30
0.0
 11
52.55670086351184
 21
-46.26612246997797
 31
0.0
  0
LINE
  5
8771
330
86A9
100
AcDbEntity
  8
0
100
AcDbLine
 10
53.85951693580553
 20
-43.22551522682124
 30
0.0
 11
1.887168518594277
 21
-13.21926587772732
 31
0.0
  0
ELLIPSE
  5
8772
330
86A9
100
AcDbEntity
  8
0
100
AcDbEllipse
 10
53.56408240529633
 20
-43.17182732359802
 30
0.0
 11
0.2500000000000001
 21
0.4330127018922197
 31
0.0
210
0.0
220
0.0
230
1.0
 40
0.5773502691896258
 41
4.916242298042455
 42
6.079331989521835
  0
ELLIPSE
  5
8773
330
86A9
100
AcDbEntity
  8
0
100
AcDbEllipse
 10
52.55670086351184
 20
-43.75343932792394
 30
0.0
 11
1.538697895831227
 21
-2.665102933079379
 31
0.0
210
0.0
220
0.0
230
1.0
 40
0.5773502691896258
 41
5.497787143782379
 42
8.639379797372173
  0
ELLIPSE
  5
8774
330
86A9
100
AcDbEntity
  8
0
100
AcDbEllipse
 10
53.85951693580553
 20
-43.00125811788062
 30
0.0
 11
0.1373288720240621
 21
-0.2378605836918323
 31
0.0
210
0.0
220
0.0
230
1.0
 40
0.5773502691896259
 41
5.4977871437824
 42
8.639379797372194
  0
ELLIPSE
  5
8775
330
86A9
100
AcDbEntity
  8
0
100
AcDbEllipse
 10
-54.97680850683877
 20
21.1272784244604
 30
0.0
 11
-1.250000000000001
 21
2.165063509461096
 31
0.0
210
0.0
220
0.0
230
0.9999999999999998
 40
0.5773502691896258
 41
4.338507663054754
 42
6.657066624509525
  0
ELLIPSE
  5
8776
330
86A9
100
AcDbEntity
  8
0
100
AcDbEllipse
 10
-92.8070213003191
 20
42.96856196427706
 30
0.0
 11
-1.25
 21
2.165063509461097
 31
0.0
210
0.0
220
0.0
230
1.0
 40
0.5773502691896259
 41
4.338507663054752
 42
6.657066624509519
  0
SPLINE
  5
8777
330
86A9
100
AcDbEntity
  8
0
100
AcDbSpline
210
0.0
220
0.0
230
1.0
 70
     8
 71
     3
 72
    12
 73
     8
 74
     0
 42
0.000000001
 43
0.0000000001
 40
1.162904811066612
 40
1.162904811066612
 40
1.162904811066612
 40
1.162904811066612
 40
1.169499356665264
 40
1.169499356665264
 40
1.26365146963673
 40
1.26365146963673
 40
1.363907443907271
 40
1.363907443907271
 40
1.363907443907271
 40
1.363907443907271
 10
-56.59699368144074
 20
22.87918935208164
 30
0.0
 10
-56.60352955195129
 20
22.86567055070805
 30
0.0
 10
-56.60972075045837
 20
22.85200775926698
 30
0.0
 10
-56.69890795461816
 20
22.641273802626
 30
0.0
 10
-56.70481530177391
 20
22.41642247956835
 30
0.0
 10
-56.57389408576786
 20
21.98495418961549
 30
0.0
 10
-56.4231771632631
 20
21.75767774286309
 30
0.0
 10
-56.21296179883799
 20
21.55743783190254
 30
0.0
  0
ELLIPSE
  5
8778
330
86A9
100
AcDbEntity
  8
0
100
AcDbEllipse
 10
-54.99883696859544
 20
21.11456028613535
 30
0.0
 11
2.095902121370681
 21
-1.670101081426164
 31
0.0
210
0.0
220
0.0
230
0.9999999999999998
 40
0.1721415817473168
 41
4.23743398831014
 42
6.623071221222009
  0
SPLINE
  5
8779
330
86A9
100
AcDbEntity
  8
0
100
AcDbSpline
210
0.0
220
0.0
230
1.0
 70
     8
 71
     3
 72
    12
 73
     8
 74
     0
 42
0.000000001
 43
0.0000000001
 40
0.3992286803382554
 40
0.3992286803382554
 40
0.3992286803382554
 40
0.3992286803382554
 40
0.4994846546087967
 40
0.4994846546087967
 40
0.5936367675802627
 40
0.5936367675802627
 40
0.6002313131789143
 40
0.6002313131789143
 40
0.6002313131789143
 40
0.6002313131789143
 10
-52.92699117366236
 20
19.66028180690818
 30
0.0
 10
-52.97888649878813
 20
19.76911560056113
 30
0.0
 10
-53.03836017983513
 20
19.94371273729617
 30
0.0
 10
-53.16928139584117
 20
20.37518102724903
 30
0.0
 10
-53.24598990439016
 20
20.64773063683716
 30
0.0
 10
-53.34362430926896
 20
20.96632609974701
 30
0.0
 10
-53.35008746172627
 20
20.98729488412379
 30
0.0
 10
-53.35662333223684
 20
21.00836065869469
 30
0.0
  0
SPLINE
  5
877A
330
86A9
100
AcDbEntity
  8
0
100
AcDbSpline
210
0.0
220
0.0
230
1.0
 70
     8
 71
     3
 72
    12
 73
     8
 74
     0
 42
0.000000001
 43
0.0000000001
 40
1.162904811066609
 40
1.162904811066609
 40
1.162904811066609
 40
1.162904811066609
 40
1.169499356665265
 40
1.169499356665265
 40
1.26365146963673
 40
1.26365146963673
 40
1.363907443907271
 40
1.363907443907271
 40
1.363907443907271
 40
1.363907443907271
 10
-94.42720647492102
 20
44.72047289189831
 30
0.0
 10
-94.43374234543158
 20
44.70695409052471
 30
0.0
 10
-94.43993354393866
 20
44.69329129908366
 30
0.0
 10
-94.52912074809846
 20
44.48255734244269
 30
0.0
 10
-94.53502809525421
 20
44.25770601938502
 30
0.0
 10
-94.40410687924817
 20
43.82623772943218
 30
0.0
 10
-94.25338995674339
 20
43.59896128267976
 30
0.0
 10
-94.04317459231831
 20
43.39872137171922
 30
0.0
  0
ELLIPSE
  5
877B
330
86A9
100
AcDbEntity
  8
0
100
AcDbEllipse
 10
-92.82904976207573
 20
42.95584382595203
 30
0.0
 11
2.095902121370681
 21
-1.670101081426164
 31
0.0
210
0.0
220
0.0
230
0.9999999999999998
 40
0.1721415817473168
 41
4.237433988310137
 42
6.623071221222001
  0
SPLINE
  5
877C
330
86A9
100
AcDbEntity
  8
0
100
AcDbSpline
210
0.0
220
0.0
230
1.0
 70
     8
 71
     3
 72
    12
 73
     8
 74
     0
 42
0.000000001
 43
0.0000000001
 40
0.3992286803382574
 40
0.3992286803382574
 40
0.3992286803382574
 40
0.3992286803382574
 40
0.4994846546087969
 40
0.4994846546087969
 40
0.5936367675802626
 40
0.5936367675802626
 40
0.6002313131789174
 40
0.6002313131789174
 40
0.6002313131789174
 40
0.6002313131789174
 10
-90.75720396714265
 20
41.50156534672485
 30
0.0
 10
-90.80909929226841
 20
41.61039914037782
 30
0.0
 10
-90.86857297331542
 20
41.78499627711285
 30
0.0
 10
-90.99949418932144
 20
42.2164645670657
 30
0.0
 10
-91.07620269787046
 20
42.48901417665381
 30
0.0
 10
-91.17383710274927
 20
42.80760963956367
 30
0.0
 10
-91.18030025520658
 20
42.82857842394045
 30
0.0
 10
-91.18683612571713
 20
42.84964419851136
 30
0.0
  0
LINE
  5
877D
330
86A9
100
AcDbEntity
  8
0
100
AcDbLine
 10
-53.35662333223684
 20
21.00836065869469
 30
0.0
 11
-47.90574069497333
 21
17.86129210074956
 31
0.0
  0
ELLIPSE
  5
877E
330
86A9
100
AcDbEntity
  8
0
100
AcDbEllipse
 10
-47.90574069497333
 20
13.77880919611094
 30
0.0
 11
2.499999999999741
 21
-4.330127018922342
 31
0.0
210
0.0
220
0.0
230
1.0
 40
0.5773502691896259
 41
5.497787143782377
 42
8.639379797372171
  0
LINE
  5
877F
330
86A9
100
AcDbEntity
  8
0
100
AcDbLine
 10
-47.90574069497333
 20
9.696326291472306
 30
0.0
 11
-99.87808911218458
 21
39.70257564056625
 31
0.0
  0
ELLIPSE
  5
8780
330
86A9
100
AcDbEntity
  8
0
100
AcDbEllipse
 10
-99.87808911218458
 20
43.78505854520489
 30
0.0
 11
-2.499999999999741
 21
4.330127018922342
 31
0.0
210
0.0
220
0.0
230
1.0
 40
0.5773502691896259
 41
5.49778714378238
 42
8.639379797372173
  0
LINE
  5
8781
330
86A9
100
AcDbEntity
  8
0
100
AcDbLine
 10
-99.87808911218458
 20
47.8675414498435
 30
0.0
 11
-94.42720647492102
 21
44.72047289189831
 31
0.0
  0
LINE
  5
8782
330
86A9
100
AcDbEntity
  8
0
100
AcDbLine
 10
-91.18683612571713
 20
42.84964419851136
 30
0.0
 11
-56.59699368144074
 21
22.87918935208164
 31
0.0
  0
LINE
  5
8783
330
86A9
100
AcDbEntity
  8
0
100
AcDbLine
 10
-56.21296179883799
 20
21.55743783190254
 30
0.0
 11
-90.75720396714265
 21
41.50156534672485
 31
0.0
  0
LINE
  5
8784
330
86A9
100
AcDbEntity
  8
0
100
AcDbLine
 10
-94.04317459231831
 20
43.39872137171922
 30
0.0
 11
-99.471257091596
 21
46.53262626386072
 31
0.0
  0
LINE
  5
8785
330
86A9
100
AcDbEntity
  8
0
100
AcDbLine
 10
-99.471257091596
 20
46.53262626386072
 30
0.0
 11
-98.16844101930229
 21
44.99638144079065
 31
0.0
  0
LINE
  5
8786
330
86A9
100
AcDbEntity
  8
0
100
AcDbLine
 10
-46.19609260209106
 20
14.99013209169669
 30
0.0
 11
-98.16844101930229
 21
44.99638144079065
 31
0.0
  0
LINE
  5
8787
330
86A9
100
AcDbEntity
  8
0
100
AcDbLine
 10
-46.19609260209106
 20
14.99013209169669
 30
0.0
 11
-47.49890867438473
 21
16.52637691476676
 31
0.0
  0
LINE
  5
8788
330
86A9
100
AcDbEntity
  8
0
100
AcDbLine
 10
-47.49890867438473
 20
16.52637691476676
 30
0.0
 11
-52.92699117366236
 21
19.66028180690818
 31
0.0
  0
ELLIPSE
  5
8789
330
86A9
100
AcDbEntity
  8
0
100
AcDbEllipse
 10
-97.40321537803168
 20
49.29641046646702
 30
0.0
 11
-1.75
 21
-3.031088913245535
 31
0.0
210
0.0
220
0.0
230
0.9999999999999998
 40
0.5773502691896257
 41
5.497787143782133
 42
6.079331989521842
  0
ELLIPSE
  5
878A
330
86A9
100
AcDbEntity
  8
0
100
AcDbEllipse
 10
-45.43086696082042
 20
19.29016111737309
 30
0.0
 11
-1.75
 21
-3.031088913245535
 31
0.0
210
0.0
220
0.0
230
1.0
 40
0.5773502691896255
 41
5.497787143782139
 42
6.07933198952184
  0
ELLIPSE
  5
878B
330
86A9
100
AcDbEntity
  8
0
100
AcDbEllipse
 10
-45.43086696082042
 20
11.12519530809584
 30
0.0
 11
-1.75
 21
-3.031088913245535
 31
0.0
210
0.0
220
0.0
230
1.0
 40
0.5773502691896259
 41
4.916242298042437
 42
5.497787143782139
  0
ELLIPSE
  5
878C
330
86A9
100
AcDbEntity
  8
0
100
AcDbEllipse
 10
-47.49890867438473
 20
14.01369377271273
 30
0.0
 11
1.538697895831381
 21
-2.665102933079277
 31
0.0
210
0.0
220
0.0
230
1.0
 40
0.5773502691896259
 41
5.497787143782142
 42
8.639379797371935
  0
LINE
  5
878D
330
86A9
100
AcDbEntity
  8
0
100
AcDbLine
 10
-46.19609260209105
 20
14.54161787381542
 30
0.0
 11
-47.49890867438472
 21
11.50101063065871
 31
0.0
  0
ELLIPSE
  5
878E
330
86A9
100
AcDbEntity
  8
0
100
AcDbEllipse
 10
-46.19609260209106
 20
14.76587498275606
 30
0.0
 11
0.1373288720240718
 21
-0.2378605836918165
 31
0.0
210
0.0
220
0.0
230
1.0
 40
0.5773502691896258
 41
5.497787143782183
 42
8.639379797371976
  0
ELLIPSE
  5
878F
330
86A9
100
AcDbEntity
  8
0
100
AcDbEllipse
 10
-46.49152713260025
 20
14.59530577703866
 30
0.0
 11
0.2500000000000002
 21
0.4330127018922193
 31
0.0
210
0.0
220
0.0
230
1.0
 40
0.5773502691896258
 41
4.916242298042441
 42
6.079331989521836
  0
ELLIPSE
  5
8790
330
86A9
100
AcDbEntity
  8
0
100
AcDbEllipse
 10
-97.40321537803168
 20
41.13144465718978
 30
0.0
 11
-1.75
 21
-3.031088913245535
 31
0.0
210
0.0
220
0.0
230
1.0
 40
0.5773502691896259
 41
4.916242298042437
 42
5.497787143782136
  0
LINE
  5
8791
330
86A9
100
AcDbEntity
  8
0
100
AcDbLine
 10
-99.471257091596
 20
41.50725997975265
 30
0.0
 11
-47.49890867438472
 21
11.50101063065871
 31
0.0
  0
LINE
  5
8792
330
86A9
100
AcDbEntity
  8
0
100
AcDbLine
 10
-98.16844101930229
 20
44.54786722290936
 30
0.0
 11
-99.471257091596
 21
41.50725997975265
 31
0.0
  0
LINE
  5
8793
330
86A9
100
AcDbEntity
  8
0
100
AcDbLine
 10
-98.16844101930229
 20
44.54786722290936
 30
0.0
 11
-46.19609260209105
 21
14.54161787381542
 31
0.0
  0
ELLIPSE
  5
8794
330
86A9
100
AcDbEntity
  8
0
100
AcDbEllipse
 10
-98.46387554981149
 20
44.60155512613261
 30
0.0
 11
0.2500000000000002
 21
0.4330127018922196
 31
0.0
210
0.0
220
0.0
230
1.0
 40
0.5773502691896254
 41
4.916242298042416
 42
6.079331989521794
  0
ELLIPSE
  5
8795
330
86A9
100
AcDbEntity
  8
0
100
AcDbEllipse
 10
-99.471257091596
 20
44.01994312180668
 30
0.0
 11
-1.538697895831386
 21
2.665102933079286
 31
0.0
210
0.0
220
0.0
230
1.0
 40
0.5773502691896259
 41
5.497787143782137
 42
8.639379797371931
  0
ELLIPSE
  5
8796
330
86A9
100
AcDbEntity
  8
0
100
AcDbEllipse
 10
-98.16844101930229
 20
44.77212433185001
 30
0.0
 11
-0.1373288720240762
 21
0.2378605836918241
 31
0.0
210
0.0
220
0.0
230
1.0
 40
0.5773502691896257
 41
5.497787143782137
 42
8.63937979737193
  0
ENDBLK
  5
86AB
330
86A9
100
AcDbEntity
  8
0
100
AcDbBlockEnd
  0
ENDSEC
  0
SECTION
  2
ENTITIES
  0
INSERT
  5
8797
330
1F
100
AcDbEntity
  8
0
100
AcDbBlockReference
  2
WSD-Front
 10
0.0
 20
0.0
 30
0.0
  0
INSERT
  5
8798
330
1F
100
AcDbEntity
  8
0
100
AcDbBlockReference
  2
WSD-Left
 10
234.3500000000001
 20
0.0
 30
0.0
  0
INSERT
  5
8799
330
1F
100
AcDbEntity
  8
0
100
AcDbBlockReference
  2
WSD-Right
 10
-234.3500000000001
 20
0.0
 30
0.0
  0
INSERT
  5
879A
330
1F
100
AcDbEntity
  8
0
100
AcDbBlockReference
  2
WSD-Top
 10
0.0
 20
-243.8500000000001
 30
0.0
  0
INSERT
  5
879B
330
1F
100
AcDbEntity
  8
0
100
AcDbBlockReference
  2
WSD-Bottom
 10
0.0
 20
109.3500000000001
 30
0.0
  0
INSERT
  5
879C
330
1F
100
AcDbEntity
  8
0
100
AcDbBlockReference
  2
WSD-ISO
 10
283.3702247359156
 20
-301.6311027499625
 30
0.0
  0
MTEXT
  5
879D
330
1F
100
AcDbEntity
  8
0
100
AcDbMText
 10
0.0
 20
-288.2000000000001
 30
0.0
 40
13.95000000000001
 41
0.0
 71
     5
 72
     5
  1
WSD
 73
     1
 44
1.0
1001
ACAD
1000
MTEXTBEGIN
1070
    73
1070
     1
1070
    44
1040
1.0
1070
    74
1070
     0
1000
MTEXTEND
  0
ENDSEC
  0
SECTION
  2
OBJECTS
  0
DICTIONARY
  5
C
330
0
100
AcDbDictionary
281
     1
  3
ACAD_CIP_PREVIOUS_PRODUCT_INFO
350
216
  3
ACAD_COLOR
350
6B
  3
ACAD_DETAILVIEWSTYLE
350
21B
  3
ACAD_GROUP
350
D
  3
ACAD_LAYOUT
350
1A
  3
ACAD_MATERIAL
350
6A
  3
ACAD_MLEADERSTYLE
350
12D
  3
ACAD_MLINESTYLE
350
17
  3
ACAD_PLOTSETTINGS
350
19
  3
ACAD_PLOTSTYLENAME
350
E
  3
ACAD_SCALELIST
350
10C
  3
ACAD_SECTIONVIEWSTYLE
350
219
  3
ACAD_TABLESTYLE
350
7E
  3
ACAD_VISUALSTYLE
350
EF
  3
ACDB_RECOMPOSE_DATA
350
8930
  3
AcDbVariableDictionary
350
5E
  3
DWGPROPS
350
8931
  0
DICTIONARY
  5
87EE
330
8
100
AcDbDictionary
280
     1
281
     1
  0
DICTIONARY
  5
1FF
330
2
100
AcDbDictionary
280
     1
281
     1
  3
ACAD_LAYERSTATES
360
200
  0
DICTIONARY
  5
13C
330
10
100
AcDbDictionary
280
     1
281
     1
  0
DICTIONARY
  5
1CE
330
1F
100
AcDbDictionary
280
     1
281
     1
  3
ACAD_LAYOUTSELFREF
360
87F6
  0
DICTIONARY
  5
87A1
330
D2
100
AcDbDictionary
280
     1
281
     1
  3
ACAD_LAYOUTSELFREF
360
87FF
  0
DICTIONARY
  5
87A3
330
D6
100
AcDbDictionary
280
     1
281
     1
  3
ACAD_LAYOUTSELFREF
360
8802
  0
XRECORD
  5
216
102
{ACAD_REACTORS
330
C
102
}
330
C
100
AcDbXrecord
280
     1
300
ACD
300
2021
300
87393ACD_2021_0F
  0
DICTIONARY
  5
6B
102
{ACAD_REACTORS
330
C
102
}
330
C
100
AcDbDictionary
281
     1
  0
DICTIONARY
  5
21B
102
{ACAD_REACTORS
330
C
102
}
330
C
100
AcDbDictionary
281
     1
  3
Metric50
350
21C
  0
DICTIONARY
  5
D
102
{ACAD_REACTORS
330
C
102
}
330
C
100
AcDbDictionary
281
     1
  0
DICTIONARY
  5
1A
102
{ACAD_REACTORS
330
C
102
}
330
C
100
AcDbDictionary
281
     1
  3
Layout1
350
D3
  3
Layout2
350
D7
  3
Model
350
22
  0
DICTIONARY
  5
6A
102
{ACAD_REACTORS
330
C
102
}
330
C
100
AcDbDictionary
281
     1
  3
ByBlock
350
ED
  3
ByLayer
350
EC
  3
Global
350
EE
  0
DICTIONARY
  5
12D
102
{ACAD_REACTORS
330
C
102
}
330
C
100
AcDbDictionary
281
     1
  3
Standard
350
12E
  0
DICTIONARY
  5
17
102
{ACAD_REACTORS
330
C
102
}
330
C
100
AcDbDictionary
281
     1
  3
Standard
350
18
  0
DICTIONARY
  5
19
102
{ACAD_REACTORS
330
C
102
}
330
C
100
AcDbDictionary
281
     1
  0
ACDBDICTIONARYWDFLT
  5
E
102
{ACAD_REACTORS
330
C
102
}
330
C
100
AcDbDictionary
281
     1
  3
Normal
350
F
100
AcDbDictionaryWithDefault
340
F
  0
DICTIONARY
  5
10C
102
{ACAD_REACTORS
330
C
102
}
330
C
100
AcDbDictionary
281
     1
  3
A0
350
10D
  3
A1
350
1BE
  3
A2
350
1BF
  3
A3
350
1C0
  3
A4
350
1C1
  3
A5
350
1C2
  3
A6
350
1C3
  3
A7
350
1C4
  3
A8
350
1C5
  3
A9
350
1C6
  3
B0
350
1C7
  3
B1
350
1C8
  3
B2
350
1C9
  3
B3
350
1CA
  3
B4
350
1CB
  3
B5
350
1CC
  3
B6
350
1CD
  0
DICTIONARY
  5
219
102
{ACAD_REACTORS
330
C
102
}
330
C
100
AcDbDictionary
281
     1
  3
Metric50
350
21A
  0
DICTIONARY
  5
7E
102
{ACAD_REACTORS
330
C
102
}
330
C
100
AcDbDictionary
281
     1
  3
Standard
350
7F
  0
DICTIONARY
  5
EF
102
{ACAD_REACTORS
330
C
102
}
330
C
100
AcDbDictionary
281
     1
  3
2dWireframe
350
F5
  3
Basic
350
F4
  3
Brighten
350
FB
  3
ColorChange
350
FF
  3
Conceptual
350
F8
  3
Dim
350
FA
  3
EdgeColorOff
350
1E6
  3
Facepattern
350
FE
  3
Flat
350
F0
  3
FlatWithEdges
350
F1
  3
Gouraud
350
F2
  3
GouraudWithEdges
350
F3
  3
Hidden
350
F7
  3
JitterOff
350
1E4
  3
Linepattern
350
FD
  3
OverhangOff
350
1E5
  3
Realistic
350
F9
  3
Shaded
350
1F3
  3
Shaded with edges
350
1F2
  3
Shades of Gray
350
1EF
  3
Sketchy
350
1F0
  3
Thicken
350
FC
  3
Wireframe
350
F6
  3
X-Ray
350
1F1
  0
XRECORD
  5
8930
102
{ACAD_REACTORS
330
C
102
}
330
C
100
AcDbXrecord
280
     1
 90
        1
330
7F
  0
DICTIONARY
  5
5E
102
{ACAD_REACTORS
330
C
102
}
330
C
100
AcDbDictionary
281
     1
  3
CANNOSCALE
350
146
  3
CENTEREXE
350
259
  3
CENTERLTYPEFILE
350
25A
  3
CMLEADERSTYLE
350
145
  3
CTABLESTYLE
350
84
  3
CVIEWDETAILSTYLE
350
227
  3
CVIEWSECTIONSTYLE
350
228
  3
DIMASSOC
350
5F
  3
HIDETEXT
350
63
  3
INDEXCTL
350
884B
  3
LAYEREVAL
350
1AE
  3
LAYERNOTIFY
350
1AF
  3
LIGHTINGUNITS
350
8849
  3
MSLTSCALE
350
8848
  3
PSOLHEIGHT
350
892D
  3
PSOLWIDTH
350
892C
  3
SORTENTS
350
884A
  3
XCLIPFRAME
350
892E
  0
XRECORD
  5
8931
102
{ACAD_REACTORS
330
C
102
}
330
C
100
AcDbXrecord
280
     1
  1
DWGPROPS COOKIE
  2

  3

  4

  6

  7

  8
KhuNguyen
  9

300
=
301
=
302
=
303
=
304
=
305
=
306
=
307
=
308
=
309
=
 40
0.0010069444444444
 41
2460626.734328704
 42
2460627.432384259
  1

 90
        0
  0
DICTIONARY
  5
200
102
{ACAD_REACTORS
330
1FF
102
}
330
1FF
100
AcDbDictionary
281
     1
  0
XRECORD
  5
87F6
102
{ACAD_REACTORS
330
1CE
102
}
330
1CE
100
AcDbXrecord
280
     1
340
1F
  0
XRECORD
  5
87FF
102
{ACAD_REACTORS
330
87A1
102
}
330
87A1
100
AcDbXrecord
280
     1
340
D2
  0
XRECORD
  5
8802
102
{ACAD_REACTORS
330
87A3
102
}
330
87A3
100
AcDbXrecord
280
     1
340
D6
  0
ACDBDETAILVIEWSTYLE
  5
21C
102
{ACAD_XDICTIONARY
360
8970
102
}
102
{ACAD_REACTORS
330
21B
102
}
330
21B
100
AcDbModelDocViewStyle
 70
     0
  3
Metric50
290
     0
100
AcDbDetailViewStyle
 70
     0
 71
     0
 90
        3
 71
     1
340
11
 40
5.0
340
0
 40
5.0
300

 40
0.0
280
     1
 71
     2
340
16
 90
       25
 71
     3
340
11
 40
5.0
 90
        0
 40
15.0
 90
        1
300
%<\AcVar ViewDetailId>% (%<\AcVar ViewScale \f "%sn">%)
 71
     4
340
16
 90
       25
340
16
 90
       25
280
     0
  0
LAYOUT
  5
D3
102
{ACAD_XDICTIONARY
360
8935
102
}
102
{ACAD_REACTORS
330
1A
102
}
330
1A
100
AcDbPlotSettings
  1

  2
C:\Documents and Settings\basas\Application Data\Autodesk\AutoCAD 2005\R16.1\enu\plotters\Default Windows System Printer.pc3
  4

  6

 40
0.0
 41
0.0
 42
0.0
 43
0.0
 44
0.0
 45
0.0
 46
0.0
 47
0.0
 48
0.0
 49
0.0
140
0.0
141
0.0
142
1.0
143
1.0
 70
   688
 72
     0
 73
     0
 74
     5
  7

 75
    16
147
1.0
148
0.0
149
0.0
100
AcDbLayout
  1
Layout1
 70
     1
 71
     1
 10
0.0
 20
0.0
 11
12.0
 21
9.0
 12
0.0
 22
0.0
 32
0.0
 14
0.0
 24
0.0
 34
0.0
 15
0.0
 25
0.0
 35
0.0
146
0.0
 13
0.0
 23
0.0
 33
0.0
 16
1.0
 26
0.0
 36
0.0
 17
0.0
 27
1.0
 37
0.0
 76
     0
330
D2
  0
LAYOUT
  5
D7
102
{ACAD_XDICTIONARY
360
8937
102
}
102
{ACAD_REACTORS
330
1A
102
}
330
1A
100
AcDbPlotSettings
  1

  2
C:\Documents and Settings\basas\Application Data\Autodesk\AutoCAD 2005\R16.1\enu\plotters\Default Windows System Printer.pc3
  4

  6

 40
0.0
 41
0.0
 42
0.0
 43
0.0
 44
0.0
 45
0.0
 46
0.0
 47
0.0
 48
0.0
 49
0.0
140
0.0
141
0.0
142
1.0
143
1.0
 70
   688
 72
     0
 73
     0
 74
     5
  7

 75
    16
147
1.0
148
0.0
149
0.0
100
AcDbLayout
  1
Layout2
 70
     1
 71
     2
 10
0.0
 20
0.0
 11
12.0
 21
9.0
 12
0.0
 22
0.0
 32
0.0
 14
0.0
 24
0.0
 34
0.0
 15
0.0
 25
0.0
 35
0.0
146
0.0
 13
0.0
 23
0.0
 33
0.0
 16
1.0
 26
0.0
 36
0.0
 17
0.0
 27
1.0
 37
0.0
 76
     0
330
D6
  0
LAYOUT
  5
22
102
{ACAD_XDICTIONARY
360
8932
102
}
102
{ACAD_REACTORS
330
1A
102
}
330
1A
100
AcDbPlotSettings
  1

  2
none_device
  4
ISO_A4_(210.00_x_297.00_MM)
  6

 40
7.5
 41
20.0
 42
7.5
 43
20.0
 44
210.0
 45
297.0
 46
11.54999923706054
 47
-13.65000009536743
 48
0.0
 49
0.0
140
0.0
141
0.0
142
1.0
143
8.704084754739808
 70
 11952
 72
     1
 73
     0
 74
     0
  7

 75
     0
147
0.1148885871608098
148
0.0
149
0.0
100
AcDbLayout
  1
Model
 70
     1
 71
     0
 10
0.0
 20
0.0
 11
12.0
 21
9.0
 12
0.0
 22
0.0
 32
0.0
 14
0.0
 24
0.0
 34
0.0
 15
0.0
 25
0.0
 35
0.0
146
0.0
 13
0.0
 23
0.0
 33
0.0
 16
1.0
 26
0.0
 36
0.0
 17
0.0
 27
1.0
 37
0.0
 76
     0
330
1F
331
EA
1001
ACAD_PSEXT
1000
None
1000
None
1000
Not applicable
1000
The layout will not be plotted unless a new plotter configuration name is selected.
1070
     0
  0
MATERIAL
  5
ED
102
{ACAD_XDICTIONARY
360
1F9
102
}
102
{ACAD_REACTORS
330
6A
102
}
330
6A
100
AcDbMaterial
  1
ByBlock
  0
MATERIAL
  5
EC
102
{ACAD_XDICTIONARY
360
1F7
102
}
102
{ACAD_REACTORS
330
6A
102
}
330
6A
100
AcDbMaterial
  1
ByLayer
  0
MATERIAL
  5
EE
102
{ACAD_XDICTIONARY
360
173
102
}
102
{ACAD_REACTORS
330
6A
102
}
330
6A
100
AcDbMaterial
  1
Global
 43
0.0007999999797903
 43
0.0
 43
0.0
 43
0.0
 43
0.0
 43
0.0007999999797903
 43
0.0
 43
0.0
 43
0.0
 43
0.0
 43
1.0
 43
0.0
 43
0.0
 43
0.0
 43
0.0
 43
1.0
 49
0.0007999999797903
 49
0.0
 49
0.0
 49
0.0
 49
0.0
 49
0.0007999999797903
 49
0.0
 49
0.0
 49
0.0
 49
0.0
 49
1.0
 49
0.0
 49
0.0
 49
0.0
 49
0.0
 49
1.0
142
0.0007999999797903
142
0.0
142
0.0
142
0.0
142
0.0
142
0.0007999999797903
142
0.0
142
0.0
142
0.0
142
0.0
142
1.0
142
0.0
142
0.0
142
0.0
142
0.0
142
1.0
144
0.0007999999797903
144
0.0
144
0.0
144
0.0
144
0.0
144
0.0007999999797903
144
0.0
144
0.0
144
0.0
144
0.0
144
1.0
144
0.0
144
0.0
144
0.0
144
0.0
144
1.0
1001
ACAD
1070
    -1
1070
     3
1070
     0
1000

1071
        0
1070
     0
  0
MLEADERSTYLE
  5
12E
102
{ACAD_XDICTIONARY
360
895C
102
}
102
{ACAD_REACTORS
330
12D
102
}
330
12D
100
AcDbMLeaderStyle
170
     2
171
     1
172
     0
 90
        2
 40
0.0
 41
0.0
173
     1
 91
-1056964608
340
14
 92
       -2
290
     1
 42
2.0
291
     1
 43
8.0
  3
Standard
 44
4.0
300

342
11
174
     1
178
     1
175
     1
176
     0
 93
-1056964608
 45
4.0
292
     0
297
     0
 46
4.0
 94
-1056964608
 47
1.0
 49
1.0
140
1.0
293
     1
141
0.0
294
     1
177
     0
142
1.0
295
     0
296
     0
143
3.75
1001
ACAD_MLEADERVER
1070
     2
  0
MLINESTYLE
  5
18
102
{ACAD_REACTORS
330
17
102
}
330
17
100
AcDbMlineStyle
  2
STANDARD
 70
     0
  3

 62
   256
 51
90.0
 52
90.0
 71
     2
 49
0.5
 62
   256
  6
BYLAYER
 49
-0.5
 62
   256
  6
BYLAYER
  0
ACDBPLACEHOLDER
  5
F
102
{ACAD_REACTORS
330
E
102
}
330
E
  0
SCALE
  5
10D
102
{ACAD_REACTORS
330
10C
102
}
330
10C
100
AcDbScale
 70
     0
300
1:1
140
1.0
141
1.0
290
     1
  0
SCALE
  5
1BE
102
{ACAD_REACTORS
330
10C
102
}
330
10C
100
AcDbScale
 70
     0
300
1:2
140
1.0
141
2.0
290
     0
  0
SCALE
  5
1BF
102
{ACAD_REACTORS
330
10C
102
}
330
10C
100
AcDbScale
 70
     0
300
1:4
140
1.0
141
4.0
290
     0
  0
SCALE
  5
1C0
102
{ACAD_REACTORS
330
10C
102
}
330
10C
100
AcDbScale
 70
     0
300
1:5
140
1.0
141
5.0
290
     0
  0
SCALE
  5
1C1
102
{ACAD_REACTORS
330
10C
102
}
330
10C
100
AcDbScale
 70
     0
300
1:8
140
1.0
141
8.0
290
     0
  0
SCALE
  5
1C2
102
{ACAD_REACTORS
330
10C
102
}
330
10C
100
AcDbScale
 70
     0
300
1:10
140
1.0
141
10.0
290
     0
  0
SCALE
  5
1C3
102
{ACAD_REACTORS
330
10C
102
}
330
10C
100
AcDbScale
 70
     0
300
1:16
140
1.0
141
16.0
290
     0
  0
SCALE
  5
1C4
102
{ACAD_REACTORS
330
10C
102
}
330
10C
100
AcDbScale
 70
     0
300
1:20
140
1.0
141
20.0
290
     0
  0
SCALE
  5
1C5
102
{ACAD_REACTORS
330
10C
102
}
330
10C
100
AcDbScale
 70
     0
300
1:30
140
1.0
141
30.0
290
     0
  0
SCALE
  5
1C6
102
{ACAD_REACTORS
330
10C
102
}
330
10C
100
AcDbScale
 70
     0
300
1:40
140
1.0
141
40.0
290
     0
  0
SCALE
  5
1C7
102
{ACAD_REACTORS
330
10C
102
}
330
10C
100
AcDbScale
 70
     0
300
1:50
140
1.0
141
50.0
290
     0
  0
SCALE
  5
1C8
102
{ACAD_REACTORS
330
10C
102
}
330
10C
100
AcDbScale
 70
     0
300
1:100
140
1.0
141
100.0
290
     0
  0
SCALE
  5
1C9
102
{ACAD_REACTORS
330
10C
102
}
330
10C
100
AcDbScale
 70
     0
300
2:1
140
2.0
141
1.0
290
     0
  0
SCALE
  5
1CA
102
{ACAD_REACTORS
330
10C
102
}
330
10C
100
AcDbScale
 70
     0
300
4:1
140
4.0
141
1.0
290
     0
  0
SCALE
  5
1CB
102
{ACAD_REACTORS
330
10C
102
}
330
10C
100
AcDbScale
 70
     0
300
8:1
140
8.0
141
1.0
290
     0
  0
SCALE
  5
1CC
102
{ACAD_REACTORS
330
10C
102
}
330
10C
100
AcDbScale
 70
     0
300
10:1
140
10.0
141
1.0
290
     0
  0
SCALE
  5
1CD
102
{ACAD_REACTORS
330
10C
102
}
330
10C
100
AcDbScale
 70
     0
300
100:1
140
100.0
141
1.0
290
     0
  0
ACDBSECTIONVIEWSTYLE
  5
21A
102
{ACAD_XDICTIONARY
360
896E
102
}
102
{ACAD_REACTORS
330
219
102
}
330
219
100
AcDbModelDocViewStyle
 70
     0
  3
Metric50
290
     0
100
AcDbSectionViewStyle
 70
     0
 71
     0
 90
      102
 71
     1
340
11
 40
5.0
340
0
340
0
 40
5.0
300
I, O, Q, S, X, Z
 40
10.0
 90
        0
 40
2.5
 90
        0
 71
     2
340
16
 90
       25
340
16
 90
       50
 40
5.0
 40
2.5
 40
5.0
 71
     3
340
11
 40
5.0
 90
        0
 40
15.0
 90
        1
300
%<\AcVar ViewSectionStartId>%-%<\AcVar ViewSectionEndId>% (%<\AcVar ViewScale \f "%sn">%)
 71
     4
300
ANSI31
 40
1.0
 90
        0
290
     0
290
     0
 90
        6
 40
0.0
 40
1.570796326794896
 40
0.2617993877991494
 40
1.308996938995747
 40
-0.2617993877991494
 40
1.832595714594046
  0
TABLESTYLE
  5
7F
102
{ACAD_XDICTIONARY
360
162
102
}
102
{ACAD_REACTORS
330
7E
102
}
330
7E
100
AcDbTableStyle
  3
Standard
 70
     0
 71
     0
 40
1.5
 41
1.5
280
     0
281
     0
  7
Standard
140
4.5
170
     2
 62
     0
 63
     7
283
     0
274
    -2
284
     1
 64
     0
275
    -2
285
     1
 65
     0
276
    -2
286
     1
 66
     0
277
    -2
287
     1
 67
     0
278
    -2
288
     1
 68
     0
279
    -2
289
     1
 69
     0
  7
Standard
140
6.0
170
     5
 62
     0
 63
     7
283
     0
274
    -2
284
     1
 64
     0
275
    -2
285
     1
 65
     0
276
    -2
286
     1
 66
     0
277
    -2
287
     1
 67
     0
278
    -2
288
     1
 68
     0
279
    -2
289
     1
 69
     0
  7
Standard
140
4.5
170
     5
 62
     0
 63
     7
283
     0
274
    -2
284
     1
 64
     0
275
    -2
285
     1
 65
     0
276
    -2
286
     1
 66
     0
277
    -2
287
     1
 67
     0
278
    -2
288
     1
 68
     0
279
    -2
289
     1
 69
     0
  0
VISUALSTYLE
  5
F5
102
{ACAD_XDICTIONARY
360
8946
102
}
102
{ACAD_REACTORS
330
EF
102
}
330
EF
100
AcDbVisualStyle
  2
2dWireframe
 70
     4
 71
     0
 72
     2
 73
     1
 90
        0
 40
-0.6
 41
-30.0
 62
     5
 63
     7
 74
     1
 91
        4
 64
     7
 65
   257
 75
     1
175
     1
 42
1.0
 92
        0
 66
   257
 43
1.0
 76
     1
 77
     6
 78
     2
 67
     7
 79
     5
170
     0
171
     0
290
     0
174
     0
 93
        1
 44
0.0
173
     0
291
     0
 45
0.0
1001
ACAD
1000
AcDbSavedByObjectVersion
1070
     0
  0
VISUALSTYLE
  5
F4
102
{ACAD_XDICTIONARY
360
8944
102
}
102
{ACAD_REACTORS
330
EF
102
}
330
EF
100
AcDbVisualStyle
  2
Basic
 70
     7
 71
     1
 72
     0
 73
     1
 90
        0
 40
-0.6
 41
-30.0
 62
     5
 63
     7
 74
     0
 91
        4
 64
     7
 65
   257
 75
     1
175
     1
 42
1.0
 92
        8
 66
     7
 43
1.0
 76
     1
 77
     6
 78
     2
 67
     7
 79
     5
170
     0
171
     0
290
     0
174
     0
 93
        1
 44
0.0
173
     0
291
     1
 45
0.0
1001
ACAD
1000
AcDbSavedByObjectVersion
1070
     0
  0
VISUALSTYLE
  5
FB
102
{ACAD_XDICTIONARY
360
8952
102
}
102
{ACAD_REACTORS
330
EF
102
}
330
EF
100
AcDbVisualStyle
  2
Brighten
 70
    12
 71
     2
 72
     2
 73
     1
 90
        0
 40
-0.6
 41
-30.0
 62
     5
 63
     7
 74
     1
 91
        4
 64
     7
 65
   257
 75
     1
175
     1
 42
1.0
 92
        8
 66
     7
 43
1.0
 76
     1
 77
     6
 78
     2
 67
     7
 79
     5
170
     0
171
     0
290
     0
174
     0
 93
        1
 44
50.0
173
     0
291
     1
 45
0.0
1001
ACAD
1000
AcDbSavedByObjectVersion
1070
     0
  0
VISUALSTYLE
  5
FF
102
{ACAD_XDICTIONARY
360
895A
102
}
102
{ACAD_REACTORS
330
EF
102
}
330
EF
100
AcDbVisualStyle
  2
ColorChange
 70
    16
 71
     2
 72
     2
 73
     3
 90
        0
 40
-0.6
 41
-30.0
 62
     5
 63
     8
 74
     1
 91
        4
 64
     7
 65
   257
 75
     1
175
     1
 42
1.0
 92
        8
 66
     8
 43
1.0
 76
     1
 77
     6
 78
     2
 67
     7
 79
     5
170
     0
171
     0
290
     0
174
     0
 93
        1
 44
0.0
173
     0
291
     1
 45
0.0
1001
ACAD
1000
AcDbSavedByObjectVersion
1070
     0
  0
VISUALSTYLE
  5
F8
102
{ACAD_XDICTIONARY
360
894C
102
}
102
{ACAD_REACTORS
330
EF
102
}
330
EF
100
AcDbVisualStyle
  2
Conceptual
 70
     9
 71
     3
 72
     2
 73
     1
 90
        0
 40
-0.6
 41
-30.0
 62
     5
 63
     7
 74
     2
 91
        2
 64
     7
 65
   257
 75
     1
175
     1
 42
40.0
 92
        8
 66
     7
 43
1.0
 76
     1
 77
     6
 78
     2
 67
     7
 79
     3
170
     0
171
     0
290
     0
174
     0
 93
        1
 44
0.0
173
     0
291
     0
 45
0.0
1001
ACAD
1000
AcDbSavedByObjectVersion
1070
     0
  0
VISUALSTYLE
  5
FA
102
{ACAD_XDICTIONARY
360
8950
102
}
102
{ACAD_REACTORS
330
EF
102
}
330
EF
100
AcDbVisualStyle
  2
Dim
 70
    11
 71
     2
 72
     2
 73
     1
 90
        0
 40
-0.6
 41
-30.0
 62
     5
 63
     7
 74
     1
 91
        4
 64
     7
 65
   257
 75
     1
175
     1
 42
1.0
 92
        8
 66
     7
 43
1.0
 76
     1
 77
     6
 78
     2
 67
     7
 79
     5
170
     0
171
     0
290
     0
174
     0
 93
        1
 44
-50.0
173
     0
291
     1
 45
0.0
1001
ACAD
1000
AcDbSavedByObjectVersion
1070
     0
  0
VISUALSTYLE
  5
1E6
102
{ACAD_XDICTIONARY
360
8962
102
}
102
{ACAD_REACTORS
330
EF
102
}
330
EF
100
AcDbVisualStyle
  2
EdgeColorOff
 70
    22
 71
     2
 72
     2
 73
     0
 90
        0
 40
-0.6
 41
-30.0
 62
     5
 63
     7
 74
     1
 91
        4
 64
     7
 65
   257
 75
     1
175
     1
 42
1.0
 92
        8
 66
     7
 43
1.0
 76
     1
 77
     6
 78
     2
 67
     7
 79
     5
170
     0
171
     0
290
     0
174
     0
 93
        1
 44
0.0
173
     0
291
     1
 45
0.0
1001
ACAD
1000
AcDbSavedByObjectVersion
1070
     0
  0
VISUALSTYLE
  5
FE
102
{ACAD_XDICTIONARY
360
8958
102
}
102
{ACAD_REACTORS
330
EF
102
}
330
EF
100
AcDbVisualStyle
  2
Facepattern
 70
    15
 71
     2
 72
     2
 73
     1
 90
        0
 40
-0.6
 41
-30.0
 62
     5
 63
     7
 74
     1
 91
        4
 64
     7
 65
   257
 75
     1
175
     1
 42
1.0
 92
        8
 66
     7
 43
1.0
 76
     1
 77
     6
 78
     2
 67
     7
 79
     5
170
     0
171
     0
290
     0
174
     0
 93
        1
 44
0.0
173
     0
291
     1
 45
0.0
1001
ACAD
1000
AcDbSavedByObjectVersion
1070
     0
  0
VISUALSTYLE
  5
F0
102
{ACAD_XDICTIONARY
360
893C
102
}
102
{ACAD_REACTORS
330
EF
102
}
330
EF
100
AcDbVisualStyle
  2
Flat
 70
     0
 71
     2
 72
     1
 73
     1
 90
        2
 40
-0.6
 41
30.0
 62
     5
 63
     7
 74
     0
 91
        0
 64
     7
 65
   257
 75
     1
175
     1
 42
1.0
 92
        8
 66
     7
 43
1.0
 76
     1
 77
     6
 78
     2
 67
     7
 79
     5
170
     0
171
     0
290
     0
174
     0
 93
       13
 44
0.0
173
     0
291
     1
 45
0.0
1001
ACAD
1000
AcDbSavedByObjectVersion
1070
     0
  0
VISUALSTYLE
  5
F1
102
{ACAD_XDICTIONARY
360
893E
102
}
102
{ACAD_REACTORS
330
EF
102
}
330
EF
100
AcDbVisualStyle
  2
FlatWithEdges
 70
     1
 71
     2
 72
     1
 73
     1
 90
        2
 40
-0.6
 41
30.0
 62
     5
 63
     7
 74
     1
 91
        0
 64
     7
 65
   257
 75
     1
175
     1
 42
1.0
 92
        0
 66
   257
 43
1.0
 76
     1
 77
     6
 78
     2
 67
     7
 79
     5
170
     0
171
     0
290
     0
174
     0
 93
       13
 44
0.0
173
     0
291
     1
 45
0.0
1001
ACAD
1000
AcDbSavedByObjectVersion
1070
     0
  0
VISUALSTYLE
  5
F2
102
{ACAD_XDICTIONARY
360
8940
102
}
102
{ACAD_REACTORS
330
EF
102
}
330
EF
100
AcDbVisualStyle
  2
Gouraud
 70
     2
 71
     2
 72
     2
 73
     1
 90
        2
 40
-0.6
 41
30.0
 62
     5
 63
     7
 74
     0
 91
        0
 64
     7
 65
   257
 75
     1
175
     1
 42
1.0
 92
        0
 66
     7
 43
1.0
 76
     1
 77
     6
 78
     2
 67
     7
 79
     5
170
     0
171
     0
290
     0
174
     0
 93
       13
 44
0.0
173
     0
291
     1
 45
0.0
1001
ACAD
1000
AcDbSavedByObjectVersion
1070
     0
  0
VISUALSTYLE
  5
F3
102
{ACAD_XDICTIONARY
360
8942
102
}
102
{ACAD_REACTORS
330
EF
102
}
330
EF
100
AcDbVisualStyle
  2
GouraudWithEdges
 70
     3
 71
     2
 72
     2
 73
     1
 90
        2
 40
-0.6
 41
30.0
 62
     5
 63
     7
 74
     1
 91
        0
 64
     7
 65
   257
 75
     1
175
     1
 42
1.0
 92
        0
 66
   257
 43
1.0
 76
     1
 77
     6
 78
     2
 67
     7
 79
     5
170
     0
171
     0
290
     0
174
     0
 93
       13
 44
0.0
173
     0
291
     1
 45
0.0
1001
ACAD
1000
AcDbSavedByObjectVersion
1070
     0
  0
VISUALSTYLE
  5
F7
102
{ACAD_XDICTIONARY
360
894A
102
}
102
{ACAD_REACTORS
330
EF
102
}
330
EF
100
AcDbVisualStyle
  2
Hidden
 70
     6
 71
     1
 72
     2
 73
     2
 90
        0
 40
-0.6
 41
-30.0
 62
     5
 63
     7
 74
     2
 91
        2
 64
     7
 65
   257
 75
     2
175
     1
 42
40.0
 92
        0
 66
   257
 43
1.0
 76
     1
 77
     6
 78
     2
 67
     7
 79
     3
170
     0
171
     0
290
     0
174
     0
 93
        1
 44
0.0
173
     0
291
     0
 45
0.0
1001
ACAD
1000
AcDbSavedByObjectVersion
1070
     0
  0
VISUALSTYLE
  5
1E4
102
{ACAD_XDICTIONARY
360
895E
102
}
102
{ACAD_REACTORS
330
EF
102
}
330
EF
100
AcDbVisualStyle
  2
JitterOff
 70
    20
 71
     2
 72
     2
 73
     0
 90
        0
 40
-0.6
 41
-30.0
 62
     5
 63
     7
 74
     1
 91
        4
 64
     7
 65
   257
 75
     1
175
     1
 42
1.0
 92
       10
 66
     7
 43
1.0
 76
     1
 77
     6
 78
     2
 67
     7
 79
     5
170
     0
171
     0
290
     0
174
     0
 93
        1
 44
0.0
173
     0
291
     1
 45
0.0
1001
ACAD
1000
AcDbSavedByObjectVersion
1070
     0
  0
VISUALSTYLE
  5
FD
102
{ACAD_XDICTIONARY
360
8956
102
}
102
{ACAD_REACTORS
330
EF
102
}
330
EF
100
AcDbVisualStyle
  2
Linepattern
 70
    14
 71
     2
 72
     2
 73
     1
 90
        0
 40
-0.6
 41
-30.0
 62
     5
 63
     7
 74
     1
 91
        4
 64
     7
 65
   257
 75
     7
175
     7
 42
1.0
 92
        8
 66
     7
 43
1.0
 76
     1
 77
     6
 78
     2
 67
     7
 79
     5
170
     0
171
     0
290
     0
174
     0
 93
        1
 44
0.0
173
     0
291
     1
 45
0.0
1001
ACAD
1000
AcDbSavedByObjectVersion
1070
     0
  0
VISUALSTYLE
  5
1E5
102
{ACAD_XDICTIONARY
360
8960
102
}
102
{ACAD_REACTORS
330
EF
102
}
330
EF
100
AcDbVisualStyle
  2
OverhangOff
 70
    21
 71
     2
 72
     2
 73
     0
 90
        0
 40
-0.6
 41
-30.0
 62
     5
 63
     7
 74
     1
 91
        4
 64
     7
 65
   257
 75
     1
175
     1
 42
1.0
 92
        9
 66
     7
 43
1.0
 76
     1
 77
     6
 78
     2
 67
     7
 79
     5
170
     0
171
     0
290
     0
174
     0
 93
        1
 44
0.0
173
     0
291
     1
 45
0.0
1001
ACAD
1000
AcDbSavedByObjectVersion
1070
     0
  0
VISUALSTYLE
  5
F9
102
{ACAD_XDICTIONARY
360
894E
102
}
102
{ACAD_REACTORS
330
EF
102
}
330
EF
100
AcDbVisualStyle
  2
Realistic
 70
     8
 71
     2
 72
     2
 73
     0
 90
        2
 40
-0.6
 41
30.0
 62
     5
 63
     7
 74
     0
 91
        0
 64
     7
 65
   257
 75
     1
175
     1
 42
1.0
 92
        8
 66
   257
 43
1.0
 76
     1
 77
     6
 78
     2
 67
     7
 79
     3
170
     0
171
     0
290
     0
174
     0
 93
       13
 44
0.0
173
     0
291
     0
 45
0.0
1001
ACAD
1000
AcDbSavedByObjectVersion
1070
     0
  0
VISUALSTYLE
  5
1F3
102
{ACAD_XDICTIONARY
360
896C
102
}
102
{ACAD_REACTORS
330
EF
102
}
330
EF
100
AcDbVisualStyle
  2
Shaded
 70
    27
 71
     2
 72
     2
 73
     1
 90
        2
 40
-0.6
 41
30.0
 62
     5
 63
     7
 74
     0
 91
        4
 64
     7
 65
   257
 75
     1
175
     1
 42
1.0
 92
        8
 66
   257
 43
1.0
 76
     1
 77
     6
 78
     2
 67
     8
 79
     3
170
     0
171
     0
290
     0
174
     0
 93
        5
 44
0.0
173
     0
291
     0
 45
0.0
1001
ACAD
1000
AcDbSavedByObjectVersion
1070
     0
  0
VISUALSTYLE
  5
1F2
102
{ACAD_XDICTIONARY
360
896A
102
}
102
{ACAD_REACTORS
330
EF
102
}
330
EF
100
AcDbVisualStyle
  2
Shaded with edges
 70
    26
 71
     2
 72
     2
 73
     1
 90
        2
 40
-0.6
 41
30.0
 62
     5
 63
     7
 74
     1
 91
        2
 64
     7
 65
   257
 75
     2
175
     1
 42
1.0
 92
        8
 66
   257
 43
1.0
 76
     1
 77
     6
 78
     2
 67
     7
 79
     3
170
     0
171
     0
290
     0
174
     0
 93
        5
 44
0.0
173
     0
291
     0
 45
0.0
1001
ACAD
1000
AcDbSavedByObjectVersion
1070
     0
  0
VISUALSTYLE
  5
1EF
102
{ACAD_XDICTIONARY
360
8964
102
}
102
{ACAD_REACTORS
330
EF
102
}
330
EF
100
AcDbVisualStyle
  2
Shades of Gray
 70
    23
 71
     2
 72
     2
 73
     3
 90
        0
 40
-0.6
 41
-30.0
 62
     5
 63
     7
 74
     2
 91
        2
 64
     7
 65
     7
 75
     1
175
     1
 42
40.0
 92
        8
 66
     7
 43
1.0
 76
     1
 77
     6
 78
     2
 67
     7
 79
     3
170
     0
171
     0
290
     0
174
     0
 93
        1
 44
0.0
173
     0
291
     0
 45
0.0
1001
ACAD
1000
AcDbSavedByObjectVersion
1070
     0
  0
VISUALSTYLE
  5
1F0
102
{ACAD_XDICTIONARY
360
8966
102
}
102
{ACAD_REACTORS
330
EF
102
}
330
EF
100
AcDbVisualStyle
  2
Sketchy
 70
    24
 71
     1
 72
     2
 73
     2
 90
        0
 40
-0.6
 41
-30.0
 62
     5
 63
     7
 74
     2
 91
        2
 64
     7
 65
     7
 75
     1
175
     1
 42
40.0
 92
       11
 66
     7
 43
1.0
 76
     1
 77
     6
 78
     2
 67
     7
 79
     6
170
     0
171
     0
290
     0
174
     0
 93
        1
 44
0.0
173
     0
291
     0
 45
0.0
1001
ACAD
1000
AcDbSavedByObjectVersion
1070
     0
  0
VISUALSTYLE
  5
FC
102
{ACAD_XDICTIONARY
360
8954
102
}
102
{ACAD_REACTORS
330
EF
102
}
330
EF
100
AcDbVisualStyle
  2
Thicken
 70
    13
 71
     2
 72
     2
 73
     1
 90
        0
 40
-0.6
 41
-30.0
 62
     5
 63
     7
 74
     1
 91
        4
 64
     7
 65
   257
 75
     1
175
     1
 42
1.0
 92
       12
 66
     7
 43
1.0
 76
     1
 77
     6
 78
     2
 67
     7
 79
     5
170
     0
171
     0
290
     0
174
     0
 93
        1
 44
0.0
173
     0
291
     1
 45
0.0
1001
ACAD
1000
AcDbSavedByObjectVersion
1070
     0
  0
VISUALSTYLE
  5
F6
102
{ACAD_XDICTIONARY
360
8948
102
}
102
{ACAD_REACTORS
330
EF
102
}
330
EF
100
AcDbVisualStyle
  2
Wireframe
 70
     5
 71
     0
 72
     2
 73
     0
 90
        0
 40
-0.6
 41
-30.0
 62
     5
 63
     7
 74
     1
 91
        4
 64
     7
 65
   257
 75
     1
175
     1
 42
1.0
 92
        0
 66
   257
 43
1.0
 76
     1
 77
     6
 78
     2
 67
     7
 79
     3
170
     0
171
     0
290
     0
174
     0
 93
        1
 44
0.0
173
     0
291
     0
 45
0.0
1001
ACAD
1000
AcDbSavedByObjectVersion
1070
     0
  0
VISUALSTYLE
  5
1F1
102
{ACAD_XDICTIONARY
360
8968
102
}
102
{ACAD_REACTORS
330
EF
102
}
330
EF
100
AcDbVisualStyle
  2
X-Ray
 70
    25
 71
     2
 72
     2
 73
     1
 90
        1
 40
0.5
 41
-30.0
 62
     5
 63
     7
 74
     1
 91
        0
 64
     7
 65
   257
 75
     1
175
     1
 42
1.0
 92
        8
 66
     7
 43
1.0
 76
     1
 77
     6
 78
     2
 67
     7
 79
     3
170
     0
171
     0
290
     0
174
     0
 93
       13
 44
0.0
173
     0
291
     0
 45
0.0
1001
ACAD
1000
AcDbSavedByObjectVersion
1070
     0
  0
DICTIONARYVAR
  5
146
102
{ACAD_REACTORS
330
5E
102
}
330
5E
100
DictionaryVariables
280
     0
  1
1:1
  0
DICTIONARYVAR
  5
259
102
{ACAD_REACTORS
330
5E
102
}
330
5E
100
DictionaryVariables
280
     0
  1
3.500000
  0
DICTIONARYVAR
  5
25A
102
{ACAD_REACTORS
330
5E
102
}
330
5E
100
DictionaryVariables
280
     0
  1
acadiso.lin
  0
DICTIONARYVAR
  5
145
102
{ACAD_REACTORS
330
5E
102
}
330
5E
100
DictionaryVariables
280
     0
  1
STANDARD
  0
DICTIONARYVAR
  5
84
102
{ACAD_REACTORS
330
5E
102
}
330
5E
100
DictionaryVariables
280
     0
  1
STANDARD
  0
DICTIONARYVAR
  5
227
102
{ACAD_REACTORS
330
5E
102
}
330
5E
100
DictionaryVariables
280
     0
  1
Metric50
  0
DICTIONARYVAR
  5
228
102
{ACAD_REACTORS
330
5E
102
}
330
5E
100
DictionaryVariables
280
     0
  1
Metric50
  0
DICTIONARYVAR
  5
5F
102
{ACAD_REACTORS
330
5E
102
}
330
5E
100
DictionaryVariables
280
     0
  1
2
  0
DICTIONARYVAR
  5
63
102
{ACAD_REACTORS
330
5E
102
}
330
5E
100
DictionaryVariables
280
     0
  1
1
  0
DICTIONARYVAR
  5
884B
102
{ACAD_REACTORS
330
5E
102
}
330
5E
100
DictionaryVariables
280
     0
  1
0
  0
DICTIONARYVAR
  5
1AE
102
{ACAD_REACTORS
330
5E
102
}
330
5E
100
DictionaryVariables
280
     0
  1
0
  0
DICTIONARYVAR
  5
1AF
102
{ACAD_REACTORS
330
5E
102
}
330
5E
100
DictionaryVariables
280
     0
  1
0
  0
DICTIONARYVAR
  5
8849
102
{ACAD_REACTORS
330
5E
102
}
330
5E
100
DictionaryVariables
280
     0
  1
2
  0
DICTIONARYVAR
  5
8848
102
{ACAD_REACTORS
330
5E
102
}
330
5E
100
DictionaryVariables
280
     0
  1
1
  0
DICTIONARYVAR
  5
892D
102
{ACAD_REACTORS
330
5E
102
}
330
5E
100
DictionaryVariables
280
     0
  1
80.000000
  0
DICTIONARYVAR
  5
892C
102
{ACAD_REACTORS
330
5E
102
}
330
5E
100
DictionaryVariables
280
     0
  1
5.000000
  0
DICTIONARYVAR
  5
884A
102
{ACAD_REACTORS
330
5E
102
}
330
5E
100
DictionaryVariables
280
     0
  1
127
  0
DICTIONARYVAR
  5
892E
102
{ACAD_REACTORS
330
5E
102
}
330
5E
100
DictionaryVariables
280
     0
  1
2
  0
DICTIONARY
  5
8970
330
21C
100
AcDbDictionary
280
     1
281
     1
  3
ACAD_XREC_ROUNDTRIP
360
8971
  0
DICTIONARY
  5
8935
330
D3
100
AcDbDictionary
280
     1
281
     1
  3
ACAD_XREC_ROUNDTRIP
360
8936
  0
DICTIONARY
  5
8937
330
D7
100
AcDbDictionary
280
     1
281
     1
  3
ACAD_XREC_ROUNDTRIP
360
8938
  0
DICTIONARY
  5
8932
330
22
100
AcDbDictionary
280
     1
281
     1
  3
ACAD_XREC_ROUNDTRIP
360
8933
  0
DICTIONARY
  5
1F9
330
ED
100
AcDbDictionary
280
     1
281
     1
  3
ACAD_XREC_ROUNDTRIP
360
893A
  3
FBXASSET
360
1FA
  0
DICTIONARY
  5
1F7
330
EC
100
AcDbDictionary
280
     1
281
     1
  3
ACAD_XREC_ROUNDTRIP
360
8939
  3
FBXASSET
360
1F8
  0
DICTIONARY
  5
173
330
EE
100
AcDbDictionary
280
     1
281
     1
  3
ACAD_XREC_ROUNDTRIP
360
893B
  3
BUMPTILE
360
175
  3
DIFFUSETILE
360
174
  3
FBXASSET
360
1FB
  3
OPACITYTILE
360
176
  3
REFLECTIONTILE
360
177
  0
DICTIONARY
  5
895C
330
12E
100
AcDbDictionary
280
     1
281
     1
  3
ACAD_XREC_ROUNDTRIP
360
895D
  0
DICTIONARY
  5
896E
330
21A
100
AcDbDictionary
280
     1
281
     1
  3
ACAD_XREC_ROUNDTRIP
360
896F
  0
DICTIONARY
  5
162
330
7F
100
AcDbDictionary
280
     1
281
     1
  3
ACAD_ROUNDTRIP_2008_TABLESTYLE_CELLSTYLEMAP
360
892F
  3
ACAD_XREC_ROUNDTRIP
360
8934
  0
DICTIONARY
  5
8946
330
F5
100
AcDbDictionary
280
     1
281
     1
  3
ACAD_XREC_ROUNDTRIP
360
8947
  0
DICTIONARY
  5
8944
330
F4
100
AcDbDictionary
280
     1
281
     1
  3
ACAD_XREC_ROUNDTRIP
360
8945
  0
DICTIONARY
  5
8952
330
FB
100
AcDbDictionary
280
     1
281
     1
  3
ACAD_XREC_ROUNDTRIP
360
8953
  0
DICTIONARY
  5
895A
330
FF
100
AcDbDictionary
280
     1
281
     1
  3
ACAD_XREC_ROUNDTRIP
360
895B
  0
DICTIONARY
  5
894C
330
F8
100
AcDbDictionary
280
     1
281
     1
  3
ACAD_XREC_ROUNDTRIP
360
894D
  0
DICTIONARY
  5
8950
330
FA
100
AcDbDictionary
280
     1
281
     1
  3
ACAD_XREC_ROUNDTRIP
360
8951
  0
DICTIONARY
  5
8962
330
1E6
100
AcDbDictionary
280
     1
281
     1
  3
ACAD_XREC_ROUNDTRIP
360
8963
  0
DICTIONARY
  5
8958
330
FE
100
AcDbDictionary
280
     1
281
     1
  3
ACAD_XREC_ROUNDTRIP
360
8959
  0
DICTIONARY
  5
893C
330
F0
100
AcDbDictionary
280
     1
281
     1
  3
ACAD_XREC_ROUNDTRIP
360
893D
  0
DICTIONARY
  5
893E
330
F1
100
AcDbDictionary
280
     1
281
     1
  3
ACAD_XREC_ROUNDTRIP
360
893F
  0
DICTIONARY
  5
8940
330
F2
100
AcDbDictionary
280
     1
281
     1
  3
ACAD_XREC_ROUNDTRIP
360
8941
  0
DICTIONARY
  5
8942
330
F3
100
AcDbDictionary
280
     1
281
     1
  3
ACAD_XREC_ROUNDTRIP
360
8943
  0
DICTIONARY
  5
894A
330
F7
100
AcDbDictionary
280
     1
281
     1
  3
ACAD_XREC_ROUNDTRIP
360
894B
  0
DICTIONARY
  5
895E
330
1E4
100
AcDbDictionary
280
     1
281
     1
  3
ACAD_XREC_ROUNDTRIP
360
895F
  0
DICTIONARY
  5
8956
330
FD
100
AcDbDictionary
280
     1
281
     1
  3
ACAD_XREC_ROUNDTRIP
360
8957
  0
DICTIONARY
  5
8960
330
1E5
100
AcDbDictionary
280
     1
281
     1
  3
ACAD_XREC_ROUNDTRIP
360
8961
  0
DICTIONARY
  5
894E
330
F9
100
AcDbDictionary
280
     1
281
     1
  3
ACAD_XREC_ROUNDTRIP
360
894F
  0
DICTIONARY
  5
896C
330
1F3
100
AcDbDictionary
280
     1
281
     1
  3
ACAD_XREC_ROUNDTRIP
360
896D
  0
DICTIONARY
  5
896A
330
1F2
100
AcDbDictionary
280
     1
281
     1
  3
ACAD_XREC_ROUNDTRIP
360
896B
  0
DICTIONARY
  5
8964
330
1EF
100
AcDbDictionary
280
     1
281
     1
  3
ACAD_XREC_ROUNDTRIP
360
8965
  0
DICTIONARY
  5
8966
330
1F0
100
AcDbDictionary
280
     1
281
     1
  3
ACAD_XREC_ROUNDTRIP
360
8967
  0
DICTIONARY
  5
8954
330
FC
100
AcDbDictionary
280
     1
281
     1
  3
ACAD_XREC_ROUNDTRIP
360
8955
  0
DICTIONARY
  5
8948
330
F6
100
AcDbDictionary
280
     1
281
     1
  3
ACAD_XREC_ROUNDTRIP
360
8949
  0
DICTIONARY
  5
8968
330
1F1
100
AcDbDictionary
280
     1
281
     1
  3
ACAD_XREC_ROUNDTRIP
360
8969
  0
XRECORD
  5
8971
102
{ACAD_REACTORS
330
8970
102
}
330
8970
100
AcDbXrecord
280
     1
102
DISPLAYNAME
  1
Metric50
102
FLAGS
 90
        0
  0
XRECORD
  5
8936
102
{ACAD_REACTORS
330
8935
102
}
330
8935
100
AcDbXrecord
280
     1
102
SHADEPLOT
 70
     0
102
SHADEPLOTRESLEVEL
 70
     2
102
SHADEPLOTCUSTOMDPI
 70
   300
  0
XRECORD
  5
8938
102
{ACAD_REACTORS
330
8937
102
}
330
8937
100
AcDbXrecord
280
     1
102
SHADEPLOT
 70
     0
102
SHADEPLOTRESLEVEL
 70
     2
102
SHADEPLOTCUSTOMDPI
 70
   300
  0
XRECORD
  5
8933
102
{ACAD_REACTORS
330
8932
102
}
330
8932
100
AcDbXrecord
280
     1
102
SHADEPLOT
 70
     0
102
SHADEPLOTRESLEVEL
 70
     2
102
SHADEPLOTCUSTOMDPI
 70
   300
  0
XRECORD
  5
893A
102
{ACAD_REACTORS
330
1F9
102
}
330
1F9
100
AcDbXrecord
280
     1
102
MATERIAL
148
0.0
149
0.0
149
0.0
 93
        0
 94
       63
282
     0
 72
     1
 77
     1
171
     1
175
     1
179
     1
273
     0
  0
XRECORD
  5
1FA
102
{ACAD_REACTORS
330
1F9
102
}
330
1F9
100
AcDbXrecord
280
     1
 70
     1
 90
429727718
  1
D62C5603-E3A1-4AEA-B7FB-FE5D8D0755AF
310
504B03040A0000080000CC70623B3DEE336E79000000790000001B0000006175746F6465736B2D64657369676E2D7061636B6167652E786D6C3C3F786D6C2076657273696F6E3D22312E302220656E636F64696E673D227574662D3822203F3E3C666F726D6174733E3C666F726D61743E687474703A2F2F736368656D612E
310
6175746F6465736B2E636F6D2F64657369676E2D7061636B6167652F323030393C2F666F726D61743E3C2F666F726D6174733E504B0304140006080800CC70623BD486FD9CA0000000F4000000130000005B436F6E74656E745F54797065735D2E786D6C7D8EC10E82300C865F65E91D8A1E8C310C0EEA1BF002731658846E
310
D98AC1B77784ABF1D8FE5FBFBF75BBCE937A534CCEB38643598122B6FEE978D0B0485F9C41B54DDD7D022595594E1A469170414C76A4D9A4D207E29CF43ECE46F218070CC6BECC4078ACAA135ACF422C856C0E68EA1BF5669944DDD7BCDE7B1F8E415D77AECB980613C2E4AC91FC167A2B244592486606FC29C8FD7F045B9A
310
EF7053A7E60B504B0304140006080800CC70623B853B8169EB0000007C01000008000000636F72652E786D6C8D90416EC3201045AF62CDB6C206821CC7C244919D9CA01740401C94182C03558F5F9C3852BBEB6A467FFE9B197D7EFC9E1EC5975982F5AE035262288C535E5B377690E21535501C055FBC8FBF6C503839990E
310
5619041F179FE64D52DE45E362569DD7661365082642A11EB9E920A89B99642953CC8E702F67A9EE7234257977194EC9EAE275C4EABCCF5EAD5940D4AC6F0E35A568B8F43562CD7046CD199FD07E60174276A7BE677B5EADB0E0D14EEFFB6A31321A0D82627C4084204C3F096B71DD52F6819B16635EADF63F509AF53FA164
310
5DDCD1EDDD17164090FCC8732078B56691CB33A85CD7DCC40F504B0304140006080800CC70623B55019EA25F0000007C00000007000000636E782E786D6C4DCB3B0E80201045D1AD90E915ED2CF8AC45050C11660C8261F98AB1B07AC9C97D42D718D865D3E909258CFD00CCE24AC6E326A164D74DC0B4128928FF32603847
310
2BA13128B1252AC747C6BAB984FC68F0B87FE8960A5C09FE86CFB69FBA01504B0304140006080800CC70623BDBABAAF470010000D40300000C0000006662782F636F72652E786D6CC553D16E823014FD95A6AF4B694182CC941A83FA05FB810A9511A125A5257EFE2E82712ECEB8A7F100CD39F7F69E734AF9FADC366850B6
310
AF8DCE7018308C942E4C59EB2AC3DE1D498AD15A706B8CFB56869196ADCAF00863C12B6B7C374385D14E6907A836A59A41D9F7CA615434B0C8705F7CAA5606D23BA8E84F41278B93AC54100640439DE0BDB320004D43C63716C7C399D30917DCFBBA9CD9BA8469F5B156168B24CED3F7248AC8769F27244EB73B92EED8862C
310
B7F13E0C179B3C8F979C8ECD82BBBABDAA2BAC924E9558448CBD9330242CFA08E3154B5651FCC6D215639C8EE5774DBE2B5F6CF2B5768B68963BB5F5588420E442FC700B1139D4CB01F450C1E918227C2E09DF070D8140C84E1E9AAB8F1340832A9CB13130A5F1376A908D57309505ECF2A0DF179C4E9D30F5B239B87E3823
310
7A79C6F31DE1A8A5AEC08474B03C7837EAE4938639B44E5932B833D2C6B6B279CDC613877FA26EE21F4A2A4C63EC7F29A2F301D1F9F7A0E37D145F504B0304140006080800CC70623B9C113CC27E0000009D0000000B0000006662782F636E782E786D6C4DCCDF0A83201C86E15B91DFB94BFB330DD428C8FB886521330DA7
310
6397BF1A1DECE883878F57749FCDA1B7892F1BBC047A23808C7F84D9FA55424E0BE6803A256208E9EF06C84F9B91703228B1C690F78B66B34CD9A5439DF5CF0BFBF65E35BCA1B8D6A5C6F540381E886698B5741C695F9503EBA150A2F8958E3DC3EA0B504B0304140006080800CC70623B7DF2F77C2A010000120200003100
310
00006662782F41393633353835312D344632462D344230382D423046372D3739314545314133324237412F636F72652E786D6C8D51DB8EC22014FC15C2939B0D2DB4B45643319AE817EC0F6041255A68B86CFCFC856D4D76DF7CE190393373060EDB3DC707F856CE6B6B7A480A0C81328395DA5C7B18C3057510EC3873D686
310
3F34088C18550F330C39BB3A1BA7051AAC09CA84841A2BD5020AEF55806078A44B0FFD7053A328440C89E1EFC52486BBB8AA8214A99D789CF9E05200300FC927E4FB4D5B375D43103D5527440FB843077C5AA3F5861C8F645F5787F59E95B390B318B55CE45AA638FAA2957BD7248B390B7A7CC51F9C124149C82B8C378810
310
84AB2F42B7B8DD56F413775B8C5999E9FF4471926F8AA236A1AE96B8B3CC434E5839373893369E1FAF30EA395917409EB7F26AF8801C171837A4A6AC9C89E9F9C9B1A58BA30FD6A5EF5DDDCF894B9AD9B6A59C957943A9FCAE2FD5BC4DFE03504B0304140006080800CC70623BAD7543B64E01000033030000300000006662
310
782F41393633353835312D344632462D344230382D423046372D3739314545314133324237412F636E782E786D6CD593CD6EC32010845F0571AD6CE3D48AD20813A9873E410FBD12D82434182C7EAAE6EDBB2424CD25871E7B41D6EC30B3FA84F9E67BB2E40B4234DE8DB46F1925E094D7C6ED479AD3AE5951B2113C789FEE
310
6C943839C1488B4C05DF079FE72A69D8C96C13AAD6B8631503449F83828872B949AC57D26200B826A308D316B4064D6E46FCDA41C05550DC9E483A00797BFD207EFB092A45DE9514C1BBD22178396BD39D891265658C238DEA00936C654E5E433CB65A26D9F6EDB5EBC14EBF49A45CB856E66048291F6939A9A81BB5C89177
310
38143CA680F4AA299D66A042CEB3354A2684DC9D8D178FE0D9B8B41CAAD720F880EE7EF93C0C18769E099ECC04D5A102C8049A8A05632F4DDF376CF1DE0F6BB65C2F8627B65A33C6BB62177CEBBDAD973006829F89F22E814B54F4BC2BE347F8AA8F681390B50FA73F804400B5F542E796F19FF974E7F78DB802FE05E20750
310
4B0304140006080800CC70623BE75B7789680500003C100000340000006662782F41393633353835312D344632462D344230382D423046372D3739314545314133324237412F6F626A656374732E786D6CAD575B8F9B3818FD2B887D06C22499CB8AA1CA655245D5B455A356FB305264C061D8018C6C3393D95FBFC7600890
310
A4CD5EF210B0B1BFEBF98E3F7B1FF6596ABC522E1296DF9BAE3D320D9A872C4AF2F8DE2CE5CEBA358D0FBEC719939D65A691938CDE9B6ADAF4BD98B3B2D05311DD91329583D9D5FC0F438434A7A611A644887B5384CF34233629258BA878B12322891DEFF6B66BD70BFB62634E8AE781D082709A4B588AF91C528CDA28B73F
310
1C998EEF39EABBEFA97FBD6A7C7E9553F9D3D79FE442923C3C523610337627CB87ABE99D359D4CC6D6E4FACAB5E6ABF9D2726FC6A3C5F56271377BB88362213924694B38DD99FE47C48627A1E7D49F5A8BB5E1A74C0A599ED3B0F21F1E56366B89112D681E218F0915D0D6F17AD41FBA2A369DCF6335D62ABBD39779D5DDD1
310
11D4D8DE3CBB96B2E04FB8202E41051754A1AA8E8F76B4C6DFE810B580B1547F4B84911149794252234D024EF8BBE963A95AE27B3D310A9D5C215C7960FAEE415ED75694C6AFB17BCACA5D99A60A9AA65F217B0BFC53292ACB92BF283FAD0D3621576592CB5BED907C2FA8E9DF794E35E97BEA31BED21FEB401ABB94C44839
310
DCACBF0E1C5DA8DA5B2F4DFFD32AD86F543D9E565E7056502E157C00AD2671CD534549AB752FCA9CDA00677A313F04E51B22FF19E57B300579E3C97EB29F682D92935CEC18CF901B7B54FD8C51F362B56FC72FE0B3C1EAE335EDCCBF5AEC39ADB17DC238973F804BA5E6F6BFE7AF1FB32E523BE9F3BD571418E3631DCA4D48
310
5250CF639223210A9446CA30052EDF057BD35F8329C1ECD84552BF0DC8D18BE7BCE23BFE6BD960AB4A7DE79923A103BEBD80F911CBAA2C60DB19B01CF164A5583B772EE6D3FFA56666CBCDA74DC97724A48F9A58967497E489C4D979006FD7A05E227A1EBDD0F737C623387A9C844D3709995625106D157315F8B8392CD4E0
310
A0B9A720C4BE9829CEF37EA1E13111214D53925356365ADA634861B52519DD27A00AEB808EAF0628E6F435519D446F45CF2C9CF5214F0A15B2F6D06B79DA3EE3CBF7F56780D2F4E7EF73A0F5E5B02A38D07DC852C6B7C1FBB6664213E0C39E3EBA7FF4E1AD23EA2829407C85E586727488B751B2DB9502BC7B228A3FD68B6E
310
A65A22397E690AA8D158D7E404EC8CDA235CC3B7D1898680131CEC2CDF2638C65196279577750F15884AEE19F94199155B92B13297978469D4F8D358DF0AEF7631E28DC8F0D9F437D5D39A83B2231A1D52D543813A824EF8D44BCFF2FA6A31BD1E8DAD87F1CCB526B3879935BF59CDADD5C37479BB1CDD4CA7B3556B516589
310
EF352754B706114D9C885EC9131DE6EFEB43D99AFE2391C2F958179413D7CFEF6B1B6DB1E7600F00DE6E5C67454A339A4BA2E0FBA85ED26F045D454F463DBFCE484C2F90F2E5E3666003662ED8F755951A7D1BECD5B30B550B2785C8E7320B7292A4838DDA71BBC863ED7613CAF659337A3354231D4FF4A182A54904C2898C
310
98B28C4AD0CE056CCF332A80986E571EE9DBC305BB5FEB7E509220A58D25CF042D712A806AC0AD0C657FDEF80D2D9CEAA2EE4D1C76F60BFE74219A06527D6F82DF6412526107381E55E353090704D085B52408A8913C4ED159D79BDA71BB4BC506F4831350EB6F975CD22D69BF7AC49B91A2C0A9DDA3D5CA36AD20FC478E37
310
E61844E2352865EBCB61A275A65283CAAA9DD27703B4102F5AF51EF5F573B75CBB5AD38BC845F7A49F82A0966A49C2E3EA5EA0ECD326CD965F1DB402C6FA8B51A4658C5C5E2EC9E214602E55810345408596591009A82E7E7FFACA19EEA299B14A0081A705CB3296EBC14CDF658DCD336EA6D1136881AAEB87B81AB9EE53D5
310
F5EB8BC8362082DA24122F98680A4E7930C01A0079749CEA14382A0783E5EBA5A10F8C098456A03D6A4AEB6BB881E2513747552A5DB22C7EDAF83BD5528081A365F7FF06504B0304140006080000CC70623B000000000000000000000000350000006662782F41393633353835312D344632462D344230382D423046372D37
310
39314545314133324237412F76657274696365732E62696E504B0304140006080800CC70623BF270F1330600000004000000360000006662782F41393633353835312D344632462D344230382D423046372D3739314545314133324237412F747269616E676C65732E62696E636660600000504B0304140006080000CC7062
310
3B000000000000000000000000370000006662782F41393633353835312D344632462D344230382D423046372D3739314545314133324237412F617474726962757465732E62696E504B0304140006080800CC70623B08DA0BD19000000041010000360000006662782F41393633353835312D344632462D344230382D4230
310
46372D3739314545314133324237412F6469726563746F72792E786D6C858F410AC3201045AF22B36F53E9A60B35CBEEBAE80D244E44489C6234F4F835464A48035D0DF398FF9F8AF63D0E6CC63039F212F8F9020C7D47C6792B21C5FE7403D62A1188E2E60C98D7234A5830286103A55745067B9D86B8A3CF9C7F90C11DE6
310
07FB144396D7B6A82D282E9A152AD114D5EF2CB866EEE831B8EEA07A7BB5A8D7D61A2BAAEB7FD5F70921FF497D00504B0304140006080800CC70623BEDD1DC58FD000000A00100003B0000006662782F41393633353835312D344632462D344230382D423046372D3739314545314133324237412F7265736F75726365732F
310
636F72652E786D6C8D504B6E833010BD0A9A6D65B00922041947112427E8052C33A156828DFCA97AFC9A40A576D7CDCCE87D344F8F9FBFE667F689CE6B6B3A6039850C8DB2A336530731DC4903D95970676DF82583CCC8193B5861107C72362E3BA4AC096842428D1D7107A5F7182053CF7474E0D507CE32973124857FE48B
310
540F3961CEF244279DE03EB81420DB9EAC1384436FA353E879B1B182C7A8C75DA3C7F453DF353A1075D537A7BA6464B8F535A99AE14A9A2BBD90E350DD183B5CFABE3AF262350B1EF4FC9351399401471025A527C218A1E53BAB5A5AB765F5469B96525EACF23FA6B88CFF34456DC2A1DCE36E360F82A5202F42F062ED2BAD
310
579969AFDD8A6F504B010214000A0000080000CC70623B3DEE336E79000000790000001B00000000000000000000000000000000006175746F6465736B2D64657369676E2D7061636B6167652E786D6C504B01021400140006080800CC70623BD486FD9CA0000000F40000001300000000000000000000000000B20000005B
310
436F6E74656E745F54797065735D2E786D6C504B01021400140006080800CC70623B853B8169EB0000007C010000080000000000000000000000000083010000636F72652E786D6C504B01021400140006080800CC70623B55019EA25F0000007C000000070000000000000000000000000094020000636E782E786D6C504B
310
01021400140006080800CC70623BDBABAAF470010000D40300000C00000000000000000000000000180300006662782F636F72652E786D6C504B01021400140006080800CC70623B9C113CC27E0000009D0000000B00000000000000000000000000B20400006662782F636E782E786D6C504B01021400140006080800CC70
310
623B7DF2F77C2A010000120200003100000000000000000000000000590500006662782F41393633353835312D344632462D344230382D423046372D3739314545314133324237412F636F72652E786D6C504B01021400140006080800CC70623BAD7543B64E010000330300003000000000000000000000000000D2060000
310
6662782F41393633353835312D344632462D344230382D423046372D3739314545314133324237412F636E782E786D6C504B01021400140006080800CC70623BE75B7789680500003C10000034000000000000000000000000006E0800006662782F41393633353835312D344632462D344230382D423046372D3739314545
310
314133324237412F6F626A656374732E786D6C504B01021400140006080000CC70623B0000000000000000000000003500000000000000000000000000280E00006662782F41393633353835312D344632462D344230382D423046372D3739314545314133324237412F76657274696365732E62696E504B01021400140006
310
080800CC70623BF270F133060000000400000036000000000000000000000000007B0E00006662782F41393633353835312D344632462D344230382D423046372D3739314545314133324237412F747269616E676C65732E62696E504B01021400140006080000CC70623B0000000000000000000000003700000000000000
310
000000000000D50E00006662782F41393633353835312D344632462D344230382D423046372D3739314545314133324237412F617474726962757465732E62696E504B01021400140006080800CC70623B08DA0BD1900000004101000036000000000000000000000000002A0F00006662782F41393633353835312D344632
310
462D344230382D423046372D3739314545314133324237412F6469726563746F72792E786D6C504B01021400140006080800CC70623BEDD1DC58FD000000A00100003B000000000000000000000000000E1000006662782F41393633353835312D344632462D344230382D423046372D3739314545314133324237412F7265
310
736F75726365732F636F72652E786D6C504B0506000000000E000E0080040000641100000000
  0
XRECORD
  5
8939
102
{ACAD_REACTORS
330
1F7
102
}
330
1F7
100
AcDbXrecord
280
     1
102
MATERIAL
148
0.0
149
0.0
149
0.0
 93
        0
 94
       63
282
     0
 72
     1
 77
     1
171
     1
175
     1
179
     1
273
     0
  0
XRECORD
  5
1F8
102
{ACAD_REACTORS
330
1F7
102
}
330
1F7
100
AcDbXrecord
280
     1
 70
     1
 90
429727718
  1
30362254-06B7-45E0-A893-8CFA70E3D6BC
310
504B03040A0000080000CC70623B3DEE336E79000000790000001B0000006175746F6465736B2D64657369676E2D7061636B6167652E786D6C3C3F786D6C2076657273696F6E3D22312E302220656E636F64696E673D227574662D3822203F3E3C666F726D6174733E3C666F726D61743E687474703A2F2F736368656D612E
310
6175746F6465736B2E636F6D2F64657369676E2D7061636B6167652F323030393C2F666F726D61743E3C2F666F726D6174733E504B0304140006080800CC70623BD486FD9CA0000000F4000000130000005B436F6E74656E745F54797065735D2E786D6C7D8EC10E82300C865F65E91D8A1E8C310C0EEA1BF002731658846E
310
D98AC1B77784ABF1D8FE5FBFBF75BBCE937A534CCEB38643598122B6FEE978D0B0485F9C41B54DDD7D022595594E1A469170414C76A4D9A4D207E29CF43ECE46F218070CC6BECC4078ACAA135ACF422C856C0E68EA1BF5669944DDD7BCDE7B1F8E415D77AECB980613C2E4AC91FC167A2B244592486606FC29C8FD7F045B9A
310
EF7053A7E60B504B0304140006080800CC70623B1EC5D7A3EB0000007C01000008000000636F72652E786D6C8D90416EC3201045AF82665B6103C6756C6122AB4D4ED00B204C5C94182C03558F5F9C3852BBEB6A467FFE9B197D71FC9E6FE8CBACC17AD7032D0820E3B41FAD9B7A48F1820F808E52ACDEC75F36404ECDA687
310
4D0629A6D5A76597B477D1B89855E747B38B2A041301E95B6E7A08FAD3CCAA50296647B8168BD2573599823EBB0CA76447F43862C7BCCF5EAC59410E4DDD9C7973C2755553CCCFA4C603E3040F1565ED3B1FDE4E432BCA0D9622DAF9795FAF464533826484B498524CD807E51D79ED187F21878E10516EF63F505AC67F42C9
310
BA58B1FDDD071640D2FCC87D2045B96591CB3DA85CB7DCE40F504B0304140006080800CC70623B55019EA25F0000007C00000007000000636E782E786D6C4DCB3B0E80201045D1AD90E915ED2CF8AC45050C11660C8261F98AB1B07AC9C97D42D718D865D3E909258CFD00CCE24AC6E326A164D74DC0B4128928FF32603847
310
2BA13128B1252AC747C6BAB984FC68F0B87FE8960A5C09FE86CFB69FBA01504B0304140006080800CC70623B8C9102E971010000D40300000C0000006662782F636F72652E786D6CC5535B6E833010BC8AE5DF0A6C08340F1947A84D4ED00B38C6A128602363A31CBFCB234A53A551FA553EC09AD9F5CE8C31DB9E9B1AF5CA
310
7695D1198E428A91D2D214952E33ECDD315861B4E5CC1AE3BE9561A445A3323CC098B3D21ADFCE9034DA29ED00D5A6503328BA4E398C640D8B0C77F253352214DE4145770A5B214FA2546114020D759C75CE8200340D19DE981F0F6746269C33EFAB6266AB02A655C74A59CCF365BADC27CB5D902ED22848F6340DF238A141
310
BE88E2F57B92BFEDF23523433367AE6A2EEAA455C2A902F398D2751045018D3FA264435F3771F242571B4A1919CA6F9A7C5B3CD9E42BED16F12C776AEB308F40C848FC700B1139D4891EF410CEC810227CC6846F8386402064270EF5C5C709A05E49676C024C61FC95EA45ED154CA5211D1FF4FB8291A913A68E9B83EBBB33
310
E2A7673CDE118E5AE8124C0807CB8377834E366998436B950D7A7746DAD846D4CFD978E0F04FD455FC5D49D2D4C6FE9722321F10997F0F32DC47FE05504B0304140006080800CC70623BFFEA85907E0000009D0000000B0000006662782F636E782E786D6C4DCCD10A83201886E15B91FFDC95D95A811AB6F23E625948A6C3
310
E9D8E5AF46073BFAE0E1E365ED67B3E8ADC3CB78C7815C7240DA3DFC64DCC221C519D7805AC182F7F1EF06C88D9BE6703008B6049F9E274D7A1E938DBB5AE3D6131B2589BA0D3D965551E0B2EA732C9B9A624AAEB41E3A557677029960D9AFB4EF11165F504B0304140006080800CC70623B4FEEA4082C0100001202000031
310
0000006662782F39464131463745442D413632322D343644302D413938332D3331353338454246344243312F636F72652E786D6C8D515B6EC32010BC0AE2AB55850DD871ED0813254D72825EC00192A2C460F1A872FC42ED48ED5F7E00CDCECCCEB26C731F6FE05B39AFADE921293004CA082BB5B9F43086336A21D870E6AC
310
0D7F68109861543DCC30E4ECE26C9C164858139409093556AA051CBC570102714B8F1E7AF1A5C6A11862480C7F2DA6415C878B2A4891CA89C7990F2E050073937C42DE1DB7E4F87ED8A36D4329AA9B3D46DBAEAD504556557BD81DEBDD0761E52CE42C462D17B996298E3E6BE59E35C962CE821E1FF18553435012728A7187
310
0841987E927A8D9B35ADDF70BBC6989599FE4F1427F9A4286A132ABAC49D651EF234CD5CE04CDA78BA3DC2A8FB645D00B9DF8B57E215725C60BCA2A463E54C4CE327C7A65E1C7DB02E7DEFCBF594B864C5CA6CDBD49C957943E9FA5D5FBAF336F90F504B0304140006080800CC70623BAD7543B64E01000033030000300000
310
006662782F39464131463745442D413632322D343644302D413938332D3331353338454246344243312F636E782E786D6CD593CD6EC32010845F0571AD6CE3D48AD20813A9873E410FBD12D82434182C7EAAE6EDBB2424CD25871E7B41D6EC30B3FA84F9E67BB2E40B4234DE8DB46F1925E094D7C6ED479AD3AE5951B2113C
310
789FEE6C943839C1488B4C05DF079FE72A69D8C96C13AAD6B8631503449F83828872B949AC57D26200B826A308D316B4064D6E46FCDA41C05550DC9E483A00797BFD207EFB092A45DE9514C1BBD22178396BD39D891265658C238DEA00936C654E5E433CB65A26D9F6EDB5EBC14EBF49A45CB856E66048291F6939A9A81BB5
310
C8917738143CA680F4AA299D66A042CEB3354A2684DC9D8D178FE0D9B8B41CAAD720F880EE7EF93C0C18769E099ECC04D5A102C8049A8A05632F4DDF376CF1DE0F6BB65C2F8627B65A33C6BB62177CEBBDAD973006829F89F22E814B54F4BC2BE347F8AA8F681390B50FA73F804400B5F542E796F19FF974E7F78DB802FE05
310
E207504B0304140006080800CC70623B16AB87BA640500003C100000340000006662782F39464131463745442D413632322D343644302D413938332D3331353338454246344243312F6F626A656374732E786D6CAD575B6FA33818FD2B887DE6924B3BED8A326A92B68A663B534DD4D13E548A0C38942D60649B369D5FBFC7
310
600890A493BDE42160637FD7F31D7FF63E6FB3D478A55C242CBF3247B66B1A340F5994E4F19559CA8D75611A9F7D8F33263BCB4C232719BD32D5B4E97B316765A1A722BA21652A07B3B7B33F0D11D29C9A46981221AE4C113ED38CD8A4942CA2E2C58E882476BCD9DA23BB5ED8171B73523C0F841684D35CC252CCE79062D4
310
468DFA43D7747CCF51DF7D4FFDEB5593E3AB9CCA9FBEFE241792E4E19EB28198C968BAB8199F5D5A67D3E9C49A9E8F47D6EC76B6B0469F26EEFC7C3EBFBCBEB98462213924694B38DD98FE1D62C393D073EA4FADC5DAF04326852CCF6958F90F0F2B9BB5C48816348F90C7840A68EB78EDF68723159BCEE7891A6B95DDE9D3
310
BCEAEEE8086A6C6F9E5D4B59F0175C10A7A0820BAA5055C7473B5AE3CFDD452D602CD5DF12616444529E90D448938013FE6EFA58AA96F85E4F8C42275708571E98FE6827AF6B2B4AE3D7D83D64E5A64C53054DD3AF90BD06FEA9149565C94FCA0F6B834DC85599E4F2423B24DF0B6AFA979E534DFA9E7A4CC6FA631D486393
310
921829879BF5D781A373557BCB85E97FB90DB62B558F8795179C15944B051F40AB495CF35451D26A4727654E6D8033BD98EF82F21D91FF8AF2DD9982BCF1643BDD4EB516C9492E368C67C88DED563FC36D5EACF66DFF057C3658BDBFA69DF9578B3DA735B64F18C7F20770A9D45CFCF7FCF563D6456A277DBEF78A02637CA2
310
43B90A490AEAB94F72244481D24819A6C0E59B606BFA4B3025981DBB48EAB701D97BF19C577CC77F2D1B6C55A9EF3C732474C0B727303F625995056C3B02963D9EAC146BE78EC5FCEC7FA999EBC5EACBAAE41B12D27B4D2C0BBA49F244E2ECDC81B76B502F113D8F5EE8FB1BE3111CDD4FC2AA9B844CAB1288B68AB90A7CDC
310
1C166AB0D3DC5310625FCC14E779BFD0709F8890A629C9292B1B2DED31A4B0DA928CEE135085754027E3018A397D4D5427D15BD1330B677DC8934285AC3DF45A9EB68FF8F2B8FC0A509AFEECFD0FF2DE25CC6047F7214B195F07EFEB9A094D800F7BFAE8FED187B78EA8A3A400F115961BCAD1215E47C966530AF0EE8128FE
310
58CEBB996A8964FFA529A046635D9353B0336A8F700DDF46271A024E70B0B37C9DE01847591E54DED53D54202AB947E4076556AC49C6CA5C9E1226B7F1A7B1BE15DEED62C41B91E1B3E9AFAAA735036547343A925075041DF0A9979E893B391F8FCFA6967B3EFB644DCF6E5CEBFAE272625DCC6FAF3FB93793C5F90CE1EF57
310
407342756B10D1C489E8953CD1617E5CEECAD6F4EF8914CE5D5D504E5C3F1F9736DA62CFC11E00BCDDB8CC8A9466349744C1F75EBDA4DF09BA8A9E8C7A7E9991989E20E5DBDD6A6003664ED8F7A04A8DBE0DF6EAD9B9AA858342E47399053949D2C146EDB85DE4B176BB0965FBAC19BD19AA918E27FA50C1D22402E144464C
310
59462568E704B6E71915404CB72B8FF4EDE184DDAF753F284990D2C6926782963815403548A70C657FDEF80D2D9CEAA2AE4C1C76F60BFE74219A06527D6582DF6412526107381E55E353090704D085B52408D0933C4ED159D79BDA71BB4BC506F4831350EB6F979CD22D69BF7AC49B91A2C0A9DDA3D5CA36AD20FC478E37E6
310
1844E2352865EBCB6EA275A652E3836BE04EFB400BF1A2556F515F1FBB35B2AB35BD889C744FFA1004B5544B121E57F70215746DD2F5E2C1412B602CBF19455AC6C8E5E9922C4E01E65215385004546899059180EAFCF7A707CE7017CD8CDB0410789AB32C63B91E5CEBBBACB17AC6CD347A022D5075FD106377347AAABA7E
310
7D11590744509B44E205134DC1290F06580320F78E537D3D73540E06CB970B431F185308AD40BBD794D6D77003C5A36E8EAA54BA64597CD8F83BD552A080A365F7FF06504B0304140006080000CC70623B000000000000000000000000350000006662782F39464131463745442D413632322D343644302D413938332D3331
310
353338454246344243312F76657274696365732E62696E504B0304140006080800CC70623BF270F1330600000004000000360000006662782F39464131463745442D413632322D343644302D413938332D3331353338454246344243312F747269616E676C65732E62696E636660600000504B0304140006080000CC70623B
310
000000000000000000000000370000006662782F39464131463745442D413632322D343644302D413938332D3331353338454246344243312F617474726962757465732E62696E504B0304140006080800CC70623B08DA0BD19000000041010000360000006662782F39464131463745442D413632322D343644302D413938
310
332D3331353338454246344243312F6469726563746F72792E786D6C858F410AC3201045AF22B36F53E9A60B35CBEEBAE80D244E44489C6234F4F835464A48035D0DF398FF9F8AF63D0E6CC63039F212F8F9020C7D47C6792B21C5FE7403D62A1188E2E60C98D7234A5830286103A55745067B9D86B8A3CF9C7F90C11DE607
310
FB144396D7B6A82D282E9A152AD114D5EF2CB866EEE831B8EEA07A7BB5A8D7D61A2BAAEB7FD5F70921FF497D00504B0304140006080800CC70623B0D6EF93BFE000000A00100003B0000006662782F39464131463745442D413632322D343644302D413938332D3331353338454246344243312F7265736F75726365732F63
310
6F72652E786D6C8D50596E833010BD0A9ADFCA60B334011947A8694ED00B586642AC041B79A97AFC9A40A5F6AF3F33A3B7689E1E3F7DCD8FEC139DD7D6F4C0720A191A65476DA61E62B892236427C19DB5E1970C322367EC618541F0C9D9B8EC90B226A009093576C41D94DE63804C3DD2D18357379C652E63480A7FCF17A9
310
EE72C29CE5894E3AC17D702940B63D59270887DE46A7D0F36263058F518FBB468FE9A7BE6A7420864373B8D4873369AA8691FA421B3294352543C5CAF65C0F6FEF43CB8BD52C78D0F34F46E550061C419494B6843142CB0F5677F4B52BEB177AEC28E5C52AFF638ACBF84F53D42654E51E77B379102C05791282176B5F693D
310
CB4C7BED567C03504B010214000A0000080000CC70623B3DEE336E79000000790000001B00000000000000000000000000000000006175746F6465736B2D64657369676E2D7061636B6167652E786D6C504B01021400140006080800CC70623BD486FD9CA0000000F40000001300000000000000000000000000B20000005B
310
436F6E74656E745F54797065735D2E786D6C504B01021400140006080800CC70623B1EC5D7A3EB0000007C010000080000000000000000000000000083010000636F72652E786D6C504B01021400140006080800CC70623B55019EA25F0000007C000000070000000000000000000000000094020000636E782E786D6C504B
310
01021400140006080800CC70623B8C9102E971010000D40300000C00000000000000000000000000180300006662782F636F72652E786D6C504B01021400140006080800CC70623BFFEA85907E0000009D0000000B00000000000000000000000000B30400006662782F636E782E786D6C504B01021400140006080800CC70
310
623B4FEEA4082C0100001202000031000000000000000000000000005A0500006662782F39464131463745442D413632322D343644302D413938332D3331353338454246344243312F636F72652E786D6C504B01021400140006080800CC70623BAD7543B64E010000330300003000000000000000000000000000D5060000
310
6662782F39464131463745442D413632322D343644302D413938332D3331353338454246344243312F636E782E786D6C504B01021400140006080800CC70623B16AB87BA640500003C1000003400000000000000000000000000710800006662782F39464131463745442D413632322D343644302D413938332D3331353338
310
454246344243312F6F626A656374732E786D6C504B01021400140006080000CC70623B0000000000000000000000003500000000000000000000000000270E00006662782F39464131463745442D413632322D343644302D413938332D3331353338454246344243312F76657274696365732E62696E504B01021400140006
310
080800CC70623BF270F133060000000400000036000000000000000000000000007A0E00006662782F39464131463745442D413632322D343644302D413938332D3331353338454246344243312F747269616E676C65732E62696E504B01021400140006080000CC70623B0000000000000000000000003700000000000000
310
000000000000D40E00006662782F39464131463745442D413632322D343644302D413938332D3331353338454246344243312F617474726962757465732E62696E504B01021400140006080800CC70623B08DA0BD190000000410100003600000000000000000000000000290F00006662782F39464131463745442D413632
310
322D343644302D413938332D3331353338454246344243312F6469726563746F72792E786D6C504B01021400140006080800CC70623B0D6EF93BFE000000A00100003B000000000000000000000000000D1000006662782F39464131463745442D413632322D343644302D413938332D3331353338454246344243312F7265
310
736F75726365732F636F72652E786D6C504B0506000000000E000E0080040000641100000000
  0
XRECORD
  5
893B
102
{ACAD_REACTORS
330
173
102
}
330
173
100
AcDbXrecord
280
     1
102
MATERIAL
148
0.0
149
0.0
149
0.0
 93
        0
 94
       63
282
     0
 72
     1
 77
     1
171
     1
175
     1
179
     1
273
     0
  0
XRECORD
  5
175
102
{ACAD_REACTORS
330
173
102
}
330
173
100
AcDbXrecord
280
     1
270
     1
271
     1
  0
XRECORD
  5
174
102
{ACAD_REACTORS
330
173
102
}
330
173
100
AcDbXrecord
280
     1
270
     1
271
     1
  0
XRECORD
  5
1FB
102
{ACAD_REACTORS
330
173
102
}
330
173
100
AcDbXrecord
280
     1
 70
     0
 90
1673772943
  1
ECE7A1D2-D628-4531-984C-D00F80459256
310
504B03040A0000080000CC70623B3DEE336E79000000790000001B0000006175746F6465736B2D64657369676E2D7061636B6167652E786D6C3C3F786D6C2076657273696F6E3D22312E302220656E636F64696E673D227574662D3822203F3E3C666F726D6174733E3C666F726D61743E687474703A2F2F736368656D612E
310
6175746F6465736B2E636F6D2F64657369676E2D7061636B6167652F323030393C2F666F726D61743E3C2F666F726D6174733E504B0304140006080800CC70623BD486FD9CA0000000F4000000130000005B436F6E74656E745F54797065735D2E786D6C7D8EC10E82300C865F65E91D8A1E8C310C0EEA1BF002731658846E
310
D98AC1B77784ABF1D8FE5FBFBF75BBCE937A534CCEB38643598122B6FEE978D0B0485F9C41B54DDD7D022595594E1A469170414C76A4D9A4D207E29CF43ECE46F218070CC6BECC4078ACAA135ACF422C856C0E68EA1BF5669944DDD7BCDE7B1F8E415D77AECB980613C2E4AC91FC167A2B244592486606FC29C8FD7F045B9A
310
EF7053A7E60B504B0304140006080800CC70623BD9DDAED0EC0000007C01000008000000636F72652E786D6C8D90416EC3201045AF82665B61836D9CD8C2444DD39CA01740405C94182C03558F5F9C3852BBEB6A467FFE9B197D7EF89E6EE8CB2CC17A37002D0820E394D7D68D03A478C17B4007C117EFE32F1B20272733C0
310
2A83E0E3E2D3BC49CABB685CCCAAF3DA6CA20CC14440EA969B0182FA34932C648AD911AEC52CD5558EA6A0CF2EC329598D1E47ACCEFBECC59A050463A7EA5833865FEBDD0E37353BE3EE8DBDE3F6786A48D375FBF6CC78B9C282473B3DEFABC5C86834888A900E538A49F5419B9EB47DD5BC907D4F082F57FB1F28CDFA9F50
310
B22ED6D5F6EE030B20687EE43E10BC5CB3C8E51E54AE6B6EE207504B0304140006080800CC70623B55019EA25F0000007C00000007000000636E782E786D6C4DCB3B0E80201045D1AD90E915ED2CF8AC45050C11660C8261F98AB1B07AC9C97D42D718D865D3E909258CFD00CCE24AC6E326A164D74DC0B4128928FF326038
310
472BA13128B1252AC747C6BAB984FC68F0B87FE8960A5C09FE86CFB69FBA01504B0304140006080800CC70623BA24EB22D72010000D40300000C0000006662782F636F72652E786D6CC5535B6E833010BC8AE5DF0A6C5E49888CA3A6694ED00B38E05014B091B1518EDFE511A5A9D228FD2A1F60CDEC7A67C6986DCE4D8D7A
310
69BA4AAB0C073EC548AA5C17952A33ECECD15B61B4E1CC686DBF9561A44423333CC098B3D268D7CE50AE9595CA02AA74216750749DB418E5352C32DCE59FB211BE70162ABA93DF8AFC244AE9073ED050C759670D0840D390E18DF9F1706664C23973AE2A66B62A605A75ACA4C13C4976E1364A12EF355A2EBD384AF65EFA96
310
BC7B8BED2EA6719AAE16FB8491A199335B351775B991C2CA02F390D2D40B028F861F41BCA68B7518BFD0D59A524686F29B26D7164F36B94AD9289CE54E6D1DE6010819891F6E21228B3AD1831EC219194284CF98F06DD01008846CC5A1BEF83801D4CBDC6A1303536877A57A513B0953A94FC707FDBE6064EA84A9E3E6E0FA
310
EE8CF0E9198F7784A316AA0413C2C2F2E0ECA0934D1AE6D05A69BCDE9E91D2A611F573361E38FC1375157F5752AE6B6DFE4B11990F88CCBF0719EE23FF02504B0304140006080800CC70623B408A7D3B7C0000009D0000000B0000006662782F636E782E786D6C4DCCD10A83201886E15B91FFDC552A92A0064DBC8F581632
310
D3703A76F9ABD1C18E3E78F878E5F0D9027ABBFCF2292AE86E2D20171F69F6715550CB827B40839639A5F2770314A7CD293819B45C73AAFB45B35BA61ACAA1C1C7E7855C58C15BC331339661262CC762340413D68D77DA5B42298546CBE6573AF60CEB2F504B0304140006080800CC70623B449FB9BD290100001202000031
310
0000006662782F36394639363044362D344446342D343946362D394244322D3234314243333846323333332F636F72652E786D6C8D515B6EC32010BC0AE22B55850D98B871848994463E412FE002495162B07854397EA176A4F62F3F2C9A9D991D587EB84F37F0AD7D30CEF6905418026DA553C65E7A98E219ED203808EE9D
310
8B7F6810D871D23D2C3014FCE25D9A57483A1BB58D19B54EE9151C43D0110279CB971E06F9A5A7B11A53CC8C70ADE6515EC78BAE4895DB992778883E0700CB907242D17643D7E2538BD869608875438BBAE38922CAC8F1BDD90DB4691A5E2F42C153326A951B95E398B3D1FE599322163C9AE9115F7A3D46ADA0A018778810
310
84E907617BDCEE297BC5BB3DC6BC2EF47FA234AB2745C9D8D8D035EE220B50105E2F0DC1954B9FB747187D9F9D8FA0CCDB042D5FA0C015C65B42DF78BD10F3F3B363CB56C7109DCFDFBBB97E662ED92EB62D13BC2E1BCAE5777DB9966D8A1F504B0304140006080800CC70623BAD7543B64E01000033030000300000006662
310
782F36394639363044362D344446342D343946362D394244322D3234314243333846323333332F636E782E786D6CD593CD6EC32010845F0571AD6CE3D48AD20813A9873E410FBD12D82434182C7EAAE6EDBB2424CD25871E7B41D6EC30B3FA84F9E67BB2E40B4234DE8DB46F1925E094D7C6ED479AD3AE5951B2113C789FEE
310
6C943839C1488B4C05DF079FE72A69D8C96C13AAD6B8631503449F83828872B949AC57D26200B826A308D316B4064D6E46FCDA41C05550DC9E483A00797BFD207EFB092A45DE9514C1BBD22178396BD39D891265658C238DEA00936C654E5E433CB65A26D9F6EDB5EBC14EBF49A45CB856E66048291F6939A9A81BB5C89177
310
38143CA680F4AA299D66A042CEB3354A2684DC9D8D178FE0D9B8B41CAAD720F880EE7EF93C0C18769E099ECC04D5A102C8049A8A05632F4DDF376CF1DE0F6BB65C2F8627B65A33C6BB62177CEBBDAD973006829F89F22E814B54F4BC2BE347F8AA8F681390B50FA73F804400B5F542E796F19FF974E7F78DB802FE05E20750
310
4B0304140006080800CC70623B8D05915C650500003B100000340000006662782F36394639363044362D344446342D343946362D394244322D3234314243333846323333332F6F626A656374732E786D6CAD575B6FA33814FE2B887D06429276DA1565D4266D158D3A339A6846FB502932E050B66023DB74D2FDF5FB190C01
310
9276B2973C046C8ECFF53B17071F77456EBD502133CEAE6CDF9DD81665314F32965ED995DA3A17B6F5310C04E7AA47665B8C14F4CAD6DB7618A48257A5D94AE89654B91AEDDEDDFC61C998326A5B714EA4BCB265FC440BE2924AF184CA6737218AB8E976E7FA6E4338649B0A523E8D98964450A6A029F619B8588D52FE7039
310
B1BD30F0F4F730D0FF866AF6369557DB33949F31A9088B0F848DD8CCFCF9F2767A76E99CCDE733677E3EF59D9BBB9BA5E37F984D16E78BC5E5F5ED25044B25C0C96822E8D60EEFE11B91C581D77CEA34368A1F5329E68CD1B8B61F16D63A1B8E092D294B10C78C4A48EB593D192E7DED9BDEE7995E1B91FDEDD3ACEA9FE831
310
6A756F9F7D4D79F4274C90A7A04248AA51D5F8C718DAE06FB2F75AC4796EBE65D22A88A22223B995679120E2D50E41AA49C260C046A35368846B0BECD0DFF3EBEB8AD4F835768F69B9ADF25C43D30E6B646F807FAA64AD59F61715C7A54127C4AACA98BA3006A9D792DAE165E0D59B61A01FB3A9F9D838D2DAE62445C86166
310
F37564E842E7DE6A69879FEEA2DD5AE7E371E1A5E025154AC307D06A03D73EB5978C58FFA4C8E9033066E0F3BD53BEC1F39F91BE7B55103791EDE6BBB991A2046172CB4581D8B893FA674DDA17A77B3B7C413D1B511FD2743BFF8A38F03A658705E3ADF8015C3A3417FF3D7E439FF591DA0B5F18BC20C1B8981957AE6392A3
310
F43C640C01D1A0B4728E2DD4F26DB4B3C3152A252A3B4E913CEC1C72F012782FF88EFF8637AA552DBEF76408E8A8DE9E50F9E1CB3A2DA0DB1B6039A893B56063DC5B3E3FFB5F72E67AB9FEB4AEC496C4F4C1149625DD662C53E89D7BF0F6151A046260D1337DFDC94502430F83B0EE07A130A224BCAD7DAE1D9FB6CD422FF6
310
920702629C4BB9AE79C12F243C6432A6794E18E5552BA56B431AAB5D91317302B2B071E86C3A42B1A02F999E24061403B5D0EB639195DA655DD3EBEAB4FB862DDF579F014AD0E73C22F99E28DA57FB98E75C6CA2D74D53086D600F4786E0FE3144B771A8A7B900F03594DB8A633CBC49B2EDB69228BB479CF863B5E807AAAB
310
23872F6DFEB4129B949CA33823F58830E86D65621E10047D9DB34D862E8EAC3C2ABC2F7B2C40D67CDFE01F5545B92105AF983AC54D93D69E56FB8E797F88913F898A9FEC705D3F9D1B54EC8426FB500D40A03BD0119B06E1B95DDC7EB8F6975367793EBD70E66733DFB9BC982F9CE564727731999F5D4ECFCE3B8D6A4DC2A0
310
6D50FD148437D110834A64C6CDDF57FBACB5C307A2A477DFE4939736CFEF2B175371E0E10CF0DD1D5C15654E0BCA14D1E87DD02FF93782A162C0A3D95F1524A52770F972BF1EE9809D13CE7DD599467F8ECE9ADD85CE85A34CD45355448C64F9E8A031DC2D596ACC6E5DD93D9B82DE2EF5CAF81363A8E47996A0DE24564A79
310
4115AACE09C55E14540231FDA13C319787134EBF34E3A022514E5B4D9E0826E25C02D5805B15ABE1BEF51B26383D445DD9E875EE33FE4C22DA16427D65A3BCA92CA6D28DD01DF5DC53330704308475351050232CCD31583787BA75774AFB06E5070DD0C8EF484E19968C5D83BA5B90B244D31E54D55A372320FE4786B7EA58
310
44E135AA5467CB7EA333A61683CC6A8C3257034C10CF46F40EF9F5BE59BE5BD30C3C72D235E95D10345C1D45445A5F0BB47E46A5EBE5570F9380B5FA629579952296A773720405982B9DE04011506178964401AA8BDF1FBF0A8EAB6861DD6580C0E38217056766716DAEB2D6FA0917D3E4116581EADB879C4E7CFFB11EFACD
310
3D641311495D92C8676CB409A72D18610D803CE8A626049E8EC1887CB5B44CC39883690DDA8399B4B9855B481E7D71D4A9D22F96E5BB73BF5793020C02137BF837504B0304140006080000CC70623B000000000000000000000000350000006662782F36394639363044362D344446342D343946362D394244322D32343142
310
43333846323333332F76657274696365732E62696E504B0304140006080800CC70623BF270F1330600000004000000360000006662782F36394639363044362D344446342D343946362D394244322D3234314243333846323333332F747269616E676C65732E62696E636660600000504B0304140006080000CC70623B0000
310
00000000000000000000370000006662782F36394639363044362D344446342D343946362D394244322D3234314243333846323333332F617474726962757465732E62696E504B0304140006080800CC70623B08DA0BD19000000041010000360000006662782F36394639363044362D344446342D343946362D394244322D
310
3234314243333846323333332F6469726563746F72792E786D6C858F410AC3201045AF22B36F53E9A60B35CBEEBAE80D244E44489C6234F4F835464A48035D0DF398FF9F8AF63D0E6CC63039F212F8F9020C7D47C6792B21C5FE7403D62A1188E2E60C98D7234A5830286103A55745067B9D86B8A3CF9C7F90C11DE607FB14
310
4396D7B6A82D282E9A152AD114D5EF2CB866EEE831B8EEA07A7BB5A8D7D61A2BAAEB7FD5F70921FF497D00504B0304140006080800CC70623BCA768048FE000000A00100003B0000006662782F36394639363044362D344446342D343946362D394244322D3234314243333846323333332F7265736F75726365732F636F72
310
652E786D6C8D50596E833010BD0A9ADFCA60D600328E9AA639412F609909B1126CE4A5EAF16B0295DABFFECC8CDEA2797AECF8353F924FB44E193D409E5248504B332A3D0D10FC95B4901C39B3C6F85F3248B49871801506CE266BC2B243D2688FDA47549B11775038871E12F988C7004EDE7016A9083E2ADC3D5D84BC8B09
310
D33C8D74D471E6BC8D0192EDC93A815B742658898E651BCB59086ADC356A8C3FD555A1055ED7E7E254D615792D0F075295F585746FF53B694EE78A565DD736979A65AB9933AFE69F8CD2A2F038022F28ED489E135A7CE4554F9BBEA85E68DB53CAB255FEC71496F19FA6A0B42F8B3DEE6673C0F318E4497096AD7DC5F52C33
310
EEB55BFE0D504B010214000A0000080000CC70623B3DEE336E79000000790000001B00000000000000000000000000000000006175746F6465736B2D64657369676E2D7061636B6167652E786D6C504B01021400140006080800CC70623BD486FD9CA0000000F40000001300000000000000000000000000B20000005B436F
310
6E74656E745F54797065735D2E786D6C504B01021400140006080800CC70623BD9DDAED0EC0000007C010000080000000000000000000000000083010000636F72652E786D6C504B01021400140006080800CC70623B55019EA25F0000007C000000070000000000000000000000000095020000636E782E786D6C504B0102
310
1400140006080800CC70623BA24EB22D72010000D40300000C00000000000000000000000000190300006662782F636F72652E786D6C504B01021400140006080800CC70623B408A7D3B7C0000009D0000000B00000000000000000000000000B50400006662782F636E782E786D6C504B01021400140006080800CC70623B
310
449FB9BD290100001202000031000000000000000000000000005A0500006662782F36394639363044362D344446342D343946362D394244322D3234314243333846323333332F636F72652E786D6C504B01021400140006080800CC70623BAD7543B64E010000330300003000000000000000000000000000D20600006662
310
782F36394639363044362D344446342D343946362D394244322D3234314243333846323333332F636E782E786D6C504B01021400140006080800CC70623B8D05915C650500003B10000034000000000000000000000000006E0800006662782F36394639363044362D344446342D343946362D394244322D32343142433338
310
46323333332F6F626A656374732E786D6C504B01021400140006080000CC70623B0000000000000000000000003500000000000000000000000000250E00006662782F36394639363044362D344446342D343946362D394244322D3234314243333846323333332F76657274696365732E62696E504B010214001400060808
310
00CC70623BF270F13306000000040000003600000000000000000000000000780E00006662782F36394639363044362D344446342D343946362D394244322D3234314243333846323333332F747269616E676C65732E62696E504B01021400140006080000CC70623B00000000000000000000000037000000000000000000
310
00000000D20E00006662782F36394639363044362D344446342D343946362D394244322D3234314243333846323333332F617474726962757465732E62696E504B01021400140006080800CC70623B08DA0BD190000000410100003600000000000000000000000000270F00006662782F36394639363044362D344446342D
310
343946362D394244322D3234314243333846323333332F6469726563746F72792E786D6C504B01021400140006080800CC70623BCA768048FE000000A00100003B000000000000000000000000000B1000006662782F36394639363044362D344446342D343946362D394244322D3234314243333846323333332F7265736F
310
75726365732F636F72652E786D6C504B0506000000000E000E0080040000621100000000
  0
XRECORD
  5
176
102
{ACAD_REACTORS
330
173
102
}
330
173
100
AcDbXrecord
280
     1
270
     1
271
     1
  0
XRECORD
  5
177
102
{ACAD_REACTORS
330
173
102
}
330
173
100
AcDbXrecord
280
     1
270
     1
271
     1
  0
XRECORD
  5
895D
102
{ACAD_REACTORS
330
895C
102
}
330
895C
100
AcDbXrecord
280
     1
102
ACAD_ROUNDTRIP_2012_MLEADER_STYLE
298
     1
  0
XRECORD
  5
896F
102
{ACAD_REACTORS
330
896E
102
}
330
896E
100
AcDbXrecord
280
     1
102
DISPLAYNAME
  1
Metric50
102
FLAGS
 90
        0
  0
CELLSTYLEMAP
  5
892F
102
{ACAD_REACTORS
330
162
102
}
330
162
100
AcDbCellStyleMap
 90
        3
300
CELLSTYLE
  1
TABLEFORMAT_BEGIN
 90
        5
170
     1
 91
        0
 92
    32768
 62
   257
 93
        1
300
CONTENTFORMAT
  1
CONTENTFORMAT_BEGIN
 90
        0
 91
        0
 92
      512
 93
        0
300

 40
0.0
140
1.0
 94
        5
 62
     0
340
11
144
6.0
309
CONTENTFORMAT_END
171
     1
301
MARGIN
  1
CELLMARGIN_BEGIN
 40
1.5
 40
1.5
 40
1.5
 40
1.5
 40
4.5
 40
4.5
309
CELLMARGIN_END
 94
        6
 95
        1
302
GRIDFORMAT
  1
GRIDFORMAT_BEGIN
 90
        0
 91
        1
 62
     0
 92
       -2
340
14
 93
        0
 40
1.125
309
GRIDFORMAT_END
 95
        2
302
GRIDFORMAT
  1
GRIDFORMAT_BEGIN
 90
        0
 91
        1
 62
     0
 92
       -2
340
14
 93
        0
 40
1.125
309
GRIDFORMAT_END
 95
        4
302
GRIDFORMAT
  1
GRIDFORMAT_BEGIN
 90
        0
 91
        1
 62
     0
 92
       -2
340
14
 93
        0
 40
1.125
309
GRIDFORMAT_END
 95
        8
302
GRIDFORMAT
  1
GRIDFORMAT_BEGIN
 90
        0
 91
        1
 62
     0
 92
       -2
340
14
 93
        0
 40
1.125
309
GRIDFORMAT_END
 95
       16
302
GRIDFORMAT
  1
GRIDFORMAT_BEGIN
 90
        0
 91
        1
 62
     0
 92
       -2
340
14
 93
        0
 40
1.125
309
GRIDFORMAT_END
 95
       32
302
GRIDFORMAT
  1
GRIDFORMAT_BEGIN
 90
        0
 91
        1
 62
     0
 92
       -2
340
14
 93
        0
 40
1.125
309
GRIDFORMAT_END
309
TABLEFORMAT_END
  1
CELLSTYLE_BEGIN
 90
        1
 91
        1
300
_TITLE
309
CELLSTYLE_END
300
CELLSTYLE
  1
TABLEFORMAT_BEGIN
 90
        5
170
     1
 91
        0
 92
        0
 62
   257
 93
        1
300
CONTENTFORMAT
  1
CONTENTFORMAT_BEGIN
 90
        0
 91
        0
 92
      512
 93
        0
300

 40
0.0
140
1.0
 94
        5
 62
     0
340
11
144
4.5
309
CONTENTFORMAT_END
171
     1
301
MARGIN
  1
CELLMARGIN_BEGIN
 40
1.5
 40
1.5
 40
1.5
 40
1.5
 40
4.5
 40
4.5
309
CELLMARGIN_END
 94
        6
 95
        1
302
GRIDFORMAT
  1
GRIDFORMAT_BEGIN
 90
        0
 91
        1
 62
     0
 92
       -2
340
14
 93
        0
 40
1.125
309
GRIDFORMAT_END
 95
        2
302
GRIDFORMAT
  1
GRIDFORMAT_BEGIN
 90
        0
 91
        1
 62
     0
 92
       -2
340
14
 93
        0
 40
1.125
309
GRIDFORMAT_END
 95
        4
302
GRIDFORMAT
  1
GRIDFORMAT_BEGIN
 90
        0
 91
        1
 62
     0
 92
       -2
340
14
 93
        0
 40
1.125
309
GRIDFORMAT_END
 95
        8
302
GRIDFORMAT
  1
GRIDFORMAT_BEGIN
 90
        0
 91
        1
 62
     0
 92
       -2
340
14
 93
        0
 40
1.125
309
GRIDFORMAT_END
 95
       16
302
GRIDFORMAT
  1
GRIDFORMAT_BEGIN
 90
        0
 91
        1
 62
     0
 92
       -2
340
14
 93
        0
 40
1.125
309
GRIDFORMAT_END
 95
       32
302
GRIDFORMAT
  1
GRIDFORMAT_BEGIN
 90
        0
 91
        1
 62
     0
 92
       -2
340
14
 93
        0
 40
1.125
309
GRIDFORMAT_END
309
TABLEFORMAT_END
  1
CELLSTYLE_BEGIN
 90
        2
 91
        1
300
_HEADER
309
CELLSTYLE_END
300
CELLSTYLE
  1
TABLEFORMAT_BEGIN
 90
        5
170
     1
 91
        0
 92
        0
 62
   257
 93
        1
300
CONTENTFORMAT
  1
CONTENTFORMAT_BEGIN
 90
        0
 91
        0
 92
      512
 93
        0
300

 40
0.0
140
1.0
 94
        2
 62
     0
340
11
144
4.5
309
CONTENTFORMAT_END
171
     1
301
MARGIN
  1
CELLMARGIN_BEGIN
 40
1.5
 40
1.5
 40
1.5
 40
1.5
 40
4.5
 40
4.5
309
CELLMARGIN_END
 94
        6
 95
        1
302
GRIDFORMAT
  1
GRIDFORMAT_BEGIN
 90
        0
 91
        1
 62
     0
 92
       -2
340
14
 93
        0
 40
1.125
309
GRIDFORMAT_END
 95
        2
302
GRIDFORMAT
  1
GRIDFORMAT_BEGIN
 90
        0
 91
        1
 62
     0
 92
       -2
340
14
 93
        0
 40
1.125
309
GRIDFORMAT_END
 95
        4
302
GRIDFORMAT
  1
GRIDFORMAT_BEGIN
 90
        0
 91
        1
 62
     0
 92
       -2
340
14
 93
        0
 40
1.125
309
GRIDFORMAT_END
 95
        8
302
GRIDFORMAT
  1
GRIDFORMAT_BEGIN
 90
        0
 91
        1
 62
     0
 92
       -2
340
14
 93
        0
 40
1.125
309
GRIDFORMAT_END
 95
       16
302
GRIDFORMAT
  1
GRIDFORMAT_BEGIN
 90
        0
 91
        1
 62
     0
 92
       -2
340
14
 93
        0
 40
1.125
309
GRIDFORMAT_END
 95
       32
302
GRIDFORMAT
  1
GRIDFORMAT_BEGIN
 90
        0
 91
        1
 62
     0
 92
       -2
340
14
 93
        0
 40
1.125
309
GRIDFORMAT_END
309
TABLEFORMAT_END
  1
CELLSTYLE_BEGIN
 90
        3
 91
        2
300
_DATA
309
CELLSTYLE_END
  0
XRECORD
  5
8934
102
{ACAD_REACTORS
330
162
102
}
330
162
100
AcDbXrecord
280
     1
102
ACAD_ROUNDTRIP_PRE2007_TABLESTYLE
 90
      512
 91
        0
  1

 92
      512
 93
        0
  2

 94
      512
 95
        0
  3

  0
XRECORD
  5
8947
102
{ACAD_REACTORS
330
8946
102
}
330
8946
100
AcDbXrecord
280
     1
102
RTVSPost2010Prop28
280
     1
102
RTVSPost2010PropOp28
 70
     1
102
RTVSPost2010Prop29
280
     1
102
RTVSPost2010PropOp29
 70
     1
102
RTVSPost2010Prop30
280
     0
102
RTVSPost2010PropOp30
 70
     1
102
RTVSPost2010Prop31
280
     0
102
RTVSPost2010PropOp31
 70
     1
102
RTVSPost2010Prop32
280
     0
102
RTVSPost2010PropOp32
 70
     1
102
RTVSPost2010Prop33
280
     0
102
RTVSPost2010PropOp33
 70
     1
102
RTVSPost2010Prop34
280
     0
102
RTVSPost2010PropOp34
 70
     1
102
RTVSPost2010Prop35
280
     0
102
RTVSPost2010PropOp35
 70
     1
102
RTVSPost2010Prop36
280
     0
102
RTVSPost2010PropOp36
 70
     1
102
RTVSPost2010Prop37
 90
       50
102
RTVSPost2010PropOp37
 70
     1
102
RTVSPost2010Prop38
140
0.0
102
RTVSPost2010PropOp38
 70
     1
102
RTVSPost2010Prop39
140
1.0
102
RTVSPost2010PropOp39
 70
     1
102
RTVSPost2010Prop40
 90
        0
102
RTVSPost2010PropOp40
 70
     1
102
RTVSPost2010Prop41ColorIndex
 90
       18
102
RTVSPost2010Prop41ColorRGB
 90
        0
102
RTVSPost2010PropOp41
 70
     1
102
RTVSPost2010Prop42
 90
       50
102
RTVSPost2010PropOp42
 70
     1
102
RTVSPost2010Prop43
 90
        3
102
RTVSPost2010PropOp43
 70
     1
102
RTVSPost2010Prop44ColorIndex
 90
        5
102
RTVSPost2010Prop44ColorRGB
 90
      255
102
RTVSPost2010PropOp44
 70
     1
102
RTVSPost2010Prop45
280
     0
102
RTVSPost2010PropOp45
 70
     1
102
RTVSPost2010Prop46
 90
       50
102
RTVSPost2010PropOp46
 70
     1
102
RTVSPost2010Prop47
 90
       50
102
RTVSPost2010PropOp47
 70
     1
102
RTVSPost2010Prop48
 90
       50
102
RTVSPost2010PropOp48
 70
     1
102
RTVSPost2010Prop49
280
     0
102
RTVSPost2010PropOp49
 70
     1
102
RTVSPost2010Prop50
 90
       50
102
RTVSPost2010PropOp50
 70
     1
102
RTVSPost2010Prop51ColorIndex
 90
      256
102
RTVSPost2010Prop51ColorRGB
 90
-16777216
102
RTVSPost2010PropOp51
 70
     0
102
RTVSPost2010Prop52
140
1.0
102
RTVSPost2010PropOp52
 70
     0
102
RTVSPost2010Prop53
 90
        2
102
RTVSPost2010PropOp53
 70
     1
102
RTVSPost2010Prop54
  1
strokes_ogs.tif
102
RTVSPost2010PropOp54
 70
     1
102
RTVSPost2010Prop55
280
     0
102
RTVSPost2010PropOp55
 70
     1
102
RTVSPost2010Prop56
140
1.0
102
RTVSPost2010PropOp56
 70
     1
102
RTVSPost2010Prop57
140
1.0
102
RTVSPost2010PropOp57
 70
     1
102
RTVSPropertyOp0
 70
     1
102
RTVSPropertyOp1
 70
     1
102
RTVSPropertyOp2
 70
     1
102
RTVSPropertyOp3
 70
     1
102
RTVSPropertyOp4
 70
     1
102
RTVSPropertyOp5
 70
     1
102
RTVSPropertyOp6
 70
     1
102
RTVSPropertyOp7
 70
     1
102
RTVSPropertyOp8
 70
     1
102
RTVSPropertyOp9
 70
     1
102
RTVSPropertyOp10
 70
     1
102
RTVSPropertyOp11
 70
     1
102
RTVSPropertyOp12
 70
     1
102
RTVSPropertyOp13
 70
     1
102
RTVSPropertyOp14
 70
     1
102
RTVSPropertyOp15
 70
     1
102
RTVSPropertyOp16
 70
     1
102
RTVSPropertyOp17
 70
     1
102
RTVSPropertyOp18
 70
     1
102
RTVSPropertyOp19
 70
     1
102
RTVSPropertyOp20
 70
     1
102
RTVSPropertyOp21
 70
     1
102
RTVSPropertyOp22
 70
     1
102
RTVSPropertyOp23
 70
     1
102
RTVSPropertyOp24
 70
     1
102
RTVSPropertyOp25
 70
     1
102
RTVSPropertyOp26
 70
     1
102
RTVSPropertyOp27
 70
     1
102
RTVSPropertyOp28
 70
     1
102
RTVSPropertyOp29
 70
     1
102
RTVSPropertyOp30
 70
     1
102
RTVSPropertyOp31
 70
     1
102
RTVSPropertyOp32
 70
     1
102
RTVSPropertyOp33
 70
     1
102
RTVSPropertyOp34
 70
     1
102
RTVSPropertyOp35
 70
     1
102
RTVSPropertyOp36
 70
     1
102
RTVSPropertyOp37
 70
     1
102
RTVSPropertyOp38
 70
     1
102
RTVSPropertyOp39
 70
     1
102
RTVSPropertyOp40
 70
     1
102
RTVSPropertyOp41
 70
     1
102
RTVSPropertyOp42
 70
     1
102
RTVSPropertyOp43
 70
     1
102
RTVSPropertyOp44
 70
     1
102
RTVSPropertyOp45
 70
     1
102
RTVSPropertyOp46
 70
     1
102
RTVSPropertyOp47
 70
     1
102
RTVSPropertyOp48
 70
     1
102
RTVSPropertyOp49
 70
     1
102
RTVSPropertyOp50
 70
     1
102
RTVSPropertyOp51
 70
     0
102
RTVSPropertyOp52
 70
     0
102
RTVSPropertyOp53
 70
     1
102
RTVSPropertyOp54
 70
     1
102
RTVSPropertyOp55
 70
     1
102
RTVSPropertyOp56
 70
     1
102
RTVSPropertyOp57
 70
     1
102
RTVSPropertyOp58
 70
     1
102
RTVSPropertyOp59
 70
     1
102
RTVSPropertyOp60
 70
     1
102
RTVSPropertyOp61
 70
     1
102
RTVSPropertyOp62
 70
     1
  0
XRECORD
  5
8945
102
{ACAD_REACTORS
330
8944
102
}
330
8944
100
AcDbXrecord
280
     1
102
RTVSPost2010Prop28
280
     0
102
RTVSPost2010PropOp28
 70
     1
102
RTVSPost2010Prop29
280
     1
102
RTVSPost2010PropOp29
 70
     1
102
RTVSPost2010Prop30
280
     1
102
RTVSPost2010PropOp30
 70
     1
102
RTVSPost2010Prop31
280
     0
102
RTVSPost2010PropOp31
 70
     1
102
RTVSPost2010Prop32
280
     0
102
RTVSPost2010PropOp32
 70
     1
102
RTVSPost2010Prop33
280
     0
102
RTVSPost2010PropOp33
 70
     1
102
RTVSPost2010Prop34
280
     0
102
RTVSPost2010PropOp34
 70
     1
102
RTVSPost2010Prop35
280
     0
102
RTVSPost2010PropOp35
 70
     1
102
RTVSPost2010Prop36
280
     0
102
RTVSPost2010PropOp36
 70
     1
102
RTVSPost2010Prop37
 90
       50
102
RTVSPost2010PropOp37
 70
     1
102
RTVSPost2010Prop38
140
0.0
102
RTVSPost2010PropOp38
 70
     1
102
RTVSPost2010Prop39
140
1.0
102
RTVSPost2010PropOp39
 70
     1
102
RTVSPost2010Prop40
 90
        0
102
RTVSPost2010PropOp40
 70
     1
102
RTVSPost2010Prop41ColorIndex
 90
       18
102
RTVSPost2010Prop41ColorRGB
 90
        0
102
RTVSPost2010PropOp41
 70
     1
102
RTVSPost2010Prop42
 90
       50
102
RTVSPost2010PropOp42
 70
     1
102
RTVSPost2010Prop43
 90
        3
102
RTVSPost2010PropOp43
 70
     1
102
RTVSPost2010Prop44ColorIndex
 90
        5
102
RTVSPost2010Prop44ColorRGB
 90
      255
102
RTVSPost2010PropOp44
 70
     1
102
RTVSPost2010Prop45
280
     0
102
RTVSPost2010PropOp45
 70
     1
102
RTVSPost2010Prop46
 90
       50
102
RTVSPost2010PropOp46
 70
     1
102
RTVSPost2010Prop47
 90
       50
102
RTVSPost2010PropOp47
 70
     1
102
RTVSPost2010Prop48
 90
       50
102
RTVSPost2010PropOp48
 70
     1
102
RTVSPost2010Prop49
280
     0
102
RTVSPost2010PropOp49
 70
     1
102
RTVSPost2010Prop50
 90
       50
102
RTVSPost2010PropOp50
 70
     1
102
RTVSPost2010Prop51ColorIndex
 90
      256
102
RTVSPost2010Prop51ColorRGB
 90
-16777216
102
RTVSPost2010PropOp51
 70
     0
102
RTVSPost2010Prop52
140
1.0
102
RTVSPost2010PropOp52
 70
     0
102
RTVSPost2010Prop53
 90
        2
102
RTVSPost2010PropOp53
 70
     1
102
RTVSPost2010Prop54
  1
strokes_ogs.tif
102
RTVSPost2010PropOp54
 70
     1
102
RTVSPost2010Prop55
280
     0
102
RTVSPost2010PropOp55
 70
     1
102
RTVSPost2010Prop56
140
1.0
102
RTVSPost2010PropOp56
 70
     1
102
RTVSPost2010Prop57
140
1.0
102
RTVSPost2010PropOp57
 70
     1
102
RTVSPropertyOp0
 70
     1
102
RTVSPropertyOp1
 70
     1
102
RTVSPropertyOp2
 70
     1
102
RTVSPropertyOp3
 70
     1
102
RTVSPropertyOp4
 70
     1
102
RTVSPropertyOp5
 70
     1
102
RTVSPropertyOp6
 70
     1
102
RTVSPropertyOp7
 70
     1
102
RTVSPropertyOp8
 70
     1
102
RTVSPropertyOp9
 70
     1
102
RTVSPropertyOp10
 70
     1
102
RTVSPropertyOp11
 70
     1
102
RTVSPropertyOp12
 70
     1
102
RTVSPropertyOp13
 70
     1
102
RTVSPropertyOp14
 70
     1
102
RTVSPropertyOp15
 70
     1
102
RTVSPropertyOp16
 70
     1
102
RTVSPropertyOp17
 70
     1
102
RTVSPropertyOp18
 70
     1
102
RTVSPropertyOp19
 70
     1
102
RTVSPropertyOp20
 70
     1
102
RTVSPropertyOp21
 70
     1
102
RTVSPropertyOp22
 70
     1
102
RTVSPropertyOp23
 70
     1
102
RTVSPropertyOp24
 70
     1
102
RTVSPropertyOp25
 70
     1
102
RTVSPropertyOp26
 70
     1
102
RTVSPropertyOp27
 70
     1
102
RTVSPropertyOp28
 70
     1
102
RTVSPropertyOp29
 70
     1
102
RTVSPropertyOp30
 70
     1
102
RTVSPropertyOp31
 70
     1
102
RTVSPropertyOp32
 70
     1
102
RTVSPropertyOp33
 70
     1
102
RTVSPropertyOp34
 70
     1
102
RTVSPropertyOp35
 70
     1
102
RTVSPropertyOp36
 70
     1
102
RTVSPropertyOp37
 70
     1
102
RTVSPropertyOp38
 70
     1
102
RTVSPropertyOp39
 70
     1
102
RTVSPropertyOp40
 70
     1
102
RTVSPropertyOp41
 70
     1
102
RTVSPropertyOp42
 70
     1
102
RTVSPropertyOp43
 70
     1
102
RTVSPropertyOp44
 70
     1
102
RTVSPropertyOp45
 70
     1
102
RTVSPropertyOp46
 70
     1
102
RTVSPropertyOp47
 70
     1
102
RTVSPropertyOp48
 70
     1
102
RTVSPropertyOp49
 70
     1
102
RTVSPropertyOp50
 70
     1
102
RTVSPropertyOp51
 70
     0
102
RTVSPropertyOp52
 70
     0
102
RTVSPropertyOp53
 70
     1
102
RTVSPropertyOp54
 70
     1
102
RTVSPropertyOp55
 70
     1
102
RTVSPropertyOp56
 70
     1
102
RTVSPropertyOp57
 70
     1
102
RTVSPropertyOp58
 70
     1
102
RTVSPropertyOp59
 70
     1
102
RTVSPropertyOp60
 70
     1
102
RTVSPropertyOp61
 70
     1
102
RTVSPropertyOp62
 70
     1
  0
XRECORD
  5
8953
102
{ACAD_REACTORS
330
8952
102
}
330
8952
100
AcDbXrecord
280
     1
102
RTVSPost2010Prop28
280
     0
102
RTVSPost2010PropOp28
 70
     1
102
RTVSPost2010Prop29
280
     1
102
RTVSPost2010PropOp29
 70
     1
102
RTVSPost2010Prop30
280
     1
102
RTVSPost2010PropOp30
 70
     1
102
RTVSPost2010Prop31
280
     0
102
RTVSPost2010PropOp31
 70
     1
102
RTVSPost2010Prop32
280
     0
102
RTVSPost2010PropOp32
 70
     1
102
RTVSPost2010Prop33
280
     0
102
RTVSPost2010PropOp33
 70
     1
102
RTVSPost2010Prop34
280
     0
102
RTVSPost2010PropOp34
 70
     1
102
RTVSPost2010Prop35
280
     0
102
RTVSPost2010PropOp35
 70
     1
102
RTVSPost2010Prop36
280
     0
102
RTVSPost2010PropOp36
 70
     1
102
RTVSPost2010Prop37
 90
       50
102
RTVSPost2010PropOp37
 70
     1
102
RTVSPost2010Prop38
140
0.0
102
RTVSPost2010PropOp38
 70
     1
102
RTVSPost2010Prop39
140
1.0
102
RTVSPost2010PropOp39
 70
     1
102
RTVSPost2010Prop40
 90
        0
102
RTVSPost2010PropOp40
 70
     1
102
RTVSPost2010Prop41ColorIndex
 90
       18
102
RTVSPost2010Prop41ColorRGB
 90
        0
102
RTVSPost2010PropOp41
 70
     1
102
RTVSPost2010Prop42
 90
       50
102
RTVSPost2010PropOp42
 70
     1
102
RTVSPost2010Prop43
 90
        3
102
RTVSPost2010PropOp43
 70
     1
102
RTVSPost2010Prop44ColorIndex
 90
        5
102
RTVSPost2010Prop44ColorRGB
 90
      255
102
RTVSPost2010PropOp44
 70
     1
102
RTVSPost2010Prop45
280
     0
102
RTVSPost2010PropOp45
 70
     1
102
RTVSPost2010Prop46
 90
       50
102
RTVSPost2010PropOp46
 70
     1
102
RTVSPost2010Prop47
 90
       50
102
RTVSPost2010PropOp47
 70
     1
102
RTVSPost2010Prop48
 90
       50
102
RTVSPost2010PropOp48
 70
     1
102
RTVSPost2010Prop49
280
     0
102
RTVSPost2010PropOp49
 70
     1
102
RTVSPost2010Prop50
 90
       50
102
RTVSPost2010PropOp50
 70
     1
102
RTVSPost2010Prop51ColorIndex
 90
      256
102
RTVSPost2010Prop51ColorRGB
 90
-16777216
102
RTVSPost2010PropOp51
 70
     0
102
RTVSPost2010Prop52
140
1.0
102
RTVSPost2010PropOp52
 70
     0
102
RTVSPost2010Prop53
 90
        2
102
RTVSPost2010PropOp53
 70
     1
102
RTVSPost2010Prop54
  1
strokes_ogs.tif
102
RTVSPost2010PropOp54
 70
     1
102
RTVSPost2010Prop55
280
     0
102
RTVSPost2010PropOp55
 70
     1
102
RTVSPost2010Prop56
140
1.0
102
RTVSPost2010PropOp56
 70
     1
102
RTVSPost2010Prop57
140
1.0
102
RTVSPost2010PropOp57
 70
     1
102
RTVSPropertyOp0
 70
     1
102
RTVSPropertyOp1
 70
     1
102
RTVSPropertyOp2
 70
     1
102
RTVSPropertyOp3
 70
     1
102
RTVSPropertyOp4
 70
     1
102
RTVSPropertyOp5
 70
     1
102
RTVSPropertyOp6
 70
     1
102
RTVSPropertyOp7
 70
     1
102
RTVSPropertyOp8
 70
     1
102
RTVSPropertyOp9
 70
     1
102
RTVSPropertyOp10
 70
     1
102
RTVSPropertyOp11
 70
     1
102
RTVSPropertyOp12
 70
     1
102
RTVSPropertyOp13
 70
     1
102
RTVSPropertyOp14
 70
     1
102
RTVSPropertyOp15
 70
     1
102
RTVSPropertyOp16
 70
     1
102
RTVSPropertyOp17
 70
     1
102
RTVSPropertyOp18
 70
     1
102
RTVSPropertyOp19
 70
     1
102
RTVSPropertyOp20
 70
     1
102
RTVSPropertyOp21
 70
     1
102
RTVSPropertyOp22
 70
     1
102
RTVSPropertyOp23
 70
     1
102
RTVSPropertyOp24
 70
     1
102
RTVSPropertyOp25
 70
     1
102
RTVSPropertyOp26
 70
     1
102
RTVSPropertyOp27
 70
     1
102
RTVSPropertyOp28
 70
     1
102
RTVSPropertyOp29
 70
     1
102
RTVSPropertyOp30
 70
     1
102
RTVSPropertyOp31
 70
     1
102
RTVSPropertyOp32
 70
     1
102
RTVSPropertyOp33
 70
     1
102
RTVSPropertyOp34
 70
     1
102
RTVSPropertyOp35
 70
     1
102
RTVSPropertyOp36
 70
     1
102
RTVSPropertyOp37
 70
     1
102
RTVSPropertyOp38
 70
     1
102
RTVSPropertyOp39
 70
     1
102
RTVSPropertyOp40
 70
     1
102
RTVSPropertyOp41
 70
     1
102
RTVSPropertyOp42
 70
     1
102
RTVSPropertyOp43
 70
     1
102
RTVSPropertyOp44
 70
     1
102
RTVSPropertyOp45
 70
     1
102
RTVSPropertyOp46
 70
     1
102
RTVSPropertyOp47
 70
     1
102
RTVSPropertyOp48
 70
     1
102
RTVSPropertyOp49
 70
     1
102
RTVSPropertyOp50
 70
     1
102
RTVSPropertyOp51
 70
     0
102
RTVSPropertyOp52
 70
     0
102
RTVSPropertyOp53
 70
     1
102
RTVSPropertyOp54
 70
     1
102
RTVSPropertyOp55
 70
     1
102
RTVSPropertyOp56
 70
     1
102
RTVSPropertyOp57
 70
     1
102
RTVSPropertyOp58
 70
     1
102
RTVSPropertyOp59
 70
     1
102
RTVSPropertyOp60
 70
     1
102
RTVSPropertyOp61
 70
     1
102
RTVSPropertyOp62
 70
     1
  0
XRECORD
  5
895B
102
{ACAD_REACTORS
330
895A
102
}
330
895A
100
AcDbXrecord
280
     1
102
RTVSPost2010Prop28
280
     0
102
RTVSPost2010PropOp28
 70
     1
102
RTVSPost2010Prop29
280
     1
102
RTVSPost2010PropOp29
 70
     1
102
RTVSPost2010Prop30
280
     1
102
RTVSPost2010PropOp30
 70
     1
102
RTVSPost2010Prop31
280
     0
102
RTVSPost2010PropOp31
 70
     1
102
RTVSPost2010Prop32
280
     0
102
RTVSPost2010PropOp32
 70
     1
102
RTVSPost2010Prop33
280
     0
102
RTVSPost2010PropOp33
 70
     1
102
RTVSPost2010Prop34
280
     0
102
RTVSPost2010PropOp34
 70
     1
102
RTVSPost2010Prop35
280
     0
102
RTVSPost2010PropOp35
 70
     1
102
RTVSPost2010Prop36
280
     0
102
RTVSPost2010PropOp36
 70
     1
102
RTVSPost2010Prop37
 90
       50
102
RTVSPost2010PropOp37
 70
     1
102
RTVSPost2010Prop38
140
0.0
102
RTVSPost2010PropOp38
 70
     1
102
RTVSPost2010Prop39
140
1.0
102
RTVSPost2010PropOp39
 70
     1
102
RTVSPost2010Prop40
 90
        0
102
RTVSPost2010PropOp40
 70
     1
102
RTVSPost2010Prop41ColorIndex
 90
       18
102
RTVSPost2010Prop41ColorRGB
 90
        0
102
RTVSPost2010PropOp41
 70
     1
102
RTVSPost2010Prop42
 90
       50
102
RTVSPost2010PropOp42
 70
     1
102
RTVSPost2010Prop43
 90
        3
102
RTVSPost2010PropOp43
 70
     1
102
RTVSPost2010Prop44ColorIndex
 90
        5
102
RTVSPost2010Prop44ColorRGB
 90
      255
102
RTVSPost2010PropOp44
 70
     1
102
RTVSPost2010Prop45
280
     0
102
RTVSPost2010PropOp45
 70
     1
102
RTVSPost2010Prop46
 90
       50
102
RTVSPost2010PropOp46
 70
     1
102
RTVSPost2010Prop47
 90
       50
102
RTVSPost2010PropOp47
 70
     1
102
RTVSPost2010Prop48
 90
       50
102
RTVSPost2010PropOp48
 70
     1
102
RTVSPost2010Prop49
280
     0
102
RTVSPost2010PropOp49
 70
     1
102
RTVSPost2010Prop50
 90
       50
102
RTVSPost2010PropOp50
 70
     1
102
RTVSPost2010Prop51ColorIndex
 90
      256
102
RTVSPost2010Prop51ColorRGB
 90
-16777216
102
RTVSPost2010PropOp51
 70
     0
102
RTVSPost2010Prop52
140
1.0
102
RTVSPost2010PropOp52
 70
     0
102
RTVSPost2010Prop53
 90
        2
102
RTVSPost2010PropOp53
 70
     1
102
RTVSPost2010Prop54
  1
strokes_ogs.tif
102
RTVSPost2010PropOp54
 70
     1
102
RTVSPost2010Prop55
280
     0
102
RTVSPost2010PropOp55
 70
     1
102
RTVSPost2010Prop56
140
1.0
102
RTVSPost2010PropOp56
 70
     1
102
RTVSPost2010Prop57
140
1.0
102
RTVSPost2010PropOp57
 70
     1
102
RTVSPropertyOp0
 70
     1
102
RTVSPropertyOp1
 70
     1
102
RTVSPropertyOp2
 70
     1
102
RTVSPropertyOp3
 70
     1
102
RTVSPropertyOp4
 70
     1
102
RTVSPropertyOp5
 70
     1
102
RTVSPropertyOp6
 70
     1
102
RTVSPropertyOp7
 70
     1
102
RTVSPropertyOp8
 70
     1
102
RTVSPropertyOp9
 70
     1
102
RTVSPropertyOp10
 70
     1
102
RTVSPropertyOp11
 70
     1
102
RTVSPropertyOp12
 70
     1
102
RTVSPropertyOp13
 70
     1
102
RTVSPropertyOp14
 70
     1
102
RTVSPropertyOp15
 70
     1
102
RTVSPropertyOp16
 70
     1
102
RTVSPropertyOp17
 70
     1
102
RTVSPropertyOp18
 70
     1
102
RTVSPropertyOp19
 70
     1
102
RTVSPropertyOp20
 70
     1
102
RTVSPropertyOp21
 70
     1
102
RTVSPropertyOp22
 70
     1
102
RTVSPropertyOp23
 70
     1
102
RTVSPropertyOp24
 70
     1
102
RTVSPropertyOp25
 70
     1
102
RTVSPropertyOp26
 70
     1
102
RTVSPropertyOp27
 70
     1
102
RTVSPropertyOp28
 70
     1
102
RTVSPropertyOp29
 70
     1
102
RTVSPropertyOp30
 70
     1
102
RTVSPropertyOp31
 70
     1
102
RTVSPropertyOp32
 70
     1
102
RTVSPropertyOp33
 70
     1
102
RTVSPropertyOp34
 70
     1
102
RTVSPropertyOp35
 70
     1
102
RTVSPropertyOp36
 70
     1
102
RTVSPropertyOp37
 70
     1
102
RTVSPropertyOp38
 70
     1
102
RTVSPropertyOp39
 70
     1
102
RTVSPropertyOp40
 70
     1
102
RTVSPropertyOp41
 70
     1
102
RTVSPropertyOp42
 70
     1
102
RTVSPropertyOp43
 70
     1
102
RTVSPropertyOp44
 70
     1
102
RTVSPropertyOp45
 70
     1
102
RTVSPropertyOp46
 70
     1
102
RTVSPropertyOp47
 70
     1
102
RTVSPropertyOp48
 70
     1
102
RTVSPropertyOp49
 70
     1
102
RTVSPropertyOp50
 70
     1
102
RTVSPropertyOp51
 70
     0
102
RTVSPropertyOp52
 70
     0
102
RTVSPropertyOp53
 70
     1
102
RTVSPropertyOp54
 70
     1
102
RTVSPropertyOp55
 70
     1
102
RTVSPropertyOp56
 70
     1
102
RTVSPropertyOp57
 70
     1
102
RTVSPropertyOp58
 70
     1
102
RTVSPropertyOp59
 70
     1
102
RTVSPropertyOp60
 70
     1
102
RTVSPropertyOp61
 70
     1
102
RTVSPropertyOp62
 70
     1
  0
XRECORD
  5
894D
102
{ACAD_REACTORS
330
894C
102
}
330
894C
100
AcDbXrecord
280
     1
102
RTVSPost2010Prop28
280
     0
102
RTVSPost2010PropOp28
 70
     1
102
RTVSPost2010Prop29
280
     1
102
RTVSPost2010PropOp29
 70
     1
102
RTVSPost2010Prop30
280
     1
102
RTVSPost2010PropOp30
 70
     1
102
RTVSPost2010Prop31
280
     0
102
RTVSPost2010PropOp31
 70
     1
102
RTVSPost2010Prop32
280
     0
102
RTVSPost2010PropOp32
 70
     1
102
RTVSPost2010Prop33
280
     0
102
RTVSPost2010PropOp33
 70
     1
102
RTVSPost2010Prop34
280
     0
102
RTVSPost2010PropOp34
 70
     1
102
RTVSPost2010Prop35
280
     0
102
RTVSPost2010PropOp35
 70
     1
102
RTVSPost2010Prop36
280
     0
102
RTVSPost2010PropOp36
 70
     1
102
RTVSPost2010Prop37
 90
       50
102
RTVSPost2010PropOp37
 70
     1
102
RTVSPost2010Prop38
140
0.0
102
RTVSPost2010PropOp38
 70
     1
102
RTVSPost2010Prop39
140
1.0
102
RTVSPost2010PropOp39
 70
     1
102
RTVSPost2010Prop40
 90
        0
102
RTVSPost2010PropOp40
 70
     1
102
RTVSPost2010Prop41ColorIndex
 90
       18
102
RTVSPost2010Prop41ColorRGB
 90
        0
102
RTVSPost2010PropOp41
 70
     1
102
RTVSPost2010Prop42
 90
       50
102
RTVSPost2010PropOp42
 70
     1
102
RTVSPost2010Prop43
 90
        3
102
RTVSPost2010PropOp43
 70
     1
102
RTVSPost2010Prop44ColorIndex
 90
        5
102
RTVSPost2010Prop44ColorRGB
 90
      255
102
RTVSPost2010PropOp44
 70
     1
102
RTVSPost2010Prop45
280
     0
102
RTVSPost2010PropOp45
 70
     1
102
RTVSPost2010Prop46
 90
       50
102
RTVSPost2010PropOp46
 70
     1
102
RTVSPost2010Prop47
 90
       50
102
RTVSPost2010PropOp47
 70
     1
102
RTVSPost2010Prop48
 90
       50
102
RTVSPost2010PropOp48
 70
     1
102
RTVSPost2010Prop49
280
     0
102
RTVSPost2010PropOp49
 70
     1
102
RTVSPost2010Prop50
 90
       50
102
RTVSPost2010PropOp50
 70
     1
102
RTVSPost2010Prop51ColorIndex
 90
      256
102
RTVSPost2010Prop51ColorRGB
 90
-16777216
102
RTVSPost2010PropOp51
 70
     0
102
RTVSPost2010Prop52
140
1.0
102
RTVSPost2010PropOp52
 70
     0
102
RTVSPost2010Prop53
 90
        2
102
RTVSPost2010PropOp53
 70
     1
102
RTVSPost2010Prop54
  1
strokes_ogs.tif
102
RTVSPost2010PropOp54
 70
     1
102
RTVSPost2010Prop55
280
     0
102
RTVSPost2010PropOp55
 70
     1
102
RTVSPost2010Prop56
140
1.0
102
RTVSPost2010PropOp56
 70
     1
102
RTVSPost2010Prop57
140
1.0
102
RTVSPost2010PropOp57
 70
     1
102
RTVSPropertyOp0
 70
     1
102
RTVSPropertyOp1
 70
     1
102
RTVSPropertyOp2
 70
     1
102
RTVSPropertyOp3
 70
     1
102
RTVSPropertyOp4
 70
     1
102
RTVSPropertyOp5
 70
     1
102
RTVSPropertyOp6
 70
     1
102
RTVSPropertyOp7
 70
     1
102
RTVSPropertyOp8
 70
     1
102
RTVSPropertyOp9
 70
     1
102
RTVSPropertyOp10
 70
     1
102
RTVSPropertyOp11
 70
     1
102
RTVSPropertyOp12
 70
     1
102
RTVSPropertyOp13
 70
     1
102
RTVSPropertyOp14
 70
     1
102
RTVSPropertyOp15
 70
     1
102
RTVSPropertyOp16
 70
     1
102
RTVSPropertyOp17
 70
     1
102
RTVSPropertyOp18
 70
     1
102
RTVSPropertyOp19
 70
     1
102
RTVSPropertyOp20
 70
     1
102
RTVSPropertyOp21
 70
     1
102
RTVSPropertyOp22
 70
     1
102
RTVSPropertyOp23
 70
     1
102
RTVSPropertyOp24
 70
     1
102
RTVSPropertyOp25
 70
     1
102
RTVSPropertyOp26
 70
     1
102
RTVSPropertyOp27
 70
     1
102
RTVSPropertyOp28
 70
     1
102
RTVSPropertyOp29
 70
     1
102
RTVSPropertyOp30
 70
     1
102
RTVSPropertyOp31
 70
     1
102
RTVSPropertyOp32
 70
     1
102
RTVSPropertyOp33
 70
     1
102
RTVSPropertyOp34
 70
     1
102
RTVSPropertyOp35
 70
     1
102
RTVSPropertyOp36
 70
     1
102
RTVSPropertyOp37
 70
     1
102
RTVSPropertyOp38
 70
     1
102
RTVSPropertyOp39
 70
     1
102
RTVSPropertyOp40
 70
     1
102
RTVSPropertyOp41
 70
     1
102
RTVSPropertyOp42
 70
     1
102
RTVSPropertyOp43
 70
     1
102
RTVSPropertyOp44
 70
     1
102
RTVSPropertyOp45
 70
     1
102
RTVSPropertyOp46
 70
     1
102
RTVSPropertyOp47
 70
     1
102
RTVSPropertyOp48
 70
     1
102
RTVSPropertyOp49
 70
     1
102
RTVSPropertyOp50
 70
     1
102
RTVSPropertyOp51
 70
     0
102
RTVSPropertyOp52
 70
     0
102
RTVSPropertyOp53
 70
     1
102
RTVSPropertyOp54
 70
     1
102
RTVSPropertyOp55
 70
     1
102
RTVSPropertyOp56
 70
     1
102
RTVSPropertyOp57
 70
     1
102
RTVSPropertyOp58
 70
     1
102
RTVSPropertyOp59
 70
     1
102
RTVSPropertyOp60
 70
     1
102
RTVSPropertyOp61
 70
     1
102
RTVSPropertyOp62
 70
     1
  0
XRECORD
  5
8951
102
{ACAD_REACTORS
330
8950
102
}
330
8950
100
AcDbXrecord
280
     1
102
RTVSPost2010Prop28
280
     0
102
RTVSPost2010PropOp28
 70
     1
102
RTVSPost2010Prop29
280
     1
102
RTVSPost2010PropOp29
 70
     1
102
RTVSPost2010Prop30
280
     1
102
RTVSPost2010PropOp30
 70
     1
102
RTVSPost2010Prop31
280
     0
102
RTVSPost2010PropOp31
 70
     1
102
RTVSPost2010Prop32
280
     0
102
RTVSPost2010PropOp32
 70
     1
102
RTVSPost2010Prop33
280
     0
102
RTVSPost2010PropOp33
 70
     1
102
RTVSPost2010Prop34
280
     0
102
RTVSPost2010PropOp34
 70
     1
102
RTVSPost2010Prop35
280
     0
102
RTVSPost2010PropOp35
 70
     1
102
RTVSPost2010Prop36
280
     0
102
RTVSPost2010PropOp36
 70
     1
102
RTVSPost2010Prop37
 90
       50
102
RTVSPost2010PropOp37
 70
     1
102
RTVSPost2010Prop38
140
0.0
102
RTVSPost2010PropOp38
 70
     1
102
RTVSPost2010Prop39
140
1.0
102
RTVSPost2010PropOp39
 70
     1
102
RTVSPost2010Prop40
 90
        0
102
RTVSPost2010PropOp40
 70
     1
102
RTVSPost2010Prop41ColorIndex
 90
       18
102
RTVSPost2010Prop41ColorRGB
 90
        0
102
RTVSPost2010PropOp41
 70
     1
102
RTVSPost2010Prop42
 90
       50
102
RTVSPost2010PropOp42
 70
     1
102
RTVSPost2010Prop43
 90
        3
102
RTVSPost2010PropOp43
 70
     1
102
RTVSPost2010Prop44ColorIndex
 90
        5
102
RTVSPost2010Prop44ColorRGB
 90
      255
102
RTVSPost2010PropOp44
 70
     1
102
RTVSPost2010Prop45
280
     0
102
RTVSPost2010PropOp45
 70
     1
102
RTVSPost2010Prop46
 90
       50
102
RTVSPost2010PropOp46
 70
     1
102
RTVSPost2010Prop47
 90
       50
102
RTVSPost2010PropOp47
 70
     1
102
RTVSPost2010Prop48
 90
       50
102
RTVSPost2010PropOp48
 70
     1
102
RTVSPost2010Prop49
280
     0
102
RTVSPost2010PropOp49
 70
     1
102
RTVSPost2010Prop50
 90
       50
102
RTVSPost2010PropOp50
 70
     1
102
RTVSPost2010Prop51ColorIndex
 90
      256
102
RTVSPost2010Prop51ColorRGB
 90
-16777216
102
RTVSPost2010PropOp51
 70
     0
102
RTVSPost2010Prop52
140
1.0
102
RTVSPost2010PropOp52
 70
     0
102
RTVSPost2010Prop53
 90
        2
102
RTVSPost2010PropOp53
 70
     1
102
RTVSPost2010Prop54
  1
strokes_ogs.tif
102
RTVSPost2010PropOp54
 70
     1
102
RTVSPost2010Prop55
280
     0
102
RTVSPost2010PropOp55
 70
     1
102
RTVSPost2010Prop56
140
1.0
102
RTVSPost2010PropOp56
 70
     1
102
RTVSPost2010Prop57
140
1.0
102
RTVSPost2010PropOp57
 70
     1
102
RTVSPropertyOp0
 70
     1
102
RTVSPropertyOp1
 70
     1
102
RTVSPropertyOp2
 70
     1
102
RTVSPropertyOp3
 70
     1
102
RTVSPropertyOp4
 70
     1
102
RTVSPropertyOp5
 70
     1
102
RTVSPropertyOp6
 70
     1
102
RTVSPropertyOp7
 70
     1
102
RTVSPropertyOp8
 70
     1
102
RTVSPropertyOp9
 70
     1
102
RTVSPropertyOp10
 70
     1
102
RTVSPropertyOp11
 70
     1
102
RTVSPropertyOp12
 70
     1
102
RTVSPropertyOp13
 70
     1
102
RTVSPropertyOp14
 70
     1
102
RTVSPropertyOp15
 70
     1
102
RTVSPropertyOp16
 70
     1
102
RTVSPropertyOp17
 70
     1
102
RTVSPropertyOp18
 70
     1
102
RTVSPropertyOp19
 70
     1
102
RTVSPropertyOp20
 70
     1
102
RTVSPropertyOp21
 70
     1
102
RTVSPropertyOp22
 70
     1
102
RTVSPropertyOp23
 70
     1
102
RTVSPropertyOp24
 70
     1
102
RTVSPropertyOp25
 70
     1
102
RTVSPropertyOp26
 70
     1
102
RTVSPropertyOp27
 70
     1
102
RTVSPropertyOp28
 70
     1
102
RTVSPropertyOp29
 70
     1
102
RTVSPropertyOp30
 70
     1
102
RTVSPropertyOp31
 70
     1
102
RTVSPropertyOp32
 70
     1
102
RTVSPropertyOp33
 70
     1
102
RTVSPropertyOp34
 70
     1
102
RTVSPropertyOp35
 70
     1
102
RTVSPropertyOp36
 70
     1
102
RTVSPropertyOp37
 70
     1
102
RTVSPropertyOp38
 70
     1
102
RTVSPropertyOp39
 70
     1
102
RTVSPropertyOp40
 70
     1
102
RTVSPropertyOp41
 70
     1
102
RTVSPropertyOp42
 70
     1
102
RTVSPropertyOp43
 70
     1
102
RTVSPropertyOp44
 70
     1
102
RTVSPropertyOp45
 70
     1
102
RTVSPropertyOp46
 70
     1
102
RTVSPropertyOp47
 70
     1
102
RTVSPropertyOp48
 70
     1
102
RTVSPropertyOp49
 70
     1
102
RTVSPropertyOp50
 70
     1
102
RTVSPropertyOp51
 70
     0
102
RTVSPropertyOp52
 70
     0
102
RTVSPropertyOp53
 70
     1
102
RTVSPropertyOp54
 70
     1
102
RTVSPropertyOp55
 70
     1
102
RTVSPropertyOp56
 70
     1
102
RTVSPropertyOp57
 70
     1
102
RTVSPropertyOp58
 70
     1
102
RTVSPropertyOp59
 70
     1
102
RTVSPropertyOp60
 70
     1
102
RTVSPropertyOp61
 70
     1
102
RTVSPropertyOp62
 70
     1
  0
XRECORD
  5
8963
102
{ACAD_REACTORS
330
8962
102
}
330
8962
100
AcDbXrecord
280
     1
102
RTVSPost2010Prop28
280
     0
102
RTVSPost2010PropOp28
 70
     1
102
RTVSPost2010Prop29
280
     1
102
RTVSPost2010PropOp29
 70
     1
102
RTVSPost2010Prop30
280
     1
102
RTVSPost2010PropOp30
 70
     1
102
RTVSPost2010Prop31
280
     0
102
RTVSPost2010PropOp31
 70
     1
102
RTVSPost2010Prop32
280
     0
102
RTVSPost2010PropOp32
 70
     1
102
RTVSPost2010Prop33
280
     0
102
RTVSPost2010PropOp33
 70
     1
102
RTVSPost2010Prop34
280
     0
102
RTVSPost2010PropOp34
 70
     1
102
RTVSPost2010Prop35
280
     0
102
RTVSPost2010PropOp35
 70
     1
102
RTVSPost2010Prop36
280
     0
102
RTVSPost2010PropOp36
 70
     1
102
RTVSPost2010Prop37
 90
       50
102
RTVSPost2010PropOp37
 70
     1
102
RTVSPost2010Prop38
140
0.0
102
RTVSPost2010PropOp38
 70
     1
102
RTVSPost2010Prop39
140
1.0
102
RTVSPost2010PropOp39
 70
     1
102
RTVSPost2010Prop40
 90
        0
102
RTVSPost2010PropOp40
 70
     1
102
RTVSPost2010Prop41ColorIndex
 90
       18
102
RTVSPost2010Prop41ColorRGB
 90
        0
102
RTVSPost2010PropOp41
 70
     1
102
RTVSPost2010Prop42
 90
       50
102
RTVSPost2010PropOp42
 70
     1
102
RTVSPost2010Prop43
 90
        3
102
RTVSPost2010PropOp43
 70
     1
102
RTVSPost2010Prop44ColorIndex
 90
        5
102
RTVSPost2010Prop44ColorRGB
 90
      255
102
RTVSPost2010PropOp44
 70
     1
102
RTVSPost2010Prop45
280
     0
102
RTVSPost2010PropOp45
 70
     1
102
RTVSPost2010Prop46
 90
       50
102
RTVSPost2010PropOp46
 70
     1
102
RTVSPost2010Prop47
 90
       50
102
RTVSPost2010PropOp47
 70
     1
102
RTVSPost2010Prop48
 90
       50
102
RTVSPost2010PropOp48
 70
     1
102
RTVSPost2010Prop49
280
     0
102
RTVSPost2010PropOp49
 70
     1
102
RTVSPost2010Prop50
 90
       50
102
RTVSPost2010PropOp50
 70
     1
102
RTVSPost2010Prop51ColorIndex
 90
      256
102
RTVSPost2010Prop51ColorRGB
 90
-16777216
102
RTVSPost2010PropOp51
 70
     0
102
RTVSPost2010Prop52
140
1.0
102
RTVSPost2010PropOp52
 70
     0
102
RTVSPost2010Prop53
 90
        2
102
RTVSPost2010PropOp53
 70
     1
102
RTVSPost2010Prop54
  1
strokes_ogs.tif
102
RTVSPost2010PropOp54
 70
     1
102
RTVSPost2010Prop55
280
     0
102
RTVSPost2010PropOp55
 70
     1
102
RTVSPost2010Prop56
140
1.0
102
RTVSPost2010PropOp56
 70
     1
102
RTVSPost2010Prop57
140
1.0
102
RTVSPost2010PropOp57
 70
     1
102
RTVSPropertyOp0
 70
     0
102
RTVSPropertyOp1
 70
     0
102
RTVSPropertyOp2
 70
     0
102
RTVSPropertyOp3
 70
     0
102
RTVSPropertyOp4
 70
     0
102
RTVSPropertyOp5
 70
     0
102
RTVSPropertyOp6
 70
     0
102
RTVSPropertyOp7
 70
     0
102
RTVSPropertyOp8
 70
     0
102
RTVSPropertyOp9
 70
     0
102
RTVSPropertyOp10
 70
     0
102
RTVSPropertyOp11
 70
     0
102
RTVSPropertyOp12
 70
     0
102
RTVSPropertyOp13
 70
     0
102
RTVSPropertyOp14
 70
     2
102
RTVSPropertyOp15
 70
     0
102
RTVSPropertyOp16
 70
     0
102
RTVSPropertyOp17
 70
     0
102
RTVSPropertyOp18
 70
     0
102
RTVSPropertyOp19
 70
     0
102
RTVSPropertyOp20
 70
     0
102
RTVSPropertyOp21
 70
     0
102
RTVSPropertyOp22
 70
     0
102
RTVSPropertyOp23
 70
     0
102
RTVSPropertyOp24
 70
     0
102
RTVSPropertyOp25
 70
     0
102
RTVSPropertyOp26
 70
     0
102
RTVSPropertyOp27
 70
     0
102
RTVSPropertyOp28
 70
     1
102
RTVSPropertyOp29
 70
     1
102
RTVSPropertyOp30
 70
     1
102
RTVSPropertyOp31
 70
     1
102
RTVSPropertyOp32
 70
     1
102
RTVSPropertyOp33
 70
     1
102
RTVSPropertyOp34
 70
     1
102
RTVSPropertyOp35
 70
     1
102
RTVSPropertyOp36
 70
     1
102
RTVSPropertyOp37
 70
     1
102
RTVSPropertyOp38
 70
     1
102
RTVSPropertyOp39
 70
     1
102
RTVSPropertyOp40
 70
     1
102
RTVSPropertyOp41
 70
     1
102
RTVSPropertyOp42
 70
     1
102
RTVSPropertyOp43
 70
     1
102
RTVSPropertyOp44
 70
     1
102
RTVSPropertyOp45
 70
     1
102
RTVSPropertyOp46
 70
     1
102
RTVSPropertyOp47
 70
     1
102
RTVSPropertyOp48
 70
     1
102
RTVSPropertyOp49
 70
     1
102
RTVSPropertyOp50
 70
     1
102
RTVSPropertyOp51
 70
     0
102
RTVSPropertyOp52
 70
     0
102
RTVSPropertyOp53
 70
     1
102
RTVSPropertyOp54
 70
     1
102
RTVSPropertyOp55
 70
     1
102
RTVSPropertyOp56
 70
     1
102
RTVSPropertyOp57
 70
     1
102
RTVSPropertyOp58
 70
     1
102
RTVSPropertyOp59
 70
     1
102
RTVSPropertyOp60
 70
     1
102
RTVSPropertyOp61
 70
     1
102
RTVSPropertyOp62
 70
     1
  0
XRECORD
  5
8959
102
{ACAD_REACTORS
330
8958
102
}
330
8958
100
AcDbXrecord
280
     1
102
RTVSPost2010Prop28
280
     0
102
RTVSPost2010PropOp28
 70
     1
102
RTVSPost2010Prop29
280
     1
102
RTVSPost2010PropOp29
 70
     1
102
RTVSPost2010Prop30
280
     1
102
RTVSPost2010PropOp30
 70
     1
102
RTVSPost2010Prop31
280
     0
102
RTVSPost2010PropOp31
 70
     1
102
RTVSPost2010Prop32
280
     0
102
RTVSPost2010PropOp32
 70
     1
102
RTVSPost2010Prop33
280
     0
102
RTVSPost2010PropOp33
 70
     1
102
RTVSPost2010Prop34
280
     0
102
RTVSPost2010PropOp34
 70
     1
102
RTVSPost2010Prop35
280
     0
102
RTVSPost2010PropOp35
 70
     1
102
RTVSPost2010Prop36
280
     0
102
RTVSPost2010PropOp36
 70
     1
102
RTVSPost2010Prop37
 90
       50
102
RTVSPost2010PropOp37
 70
     1
102
RTVSPost2010Prop38
140
0.0
102
RTVSPost2010PropOp38
 70
     1
102
RTVSPost2010Prop39
140
1.0
102
RTVSPost2010PropOp39
 70
     1
102
RTVSPost2010Prop40
 90
        0
102
RTVSPost2010PropOp40
 70
     1
102
RTVSPost2010Prop41ColorIndex
 90
       18
102
RTVSPost2010Prop41ColorRGB
 90
        0
102
RTVSPost2010PropOp41
 70
     1
102
RTVSPost2010Prop42
 90
       50
102
RTVSPost2010PropOp42
 70
     1
102
RTVSPost2010Prop43
 90
        3
102
RTVSPost2010PropOp43
 70
     1
102
RTVSPost2010Prop44ColorIndex
 90
        5
102
RTVSPost2010Prop44ColorRGB
 90
      255
102
RTVSPost2010PropOp44
 70
     1
102
RTVSPost2010Prop45
280
     0
102
RTVSPost2010PropOp45
 70
     1
102
RTVSPost2010Prop46
 90
       50
102
RTVSPost2010PropOp46
 70
     1
102
RTVSPost2010Prop47
 90
       50
102
RTVSPost2010PropOp47
 70
     1
102
RTVSPost2010Prop48
 90
       50
102
RTVSPost2010PropOp48
 70
     1
102
RTVSPost2010Prop49
280
     0
102
RTVSPost2010PropOp49
 70
     1
102
RTVSPost2010Prop50
 90
       50
102
RTVSPost2010PropOp50
 70
     1
102
RTVSPost2010Prop51ColorIndex
 90
      256
102
RTVSPost2010Prop51ColorRGB
 90
-16777216
102
RTVSPost2010PropOp51
 70
     0
102
RTVSPost2010Prop52
140
1.0
102
RTVSPost2010PropOp52
 70
     0
102
RTVSPost2010Prop53
 90
        2
102
RTVSPost2010PropOp53
 70
     1
102
RTVSPost2010Prop54
  1
strokes_ogs.tif
102
RTVSPost2010PropOp54
 70
     1
102
RTVSPost2010Prop55
280
     0
102
RTVSPost2010PropOp55
 70
     1
102
RTVSPost2010Prop56
140
1.0
102
RTVSPost2010PropOp56
 70
     1
102
RTVSPost2010Prop57
140
1.0
102
RTVSPost2010PropOp57
 70
     1
102
RTVSPropertyOp0
 70
     1
102
RTVSPropertyOp1
 70
     1
102
RTVSPropertyOp2
 70
     1
102
RTVSPropertyOp3
 70
     1
102
RTVSPropertyOp4
 70
     1
102
RTVSPropertyOp5
 70
     1
102
RTVSPropertyOp6
 70
     1
102
RTVSPropertyOp7
 70
     1
102
RTVSPropertyOp8
 70
     1
102
RTVSPropertyOp9
 70
     1
102
RTVSPropertyOp10
 70
     1
102
RTVSPropertyOp11
 70
     1
102
RTVSPropertyOp12
 70
     1
102
RTVSPropertyOp13
 70
     1
102
RTVSPropertyOp14
 70
     1
102
RTVSPropertyOp15
 70
     1
102
RTVSPropertyOp16
 70
     1
102
RTVSPropertyOp17
 70
     1
102
RTVSPropertyOp18
 70
     1
102
RTVSPropertyOp19
 70
     1
102
RTVSPropertyOp20
 70
     1
102
RTVSPropertyOp21
 70
     1
102
RTVSPropertyOp22
 70
     1
102
RTVSPropertyOp23
 70
     1
102
RTVSPropertyOp24
 70
     1
102
RTVSPropertyOp25
 70
     1
102
RTVSPropertyOp26
 70
     1
102
RTVSPropertyOp27
 70
     1
102
RTVSPropertyOp28
 70
     1
102
RTVSPropertyOp29
 70
     1
102
RTVSPropertyOp30
 70
     1
102
RTVSPropertyOp31
 70
     1
102
RTVSPropertyOp32
 70
     1
102
RTVSPropertyOp33
 70
     1
102
RTVSPropertyOp34
 70
     1
102
RTVSPropertyOp35
 70
     1
102
RTVSPropertyOp36
 70
     1
102
RTVSPropertyOp37
 70
     1
102
RTVSPropertyOp38
 70
     1
102
RTVSPropertyOp39
 70
     1
102
RTVSPropertyOp40
 70
     1
102
RTVSPropertyOp41
 70
     1
102
RTVSPropertyOp42
 70
     1
102
RTVSPropertyOp43
 70
     1
102
RTVSPropertyOp44
 70
     1
102
RTVSPropertyOp45
 70
     1
102
RTVSPropertyOp46
 70
     1
102
RTVSPropertyOp47
 70
     1
102
RTVSPropertyOp48
 70
     1
102
RTVSPropertyOp49
 70
     1
102
RTVSPropertyOp50
 70
     1
102
RTVSPropertyOp51
 70
     0
102
RTVSPropertyOp52
 70
     0
102
RTVSPropertyOp53
 70
     1
102
RTVSPropertyOp54
 70
     1
102
RTVSPropertyOp55
 70
     1
102
RTVSPropertyOp56
 70
     1
102
RTVSPropertyOp57
 70
     1
102
RTVSPropertyOp58
 70
     1
102
RTVSPropertyOp59
 70
     1
102
RTVSPropertyOp60
 70
     1
102
RTVSPropertyOp61
 70
     1
102
RTVSPropertyOp62
 70
     1
  0
XRECORD
  5
893D
102
{ACAD_REACTORS
330
893C
102
}
330
893C
100
AcDbXrecord
280
     1
102
RTVSPost2010Prop28
280
     0
102
RTVSPost2010PropOp28
 70
     1
102
RTVSPost2010Prop29
280
     1
102
RTVSPost2010PropOp29
 70
     1
102
RTVSPost2010Prop30
280
     1
102
RTVSPost2010PropOp30
 70
     1
102
RTVSPost2010Prop31
280
     0
102
RTVSPost2010PropOp31
 70
     1
102
RTVSPost2010Prop32
280
     0
102
RTVSPost2010PropOp32
 70
     1
102
RTVSPost2010Prop33
280
     0
102
RTVSPost2010PropOp33
 70
     1
102
RTVSPost2010Prop34
280
     0
102
RTVSPost2010PropOp34
 70
     1
102
RTVSPost2010Prop35
280
     0
102
RTVSPost2010PropOp35
 70
     1
102
RTVSPost2010Prop36
280
     0
102
RTVSPost2010PropOp36
 70
     1
102
RTVSPost2010Prop37
 90
       50
102
RTVSPost2010PropOp37
 70
     1
102
RTVSPost2010Prop38
140
0.0
102
RTVSPost2010PropOp38
 70
     1
102
RTVSPost2010Prop39
140
1.0
102
RTVSPost2010PropOp39
 70
     1
102
RTVSPost2010Prop40
 90
        0
102
RTVSPost2010PropOp40
 70
     1
102
RTVSPost2010Prop41ColorIndex
 90
       18
102
RTVSPost2010Prop41ColorRGB
 90
        0
102
RTVSPost2010PropOp41
 70
     1
102
RTVSPost2010Prop42
 90
       50
102
RTVSPost2010PropOp42
 70
     1
102
RTVSPost2010Prop43
 90
        3
102
RTVSPost2010PropOp43
 70
     1
102
RTVSPost2010Prop44ColorIndex
 90
        5
102
RTVSPost2010Prop44ColorRGB
 90
      255
102
RTVSPost2010PropOp44
 70
     1
102
RTVSPost2010Prop45
280
     0
102
RTVSPost2010PropOp45
 70
     1
102
RTVSPost2010Prop46
 90
       50
102
RTVSPost2010PropOp46
 70
     1
102
RTVSPost2010Prop47
 90
       50
102
RTVSPost2010PropOp47
 70
     1
102
RTVSPost2010Prop48
 90
       50
102
RTVSPost2010PropOp48
 70
     1
102
RTVSPost2010Prop49
280
     0
102
RTVSPost2010PropOp49
 70
     1
102
RTVSPost2010Prop50
 90
       50
102
RTVSPost2010PropOp50
 70
     1
102
RTVSPost2010Prop51ColorIndex
 90
      256
102
RTVSPost2010Prop51ColorRGB
 90
-16777216
102
RTVSPost2010PropOp51
 70
     0
102
RTVSPost2010Prop52
140
1.0
102
RTVSPost2010PropOp52
 70
     0
102
RTVSPost2010Prop53
 90
        2
102
RTVSPost2010PropOp53
 70
     1
102
RTVSPost2010Prop54
  1
strokes_ogs.tif
102
RTVSPost2010PropOp54
 70
     1
102
RTVSPost2010Prop55
280
     0
102
RTVSPost2010PropOp55
 70
     1
102
RTVSPost2010Prop56
140
1.0
102
RTVSPost2010PropOp56
 70
     1
102
RTVSPost2010Prop57
140
1.0
102
RTVSPost2010PropOp57
 70
     1
102
RTVSPropertyOp0
 70
     1
102
RTVSPropertyOp1
 70
     1
102
RTVSPropertyOp2
 70
     1
102
RTVSPropertyOp3
 70
     1
102
RTVSPropertyOp4
 70
     1
102
RTVSPropertyOp5
 70
     1
102
RTVSPropertyOp6
 70
     1
102
RTVSPropertyOp7
 70
     1
102
RTVSPropertyOp8
 70
     1
102
RTVSPropertyOp9
 70
     1
102
RTVSPropertyOp10
 70
     1
102
RTVSPropertyOp11
 70
     1
102
RTVSPropertyOp12
 70
     1
102
RTVSPropertyOp13
 70
     1
102
RTVSPropertyOp14
 70
     1
102
RTVSPropertyOp15
 70
     1
102
RTVSPropertyOp16
 70
     1
102
RTVSPropertyOp17
 70
     1
102
RTVSPropertyOp18
 70
     1
102
RTVSPropertyOp19
 70
     1
102
RTVSPropertyOp20
 70
     1
102
RTVSPropertyOp21
 70
     1
102
RTVSPropertyOp22
 70
     1
102
RTVSPropertyOp23
 70
     1
102
RTVSPropertyOp24
 70
     1
102
RTVSPropertyOp25
 70
     1
102
RTVSPropertyOp26
 70
     1
102
RTVSPropertyOp27
 70
     1
102
RTVSPropertyOp28
 70
     1
102
RTVSPropertyOp29
 70
     1
102
RTVSPropertyOp30
 70
     1
102
RTVSPropertyOp31
 70
     1
102
RTVSPropertyOp32
 70
     1
102
RTVSPropertyOp33
 70
     1
102
RTVSPropertyOp34
 70
     1
102
RTVSPropertyOp35
 70
     1
102
RTVSPropertyOp36
 70
     1
102
RTVSPropertyOp37
 70
     1
102
RTVSPropertyOp38
 70
     1
102
RTVSPropertyOp39
 70
     1
102
RTVSPropertyOp40
 70
     1
102
RTVSPropertyOp41
 70
     1
102
RTVSPropertyOp42
 70
     1
102
RTVSPropertyOp43
 70
     1
102
RTVSPropertyOp44
 70
     1
102
RTVSPropertyOp45
 70
     1
102
RTVSPropertyOp46
 70
     1
102
RTVSPropertyOp47
 70
     1
102
RTVSPropertyOp48
 70
     1
102
RTVSPropertyOp49
 70
     1
102
RTVSPropertyOp50
 70
     1
102
RTVSPropertyOp51
 70
     0
102
RTVSPropertyOp52
 70
     0
102
RTVSPropertyOp53
 70
     1
102
RTVSPropertyOp54
 70
     1
102
RTVSPropertyOp55
 70
     1
102
RTVSPropertyOp56
 70
     1
102
RTVSPropertyOp57
 70
     1
102
RTVSPropertyOp58
 70
     1
102
RTVSPropertyOp59
 70
     1
102
RTVSPropertyOp60
 70
     1
102
RTVSPropertyOp61
 70
     1
102
RTVSPropertyOp62
 70
     1
  0
XRECORD
  5
893F
102
{ACAD_REACTORS
330
893E
102
}
330
893E
100
AcDbXrecord
280
     1
102
RTVSPost2010Prop28
280
     0
102
RTVSPost2010PropOp28
 70
     1
102
RTVSPost2010Prop29
280
     1
102
RTVSPost2010PropOp29
 70
     1
102
RTVSPost2010Prop30
280
     1
102
RTVSPost2010PropOp30
 70
     1
102
RTVSPost2010Prop31
280
     0
102
RTVSPost2010PropOp31
 70
     1
102
RTVSPost2010Prop32
280
     0
102
RTVSPost2010PropOp32
 70
     1
102
RTVSPost2010Prop33
280
     0
102
RTVSPost2010PropOp33
 70
     1
102
RTVSPost2010Prop34
280
     0
102
RTVSPost2010PropOp34
 70
     1
102
RTVSPost2010Prop35
280
     0
102
RTVSPost2010PropOp35
 70
     1
102
RTVSPost2010Prop36
280
     0
102
RTVSPost2010PropOp36
 70
     1
102
RTVSPost2010Prop37
 90
       50
102
RTVSPost2010PropOp37
 70
     1
102
RTVSPost2010Prop38
140
0.0
102
RTVSPost2010PropOp38
 70
     1
102
RTVSPost2010Prop39
140
1.0
102
RTVSPost2010PropOp39
 70
     1
102
RTVSPost2010Prop40
 90
        0
102
RTVSPost2010PropOp40
 70
     1
102
RTVSPost2010Prop41ColorIndex
 90
       18
102
RTVSPost2010Prop41ColorRGB
 90
        0
102
RTVSPost2010PropOp41
 70
     1
102
RTVSPost2010Prop42
 90
       50
102
RTVSPost2010PropOp42
 70
     1
102
RTVSPost2010Prop43
 90
        3
102
RTVSPost2010PropOp43
 70
     1
102
RTVSPost2010Prop44ColorIndex
 90
        5
102
RTVSPost2010Prop44ColorRGB
 90
      255
102
RTVSPost2010PropOp44
 70
     1
102
RTVSPost2010Prop45
280
     0
102
RTVSPost2010PropOp45
 70
     1
102
RTVSPost2010Prop46
 90
       50
102
RTVSPost2010PropOp46
 70
     1
102
RTVSPost2010Prop47
 90
       50
102
RTVSPost2010PropOp47
 70
     1
102
RTVSPost2010Prop48
 90
       50
102
RTVSPost2010PropOp48
 70
     1
102
RTVSPost2010Prop49
280
     0
102
RTVSPost2010PropOp49
 70
     1
102
RTVSPost2010Prop50
 90
       50
102
RTVSPost2010PropOp50
 70
     1
102
RTVSPost2010Prop51ColorIndex
 90
      256
102
RTVSPost2010Prop51ColorRGB
 90
-16777216
102
RTVSPost2010PropOp51
 70
     0
102
RTVSPost2010Prop52
140
1.0
102
RTVSPost2010PropOp52
 70
     0
102
RTVSPost2010Prop53
 90
        2
102
RTVSPost2010PropOp53
 70
     1
102
RTVSPost2010Prop54
  1
strokes_ogs.tif
102
RTVSPost2010PropOp54
 70
     1
102
RTVSPost2010Prop55
280
     0
102
RTVSPost2010PropOp55
 70
     1
102
RTVSPost2010Prop56
140
1.0
102
RTVSPost2010PropOp56
 70
     1
102
RTVSPost2010Prop57
140
1.0
102
RTVSPost2010PropOp57
 70
     1
102
RTVSPropertyOp0
 70
     1
102
RTVSPropertyOp1
 70
     1
102
RTVSPropertyOp2
 70
     1
102
RTVSPropertyOp3
 70
     1
102
RTVSPropertyOp4
 70
     1
102
RTVSPropertyOp5
 70
     1
102
RTVSPropertyOp6
 70
     1
102
RTVSPropertyOp7
 70
     1
102
RTVSPropertyOp8
 70
     1
102
RTVSPropertyOp9
 70
     1
102
RTVSPropertyOp10
 70
     1
102
RTVSPropertyOp11
 70
     1
102
RTVSPropertyOp12
 70
     1
102
RTVSPropertyOp13
 70
     1
102
RTVSPropertyOp14
 70
     1
102
RTVSPropertyOp15
 70
     1
102
RTVSPropertyOp16
 70
     1
102
RTVSPropertyOp17
 70
     1
102
RTVSPropertyOp18
 70
     1
102
RTVSPropertyOp19
 70
     1
102
RTVSPropertyOp20
 70
     1
102
RTVSPropertyOp21
 70
     1
102
RTVSPropertyOp22
 70
     1
102
RTVSPropertyOp23
 70
     1
102
RTVSPropertyOp24
 70
     1
102
RTVSPropertyOp25
 70
     1
102
RTVSPropertyOp26
 70
     1
102
RTVSPropertyOp27
 70
     1
102
RTVSPropertyOp28
 70
     1
102
RTVSPropertyOp29
 70
     1
102
RTVSPropertyOp30
 70
     1
102
RTVSPropertyOp31
 70
     1
102
RTVSPropertyOp32
 70
     1
102
RTVSPropertyOp33
 70
     1
102
RTVSPropertyOp34
 70
     1
102
RTVSPropertyOp35
 70
     1
102
RTVSPropertyOp36
 70
     1
102
RTVSPropertyOp37
 70
     1
102
RTVSPropertyOp38
 70
     1
102
RTVSPropertyOp39
 70
     1
102
RTVSPropertyOp40
 70
     1
102
RTVSPropertyOp41
 70
     1
102
RTVSPropertyOp42
 70
     1
102
RTVSPropertyOp43
 70
     1
102
RTVSPropertyOp44
 70
     1
102
RTVSPropertyOp45
 70
     1
102
RTVSPropertyOp46
 70
     1
102
RTVSPropertyOp47
 70
     1
102
RTVSPropertyOp48
 70
     1
102
RTVSPropertyOp49
 70
     1
102
RTVSPropertyOp50
 70
     1
102
RTVSPropertyOp51
 70
     0
102
RTVSPropertyOp52
 70
     0
102
RTVSPropertyOp53
 70
     1
102
RTVSPropertyOp54
 70
     1
102
RTVSPropertyOp55
 70
     1
102
RTVSPropertyOp56
 70
     1
102
RTVSPropertyOp57
 70
     1
102
RTVSPropertyOp58
 70
     1
102
RTVSPropertyOp59
 70
     1
102
RTVSPropertyOp60
 70
     1
102
RTVSPropertyOp61
 70
     1
102
RTVSPropertyOp62
 70
     1
  0
XRECORD
  5
8941
102
{ACAD_REACTORS
330
8940
102
}
330
8940
100
AcDbXrecord
280
     1
102
RTVSPost2010Prop28
280
     0
102
RTVSPost2010PropOp28
 70
     1
102
RTVSPost2010Prop29
280
     1
102
RTVSPost2010PropOp29
 70
     1
102
RTVSPost2010Prop30
280
     1
102
RTVSPost2010PropOp30
 70
     1
102
RTVSPost2010Prop31
280
     0
102
RTVSPost2010PropOp31
 70
     1
102
RTVSPost2010Prop32
280
     0
102
RTVSPost2010PropOp32
 70
     1
102
RTVSPost2010Prop33
280
     0
102
RTVSPost2010PropOp33
 70
     1
102
RTVSPost2010Prop34
280
     0
102
RTVSPost2010PropOp34
 70
     1
102
RTVSPost2010Prop35
280
     0
102
RTVSPost2010PropOp35
 70
     1
102
RTVSPost2010Prop36
280
     0
102
RTVSPost2010PropOp36
 70
     1
102
RTVSPost2010Prop37
 90
       50
102
RTVSPost2010PropOp37
 70
     1
102
RTVSPost2010Prop38
140
0.0
102
RTVSPost2010PropOp38
 70
     1
102
RTVSPost2010Prop39
140
1.0
102
RTVSPost2010PropOp39
 70
     1
102
RTVSPost2010Prop40
 90
        0
102
RTVSPost2010PropOp40
 70
     1
102
RTVSPost2010Prop41ColorIndex
 90
       18
102
RTVSPost2010Prop41ColorRGB
 90
        0
102
RTVSPost2010PropOp41
 70
     1
102
RTVSPost2010Prop42
 90
       50
102
RTVSPost2010PropOp42
 70
     1
102
RTVSPost2010Prop43
 90
        3
102
RTVSPost2010PropOp43
 70
     1
102
RTVSPost2010Prop44ColorIndex
 90
        5
102
RTVSPost2010Prop44ColorRGB
 90
      255
102
RTVSPost2010PropOp44
 70
     1
102
RTVSPost2010Prop45
280
     0
102
RTVSPost2010PropOp45
 70
     1
102
RTVSPost2010Prop46
 90
       50
102
RTVSPost2010PropOp46
 70
     1
102
RTVSPost2010Prop47
 90
       50
102
RTVSPost2010PropOp47
 70
     1
102
RTVSPost2010Prop48
 90
       50
102
RTVSPost2010PropOp48
 70
     1
102
RTVSPost2010Prop49
280
     0
102
RTVSPost2010PropOp49
 70
     1
102
RTVSPost2010Prop50
 90
       50
102
RTVSPost2010PropOp50
 70
     1
102
RTVSPost2010Prop51ColorIndex
 90
      256
102
RTVSPost2010Prop51ColorRGB
 90
-16777216
102
RTVSPost2010PropOp51
 70
     0
102
RTVSPost2010Prop52
140
1.0
102
RTVSPost2010PropOp52
 70
     0
102
RTVSPost2010Prop53
 90
        2
102
RTVSPost2010PropOp53
 70
     1
102
RTVSPost2010Prop54
  1
strokes_ogs.tif
102
RTVSPost2010PropOp54
 70
     1
102
RTVSPost2010Prop55
280
     0
102
RTVSPost2010PropOp55
 70
     1
102
RTVSPost2010Prop56
140
1.0
102
RTVSPost2010PropOp56
 70
     1
102
RTVSPost2010Prop57
140
1.0
102
RTVSPost2010PropOp57
 70
     1
102
RTVSPropertyOp0
 70
     1
102
RTVSPropertyOp1
 70
     1
102
RTVSPropertyOp2
 70
     1
102
RTVSPropertyOp3
 70
     1
102
RTVSPropertyOp4
 70
     1
102
RTVSPropertyOp5
 70
     1
102
RTVSPropertyOp6
 70
     1
102
RTVSPropertyOp7
 70
     1
102
RTVSPropertyOp8
 70
     1
102
RTVSPropertyOp9
 70
     1
102
RTVSPropertyOp10
 70
     1
102
RTVSPropertyOp11
 70
     1
102
RTVSPropertyOp12
 70
     1
102
RTVSPropertyOp13
 70
     1
102
RTVSPropertyOp14
 70
     1
102
RTVSPropertyOp15
 70
     1
102
RTVSPropertyOp16
 70
     1
102
RTVSPropertyOp17
 70
     1
102
RTVSPropertyOp18
 70
     1
102
RTVSPropertyOp19
 70
     1
102
RTVSPropertyOp20
 70
     1
102
RTVSPropertyOp21
 70
     1
102
RTVSPropertyOp22
 70
     1
102
RTVSPropertyOp23
 70
     1
102
RTVSPropertyOp24
 70
     1
102
RTVSPropertyOp25
 70
     1
102
RTVSPropertyOp26
 70
     1
102
RTVSPropertyOp27
 70
     1
102
RTVSPropertyOp28
 70
     1
102
RTVSPropertyOp29
 70
     1
102
RTVSPropertyOp30
 70
     1
102
RTVSPropertyOp31
 70
     1
102
RTVSPropertyOp32
 70
     1
102
RTVSPropertyOp33
 70
     1
102
RTVSPropertyOp34
 70
     1
102
RTVSPropertyOp35
 70
     1
102
RTVSPropertyOp36
 70
     1
102
RTVSPropertyOp37
 70
     1
102
RTVSPropertyOp38
 70
     1
102
RTVSPropertyOp39
 70
     1
102
RTVSPropertyOp40
 70
     1
102
RTVSPropertyOp41
 70
     1
102
RTVSPropertyOp42
 70
     1
102
RTVSPropertyOp43
 70
     1
102
RTVSPropertyOp44
 70
     1
102
RTVSPropertyOp45
 70
     1
102
RTVSPropertyOp46
 70
     1
102
RTVSPropertyOp47
 70
     1
102
RTVSPropertyOp48
 70
     1
102
RTVSPropertyOp49
 70
     1
102
RTVSPropertyOp50
 70
     1
102
RTVSPropertyOp51
 70
     0
102
RTVSPropertyOp52
 70
     0
102
RTVSPropertyOp53
 70
     1
102
RTVSPropertyOp54
 70
     1
102
RTVSPropertyOp55
 70
     1
102
RTVSPropertyOp56
 70
     1
102
RTVSPropertyOp57
 70
     1
102
RTVSPropertyOp58
 70
     1
102
RTVSPropertyOp59
 70
     1
102
RTVSPropertyOp60
 70
     1
102
RTVSPropertyOp61
 70
     1
102
RTVSPropertyOp62
 70
     1
  0
XRECORD
  5
8943
102
{ACAD_REACTORS
330
8942
102
}
330
8942
100
AcDbXrecord
280
     1
102
RTVSPost2010Prop28
280
     0
102
RTVSPost2010PropOp28
 70
     1
102
RTVSPost2010Prop29
280
     1
102
RTVSPost2010PropOp29
 70
     1
102
RTVSPost2010Prop30
280
     1
102
RTVSPost2010PropOp30
 70
     1
102
RTVSPost2010Prop31
280
     0
102
RTVSPost2010PropOp31
 70
     1
102
RTVSPost2010Prop32
280
     0
102
RTVSPost2010PropOp32
 70
     1
102
RTVSPost2010Prop33
280
     0
102
RTVSPost2010PropOp33
 70
     1
102
RTVSPost2010Prop34
280
     0
102
RTVSPost2010PropOp34
 70
     1
102
RTVSPost2010Prop35
280
     0
102
RTVSPost2010PropOp35
 70
     1
102
RTVSPost2010Prop36
280
     0
102
RTVSPost2010PropOp36
 70
     1
102
RTVSPost2010Prop37
 90
       50
102
RTVSPost2010PropOp37
 70
     1
102
RTVSPost2010Prop38
140
0.0
102
RTVSPost2010PropOp38
 70
     1
102
RTVSPost2010Prop39
140
1.0
102
RTVSPost2010PropOp39
 70
     1
102
RTVSPost2010Prop40
 90
        0
102
RTVSPost2010PropOp40
 70
     1
102
RTVSPost2010Prop41ColorIndex
 90
       18
102
RTVSPost2010Prop41ColorRGB
 90
        0
102
RTVSPost2010PropOp41
 70
     1
102
RTVSPost2010Prop42
 90
       50
102
RTVSPost2010PropOp42
 70
     1
102
RTVSPost2010Prop43
 90
        3
102
RTVSPost2010PropOp43
 70
     1
102
RTVSPost2010Prop44ColorIndex
 90
        5
102
RTVSPost2010Prop44ColorRGB
 90
      255
102
RTVSPost2010PropOp44
 70
     1
102
RTVSPost2010Prop45
280
     0
102
RTVSPost2010PropOp45
 70
     1
102
RTVSPost2010Prop46
 90
       50
102
RTVSPost2010PropOp46
 70
     1
102
RTVSPost2010Prop47
 90
       50
102
RTVSPost2010PropOp47
 70
     1
102
RTVSPost2010Prop48
 90
       50
102
RTVSPost2010PropOp48
 70
     1
102
RTVSPost2010Prop49
280
     0
102
RTVSPost2010PropOp49
 70
     1
102
RTVSPost2010Prop50
 90
       50
102
RTVSPost2010PropOp50
 70
     1
102
RTVSPost2010Prop51ColorIndex
 90
      256
102
RTVSPost2010Prop51ColorRGB
 90
-16777216
102
RTVSPost2010PropOp51
 70
     0
102
RTVSPost2010Prop52
140
1.0
102
RTVSPost2010PropOp52
 70
     0
102
RTVSPost2010Prop53
 90
        2
102
RTVSPost2010PropOp53
 70
     1
102
RTVSPost2010Prop54
  1
strokes_ogs.tif
102
RTVSPost2010PropOp54
 70
     1
102
RTVSPost2010Prop55
280
     0
102
RTVSPost2010PropOp55
 70
     1
102
RTVSPost2010Prop56
140
1.0
102
RTVSPost2010PropOp56
 70
     1
102
RTVSPost2010Prop57
140
1.0
102
RTVSPost2010PropOp57
 70
     1
102
RTVSPropertyOp0
 70
     1
102
RTVSPropertyOp1
 70
     1
102
RTVSPropertyOp2
 70
     1
102
RTVSPropertyOp3
 70
     1
102
RTVSPropertyOp4
 70
     1
102
RTVSPropertyOp5
 70
     1
102
RTVSPropertyOp6
 70
     1
102
RTVSPropertyOp7
 70
     1
102
RTVSPropertyOp8
 70
     1
102
RTVSPropertyOp9
 70
     1
102
RTVSPropertyOp10
 70
     1
102
RTVSPropertyOp11
 70
     1
102
RTVSPropertyOp12
 70
     1
102
RTVSPropertyOp13
 70
     1
102
RTVSPropertyOp14
 70
     1
102
RTVSPropertyOp15
 70
     1
102
RTVSPropertyOp16
 70
     1
102
RTVSPropertyOp17
 70
     1
102
RTVSPropertyOp18
 70
     1
102
RTVSPropertyOp19
 70
     1
102
RTVSPropertyOp20
 70
     1
102
RTVSPropertyOp21
 70
     1
102
RTVSPropertyOp22
 70
     1
102
RTVSPropertyOp23
 70
     1
102
RTVSPropertyOp24
 70
     1
102
RTVSPropertyOp25
 70
     1
102
RTVSPropertyOp26
 70
     1
102
RTVSPropertyOp27
 70
     1
102
RTVSPropertyOp28
 70
     1
102
RTVSPropertyOp29
 70
     1
102
RTVSPropertyOp30
 70
     1
102
RTVSPropertyOp31
 70
     1
102
RTVSPropertyOp32
 70
     1
102
RTVSPropertyOp33
 70
     1
102
RTVSPropertyOp34
 70
     1
102
RTVSPropertyOp35
 70
     1
102
RTVSPropertyOp36
 70
     1
102
RTVSPropertyOp37
 70
     1
102
RTVSPropertyOp38
 70
     1
102
RTVSPropertyOp39
 70
     1
102
RTVSPropertyOp40
 70
     1
102
RTVSPropertyOp41
 70
     1
102
RTVSPropertyOp42
 70
     1
102
RTVSPropertyOp43
 70
     1
102
RTVSPropertyOp44
 70
     1
102
RTVSPropertyOp45
 70
     1
102
RTVSPropertyOp46
 70
     1
102
RTVSPropertyOp47
 70
     1
102
RTVSPropertyOp48
 70
     1
102
RTVSPropertyOp49
 70
     1
102
RTVSPropertyOp50
 70
     1
102
RTVSPropertyOp51
 70
     0
102
RTVSPropertyOp52
 70
     0
102
RTVSPropertyOp53
 70
     1
102
RTVSPropertyOp54
 70
     1
102
RTVSPropertyOp55
 70
     1
102
RTVSPropertyOp56
 70
     1
102
RTVSPropertyOp57
 70
     1
102
RTVSPropertyOp58
 70
     1
102
RTVSPropertyOp59
 70
     1
102
RTVSPropertyOp60
 70
     1
102
RTVSPropertyOp61
 70
     1
102
RTVSPropertyOp62
 70
     1
  0
XRECORD
  5
894B
102
{ACAD_REACTORS
330
894A
102
}
330
894A
100
AcDbXrecord
280
     1
102
RTVSPost2010Prop28
280
     0
102
RTVSPost2010PropOp28
 70
     1
102
RTVSPost2010Prop29
280
     1
102
RTVSPost2010PropOp29
 70
     1
102
RTVSPost2010Prop30
280
     1
102
RTVSPost2010PropOp30
 70
     1
102
RTVSPost2010Prop31
280
     0
102
RTVSPost2010PropOp31
 70
     1
102
RTVSPost2010Prop32
280
     0
102
RTVSPost2010PropOp32
 70
     1
102
RTVSPost2010Prop33
280
     0
102
RTVSPost2010PropOp33
 70
     1
102
RTVSPost2010Prop34
280
     0
102
RTVSPost2010PropOp34
 70
     1
102
RTVSPost2010Prop35
280
     0
102
RTVSPost2010PropOp35
 70
     1
102
RTVSPost2010Prop36
280
     0
102
RTVSPost2010PropOp36
 70
     1
102
RTVSPost2010Prop37
 90
       50
102
RTVSPost2010PropOp37
 70
     1
102
RTVSPost2010Prop38
140
0.0
102
RTVSPost2010PropOp38
 70
     1
102
RTVSPost2010Prop39
140
1.0
102
RTVSPost2010PropOp39
 70
     1
102
RTVSPost2010Prop40
 90
        0
102
RTVSPost2010PropOp40
 70
     1
102
RTVSPost2010Prop41ColorIndex
 90
       18
102
RTVSPost2010Prop41ColorRGB
 90
        0
102
RTVSPost2010PropOp41
 70
     1
102
RTVSPost2010Prop42
 90
       50
102
RTVSPost2010PropOp42
 70
     1
102
RTVSPost2010Prop43
 90
        3
102
RTVSPost2010PropOp43
 70
     1
102
RTVSPost2010Prop44ColorIndex
 90
        5
102
RTVSPost2010Prop44ColorRGB
 90
      255
102
RTVSPost2010PropOp44
 70
     1
102
RTVSPost2010Prop45
280
     0
102
RTVSPost2010PropOp45
 70
     1
102
RTVSPost2010Prop46
 90
       50
102
RTVSPost2010PropOp46
 70
     1
102
RTVSPost2010Prop47
 90
       50
102
RTVSPost2010PropOp47
 70
     1
102
RTVSPost2010Prop48
 90
       50
102
RTVSPost2010PropOp48
 70
     1
102
RTVSPost2010Prop49
280
     0
102
RTVSPost2010PropOp49
 70
     1
102
RTVSPost2010Prop50
 90
       50
102
RTVSPost2010PropOp50
 70
     1
102
RTVSPost2010Prop51ColorIndex
 90
      256
102
RTVSPost2010Prop51ColorRGB
 90
-16777216
102
RTVSPost2010PropOp51
 70
     0
102
RTVSPost2010Prop52
140
1.0
102
RTVSPost2010PropOp52
 70
     0
102
RTVSPost2010Prop53
 90
        2
102
RTVSPost2010PropOp53
 70
     1
102
RTVSPost2010Prop54
  1
strokes_ogs.tif
102
RTVSPost2010PropOp54
 70
     1
102
RTVSPost2010Prop55
280
     0
102
RTVSPost2010PropOp55
 70
     1
102
RTVSPost2010Prop56
140
1.0
102
RTVSPost2010PropOp56
 70
     1
102
RTVSPost2010Prop57
140
1.0
102
RTVSPost2010PropOp57
 70
     1
102
RTVSPropertyOp0
 70
     1
102
RTVSPropertyOp1
 70
     1
102
RTVSPropertyOp2
 70
     1
102
RTVSPropertyOp3
 70
     1
102
RTVSPropertyOp4
 70
     1
102
RTVSPropertyOp5
 70
     1
102
RTVSPropertyOp6
 70
     1
102
RTVSPropertyOp7
 70
     1
102
RTVSPropertyOp8
 70
     1
102
RTVSPropertyOp9
 70
     1
102
RTVSPropertyOp10
 70
     1
102
RTVSPropertyOp11
 70
     1
102
RTVSPropertyOp12
 70
     1
102
RTVSPropertyOp13
 70
     1
102
RTVSPropertyOp14
 70
     1
102
RTVSPropertyOp15
 70
     1
102
RTVSPropertyOp16
 70
     1
102
RTVSPropertyOp17
 70
     1
102
RTVSPropertyOp18
 70
     1
102
RTVSPropertyOp19
 70
     1
102
RTVSPropertyOp20
 70
     1
102
RTVSPropertyOp21
 70
     1
102
RTVSPropertyOp22
 70
     1
102
RTVSPropertyOp23
 70
     1
102
RTVSPropertyOp24
 70
     1
102
RTVSPropertyOp25
 70
     1
102
RTVSPropertyOp26
 70
     1
102
RTVSPropertyOp27
 70
     1
102
RTVSPropertyOp28
 70
     1
102
RTVSPropertyOp29
 70
     1
102
RTVSPropertyOp30
 70
     1
102
RTVSPropertyOp31
 70
     1
102
RTVSPropertyOp32
 70
     1
102
RTVSPropertyOp33
 70
     1
102
RTVSPropertyOp34
 70
     1
102
RTVSPropertyOp35
 70
     1
102
RTVSPropertyOp36
 70
     1
102
RTVSPropertyOp37
 70
     1
102
RTVSPropertyOp38
 70
     1
102
RTVSPropertyOp39
 70
     1
102
RTVSPropertyOp40
 70
     1
102
RTVSPropertyOp41
 70
     1
102
RTVSPropertyOp42
 70
     1
102
RTVSPropertyOp43
 70
     1
102
RTVSPropertyOp44
 70
     1
102
RTVSPropertyOp45
 70
     1
102
RTVSPropertyOp46
 70
     1
102
RTVSPropertyOp47
 70
     1
102
RTVSPropertyOp48
 70
     1
102
RTVSPropertyOp49
 70
     1
102
RTVSPropertyOp50
 70
     1
102
RTVSPropertyOp51
 70
     0
102
RTVSPropertyOp52
 70
     0
102
RTVSPropertyOp53
 70
     1
102
RTVSPropertyOp54
 70
     1
102
RTVSPropertyOp55
 70
     1
102
RTVSPropertyOp56
 70
     1
102
RTVSPropertyOp57
 70
     1
102
RTVSPropertyOp58
 70
     1
102
RTVSPropertyOp59
 70
     1
102
RTVSPropertyOp60
 70
     1
102
RTVSPropertyOp61
 70
     1
102
RTVSPropertyOp62
 70
     1
  0
XRECORD
  5
895F
102
{ACAD_REACTORS
330
895E
102
}
330
895E
100
AcDbXrecord
280
     1
102
RTVSPost2010Prop28
280
     0
102
RTVSPost2010PropOp28
 70
     1
102
RTVSPost2010Prop29
280
     1
102
RTVSPost2010PropOp29
 70
     1
102
RTVSPost2010Prop30
280
     1
102
RTVSPost2010PropOp30
 70
     1
102
RTVSPost2010Prop31
280
     0
102
RTVSPost2010PropOp31
 70
     1
102
RTVSPost2010Prop32
280
     0
102
RTVSPost2010PropOp32
 70
     1
102
RTVSPost2010Prop33
280
     0
102
RTVSPost2010PropOp33
 70
     1
102
RTVSPost2010Prop34
280
     0
102
RTVSPost2010PropOp34
 70
     1
102
RTVSPost2010Prop35
280
     0
102
RTVSPost2010PropOp35
 70
     1
102
RTVSPost2010Prop36
280
     0
102
RTVSPost2010PropOp36
 70
     1
102
RTVSPost2010Prop37
 90
       50
102
RTVSPost2010PropOp37
 70
     1
102
RTVSPost2010Prop38
140
0.0
102
RTVSPost2010PropOp38
 70
     1
102
RTVSPost2010Prop39
140
1.0
102
RTVSPost2010PropOp39
 70
     1
102
RTVSPost2010Prop40
 90
        0
102
RTVSPost2010PropOp40
 70
     1
102
RTVSPost2010Prop41ColorIndex
 90
       18
102
RTVSPost2010Prop41ColorRGB
 90
        0
102
RTVSPost2010PropOp41
 70
     1
102
RTVSPost2010Prop42
 90
       50
102
RTVSPost2010PropOp42
 70
     1
102
RTVSPost2010Prop43
 90
        3
102
RTVSPost2010PropOp43
 70
     1
102
RTVSPost2010Prop44ColorIndex
 90
        5
102
RTVSPost2010Prop44ColorRGB
 90
      255
102
RTVSPost2010PropOp44
 70
     1
102
RTVSPost2010Prop45
280
     0
102
RTVSPost2010PropOp45
 70
     1
102
RTVSPost2010Prop46
 90
       50
102
RTVSPost2010PropOp46
 70
     1
102
RTVSPost2010Prop47
 90
       50
102
RTVSPost2010PropOp47
 70
     1
102
RTVSPost2010Prop48
 90
       50
102
RTVSPost2010PropOp48
 70
     1
102
RTVSPost2010Prop49
280
     0
102
RTVSPost2010PropOp49
 70
     1
102
RTVSPost2010Prop50
 90
       50
102
RTVSPost2010PropOp50
 70
     1
102
RTVSPost2010Prop51ColorIndex
 90
      256
102
RTVSPost2010Prop51ColorRGB
 90
-16777216
102
RTVSPost2010PropOp51
 70
     0
102
RTVSPost2010Prop52
140
1.0
102
RTVSPost2010PropOp52
 70
     0
102
RTVSPost2010Prop53
 90
        2
102
RTVSPost2010PropOp53
 70
     1
102
RTVSPost2010Prop54
  1
strokes_ogs.tif
102
RTVSPost2010PropOp54
 70
     1
102
RTVSPost2010Prop55
280
     0
102
RTVSPost2010PropOp55
 70
     1
102
RTVSPost2010Prop56
140
1.0
102
RTVSPost2010PropOp56
 70
     1
102
RTVSPost2010Prop57
140
1.0
102
RTVSPost2010PropOp57
 70
     1
102
RTVSPropertyOp0
 70
     0
102
RTVSPropertyOp1
 70
     0
102
RTVSPropertyOp2
 70
     0
102
RTVSPropertyOp3
 70
     0
102
RTVSPropertyOp4
 70
     0
102
RTVSPropertyOp5
 70
     0
102
RTVSPropertyOp6
 70
     0
102
RTVSPropertyOp7
 70
     0
102
RTVSPropertyOp8
 70
     0
102
RTVSPropertyOp9
 70
     0
102
RTVSPropertyOp10
 70
     0
102
RTVSPropertyOp11
 70
     0
102
RTVSPropertyOp12
 70
     0
102
RTVSPropertyOp13
 70
     0
102
RTVSPropertyOp14
 70
     2
102
RTVSPropertyOp15
 70
     0
102
RTVSPropertyOp16
 70
     0
102
RTVSPropertyOp17
 70
     0
102
RTVSPropertyOp18
 70
     0
102
RTVSPropertyOp19
 70
     0
102
RTVSPropertyOp20
 70
     0
102
RTVSPropertyOp21
 70
     0
102
RTVSPropertyOp22
 70
     0
102
RTVSPropertyOp23
 70
     0
102
RTVSPropertyOp24
 70
     0
102
RTVSPropertyOp25
 70
     0
102
RTVSPropertyOp26
 70
     0
102
RTVSPropertyOp27
 70
     0
102
RTVSPropertyOp28
 70
     1
102
RTVSPropertyOp29
 70
     1
102
RTVSPropertyOp30
 70
     1
102
RTVSPropertyOp31
 70
     1
102
RTVSPropertyOp32
 70
     1
102
RTVSPropertyOp33
 70
     1
102
RTVSPropertyOp34
 70
     1
102
RTVSPropertyOp35
 70
     1
102
RTVSPropertyOp36
 70
     1
102
RTVSPropertyOp37
 70
     1
102
RTVSPropertyOp38
 70
     1
102
RTVSPropertyOp39
 70
     1
102
RTVSPropertyOp40
 70
     1
102
RTVSPropertyOp41
 70
     1
102
RTVSPropertyOp42
 70
     1
102
RTVSPropertyOp43
 70
     1
102
RTVSPropertyOp44
 70
     1
102
RTVSPropertyOp45
 70
     1
102
RTVSPropertyOp46
 70
     1
102
RTVSPropertyOp47
 70
     1
102
RTVSPropertyOp48
 70
     1
102
RTVSPropertyOp49
 70
     1
102
RTVSPropertyOp50
 70
     1
102
RTVSPropertyOp51
 70
     0
102
RTVSPropertyOp52
 70
     0
102
RTVSPropertyOp53
 70
     1
102
RTVSPropertyOp54
 70
     1
102
RTVSPropertyOp55
 70
     1
102
RTVSPropertyOp56
 70
     1
102
RTVSPropertyOp57
 70
     1
102
RTVSPropertyOp58
 70
     1
102
RTVSPropertyOp59
 70
     1
102
RTVSPropertyOp60
 70
     1
102
RTVSPropertyOp61
 70
     1
102
RTVSPropertyOp62
 70
     1
  0
XRECORD
  5
8957
102
{ACAD_REACTORS
330
8956
102
}
330
8956
100
AcDbXrecord
280
     1
102
RTVSPost2010Prop28
280
     0
102
RTVSPost2010PropOp28
 70
     1
102
RTVSPost2010Prop29
280
     1
102
RTVSPost2010PropOp29
 70
     1
102
RTVSPost2010Prop30
280
     1
102
RTVSPost2010PropOp30
 70
     1
102
RTVSPost2010Prop31
280
     0
102
RTVSPost2010PropOp31
 70
     1
102
RTVSPost2010Prop32
280
     0
102
RTVSPost2010PropOp32
 70
     1
102
RTVSPost2010Prop33
280
     0
102
RTVSPost2010PropOp33
 70
     1
102
RTVSPost2010Prop34
280
     0
102
RTVSPost2010PropOp34
 70
     1
102
RTVSPost2010Prop35
280
     0
102
RTVSPost2010PropOp35
 70
     1
102
RTVSPost2010Prop36
280
     0
102
RTVSPost2010PropOp36
 70
     1
102
RTVSPost2010Prop37
 90
       50
102
RTVSPost2010PropOp37
 70
     1
102
RTVSPost2010Prop38
140
0.0
102
RTVSPost2010PropOp38
 70
     1
102
RTVSPost2010Prop39
140
1.0
102
RTVSPost2010PropOp39
 70
     1
102
RTVSPost2010Prop40
 90
        0
102
RTVSPost2010PropOp40
 70
     1
102
RTVSPost2010Prop41ColorIndex
 90
       18
102
RTVSPost2010Prop41ColorRGB
 90
        0
102
RTVSPost2010PropOp41
 70
     1
102
RTVSPost2010Prop42
 90
       50
102
RTVSPost2010PropOp42
 70
     1
102
RTVSPost2010Prop43
 90
        3
102
RTVSPost2010PropOp43
 70
     1
102
RTVSPost2010Prop44ColorIndex
 90
        5
102
RTVSPost2010Prop44ColorRGB
 90
      255
102
RTVSPost2010PropOp44
 70
     1
102
RTVSPost2010Prop45
280
     0
102
RTVSPost2010PropOp45
 70
     1
102
RTVSPost2010Prop46
 90
       50
102
RTVSPost2010PropOp46
 70
     1
102
RTVSPost2010Prop47
 90
       50
102
RTVSPost2010PropOp47
 70
     1
102
RTVSPost2010Prop48
 90
       50
102
RTVSPost2010PropOp48
 70
     1
102
RTVSPost2010Prop49
280
     0
102
RTVSPost2010PropOp49
 70
     1
102
RTVSPost2010Prop50
 90
       50
102
RTVSPost2010PropOp50
 70
     1
102
RTVSPost2010Prop51ColorIndex
 90
      256
102
RTVSPost2010Prop51ColorRGB
 90
-16777216
102
RTVSPost2010PropOp51
 70
     0
102
RTVSPost2010Prop52
140
1.0
102
RTVSPost2010PropOp52
 70
     0
102
RTVSPost2010Prop53
 90
        2
102
RTVSPost2010PropOp53
 70
     1
102
RTVSPost2010Prop54
  1
strokes_ogs.tif
102
RTVSPost2010PropOp54
 70
     1
102
RTVSPost2010Prop55
280
     0
102
RTVSPost2010PropOp55
 70
     1
102
RTVSPost2010Prop56
140
1.0
102
RTVSPost2010PropOp56
 70
     1
102
RTVSPost2010Prop57
140
1.0
102
RTVSPost2010PropOp57
 70
     1
102
RTVSPropertyOp0
 70
     1
102
RTVSPropertyOp1
 70
     1
102
RTVSPropertyOp2
 70
     1
102
RTVSPropertyOp3
 70
     1
102
RTVSPropertyOp4
 70
     1
102
RTVSPropertyOp5
 70
     1
102
RTVSPropertyOp6
 70
     1
102
RTVSPropertyOp7
 70
     1
102
RTVSPropertyOp8
 70
     1
102
RTVSPropertyOp9
 70
     1
102
RTVSPropertyOp10
 70
     1
102
RTVSPropertyOp11
 70
     1
102
RTVSPropertyOp12
 70
     1
102
RTVSPropertyOp13
 70
     1
102
RTVSPropertyOp14
 70
     1
102
RTVSPropertyOp15
 70
     1
102
RTVSPropertyOp16
 70
     1
102
RTVSPropertyOp17
 70
     1
102
RTVSPropertyOp18
 70
     1
102
RTVSPropertyOp19
 70
     1
102
RTVSPropertyOp20
 70
     1
102
RTVSPropertyOp21
 70
     1
102
RTVSPropertyOp22
 70
     1
102
RTVSPropertyOp23
 70
     1
102
RTVSPropertyOp24
 70
     1
102
RTVSPropertyOp25
 70
     1
102
RTVSPropertyOp26
 70
     1
102
RTVSPropertyOp27
 70
     1
102
RTVSPropertyOp28
 70
     1
102
RTVSPropertyOp29
 70
     1
102
RTVSPropertyOp30
 70
     1
102
RTVSPropertyOp31
 70
     1
102
RTVSPropertyOp32
 70
     1
102
RTVSPropertyOp33
 70
     1
102
RTVSPropertyOp34
 70
     1
102
RTVSPropertyOp35
 70
     1
102
RTVSPropertyOp36
 70
     1
102
RTVSPropertyOp37
 70
     1
102
RTVSPropertyOp38
 70
     1
102
RTVSPropertyOp39
 70
     1
102
RTVSPropertyOp40
 70
     1
102
RTVSPropertyOp41
 70
     1
102
RTVSPropertyOp42
 70
     1
102
RTVSPropertyOp43
 70
     1
102
RTVSPropertyOp44
 70
     1
102
RTVSPropertyOp45
 70
     1
102
RTVSPropertyOp46
 70
     1
102
RTVSPropertyOp47
 70
     1
102
RTVSPropertyOp48
 70
     1
102
RTVSPropertyOp49
 70
     1
102
RTVSPropertyOp50
 70
     1
102
RTVSPropertyOp51
 70
     0
102
RTVSPropertyOp52
 70
     0
102
RTVSPropertyOp53
 70
     1
102
RTVSPropertyOp54
 70
     1
102
RTVSPropertyOp55
 70
     1
102
RTVSPropertyOp56
 70
     1
102
RTVSPropertyOp57
 70
     1
102
RTVSPropertyOp58
 70
     1
102
RTVSPropertyOp59
 70
     1
102
RTVSPropertyOp60
 70
     1
102
RTVSPropertyOp61
 70
     1
102
RTVSPropertyOp62
 70
     1
  0
XRECORD
  5
8961
102
{ACAD_REACTORS
330
8960
102
}
330
8960
100
AcDbXrecord
280
     1
102
RTVSPost2010Prop28
280
     0
102
RTVSPost2010PropOp28
 70
     1
102
RTVSPost2010Prop29
280
     1
102
RTVSPost2010PropOp29
 70
     1
102
RTVSPost2010Prop30
280
     1
102
RTVSPost2010PropOp30
 70
     1
102
RTVSPost2010Prop31
280
     0
102
RTVSPost2010PropOp31
 70
     1
102
RTVSPost2010Prop32
280
     0
102
RTVSPost2010PropOp32
 70
     1
102
RTVSPost2010Prop33
280
     0
102
RTVSPost2010PropOp33
 70
     1
102
RTVSPost2010Prop34
280
     0
102
RTVSPost2010PropOp34
 70
     1
102
RTVSPost2010Prop35
280
     0
102
RTVSPost2010PropOp35
 70
     1
102
RTVSPost2010Prop36
280
     0
102
RTVSPost2010PropOp36
 70
     1
102
RTVSPost2010Prop37
 90
       50
102
RTVSPost2010PropOp37
 70
     1
102
RTVSPost2010Prop38
140
0.0
102
RTVSPost2010PropOp38
 70
     1
102
RTVSPost2010Prop39
140
1.0
102
RTVSPost2010PropOp39
 70
     1
102
RTVSPost2010Prop40
 90
        0
102
RTVSPost2010PropOp40
 70
     1
102
RTVSPost2010Prop41ColorIndex
 90
       18
102
RTVSPost2010Prop41ColorRGB
 90
        0
102
RTVSPost2010PropOp41
 70
     1
102
RTVSPost2010Prop42
 90
       50
102
RTVSPost2010PropOp42
 70
     1
102
RTVSPost2010Prop43
 90
        3
102
RTVSPost2010PropOp43
 70
     1
102
RTVSPost2010Prop44ColorIndex
 90
        5
102
RTVSPost2010Prop44ColorRGB
 90
      255
102
RTVSPost2010PropOp44
 70
     1
102
RTVSPost2010Prop45
280
     0
102
RTVSPost2010PropOp45
 70
     1
102
RTVSPost2010Prop46
 90
       50
102
RTVSPost2010PropOp46
 70
     1
102
RTVSPost2010Prop47
 90
       50
102
RTVSPost2010PropOp47
 70
     1
102
RTVSPost2010Prop48
 90
       50
102
RTVSPost2010PropOp48
 70
     1
102
RTVSPost2010Prop49
280
     0
102
RTVSPost2010PropOp49
 70
     1
102
RTVSPost2010Prop50
 90
       50
102
RTVSPost2010PropOp50
 70
     1
102
RTVSPost2010Prop51ColorIndex
 90
      256
102
RTVSPost2010Prop51ColorRGB
 90
-16777216
102
RTVSPost2010PropOp51
 70
     0
102
RTVSPost2010Prop52
140
1.0
102
RTVSPost2010PropOp52
 70
     0
102
RTVSPost2010Prop53
 90
        2
102
RTVSPost2010PropOp53
 70
     1
102
RTVSPost2010Prop54
  1
strokes_ogs.tif
102
RTVSPost2010PropOp54
 70
     1
102
RTVSPost2010Prop55
280
     0
102
RTVSPost2010PropOp55
 70
     1
102
RTVSPost2010Prop56
140
1.0
102
RTVSPost2010PropOp56
 70
     1
102
RTVSPost2010Prop57
140
1.0
102
RTVSPost2010PropOp57
 70
     1
102
RTVSPropertyOp0
 70
     0
102
RTVSPropertyOp1
 70
     0
102
RTVSPropertyOp2
 70
     0
102
RTVSPropertyOp3
 70
     0
102
RTVSPropertyOp4
 70
     0
102
RTVSPropertyOp5
 70
     0
102
RTVSPropertyOp6
 70
     0
102
RTVSPropertyOp7
 70
     0
102
RTVSPropertyOp8
 70
     0
102
RTVSPropertyOp9
 70
     0
102
RTVSPropertyOp10
 70
     0
102
RTVSPropertyOp11
 70
     0
102
RTVSPropertyOp12
 70
     0
102
RTVSPropertyOp13
 70
     0
102
RTVSPropertyOp14
 70
     2
102
RTVSPropertyOp15
 70
     0
102
RTVSPropertyOp16
 70
     0
102
RTVSPropertyOp17
 70
     0
102
RTVSPropertyOp18
 70
     0
102
RTVSPropertyOp19
 70
     0
102
RTVSPropertyOp20
 70
     0
102
RTVSPropertyOp21
 70
     0
102
RTVSPropertyOp22
 70
     0
102
RTVSPropertyOp23
 70
     0
102
RTVSPropertyOp24
 70
     0
102
RTVSPropertyOp25
 70
     0
102
RTVSPropertyOp26
 70
     0
102
RTVSPropertyOp27
 70
     0
102
RTVSPropertyOp28
 70
     1
102
RTVSPropertyOp29
 70
     1
102
RTVSPropertyOp30
 70
     1
102
RTVSPropertyOp31
 70
     1
102
RTVSPropertyOp32
 70
     1
102
RTVSPropertyOp33
 70
     1
102
RTVSPropertyOp34
 70
     1
102
RTVSPropertyOp35
 70
     1
102
RTVSPropertyOp36
 70
     1
102
RTVSPropertyOp37
 70
     1
102
RTVSPropertyOp38
 70
     1
102
RTVSPropertyOp39
 70
     1
102
RTVSPropertyOp40
 70
     1
102
RTVSPropertyOp41
 70
     1
102
RTVSPropertyOp42
 70
     1
102
RTVSPropertyOp43
 70
     1
102
RTVSPropertyOp44
 70
     1
102
RTVSPropertyOp45
 70
     1
102
RTVSPropertyOp46
 70
     1
102
RTVSPropertyOp47
 70
     1
102
RTVSPropertyOp48
 70
     1
102
RTVSPropertyOp49
 70
     1
102
RTVSPropertyOp50
 70
     1
102
RTVSPropertyOp51
 70
     0
102
RTVSPropertyOp52
 70
     0
102
RTVSPropertyOp53
 70
     1
102
RTVSPropertyOp54
 70
     1
102
RTVSPropertyOp55
 70
     1
102
RTVSPropertyOp56
 70
     1
102
RTVSPropertyOp57
 70
     1
102
RTVSPropertyOp58
 70
     1
102
RTVSPropertyOp59
 70
     1
102
RTVSPropertyOp60
 70
     1
102
RTVSPropertyOp61
 70
     1
102
RTVSPropertyOp62
 70
     1
  0
XRECORD
  5
894F
102
{ACAD_REACTORS
330
894E
102
}
330
894E
100
AcDbXrecord
280
     1
102
RTVSPost2010Prop28
280
     0
102
RTVSPost2010PropOp28
 70
     1
102
RTVSPost2010Prop29
280
     1
102
RTVSPost2010PropOp29
 70
     1
102
RTVSPost2010Prop30
280
     1
102
RTVSPost2010PropOp30
 70
     1
102
RTVSPost2010Prop31
280
     0
102
RTVSPost2010PropOp31
 70
     1
102
RTVSPost2010Prop32
280
     0
102
RTVSPost2010PropOp32
 70
     1
102
RTVSPost2010Prop33
280
     0
102
RTVSPost2010PropOp33
 70
     1
102
RTVSPost2010Prop34
280
     0
102
RTVSPost2010PropOp34
 70
     1
102
RTVSPost2010Prop35
280
     0
102
RTVSPost2010PropOp35
 70
     1
102
RTVSPost2010Prop36
280
     0
102
RTVSPost2010PropOp36
 70
     1
102
RTVSPost2010Prop37
 90
       50
102
RTVSPost2010PropOp37
 70
     1
102
RTVSPost2010Prop38
140
0.0
102
RTVSPost2010PropOp38
 70
     1
102
RTVSPost2010Prop39
140
1.0
102
RTVSPost2010PropOp39
 70
     1
102
RTVSPost2010Prop40
 90
        0
102
RTVSPost2010PropOp40
 70
     1
102
RTVSPost2010Prop41ColorIndex
 90
       18
102
RTVSPost2010Prop41ColorRGB
 90
        0
102
RTVSPost2010PropOp41
 70
     1
102
RTVSPost2010Prop42
 90
       50
102
RTVSPost2010PropOp42
 70
     1
102
RTVSPost2010Prop43
 90
        3
102
RTVSPost2010PropOp43
 70
     1
102
RTVSPost2010Prop44ColorIndex
 90
        5
102
RTVSPost2010Prop44ColorRGB
 90
      255
102
RTVSPost2010PropOp44
 70
     1
102
RTVSPost2010Prop45
280
     0
102
RTVSPost2010PropOp45
 70
     1
102
RTVSPost2010Prop46
 90
       50
102
RTVSPost2010PropOp46
 70
     1
102
RTVSPost2010Prop47
 90
       50
102
RTVSPost2010PropOp47
 70
     1
102
RTVSPost2010Prop48
 90
       50
102
RTVSPost2010PropOp48
 70
     1
102
RTVSPost2010Prop49
280
     0
102
RTVSPost2010PropOp49
 70
     1
102
RTVSPost2010Prop50
 90
       50
102
RTVSPost2010PropOp50
 70
     1
102
RTVSPost2010Prop51ColorIndex
 90
      256
102
RTVSPost2010Prop51ColorRGB
 90
-16777216
102
RTVSPost2010PropOp51
 70
     0
102
RTVSPost2010Prop52
140
1.0
102
RTVSPost2010PropOp52
 70
     0
102
RTVSPost2010Prop53
 90
        2
102
RTVSPost2010PropOp53
 70
     1
102
RTVSPost2010Prop54
  1
strokes_ogs.tif
102
RTVSPost2010PropOp54
 70
     1
102
RTVSPost2010Prop55
280
     0
102
RTVSPost2010PropOp55
 70
     1
102
RTVSPost2010Prop56
140
1.0
102
RTVSPost2010PropOp56
 70
     1
102
RTVSPost2010Prop57
140
1.0
102
RTVSPost2010PropOp57
 70
     1
102
RTVSPropertyOp0
 70
     1
102
RTVSPropertyOp1
 70
     1
102
RTVSPropertyOp2
 70
     1
102
RTVSPropertyOp3
 70
     1
102
RTVSPropertyOp4
 70
     1
102
RTVSPropertyOp5
 70
     1
102
RTVSPropertyOp6
 70
     1
102
RTVSPropertyOp7
 70
     1
102
RTVSPropertyOp8
 70
     1
102
RTVSPropertyOp9
 70
     1
102
RTVSPropertyOp10
 70
     1
102
RTVSPropertyOp11
 70
     1
102
RTVSPropertyOp12
 70
     1
102
RTVSPropertyOp13
 70
     1
102
RTVSPropertyOp14
 70
     1
102
RTVSPropertyOp15
 70
     1
102
RTVSPropertyOp16
 70
     1
102
RTVSPropertyOp17
 70
     1
102
RTVSPropertyOp18
 70
     1
102
RTVSPropertyOp19
 70
     1
102
RTVSPropertyOp20
 70
     1
102
RTVSPropertyOp21
 70
     1
102
RTVSPropertyOp22
 70
     1
102
RTVSPropertyOp23
 70
     1
102
RTVSPropertyOp24
 70
     1
102
RTVSPropertyOp25
 70
     1
102
RTVSPropertyOp26
 70
     1
102
RTVSPropertyOp27
 70
     1
102
RTVSPropertyOp28
 70
     1
102
RTVSPropertyOp29
 70
     1
102
RTVSPropertyOp30
 70
     1
102
RTVSPropertyOp31
 70
     1
102
RTVSPropertyOp32
 70
     1
102
RTVSPropertyOp33
 70
     1
102
RTVSPropertyOp34
 70
     1
102
RTVSPropertyOp35
 70
     1
102
RTVSPropertyOp36
 70
     1
102
RTVSPropertyOp37
 70
     1
102
RTVSPropertyOp38
 70
     1
102
RTVSPropertyOp39
 70
     1
102
RTVSPropertyOp40
 70
     1
102
RTVSPropertyOp41
 70
     1
102
RTVSPropertyOp42
 70
     1
102
RTVSPropertyOp43
 70
     1
102
RTVSPropertyOp44
 70
     1
102
RTVSPropertyOp45
 70
     1
102
RTVSPropertyOp46
 70
     1
102
RTVSPropertyOp47
 70
     1
102
RTVSPropertyOp48
 70
     1
102
RTVSPropertyOp49
 70
     1
102
RTVSPropertyOp50
 70
     1
102
RTVSPropertyOp51
 70
     0
102
RTVSPropertyOp52
 70
     0
102
RTVSPropertyOp53
 70
     1
102
RTVSPropertyOp54
 70
     1
102
RTVSPropertyOp55
 70
     1
102
RTVSPropertyOp56
 70
     1
102
RTVSPropertyOp57
 70
     1
102
RTVSPropertyOp58
 70
     1
102
RTVSPropertyOp59
 70
     1
102
RTVSPropertyOp60
 70
     1
102
RTVSPropertyOp61
 70
     1
102
RTVSPropertyOp62
 70
     1
  0
XRECORD
  5
896D
102
{ACAD_REACTORS
330
896C
102
}
330
896C
100
AcDbXrecord
280
     1
102
RTVSPost2010Prop28
280
     0
102
RTVSPost2010PropOp28
 70
     1
102
RTVSPost2010Prop29
280
     1
102
RTVSPost2010PropOp29
 70
     1
102
RTVSPost2010Prop30
280
     1
102
RTVSPost2010PropOp30
 70
     1
102
RTVSPost2010Prop31
280
     0
102
RTVSPost2010PropOp31
 70
     1
102
RTVSPost2010Prop32
280
     0
102
RTVSPost2010PropOp32
 70
     1
102
RTVSPost2010Prop33
280
     0
102
RTVSPost2010PropOp33
 70
     1
102
RTVSPost2010Prop34
280
     0
102
RTVSPost2010PropOp34
 70
     1
102
RTVSPost2010Prop35
280
     0
102
RTVSPost2010PropOp35
 70
     1
102
RTVSPost2010Prop36
280
     0
102
RTVSPost2010PropOp36
 70
     1
102
RTVSPost2010Prop37
 90
       50
102
RTVSPost2010PropOp37
 70
     1
102
RTVSPost2010Prop38
140
0.0
102
RTVSPost2010PropOp38
 70
     1
102
RTVSPost2010Prop39
140
1.0
102
RTVSPost2010PropOp39
 70
     1
102
RTVSPost2010Prop40
 90
        0
102
RTVSPost2010PropOp40
 70
     1
102
RTVSPost2010Prop41ColorIndex
 90
       18
102
RTVSPost2010Prop41ColorRGB
 90
        0
102
RTVSPost2010PropOp41
 70
     1
102
RTVSPost2010Prop42
 90
       50
102
RTVSPost2010PropOp42
 70
     1
102
RTVSPost2010Prop43
 90
        3
102
RTVSPost2010PropOp43
 70
     1
102
RTVSPost2010Prop44ColorIndex
 90
        5
102
RTVSPost2010Prop44ColorRGB
 90
      255
102
RTVSPost2010PropOp44
 70
     1
102
RTVSPost2010Prop45
280
     0
102
RTVSPost2010PropOp45
 70
     1
102
RTVSPost2010Prop46
 90
       50
102
RTVSPost2010PropOp46
 70
     1
102
RTVSPost2010Prop47
 90
       50
102
RTVSPost2010PropOp47
 70
     1
102
RTVSPost2010Prop48
 90
       50
102
RTVSPost2010PropOp48
 70
     1
102
RTVSPost2010Prop49
280
     0
102
RTVSPost2010PropOp49
 70
     1
102
RTVSPost2010Prop50
 90
       50
102
RTVSPost2010PropOp50
 70
     1
102
RTVSPost2010Prop51ColorIndex
 90
      256
102
RTVSPost2010Prop51ColorRGB
 90
-16777216
102
RTVSPost2010PropOp51
 70
     0
102
RTVSPost2010Prop52
140
1.0
102
RTVSPost2010PropOp52
 70
     0
102
RTVSPost2010Prop53
 90
        2
102
RTVSPost2010PropOp53
 70
     1
102
RTVSPost2010Prop54
  1
strokes_ogs.tif
102
RTVSPost2010PropOp54
 70
     1
102
RTVSPost2010Prop55
280
     0
102
RTVSPost2010PropOp55
 70
     1
102
RTVSPost2010Prop56
140
1.0
102
RTVSPost2010PropOp56
 70
     1
102
RTVSPost2010Prop57
140
1.0
102
RTVSPost2010PropOp57
 70
     1
102
RTVSPropertyOp0
 70
     1
102
RTVSPropertyOp1
 70
     1
102
RTVSPropertyOp2
 70
     1
102
RTVSPropertyOp3
 70
     1
102
RTVSPropertyOp4
 70
     1
102
RTVSPropertyOp5
 70
     1
102
RTVSPropertyOp6
 70
     1
102
RTVSPropertyOp7
 70
     1
102
RTVSPropertyOp8
 70
     1
102
RTVSPropertyOp9
 70
     1
102
RTVSPropertyOp10
 70
     1
102
RTVSPropertyOp11
 70
     1
102
RTVSPropertyOp12
 70
     1
102
RTVSPropertyOp13
 70
     1
102
RTVSPropertyOp14
 70
     1
102
RTVSPropertyOp15
 70
     1
102
RTVSPropertyOp16
 70
     1
102
RTVSPropertyOp17
 70
     1
102
RTVSPropertyOp18
 70
     1
102
RTVSPropertyOp19
 70
     1
102
RTVSPropertyOp20
 70
     1
102
RTVSPropertyOp21
 70
     1
102
RTVSPropertyOp22
 70
     1
102
RTVSPropertyOp23
 70
     1
102
RTVSPropertyOp24
 70
     1
102
RTVSPropertyOp25
 70
     1
102
RTVSPropertyOp26
 70
     1
102
RTVSPropertyOp27
 70
     1
102
RTVSPropertyOp28
 70
     1
102
RTVSPropertyOp29
 70
     1
102
RTVSPropertyOp30
 70
     1
102
RTVSPropertyOp31
 70
     1
102
RTVSPropertyOp32
 70
     1
102
RTVSPropertyOp33
 70
     1
102
RTVSPropertyOp34
 70
     1
102
RTVSPropertyOp35
 70
     1
102
RTVSPropertyOp36
 70
     1
102
RTVSPropertyOp37
 70
     1
102
RTVSPropertyOp38
 70
     1
102
RTVSPropertyOp39
 70
     1
102
RTVSPropertyOp40
 70
     1
102
RTVSPropertyOp41
 70
     1
102
RTVSPropertyOp42
 70
     1
102
RTVSPropertyOp43
 70
     1
102
RTVSPropertyOp44
 70
     1
102
RTVSPropertyOp45
 70
     1
102
RTVSPropertyOp46
 70
     1
102
RTVSPropertyOp47
 70
     1
102
RTVSPropertyOp48
 70
     1
102
RTVSPropertyOp49
 70
     1
102
RTVSPropertyOp50
 70
     1
102
RTVSPropertyOp51
 70
     0
102
RTVSPropertyOp52
 70
     0
102
RTVSPropertyOp53
 70
     1
102
RTVSPropertyOp54
 70
     1
102
RTVSPropertyOp55
 70
     1
102
RTVSPropertyOp56
 70
     1
102
RTVSPropertyOp57
 70
     1
102
RTVSPropertyOp58
 70
     1
102
RTVSPropertyOp59
 70
     1
102
RTVSPropertyOp60
 70
     1
102
RTVSPropertyOp61
 70
     1
102
RTVSPropertyOp62
 70
     1
  0
XRECORD
  5
896B
102
{ACAD_REACTORS
330
896A
102
}
330
896A
100
AcDbXrecord
280
     1
102
RTVSPost2010Prop28
280
     0
102
RTVSPost2010PropOp28
 70
     1
102
RTVSPost2010Prop29
280
     1
102
RTVSPost2010PropOp29
 70
     1
102
RTVSPost2010Prop30
280
     1
102
RTVSPost2010PropOp30
 70
     1
102
RTVSPost2010Prop31
280
     0
102
RTVSPost2010PropOp31
 70
     1
102
RTVSPost2010Prop32
280
     0
102
RTVSPost2010PropOp32
 70
     1
102
RTVSPost2010Prop33
280
     0
102
RTVSPost2010PropOp33
 70
     1
102
RTVSPost2010Prop34
280
     0
102
RTVSPost2010PropOp34
 70
     1
102
RTVSPost2010Prop35
280
     0
102
RTVSPost2010PropOp35
 70
     1
102
RTVSPost2010Prop36
280
     0
102
RTVSPost2010PropOp36
 70
     1
102
RTVSPost2010Prop37
 90
       50
102
RTVSPost2010PropOp37
 70
     1
102
RTVSPost2010Prop38
140
0.0
102
RTVSPost2010PropOp38
 70
     1
102
RTVSPost2010Prop39
140
1.0
102
RTVSPost2010PropOp39
 70
     1
102
RTVSPost2010Prop40
 90
        0
102
RTVSPost2010PropOp40
 70
     1
102
RTVSPost2010Prop41ColorIndex
 90
       18
102
RTVSPost2010Prop41ColorRGB
 90
        0
102
RTVSPost2010PropOp41
 70
     1
102
RTVSPost2010Prop42
 90
       50
102
RTVSPost2010PropOp42
 70
     1
102
RTVSPost2010Prop43
 90
        3
102
RTVSPost2010PropOp43
 70
     1
102
RTVSPost2010Prop44ColorIndex
 90
        5
102
RTVSPost2010Prop44ColorRGB
 90
      255
102
RTVSPost2010PropOp44
 70
     1
102
RTVSPost2010Prop45
280
     0
102
RTVSPost2010PropOp45
 70
     1
102
RTVSPost2010Prop46
 90
       50
102
RTVSPost2010PropOp46
 70
     1
102
RTVSPost2010Prop47
 90
       50
102
RTVSPost2010PropOp47
 70
     1
102
RTVSPost2010Prop48
 90
       50
102
RTVSPost2010PropOp48
 70
     1
102
RTVSPost2010Prop49
280
     0
102
RTVSPost2010PropOp49
 70
     1
102
RTVSPost2010Prop50
 90
       50
102
RTVSPost2010PropOp50
 70
     1
102
RTVSPost2010Prop51ColorIndex
 90
      256
102
RTVSPost2010Prop51ColorRGB
 90
-16777216
102
RTVSPost2010PropOp51
 70
     0
102
RTVSPost2010Prop52
140
1.0
102
RTVSPost2010PropOp52
 70
     0
102
RTVSPost2010Prop53
 90
        2
102
RTVSPost2010PropOp53
 70
     1
102
RTVSPost2010Prop54
  1
strokes_ogs.tif
102
RTVSPost2010PropOp54
 70
     1
102
RTVSPost2010Prop55
280
     0
102
RTVSPost2010PropOp55
 70
     1
102
RTVSPost2010Prop56
140
1.0
102
RTVSPost2010PropOp56
 70
     1
102
RTVSPost2010Prop57
140
1.0
102
RTVSPost2010PropOp57
 70
     1
102
RTVSPropertyOp0
 70
     1
102
RTVSPropertyOp1
 70
     1
102
RTVSPropertyOp2
 70
     1
102
RTVSPropertyOp3
 70
     1
102
RTVSPropertyOp4
 70
     1
102
RTVSPropertyOp5
 70
     1
102
RTVSPropertyOp6
 70
     1
102
RTVSPropertyOp7
 70
     1
102
RTVSPropertyOp8
 70
     1
102
RTVSPropertyOp9
 70
     1
102
RTVSPropertyOp10
 70
     1
102
RTVSPropertyOp11
 70
     1
102
RTVSPropertyOp12
 70
     1
102
RTVSPropertyOp13
 70
     1
102
RTVSPropertyOp14
 70
     1
102
RTVSPropertyOp15
 70
     1
102
RTVSPropertyOp16
 70
     1
102
RTVSPropertyOp17
 70
     1
102
RTVSPropertyOp18
 70
     1
102
RTVSPropertyOp19
 70
     1
102
RTVSPropertyOp20
 70
     1
102
RTVSPropertyOp21
 70
     1
102
RTVSPropertyOp22
 70
     1
102
RTVSPropertyOp23
 70
     1
102
RTVSPropertyOp24
 70
     1
102
RTVSPropertyOp25
 70
     1
102
RTVSPropertyOp26
 70
     1
102
RTVSPropertyOp27
 70
     1
102
RTVSPropertyOp28
 70
     1
102
RTVSPropertyOp29
 70
     1
102
RTVSPropertyOp30
 70
     1
102
RTVSPropertyOp31
 70
     1
102
RTVSPropertyOp32
 70
     1
102
RTVSPropertyOp33
 70
     1
102
RTVSPropertyOp34
 70
     1
102
RTVSPropertyOp35
 70
     1
102
RTVSPropertyOp36
 70
     1
102
RTVSPropertyOp37
 70
     1
102
RTVSPropertyOp38
 70
     1
102
RTVSPropertyOp39
 70
     1
102
RTVSPropertyOp40
 70
     1
102
RTVSPropertyOp41
 70
     1
102
RTVSPropertyOp42
 70
     1
102
RTVSPropertyOp43
 70
     1
102
RTVSPropertyOp44
 70
     1
102
RTVSPropertyOp45
 70
     1
102
RTVSPropertyOp46
 70
     1
102
RTVSPropertyOp47
 70
     1
102
RTVSPropertyOp48
 70
     1
102
RTVSPropertyOp49
 70
     1
102
RTVSPropertyOp50
 70
     1
102
RTVSPropertyOp51
 70
     0
102
RTVSPropertyOp52
 70
     0
102
RTVSPropertyOp53
 70
     1
102
RTVSPropertyOp54
 70
     1
102
RTVSPropertyOp55
 70
     1
102
RTVSPropertyOp56
 70
     1
102
RTVSPropertyOp57
 70
     1
102
RTVSPropertyOp58
 70
     1
102
RTVSPropertyOp59
 70
     1
102
RTVSPropertyOp60
 70
     1
102
RTVSPropertyOp61
 70
     1
102
RTVSPropertyOp62
 70
     1
  0
XRECORD
  5
8965
102
{ACAD_REACTORS
330
8964
102
}
330
8964
100
AcDbXrecord
280
     1
102
RTVSPost2010Prop28
280
     0
102
RTVSPost2010PropOp28
 70
     1
102
RTVSPost2010Prop29
280
     1
102
RTVSPost2010PropOp29
 70
     1
102
RTVSPost2010Prop30
280
     1
102
RTVSPost2010PropOp30
 70
     1
102
RTVSPost2010Prop31
280
     0
102
RTVSPost2010PropOp31
 70
     1
102
RTVSPost2010Prop32
280
     0
102
RTVSPost2010PropOp32
 70
     1
102
RTVSPost2010Prop33
280
     0
102
RTVSPost2010PropOp33
 70
     1
102
RTVSPost2010Prop34
280
     0
102
RTVSPost2010PropOp34
 70
     1
102
RTVSPost2010Prop35
280
     0
102
RTVSPost2010PropOp35
 70
     1
102
RTVSPost2010Prop36
280
     0
102
RTVSPost2010PropOp36
 70
     1
102
RTVSPost2010Prop37
 90
       50
102
RTVSPost2010PropOp37
 70
     1
102
RTVSPost2010Prop38
140
0.0
102
RTVSPost2010PropOp38
 70
     1
102
RTVSPost2010Prop39
140
1.0
102
RTVSPost2010PropOp39
 70
     1
102
RTVSPost2010Prop40
 90
        0
102
RTVSPost2010PropOp40
 70
     1
102
RTVSPost2010Prop41ColorIndex
 90
       18
102
RTVSPost2010Prop41ColorRGB
 90
        0
102
RTVSPost2010PropOp41
 70
     1
102
RTVSPost2010Prop42
 90
       50
102
RTVSPost2010PropOp42
 70
     1
102
RTVSPost2010Prop43
 90
        3
102
RTVSPost2010PropOp43
 70
     1
102
RTVSPost2010Prop44ColorIndex
 90
        5
102
RTVSPost2010Prop44ColorRGB
 90
      255
102
RTVSPost2010PropOp44
 70
     1
102
RTVSPost2010Prop45
280
     0
102
RTVSPost2010PropOp45
 70
     1
102
RTVSPost2010Prop46
 90
       50
102
RTVSPost2010PropOp46
 70
     1
102
RTVSPost2010Prop47
 90
       50
102
RTVSPost2010PropOp47
 70
     1
102
RTVSPost2010Prop48
 90
       50
102
RTVSPost2010PropOp48
 70
     1
102
RTVSPost2010Prop49
280
     0
102
RTVSPost2010PropOp49
 70
     1
102
RTVSPost2010Prop50
 90
       50
102
RTVSPost2010PropOp50
 70
     1
102
RTVSPost2010Prop51ColorIndex
 90
      256
102
RTVSPost2010Prop51ColorRGB
 90
-16777216
102
RTVSPost2010PropOp51
 70
     0
102
RTVSPost2010Prop52
140
1.0
102
RTVSPost2010PropOp52
 70
     0
102
RTVSPost2010Prop53
 90
        2
102
RTVSPost2010PropOp53
 70
     1
102
RTVSPost2010Prop54
  1
strokes_ogs.tif
102
RTVSPost2010PropOp54
 70
     1
102
RTVSPost2010Prop55
280
     0
102
RTVSPost2010PropOp55
 70
     1
102
RTVSPost2010Prop56
140
1.0
102
RTVSPost2010PropOp56
 70
     1
102
RTVSPost2010Prop57
140
1.0
102
RTVSPost2010PropOp57
 70
     1
102
RTVSPropertyOp0
 70
     1
102
RTVSPropertyOp1
 70
     1
102
RTVSPropertyOp2
 70
     1
102
RTVSPropertyOp3
 70
     1
102
RTVSPropertyOp4
 70
     1
102
RTVSPropertyOp5
 70
     1
102
RTVSPropertyOp6
 70
     1
102
RTVSPropertyOp7
 70
     1
102
RTVSPropertyOp8
 70
     1
102
RTVSPropertyOp9
 70
     1
102
RTVSPropertyOp10
 70
     1
102
RTVSPropertyOp11
 70
     1
102
RTVSPropertyOp12
 70
     1
102
RTVSPropertyOp13
 70
     1
102
RTVSPropertyOp14
 70
     1
102
RTVSPropertyOp15
 70
     1
102
RTVSPropertyOp16
 70
     1
102
RTVSPropertyOp17
 70
     1
102
RTVSPropertyOp18
 70
     1
102
RTVSPropertyOp19
 70
     1
102
RTVSPropertyOp20
 70
     1
102
RTVSPropertyOp21
 70
     1
102
RTVSPropertyOp22
 70
     1
102
RTVSPropertyOp23
 70
     1
102
RTVSPropertyOp24
 70
     1
102
RTVSPropertyOp25
 70
     1
102
RTVSPropertyOp26
 70
     1
102
RTVSPropertyOp27
 70
     1
102
RTVSPropertyOp28
 70
     1
102
RTVSPropertyOp29
 70
     1
102
RTVSPropertyOp30
 70
     1
102
RTVSPropertyOp31
 70
     1
102
RTVSPropertyOp32
 70
     1
102
RTVSPropertyOp33
 70
     1
102
RTVSPropertyOp34
 70
     1
102
RTVSPropertyOp35
 70
     1
102
RTVSPropertyOp36
 70
     1
102
RTVSPropertyOp37
 70
     1
102
RTVSPropertyOp38
 70
     1
102
RTVSPropertyOp39
 70
     1
102
RTVSPropertyOp40
 70
     1
102
RTVSPropertyOp41
 70
     1
102
RTVSPropertyOp42
 70
     1
102
RTVSPropertyOp43
 70
     1
102
RTVSPropertyOp44
 70
     1
102
RTVSPropertyOp45
 70
     1
102
RTVSPropertyOp46
 70
     1
102
RTVSPropertyOp47
 70
     1
102
RTVSPropertyOp48
 70
     1
102
RTVSPropertyOp49
 70
     1
102
RTVSPropertyOp50
 70
     1
102
RTVSPropertyOp51
 70
     0
102
RTVSPropertyOp52
 70
     0
102
RTVSPropertyOp53
 70
     1
102
RTVSPropertyOp54
 70
     1
102
RTVSPropertyOp55
 70
     1
102
RTVSPropertyOp56
 70
     1
102
RTVSPropertyOp57
 70
     1
102
RTVSPropertyOp58
 70
     1
102
RTVSPropertyOp59
 70
     1
102
RTVSPropertyOp60
 70
     1
102
RTVSPropertyOp61
 70
     1
102
RTVSPropertyOp62
 70
     1
  0
XRECORD
  5
8967
102
{ACAD_REACTORS
330
8966
102
}
330
8966
100
AcDbXrecord
280
     1
102
RTVSPost2010Prop28
280
     0
102
RTVSPost2010PropOp28
 70
     1
102
RTVSPost2010Prop29
280
     1
102
RTVSPost2010PropOp29
 70
     1
102
RTVSPost2010Prop30
280
     1
102
RTVSPost2010PropOp30
 70
     1
102
RTVSPost2010Prop31
280
     0
102
RTVSPost2010PropOp31
 70
     1
102
RTVSPost2010Prop32
280
     0
102
RTVSPost2010PropOp32
 70
     1
102
RTVSPost2010Prop33
280
     0
102
RTVSPost2010PropOp33
 70
     1
102
RTVSPost2010Prop34
280
     0
102
RTVSPost2010PropOp34
 70
     1
102
RTVSPost2010Prop35
280
     0
102
RTVSPost2010PropOp35
 70
     1
102
RTVSPost2010Prop36
280
     0
102
RTVSPost2010PropOp36
 70
     1
102
RTVSPost2010Prop37
 90
       50
102
RTVSPost2010PropOp37
 70
     1
102
RTVSPost2010Prop38
140
0.0
102
RTVSPost2010PropOp38
 70
     1
102
RTVSPost2010Prop39
140
1.0
102
RTVSPost2010PropOp39
 70
     1
102
RTVSPost2010Prop40
 90
        0
102
RTVSPost2010PropOp40
 70
     1
102
RTVSPost2010Prop41ColorIndex
 90
       18
102
RTVSPost2010Prop41ColorRGB
 90
        0
102
RTVSPost2010PropOp41
 70
     1
102
RTVSPost2010Prop42
 90
       50
102
RTVSPost2010PropOp42
 70
     1
102
RTVSPost2010Prop43
 90
        3
102
RTVSPost2010PropOp43
 70
     1
102
RTVSPost2010Prop44ColorIndex
 90
        5
102
RTVSPost2010Prop44ColorRGB
 90
      255
102
RTVSPost2010PropOp44
 70
     1
102
RTVSPost2010Prop45
280
     0
102
RTVSPost2010PropOp45
 70
     1
102
RTVSPost2010Prop46
 90
       50
102
RTVSPost2010PropOp46
 70
     1
102
RTVSPost2010Prop47
 90
       50
102
RTVSPost2010PropOp47
 70
     1
102
RTVSPost2010Prop48
 90
       50
102
RTVSPost2010PropOp48
 70
     1
102
RTVSPost2010Prop49
280
     0
102
RTVSPost2010PropOp49
 70
     1
102
RTVSPost2010Prop50
 90
       50
102
RTVSPost2010PropOp50
 70
     1
102
RTVSPost2010Prop51ColorIndex
 90
      256
102
RTVSPost2010Prop51ColorRGB
 90
-16777216
102
RTVSPost2010PropOp51
 70
     0
102
RTVSPost2010Prop52
140
1.0
102
RTVSPost2010PropOp52
 70
     0
102
RTVSPost2010Prop53
 90
        2
102
RTVSPost2010PropOp53
 70
     1
102
RTVSPost2010Prop54
  1
strokes_ogs.tif
102
RTVSPost2010PropOp54
 70
     1
102
RTVSPost2010Prop55
280
     0
102
RTVSPost2010PropOp55
 70
     1
102
RTVSPost2010Prop56
140
1.0
102
RTVSPost2010PropOp56
 70
     1
102
RTVSPost2010Prop57
140
1.0
102
RTVSPost2010PropOp57
 70
     1
102
RTVSPropertyOp0
 70
     1
102
RTVSPropertyOp1
 70
     1
102
RTVSPropertyOp2
 70
     1
102
RTVSPropertyOp3
 70
     1
102
RTVSPropertyOp4
 70
     1
102
RTVSPropertyOp5
 70
     1
102
RTVSPropertyOp6
 70
     1
102
RTVSPropertyOp7
 70
     1
102
RTVSPropertyOp8
 70
     1
102
RTVSPropertyOp9
 70
     1
102
RTVSPropertyOp10
 70
     1
102
RTVSPropertyOp11
 70
     1
102
RTVSPropertyOp12
 70
     1
102
RTVSPropertyOp13
 70
     1
102
RTVSPropertyOp14
 70
     1
102
RTVSPropertyOp15
 70
     1
102
RTVSPropertyOp16
 70
     1
102
RTVSPropertyOp17
 70
     1
102
RTVSPropertyOp18
 70
     1
102
RTVSPropertyOp19
 70
     1
102
RTVSPropertyOp20
 70
     1
102
RTVSPropertyOp21
 70
     1
102
RTVSPropertyOp22
 70
     1
102
RTVSPropertyOp23
 70
     1
102
RTVSPropertyOp24
 70
     1
102
RTVSPropertyOp25
 70
     1
102
RTVSPropertyOp26
 70
     1
102
RTVSPropertyOp27
 70
     1
102
RTVSPropertyOp28
 70
     1
102
RTVSPropertyOp29
 70
     1
102
RTVSPropertyOp30
 70
     1
102
RTVSPropertyOp31
 70
     1
102
RTVSPropertyOp32
 70
     1
102
RTVSPropertyOp33
 70
     1
102
RTVSPropertyOp34
 70
     1
102
RTVSPropertyOp35
 70
     1
102
RTVSPropertyOp36
 70
     1
102
RTVSPropertyOp37
 70
     1
102
RTVSPropertyOp38
 70
     1
102
RTVSPropertyOp39
 70
     1
102
RTVSPropertyOp40
 70
     1
102
RTVSPropertyOp41
 70
     1
102
RTVSPropertyOp42
 70
     1
102
RTVSPropertyOp43
 70
     1
102
RTVSPropertyOp44
 70
     1
102
RTVSPropertyOp45
 70
     1
102
RTVSPropertyOp46
 70
     1
102
RTVSPropertyOp47
 70
     1
102
RTVSPropertyOp48
 70
     1
102
RTVSPropertyOp49
 70
     1
102
RTVSPropertyOp50
 70
     1
102
RTVSPropertyOp51
 70
     0
102
RTVSPropertyOp52
 70
     0
102
RTVSPropertyOp53
 70
     1
102
RTVSPropertyOp54
 70
     1
102
RTVSPropertyOp55
 70
     1
102
RTVSPropertyOp56
 70
     1
102
RTVSPropertyOp57
 70
     1
102
RTVSPropertyOp58
 70
     1
102
RTVSPropertyOp59
 70
     1
102
RTVSPropertyOp60
 70
     1
102
RTVSPropertyOp61
 70
     1
102
RTVSPropertyOp62
 70
     1
  0
XRECORD
  5
8955
102
{ACAD_REACTORS
330
8954
102
}
330
8954
100
AcDbXrecord
280
     1
102
RTVSPost2010Prop28
280
     0
102
RTVSPost2010PropOp28
 70
     1
102
RTVSPost2010Prop29
280
     1
102
RTVSPost2010PropOp29
 70
     1
102
RTVSPost2010Prop30
280
     1
102
RTVSPost2010PropOp30
 70
     1
102
RTVSPost2010Prop31
280
     0
102
RTVSPost2010PropOp31
 70
     1
102
RTVSPost2010Prop32
280
     0
102
RTVSPost2010PropOp32
 70
     1
102
RTVSPost2010Prop33
280
     0
102
RTVSPost2010PropOp33
 70
     1
102
RTVSPost2010Prop34
280
     0
102
RTVSPost2010PropOp34
 70
     1
102
RTVSPost2010Prop35
280
     0
102
RTVSPost2010PropOp35
 70
     1
102
RTVSPost2010Prop36
280
     0
102
RTVSPost2010PropOp36
 70
     1
102
RTVSPost2010Prop37
 90
       50
102
RTVSPost2010PropOp37
 70
     1
102
RTVSPost2010Prop38
140
0.0
102
RTVSPost2010PropOp38
 70
     1
102
RTVSPost2010Prop39
140
1.0
102
RTVSPost2010PropOp39
 70
     1
102
RTVSPost2010Prop40
 90
        0
102
RTVSPost2010PropOp40
 70
     1
102
RTVSPost2010Prop41ColorIndex
 90
       18
102
RTVSPost2010Prop41ColorRGB
 90
        0
102
RTVSPost2010PropOp41
 70
     1
102
RTVSPost2010Prop42
 90
       50
102
RTVSPost2010PropOp42
 70
     1
102
RTVSPost2010Prop43
 90
        3
102
RTVSPost2010PropOp43
 70
     1
102
RTVSPost2010Prop44ColorIndex
 90
        5
102
RTVSPost2010Prop44ColorRGB
 90
      255
102
RTVSPost2010PropOp44
 70
     1
102
RTVSPost2010Prop45
280
     0
102
RTVSPost2010PropOp45
 70
     1
102
RTVSPost2010Prop46
 90
       50
102
RTVSPost2010PropOp46
 70
     1
102
RTVSPost2010Prop47
 90
       50
102
RTVSPost2010PropOp47
 70
     1
102
RTVSPost2010Prop48
 90
       50
102
RTVSPost2010PropOp48
 70
     1
102
RTVSPost2010Prop49
280
     0
102
RTVSPost2010PropOp49
 70
     1
102
RTVSPost2010Prop50
 90
       50
102
RTVSPost2010PropOp50
 70
     1
102
RTVSPost2010Prop51ColorIndex
 90
      256
102
RTVSPost2010Prop51ColorRGB
 90
-16777216
102
RTVSPost2010PropOp51
 70
     0
102
RTVSPost2010Prop52
140
1.0
102
RTVSPost2010PropOp52
 70
     0
102
RTVSPost2010Prop53
 90
        2
102
RTVSPost2010PropOp53
 70
     1
102
RTVSPost2010Prop54
  1
strokes_ogs.tif
102
RTVSPost2010PropOp54
 70
     1
102
RTVSPost2010Prop55
280
     0
102
RTVSPost2010PropOp55
 70
     1
102
RTVSPost2010Prop56
140
1.0
102
RTVSPost2010PropOp56
 70
     1
102
RTVSPost2010Prop57
140
1.0
102
RTVSPost2010PropOp57
 70
     1
102
RTVSPropertyOp0
 70
     1
102
RTVSPropertyOp1
 70
     1
102
RTVSPropertyOp2
 70
     1
102
RTVSPropertyOp3
 70
     1
102
RTVSPropertyOp4
 70
     1
102
RTVSPropertyOp5
 70
     1
102
RTVSPropertyOp6
 70
     1
102
RTVSPropertyOp7
 70
     1
102
RTVSPropertyOp8
 70
     1
102
RTVSPropertyOp9
 70
     1
102
RTVSPropertyOp10
 70
     1
102
RTVSPropertyOp11
 70
     1
102
RTVSPropertyOp12
 70
     1
102
RTVSPropertyOp13
 70
     1
102
RTVSPropertyOp14
 70
     1
102
RTVSPropertyOp15
 70
     1
102
RTVSPropertyOp16
 70
     1
102
RTVSPropertyOp17
 70
     1
102
RTVSPropertyOp18
 70
     1
102
RTVSPropertyOp19
 70
     1
102
RTVSPropertyOp20
 70
     1
102
RTVSPropertyOp21
 70
     1
102
RTVSPropertyOp22
 70
     1
102
RTVSPropertyOp23
 70
     1
102
RTVSPropertyOp24
 70
     1
102
RTVSPropertyOp25
 70
     1
102
RTVSPropertyOp26
 70
     1
102
RTVSPropertyOp27
 70
     1
102
RTVSPropertyOp28
 70
     1
102
RTVSPropertyOp29
 70
     1
102
RTVSPropertyOp30
 70
     1
102
RTVSPropertyOp31
 70
     1
102
RTVSPropertyOp32
 70
     1
102
RTVSPropertyOp33
 70
     1
102
RTVSPropertyOp34
 70
     1
102
RTVSPropertyOp35
 70
     1
102
RTVSPropertyOp36
 70
     1
102
RTVSPropertyOp37
 70
     1
102
RTVSPropertyOp38
 70
     1
102
RTVSPropertyOp39
 70
     1
102
RTVSPropertyOp40
 70
     1
102
RTVSPropertyOp41
 70
     1
102
RTVSPropertyOp42
 70
     1
102
RTVSPropertyOp43
 70
     1
102
RTVSPropertyOp44
 70
     1
102
RTVSPropertyOp45
 70
     1
102
RTVSPropertyOp46
 70
     1
102
RTVSPropertyOp47
 70
     1
102
RTVSPropertyOp48
 70
     1
102
RTVSPropertyOp49
 70
     1
102
RTVSPropertyOp50
 70
     1
102
RTVSPropertyOp51
 70
     0
102
RTVSPropertyOp52
 70
     0
102
RTVSPropertyOp53
 70
     1
102
RTVSPropertyOp54
 70
     1
102
RTVSPropertyOp55
 70
     1
102
RTVSPropertyOp56
 70
     1
102
RTVSPropertyOp57
 70
     1
102
RTVSPropertyOp58
 70
     1
102
RTVSPropertyOp59
 70
     1
102
RTVSPropertyOp60
 70
     1
102
RTVSPropertyOp61
 70
     1
102
RTVSPropertyOp62
 70
     1
  0
XRECORD
  5
8949
102
{ACAD_REACTORS
330
8948
102
}
330
8948
100
AcDbXrecord
280
     1
102
RTVSPost2010Prop28
280
     0
102
RTVSPost2010PropOp28
 70
     1
102
RTVSPost2010Prop29
280
     1
102
RTVSPost2010PropOp29
 70
     1
102
RTVSPost2010Prop30
280
     1
102
RTVSPost2010PropOp30
 70
     1
102
RTVSPost2010Prop31
280
     0
102
RTVSPost2010PropOp31
 70
     1
102
RTVSPost2010Prop32
280
     0
102
RTVSPost2010PropOp32
 70
     1
102
RTVSPost2010Prop33
280
     0
102
RTVSPost2010PropOp33
 70
     1
102
RTVSPost2010Prop34
280
     0
102
RTVSPost2010PropOp34
 70
     1
102
RTVSPost2010Prop35
280
     0
102
RTVSPost2010PropOp35
 70
     1
102
RTVSPost2010Prop36
280
     0
102
RTVSPost2010PropOp36
 70
     1
102
RTVSPost2010Prop37
 90
       50
102
RTVSPost2010PropOp37
 70
     1
102
RTVSPost2010Prop38
140
0.0
102
RTVSPost2010PropOp38
 70
     1
102
RTVSPost2010Prop39
140
1.0
102
RTVSPost2010PropOp39
 70
     1
102
RTVSPost2010Prop40
 90
        0
102
RTVSPost2010PropOp40
 70
     1
102
RTVSPost2010Prop41ColorIndex
 90
       18
102
RTVSPost2010Prop41ColorRGB
 90
        0
102
RTVSPost2010PropOp41
 70
     1
102
RTVSPost2010Prop42
 90
       50
102
RTVSPost2010PropOp42
 70
     1
102
RTVSPost2010Prop43
 90
        3
102
RTVSPost2010PropOp43
 70
     1
102
RTVSPost2010Prop44ColorIndex
 90
        5
102
RTVSPost2010Prop44ColorRGB
 90
      255
102
RTVSPost2010PropOp44
 70
     1
102
RTVSPost2010Prop45
280
     0
102
RTVSPost2010PropOp45
 70
     1
102
RTVSPost2010Prop46
 90
       50
102
RTVSPost2010PropOp46
 70
     1
102
RTVSPost2010Prop47
 90
       50
102
RTVSPost2010PropOp47
 70
     1
102
RTVSPost2010Prop48
 90
       50
102
RTVSPost2010PropOp48
 70
     1
102
RTVSPost2010Prop49
280
     0
102
RTVSPost2010PropOp49
 70
     1
102
RTVSPost2010Prop50
 90
       50
102
RTVSPost2010PropOp50
 70
     1
102
RTVSPost2010Prop51ColorIndex
 90
      256
102
RTVSPost2010Prop51ColorRGB
 90
-16777216
102
RTVSPost2010PropOp51
 70
     0
102
RTVSPost2010Prop52
140
1.0
102
RTVSPost2010PropOp52
 70
     0
102
RTVSPost2010Prop53
 90
        2
102
RTVSPost2010PropOp53
 70
     1
102
RTVSPost2010Prop54
  1
strokes_ogs.tif
102
RTVSPost2010PropOp54
 70
     1
102
RTVSPost2010Prop55
280
     0
102
RTVSPost2010PropOp55
 70
     1
102
RTVSPost2010Prop56
140
1.0
102
RTVSPost2010PropOp56
 70
     1
102
RTVSPost2010Prop57
140
1.0
102
RTVSPost2010PropOp57
 70
     1
102
RTVSPropertyOp0
 70
     1
102
RTVSPropertyOp1
 70
     1
102
RTVSPropertyOp2
 70
     1
102
RTVSPropertyOp3
 70
     1
102
RTVSPropertyOp4
 70
     1
102
RTVSPropertyOp5
 70
     1
102
RTVSPropertyOp6
 70
     1
102
RTVSPropertyOp7
 70
     1
102
RTVSPropertyOp8
 70
     1
102
RTVSPropertyOp9
 70
     1
102
RTVSPropertyOp10
 70
     1
102
RTVSPropertyOp11
 70
     1
102
RTVSPropertyOp12
 70
     1
102
RTVSPropertyOp13
 70
     1
102
RTVSPropertyOp14
 70
     1
102
RTVSPropertyOp15
 70
     1
102
RTVSPropertyOp16
 70
     1
102
RTVSPropertyOp17
 70
     1
102
RTVSPropertyOp18
 70
     1
102
RTVSPropertyOp19
 70
     1
102
RTVSPropertyOp20
 70
     1
102
RTVSPropertyOp21
 70
     1
102
RTVSPropertyOp22
 70
     1
102
RTVSPropertyOp23
 70
     1
102
RTVSPropertyOp24
 70
     1
102
RTVSPropertyOp25
 70
     1
102
RTVSPropertyOp26
 70
     1
102
RTVSPropertyOp27
 70
     1
102
RTVSPropertyOp28
 70
     1
102
RTVSPropertyOp29
 70
     1
102
RTVSPropertyOp30
 70
     1
102
RTVSPropertyOp31
 70
     1
102
RTVSPropertyOp32
 70
     1
102
RTVSPropertyOp33
 70
     1
102
RTVSPropertyOp34
 70
     1
102
RTVSPropertyOp35
 70
     1
102
RTVSPropertyOp36
 70
     1
102
RTVSPropertyOp37
 70
     1
102
RTVSPropertyOp38
 70
     1
102
RTVSPropertyOp39
 70
     1
102
RTVSPropertyOp40
 70
     1
102
RTVSPropertyOp41
 70
     1
102
RTVSPropertyOp42
 70
     1
102
RTVSPropertyOp43
 70
     1
102
RTVSPropertyOp44
 70
     1
102
RTVSPropertyOp45
 70
     1
102
RTVSPropertyOp46
 70
     1
102
RTVSPropertyOp47
 70
     1
102
RTVSPropertyOp48
 70
     1
102
RTVSPropertyOp49
 70
     1
102
RTVSPropertyOp50
 70
     1
102
RTVSPropertyOp51
 70
     0
102
RTVSPropertyOp52
 70
     0
102
RTVSPropertyOp53
 70
     1
102
RTVSPropertyOp54
 70
     1
102
RTVSPropertyOp55
 70
     1
102
RTVSPropertyOp56
 70
     1
102
RTVSPropertyOp57
 70
     1
102
RTVSPropertyOp58
 70
     1
102
RTVSPropertyOp59
 70
     1
102
RTVSPropertyOp60
 70
     1
102
RTVSPropertyOp61
 70
     1
102
RTVSPropertyOp62
 70
     1
  0
XRECORD
  5
8969
102
{ACAD_REACTORS
330
8968
102
}
330
8968
100
AcDbXrecord
280
     1
102
RTVSPost2010Prop28
280
     0
102
RTVSPost2010PropOp28
 70
     1
102
RTVSPost2010Prop29
280
     1
102
RTVSPost2010PropOp29
 70
     1
102
RTVSPost2010Prop30
280
     1
102
RTVSPost2010PropOp30
 70
     1
102
RTVSPost2010Prop31
280
     0
102
RTVSPost2010PropOp31
 70
     1
102
RTVSPost2010Prop32
280
     0
102
RTVSPost2010PropOp32
 70
     1
102
RTVSPost2010Prop33
280
     0
102
RTVSPost2010PropOp33
 70
     1
102
RTVSPost2010Prop34
280
     0
102
RTVSPost2010PropOp34
 70
     1
102
RTVSPost2010Prop35
280
     0
102
RTVSPost2010PropOp35
 70
     1
102
RTVSPost2010Prop36
280
     0
102
RTVSPost2010PropOp36
 70
     1
102
RTVSPost2010Prop37
 90
       50
102
RTVSPost2010PropOp37
 70
     1
102
RTVSPost2010Prop38
140
0.0
102
RTVSPost2010PropOp38
 70
     1
102
RTVSPost2010Prop39
140
1.0
102
RTVSPost2010PropOp39
 70
     1
102
RTVSPost2010Prop40
 90
        0
102
RTVSPost2010PropOp40
 70
     1
102
RTVSPost2010Prop41ColorIndex
 90
       18
102
RTVSPost2010Prop41ColorRGB
 90
        0
102
RTVSPost2010PropOp41
 70
     1
102
RTVSPost2010Prop42
 90
       50
102
RTVSPost2010PropOp42
 70
     1
102
RTVSPost2010Prop43
 90
        3
102
RTVSPost2010PropOp43
 70
     1
102
RTVSPost2010Prop44ColorIndex
 90
        5
102
RTVSPost2010Prop44ColorRGB
 90
      255
102
RTVSPost2010PropOp44
 70
     1
102
RTVSPost2010Prop45
280
     0
102
RTVSPost2010PropOp45
 70
     1
102
RTVSPost2010Prop46
 90
       50
102
RTVSPost2010PropOp46
 70
     1
102
RTVSPost2010Prop47
 90
       50
102
RTVSPost2010PropOp47
 70
     1
102
RTVSPost2010Prop48
 90
       50
102
RTVSPost2010PropOp48
 70
     1
102
RTVSPost2010Prop49
280
     0
102
RTVSPost2010PropOp49
 70
     1
102
RTVSPost2010Prop50
 90
       50
102
RTVSPost2010PropOp50
 70
     1
102
RTVSPost2010Prop51ColorIndex
 90
      256
102
RTVSPost2010Prop51ColorRGB
 90
-16777216
102
RTVSPost2010PropOp51
 70
     0
102
RTVSPost2010Prop52
140
1.0
102
RTVSPost2010PropOp52
 70
     0
102
RTVSPost2010Prop53
 90
        2
102
RTVSPost2010PropOp53
 70
     1
102
RTVSPost2010Prop54
  1
strokes_ogs.tif
102
RTVSPost2010PropOp54
 70
     1
102
RTVSPost2010Prop55
280
     0
102
RTVSPost2010PropOp55
 70
     1
102
RTVSPost2010Prop56
140
1.0
102
RTVSPost2010PropOp56
 70
     1
102
RTVSPost2010Prop57
140
1.0
102
RTVSPost2010PropOp57
 70
     1
102
RTVSPropertyOp0
 70
     1
102
RTVSPropertyOp1
 70
     1
102
RTVSPropertyOp2
 70
     1
102
RTVSPropertyOp3
 70
     1
102
RTVSPropertyOp4
 70
     1
102
RTVSPropertyOp5
 70
     1
102
RTVSPropertyOp6
 70
     1
102
RTVSPropertyOp7
 70
     1
102
RTVSPropertyOp8
 70
     1
102
RTVSPropertyOp9
 70
     1
102
RTVSPropertyOp10
 70
     1
102
RTVSPropertyOp11
 70
     1
102
RTVSPropertyOp12
 70
     1
102
RTVSPropertyOp13
 70
     1
102
RTVSPropertyOp14
 70
     1
102
RTVSPropertyOp15
 70
     1
102
RTVSPropertyOp16
 70
     1
102
RTVSPropertyOp17
 70
     1
102
RTVSPropertyOp18
 70
     1
102
RTVSPropertyOp19
 70
     1
102
RTVSPropertyOp20
 70
     1
102
RTVSPropertyOp21
 70
     1
102
RTVSPropertyOp22
 70
     1
102
RTVSPropertyOp23
 70
     1
102
RTVSPropertyOp24
 70
     1
102
RTVSPropertyOp25
 70
     1
102
RTVSPropertyOp26
 70
     1
102
RTVSPropertyOp27
 70
     1
102
RTVSPropertyOp28
 70
     1
102
RTVSPropertyOp29
 70
     1
102
RTVSPropertyOp30
 70
     1
102
RTVSPropertyOp31
 70
     1
102
RTVSPropertyOp32
 70
     1
102
RTVSPropertyOp33
 70
     1
102
RTVSPropertyOp34
 70
     1
102
RTVSPropertyOp35
 70
     1
102
RTVSPropertyOp36
 70
     1
102
RTVSPropertyOp37
 70
     1
102
RTVSPropertyOp38
 70
     1
102
RTVSPropertyOp39
 70
     1
102
RTVSPropertyOp40
 70
     1
102
RTVSPropertyOp41
 70
     1
102
RTVSPropertyOp42
 70
     1
102
RTVSPropertyOp43
 70
     1
102
RTVSPropertyOp44
 70
     1
102
RTVSPropertyOp45
 70
     1
102
RTVSPropertyOp46
 70
     1
102
RTVSPropertyOp47
 70
     1
102
RTVSPropertyOp48
 70
     1
102
RTVSPropertyOp49
 70
     1
102
RTVSPropertyOp50
 70
     1
102
RTVSPropertyOp51
 70
     0
102
RTVSPropertyOp52
 70
     0
102
RTVSPropertyOp53
 70
     1
102
RTVSPropertyOp54
 70
     1
102
RTVSPropertyOp55
 70
     1
102
RTVSPropertyOp56
 70
     1
102
RTVSPropertyOp57
 70
     1
102
RTVSPropertyOp58
 70
     1
102
RTVSPropertyOp59
 70
     1
102
RTVSPropertyOp60
 70
     1
102
RTVSPropertyOp61
 70
     1
102
RTVSPropertyOp62
 70
     1
  0
ENDSEC
  0
EOF
