  0
SECTION
  2
HEADER
  9
$ACADVER
  1
AC1015
  9
$ACADMAINTVER
 70
    18
  9
$DWGCODEPAGE
  3
ANSI_1252
  9
$INSBASE
 10
0.0
 20
0.0
 30
0.0
  9
$EXTMIN
 10
-99.57183751693435
 20
-216.7679438967816
 30
-0.0015258207003583
  9
$EXTMAX
 10
165.4275519510587
 20
128.469177741405
 30
0.0000000349246037
  9
$LIMMIN
 10
0.0
 20
0.0
  9
$LIMMAX
 10
420.0
 20
297.0
  9
$ORTHOMODE
 70
     0
  9
$REGENMODE
 70
     1
  9
$FILLMODE
 70
     1
  9
$QTEXTMODE
 70
     0
  9
$MIRRTEXT
 70
     0
  9
$LTSCALE
 40
1.0
  9
$ATTMODE
 70
     1
  9
$TEXTSIZE
 40
2.5
  9
$TRACEWID
 40
1.0
  9
$TEXTSTYLE
  7
Standard
  9
$CLAYER
  8
0
  9
$CELTYPE
  6
ByLayer
  9
$CECOLOR
 62
   256
  9
$CELTSCALE
 40
1.0
  9
$DISPSILH
 70
     0
  9
$DIMSCALE
 40
1.0
  9
$DIMASZ
 40
2.5
  9
$DIMEXO
 40
0.625
  9
$DIMDLI
 40
3.75
  9
$DIMRND
 40
0.0
  9
$DIMDLE
 40
0.0
  9
$DIMEXE
 40
1.25
  9
$DIMTP
 40
0.0
  9
$DIMTM
 40
0.0
  9
$DIMTXT
 40
2.5
  9
$DIMCEN
 40
2.5
  9
$DIMTSZ
 40
0.0
  9
$DIMTOL
 70
     0
  9
$DIMLIM
 70
     0
  9
$DIMTIH
 70
     0
  9
$DIMTOH
 70
     0
  9
$DIMSE1
 70
     0
  9
$DIMSE2
 70
     0
  9
$DIMTAD
 70
     1
  9
$DIMZIN
 70
     8
  9
$DIMBLK
  1

  9
$DIMASO
 70
     1
  9
$DIMSHO
 70
     1
  9
$DIMPOST
  1

  9
$DIMAPOST
  1

  9
$DIMALT
 70
     0
  9
$DIMALTD
 70
     3
  9
$DIMALTF
 40
0.03937007874016
  9
$DIMLFAC
 40
1.0
  9
$DIMTOFL
 70
     1
  9
$DIMTVP
 40
0.0
  9
$DIMTIX
 70
     0
  9
$DIMSOXD
 70
     0
  9
$DIMSAH
 70
     0
  9
$DIMBLK1
  1

  9
$DIMBLK2
  1

  9
$DIMSTYLE
  2
ISO-25
  9
$DIMCLRD
 70
     0
  9
$DIMCLRE
 70
     0
  9
$DIMCLRT
 70
     0
  9
$DIMTFAC
 40
1.0
  9
$DIMGAP
 40
0.625
  9
$DIMJUST
 70
     0
  9
$DIMSD1
 70
     0
  9
$DIMSD2
 70
     0
  9
$DIMTOLJ
 70
     0
  9
$DIMTZIN
 70
     8
  9
$DIMALTZ
 70
     0
  9
$DIMALTTZ
 70
     0
  9
$DIMUPT
 70
     0
  9
$DIMDEC
 70
     2
  9
$DIMTDEC
 70
     2
  9
$DIMALTU
 70
     2
  9
$DIMALTTD
 70
     3
  9
$DIMTXSTY
  7
Standard
  9
$DIMAUNIT
 70
     0
  9
$DIMADEC
 70
     0
  9
$DIMALTRND
 40
0.0
  9
$DIMAZIN
 70
     0
  9
$DIMDSEP
 70
    44
  9
$DIMATFIT
 70
     3
  9
$DIMFRAC
 70
     0
  9
$DIMLDRBLK
  1

  9
$DIMLUNIT
 70
     2
  9
$DIMLWD
 70
    -2
  9
$DIMLWE
 70
    -2
  9
$DIMTMOVE
 70
     0
  9
$LUNITS
 70
     2
  9
$LUPREC
 70
     4
  9
$SKETCHINC
 40
1.0
  9
$FILLETRAD
 40
0.0
  9
$AUNITS
 70
     0
  9
$AUPREC
 70
     0
  9
$MENU
  1
.
  9
$ELEVATION
 40
0.0
  9
$PELEVATION
 40
0.0
  9
$THICKNESS
 40
0.0
  9
$LIMCHECK
 70
     0
  9
$CHAMFERA
 40
0.0
  9
$CHAMFERB
 40
0.0
  9
$CHAMFERC
 40
0.0
  9
$CHAMFERD
 40
0.0
  9
$SKPOLY
 70
     0
  9
$TDCREATE
 40
2460312.625706019
  9
$TDUCREATE
 40
2460312.334039352
  9
$TDUPDATE
 40
2460312.648564815
  9
$TDUUPDATE
 40
2460312.356898148
  9
$TDINDWG
 40
0.0082986111
  9
$TDUSRTIMER
 40
0.0082986111
  9
$USRTIMER
 70
     1
  9
$ANGBASE
 50
0.0
  9
$ANGDIR
 70
     0
  9
$PDMODE
 70
     0
  9
$PDSIZE
 40
0.0
  9
$PLINEWID
 40
0.0
  9
$SPLFRAME
 70
     0
  9
$SPLINETYPE
 70
     6
  9
$SPLINESEGS
 70
     8
  9
$HANDSEED
  5
2A2C
  9
$SURFTAB1
 70
     6
  9
$SURFTAB2
 70
     6
  9
$SURFTYPE
 70
     6
  9
$SURFU
 70
     6
  9
$SURFV
 70
     6
  9
$UCSBASE
  2

  9
$UCSNAME
  2

  9
$UCSORG
 10
0.0
 20
0.0
 30
0.0
  9
$UCSXDIR
 10
1.0
 20
0.0
 30
0.0
  9
$UCSYDIR
 10
0.0
 20
1.0
 30
0.0
  9
$UCSORTHOREF
  2

  9
$UCSORTHOVIEW
 70
     0
  9
$UCSORGTOP
 10
0.0
 20
0.0
 30
0.0
  9
$UCSORGBOTTOM
 10
0.0
 20
0.0
 30
0.0
  9
$UCSORGLEFT
 10
0.0
 20
0.0
 30
0.0
  9
$UCSORGRIGHT
 10
0.0
 20
0.0
 30
0.0
  9
$UCSORGFRONT
 10
0.0
 20
0.0
 30
0.0
  9
$UCSORGBACK
 10
0.0
 20
0.0
 30
0.0
  9
$PUCSBASE
  2

  9
$PUCSNAME
  2

  9
$PUCSORG
 10
0.0
 20
0.0
 30
0.0
  9
$PUCSXDIR
 10
1.0
 20
0.0
 30
0.0
  9
$PUCSYDIR
 10
0.0
 20
1.0
 30
0.0
  9
$PUCSORTHOREF
  2

  9
$PUCSORTHOVIEW
 70
     0
  9
$PUCSORGTOP
 10
0.0
 20
0.0
 30
0.0
  9
$PUCSORGBOTTOM
 10
0.0
 20
0.0
 30
0.0
  9
$PUCSORGLEFT
 10
0.0
 20
0.0
 30
0.0
  9
$PUCSORGRIGHT
 10
0.0
 20
0.0
 30
0.0
  9
$PUCSORGFRONT
 10
0.0
 20
0.0
 30
0.0
  9
$PUCSORGBACK
 10
0.0
 20
0.0
 30
0.0
  9
$USERI1
 70
     0
  9
$USERI2
 70
     0
  9
$USERI3
 70
     0
  9
$USERI4
 70
     0
  9
$USERI5
 70
     0
  9
$USERR1
 40
0.0
  9
$USERR2
 40
0.0
  9
$USERR3
 40
0.0
  9
$USERR4
 40
0.0
  9
$USERR5
 40
0.0
  9
$WORLDVIEW
 70
     1
  9
$SHADEDGE
 70
     3
  9
$SHADEDIF
 70
    70
  9
$TILEMODE
 70
     1
  9
$MAXACTVP
 70
    48
  9
$PINSBASE
 10
0.0
 20
0.0
 30
0.0
  9
$PLIMCHECK
 70
     0
  9
$PEXTMIN
 10
0.0
 20
0.0
 30
0.0
  9
$PEXTMAX
 10
0.0
 20
0.0
 30
0.0
  9
$PLIMMIN
 10
0.0
 20
0.0
  9
$PLIMMAX
 10
12.0
 20
9.0
  9
$UNITMODE
 70
     0
  9
$VISRETAIN
 70
     1
  9
$PLINEGEN
 70
     0
  9
$PSLTSCALE
 70
     1
  9
$TREEDEPTH
 70
  3020
  9
$CMLSTYLE
  2
Standard
  9
$CMLJUST
 70
     0
  9
$CMLSCALE
 40
20.0
  9
$PROXYGRAPHICS
 70
     1
  9
$MEASUREMENT
 70
     1
  9
$CELWEIGHT
370
    -1
  9
$ENDCAPS
280
     0
  9
$JOINSTYLE
280
     0
  9
$LWDISPLAY
290
     0
  9
$INSUNITS
 70
     4
  9
$HYPERLINKBASE
  1

  9
$STYLESHEET
  1

  9
$XEDIT
290
     1
  9
$CEPSNTYPE
380
     0
  9
$PSTYLEMODE
290
     1
  9
$FINGERPRINTGUID
  2
{E22E2D47-196F-7340-A655-47C6E5B5DA73}
  9
$VERSIONGUID
  2
{35DFAA77-01C6-0A48-92FD-2D78997BD883}
  9
$EXTNAMES
290
     1
  9
$PSVPSCALE
 40
0.0
  9
$OLESTARTUP
290
     0
  0
ENDSEC
  0
SECTION
  2
CLASSES
  0
CLASS
  1
ACDBDICTIONARYWDFLT
  2
AcDbDictionaryWithDefault
  3
ObjectDBX Classes
 90
        0
280
     0
281
     0
  0
CLASS
  1
ACDBPLACEHOLDER
  2
AcDbPlaceHolder
  3
ObjectDBX Classes
 90
        0
280
     0
281
     0
  0
CLASS
  1
LAYOUT
  2
AcDbLayout
  3
ObjectDBX Classes
 90
        0
280
     0
281
     0
  0
CLASS
  1
DICTIONARYVAR
  2
AcDbDictionaryVar
  3
ObjectDBX Classes
 90
        0
280
     0
281
     0
  0
CLASS
  1
TABLESTYLE
  2
AcDbTableStyle
  3
ObjectDBX Classes
 90
     4095
280
     0
281
     0
  0
CLASS
  1
MATERIAL
  2
AcDbMaterial
  3
ObjectDBX Classes
 90
     1153
280
     0
281
     0
  0
CLASS
  1
VISUALSTYLE
  2
AcDbVisualStyle
  3
ObjectDBX Classes
 90
     4095
280
     0
281
     0
  0
CLASS
  1
SCALE
  2
AcDbScale
  3
ObjectDBX Classes
 90
     1153
280
     0
281
     0
  0
CLASS
  1
MLEADERSTYLE
  2
AcDbMLeaderStyle
  3
ACDB_MLEADERSTYLE_CLASS
 90
     4095
280
     0
281
     0
  0
CLASS
  1
CELLSTYLEMAP
  2
AcDbCellStyleMap
  3
ObjectDBX Classes
 90
     1152
280
     0
281
     0
  0
CLASS
  1
EXACXREFPANELOBJECT
  2
ExAcXREFPanelObject
  3
EXAC_ESW
 90
    33793
280
     0
281
     0
  0
CLASS
  1
NPOCOLLECTION
  2
AcDbImpNonPersistentObjectsCollection
  3
ObjectDBX Classes
 90
    33921
280
     0
281
     0
  0
CLASS
  1
LAYER_INDEX
  2
AcDbLayerIndex
  3
ObjectDBX Classes
 90
    32768
280
     0
281
     0
  0
CLASS
  1
SPATIAL_INDEX
  2
AcDbSpatialIndex
  3
ObjectDBX Classes
 90
    32768
280
     0
281
     0
  0
CLASS
  1
IDBUFFER
  2
AcDbIdBuffer
  3
ObjectDBX Classes
 90
    32768
280
     0
281
     0
  0
CLASS
  1
ACDBSECTIONVIEWSTYLE
  2
AcDbSectionViewStyle
  3
ObjectDBX Classes
 90
     1025
280
     0
281
     0
  0
CLASS
  1
ACDBDETAILVIEWSTYLE
  2
AcDbDetailViewStyle
  3
ObjectDBX Classes
 90
     1025
280
     0
281
     0
  0
CLASS
  1
XRECORD
  2
AcDbXrecord
  3
ObjectDBX Classes
 90
        0
280
     0
281
     0
  0
ENDSEC
  0
SECTION
  2
TABLES
  0
TABLE
  2
VPORT
  5
8
102
{ACAD_XDICTIONARY
360
293A
102
}
330
0
100
AcDbSymbolTable
 70
     1
  0
VPORT
  5
EA
330
8
100
AcDbSymbolTableRecord
100
AcDbViewportTableRecord
  2
*Active
 70
     0
 10
0.0
 20
0.0
 11
1.0
 21
1.0
 12
32.92785721706219
 22
-44.14938307768827
 13
0.0
 23
0.0
 14
10.0
 24
10.0
 15
10.0
 25
10.0
 16
0.0
 26
0.0
 36
1.0
 17
0.0
 27
0.0
 37
0.0
 40
367.128392329453
 41
0.9846153846153846
 42
50.0
 43
0.0
 44
0.0
 50
0.0
 51
0.0
 71
     0
 72
  1000
 73
     1
 74
     3
 75
     0
 76
     1
 77
     0
 78
     0
281
     0
 65
     1
110
0.0
120
0.0
130
0.0
111
1.0
121
0.0
131
0.0
112
0.0
122
1.0
132
0.0
 79
     0
146
0.0
1001
ACAD_NAV_VCDISPLAY
1070
     3
  0
ENDTAB
  0
TABLE
  2
LTYPE
  5
5
330
0
100
AcDbSymbolTable
 70
     1
  0
LTYPE
  5
14
330
5
100
AcDbSymbolTableRecord
100
AcDbLinetypeTableRecord
  2
ByBlock
 70
     0
  3

 72
    65
 73
     0
 40
0.0
  0
LTYPE
  5
15
330
5
100
AcDbSymbolTableRecord
100
AcDbLinetypeTableRecord
  2
ByLayer
 70
     0
  3

 72
    65
 73
     0
 40
0.0
  0
LTYPE
  5
16
330
5
100
AcDbSymbolTableRecord
100
AcDbLinetypeTableRecord
  2
Continuous
 70
     0
  3
Solid line
 72
    65
 73
     0
 40
0.0
  0
ENDTAB
  0
TABLE
  2
LAYER
  5
2
102
{ACAD_XDICTIONARY
360
1FF
102
}
330
0
100
AcDbSymbolTable
 70
     1
  0
LAYER
  5
10
102
{ACAD_XDICTIONARY
360
13C
102
}
330
2
100
AcDbSymbolTableRecord
100
AcDbLayerTableRecord
  2
0
 70
     0
 62
     7
  6
Continuous
370
    -3
390
F
  0
ENDTAB
  0
TABLE
  2
STYLE
  5
3
330
0
100
AcDbSymbolTable
 70
     1
  0
STYLE
  5
11
330
3
100
AcDbSymbolTableRecord
100
AcDbTextStyleTableRecord
  2
Standard
 70
     0
 40
0.0
 41
1.0
 50
0.0
 71
     0
 42
2.5
  3
arial.ttf
  4

1001
ACAD
1000
Arial
1071
       34
  0
ENDTAB
  0
TABLE
  2
VIEW
  5
6
330
0
100
AcDbSymbolTable
 70
     0
  0
ENDTAB
  0
TABLE
  2
UCS
  5
7
330
0
100
AcDbSymbolTable
 70
     0
  0
ENDTAB
  0
TABLE
  2
APPID
  5
9
330
0
100
AcDbSymbolTable
 70
     8
  0
APPID
  5
12
330
9
100
AcDbSymbolTableRecord
100
AcDbRegAppTableRecord
  2
ACAD
 70
     0
  0
APPID
  5
9E
330
9
100
AcDbSymbolTableRecord
100
AcDbRegAppTableRecord
  2
ACAD_PSEXT
 70
     0
  0
APPID
  5
133
330
9
100
AcDbSymbolTableRecord
100
AcDbRegAppTableRecord
  2
AcadAnnoPO
 70
     0
  0
APPID
  5
134
330
9
100
AcDbSymbolTableRecord
100
AcDbRegAppTableRecord
  2
AcadAnnotative
 70
     0
  0
APPID
  5
135
330
9
100
AcDbSymbolTableRecord
100
AcDbRegAppTableRecord
  2
ACAD_DSTYLE_DIMJAG
 70
     0
  0
APPID
  5
136
330
9
100
AcDbSymbolTableRecord
100
AcDbRegAppTableRecord
  2
ACAD_DSTYLE_DIMTALN
 70
     0
  0
APPID
  5
165
330
9
100
AcDbSymbolTableRecord
100
AcDbRegAppTableRecord
  2
ACAD_MLEADERVER
 70
     0
  0
APPID
  5
217
330
9
100
AcDbSymbolTableRecord
100
AcDbRegAppTableRecord
  2
ACAD_NAV_VCDISPLAY
 70
     0
  0
ENDTAB
  0
TABLE
  2
DIMSTYLE
  5
A
330
0
100
AcDbSymbolTable
 70
     1
100
AcDbDimStyleTable
 71
     0
  0
DIMSTYLE
105
27
330
A
100
AcDbSymbolTableRecord
100
AcDbDimStyleTableRecord
  2
ISO-25
 70
     0
 41
2.5
 42
0.625
 43
3.75
 44
1.25
 73
     0
 74
     0
 77
     1
 78
     8
140
2.5
141
2.5
143
0.03937007874016
147
0.625
171
     3
172
     1
271
     2
272
     2
274
     3
278
    44
283
     0
284
     8
340
11
  0
ENDTAB
  0
TABLE
  2
BLOCK_RECORD
  5
1
330
0
100
AcDbSymbolTable
 70
     7
  0
BLOCK_RECORD
  5
1F
102
{ACAD_XDICTIONARY
360
1CE
102
}
330
1
100
AcDbSymbolTableRecord
100
AcDbBlockTableRecord
  2
*Model_Space
340
22
  0
BLOCK_RECORD
  5
D2
102
{ACAD_XDICTIONARY
360
28ED
102
}
330
1
100
AcDbSymbolTableRecord
100
AcDbBlockTableRecord
  2
*Paper_Space
340
D3
  0
BLOCK_RECORD
  5
D6
102
{ACAD_XDICTIONARY
360
28EF
102
}
330
1
100
AcDbSymbolTableRecord
100
AcDbBlockTableRecord
  2
*Paper_Space0
340
D7
  0
BLOCK_RECORD
  5
26EE
330
1
100
AcDbSymbolTableRecord
100
AcDbBlockTableRecord
  2
TU_S12_SKR-Front
340
0
102
{BLKREFS
331
28E3
102
}
  0
BLOCK_RECORD
  5
2746
330
1
100
AcDbSymbolTableRecord
100
AcDbBlockTableRecord
  2
TU_S12_SKR-Left
340
0
102
{BLKREFS
331
28E4
102
}
  0
BLOCK_RECORD
  5
2794
330
1
100
AcDbSymbolTableRecord
100
AcDbBlockTableRecord
  2
TU_S12_SKR-Right
340
0
102
{BLKREFS
331
28E5
102
}
  0
BLOCK_RECORD
  5
27F1
330
1
100
AcDbSymbolTableRecord
100
AcDbBlockTableRecord
  2
TU_S12_SKR-Top
340
0
102
{BLKREFS
331
28E6
102
}
  0
BLOCK_RECORD
  5
282B
330
1
100
AcDbSymbolTableRecord
100
AcDbBlockTableRecord
  2
TU_S12_SKR-Bottom
340
0
102
{BLKREFS
331
28E7
102
}
  0
BLOCK_RECORD
  5
2853
330
1
100
AcDbSymbolTableRecord
100
AcDbBlockTableRecord
  2
TU_S12_SKR-ISO
340
0
102
{BLKREFS
331
28E8
102
}
  0
ENDTAB
  0
ENDSEC
  0
SECTION
  2
BLOCKS
  0
BLOCK
  5
20
330
1F
100
AcDbEntity
  8
0
100
AcDbBlockBegin
  2
*Model_Space
 70
     0
 10
0.0
 20
0.0
 30
0.0
  3
*Model_Space
  1

  0
ENDBLK
  5
21
330
1F
100
AcDbEntity
  8
0
100
AcDbBlockEnd
  0
BLOCK
  5
D4
330
D2
100
AcDbEntity
 67
     1
  8
0
100
AcDbBlockBegin
  2
*Paper_Space
 70
     0
 10
0.0
 20
0.0
 30
0.0
  3
*Paper_Space
  1

  0
ENDBLK
  5
D5
330
D2
100
AcDbEntity
 67
     1
  8
0
100
AcDbBlockEnd
  0
BLOCK
  5
D8
330
D6
100
AcDbEntity
 67
     1
  8
0
100
AcDbBlockBegin
  2
*Paper_Space0
 70
     0
 10
0.0
 20
0.0
 30
0.0
  3
*Paper_Space0
  1

  0
ENDBLK
  5
D9
330
D6
100
AcDbEntity
 67
     1
  8
0
100
AcDbBlockEnd
  0
BLOCK
  5
26EF
330
26EE
100
AcDbEntity
  8
0
100
AcDbBlockBegin
  2
TU_S12_SKR-Front
 70
     0
 10
0.0
 20
0.0
 30
0.0
  3
TU_S12_SKR-Front
  1

  0
ARC
  5
26F1
330
26EE
100
AcDbEntity
  8
0
100
AcDbCircle
 10
-17.10799999999998
 20
-4.250000000000007
 30
0.0
 40
1.999999999999999
100
AcDbArc
 50
90.0
 51
180.0
  0
ARC
  5
26F2
330
26EE
100
AcDbEntity
  8
0
100
AcDbCircle
 10
-17.108
 20
-46.00000000000001
 30
0.0
 40
2.0
100
AcDbArc
 50
180.0
 51
270.0
  0
ARC
  5
26F3
330
26EE
100
AcDbEntity
  8
0
100
AcDbCircle
 10
18.89199999999998
 20
-46.00000000000001
 30
0.0
 40
2.0
100
AcDbArc
 50
270.0
 51
0.0
  0
ARC
  5
26F4
330
26EE
100
AcDbEntity
  8
0
100
AcDbCircle
 10
18.89199999999997
 20
-34.94511068481092
 30
0.0
 40
2.0
100
AcDbArc
 50
0.0
 51
70.00000000000034
  0
ARC
  5
26F5
330
26EE
100
AcDbEntity
  8
0
100
AcDbCircle
 10
-17.10799999999999
 20
4.249999999999996
 30
0.0
 40
1.999999999999999
100
AcDbArc
 50
180.0
 51
270.0
  0
ELLIPSE
  5
26F6
330
26EE
100
AcDbEntity
  8
0
100
AcDbEllipse
 10
62.39441554104971
 20
45.99999999999994
 30
0.0
 11
0.0
 21
2.0
 31
0.0
210
0.0
220
0.0
230
1.0
 40
0.8660254037844389
 41
5.49778714378214
 42
6.283185307179586
  0
ELLIPSE
  5
26F7
330
26EE
100
AcDbEntity
  8
0
100
AcDbEllipse
 10
63.89441554104973
 20
45.99999999999994
 30
0.0
 11
0.0000000000000001
 21
2.0
 31
0.0
210
0.0
220
0.0
230
1.0
 40
0.8660254037844389
 41
5.497787143782137
 42
6.283185307179586
  0
LINE
  5
26F8
330
26EE
100
AcDbEntity
  8
0
100
AcDbLine
 10
63.89441554104973
 20
47.99999999999994
 30
0.0
 11
62.39441554104971
 21
47.99999999999994
 31
0.0
  0
ELLIPSE
  5
26F9
330
26EE
100
AcDbEntity
  8
0
100
AcDbEllipse
 10
81.73140065762945
 20
-46.00000000000004
 30
0.0
 11
0.0000000000000001
 21
-2.0
 31
0.0
210
0.0
220
0.0
230
1.0
 40
0.8660254037844406
 41
0.0
 42
1.570796326794896
  0
ELLIPSE
  5
26FA
330
26EE
100
AcDbEntity
  8
0
100
AcDbEllipse
 10
81.73140065762945
 20
43.99999999999995
 30
0.0
 11
0.0
 21
2.0
 31
0.0
210
0.0
220
0.0
230
1.0
 40
0.8660254037844389
 41
4.712388980384684
 42
6.283185307179583
  0
ELLIPSE
  5
26FB
330
26EE
100
AcDbEntity
  8
0
100
AcDbEllipse
 10
78.55172527581377
 20
43.99999999999995
 30
0.0
 11
-0.0000000000000014
 21
2.0
 31
0.0
210
0.0
220
0.0
230
1.0
 40
0.8660254037844389
 41
0.0
 42
0.7853981633974448
  0
ELLIPSE
  5
26FC
330
26EE
100
AcDbEntity
  8
0
100
AcDbEllipse
 10
83.23140065762945
 20
43.99999999999995
 30
0.0
 11
-0.0000000000000001
 21
2.0
 31
0.0
210
0.0
220
0.0
230
1.0
 40
0.8660254037844406
 41
4.712388980384689
 42
6.283185307179586
  0
ELLIPSE
  5
26FD
330
26EE
100
AcDbEntity
  8
0
100
AcDbEllipse
 10
83.23140065762945
 20
-46.00000000000004
 30
0.0
 11
0.0
 21
-2.0
 31
0.0
210
0.0
220
0.0
230
1.0
 40
0.8660254037844389
 41
0.000000000000003
 42
1.5707963267949
  0
LINE
  5
26FE
330
26EE
100
AcDbEntity
  8
0
100
AcDbLine
 10
83.23140065762945
 20
45.99999999999996
 30
0.0
 11
81.73140065762945
 21
45.99999999999996
 31
0.0
  0
LINE
  5
26FF
330
26EE
100
AcDbEntity
  8
0
100
AcDbLine
 10
81.73140065762945
 20
-48.00000000000004
 30
0.0
 11
83.23140065762945
 21
-48.00000000000004
 31
0.0
  0
ARC
  5
2700
330
26EE
100
AcDbEntity
  8
0
100
AcDbCircle
 10
18.892
 20
34.94511068481084
 30
0.0
 40
2.0
100
AcDbArc
 50
290.0
 51
0.0
  0
ARC
  5
2701
330
26EE
100
AcDbEntity
  8
0
100
AcDbCircle
 10
18.89200000000002
 20
45.99999999999996
 30
0.0
 40
2.0
100
AcDbArc
 50
0.0
 51
90.0
  0
ARC
  5
2702
330
26EE
100
AcDbEntity
  8
0
100
AcDbCircle
 10
-17.10799999999996
 20
46.0
 30
0.0
 40
1.999999999999999
100
AcDbArc
 50
89.99999999999992
 51
180.0
  0
LINE
  5
2703
330
26EE
100
AcDbEntity
  8
0
100
AcDbLine
 10
-17.10799999999998
 20
-2.250000000000009
 30
0.0
 11
-1.608
 21
-2.250000000000007
 31
0.0
  0
LINE
  5
2704
330
26EE
100
AcDbEntity
  8
0
100
AcDbLine
 10
-19.108
 20
-46.00000000000001
 30
0.0
 11
-19.10799999999998
 21
-4.250000000000007
 31
0.0
  0
LINE
  5
2705
330
26EE
100
AcDbEntity
  8
0
100
AcDbLine
 10
-1.417401076758498
 20
-48.0
 30
0.0
 11
-17.108
 21
-48.00000000000001
 31
0.0
  0
LINE
  5
2706
330
26EE
100
AcDbEntity
  8
0
100
AcDbLine
 10
18.89199999999998
 20
-48.00000000000001
 30
0.0
 11
3.201401076758481
 21
-48.00000000000001
 31
0.0
  0
LINE
  5
2707
330
26EE
100
AcDbEntity
  8
0
100
AcDbLine
 10
20.89199999999998
 20
-34.94511068481092
 30
0.0
 11
20.89199999999998
 21
-46.00000000000001
 31
0.0
  0
LINE
  5
2708
330
26EE
100
AcDbEntity
  8
0
100
AcDbLine
 10
18.6598279944173
 20
-32.73225144059713
 30
0.0
 11
19.5760402866513
 21
-33.0657254432391
 31
0.0
  0
LINE
  5
2709
330
26EE
100
AcDbEntity
  8
0
100
AcDbLine
 10
-1.99870839975061
 20
-29.08959409235754
 30
0.0
 11
18.6598279944173
 21
-32.73225144059713
 31
0.0
  0
ARC
  5
270A
330
26EE
100
AcDbEntity
  8
0
100
AcDbCircle
 10
-1.608000000000016
 20
-26.87377664808006
 30
0.0
 40
2.25
100
AcDbArc
 50
89.9999999999995
 51
259.9999991462263
  0
LINE
  5
270B
330
26EE
100
AcDbEntity
  8
0
100
AcDbLine
 10
-1.608000000000001
 20
2.250000000000004
 30
0.0
 11
-17.10799999999999
 21
2.249999999999996
 31
0.0
  0
LINE
  5
270C
330
26EE
100
AcDbEntity
  8
0
100
AcDbLine
 10
59.44856701825587
 20
47.99999999999994
 30
0.0
 11
62.39441554104971
 21
47.99999999999994
 31
0.0
  0
LINE
  5
270D
330
26EE
100
AcDbEntity
  8
0
100
AcDbLine
 10
12.24830149999219
 20
28.16283168711118
 30
0.0
 11
59.44856701825587
 21
47.99999999999994
 31
0.0
  0
LINE
  5
270E
330
26EE
100
AcDbEntity
  8
0
100
AcDbLine
 10
-0.1080000000000023
 20
25.64702865558788
 30
0.0
 11
12.24830149999219
 21
28.16283168711118
 31
0.0
  0
ELLIPSE
  5
270F
330
26EE
100
AcDbEntity
  8
0
100
AcDbEllipse
 10
-0.3245063509461191
 20
-0.0000000000000009
 30
0.0
 11
-0.0000000000000005
 21
-2.25
 31
0.0
210
0.0
220
0.0
230
1.0
 40
0.8660254037844389
 41
0.1113410143409691
 42
3.030251639248824
  0
LINE
  5
2710
330
26EE
100
AcDbEntity
  8
0
100
AcDbLine
 10
12.24830149999216
 20
-28.16283168711125
 30
0.0
 11
-0.1079999999999948
 21
-25.64702865558793
 31
0.0
  0
LINE
  5
2711
330
26EE
100
AcDbEntity
  8
0
100
AcDbLine
 10
59.44856701825585
 20
-48.00000000000005
 30
0.0
 11
12.24830149999216
 21
-28.16283168711125
 31
0.0
  0
LINE
  5
2712
330
26EE
100
AcDbEntity
  8
0
100
AcDbLine
 10
81.73140065762945
 20
-48.00000000000004
 30
0.0
 11
59.44856701825585
 21
-48.00000000000005
 31
0.0
  0
LINE
  5
2713
330
26EE
100
AcDbEntity
  8
0
100
AcDbLine
 10
83.46345146519835
 20
43.99999999999995
 30
0.0
 11
83.46345146519835
 21
-46.00000000000004
 31
0.0
  0
LINE
  5
2714
330
26EE
100
AcDbEntity
  8
0
100
AcDbLine
 10
78.55172527581377
 20
45.99999999999996
 30
0.0
 11
81.73140065762945
 21
45.99999999999996
 31
0.0
  0
LINE
  5
2715
330
26EE
100
AcDbEntity
  8
0
100
AcDbLine
 10
74.3701847254617
 20
38.73861278752584
 30
0.0
 11
74.37018472546171
 21
41.99999999999995
 31
0.0
  0
ELLIPSE
  5
2716
330
26EE
100
AcDbEntity
  8
0
100
AcDbEllipse
 10
71.55560216316231
 20
35.99999999999996
 30
0.0
 11
0.0
 21
-4.249999999999998
 31
0.0
210
0.0
220
0.0
230
1.0
 40
0.8660254037844387
 41
0.0
 42
2.271007882329197
  0
LINE
  5
2717
330
26EE
100
AcDbEntity
  8
0
100
AcDbLine
 10
70.25656405748565
 20
31.74999999999997
 30
0.0
 11
71.55560216316231
 21
31.74999999999996
 31
0.0
  0
ELLIPSE
  5
2718
330
26EE
100
AcDbEntity
  8
0
100
AcDbEllipse
 10
70.25656405748565
 20
35.99999999999996
 30
0.0
 11
0.0000000000000001
 21
-4.25
 31
0.0
210
0.0
220
0.0
230
1.0
 40
0.8660254037844381
 41
4.712388980384689
 42
6.283185307179586
  0
LINE
  5
2719
330
26EE
100
AcDbEntity
  8
0
100
AcDbLine
 10
66.57595609140177
 20
43.99999999999995
 30
0.0
 11
66.57595609140175
 21
35.99999999999996
 31
0.0
  0
LINE
  5
271A
330
26EE
100
AcDbEntity
  8
0
100
AcDbLine
 10
68.07595609140176
 20
43.99999999999995
 30
0.0
 11
68.07595609140176
 21
35.99999999999996
 31
0.0
  0
ELLIPSE
  5
271B
330
26EE
100
AcDbEntity
  8
0
100
AcDbEllipse
 10
71.75656405748565
 20
35.99999999999996
 30
0.0
 11
0.0000000000000001
 21
-4.25
 31
0.0
210
0.0
220
0.0
230
1.0
 40
0.8660254037844385
 41
4.712388980384689
 42
6.255881819928742
  0
LINE
  5
271C
330
26EE
100
AcDbEntity
  8
0
100
AcDbLine
 10
84.96345146519834
 20
43.99999999999995
 30
0.0
 11
84.96345146519834
 21
-46.00000000000004
 31
0.0
  0
LINE
  5
271D
330
26EE
100
AcDbEntity
  8
0
100
AcDbLine
 10
19.57604028665134
 20
33.06572544323902
 30
0.0
 11
18.65982799441733
 21
32.73225144059704
 31
0.0
  0
ARC
  5
271E
330
26EE
100
AcDbEntity
  8
0
100
AcDbCircle
 10
-1.607999999999992
 20
26.87377664808002
 30
0.0
 40
2.250000000000001
100
AcDbArc
 50
99.99999999999994
 51
269.9999999999998
  0
LINE
  5
271F
330
26EE
100
AcDbEntity
  8
0
100
AcDbLine
 10
18.65982799441733
 20
32.73225144059704
 30
0.0
 11
-1.998708399750586
 21
29.0895940923575
 31
0.0
  0
LINE
  5
2720
330
26EE
100
AcDbEntity
  8
0
100
AcDbLine
 10
20.89200000000002
 20
45.99999999999996
 30
0.0
 11
20.892
 21
34.94511068481084
 31
0.0
  0
LINE
  5
2721
330
26EE
100
AcDbEntity
  8
0
100
AcDbLine
 10
3.201401076758486
 20
47.99999999999998
 30
0.0
 11
18.89200000000002
 21
47.99999999999996
 31
0.0
  0
LINE
  5
2722
330
26EE
100
AcDbEntity
  8
0
100
AcDbLine
 10
-17.10799999999996
 20
48.0
 30
0.0
 11
-1.417401076758495
 21
48.0
 31
0.0
  0
LINE
  5
2723
330
26EE
100
AcDbEntity
  8
0
100
AcDbLine
 10
-19.10799999999999
 20
4.249999999999997
 30
0.0
 11
-19.10799999999996
 21
46.0
 31
0.0
  0
CIRCLE
  5
2724
330
26EE
100
AcDbEntity
  8
0
100
AcDbCircle
 10
-13.10799999999996
 20
-10.00000000000001
 30
0.0
 40
2.5
  0
CIRCLE
  5
2725
330
26EE
100
AcDbEntity
  8
0
100
AcDbCircle
 10
14.89200000000001
 20
-40.0
 30
0.0
 40
2.5
  0
CIRCLE
  5
2726
330
26EE
100
AcDbEntity
  8
0
100
AcDbCircle
 10
-13.10799999999996
 20
-40.0
 30
0.0
 40
2.5
  0
CIRCLE
  5
2727
330
26EE
100
AcDbEntity
  8
0
100
AcDbCircle
 10
14.89200000000001
 20
39.99999999999997
 30
0.0
 40
2.5
  0
CIRCLE
  5
2728
330
26EE
100
AcDbEntity
  8
0
100
AcDbCircle
 10
-13.10799999999996
 20
40.0
 30
0.0
 40
2.5
  0
CIRCLE
  5
2729
330
26EE
100
AcDbEntity
  8
0
100
AcDbCircle
 10
-13.10799999999996
 20
9.999999999999964
 30
0.0
 40
2.5
  0
LINE
  5
272A
330
26EE
100
AcDbEntity
  8
0
100
AcDbLine
 10
-1.417401076758498
 20
-48.0
 30
0.0
 11
0.8919999999999996
 21
-44.00000000000003
 31
0.0
  0
LINE
  5
272B
330
26EE
100
AcDbEntity
  8
0
100
AcDbLine
 10
0.8919999999999996
 20
-44.00000000000003
 30
0.0
 11
3.201401076758481
 21
-48.00000000000001
 31
0.0
  0
LINE
  5
272C
330
26EE
100
AcDbEntity
  8
0
100
AcDbLine
 10
3.201401076758486
 20
47.99999999999998
 30
0.0
 11
0.8919999999999852
 21
44.0
 31
0.0
  0
LINE
  5
272D
330
26EE
100
AcDbEntity
  8
0
100
AcDbLine
 10
0.8919999999999852
 20
44.0
 30
0.0
 11
-1.417401076758495
 21
48.0
 31
0.0
  0
LINE
  5
272E
330
26EE
100
AcDbEntity
  8
0
100
AcDbLine
 10
63.61916041244129
 20
47.41421356237303
 30
0.0
 11
66.57595609140177
 21
43.99999999999995
 31
0.0
  0
LINE
  5
272F
330
26EE
100
AcDbEntity
  8
0
100
AcDbLine
 10
66.57595609140177
 20
43.99999999999995
 30
0.0
 11
68.07595609140176
 21
43.99999999999995
 31
0.0
  0
LINE
  5
2730
330
26EE
100
AcDbEntity
  8
0
100
AcDbLine
 10
68.07595609140176
 20
43.99999999999995
 30
0.0
 11
65.11916041244131
 21
47.41421356237303
 31
0.0
  0
LINE
  5
2731
330
26EE
100
AcDbEntity
  8
0
100
AcDbLine
 10
74.37018472546171
 20
41.99999999999995
 30
0.0
 11
77.32698040442219
 21
45.41421356237305
 31
0.0
  0
ELLIPSE
  5
2732
330
26EE
100
AcDbEntity
  8
0
100
AcDbEllipse
 10
73.00656405748568
 20
-36.00000000000004
 30
0.0
 11
-0.000000000000001
 21
4.25
 31
0.0
210
0.0
220
0.0
230
1.0
 40
0.8660254037844385
 41
0.1821075340383725
 42
2.959485119551422
  0
ELLIPSE
  5
2733
330
26EE
100
AcDbEntity
  8
0
100
AcDbEllipse
 10
73.00656405748568
 20
-12.00000000000003
 30
0.0
 11
-0.0000000000000015
 21
4.25
 31
0.0
210
0.0
220
0.0
230
1.0
 40
0.8660254037844387
 41
0.1821075340383724
 42
2.959485119551422
  0
ELLIPSE
  5
2734
330
26EE
100
AcDbEntity
  8
0
100
AcDbEllipse
 10
73.00656405748569
 20
11.99999999999997
 30
0.0
 11
-0.000000000000001
 21
4.25
 31
0.0
210
0.0
220
0.0
230
1.0
 40
0.8660254037844385
 41
0.1821075340383725
 42
2.95948511955142
  0
ELLIPSE
  5
2735
330
26EE
100
AcDbEntity
  8
0
100
AcDbEllipse
 10
18.51776170926847
 20
16.0
 30
0.0
 11
0.0
 21
0.9999999999999932
 31
0.0
210
0.0
220
0.0
230
1.0
 40
0.8660254037844385
 41
0.0
 42
1.570796326794896
  0
ELLIPSE
  5
2736
330
26EE
100
AcDbEntity
  8
0
100
AcDbEllipse
 10
18.51776170926846
 20
-15.99999999999999
 30
0.0
 11
0.0
 21
-0.999999999999993
 31
0.0
210
0.0
220
0.0
230
1.0
 40
0.8660254037844387
 41
4.712388980384689
 42
6.283185307179586
  0
LINE
  5
2737
330
26EE
100
AcDbEntity
  8
0
100
AcDbLine
 10
17.65173630548404
 20
-15.99999999999999
 30
0.0
 11
17.65173630548404
 21
16.0
 31
0.0
  0
SPLINE
  5
2738
330
26EE
100
AcDbEntity
  8
0
100
AcDbSpline
210
0.0
220
0.0
230
1.0
 70
     8
 71
     3
 72
    26
 73
    22
 74
     0
 42
0.000000001
 43
0.0000000001
 40
0.0
 40
0.0
 40
0.0
 40
0.0
 40
0.4518783938630355
 40
0.4518783938630355
 40
0.8046733141331516
 40
0.8046733141331516
 40
1.102307134804385
 40
1.102307134804385
 40
1.382976767982776
 40
1.382976767982776
 40
1.658427273455999
 40
1.658427273455999
 40
1.933267426108032
 40
1.933267426108032
 40
2.211186834028896
 40
2.211186834028896
 40
2.49950597989215
 40
2.49950597989215
 40
2.816180014146004
 40
2.816180014146004
 40
3.141592653589793
 40
3.141592653589793
 40
3.141592653589793
 40
3.141592653589793
 10
71.75656405748568
 20
-31.75000000000004
 30
0.0
 10
72.1805137400346
 20
-31.75000000000004
 30
0.0
 10
72.60862178678609
 20
-31.85771160228711
 30
0.0
 10
73.36158380654146
 20
-32.27971780613
 30
0.0
 10
73.6866329081011
 20
-32.54610615756934
 30
0.0
 10
74.22062344026726
 20
-33.18694563379662
 30
0.0
 10
74.4387840925056
 20
-33.5375485049757
 30
0.0
 10
74.77346131957969
 20
-34.30118690447373
 30
0.0
 10
74.89480385360526
 20
-34.70912580869722
 30
0.0
 10
75.03321694630947
 20
-35.55004936459023
 30
0.0
 10
75.05212330670778
 20
-35.98211113946938
 30
0.0
 10
74.98755242588287
 20
-36.83077342760569
 30
0.0
 10
74.90434213063524
 20
-37.24711151075871
 30
0.0
 10
74.64834742970875
 20
-38.02658518600722
 30
0.0
 10
74.47474766830791
 20
-38.38876464944718
 30
0.0
 10
74.05860393054024
 20
-39.03362912615799
 30
0.0
 10
73.81418791498733
 20
-39.31257180462079
 30
0.0
 10
73.27245178978053
 20
-39.78034803097647
 30
0.0
 10
72.97327267835789
 20
-39.95788087921477
 30
0.0
 10
72.36805487153893
 20
-40.19367639983928
 30
0.0
 10
72.06186430432911
 20
-40.25000000000004
 30
0.0
 10
71.75656405748568
 20
-40.25000000000004
 30
0.0
  0
SPLINE
  5
2739
330
26EE
100
AcDbEntity
  8
0
100
AcDbSpline
210
0.0
220
0.0
230
1.0
 70
     8
 71
     3
 72
    26
 73
    22
 74
     0
 42
0.000000001
 43
0.0000000001
 40
0.0
 40
0.0
 40
0.0
 40
0.0
 40
0.4518783938630355
 40
0.4518783938630355
 40
0.8046733141331516
 40
0.8046733141331516
 40
1.102307134804385
 40
1.102307134804385
 40
1.382976767982776
 40
1.382976767982776
 40
1.658427273455999
 40
1.658427273455999
 40
1.933267426108032
 40
1.933267426108032
 40
2.211186834028896
 40
2.211186834028896
 40
2.49950597989215
 40
2.49950597989215
 40
2.816180014146004
 40
2.816180014146004
 40
3.141592653589793
 40
3.141592653589793
 40
3.141592653589793
 40
3.141592653589793
 10
71.75656405748568
 20
-7.750000000000026
 30
0.0
 10
72.1805137400346
 20
-7.750000000000026
 30
0.0
 10
72.6086217867861
 20
-7.857711602287103
 30
0.0
 10
73.36158380654146
 20
-8.279717806129978
 30
0.0
 10
73.68663290810111
 20
-8.546106157569324
 30
0.0
 10
74.22062344026727
 20
-9.186945633796602
 30
0.0
 10
74.4387840925056
 20
-9.537548504975688
 30
0.0
 10
74.77346131957969
 20
-10.30118690447372
 30
0.0
 10
74.89480385360526
 20
-10.7091258086972
 30
0.0
 10
75.03321694630948
 20
-11.55004936459022
 30
0.0
 10
75.05212330670778
 20
-11.98211113946936
 30
0.0
 10
74.98755242588288
 20
-12.83077342760567
 30
0.0
 10
74.90434213063526
 20
-13.24711151075869
 30
0.0
 10
74.64834742970876
 20
-14.02658518600721
 30
0.0
 10
74.47474766830793
 20
-14.38876464944716
 30
0.0
 10
74.05860393054026
 20
-15.03362912615797
 30
0.0
 10
73.81418791498733
 20
-15.31257180462077
 30
0.0
 10
73.27245178978055
 20
-15.78034803097646
 30
0.0
 10
72.9732726783579
 20
-15.95788087921476
 30
0.0
 10
72.36805487153893
 20
-16.19367639983928
 30
0.0
 10
72.06186430432912
 20
-16.25000000000003
 30
0.0
 10
71.75656405748568
 20
-16.25000000000003
 30
0.0
  0
SPLINE
  5
273A
330
26EE
100
AcDbEntity
  8
0
100
AcDbSpline
210
0.0
220
0.0
230
1.0
 70
     8
 71
     3
 72
    26
 73
    22
 74
     0
 42
0.000000001
 43
0.0000000001
 40
0.0
 40
0.0
 40
0.0
 40
0.0
 40
0.4518783938630355
 40
0.4518783938630355
 40
0.8046733141331516
 40
0.8046733141331516
 40
1.102307134804385
 40
1.102307134804385
 40
1.382976767982776
 40
1.382976767982776
 40
1.658427273455999
 40
1.658427273455999
 40
1.933267426108032
 40
1.933267426108032
 40
2.211186834028896
 40
2.211186834028896
 40
2.49950597989215
 40
2.49950597989215
 40
2.816180014146004
 40
2.816180014146004
 40
3.141592653589793
 40
3.141592653589793
 40
3.141592653589793
 40
3.141592653589793
 10
71.75656405748569
 20
16.24999999999997
 30
0.0
 10
72.18051374003461
 20
16.24999999999997
 30
0.0
 10
72.6086217867861
 20
16.14228839771289
 30
0.0
 10
73.36158380654147
 20
15.72028219387002
 30
0.0
 10
73.68663290810113
 20
15.45389384243067
 30
0.0
 10
74.22062344026729
 20
14.81305436620339
 30
0.0
 10
74.43878409250562
 20
14.46245149502431
 30
0.0
 10
74.77346131957971
 20
13.69881309552628
 30
0.0
 10
74.89480385360528
 20
13.29087419130279
 30
0.0
 10
75.03321694630949
 20
12.44995063540978
 30
0.0
 10
75.05212330670779
 20
12.01788886053064
 30
0.0
 10
74.98755242588289
 20
11.16922657239433
 30
0.0
 10
74.90434213063526
 20
10.75288848924131
 30
0.0
 10
74.64834742970876
 20
9.973414813992787
 30
0.0
 10
74.47474766830793
 20
9.61123535055284
 30
0.0
 10
74.05860393054026
 20
8.966370873842025
 30
0.0
 10
73.81418791498735
 20
8.687428195379222
 30
0.0
 10
73.27245178978055
 20
8.219651969023537
 30
0.0
 10
72.97327267835791
 20
8.042119120785235
 30
0.0
 10
72.36805487153894
 20
7.806323600160717
 30
0.0
 10
72.06186430432913
 20
7.749999999999968
 30
0.0
 10
71.75656405748569
 20
7.749999999999968
 30
0.0
  0
SPLINE
  5
273B
330
26EE
100
AcDbEntity
  8
0
100
AcDbSpline
210
0.0
220
0.0
230
1.0
 70
     8
 71
     3
 72
    20
 73
    16
 74
     0
 42
0.000000001
 43
0.0000000001
 40
0.0000000000000011
 40
0.0000000000000011
 40
0.0000000000000011
 40
0.0000000000000011
 40
0.3141592653589802
 40
0.3141592653589802
 40
0.6283185307179594
 40
0.6283185307179594
 40
0.9321602772774253
 40
0.9321602772774253
 40
1.156942468408927
 40
1.156942468408927
 40
1.359420359953779
 40
1.359420359953779
 40
1.55354953416545
 40
1.55354953416545
 40
1.570796326794896
 40
1.570796326794896
 40
1.570796326794896
 40
1.570796326794896
 10
18.51776170926847
 20
17.0
 30
0.0
 10
18.51776170926847
 20
17.0
 30
0.0
 10
18.51856161270698
 20
17.00135251969847
 30
0.0
 10
18.55024284392676
 20
16.98946619860531
 30
0.0
 10
18.58149636216806
 20
16.97489019773019
 30
0.0
 10
18.66857645652009
 20
16.90183530625357
 30
0.0
 10
18.72274702409672
 20
16.84431242551365
 30
0.0
 10
18.81488212146685
 20
16.70101402566925
 30
0.0
 10
18.85316307798092
 20
16.62678048993616
 30
0.0
 10
18.91446892958616
 20
16.46560892772774
 30
0.0
 10
18.93860114759961
 20
16.38075109042876
 30
0.0
 10
18.97123189763122
 20
16.20515919625008
 30
0.0
 10
18.98032814626576
 20
16.11486168495658
 30
0.0
 10
18.98180312723079
 20
16.01611912579492
 30
0.0
 10
18.98186332440622
 20
16.00805956295503
 30
0.0
 10
18.98186332440622
 20
16.0
 30
0.0
  0
LINE
  5
273C
330
26EE
100
AcDbEntity
  8
0
100
AcDbLine
 10
18.98186332440622
 20
16.0
 30
0.0
 11
18.98186332440622
 21
-15.99999999999999
 31
0.0
  0
SPLINE
  5
273D
330
26EE
100
AcDbEntity
  8
0
100
AcDbSpline
210
0.0
220
0.0
230
1.0
 70
     8
 71
     3
 72
    20
 73
    16
 74
     0
 42
0.000000001
 43
0.0000000001
 40
1.570796326794896
 40
1.570796326794896
 40
1.570796326794896
 40
1.570796326794896
 40
1.762539668429026
 40
1.762539668429026
 40
1.95622525341125
 40
1.95622525341125
 40
2.157028607657691
 40
2.157028607657691
 40
2.374846801663601
 40
2.374846801663601
 40
2.632282370422043
 40
2.632282370422043
 40
2.946441635781022
 40
2.946441635781022
 40
3.14159265358979
 40
3.14159265358979
 40
3.14159265358979
 40
3.14159265358979
 10
18.98186332440621
 20
-15.99999999999999
 30
0.0
 10
18.98186332440621
 20
-16.08960318398382
 30
0.0
 10
18.97430739258974
 20
-16.17918678282269
 30
0.0
 10
18.94534041933376
 20
-16.35148615954959
 30
0.0
 10
18.92380027825003
 20
-16.43408115487692
 30
0.0
 10
18.86994621076095
 20
-16.58735211888856
 30
0.0
 10
18.83729390566083
 20
-16.65742443055381
 30
0.0
 10
18.76559648709062
 20
-16.78208560186653
 30
0.0
 10
18.72632938711868
 20
-16.83477890556298
 30
0.0
 10
18.64726492733568
 20
-16.92273090671822
 30
0.0
 10
18.60900424654627
 20
-16.95298288200833
 30
0.0
 10
18.54671719481309
 20
-16.99314847630754
 30
0.0
 10
18.52852006838325
 20
-16.99778776761508
 30
0.0
 10
18.51784030302968
 20
-17.00022537992567
 30
0.0
 10
18.51776170926846
 20
-16.99999999999999
 30
0.0
 10
18.51776170926846
 20
-16.99999999999999
 30
0.0
  0
SPLINE
  5
273E
330
26EE
100
AcDbEntity
  8
0
100
AcDbSpline
210
0.0
220
0.0
230
1.0
 70
     8
 71
     3
 72
    10
 73
     6
 74
     0
 42
0.000000001
 43
0.0000000001
 40
0.0
 40
0.0
 40
0.0
 40
0.0
 40
0.0886369508136941
 40
0.0886369508136941
 40
0.1772739016373416
 40
0.1772739016373416
 40
0.1772739016373416
 40
0.1772739016373416
 10
-0.1079999999999784
 20
25.6470286555879
 30
0.0
 10
-0.3202249328900939
 20
25.48197720257589
 30
0.0
 10
-0.5466660000708163
 20
25.31754450267277
 30
0.0
 10
-1.017848303794481
 20
24.98744335675451
 30
0.0
 10
-1.260818780703659
 20
24.82301065683308
 30
0.0
 10
-1.505732597466365
 20
24.65795920380255
 30
0.0
  0
LINE
  5
273F
330
26EE
100
AcDbEntity
  8
0
100
AcDbLine
 10
-1.608
 20
2.250000000000007
 30
0.0
 11
-0.1650336932418392
 21
2.250000000000007
 31
0.0
  0
SPLINE
  5
2740
330
26EE
100
AcDbEntity
  8
0
100
AcDbSpline
210
0.0
220
0.0
230
1.0
 70
     8
 71
     3
 72
    10
 73
     6
 74
     0
 42
0.000000001
 43
0.0000000001
 40
0.0
 40
0.0
 40
0.0
 40
0.0
 40
0.0033190141477375
 40
0.0033190141477375
 40
0.0078572874875569
 40
0.0078572874875569
 40
0.0078572874875569
 40
0.0078572874875569
 10
-0.16503369324184
 20
2.25
 30
0.0
 10
-0.1553341315556067
 20
2.250000044194659
 30
0.0
 10
-0.1457616236699902
 20
2.248809440676828
 30
0.0
 10
-0.1234272448939894
 20
2.243342589256304
 30
0.0
 10
-0.1134319386915239
 20
2.238741297994062
 30
0.0
 10
-0.108
 20
2.236067977499791
 30
0.0
  0
SPLINE
  5
2741
330
26EE
100
AcDbEntity
  8
0
100
AcDbSpline
210
0.0
220
0.0
230
1.0
 70
     8
 71
     3
 72
    10
 73
     6
 74
     0
 42
0.000000001
 43
0.0000000001
 40
0.0
 40
0.0
 40
0.0
 40
0.0
 40
0.0032590625426254
 40
0.0032590625426254
 40
0.0055671261380544
 40
0.0055671261380544
 40
0.0055671261380544
 40
0.0055671261380544
 10
-1.505732597466366
 20
24.65795920380255
 30
0.0
 10
-1.514745848281112
 20
24.65190252686061
 30
0.0
 10
-1.532819138812637
 20
24.6403426953624
 30
0.0
 10
-1.573170881676118
 20
24.62679709638941
 30
0.0
 10
-1.590377799074763
 20
24.62377638058989
 30
0.0
 10
-1.607999999815408
 20
24.62377664808002
 30
0.0
  0
LINE
  5
2742
330
26EE
100
AcDbEntity
  8
0
100
AcDbLine
 10
-0.1650336932418392
 20
-2.250000000000016
 30
0.0
 11
-1.607999999999999
 21
-2.250000000000005
 31
0.0
  0
SPLINE
  5
2743
330
26EE
100
AcDbEntity
  8
0
100
AcDbSpline
210
0.0
220
0.0
230
1.0
 70
     8
 71
     3
 72
    10
 73
     6
 74
     0
 42
0.000000001
 43
0.0000000001
 40
0.0
 40
0.0
 40
0.0
 40
0.0
 40
0.005286660242894
 40
0.005286660242894
 40
0.0127516002422278
 40
0.0127516002422278
 40
0.0127516002422278
 40
0.0127516002422278
 10
-1.607999999815409
 20
-24.62377664808006
 30
0.0
 10
-1.590377799007792
 20
-24.62377638058995
 30
0.0
 10
-1.57317088154553
 20
-24.62679709641318
 30
0.0
 10
-1.532819138718585
 20
-24.64034269542239
 30
0.0
 10
-1.514745848248059
 20
-24.65190252688272
 30
0.0
 10
-1.505732597466367
 20
-24.65795920380259
 30
0.0
  0
SPLINE
  5
2744
330
26EE
100
AcDbEntity
  8
0
100
AcDbSpline
210
0.0
220
0.0
230
1.0
 70
     8
 71
     3
 72
    10
 73
     6
 74
     0
 42
0.000000001
 43
0.0000000001
 40
0.0
 40
0.0
 40
0.0
 40
0.0
 40
0.0886369508136885
 40
0.0886369508136885
 40
0.1772739016373231
 40
0.1772739016373231
 40
0.1772739016373231
 40
0.1772739016373231
 10
-1.505732597466367
 20
-24.65795920380259
 30
0.0
 10
-1.260818780731155
 20
-24.82301065681456
 30
0.0
 10
-1.017848303848924
 20
-24.98744335671776
 30
0.0
 10
-0.5466660001215606
 20
-25.31754450263591
 30
0.0
 10
-0.3202249329139123
 20
-25.48197720255743
 30
0.0
 10
-0.107999999999979
 20
-25.64702865558794
 30
0.0
  0
SPLINE
  5
2745
330
26EE
100
AcDbEntity
  8
0
100
AcDbSpline
210
0.0
220
0.0
230
1.0
 70
     8
 71
     3
 72
    10
 73
     6
 74
     0
 42
0.000000001
 43
0.0000000001
 40
0.0
 40
0.0
 40
0.0
 40
0.0
 40
0.0020454615074317
 40
0.0020454615074317
 40
0.0035413863171738
 40
0.0035413863171738
 40
0.0035413863171738
 40
0.0035413863171738
 10
-0.1079999999999995
 20
-2.236067977499791
 30
0.0
 10
-0.1134319386932839
 20
-2.238741297994923
 30
0.0
 10
-0.1234272448949053
 20
-2.243342589256532
 30
0.0
 10
-0.1457616236701653
 20
-2.248809440676867
 30
0.0
 10
-0.1553341315555612
 20
-2.25000004419466
 30
0.0
 10
-0.1650336932418392
 20
-2.25
 30
0.0
  0
ENDBLK
  5
26F0
330
26EE
100
AcDbEntity
  8
0
100
AcDbBlockEnd
  0
BLOCK
  5
2747
330
2746
100
AcDbEntity
  8
0
100
AcDbBlockBegin
  2
TU_S12_SKR-Left
 70
     0
 10
0.0
 20
0.0
 30
0.0
  3
TU_S12_SKR-Left
  1

  0
LINE
  5
2749
330
2746
100
AcDbEntity
  8
0
100
AcDbLine
 10
3.0
 20
-2.250000000000007
 30
0.0
 11
3.0
 21
-4.250000000000007
 31
0.0
  0
LINE
  5
274A
330
2746
100
AcDbEntity
  8
0
100
AcDbLine
 10
3.0
 20
-2.250000000000009
 30
0.0
 11
0.0
 21
-2.250000000000009
 31
0.0
  0
LINE
  5
274B
330
2746
100
AcDbEntity
  8
0
100
AcDbLine
 10
0.0
 20
-4.250000000000007
 30
0.0
 11
0.0
 21
-2.250000000000007
 31
0.0
  0
LINE
  5
274C
330
2746
100
AcDbEntity
  8
0
100
AcDbLine
 10
3.0
 20
-46.00000000000001
 30
0.0
 11
3.0
 21
-48.00000000000001
 31
0.0
  0
LINE
  5
274D
330
2746
100
AcDbEntity
  8
0
100
AcDbLine
 10
3.0
 20
4.249999999999997
 30
0.0
 11
3.0
 21
2.249999999999996
 31
0.0
  0
LINE
  5
274E
330
2746
100
AcDbEntity
  8
0
100
AcDbLine
 10
0.0
 20
2.249999999999996
 30
0.0
 11
0.0
 21
4.249999999999997
 31
0.0
  0
LINE
  5
274F
330
2746
100
AcDbEntity
  8
0
100
AcDbLine
 10
0.0
 20
2.249999999999996
 30
0.0
 11
3.0
 21
2.249999999999996
 31
0.0
  0
LINE
  5
2750
330
2746
100
AcDbEntity
  8
0
100
AcDbLine
 10
0.0
 20
46.0
 30
0.0
 11
0.0
 21
48.0
 31
0.0
  0
ELLIPSE
  5
2751
330
2746
100
AcDbEntity
  8
0
100
AcDbEllipse
 10
39.48771022627358
 20
45.99999999999994
 30
0.0
 11
0.0
 21
2.0
 31
0.0
210
0.0
220
0.0
230
1.0
 40
0.5
 41
5.49778714378214
 42
6.283185307179586
  0
ELLIPSE
  5
2752
330
2746
100
AcDbEntity
  8
0
100
AcDbEllipse
 10
50.65192378864667
 20
-46.00000000000004
 30
0.0
 11
-0.0000000000000001
 21
-2.0
 31
0.0
210
0.0
220
0.0
230
1.0
 40
0.4999999999999969
 41
0.0
 42
1.570796326794896
  0
ELLIPSE
  5
2753
330
2746
100
AcDbEntity
  8
0
100
AcDbEllipse
 10
50.65192378864669
 20
43.99999999999995
 30
0.0
 11
-0.0000000000000089
 21
2.0
 31
0.0
210
0.0
220
0.0
230
1.0
 40
0.5
 41
4.712388980384687
 42
6.283185307179586
  0
ELLIPSE
  5
2754
330
2746
100
AcDbEntity
  8
0
100
AcDbEllipse
 10
48.81613735101978
 20
43.99999999999995
 30
0.0
 11
0.0000000000000004
 21
2.0
 31
0.0
210
0.0
220
0.0
230
1.0
 40
0.5
 41
0.0
 42
0.7853981633974457
  0
ELLIPSE
  5
2755
330
2746
100
AcDbEntity
  8
0
100
AcDbEllipse
 10
46.21806113966646
 20
43.99999999999995
 30
0.0
 11
-0.0000000000000089
 21
2.0
 31
0.0
210
0.0
220
0.0
230
1.0
 40
0.5
 41
0.0
 42
0.7853981633974367
  0
LINE
  5
2756
330
2746
100
AcDbEntity
  8
0
100
AcDbLine
 10
48.81613735101976
 20
45.99999999999996
 30
0.0
 11
46.21806113966644
 21
45.99999999999996
 31
0.0
  0
LINE
  5
2757
330
2746
100
AcDbEntity
  8
0
100
AcDbLine
 10
0.0
 20
-48.00000000000001
 30
0.0
 11
0.0
 21
-46.00000000000001
 31
0.0
  0
LINE
  5
2758
330
2746
100
AcDbEntity
  8
0
100
AcDbLine
 10
0.0
 20
-48.00000000000001
 30
0.0
 11
3.0
 21
-48.00000000000001
 31
0.0
  0
LINE
  5
2759
330
2746
100
AcDbEntity
  8
0
100
AcDbLine
 10
3.0
 20
48.0
 30
0.0
 11
3.0
 21
46.0
 31
0.0
  0
LINE
  5
275A
330
2746
100
AcDbEntity
  8
0
100
AcDbLine
 10
3.0
 20
48.0
 30
0.0
 11
0.0
 21
48.0
 31
0.0
  0
LINE
  5
275B
330
2746
100
AcDbEntity
  8
0
100
AcDbLine
 10
3.0
 20
-46.00000000000001
 30
0.0
 11
3.0
 21
-4.250000000000007
 31
0.0
  0
LINE
  5
275C
330
2746
100
AcDbEntity
  8
0
100
AcDbLine
 10
0.0
 20
4.249999999999997
 30
0.0
 11
0.0
 21
46.0
 31
0.0
  0
LINE
  5
275D
330
2746
100
AcDbEntity
  8
0
100
AcDbLine
 10
37.78692378864671
 20
47.99999999999994
 30
0.0
 11
39.48771022627359
 21
47.99999999999994
 31
0.0
  0
LINE
  5
275E
330
2746
100
AcDbEntity
  8
0
100
AcDbLine
 10
10.53583778585535
 20
28.16283168711118
 30
0.0
 11
37.78692378864671
 21
47.99999999999994
 31
0.0
  0
LINE
  5
275F
330
2746
100
AcDbEntity
  8
0
100
AcDbLine
 10
3.401923788646685
 20
25.64702865558788
 30
0.0
 11
10.53583778585535
 21
28.16283168711118
 31
0.0
  0
ELLIPSE
  5
2760
330
2746
100
AcDbEntity
  8
0
100
AcDbEllipse
 10
3.276923788646679
 20
-0.0000000000000009
 30
0.0
 11
-0.0000000000000001
 21
-2.25
 31
0.0
210
0.0
220
0.0
230
1.0
 40
0.5
 41
0.1113410143409697
 42
3.030251639248825
  0
LINE
  5
2761
330
2746
100
AcDbEntity
  8
0
100
AcDbLine
 10
10.53583778585533
 20
-28.16283168711125
 30
0.0
 11
3.401923788646685
 21
-25.64702865558793
 31
0.0
  0
LINE
  5
2762
330
2746
100
AcDbEntity
  8
0
100
AcDbLine
 10
37.78692378864668
 20
-48.00000000000005
 30
0.0
 11
10.53583778585533
 21
-28.16283168711125
 31
0.0
  0
LINE
  5
2763
330
2746
100
AcDbEntity
  8
0
100
AcDbLine
 10
50.65192378864667
 20
-48.00000000000004
 30
0.0
 11
37.78692378864668
 21
-48.00000000000005
 31
0.0
  0
LINE
  5
2764
330
2746
100
AcDbEntity
  8
0
100
AcDbLine
 10
51.65192378864667
 20
43.99999999999995
 30
0.0
 11
51.65192378864666
 21
-46.00000000000004
 31
0.0
  0
LINE
  5
2765
330
2746
100
AcDbEntity
  8
0
100
AcDbLine
 10
48.81613735101976
 20
45.99999999999996
 30
0.0
 11
50.65192378864669
 21
45.99999999999996
 31
0.0
  0
LINE
  5
2766
330
2746
100
AcDbEntity
  8
0
100
AcDbLine
 10
46.40192378864667
 20
38.73861278752584
 30
0.0
 11
46.40192378864667
 21
41.99999999999995
 31
0.0
  0
ELLIPSE
  5
2767
330
2746
100
AcDbEntity
  8
0
100
AcDbEllipse
 10
44.77692378864667
 20
35.99999999999996
 30
0.0
 11
0.0
 21
-4.249999999999998
 31
0.0
210
0.0
220
0.0
230
1.0
 40
0.5
 41
0.0
 42
2.271007882329196
  0
LINE
  5
2768
330
2746
100
AcDbEntity
  8
0
100
AcDbLine
 10
44.02692378864667
 20
31.74999999999997
 30
0.0
 11
44.77692378864667
 21
31.74999999999996
 31
0.0
  0
ELLIPSE
  5
2769
330
2746
100
AcDbEntity
  8
0
100
AcDbEllipse
 10
44.02692378864667
 20
35.99999999999996
 30
0.0
 11
-0.0000000000000002
 21
-4.25
 31
0.0
210
0.0
220
0.0
230
1.0
 40
0.5000000000000009
 41
4.712388980384689
 42
6.283185307179586
  0
LINE
  5
276A
330
2746
100
AcDbEntity
  8
0
100
AcDbLine
 10
41.90192378864667
 20
43.99999999999995
 30
0.0
 11
41.90192378864666
 21
35.99999999999996
 31
0.0
  0
ELLIPSE
  5
276B
330
2746
100
AcDbEntity
  8
0
100
AcDbEllipse
 10
42.17884757729335
 20
35.99999999999996
 30
0.0
 11
-0.0000000000002166
 21
4.249999999999998
 31
0.0
210
0.0
220
0.0
230
1.0
 40
0.4999999999999996
 41
3.591454868162923
 42
5.412600535918568
  0
LINE
  5
276C
330
2746
100
AcDbEntity
  8
0
100
AcDbLine
 10
43.80384757729334
 20
38.73861278752584
 30
0.0
 11
43.80384757729335
 21
41.99999999999995
 31
0.0
  0
LINE
  5
276D
330
2746
100
AcDbEntity
  8
0
100
AcDbLine
 10
35.18884757729336
 20
-48.00000000000005
 30
0.0
 11
7.937761574502015
 21
-28.16283168711125
 31
0.0
  0
LINE
  5
276E
330
2746
100
AcDbEntity
  8
0
100
AcDbLine
 10
7.937761574502015
 20
-28.16283168711125
 30
0.0
 11
3.0
 21
-26.42151050733082
 31
0.0
  0
ELLIPSE
  5
276F
330
2746
100
AcDbEntity
  8
0
100
AcDbEllipse
 10
0.6788475772933628
 20
-0.0000000000000007
 30
0.0
 11
-0.0000000000000001
 21
-2.25
 31
0.0
210
0.0
220
0.0
230
1.0
 40
0.5
 41
0.1113410143409692
 42
3.030251639248824
  0
LINE
  5
2770
330
2746
100
AcDbEntity
  8
0
100
AcDbLine
 10
3.000000000000001
 20
26.42151050733075
 30
0.0
 11
7.937761574502033
 21
28.16283168711118
 31
0.0
  0
LINE
  5
2771
330
2746
100
AcDbEntity
  8
0
100
AcDbLine
 10
7.937761574502033
 20
28.16283168711118
 30
0.0
 11
35.18884757729339
 21
47.99999999999994
 31
0.0
  0
LINE
  5
2772
330
2746
100
AcDbEntity
  8
0
100
AcDbLine
 10
35.18884757729336
 20
-48.00000000000005
 30
0.0
 11
37.78692378864668
 21
-48.00000000000005
 31
0.0
  0
LINE
  5
2773
330
2746
100
AcDbEntity
  8
0
100
AcDbLine
 10
0.0
 20
-46.00000000000001
 30
0.0
 11
0.0
 21
-4.250000000000007
 31
0.0
  0
LINE
  5
2774
330
2746
100
AcDbEntity
  8
0
100
AcDbLine
 10
3.0
 20
4.249999999999997
 30
0.0
 11
3.0
 21
46.0
 31
0.0
  0
LINE
  5
2775
330
2746
100
AcDbEntity
  8
0
100
AcDbLine
 10
43.80384757729334
 20
38.73861278752584
 30
0.0
 11
46.40192378864667
 21
38.73861278752584
 31
0.0
  0
LINE
  5
2776
330
2746
100
AcDbEntity
  8
0
100
AcDbLine
 10
7.937761574502015
 20
-28.16283168711125
 30
0.0
 11
10.53583778585533
 21
-28.16283168711125
 31
0.0
  0
LINE
  5
2777
330
2746
100
AcDbEntity
  8
0
100
AcDbLine
 10
7.937761574502033
 20
28.16283168711118
 30
0.0
 11
10.53583778585535
 21
28.16283168711118
 31
0.0
  0
LINE
  5
2778
330
2746
100
AcDbEntity
  8
0
100
AcDbLine
 10
35.18884757729339
 20
47.99999999999994
 30
0.0
 11
37.78692378864671
 21
47.99999999999994
 31
0.0
  0
LINE
  5
2779
330
2746
100
AcDbEntity
  8
0
100
AcDbLine
 10
40.19481700746013
 20
47.41421356237303
 30
0.0
 11
41.90192378864667
 21
43.99999999999995
 31
0.0
  0
LINE
  5
277A
330
2746
100
AcDbEntity
  8
0
100
AcDbLine
 10
46.40192378864667
 20
41.99999999999995
 30
0.0
 11
48.10903056983322
 21
45.41421356237305
 31
0.0
  0
LINE
  5
277B
330
2746
100
AcDbEntity
  8
0
100
AcDbLine
 10
45.5109543584799
 20
45.41421356237306
 30
0.0
 11
43.80384757729335
 21
41.99999999999995
 31
0.0
  0
LINE
  5
277C
330
2746
100
AcDbEntity
  8
0
100
AcDbLine
 10
43.80384757729335
 20
41.99999999999995
 30
0.0
 11
46.40192378864667
 21
41.99999999999995
 31
0.0
  0
ELLIPSE
  5
277D
330
2746
100
AcDbEntity
  8
0
100
AcDbEllipse
 10
39.26378406783229
 20
-36.00000000000004
 30
0.0
 11
-0.0000000000002191
 21
4.25
 31
0.0
210
0.0
220
0.0
230
1.0
 40
0.5
 41
4.138259115494085
 42
5.286518845274945
  0
ELLIPSE
  5
277E
330
2746
100
AcDbEntity
  8
0
100
AcDbEllipse
 10
39.26378406783229
 20
-12.00000000000003
 30
0.0
 11
-0.0000000000002198
 21
4.25
 31
0.0
210
0.0
220
0.0
230
1.0
 40
0.5000000000000002
 41
4.138259115494079
 42
5.286518845274943
  0
ELLIPSE
  5
277F
330
2746
100
AcDbEntity
  8
0
100
AcDbEllipse
 10
39.2637840678323
 20
11.99999999999997
 30
0.0
 11
-0.0000000000002195
 21
4.25
 31
0.0
210
0.0
220
0.0
230
1.0
 40
0.5000000000000002
 41
4.138259115494083
 42
5.28651884527494
  0
SPLINE
  5
2780
330
2746
100
AcDbEntity
  8
0
100
AcDbSpline
210
0.0
220
0.0
230
1.0
 70
     8
 71
     3
 72
    10
 73
     6
 74
     0
 42
0.000000001
 43
0.0000000001
 40
0.0
 40
0.0
 40
0.0
 40
0.0
 40
0.0886369508136941
 40
0.0886369508136941
 40
0.1772739016373416
 40
0.1772739016373416
 40
0.1772739016373416
 40
0.1772739016373416
 10
3.401923788646699
 20
25.6470286555879
 30
0.0
 10
3.279395666513837
 20
25.48197720257589
 30
0.0
 10
3.183331220743545
 20
25.31754450267277
 30
0.0
 10
3.048428580074173
 20
24.98744335675451
 30
0.0
 10
3.010097365492481
 20
24.82301065683308
 30
0.0
 10
3.001743610299643
 20
24.65795920380255
 30
0.0
  0
LINE
  5
2781
330
2746
100
AcDbEntity
  8
0
100
AcDbLine
 10
3.0
 20
25.64702865558788
 30
0.0
 11
3.401923788646685
 21
25.64702865558788
 31
0.0
  0
LINE
  5
2782
330
2746
100
AcDbEntity
  8
0
100
AcDbLine
 10
3.0
 20
2.250000000000007
 30
0.0
 11
3.369819732877475
 21
2.250000000000007
 31
0.0
  0
SPLINE
  5
2783
330
2746
100
AcDbEntity
  8
0
100
AcDbSpline
210
0.0
220
0.0
230
1.0
 70
     8
 71
     3
 72
    10
 73
     6
 74
     0
 42
0.000000001
 43
0.0000000001
 40
0.0
 40
0.0
 40
0.0
 40
0.0
 40
0.0050367638277858
 40
0.0050367638277858
 40
0.0090697126190923
 40
0.0090697126190923
 40
0.0090697126190923
 40
0.0090697126190923
 10
0.8038475772933683
 20
2.23606797749979
 30
0.0
 10
0.7956376862672919
 20
2.239570608287692
 30
0.0
 10
0.7849221550315666
 20
2.243592436580862
 30
0.0
 10
0.7608379646710017
 20
2.248828409703691
 30
0.0
 10
0.7501971296156272
 20
2.250000014954586
 30
0.0
 10
0.739639465754951
 20
2.25
 30
0.0
  0
LINE
  5
2784
330
2746
100
AcDbEntity
  8
0
100
AcDbLine
 10
3.401923788646683
 20
2.236067977499788
 30
0.0
 11
0.8038475772933683
 21
2.236067977499788
 31
0.0
  0
SPLINE
  5
2785
330
2746
100
AcDbEntity
  8
0
100
AcDbSpline
210
0.0
220
0.0
230
1.0
 70
     8
 71
     3
 72
    10
 73
     6
 74
     0
 42
0.000000001
 43
0.0000000001
 40
0.0
 40
0.0
 40
0.0
 40
0.0
 40
0.0033190141477375
 40
0.0033190141477375
 40
0.0078572874875569
 40
0.0078572874875569
 40
0.0078572874875569
 40
0.0078572874875569
 10
3.369819732877476
 20
2.25
 30
0.0
 10
3.375141094640587
 20
2.250000044194659
 30
0.0
 10
3.380462608767833
 20
2.248809440676828
 30
0.0
 10
3.393035695679774
 20
2.243342589256304
 30
0.0
 10
3.398787657380911
 20
2.238741297994062
 30
0.0
 10
3.401923788646683
 20
2.236067977499791
 30
0.0
  0
SPLINE
  5
2786
330
2746
100
AcDbEntity
  8
0
100
AcDbSpline
210
0.0
220
0.0
230
1.0
 70
     8
 71
     3
 72
    10
 73
     6
 74
     0
 42
0.000000001
 43
0.0000000001
 40
0.0
 40
0.0
 40
0.0
 40
0.0
 40
0.0032590625426254
 40
0.0032590625426254
 40
0.0055671261380544
 40
0.0055671261380544
 40
0.0055671261380544
 40
0.0055671261380544
 10
3.001743610299643
 20
24.65795920380255
 30
0.0
 10
3.001436177702359
 20
24.65190252686061
 30
0.0
 10
3.000849116744456
 20
24.6403426953624
 30
0.0
 10
3.00015552298479
 20
24.62679709638941
 30
0.0
 10
3.000000000001084
 20
24.62377638058989
 30
0.0
 10
3.0
 20
24.62377664808002
 30
0.0
  0
LINE
  5
2787
330
2746
100
AcDbEntity
  8
0
100
AcDbLine
 10
3.369819732877475
 20
-2.250000000000016
 30
0.0
 11
3.0
 21
-2.250000000000005
 31
0.0
  0
SPLINE
  5
2788
330
2746
100
AcDbEntity
  8
0
100
AcDbSpline
210
0.0
220
0.0
230
1.0
 70
     8
 71
     3
 72
    10
 73
     6
 74
     0
 42
0.000000001
 43
0.0000000001
 40
0.0
 40
0.0
 40
0.0
 40
0.0
 40
0.005286660242894
 40
0.005286660242894
 40
0.0127516002422278
 40
0.0127516002422278
 40
0.0127516002422278
 40
0.0127516002422278
 10
3.0
 20
-24.62377664808006
 30
0.0
 10
3.000000000001084
 20
-24.62377638058995
 30
0.0
 10
3.000155522986013
 20
-24.62679709641318
 30
0.0
 10
3.000849116747513
 20
-24.64034269542239
 30
0.0
 10
3.001436177703485
 20
-24.65190252688272
 30
0.0
 10
3.001743610299641
 20
-24.65795920380259
 30
0.0
  0
SPLINE
  5
2789
330
2746
100
AcDbEntity
  8
0
100
AcDbSpline
210
0.0
220
0.0
230
1.0
 70
     8
 71
     3
 72
    10
 73
     6
 74
     0
 42
0.000000001
 43
0.0000000001
 40
0.0
 40
0.0
 40
0.0
 40
0.0
 40
0.0886369508136885
 40
0.0886369508136885
 40
0.1772739016373231
 40
0.1772739016373231
 40
0.1772739016373231
 40
0.1772739016373231
 10
3.001743610299642
 20
-24.65795920380259
 30
0.0
 10
3.010097365491542
 20
-24.82301065681456
 30
0.0
 10
3.048428580065569
 20
-24.98744335671776
 30
0.0
 10
3.183331220722029
 20
-25.31754450263591
 30
0.0
 10
3.279395666500081
 20
-25.48197720255743
 30
0.0
 10
3.401923788646694
 20
-25.64702865558794
 30
0.0
  0
SPLINE
  5
278A
330
2746
100
AcDbEntity
  8
0
100
AcDbSpline
210
0.0
220
0.0
230
1.0
 70
     8
 71
     3
 72
    10
 73
     6
 74
     0
 42
0.000000001
 43
0.0000000001
 40
0.0
 40
0.0
 40
0.0
 40
0.0
 40
0.0020454615074317
 40
0.0020454615074317
 40
0.0035413863171738
 40
0.0035413863171738
 40
0.0035413863171738
 40
0.0035413863171738
 10
3.401923788646684
 20
-2.236067977499791
 30
0.0
 10
3.398787657379895
 20
-2.238741297994923
 30
0.0
 10
3.393035695679258
 20
-2.243342589256532
 30
0.0
 10
3.380462608767734
 20
-2.248809440676867
 30
0.0
 10
3.375141094640612
 20
-2.25000004419466
 30
0.0
 10
3.369819732877475
 20
-2.25
 30
0.0
  0
SPLINE
  5
278B
330
2746
100
AcDbEntity
  8
0
100
AcDbSpline
210
0.0
220
0.0
230
1.0
 70
     8
 71
     3
 72
    10
 73
     6
 74
     0
 42
0.000000001
 43
0.0000000001
 40
0.0
 40
0.0
 40
0.0
 40
0.0
 40
0.0065849752904268
 40
0.0065849752904268
 40
0.0148089739244825
 40
0.0148089739244825
 40
0.0148089739244825
 40
0.0148089739244825
 10
0.739639465754951
 20
-2.25
 30
0.0
 10
0.7501971296159718
 20
-2.250000014954584
 30
0.0
 10
0.7608379646711612
 20
-2.248828409703654
 30
0.0
 10
0.7849221550318655
 20
-2.2435924365808
 30
0.0
 10
0.7956376862677285
 20
-2.239570608287502
 30
0.0
 10
0.8038475772933683
 20
-2.23606797749979
 30
0.0
  0
LINE
  5
278C
330
2746
100
AcDbEntity
  8
0
100
AcDbLine
 10
3.401923788646685
 20
-25.64702865558793
 30
0.0
 11
3.0
 21
-25.64702865558793
 31
0.0
  0
LINE
  5
278D
330
2746
100
AcDbEntity
  8
0
100
AcDbLine
 10
0.8038475772933683
 20
-2.23606797749979
 30
0.0
 11
3.401923788646683
 21
-2.23606797749979
 31
0.0
  0
SPLINE
  5
278E
330
2746
100
AcDbEntity
  8
0
100
AcDbSpline
210
0.0
220
0.0
230
1.0
 70
     8
 71
     3
 72
    28
 73
    24
 74
     0
 42
0.000000001
 43
0.0000000001
 40
3.515017245136007
 40
3.515017245136007
 40
3.515017245136007
 40
3.515017245136007
 40
3.617831381622734
 40
3.617831381622734
 40
3.810217978054568
 40
3.810217978054568
 40
4.014634964803872
 40
4.014634964803872
 40
4.242099410508976
 40
4.242099410508976
 40
4.491082312477889
 40
4.491082312477889
 40
4.753769268765535
 40
4.753769268765535
 40
5.020088858563993
 40
5.020088858563993
 40
5.279202319410769
 40
5.279202319410769
 40
5.520030437030494
 40
5.520030437030494
 40
5.734975602311556
 40
5.734975602311556
 40
5.909760715633371
 40
5.909760715633371
 40
5.909760715633371
 40
5.909760715633371
 10
41.95682542756419
 20
-40.38899570095932
 30
0.0
 10
41.95682542756419
 20
-40.38899570095932
 30
0.0
 10
41.94377393271046
 20
-40.37862227536783
 30
0.0
 10
41.87878389945241
 20
-40.31157342881652
 30
0.0
 10
41.80346962535375
 20
-40.22172043370765
 30
0.0
 10
41.62437979336544
 20
-39.93875166009472
 30
0.0
 10
41.51922684836951
 20
-39.74025150847273
 30
0.0
 10
41.30486316873906
 20
-39.22892206049681
 30
0.0
 10
41.19637576266234
 20
-38.90603261570802
 30
0.0
 10
41.0048621496201
 20
-38.15253184526689
 30
0.0
 10
40.92505147690356
 20
-37.7147207858273
 30
0.0
 10
40.81901109591225
 20
-36.77210540239435
 30
0.0
 10
40.79589914794806
 20
-36.26497037025897
 30
0.0
 10
40.81686095294367
 20
-35.25241874472692
 30
0.0
 10
40.86191087472032
 20
-34.74714689415453
 30
0.0
 10
41.00992742413386
 20
-33.81561950535179
 30
0.0
 10
41.11147952472186
 20
-33.38765125404909
 30
0.0
 10
41.33912810487022
 20
-32.67231714883255
 30
0.0
 10
41.46328621196786
 20
-32.37739996254164
 30
0.0
 10
41.68772481944226
 20
-31.94806040312379
 30
0.0
 10
41.78920610562573
 20
-31.80044543349982
 30
0.0
 10
41.91902260429468
 20
-31.64190193323736
 30
0.0
 10
41.95682542756419
 20
-31.61100429904076
 30
0.0
 10
41.95682542756419
 20
-31.61100429904076
 30
0.0
  0
SPLINE
  5
278F
330
2746
100
AcDbEntity
  8
0
100
AcDbSpline
210
0.0
220
0.0
230
1.0
 70
     8
 71
     3
 72
    28
 73
    24
 74
     0
 42
0.000000001
 43
0.0000000001
 40
3.515017245136007
 40
3.515017245136007
 40
3.515017245136007
 40
3.515017245136007
 40
3.617831381622734
 40
3.617831381622734
 40
3.810217978054568
 40
3.810217978054568
 40
4.014634964803872
 40
4.014634964803872
 40
4.242099410508976
 40
4.242099410508976
 40
4.491082312477889
 40
4.491082312477889
 40
4.753769268765535
 40
4.753769268765535
 40
5.020088858563993
 40
5.020088858563993
 40
5.279202319410769
 40
5.279202319410769
 40
5.520030437030494
 40
5.520030437030494
 40
5.734975602311556
 40
5.734975602311556
 40
5.909760715633371
 40
5.909760715633371
 40
5.909760715633371
 40
5.909760715633371
 10
41.95682542756419
 20
-16.3889957009593
 30
0.0
 10
41.95682542756419
 20
-16.3889957009593
 30
0.0
 10
41.94377393271046
 20
-16.37862227536782
 30
0.0
 10
41.87878389945241
 20
-16.3115734288165
 30
0.0
 10
41.80346962535375
 20
-16.22172043370763
 30
0.0
 10
41.62437979336544
 20
-15.9387516600947
 30
0.0
 10
41.51922684836951
 20
-15.74025150847272
 30
0.0
 10
41.30486316873906
 20
-15.22892206049679
 30
0.0
 10
41.19637576266234
 20
-14.90603261570801
 30
0.0
 10
41.0048621496201
 20
-14.15253184526687
 30
0.0
 10
40.92505147690356
 20
-13.71472078582728
 30
0.0
 10
40.81901109591225
 20
-12.77210540239434
 30
0.0
 10
40.79589914794806
 20
-12.26497037025896
 30
0.0
 10
40.81686095294367
 20
-11.25241874472689
 30
0.0
 10
40.86191087472032
 20
-10.74714689415452
 30
0.0
 10
41.00992742413386
 20
-9.815619505351774
 30
0.0
 10
41.11147952472186
 20
-9.387651254049071
 30
0.0
 10
41.33912810487022
 20
-8.672317148832535
 30
0.0
 10
41.46328621196786
 20
-8.377399962541629
 30
0.0
 10
41.68772481944226
 20
-7.948060403123785
 30
0.0
 10
41.78920610562573
 20
-7.800445433499802
 30
0.0
 10
41.91902260429468
 20
-7.641901933237342
 30
0.0
 10
41.95682542756419
 20
-7.611004299040748
 30
0.0
 10
41.95682542756419
 20
-7.611004299040748
 30
0.0
  0
SPLINE
  5
2790
330
2746
100
AcDbEntity
  8
0
100
AcDbSpline
210
0.0
220
0.0
230
1.0
 70
     8
 71
     3
 72
    28
 73
    24
 74
     0
 42
0.000000001
 43
0.0000000001
 40
3.515017245136007
 40
3.515017245136007
 40
3.515017245136007
 40
3.515017245136007
 40
3.617831381622734
 40
3.617831381622734
 40
3.810217978054568
 40
3.810217978054568
 40
4.014634964803872
 40
4.014634964803872
 40
4.242099410508976
 40
4.242099410508976
 40
4.491082312477889
 40
4.491082312477889
 40
4.753769268765535
 40
4.753769268765535
 40
5.020088858563993
 40
5.020088858563993
 40
5.279202319410769
 40
5.279202319410769
 40
5.520030437030494
 40
5.520030437030494
 40
5.734975602311556
 40
5.734975602311556
 40
5.909760715633371
 40
5.909760715633371
 40
5.909760715633371
 40
5.909760715633371
 10
41.95682542756421
 20
7.611004299040691
 30
0.0
 10
41.95682542756421
 20
7.611004299040691
 30
0.0
 10
41.94377393271047
 20
7.621377724632178
 30
0.0
 10
41.87878389945243
 20
7.688426571183494
 30
0.0
 10
41.80346962535376
 20
7.778279566292365
 30
0.0
 10
41.62437979336545
 20
8.06124833990529
 30
0.0
 10
41.51922684836953
 20
8.259748491527281
 30
0.0
 10
41.30486316873907
 20
8.771077939503204
 30
0.0
 10
41.19637576266235
 20
9.093967384291987
 30
0.0
 10
41.00486214962012
 20
9.847468154733128
 30
0.0
 10
40.92505147690359
 20
10.28527921417271
 30
0.0
 10
40.81901109591227
 20
11.22789459760566
 30
0.0
 10
40.79589914794808
 20
11.73502962974104
 30
0.0
 10
40.81686095294369
 20
12.7475812552731
 30
0.0
 10
40.86191087472034
 20
13.25285310584548
 30
0.0
 10
41.00992742413388
 20
14.18438049464822
 30
0.0
 10
41.11147952472187
 20
14.61234874595092
 30
0.0
 10
41.33912810487024
 20
15.32768285116746
 30
0.0
 10
41.46328621196787
 20
15.62260003745837
 30
0.0
 10
41.68772481944228
 20
16.05193959687621
 30
0.0
 10
41.78920610562575
 20
16.1995545665002
 30
0.0
 10
41.91902260429471
 20
16.35809806676266
 30
0.0
 10
41.95682542756421
 20
16.38899570095925
 30
0.0
 10
41.95682542756421
 20
16.38899570095925
 30
0.0
  0
SPLINE
  5
2791
330
2746
100
AcDbEntity
  8
0
100
AcDbSpline
210
0.0
220
0.0
230
1.0
 70
     8
 71
     3
 72
    16
 73
    12
 74
     0
 42
0.000000001
 43
0.0000000001
 40
4.712388980384689
 40
4.712388980384689
 40
4.712388980384689
 40
4.712388980384689
 40
4.929619135041371
 40
4.929619135041371
 40
5.140522774818263
 40
5.140522774818263
 40
5.333972547838878
 40
5.333972547838878
 40
5.505143524381241
 40
5.505143524381241
 40
5.639655093406999
 40
5.639655093406999
 40
5.639655093406999
 40
5.639655093406999
 10
11.6914107102169
 20
16.0
 30
0.0
 10
11.6914107102169
 20
16.18102512888057
 30
0.0
 10
11.70144338279131
 20
16.36205472359524
 30
0.0
 10
11.73863059123168
 20
16.69902836662696
 30
0.0
 10
11.76531692682843
 20
16.85555239653735
 30
0.0
 10
11.82558004669033
 20
17.11965337985428
 30
0.0
 10
11.85845535009125
 20
17.23018863517864
 30
0.0
 10
11.91756992683574
 20
17.39524344727049
 30
0.0
 10
11.94417538696585
 20
17.45469202596489
 30
0.0
 10
11.97769082621865
 20
17.52074387958136
 30
0.0
 10
11.98756159463792
 20
17.53589941343558
 30
0.0
 10
11.98756159463792
 20
17.53589941343558
 30
0.0
  0
SPLINE
  5
2792
330
2746
100
AcDbEntity
  8
0
100
AcDbSpline
210
0.0
220
0.0
230
1.0
 70
     8
 71
     3
 72
    18
 73
    14
 74
     0
 42
0.000000001
 43
0.0000000001
 40
3.785122867362379
 40
3.785122867362379
 40
3.785122867362379
 40
3.785122867362379
 40
3.87705557485005
 40
3.87705557485005
 40
4.027789753923159
 40
4.027789753923159
 40
4.191740441395586
 40
4.191740441395586
 40
4.374878847716187
 40
4.374878847716187
 40
4.577047095149254
 40
4.577047095149254
 40
4.712388980384689
 40
4.712388980384689
 40
4.712388980384689
 40
4.712388980384689
 10
11.98756159463791
 20
-17.53589941343557
 30
0.0
 10
11.98756159463791
 20
-17.53589941343557
 30
0.0
 10
11.98291415274995
 20
-17.52884772682678
 30
0.0
 10
11.96282342999011
 20
-17.49249139368784
 30
0.0
 10
11.94248811139832
 20
-17.45181635074175
 30
0.0
 10
11.89475321810718
 20
-17.33486157970694
 30
0.0
 10
11.86685733658109
 20
-17.25582743068082
 30
0.0
 10
11.81048229330788
 20
-17.05920115657448
 30
0.0
 10
11.78228793221729
 20
-16.93820438178899
 30
0.0
 10
11.73350756740237
 20
-16.66020441127221
 30
0.0
 10
11.71399437229456
 20
-16.5007724817037
 30
0.0
 10
11.69525662795665
 20
-16.22557023713322
 30
0.0
 10
11.6914107102169
 20
-16.11278490436286
 30
0.0
 10
11.6914107102169
 20
-15.99999999999999
 30
0.0
  0
LINE
  5
2793
330
2746
100
AcDbEntity
  8
0
100
AcDbLine
 10
11.69141071021691
 20
-16.0
 30
0.0
 11
11.69141071021691
 21
16.0
 31
0.0
  0
ENDBLK
  5
2748
330
2746
100
AcDbEntity
  8
0
100
AcDbBlockEnd
  0
BLOCK
  5
2795
330
2794
100
AcDbEntity
  8
0
100
AcDbBlockBegin
  2
TU_S12_SKR-Right
 70
     0
 10
0.0
 20
0.0
 30
0.0
  3
TU_S12_SKR-Right
  1

  0
LINE
  5
2797
330
2794
100
AcDbEntity
  8
0
100
AcDbLine
 10
-3.0
 20
-48.00000000000001
 30
0.0
 11
-3.0
 21
-46.00000000000001
 31
0.0
  0
LINE
  5
2798
330
2794
100
AcDbEntity
  8
0
100
AcDbLine
 10
-3.0
 20
-34.94511068481092
 30
0.0
 11
-3.0
 21
-33.0657254432391
 31
0.0
  0
LINE
  5
2799
330
2794
100
AcDbEntity
  8
0
100
AcDbLine
 10
0.0
 20
47.99999999999996
 30
0.0
 11
0.0
 21
45.99999999999996
 31
0.0
  0
LINE
  5
279A
330
2794
100
AcDbEntity
  8
0
100
AcDbLine
 10
0.0
 20
34.94511068481084
 30
0.0
 11
0.0
 21
33.06572544323902
 31
0.0
  0
ELLIPSE
  5
279B
330
2794
100
AcDbEntity
  8
0
100
AcDbEllipse
 10
-39.48771022627358
 20
45.99999999999994
 30
0.0
 11
0.0
 21
2.0
 31
0.0
210
0.0
220
0.0
230
1.0
 40
0.5
 41
0.0
 42
0.7853981633974453
  0
ELLIPSE
  5
279C
330
2794
100
AcDbEntity
  8
0
100
AcDbEllipse
 10
-36.88963401492027
 20
45.99999999999994
 30
0.0
 11
0.0000000000000001
 21
2.0
 31
0.0
210
0.0
220
0.0
230
1.0
 40
0.5
 41
0.0
 42
0.7853981633974483
  0
LINE
  5
279D
330
2794
100
AcDbEntity
  8
0
100
AcDbLine
 10
-36.88963401492028
 20
47.99999999999994
 30
0.0
 11
-39.48771022627359
 21
47.99999999999994
 31
0.0
  0
ELLIPSE
  5
279E
330
2794
100
AcDbEntity
  8
0
100
AcDbEllipse
 10
-50.65192378864667
 20
-46.00000000000004
 30
0.0
 11
0.0000000000000001
 21
-2.0
 31
0.0
210
0.0
220
0.0
230
1.0
 40
0.4999999999999969
 41
4.712388980384689
 42
6.283185307179586
  0
ELLIPSE
  5
279F
330
2794
100
AcDbEntity
  8
0
100
AcDbEllipse
 10
-50.65192378864669
 20
43.99999999999995
 30
0.0
 11
0.0000000000000089
 21
2.0
 31
0.0
210
0.0
220
0.0
230
1.0
 40
0.5
 41
0.0
 42
1.570796326794898
  0
ELLIPSE
  5
27A0
330
2794
100
AcDbEntity
  8
0
100
AcDbEllipse
 10
-46.21806113966646
 20
43.99999999999995
 30
0.0
 11
0.0000000000000089
 21
2.0
 31
0.0
210
0.0
220
0.0
230
1.0
 40
0.5
 41
5.497787143782144
 42
6.283185307179586
  0
ELLIPSE
  5
27A1
330
2794
100
AcDbEntity
  8
0
100
AcDbEllipse
 10
-48.05384757729336
 20
43.99999999999995
 30
0.0
 11
-0.0000000000000001
 21
2.0
 31
0.0
210
0.0
220
0.0
230
1.0
 40
0.4999999999999969
 41
0.0
 42
1.570796326794896
  0
ELLIPSE
  5
27A2
330
2794
100
AcDbEntity
  8
0
100
AcDbEllipse
 10
-48.05384757729335
 20
-46.00000000000004
 30
0.0
 11
0.0000000000000089
 21
-2.0
 31
0.0
210
0.0
220
0.0
230
1.0
 40
0.5
 41
4.712388980384687
 42
6.283185307179586
  0
LINE
  5
27A3
330
2794
100
AcDbEntity
  8
0
100
AcDbLine
 10
-48.05384757729336
 20
45.99999999999996
 30
0.0
 11
-50.65192378864669
 21
45.99999999999996
 31
0.0
  0
LINE
  5
27A4
330
2794
100
AcDbEntity
  8
0
100
AcDbLine
 10
-50.65192378864667
 20
-48.00000000000004
 30
0.0
 11
-48.05384757729335
 21
-48.00000000000004
 31
0.0
  0
LINE
  5
27A5
330
2794
100
AcDbEntity
  8
0
100
AcDbLine
 10
0.0
 20
-33.0657254432391
 30
0.0
 11
0.0
 21
-34.94511068481092
 31
0.0
  0
LINE
  5
27A6
330
2794
100
AcDbEntity
  8
0
100
AcDbLine
 10
0.0
 20
-46.00000000000001
 30
0.0
 11
0.0
 21
-48.00000000000001
 31
0.0
  0
LINE
  5
27A7
330
2794
100
AcDbEntity
  8
0
100
AcDbLine
 10
-3.0
 20
-48.00000000000001
 30
0.0
 11
0.0
 21
-48.00000000000001
 31
0.0
  0
LINE
  5
27A8
330
2794
100
AcDbEntity
  8
0
100
AcDbLine
 10
-3.0
 20
33.06572544323902
 30
0.0
 11
-3.0
 21
34.94511068481084
 31
0.0
  0
LINE
  5
27A9
330
2794
100
AcDbEntity
  8
0
100
AcDbLine
 10
-3.0
 20
45.99999999999996
 30
0.0
 11
-3.0
 21
47.99999999999996
 31
0.0
  0
LINE
  5
27AA
330
2794
100
AcDbEntity
  8
0
100
AcDbLine
 10
0.0
 20
47.99999999999996
 30
0.0
 11
-3.0
 21
47.99999999999996
 31
0.0
  0
LINE
  5
27AB
330
2794
100
AcDbEntity
  8
0
100
AcDbLine
 10
-3.0
 20
-34.94511068481092
 30
0.0
 11
-3.0
 21
-46.00000000000001
 31
0.0
  0
LINE
  5
27AC
330
2794
100
AcDbEntity
  8
0
100
AcDbLine
 10
-3.0
 20
-32.73225144059713
 30
0.0
 11
-3.0
 21
-33.0657254432391
 31
0.0
  0
LINE
  5
27AD
330
2794
100
AcDbEntity
  8
0
100
AcDbLine
 10
-3.0
 20
-29.08959409235754
 30
0.0
 11
-3.0
 21
-32.73225144059713
 31
0.0
  0
LINE
  5
27AE
330
2794
100
AcDbEntity
  8
0
100
AcDbLine
 10
-3.0
 20
-26.42151050733082
 30
0.0
 11
-3.0
 21
-29.08959408653552
 31
0.0
  0
LINE
  5
27AF
330
2794
100
AcDbEntity
  8
0
100
AcDbLine
 10
0.0
 20
45.99999999999996
 30
0.0
 11
0.0
 21
34.94511068481084
 31
0.0
  0
LINE
  5
27B0
330
2794
100
AcDbEntity
  8
0
100
AcDbLine
 10
0.0
 20
33.06572544323902
 30
0.0
 11
0.0
 21
32.73225144059704
 31
0.0
  0
LINE
  5
27B1
330
2794
100
AcDbEntity
  8
0
100
AcDbLine
 10
0.0
 20
32.73225144059704
 30
0.0
 11
0.0
 21
29.0895940923575
 31
0.0
  0
LINE
  5
27B2
330
2794
100
AcDbEntity
  8
0
100
AcDbLine
 10
0.0
 20
29.08959409235749
 30
0.0
 11
0.0
 21
24.62377664808002
 31
0.0
  0
LINE
  5
27B3
330
2794
100
AcDbEntity
  8
0
100
AcDbLine
 10
-51.65192378864667
 20
43.99999999999995
 30
0.0
 11
-51.65192378864666
 21
-46.00000000000004
 31
0.0
  0
ELLIPSE
  5
27B4
330
2794
100
AcDbEntity
  8
0
100
AcDbEllipse
 10
-44.02692378864667
 20
35.99999999999996
 30
0.0
 11
0.0000000000000002
 21
-4.25
 31
0.0
210
0.0
220
0.0
230
1.0
 40
0.5000000000000009
 41
0.4498622145737077
 42
1.570796326794896
  0
LINE
  5
27B5
330
2794
100
AcDbEntity
  8
0
100
AcDbLine
 10
-41.90192378864667
 20
43.99999999999995
 30
0.0
 11
-41.90192378864666
 21
35.99999999999996
 31
0.0
  0
LINE
  5
27B6
330
2794
100
AcDbEntity
  8
0
100
AcDbLine
 10
-39.30384757729335
 20
43.99999999999995
 30
0.0
 11
-39.30384757729335
 21
35.99999999999996
 31
0.0
  0
ELLIPSE
  5
27B7
330
2794
100
AcDbEntity
  8
0
100
AcDbEllipse
 10
-41.42884757729335
 20
35.99999999999996
 30
0.0
 11
0.0000000000000002
 21
-4.25
 31
0.0
210
0.0
220
0.0
230
1.0
 40
0.5000000000000001
 41
0.0
 42
1.570796326794896
  0
LINE
  5
27B8
330
2794
100
AcDbEntity
  8
0
100
AcDbLine
 10
-41.42884757729335
 20
31.74999999999997
 30
0.0
 11
-42.17884757729335
 21
31.74999999999996
 31
0.0
  0
ELLIPSE
  5
27B9
330
2794
100
AcDbEntity
  8
0
100
AcDbEllipse
 10
-42.17884757729335
 20
35.99999999999996
 30
0.0
 11
0.0
 21
-4.249999999999998
 31
0.0
210
0.0
220
0.0
230
1.0
 40
0.5
 41
4.012177424850388
 42
6.283185307179586
  0
LINE
  5
27BA
330
2794
100
AcDbEntity
  8
0
100
AcDbLine
 10
-43.80384757729334
 20
38.73861278752584
 30
0.0
 11
-43.80384757729335
 21
41.99999999999995
 31
0.0
  0
LINE
  5
27BB
330
2794
100
AcDbEntity
  8
0
100
AcDbLine
 10
-46.21806113966644
 20
45.99999999999996
 30
0.0
 11
-48.05384757729336
 21
45.99999999999996
 31
0.0
  0
LINE
  5
27BC
330
2794
100
AcDbEntity
  8
0
100
AcDbLine
 10
-49.05384757729336
 20
43.99999999999995
 30
0.0
 11
-49.05384757729335
 21
-46.00000000000004
 31
0.0
  0
LINE
  5
27BD
330
2794
100
AcDbEntity
  8
0
100
AcDbLine
 10
-48.05384757729335
 20
-48.00000000000004
 30
0.0
 11
-35.18884757729336
 21
-48.00000000000005
 31
0.0
  0
LINE
  5
27BE
330
2794
100
AcDbEntity
  8
0
100
AcDbLine
 10
-35.18884757729336
 20
-48.00000000000005
 30
0.0
 11
-7.937761574502015
 21
-28.16283168711125
 31
0.0
  0
LINE
  5
27BF
330
2794
100
AcDbEntity
  8
0
100
AcDbLine
 10
-7.937761574502015
 20
-28.16283168711125
 30
0.0
 11
-0.8038475772933683
 21
-25.64702865558793
 31
0.0
  0
ELLIPSE
  5
27C0
330
2794
100
AcDbEntity
  8
0
100
AcDbEllipse
 10
-0.6788475772933628
 20
-0.0000000000000007
 30
0.0
 11
0.0000000000000001
 21
-2.25
 31
0.0
210
0.0
220
0.0
230
1.0
 40
0.5
 41
3.252933667930761
 42
6.171844292838616
  0
LINE
  5
27C1
330
2794
100
AcDbEntity
  8
0
100
AcDbLine
 10
-0.803847577293369
 20
25.64702865558788
 30
0.0
 11
-7.937761574502033
 21
28.16283168711118
 31
0.0
  0
LINE
  5
27C2
330
2794
100
AcDbEntity
  8
0
100
AcDbLine
 10
-7.937761574502033
 20
28.16283168711118
 30
0.0
 11
-35.18884757729339
 21
47.99999999999994
 31
0.0
  0
LINE
  5
27C3
330
2794
100
AcDbEntity
  8
0
100
AcDbLine
 10
-35.18884757729339
 20
47.99999999999994
 30
0.0
 11
-36.88963401492028
 21
47.99999999999994
 31
0.0
  0
LINE
  5
27C4
330
2794
100
AcDbEntity
  8
0
100
AcDbLine
 10
0.0
 20
-24.62377664808006
 30
0.0
 11
0.0
 21
-29.08959408653552
 31
0.0
  0
LINE
  5
27C5
330
2794
100
AcDbEntity
  8
0
100
AcDbLine
 10
0.0
 20
-29.08959409235754
 30
0.0
 11
0.0
 21
-32.73225144059713
 31
0.0
  0
LINE
  5
27C6
330
2794
100
AcDbEntity
  8
0
100
AcDbLine
 10
0.0
 20
-32.73225144059713
 30
0.0
 11
0.0
 21
-33.0657254432391
 31
0.0
  0
LINE
  5
27C7
330
2794
100
AcDbEntity
  8
0
100
AcDbLine
 10
0.0
 20
-34.94511068481092
 30
0.0
 11
0.0
 21
-46.00000000000001
 31
0.0
  0
LINE
  5
27C8
330
2794
100
AcDbEntity
  8
0
100
AcDbLine
 10
0.0
 20
-32.73225144059713
 30
0.0
 11
-3.0
 21
-32.73225144059713
 31
0.0
  0
LINE
  5
27C9
330
2794
100
AcDbEntity
  8
0
100
AcDbLine
 10
-3.0
 20
33.06572544323902
 30
0.0
 11
-3.0
 21
32.73225144059704
 31
0.0
  0
LINE
  5
27CA
330
2794
100
AcDbEntity
  8
0
100
AcDbLine
 10
0.0
 20
32.73225144059704
 30
0.0
 11
-3.0
 21
32.73225144059704
 31
0.0
  0
LINE
  5
27CB
330
2794
100
AcDbEntity
  8
0
100
AcDbLine
 10
-3.0
 20
29.08959409235749
 30
0.0
 11
-3.0
 21
26.42151050733075
 31
0.0
  0
LINE
  5
27CC
330
2794
100
AcDbEntity
  8
0
100
AcDbLine
 10
-3.0
 20
32.73225144059704
 30
0.0
 11
-3.0
 21
29.0895940923575
 31
0.0
  0
LINE
  5
27CD
330
2794
100
AcDbEntity
  8
0
100
AcDbLine
 10
-3.0
 20
45.99999999999996
 30
0.0
 11
-3.0
 21
34.94511068481084
 31
0.0
  0
LINE
  5
27CE
330
2794
100
AcDbEntity
  8
0
100
AcDbLine
 10
0.0
 20
24.62377664808002
 30
0.0
 11
0.0
 21
2.250000000000005
 31
0.0
  0
LINE
  5
27CF
330
2794
100
AcDbEntity
  8
0
100
AcDbLine
 10
0.0
 20
-2.250000000000007
 30
0.0
 11
0.0
 21
-24.62377664808006
 31
0.0
  0
SPLINE
  5
27D0
330
2794
100
AcDbEntity
  8
0
100
AcDbSpline
210
0.0
220
0.0
230
1.0
 70
     8
 71
     3
 72
    10
 73
     6
 74
     0
 42
0.000000001
 43
0.0000000001
 40
0.0
 40
0.0
 40
0.0
 40
0.0
 40
0.1551474605007358
 40
0.1551474605007358
 40
0.3102949210733045
 40
0.3102949210733045
 40
0.3102949210733045
 40
0.3102949210733045
 10
-0.0034872205992842
 20
24.65795920380255
 30
0.0
 10
-0.0201947489047015
 20
24.82301022260307
 30
0.0
 10
-0.096857303214217
 20
24.98744353162213
 30
0.0
 10
-0.3666622982668719
 20
25.31754432761631
 30
0.0
 10
-0.5587910700501554
 20
25.48197763671093
 30
0.0
 10
-0.8038475772933677
 20
25.64702865558788
 30
0.0
  0
LINE
  5
27D1
330
2794
100
AcDbEntity
  8
0
100
AcDbLine
 10
0.0
 20
2.250000000000007
 30
0.0
 11
-0.739639465754951
 21
2.250000000000007
 31
0.0
  0
SPLINE
  5
27D2
330
2794
100
AcDbEntity
  8
0
100
AcDbSpline
210
0.0
220
0.0
230
1.0
 70
     8
 71
     3
 72
    10
 73
     6
 74
     0
 42
0.000000001
 43
0.0000000001
 40
0.0
 40
0.0
 40
0.0
 40
0.0
 40
0.0050367638277858
 40
0.0050367638277858
 40
0.0090697126190923
 40
0.0090697126190923
 40
0.0090697126190923
 40
0.0090697126190923
 10
-0.8038475772933683
 20
2.23606797749979
 30
0.0
 10
-0.7956376862672919
 20
2.239570608287692
 30
0.0
 10
-0.7849221550315666
 20
2.243592436580862
 30
0.0
 10
-0.7608379646710017
 20
2.248828409703691
 30
0.0
 10
-0.7501971296156272
 20
2.250000014954586
 30
0.0
 10
-0.739639465754951
 20
2.25
 30
0.0
  0
SPLINE
  5
27D3
330
2794
100
AcDbEntity
  8
0
100
AcDbSpline
210
0.0
220
0.0
230
1.0
 70
     8
 71
     3
 72
    10
 73
     6
 74
     0
 42
0.000000001
 43
0.0000000001
 40
0.0
 40
0.0
 40
0.0
 40
0.0
 40
0.0103760936319204
 40
0.0103760936319204
 40
0.0242612202825049
 40
0.0242612202825049
 40
0.0242612202825049
 40
0.0242612202825049
 10
0.0
 20
24.62377664808002
 30
0.0
 10
0.0
 20
24.62377655829348
 30
0.0
 10
-0.00029962092279
 20
24.62668553317256
 30
0.0
 10
-0.0016710510023893
 20
24.64007726400835
 30
0.0
 10
-0.0028009240134525
 20
24.6511901956715
 30
0.0
 10
-0.0034872205992842
 20
24.65795920380255
 30
0.0
  0
LINE
  5
27D4
330
2794
100
AcDbEntity
  8
0
100
AcDbLine
 10
-0.739639465754951
 20
-2.250000000000028
 30
0.0
 11
0.0
 21
-2.250000000000005
 31
0.0
  0
SPLINE
  5
27D5
330
2794
100
AcDbEntity
  8
0
100
AcDbSpline
210
0.0
220
0.0
230
1.0
 70
     8
 71
     3
 72
    10
 73
     6
 74
     0
 42
0.000000001
 43
0.0000000001
 40
0.0
 40
0.0
 40
0.0
 40
0.0
 40
0.0065849752904268
 40
0.0065849752904268
 40
0.0148089739244825
 40
0.0148089739244825
 40
0.0148089739244825
 40
0.0148089739244825
 10
-0.739639465754951
 20
-2.25
 30
0.0
 10
-0.7501971296159718
 20
-2.250000014954584
 30
0.0
 10
-0.7608379646711612
 20
-2.248828409703654
 30
0.0
 10
-0.7849221550318655
 20
-2.2435924365808
 30
0.0
 10
-0.7956376862677285
 20
-2.239570608287502
 30
0.0
 10
-0.8038475772933683
 20
-2.23606797749979
 30
0.0
  0
SPLINE
  5
27D6
330
2794
100
AcDbEntity
  8
0
100
AcDbSpline
210
0.0
220
0.0
230
1.0
 70
     8
 71
     3
 72
    10
 73
     6
 74
     0
 42
0.000000001
 43
0.0000000001
 40
0.0
 40
0.0
 40
0.0
 40
0.0
 40
0.1551474605007341
 40
0.1551474605007341
 40
0.310294921073299
 40
0.310294921073299
 40
0.310294921073299
 40
0.310294921073299
 10
-0.8038475772933828
 20
-25.64702865558794
 30
0.0
 10
-0.5587910701636279
 20
-25.4819776367874
 30
0.0
 10
-0.3666622984443612
 20
-25.31754432776829
 30
0.0
 10
-0.0968573032851785
 20
-24.98744353177422
 30
0.0
 10
-0.0201947489124355
 20
-24.82301022267949
 30
0.0
 10
-0.0034872205992836
 20
-24.65795920380259
 30
0.0
  0
SPLINE
  5
27D7
330
2794
100
AcDbEntity
  8
0
100
AcDbSpline
210
0.0
220
0.0
230
1.0
 70
     8
 71
     3
 72
    10
 73
     6
 74
     0
 42
0.000000001
 43
0.0000000001
 40
0.0
 40
0.0
 40
0.0
 40
0.0
 40
0.0063719716954143
 40
0.0063719716954143
 40
0.0111336261312918
 40
0.0111336261312918
 40
0.0111336261312918
 40
0.0111336261312918
 10
-0.0034872205992836
 20
-24.65795920380259
 30
0.0
 10
-0.002800924013768
 20
-24.65119019567453
 30
0.0
 10
-0.0016710510024015
 20
-24.64007726400854
 30
0.0
 10
-0.0002996209229857
 20
-24.6266855331745
 30
0.0
 10
-0.0000000000001818
 20
-24.62377655829528
 30
0.0
 10
0.0
 20
-24.62377664808006
 30
0.0
  0
LINE
  5
27D8
330
2794
100
AcDbEntity
  8
0
100
AcDbLine
 10
-40.19481700746013
 20
47.41421356237303
 30
0.0
 11
-41.90192378864667
 21
43.99999999999995
 31
0.0
  0
LINE
  5
27D9
330
2794
100
AcDbEntity
  8
0
100
AcDbLine
 10
-41.90192378864667
 20
43.99999999999995
 30
0.0
 11
-39.30384757729335
 21
43.99999999999995
 31
0.0
  0
LINE
  5
27DA
330
2794
100
AcDbEntity
  8
0
100
AcDbLine
 10
-39.30384757729335
 20
43.99999999999995
 30
0.0
 11
-37.59674079610682
 21
47.41421356237303
 31
0.0
  0
LINE
  5
27DB
330
2794
100
AcDbEntity
  8
0
100
AcDbLine
 10
-45.5109543584799
 20
45.41421356237306
 30
0.0
 11
-43.80384757729335
 21
41.99999999999995
 31
0.0
  0
LINE
  5
27DC
330
2794
100
AcDbEntity
  8
0
100
AcDbLine
 10
-12.69141071021691
 20
-15.99999999999999
 30
0.0
 11
-12.69141071021691
 21
16.00000000000001
 31
0.0
  0
ELLIPSE
  5
27DD
330
2794
100
AcDbEntity
  8
0
100
AcDbEllipse
 10
-10.6914107102169
 20
16.0
 30
0.0
 11
0.000000000000002
 21
4.000000000000004
 31
0.0
210
0.0
220
0.0
230
1.0
 40
0.4999999999999999
 41
6.185439727445608
 42
7.853981633974481
  0
ELLIPSE
  5
27DE
330
2794
100
AcDbEntity
  8
0
100
AcDbEllipse
 10
-10.69141071021689
 20
-15.99999999999999
 30
0.0
 11
0.0000000000000016
 21
-4.0
 31
0.0
210
0.0
220
0.0
230
1.0
 40
0.5
 41
4.712388980384687
 42
6.380930886913567
  0
ELLIPSE
  5
27DF
330
2794
100
AcDbEntity
  8
0
100
AcDbEllipse
 10
-39.26378406783228
 20
-36.00000000000004
 30
0.0
 11
0.0000000000000026
 21
-7.250000000000001
 31
0.0
210
0.0
220
0.0
230
1.0
 40
0.5
 41
0.0
 42
6.283185307179585
  0
ELLIPSE
  5
27E0
330
2794
100
AcDbEntity
  8
0
100
AcDbEllipse
 10
-39.26378406783229
 20
-12.00000000000003
 30
0.0
 11
0.0000000000000026
 21
-7.250000000000001
 31
0.0
210
0.0
220
0.0
230
1.0
 40
0.5
 41
0.0
 42
6.283185307179585
  0
ELLIPSE
  5
27E1
330
2794
100
AcDbEntity
  8
0
100
AcDbEllipse
 10
-39.2637840678323
 20
11.99999999999997
 30
0.0
 11
0.0000000000000026
 21
-7.250000000000001
 31
0.0
210
0.0
220
0.0
230
1.0
 40
0.5
 41
0.0
 42
6.283185307179585
  0
SPLINE
  5
27E2
330
2794
100
AcDbEntity
  8
0
100
AcDbSpline
210
0.0
220
0.0
230
1.0
 70
     8
 71
     3
 72
     8
 73
     4
 74
     0
 42
0.000000001
 43
0.0000000001
 40
3.239338233323775
 40
3.239338233323775
 40
3.239338233323775
 40
3.239338233323775
 40
3.337652184862595
 40
3.337652184862595
 40
3.337652184862595
 40
3.337652184862595
 10
-38.91002029138843
 20
-43.21539359715777
 30
0.0
 10
-38.93114574775373
 20
-43.21953664001315
 30
0.0
 10
-38.94396963337906
 20
-43.22437933681122
 30
0.0
 10
-38.94396963337906
 20
-43.22437933681122
 30
0.0
  0
SPLINE
  5
27E3
330
2794
100
AcDbEntity
  8
0
100
AcDbSpline
210
0.0
220
0.0
230
1.0
 70
     8
 71
     3
 72
    10
 73
     6
 74
     0
 42
0.000000001
 43
0.0000000001
 40
6.087125775906783
 40
6.087125775906783
 40
6.087125775906783
 40
6.087125775906783
 40
6.088265561223582
 40
6.088265561223582
 40
6.185439727445604
 40
6.185439727445604
 40
6.185439727445604
 40
6.185439727445604
 10
-38.94396963337906
 20
-28.77562066318886
 30
0.0
 10
-38.94396963337906
 20
-28.77562066318886
 30
0.0
 10
-38.94396795987979
 20
-28.77562132793667
 30
0.0
 10
-38.94367956974816
 20
-28.77573519960068
 30
0.0
 10
-38.9309008335315
 20
-28.78051139161762
 30
0.0
 10
-38.91002029138843
 20
-28.78460640284231
 30
0.0
  0
SPLINE
  5
27E4
330
2794
100
AcDbEntity
  8
0
100
AcDbSpline
210
0.0
220
0.0
230
1.0
 70
     8
 71
     3
 72
     8
 73
     4
 74
     0
 42
0.000000001
 43
0.0000000001
 40
3.239338233323778
 40
3.239338233323778
 40
3.239338233323778
 40
3.239338233323778
 40
3.337652184862595
 40
3.337652184862595
 40
3.337652184862595
 40
3.337652184862595
 10
-38.91002029138844
 20
-19.21539359715776
 30
0.0
 10
-38.93114574775373
 20
-19.21953664001315
 30
0.0
 10
-38.94396963337906
 20
-19.22437933681121
 30
0.0
 10
-38.94396963337906
 20
-19.22437933681121
 30
0.0
  0
SPLINE
  5
27E5
330
2794
100
AcDbEntity
  8
0
100
AcDbSpline
210
0.0
220
0.0
230
1.0
 70
     8
 71
     3
 72
    10
 73
     6
 74
     0
 42
0.000000001
 43
0.0000000001
 40
6.087125775906783
 40
6.087125775906783
 40
6.087125775906783
 40
6.087125775906783
 40
6.088265561223577
 40
6.088265561223577
 40
6.185439727445601
 40
6.185439727445601
 40
6.185439727445601
 40
6.185439727445601
 10
-38.94396963337906
 20
-4.77562066318884
 30
0.0
 10
-38.94396963337906
 20
-4.77562066318884
 30
0.0
 10
-38.94396795987979
 20
-4.775621327936655
 30
0.0
 10
-38.94367956974816
 20
-4.775735199600675
 30
0.0
 10
-38.9309008335315
 20
-4.780511391617609
 30
0.0
 10
-38.91002029138843
 20
-4.784606402842297
 30
0.0
  0
SPLINE
  5
27E6
330
2794
100
AcDbEntity
  8
0
100
AcDbSpline
210
0.0
220
0.0
230
1.0
 70
     8
 71
     3
 72
     8
 73
     4
 74
     0
 42
0.000000001
 43
0.0000000001
 40
3.239338233323775
 40
3.239338233323775
 40
3.239338233323775
 40
3.239338233323775
 40
3.337652184862595
 40
3.337652184862595
 40
3.337652184862595
 40
3.337652184862595
 10
-38.91002029138846
 20
4.78460640284224
 30
0.0
 10
-38.93114574775376
 20
4.780463359986847
 30
0.0
 10
-38.94396963337909
 20
4.775620663188783
 30
0.0
 10
-38.94396963337909
 20
4.775620663188783
 30
0.0
  0
SPLINE
  5
27E7
330
2794
100
AcDbEntity
  8
0
100
AcDbSpline
210
0.0
220
0.0
230
1.0
 70
     8
 71
     3
 72
    10
 73
     6
 74
     0
 42
0.000000001
 43
0.0000000001
 40
6.087125775906783
 40
6.087125775906783
 40
6.087125775906783
 40
6.087125775906783
 40
6.088265561223582
 40
6.088265561223582
 40
6.185439727445604
 40
6.185439727445604
 40
6.185439727445604
 40
6.185439727445604
 10
-38.94396963337909
 20
19.22437933681116
 30
0.0
 10
-38.94396963337909
 20
19.22437933681116
 30
0.0
 10
-38.94396795987982
 20
19.22437867206334
 30
0.0
 10
-38.94367956974819
 20
19.22426480039932
 30
0.0
 10
-38.93090083353153
 20
19.21948860838239
 30
0.0
 10
-38.91002029138846
 20
19.2153935971577
 30
0.0
  0
SPLINE
  5
27E8
330
2794
100
AcDbEntity
  8
0
100
AcDbSpline
210
0.0
220
0.0
230
1.0
 70
     8
 71
     3
 72
    14
 73
    10
 74
     0
 42
0.000000001
 43
0.0000000001
 40
4.291238331872293
 40
4.291238331872293
 40
4.291238331872293
 40
4.291238331872293
 40
4.491082312477889
 40
4.491082312477889
 40
4.753769268765535
 40
4.753769268765535
 40
5.020088858563993
 40
5.020088858563993
 40
5.133539628897089
 40
5.133539628897089
 40
5.133539628897089
 40
5.133539628897089
 10
-41.04807260596451
 20
-38.30819359039923
 30
0.0
 10
-40.97432255033608
 20
-37.97891800198453
 30
0.0
 10
-40.91486774249204
 20
-37.62419541589405
 30
0.0
 10
-40.81901109591225
 20
-36.77210540239435
 30
0.0
 10
-40.79589914794806
 20
-36.26497037025897
 30
0.0
 10
-40.81686095294367
 20
-35.25241874472692
 30
0.0
 10
-40.86191087472032
 20
-34.74714689415453
 30
0.0
 10
-40.96889367339882
 20
-34.07386132240834
 30
0.0
 10
-41.00620494201087
 20
-33.8787350778766
 30
0.0
 10
-41.04807260596451
 20
-33.69180640960083
 30
0.0
  0
SPLINE
  5
27E9
330
2794
100
AcDbEntity
  8
0
100
AcDbSpline
210
0.0
220
0.0
230
1.0
 70
     8
 71
     3
 72
    14
 73
    10
 74
     0
 42
0.000000001
 43
0.0000000001
 40
4.291238331872291
 40
4.291238331872291
 40
4.291238331872291
 40
4.291238331872291
 40
4.491082312477889
 40
4.491082312477889
 40
4.753769268765535
 40
4.753769268765535
 40
5.020088858563993
 40
5.020088858563993
 40
5.133539628897089
 40
5.133539628897089
 40
5.133539628897089
 40
5.133539628897089
 10
-41.04807260596451
 20
-14.30819359039923
 30
0.0
 10
-40.97432255033608
 20
-13.97891800198452
 30
0.0
 10
-40.91486774249204
 20
-13.62419541589404
 30
0.0
 10
-40.81901109591225
 20
-12.77210540239434
 30
0.0
 10
-40.79589914794806
 20
-12.26497037025896
 30
0.0
 10
-40.81686095294367
 20
-11.25241874472689
 30
0.0
 10
-40.86191087472032
 20
-10.74714689415452
 30
0.0
 10
-40.96889367339882
 20
-10.07386132240832
 30
0.0
 10
-41.00620494201087
 20
-9.878735077876584
 30
0.0
 10
-41.04807260596451
 20
-9.69180640960082
 30
0.0
  0
SPLINE
  5
27EA
330
2794
100
AcDbEntity
  8
0
100
AcDbSpline
210
0.0
220
0.0
230
1.0
 70
     8
 71
     3
 72
    14
 73
    10
 74
     0
 42
0.000000001
 43
0.0000000001
 40
4.291238331872293
 40
4.291238331872293
 40
4.291238331872293
 40
4.291238331872293
 40
4.491082312477889
 40
4.491082312477889
 40
4.753769268765535
 40
4.753769268765535
 40
5.020088858563993
 40
5.020088858563993
 40
5.133539628897086
 40
5.133539628897086
 40
5.133539628897086
 40
5.133539628897086
 10
-41.04807260596452
 20
9.691806409600777
 30
0.0
 10
-40.97432255033609
 20
10.02108199801548
 30
0.0
 10
-40.91486774249205
 20
10.37580458410595
 30
0.0
 10
-40.81901109591227
 20
11.22789459760566
 30
0.0
 10
-40.79589914794808
 20
11.73502962974104
 30
0.0
 10
-40.81686095294369
 20
12.7475812552731
 30
0.0
 10
-40.86191087472034
 20
13.25285310584548
 30
0.0
 10
-40.96889367339884
 20
13.92613867759167
 30
0.0
 10
-41.00620494201087
 20
14.1212649221234
 30
0.0
 10
-41.04807260596451
 20
14.30819359039916
 30
0.0
  0
LINE
  5
27EB
330
2794
100
AcDbEntity
  8
0
100
AcDbLine
 10
-7.603443357884026
 20
15.99999999999999
 30
0.0
 11
-7.603443357884023
 21
-15.99999999999999
 31
0.0
  0
SPLINE
  5
27EC
330
2794
100
AcDbEntity
  8
0
100
AcDbSpline
210
0.0
220
0.0
230
1.0
 70
     8
 71
     3
 72
    18
 73
    14
 74
     0
 42
0.000000001
 43
0.0000000001
 40
3.239338233323775
 40
3.239338233323775
 40
3.239338233323775
 40
3.239338233323775
 40
3.405473395184157
 40
3.405473395184157
 40
3.599954979263034
 40
3.599954979263034
 40
3.856944474135318
 40
3.856944474135318
 40
4.1515546235475
 40
4.1515546235475
 40
4.446164772959683
 40
4.446164772959683
 40
4.71238898038469
 40
4.71238898038469
 40
4.71238898038469
 40
4.71238898038469
 10
-10.49623069562718
 20
-19.98090681222495
 30
0.0
 10
-10.15051545684798
 20
-19.9131064757372
 30
0.0
 10
-9.832975042578819
 20
-19.79144477086249
 30
0.0
 10
-9.245548888584655
 20
-19.47402173071549
 30
0.0
 10
-8.991396937716523
 20
-19.27175378887853
 30
0.0
 10
-8.516204339291636
 20
-18.8028235184705
 30
0.0
 10
-8.328121806613905
 20
-18.5358698710684
 30
0.0
 10
-8.015590880530357
 20
-17.99276772362
 30
0.0
 10
-7.904319122291763
 20
-17.71813056377793
 30
0.0
 10
-7.737845853171547
 20
-17.18805583872523
 30
0.0
 10
-7.683751052137639
 20
-16.93209141144898
 30
0.0
 10
-7.618169159586446
 20
-16.45110477875473
 30
0.0
 10
-7.603443357884021
 20
-16.22557710505937
 30
0.0
 10
-7.603443357884021
 20
-15.99999999999999
 30
0.0
  0
SPLINE
  5
27ED
330
2794
100
AcDbEntity
  8
0
100
AcDbSpline
210
0.0
220
0.0
230
1.0
 70
     8
 71
     3
 72
    18
 73
    14
 74
     0
 42
0.000000001
 43
0.0000000001
 40
4.712388980384687
 40
4.712388980384687
 40
4.712388980384687
 40
4.712388980384687
 40
5.00699912979687
 40
5.00699912979687
 40
5.301609279209054
 40
5.301609279209054
 40
5.596219428621237
 40
5.596219428621237
 40
5.890829578033421
 40
5.890829578033421
 40
6.123411571437684
 40
6.123411571437684
 40
6.185439727445603
 40
6.185439727445603
 40
6.185439727445603
 40
6.185439727445603
 10
-7.603443357884023
 20
16.0
 30
0.0
 10
-7.603443357884023
 20
16.2496290824501
 30
0.0
 10
-7.621389595639698
 20
16.4991764768905
 30
0.0
 10
-7.698276805833259
 20
17.00594620419004
 30
0.0
 10
-7.75679790799232
 20
17.26307711991649
 30
0.0
 10
-7.935194731487166
 20
17.79685814980726
 30
0.0
 10
-8.053880582510908
 20
18.07419703202404
 30
0.0
 10
-8.410964470829643
 20
18.65999167104208
 30
0.0
 10
-8.649661705783348
 20
18.97365971507423
 30
0.0
 10
-9.298882598177955
 20
19.51096967205222
 30
0.0
 10
-9.669902267523232
 20
19.73858009627665
 30
0.0
 10
-10.24164641853002
 20
19.92285016276415
 30
0.0
 10
-10.36715459563017
 20
19.95559290635483
 30
0.0
 10
-10.49623069562719
 20
19.98090681222496
 30
0.0
  0
ELLIPSE
  5
27EE
330
2794
100
AcDbEntity
  8
0
100
AcDbEllipse
 10
-39.26378406783229
 20
-36.00000000000004
 30
0.0
 11
-0.0000000000000015
 21
4.25
 31
0.0
210
0.0
220
0.0
230
1.0
 40
0.5
 41
0.0
 42
6.283185307179585
  0
ELLIPSE
  5
27EF
330
2794
100
AcDbEntity
  8
0
100
AcDbEllipse
 10
-39.26378406783229
 20
-12.00000000000003
 30
0.0
 11
-0.0000000000000015
 21
4.25
 31
0.0
210
0.0
220
0.0
230
1.0
 40
0.5
 41
0.0
 42
6.283185307179585
  0
ELLIPSE
  5
27F0
330
2794
100
AcDbEntity
  8
0
100
AcDbEllipse
 10
-39.2637840678323
 20
11.99999999999997
 30
0.0
 11
-0.0000000000000015
 21
4.25
 31
0.0
210
0.0
220
0.0
230
1.0
 40
0.5000000000000002
 41
0.0
 42
6.283185307179585
  0
ENDBLK
  5
2796
330
2794
100
AcDbEntity
  8
0
100
AcDbBlockEnd
  0
BLOCK
  5
27F2
330
27F1
100
AcDbEntity
  8
0
100
AcDbBlockBegin
  2
TU_S12_SKR-Top
 70
     0
 10
0.0
 20
0.0
 30
0.0
  3
TU_S12_SKR-Top
  1

  0
LINE
  5
27F4
330
27F1
100
AcDbEntity
  8
0
100
AcDbLine
 10
-19.10799999999996
 20
0.0
 30
0.0
 11
-17.10799999999996
 21
0.0
 31
0.0
  0
LINE
  5
27F5
330
27F1
100
AcDbEntity
  8
0
100
AcDbLine
 10
18.89200000000002
 20
0.0
 30
0.0
 11
20.89200000000003
 21
0.0
 31
0.0
  0
LINE
  5
27F6
330
27F1
100
AcDbEntity
  8
0
100
AcDbLine
 10
63.6191604124413
 20
-40.19481700746013
 30
0.0
 11
62.39441554104971
 21
-39.48771022627358
 31
0.0
  0
LINE
  5
27F7
330
27F1
100
AcDbEntity
  8
0
100
AcDbLine
 10
63.89441554104973
 20
-36.88963401492027
 30
0.0
 11
65.11916041244131
 21
-37.59674079610682
 31
0.0
  0
LINE
  5
27F8
330
27F1
100
AcDbEntity
  8
0
100
AcDbLine
 10
83.46345146519835
 20
-51.65192378864667
 30
0.0
 11
81.73140065762945
 21
-50.65192378864667
 31
0.0
  0
LINE
  5
27F9
330
27F1
100
AcDbEntity
  8
0
100
AcDbLine
 10
78.55172527581377
 20
-48.81613735101978
 30
0.0
 11
77.32698040442219
 21
-48.10903056983322
 31
0.0
  0
LINE
  5
27FA
330
27F1
100
AcDbEntity
  8
0
100
AcDbLine
 10
78.8269804044222
 20
-45.51095435847991
 30
0.0
 11
80.05172527581377
 21
-46.21806113966645
 31
0.0
  0
LINE
  5
27FB
330
27F1
100
AcDbEntity
  8
0
100
AcDbLine
 10
83.23140065762945
 20
-48.05384757729336
 30
0.0
 11
84.96345146519834
 21
-49.05384757729336
 31
0.0
  0
LINE
  5
27FC
330
27F1
100
AcDbEntity
  8
0
100
AcDbLine
 10
83.46345146519835
 20
-51.65192378864667
 30
0.0
 11
84.96345146519834
 21
-49.05384757729336
 31
0.0
  0
LINE
  5
27FD
330
27F1
100
AcDbEntity
  8
0
100
AcDbLine
 10
20.89200000000003
 20
-3.0
 30
0.0
 11
18.89200000000002
 21
-3.0
 31
0.0
  0
LINE
  5
27FE
330
27F1
100
AcDbEntity
  8
0
100
AcDbLine
 10
-17.10799999999996
 20
-3.0
 30
0.0
 11
-19.10799999999996
 21
-3.0
 31
0.0
  0
LINE
  5
27FF
330
27F1
100
AcDbEntity
  8
0
100
AcDbLine
 10
20.89200000000002
 20
-3.0
 30
0.0
 11
20.89200000000002
 21
0.0
 31
0.0
  0
LINE
  5
2800
330
27F1
100
AcDbEntity
  8
0
100
AcDbLine
 10
-19.10799999999996
 20
0.0
 30
0.0
 11
-19.10799999999996
 21
-3.0
 31
0.0
  0
LINE
  5
2801
330
27F1
100
AcDbEntity
  8
0
100
AcDbLine
 10
-17.10799999999996
 20
0.0
 30
0.0
 11
-1.417401076758495
 21
0.0
 31
0.0
  0
LINE
  5
2802
330
27F1
100
AcDbEntity
  8
0
100
AcDbLine
 10
3.201401076758486
 20
0.0
 30
0.0
 11
18.89200000000002
 21
0.0
 31
0.0
  0
LINE
  5
2803
330
27F1
100
AcDbEntity
  8
0
100
AcDbLine
 10
59.44856701825587
 20
-37.78692378864671
 30
0.0
 11
62.39441554104971
 21
-39.48771022627359
 31
0.0
  0
LINE
  5
2804
330
27F1
100
AcDbEntity
  8
0
100
AcDbLine
 10
12.24830149999219
 20
-10.53583778585535
 30
0.0
 11
59.44856701825587
 21
-37.78692378864671
 31
0.0
  0
LINE
  5
2805
330
27F1
100
AcDbEntity
  8
0
100
AcDbLine
 10
-0.1080000000000023
 20
-3.401923788646685
 30
0.0
 11
12.24830149999219
 21
-10.53583778585535
 31
0.0
  0
LINE
  5
2806
330
27F1
100
AcDbEntity
  8
0
100
AcDbLine
 10
78.55172527581377
 20
-48.81613735101976
 30
0.0
 11
81.73140065762945
 21
-50.65192378864669
 31
0.0
  0
LINE
  5
2807
330
27F1
100
AcDbEntity
  8
0
100
AcDbLine
 10
71.55560216316231
 20
-44.77692378864667
 30
0.0
 11
74.3701847254617
 21
-46.40192378864667
 31
0.0
  0
LINE
  5
2808
330
27F1
100
AcDbEntity
  8
0
100
AcDbLine
 10
70.25656405748565
 20
-44.02692378864667
 30
0.0
 11
71.55560216316231
 21
-44.77692378864667
 31
0.0
  0
LINE
  5
2809
330
27F1
100
AcDbEntity
  8
0
100
AcDbLine
 10
66.57595609140178
 20
-41.90192378864667
 30
0.0
 11
70.25656405748565
 21
-44.02692378864667
 31
0.0
  0
LINE
  5
280A
330
27F1
100
AcDbEntity
  8
0
100
AcDbLine
 10
68.07595609140178
 20
-39.30384757729336
 30
0.0
 11
71.75656405748565
 21
-41.42884757729335
 31
0.0
  0
LINE
  5
280B
330
27F1
100
AcDbEntity
  8
0
100
AcDbLine
 10
71.75656405748565
 20
-41.42884757729335
 30
0.0
 11
73.0556021631623
 21
-42.17884757729335
 31
0.0
  0
LINE
  5
280C
330
27F1
100
AcDbEntity
  8
0
100
AcDbLine
 10
73.0556021631623
 20
-42.17884757729335
 30
0.0
 11
75.87018472546171
 21
-43.80384757729334
 31
0.0
  0
LINE
  5
280D
330
27F1
100
AcDbEntity
  8
0
100
AcDbLine
 10
80.05172527581377
 20
-46.21806113966644
 30
0.0
 11
83.23140065762945
 21
-48.05384757729336
 31
0.0
  0
LINE
  5
280E
330
27F1
100
AcDbEntity
  8
0
100
AcDbLine
 10
5.195847577293367
 20
-3.000000000000001
 30
0.0
 11
13.74830149999219
 21
-7.937761574502033
 31
0.0
  0
LINE
  5
280F
330
27F1
100
AcDbEntity
  8
0
100
AcDbLine
 10
13.74830149999219
 20
-7.937761574502033
 30
0.0
 11
60.94856701825587
 21
-35.18884757729339
 31
0.0
  0
LINE
  5
2810
330
27F1
100
AcDbEntity
  8
0
100
AcDbLine
 10
60.94856701825587
 20
-35.18884757729339
 30
0.0
 11
63.89441554104973
 21
-36.88963401492028
 31
0.0
  0
LINE
  5
2811
330
27F1
100
AcDbEntity
  8
0
100
AcDbLine
 10
3.201401076758486
 20
-3.0
 30
0.0
 11
18.89200000000002
 21
-3.0
 31
0.0
  0
LINE
  5
2812
330
27F1
100
AcDbEntity
  8
0
100
AcDbLine
 10
-17.10799999999996
 20
-3.0
 30
0.0
 11
-1.417401076758495
 21
-3.0
 31
0.0
  0
LINE
  5
2813
330
27F1
100
AcDbEntity
  8
0
100
AcDbLine
 10
13.74830149999219
 20
-7.937761574502033
 30
0.0
 11
12.24830149999219
 21
-10.53583778585535
 31
0.0
  0
LINE
  5
2814
330
27F1
100
AcDbEntity
  8
0
100
AcDbLine
 10
60.94856701825587
 20
-35.18884757729339
 30
0.0
 11
59.44856701825587
 21
-37.78692378864671
 31
0.0
  0
LINE
  5
2815
330
27F1
100
AcDbEntity
  8
0
100
AcDbLine
 10
-1.417401076758495
 20
0.0
 30
0.0
 11
0.8919999999999852
 21
0.0
 31
0.0
  0
LINE
  5
2816
330
27F1
100
AcDbEntity
  8
0
100
AcDbLine
 10
0.8919999999999852
 20
0.0
 30
0.0
 11
3.201401076758486
 21
0.0
 31
0.0
  0
LINE
  5
2817
330
27F1
100
AcDbEntity
  8
0
100
AcDbLine
 10
3.201401076758486
 20
-3.0
 30
0.0
 11
0.8919999999999852
 21
-3.0
 31
0.0
  0
LINE
  5
2818
330
27F1
100
AcDbEntity
  8
0
100
AcDbLine
 10
0.8919999999999852
 20
-3.0
 30
0.0
 11
-1.417401076758495
 21
-3.0
 31
0.0
  0
LINE
  5
2819
330
27F1
100
AcDbEntity
  8
0
100
AcDbLine
 10
3.201401076758486
 20
0.0
 30
0.0
 11
3.201401076758486
 21
-3.0
 31
0.0
  0
LINE
  5
281A
330
27F1
100
AcDbEntity
  8
0
100
AcDbLine
 10
-1.417401076758495
 20
-3.0
 30
0.0
 11
-1.417401076758495
 21
0.0
 31
0.0
  0
LINE
  5
281B
330
27F1
100
AcDbEntity
  8
0
100
AcDbLine
 10
0.8919999999999852
 20
-3.0
 30
0.0
 11
0.8919999999999852
 21
0.0
 31
0.0
  0
LINE
  5
281C
330
27F1
100
AcDbEntity
  8
0
100
AcDbLine
 10
63.61916041244129
 20
-40.19481700746013
 30
0.0
 11
66.57595609140177
 21
-41.90192378864667
 31
0.0
  0
LINE
  5
281D
330
27F1
100
AcDbEntity
  8
0
100
AcDbLine
 10
66.57595609140177
 20
-41.90192378864667
 30
0.0
 11
68.07595609140176
 21
-39.30384757729335
 31
0.0
  0
LINE
  5
281E
330
27F1
100
AcDbEntity
  8
0
100
AcDbLine
 10
68.07595609140176
 20
-39.30384757729335
 30
0.0
 11
65.11916041244131
 21
-37.59674079610682
 31
0.0
  0
LINE
  5
281F
330
27F1
100
AcDbEntity
  8
0
100
AcDbLine
 10
74.37018472546171
 20
-46.40192378864667
 30
0.0
 11
77.32698040442219
 21
-48.10903056983322
 31
0.0
  0
LINE
  5
2820
330
27F1
100
AcDbEntity
  8
0
100
AcDbLine
 10
78.8269804044222
 20
-45.5109543584799
 30
0.0
 11
75.87018472546171
 21
-43.80384757729335
 31
0.0
  0
LINE
  5
2821
330
27F1
100
AcDbEntity
  8
0
100
AcDbLine
 10
75.87018472546171
 20
-43.80384757729335
 30
0.0
 11
74.37018472546171
 21
-46.40192378864667
 31
0.0
  0
LINE
  5
2822
330
27F1
100
AcDbEntity
  8
0
100
AcDbLine
 10
79.28524823492288
 20
-42.88878406783229
 30
0.0
 11
66.7278798800485
 21
-35.6387840678323
 31
0.0
  0
ARC
  5
2823
330
27F1
100
AcDbEntity
  8
0
100
AcDbCircle
 10
17.36539778562062
 20
-10.60344335788403
 30
0.0
 40
3.0
100
AcDbArc
 50
59.99999999999997
 51
140.4059317731396
  0
ARC
  5
2824
330
27F1
100
AcDbEntity
  8
0
100
AcDbCircle
 10
19.17012563291633
 20
-11.64540346633422
 30
0.0
 40
3.000000000000004
100
AcDbArc
 50
339.5940682268604
 51
59.99999999999994
  0
LINE
  5
2825
330
27F1
100
AcDbEntity
  8
0
100
AcDbLine
 10
18.86539778562061
 20
-8.005367146530705
 30
0.0
 11
20.67012563291633
 21
-9.047327254980901
 31
0.0
  0
ARC
  5
2826
330
27F1
100
AcDbEntity
  8
0
100
AcDbCircle
 10
82.09698592641277
 20
-43.93479131171497
 30
0.0
 40
3.0
100
AcDbArc
 50
159.5940682268606
 51
240.0
  0
ARC
  5
2827
330
27F1
100
AcDbEntity
  8
0
100
AcDbCircle
 10
64.4161421885586
 20
-33.72675142016517
 30
0.0
 40
3.000000000000001
100
AcDbArc
 50
239.9999999999999
 51
320.4059317731396
  0
SPLINE
  5
2828
330
27F1
100
AcDbEntity
  8
0
100
AcDbSpline
210
0.0
220
0.0
230
1.0
 70
     8
 71
     3
 72
    10
 73
     6
 74
     0
 42
0.000000001
 43
0.0000000001
 40
0.0
 40
0.0
 40
0.0
 40
0.0
 40
0.0886369508136941
 40
0.0886369508136941
 40
0.1772739016373416
 40
0.1772739016373416
 40
0.1772739016373416
 40
0.1772739016373416
 10
-0.1079999999999784
 20
-3.401923788646699
 30
0.0
 10
-0.3202249328900939
 20
-3.279395666513837
 30
0.0
 10
-0.5466660000708163
 20
-3.183331220743545
 30
0.0
 10
-1.017848303794481
 20
-3.048428580074173
 30
0.0
 10
-1.260818780703659
 20
-3.010097365492481
 30
0.0
 10
-1.505732597466365
 20
-3.001743610299643
 30
0.0
  0
LINE
  5
2829
330
27F1
100
AcDbEntity
  8
0
100
AcDbLine
 10
0.1240508075688762
 20
-3.0
 30
0.0
 11
-0.1080000000000023
 21
-3.401923788646685
 31
0.0
  0
SPLINE
  5
282A
330
27F1
100
AcDbEntity
  8
0
100
AcDbSpline
210
0.0
220
0.0
230
1.0
 70
     8
 71
     3
 72
    10
 73
     6
 74
     0
 42
0.000000001
 43
0.0000000001
 40
0.0
 40
0.0
 40
0.0
 40
0.0
 40
0.0032590625426254
 40
0.0032590625426254
 40
0.0055671261380544
 40
0.0055671261380544
 40
0.0055671261380544
 40
0.0055671261380544
 10
-1.505732597466366
 20
-3.001743610299643
 30
0.0
 10
-1.514745848281112
 20
-3.001436177702359
 30
0.0
 10
-1.532819138812637
 20
-3.000849116744456
 30
0.0
 10
-1.573170881676118
 20
-3.00015552298479
 30
0.0
 10
-1.590377799074763
 20
-3.000000000001084
 30
0.0
 10
-1.607999999815408
 20
-3.0
 30
0.0
  0
ENDBLK
  5
27F3
330
27F1
100
AcDbEntity
  8
0
100
AcDbBlockEnd
  0
BLOCK
  5
282C
330
282B
100
AcDbEntity
  8
0
100
AcDbBlockBegin
  2
TU_S12_SKR-Bottom
 70
     0
 10
0.0
 20
0.0
 30
0.0
  3
TU_S12_SKR-Bottom
  1

  0
LINE
  5
282E
330
282B
100
AcDbEntity
  8
0
100
AcDbLine
 10
-19.108
 20
3.0
 30
0.0
 11
-17.108
 21
3.0
 31
0.0
  0
LINE
  5
282F
330
282B
100
AcDbEntity
  8
0
100
AcDbLine
 10
18.89199999999998
 20
3.0
 30
0.0
 11
20.89199999999998
 21
3.0
 31
0.0
  0
LINE
  5
2830
330
282B
100
AcDbEntity
  8
0
100
AcDbLine
 10
81.73140065762945
 20
50.65192378864667
 30
0.0
 11
83.46345146519835
 21
51.65192378864666
 31
0.0
  0
LINE
  5
2831
330
282B
100
AcDbEntity
  8
0
100
AcDbLine
 10
84.96345146519834
 20
49.05384757729335
 30
0.0
 11
83.23140065762945
 21
48.05384757729335
 31
0.0
  0
LINE
  5
2832
330
282B
100
AcDbEntity
  8
0
100
AcDbLine
 10
84.96345146519834
 20
49.05384757729335
 30
0.0
 11
83.46345146519835
 21
51.65192378864666
 31
0.0
  0
LINE
  5
2833
330
282B
100
AcDbEntity
  8
0
100
AcDbLine
 10
-19.108
 20
3.0
 30
0.0
 11
-19.108
 21
0.0
 31
0.0
  0
LINE
  5
2834
330
282B
100
AcDbEntity
  8
0
100
AcDbLine
 10
-17.108
 20
0.0
 30
0.0
 11
-19.108
 21
0.0
 31
0.0
  0
LINE
  5
2835
330
282B
100
AcDbEntity
  8
0
100
AcDbLine
 10
20.89199999999998
 20
0.0
 30
0.0
 11
18.89199999999998
 21
0.0
 31
0.0
  0
LINE
  5
2836
330
282B
100
AcDbEntity
  8
0
100
AcDbLine
 10
20.89199999999998
 20
0.0
 30
0.0
 11
20.89199999999998
 21
3.0
 31
0.0
  0
LINE
  5
2837
330
282B
100
AcDbEntity
  8
0
100
AcDbLine
 10
-1.417401076758498
 20
3.0
 30
0.0
 11
-17.108
 21
3.0
 31
0.0
  0
LINE
  5
2838
330
282B
100
AcDbEntity
  8
0
100
AcDbLine
 10
18.89199999999998
 20
3.0
 30
0.0
 11
3.201401076758481
 21
3.0
 31
0.0
  0
LINE
  5
2839
330
282B
100
AcDbEntity
  8
0
100
AcDbLine
 10
12.24830149999216
 20
10.53583778585533
 30
0.0
 11
-0.1079999999999948
 21
3.401923788646685
 31
0.0
  0
LINE
  5
283A
330
282B
100
AcDbEntity
  8
0
100
AcDbLine
 10
59.44856701825585
 20
37.78692378864668
 30
0.0
 11
12.24830149999216
 21
10.53583778585533
 31
0.0
  0
LINE
  5
283B
330
282B
100
AcDbEntity
  8
0
100
AcDbLine
 10
81.73140065762945
 20
50.65192378864667
 30
0.0
 11
59.44856701825585
 21
37.78692378864668
 31
0.0
  0
LINE
  5
283C
330
282B
100
AcDbEntity
  8
0
100
AcDbLine
 10
83.23140065762945
 20
48.05384757729335
 30
0.0
 11
60.94856701825585
 21
35.18884757729336
 31
0.0
  0
LINE
  5
283D
330
282B
100
AcDbEntity
  8
0
100
AcDbLine
 10
60.94856701825585
 20
35.18884757729336
 30
0.0
 11
13.74830149999217
 21
7.937761574502015
 31
0.0
  0
LINE
  5
283E
330
282B
100
AcDbEntity
  8
0
100
AcDbLine
 10
13.74830149999216
 20
7.937761574502015
 30
0.0
 11
5.195847577293376
 21
3.0
 31
0.0
  0
LINE
  5
283F
330
282B
100
AcDbEntity
  8
0
100
AcDbLine
 10
60.94856701825585
 20
35.18884757729336
 30
0.0
 11
59.44856701825585
 21
37.78692378864668
 31
0.0
  0
LINE
  5
2840
330
282B
100
AcDbEntity
  8
0
100
AcDbLine
 10
-1.417401076758498
 20
0.0
 30
0.0
 11
-17.108
 21
0.0
 31
0.0
  0
LINE
  5
2841
330
282B
100
AcDbEntity
  8
0
100
AcDbLine
 10
18.89199999999998
 20
0.0
 30
0.0
 11
3.201401076758481
 21
0.0
 31
0.0
  0
LINE
  5
2842
330
282B
100
AcDbEntity
  8
0
100
AcDbLine
 10
13.74830149999216
 20
7.937761574502015
 30
0.0
 11
12.24830149999216
 21
10.53583778585533
 31
0.0
  0
LINE
  5
2843
330
282B
100
AcDbEntity
  8
0
100
AcDbLine
 10
-1.417401076758498
 20
3.0
 30
0.0
 11
0.8919999999999996
 21
3.0
 31
0.0
  0
LINE
  5
2844
330
282B
100
AcDbEntity
  8
0
100
AcDbLine
 10
0.8919999999999996
 20
3.0
 30
0.0
 11
3.201401076758481
 21
3.0
 31
0.0
  0
LINE
  5
2845
330
282B
100
AcDbEntity
  8
0
100
AcDbLine
 10
-1.417401076758498
 20
0.0
 30
0.0
 11
-1.417401076758498
 21
3.0
 31
0.0
  0
LINE
  5
2846
330
282B
100
AcDbEntity
  8
0
100
AcDbLine
 10
3.201401076758481
 20
0.0
 30
0.0
 11
0.8919999999999996
 21
0.0
 31
0.0
  0
LINE
  5
2847
330
282B
100
AcDbEntity
  8
0
100
AcDbLine
 10
0.8919999999999996
 20
0.0
 30
0.0
 11
-1.417401076758498
 21
0.0
 31
0.0
  0
LINE
  5
2848
330
282B
100
AcDbEntity
  8
0
100
AcDbLine
 10
0.8919999999999996
 20
3.0
 30
0.0
 11
0.8919999999999996
 21
0.0
 31
0.0
  0
LINE
  5
2849
330
282B
100
AcDbEntity
  8
0
100
AcDbLine
 10
3.201401076758481
 20
3.0
 30
0.0
 11
3.201401076758481
 21
0.0
 31
0.0
  0
LINE
  5
284A
330
282B
100
AcDbEntity
  8
0
100
AcDbLine
 10
66.72787988004848
 20
35.63878406783228
 30
0.0
 11
79.28524823492283
 21
42.88878406783227
 31
0.0
  0
ARC
  5
284B
330
282B
100
AcDbEntity
  8
0
100
AcDbCircle
 10
17.36539778562062
 20
10.60344335788402
 30
0.0
 40
3.000000000000002
100
AcDbArc
 50
219.5940682268604
 51
300.0
  0
ARC
  5
284C
330
282B
100
AcDbEntity
  8
0
100
AcDbCircle
 10
19.17012563291632
 20
11.64540346633421
 30
0.0
 40
3.0
100
AcDbArc
 50
300.0
 51
20.40593177313963
  0
LINE
  5
284D
330
282B
100
AcDbEntity
  8
0
100
AcDbLine
 10
20.67012563291632
 20
9.047327254980896
 30
0.0
 11
18.86539778562061
 21
8.005367146530705
 31
0.0
  0
ARC
  5
284E
330
282B
100
AcDbEntity
  8
0
100
AcDbCircle
 10
64.41614218855858
 20
33.72675142016515
 30
0.0
 40
3.0
100
AcDbArc
 50
39.59406822686047
 51
120.0000000000001
  0
ARC
  5
284F
330
282B
100
AcDbEntity
  8
0
100
AcDbCircle
 10
82.09698592641274
 20
43.93479131171496
 30
0.0
 40
3.0
100
AcDbArc
 50
120.0000000000001
 51
200.4059317731396
  0
SPLINE
  5
2850
330
282B
100
AcDbEntity
  8
0
100
AcDbSpline
210
0.0
220
0.0
230
1.0
 70
     8
 71
     3
 72
    10
 73
     6
 74
     0
 42
0.000000001
 43
0.0000000001
 40
0.0
 40
0.0
 40
0.0
 40
0.0
 40
0.005286660242894
 40
0.005286660242894
 40
0.0127516002422278
 40
0.0127516002422278
 40
0.0127516002422278
 40
0.0127516002422278
 10
-1.607999999815409
 20
3.0
 30
0.0
 10
-1.590377799007792
 20
3.000000000001084
 30
0.0
 10
-1.57317088154553
 20
3.000155522986013
 30
0.0
 10
-1.532819138718585
 20
3.000849116747513
 30
0.0
 10
-1.514745848248059
 20
3.001436177703485
 30
0.0
 10
-1.505732597466367
 20
3.001743610299641
 30
0.0
  0
SPLINE
  5
2851
330
282B
100
AcDbEntity
  8
0
100
AcDbSpline
210
0.0
220
0.0
230
1.0
 70
     8
 71
     3
 72
    10
 73
     6
 74
     0
 42
0.000000001
 43
0.0000000001
 40
0.0
 40
0.0
 40
0.0
 40
0.0
 40
0.0886369508136885
 40
0.0886369508136885
 40
0.1772739016373231
 40
0.1772739016373231
 40
0.1772739016373231
 40
0.1772739016373231
 10
-1.505732597466367
 20
3.001743610299642
 30
0.0
 10
-1.260818780731155
 20
3.010097365491542
 30
0.0
 10
-1.017848303848924
 20
3.048428580065569
 30
0.0
 10
-0.5466660001215606
 20
3.183331220722029
 30
0.0
 10
-0.3202249329139123
 20
3.279395666500081
 30
0.0
 10
-0.107999999999979
 20
3.401923788646694
 30
0.0
  0
LINE
  5
2852
330
282B
100
AcDbEntity
  8
0
100
AcDbLine
 10
-0.1079999999999956
 20
3.401923788646685
 30
0.0
 11
0.1240508075688821
 21
3.0
 31
0.0
  0
ENDBLK
  5
282D
330
282B
100
AcDbEntity
  8
0
100
AcDbBlockEnd
  0
BLOCK
  5
2854
330
2853
100
AcDbEntity
  8
0
100
AcDbBlockBegin
  2
TU_S12_SKR-ISO
 70
     0
 10
0.0
 20
0.0
 30
0.0
  3
TU_S12_SKR-ISO
  1

  0
ELLIPSE
  5
2856
330
2853
100
AcDbEntity
  8
0
100
AcDbEllipse
 10
-19.24021224918882
 20
26.27554679462716
 30
0.0
 11
-1.0
 21
1.732050807568877
 31
0.0
210
0.0
220
0.0
230
1.0
 40
0.5773502691896259
 41
5.497787143782137
 42
7.068583470577033
  0
LINE
  5
2857
330
2853
100
AcDbEntity
  8
0
100
AcDbLine
 10
-19.24021224918882
 20
27.90853995648261
 30
0.0
 11
-17.11889190562917
 21
29.1332848278742
 31
0.0
  0
ELLIPSE
  5
2858
330
2853
100
AcDbEntity
  8
0
100
AcDbEllipse
 10
-17.11889190562917
 20
27.50029166601875
 30
0.0
 11
-1.0
 21
1.732050807568877
 31
0.0
210
0.0
220
0.0
230
1.0
 40
0.5773502691896259
 41
5.497787143782137
 42
6.283185307179587
  0
ELLIPSE
  5
2859
330
2853
100
AcDbEntity
  8
0
100
AcDbEllipse
 10
-19.24021224918883
 20
-7.813185459105413
 30
0.0
 11
-0.9999999999998973
 21
1.732050807568938
 31
0.0
210
0.0
220
0.0
230
1.0
 40
0.5773502691896258
 41
0.785398163397689
 42
2.356194490192585
  0
ELLIPSE
  5
285A
330
2853
100
AcDbEntity
  8
0
100
AcDbEllipse
 10
-19.24021224918882
 20
33.21576773251284
 30
0.0
 11
-0.9999999999998967
 21
1.732050807568937
 31
0.0
210
0.0
220
0.0
230
1.0
 40
0.5773502691896258
 41
0.7853981633976881
 42
2.356194490192589
  0
ELLIPSE
  5
285B
330
2853
100
AcDbEntity
  8
0
100
AcDbEllipse
 10
-17.11889190562916
 20
68.52924485763698
 30
0.0
 11
-1.0
 21
1.732050807568877
 31
0.0
210
0.0
220
0.0
230
1.0
 40
0.5773502691896259
 41
5.497787143782136
 42
6.283185307179587
  0
ELLIPSE
  5
285C
330
2853
100
AcDbEntity
  8
0
100
AcDbEllipse
 10
8.336952217086547
 20
53.83230640093788
 30
0.0
 11
-1.000000000000104
 21
1.732050807568818
 31
0.0
210
0.0
220
0.0
230
1.0
 40
0.577350269189626
 41
3.926990816986997
 42
5.497787143781893
  0
ELLIPSE
  5
285D
330
2853
100
AcDbEntity
  8
0
100
AcDbEllipse
 10
8.336952217086533
 20
44.80602707255153
 30
0.0
 11
1.0
 21
-1.732050807568877
 31
0.0
210
0.0
220
0.0
230
1.0
 40
0.5773502691896259
 41
0.0000000000000017
 42
0.7853981633974473
  0
ELLIPSE
  5
285E
330
2853
100
AcDbEntity
  8
0
100
AcDbEllipse
 10
11.17577756963041
 20
19.95172943104715
 30
0.0
 11
0.3057638995108594
 21
-1.976488916679249
 31
0.0
210
0.0
220
0.0
230
1.0
 40
0.2113248654051872
 41
1.724280177818743
 42
2.509678341217638
  0
LINE
  5
285F
330
2853
100
AcDbEntity
  8
0
100
AcDbLine
 10
11.54180297341484
 20
20.31775483483159
 30
0.0
 11
14.43958045228205
 21
20.76604257091561
 31
0.0
  0
ELLIPSE
  5
2860
330
2853
100
AcDbEntity
  8
0
100
AcDbEllipse
 10
14.07355504849761
 20
20.40001716713118
 30
0.0
 11
-0.3057638995109029
 21
1.976488916679244
 31
0.0
210
0.0
220
0.0
230
1.0
 40
0.2113248654051874
 41
4.865872831407067
 42
5.651270994804516
  0
LINE
  5
2861
330
2853
100
AcDbEntity
  8
0
100
AcDbLine
 10
14.07355504849761
 20
22.03301032898663
 30
0.0
 11
11.1757775696304
 21
21.5847225929026
 31
0.0
  0
ELLIPSE
  5
2862
330
2853
100
AcDbEntity
  8
0
100
AcDbEllipse
 10
16.95479975669845
 20
-67.61801823208478
 30
0.0
 11
0.3057638995109071
 21
-1.976488916679243
 31
0.0
210
0.0
220
0.0
230
1.0
 40
0.2113248654051899
 41
5.651270994804514
 42
7.222067321599415
  0
ELLIPSE
  5
2863
330
2853
100
AcDbEntity
  8
0
100
AcDbEllipse
 10
16.95479975669844
 20
5.866674051410574
 30
0.0
 11
0.3057638995108534
 21
-1.976488916679251
 31
0.0
210
0.0
220
0.0
230
1.0
 40
0.2113248654051894
 41
0.9388820144220417
 42
2.509678341217639
  0
ELLIPSE
  5
2864
330
2853
100
AcDbEntity
  8
0
100
AcDbEllipse
 10
16.00452677110093
 20
7.914227765084791
 30
0.0
 11
-0.305763899510903
 21
1.976488916679243
 31
0.0
210
0.0
220
0.0
230
1.0
 40
0.2113248654051871
 41
5.651270994804512
 42
6.436669158201958
  0
ELLIPSE
  5
2865
330
2853
100
AcDbEntity
  8
0
100
AcDbEllipse
 10
18.90230424996814
 20
8.362515501168811
 30
0.0
 11
-0.3057638995108965
 21
1.976488916679244
 31
0.0
210
0.0
220
0.0
230
1.0
 40
0.2113248654051894
 41
5.651270994804512
 42
6.283185307179582
  0
LINE
  5
2866
330
2853
100
AcDbEntity
  8
0
100
AcDbLine
 10
16.00452677110094
 20
9.547220926940251
 30
0.0
 11
18.90230424996815
 21
9.995508663024272
 31
0.0
  0
ELLIPSE
  5
2867
330
2853
100
AcDbEntity
  8
0
100
AcDbEllipse
 10
19.85257723556565
 20
6.314961787494604
 30
0.0
 11
-0.3057638995109502
 21
1.976488916679236
 31
0.0
210
0.0
220
0.0
230
1.0
 40
0.2113248654051899
 41
4.080474668008097
 42
5.651270994802297
  0
ELLIPSE
  5
2868
330
2853
100
AcDbEntity
  8
0
100
AcDbEllipse
 10
19.85257723556566
 20
-67.16973049600075
 30
0.0
 11
0.3057638995109097
 21
-1.976488916679242
 31
0.0
210
0.0
220
0.0
230
1.0
 40
0.211324865405187
 41
0.0000000000000029
 42
0.9388820144198247
  0
LINE
  5
2869
330
2853
100
AcDbEntity
  8
0
100
AcDbLine
 10
19.85257723556565
 20
7.947954949350055
 30
0.0
 11
16.95479975669844
 21
7.499667213266025
 31
0.0
  0
LINE
  5
286A
330
2853
100
AcDbEntity
  8
0
100
AcDbLine
 10
17.47243784690349
 20
4.751318979760168
 30
0.0
 11
20.37021532577071
 21
5.199606715844198
 31
0.0
  0
LINE
  5
286B
330
2853
100
AcDbEntity
  8
0
100
AcDbLine
 10
20.37021532577071
 20
-68.28508556765116
 30
0.0
 11
17.4724378469035
 21
-68.73337330373519
 31
0.0
  0
ELLIPSE
  5
286C
330
2853
100
AcDbEntity
  8
0
100
AcDbEllipse
 10
6.21563187352689
 20
43.58128220115993
 30
0.0
 11
1.0
 21
-1.732050807568877
 31
0.0
210
0.0
220
0.0
230
1.0
 40
0.5773502691896259
 41
5.846852994181004
 42
7.068583470577033
  0
LINE
  5
286D
330
2853
100
AcDbEntity
  8
0
100
AcDbLine
 10
9.751165779459629
 20
43.98953049162379
 30
0.0
 11
7.629845435899986
 21
42.7647856202322
 31
0.0
  0
ELLIPSE
  5
286E
330
2853
100
AcDbEntity
  8
0
100
AcDbEllipse
 10
6.215631873526906
 20
52.6075615295463
 30
0.0
 11
0.9999999999998976
 21
-1.732050807568937
 31
0.0
210
0.0
220
0.0
230
1.0
 40
0.577350269189626
 41
0.785398163397689
 42
2.356194490192585
  0
ELLIPSE
  5
286F
330
2853
100
AcDbEntity
  8
0
100
AcDbEllipse
 10
-19.2402122491888
 20
67.30449998624539
 30
0.0
 11
-1.0
 21
1.732050807568877
 31
0.0
210
0.0
220
0.0
230
1.0
 40
0.5773502691896259
 41
5.497787143782136
 42
7.068583470577033
  0
LINE
  5
2870
330
2853
100
AcDbEntity
  8
0
100
AcDbLine
 10
7.629845435899998
 20
51.79106494861857
 30
0.0
 11
9.75116577945964
 21
53.01580982001016
 31
0.0
  0
LINE
  5
2871
330
2853
100
AcDbEntity
  8
0
100
AcDbLine
 10
8.336952217086547
 20
55.46529956279335
 30
0.0
 11
6.215631873526906
 21
54.24055469140175
 31
0.0
  0
LINE
  5
2872
330
2853
100
AcDbEntity
  8
0
100
AcDbLine
 10
-19.2402122491888
 20
68.93749314810084
 30
0.0
 11
-17.11889190562915
 21
70.16223801949243
 31
0.0
  0
LINE
  5
2873
330
2853
100
AcDbEntity
  8
0
100
AcDbLine
 10
-18.11889190562918
 20
29.23234247358763
 30
0.0
 11
-20.24021224918882
 21
28.00759760219604
 31
0.0
  0
LINE
  5
2874
330
2853
100
AcDbEntity
  8
0
100
AcDbLine
 10
15.69876287159004
 20
9.89071668176404
 30
0.0
 11
18.59654035045723
 21
10.33900441784806
 31
0.0
  0
LINE
  5
2875
330
2853
100
AcDbEntity
  8
0
100
AcDbLine
 10
20.15834113507656
 20
-69.14621941267999
 30
0.0
 11
17.26056365620936
 21
-69.59450714876402
 31
0.0
  0
LINE
  5
2876
330
2853
100
AcDbEntity
  8
0
100
AcDbLine
 10
9.336952217086533
 20
43.07397626498264
 30
0.0
 11
7.21563187352689
 21
41.84923139359105
 31
0.0
  0
LINE
  5
2877
330
2853
100
AcDbEntity
  8
0
100
AcDbLine
 10
-18.11889190562916
 20
70.26129566520586
 30
0.0
 11
-20.2402122491888
 21
69.03655079381427
 31
0.0
  0
LINE
  5
2878
330
2853
100
AcDbEntity
  8
0
100
AcDbLine
 10
-19.24021224918882
 20
27.90853995648261
 30
0.0
 11
-8.280057140797341
 21
21.58069145429274
 31
0.0
  0
LINE
  5
2879
330
2853
100
AcDbEntity
  8
0
100
AcDbLine
 10
-17.11889190562917
 20
29.1332848278742
 30
0.0
 11
-7.199133607420198
 21
23.40610970410722
 31
0.0
  0
LINE
  5
287A
330
2853
100
AcDbEntity
  8
0
100
AcDbLine
 10
-20.65442581156192
 20
-6.996688878177685
 30
0.0
 11
-20.65442581156192
 21
27.09204337555489
 31
0.0
  0
LINE
  5
287B
330
2853
100
AcDbEntity
  8
0
100
AcDbLine
 10
-8.145283349686419
 20
-15.85183880772833
 30
0.0
 11
-19.24021224918883
 21
-9.44617862096087
 31
0.0
  0
LINE
  5
287C
330
2853
100
AcDbEntity
  8
0
100
AcDbLine
 10
-0.125712177328518
 20
-20.48194038287454
 30
0.0
 11
-4.879297025975533
 21
-17.73745689089246
 31
0.0
  0
LINE
  5
287D
330
2853
100
AcDbEntity
  8
0
100
AcDbLine
 10
-8.556329699727541
 20
-0.1742393193371283
 30
0.0
 11
-6.10618628571999
 21
-2.087691384665832
 31
0.0
  0
ELLIPSE
  5
287E
330
2853
100
AcDbEntity
  8
0
100
AcDbEllipse
 10
-8.280057140797351
 20
1.475462011607393
 30
0.0
 11
-1.125
 21
1.948557158514988
 31
0.0
210
0.0
220
0.0
230
0.9999999999999998
 40
0.5773502691896259
 41
5.497787143782129
 42
8.464846857271338
  0
LINE
  5
287F
330
2853
100
AcDbEntity
  8
0
100
AcDbLine
 10
-8.280057140797341
 20
25.25492606846752
 30
0.0
 11
-19.24021224918882
 21
31.58277457065739
 31
0.0
  0
LINE
  5
2880
330
2853
100
AcDbEntity
  8
0
100
AcDbLine
 10
-17.11889190562915
 20
70.16223801949243
 30
0.0
 11
-6.023963006126773
 21
63.75657783272497
 31
0.0
  0
LINE
  5
2881
330
2853
100
AcDbEntity
  8
0
100
AcDbLine
 10
-2.757976682415886
 20
61.87095974956085
 30
0.0
 11
8.336952217086549
 21
55.46529956279335
 31
0.0
  0
LINE
  5
2882
330
2853
100
AcDbEntity
  8
0
100
AcDbLine
 10
9.75116577945964
 20
53.01580982001016
 30
0.0
 11
9.751165779459629
 21
43.98953049162379
 31
0.0
  0
ELLIPSE
  5
2883
330
2853
100
AcDbEntity
  8
0
100
AcDbEllipse
 10
-6.158736797237692
 20
46.58490038254441
 30
0.0
 11
1.125000000000117
 21
-1.948557158514921
 31
0.0
210
0.0
220
0.0
230
1.0
 40
0.5773502691896259
 41
4.183160491254055
 42
5.497787143781957
  0
LINE
  5
2884
330
2853
100
AcDbEntity
  8
0
100
AcDbLine
 10
10.29538572621058
 20
23.48170337190398
 30
0.0
 11
11.1757775696304
 21
21.5847225929026
 31
0.0
  0
LINE
  5
2885
330
2853
100
AcDbEntity
  8
0
100
AcDbLine
 10
-3.810814388287667
 20
37.67936025033733
 30
0.0
 11
10.29538572621058
 21
23.48170337190398
 31
0.0
  0
LINE
  5
2886
330
2853
100
AcDbEntity
  8
0
100
AcDbLine
 10
-7.503600005489778
 20
43.58206283431548
 30
0.0
 11
-3.810814388287667
 21
37.67936025033733
 31
0.0
  0
ELLIPSE
  5
2887
330
2853
100
AcDbEntity
  8
0
100
AcDbEllipse
 10
-7.568304766765409
 20
22.78077101002887
 30
0.0
 11
0.3439843869497658
 21
-2.22355003126415
 31
0.0
210
0.0
220
0.0
230
1.0
 40
0.2113248654051872
 41
5.762612009145486
 42
8.68152263405334
  0
LINE
  5
2888
330
2853
100
AcDbEntity
  8
0
100
AcDbLine
 10
-3.810814388287673
 20
-8.310351313201325
 30
0.0
 11
-7.503600005489774
 21
1.700640417829601
 31
0.0
  0
LINE
  5
2889
330
2853
100
AcDbEntity
  8
0
100
AcDbLine
 10
10.29538572621058
 20
-54.90196839715771
 30
0.0
 11
-3.810814388287671
 21
-8.310351313201325
 31
0.0
  0
LINE
  5
288A
330
2853
100
AcDbEntity
  8
0
100
AcDbLine
 10
16.95479975669845
 20
-69.25101139394024
 30
0.0
 11
10.29538572621058
 21
-54.90196839715771
 31
0.0
  0
LINE
  5
288B
330
2853
100
AcDbEntity
  8
0
100
AcDbLine
 10
17.47243784690349
 20
4.751318979760168
 30
0.0
 11
17.4724378469035
 21
-68.73337330373519
 31
0.0
  0
LINE
  5
288C
330
2853
100
AcDbEntity
  8
0
100
AcDbLine
 10
16.00452677110094
 20
9.547220926940251
 30
0.0
 11
16.95479975669844
 21
7.499667213266025
 31
0.0
  0
LINE
  5
288D
330
2853
100
AcDbEntity
  8
0
100
AcDbLine
 10
14.75483787332701
 20
6.311028436002859
 30
0.0
 11
14.75483787332701
 21
8.973939944069368
 31
0.0
  0
ELLIPSE
  5
288E
330
2853
100
AcDbEntity
  8
0
100
AcDbEllipse
 10
13.91367597674383
 20
5.887412449934932
 30
0.0
 11
0.6497482864606679
 21
-4.200038947943391
 31
0.0
210
0.0
220
0.0
230
1.0
 40
0.2113248654051872
 41
5.651270994804514
 42
7.922278877133713
  0
LINE
  5
288F
330
2853
100
AcDbEntity
  8
0
100
AcDbLine
 10
13.52544740909004
 20
3.253818284729907
 30
0.0
 11
13.91367597674383
 21
2.41730198099209
 31
0.0
  0
ELLIPSE
  5
2890
330
2853
100
AcDbEntity
  8
0
100
AcDbEllipse
 10
13.52544740909004
 20
6.723928753672745
 30
0.0
 11
0.6497482864607577
 21
-4.20003894794338
 31
0.0
210
0.0
220
0.0
230
1.0
 40
0.2113248654051863
 41
4.0804746680081
 42
5.651270994802299
  0
LINE
  5
2891
330
2853
100
AcDbEntity
  8
0
100
AcDbLine
 10
12.42546646740432
 20
15.62603092835168
 30
0.0
 11
12.42546646740432
 21
9.094058280929878
 31
0.0
  0
LINE
  5
2892
330
2853
100
AcDbEntity
  8
0
100
AcDbLine
 10
15.32324394627154
 20
16.07431866443571
 30
0.0
 11
15.32324394627153
 21
9.542346017013908
 31
0.0
  0
LINE
  5
2893
330
2853
100
AcDbEntity
  8
0
100
AcDbLine
 10
18.90230424996815
 20
9.995508663024272
 30
0.0
 11
19.85257723556565
 21
7.947954949350055
 31
0.0
  0
LINE
  5
2894
330
2853
100
AcDbEntity
  8
0
100
AcDbLine
 10
20.37021532577071
 20
5.199606715844198
 30
0.0
 11
20.37021532577071
 21
-68.28508556765116
 31
0.0
  0
LINE
  5
2895
330
2853
100
AcDbEntity
  8
0
100
AcDbLine
 10
-4.605822526622572
 20
44.03035057039951
 30
0.0
 11
-0.9130369094204626
 21
38.12764798642137
 31
0.0
  0
LINE
  5
2896
330
2853
100
AcDbEntity
  8
0
100
AcDbLine
 10
-0.9130369094204626
 20
38.12764798642137
 30
0.0
 11
13.1931632050778
 21
23.92999110798801
 31
0.0
  0
LINE
  5
2897
330
2853
100
AcDbEntity
  8
0
100
AcDbLine
 10
13.1931632050778
 20
23.92999110798801
 30
0.0
 11
14.07355504849761
 21
22.03301032898663
 31
0.0
  0
LINE
  5
2898
330
2853
100
AcDbEntity
  8
0
100
AcDbLine
 10
6.699321398822839
 20
41.7675122995367
 30
0.0
 11
6.051461473977699
 21
41.86927401855775
 31
0.0
  0
ELLIPSE
  5
2899
330
2853
100
AcDbEntity
  8
0
100
AcDbEllipse
 10
-8.280057140797334
 20
45.36015551115283
 30
0.0
 11
-1.125000000000001
 21
1.948557158514989
 31
0.0
210
0.0
220
0.0
230
1.0
 40
0.5773502691896257
 41
5.67232006898157
 42
8.639379797371926
  0
LINE
  5
289A
330
2853
100
AcDbEntity
  8
0
100
AcDbLine
 10
6.051461473977699
 20
41.86927401855775
 30
0.0
 11
-8.556329699727523
 21
47.32886891463346
 31
0.0
  0
LINE
  5
289B
330
2853
100
AcDbEntity
  8
0
100
AcDbLine
 10
7.629845435899998
 20
51.79106494861857
 30
0.0
 11
7.629845435899986
 21
42.7647856202322
 31
0.0
  0
LINE
  5
289C
330
2853
100
AcDbEntity
  8
0
100
AcDbLine
 10
-4.879297025975529
 20
60.64621487816925
 30
0.0
 11
6.215631873526906
 21
54.24055469140175
 31
0.0
  0
LINE
  5
289D
330
2853
100
AcDbEntity
  8
0
100
AcDbLine
 10
-19.2402122491888
 20
68.93749314810084
 30
0.0
 11
-8.145283349686419
 21
62.53183296133338
 31
0.0
  0
LINE
  5
289E
330
2853
100
AcDbEntity
  8
0
100
AcDbLine
 10
-20.65442581156192
 20
34.03226431344057
 30
0.0
 11
-20.6544258115619
 21
68.12099656717312
 31
0.0
  0
LINE
  5
289F
330
2853
100
AcDbEntity
  8
0
100
AcDbLine
 10
15.32324394627153
 20
9.542346017013908
 30
0.0
 11
12.42546646740432
 21
9.094058280929878
 31
0.0
  0
LINE
  5
28A0
330
2853
100
AcDbEntity
  8
0
100
AcDbLine
 10
-7.118269514158587
 20
0.656025115911989
 30
0.0
 11
-8.556329699727541
 21
-0.1742393193371283
 31
0.0
  0
LINE
  5
28A1
330
2853
100
AcDbEntity
  8
0
100
AcDbLine
 10
-0.9130369094204626
 20
38.12764798642137
 30
0.0
 11
-3.810814388287667
 21
37.67936025033733
 31
0.0
  0
LINE
  5
28A2
330
2853
100
AcDbEntity
  8
0
100
AcDbLine
 10
13.1931632050778
 20
23.92999110798801
 30
0.0
 11
10.29538572621058
 21
23.48170337190398
 31
0.0
  0
LINE
  5
28A3
330
2853
100
AcDbEntity
  8
0
100
AcDbLine
 10
15.01360610187562
 20
3.484037235697599
 30
0.0
 11
13.52544740909004
 21
3.253818284729907
 31
0.0
  0
LINE
  5
28A4
330
2853
100
AcDbEntity
  8
0
100
AcDbLine
 10
14.96223745009106
 20
2.579515005442654
 30
0.0
 11
13.91367597674383
 21
2.41730198099209
 31
0.0
  0
LINE
  5
28A5
330
2853
100
AcDbEntity
  8
0
100
AcDbLine
 10
-8.280057140797339
 20
21.58069145429274
 30
0.0
 11
-7.028156900931178
 21
22.30347639477802
 31
0.0
  0
LINE
  5
28A6
330
2853
100
AcDbEntity
  8
0
100
AcDbLine
 10
-8.280057140797337
 20
3.31257931869477
 30
0.0
 11
-8.280057140797339
 21
21.58069145429274
 31
0.0
  0
LINE
  5
28A7
330
2853
100
AcDbEntity
  8
0
100
AcDbLine
 10
-7.503600005489778
 20
43.58206283431548
 30
0.0
 11
-7.503600005489778
 21
24.46709348442312
 31
0.0
  0
LINE
  5
28A8
330
2853
100
AcDbEntity
  8
0
100
AcDbLine
 10
-7.503600005489778
 20
20.81560976772202
 30
0.0
 11
-7.503600005489774
 21
1.700640417829601
 31
0.0
  0
LINE
  5
28A9
330
2853
100
AcDbEntity
  8
0
100
AcDbLine
 10
-8.280057140797341
 20
25.25492606846752
 30
0.0
 11
-8.280057140797342
 21
43.52303820406546
 31
0.0
  0
SPLINE
  5
28AA
330
2853
100
AcDbEntity
  8
0
100
AcDbSpline
210
0.0
220
0.0
230
1.0
 70
     8
 71
     3
 72
    10
 73
     6
 74
     0
 42
0.000000001
 43
0.0000000001
 40
0.0
 40
0.0
 40
0.0
 40
0.0
 40
0.1551474605007358
 40
0.1551474605007358
 40
0.3102949210733045
 40
0.3102949210733045
 40
0.3102949210733045
 40
0.3102949210733045
 10
-6.016574686919207
 20
44.69076837897465
 30
0.0
 10
-5.682027880711499
 20
44.61873964314626
 30
0.0
 10
-5.392624367267629
 20
44.52331696788078
 30
0.0
 10
-4.917053611470249
 20
44.29797737931551
 30
0.0
 10
-4.732673109024267
 20
44.16891199600249
 30
0.0
 10
-4.605822526622573
 20
44.03035057039951
 30
0.0
  0
LINE
  5
28AB
330
2853
100
AcDbEntity
  8
0
100
AcDbLine
 10
-8.208976085638097
 20
43.50848582576166
 30
0.0
 11
-6.016574686919207
 21
44.69076837897465
 31
0.0
  0
SPLINE
  5
28AC
330
2853
100
AcDbEntity
  8
0
100
AcDbSpline
210
0.0
220
0.0
230
1.0
 70
     8
 71
     3
 72
    10
 73
     6
 74
     0
 42
0.000000001
 43
0.0000000001
 40
0.0
 40
0.0
 40
0.0
 40
0.0
 40
0.0886369508136941
 40
0.0886369508136941
 40
0.1772739016373416
 40
0.1772739016373416
 40
0.1772739016373416
 40
0.1772739016373416
 10
-7.503600005489772
 20
43.58206283431548
 30
0.0
 10
-7.567025228627032
 20
43.58396124969472
 30
0.0
 10
-7.65921542173454
 20
43.58136483675853
 30
0.0
 10
-7.897001051855356
 20
43.55927152218029
 30
0.0
 10
-8.041702861944136
 20
43.53985371955745
 30
0.0
 10
-8.208976085638097
 20
43.50848582576166
 30
0.0
  0
LINE
  5
28AD
330
2853
100
AcDbEntity
  8
0
100
AcDbLine
 10
-4.605822526622572
 20
44.03035057039951
 30
0.0
 11
-7.503600005489778
 21
43.58206283431548
 31
0.0
  0
ELLIPSE
  5
28AE
330
2853
100
AcDbEntity
  8
0
100
AcDbEllipse
 10
-10.40137748435698
 20
24.03018119707593
 30
0.0
 11
3.000000000000001
 21
0.0
 31
0.0
210
0.0
220
0.0
230
1.0
 40
0.5773502691896257
 41
0.2836160034490795
 42
0.7853981633974474
  0
SPLINE
  5
28AF
330
2853
100
AcDbEntity
  8
0
100
AcDbSpline
210
0.0
220
0.0
230
1.0
 70
     8
 71
     3
 72
    10
 73
     6
 74
     0
 42
0.000000001
 43
0.0000000001
 40
0.0
 40
0.0
 40
0.0
 40
0.0
 40
0.0033190141477375
 40
0.0033190141477375
 40
0.0078572874875569
 40
0.0078572874875569
 40
0.0078572874875569
 40
0.0078572874875569
 10
-7.521227921199198
 20
24.51485926680951
 30
0.0
 10
-7.518132066344167
 20
24.50872703657492
 30
0.0
 10
-7.515126159830842
 20
24.50167445384848
 30
0.0
 10
-7.508223884160624
 20
24.48295987516365
 30
0.0
 10
-7.505223386488824
 20
24.47277414137906
 30
0.0
 10
-7.503600005489776
 20
24.46709348442312
 30
0.0
  0
SPLINE
  5
28B0
330
2853
100
AcDbEntity
  8
0
100
AcDbSpline
210
0.0
220
0.0
230
1.0
 70
     8
 71
     3
 72
    10
 73
     6
 74
     0
 42
0.000000001
 43
0.0000000001
 40
0.0
 40
0.0
 40
0.0
 40
0.0
 40
0.0103760936319204
 40
0.0103760936319204
 40
0.0242612202825049
 40
0.0242612202825049
 40
0.0242612202825049
 40
0.0242612202825049
 10
-6.158736797237698
 20
44.74778307545705
 30
0.0
 10
-6.134280110006589
 20
44.73366292719028
 30
0.0
 10
-6.110162852161816
 20
44.72186935046522
 30
0.0
 10
-6.054714845634574
 20
44.69967096343984
 30
0.0
 10
-6.030316895024689
 20
44.69373593334417
 30
0.0
 10
-6.016574686919208
 20
44.69076837897467
 30
0.0
  0
LINE
  5
28B1
330
2853
100
AcDbEntity
  8
0
100
AcDbLine
 10
-8.280057140797342
 20
43.52303820406546
 30
0.0
 11
-6.158736797237698
 21
44.74778307545705
 31
0.0
  0
SPLINE
  5
28B2
330
2853
100
AcDbEntity
  8
0
100
AcDbSpline
210
0.0
220
0.0
230
1.0
 70
     8
 71
     3
 72
    10
 73
     6
 74
     0
 42
0.000000001
 43
0.0000000001
 40
0.0
 40
0.0
 40
0.0
 40
0.0
 40
0.0032590625426254
 40
0.0032590625426254
 40
0.0055671261380544
 40
0.0055671261380544
 40
0.0055671261380544
 40
0.0055671261380544
 10
-8.208976085638097
 20
43.50848582576168
 30
0.0
 10
-8.215132028735443
 20
43.5073457228157
 30
0.0
 10
-8.227496660244336
 20
43.50552521651633
 30
0.0
 10
-8.255539206404948
 20
43.51122196977617
 30
0.0
 10
-8.26759636302444
 20
43.51584375225829
 30
0.0
 10
-8.280057140666814
 20
43.52303820399009
 30
0.0
  0
ELLIPSE
  5
28B3
330
2853
100
AcDbEntity
  8
0
100
AcDbEllipse
 10
-10.40137748435698
 20
20.35594658290115
 30
0.0
 11
3.0
 21
-0.0000000000000215
 31
0.0
210
0.0
220
0.0
230
1.0
 40
0.5773502691896307
 41
0.2836160034490844
 42
0.785398163397454
  0
SPLINE
  5
28B4
330
2853
100
AcDbEntity
  8
0
100
AcDbSpline
210
0.0
220
0.0
230
1.0
 70
     8
 71
     3
 72
    10
 73
     6
 74
     0
 42
0.000000001
 43
0.0000000001
 40
0.0
 40
0.0
 40
0.0
 40
0.0
 40
0.005286660242894
 40
0.005286660242894
 40
0.0127516002422278
 40
0.0127516002422278
 40
0.0127516002422278
 40
0.0127516002422278
 10
-8.280057140666814
 20
3.312579318619413
 30
0.0
 10
-8.267596362977084
 20
3.305385303669812
 30
0.0
 10
-8.255539206313475
 20
3.295830712897349
 30
0.0
 10
-8.227496660179991
 20
3.268014089125954
 30
0.0
 10
-8.215132028712865
 20
3.25095746969318
 30
0.0
 10
-8.208976085638097
 20
3.242207060641351
 30
0.0
  0
SPLINE
  5
28B5
330
2853
100
AcDbEntity
  8
0
100
AcDbSpline
210
0.0
220
0.0
230
1.0
 70
     8
 71
     3
 72
    10
 73
     6
 74
     0
 42
0.000000001
 43
0.0000000001
 40
0.0
 40
0.0
 40
0.0
 40
0.0
 40
0.0886369508136885
 40
0.0886369508136885
 40
0.1772739016373231
 40
0.1772739016373231
 40
0.1772739016373231
 40
0.1772739016373231
 10
-8.208976085638097
 20
3.242207060641359
 30
0.0
 10
-8.041702861962914
 20
3.004047060310752
 30
0.0
 10
-7.89700105188777
 20
2.754947388405466
 30
0.0
 10
-7.659215421755208
 20
2.237987788982387
 30
0.0
 10
-7.567025228634147
 20
1.972066727362165
 30
0.0
 10
-7.50360000548977
 20
1.700640417829579
 30
0.0
  0
SPLINE
  5
28B6
330
2853
100
AcDbEntity
  8
0
100
AcDbSpline
210
0.0
220
0.0
230
1.0
 70
     8
 71
     3
 72
    10
 73
     6
 74
     0
 42
0.000000001
 43
0.0000000001
 40
0.0
 40
0.0
 40
0.0
 40
0.0
 40
0.0020454615074317
 40
0.0020454615074317
 40
0.0035413863171738
 40
0.0035413863171738
 40
0.0035413863171738
 40
0.0035413863171738
 10
-7.503600005489776
 20
20.81560976772201
 30
0.0
 10
-7.505223386489349
 20
20.81692491059179
 30
0.0
 10
-7.508223884160907
 20
20.8195967672094
 30
0.0
 10
-7.515126159830895
 20
20.82938401490732
 30
0.0
 10
-7.518132066344152
 20
20.83449235023054
 30
0.0
 10
-7.521227921199197
 20
20.84062465263474
 30
0.0
  0
LINE
  5
28B7
330
2853
100
AcDbEntity
  8
0
100
AcDbLine
 10
-7.521227921199197
 20
20.84062465263474
 30
0.0
 11
-7.02939733622694
 21
20.92339101366321
 31
0.0
  0
LINE
  5
28B8
330
2853
100
AcDbEntity
  8
0
100
AcDbLine
 10
-7.036173104198894
 20
20.88792096100466
 30
0.0
 11
-7.503600005489778
 21
20.81560976772202
 31
0.0
  0
ELLIPSE
  5
28B9
330
2853
100
AcDbEntity
  8
0
100
AcDbEllipse
 10
-16.41178512444261
 20
19.94769829243726
 30
0.0
 11
1.25
 21
-2.165063509461097
 31
0.0
210
0.0
220
0.0
230
1.0
 40
0.5773502691896259
 41
0.0
 42
6.283185307179586
  0
ELLIPSE
  5
28BA
330
2853
100
AcDbEntity
  8
0
100
AcDbEllipse
 10
-16.41178512444261
 20
-4.547199135394506
 30
0.0
 11
1.25
 21
-2.165063509461097
 31
0.0
210
0.0
220
0.0
230
1.0
 40
0.5773502691896259
 41
0.0
 42
6.283185307179586
  0
ELLIPSE
  5
28BB
330
2853
100
AcDbEntity
  8
0
100
AcDbEllipse
 10
5.508525092340345
 20
50.56632007722699
 30
0.0
 11
1.250000000000129
 21
-2.165063509461022
 31
0.0
210
0.0
220
0.0
230
0.9999999999999998
 40
0.5773502691896259
 41
4.154790153685031
 42
5.269987807084101
  0
ELLIPSE
  5
28BC
330
2853
100
AcDbEntity
  8
0
100
AcDbEllipse
 10
-14.29046478088297
 20
61.99727221021518
 30
0.0
 11
1.250000000000129
 21
-2.165063509461022
 31
0.0
210
0.0
220
0.0
230
0.9999999999999998
 40
0.5773502691896259
 41
4.154790153685031
 42
5.269987807084102
  0
ELLIPSE
  5
28BD
330
2853
100
AcDbEntity
  8
0
100
AcDbEllipse
 10
-14.29046478088297
 20
37.50237478238336
 30
0.0
 11
1.250000000000129
 21
-2.165063509461022
 31
0.0
210
0.0
220
0.0
230
1.0
 40
0.5773502691896259
 41
4.154790153685036
 42
5.269987807084102
  0
ELLIPSE
  5
28BE
330
2853
100
AcDbEntity
  8
0
100
AcDbEllipse
 10
-14.29046478088296
 20
21.17244316382886
 30
0.0
 11
1.250000000000129
 21
-2.165063509461022
 31
0.0
210
0.0
220
0.0
230
1.0
 40
0.5773502691896259
 41
4.154790153685036
 42
5.269987807084102
  0
ELLIPSE
  5
28BF
330
2853
100
AcDbEntity
  8
0
100
AcDbEllipse
 10
-14.29046478088297
 20
-3.322454264002914
 30
0.0
 11
1.250000000000129
 21
-2.165063509461022
 31
0.0
210
0.0
220
0.0
230
1.0
 40
0.5773502691896259
 41
4.15479015368504
 42
5.269987807084103
  0
ELLIPSE
  5
28C0
330
2853
100
AcDbEntity
  8
0
100
AcDbEllipse
 10
3.387204748780697
 20
49.3415752058354
 30
0.0
 11
1.25
 21
-2.165063509461097
 31
0.0
210
0.0
220
0.0
230
1.0
 40
0.5773502691896259
 41
0.0
 42
6.283185307179586
  0
ELLIPSE
  5
28C1
330
2853
100
AcDbEntity
  8
0
100
AcDbEllipse
 10
-16.41178512444261
 20
60.7725273388236
 30
0.0
 11
1.25
 21
-2.165063509461097
 31
0.0
210
0.0
220
0.0
230
1.0
 40
0.5773502691896259
 41
0.0
 42
6.283185307179586
  0
ELLIPSE
  5
28C2
330
2853
100
AcDbEntity
  8
0
100
AcDbEllipse
 10
-16.41178512444261
 20
36.27762991099177
 30
0.0
 11
1.25
 21
-2.165063509461097
 31
0.0
210
0.0
220
0.0
230
1.0
 40
0.5773502691896259
 41
0.0
 42
6.283185307179586
  0
LINE
  5
28C3
330
2853
100
AcDbEntity
  8
0
100
AcDbLine
 10
-8.145283349686419
 20
-15.85183880772833
 30
0.0
 11
-6.512290187830971
 21
-13.52866152559951
 31
0.0
  0
LINE
  5
28C4
330
2853
100
AcDbEntity
  8
0
100
AcDbLine
 10
-6.512290187830971
 20
-13.52866152559951
 30
0.0
 11
-4.879297025975533
 21
-17.73745689089246
 31
0.0
  0
LINE
  5
28C5
330
2853
100
AcDbEntity
  8
0
100
AcDbLine
 10
-6.023963006126774
 20
63.75657783272497
 30
0.0
 11
-4.828529043236045
 21
60.67552578667012
 31
0.0
  0
LINE
  5
28C6
330
2853
100
AcDbEntity
  8
0
100
AcDbLine
 10
-6.074730988866253
 20
-14.65640484483759
 30
0.0
 11
-8.145283349686419
 21
-15.85183880772833
 31
0.0
  0
LINE
  5
28C7
330
2853
100
AcDbEntity
  8
0
100
AcDbLine
 10
-4.879297025975529
 20
60.64621487816925
 30
0.0
 11
-6.512290187830981
 21
58.32303759604044
 31
0.0
  0
LINE
  5
28C8
330
2853
100
AcDbEntity
  8
0
100
AcDbLine
 10
-6.512290187830981
 20
58.32303759604044
 30
0.0
 11
-8.145283349686417
 21
62.53183296133338
 31
0.0
  0
LINE
  5
28C9
330
2853
100
AcDbEntity
  8
0
100
AcDbLine
 10
-2.757976682415886
 20
61.87095974956085
 30
0.0
 11
-4.879297025975529
 21
60.64621487816925
 31
0.0
  0
LINE
  5
28CA
330
2853
100
AcDbEntity
  8
0
100
AcDbLine
 10
-8.145283349686417
 20
62.53183296133338
 30
0.0
 11
-6.023963006126774
 21
63.75657783272497
 31
0.0
  0
LINE
  5
28CB
330
2853
100
AcDbEntity
  8
0
100
AcDbLine
 10
11.54180297341484
 20
20.31775483483159
 30
0.0
 11
12.42546646740432
 21
15.62603092835168
 31
0.0
  0
LINE
  5
28CC
330
2853
100
AcDbEntity
  8
0
100
AcDbLine
 10
12.42546646740432
 20
15.62603092835168
 30
0.0
 11
15.32324394627154
 21
16.07431866443571
 31
0.0
  0
LINE
  5
28CD
330
2853
100
AcDbEntity
  8
0
100
AcDbLine
 10
15.32324394627154
 20
16.07431866443571
 30
0.0
 11
14.43958045228205
 21
20.76604257091561
 31
0.0
  0
LINE
  5
28CE
330
2853
100
AcDbEntity
  8
0
100
AcDbLine
 10
14.75483787332701
 20
8.973939944069368
 30
0.0
 11
15.6385013673165
 21
9.85760343805885
 31
0.0
  0
ELLIPSE
  5
28CF
330
2853
100
AcDbEntity
  8
0
100
AcDbEllipse
 10
13.52544740909005
 20
-52.06382507312356
 30
0.0
 11
-1.108394135727179
 21
7.164772322962233
 31
0.0
210
0.0
220
0.0
230
1.0
 40
0.2113248654051873
 41
0.0
 42
6.283185307179585
  0
ELLIPSE
  5
28D0
330
2853
100
AcDbEntity
  8
0
100
AcDbEllipse
 10
13.52544740909006
 20
-12.87198918859271
 30
0.0
 11
-1.10839413572718
 21
7.164772322962234
 31
0.0
210
0.0
220
0.0
230
1.0
 40
0.2113248654051872
 41
0.0
 42
6.283185307179585
  0
ELLIPSE
  5
28D1
330
2853
100
AcDbEntity
  8
0
100
AcDbEllipse
 10
-2.385420708581459
 20
24.6771532343463
 30
0.0
 11
-0.6115277990218906
 21
3.952977833358467
 31
0.0
210
0.0
220
0.0
230
1.0
 40
0.211324865405187
 41
4.0804746680081
 42
7.222067321597895
  0
LINE
  5
28D2
330
2853
100
AcDbEntity
  8
0
100
AcDbLine
 10
-1.35014452817137
 20
-3.681447498641761
 30
0.0
 11
-1.350144528171377
 21
22.44644309104548
 31
0.0
  0
ELLIPSE
  5
28D3
330
2853
100
AcDbEntity
  8
0
100
AcDbEllipse
 10
-2.385420708581457
 20
-1.450737355340931
 30
0.0
 11
0.6115277990218907
 21
-3.952977833358467
 31
0.0
210
0.0
220
0.0
230
1.0
 40
0.211324865405187
 41
4.0804746680081
 42
7.222067321597894
  0
LINE
  5
28D4
330
2853
100
AcDbEntity
  8
0
100
AcDbLine
 10
-3.420696888991539
 20
26.90786337764711
 30
0.0
 11
-3.420696888991539
 21
0.7799727879598839
 31
0.0
  0
ELLIPSE
  5
28D5
330
2853
100
AcDbEntity
  8
0
100
AcDbEllipse
 10
13.52544740909006
 20
-32.46790713085812
 30
0.0
 11
-1.10839413572718
 21
7.164772322962234
 31
0.0
210
0.0
220
0.0
230
1.0
 40
0.2113248654051872
 41
0.0
 42
6.283185307179585
  0
ELLIPSE
  5
28D6
330
2853
100
AcDbEntity
  8
0
100
AcDbEllipse
 10
18.83803945367992
 20
-51.24196422363618
 30
0.0
 11
1.108394135727022
 21
-7.164772322962257
 31
0.0
210
0.0
220
0.0
230
0.9999999999999998
 40
0.2113248654051867
 41
0.3234674743216459
 42
1.554296554518005
  0
ELLIPSE
  5
28D7
330
2853
100
AcDbEntity
  8
0
100
AcDbEllipse
 10
18.83803945367992
 20
-31.64604628137074
 30
0.0
 11
1.108394135727022
 21
-7.164772322962259
 31
0.0
210
0.0
220
0.0
230
1.0
 40
0.2113248654051876
 41
0.3234674743216441
 42
1.554296554518006
  0
ELLIPSE
  5
28D8
330
2853
100
AcDbEntity
  8
0
100
AcDbEllipse
 10
18.83803945367993
 20
-12.05012833910533
 30
0.0
 11
1.108394135727022
 21
-7.164772322962257
 31
0.0
210
0.0
220
0.0
230
0.9999999999999998
 40
0.211324865405187
 41
0.3234674743216397
 42
1.554296554518012
  0
ELLIPSE
  5
28D9
330
2853
100
AcDbEntity
  8
0
100
AcDbEllipse
 10
-0.5229194101243352
 20
27.35615111373114
 30
0.0
 11
-3.0
 21
0.0000000000000001
 31
0.0
210
0.0
220
0.0
230
1.0
 40
0.5773502691896259
 41
0.2617993877991482
 42
1.129532890421093
  0
ELLIPSE
  5
28DA
330
2853
100
AcDbEntity
  8
0
100
AcDbEllipse
 10
1.547632950695829
 20
22.89473082712952
 30
0.0
 11
-2.999999999999987
 21
0.0
 31
0.0
210
0.0
220
0.0
230
1.0
 40
0.5773502691896258
 41
0.0
 42
0.2617993877991497
  0
ELLIPSE
  5
28DB
330
2853
100
AcDbEntity
  8
0
100
AcDbEllipse
 10
1.547632950695833
 20
-3.233159762557735
 30
0.0
 11
-3.0
 21
0.0
 31
0.0
210
0.0
220
0.0
230
1.0
 40
0.5773502691896259
 41
0.0
 42
0.2617993877991502
  0
ELLIPSE
  5
28DC
330
2853
100
AcDbEntity
  8
0
100
AcDbEllipse
 10
-0.5229194101243352
 20
1.228260524043909
 30
0.0
 11
-3.000000000000019
 21
-0.0000000000000015
 31
0.0
210
0.0
220
0.0
230
1.0
 40
0.5773502691896254
 41
0.2617993877991491
 42
1.255796948905947
  0
SPLINE
  5
28DD
330
2853
100
AcDbEntity
  8
0
100
AcDbSpline
210
0.0
220
0.0
230
1.0
 70
     8
 71
     3
 72
    28
 73
    24
 74
     0
 42
0.000000001
 43
0.0000000001
 40
6.062070055923555
 40
6.062070055923555
 40
6.062070055923555
 40
6.062070055923555
 40
6.086331680225153
 40
6.086331680225153
 40
6.215481644509701
 40
6.215481644509701
 40
6.389139163114739
 40
6.389139163114739
 40
6.613370812337941
 40
6.613370812337941
 40
6.877116099766557
 40
6.877116099766557
 40
7.162421023982477
 40
7.162421023982477
 40
7.455321362260614
 40
7.455321362260614
 40
7.745035140191683
 40
7.745035140191683
 40
8.017981168944146
 40
8.017981168944146
 40
8.250622146518342
 40
8.250622146518342
 40
8.382064587275266
 40
8.382064587275266
 40
8.382064587275266
 40
8.382064587275266
 10
13.54449902881913
 20
-46.66006553049871
 30
0.0
 10
13.54449902881914
 20
-46.66006553049871
 30
0.0
 10
13.54545349871973
 20
-46.6614482249538
 30
0.0
 10
13.55664277663103
 20
-46.67851789650502
 30
0.0
 10
13.58820261275881
 20
-46.72996997128513
 30
0.0
 10
13.68495480348399
 20
-46.91774554092289
 30
0.0
 10
13.75841145331099
 20
-47.0770937594009
 30
0.0
 10
13.94019676880314
 20
-47.52977730901111
 30
0.0
 10
14.05301455771407
 20
-47.84884047170269
 30
0.0
 10
14.29746956818648
 20
-48.6398768002639
 30
0.0
 10
14.42933009518854
 20
-49.12924550520203
 30
0.0
 10
14.68433488619732
 20
-50.22192962182359
 30
0.0
 10
14.80604113050273
 20
-50.83146701665687
 30
0.0
 10
15.01641169970625
 20
-52.08630534850211
 30
0.0
 10
15.10412510584558
 20
-52.73217075894709
 30
0.0
 10
15.23220325483903
 20
-53.96738561924642
 30
0.0
 10
15.27298661065044
 20
-54.5574276123341
 30
0.0
 10
15.30621893406807
 20
-55.58751220330023
 30
0.0
 10
15.30094375785679
 20
-56.03490483357099
 30
0.0
 10
15.26162685737257
 20
-56.69969725631638
 30
0.0
 10
15.23071187553378
 20
-56.94250642908952
 30
0.0
 10
15.18977049339222
 20
-57.16266114778709
 30
0.0
 10
15.17645965297104
 20
-57.20922483692022
 30
0.0
 10
15.17645965297103
 20
-57.20922483692021
 30
0.0
  0
SPLINE
  5
28DE
330
2853
100
AcDbEntity
  8
0
100
AcDbSpline
210
0.0
220
0.0
230
1.0
 70
     8
 71
     3
 72
    28
 73
    24
 74
     0
 42
0.000000001
 43
0.0000000001
 40
6.062070055923555
 40
6.062070055923555
 40
6.062070055923555
 40
6.062070055923555
 40
6.086331680225153
 40
6.086331680225153
 40
6.215481644509701
 40
6.215481644509701
 40
6.389139163114739
 40
6.389139163114739
 40
6.613370812337941
 40
6.613370812337941
 40
6.877116099766557
 40
6.877116099766557
 40
7.162421023982477
 40
7.162421023982477
 40
7.455321362260614
 40
7.455321362260614
 40
7.745035140191683
 40
7.745035140191683
 40
8.017981168944146
 40
8.017981168944146
 40
8.250622146518342
 40
8.250622146518342
 40
8.382064587275266
 40
8.382064587275266
 40
8.382064587275266
 40
8.382064587275266
 10
13.54449902881915
 20
-27.06414758823328
 30
0.0
 10
13.54449902881915
 20
-27.06414758823328
 30
0.0
 10
13.54545349871974
 20
-27.06553028268837
 30
0.0
 10
13.55664277663105
 20
-27.08259995423959
 30
0.0
 10
13.58820261275882
 20
-27.13405202901969
 30
0.0
 10
13.684954803484
 20
-27.32182759865747
 30
0.0
 10
13.758411453311
 20
-27.48117581713547
 30
0.0
 10
13.94019676880315
 20
-27.93385936674568
 30
0.0
 10
14.05301455771408
 20
-28.25292252943727
 30
0.0
 10
14.29746956818649
 20
-29.04395885799846
 30
0.0
 10
14.42933009518855
 20
-29.53332756293659
 30
0.0
 10
14.68433488619732
 20
-30.62601167955818
 30
0.0
 10
14.80604113050274
 20
-31.23554907439145
 30
0.0
 10
15.01641169970625
 20
-32.49038740623666
 30
0.0
 10
15.10412510584559
 20
-33.13625281668167
 30
0.0
 10
15.23220325483904
 20
-34.37146767698099
 30
0.0
 10
15.27298661065044
 20
-34.96150967006867
 30
0.0
 10
15.30621893406808
 20
-35.99159426103479
 30
0.0
 10
15.30094375785679
 20
-36.43898689130554
 30
0.0
 10
15.26162685737257
 20
-37.10377931405094
 30
0.0
 10
15.23071187553379
 20
-37.34658848682411
 30
0.0
 10
15.18977049339223
 20
-37.56674320552166
 30
0.0
 10
15.17645965297105
 20
-37.61330689465478
 30
0.0
 10
15.17645965297104
 20
-37.61330689465478
 30
0.0
  0
SPLINE
  5
28DF
330
2853
100
AcDbEntity
  8
0
100
AcDbSpline
210
0.0
220
0.0
230
1.0
 70
     8
 71
     3
 72
    28
 73
    24
 74
     0
 42
0.000000001
 43
0.0000000001
 40
6.062070055923555
 40
6.062070055923555
 40
6.062070055923555
 40
6.062070055923555
 40
6.086331680225153
 40
6.086331680225153
 40
6.215481644509701
 40
6.215481644509701
 40
6.389139163114739
 40
6.389139163114739
 40
6.613370812337941
 40
6.613370812337941
 40
6.877116099766557
 40
6.877116099766557
 40
7.162421023982477
 40
7.162421023982477
 40
7.455321362260614
 40
7.455321362260614
 40
7.745035140191683
 40
7.745035140191683
 40
8.017981168944146
 40
8.017981168944146
 40
8.250622146518342
 40
8.250622146518342
 40
8.382064587275266
 40
8.382064587275266
 40
8.382064587275266
 40
8.382064587275266
 10
13.54449902881915
 20
-7.468229645967858
 30
0.0
 10
13.54449902881915
 20
-7.468229645967858
 30
0.0
 10
13.54545349871973
 20
-7.469612340422937
 30
0.0
 10
13.55664277663103
 20
-7.486682011974172
 30
0.0
 10
13.58820261275882
 20
-7.538134086754277
 30
0.0
 10
13.68495480348399
 20
-7.725909656392051
 30
0.0
 10
13.758411453311
 20
-7.885257874870039
 30
0.0
 10
13.94019676880314
 20
-8.337941424480256
 30
0.0
 10
14.05301455771407
 20
-8.65700458717184
 30
0.0
 10
14.29746956818648
 20
-9.44804091573304
 30
0.0
 10
14.42933009518855
 20
-9.937409620671173
 30
0.0
 10
14.68433488619731
 20
-11.03009373729274
 30
0.0
 10
14.80604113050272
 20
-11.63963113212602
 30
0.0
 10
15.01641169970625
 20
-12.89446946397124
 30
0.0
 10
15.10412510584558
 20
-13.54033487441624
 30
0.0
 10
15.23220325483904
 20
-14.77554973471558
 30
0.0
 10
15.27298661065044
 20
-15.36559172780324
 30
0.0
 10
15.30621893406807
 20
-16.39567631876938
 30
0.0
 10
15.3009437578568
 20
-16.84306894904011
 30
0.0
 10
15.26162685737256
 20
-17.50786137178552
 30
0.0
 10
15.23071187553377
 20
-17.75067054455868
 30
0.0
 10
15.18977049339223
 20
-17.97082526325624
 30
0.0
 10
15.17645965297103
 20
-18.01738895238935
 30
0.0
 10
15.17645965297103
 20
-18.01738895238935
 30
0.0
  0
SPLINE
  5
28E0
330
2853
100
AcDbEntity
  8
0
100
AcDbSpline
210
0.0
220
0.0
230
1.0
 70
     8
 71
     3
 72
    22
 73
    18
 74
     0
 42
0.000000001
 43
0.0000000001
 40
6.186130253120669
 40
6.186130253120669
 40
6.186130253120669
 40
6.186130253120669
 40
6.291196328482366
 40
6.291196328482366
 40
6.434632419026701
 40
6.434632419026701
 40
6.61778364761435
 40
6.61778364761435
 40
6.841760027005991
 40
6.841760027005991
 40
7.096172525475524
 40
7.096172525475524
 40
7.365535261782365
 40
7.365535261782365
 40
7.634386533739085
 40
7.634386533739085
 40
7.853981633974482
 40
7.853981633974482
 40
7.853981633974482
 40
7.853981633974482
 10
-2.226294287906855
 20
27.16420815320029
 30
0.0
 10
-2.226294287906855
 20
27.16420815320029
 30
0.0
 10
-2.218373393298949
 20
27.14927531673092
 30
0.0
 10
-2.189447145276426
 20
27.08621686396889
 30
0.0
 10
-2.164689841895634
 20
27.0279949006122
 30
0.0
 10
-2.100316529411119
 20
26.85829671659773
 30
0.0
 10
-2.058367957290784
 20
26.73649401524183
 30
0.0
 10
-1.962232632833348
 20
26.42391020675522
 30
0.0
 10
-1.907276856589521
 20
26.22369697194435
 30
0.0
 10
-1.794700977807599
 20
25.75917732127399
 30
0.0
 10
-1.737648178092685
 20
25.48974428984189
 30
0.0
 10
-1.633556455673679
 20
24.9184413574322
 30
0.0
 10
-1.587275584081679
 20
24.6155177795837
 30
0.0
 10
-1.514347833433902
 20
24.02543386602912
 30
0.0
 10
-1.487689166433725
 20
23.73813898402204
 30
0.0
 10
-1.458442341320003
 20
23.26173675772917
 30
0.0
 10
-1.45236704930417
 20
23.06418683433577
 30
0.0
 10
-1.452367049304172
 20
22.89473082712952
 30
0.0
  0
LINE
  5
28E1
330
2853
100
AcDbEntity
  8
0
100
AcDbLine
 10
-1.452367049304168
 20
22.89473082712951
 30
0.0
 11
-1.452367049304166
 21
-3.233159762557731
 31
0.0
  0
SPLINE
  5
28E2
330
2853
100
AcDbEntity
  8
0
100
AcDbSpline
210
0.0
220
0.0
230
1.0
 70
     8
 71
     3
 72
    12
 73
     8
 74
     0
 42
0.000000001
 43
0.0000000001
 40
1.570796326794896
 40
1.570796326794896
 40
1.570796326794896
 40
1.570796326794896
 40
1.758572729678861
 40
1.758572729678861
 40
1.933134425214459
 40
1.933134425214459
 40
1.974819082898567
 40
1.974819082898567
 40
1.974819082898567
 40
1.974819082898567
 10
-1.45236704930417
 20
-3.233159762557726
 30
0.0
 10
-1.45236704930417
 20
-3.378062082537356
 30
0.0
 10
-1.456904962640988
 20
-3.502564981285631
 30
0.0
 10
-1.469447551879206
 20
-3.683776267984946
 30
0.0
 10
-1.477530061690137
 20
-3.744969692136672
 30
0.0
 10
-1.481720184269528
 20
-3.770811897123493
 30
0.0
 10
-1.482220687037305
 20
-3.773449801649166
 30
0.0
 10
-1.482220687037303
 20
-3.773449801649162
 30
0.0
  0
ENDBLK
  5
2855
330
2853
100
AcDbEntity
  8
0
100
AcDbBlockEnd
  0
ENDSEC
  0
SECTION
  2
ENTITIES
  0
INSERT
  5
28E3
330
1F
100
AcDbEntity
  8
0
100
AcDbBlockReference
  2
TU_S12_SKR-Front
 10
0.0
 20
0.0
 30
0.0
  0
INSERT
  5
28E4
330
1F
100
AcDbEntity
  8
0
100
AcDbBlockReference
  2
TU_S12_SKR-Left
 10
113.7634514651983
 20
0.0
 30
0.0
  0
INSERT
  5
28E5
330
1F
100
AcDbEntity
  8
0
100
AcDbBlockReference
  2
TU_S12_SKR-Right
 10
-47.908
 20
0.0
 30
0.0
  0
INSERT
  5
28E6
330
1F
100
AcDbEntity
  8
0
100
AcDbBlockReference
  2
TU_S12_SKR-Top
 10
0.0
 20
-76.80000000000006
 30
0.0
  0
INSERT
  5
28E7
330
1F
100
AcDbEntity
  8
0
100
AcDbBlockReference
  2
TU_S12_SKR-Bottom
 10
0.0
 20
76.80000000000001
 30
0.0
  0
INSERT
  5
28E8
330
1F
100
AcDbEntity
  8
0
100
AcDbBlockReference
  2
TU_S12_SKR-ISO
 10
134.4178772767603
 20
-147.1549867159876
 30
0.0
  0
MTEXT
  5
28E9
330
1F
100
AcDbEntity
  8
0
100
AcDbMText
 10
0.0
 20
-157.2519237886467
 30
0.0
 40
9.600000000000003
 41
0.0
 71
     5
 72
     5
  1
TU/S12
 73
     1
 44
1.0
1001
ACAD
1000
MTEXTBEGIN
1070
    73
1070
     1
1070
    44
1040
1.0
1070
    74
1070
     0
1000
MTEXTEND
  0
ENDSEC
  0
SECTION
  2
OBJECTS
  0
DICTIONARY
  5
C
330
0
100
AcDbDictionary
281
     1
  3
ACAD_CIP_PREVIOUS_PRODUCT_INFO
350
216
  3
ACAD_COLOR
350
6B
  3
ACAD_DETAILVIEWSTYLE
350
21B
  3
ACAD_GROUP
350
D
  3
ACAD_LAYOUT
350
1A
  3
ACAD_MATERIAL
350
6A
  3
ACAD_MLEADERSTYLE
350
12D
  3
ACAD_MLINESTYLE
350
17
  3
ACAD_PLOTSETTINGS
350
19
  3
ACAD_PLOTSTYLENAME
350
E
  3
ACAD_SCALELIST
350
10C
  3
ACAD_SECTIONVIEWSTYLE
350
219
  3
ACAD_TABLESTYLE
350
7E
  3
ACAD_VISUALSTYLE
350
EF
  3
ACDB_RECOMPOSE_DATA
350
29EA
  3
AcDbVariableDictionary
350
5E
  3
DWGPROPS
350
29EB
  0
DICTIONARY
  5
293A
330
8
100
AcDbDictionary
280
     1
281
     1
  0
DICTIONARY
  5
1FF
330
2
100
AcDbDictionary
280
     1
281
     1
  3
ACAD_LAYERSTATES
360
200
  0
DICTIONARY
  5
13C
330
10
100
AcDbDictionary
280
     1
281
     1
  0
DICTIONARY
  5
1CE
330
1F
100
AcDbDictionary
280
     1
281
     1
  3
ACAD_LAYOUTSELFREF
360
2942
  0
DICTIONARY
  5
28ED
330
D2
100
AcDbDictionary
280
     1
281
     1
  3
ACAD_LAYOUTSELFREF
360
294B
  0
DICTIONARY
  5
28EF
330
D6
100
AcDbDictionary
280
     1
281
     1
  3
ACAD_LAYOUTSELFREF
360
294E
  0
XRECORD
  5
216
102
{ACAD_REACTORS
330
C
102
}
330
C
100
AcDbXrecord
280
     1
300
ACD
300
2021
300

  0
DICTIONARY
  5
6B
102
{ACAD_REACTORS
330
C
102
}
330
C
100
AcDbDictionary
281
     1
  0
DICTIONARY
  5
21B
102
{ACAD_REACTORS
330
C
102
}
330
C
100
AcDbDictionary
281
     1
  3
Metric50
350
21C
  0
DICTIONARY
  5
D
102
{ACAD_REACTORS
330
C
102
}
330
C
100
AcDbDictionary
281
     1
  0
DICTIONARY
  5
1A
102
{ACAD_REACTORS
330
C
102
}
330
C
100
AcDbDictionary
281
     1
  3
Layout1
350
D3
  3
Layout2
350
D7
  3
Model
350
22
  0
DICTIONARY
  5
6A
102
{ACAD_REACTORS
330
C
102
}
330
C
100
AcDbDictionary
281
     1
  3
ByBlock
350
ED
  3
ByLayer
350
EC
  3
Global
350
EE
  0
DICTIONARY
  5
12D
102
{ACAD_REACTORS
330
C
102
}
330
C
100
AcDbDictionary
281
     1
  3
Standard
350
12E
  0
DICTIONARY
  5
17
102
{ACAD_REACTORS
330
C
102
}
330
C
100
AcDbDictionary
281
     1
  3
Standard
350
18
  0
DICTIONARY
  5
19
102
{ACAD_REACTORS
330
C
102
}
330
C
100
AcDbDictionary
281
     1
  0
ACDBDICTIONARYWDFLT
  5
E
102
{ACAD_REACTORS
330
C
102
}
330
C
100
AcDbDictionary
281
     1
  3
Normal
350
F
100
AcDbDictionaryWithDefault
340
F
  0
DICTIONARY
  5
10C
102
{ACAD_REACTORS
330
C
102
}
330
C
100
AcDbDictionary
281
     1
  3
A0
350
10D
  3
A1
350
1BE
  3
A2
350
1BF
  3
A3
350
1C0
  3
A4
350
1C1
  3
A5
350
1C2
  3
A6
350
1C3
  3
A7
350
1C4
  3
A8
350
1C5
  3
A9
350
1C6
  3
B0
350
1C7
  3
B1
350
1C8
  3
B2
350
1C9
  3
B3
350
1CA
  3
B4
350
1CB
  3
B5
350
1CC
  3
B6
350
1CD
  0
DICTIONARY
  5
219
102
{ACAD_REACTORS
330
C
102
}
330
C
100
AcDbDictionary
281
     1
  3
Metric50
350
21A
  0
DICTIONARY
  5
7E
102
{ACAD_REACTORS
330
C
102
}
330
C
100
AcDbDictionary
281
     1
  3
Standard
350
7F
  0
DICTIONARY
  5
EF
102
{ACAD_REACTORS
330
C
102
}
330
C
100
AcDbDictionary
281
     1
  3
2dWireframe
350
F5
  3
Basic
350
F4
  3
Brighten
350
FB
  3
ColorChange
350
FF
  3
Conceptual
350
F8
  3
Dim
350
FA
  3
EdgeColorOff
350
1E6
  3
Facepattern
350
FE
  3
Flat
350
F0
  3
FlatWithEdges
350
F1
  3
Gouraud
350
F2
  3
GouraudWithEdges
350
F3
  3
Hidden
350
F7
  3
JitterOff
350
1E4
  3
Linepattern
350
FD
  3
OverhangOff
350
1E5
  3
Realistic
350
F9
  3
Shaded
350
1F3
  3
Shaded with edges
350
1F2
  3
Shades of Gray
350
1EF
  3
Sketchy
350
1F0
  3
Thicken
350
FC
  3
Wireframe
350
F6
  3
X-Ray
350
1F1
  0
XRECORD
  5
29EA
102
{ACAD_REACTORS
330
C
102
}
330
C
100
AcDbXrecord
280
     1
 90
        1
330
7F
  0
DICTIONARY
  5
5E
102
{ACAD_REACTORS
330
C
102
}
330
C
100
AcDbDictionary
281
     1
  3
CANNOSCALE
350
146
  3
CENTEREXE
350
259
  3
CENTERLTYPEFILE
350
25A
  3
CMLEADERSTYLE
350
145
  3
CTABLESTYLE
350
84
  3
CVIEWDETAILSTYLE
350
227
  3
CVIEWSECTIONSTYLE
350
228
  3
DIMASSOC
350
5F
  3
HIDETEXT
350
63
  3
INDEXCTL
350
2997
  3
LAYEREVAL
350
1AE
  3
LAYERNOTIFY
350
1AF
  3
LIGHTINGUNITS
350
2995
  3
MSLTSCALE
350
2994
  3
PSOLHEIGHT
350
29E7
  3
PSOLWIDTH
350
29E6
  3
SORTENTS
350
2996
  3
XCLIPFRAME
350
29E8
  0
XRECORD
  5
29EB
102
{ACAD_REACTORS
330
C
102
}
330
C
100
AcDbXrecord
280
     1
  1
DWGPROPS COOKIE
  2

  3

  4

  6

  7

  8
tronnguyen
  9

300
=
301
=
302
=
303
=
304
=
305
=
306
=
307
=
308
=
309
=
 40
0.0082986111111111
 41
2460312.625706019
 42
2460312.648564815
  1

 90
        0
  0
DICTIONARY
  5
200
102
{ACAD_REACTORS
330
1FF
102
}
330
1FF
100
AcDbDictionary
281
     1
  0
XRECORD
  5
2942
102
{ACAD_REACTORS
330
1CE
102
}
330
1CE
100
AcDbXrecord
280
     1
340
1F
  0
XRECORD
  5
294B
102
{ACAD_REACTORS
330
28ED
102
}
330
28ED
100
AcDbXrecord
280
     1
340
D2
  0
XRECORD
  5
294E
102
{ACAD_REACTORS
330
28EF
102
}
330
28EF
100
AcDbXrecord
280
     1
340
D6
  0
ACDBDETAILVIEWSTYLE
  5
21C
102
{ACAD_XDICTIONARY
360
2A2A
102
}
102
{ACAD_REACTORS
330
21B
102
}
330
21B
100
AcDbModelDocViewStyle
 70
     0
  3
Metric50
290
     0
100
AcDbDetailViewStyle
 70
     0
 71
     0
 90
        3
 71
     1
340
11
 40
5.0
340
0
 40
5.0
300

 40
0.0
280
     1
 71
     2
340
16
 90
       25
 71
     3
340
11
 40
5.0
 90
        0
 40
15.0
 90
        1
300
%<\AcVar ViewDetailId>% (%<\AcVar ViewScale \f "%sn">%)
 71
     4
340
16
 90
       25
340
16
 90
       25
280
     0
  0
LAYOUT
  5
D3
102
{ACAD_XDICTIONARY
360
29EF
102
}
102
{ACAD_REACTORS
330
1A
102
}
330
1A
100
AcDbPlotSettings
  1

  2
C:\Documents and Settings\basas\Application Data\Autodesk\AutoCAD 2005\R16.1\enu\plotters\Default Windows System Printer.pc3
  4

  6

 40
0.0
 41
0.0
 42
0.0
 43
0.0
 44
0.0
 45
0.0
 46
0.0
 47
0.0
 48
0.0
 49
0.0
140
0.0
141
0.0
142
1.0
143
1.0
 70
   688
 72
     0
 73
     0
 74
     5
  7

 75
    16
147
1.0
148
0.0
149
0.0
100
AcDbLayout
  1
Layout1
 70
     1
 71
     1
 10
0.0
 20
0.0
 11
12.0
 21
9.0
 12
0.0
 22
0.0
 32
0.0
 14
0.0
 24
0.0
 34
0.0
 15
0.0
 25
0.0
 35
0.0
146
0.0
 13
0.0
 23
0.0
 33
0.0
 16
1.0
 26
0.0
 36
0.0
 17
0.0
 27
1.0
 37
0.0
 76
     0
330
D2
  0
LAYOUT
  5
D7
102
{ACAD_XDICTIONARY
360
29F1
102
}
102
{ACAD_REACTORS
330
1A
102
}
330
1A
100
AcDbPlotSettings
  1

  2
C:\Documents and Settings\basas\Application Data\Autodesk\AutoCAD 2005\R16.1\enu\plotters\Default Windows System Printer.pc3
  4

  6

 40
0.0
 41
0.0
 42
0.0
 43
0.0
 44
0.0
 45
0.0
 46
0.0
 47
0.0
 48
0.0
 49
0.0
140
0.0
141
0.0
142
1.0
143
1.0
 70
   688
 72
     0
 73
     0
 74
     5
  7

 75
    16
147
1.0
148
0.0
149
0.0
100
AcDbLayout
  1
Layout2
 70
     1
 71
     2
 10
0.0
 20
0.0
 11
12.0
 21
9.0
 12
0.0
 22
0.0
 32
0.0
 14
0.0
 24
0.0
 34
0.0
 15
0.0
 25
0.0
 35
0.0
146
0.0
 13
0.0
 23
0.0
 33
0.0
 16
1.0
 26
0.0
 36
0.0
 17
0.0
 27
1.0
 37
0.0
 76
     0
330
D6
  0
LAYOUT
  5
22
102
{ACAD_XDICTIONARY
360
29EC
102
}
102
{ACAD_REACTORS
330
1A
102
}
330
1A
100
AcDbPlotSettings
  1

  2
none_device
  4
ISO_A4_(210.00_x_297.00_MM)
  6

 40
7.5
 41
20.0
 42
7.5
 43
20.0
 44
210.0
 45
297.0
 46
11.54999923706054
 47
-13.65000009536743
 48
0.0
 49
0.0
140
0.0
141
0.0
142
1.0
143
8.704084754739808
 70
 11952
 72
     1
 73
     0
 74
     0
  7

 75
     0
147
0.1148885871608098
148
0.0
149
0.0
100
AcDbLayout
  1
Model
 70
     1
 71
     0
 10
0.0
 20
0.0
 11
12.0
 21
9.0
 12
0.0
 22
0.0
 32
0.0
 14
0.0
 24
0.0
 34
0.0
 15
0.0
 25
0.0
 35
0.0
146
0.0
 13
0.0
 23
0.0
 33
0.0
 16
1.0
 26
0.0
 36
0.0
 17
0.0
 27
1.0
 37
0.0
 76
     0
330
1F
331
EA
1001
ACAD_PSEXT
1000
None
1000
None
1000
Not applicable
1000
The layout will not be plotted unless a new plotter configuration name is selected.
1070
     0
  0
MATERIAL
  5
ED
102
{ACAD_XDICTIONARY
360
1F9
102
}
102
{ACAD_REACTORS
330
6A
102
}
330
6A
100
AcDbMaterial
  1
ByBlock
  0
MATERIAL
  5
EC
102
{ACAD_XDICTIONARY
360
1F7
102
}
102
{ACAD_REACTORS
330
6A
102
}
330
6A
100
AcDbMaterial
  1
ByLayer
  0
MATERIAL
  5
EE
102
{ACAD_XDICTIONARY
360
173
102
}
102
{ACAD_REACTORS
330
6A
102
}
330
6A
100
AcDbMaterial
  1
Global
 43
0.0007999999797903
 43
0.0
 43
0.0
 43
0.0
 43
0.0
 43
0.0007999999797903
 43
0.0
 43
0.0
 43
0.0
 43
0.0
 43
1.0
 43
0.0
 43
0.0
 43
0.0
 43
0.0
 43
1.0
 49
0.0007999999797903
 49
0.0
 49
0.0
 49
0.0
 49
0.0
 49
0.0007999999797903
 49
0.0
 49
0.0
 49
0.0
 49
0.0
 49
1.0
 49
0.0
 49
0.0
 49
0.0
 49
0.0
 49
1.0
142
0.0007999999797903
142
0.0
142
0.0
142
0.0
142
0.0
142
0.0007999999797903
142
0.0
142
0.0
142
0.0
142
0.0
142
1.0
142
0.0
142
0.0
142
0.0
142
0.0
142
1.0
144
0.0007999999797903
144
0.0
144
0.0
144
0.0
144
0.0
144
0.0007999999797903
144
0.0
144
0.0
144
0.0
144
0.0
144
1.0
144
0.0
144
0.0
144
0.0
144
0.0
144
1.0
1001
ACAD
1070
    -1
1070
     3
1070
     0
1000

1071
        0
1070
     0
  0
MLEADERSTYLE
  5
12E
102
{ACAD_XDICTIONARY
360
2A16
102
}
102
{ACAD_REACTORS
330
12D
102
}
330
12D
100
AcDbMLeaderStyle
170
     2
171
     1
172
     0
 90
        2
 40
0.0
 41
0.0
173
     1
 91
-1056964608
340
14
 92
       -2
290
     1
 42
2.0
291
     1
 43
8.0
  3
Standard
 44
4.0
300

342
11
174
     1
178
     1
175
     1
176
     0
 93
-1056964608
 45
4.0
292
     0
297
     0
 46
4.0
 94
-1056964608
 47
1.0
 49
1.0
140
1.0
293
     1
141
0.0
294
     1
177
     0
142
1.0
295
     0
296
     0
143
3.75
1001
ACAD_MLEADERVER
1070
     2
  0
MLINESTYLE
  5
18
102
{ACAD_REACTORS
330
17
102
}
330
17
100
AcDbMlineStyle
  2
STANDARD
 70
     0
  3

 62
   256
 51
90.0
 52
90.0
 71
     2
 49
0.5
 62
   256
  6
BYLAYER
 49
-0.5
 62
   256
  6
BYLAYER
  0
ACDBPLACEHOLDER
  5
F
102
{ACAD_REACTORS
330
E
102
}
330
E
  0
SCALE
  5
10D
102
{ACAD_REACTORS
330
10C
102
}
330
10C
100
AcDbScale
 70
     0
300
1:1
140
1.0
141
1.0
290
     1
  0
SCALE
  5
1BE
102
{ACAD_REACTORS
330
10C
102
}
330
10C
100
AcDbScale
 70
     0
300
1:2
140
1.0
141
2.0
290
     0
  0
SCALE
  5
1BF
102
{ACAD_REACTORS
330
10C
102
}
330
10C
100
AcDbScale
 70
     0
300
1:4
140
1.0
141
4.0
290
     0
  0
SCALE
  5
1C0
102
{ACAD_REACTORS
330
10C
102
}
330
10C
100
AcDbScale
 70
     0
300
1:5
140
1.0
141
5.0
290
     0
  0
SCALE
  5
1C1
102
{ACAD_REACTORS
330
10C
102
}
330
10C
100
AcDbScale
 70
     0
300
1:8
140
1.0
141
8.0
290
     0
  0
SCALE
  5
1C2
102
{ACAD_REACTORS
330
10C
102
}
330
10C
100
AcDbScale
 70
     0
300
1:10
140
1.0
141
10.0
290
     0
  0
SCALE
  5
1C3
102
{ACAD_REACTORS
330
10C
102
}
330
10C
100
AcDbScale
 70
     0
300
1:16
140
1.0
141
16.0
290
     0
  0
SCALE
  5
1C4
102
{ACAD_REACTORS
330
10C
102
}
330
10C
100
AcDbScale
 70
     0
300
1:20
140
1.0
141
20.0
290
     0
  0
SCALE
  5
1C5
102
{ACAD_REACTORS
330
10C
102
}
330
10C
100
AcDbScale
 70
     0
300
1:30
140
1.0
141
30.0
290
     0
  0
SCALE
  5
1C6
102
{ACAD_REACTORS
330
10C
102
}
330
10C
100
AcDbScale
 70
     0
300
1:40
140
1.0
141
40.0
290
     0
  0
SCALE
  5
1C7
102
{ACAD_REACTORS
330
10C
102
}
330
10C
100
AcDbScale
 70
     0
300
1:50
140
1.0
141
50.0
290
     0
  0
SCALE
  5
1C8
102
{ACAD_REACTORS
330
10C
102
}
330
10C
100
AcDbScale
 70
     0
300
1:100
140
1.0
141
100.0
290
     0
  0
SCALE
  5
1C9
102
{ACAD_REACTORS
330
10C
102
}
330
10C
100
AcDbScale
 70
     0
300
2:1
140
2.0
141
1.0
290
     0
  0
SCALE
  5
1CA
102
{ACAD_REACTORS
330
10C
102
}
330
10C
100
AcDbScale
 70
     0
300
4:1
140
4.0
141
1.0
290
     0
  0
SCALE
  5
1CB
102
{ACAD_REACTORS
330
10C
102
}
330
10C
100
AcDbScale
 70
     0
300
8:1
140
8.0
141
1.0
290
     0
  0
SCALE
  5
1CC
102
{ACAD_REACTORS
330
10C
102
}
330
10C
100
AcDbScale
 70
     0
300
10:1
140
10.0
141
1.0
290
     0
  0
SCALE
  5
1CD
102
{ACAD_REACTORS
330
10C
102
}
330
10C
100
AcDbScale
 70
     0
300
100:1
140
100.0
141
1.0
290
     0
  0
ACDBSECTIONVIEWSTYLE
  5
21A
102
{ACAD_XDICTIONARY
360
2A28
102
}
102
{ACAD_REACTORS
330
219
102
}
330
219
100
AcDbModelDocViewStyle
 70
     0
  3
Metric50
290
     0
100
AcDbSectionViewStyle
 70
     0
 71
     0
 90
      102
 71
     1
340
11
 40
5.0
340
0
340
0
 40
5.0
300
I, O, Q, S, X, Z
 40
10.0
 90
        0
 40
2.5
 90
        0
 71
     2
340
16
 90
       25
340
16
 90
       50
 40
5.0
 40
2.5
 40
5.0
 71
     3
340
11
 40
5.0
 90
        0
 40
15.0
 90
        1
300
%<\AcVar ViewSectionStartId>%-%<\AcVar ViewSectionEndId>% (%<\AcVar ViewScale \f "%sn">%)
 71
     4
300
ANSI31
 40
1.0
 90
        0
290
     0
290
     0
 90
        6
 40
0.0
 40
1.570796326794896
 40
0.2617993877991494
 40
1.308996938995747
 40
-0.2617993877991494
 40
1.832595714594046
  0
TABLESTYLE
  5
7F
102
{ACAD_XDICTIONARY
360
162
102
}
102
{ACAD_REACTORS
330
7E
102
}
330
7E
100
AcDbTableStyle
  3
Standard
 70
     0
 71
     0
 40
1.5
 41
1.5
280
     0
281
     0
  7
Standard
140
4.5
170
     2
 62
     0
 63
     7
283
     0
274
    -2
284
     1
 64
     0
275
    -2
285
     1
 65
     0
276
    -2
286
     1
 66
     0
277
    -2
287
     1
 67
     0
278
    -2
288
     1
 68
     0
279
    -2
289
     1
 69
     0
  7
Standard
140
6.0
170
     5
 62
     0
 63
     7
283
     0
274
    -2
284
     1
 64
     0
275
    -2
285
     1
 65
     0
276
    -2
286
     1
 66
     0
277
    -2
287
     1
 67
     0
278
    -2
288
     1
 68
     0
279
    -2
289
     1
 69
     0
  7
Standard
140
4.5
170
     5
 62
     0
 63
     7
283
     0
274
    -2
284
     1
 64
     0
275
    -2
285
     1
 65
     0
276
    -2
286
     1
 66
     0
277
    -2
287
     1
 67
     0
278
    -2
288
     1
 68
     0
279
    -2
289
     1
 69
     0
  0
VISUALSTYLE
  5
F5
102
{ACAD_XDICTIONARY
360
2A00
102
}
102
{ACAD_REACTORS
330
EF
102
}
330
EF
100
AcDbVisualStyle
  2
2dWireframe
 70
     4
 71
     0
 72
     2
 73
     1
 90
        0
 40
-0.6
 41
-30.0
 62
     5
 63
     7
 74
     1
 91
        4
 64
     7
 65
   257
 75
     1
175
     1
 42
1.0
 92
        0
 66
   257
 43
1.0
 76
     1
 77
     6
 78
     2
 67
     7
 79
     5
170
     0
171
     0
290
     0
174
     0
 93
        1
 44
0.0
173
     0
291
     0
 45
0.0
1001
ACAD
1000
AcDbSavedByObjectVersion
1070
     0
  0
VISUALSTYLE
  5
F4
102
{ACAD_XDICTIONARY
360
29FE
102
}
102
{ACAD_REACTORS
330
EF
102
}
330
EF
100
AcDbVisualStyle
  2
Basic
 70
     7
 71
     1
 72
     0
 73
     1
 90
        0
 40
-0.6
 41
-30.0
 62
     5
 63
     7
 74
     0
 91
        4
 64
     7
 65
   257
 75
     1
175
     1
 42
1.0
 92
        8
 66
     7
 43
1.0
 76
     1
 77
     6
 78
     2
 67
     7
 79
     5
170
     0
171
     0
290
     0
174
     0
 93
        1
 44
0.0
173
     0
291
     1
 45
0.0
1001
ACAD
1000
AcDbSavedByObjectVersion
1070
     0
  0
VISUALSTYLE
  5
FB
102
{ACAD_XDICTIONARY
360
2A0C
102
}
102
{ACAD_REACTORS
330
EF
102
}
330
EF
100
AcDbVisualStyle
  2
Brighten
 70
    12
 71
     2
 72
     2
 73
     1
 90
        0
 40
-0.6
 41
-30.0
 62
     5
 63
     7
 74
     1
 91
        4
 64
     7
 65
   257
 75
     1
175
     1
 42
1.0
 92
        8
 66
     7
 43
1.0
 76
     1
 77
     6
 78
     2
 67
     7
 79
     5
170
     0
171
     0
290
     0
174
     0
 93
        1
 44
50.0
173
     0
291
     1
 45
0.0
1001
ACAD
1000
AcDbSavedByObjectVersion
1070
     0
  0
VISUALSTYLE
  5
FF
102
{ACAD_XDICTIONARY
360
2A14
102
}
102
{ACAD_REACTORS
330
EF
102
}
330
EF
100
AcDbVisualStyle
  2
ColorChange
 70
    16
 71
     2
 72
     2
 73
     3
 90
        0
 40
-0.6
 41
-30.0
 62
     5
 63
     8
 74
     1
 91
        4
 64
     7
 65
   257
 75
     1
175
     1
 42
1.0
 92
        8
 66
     8
 43
1.0
 76
     1
 77
     6
 78
     2
 67
     7
 79
     5
170
     0
171
     0
290
     0
174
     0
 93
        1
 44
0.0
173
     0
291
     1
 45
0.0
1001
ACAD
1000
AcDbSavedByObjectVersion
1070
     0
  0
VISUALSTYLE
  5
F8
102
{ACAD_XDICTIONARY
360
2A06
102
}
102
{ACAD_REACTORS
330
EF
102
}
330
EF
100
AcDbVisualStyle
  2
Conceptual
 70
     9
 71
     3
 72
     2
 73
     1
 90
        0
 40
-0.6
 41
-30.0
 62
     5
 63
     7
 74
     2
 91
        2
 64
     7
 65
   257
 75
     1
175
     1
 42
40.0
 92
        8
 66
     7
 43
1.0
 76
     1
 77
     6
 78
     2
 67
     7
 79
     3
170
     0
171
     0
290
     0
174
     0
 93
        1
 44
0.0
173
     0
291
     0
 45
0.0
1001
ACAD
1000
AcDbSavedByObjectVersion
1070
     0
  0
VISUALSTYLE
  5
FA
102
{ACAD_XDICTIONARY
360
2A0A
102
}
102
{ACAD_REACTORS
330
EF
102
}
330
EF
100
AcDbVisualStyle
  2
Dim
 70
    11
 71
     2
 72
     2
 73
     1
 90
        0
 40
-0.6
 41
-30.0
 62
     5
 63
     7
 74
     1
 91
        4
 64
     7
 65
   257
 75
     1
175
     1
 42
1.0
 92
        8
 66
     7
 43
1.0
 76
     1
 77
     6
 78
     2
 67
     7
 79
     5
170
     0
171
     0
290
     0
174
     0
 93
        1
 44
-50.0
173
     0
291
     1
 45
0.0
1001
ACAD
1000
AcDbSavedByObjectVersion
1070
     0
  0
VISUALSTYLE
  5
1E6
102
{ACAD_XDICTIONARY
360
2A1C
102
}
102
{ACAD_REACTORS
330
EF
102
}
330
EF
100
AcDbVisualStyle
  2
EdgeColorOff
 70
    22
 71
     2
 72
     2
 73
     0
 90
        0
 40
-0.6
 41
-30.0
 62
     5
 63
     7
 74
     1
 91
        4
 64
     7
 65
   257
 75
     1
175
     1
 42
1.0
 92
        8
 66
     7
 43
1.0
 76
     1
 77
     6
 78
     2
 67
     7
 79
     5
170
     0
171
     0
290
     0
174
     0
 93
        1
 44
0.0
173
     0
291
     1
 45
0.0
1001
ACAD
1000
AcDbSavedByObjectVersion
1070
     0
  0
VISUALSTYLE
  5
FE
102
{ACAD_XDICTIONARY
360
2A12
102
}
102
{ACAD_REACTORS
330
EF
102
}
330
EF
100
AcDbVisualStyle
  2
Facepattern
 70
    15
 71
     2
 72
     2
 73
     1
 90
        0
 40
-0.6
 41
-30.0
 62
     5
 63
     7
 74
     1
 91
        4
 64
     7
 65
   257
 75
     1
175
     1
 42
1.0
 92
        8
 66
     7
 43
1.0
 76
     1
 77
     6
 78
     2
 67
     7
 79
     5
170
     0
171
     0
290
     0
174
     0
 93
        1
 44
0.0
173
     0
291
     1
 45
0.0
1001
ACAD
1000
AcDbSavedByObjectVersion
1070
     0
  0
VISUALSTYLE
  5
F0
102
{ACAD_XDICTIONARY
360
29F6
102
}
102
{ACAD_REACTORS
330
EF
102
}
330
EF
100
AcDbVisualStyle
  2
Flat
 70
     0
 71
     2
 72
     1
 73
     1
 90
        2
 40
-0.6
 41
30.0
 62
     5
 63
     7
 74
     0
 91
        0
 64
     7
 65
   257
 75
     1
175
     1
 42
1.0
 92
        8
 66
     7
 43
1.0
 76
     1
 77
     6
 78
     2
 67
     7
 79
     5
170
     0
171
     0
290
     0
174
     0
 93
       13
 44
0.0
173
     0
291
     1
 45
0.0
1001
ACAD
1000
AcDbSavedByObjectVersion
1070
     0
  0
VISUALSTYLE
  5
F1
102
{ACAD_XDICTIONARY
360
29F8
102
}
102
{ACAD_REACTORS
330
EF
102
}
330
EF
100
AcDbVisualStyle
  2
FlatWithEdges
 70
     1
 71
     2
 72
     1
 73
     1
 90
        2
 40
-0.6
 41
30.0
 62
     5
 63
     7
 74
     1
 91
        0
 64
     7
 65
   257
 75
     1
175
     1
 42
1.0
 92
        0
 66
   257
 43
1.0
 76
     1
 77
     6
 78
     2
 67
     7
 79
     5
170
     0
171
     0
290
     0
174
     0
 93
       13
 44
0.0
173
     0
291
     1
 45
0.0
1001
ACAD
1000
AcDbSavedByObjectVersion
1070
     0
  0
VISUALSTYLE
  5
F2
102
{ACAD_XDICTIONARY
360
29FA
102
}
102
{ACAD_REACTORS
330
EF
102
}
330
EF
100
AcDbVisualStyle
  2
Gouraud
 70
     2
 71
     2
 72
     2
 73
     1
 90
        2
 40
-0.6
 41
30.0
 62
     5
 63
     7
 74
     0
 91
        0
 64
     7
 65
   257
 75
     1
175
     1
 42
1.0
 92
        0
 66
     7
 43
1.0
 76
     1
 77
     6
 78
     2
 67
     7
 79
     5
170
     0
171
     0
290
     0
174
     0
 93
       13
 44
0.0
173
     0
291
     1
 45
0.0
1001
ACAD
1000
AcDbSavedByObjectVersion
1070
     0
  0
VISUALSTYLE
  5
F3
102
{ACAD_XDICTIONARY
360
29FC
102
}
102
{ACAD_REACTORS
330
EF
102
}
330
EF
100
AcDbVisualStyle
  2
GouraudWithEdges
 70
     3
 71
     2
 72
     2
 73
     1
 90
        2
 40
-0.6
 41
30.0
 62
     5
 63
     7
 74
     1
 91
        0
 64
     7
 65
   257
 75
     1
175
     1
 42
1.0
 92
        0
 66
   257
 43
1.0
 76
     1
 77
     6
 78
     2
 67
     7
 79
     5
170
     0
171
     0
290
     0
174
     0
 93
       13
 44
0.0
173
     0
291
     1
 45
0.0
1001
ACAD
1000
AcDbSavedByObjectVersion
1070
     0
  0
VISUALSTYLE
  5
F7
102
{ACAD_XDICTIONARY
360
2A04
102
}
102
{ACAD_REACTORS
330
EF
102
}
330
EF
100
AcDbVisualStyle
  2
Hidden
 70
     6
 71
     1
 72
     2
 73
     2
 90
        0
 40
-0.6
 41
-30.0
 62
     5
 63
     7
 74
     2
 91
        2
 64
     7
 65
   257
 75
     2
175
     1
 42
40.0
 92
        0
 66
   257
 43
1.0
 76
     1
 77
     6
 78
     2
 67
     7
 79
     3
170
     0
171
     0
290
     0
174
     0
 93
        1
 44
0.0
173
     0
291
     0
 45
0.0
1001
ACAD
1000
AcDbSavedByObjectVersion
1070
     0
  0
VISUALSTYLE
  5
1E4
102
{ACAD_XDICTIONARY
360
2A18
102
}
102
{ACAD_REACTORS
330
EF
102
}
330
EF
100
AcDbVisualStyle
  2
JitterOff
 70
    20
 71
     2
 72
     2
 73
     0
 90
        0
 40
-0.6
 41
-30.0
 62
     5
 63
     7
 74
     1
 91
        4
 64
     7
 65
   257
 75
     1
175
     1
 42
1.0
 92
       10
 66
     7
 43
1.0
 76
     1
 77
     6
 78
     2
 67
     7
 79
     5
170
     0
171
     0
290
     0
174
     0
 93
        1
 44
0.0
173
     0
291
     1
 45
0.0
1001
ACAD
1000
AcDbSavedByObjectVersion
1070
     0
  0
VISUALSTYLE
  5
FD
102
{ACAD_XDICTIONARY
360
2A10
102
}
102
{ACAD_REACTORS
330
EF
102
}
330
EF
100
AcDbVisualStyle
  2
Linepattern
 70
    14
 71
     2
 72
     2
 73
     1
 90
        0
 40
-0.6
 41
-30.0
 62
     5
 63
     7
 74
     1
 91
        4
 64
     7
 65
   257
 75
     7
175
     7
 42
1.0
 92
        8
 66
     7
 43
1.0
 76
     1
 77
     6
 78
     2
 67
     7
 79
     5
170
     0
171
     0
290
     0
174
     0
 93
        1
 44
0.0
173
     0
291
     1
 45
0.0
1001
ACAD
1000
AcDbSavedByObjectVersion
1070
     0
  0
VISUALSTYLE
  5
1E5
102
{ACAD_XDICTIONARY
360
2A1A
102
}
102
{ACAD_REACTORS
330
EF
102
}
330
EF
100
AcDbVisualStyle
  2
OverhangOff
 70
    21
 71
     2
 72
     2
 73
     0
 90
        0
 40
-0.6
 41
-30.0
 62
     5
 63
     7
 74
     1
 91
        4
 64
     7
 65
   257
 75
     1
175
     1
 42
1.0
 92
        9
 66
     7
 43
1.0
 76
     1
 77
     6
 78
     2
 67
     7
 79
     5
170
     0
171
     0
290
     0
174
     0
 93
        1
 44
0.0
173
     0
291
     1
 45
0.0
1001
ACAD
1000
AcDbSavedByObjectVersion
1070
     0
  0
VISUALSTYLE
  5
F9
102
{ACAD_XDICTIONARY
360
2A08
102
}
102
{ACAD_REACTORS
330
EF
102
}
330
EF
100
AcDbVisualStyle
  2
Realistic
 70
     8
 71
     2
 72
     2
 73
     0
 90
        2
 40
-0.6
 41
30.0
 62
     5
 63
     7
 74
     0
 91
        0
 64
     7
 65
   257
 75
     1
175
     1
 42
1.0
 92
        8
 66
   257
 43
1.0
 76
     1
 77
     6
 78
     2
 67
     7
 79
     3
170
     0
171
     0
290
     0
174
     0
 93
       13
 44
0.0
173
     0
291
     0
 45
0.0
1001
ACAD
1000
AcDbSavedByObjectVersion
1070
     0
  0
VISUALSTYLE
  5
1F3
102
{ACAD_XDICTIONARY
360
2A26
102
}
102
{ACAD_REACTORS
330
EF
102
}
330
EF
100
AcDbVisualStyle
  2
Shaded
 70
    27
 71
     2
 72
     2
 73
     1
 90
        2
 40
-0.6
 41
30.0
 62
     5
 63
     7
 74
     0
 91
        4
 64
     7
 65
   257
 75
     1
175
     1
 42
1.0
 92
        8
 66
   257
 43
1.0
 76
     1
 77
     6
 78
     2
 67
     8
 79
     3
170
     0
171
     0
290
     0
174
     0
 93
        5
 44
0.0
173
     0
291
     0
 45
0.0
1001
ACAD
1000
AcDbSavedByObjectVersion
1070
     0
  0
VISUALSTYLE
  5
1F2
102
{ACAD_XDICTIONARY
360
2A24
102
}
102
{ACAD_REACTORS
330
EF
102
}
330
EF
100
AcDbVisualStyle
  2
Shaded with edges
 70
    26
 71
     2
 72
     2
 73
     1
 90
        2
 40
-0.6
 41
30.0
 62
     5
 63
     7
 74
     1
 91
        2
 64
     7
 65
   257
 75
     2
175
     1
 42
1.0
 92
        8
 66
   257
 43
1.0
 76
     1
 77
     6
 78
     2
 67
     7
 79
     3
170
     0
171
     0
290
     0
174
     0
 93
        5
 44
0.0
173
     0
291
     0
 45
0.0
1001
ACAD
1000
AcDbSavedByObjectVersion
1070
     0
  0
VISUALSTYLE
  5
1EF
102
{ACAD_XDICTIONARY
360
2A1E
102
}
102
{ACAD_REACTORS
330
EF
102
}
330
EF
100
AcDbVisualStyle
  2
Shades of Gray
 70
    23
 71
     2
 72
     2
 73
     3
 90
        0
 40
-0.6
 41
-30.0
 62
     5
 63
     7
 74
     2
 91
        2
 64
     7
 65
     7
 75
     1
175
     1
 42
40.0
 92
        8
 66
     7
 43
1.0
 76
     1
 77
     6
 78
     2
 67
     7
 79
     3
170
     0
171
     0
290
     0
174
     0
 93
        1
 44
0.0
173
     0
291
     0
 45
0.0
1001
ACAD
1000
AcDbSavedByObjectVersion
1070
     0
  0
VISUALSTYLE
  5
1F0
102
{ACAD_XDICTIONARY
360
2A20
102
}
102
{ACAD_REACTORS
330
EF
102
}
330
EF
100
AcDbVisualStyle
  2
Sketchy
 70
    24
 71
     1
 72
     2
 73
     2
 90
        0
 40
-0.6
 41
-30.0
 62
     5
 63
     7
 74
     2
 91
        2
 64
     7
 65
     7
 75
     1
175
     1
 42
40.0
 92
       11
 66
     7
 43
1.0
 76
     1
 77
     6
 78
     2
 67
     7
 79
     6
170
     0
171
     0
290
     0
174
     0
 93
        1
 44
0.0
173
     0
291
     0
 45
0.0
1001
ACAD
1000
AcDbSavedByObjectVersion
1070
     0
  0
VISUALSTYLE
  5
FC
102
{ACAD_XDICTIONARY
360
2A0E
102
}
102
{ACAD_REACTORS
330
EF
102
}
330
EF
100
AcDbVisualStyle
  2
Thicken
 70
    13
 71
     2
 72
     2
 73
     1
 90
        0
 40
-0.6
 41
-30.0
 62
     5
 63
     7
 74
     1
 91
        4
 64
     7
 65
   257
 75
     1
175
     1
 42
1.0
 92
       12
 66
     7
 43
1.0
 76
     1
 77
     6
 78
     2
 67
     7
 79
     5
170
     0
171
     0
290
     0
174
     0
 93
        1
 44
0.0
173
     0
291
     1
 45
0.0
1001
ACAD
1000
AcDbSavedByObjectVersion
1070
     0
  0
VISUALSTYLE
  5
F6
102
{ACAD_XDICTIONARY
360
2A02
102
}
102
{ACAD_REACTORS
330
EF
102
}
330
EF
100
AcDbVisualStyle
  2
Wireframe
 70
     5
 71
     0
 72
     2
 73
     0
 90
        0
 40
-0.6
 41
-30.0
 62
     5
 63
     7
 74
     1
 91
        4
 64
     7
 65
   257
 75
     1
175
     1
 42
1.0
 92
        0
 66
   257
 43
1.0
 76
     1
 77
     6
 78
     2
 67
     7
 79
     3
170
     0
171
     0
290
     0
174
     0
 93
        1
 44
0.0
173
     0
291
     0
 45
0.0
1001
ACAD
1000
AcDbSavedByObjectVersion
1070
     0
  0
VISUALSTYLE
  5
1F1
102
{ACAD_XDICTIONARY
360
2A22
102
}
102
{ACAD_REACTORS
330
EF
102
}
330
EF
100
AcDbVisualStyle
  2
X-Ray
 70
    25
 71
     2
 72
     2
 73
     1
 90
        1
 40
0.5
 41
-30.0
 62
     5
 63
     7
 74
     1
 91
        0
 64
     7
 65
   257
 75
     1
175
     1
 42
1.0
 92
        8
 66
     7
 43
1.0
 76
     1
 77
     6
 78
     2
 67
     7
 79
     3
170
     0
171
     0
290
     0
174
     0
 93
       13
 44
0.0
173
     0
291
     0
 45
0.0
1001
ACAD
1000
AcDbSavedByObjectVersion
1070
     0
  0
DICTIONARYVAR
  5
146
102
{ACAD_REACTORS
330
5E
102
}
330
5E
100
DictionaryVariables
280
     0
  1
1:1
  0
DICTIONARYVAR
  5
259
102
{ACAD_REACTORS
330
5E
102
}
330
5E
100
DictionaryVariables
280
     0
  1
3.500000
  0
DICTIONARYVAR
  5
25A
102
{ACAD_REACTORS
330
5E
102
}
330
5E
100
DictionaryVariables
280
     0
  1
acadiso.lin
  0
DICTIONARYVAR
  5
145
102
{ACAD_REACTORS
330
5E
102
}
330
5E
100
DictionaryVariables
280
     0
  1
STANDARD
  0
DICTIONARYVAR
  5
84
102
{ACAD_REACTORS
330
5E
102
}
330
5E
100
DictionaryVariables
280
     0
  1
STANDARD
  0
DICTIONARYVAR
  5
227
102
{ACAD_REACTORS
330
5E
102
}
330
5E
100
DictionaryVariables
280
     0
  1
Metric50
  0
DICTIONARYVAR
  5
228
102
{ACAD_REACTORS
330
5E
102
}
330
5E
100
DictionaryVariables
280
     0
  1
Metric50
  0
DICTIONARYVAR
  5
5F
102
{ACAD_REACTORS
330
5E
102
}
330
5E
100
DictionaryVariables
280
     0
  1
2
  0
DICTIONARYVAR
  5
63
102
{ACAD_REACTORS
330
5E
102
}
330
5E
100
DictionaryVariables
280
     0
  1
1
  0
DICTIONARYVAR
  5
2997
102
{ACAD_REACTORS
330
5E
102
}
330
5E
100
DictionaryVariables
280
     0
  1
0
  0
DICTIONARYVAR
  5
1AE
102
{ACAD_REACTORS
330
5E
102
}
330
5E
100
DictionaryVariables
280
     0
  1
0
  0
DICTIONARYVAR
  5
1AF
102
{ACAD_REACTORS
330
5E
102
}
330
5E
100
DictionaryVariables
280
     0
  1
0
  0
DICTIONARYVAR
  5
2995
102
{ACAD_REACTORS
330
5E
102
}
330
5E
100
DictionaryVariables
280
     0
  1
2
  0
DICTIONARYVAR
  5
2994
102
{ACAD_REACTORS
330
5E
102
}
330
5E
100
DictionaryVariables
280
     0
  1
1
  0
DICTIONARYVAR
  5
29E7
102
{ACAD_REACTORS
330
5E
102
}
330
5E
100
DictionaryVariables
280
     0
  1
80.000000
  0
DICTIONARYVAR
  5
29E6
102
{ACAD_REACTORS
330
5E
102
}
330
5E
100
DictionaryVariables
280
     0
  1
5.000000
  0
DICTIONARYVAR
  5
2996
102
{ACAD_REACTORS
330
5E
102
}
330
5E
100
DictionaryVariables
280
     0
  1
127
  0
DICTIONARYVAR
  5
29E8
102
{ACAD_REACTORS
330
5E
102
}
330
5E
100
DictionaryVariables
280
     0
  1
2
  0
DICTIONARY
  5
2A2A
330
21C
100
AcDbDictionary
280
     1
281
     1
  3
ACAD_XREC_ROUNDTRIP
360
2A2B
  0
DICTIONARY
  5
29EF
330
D3
100
AcDbDictionary
280
     1
281
     1
  3
ACAD_XREC_ROUNDTRIP
360
29F0
  0
DICTIONARY
  5
29F1
330
D7
100
AcDbDictionary
280
     1
281
     1
  3
ACAD_XREC_ROUNDTRIP
360
29F2
  0
DICTIONARY
  5
29EC
330
22
100
AcDbDictionary
280
     1
281
     1
  3
ACAD_XREC_ROUNDTRIP
360
29ED
  0
DICTIONARY
  5
1F9
330
ED
100
AcDbDictionary
280
     1
281
     1
  3
ACAD_XREC_ROUNDTRIP
360
29F4
  3
FBXASSET
360
1FA
  0
DICTIONARY
  5
1F7
330
EC
100
AcDbDictionary
280
     1
281
     1
  3
ACAD_XREC_ROUNDTRIP
360
29F3
  3
FBXASSET
360
1F8
  0
DICTIONARY
  5
173
330
EE
100
AcDbDictionary
280
     1
281
     1
  3
ACAD_XREC_ROUNDTRIP
360
29F5
  3
BUMPTILE
360
175
  3
DIFFUSETILE
360
174
  3
FBXASSET
360
1FB
  3
OPACITYTILE
360
176
  3
REFLECTIONTILE
360
177
  0
DICTIONARY
  5
2A16
330
12E
100
AcDbDictionary
280
     1
281
     1
  3
ACAD_XREC_ROUNDTRIP
360
2A17
  0
DICTIONARY
  5
2A28
330
21A
100
AcDbDictionary
280
     1
281
     1
  3
ACAD_XREC_ROUNDTRIP
360
2A29
  0
DICTIONARY
  5
162
330
7F
100
AcDbDictionary
280
     1
281
     1
  3
ACAD_ROUNDTRIP_2008_TABLESTYLE_CELLSTYLEMAP
360
29E9
  3
ACAD_XREC_ROUNDTRIP
360
29EE
  0
DICTIONARY
  5
2A00
330
F5
100
AcDbDictionary
280
     1
281
     1
  3
ACAD_XREC_ROUNDTRIP
360
2A01
  0
DICTIONARY
  5
29FE
330
F4
100
AcDbDictionary
280
     1
281
     1
  3
ACAD_XREC_ROUNDTRIP
360
29FF
  0
DICTIONARY
  5
2A0C
330
FB
100
AcDbDictionary
280
     1
281
     1
  3
ACAD_XREC_ROUNDTRIP
360
2A0D
  0
DICTIONARY
  5
2A14
330
FF
100
AcDbDictionary
280
     1
281
     1
  3
ACAD_XREC_ROUNDTRIP
360
2A15
  0
DICTIONARY
  5
2A06
330
F8
100
AcDbDictionary
280
     1
281
     1
  3
ACAD_XREC_ROUNDTRIP
360
2A07
  0
DICTIONARY
  5
2A0A
330
FA
100
AcDbDictionary
280
     1
281
     1
  3
ACAD_XREC_ROUNDTRIP
360
2A0B
  0
DICTIONARY
  5
2A1C
330
1E6
100
AcDbDictionary
280
     1
281
     1
  3
ACAD_XREC_ROUNDTRIP
360
2A1D
  0
DICTIONARY
  5
2A12
330
FE
100
AcDbDictionary
280
     1
281
     1
  3
ACAD_XREC_ROUNDTRIP
360
2A13
  0
DICTIONARY
  5
29F6
330
F0
100
AcDbDictionary
280
     1
281
     1
  3
ACAD_XREC_ROUNDTRIP
360
29F7
  0
DICTIONARY
  5
29F8
330
F1
100
AcDbDictionary
280
     1
281
     1
  3
ACAD_XREC_ROUNDTRIP
360
29F9
  0
DICTIONARY
  5
29FA
330
F2
100
AcDbDictionary
280
     1
281
     1
  3
ACAD_XREC_ROUNDTRIP
360
29FB
  0
DICTIONARY
  5
29FC
330
F3
100
AcDbDictionary
280
     1
281
     1
  3
ACAD_XREC_ROUNDTRIP
360
29FD
  0
DICTIONARY
  5
2A04
330
F7
100
AcDbDictionary
280
     1
281
     1
  3
ACAD_XREC_ROUNDTRIP
360
2A05
  0
DICTIONARY
  5
2A18
330
1E4
100
AcDbDictionary
280
     1
281
     1
  3
ACAD_XREC_ROUNDTRIP
360
2A19
  0
DICTIONARY
  5
2A10
330
FD
100
AcDbDictionary
280
     1
281
     1
  3
ACAD_XREC_ROUNDTRIP
360
2A11
  0
DICTIONARY
  5
2A1A
330
1E5
100
AcDbDictionary
280
     1
281
     1
  3
ACAD_XREC_ROUNDTRIP
360
2A1B
  0
DICTIONARY
  5
2A08
330
F9
100
AcDbDictionary
280
     1
281
     1
  3
ACAD_XREC_ROUNDTRIP
360
2A09
  0
DICTIONARY
  5
2A26
330
1F3
100
AcDbDictionary
280
     1
281
     1
  3
ACAD_XREC_ROUNDTRIP
360
2A27
  0
DICTIONARY
  5
2A24
330
1F2
100
AcDbDictionary
280
     1
281
     1
  3
ACAD_XREC_ROUNDTRIP
360
2A25
  0
DICTIONARY
  5
2A1E
330
1EF
100
AcDbDictionary
280
     1
281
     1
  3
ACAD_XREC_ROUNDTRIP
360
2A1F
  0
DICTIONARY
  5
2A20
330
1F0
100
AcDbDictionary
280
     1
281
     1
  3
ACAD_XREC_ROUNDTRIP
360
2A21
  0
DICTIONARY
  5
2A0E
330
FC
100
AcDbDictionary
280
     1
281
     1
  3
ACAD_XREC_ROUNDTRIP
360
2A0F
  0
DICTIONARY
  5
2A02
330
F6
100
AcDbDictionary
280
     1
281
     1
  3
ACAD_XREC_ROUNDTRIP
360
2A03
  0
DICTIONARY
  5
2A22
330
1F1
100
AcDbDictionary
280
     1
281
     1
  3
ACAD_XREC_ROUNDTRIP
360
2A23
  0
XRECORD
  5
2A2B
102
{ACAD_REACTORS
330
2A2A
102
}
330
2A2A
100
AcDbXrecord
280
     1
102
DISPLAYNAME
  1
Metric50
102
FLAGS
 90
        0
  0
XRECORD
  5
29F0
102
{ACAD_REACTORS
330
29EF
102
}
330
29EF
100
AcDbXrecord
280
     1
102
SHADEPLOT
 70
     0
102
SHADEPLOTRESLEVEL
 70
     2
102
SHADEPLOTCUSTOMDPI
 70
   300
  0
XRECORD
  5
29F2
102
{ACAD_REACTORS
330
29F1
102
}
330
29F1
100
AcDbXrecord
280
     1
102
SHADEPLOT
 70
     0
102
SHADEPLOTRESLEVEL
 70
     2
102
SHADEPLOTCUSTOMDPI
 70
   300
  0
XRECORD
  5
29ED
102
{ACAD_REACTORS
330
29EC
102
}
330
29EC
100
AcDbXrecord
280
     1
102
SHADEPLOT
 70
     0
102
SHADEPLOTRESLEVEL
 70
     2
102
SHADEPLOTCUSTOMDPI
 70
   300
  0
XRECORD
  5
29F4
102
{ACAD_REACTORS
330
1F9
102
}
330
1F9
100
AcDbXrecord
280
     1
102
MATERIAL
148
0.0
149
0.0
149
0.0
 93
        0
 94
       63
282
     0
 72
     1
 77
     1
171
     1
175
     1
179
     1
273
     0
  0
XRECORD
  5
1FA
102
{ACAD_REACTORS
330
1F9
102
}
330
1F9
100
AcDbXrecord
280
     1
 70
     1
 90
429727718
  1
D62C5603-E3A1-4AEA-B7FB-FE5D8D0755AF
310
504B03040A0000080000CC70623B3DEE336E79000000790000001B0000006175746F6465736B2D64657369676E2D7061636B6167652E786D6C3C3F786D6C2076657273696F6E3D22312E302220656E636F64696E673D227574662D3822203F3E3C666F726D6174733E3C666F726D61743E687474703A2F2F736368656D612E
310
6175746F6465736B2E636F6D2F64657369676E2D7061636B6167652F323030393C2F666F726D61743E3C2F666F726D6174733E504B0304140006080800CC70623BD486FD9CA0000000F4000000130000005B436F6E74656E745F54797065735D2E786D6C7D8EC10E82300C865F65E91D8A1E8C310C0EEA1BF002731658846E
310
D98AC1B77784ABF1D8FE5FBFBF75BBCE937A534CCEB38643598122B6FEE978D0B0485F9C41B54DDD7D022595594E1A469170414C76A4D9A4D207E29CF43ECE46F218070CC6BECC4078ACAA135ACF422C856C0E68EA1BF5669944DDD7BCDE7B1F8E415D77AECB980613C2E4AC91FC167A2B244592486606FC29C8FD7F045B9A
310
EF7053A7E60B504B0304140006080800CC70623B853B8169EB0000007C01000008000000636F72652E786D6C8D90416EC3201045AF62CDB6C206821CC7C244919D9CA01740401C94182C03558F5F9C3852BBEB6A467FFE9B197D7EFC9E1EC5975982F5AE035262288C535E5B377690E21535501C055FBC8FBF6C503839990E
310
5619041F179FE64D52DE45E362569DD7661365082642A11EB9E920A89B99642953CC8E702F67A9EE7234257977194EC9EAE275C4EABCCF5EAD5940D4AC6F0E35A568B8F43562CD7046CD199FD07E60174276A7BE677B5EADB0E0D14EEFFB6A31321A0D82627C4084204C3F096B71DD52F6819B16635EADF63F509AF53FA164
310
5DDCD1EDDD17164090FCC8732078B56691CB33A85CD7DCC40F504B0304140006080800CC70623B55019EA25F0000007C00000007000000636E782E786D6C4DCB3B0E80201045D1AD90E915ED2CF8AC45050C11660C8261F98AB1B07AC9C97D42D718D865D3E909258CFD00CCE24AC6E326A164D74DC0B4128928FF32603847
310
2BA13128B1252AC747C6BAB984FC68F0B87FE8960A5C09FE86CFB69FBA01504B0304140006080800CC70623BDBABAAF470010000D40300000C0000006662782F636F72652E786D6CC553D16E823014FD95A6AF4B694182CC941A83FA05FB810A9511A125A5257EFE2E82712ECEB8A7F100CD39F7F69E734AF9FADC366850B6
310
AF8DCE7018308C942E4C59EB2AC3DE1D498AD15A706B8CFB56869196ADCAF00863C12B6B7C374385D14E6907A836A59A41D9F7CA615434B0C8705F7CAA5606D23BA8E84F41278B93AC54100640439DE0BDB320004D43C63716C7C399D30917DCFBBA9CD9BA8469F5B156168B24CED3F7248AC8769F27244EB73B92EED8862C
310
B7F13E0C179B3C8F979C8ECD82BBBABDAA2BAC924E9558448CBD9330242CFA08E3154B5651FCC6D215639C8EE5774DBE2B5F6CF2B5768B68963BB5F5588420E442FC700B1139D4CB01F450C1E918227C2E09DF070D8140C84E1E9AAB8F1340832A9CB13130A5F1376A908D57309505ECF2A0DF179C4E9D30F5B239B87E3823
310
7A79C6F31DE1A8A5AEC08474B03C7837EAE4938639B44E5932B833D2C6B6B279CDC613877FA26EE21F4A2A4C63EC7F29A2F301D1F9F7A0E37D145F504B0304140006080800CC70623B9C113CC27E0000009D0000000B0000006662782F636E782E786D6C4DCCDF0A83201C86E15B91DFB94BFB330DD428C8FB886521330DA7
310
6397BF1A1DECE883878F57749FCDA1B7892F1BBC047A23808C7F84D9FA55424E0BE6803A256208E9EF06C84F9B91703228B1C690F78B66B34CD9A5439DF5CF0BFBF65E35BCA1B8D6A5C6F540381E886698B5741C695F9503EBA150A2F8958E3DC3EA0B504B0304140006080800CC70623B7DF2F77C2A010000120200003100
310
00006662782F41393633353835312D344632462D344230382D423046372D3739314545314133324237412F636F72652E786D6C8D51DB8EC22014FC15C2939B0D2DB4B45643319AE817EC0F6041255A68B86CFCFC856D4D76DF7CE190393373060EDB3DC707F856CE6B6B7A480A0C81328395DA5C7B18C3057510EC3873D686
310
3F34088C18550F330C39BB3A1BA7051AAC09CA84841A2BD5020AEF55806078A44B0FFD7053A328440C89E1EFC52486BBB8AA8214A99D789CF9E05200300FC927E4FB4D5B375D43103D5527440FB843077C5AA3F5861C8F645F5787F59E95B390B318B55CE45AA638FAA2957BD7248B390B7A7CC51F9C124149C82B8C378810
310
84AB2F42B7B8DD56F413775B8C5999E9FF4471926F8AA236A1AE96B8B3CC434E5839373893369E1FAF30EA395917409EB7F26AF8801C171837A4A6AC9C89E9F9C9B1A58BA30FD6A5EF5DDDCF894B9AD9B6A59C957943A9FCAE2FD5BC4DFE03504B0304140006080800CC70623BAD7543B64E01000033030000300000006662
310
782F41393633353835312D344632462D344230382D423046372D3739314545314133324237412F636E782E786D6CD593CD6EC32010845F0571AD6CE3D48AD20813A9873E410FBD12D82434182C7EAAE6EDBB2424CD25871E7B41D6EC30B3FA84F9E67BB2E40B4234DE8DB46F1925E094D7C6ED479AD3AE5951B2113C789FEE
310
6C943839C1488B4C05DF079FE72A69D8C96C13AAD6B8631503449F83828872B949AC57D26200B826A308D316B4064D6E46FCDA41C05550DC9E483A00797BFD207EFB092A45DE9514C1BBD22178396BD39D891265658C238DEA00936C654E5E433CB65A26D9F6EDB5EBC14EBF49A45CB856E66048291F6939A9A81BB5C89177
310
38143CA680F4AA299D66A042CEB3354A2684DC9D8D178FE0D9B8B41CAAD720F880EE7EF93C0C18769E099ECC04D5A102C8049A8A05632F4DDF376CF1DE0F6BB65C2F8627B65A33C6BB62177CEBBDAD973006829F89F22E814B54F4BC2BE347F8AA8F681390B50FA73F804400B5F542E796F19FF974E7F78DB802FE05E20750
310
4B0304140006080800CC70623BE75B7789680500003C100000340000006662782F41393633353835312D344632462D344230382D423046372D3739314545314133324237412F6F626A656374732E786D6CAD575B8F9B3818FD2B887D06C22499CB8AA1CA655245D5B455A356FB305264C061D8018C6C3393D95FBFC7600890
310
A4CD5EF210B0B1BFEBF98E3F7B1FF6596ABC522E1296DF9BAE3D320D9A872C4AF2F8DE2CE5CEBA358D0FBEC719939D65A691938CDE9B6ADAF4BD98B3B2D05311DD91329583D9D5FC0F438434A7A611A644887B5384CF34233629258BA878B12322891DEFF6B66BD70BFB62634E8AE781D082709A4B588AF91C528CDA28B73F
310
1C998EEF39EABBEFA97FBD6A7C7E9553F9D3D79FE442923C3C523610337627CB87ABE99D359D4CC6D6E4FACAB5E6ABF9D2726FC6A3C5F56271377BB88362213924694B38DD99FE47C48627A1E7D49F5A8BB5E1A74C0A599ED3B0F21F1E56366B89112D681E218F0915D0D6F17AD41FBA2A369DCF6335D62ABBD39779D5DDD1
310
11D4D8DE3CBB96B2E04FB8202E41051754A1AA8E8F76B4C6DFE810B580B1547F4B84911149794252234D024EF8BBE963A95AE27B3D310A9D5C215C7960FAEE415ED75694C6AFB17BCACA5D99A60A9AA65F217B0BFC53292ACB92BF283FAD0D3621576592CB5BED907C2FA8E9DF794E35E97BEA31BED21FEB401ABB94C44839
310
DCACBF0E1C5DA8DA5B2F4DFFD32AD86F543D9E565E7056502E157C00AD2671CD534549AB752FCA9CDA00677A313F04E51B22FF19E57B300579E3C97EB29F682D92935CEC18CF901B7B54FD8C51F362B56FC72FE0B3C1EAE335EDCCBF5AEC39ADB17DC238973F804BA5E6F6BFE7AF1FB32E523BE9F3BD571418E3631DCA4D48
310
5250CF639223210A9446CA30052EDF057BD35F8329C1ECD84552BF0DC8D18BE7BCE23BFE6BD960AB4A7DE79923A103BEBD80F911CBAA2C60DB19B01CF164A5583B772EE6D3FFA56666CBCDA74DC97724A48F9A58967497E489C4D979006FD7A05E227A1EBDD0F737C623387A9C844D3709995625106D157315F8B8392CD4E0
310
A0B9A720C4BE9829CEF37EA1E13111214D53925356365ADA634861B52519DD27A00AEB808EAF0628E6F435519D446F45CF2C9CF5214F0A15B2F6D06B79DA3EE3CBF7F56780D2F4E7EF73A0F5E5B02A38D07DC852C6B7C1FBB6664213E0C39E3EBA7FF4E1AD23EA2829407C85E586727488B751B2DB9502BC7B228A3FD68B6E
310
A65A22397E690AA8D158D7E404EC8CDA235CC3B7D1898680131CEC2CDF2638C65196279577750F15884AEE19F94199155B92B13297978469D4F8D358DF0AEF7631E28DC8F0D9F437D5D39A83B2231A1D52D543813A824EF8D44BCFF2FA6A31BD1E8DAD87F1CCB526B3879935BF59CDADD5C37479BB1CDD4CA7B3556B516589
310
EF352754B706114D9C885EC9131DE6EFEB43D99AFE2391C2F958179413D7CFEF6B1B6DB1E7600F00DE6E5C67454A339A4BA2E0FBA85ED26F045D454F463DBFCE484C2F90F2E5E3666003662ED8F755951A7D1BECD5B30B550B2785C8E7320B7292A4838DDA71BBC863ED7613CAF659337A3354231D4FF4A182A54904C2898C
310
98B28C4AD0CE056CCF332A80986E571EE9DBC305BB5FEB7E509220A58D25CF042D712A806AC0AD0C657FDEF80D2D9CEAA2EE4D1C76F60BFE74219A06527D6F82DF6412526107381E55E353090704D085B52408A8913C4ED159D79BDA71BB4BC506F4831350EB6F975CD22D69BF7AC49B91A2C0A9DDA3D5CA36AD20FC478E37
310
E61844E2352865EBCB61A275A65283CAAA9DD27703B4102F5AF51EF5F573B75CBB5AD38BC845F7A49F82A0966A49C2E3EA5EA0ECD326CD965F1DB402C6FA8B51A4658C5C5E2EC9E214602E55810345408596591009A82E7E7FFACA19EEA299B14A0081A705CB3296EBC14CDF658DCD336EA6D1136881AAEB87B81AB9EE53D5
310
F5EB8BC8362082DA24122F98680A4E7930C01A0079749CEA14382A0783E5EBA5A10F8C098456A03D6A4AEB6BB881E2513747552A5DB22C7EDAF83BD5528081A365F7FF06504B0304140006080000CC70623B000000000000000000000000350000006662782F41393633353835312D344632462D344230382D423046372D37
310
39314545314133324237412F76657274696365732E62696E504B0304140006080800CC70623BF270F1330600000004000000360000006662782F41393633353835312D344632462D344230382D423046372D3739314545314133324237412F747269616E676C65732E62696E636660600000504B0304140006080000CC7062
310
3B000000000000000000000000370000006662782F41393633353835312D344632462D344230382D423046372D3739314545314133324237412F617474726962757465732E62696E504B0304140006080800CC70623B08DA0BD19000000041010000360000006662782F41393633353835312D344632462D344230382D4230
310
46372D3739314545314133324237412F6469726563746F72792E786D6C858F410AC3201045AF22B36F53E9A60B35CBEEBAE80D244E44489C6234F4F835464A48035D0DF398FF9F8AF63D0E6CC63039F212F8F9020C7D47C6792B21C5FE7403D62A1188E2E60C98D7234A5830286103A55745067B9D86B8A3CF9C7F90C11DE6
310
07FB144396D7B6A82D282E9A152AD114D5EF2CB866EEE831B8EEA07A7BB5A8D7D61A2BAAEB7FD5F70921FF497D00504B0304140006080800CC70623BEDD1DC58FD000000A00100003B0000006662782F41393633353835312D344632462D344230382D423046372D3739314545314133324237412F7265736F75726365732F
310
636F72652E786D6C8D504B6E833010BD0A9A6D65B00922041947112427E8052C33A156828DFCA97AFC9A40A576D7CDCCE87D344F8F9FBFE667F689CE6B6B3A6039850C8DB2A336530731DC4903D95970676DF82583CCC8193B5861107C72362E3BA4AC096842428D1D7107A5F7182053CF7474E0D507CE32973124857FE48B
310
540F3961CEF244279DE03EB81420DB9EAC1384436FA353E879B1B182C7A8C75DA3C7F453DF353A1075D537A7BA6464B8F535A99AE14A9A2BBD90E350DD183B5CFABE3AF262350B1EF4FC9351399401471025A527C218A1E53BAB5A5AB765F5469B96525EACF23FA6B88CFF34456DC2A1DCE36E360F82A5202F42F062ED2BAD
310
579969AFDD8A6F504B010214000A0000080000CC70623B3DEE336E79000000790000001B00000000000000000000000000000000006175746F6465736B2D64657369676E2D7061636B6167652E786D6C504B01021400140006080800CC70623BD486FD9CA0000000F40000001300000000000000000000000000B20000005B
310
436F6E74656E745F54797065735D2E786D6C504B01021400140006080800CC70623B853B8169EB0000007C010000080000000000000000000000000083010000636F72652E786D6C504B01021400140006080800CC70623B55019EA25F0000007C000000070000000000000000000000000094020000636E782E786D6C504B
310
01021400140006080800CC70623BDBABAAF470010000D40300000C00000000000000000000000000180300006662782F636F72652E786D6C504B01021400140006080800CC70623B9C113CC27E0000009D0000000B00000000000000000000000000B20400006662782F636E782E786D6C504B01021400140006080800CC70
310
623B7DF2F77C2A010000120200003100000000000000000000000000590500006662782F41393633353835312D344632462D344230382D423046372D3739314545314133324237412F636F72652E786D6C504B01021400140006080800CC70623BAD7543B64E010000330300003000000000000000000000000000D2060000
310
6662782F41393633353835312D344632462D344230382D423046372D3739314545314133324237412F636E782E786D6C504B01021400140006080800CC70623BE75B7789680500003C10000034000000000000000000000000006E0800006662782F41393633353835312D344632462D344230382D423046372D3739314545
310
314133324237412F6F626A656374732E786D6C504B01021400140006080000CC70623B0000000000000000000000003500000000000000000000000000280E00006662782F41393633353835312D344632462D344230382D423046372D3739314545314133324237412F76657274696365732E62696E504B01021400140006
310
080800CC70623BF270F133060000000400000036000000000000000000000000007B0E00006662782F41393633353835312D344632462D344230382D423046372D3739314545314133324237412F747269616E676C65732E62696E504B01021400140006080000CC70623B0000000000000000000000003700000000000000
310
000000000000D50E00006662782F41393633353835312D344632462D344230382D423046372D3739314545314133324237412F617474726962757465732E62696E504B01021400140006080800CC70623B08DA0BD1900000004101000036000000000000000000000000002A0F00006662782F41393633353835312D344632
310
462D344230382D423046372D3739314545314133324237412F6469726563746F72792E786D6C504B01021400140006080800CC70623BEDD1DC58FD000000A00100003B000000000000000000000000000E1000006662782F41393633353835312D344632462D344230382D423046372D3739314545314133324237412F7265
310
736F75726365732F636F72652E786D6C504B0506000000000E000E0080040000641100000000
  0
XRECORD
  5
29F3
102
{ACAD_REACTORS
330
1F7
102
}
330
1F7
100
AcDbXrecord
280
     1
102
MATERIAL
148
0.0
149
0.0
149
0.0
 93
        0
 94
       63
282
     0
 72
     1
 77
     1
171
     1
175
     1
179
     1
273
     0
  0
XRECORD
  5
1F8
102
{ACAD_REACTORS
330
1F7
102
}
330
1F7
100
AcDbXrecord
280
     1
 70
     1
 90
429727718
  1
30362254-06B7-45E0-A893-8CFA70E3D6BC
310
504B03040A0000080000CC70623B3DEE336E79000000790000001B0000006175746F6465736B2D64657369676E2D7061636B6167652E786D6C3C3F786D6C2076657273696F6E3D22312E302220656E636F64696E673D227574662D3822203F3E3C666F726D6174733E3C666F726D61743E687474703A2F2F736368656D612E
310
6175746F6465736B2E636F6D2F64657369676E2D7061636B6167652F323030393C2F666F726D61743E3C2F666F726D6174733E504B0304140006080800CC70623BD486FD9CA0000000F4000000130000005B436F6E74656E745F54797065735D2E786D6C7D8EC10E82300C865F65E91D8A1E8C310C0EEA1BF002731658846E
310
D98AC1B77784ABF1D8FE5FBFBF75BBCE937A534CCEB38643598122B6FEE978D0B0485F9C41B54DDD7D022595594E1A469170414C76A4D9A4D207E29CF43ECE46F218070CC6BECC4078ACAA135ACF422C856C0E68EA1BF5669944DDD7BCDE7B1F8E415D77AECB980613C2E4AC91FC167A2B244592486606FC29C8FD7F045B9A
310
EF7053A7E60B504B0304140006080800CC70623B1EC5D7A3EB0000007C01000008000000636F72652E786D6C8D90416EC3201045AF82665B6103C6756C6122AB4D4ED00B204C5C94182C03558F5F9C3852BBEB6A467FFE9B197D71FC9E6FE8CBACC17AD7032D0820E3B41FAD9B7A48F1820F808E52ACDEC75F36404ECDA687
310
4D0629A6D5A76597B477D1B89855E747B38B2A041301E95B6E7A08FAD3CCAA50296647B8168BD2573599823EBB0CA76447F43862C7BCCF5EAC59410E4DDD9C7973C2755553CCCFA4C603E3040F1565ED3B1FDE4E432BCA0D9622DAF9795FAF464533826484B498524CD807E51D79ED187F21878E10516EF63F505AC67F42C9
310
BA58B1FDDD071640D2FCC87D2045B96591CB3DA85CB7DCE40F504B0304140006080800CC70623B55019EA25F0000007C00000007000000636E782E786D6C4DCB3B0E80201045D1AD90E915ED2CF8AC45050C11660C8261F98AB1B07AC9C97D42D718D865D3E909258CFD00CCE24AC6E326A164D74DC0B4128928FF32603847
310
2BA13128B1252AC747C6BAB984FC68F0B87FE8960A5C09FE86CFB69FBA01504B0304140006080800CC70623B8C9102E971010000D40300000C0000006662782F636F72652E786D6CC5535B6E833010BC8AE5DF0A6C08340F1947A84D4ED00B38C6A128602363A31CBFCB234A53A551FA553EC09AD9F5CE8C31DB9E9B1AF5CA
310
7695D1198E428A91D2D214952E33ECDD315861B4E5CC1AE3BE9561A445A3323CC098B3D21ADFCE9034DA29ED00D5A6503328BA4E398C640D8B0C77F253352214DE4145770A5B214FA2546114020D759C75CE8200340D19DE981F0F6746269C33EFAB6266AB02A655C74A59CCF365BADC27CB5D902ED22848F6340DF238A141
310
BE88E2F57B92BFEDF23523433367AE6A2EEAA455C2A902F398D2751045018D3FA264435F3771F242571B4A1919CA6F9A7C5B3CD9E42BED16F12C776AEB308F40C848FC700B1139D4891EF410CEC810227CC6846F8386402064270EF5C5C709A05E49676C024C61FC95EA45ED154CA5211D1FF4FB8291A913A68E9B83EBBB33
310
E2A7673CDE118E5AE8124C0807CB8377834E366998436B950D7A7746DAD846D4CFD978E0F04FD455FC5D49D2D4C6FE9722321F10997F0F32DC47FE05504B0304140006080800CC70623BFFEA85907E0000009D0000000B0000006662782F636E782E786D6C4DCCD10A83201886E15B91FFDC95D95A811AB6F23E625948A6C3
310
E9D8E5AF46073BFAE0E1E365ED67B3E8ADC3CB78C7815C7240DA3DFC64DCC221C519D7805AC182F7F1EF06C88D9BE6703008B6049F9E274D7A1E938DBB5AE3D6131B2589BA0D3D965551E0B2EA732C9B9A624AAEB41E3A557677029960D9AFB4EF11165F504B0304140006080800CC70623B4FEEA4082C0100001202000031
310
0000006662782F39464131463745442D413632322D343644302D413938332D3331353338454246344243312F636F72652E786D6C8D515B6EC32010BC0AE2AB55850DD871ED0813254D72825EC00192A2C460F1A872FC42ED48ED5F7E00CDCECCCEB26C731F6FE05B39AFADE921293004CA082BB5B9F43086336A21D870E6AC
310
0D7F68109861543DCC30E4ECE26C9C164858139409093556AA051CBC570102714B8F1E7AF1A5C6A11862480C7F2DA6415C878B2A4891CA89C7990F2E050073937C42DE1DB7E4F87ED8A36D4329AA9B3D46DBAEAD504556557BD81DEBDD0761E52CE42C462D17B996298E3E6BE59E35C962CE821E1FF18553435012728A7187
310
0841987E927A8D9B35ADDF70BBC6989599FE4F1427F9A4286A132ABAC49D651EF234CD5CE04CDA78BA3DC2A8FB645D00B9DF8B57E215725C60BCA2A463E54C4CE327C7A65E1C7DB02E7DEFCBF594B864C5CA6CDBD49C957943E9FA5D5FBAF336F90F504B0304140006080800CC70623BAD7543B64E01000033030000300000
310
006662782F39464131463745442D413632322D343644302D413938332D3331353338454246344243312F636E782E786D6CD593CD6EC32010845F0571AD6CE3D48AD20813A9873E410FBD12D82434182C7EAAE6EDBB2424CD25871E7B41D6EC30B3FA84F9E67BB2E40B4234DE8DB46F1925E094D7C6ED479AD3AE5951B2113C
310
789FEE6C943839C1488B4C05DF079FE72A69D8C96C13AAD6B8631503449F83828872B949AC57D26200B826A308D316B4064D6E46FCDA41C05550DC9E483A00797BFD207EFB092A45DE9514C1BBD22178396BD39D891265658C238DEA00936C654E5E433CB65A26D9F6EDB5EBC14EBF49A45CB856E66048291F6939A9A81BB5
310
C8917738143CA680F4AA299D66A042CEB3354A2684DC9D8D178FE0D9B8B41CAAD720F880EE7EF93C0C18769E099ECC04D5A102C8049A8A05632F4DDF376CF1DE0F6BB65C2F8627B65A33C6BB62177CEBBDAD973006829F89F22E814B54F4BC2BE347F8AA8F681390B50FA73F804400B5F542E796F19FF974E7F78DB802FE05
310
E207504B0304140006080800CC70623B16AB87BA640500003C100000340000006662782F39464131463745442D413632322D343644302D413938332D3331353338454246344243312F6F626A656374732E786D6CAD575B6FA33818FD2B887DE6924B3BED8A326A92B68A663B534DD4D13E548A0C38942D60649B369D5FBFC7
310
600890A493BDE42160637FD7F31D7FF63E6FB3D478A55C242CBF3247B66B1A340F5994E4F19559CA8D75611A9F7D8F33263BCB4C232719BD32D5B4E97B316765A1A722BA21652A07B3B7B33F0D11D29C9A46981221AE4C113ED38CD8A4942CA2E2C58E882476BCD9DA23BB5ED8171B73523C0F841684D35CC252CCE79062D4
310
468DFA43D7747CCF51DF7D4FFDEB5593E3AB9CCA9FBEFE241792E4E19EB28198C968BAB8199F5D5A67D3E9C49A9E8F47D6EC76B6B0469F26EEFC7C3EBFBCBEB98462213924694B38DD98FE1D62C393D073EA4FADC5DAF04326852CCF6958F90F0F2B9BB5C48816348F90C7840A68EB78EDF68723159BCEE7891A6B95DDE9D3
310
BCEAEEE8086A6C6F9E5D4B59F0175C10A7A0820BAA5055C7473B5AE3CFDD452D602CD5DF12616444529E90D448938013FE6EFA58AA96F85E4F8C42275708571E98FE6827AF6B2B4AE3D7D83D64E5A64C53054DD3AF90BD06FEA9149565C94FCA0F6B834DC85599E4F2423B24DF0B6AFA979E534DFA9E7A4CC6FA631D486393
310
921829879BF5D781A373557BCB85E97FB90DB62B558F8795179C15944B051F40AB495CF35451D26A4727654E6D8033BD98EF82F21D91FF8AF2DD9982BCF1643BDD4EB516C9492E368C67C88DED563FC36D5EACF66DFF057C3658BDBFA69DF9578B3DA735B64F18C7F20770A9D45CFCF7FCF563D6456A277DBEF78A02637CA2
310
43B90A490AEAB94F72244481D24819A6C0E59B606BFA4B3025981DBB48EAB701D97BF19C577CC77F2D1B6C55A9EF3C732474C0B727303F625995056C3B02963D9EAC146BE78EC5FCEC7FA999EBC5EACBAAE41B12D27B4D2C0BBA49F244E2ECDC81B76B502F113D8F5EE8FB1BE3111CDD4FC2AA9B844CAB1288B68AB90A7CDC
310
1C166AB0D3DC5310625FCC14E779BFD0709F8890A629C9292B1B2DED31A4B0DA928CEE135085754027E3018A397D4D5427D15BD1330B677DC8934285AC3DF45A9EB68FF8F2B8FC0A509AFEECFD0FF2DE25CC6047F7214B195F07EFEB9A094D800F7BFAE8FED187B78EA8A3A400F115961BCAD1215E47C966530AF0EE8128FE
310
58CEBB996A8964FFA529A046635D9353B0336A8F700DDF46271A024E70B0B37C9DE01847591E54DED53D54202AB947E4076556AC49C6CA5C9E1226B7F1A7B1BE15DEED62C41B91E1B3E9AFAAA735036547343A925075041DF0A9979E893B391F8FCFA6967B3EFB644DCF6E5CEBFAE272625DCC6FAF3FB93793C5F90CE1EF57
310
407342756B10D1C489E8953CD1617E5CEECAD6F4EF8914CE5D5D504E5C3F1F9736DA62CFC11E00BCDDB8CC8A9466349744C1F75EBDA4DF09BA8A9E8C7A7E9991989E20E5DBDD6A6003664ED8F7A04A8DBE0DF6EAD9B9AA858342E47399053949D2C146EDB85DE4B176BB0965FBAC19BD19AA918E27FA50C1D22402E144464C
310
59462568E704B6E71915404CB72B8FF4EDE184DDAF753F284990D2C6926782963815403548A70C657FDEF80D2D9CEAA2AE4C1C76F60BFE74219A06527D6582DF6412526107381E55E353090704D085B52408D0933C4ED159D79BDA71BB4BC506F4831350EB6F979CD22D69BF7AC49B91A2C0A9DDA3D5CA36AD20FC478E37E6
310
1844E2352865EBCB6EA275A652E3836BE04EFB400BF1A2556F515F1FBB35B2AB35BD889C744FFA1004B5544B121E57F70215746DD2F5E2C1412B602CBF19455AC6C8E5E9922C4E01E65215385004546899059180EAFCF7A707CE7017CD8CDB0410789AB32C63B91E5CEBBBACB17AC6CD347A022D5075FD106377347AAABA7E
310
7D11590744509B44E205134DC1290F06580320F78E537D3D73540E06CB970B431F185308AD40BBD794D6D77003C5A36E8EAA54BA64597CD8F83BD552A080A365F7FF06504B0304140006080000CC70623B000000000000000000000000350000006662782F39464131463745442D413632322D343644302D413938332D3331
310
353338454246344243312F76657274696365732E62696E504B0304140006080800CC70623BF270F1330600000004000000360000006662782F39464131463745442D413632322D343644302D413938332D3331353338454246344243312F747269616E676C65732E62696E636660600000504B0304140006080000CC70623B
310
000000000000000000000000370000006662782F39464131463745442D413632322D343644302D413938332D3331353338454246344243312F617474726962757465732E62696E504B0304140006080800CC70623B08DA0BD19000000041010000360000006662782F39464131463745442D413632322D343644302D413938
310
332D3331353338454246344243312F6469726563746F72792E786D6C858F410AC3201045AF22B36F53E9A60B35CBEEBAE80D244E44489C6234F4F835464A48035D0DF398FF9F8AF63D0E6CC63039F212F8F9020C7D47C6792B21C5FE7403D62A1188E2E60C98D7234A5830286103A55745067B9D86B8A3CF9C7F90C11DE607
310
FB144396D7B6A82D282E9A152AD114D5EF2CB866EEE831B8EEA07A7BB5A8D7D61A2BAAEB7FD5F70921FF497D00504B0304140006080800CC70623B0D6EF93BFE000000A00100003B0000006662782F39464131463745442D413632322D343644302D413938332D3331353338454246344243312F7265736F75726365732F63
310
6F72652E786D6C8D50596E833010BD0A9ADFCA60B334011947A8694ED00B586642AC041B79A97AFC9A40A5F6AF3F33A3B7689E1E3F7DCD8FEC139DD7D6F4C0720A191A65476DA61E62B892236427C19DB5E1970C322367EC618541F0C9D9B8EC90B226A009093576C41D94DE63804C3DD2D18357379C652E63480A7FCF17A9
310
EE72C29CE5894E3AC17D702940B63D59270887DE46A7D0F36263058F518FBB468FE9A7BE6A7420864373B8D4873369AA8691FA421B3294352543C5CAF65C0F6FEF43CB8BD52C78D0F34F46E550061C419494B6843142CB0F5677F4B52BEB177AEC28E5C52AFF638ACBF84F53D42654E51E77B379102C05791282176B5F693D
310
CB4C7BED567C03504B010214000A0000080000CC70623B3DEE336E79000000790000001B00000000000000000000000000000000006175746F6465736B2D64657369676E2D7061636B6167652E786D6C504B01021400140006080800CC70623BD486FD9CA0000000F40000001300000000000000000000000000B20000005B
310
436F6E74656E745F54797065735D2E786D6C504B01021400140006080800CC70623B1EC5D7A3EB0000007C010000080000000000000000000000000083010000636F72652E786D6C504B01021400140006080800CC70623B55019EA25F0000007C000000070000000000000000000000000094020000636E782E786D6C504B
310
01021400140006080800CC70623B8C9102E971010000D40300000C00000000000000000000000000180300006662782F636F72652E786D6C504B01021400140006080800CC70623BFFEA85907E0000009D0000000B00000000000000000000000000B30400006662782F636E782E786D6C504B01021400140006080800CC70
310
623B4FEEA4082C0100001202000031000000000000000000000000005A0500006662782F39464131463745442D413632322D343644302D413938332D3331353338454246344243312F636F72652E786D6C504B01021400140006080800CC70623BAD7543B64E010000330300003000000000000000000000000000D5060000
310
6662782F39464131463745442D413632322D343644302D413938332D3331353338454246344243312F636E782E786D6C504B01021400140006080800CC70623B16AB87BA640500003C1000003400000000000000000000000000710800006662782F39464131463745442D413632322D343644302D413938332D3331353338
310
454246344243312F6F626A656374732E786D6C504B01021400140006080000CC70623B0000000000000000000000003500000000000000000000000000270E00006662782F39464131463745442D413632322D343644302D413938332D3331353338454246344243312F76657274696365732E62696E504B01021400140006
310
080800CC70623BF270F133060000000400000036000000000000000000000000007A0E00006662782F39464131463745442D413632322D343644302D413938332D3331353338454246344243312F747269616E676C65732E62696E504B01021400140006080000CC70623B0000000000000000000000003700000000000000
310
000000000000D40E00006662782F39464131463745442D413632322D343644302D413938332D3331353338454246344243312F617474726962757465732E62696E504B01021400140006080800CC70623B08DA0BD190000000410100003600000000000000000000000000290F00006662782F39464131463745442D413632
310
322D343644302D413938332D3331353338454246344243312F6469726563746F72792E786D6C504B01021400140006080800CC70623B0D6EF93BFE000000A00100003B000000000000000000000000000D1000006662782F39464131463745442D413632322D343644302D413938332D3331353338454246344243312F7265
310
736F75726365732F636F72652E786D6C504B0506000000000E000E0080040000641100000000
  0
XRECORD
  5
29F5
102
{ACAD_REACTORS
330
173
102
}
330
173
100
AcDbXrecord
280
     1
102
MATERIAL
148
0.0
149
0.0
149
0.0
 93
        0
 94
       63
282
     0
 72
     1
 77
     1
171
     1
175
     1
179
     1
273
     0
  0
XRECORD
  5
175
102
{ACAD_REACTORS
330
173
102
}
330
173
100
AcDbXrecord
280
     1
270
     1
271
     1
  0
XRECORD
  5
174
102
{ACAD_REACTORS
330
173
102
}
330
173
100
AcDbXrecord
280
     1
270
     1
271
     1
  0
XRECORD
  5
1FB
102
{ACAD_REACTORS
330
173
102
}
330
173
100
AcDbXrecord
280
     1
 70
     0
 90
1673772943
  1
ECE7A1D2-D628-4531-984C-D00F80459256
310
504B03040A0000080000CC70623B3DEE336E79000000790000001B0000006175746F6465736B2D64657369676E2D7061636B6167652E786D6C3C3F786D6C2076657273696F6E3D22312E302220656E636F64696E673D227574662D3822203F3E3C666F726D6174733E3C666F726D61743E687474703A2F2F736368656D612E
310
6175746F6465736B2E636F6D2F64657369676E2D7061636B6167652F323030393C2F666F726D61743E3C2F666F726D6174733E504B0304140006080800CC70623BD486FD9CA0000000F4000000130000005B436F6E74656E745F54797065735D2E786D6C7D8EC10E82300C865F65E91D8A1E8C310C0EEA1BF002731658846E
310
D98AC1B77784ABF1D8FE5FBFBF75BBCE937A534CCEB38643598122B6FEE978D0B0485F9C41B54DDD7D022595594E1A469170414C76A4D9A4D207E29CF43ECE46F218070CC6BECC4078ACAA135ACF422C856C0E68EA1BF5669944DDD7BCDE7B1F8E415D77AECB980613C2E4AC91FC167A2B244592486606FC29C8FD7F045B9A
310
EF7053A7E60B504B0304140006080800CC70623BD9DDAED0EC0000007C01000008000000636F72652E786D6C8D90416EC3201045AF82665B61836D9CD8C2444DD39CA01740405C94182C03558F5F9C3852BBEB6A467FFE9B197D7EF89E6EE8CB2CC17A37002D0820E394D7D68D03A478C17B4007C117EFE32F1B20272733C0
310
2A83E0E3E2D3BC49CABB685CCCAAF3DA6CA20CC14440EA969B0182FA34932C648AD911AEC52CD5558EA6A0CF2EC329598D1E47ACCEFBECC59A050463A7EA5833865FEBDD0E37353BE3EE8DBDE3F6786A48D375FBF6CC78B9C282473B3DEFABC5C86834888A900E538A49F5419B9EB47DD5BC907D4F082F57FB1F28CDFA9F50
310
B22ED6D5F6EE030B20687EE43E10BC5CB3C8E51E54AE6B6EE207504B0304140006080800CC70623B55019EA25F0000007C00000007000000636E782E786D6C4DCB3B0E80201045D1AD90E915ED2CF8AC45050C11660C8261F98AB1B07AC9C97D42D718D865D3E909258CFD00CCE24AC6E326A164D74DC0B4128928FF326038
310
472BA13128B1252AC747C6BAB984FC68F0B87FE8960A5C09FE86CFB69FBA01504B0304140006080800CC70623BA24EB22D72010000D40300000C0000006662782F636F72652E786D6CC5535B6E833010BC8AE5DF0A6C5E49888CA3A6694ED00B38E05014B091B1518EDFE511A5A9D228FD2A1F60CDEC7A67C6986DCE4D8D7A
310
69BA4AAB0C073EC548AA5C17952A33ECECD15B61B4E1CC686DBF9561A44423333CC098B3D268D7CE50AE9595CA02AA74216750749DB418E5352C32DCE59FB211BE70162ABA93DF8AFC244AE9073ED050C759670D0840D390E18DF9F1706664C23973AE2A66B62A605A75ACA4C13C4976E1364A12EF355A2EBD384AF65EFA96
310
BC7B8BED2EA6719AAE16FB8491A199335B351775B991C2CA02F390D2D40B028F861F41BCA68B7518BFD0D59A524686F29B26D7164F36B94AD9289CE54E6D1DE6010819891F6E21228B3AD1831EC219194284CF98F06DD01008846CC5A1BEF83801D4CBDC6A1303536877A57A513B0953A94FC707FDBE6064EA84A9E3E6E0FA
310
EE8CF0E9198F7784A316AA0413C2C2F2E0ECA0934D1AE6D05A69BCDE9E91D2A611F573361E38FC1375157F5752AE6B6DFE4B11990F88CCBF0719EE23FF02504B0304140006080800CC70623B408A7D3B7C0000009D0000000B0000006662782F636E782E786D6C4DCCD10A83201886E15B91FFDC552A92A0064DBC8F581632
310
D3703A76F9ABD1C18E3E78F878E5F0D9027ABBFCF2292AE86E2D20171F69F6715550CB827B40839639A5F2770314A7CD293819B45C73AAFB45B35BA61ACAA1C1C7E7855C58C15BC331339661262CC762340413D68D77DA5B42298546CBE6573AF60CEB2F504B0304140006080800CC70623B449FB9BD290100001202000031
310
0000006662782F36394639363044362D344446342D343946362D394244322D3234314243333846323333332F636F72652E786D6C8D515B6EC32010BC0AE22B55850D98B871848994463E412FE002495162B07854397EA176A4F62F3F2C9A9D991D587EB84F37F0AD7D30CEF6905418026DA553C65E7A98E219ED203808EE9D
310
8B7F6810D871D23D2C3014FCE25D9A57483A1BB58D19B54EE9151C43D0110279CB971E06F9A5A7B11A53CC8C70ADE6515EC78BAE4895DB992778883E0700CB907242D17643D7E2538BD869608875438BBAE38922CAC8F1BDD90DB4691A5E2F42C153326A951B95E398B3D1FE599322163C9AE9115F7A3D46ADA0A018778810
310
84E907617BDCEE297BC5BB3DC6BC2EF47FA234AB2745C9D8D8D035EE220B50105E2F0DC1954B9FB747187D9F9D8FA0CCDB042D5FA0C015C65B42DF78BD10F3F3B363CB56C7109DCFDFBBB97E662ED92EB62D13BC2E1BCAE5777DB9966D8A1F504B0304140006080800CC70623BAD7543B64E01000033030000300000006662
310
782F36394639363044362D344446342D343946362D394244322D3234314243333846323333332F636E782E786D6CD593CD6EC32010845F0571AD6CE3D48AD20813A9873E410FBD12D82434182C7EAAE6EDBB2424CD25871E7B41D6EC30B3FA84F9E67BB2E40B4234DE8DB46F1925E094D7C6ED479AD3AE5951B2113C789FEE
310
6C943839C1488B4C05DF079FE72A69D8C96C13AAD6B8631503449F83828872B949AC57D26200B826A308D316B4064D6E46FCDA41C05550DC9E483A00797BFD207EFB092A45DE9514C1BBD22178396BD39D891265658C238DEA00936C654E5E433CB65A26D9F6EDB5EBC14EBF49A45CB856E66048291F6939A9A81BB5C89177
310
38143CA680F4AA299D66A042CEB3354A2684DC9D8D178FE0D9B8B41CAAD720F880EE7EF93C0C18769E099ECC04D5A102C8049A8A05632F4DDF376CF1DE0F6BB65C2F8627B65A33C6BB62177CEBBDAD973006829F89F22E814B54F4BC2BE347F8AA8F681390B50FA73F804400B5F542E796F19FF974E7F78DB802FE05E20750
310
4B0304140006080800CC70623B8D05915C650500003B100000340000006662782F36394639363044362D344446342D343946362D394244322D3234314243333846323333332F6F626A656374732E786D6CAD575B6FA33814FE2B887D06429276DA1565D4266D158D3A339A6846FB502932E050B66023DB74D2FDF5FB190C01
310
9276B2973C046C8ECFF53B17071F77456EBD502133CEAE6CDF9DD81665314F32965ED995DA3A17B6F5310C04E7AA47665B8C14F4CAD6DB7618A48257A5D94AE89654B91AEDDEDDFC61C998326A5B714EA4BCB265FC440BE2924AF184CA6737218AB8E976E7FA6E4338649B0A523E8D98964450A6A029F619B8588D52FE7039
310
B1BD30F0F4F730D0FF866AF6369557DB33949F31A9088B0F848DD8CCFCF9F2767A76E99CCDE733677E3EF59D9BBB9BA5E37F984D16E78BC5E5F5ED25044B25C0C96822E8D60EEFE11B91C581D77CEA34368A1F5329E68CD1B8B61F16D63A1B8E092D294B10C78C4A48EB593D192E7DED9BDEE7995E1B91FDEDD3ACEA9FE831
310
6A756F9F7D4D79F4274C90A7A04248AA51D5F8C718DAE06FB2F75AC4796EBE65D22A88A22223B995679120E2D50E41AA49C260C046A35368846B0BECD0DFF3EBEB8AD4F835768F69B9ADF25C43D30E6B646F807FAA64AD59F61715C7A54127C4AACA98BA3006A9D792DAE165E0D59B61A01FB3A9F9D838D2DAE62445C86166
310
F37564E842E7DE6A69879FEEA2DD5AE7E371E1A5E025154AC307D06A03D73EB5978C58FFA4C8E9033066E0F3BD53BEC1F39F91BE7B55103791EDE6BBB991A2046172CB4581D8B893FA674DDA17A77B3B7C413D1B511FD2743BFF8A38F03A658705E3ADF8015C3A3417FF3D7E439FF591DA0B5F18BC20C1B8981957AE6392A3
310
F43C640C01D1A0B4728E2DD4F26DB4B3C3152A252A3B4E913CEC1C72F012782FF88EFF8637AA552DBEF76408E8A8DE9E50F9E1CB3A2DA0DB1B6039A893B56063DC5B3E3FFB5F72E67AB9FEB4AEC496C4F4C1149625DD662C53E89D7BF0F6151A046260D1337DFDC94502430F83B0EE07A130A224BCAD7DAE1D9FB6CD422FF6
310
920702629C4BB9AE79C12F243C6432A6794E18E5552BA56B431AAB5D91317302B2B071E86C3A42B1A02F999E24061403B5D0EB639195DA655DD3EBEAB4FB862DDF579F014AD0E73C22F99E28DA57FB98E75C6CA2D74D53086D600F4786E0FE3144B771A8A7B900F03594DB8A633CBC49B2EDB69228BB479CF863B5E807AAAB
310
23872F6DFEB4129B949CA33823F58830E86D65621E10047D9DB34D862E8EAC3C2ABC2F7B2C40D67CDFE01F5545B92105AF983AC54D93D69E56FB8E797F88913F898A9FEC705D3F9D1B54EC8426FB500D40A03BD0119B06E1B95DDC7EB8F6975367793EBD70E66733DFB9BC982F9CE564727731999F5D4ECFCE3B8D6A4DC2A0
310
6D50FD148437D110834A64C6CDDF57FBACB5C307A2A477DFE4939736CFEF2B175371E0E10CF0DD1D5C15654E0BCA14D1E87DD02FF93782A162C0A3D95F1524A52770F972BF1EE9809D13CE7DD599467F8ECE9ADD85CE85A34CD45355448C64F9E8A031DC2D596ACC6E5DD93D9B82DE2EF5CAF81363A8E47996A0DE24564A79
310
4115AACE09C55E14540231FDA13C319787134EBF34E3A022514E5B4D9E0826E25C02D5805B15ABE1BEF51B26383D445DD9E875EE33FE4C22DA16427D65A3BCA92CA6D28DD01DF5DC53330704308475351050232CCD31583787BA75774AFB06E5070DD0C8EF484E19968C5D83BA5B90B244D31E54D55A372320FE4786B7EA58
310
44E135AA5467CB7EA333A61683CC6A8C3257034C10CF46F40EF9F5BE59BE5BD30C3C72D235E95D10345C1D45445A5F0BB47E46A5EBE5570F9380B5FA629579952296A773720405982B9DE04011506178964401AA8BDF1FBF0A8EAB6861DD6580C0E38217056766716DAEB2D6FA0917D3E4116581EADB879C4E7CFFB11EFACD
310
3D641311495D92C8676CB409A72D18610D803CE8A626049E8EC1887CB5B44CC39883690DDA8399B4B9855B481E7D71D4A9D22F96E5BB73BF5793020C02137BF837504B0304140006080000CC70623B000000000000000000000000350000006662782F36394639363044362D344446342D343946362D394244322D32343142
310
43333846323333332F76657274696365732E62696E504B0304140006080800CC70623BF270F1330600000004000000360000006662782F36394639363044362D344446342D343946362D394244322D3234314243333846323333332F747269616E676C65732E62696E636660600000504B0304140006080000CC70623B0000
310
00000000000000000000370000006662782F36394639363044362D344446342D343946362D394244322D3234314243333846323333332F617474726962757465732E62696E504B0304140006080800CC70623B08DA0BD19000000041010000360000006662782F36394639363044362D344446342D343946362D394244322D
310
3234314243333846323333332F6469726563746F72792E786D6C858F410AC3201045AF22B36F53E9A60B35CBEEBAE80D244E44489C6234F4F835464A48035D0DF398FF9F8AF63D0E6CC63039F212F8F9020C7D47C6792B21C5FE7403D62A1188E2E60C98D7234A5830286103A55745067B9D86B8A3CF9C7F90C11DE607FB14
310
4396D7B6A82D282E9A152AD114D5EF2CB866EEE831B8EEA07A7BB5A8D7D61A2BAAEB7FD5F70921FF497D00504B0304140006080800CC70623BCA768048FE000000A00100003B0000006662782F36394639363044362D344446342D343946362D394244322D3234314243333846323333332F7265736F75726365732F636F72
310
652E786D6C8D50596E833010BD0A9ADFCA60D600328E9AA639412F609909B1126CE4A5EAF16B0295DABFFECC8CDEA2797AECF8353F924FB44E193D409E5248504B332A3D0D10FC95B4901C39B3C6F85F3248B49871801506CE266BC2B243D2688FDA47549B11775038871E12F988C7004EDE7016A9083E2ADC3D5D84BC8B09
310
D33C8D74D471E6BC8D0192EDC93A815B742658898E651BCB59086ADC356A8C3FD555A1055ED7E7E254D615792D0F075295F585746FF53B694EE78A565DD736979A65AB9933AFE69F8CD2A2F038022F28ED489E135A7CE4554F9BBEA85E68DB53CAB255FEC71496F19FA6A0B42F8B3DEE6673C0F318E4497096AD7DC5F52C33
310
EEB55BFE0D504B010214000A0000080000CC70623B3DEE336E79000000790000001B00000000000000000000000000000000006175746F6465736B2D64657369676E2D7061636B6167652E786D6C504B01021400140006080800CC70623BD486FD9CA0000000F40000001300000000000000000000000000B20000005B436F
310
6E74656E745F54797065735D2E786D6C504B01021400140006080800CC70623BD9DDAED0EC0000007C010000080000000000000000000000000083010000636F72652E786D6C504B01021400140006080800CC70623B55019EA25F0000007C000000070000000000000000000000000095020000636E782E786D6C504B0102
310
1400140006080800CC70623BA24EB22D72010000D40300000C00000000000000000000000000190300006662782F636F72652E786D6C504B01021400140006080800CC70623B408A7D3B7C0000009D0000000B00000000000000000000000000B50400006662782F636E782E786D6C504B01021400140006080800CC70623B
310
449FB9BD290100001202000031000000000000000000000000005A0500006662782F36394639363044362D344446342D343946362D394244322D3234314243333846323333332F636F72652E786D6C504B01021400140006080800CC70623BAD7543B64E010000330300003000000000000000000000000000D20600006662
310
782F36394639363044362D344446342D343946362D394244322D3234314243333846323333332F636E782E786D6C504B01021400140006080800CC70623B8D05915C650500003B10000034000000000000000000000000006E0800006662782F36394639363044362D344446342D343946362D394244322D32343142433338
310
46323333332F6F626A656374732E786D6C504B01021400140006080000CC70623B0000000000000000000000003500000000000000000000000000250E00006662782F36394639363044362D344446342D343946362D394244322D3234314243333846323333332F76657274696365732E62696E504B010214001400060808
310
00CC70623BF270F13306000000040000003600000000000000000000000000780E00006662782F36394639363044362D344446342D343946362D394244322D3234314243333846323333332F747269616E676C65732E62696E504B01021400140006080000CC70623B00000000000000000000000037000000000000000000
310
00000000D20E00006662782F36394639363044362D344446342D343946362D394244322D3234314243333846323333332F617474726962757465732E62696E504B01021400140006080800CC70623B08DA0BD190000000410100003600000000000000000000000000270F00006662782F36394639363044362D344446342D
310
343946362D394244322D3234314243333846323333332F6469726563746F72792E786D6C504B01021400140006080800CC70623BCA768048FE000000A00100003B000000000000000000000000000B1000006662782F36394639363044362D344446342D343946362D394244322D3234314243333846323333332F7265736F
310
75726365732F636F72652E786D6C504B0506000000000E000E0080040000621100000000
  0
XRECORD
  5
176
102
{ACAD_REACTORS
330
173
102
}
330
173
100
AcDbXrecord
280
     1
270
     1
271
     1
  0
XRECORD
  5
177
102
{ACAD_REACTORS
330
173
102
}
330
173
100
AcDbXrecord
280
     1
270
     1
271
     1
  0
XRECORD
  5
2A17
102
{ACAD_REACTORS
330
2A16
102
}
330
2A16
100
AcDbXrecord
280
     1
102
ACAD_ROUNDTRIP_2012_MLEADER_STYLE
298
     1
  0
XRECORD
  5
2A29
102
{ACAD_REACTORS
330
2A28
102
}
330
2A28
100
AcDbXrecord
280
     1
102
DISPLAYNAME
  1
Metric50
102
FLAGS
 90
        0
  0
CELLSTYLEMAP
  5
29E9
102
{ACAD_REACTORS
330
162
102
}
330
162
100
AcDbCellStyleMap
 90
        3
300
CELLSTYLE
  1
TABLEFORMAT_BEGIN
 90
        5
170
     1
 91
        0
 92
    32768
 62
   257
 93
        1
300
CONTENTFORMAT
  1
CONTENTFORMAT_BEGIN
 90
        0
 91
        0
 92
      512
 93
        0
300

 40
0.0
140
1.0
 94
        5
 62
     0
340
11
144
6.0
309
CONTENTFORMAT_END
171
     1
301
MARGIN
  1
CELLMARGIN_BEGIN
 40
1.5
 40
1.5
 40
1.5
 40
1.5
 40
4.5
 40
4.5
309
CELLMARGIN_END
 94
        6
 95
        1
302
GRIDFORMAT
  1
GRIDFORMAT_BEGIN
 90
        0
 91
        1
 62
     0
 92
       -2
340
14
 93
        0
 40
1.125
309
GRIDFORMAT_END
 95
        2
302
GRIDFORMAT
  1
GRIDFORMAT_BEGIN
 90
        0
 91
        1
 62
     0
 92
       -2
340
14
 93
        0
 40
1.125
309
GRIDFORMAT_END
 95
        4
302
GRIDFORMAT
  1
GRIDFORMAT_BEGIN
 90
        0
 91
        1
 62
     0
 92
       -2
340
14
 93
        0
 40
1.125
309
GRIDFORMAT_END
 95
        8
302
GRIDFORMAT
  1
GRIDFORMAT_BEGIN
 90
        0
 91
        1
 62
     0
 92
       -2
340
14
 93
        0
 40
1.125
309
GRIDFORMAT_END
 95
       16
302
GRIDFORMAT
  1
GRIDFORMAT_BEGIN
 90
        0
 91
        1
 62
     0
 92
       -2
340
14
 93
        0
 40
1.125
309
GRIDFORMAT_END
 95
       32
302
GRIDFORMAT
  1
GRIDFORMAT_BEGIN
 90
        0
 91
        1
 62
     0
 92
       -2
340
14
 93
        0
 40
1.125
309
GRIDFORMAT_END
309
TABLEFORMAT_END
  1
CELLSTYLE_BEGIN
 90
        1
 91
        1
300
_TITLE
309
CELLSTYLE_END
300
CELLSTYLE
  1
TABLEFORMAT_BEGIN
 90
        5
170
     1
 91
        0
 92
        0
 62
   257
 93
        1
300
CONTENTFORMAT
  1
CONTENTFORMAT_BEGIN
 90
        0
 91
        0
 92
      512
 93
        0
300

 40
0.0
140
1.0
 94
        5
 62
     0
340
11
144
4.5
309
CONTENTFORMAT_END
171
     1
301
MARGIN
  1
CELLMARGIN_BEGIN
 40
1.5
 40
1.5
 40
1.5
 40
1.5
 40
4.5
 40
4.5
309
CELLMARGIN_END
 94
        6
 95
        1
302
GRIDFORMAT
  1
GRIDFORMAT_BEGIN
 90
        0
 91
        1
 62
     0
 92
       -2
340
14
 93
        0
 40
1.125
309
GRIDFORMAT_END
 95
        2
302
GRIDFORMAT
  1
GRIDFORMAT_BEGIN
 90
        0
 91
        1
 62
     0
 92
       -2
340
14
 93
        0
 40
1.125
309
GRIDFORMAT_END
 95
        4
302
GRIDFORMAT
  1
GRIDFORMAT_BEGIN
 90
        0
 91
        1
 62
     0
 92
       -2
340
14
 93
        0
 40
1.125
309
GRIDFORMAT_END
 95
        8
302
GRIDFORMAT
  1
GRIDFORMAT_BEGIN
 90
        0
 91
        1
 62
     0
 92
       -2
340
14
 93
        0
 40
1.125
309
GRIDFORMAT_END
 95
       16
302
GRIDFORMAT
  1
GRIDFORMAT_BEGIN
 90
        0
 91
        1
 62
     0
 92
       -2
340
14
 93
        0
 40
1.125
309
GRIDFORMAT_END
 95
       32
302
GRIDFORMAT
  1
GRIDFORMAT_BEGIN
 90
        0
 91
        1
 62
     0
 92
       -2
340
14
 93
        0
 40
1.125
309
GRIDFORMAT_END
309
TABLEFORMAT_END
  1
CELLSTYLE_BEGIN
 90
        2
 91
        1
300
_HEADER
309
CELLSTYLE_END
300
CELLSTYLE
  1
TABLEFORMAT_BEGIN
 90
        5
170
     1
 91
        0
 92
        0
 62
   257
 93
        1
300
CONTENTFORMAT
  1
CONTENTFORMAT_BEGIN
 90
        0
 91
        0
 92
      512
 93
        0
300

 40
0.0
140
1.0
 94
        2
 62
     0
340
11
144
4.5
309
CONTENTFORMAT_END
171
     1
301
MARGIN
  1
CELLMARGIN_BEGIN
 40
1.5
 40
1.5
 40
1.5
 40
1.5
 40
4.5
 40
4.5
309
CELLMARGIN_END
 94
        6
 95
        1
302
GRIDFORMAT
  1
GRIDFORMAT_BEGIN
 90
        0
 91
        1
 62
     0
 92
       -2
340
14
 93
        0
 40
1.125
309
GRIDFORMAT_END
 95
        2
302
GRIDFORMAT
  1
GRIDFORMAT_BEGIN
 90
        0
 91
        1
 62
     0
 92
       -2
340
14
 93
        0
 40
1.125
309
GRIDFORMAT_END
 95
        4
302
GRIDFORMAT
  1
GRIDFORMAT_BEGIN
 90
        0
 91
        1
 62
     0
 92
       -2
340
14
 93
        0
 40
1.125
309
GRIDFORMAT_END
 95
        8
302
GRIDFORMAT
  1
GRIDFORMAT_BEGIN
 90
        0
 91
        1
 62
     0
 92
       -2
340
14
 93
        0
 40
1.125
309
GRIDFORMAT_END
 95
       16
302
GRIDFORMAT
  1
GRIDFORMAT_BEGIN
 90
        0
 91
        1
 62
     0
 92
       -2
340
14
 93
        0
 40
1.125
309
GRIDFORMAT_END
 95
       32
302
GRIDFORMAT
  1
GRIDFORMAT_BEGIN
 90
        0
 91
        1
 62
     0
 92
       -2
340
14
 93
        0
 40
1.125
309
GRIDFORMAT_END
309
TABLEFORMAT_END
  1
CELLSTYLE_BEGIN
 90
        3
 91
        2
300
_DATA
309
CELLSTYLE_END
  0
XRECORD
  5
29EE
102
{ACAD_REACTORS
330
162
102
}
330
162
100
AcDbXrecord
280
     1
102
ACAD_ROUNDTRIP_PRE2007_TABLESTYLE
 90
      512
 91
        0
  1

 92
      512
 93
        0
  2

 94
      512
 95
        0
  3

  0
XRECORD
  5
2A01
102
{ACAD_REACTORS
330
2A00
102
}
330
2A00
100
AcDbXrecord
280
     1
102
RTVSPost2010Prop28
280
     1
102
RTVSPost2010PropOp28
 70
     1
102
RTVSPost2010Prop29
280
     1
102
RTVSPost2010PropOp29
 70
     1
102
RTVSPost2010Prop30
280
     0
102
RTVSPost2010PropOp30
 70
     1
102
RTVSPost2010Prop31
280
     0
102
RTVSPost2010PropOp31
 70
     1
102
RTVSPost2010Prop32
280
     0
102
RTVSPost2010PropOp32
 70
     1
102
RTVSPost2010Prop33
280
     0
102
RTVSPost2010PropOp33
 70
     1
102
RTVSPost2010Prop34
280
     0
102
RTVSPost2010PropOp34
 70
     1
102
RTVSPost2010Prop35
280
     0
102
RTVSPost2010PropOp35
 70
     1
102
RTVSPost2010Prop36
280
     0
102
RTVSPost2010PropOp36
 70
     1
102
RTVSPost2010Prop37
 90
       50
102
RTVSPost2010PropOp37
 70
     1
102
RTVSPost2010Prop38
140
0.0
102
RTVSPost2010PropOp38
 70
     1
102
RTVSPost2010Prop39
140
1.0
102
RTVSPost2010PropOp39
 70
     1
102
RTVSPost2010Prop40
 90
        0
102
RTVSPost2010PropOp40
 70
     1
102
RTVSPost2010Prop41ColorIndex
 90
       18
102
RTVSPost2010Prop41ColorRGB
 90
        0
102
RTVSPost2010PropOp41
 70
     1
102
RTVSPost2010Prop42
 90
       50
102
RTVSPost2010PropOp42
 70
     1
102
RTVSPost2010Prop43
 90
        3
102
RTVSPost2010PropOp43
 70
     1
102
RTVSPost2010Prop44ColorIndex
 90
        5
102
RTVSPost2010Prop44ColorRGB
 90
      255
102
RTVSPost2010PropOp44
 70
     1
102
RTVSPost2010Prop45
280
     0
102
RTVSPost2010PropOp45
 70
     1
102
RTVSPost2010Prop46
 90
       50
102
RTVSPost2010PropOp46
 70
     1
102
RTVSPost2010Prop47
 90
       50
102
RTVSPost2010PropOp47
 70
     1
102
RTVSPost2010Prop48
 90
       50
102
RTVSPost2010PropOp48
 70
     1
102
RTVSPost2010Prop49
280
     0
102
RTVSPost2010PropOp49
 70
     1
102
RTVSPost2010Prop50
 90
       50
102
RTVSPost2010PropOp50
 70
     1
102
RTVSPost2010Prop51ColorIndex
 90
      256
102
RTVSPost2010Prop51ColorRGB
 90
-16777216
102
RTVSPost2010PropOp51
 70
     0
102
RTVSPost2010Prop52
140
1.0
102
RTVSPost2010PropOp52
 70
     0
102
RTVSPost2010Prop53
 90
        2
102
RTVSPost2010PropOp53
 70
     1
102
RTVSPost2010Prop54
  1
strokes_ogs.tif
102
RTVSPost2010PropOp54
 70
     1
102
RTVSPost2010Prop55
280
     0
102
RTVSPost2010PropOp55
 70
     1
102
RTVSPost2010Prop56
140
1.0
102
RTVSPost2010PropOp56
 70
     1
102
RTVSPost2010Prop57
140
1.0
102
RTVSPost2010PropOp57
 70
     1
102
RTVSPropertyOp0
 70
     1
102
RTVSPropertyOp1
 70
     1
102
RTVSPropertyOp2
 70
     1
102
RTVSPropertyOp3
 70
     1
102
RTVSPropertyOp4
 70
     1
102
RTVSPropertyOp5
 70
     1
102
RTVSPropertyOp6
 70
     1
102
RTVSPropertyOp7
 70
     1
102
RTVSPropertyOp8
 70
     1
102
RTVSPropertyOp9
 70
     1
102
RTVSPropertyOp10
 70
     1
102
RTVSPropertyOp11
 70
     1
102
RTVSPropertyOp12
 70
     1
102
RTVSPropertyOp13
 70
     1
102
RTVSPropertyOp14
 70
     1
102
RTVSPropertyOp15
 70
     1
102
RTVSPropertyOp16
 70
     1
102
RTVSPropertyOp17
 70
     1
102
RTVSPropertyOp18
 70
     1
102
RTVSPropertyOp19
 70
     1
102
RTVSPropertyOp20
 70
     1
102
RTVSPropertyOp21
 70
     1
102
RTVSPropertyOp22
 70
     1
102
RTVSPropertyOp23
 70
     1
102
RTVSPropertyOp24
 70
     1
102
RTVSPropertyOp25
 70
     1
102
RTVSPropertyOp26
 70
     1
102
RTVSPropertyOp27
 70
     1
102
RTVSPropertyOp28
 70
     1
102
RTVSPropertyOp29
 70
     1
102
RTVSPropertyOp30
 70
     1
102
RTVSPropertyOp31
 70
     1
102
RTVSPropertyOp32
 70
     1
102
RTVSPropertyOp33
 70
     1
102
RTVSPropertyOp34
 70
     1
102
RTVSPropertyOp35
 70
     1
102
RTVSPropertyOp36
 70
     1
102
RTVSPropertyOp37
 70
     1
102
RTVSPropertyOp38
 70
     1
102
RTVSPropertyOp39
 70
     1
102
RTVSPropertyOp40
 70
     1
102
RTVSPropertyOp41
 70
     1
102
RTVSPropertyOp42
 70
     1
102
RTVSPropertyOp43
 70
     1
102
RTVSPropertyOp44
 70
     1
102
RTVSPropertyOp45
 70
     1
102
RTVSPropertyOp46
 70
     1
102
RTVSPropertyOp47
 70
     1
102
RTVSPropertyOp48
 70
     1
102
RTVSPropertyOp49
 70
     1
102
RTVSPropertyOp50
 70
     1
102
RTVSPropertyOp51
 70
     0
102
RTVSPropertyOp52
 70
     0
102
RTVSPropertyOp53
 70
     1
102
RTVSPropertyOp54
 70
     1
102
RTVSPropertyOp55
 70
     1
102
RTVSPropertyOp56
 70
     1
102
RTVSPropertyOp57
 70
     1
102
RTVSPropertyOp58
 70
     1
102
RTVSPropertyOp59
 70
     1
102
RTVSPropertyOp60
 70
     1
102
RTVSPropertyOp61
 70
     1
102
RTVSPropertyOp62
 70
     1
  0
XRECORD
  5
29FF
102
{ACAD_REACTORS
330
29FE
102
}
330
29FE
100
AcDbXrecord
280
     1
102
RTVSPost2010Prop28
280
     0
102
RTVSPost2010PropOp28
 70
     1
102
RTVSPost2010Prop29
280
     1
102
RTVSPost2010PropOp29
 70
     1
102
RTVSPost2010Prop30
280
     1
102
RTVSPost2010PropOp30
 70
     1
102
RTVSPost2010Prop31
280
     0
102
RTVSPost2010PropOp31
 70
     1
102
RTVSPost2010Prop32
280
     0
102
RTVSPost2010PropOp32
 70
     1
102
RTVSPost2010Prop33
280
     0
102
RTVSPost2010PropOp33
 70
     1
102
RTVSPost2010Prop34
280
     0
102
RTVSPost2010PropOp34
 70
     1
102
RTVSPost2010Prop35
280
     0
102
RTVSPost2010PropOp35
 70
     1
102
RTVSPost2010Prop36
280
     0
102
RTVSPost2010PropOp36
 70
     1
102
RTVSPost2010Prop37
 90
       50
102
RTVSPost2010PropOp37
 70
     1
102
RTVSPost2010Prop38
140
0.0
102
RTVSPost2010PropOp38
 70
     1
102
RTVSPost2010Prop39
140
1.0
102
RTVSPost2010PropOp39
 70
     1
102
RTVSPost2010Prop40
 90
        0
102
RTVSPost2010PropOp40
 70
     1
102
RTVSPost2010Prop41ColorIndex
 90
       18
102
RTVSPost2010Prop41ColorRGB
 90
        0
102
RTVSPost2010PropOp41
 70
     1
102
RTVSPost2010Prop42
 90
       50
102
RTVSPost2010PropOp42
 70
     1
102
RTVSPost2010Prop43
 90
        3
102
RTVSPost2010PropOp43
 70
     1
102
RTVSPost2010Prop44ColorIndex
 90
        5
102
RTVSPost2010Prop44ColorRGB
 90
      255
102
RTVSPost2010PropOp44
 70
     1
102
RTVSPost2010Prop45
280
     0
102
RTVSPost2010PropOp45
 70
     1
102
RTVSPost2010Prop46
 90
       50
102
RTVSPost2010PropOp46
 70
     1
102
RTVSPost2010Prop47
 90
       50
102
RTVSPost2010PropOp47
 70
     1
102
RTVSPost2010Prop48
 90
       50
102
RTVSPost2010PropOp48
 70
     1
102
RTVSPost2010Prop49
280
     0
102
RTVSPost2010PropOp49
 70
     1
102
RTVSPost2010Prop50
 90
       50
102
RTVSPost2010PropOp50
 70
     1
102
RTVSPost2010Prop51ColorIndex
 90
      256
102
RTVSPost2010Prop51ColorRGB
 90
-16777216
102
RTVSPost2010PropOp51
 70
     0
102
RTVSPost2010Prop52
140
1.0
102
RTVSPost2010PropOp52
 70
     0
102
RTVSPost2010Prop53
 90
        2
102
RTVSPost2010PropOp53
 70
     1
102
RTVSPost2010Prop54
  1
strokes_ogs.tif
102
RTVSPost2010PropOp54
 70
     1
102
RTVSPost2010Prop55
280
     0
102
RTVSPost2010PropOp55
 70
     1
102
RTVSPost2010Prop56
140
1.0
102
RTVSPost2010PropOp56
 70
     1
102
RTVSPost2010Prop57
140
1.0
102
RTVSPost2010PropOp57
 70
     1
102
RTVSPropertyOp0
 70
     1
102
RTVSPropertyOp1
 70
     1
102
RTVSPropertyOp2
 70
     1
102
RTVSPropertyOp3
 70
     1
102
RTVSPropertyOp4
 70
     1
102
RTVSPropertyOp5
 70
     1
102
RTVSPropertyOp6
 70
     1
102
RTVSPropertyOp7
 70
     1
102
RTVSPropertyOp8
 70
     1
102
RTVSPropertyOp9
 70
     1
102
RTVSPropertyOp10
 70
     1
102
RTVSPropertyOp11
 70
     1
102
RTVSPropertyOp12
 70
     1
102
RTVSPropertyOp13
 70
     1
102
RTVSPropertyOp14
 70
     1
102
RTVSPropertyOp15
 70
     1
102
RTVSPropertyOp16
 70
     1
102
RTVSPropertyOp17
 70
     1
102
RTVSPropertyOp18
 70
     1
102
RTVSPropertyOp19
 70
     1
102
RTVSPropertyOp20
 70
     1
102
RTVSPropertyOp21
 70
     1
102
RTVSPropertyOp22
 70
     1
102
RTVSPropertyOp23
 70
     1
102
RTVSPropertyOp24
 70
     1
102
RTVSPropertyOp25
 70
     1
102
RTVSPropertyOp26
 70
     1
102
RTVSPropertyOp27
 70
     1
102
RTVSPropertyOp28
 70
     1
102
RTVSPropertyOp29
 70
     1
102
RTVSPropertyOp30
 70
     1
102
RTVSPropertyOp31
 70
     1
102
RTVSPropertyOp32
 70
     1
102
RTVSPropertyOp33
 70
     1
102
RTVSPropertyOp34
 70
     1
102
RTVSPropertyOp35
 70
     1
102
RTVSPropertyOp36
 70
     1
102
RTVSPropertyOp37
 70
     1
102
RTVSPropertyOp38
 70
     1
102
RTVSPropertyOp39
 70
     1
102
RTVSPropertyOp40
 70
     1
102
RTVSPropertyOp41
 70
     1
102
RTVSPropertyOp42
 70
     1
102
RTVSPropertyOp43
 70
     1
102
RTVSPropertyOp44
 70
     1
102
RTVSPropertyOp45
 70
     1
102
RTVSPropertyOp46
 70
     1
102
RTVSPropertyOp47
 70
     1
102
RTVSPropertyOp48
 70
     1
102
RTVSPropertyOp49
 70
     1
102
RTVSPropertyOp50
 70
     1
102
RTVSPropertyOp51
 70
     0
102
RTVSPropertyOp52
 70
     0
102
RTVSPropertyOp53
 70
     1
102
RTVSPropertyOp54
 70
     1
102
RTVSPropertyOp55
 70
     1
102
RTVSPropertyOp56
 70
     1
102
RTVSPropertyOp57
 70
     1
102
RTVSPropertyOp58
 70
     1
102
RTVSPropertyOp59
 70
     1
102
RTVSPropertyOp60
 70
     1
102
RTVSPropertyOp61
 70
     1
102
RTVSPropertyOp62
 70
     1
  0
XRECORD
  5
2A0D
102
{ACAD_REACTORS
330
2A0C
102
}
330
2A0C
100
AcDbXrecord
280
     1
102
RTVSPost2010Prop28
280
     0
102
RTVSPost2010PropOp28
 70
     1
102
RTVSPost2010Prop29
280
     1
102
RTVSPost2010PropOp29
 70
     1
102
RTVSPost2010Prop30
280
     1
102
RTVSPost2010PropOp30
 70
     1
102
RTVSPost2010Prop31
280
     0
102
RTVSPost2010PropOp31
 70
     1
102
RTVSPost2010Prop32
280
     0
102
RTVSPost2010PropOp32
 70
     1
102
RTVSPost2010Prop33
280
     0
102
RTVSPost2010PropOp33
 70
     1
102
RTVSPost2010Prop34
280
     0
102
RTVSPost2010PropOp34
 70
     1
102
RTVSPost2010Prop35
280
     0
102
RTVSPost2010PropOp35
 70
     1
102
RTVSPost2010Prop36
280
     0
102
RTVSPost2010PropOp36
 70
     1
102
RTVSPost2010Prop37
 90
       50
102
RTVSPost2010PropOp37
 70
     1
102
RTVSPost2010Prop38
140
0.0
102
RTVSPost2010PropOp38
 70
     1
102
RTVSPost2010Prop39
140
1.0
102
RTVSPost2010PropOp39
 70
     1
102
RTVSPost2010Prop40
 90
        0
102
RTVSPost2010PropOp40
 70
     1
102
RTVSPost2010Prop41ColorIndex
 90
       18
102
RTVSPost2010Prop41ColorRGB
 90
        0
102
RTVSPost2010PropOp41
 70
     1
102
RTVSPost2010Prop42
 90
       50
102
RTVSPost2010PropOp42
 70
     1
102
RTVSPost2010Prop43
 90
        3
102
RTVSPost2010PropOp43
 70
     1
102
RTVSPost2010Prop44ColorIndex
 90
        5
102
RTVSPost2010Prop44ColorRGB
 90
      255
102
RTVSPost2010PropOp44
 70
     1
102
RTVSPost2010Prop45
280
     0
102
RTVSPost2010PropOp45
 70
     1
102
RTVSPost2010Prop46
 90
       50
102
RTVSPost2010PropOp46
 70
     1
102
RTVSPost2010Prop47
 90
       50
102
RTVSPost2010PropOp47
 70
     1
102
RTVSPost2010Prop48
 90
       50
102
RTVSPost2010PropOp48
 70
     1
102
RTVSPost2010Prop49
280
     0
102
RTVSPost2010PropOp49
 70
     1
102
RTVSPost2010Prop50
 90
       50
102
RTVSPost2010PropOp50
 70
     1
102
RTVSPost2010Prop51ColorIndex
 90
      256
102
RTVSPost2010Prop51ColorRGB
 90
-16777216
102
RTVSPost2010PropOp51
 70
     0
102
RTVSPost2010Prop52
140
1.0
102
RTVSPost2010PropOp52
 70
     0
102
RTVSPost2010Prop53
 90
        2
102
RTVSPost2010PropOp53
 70
     1
102
RTVSPost2010Prop54
  1
strokes_ogs.tif
102
RTVSPost2010PropOp54
 70
     1
102
RTVSPost2010Prop55
280
     0
102
RTVSPost2010PropOp55
 70
     1
102
RTVSPost2010Prop56
140
1.0
102
RTVSPost2010PropOp56
 70
     1
102
RTVSPost2010Prop57
140
1.0
102
RTVSPost2010PropOp57
 70
     1
102
RTVSPropertyOp0
 70
     1
102
RTVSPropertyOp1
 70
     1
102
RTVSPropertyOp2
 70
     1
102
RTVSPropertyOp3
 70
     1
102
RTVSPropertyOp4
 70
     1
102
RTVSPropertyOp5
 70
     1
102
RTVSPropertyOp6
 70
     1
102
RTVSPropertyOp7
 70
     1
102
RTVSPropertyOp8
 70
     1
102
RTVSPropertyOp9
 70
     1
102
RTVSPropertyOp10
 70
     1
102
RTVSPropertyOp11
 70
     1
102
RTVSPropertyOp12
 70
     1
102
RTVSPropertyOp13
 70
     1
102
RTVSPropertyOp14
 70
     1
102
RTVSPropertyOp15
 70
     1
102
RTVSPropertyOp16
 70
     1
102
RTVSPropertyOp17
 70
     1
102
RTVSPropertyOp18
 70
     1
102
RTVSPropertyOp19
 70
     1
102
RTVSPropertyOp20
 70
     1
102
RTVSPropertyOp21
 70
     1
102
RTVSPropertyOp22
 70
     1
102
RTVSPropertyOp23
 70
     1
102
RTVSPropertyOp24
 70
     1
102
RTVSPropertyOp25
 70
     1
102
RTVSPropertyOp26
 70
     1
102
RTVSPropertyOp27
 70
     1
102
RTVSPropertyOp28
 70
     1
102
RTVSPropertyOp29
 70
     1
102
RTVSPropertyOp30
 70
     1
102
RTVSPropertyOp31
 70
     1
102
RTVSPropertyOp32
 70
     1
102
RTVSPropertyOp33
 70
     1
102
RTVSPropertyOp34
 70
     1
102
RTVSPropertyOp35
 70
     1
102
RTVSPropertyOp36
 70
     1
102
RTVSPropertyOp37
 70
     1
102
RTVSPropertyOp38
 70
     1
102
RTVSPropertyOp39
 70
     1
102
RTVSPropertyOp40
 70
     1
102
RTVSPropertyOp41
 70
     1
102
RTVSPropertyOp42
 70
     1
102
RTVSPropertyOp43
 70
     1
102
RTVSPropertyOp44
 70
     1
102
RTVSPropertyOp45
 70
     1
102
RTVSPropertyOp46
 70
     1
102
RTVSPropertyOp47
 70
     1
102
RTVSPropertyOp48
 70
     1
102
RTVSPropertyOp49
 70
     1
102
RTVSPropertyOp50
 70
     1
102
RTVSPropertyOp51
 70
     0
102
RTVSPropertyOp52
 70
     0
102
RTVSPropertyOp53
 70
     1
102
RTVSPropertyOp54
 70
     1
102
RTVSPropertyOp55
 70
     1
102
RTVSPropertyOp56
 70
     1
102
RTVSPropertyOp57
 70
     1
102
RTVSPropertyOp58
 70
     1
102
RTVSPropertyOp59
 70
     1
102
RTVSPropertyOp60
 70
     1
102
RTVSPropertyOp61
 70
     1
102
RTVSPropertyOp62
 70
     1
  0
XRECORD
  5
2A15
102
{ACAD_REACTORS
330
2A14
102
}
330
2A14
100
AcDbXrecord
280
     1
102
RTVSPost2010Prop28
280
     0
102
RTVSPost2010PropOp28
 70
     1
102
RTVSPost2010Prop29
280
     1
102
RTVSPost2010PropOp29
 70
     1
102
RTVSPost2010Prop30
280
     1
102
RTVSPost2010PropOp30
 70
     1
102
RTVSPost2010Prop31
280
     0
102
RTVSPost2010PropOp31
 70
     1
102
RTVSPost2010Prop32
280
     0
102
RTVSPost2010PropOp32
 70
     1
102
RTVSPost2010Prop33
280
     0
102
RTVSPost2010PropOp33
 70
     1
102
RTVSPost2010Prop34
280
     0
102
RTVSPost2010PropOp34
 70
     1
102
RTVSPost2010Prop35
280
     0
102
RTVSPost2010PropOp35
 70
     1
102
RTVSPost2010Prop36
280
     0
102
RTVSPost2010PropOp36
 70
     1
102
RTVSPost2010Prop37
 90
       50
102
RTVSPost2010PropOp37
 70
     1
102
RTVSPost2010Prop38
140
0.0
102
RTVSPost2010PropOp38
 70
     1
102
RTVSPost2010Prop39
140
1.0
102
RTVSPost2010PropOp39
 70
     1
102
RTVSPost2010Prop40
 90
        0
102
RTVSPost2010PropOp40
 70
     1
102
RTVSPost2010Prop41ColorIndex
 90
       18
102
RTVSPost2010Prop41ColorRGB
 90
        0
102
RTVSPost2010PropOp41
 70
     1
102
RTVSPost2010Prop42
 90
       50
102
RTVSPost2010PropOp42
 70
     1
102
RTVSPost2010Prop43
 90
        3
102
RTVSPost2010PropOp43
 70
     1
102
RTVSPost2010Prop44ColorIndex
 90
        5
102
RTVSPost2010Prop44ColorRGB
 90
      255
102
RTVSPost2010PropOp44
 70
     1
102
RTVSPost2010Prop45
280
     0
102
RTVSPost2010PropOp45
 70
     1
102
RTVSPost2010Prop46
 90
       50
102
RTVSPost2010PropOp46
 70
     1
102
RTVSPost2010Prop47
 90
       50
102
RTVSPost2010PropOp47
 70
     1
102
RTVSPost2010Prop48
 90
       50
102
RTVSPost2010PropOp48
 70
     1
102
RTVSPost2010Prop49
280
     0
102
RTVSPost2010PropOp49
 70
     1
102
RTVSPost2010Prop50
 90
       50
102
RTVSPost2010PropOp50
 70
     1
102
RTVSPost2010Prop51ColorIndex
 90
      256
102
RTVSPost2010Prop51ColorRGB
 90
-16777216
102
RTVSPost2010PropOp51
 70
     0
102
RTVSPost2010Prop52
140
1.0
102
RTVSPost2010PropOp52
 70
     0
102
RTVSPost2010Prop53
 90
        2
102
RTVSPost2010PropOp53
 70
     1
102
RTVSPost2010Prop54
  1
strokes_ogs.tif
102
RTVSPost2010PropOp54
 70
     1
102
RTVSPost2010Prop55
280
     0
102
RTVSPost2010PropOp55
 70
     1
102
RTVSPost2010Prop56
140
1.0
102
RTVSPost2010PropOp56
 70
     1
102
RTVSPost2010Prop57
140
1.0
102
RTVSPost2010PropOp57
 70
     1
102
RTVSPropertyOp0
 70
     1
102
RTVSPropertyOp1
 70
     1
102
RTVSPropertyOp2
 70
     1
102
RTVSPropertyOp3
 70
     1
102
RTVSPropertyOp4
 70
     1
102
RTVSPropertyOp5
 70
     1
102
RTVSPropertyOp6
 70
     1
102
RTVSPropertyOp7
 70
     1
102
RTVSPropertyOp8
 70
     1
102
RTVSPropertyOp9
 70
     1
102
RTVSPropertyOp10
 70
     1
102
RTVSPropertyOp11
 70
     1
102
RTVSPropertyOp12
 70
     1
102
RTVSPropertyOp13
 70
     1
102
RTVSPropertyOp14
 70
     1
102
RTVSPropertyOp15
 70
     1
102
RTVSPropertyOp16
 70
     1
102
RTVSPropertyOp17
 70
     1
102
RTVSPropertyOp18
 70
     1
102
RTVSPropertyOp19
 70
     1
102
RTVSPropertyOp20
 70
     1
102
RTVSPropertyOp21
 70
     1
102
RTVSPropertyOp22
 70
     1
102
RTVSPropertyOp23
 70
     1
102
RTVSPropertyOp24
 70
     1
102
RTVSPropertyOp25
 70
     1
102
RTVSPropertyOp26
 70
     1
102
RTVSPropertyOp27
 70
     1
102
RTVSPropertyOp28
 70
     1
102
RTVSPropertyOp29
 70
     1
102
RTVSPropertyOp30
 70
     1
102
RTVSPropertyOp31
 70
     1
102
RTVSPropertyOp32
 70
     1
102
RTVSPropertyOp33
 70
     1
102
RTVSPropertyOp34
 70
     1
102
RTVSPropertyOp35
 70
     1
102
RTVSPropertyOp36
 70
     1
102
RTVSPropertyOp37
 70
     1
102
RTVSPropertyOp38
 70
     1
102
RTVSPropertyOp39
 70
     1
102
RTVSPropertyOp40
 70
     1
102
RTVSPropertyOp41
 70
     1
102
RTVSPropertyOp42
 70
     1
102
RTVSPropertyOp43
 70
     1
102
RTVSPropertyOp44
 70
     1
102
RTVSPropertyOp45
 70
     1
102
RTVSPropertyOp46
 70
     1
102
RTVSPropertyOp47
 70
     1
102
RTVSPropertyOp48
 70
     1
102
RTVSPropertyOp49
 70
     1
102
RTVSPropertyOp50
 70
     1
102
RTVSPropertyOp51
 70
     0
102
RTVSPropertyOp52
 70
     0
102
RTVSPropertyOp53
 70
     1
102
RTVSPropertyOp54
 70
     1
102
RTVSPropertyOp55
 70
     1
102
RTVSPropertyOp56
 70
     1
102
RTVSPropertyOp57
 70
     1
102
RTVSPropertyOp58
 70
     1
102
RTVSPropertyOp59
 70
     1
102
RTVSPropertyOp60
 70
     1
102
RTVSPropertyOp61
 70
     1
102
RTVSPropertyOp62
 70
     1
  0
XRECORD
  5
2A07
102
{ACAD_REACTORS
330
2A06
102
}
330
2A06
100
AcDbXrecord
280
     1
102
RTVSPost2010Prop28
280
     0
102
RTVSPost2010PropOp28
 70
     1
102
RTVSPost2010Prop29
280
     1
102
RTVSPost2010PropOp29
 70
     1
102
RTVSPost2010Prop30
280
     1
102
RTVSPost2010PropOp30
 70
     1
102
RTVSPost2010Prop31
280
     0
102
RTVSPost2010PropOp31
 70
     1
102
RTVSPost2010Prop32
280
     0
102
RTVSPost2010PropOp32
 70
     1
102
RTVSPost2010Prop33
280
     0
102
RTVSPost2010PropOp33
 70
     1
102
RTVSPost2010Prop34
280
     0
102
RTVSPost2010PropOp34
 70
     1
102
RTVSPost2010Prop35
280
     0
102
RTVSPost2010PropOp35
 70
     1
102
RTVSPost2010Prop36
280
     0
102
RTVSPost2010PropOp36
 70
     1
102
RTVSPost2010Prop37
 90
       50
102
RTVSPost2010PropOp37
 70
     1
102
RTVSPost2010Prop38
140
0.0
102
RTVSPost2010PropOp38
 70
     1
102
RTVSPost2010Prop39
140
1.0
102
RTVSPost2010PropOp39
 70
     1
102
RTVSPost2010Prop40
 90
        0
102
RTVSPost2010PropOp40
 70
     1
102
RTVSPost2010Prop41ColorIndex
 90
       18
102
RTVSPost2010Prop41ColorRGB
 90
        0
102
RTVSPost2010PropOp41
 70
     1
102
RTVSPost2010Prop42
 90
       50
102
RTVSPost2010PropOp42
 70
     1
102
RTVSPost2010Prop43
 90
        3
102
RTVSPost2010PropOp43
 70
     1
102
RTVSPost2010Prop44ColorIndex
 90
        5
102
RTVSPost2010Prop44ColorRGB
 90
      255
102
RTVSPost2010PropOp44
 70
     1
102
RTVSPost2010Prop45
280
     0
102
RTVSPost2010PropOp45
 70
     1
102
RTVSPost2010Prop46
 90
       50
102
RTVSPost2010PropOp46
 70
     1
102
RTVSPost2010Prop47
 90
       50
102
RTVSPost2010PropOp47
 70
     1
102
RTVSPost2010Prop48
 90
       50
102
RTVSPost2010PropOp48
 70
     1
102
RTVSPost2010Prop49
280
     0
102
RTVSPost2010PropOp49
 70
     1
102
RTVSPost2010Prop50
 90
       50
102
RTVSPost2010PropOp50
 70
     1
102
RTVSPost2010Prop51ColorIndex
 90
      256
102
RTVSPost2010Prop51ColorRGB
 90
-16777216
102
RTVSPost2010PropOp51
 70
     0
102
RTVSPost2010Prop52
140
1.0
102
RTVSPost2010PropOp52
 70
     0
102
RTVSPost2010Prop53
 90
        2
102
RTVSPost2010PropOp53
 70
     1
102
RTVSPost2010Prop54
  1
strokes_ogs.tif
102
RTVSPost2010PropOp54
 70
     1
102
RTVSPost2010Prop55
280
     0
102
RTVSPost2010PropOp55
 70
     1
102
RTVSPost2010Prop56
140
1.0
102
RTVSPost2010PropOp56
 70
     1
102
RTVSPost2010Prop57
140
1.0
102
RTVSPost2010PropOp57
 70
     1
102
RTVSPropertyOp0
 70
     1
102
RTVSPropertyOp1
 70
     1
102
RTVSPropertyOp2
 70
     1
102
RTVSPropertyOp3
 70
     1
102
RTVSPropertyOp4
 70
     1
102
RTVSPropertyOp5
 70
     1
102
RTVSPropertyOp6
 70
     1
102
RTVSPropertyOp7
 70
     1
102
RTVSPropertyOp8
 70
     1
102
RTVSPropertyOp9
 70
     1
102
RTVSPropertyOp10
 70
     1
102
RTVSPropertyOp11
 70
     1
102
RTVSPropertyOp12
 70
     1
102
RTVSPropertyOp13
 70
     1
102
RTVSPropertyOp14
 70
     1
102
RTVSPropertyOp15
 70
     1
102
RTVSPropertyOp16
 70
     1
102
RTVSPropertyOp17
 70
     1
102
RTVSPropertyOp18
 70
     1
102
RTVSPropertyOp19
 70
     1
102
RTVSPropertyOp20
 70
     1
102
RTVSPropertyOp21
 70
     1
102
RTVSPropertyOp22
 70
     1
102
RTVSPropertyOp23
 70
     1
102
RTVSPropertyOp24
 70
     1
102
RTVSPropertyOp25
 70
     1
102
RTVSPropertyOp26
 70
     1
102
RTVSPropertyOp27
 70
     1
102
RTVSPropertyOp28
 70
     1
102
RTVSPropertyOp29
 70
     1
102
RTVSPropertyOp30
 70
     1
102
RTVSPropertyOp31
 70
     1
102
RTVSPropertyOp32
 70
     1
102
RTVSPropertyOp33
 70
     1
102
RTVSPropertyOp34
 70
     1
102
RTVSPropertyOp35
 70
     1
102
RTVSPropertyOp36
 70
     1
102
RTVSPropertyOp37
 70
     1
102
RTVSPropertyOp38
 70
     1
102
RTVSPropertyOp39
 70
     1
102
RTVSPropertyOp40
 70
     1
102
RTVSPropertyOp41
 70
     1
102
RTVSPropertyOp42
 70
     1
102
RTVSPropertyOp43
 70
     1
102
RTVSPropertyOp44
 70
     1
102
RTVSPropertyOp45
 70
     1
102
RTVSPropertyOp46
 70
     1
102
RTVSPropertyOp47
 70
     1
102
RTVSPropertyOp48
 70
     1
102
RTVSPropertyOp49
 70
     1
102
RTVSPropertyOp50
 70
     1
102
RTVSPropertyOp51
 70
     0
102
RTVSPropertyOp52
 70
     0
102
RTVSPropertyOp53
 70
     1
102
RTVSPropertyOp54
 70
     1
102
RTVSPropertyOp55
 70
     1
102
RTVSPropertyOp56
 70
     1
102
RTVSPropertyOp57
 70
     1
102
RTVSPropertyOp58
 70
     1
102
RTVSPropertyOp59
 70
     1
102
RTVSPropertyOp60
 70
     1
102
RTVSPropertyOp61
 70
     1
102
RTVSPropertyOp62
 70
     1
  0
XRECORD
  5
2A0B
102
{ACAD_REACTORS
330
2A0A
102
}
330
2A0A
100
AcDbXrecord
280
     1
102
RTVSPost2010Prop28
280
     0
102
RTVSPost2010PropOp28
 70
     1
102
RTVSPost2010Prop29
280
     1
102
RTVSPost2010PropOp29
 70
     1
102
RTVSPost2010Prop30
280
     1
102
RTVSPost2010PropOp30
 70
     1
102
RTVSPost2010Prop31
280
     0
102
RTVSPost2010PropOp31
 70
     1
102
RTVSPost2010Prop32
280
     0
102
RTVSPost2010PropOp32
 70
     1
102
RTVSPost2010Prop33
280
     0
102
RTVSPost2010PropOp33
 70
     1
102
RTVSPost2010Prop34
280
     0
102
RTVSPost2010PropOp34
 70
     1
102
RTVSPost2010Prop35
280
     0
102
RTVSPost2010PropOp35
 70
     1
102
RTVSPost2010Prop36
280
     0
102
RTVSPost2010PropOp36
 70
     1
102
RTVSPost2010Prop37
 90
       50
102
RTVSPost2010PropOp37
 70
     1
102
RTVSPost2010Prop38
140
0.0
102
RTVSPost2010PropOp38
 70
     1
102
RTVSPost2010Prop39
140
1.0
102
RTVSPost2010PropOp39
 70
     1
102
RTVSPost2010Prop40
 90
        0
102
RTVSPost2010PropOp40
 70
     1
102
RTVSPost2010Prop41ColorIndex
 90
       18
102
RTVSPost2010Prop41ColorRGB
 90
        0
102
RTVSPost2010PropOp41
 70
     1
102
RTVSPost2010Prop42
 90
       50
102
RTVSPost2010PropOp42
 70
     1
102
RTVSPost2010Prop43
 90
        3
102
RTVSPost2010PropOp43
 70
     1
102
RTVSPost2010Prop44ColorIndex
 90
        5
102
RTVSPost2010Prop44ColorRGB
 90
      255
102
RTVSPost2010PropOp44
 70
     1
102
RTVSPost2010Prop45
280
     0
102
RTVSPost2010PropOp45
 70
     1
102
RTVSPost2010Prop46
 90
       50
102
RTVSPost2010PropOp46
 70
     1
102
RTVSPost2010Prop47
 90
       50
102
RTVSPost2010PropOp47
 70
     1
102
RTVSPost2010Prop48
 90
       50
102
RTVSPost2010PropOp48
 70
     1
102
RTVSPost2010Prop49
280
     0
102
RTVSPost2010PropOp49
 70
     1
102
RTVSPost2010Prop50
 90
       50
102
RTVSPost2010PropOp50
 70
     1
102
RTVSPost2010Prop51ColorIndex
 90
      256
102
RTVSPost2010Prop51ColorRGB
 90
-16777216
102
RTVSPost2010PropOp51
 70
     0
102
RTVSPost2010Prop52
140
1.0
102
RTVSPost2010PropOp52
 70
     0
102
RTVSPost2010Prop53
 90
        2
102
RTVSPost2010PropOp53
 70
     1
102
RTVSPost2010Prop54
  1
strokes_ogs.tif
102
RTVSPost2010PropOp54
 70
     1
102
RTVSPost2010Prop55
280
     0
102
RTVSPost2010PropOp55
 70
     1
102
RTVSPost2010Prop56
140
1.0
102
RTVSPost2010PropOp56
 70
     1
102
RTVSPost2010Prop57
140
1.0
102
RTVSPost2010PropOp57
 70
     1
102
RTVSPropertyOp0
 70
     1
102
RTVSPropertyOp1
 70
     1
102
RTVSPropertyOp2
 70
     1
102
RTVSPropertyOp3
 70
     1
102
RTVSPropertyOp4
 70
     1
102
RTVSPropertyOp5
 70
     1
102
RTVSPropertyOp6
 70
     1
102
RTVSPropertyOp7
 70
     1
102
RTVSPropertyOp8
 70
     1
102
RTVSPropertyOp9
 70
     1
102
RTVSPropertyOp10
 70
     1
102
RTVSPropertyOp11
 70
     1
102
RTVSPropertyOp12
 70
     1
102
RTVSPropertyOp13
 70
     1
102
RTVSPropertyOp14
 70
     1
102
RTVSPropertyOp15
 70
     1
102
RTVSPropertyOp16
 70
     1
102
RTVSPropertyOp17
 70
     1
102
RTVSPropertyOp18
 70
     1
102
RTVSPropertyOp19
 70
     1
102
RTVSPropertyOp20
 70
     1
102
RTVSPropertyOp21
 70
     1
102
RTVSPropertyOp22
 70
     1
102
RTVSPropertyOp23
 70
     1
102
RTVSPropertyOp24
 70
     1
102
RTVSPropertyOp25
 70
     1
102
RTVSPropertyOp26
 70
     1
102
RTVSPropertyOp27
 70
     1
102
RTVSPropertyOp28
 70
     1
102
RTVSPropertyOp29
 70
     1
102
RTVSPropertyOp30
 70
     1
102
RTVSPropertyOp31
 70
     1
102
RTVSPropertyOp32
 70
     1
102
RTVSPropertyOp33
 70
     1
102
RTVSPropertyOp34
 70
     1
102
RTVSPropertyOp35
 70
     1
102
RTVSPropertyOp36
 70
     1
102
RTVSPropertyOp37
 70
     1
102
RTVSPropertyOp38
 70
     1
102
RTVSPropertyOp39
 70
     1
102
RTVSPropertyOp40
 70
     1
102
RTVSPropertyOp41
 70
     1
102
RTVSPropertyOp42
 70
     1
102
RTVSPropertyOp43
 70
     1
102
RTVSPropertyOp44
 70
     1
102
RTVSPropertyOp45
 70
     1
102
RTVSPropertyOp46
 70
     1
102
RTVSPropertyOp47
 70
     1
102
RTVSPropertyOp48
 70
     1
102
RTVSPropertyOp49
 70
     1
102
RTVSPropertyOp50
 70
     1
102
RTVSPropertyOp51
 70
     0
102
RTVSPropertyOp52
 70
     0
102
RTVSPropertyOp53
 70
     1
102
RTVSPropertyOp54
 70
     1
102
RTVSPropertyOp55
 70
     1
102
RTVSPropertyOp56
 70
     1
102
RTVSPropertyOp57
 70
     1
102
RTVSPropertyOp58
 70
     1
102
RTVSPropertyOp59
 70
     1
102
RTVSPropertyOp60
 70
     1
102
RTVSPropertyOp61
 70
     1
102
RTVSPropertyOp62
 70
     1
  0
XRECORD
  5
2A1D
102
{ACAD_REACTORS
330
2A1C
102
}
330
2A1C
100
AcDbXrecord
280
     1
102
RTVSPost2010Prop28
280
     0
102
RTVSPost2010PropOp28
 70
     1
102
RTVSPost2010Prop29
280
     1
102
RTVSPost2010PropOp29
 70
     1
102
RTVSPost2010Prop30
280
     1
102
RTVSPost2010PropOp30
 70
     1
102
RTVSPost2010Prop31
280
     0
102
RTVSPost2010PropOp31
 70
     1
102
RTVSPost2010Prop32
280
     0
102
RTVSPost2010PropOp32
 70
     1
102
RTVSPost2010Prop33
280
     0
102
RTVSPost2010PropOp33
 70
     1
102
RTVSPost2010Prop34
280
     0
102
RTVSPost2010PropOp34
 70
     1
102
RTVSPost2010Prop35
280
     0
102
RTVSPost2010PropOp35
 70
     1
102
RTVSPost2010Prop36
280
     0
102
RTVSPost2010PropOp36
 70
     1
102
RTVSPost2010Prop37
 90
       50
102
RTVSPost2010PropOp37
 70
     1
102
RTVSPost2010Prop38
140
0.0
102
RTVSPost2010PropOp38
 70
     1
102
RTVSPost2010Prop39
140
1.0
102
RTVSPost2010PropOp39
 70
     1
102
RTVSPost2010Prop40
 90
        0
102
RTVSPost2010PropOp40
 70
     1
102
RTVSPost2010Prop41ColorIndex
 90
       18
102
RTVSPost2010Prop41ColorRGB
 90
        0
102
RTVSPost2010PropOp41
 70
     1
102
RTVSPost2010Prop42
 90
       50
102
RTVSPost2010PropOp42
 70
     1
102
RTVSPost2010Prop43
 90
        3
102
RTVSPost2010PropOp43
 70
     1
102
RTVSPost2010Prop44ColorIndex
 90
        5
102
RTVSPost2010Prop44ColorRGB
 90
      255
102
RTVSPost2010PropOp44
 70
     1
102
RTVSPost2010Prop45
280
     0
102
RTVSPost2010PropOp45
 70
     1
102
RTVSPost2010Prop46
 90
       50
102
RTVSPost2010PropOp46
 70
     1
102
RTVSPost2010Prop47
 90
       50
102
RTVSPost2010PropOp47
 70
     1
102
RTVSPost2010Prop48
 90
       50
102
RTVSPost2010PropOp48
 70
     1
102
RTVSPost2010Prop49
280
     0
102
RTVSPost2010PropOp49
 70
     1
102
RTVSPost2010Prop50
 90
       50
102
RTVSPost2010PropOp50
 70
     1
102
RTVSPost2010Prop51ColorIndex
 90
      256
102
RTVSPost2010Prop51ColorRGB
 90
-16777216
102
RTVSPost2010PropOp51
 70
     0
102
RTVSPost2010Prop52
140
1.0
102
RTVSPost2010PropOp52
 70
     0
102
RTVSPost2010Prop53
 90
        2
102
RTVSPost2010PropOp53
 70
     1
102
RTVSPost2010Prop54
  1
strokes_ogs.tif
102
RTVSPost2010PropOp54
 70
     1
102
RTVSPost2010Prop55
280
     0
102
RTVSPost2010PropOp55
 70
     1
102
RTVSPost2010Prop56
140
1.0
102
RTVSPost2010PropOp56
 70
     1
102
RTVSPost2010Prop57
140
1.0
102
RTVSPost2010PropOp57
 70
     1
102
RTVSPropertyOp0
 70
     0
102
RTVSPropertyOp1
 70
     0
102
RTVSPropertyOp2
 70
     0
102
RTVSPropertyOp3
 70
     0
102
RTVSPropertyOp4
 70
     0
102
RTVSPropertyOp5
 70
     0
102
RTVSPropertyOp6
 70
     0
102
RTVSPropertyOp7
 70
     0
102
RTVSPropertyOp8
 70
     0
102
RTVSPropertyOp9
 70
     0
102
RTVSPropertyOp10
 70
     0
102
RTVSPropertyOp11
 70
     0
102
RTVSPropertyOp12
 70
     0
102
RTVSPropertyOp13
 70
     0
102
RTVSPropertyOp14
 70
     2
102
RTVSPropertyOp15
 70
     0
102
RTVSPropertyOp16
 70
     0
102
RTVSPropertyOp17
 70
     0
102
RTVSPropertyOp18
 70
     0
102
RTVSPropertyOp19
 70
     0
102
RTVSPropertyOp20
 70
     0
102
RTVSPropertyOp21
 70
     0
102
RTVSPropertyOp22
 70
     0
102
RTVSPropertyOp23
 70
     0
102
RTVSPropertyOp24
 70
     0
102
RTVSPropertyOp25
 70
     0
102
RTVSPropertyOp26
 70
     0
102
RTVSPropertyOp27
 70
     0
102
RTVSPropertyOp28
 70
     1
102
RTVSPropertyOp29
 70
     1
102
RTVSPropertyOp30
 70
     1
102
RTVSPropertyOp31
 70
     1
102
RTVSPropertyOp32
 70
     1
102
RTVSPropertyOp33
 70
     1
102
RTVSPropertyOp34
 70
     1
102
RTVSPropertyOp35
 70
     1
102
RTVSPropertyOp36
 70
     1
102
RTVSPropertyOp37
 70
     1
102
RTVSPropertyOp38
 70
     1
102
RTVSPropertyOp39
 70
     1
102
RTVSPropertyOp40
 70
     1
102
RTVSPropertyOp41
 70
     1
102
RTVSPropertyOp42
 70
     1
102
RTVSPropertyOp43
 70
     1
102
RTVSPropertyOp44
 70
     1
102
RTVSPropertyOp45
 70
     1
102
RTVSPropertyOp46
 70
     1
102
RTVSPropertyOp47
 70
     1
102
RTVSPropertyOp48
 70
     1
102
RTVSPropertyOp49
 70
     1
102
RTVSPropertyOp50
 70
     1
102
RTVSPropertyOp51
 70
     0
102
RTVSPropertyOp52
 70
     0
102
RTVSPropertyOp53
 70
     1
102
RTVSPropertyOp54
 70
     1
102
RTVSPropertyOp55
 70
     1
102
RTVSPropertyOp56
 70
     1
102
RTVSPropertyOp57
 70
     1
102
RTVSPropertyOp58
 70
     1
102
RTVSPropertyOp59
 70
     1
102
RTVSPropertyOp60
 70
     1
102
RTVSPropertyOp61
 70
     1
102
RTVSPropertyOp62
 70
     1
  0
XRECORD
  5
2A13
102
{ACAD_REACTORS
330
2A12
102
}
330
2A12
100
AcDbXrecord
280
     1
102
RTVSPost2010Prop28
280
     0
102
RTVSPost2010PropOp28
 70
     1
102
RTVSPost2010Prop29
280
     1
102
RTVSPost2010PropOp29
 70
     1
102
RTVSPost2010Prop30
280
     1
102
RTVSPost2010PropOp30
 70
     1
102
RTVSPost2010Prop31
280
     0
102
RTVSPost2010PropOp31
 70
     1
102
RTVSPost2010Prop32
280
     0
102
RTVSPost2010PropOp32
 70
     1
102
RTVSPost2010Prop33
280
     0
102
RTVSPost2010PropOp33
 70
     1
102
RTVSPost2010Prop34
280
     0
102
RTVSPost2010PropOp34
 70
     1
102
RTVSPost2010Prop35
280
     0
102
RTVSPost2010PropOp35
 70
     1
102
RTVSPost2010Prop36
280
     0
102
RTVSPost2010PropOp36
 70
     1
102
RTVSPost2010Prop37
 90
       50
102
RTVSPost2010PropOp37
 70
     1
102
RTVSPost2010Prop38
140
0.0
102
RTVSPost2010PropOp38
 70
     1
102
RTVSPost2010Prop39
140
1.0
102
RTVSPost2010PropOp39
 70
     1
102
RTVSPost2010Prop40
 90
        0
102
RTVSPost2010PropOp40
 70
     1
102
RTVSPost2010Prop41ColorIndex
 90
       18
102
RTVSPost2010Prop41ColorRGB
 90
        0
102
RTVSPost2010PropOp41
 70
     1
102
RTVSPost2010Prop42
 90
       50
102
RTVSPost2010PropOp42
 70
     1
102
RTVSPost2010Prop43
 90
        3
102
RTVSPost2010PropOp43
 70
     1
102
RTVSPost2010Prop44ColorIndex
 90
        5
102
RTVSPost2010Prop44ColorRGB
 90
      255
102
RTVSPost2010PropOp44
 70
     1
102
RTVSPost2010Prop45
280
     0
102
RTVSPost2010PropOp45
 70
     1
102
RTVSPost2010Prop46
 90
       50
102
RTVSPost2010PropOp46
 70
     1
102
RTVSPost2010Prop47
 90
       50
102
RTVSPost2010PropOp47
 70
     1
102
RTVSPost2010Prop48
 90
       50
102
RTVSPost2010PropOp48
 70
     1
102
RTVSPost2010Prop49
280
     0
102
RTVSPost2010PropOp49
 70
     1
102
RTVSPost2010Prop50
 90
       50
102
RTVSPost2010PropOp50
 70
     1
102
RTVSPost2010Prop51ColorIndex
 90
      256
102
RTVSPost2010Prop51ColorRGB
 90
-16777216
102
RTVSPost2010PropOp51
 70
     0
102
RTVSPost2010Prop52
140
1.0
102
RTVSPost2010PropOp52
 70
     0
102
RTVSPost2010Prop53
 90
        2
102
RTVSPost2010PropOp53
 70
     1
102
RTVSPost2010Prop54
  1
strokes_ogs.tif
102
RTVSPost2010PropOp54
 70
     1
102
RTVSPost2010Prop55
280
     0
102
RTVSPost2010PropOp55
 70
     1
102
RTVSPost2010Prop56
140
1.0
102
RTVSPost2010PropOp56
 70
     1
102
RTVSPost2010Prop57
140
1.0
102
RTVSPost2010PropOp57
 70
     1
102
RTVSPropertyOp0
 70
     1
102
RTVSPropertyOp1
 70
     1
102
RTVSPropertyOp2
 70
     1
102
RTVSPropertyOp3
 70
     1
102
RTVSPropertyOp4
 70
     1
102
RTVSPropertyOp5
 70
     1
102
RTVSPropertyOp6
 70
     1
102
RTVSPropertyOp7
 70
     1
102
RTVSPropertyOp8
 70
     1
102
RTVSPropertyOp9
 70
     1
102
RTVSPropertyOp10
 70
     1
102
RTVSPropertyOp11
 70
     1
102
RTVSPropertyOp12
 70
     1
102
RTVSPropertyOp13
 70
     1
102
RTVSPropertyOp14
 70
     1
102
RTVSPropertyOp15
 70
     1
102
RTVSPropertyOp16
 70
     1
102
RTVSPropertyOp17
 70
     1
102
RTVSPropertyOp18
 70
     1
102
RTVSPropertyOp19
 70
     1
102
RTVSPropertyOp20
 70
     1
102
RTVSPropertyOp21
 70
     1
102
RTVSPropertyOp22
 70
     1
102
RTVSPropertyOp23
 70
     1
102
RTVSPropertyOp24
 70
     1
102
RTVSPropertyOp25
 70
     1
102
RTVSPropertyOp26
 70
     1
102
RTVSPropertyOp27
 70
     1
102
RTVSPropertyOp28
 70
     1
102
RTVSPropertyOp29
 70
     1
102
RTVSPropertyOp30
 70
     1
102
RTVSPropertyOp31
 70
     1
102
RTVSPropertyOp32
 70
     1
102
RTVSPropertyOp33
 70
     1
102
RTVSPropertyOp34
 70
     1
102
RTVSPropertyOp35
 70
     1
102
RTVSPropertyOp36
 70
     1
102
RTVSPropertyOp37
 70
     1
102
RTVSPropertyOp38
 70
     1
102
RTVSPropertyOp39
 70
     1
102
RTVSPropertyOp40
 70
     1
102
RTVSPropertyOp41
 70
     1
102
RTVSPropertyOp42
 70
     1
102
RTVSPropertyOp43
 70
     1
102
RTVSPropertyOp44
 70
     1
102
RTVSPropertyOp45
 70
     1
102
RTVSPropertyOp46
 70
     1
102
RTVSPropertyOp47
 70
     1
102
RTVSPropertyOp48
 70
     1
102
RTVSPropertyOp49
 70
     1
102
RTVSPropertyOp50
 70
     1
102
RTVSPropertyOp51
 70
     0
102
RTVSPropertyOp52
 70
     0
102
RTVSPropertyOp53
 70
     1
102
RTVSPropertyOp54
 70
     1
102
RTVSPropertyOp55
 70
     1
102
RTVSPropertyOp56
 70
     1
102
RTVSPropertyOp57
 70
     1
102
RTVSPropertyOp58
 70
     1
102
RTVSPropertyOp59
 70
     1
102
RTVSPropertyOp60
 70
     1
102
RTVSPropertyOp61
 70
     1
102
RTVSPropertyOp62
 70
     1
  0
XRECORD
  5
29F7
102
{ACAD_REACTORS
330
29F6
102
}
330
29F6
100
AcDbXrecord
280
     1
102
RTVSPost2010Prop28
280
     0
102
RTVSPost2010PropOp28
 70
     1
102
RTVSPost2010Prop29
280
     1
102
RTVSPost2010PropOp29
 70
     1
102
RTVSPost2010Prop30
280
     1
102
RTVSPost2010PropOp30
 70
     1
102
RTVSPost2010Prop31
280
     0
102
RTVSPost2010PropOp31
 70
     1
102
RTVSPost2010Prop32
280
     0
102
RTVSPost2010PropOp32
 70
     1
102
RTVSPost2010Prop33
280
     0
102
RTVSPost2010PropOp33
 70
     1
102
RTVSPost2010Prop34
280
     0
102
RTVSPost2010PropOp34
 70
     1
102
RTVSPost2010Prop35
280
     0
102
RTVSPost2010PropOp35
 70
     1
102
RTVSPost2010Prop36
280
     0
102
RTVSPost2010PropOp36
 70
     1
102
RTVSPost2010Prop37
 90
       50
102
RTVSPost2010PropOp37
 70
     1
102
RTVSPost2010Prop38
140
0.0
102
RTVSPost2010PropOp38
 70
     1
102
RTVSPost2010Prop39
140
1.0
102
RTVSPost2010PropOp39
 70
     1
102
RTVSPost2010Prop40
 90
        0
102
RTVSPost2010PropOp40
 70
     1
102
RTVSPost2010Prop41ColorIndex
 90
       18
102
RTVSPost2010Prop41ColorRGB
 90
        0
102
RTVSPost2010PropOp41
 70
     1
102
RTVSPost2010Prop42
 90
       50
102
RTVSPost2010PropOp42
 70
     1
102
RTVSPost2010Prop43
 90
        3
102
RTVSPost2010PropOp43
 70
     1
102
RTVSPost2010Prop44ColorIndex
 90
        5
102
RTVSPost2010Prop44ColorRGB
 90
      255
102
RTVSPost2010PropOp44
 70
     1
102
RTVSPost2010Prop45
280
     0
102
RTVSPost2010PropOp45
 70
     1
102
RTVSPost2010Prop46
 90
       50
102
RTVSPost2010PropOp46
 70
     1
102
RTVSPost2010Prop47
 90
       50
102
RTVSPost2010PropOp47
 70
     1
102
RTVSPost2010Prop48
 90
       50
102
RTVSPost2010PropOp48
 70
     1
102
RTVSPost2010Prop49
280
     0
102
RTVSPost2010PropOp49
 70
     1
102
RTVSPost2010Prop50
 90
       50
102
RTVSPost2010PropOp50
 70
     1
102
RTVSPost2010Prop51ColorIndex
 90
      256
102
RTVSPost2010Prop51ColorRGB
 90
-16777216
102
RTVSPost2010PropOp51
 70
     0
102
RTVSPost2010Prop52
140
1.0
102
RTVSPost2010PropOp52
 70
     0
102
RTVSPost2010Prop53
 90
        2
102
RTVSPost2010PropOp53
 70
     1
102
RTVSPost2010Prop54
  1
strokes_ogs.tif
102
RTVSPost2010PropOp54
 70
     1
102
RTVSPost2010Prop55
280
     0
102
RTVSPost2010PropOp55
 70
     1
102
RTVSPost2010Prop56
140
1.0
102
RTVSPost2010PropOp56
 70
     1
102
RTVSPost2010Prop57
140
1.0
102
RTVSPost2010PropOp57
 70
     1
102
RTVSPropertyOp0
 70
     1
102
RTVSPropertyOp1
 70
     1
102
RTVSPropertyOp2
 70
     1
102
RTVSPropertyOp3
 70
     1
102
RTVSPropertyOp4
 70
     1
102
RTVSPropertyOp5
 70
     1
102
RTVSPropertyOp6
 70
     1
102
RTVSPropertyOp7
 70
     1
102
RTVSPropertyOp8
 70
     1
102
RTVSPropertyOp9
 70
     1
102
RTVSPropertyOp10
 70
     1
102
RTVSPropertyOp11
 70
     1
102
RTVSPropertyOp12
 70
     1
102
RTVSPropertyOp13
 70
     1
102
RTVSPropertyOp14
 70
     1
102
RTVSPropertyOp15
 70
     1
102
RTVSPropertyOp16
 70
     1
102
RTVSPropertyOp17
 70
     1
102
RTVSPropertyOp18
 70
     1
102
RTVSPropertyOp19
 70
     1
102
RTVSPropertyOp20
 70
     1
102
RTVSPropertyOp21
 70
     1
102
RTVSPropertyOp22
 70
     1
102
RTVSPropertyOp23
 70
     1
102
RTVSPropertyOp24
 70
     1
102
RTVSPropertyOp25
 70
     1
102
RTVSPropertyOp26
 70
     1
102
RTVSPropertyOp27
 70
     1
102
RTVSPropertyOp28
 70
     1
102
RTVSPropertyOp29
 70
     1
102
RTVSPropertyOp30
 70
     1
102
RTVSPropertyOp31
 70
     1
102
RTVSPropertyOp32
 70
     1
102
RTVSPropertyOp33
 70
     1
102
RTVSPropertyOp34
 70
     1
102
RTVSPropertyOp35
 70
     1
102
RTVSPropertyOp36
 70
     1
102
RTVSPropertyOp37
 70
     1
102
RTVSPropertyOp38
 70
     1
102
RTVSPropertyOp39
 70
     1
102
RTVSPropertyOp40
 70
     1
102
RTVSPropertyOp41
 70
     1
102
RTVSPropertyOp42
 70
     1
102
RTVSPropertyOp43
 70
     1
102
RTVSPropertyOp44
 70
     1
102
RTVSPropertyOp45
 70
     1
102
RTVSPropertyOp46
 70
     1
102
RTVSPropertyOp47
 70
     1
102
RTVSPropertyOp48
 70
     1
102
RTVSPropertyOp49
 70
     1
102
RTVSPropertyOp50
 70
     1
102
RTVSPropertyOp51
 70
     0
102
RTVSPropertyOp52
 70
     0
102
RTVSPropertyOp53
 70
     1
102
RTVSPropertyOp54
 70
     1
102
RTVSPropertyOp55
 70
     1
102
RTVSPropertyOp56
 70
     1
102
RTVSPropertyOp57
 70
     1
102
RTVSPropertyOp58
 70
     1
102
RTVSPropertyOp59
 70
     1
102
RTVSPropertyOp60
 70
     1
102
RTVSPropertyOp61
 70
     1
102
RTVSPropertyOp62
 70
     1
  0
XRECORD
  5
29F9
102
{ACAD_REACTORS
330
29F8
102
}
330
29F8
100
AcDbXrecord
280
     1
102
RTVSPost2010Prop28
280
     0
102
RTVSPost2010PropOp28
 70
     1
102
RTVSPost2010Prop29
280
     1
102
RTVSPost2010PropOp29
 70
     1
102
RTVSPost2010Prop30
280
     1
102
RTVSPost2010PropOp30
 70
     1
102
RTVSPost2010Prop31
280
     0
102
RTVSPost2010PropOp31
 70
     1
102
RTVSPost2010Prop32
280
     0
102
RTVSPost2010PropOp32
 70
     1
102
RTVSPost2010Prop33
280
     0
102
RTVSPost2010PropOp33
 70
     1
102
RTVSPost2010Prop34
280
     0
102
RTVSPost2010PropOp34
 70
     1
102
RTVSPost2010Prop35
280
     0
102
RTVSPost2010PropOp35
 70
     1
102
RTVSPost2010Prop36
280
     0
102
RTVSPost2010PropOp36
 70
     1
102
RTVSPost2010Prop37
 90
       50
102
RTVSPost2010PropOp37
 70
     1
102
RTVSPost2010Prop38
140
0.0
102
RTVSPost2010PropOp38
 70
     1
102
RTVSPost2010Prop39
140
1.0
102
RTVSPost2010PropOp39
 70
     1
102
RTVSPost2010Prop40
 90
        0
102
RTVSPost2010PropOp40
 70
     1
102
RTVSPost2010Prop41ColorIndex
 90
       18
102
RTVSPost2010Prop41ColorRGB
 90
        0
102
RTVSPost2010PropOp41
 70
     1
102
RTVSPost2010Prop42
 90
       50
102
RTVSPost2010PropOp42
 70
     1
102
RTVSPost2010Prop43
 90
        3
102
RTVSPost2010PropOp43
 70
     1
102
RTVSPost2010Prop44ColorIndex
 90
        5
102
RTVSPost2010Prop44ColorRGB
 90
      255
102
RTVSPost2010PropOp44
 70
     1
102
RTVSPost2010Prop45
280
     0
102
RTVSPost2010PropOp45
 70
     1
102
RTVSPost2010Prop46
 90
       50
102
RTVSPost2010PropOp46
 70
     1
102
RTVSPost2010Prop47
 90
       50
102
RTVSPost2010PropOp47
 70
     1
102
RTVSPost2010Prop48
 90
       50
102
RTVSPost2010PropOp48
 70
     1
102
RTVSPost2010Prop49
280
     0
102
RTVSPost2010PropOp49
 70
     1
102
RTVSPost2010Prop50
 90
       50
102
RTVSPost2010PropOp50
 70
     1
102
RTVSPost2010Prop51ColorIndex
 90
      256
102
RTVSPost2010Prop51ColorRGB
 90
-16777216
102
RTVSPost2010PropOp51
 70
     0
102
RTVSPost2010Prop52
140
1.0
102
RTVSPost2010PropOp52
 70
     0
102
RTVSPost2010Prop53
 90
        2
102
RTVSPost2010PropOp53
 70
     1
102
RTVSPost2010Prop54
  1
strokes_ogs.tif
102
RTVSPost2010PropOp54
 70
     1
102
RTVSPost2010Prop55
280
     0
102
RTVSPost2010PropOp55
 70
     1
102
RTVSPost2010Prop56
140
1.0
102
RTVSPost2010PropOp56
 70
     1
102
RTVSPost2010Prop57
140
1.0
102
RTVSPost2010PropOp57
 70
     1
102
RTVSPropertyOp0
 70
     1
102
RTVSPropertyOp1
 70
     1
102
RTVSPropertyOp2
 70
     1
102
RTVSPropertyOp3
 70
     1
102
RTVSPropertyOp4
 70
     1
102
RTVSPropertyOp5
 70
     1
102
RTVSPropertyOp6
 70
     1
102
RTVSPropertyOp7
 70
     1
102
RTVSPropertyOp8
 70
     1
102
RTVSPropertyOp9
 70
     1
102
RTVSPropertyOp10
 70
     1
102
RTVSPropertyOp11
 70
     1
102
RTVSPropertyOp12
 70
     1
102
RTVSPropertyOp13
 70
     1
102
RTVSPropertyOp14
 70
     1
102
RTVSPropertyOp15
 70
     1
102
RTVSPropertyOp16
 70
     1
102
RTVSPropertyOp17
 70
     1
102
RTVSPropertyOp18
 70
     1
102
RTVSPropertyOp19
 70
     1
102
RTVSPropertyOp20
 70
     1
102
RTVSPropertyOp21
 70
     1
102
RTVSPropertyOp22
 70
     1
102
RTVSPropertyOp23
 70
     1
102
RTVSPropertyOp24
 70
     1
102
RTVSPropertyOp25
 70
     1
102
RTVSPropertyOp26
 70
     1
102
RTVSPropertyOp27
 70
     1
102
RTVSPropertyOp28
 70
     1
102
RTVSPropertyOp29
 70
     1
102
RTVSPropertyOp30
 70
     1
102
RTVSPropertyOp31
 70
     1
102
RTVSPropertyOp32
 70
     1
102
RTVSPropertyOp33
 70
     1
102
RTVSPropertyOp34
 70
     1
102
RTVSPropertyOp35
 70
     1
102
RTVSPropertyOp36
 70
     1
102
RTVSPropertyOp37
 70
     1
102
RTVSPropertyOp38
 70
     1
102
RTVSPropertyOp39
 70
     1
102
RTVSPropertyOp40
 70
     1
102
RTVSPropertyOp41
 70
     1
102
RTVSPropertyOp42
 70
     1
102
RTVSPropertyOp43
 70
     1
102
RTVSPropertyOp44
 70
     1
102
RTVSPropertyOp45
 70
     1
102
RTVSPropertyOp46
 70
     1
102
RTVSPropertyOp47
 70
     1
102
RTVSPropertyOp48
 70
     1
102
RTVSPropertyOp49
 70
     1
102
RTVSPropertyOp50
 70
     1
102
RTVSPropertyOp51
 70
     0
102
RTVSPropertyOp52
 70
     0
102
RTVSPropertyOp53
 70
     1
102
RTVSPropertyOp54
 70
     1
102
RTVSPropertyOp55
 70
     1
102
RTVSPropertyOp56
 70
     1
102
RTVSPropertyOp57
 70
     1
102
RTVSPropertyOp58
 70
     1
102
RTVSPropertyOp59
 70
     1
102
RTVSPropertyOp60
 70
     1
102
RTVSPropertyOp61
 70
     1
102
RTVSPropertyOp62
 70
     1
  0
XRECORD
  5
29FB
102
{ACAD_REACTORS
330
29FA
102
}
330
29FA
100
AcDbXrecord
280
     1
102
RTVSPost2010Prop28
280
     0
102
RTVSPost2010PropOp28
 70
     1
102
RTVSPost2010Prop29
280
     1
102
RTVSPost2010PropOp29
 70
     1
102
RTVSPost2010Prop30
280
     1
102
RTVSPost2010PropOp30
 70
     1
102
RTVSPost2010Prop31
280
     0
102
RTVSPost2010PropOp31
 70
     1
102
RTVSPost2010Prop32
280
     0
102
RTVSPost2010PropOp32
 70
     1
102
RTVSPost2010Prop33
280
     0
102
RTVSPost2010PropOp33
 70
     1
102
RTVSPost2010Prop34
280
     0
102
RTVSPost2010PropOp34
 70
     1
102
RTVSPost2010Prop35
280
     0
102
RTVSPost2010PropOp35
 70
     1
102
RTVSPost2010Prop36
280
     0
102
RTVSPost2010PropOp36
 70
     1
102
RTVSPost2010Prop37
 90
       50
102
RTVSPost2010PropOp37
 70
     1
102
RTVSPost2010Prop38
140
0.0
102
RTVSPost2010PropOp38
 70
     1
102
RTVSPost2010Prop39
140
1.0
102
RTVSPost2010PropOp39
 70
     1
102
RTVSPost2010Prop40
 90
        0
102
RTVSPost2010PropOp40
 70
     1
102
RTVSPost2010Prop41ColorIndex
 90
       18
102
RTVSPost2010Prop41ColorRGB
 90
        0
102
RTVSPost2010PropOp41
 70
     1
102
RTVSPost2010Prop42
 90
       50
102
RTVSPost2010PropOp42
 70
     1
102
RTVSPost2010Prop43
 90
        3
102
RTVSPost2010PropOp43
 70
     1
102
RTVSPost2010Prop44ColorIndex
 90
        5
102
RTVSPost2010Prop44ColorRGB
 90
      255
102
RTVSPost2010PropOp44
 70
     1
102
RTVSPost2010Prop45
280
     0
102
RTVSPost2010PropOp45
 70
     1
102
RTVSPost2010Prop46
 90
       50
102
RTVSPost2010PropOp46
 70
     1
102
RTVSPost2010Prop47
 90
       50
102
RTVSPost2010PropOp47
 70
     1
102
RTVSPost2010Prop48
 90
       50
102
RTVSPost2010PropOp48
 70
     1
102
RTVSPost2010Prop49
280
     0
102
RTVSPost2010PropOp49
 70
     1
102
RTVSPost2010Prop50
 90
       50
102
RTVSPost2010PropOp50
 70
     1
102
RTVSPost2010Prop51ColorIndex
 90
      256
102
RTVSPost2010Prop51ColorRGB
 90
-16777216
102
RTVSPost2010PropOp51
 70
     0
102
RTVSPost2010Prop52
140
1.0
102
RTVSPost2010PropOp52
 70
     0
102
RTVSPost2010Prop53
 90
        2
102
RTVSPost2010PropOp53
 70
     1
102
RTVSPost2010Prop54
  1
strokes_ogs.tif
102
RTVSPost2010PropOp54
 70
     1
102
RTVSPost2010Prop55
280
     0
102
RTVSPost2010PropOp55
 70
     1
102
RTVSPost2010Prop56
140
1.0
102
RTVSPost2010PropOp56
 70
     1
102
RTVSPost2010Prop57
140
1.0
102
RTVSPost2010PropOp57
 70
     1
102
RTVSPropertyOp0
 70
     1
102
RTVSPropertyOp1
 70
     1
102
RTVSPropertyOp2
 70
     1
102
RTVSPropertyOp3
 70
     1
102
RTVSPropertyOp4
 70
     1
102
RTVSPropertyOp5
 70
     1
102
RTVSPropertyOp6
 70
     1
102
RTVSPropertyOp7
 70
     1
102
RTVSPropertyOp8
 70
     1
102
RTVSPropertyOp9
 70
     1
102
RTVSPropertyOp10
 70
     1
102
RTVSPropertyOp11
 70
     1
102
RTVSPropertyOp12
 70
     1
102
RTVSPropertyOp13
 70
     1
102
RTVSPropertyOp14
 70
     1
102
RTVSPropertyOp15
 70
     1
102
RTVSPropertyOp16
 70
     1
102
RTVSPropertyOp17
 70
     1
102
RTVSPropertyOp18
 70
     1
102
RTVSPropertyOp19
 70
     1
102
RTVSPropertyOp20
 70
     1
102
RTVSPropertyOp21
 70
     1
102
RTVSPropertyOp22
 70
     1
102
RTVSPropertyOp23
 70
     1
102
RTVSPropertyOp24
 70
     1
102
RTVSPropertyOp25
 70
     1
102
RTVSPropertyOp26
 70
     1
102
RTVSPropertyOp27
 70
     1
102
RTVSPropertyOp28
 70
     1
102
RTVSPropertyOp29
 70
     1
102
RTVSPropertyOp30
 70
     1
102
RTVSPropertyOp31
 70
     1
102
RTVSPropertyOp32
 70
     1
102
RTVSPropertyOp33
 70
     1
102
RTVSPropertyOp34
 70
     1
102
RTVSPropertyOp35
 70
     1
102
RTVSPropertyOp36
 70
     1
102
RTVSPropertyOp37
 70
     1
102
RTVSPropertyOp38
 70
     1
102
RTVSPropertyOp39
 70
     1
102
RTVSPropertyOp40
 70
     1
102
RTVSPropertyOp41
 70
     1
102
RTVSPropertyOp42
 70
     1
102
RTVSPropertyOp43
 70
     1
102
RTVSPropertyOp44
 70
     1
102
RTVSPropertyOp45
 70
     1
102
RTVSPropertyOp46
 70
     1
102
RTVSPropertyOp47
 70
     1
102
RTVSPropertyOp48
 70
     1
102
RTVSPropertyOp49
 70
     1
102
RTVSPropertyOp50
 70
     1
102
RTVSPropertyOp51
 70
     0
102
RTVSPropertyOp52
 70
     0
102
RTVSPropertyOp53
 70
     1
102
RTVSPropertyOp54
 70
     1
102
RTVSPropertyOp55
 70
     1
102
RTVSPropertyOp56
 70
     1
102
RTVSPropertyOp57
 70
     1
102
RTVSPropertyOp58
 70
     1
102
RTVSPropertyOp59
 70
     1
102
RTVSPropertyOp60
 70
     1
102
RTVSPropertyOp61
 70
     1
102
RTVSPropertyOp62
 70
     1
  0
XRECORD
  5
29FD
102
{ACAD_REACTORS
330
29FC
102
}
330
29FC
100
AcDbXrecord
280
     1
102
RTVSPost2010Prop28
280
     0
102
RTVSPost2010PropOp28
 70
     1
102
RTVSPost2010Prop29
280
     1
102
RTVSPost2010PropOp29
 70
     1
102
RTVSPost2010Prop30
280
     1
102
RTVSPost2010PropOp30
 70
     1
102
RTVSPost2010Prop31
280
     0
102
RTVSPost2010PropOp31
 70
     1
102
RTVSPost2010Prop32
280
     0
102
RTVSPost2010PropOp32
 70
     1
102
RTVSPost2010Prop33
280
     0
102
RTVSPost2010PropOp33
 70
     1
102
RTVSPost2010Prop34
280
     0
102
RTVSPost2010PropOp34
 70
     1
102
RTVSPost2010Prop35
280
     0
102
RTVSPost2010PropOp35
 70
     1
102
RTVSPost2010Prop36
280
     0
102
RTVSPost2010PropOp36
 70
     1
102
RTVSPost2010Prop37
 90
       50
102
RTVSPost2010PropOp37
 70
     1
102
RTVSPost2010Prop38
140
0.0
102
RTVSPost2010PropOp38
 70
     1
102
RTVSPost2010Prop39
140
1.0
102
RTVSPost2010PropOp39
 70
     1
102
RTVSPost2010Prop40
 90
        0
102
RTVSPost2010PropOp40
 70
     1
102
RTVSPost2010Prop41ColorIndex
 90
       18
102
RTVSPost2010Prop41ColorRGB
 90
        0
102
RTVSPost2010PropOp41
 70
     1
102
RTVSPost2010Prop42
 90
       50
102
RTVSPost2010PropOp42
 70
     1
102
RTVSPost2010Prop43
 90
        3
102
RTVSPost2010PropOp43
 70
     1
102
RTVSPost2010Prop44ColorIndex
 90
        5
102
RTVSPost2010Prop44ColorRGB
 90
      255
102
RTVSPost2010PropOp44
 70
     1
102
RTVSPost2010Prop45
280
     0
102
RTVSPost2010PropOp45
 70
     1
102
RTVSPost2010Prop46
 90
       50
102
RTVSPost2010PropOp46
 70
     1
102
RTVSPost2010Prop47
 90
       50
102
RTVSPost2010PropOp47
 70
     1
102
RTVSPost2010Prop48
 90
       50
102
RTVSPost2010PropOp48
 70
     1
102
RTVSPost2010Prop49
280
     0
102
RTVSPost2010PropOp49
 70
     1
102
RTVSPost2010Prop50
 90
       50
102
RTVSPost2010PropOp50
 70
     1
102
RTVSPost2010Prop51ColorIndex
 90
      256
102
RTVSPost2010Prop51ColorRGB
 90
-16777216
102
RTVSPost2010PropOp51
 70
     0
102
RTVSPost2010Prop52
140
1.0
102
RTVSPost2010PropOp52
 70
     0
102
RTVSPost2010Prop53
 90
        2
102
RTVSPost2010PropOp53
 70
     1
102
RTVSPost2010Prop54
  1
strokes_ogs.tif
102
RTVSPost2010PropOp54
 70
     1
102
RTVSPost2010Prop55
280
     0
102
RTVSPost2010PropOp55
 70
     1
102
RTVSPost2010Prop56
140
1.0
102
RTVSPost2010PropOp56
 70
     1
102
RTVSPost2010Prop57
140
1.0
102
RTVSPost2010PropOp57
 70
     1
102
RTVSPropertyOp0
 70
     1
102
RTVSPropertyOp1
 70
     1
102
RTVSPropertyOp2
 70
     1
102
RTVSPropertyOp3
 70
     1
102
RTVSPropertyOp4
 70
     1
102
RTVSPropertyOp5
 70
     1
102
RTVSPropertyOp6
 70
     1
102
RTVSPropertyOp7
 70
     1
102
RTVSPropertyOp8
 70
     1
102
RTVSPropertyOp9
 70
     1
102
RTVSPropertyOp10
 70
     1
102
RTVSPropertyOp11
 70
     1
102
RTVSPropertyOp12
 70
     1
102
RTVSPropertyOp13
 70
     1
102
RTVSPropertyOp14
 70
     1
102
RTVSPropertyOp15
 70
     1
102
RTVSPropertyOp16
 70
     1
102
RTVSPropertyOp17
 70
     1
102
RTVSPropertyOp18
 70
     1
102
RTVSPropertyOp19
 70
     1
102
RTVSPropertyOp20
 70
     1
102
RTVSPropertyOp21
 70
     1
102
RTVSPropertyOp22
 70
     1
102
RTVSPropertyOp23
 70
     1
102
RTVSPropertyOp24
 70
     1
102
RTVSPropertyOp25
 70
     1
102
RTVSPropertyOp26
 70
     1
102
RTVSPropertyOp27
 70
     1
102
RTVSPropertyOp28
 70
     1
102
RTVSPropertyOp29
 70
     1
102
RTVSPropertyOp30
 70
     1
102
RTVSPropertyOp31
 70
     1
102
RTVSPropertyOp32
 70
     1
102
RTVSPropertyOp33
 70
     1
102
RTVSPropertyOp34
 70
     1
102
RTVSPropertyOp35
 70
     1
102
RTVSPropertyOp36
 70
     1
102
RTVSPropertyOp37
 70
     1
102
RTVSPropertyOp38
 70
     1
102
RTVSPropertyOp39
 70
     1
102
RTVSPropertyOp40
 70
     1
102
RTVSPropertyOp41
 70
     1
102
RTVSPropertyOp42
 70
     1
102
RTVSPropertyOp43
 70
     1
102
RTVSPropertyOp44
 70
     1
102
RTVSPropertyOp45
 70
     1
102
RTVSPropertyOp46
 70
     1
102
RTVSPropertyOp47
 70
     1
102
RTVSPropertyOp48
 70
     1
102
RTVSPropertyOp49
 70
     1
102
RTVSPropertyOp50
 70
     1
102
RTVSPropertyOp51
 70
     0
102
RTVSPropertyOp52
 70
     0
102
RTVSPropertyOp53
 70
     1
102
RTVSPropertyOp54
 70
     1
102
RTVSPropertyOp55
 70
     1
102
RTVSPropertyOp56
 70
     1
102
RTVSPropertyOp57
 70
     1
102
RTVSPropertyOp58
 70
     1
102
RTVSPropertyOp59
 70
     1
102
RTVSPropertyOp60
 70
     1
102
RTVSPropertyOp61
 70
     1
102
RTVSPropertyOp62
 70
     1
  0
XRECORD
  5
2A05
102
{ACAD_REACTORS
330
2A04
102
}
330
2A04
100
AcDbXrecord
280
     1
102
RTVSPost2010Prop28
280
     0
102
RTVSPost2010PropOp28
 70
     1
102
RTVSPost2010Prop29
280
     1
102
RTVSPost2010PropOp29
 70
     1
102
RTVSPost2010Prop30
280
     1
102
RTVSPost2010PropOp30
 70
     1
102
RTVSPost2010Prop31
280
     0
102
RTVSPost2010PropOp31
 70
     1
102
RTVSPost2010Prop32
280
     0
102
RTVSPost2010PropOp32
 70
     1
102
RTVSPost2010Prop33
280
     0
102
RTVSPost2010PropOp33
 70
     1
102
RTVSPost2010Prop34
280
     0
102
RTVSPost2010PropOp34
 70
     1
102
RTVSPost2010Prop35
280
     0
102
RTVSPost2010PropOp35
 70
     1
102
RTVSPost2010Prop36
280
     0
102
RTVSPost2010PropOp36
 70
     1
102
RTVSPost2010Prop37
 90
       50
102
RTVSPost2010PropOp37
 70
     1
102
RTVSPost2010Prop38
140
0.0
102
RTVSPost2010PropOp38
 70
     1
102
RTVSPost2010Prop39
140
1.0
102
RTVSPost2010PropOp39
 70
     1
102
RTVSPost2010Prop40
 90
        0
102
RTVSPost2010PropOp40
 70
     1
102
RTVSPost2010Prop41ColorIndex
 90
       18
102
RTVSPost2010Prop41ColorRGB
 90
        0
102
RTVSPost2010PropOp41
 70
     1
102
RTVSPost2010Prop42
 90
       50
102
RTVSPost2010PropOp42
 70
     1
102
RTVSPost2010Prop43
 90
        3
102
RTVSPost2010PropOp43
 70
     1
102
RTVSPost2010Prop44ColorIndex
 90
        5
102
RTVSPost2010Prop44ColorRGB
 90
      255
102
RTVSPost2010PropOp44
 70
     1
102
RTVSPost2010Prop45
280
     0
102
RTVSPost2010PropOp45
 70
     1
102
RTVSPost2010Prop46
 90
       50
102
RTVSPost2010PropOp46
 70
     1
102
RTVSPost2010Prop47
 90
       50
102
RTVSPost2010PropOp47
 70
     1
102
RTVSPost2010Prop48
 90
       50
102
RTVSPost2010PropOp48
 70
     1
102
RTVSPost2010Prop49
280
     0
102
RTVSPost2010PropOp49
 70
     1
102
RTVSPost2010Prop50
 90
       50
102
RTVSPost2010PropOp50
 70
     1
102
RTVSPost2010Prop51ColorIndex
 90
      256
102
RTVSPost2010Prop51ColorRGB
 90
-16777216
102
RTVSPost2010PropOp51
 70
     0
102
RTVSPost2010Prop52
140
1.0
102
RTVSPost2010PropOp52
 70
     0
102
RTVSPost2010Prop53
 90
        2
102
RTVSPost2010PropOp53
 70
     1
102
RTVSPost2010Prop54
  1
strokes_ogs.tif
102
RTVSPost2010PropOp54
 70
     1
102
RTVSPost2010Prop55
280
     0
102
RTVSPost2010PropOp55
 70
     1
102
RTVSPost2010Prop56
140
1.0
102
RTVSPost2010PropOp56
 70
     1
102
RTVSPost2010Prop57
140
1.0
102
RTVSPost2010PropOp57
 70
     1
102
RTVSPropertyOp0
 70
     1
102
RTVSPropertyOp1
 70
     1
102
RTVSPropertyOp2
 70
     1
102
RTVSPropertyOp3
 70
     1
102
RTVSPropertyOp4
 70
     1
102
RTVSPropertyOp5
 70
     1
102
RTVSPropertyOp6
 70
     1
102
RTVSPropertyOp7
 70
     1
102
RTVSPropertyOp8
 70
     1
102
RTVSPropertyOp9
 70
     1
102
RTVSPropertyOp10
 70
     1
102
RTVSPropertyOp11
 70
     1
102
RTVSPropertyOp12
 70
     1
102
RTVSPropertyOp13
 70
     1
102
RTVSPropertyOp14
 70
     1
102
RTVSPropertyOp15
 70
     1
102
RTVSPropertyOp16
 70
     1
102
RTVSPropertyOp17
 70
     1
102
RTVSPropertyOp18
 70
     1
102
RTVSPropertyOp19
 70
     1
102
RTVSPropertyOp20
 70
     1
102
RTVSPropertyOp21
 70
     1
102
RTVSPropertyOp22
 70
     1
102
RTVSPropertyOp23
 70
     1
102
RTVSPropertyOp24
 70
     1
102
RTVSPropertyOp25
 70
     1
102
RTVSPropertyOp26
 70
     1
102
RTVSPropertyOp27
 70
     1
102
RTVSPropertyOp28
 70
     1
102
RTVSPropertyOp29
 70
     1
102
RTVSPropertyOp30
 70
     1
102
RTVSPropertyOp31
 70
     1
102
RTVSPropertyOp32
 70
     1
102
RTVSPropertyOp33
 70
     1
102
RTVSPropertyOp34
 70
     1
102
RTVSPropertyOp35
 70
     1
102
RTVSPropertyOp36
 70
     1
102
RTVSPropertyOp37
 70
     1
102
RTVSPropertyOp38
 70
     1
102
RTVSPropertyOp39
 70
     1
102
RTVSPropertyOp40
 70
     1
102
RTVSPropertyOp41
 70
     1
102
RTVSPropertyOp42
 70
     1
102
RTVSPropertyOp43
 70
     1
102
RTVSPropertyOp44
 70
     1
102
RTVSPropertyOp45
 70
     1
102
RTVSPropertyOp46
 70
     1
102
RTVSPropertyOp47
 70
     1
102
RTVSPropertyOp48
 70
     1
102
RTVSPropertyOp49
 70
     1
102
RTVSPropertyOp50
 70
     1
102
RTVSPropertyOp51
 70
     0
102
RTVSPropertyOp52
 70
     0
102
RTVSPropertyOp53
 70
     1
102
RTVSPropertyOp54
 70
     1
102
RTVSPropertyOp55
 70
     1
102
RTVSPropertyOp56
 70
     1
102
RTVSPropertyOp57
 70
     1
102
RTVSPropertyOp58
 70
     1
102
RTVSPropertyOp59
 70
     1
102
RTVSPropertyOp60
 70
     1
102
RTVSPropertyOp61
 70
     1
102
RTVSPropertyOp62
 70
     1
  0
XRECORD
  5
2A19
102
{ACAD_REACTORS
330
2A18
102
}
330
2A18
100
AcDbXrecord
280
     1
102
RTVSPost2010Prop28
280
     0
102
RTVSPost2010PropOp28
 70
     1
102
RTVSPost2010Prop29
280
     1
102
RTVSPost2010PropOp29
 70
     1
102
RTVSPost2010Prop30
280
     1
102
RTVSPost2010PropOp30
 70
     1
102
RTVSPost2010Prop31
280
     0
102
RTVSPost2010PropOp31
 70
     1
102
RTVSPost2010Prop32
280
     0
102
RTVSPost2010PropOp32
 70
     1
102
RTVSPost2010Prop33
280
     0
102
RTVSPost2010PropOp33
 70
     1
102
RTVSPost2010Prop34
280
     0
102
RTVSPost2010PropOp34
 70
     1
102
RTVSPost2010Prop35
280
     0
102
RTVSPost2010PropOp35
 70
     1
102
RTVSPost2010Prop36
280
     0
102
RTVSPost2010PropOp36
 70
     1
102
RTVSPost2010Prop37
 90
       50
102
RTVSPost2010PropOp37
 70
     1
102
RTVSPost2010Prop38
140
0.0
102
RTVSPost2010PropOp38
 70
     1
102
RTVSPost2010Prop39
140
1.0
102
RTVSPost2010PropOp39
 70
     1
102
RTVSPost2010Prop40
 90
        0
102
RTVSPost2010PropOp40
 70
     1
102
RTVSPost2010Prop41ColorIndex
 90
       18
102
RTVSPost2010Prop41ColorRGB
 90
        0
102
RTVSPost2010PropOp41
 70
     1
102
RTVSPost2010Prop42
 90
       50
102
RTVSPost2010PropOp42
 70
     1
102
RTVSPost2010Prop43
 90
        3
102
RTVSPost2010PropOp43
 70
     1
102
RTVSPost2010Prop44ColorIndex
 90
        5
102
RTVSPost2010Prop44ColorRGB
 90
      255
102
RTVSPost2010PropOp44
 70
     1
102
RTVSPost2010Prop45
280
     0
102
RTVSPost2010PropOp45
 70
     1
102
RTVSPost2010Prop46
 90
       50
102
RTVSPost2010PropOp46
 70
     1
102
RTVSPost2010Prop47
 90
       50
102
RTVSPost2010PropOp47
 70
     1
102
RTVSPost2010Prop48
 90
       50
102
RTVSPost2010PropOp48
 70
     1
102
RTVSPost2010Prop49
280
     0
102
RTVSPost2010PropOp49
 70
     1
102
RTVSPost2010Prop50
 90
       50
102
RTVSPost2010PropOp50
 70
     1
102
RTVSPost2010Prop51ColorIndex
 90
      256
102
RTVSPost2010Prop51ColorRGB
 90
-16777216
102
RTVSPost2010PropOp51
 70
     0
102
RTVSPost2010Prop52
140
1.0
102
RTVSPost2010PropOp52
 70
     0
102
RTVSPost2010Prop53
 90
        2
102
RTVSPost2010PropOp53
 70
     1
102
RTVSPost2010Prop54
  1
strokes_ogs.tif
102
RTVSPost2010PropOp54
 70
     1
102
RTVSPost2010Prop55
280
     0
102
RTVSPost2010PropOp55
 70
     1
102
RTVSPost2010Prop56
140
1.0
102
RTVSPost2010PropOp56
 70
     1
102
RTVSPost2010Prop57
140
1.0
102
RTVSPost2010PropOp57
 70
     1
102
RTVSPropertyOp0
 70
     0
102
RTVSPropertyOp1
 70
     0
102
RTVSPropertyOp2
 70
     0
102
RTVSPropertyOp3
 70
     0
102
RTVSPropertyOp4
 70
     0
102
RTVSPropertyOp5
 70
     0
102
RTVSPropertyOp6
 70
     0
102
RTVSPropertyOp7
 70
     0
102
RTVSPropertyOp8
 70
     0
102
RTVSPropertyOp9
 70
     0
102
RTVSPropertyOp10
 70
     0
102
RTVSPropertyOp11
 70
     0
102
RTVSPropertyOp12
 70
     0
102
RTVSPropertyOp13
 70
     0
102
RTVSPropertyOp14
 70
     2
102
RTVSPropertyOp15
 70
     0
102
RTVSPropertyOp16
 70
     0
102
RTVSPropertyOp17
 70
     0
102
RTVSPropertyOp18
 70
     0
102
RTVSPropertyOp19
 70
     0
102
RTVSPropertyOp20
 70
     0
102
RTVSPropertyOp21
 70
     0
102
RTVSPropertyOp22
 70
     0
102
RTVSPropertyOp23
 70
     0
102
RTVSPropertyOp24
 70
     0
102
RTVSPropertyOp25
 70
     0
102
RTVSPropertyOp26
 70
     0
102
RTVSPropertyOp27
 70
     0
102
RTVSPropertyOp28
 70
     1
102
RTVSPropertyOp29
 70
     1
102
RTVSPropertyOp30
 70
     1
102
RTVSPropertyOp31
 70
     1
102
RTVSPropertyOp32
 70
     1
102
RTVSPropertyOp33
 70
     1
102
RTVSPropertyOp34
 70
     1
102
RTVSPropertyOp35
 70
     1
102
RTVSPropertyOp36
 70
     1
102
RTVSPropertyOp37
 70
     1
102
RTVSPropertyOp38
 70
     1
102
RTVSPropertyOp39
 70
     1
102
RTVSPropertyOp40
 70
     1
102
RTVSPropertyOp41
 70
     1
102
RTVSPropertyOp42
 70
     1
102
RTVSPropertyOp43
 70
     1
102
RTVSPropertyOp44
 70
     1
102
RTVSPropertyOp45
 70
     1
102
RTVSPropertyOp46
 70
     1
102
RTVSPropertyOp47
 70
     1
102
RTVSPropertyOp48
 70
     1
102
RTVSPropertyOp49
 70
     1
102
RTVSPropertyOp50
 70
     1
102
RTVSPropertyOp51
 70
     0
102
RTVSPropertyOp52
 70
     0
102
RTVSPropertyOp53
 70
     1
102
RTVSPropertyOp54
 70
     1
102
RTVSPropertyOp55
 70
     1
102
RTVSPropertyOp56
 70
     1
102
RTVSPropertyOp57
 70
     1
102
RTVSPropertyOp58
 70
     1
102
RTVSPropertyOp59
 70
     1
102
RTVSPropertyOp60
 70
     1
102
RTVSPropertyOp61
 70
     1
102
RTVSPropertyOp62
 70
     1
  0
XRECORD
  5
2A11
102
{ACAD_REACTORS
330
2A10
102
}
330
2A10
100
AcDbXrecord
280
     1
102
RTVSPost2010Prop28
280
     0
102
RTVSPost2010PropOp28
 70
     1
102
RTVSPost2010Prop29
280
     1
102
RTVSPost2010PropOp29
 70
     1
102
RTVSPost2010Prop30
280
     1
102
RTVSPost2010PropOp30
 70
     1
102
RTVSPost2010Prop31
280
     0
102
RTVSPost2010PropOp31
 70
     1
102
RTVSPost2010Prop32
280
     0
102
RTVSPost2010PropOp32
 70
     1
102
RTVSPost2010Prop33
280
     0
102
RTVSPost2010PropOp33
 70
     1
102
RTVSPost2010Prop34
280
     0
102
RTVSPost2010PropOp34
 70
     1
102
RTVSPost2010Prop35
280
     0
102
RTVSPost2010PropOp35
 70
     1
102
RTVSPost2010Prop36
280
     0
102
RTVSPost2010PropOp36
 70
     1
102
RTVSPost2010Prop37
 90
       50
102
RTVSPost2010PropOp37
 70
     1
102
RTVSPost2010Prop38
140
0.0
102
RTVSPost2010PropOp38
 70
     1
102
RTVSPost2010Prop39
140
1.0
102
RTVSPost2010PropOp39
 70
     1
102
RTVSPost2010Prop40
 90
        0
102
RTVSPost2010PropOp40
 70
     1
102
RTVSPost2010Prop41ColorIndex
 90
       18
102
RTVSPost2010Prop41ColorRGB
 90
        0
102
RTVSPost2010PropOp41
 70
     1
102
RTVSPost2010Prop42
 90
       50
102
RTVSPost2010PropOp42
 70
     1
102
RTVSPost2010Prop43
 90
        3
102
RTVSPost2010PropOp43
 70
     1
102
RTVSPost2010Prop44ColorIndex
 90
        5
102
RTVSPost2010Prop44ColorRGB
 90
      255
102
RTVSPost2010PropOp44
 70
     1
102
RTVSPost2010Prop45
280
     0
102
RTVSPost2010PropOp45
 70
     1
102
RTVSPost2010Prop46
 90
       50
102
RTVSPost2010PropOp46
 70
     1
102
RTVSPost2010Prop47
 90
       50
102
RTVSPost2010PropOp47
 70
     1
102
RTVSPost2010Prop48
 90
       50
102
RTVSPost2010PropOp48
 70
     1
102
RTVSPost2010Prop49
280
     0
102
RTVSPost2010PropOp49
 70
     1
102
RTVSPost2010Prop50
 90
       50
102
RTVSPost2010PropOp50
 70
     1
102
RTVSPost2010Prop51ColorIndex
 90
      256
102
RTVSPost2010Prop51ColorRGB
 90
-16777216
102
RTVSPost2010PropOp51
 70
     0
102
RTVSPost2010Prop52
140
1.0
102
RTVSPost2010PropOp52
 70
     0
102
RTVSPost2010Prop53
 90
        2
102
RTVSPost2010PropOp53
 70
     1
102
RTVSPost2010Prop54
  1
strokes_ogs.tif
102
RTVSPost2010PropOp54
 70
     1
102
RTVSPost2010Prop55
280
     0
102
RTVSPost2010PropOp55
 70
     1
102
RTVSPost2010Prop56
140
1.0
102
RTVSPost2010PropOp56
 70
     1
102
RTVSPost2010Prop57
140
1.0
102
RTVSPost2010PropOp57
 70
     1
102
RTVSPropertyOp0
 70
     1
102
RTVSPropertyOp1
 70
     1
102
RTVSPropertyOp2
 70
     1
102
RTVSPropertyOp3
 70
     1
102
RTVSPropertyOp4
 70
     1
102
RTVSPropertyOp5
 70
     1
102
RTVSPropertyOp6
 70
     1
102
RTVSPropertyOp7
 70
     1
102
RTVSPropertyOp8
 70
     1
102
RTVSPropertyOp9
 70
     1
102
RTVSPropertyOp10
 70
     1
102
RTVSPropertyOp11
 70
     1
102
RTVSPropertyOp12
 70
     1
102
RTVSPropertyOp13
 70
     1
102
RTVSPropertyOp14
 70
     1
102
RTVSPropertyOp15
 70
     1
102
RTVSPropertyOp16
 70
     1
102
RTVSPropertyOp17
 70
     1
102
RTVSPropertyOp18
 70
     1
102
RTVSPropertyOp19
 70
     1
102
RTVSPropertyOp20
 70
     1
102
RTVSPropertyOp21
 70
     1
102
RTVSPropertyOp22
 70
     1
102
RTVSPropertyOp23
 70
     1
102
RTVSPropertyOp24
 70
     1
102
RTVSPropertyOp25
 70
     1
102
RTVSPropertyOp26
 70
     1
102
RTVSPropertyOp27
 70
     1
102
RTVSPropertyOp28
 70
     1
102
RTVSPropertyOp29
 70
     1
102
RTVSPropertyOp30
 70
     1
102
RTVSPropertyOp31
 70
     1
102
RTVSPropertyOp32
 70
     1
102
RTVSPropertyOp33
 70
     1
102
RTVSPropertyOp34
 70
     1
102
RTVSPropertyOp35
 70
     1
102
RTVSPropertyOp36
 70
     1
102
RTVSPropertyOp37
 70
     1
102
RTVSPropertyOp38
 70
     1
102
RTVSPropertyOp39
 70
     1
102
RTVSPropertyOp40
 70
     1
102
RTVSPropertyOp41
 70
     1
102
RTVSPropertyOp42
 70
     1
102
RTVSPropertyOp43
 70
     1
102
RTVSPropertyOp44
 70
     1
102
RTVSPropertyOp45
 70
     1
102
RTVSPropertyOp46
 70
     1
102
RTVSPropertyOp47
 70
     1
102
RTVSPropertyOp48
 70
     1
102
RTVSPropertyOp49
 70
     1
102
RTVSPropertyOp50
 70
     1
102
RTVSPropertyOp51
 70
     0
102
RTVSPropertyOp52
 70
     0
102
RTVSPropertyOp53
 70
     1
102
RTVSPropertyOp54
 70
     1
102
RTVSPropertyOp55
 70
     1
102
RTVSPropertyOp56
 70
     1
102
RTVSPropertyOp57
 70
     1
102
RTVSPropertyOp58
 70
     1
102
RTVSPropertyOp59
 70
     1
102
RTVSPropertyOp60
 70
     1
102
RTVSPropertyOp61
 70
     1
102
RTVSPropertyOp62
 70
     1
  0
XRECORD
  5
2A1B
102
{ACAD_REACTORS
330
2A1A
102
}
330
2A1A
100
AcDbXrecord
280
     1
102
RTVSPost2010Prop28
280
     0
102
RTVSPost2010PropOp28
 70
     1
102
RTVSPost2010Prop29
280
     1
102
RTVSPost2010PropOp29
 70
     1
102
RTVSPost2010Prop30
280
     1
102
RTVSPost2010PropOp30
 70
     1
102
RTVSPost2010Prop31
280
     0
102
RTVSPost2010PropOp31
 70
     1
102
RTVSPost2010Prop32
280
     0
102
RTVSPost2010PropOp32
 70
     1
102
RTVSPost2010Prop33
280
     0
102
RTVSPost2010PropOp33
 70
     1
102
RTVSPost2010Prop34
280
     0
102
RTVSPost2010PropOp34
 70
     1
102
RTVSPost2010Prop35
280
     0
102
RTVSPost2010PropOp35
 70
     1
102
RTVSPost2010Prop36
280
     0
102
RTVSPost2010PropOp36
 70
     1
102
RTVSPost2010Prop37
 90
       50
102
RTVSPost2010PropOp37
 70
     1
102
RTVSPost2010Prop38
140
0.0
102
RTVSPost2010PropOp38
 70
     1
102
RTVSPost2010Prop39
140
1.0
102
RTVSPost2010PropOp39
 70
     1
102
RTVSPost2010Prop40
 90
        0
102
RTVSPost2010PropOp40
 70
     1
102
RTVSPost2010Prop41ColorIndex
 90
       18
102
RTVSPost2010Prop41ColorRGB
 90
        0
102
RTVSPost2010PropOp41
 70
     1
102
RTVSPost2010Prop42
 90
       50
102
RTVSPost2010PropOp42
 70
     1
102
RTVSPost2010Prop43
 90
        3
102
RTVSPost2010PropOp43
 70
     1
102
RTVSPost2010Prop44ColorIndex
 90
        5
102
RTVSPost2010Prop44ColorRGB
 90
      255
102
RTVSPost2010PropOp44
 70
     1
102
RTVSPost2010Prop45
280
     0
102
RTVSPost2010PropOp45
 70
     1
102
RTVSPost2010Prop46
 90
       50
102
RTVSPost2010PropOp46
 70
     1
102
RTVSPost2010Prop47
 90
       50
102
RTVSPost2010PropOp47
 70
     1
102
RTVSPost2010Prop48
 90
       50
102
RTVSPost2010PropOp48
 70
     1
102
RTVSPost2010Prop49
280
     0
102
RTVSPost2010PropOp49
 70
     1
102
RTVSPost2010Prop50
 90
       50
102
RTVSPost2010PropOp50
 70
     1
102
RTVSPost2010Prop51ColorIndex
 90
      256
102
RTVSPost2010Prop51ColorRGB
 90
-16777216
102
RTVSPost2010PropOp51
 70
     0
102
RTVSPost2010Prop52
140
1.0
102
RTVSPost2010PropOp52
 70
     0
102
RTVSPost2010Prop53
 90
        2
102
RTVSPost2010PropOp53
 70
     1
102
RTVSPost2010Prop54
  1
strokes_ogs.tif
102
RTVSPost2010PropOp54
 70
     1
102
RTVSPost2010Prop55
280
     0
102
RTVSPost2010PropOp55
 70
     1
102
RTVSPost2010Prop56
140
1.0
102
RTVSPost2010PropOp56
 70
     1
102
RTVSPost2010Prop57
140
1.0
102
RTVSPost2010PropOp57
 70
     1
102
RTVSPropertyOp0
 70
     0
102
RTVSPropertyOp1
 70
     0
102
RTVSPropertyOp2
 70
     0
102
RTVSPropertyOp3
 70
     0
102
RTVSPropertyOp4
 70
     0
102
RTVSPropertyOp5
 70
     0
102
RTVSPropertyOp6
 70
     0
102
RTVSPropertyOp7
 70
     0
102
RTVSPropertyOp8
 70
     0
102
RTVSPropertyOp9
 70
     0
102
RTVSPropertyOp10
 70
     0
102
RTVSPropertyOp11
 70
     0
102
RTVSPropertyOp12
 70
     0
102
RTVSPropertyOp13
 70
     0
102
RTVSPropertyOp14
 70
     2
102
RTVSPropertyOp15
 70
     0
102
RTVSPropertyOp16
 70
     0
102
RTVSPropertyOp17
 70
     0
102
RTVSPropertyOp18
 70
     0
102
RTVSPropertyOp19
 70
     0
102
RTVSPropertyOp20
 70
     0
102
RTVSPropertyOp21
 70
     0
102
RTVSPropertyOp22
 70
     0
102
RTVSPropertyOp23
 70
     0
102
RTVSPropertyOp24
 70
     0
102
RTVSPropertyOp25
 70
     0
102
RTVSPropertyOp26
 70
     0
102
RTVSPropertyOp27
 70
     0
102
RTVSPropertyOp28
 70
     1
102
RTVSPropertyOp29
 70
     1
102
RTVSPropertyOp30
 70
     1
102
RTVSPropertyOp31
 70
     1
102
RTVSPropertyOp32
 70
     1
102
RTVSPropertyOp33
 70
     1
102
RTVSPropertyOp34
 70
     1
102
RTVSPropertyOp35
 70
     1
102
RTVSPropertyOp36
 70
     1
102
RTVSPropertyOp37
 70
     1
102
RTVSPropertyOp38
 70
     1
102
RTVSPropertyOp39
 70
     1
102
RTVSPropertyOp40
 70
     1
102
RTVSPropertyOp41
 70
     1
102
RTVSPropertyOp42
 70
     1
102
RTVSPropertyOp43
 70
     1
102
RTVSPropertyOp44
 70
     1
102
RTVSPropertyOp45
 70
     1
102
RTVSPropertyOp46
 70
     1
102
RTVSPropertyOp47
 70
     1
102
RTVSPropertyOp48
 70
     1
102
RTVSPropertyOp49
 70
     1
102
RTVSPropertyOp50
 70
     1
102
RTVSPropertyOp51
 70
     0
102
RTVSPropertyOp52
 70
     0
102
RTVSPropertyOp53
 70
     1
102
RTVSPropertyOp54
 70
     1
102
RTVSPropertyOp55
 70
     1
102
RTVSPropertyOp56
 70
     1
102
RTVSPropertyOp57
 70
     1
102
RTVSPropertyOp58
 70
     1
102
RTVSPropertyOp59
 70
     1
102
RTVSPropertyOp60
 70
     1
102
RTVSPropertyOp61
 70
     1
102
RTVSPropertyOp62
 70
     1
  0
XRECORD
  5
2A09
102
{ACAD_REACTORS
330
2A08
102
}
330
2A08
100
AcDbXrecord
280
     1
102
RTVSPost2010Prop28
280
     0
102
RTVSPost2010PropOp28
 70
     1
102
RTVSPost2010Prop29
280
     1
102
RTVSPost2010PropOp29
 70
     1
102
RTVSPost2010Prop30
280
     1
102
RTVSPost2010PropOp30
 70
     1
102
RTVSPost2010Prop31
280
     0
102
RTVSPost2010PropOp31
 70
     1
102
RTVSPost2010Prop32
280
     0
102
RTVSPost2010PropOp32
 70
     1
102
RTVSPost2010Prop33
280
     0
102
RTVSPost2010PropOp33
 70
     1
102
RTVSPost2010Prop34
280
     0
102
RTVSPost2010PropOp34
 70
     1
102
RTVSPost2010Prop35
280
     0
102
RTVSPost2010PropOp35
 70
     1
102
RTVSPost2010Prop36
280
     0
102
RTVSPost2010PropOp36
 70
     1
102
RTVSPost2010Prop37
 90
       50
102
RTVSPost2010PropOp37
 70
     1
102
RTVSPost2010Prop38
140
0.0
102
RTVSPost2010PropOp38
 70
     1
102
RTVSPost2010Prop39
140
1.0
102
RTVSPost2010PropOp39
 70
     1
102
RTVSPost2010Prop40
 90
        0
102
RTVSPost2010PropOp40
 70
     1
102
RTVSPost2010Prop41ColorIndex
 90
       18
102
RTVSPost2010Prop41ColorRGB
 90
        0
102
RTVSPost2010PropOp41
 70
     1
102
RTVSPost2010Prop42
 90
       50
102
RTVSPost2010PropOp42
 70
     1
102
RTVSPost2010Prop43
 90
        3
102
RTVSPost2010PropOp43
 70
     1
102
RTVSPost2010Prop44ColorIndex
 90
        5
102
RTVSPost2010Prop44ColorRGB
 90
      255
102
RTVSPost2010PropOp44
 70
     1
102
RTVSPost2010Prop45
280
     0
102
RTVSPost2010PropOp45
 70
     1
102
RTVSPost2010Prop46
 90
       50
102
RTVSPost2010PropOp46
 70
     1
102
RTVSPost2010Prop47
 90
       50
102
RTVSPost2010PropOp47
 70
     1
102
RTVSPost2010Prop48
 90
       50
102
RTVSPost2010PropOp48
 70
     1
102
RTVSPost2010Prop49
280
     0
102
RTVSPost2010PropOp49
 70
     1
102
RTVSPost2010Prop50
 90
       50
102
RTVSPost2010PropOp50
 70
     1
102
RTVSPost2010Prop51ColorIndex
 90
      256
102
RTVSPost2010Prop51ColorRGB
 90
-16777216
102
RTVSPost2010PropOp51
 70
     0
102
RTVSPost2010Prop52
140
1.0
102
RTVSPost2010PropOp52
 70
     0
102
RTVSPost2010Prop53
 90
        2
102
RTVSPost2010PropOp53
 70
     1
102
RTVSPost2010Prop54
  1
strokes_ogs.tif
102
RTVSPost2010PropOp54
 70
     1
102
RTVSPost2010Prop55
280
     0
102
RTVSPost2010PropOp55
 70
     1
102
RTVSPost2010Prop56
140
1.0
102
RTVSPost2010PropOp56
 70
     1
102
RTVSPost2010Prop57
140
1.0
102
RTVSPost2010PropOp57
 70
     1
102
RTVSPropertyOp0
 70
     1
102
RTVSPropertyOp1
 70
     1
102
RTVSPropertyOp2
 70
     1
102
RTVSPropertyOp3
 70
     1
102
RTVSPropertyOp4
 70
     1
102
RTVSPropertyOp5
 70
     1
102
RTVSPropertyOp6
 70
     1
102
RTVSPropertyOp7
 70
     1
102
RTVSPropertyOp8
 70
     1
102
RTVSPropertyOp9
 70
     1
102
RTVSPropertyOp10
 70
     1
102
RTVSPropertyOp11
 70
     1
102
RTVSPropertyOp12
 70
     1
102
RTVSPropertyOp13
 70
     1
102
RTVSPropertyOp14
 70
     1
102
RTVSPropertyOp15
 70
     1
102
RTVSPropertyOp16
 70
     1
102
RTVSPropertyOp17
 70
     1
102
RTVSPropertyOp18
 70
     1
102
RTVSPropertyOp19
 70
     1
102
RTVSPropertyOp20
 70
     1
102
RTVSPropertyOp21
 70
     1
102
RTVSPropertyOp22
 70
     1
102
RTVSPropertyOp23
 70
     1
102
RTVSPropertyOp24
 70
     1
102
RTVSPropertyOp25
 70
     1
102
RTVSPropertyOp26
 70
     1
102
RTVSPropertyOp27
 70
     1
102
RTVSPropertyOp28
 70
     1
102
RTVSPropertyOp29
 70
     1
102
RTVSPropertyOp30
 70
     1
102
RTVSPropertyOp31
 70
     1
102
RTVSPropertyOp32
 70
     1
102
RTVSPropertyOp33
 70
     1
102
RTVSPropertyOp34
 70
     1
102
RTVSPropertyOp35
 70
     1
102
RTVSPropertyOp36
 70
     1
102
RTVSPropertyOp37
 70
     1
102
RTVSPropertyOp38
 70
     1
102
RTVSPropertyOp39
 70
     1
102
RTVSPropertyOp40
 70
     1
102
RTVSPropertyOp41
 70
     1
102
RTVSPropertyOp42
 70
     1
102
RTVSPropertyOp43
 70
     1
102
RTVSPropertyOp44
 70
     1
102
RTVSPropertyOp45
 70
     1
102
RTVSPropertyOp46
 70
     1
102
RTVSPropertyOp47
 70
     1
102
RTVSPropertyOp48
 70
     1
102
RTVSPropertyOp49
 70
     1
102
RTVSPropertyOp50
 70
     1
102
RTVSPropertyOp51
 70
     0
102
RTVSPropertyOp52
 70
     0
102
RTVSPropertyOp53
 70
     1
102
RTVSPropertyOp54
 70
     1
102
RTVSPropertyOp55
 70
     1
102
RTVSPropertyOp56
 70
     1
102
RTVSPropertyOp57
 70
     1
102
RTVSPropertyOp58
 70
     1
102
RTVSPropertyOp59
 70
     1
102
RTVSPropertyOp60
 70
     1
102
RTVSPropertyOp61
 70
     1
102
RTVSPropertyOp62
 70
     1
  0
XRECORD
  5
2A27
102
{ACAD_REACTORS
330
2A26
102
}
330
2A26
100
AcDbXrecord
280
     1
102
RTVSPost2010Prop28
280
     0
102
RTVSPost2010PropOp28
 70
     1
102
RTVSPost2010Prop29
280
     1
102
RTVSPost2010PropOp29
 70
     1
102
RTVSPost2010Prop30
280
     1
102
RTVSPost2010PropOp30
 70
     1
102
RTVSPost2010Prop31
280
     0
102
RTVSPost2010PropOp31
 70
     1
102
RTVSPost2010Prop32
280
     0
102
RTVSPost2010PropOp32
 70
     1
102
RTVSPost2010Prop33
280
     0
102
RTVSPost2010PropOp33
 70
     1
102
RTVSPost2010Prop34
280
     0
102
RTVSPost2010PropOp34
 70
     1
102
RTVSPost2010Prop35
280
     0
102
RTVSPost2010PropOp35
 70
     1
102
RTVSPost2010Prop36
280
     0
102
RTVSPost2010PropOp36
 70
     1
102
RTVSPost2010Prop37
 90
       50
102
RTVSPost2010PropOp37
 70
     1
102
RTVSPost2010Prop38
140
0.0
102
RTVSPost2010PropOp38
 70
     1
102
RTVSPost2010Prop39
140
1.0
102
RTVSPost2010PropOp39
 70
     1
102
RTVSPost2010Prop40
 90
        0
102
RTVSPost2010PropOp40
 70
     1
102
RTVSPost2010Prop41ColorIndex
 90
       18
102
RTVSPost2010Prop41ColorRGB
 90
        0
102
RTVSPost2010PropOp41
 70
     1
102
RTVSPost2010Prop42
 90
       50
102
RTVSPost2010PropOp42
 70
     1
102
RTVSPost2010Prop43
 90
        3
102
RTVSPost2010PropOp43
 70
     1
102
RTVSPost2010Prop44ColorIndex
 90
        5
102
RTVSPost2010Prop44ColorRGB
 90
      255
102
RTVSPost2010PropOp44
 70
     1
102
RTVSPost2010Prop45
280
     0
102
RTVSPost2010PropOp45
 70
     1
102
RTVSPost2010Prop46
 90
       50
102
RTVSPost2010PropOp46
 70
     1
102
RTVSPost2010Prop47
 90
       50
102
RTVSPost2010PropOp47
 70
     1
102
RTVSPost2010Prop48
 90
       50
102
RTVSPost2010PropOp48
 70
     1
102
RTVSPost2010Prop49
280
     0
102
RTVSPost2010PropOp49
 70
     1
102
RTVSPost2010Prop50
 90
       50
102
RTVSPost2010PropOp50
 70
     1
102
RTVSPost2010Prop51ColorIndex
 90
      256
102
RTVSPost2010Prop51ColorRGB
 90
-16777216
102
RTVSPost2010PropOp51
 70
     0
102
RTVSPost2010Prop52
140
1.0
102
RTVSPost2010PropOp52
 70
     0
102
RTVSPost2010Prop53
 90
        2
102
RTVSPost2010PropOp53
 70
     1
102
RTVSPost2010Prop54
  1
strokes_ogs.tif
102
RTVSPost2010PropOp54
 70
     1
102
RTVSPost2010Prop55
280
     0
102
RTVSPost2010PropOp55
 70
     1
102
RTVSPost2010Prop56
140
1.0
102
RTVSPost2010PropOp56
 70
     1
102
RTVSPost2010Prop57
140
1.0
102
RTVSPost2010PropOp57
 70
     1
102
RTVSPropertyOp0
 70
     1
102
RTVSPropertyOp1
 70
     1
102
RTVSPropertyOp2
 70
     1
102
RTVSPropertyOp3
 70
     1
102
RTVSPropertyOp4
 70
     1
102
RTVSPropertyOp5
 70
     1
102
RTVSPropertyOp6
 70
     1
102
RTVSPropertyOp7
 70
     1
102
RTVSPropertyOp8
 70
     1
102
RTVSPropertyOp9
 70
     1
102
RTVSPropertyOp10
 70
     1
102
RTVSPropertyOp11
 70
     1
102
RTVSPropertyOp12
 70
     1
102
RTVSPropertyOp13
 70
     1
102
RTVSPropertyOp14
 70
     1
102
RTVSPropertyOp15
 70
     1
102
RTVSPropertyOp16
 70
     1
102
RTVSPropertyOp17
 70
     1
102
RTVSPropertyOp18
 70
     1
102
RTVSPropertyOp19
 70
     1
102
RTVSPropertyOp20
 70
     1
102
RTVSPropertyOp21
 70
     1
102
RTVSPropertyOp22
 70
     1
102
RTVSPropertyOp23
 70
     1
102
RTVSPropertyOp24
 70
     1
102
RTVSPropertyOp25
 70
     1
102
RTVSPropertyOp26
 70
     1
102
RTVSPropertyOp27
 70
     1
102
RTVSPropertyOp28
 70
     1
102
RTVSPropertyOp29
 70
     1
102
RTVSPropertyOp30
 70
     1
102
RTVSPropertyOp31
 70
     1
102
RTVSPropertyOp32
 70
     1
102
RTVSPropertyOp33
 70
     1
102
RTVSPropertyOp34
 70
     1
102
RTVSPropertyOp35
 70
     1
102
RTVSPropertyOp36
 70
     1
102
RTVSPropertyOp37
 70
     1
102
RTVSPropertyOp38
 70
     1
102
RTVSPropertyOp39
 70
     1
102
RTVSPropertyOp40
 70
     1
102
RTVSPropertyOp41
 70
     1
102
RTVSPropertyOp42
 70
     1
102
RTVSPropertyOp43
 70
     1
102
RTVSPropertyOp44
 70
     1
102
RTVSPropertyOp45
 70
     1
102
RTVSPropertyOp46
 70
     1
102
RTVSPropertyOp47
 70
     1
102
RTVSPropertyOp48
 70
     1
102
RTVSPropertyOp49
 70
     1
102
RTVSPropertyOp50
 70
     1
102
RTVSPropertyOp51
 70
     0
102
RTVSPropertyOp52
 70
     0
102
RTVSPropertyOp53
 70
     1
102
RTVSPropertyOp54
 70
     1
102
RTVSPropertyOp55
 70
     1
102
RTVSPropertyOp56
 70
     1
102
RTVSPropertyOp57
 70
     1
102
RTVSPropertyOp58
 70
     1
102
RTVSPropertyOp59
 70
     1
102
RTVSPropertyOp60
 70
     1
102
RTVSPropertyOp61
 70
     1
102
RTVSPropertyOp62
 70
     1
  0
XRECORD
  5
2A25
102
{ACAD_REACTORS
330
2A24
102
}
330
2A24
100
AcDbXrecord
280
     1
102
RTVSPost2010Prop28
280
     0
102
RTVSPost2010PropOp28
 70
     1
102
RTVSPost2010Prop29
280
     1
102
RTVSPost2010PropOp29
 70
     1
102
RTVSPost2010Prop30
280
     1
102
RTVSPost2010PropOp30
 70
     1
102
RTVSPost2010Prop31
280
     0
102
RTVSPost2010PropOp31
 70
     1
102
RTVSPost2010Prop32
280
     0
102
RTVSPost2010PropOp32
 70
     1
102
RTVSPost2010Prop33
280
     0
102
RTVSPost2010PropOp33
 70
     1
102
RTVSPost2010Prop34
280
     0
102
RTVSPost2010PropOp34
 70
     1
102
RTVSPost2010Prop35
280
     0
102
RTVSPost2010PropOp35
 70
     1
102
RTVSPost2010Prop36
280
     0
102
RTVSPost2010PropOp36
 70
     1
102
RTVSPost2010Prop37
 90
       50
102
RTVSPost2010PropOp37
 70
     1
102
RTVSPost2010Prop38
140
0.0
102
RTVSPost2010PropOp38
 70
     1
102
RTVSPost2010Prop39
140
1.0
102
RTVSPost2010PropOp39
 70
     1
102
RTVSPost2010Prop40
 90
        0
102
RTVSPost2010PropOp40
 70
     1
102
RTVSPost2010Prop41ColorIndex
 90
       18
102
RTVSPost2010Prop41ColorRGB
 90
        0
102
RTVSPost2010PropOp41
 70
     1
102
RTVSPost2010Prop42
 90
       50
102
RTVSPost2010PropOp42
 70
     1
102
RTVSPost2010Prop43
 90
        3
102
RTVSPost2010PropOp43
 70
     1
102
RTVSPost2010Prop44ColorIndex
 90
        5
102
RTVSPost2010Prop44ColorRGB
 90
      255
102
RTVSPost2010PropOp44
 70
     1
102
RTVSPost2010Prop45
280
     0
102
RTVSPost2010PropOp45
 70
     1
102
RTVSPost2010Prop46
 90
       50
102
RTVSPost2010PropOp46
 70
     1
102
RTVSPost2010Prop47
 90
       50
102
RTVSPost2010PropOp47
 70
     1
102
RTVSPost2010Prop48
 90
       50
102
RTVSPost2010PropOp48
 70
     1
102
RTVSPost2010Prop49
280
     0
102
RTVSPost2010PropOp49
 70
     1
102
RTVSPost2010Prop50
 90
       50
102
RTVSPost2010PropOp50
 70
     1
102
RTVSPost2010Prop51ColorIndex
 90
      256
102
RTVSPost2010Prop51ColorRGB
 90
-16777216
102
RTVSPost2010PropOp51
 70
     0
102
RTVSPost2010Prop52
140
1.0
102
RTVSPost2010PropOp52
 70
     0
102
RTVSPost2010Prop53
 90
        2
102
RTVSPost2010PropOp53
 70
     1
102
RTVSPost2010Prop54
  1
strokes_ogs.tif
102
RTVSPost2010PropOp54
 70
     1
102
RTVSPost2010Prop55
280
     0
102
RTVSPost2010PropOp55
 70
     1
102
RTVSPost2010Prop56
140
1.0
102
RTVSPost2010PropOp56
 70
     1
102
RTVSPost2010Prop57
140
1.0
102
RTVSPost2010PropOp57
 70
     1
102
RTVSPropertyOp0
 70
     1
102
RTVSPropertyOp1
 70
     1
102
RTVSPropertyOp2
 70
     1
102
RTVSPropertyOp3
 70
     1
102
RTVSPropertyOp4
 70
     1
102
RTVSPropertyOp5
 70
     1
102
RTVSPropertyOp6
 70
     1
102
RTVSPropertyOp7
 70
     1
102
RTVSPropertyOp8
 70
     1
102
RTVSPropertyOp9
 70
     1
102
RTVSPropertyOp10
 70
     1
102
RTVSPropertyOp11
 70
     1
102
RTVSPropertyOp12
 70
     1
102
RTVSPropertyOp13
 70
     1
102
RTVSPropertyOp14
 70
     1
102
RTVSPropertyOp15
 70
     1
102
RTVSPropertyOp16
 70
     1
102
RTVSPropertyOp17
 70
     1
102
RTVSPropertyOp18
 70
     1
102
RTVSPropertyOp19
 70
     1
102
RTVSPropertyOp20
 70
     1
102
RTVSPropertyOp21
 70
     1
102
RTVSPropertyOp22
 70
     1
102
RTVSPropertyOp23
 70
     1
102
RTVSPropertyOp24
 70
     1
102
RTVSPropertyOp25
 70
     1
102
RTVSPropertyOp26
 70
     1
102
RTVSPropertyOp27
 70
     1
102
RTVSPropertyOp28
 70
     1
102
RTVSPropertyOp29
 70
     1
102
RTVSPropertyOp30
 70
     1
102
RTVSPropertyOp31
 70
     1
102
RTVSPropertyOp32
 70
     1
102
RTVSPropertyOp33
 70
     1
102
RTVSPropertyOp34
 70
     1
102
RTVSPropertyOp35
 70
     1
102
RTVSPropertyOp36
 70
     1
102
RTVSPropertyOp37
 70
     1
102
RTVSPropertyOp38
 70
     1
102
RTVSPropertyOp39
 70
     1
102
RTVSPropertyOp40
 70
     1
102
RTVSPropertyOp41
 70
     1
102
RTVSPropertyOp42
 70
     1
102
RTVSPropertyOp43
 70
     1
102
RTVSPropertyOp44
 70
     1
102
RTVSPropertyOp45
 70
     1
102
RTVSPropertyOp46
 70
     1
102
RTVSPropertyOp47
 70
     1
102
RTVSPropertyOp48
 70
     1
102
RTVSPropertyOp49
 70
     1
102
RTVSPropertyOp50
 70
     1
102
RTVSPropertyOp51
 70
     0
102
RTVSPropertyOp52
 70
     0
102
RTVSPropertyOp53
 70
     1
102
RTVSPropertyOp54
 70
     1
102
RTVSPropertyOp55
 70
     1
102
RTVSPropertyOp56
 70
     1
102
RTVSPropertyOp57
 70
     1
102
RTVSPropertyOp58
 70
     1
102
RTVSPropertyOp59
 70
     1
102
RTVSPropertyOp60
 70
     1
102
RTVSPropertyOp61
 70
     1
102
RTVSPropertyOp62
 70
     1
  0
XRECORD
  5
2A1F
102
{ACAD_REACTORS
330
2A1E
102
}
330
2A1E
100
AcDbXrecord
280
     1
102
RTVSPost2010Prop28
280
     0
102
RTVSPost2010PropOp28
 70
     1
102
RTVSPost2010Prop29
280
     1
102
RTVSPost2010PropOp29
 70
     1
102
RTVSPost2010Prop30
280
     1
102
RTVSPost2010PropOp30
 70
     1
102
RTVSPost2010Prop31
280
     0
102
RTVSPost2010PropOp31
 70
     1
102
RTVSPost2010Prop32
280
     0
102
RTVSPost2010PropOp32
 70
     1
102
RTVSPost2010Prop33
280
     0
102
RTVSPost2010PropOp33
 70
     1
102
RTVSPost2010Prop34
280
     0
102
RTVSPost2010PropOp34
 70
     1
102
RTVSPost2010Prop35
280
     0
102
RTVSPost2010PropOp35
 70
     1
102
RTVSPost2010Prop36
280
     0
102
RTVSPost2010PropOp36
 70
     1
102
RTVSPost2010Prop37
 90
       50
102
RTVSPost2010PropOp37
 70
     1
102
RTVSPost2010Prop38
140
0.0
102
RTVSPost2010PropOp38
 70
     1
102
RTVSPost2010Prop39
140
1.0
102
RTVSPost2010PropOp39
 70
     1
102
RTVSPost2010Prop40
 90
        0
102
RTVSPost2010PropOp40
 70
     1
102
RTVSPost2010Prop41ColorIndex
 90
       18
102
RTVSPost2010Prop41ColorRGB
 90
        0
102
RTVSPost2010PropOp41
 70
     1
102
RTVSPost2010Prop42
 90
       50
102
RTVSPost2010PropOp42
 70
     1
102
RTVSPost2010Prop43
 90
        3
102
RTVSPost2010PropOp43
 70
     1
102
RTVSPost2010Prop44ColorIndex
 90
        5
102
RTVSPost2010Prop44ColorRGB
 90
      255
102
RTVSPost2010PropOp44
 70
     1
102
RTVSPost2010Prop45
280
     0
102
RTVSPost2010PropOp45
 70
     1
102
RTVSPost2010Prop46
 90
       50
102
RTVSPost2010PropOp46
 70
     1
102
RTVSPost2010Prop47
 90
       50
102
RTVSPost2010PropOp47
 70
     1
102
RTVSPost2010Prop48
 90
       50
102
RTVSPost2010PropOp48
 70
     1
102
RTVSPost2010Prop49
280
     0
102
RTVSPost2010PropOp49
 70
     1
102
RTVSPost2010Prop50
 90
       50
102
RTVSPost2010PropOp50
 70
     1
102
RTVSPost2010Prop51ColorIndex
 90
      256
102
RTVSPost2010Prop51ColorRGB
 90
-16777216
102
RTVSPost2010PropOp51
 70
     0
102
RTVSPost2010Prop52
140
1.0
102
RTVSPost2010PropOp52
 70
     0
102
RTVSPost2010Prop53
 90
        2
102
RTVSPost2010PropOp53
 70
     1
102
RTVSPost2010Prop54
  1
strokes_ogs.tif
102
RTVSPost2010PropOp54
 70
     1
102
RTVSPost2010Prop55
280
     0
102
RTVSPost2010PropOp55
 70
     1
102
RTVSPost2010Prop56
140
1.0
102
RTVSPost2010PropOp56
 70
     1
102
RTVSPost2010Prop57
140
1.0
102
RTVSPost2010PropOp57
 70
     1
102
RTVSPropertyOp0
 70
     1
102
RTVSPropertyOp1
 70
     1
102
RTVSPropertyOp2
 70
     1
102
RTVSPropertyOp3
 70
     1
102
RTVSPropertyOp4
 70
     1
102
RTVSPropertyOp5
 70
     1
102
RTVSPropertyOp6
 70
     1
102
RTVSPropertyOp7
 70
     1
102
RTVSPropertyOp8
 70
     1
102
RTVSPropertyOp9
 70
     1
102
RTVSPropertyOp10
 70
     1
102
RTVSPropertyOp11
 70
     1
102
RTVSPropertyOp12
 70
     1
102
RTVSPropertyOp13
 70
     1
102
RTVSPropertyOp14
 70
     1
102
RTVSPropertyOp15
 70
     1
102
RTVSPropertyOp16
 70
     1
102
RTVSPropertyOp17
 70
     1
102
RTVSPropertyOp18
 70
     1
102
RTVSPropertyOp19
 70
     1
102
RTVSPropertyOp20
 70
     1
102
RTVSPropertyOp21
 70
     1
102
RTVSPropertyOp22
 70
     1
102
RTVSPropertyOp23
 70
     1
102
RTVSPropertyOp24
 70
     1
102
RTVSPropertyOp25
 70
     1
102
RTVSPropertyOp26
 70
     1
102
RTVSPropertyOp27
 70
     1
102
RTVSPropertyOp28
 70
     1
102
RTVSPropertyOp29
 70
     1
102
RTVSPropertyOp30
 70
     1
102
RTVSPropertyOp31
 70
     1
102
RTVSPropertyOp32
 70
     1
102
RTVSPropertyOp33
 70
     1
102
RTVSPropertyOp34
 70
     1
102
RTVSPropertyOp35
 70
     1
102
RTVSPropertyOp36
 70
     1
102
RTVSPropertyOp37
 70
     1
102
RTVSPropertyOp38
 70
     1
102
RTVSPropertyOp39
 70
     1
102
RTVSPropertyOp40
 70
     1
102
RTVSPropertyOp41
 70
     1
102
RTVSPropertyOp42
 70
     1
102
RTVSPropertyOp43
 70
     1
102
RTVSPropertyOp44
 70
     1
102
RTVSPropertyOp45
 70
     1
102
RTVSPropertyOp46
 70
     1
102
RTVSPropertyOp47
 70
     1
102
RTVSPropertyOp48
 70
     1
102
RTVSPropertyOp49
 70
     1
102
RTVSPropertyOp50
 70
     1
102
RTVSPropertyOp51
 70
     0
102
RTVSPropertyOp52
 70
     0
102
RTVSPropertyOp53
 70
     1
102
RTVSPropertyOp54
 70
     1
102
RTVSPropertyOp55
 70
     1
102
RTVSPropertyOp56
 70
     1
102
RTVSPropertyOp57
 70
     1
102
RTVSPropertyOp58
 70
     1
102
RTVSPropertyOp59
 70
     1
102
RTVSPropertyOp60
 70
     1
102
RTVSPropertyOp61
 70
     1
102
RTVSPropertyOp62
 70
     1
  0
XRECORD
  5
2A21
102
{ACAD_REACTORS
330
2A20
102
}
330
2A20
100
AcDbXrecord
280
     1
102
RTVSPost2010Prop28
280
     0
102
RTVSPost2010PropOp28
 70
     1
102
RTVSPost2010Prop29
280
     1
102
RTVSPost2010PropOp29
 70
     1
102
RTVSPost2010Prop30
280
     1
102
RTVSPost2010PropOp30
 70
     1
102
RTVSPost2010Prop31
280
     0
102
RTVSPost2010PropOp31
 70
     1
102
RTVSPost2010Prop32
280
     0
102
RTVSPost2010PropOp32
 70
     1
102
RTVSPost2010Prop33
280
     0
102
RTVSPost2010PropOp33
 70
     1
102
RTVSPost2010Prop34
280
     0
102
RTVSPost2010PropOp34
 70
     1
102
RTVSPost2010Prop35
280
     0
102
RTVSPost2010PropOp35
 70
     1
102
RTVSPost2010Prop36
280
     0
102
RTVSPost2010PropOp36
 70
     1
102
RTVSPost2010Prop37
 90
       50
102
RTVSPost2010PropOp37
 70
     1
102
RTVSPost2010Prop38
140
0.0
102
RTVSPost2010PropOp38
 70
     1
102
RTVSPost2010Prop39
140
1.0
102
RTVSPost2010PropOp39
 70
     1
102
RTVSPost2010Prop40
 90
        0
102
RTVSPost2010PropOp40
 70
     1
102
RTVSPost2010Prop41ColorIndex
 90
       18
102
RTVSPost2010Prop41ColorRGB
 90
        0
102
RTVSPost2010PropOp41
 70
     1
102
RTVSPost2010Prop42
 90
       50
102
RTVSPost2010PropOp42
 70
     1
102
RTVSPost2010Prop43
 90
        3
102
RTVSPost2010PropOp43
 70
     1
102
RTVSPost2010Prop44ColorIndex
 90
        5
102
RTVSPost2010Prop44ColorRGB
 90
      255
102
RTVSPost2010PropOp44
 70
     1
102
RTVSPost2010Prop45
280
     0
102
RTVSPost2010PropOp45
 70
     1
102
RTVSPost2010Prop46
 90
       50
102
RTVSPost2010PropOp46
 70
     1
102
RTVSPost2010Prop47
 90
       50
102
RTVSPost2010PropOp47
 70
     1
102
RTVSPost2010Prop48
 90
       50
102
RTVSPost2010PropOp48
 70
     1
102
RTVSPost2010Prop49
280
     0
102
RTVSPost2010PropOp49
 70
     1
102
RTVSPost2010Prop50
 90
       50
102
RTVSPost2010PropOp50
 70
     1
102
RTVSPost2010Prop51ColorIndex
 90
      256
102
RTVSPost2010Prop51ColorRGB
 90
-16777216
102
RTVSPost2010PropOp51
 70
     0
102
RTVSPost2010Prop52
140
1.0
102
RTVSPost2010PropOp52
 70
     0
102
RTVSPost2010Prop53
 90
        2
102
RTVSPost2010PropOp53
 70
     1
102
RTVSPost2010Prop54
  1
strokes_ogs.tif
102
RTVSPost2010PropOp54
 70
     1
102
RTVSPost2010Prop55
280
     0
102
RTVSPost2010PropOp55
 70
     1
102
RTVSPost2010Prop56
140
1.0
102
RTVSPost2010PropOp56
 70
     1
102
RTVSPost2010Prop57
140
1.0
102
RTVSPost2010PropOp57
 70
     1
102
RTVSPropertyOp0
 70
     1
102
RTVSPropertyOp1
 70
     1
102
RTVSPropertyOp2
 70
     1
102
RTVSPropertyOp3
 70
     1
102
RTVSPropertyOp4
 70
     1
102
RTVSPropertyOp5
 70
     1
102
RTVSPropertyOp6
 70
     1
102
RTVSPropertyOp7
 70
     1
102
RTVSPropertyOp8
 70
     1
102
RTVSPropertyOp9
 70
     1
102
RTVSPropertyOp10
 70
     1
102
RTVSPropertyOp11
 70
     1
102
RTVSPropertyOp12
 70
     1
102
RTVSPropertyOp13
 70
     1
102
RTVSPropertyOp14
 70
     1
102
RTVSPropertyOp15
 70
     1
102
RTVSPropertyOp16
 70
     1
102
RTVSPropertyOp17
 70
     1
102
RTVSPropertyOp18
 70
     1
102
RTVSPropertyOp19
 70
     1
102
RTVSPropertyOp20
 70
     1
102
RTVSPropertyOp21
 70
     1
102
RTVSPropertyOp22
 70
     1
102
RTVSPropertyOp23
 70
     1
102
RTVSPropertyOp24
 70
     1
102
RTVSPropertyOp25
 70
     1
102
RTVSPropertyOp26
 70
     1
102
RTVSPropertyOp27
 70
     1
102
RTVSPropertyOp28
 70
     1
102
RTVSPropertyOp29
 70
     1
102
RTVSPropertyOp30
 70
     1
102
RTVSPropertyOp31
 70
     1
102
RTVSPropertyOp32
 70
     1
102
RTVSPropertyOp33
 70
     1
102
RTVSPropertyOp34
 70
     1
102
RTVSPropertyOp35
 70
     1
102
RTVSPropertyOp36
 70
     1
102
RTVSPropertyOp37
 70
     1
102
RTVSPropertyOp38
 70
     1
102
RTVSPropertyOp39
 70
     1
102
RTVSPropertyOp40
 70
     1
102
RTVSPropertyOp41
 70
     1
102
RTVSPropertyOp42
 70
     1
102
RTVSPropertyOp43
 70
     1
102
RTVSPropertyOp44
 70
     1
102
RTVSPropertyOp45
 70
     1
102
RTVSPropertyOp46
 70
     1
102
RTVSPropertyOp47
 70
     1
102
RTVSPropertyOp48
 70
     1
102
RTVSPropertyOp49
 70
     1
102
RTVSPropertyOp50
 70
     1
102
RTVSPropertyOp51
 70
     0
102
RTVSPropertyOp52
 70
     0
102
RTVSPropertyOp53
 70
     1
102
RTVSPropertyOp54
 70
     1
102
RTVSPropertyOp55
 70
     1
102
RTVSPropertyOp56
 70
     1
102
RTVSPropertyOp57
 70
     1
102
RTVSPropertyOp58
 70
     1
102
RTVSPropertyOp59
 70
     1
102
RTVSPropertyOp60
 70
     1
102
RTVSPropertyOp61
 70
     1
102
RTVSPropertyOp62
 70
     1
  0
XRECORD
  5
2A0F
102
{ACAD_REACTORS
330
2A0E
102
}
330
2A0E
100
AcDbXrecord
280
     1
102
RTVSPost2010Prop28
280
     0
102
RTVSPost2010PropOp28
 70
     1
102
RTVSPost2010Prop29
280
     1
102
RTVSPost2010PropOp29
 70
     1
102
RTVSPost2010Prop30
280
     1
102
RTVSPost2010PropOp30
 70
     1
102
RTVSPost2010Prop31
280
     0
102
RTVSPost2010PropOp31
 70
     1
102
RTVSPost2010Prop32
280
     0
102
RTVSPost2010PropOp32
 70
     1
102
RTVSPost2010Prop33
280
     0
102
RTVSPost2010PropOp33
 70
     1
102
RTVSPost2010Prop34
280
     0
102
RTVSPost2010PropOp34
 70
     1
102
RTVSPost2010Prop35
280
     0
102
RTVSPost2010PropOp35
 70
     1
102
RTVSPost2010Prop36
280
     0
102
RTVSPost2010PropOp36
 70
     1
102
RTVSPost2010Prop37
 90
       50
102
RTVSPost2010PropOp37
 70
     1
102
RTVSPost2010Prop38
140
0.0
102
RTVSPost2010PropOp38
 70
     1
102
RTVSPost2010Prop39
140
1.0
102
RTVSPost2010PropOp39
 70
     1
102
RTVSPost2010Prop40
 90
        0
102
RTVSPost2010PropOp40
 70
     1
102
RTVSPost2010Prop41ColorIndex
 90
       18
102
RTVSPost2010Prop41ColorRGB
 90
        0
102
RTVSPost2010PropOp41
 70
     1
102
RTVSPost2010Prop42
 90
       50
102
RTVSPost2010PropOp42
 70
     1
102
RTVSPost2010Prop43
 90
        3
102
RTVSPost2010PropOp43
 70
     1
102
RTVSPost2010Prop44ColorIndex
 90
        5
102
RTVSPost2010Prop44ColorRGB
 90
      255
102
RTVSPost2010PropOp44
 70
     1
102
RTVSPost2010Prop45
280
     0
102
RTVSPost2010PropOp45
 70
     1
102
RTVSPost2010Prop46
 90
       50
102
RTVSPost2010PropOp46
 70
     1
102
RTVSPost2010Prop47
 90
       50
102
RTVSPost2010PropOp47
 70
     1
102
RTVSPost2010Prop48
 90
       50
102
RTVSPost2010PropOp48
 70
     1
102
RTVSPost2010Prop49
280
     0
102
RTVSPost2010PropOp49
 70
     1
102
RTVSPost2010Prop50
 90
       50
102
RTVSPost2010PropOp50
 70
     1
102
RTVSPost2010Prop51ColorIndex
 90
      256
102
RTVSPost2010Prop51ColorRGB
 90
-16777216
102
RTVSPost2010PropOp51
 70
     0
102
RTVSPost2010Prop52
140
1.0
102
RTVSPost2010PropOp52
 70
     0
102
RTVSPost2010Prop53
 90
        2
102
RTVSPost2010PropOp53
 70
     1
102
RTVSPost2010Prop54
  1
strokes_ogs.tif
102
RTVSPost2010PropOp54
 70
     1
102
RTVSPost2010Prop55
280
     0
102
RTVSPost2010PropOp55
 70
     1
102
RTVSPost2010Prop56
140
1.0
102
RTVSPost2010PropOp56
 70
     1
102
RTVSPost2010Prop57
140
1.0
102
RTVSPost2010PropOp57
 70
     1
102
RTVSPropertyOp0
 70
     1
102
RTVSPropertyOp1
 70
     1
102
RTVSPropertyOp2
 70
     1
102
RTVSPropertyOp3
 70
     1
102
RTVSPropertyOp4
 70
     1
102
RTVSPropertyOp5
 70
     1
102
RTVSPropertyOp6
 70
     1
102
RTVSPropertyOp7
 70
     1
102
RTVSPropertyOp8
 70
     1
102
RTVSPropertyOp9
 70
     1
102
RTVSPropertyOp10
 70
     1
102
RTVSPropertyOp11
 70
     1
102
RTVSPropertyOp12
 70
     1
102
RTVSPropertyOp13
 70
     1
102
RTVSPropertyOp14
 70
     1
102
RTVSPropertyOp15
 70
     1
102
RTVSPropertyOp16
 70
     1
102
RTVSPropertyOp17
 70
     1
102
RTVSPropertyOp18
 70
     1
102
RTVSPropertyOp19
 70
     1
102
RTVSPropertyOp20
 70
     1
102
RTVSPropertyOp21
 70
     1
102
RTVSPropertyOp22
 70
     1
102
RTVSPropertyOp23
 70
     1
102
RTVSPropertyOp24
 70
     1
102
RTVSPropertyOp25
 70
     1
102
RTVSPropertyOp26
 70
     1
102
RTVSPropertyOp27
 70
     1
102
RTVSPropertyOp28
 70
     1
102
RTVSPropertyOp29
 70
     1
102
RTVSPropertyOp30
 70
     1
102
RTVSPropertyOp31
 70
     1
102
RTVSPropertyOp32
 70
     1
102
RTVSPropertyOp33
 70
     1
102
RTVSPropertyOp34
 70
     1
102
RTVSPropertyOp35
 70
     1
102
RTVSPropertyOp36
 70
     1
102
RTVSPropertyOp37
 70
     1
102
RTVSPropertyOp38
 70
     1
102
RTVSPropertyOp39
 70
     1
102
RTVSPropertyOp40
 70
     1
102
RTVSPropertyOp41
 70
     1
102
RTVSPropertyOp42
 70
     1
102
RTVSPropertyOp43
 70
     1
102
RTVSPropertyOp44
 70
     1
102
RTVSPropertyOp45
 70
     1
102
RTVSPropertyOp46
 70
     1
102
RTVSPropertyOp47
 70
     1
102
RTVSPropertyOp48
 70
     1
102
RTVSPropertyOp49
 70
     1
102
RTVSPropertyOp50
 70
     1
102
RTVSPropertyOp51
 70
     0
102
RTVSPropertyOp52
 70
     0
102
RTVSPropertyOp53
 70
     1
102
RTVSPropertyOp54
 70
     1
102
RTVSPropertyOp55
 70
     1
102
RTVSPropertyOp56
 70
     1
102
RTVSPropertyOp57
 70
     1
102
RTVSPropertyOp58
 70
     1
102
RTVSPropertyOp59
 70
     1
102
RTVSPropertyOp60
 70
     1
102
RTVSPropertyOp61
 70
     1
102
RTVSPropertyOp62
 70
     1
  0
XRECORD
  5
2A03
102
{ACAD_REACTORS
330
2A02
102
}
330
2A02
100
AcDbXrecord
280
     1
102
RTVSPost2010Prop28
280
     0
102
RTVSPost2010PropOp28
 70
     1
102
RTVSPost2010Prop29
280
     1
102
RTVSPost2010PropOp29
 70
     1
102
RTVSPost2010Prop30
280
     1
102
RTVSPost2010PropOp30
 70
     1
102
RTVSPost2010Prop31
280
     0
102
RTVSPost2010PropOp31
 70
     1
102
RTVSPost2010Prop32
280
     0
102
RTVSPost2010PropOp32
 70
     1
102
RTVSPost2010Prop33
280
     0
102
RTVSPost2010PropOp33
 70
     1
102
RTVSPost2010Prop34
280
     0
102
RTVSPost2010PropOp34
 70
     1
102
RTVSPost2010Prop35
280
     0
102
RTVSPost2010PropOp35
 70
     1
102
RTVSPost2010Prop36
280
     0
102
RTVSPost2010PropOp36
 70
     1
102
RTVSPost2010Prop37
 90
       50
102
RTVSPost2010PropOp37
 70
     1
102
RTVSPost2010Prop38
140
0.0
102
RTVSPost2010PropOp38
 70
     1
102
RTVSPost2010Prop39
140
1.0
102
RTVSPost2010PropOp39
 70
     1
102
RTVSPost2010Prop40
 90
        0
102
RTVSPost2010PropOp40
 70
     1
102
RTVSPost2010Prop41ColorIndex
 90
       18
102
RTVSPost2010Prop41ColorRGB
 90
        0
102
RTVSPost2010PropOp41
 70
     1
102
RTVSPost2010Prop42
 90
       50
102
RTVSPost2010PropOp42
 70
     1
102
RTVSPost2010Prop43
 90
        3
102
RTVSPost2010PropOp43
 70
     1
102
RTVSPost2010Prop44ColorIndex
 90
        5
102
RTVSPost2010Prop44ColorRGB
 90
      255
102
RTVSPost2010PropOp44
 70
     1
102
RTVSPost2010Prop45
280
     0
102
RTVSPost2010PropOp45
 70
     1
102
RTVSPost2010Prop46
 90
       50
102
RTVSPost2010PropOp46
 70
     1
102
RTVSPost2010Prop47
 90
       50
102
RTVSPost2010PropOp47
 70
     1
102
RTVSPost2010Prop48
 90
       50
102
RTVSPost2010PropOp48
 70
     1
102
RTVSPost2010Prop49
280
     0
102
RTVSPost2010PropOp49
 70
     1
102
RTVSPost2010Prop50
 90
       50
102
RTVSPost2010PropOp50
 70
     1
102
RTVSPost2010Prop51ColorIndex
 90
      256
102
RTVSPost2010Prop51ColorRGB
 90
-16777216
102
RTVSPost2010PropOp51
 70
     0
102
RTVSPost2010Prop52
140
1.0
102
RTVSPost2010PropOp52
 70
     0
102
RTVSPost2010Prop53
 90
        2
102
RTVSPost2010PropOp53
 70
     1
102
RTVSPost2010Prop54
  1
strokes_ogs.tif
102
RTVSPost2010PropOp54
 70
     1
102
RTVSPost2010Prop55
280
     0
102
RTVSPost2010PropOp55
 70
     1
102
RTVSPost2010Prop56
140
1.0
102
RTVSPost2010PropOp56
 70
     1
102
RTVSPost2010Prop57
140
1.0
102
RTVSPost2010PropOp57
 70
     1
102
RTVSPropertyOp0
 70
     1
102
RTVSPropertyOp1
 70
     1
102
RTVSPropertyOp2
 70
     1
102
RTVSPropertyOp3
 70
     1
102
RTVSPropertyOp4
 70
     1
102
RTVSPropertyOp5
 70
     1
102
RTVSPropertyOp6
 70
     1
102
RTVSPropertyOp7
 70
     1
102
RTVSPropertyOp8
 70
     1
102
RTVSPropertyOp9
 70
     1
102
RTVSPropertyOp10
 70
     1
102
RTVSPropertyOp11
 70
     1
102
RTVSPropertyOp12
 70
     1
102
RTVSPropertyOp13
 70
     1
102
RTVSPropertyOp14
 70
     1
102
RTVSPropertyOp15
 70
     1
102
RTVSPropertyOp16
 70
     1
102
RTVSPropertyOp17
 70
     1
102
RTVSPropertyOp18
 70
     1
102
RTVSPropertyOp19
 70
     1
102
RTVSPropertyOp20
 70
     1
102
RTVSPropertyOp21
 70
     1
102
RTVSPropertyOp22
 70
     1
102
RTVSPropertyOp23
 70
     1
102
RTVSPropertyOp24
 70
     1
102
RTVSPropertyOp25
 70
     1
102
RTVSPropertyOp26
 70
     1
102
RTVSPropertyOp27
 70
     1
102
RTVSPropertyOp28
 70
     1
102
RTVSPropertyOp29
 70
     1
102
RTVSPropertyOp30
 70
     1
102
RTVSPropertyOp31
 70
     1
102
RTVSPropertyOp32
 70
     1
102
RTVSPropertyOp33
 70
     1
102
RTVSPropertyOp34
 70
     1
102
RTVSPropertyOp35
 70
     1
102
RTVSPropertyOp36
 70
     1
102
RTVSPropertyOp37
 70
     1
102
RTVSPropertyOp38
 70
     1
102
RTVSPropertyOp39
 70
     1
102
RTVSPropertyOp40
 70
     1
102
RTVSPropertyOp41
 70
     1
102
RTVSPropertyOp42
 70
     1
102
RTVSPropertyOp43
 70
     1
102
RTVSPropertyOp44
 70
     1
102
RTVSPropertyOp45
 70
     1
102
RTVSPropertyOp46
 70
     1
102
RTVSPropertyOp47
 70
     1
102
RTVSPropertyOp48
 70
     1
102
RTVSPropertyOp49
 70
     1
102
RTVSPropertyOp50
 70
     1
102
RTVSPropertyOp51
 70
     0
102
RTVSPropertyOp52
 70
     0
102
RTVSPropertyOp53
 70
     1
102
RTVSPropertyOp54
 70
     1
102
RTVSPropertyOp55
 70
     1
102
RTVSPropertyOp56
 70
     1
102
RTVSPropertyOp57
 70
     1
102
RTVSPropertyOp58
 70
     1
102
RTVSPropertyOp59
 70
     1
102
RTVSPropertyOp60
 70
     1
102
RTVSPropertyOp61
 70
     1
102
RTVSPropertyOp62
 70
     1
  0
XRECORD
  5
2A23
102
{ACAD_REACTORS
330
2A22
102
}
330
2A22
100
AcDbXrecord
280
     1
102
RTVSPost2010Prop28
280
     0
102
RTVSPost2010PropOp28
 70
     1
102
RTVSPost2010Prop29
280
     1
102
RTVSPost2010PropOp29
 70
     1
102
RTVSPost2010Prop30
280
     1
102
RTVSPost2010PropOp30
 70
     1
102
RTVSPost2010Prop31
280
     0
102
RTVSPost2010PropOp31
 70
     1
102
RTVSPost2010Prop32
280
     0
102
RTVSPost2010PropOp32
 70
     1
102
RTVSPost2010Prop33
280
     0
102
RTVSPost2010PropOp33
 70
     1
102
RTVSPost2010Prop34
280
     0
102
RTVSPost2010PropOp34
 70
     1
102
RTVSPost2010Prop35
280
     0
102
RTVSPost2010PropOp35
 70
     1
102
RTVSPost2010Prop36
280
     0
102
RTVSPost2010PropOp36
 70
     1
102
RTVSPost2010Prop37
 90
       50
102
RTVSPost2010PropOp37
 70
     1
102
RTVSPost2010Prop38
140
0.0
102
RTVSPost2010PropOp38
 70
     1
102
RTVSPost2010Prop39
140
1.0
102
RTVSPost2010PropOp39
 70
     1
102
RTVSPost2010Prop40
 90
        0
102
RTVSPost2010PropOp40
 70
     1
102
RTVSPost2010Prop41ColorIndex
 90
       18
102
RTVSPost2010Prop41ColorRGB
 90
        0
102
RTVSPost2010PropOp41
 70
     1
102
RTVSPost2010Prop42
 90
       50
102
RTVSPost2010PropOp42
 70
     1
102
RTVSPost2010Prop43
 90
        3
102
RTVSPost2010PropOp43
 70
     1
102
RTVSPost2010Prop44ColorIndex
 90
        5
102
RTVSPost2010Prop44ColorRGB
 90
      255
102
RTVSPost2010PropOp44
 70
     1
102
RTVSPost2010Prop45
280
     0
102
RTVSPost2010PropOp45
 70
     1
102
RTVSPost2010Prop46
 90
       50
102
RTVSPost2010PropOp46
 70
     1
102
RTVSPost2010Prop47
 90
       50
102
RTVSPost2010PropOp47
 70
     1
102
RTVSPost2010Prop48
 90
       50
102
RTVSPost2010PropOp48
 70
     1
102
RTVSPost2010Prop49
280
     0
102
RTVSPost2010PropOp49
 70
     1
102
RTVSPost2010Prop50
 90
       50
102
RTVSPost2010PropOp50
 70
     1
102
RTVSPost2010Prop51ColorIndex
 90
      256
102
RTVSPost2010Prop51ColorRGB
 90
-16777216
102
RTVSPost2010PropOp51
 70
     0
102
RTVSPost2010Prop52
140
1.0
102
RTVSPost2010PropOp52
 70
     0
102
RTVSPost2010Prop53
 90
        2
102
RTVSPost2010PropOp53
 70
     1
102
RTVSPost2010Prop54
  1
strokes_ogs.tif
102
RTVSPost2010PropOp54
 70
     1
102
RTVSPost2010Prop55
280
     0
102
RTVSPost2010PropOp55
 70
     1
102
RTVSPost2010Prop56
140
1.0
102
RTVSPost2010PropOp56
 70
     1
102
RTVSPost2010Prop57
140
1.0
102
RTVSPost2010PropOp57
 70
     1
102
RTVSPropertyOp0
 70
     1
102
RTVSPropertyOp1
 70
     1
102
RTVSPropertyOp2
 70
     1
102
RTVSPropertyOp3
 70
     1
102
RTVSPropertyOp4
 70
     1
102
RTVSPropertyOp5
 70
     1
102
RTVSPropertyOp6
 70
     1
102
RTVSPropertyOp7
 70
     1
102
RTVSPropertyOp8
 70
     1
102
RTVSPropertyOp9
 70
     1
102
RTVSPropertyOp10
 70
     1
102
RTVSPropertyOp11
 70
     1
102
RTVSPropertyOp12
 70
     1
102
RTVSPropertyOp13
 70
     1
102
RTVSPropertyOp14
 70
     1
102
RTVSPropertyOp15
 70
     1
102
RTVSPropertyOp16
 70
     1
102
RTVSPropertyOp17
 70
     1
102
RTVSPropertyOp18
 70
     1
102
RTVSPropertyOp19
 70
     1
102
RTVSPropertyOp20
 70
     1
102
RTVSPropertyOp21
 70
     1
102
RTVSPropertyOp22
 70
     1
102
RTVSPropertyOp23
 70
     1
102
RTVSPropertyOp24
 70
     1
102
RTVSPropertyOp25
 70
     1
102
RTVSPropertyOp26
 70
     1
102
RTVSPropertyOp27
 70
     1
102
RTVSPropertyOp28
 70
     1
102
RTVSPropertyOp29
 70
     1
102
RTVSPropertyOp30
 70
     1
102
RTVSPropertyOp31
 70
     1
102
RTVSPropertyOp32
 70
     1
102
RTVSPropertyOp33
 70
     1
102
RTVSPropertyOp34
 70
     1
102
RTVSPropertyOp35
 70
     1
102
RTVSPropertyOp36
 70
     1
102
RTVSPropertyOp37
 70
     1
102
RTVSPropertyOp38
 70
     1
102
RTVSPropertyOp39
 70
     1
102
RTVSPropertyOp40
 70
     1
102
RTVSPropertyOp41
 70
     1
102
RTVSPropertyOp42
 70
     1
102
RTVSPropertyOp43
 70
     1
102
RTVSPropertyOp44
 70
     1
102
RTVSPropertyOp45
 70
     1
102
RTVSPropertyOp46
 70
     1
102
RTVSPropertyOp47
 70
     1
102
RTVSPropertyOp48
 70
     1
102
RTVSPropertyOp49
 70
     1
102
RTVSPropertyOp50
 70
     1
102
RTVSPropertyOp51
 70
     0
102
RTVSPropertyOp52
 70
     0
102
RTVSPropertyOp53
 70
     1
102
RTVSPropertyOp54
 70
     1
102
RTVSPropertyOp55
 70
     1
102
RTVSPropertyOp56
 70
     1
102
RTVSPropertyOp57
 70
     1
102
RTVSPropertyOp58
 70
     1
102
RTVSPropertyOp59
 70
     1
102
RTVSPropertyOp60
 70
     1
102
RTVSPropertyOp61
 70
     1
102
RTVSPropertyOp62
 70
     1
  0
ENDSEC
  0
EOF
