  0
SECTION
  2
HEADER
  9
$ACADVER
  1
AC1015
  9
$ACADMAINTVER
 70
    18
  9
$DWGCODEPAGE
  3
ANSI_1252
  9
$INSBASE
 10
0.0
 20
0.0
 30
0.0
  9
$EXTMIN
 10
-165.4211417928118
 20
-176.3437495137841
 30
-0.0015258207003583
  9
$EXTMAX
 10
156.9680792849606
 20
128.469177741405
 30
0.0000000349246037
  9
$LIMMIN
 10
0.0
 20
0.0
  9
$LIMMAX
 10
420.0
 20
297.0
  9
$ORTHOMODE
 70
     0
  9
$REGENMODE
 70
     1
  9
$FILLMODE
 70
     1
  9
$QTEXTMODE
 70
     0
  9
$MIRRTEXT
 70
     0
  9
$LTSCALE
 40
1.0
  9
$ATTMODE
 70
     1
  9
$TEXTSIZE
 40
2.5
  9
$TRACEWID
 40
1.0
  9
$TEXTSTYLE
  7
Standard
  9
$CLAYER
  8
0
  9
$CELTYPE
  6
ByLayer
  9
$CECOLOR
 62
   256
  9
$CELTSCALE
 40
1.0
  9
$DISPSILH
 70
     0
  9
$DIMSCALE
 40
1.0
  9
$DIMASZ
 40
2.5
  9
$DIMEXO
 40
0.625
  9
$DIMDLI
 40
3.75
  9
$DIMRND
 40
0.0
  9
$DIMDLE
 40
0.0
  9
$DIMEXE
 40
1.25
  9
$DIMTP
 40
0.0
  9
$DIMTM
 40
0.0
  9
$DIMTXT
 40
2.5
  9
$DIMCEN
 40
2.5
  9
$DIMTSZ
 40
0.0
  9
$DIMTOL
 70
     0
  9
$DIMLIM
 70
     0
  9
$DIMTIH
 70
     0
  9
$DIMTOH
 70
     0
  9
$DIMSE1
 70
     0
  9
$DIMSE2
 70
     0
  9
$DIMTAD
 70
     1
  9
$DIMZIN
 70
     8
  9
$DIMBLK
  1

  9
$DIMASO
 70
     1
  9
$DIMSHO
 70
     1
  9
$DIMPOST
  1

  9
$DIMAPOST
  1

  9
$DIMALT
 70
     0
  9
$DIMALTD
 70
     3
  9
$DIMALTF
 40
0.03937007874016
  9
$DIMLFAC
 40
1.0
  9
$DIMTOFL
 70
     1
  9
$DIMTVP
 40
0.0
  9
$DIMTIX
 70
     0
  9
$DIMSOXD
 70
     0
  9
$DIMSAH
 70
     0
  9
$DIMBLK1
  1

  9
$DIMBLK2
  1

  9
$DIMSTYLE
  2
ISO-25
  9
$DIMCLRD
 70
     0
  9
$DIMCLRE
 70
     0
  9
$DIMCLRT
 70
     0
  9
$DIMTFAC
 40
1.0
  9
$DIMGAP
 40
0.625
  9
$DIMJUST
 70
     0
  9
$DIMSD1
 70
     0
  9
$DIMSD2
 70
     0
  9
$DIMTOLJ
 70
     0
  9
$DIMTZIN
 70
     8
  9
$DIMALTZ
 70
     0
  9
$DIMALTTZ
 70
     0
  9
$DIMUPT
 70
     0
  9
$DIMDEC
 70
     2
  9
$DIMTDEC
 70
     2
  9
$DIMALTU
 70
     2
  9
$DIMALTTD
 70
     3
  9
$DIMTXSTY
  7
Standard
  9
$DIMAUNIT
 70
     0
  9
$DIMADEC
 70
     0
  9
$DIMALTRND
 40
0.0
  9
$DIMAZIN
 70
     0
  9
$DIMDSEP
 70
    44
  9
$DIMATFIT
 70
     3
  9
$DIMFRAC
 70
     0
  9
$DIMLDRBLK
  1

  9
$DIMLUNIT
 70
     2
  9
$DIMLWD
 70
    -2
  9
$DIMLWE
 70
    -2
  9
$DIMTMOVE
 70
     0
  9
$LUNITS
 70
     2
  9
$LUPREC
 70
     4
  9
$SKETCHINC
 40
1.0
  9
$FILLETRAD
 40
0.0
  9
$AUNITS
 70
     0
  9
$AUPREC
 70
     0
  9
$MENU
  1
.
  9
$ELEVATION
 40
0.0
  9
$PELEVATION
 40
0.0
  9
$THICKNESS
 40
0.0
  9
$LIMCHECK
 70
     0
  9
$CHAMFERA
 40
0.0
  9
$CHAMFERB
 40
0.0
  9
$CHAMFERC
 40
0.0
  9
$CHAMFERD
 40
0.0
  9
$SKPOLY
 70
     0
  9
$TDCREATE
 40
2460312.625706019
  9
$TDUCREATE
 40
2460312.334039352
  9
$TDUPDATE
 40
2460312.648472222
  9
$TDUUPDATE
 40
2460312.356805556
  9
$TDINDWG
 40
0.0082986111
  9
$TDUSRTIMER
 40
0.0082986111
  9
$USRTIMER
 70
     1
  9
$ANGBASE
 50
0.0
  9
$ANGDIR
 70
     0
  9
$PDMODE
 70
     0
  9
$PDSIZE
 40
0.0
  9
$PLINEWID
 40
0.0
  9
$SPLFRAME
 70
     0
  9
$SPLINETYPE
 70
     6
  9
$SPLINESEGS
 70
     8
  9
$HANDSEED
  5
277F
  9
$SURFTAB1
 70
     6
  9
$SURFTAB2
 70
     6
  9
$SURFTYPE
 70
     6
  9
$SURFU
 70
     6
  9
$SURFV
 70
     6
  9
$UCSBASE
  2

  9
$UCSNAME
  2

  9
$UCSORG
 10
0.0
 20
0.0
 30
0.0
  9
$UCSXDIR
 10
1.0
 20
0.0
 30
0.0
  9
$UCSYDIR
 10
0.0
 20
1.0
 30
0.0
  9
$UCSORTHOREF
  2

  9
$UCSORTHOVIEW
 70
     0
  9
$UCSORGTOP
 10
0.0
 20
0.0
 30
0.0
  9
$UCSORGBOTTOM
 10
0.0
 20
0.0
 30
0.0
  9
$UCSORGLEFT
 10
0.0
 20
0.0
 30
0.0
  9
$UCSORGRIGHT
 10
0.0
 20
0.0
 30
0.0
  9
$UCSORGFRONT
 10
0.0
 20
0.0
 30
0.0
  9
$UCSORGBACK
 10
0.0
 20
0.0
 30
0.0
  9
$PUCSBASE
  2

  9
$PUCSNAME
  2

  9
$PUCSORG
 10
0.0
 20
0.0
 30
0.0
  9
$PUCSXDIR
 10
1.0
 20
0.0
 30
0.0
  9
$PUCSYDIR
 10
0.0
 20
1.0
 30
0.0
  9
$PUCSORTHOREF
  2

  9
$PUCSORTHOVIEW
 70
     0
  9
$PUCSORGTOP
 10
0.0
 20
0.0
 30
0.0
  9
$PUCSORGBOTTOM
 10
0.0
 20
0.0
 30
0.0
  9
$PUCSORGLEFT
 10
0.0
 20
0.0
 30
0.0
  9
$PUCSORGRIGHT
 10
0.0
 20
0.0
 30
0.0
  9
$PUCSORGFRONT
 10
0.0
 20
0.0
 30
0.0
  9
$PUCSORGBACK
 10
0.0
 20
0.0
 30
0.0
  9
$USERI1
 70
     0
  9
$USERI2
 70
     0
  9
$USERI3
 70
     0
  9
$USERI4
 70
     0
  9
$USERI5
 70
     0
  9
$USERR1
 40
0.0
  9
$USERR2
 40
0.0
  9
$USERR3
 40
0.0
  9
$USERR4
 40
0.0
  9
$USERR5
 40
0.0
  9
$WORLDVIEW
 70
     1
  9
$SHADEDGE
 70
     3
  9
$SHADEDIF
 70
    70
  9
$TILEMODE
 70
     1
  9
$MAXACTVP
 70
    48
  9
$PINSBASE
 10
0.0
 20
0.0
 30
0.0
  9
$PLIMCHECK
 70
     0
  9
$PEXTMIN
 10
0.0
 20
0.0
 30
0.0
  9
$PEXTMAX
 10
0.0
 20
0.0
 30
0.0
  9
$PLIMMIN
 10
0.0
 20
0.0
  9
$PLIMMAX
 10
12.0
 20
9.0
  9
$UNITMODE
 70
     0
  9
$VISRETAIN
 70
     1
  9
$PLINEGEN
 70
     0
  9
$PSLTSCALE
 70
     1
  9
$TREEDEPTH
 70
  3020
  9
$CMLSTYLE
  2
Standard
  9
$CMLJUST
 70
     0
  9
$CMLSCALE
 40
20.0
  9
$PROXYGRAPHICS
 70
     1
  9
$MEASUREMENT
 70
     1
  9
$CELWEIGHT
370
    -1
  9
$ENDCAPS
280
     0
  9
$JOINSTYLE
280
     0
  9
$LWDISPLAY
290
     0
  9
$INSUNITS
 70
     4
  9
$HYPERLINKBASE
  1

  9
$STYLESHEET
  1

  9
$XEDIT
290
     1
  9
$CEPSNTYPE
380
     0
  9
$PSTYLEMODE
290
     1
  9
$FINGERPRINTGUID
  2
{E22E2D47-196F-7340-A655-47C6E5B5DA73}
  9
$VERSIONGUID
  2
{ED59FF1D-A5C8-FB43-B635-82EF075AC7B0}
  9
$EXTNAMES
290
     1
  9
$PSVPSCALE
 40
0.0
  9
$OLESTARTUP
290
     0
  0
ENDSEC
  0
SECTION
  2
CLASSES
  0
CLASS
  1
ACDBDICTIONARYWDFLT
  2
AcDbDictionaryWithDefault
  3
ObjectDBX Classes
 90
        0
280
     0
281
     0
  0
CLASS
  1
ACDBPLACEHOLDER
  2
AcDbPlaceHolder
  3
ObjectDBX Classes
 90
        0
280
     0
281
     0
  0
CLASS
  1
LAYOUT
  2
AcDbLayout
  3
ObjectDBX Classes
 90
        0
280
     0
281
     0
  0
CLASS
  1
DICTIONARYVAR
  2
AcDbDictionaryVar
  3
ObjectDBX Classes
 90
        0
280
     0
281
     0
  0
CLASS
  1
TABLESTYLE
  2
AcDbTableStyle
  3
ObjectDBX Classes
 90
     4095
280
     0
281
     0
  0
CLASS
  1
MATERIAL
  2
AcDbMaterial
  3
ObjectDBX Classes
 90
     1153
280
     0
281
     0
  0
CLASS
  1
VISUALSTYLE
  2
AcDbVisualStyle
  3
ObjectDBX Classes
 90
     4095
280
     0
281
     0
  0
CLASS
  1
SCALE
  2
AcDbScale
  3
ObjectDBX Classes
 90
     1153
280
     0
281
     0
  0
CLASS
  1
MLEADERSTYLE
  2
AcDbMLeaderStyle
  3
ACDB_MLEADERSTYLE_CLASS
 90
     4095
280
     0
281
     0
  0
CLASS
  1
CELLSTYLEMAP
  2
AcDbCellStyleMap
  3
ObjectDBX Classes
 90
     1152
280
     0
281
     0
  0
CLASS
  1
EXACXREFPANELOBJECT
  2
ExAcXREFPanelObject
  3
EXAC_ESW
 90
    33793
280
     0
281
     0
  0
CLASS
  1
NPOCOLLECTION
  2
AcDbImpNonPersistentObjectsCollection
  3
ObjectDBX Classes
 90
    33921
280
     0
281
     0
  0
CLASS
  1
LAYER_INDEX
  2
AcDbLayerIndex
  3
ObjectDBX Classes
 90
    32768
280
     0
281
     0
  0
CLASS
  1
SPATIAL_INDEX
  2
AcDbSpatialIndex
  3
ObjectDBX Classes
 90
    32768
280
     0
281
     0
  0
CLASS
  1
IDBUFFER
  2
AcDbIdBuffer
  3
ObjectDBX Classes
 90
    32768
280
     0
281
     0
  0
CLASS
  1
ACDBSECTIONVIEWSTYLE
  2
AcDbSectionViewStyle
  3
ObjectDBX Classes
 90
     1025
280
     0
281
     0
  0
CLASS
  1
ACDBDETAILVIEWSTYLE
  2
AcDbDetailViewStyle
  3
ObjectDBX Classes
 90
     1025
280
     0
281
     0
  0
CLASS
  1
XRECORD
  2
AcDbXrecord
  3
ObjectDBX Classes
 90
        0
280
     0
281
     0
  0
ENDSEC
  0
SECTION
  2
TABLES
  0
TABLE
  2
VPORT
  5
8
102
{ACAD_XDICTIONARY
360
268D
102
}
330
0
100
AcDbSymbolTable
 70
     1
  0
VPORT
  5
EA
330
8
100
AcDbSymbolTableRecord
100
AcDbViewportTableRecord
  2
*Active
 70
     0
 10
0.0
 20
0.0
 11
1.0
 21
1.0
 12
-4.2265312539256
 22
-23.93728588618956
 13
0.0
 23
0.0
 14
10.0
 24
10.0
 15
10.0
 25
10.0
 16
0.0
 26
0.0
 36
1.0
 17
0.0
 27
0.0
 37
0.0
 40
348.2436059139972
 41
0.9846153846153846
 42
50.0
 43
0.0
 44
0.0
 50
0.0
 51
0.0
 71
     0
 72
  1000
 73
     1
 74
     3
 75
     0
 76
     1
 77
     0
 78
     0
281
     0
 65
     1
110
0.0
120
0.0
130
0.0
111
1.0
121
0.0
131
0.0
112
0.0
122
1.0
132
0.0
 79
     0
146
0.0
1001
ACAD_NAV_VCDISPLAY
1070
     3
  0
ENDTAB
  0
TABLE
  2
LTYPE
  5
5
330
0
100
AcDbSymbolTable
 70
     1
  0
LTYPE
  5
14
330
5
100
AcDbSymbolTableRecord
100
AcDbLinetypeTableRecord
  2
ByBlock
 70
     0
  3

 72
    65
 73
     0
 40
0.0
  0
LTYPE
  5
15
330
5
100
AcDbSymbolTableRecord
100
AcDbLinetypeTableRecord
  2
ByLayer
 70
     0
  3

 72
    65
 73
     0
 40
0.0
  0
LTYPE
  5
16
330
5
100
AcDbSymbolTableRecord
100
AcDbLinetypeTableRecord
  2
Continuous
 70
     0
  3
Solid line
 72
    65
 73
     0
 40
0.0
  0
ENDTAB
  0
TABLE
  2
LAYER
  5
2
102
{ACAD_XDICTIONARY
360
1FF
102
}
330
0
100
AcDbSymbolTable
 70
     1
  0
LAYER
  5
10
102
{ACAD_XDICTIONARY
360
13C
102
}
330
2
100
AcDbSymbolTableRecord
100
AcDbLayerTableRecord
  2
0
 70
     0
 62
     7
  6
Continuous
370
    -3
390
F
  0
ENDTAB
  0
TABLE
  2
STYLE
  5
3
330
0
100
AcDbSymbolTable
 70
     1
  0
STYLE
  5
11
330
3
100
AcDbSymbolTableRecord
100
AcDbTextStyleTableRecord
  2
Standard
 70
     0
 40
0.0
 41
1.0
 50
0.0
 71
     0
 42
2.5
  3
arial.ttf
  4

1001
ACAD
1000
Arial
1071
       34
  0
ENDTAB
  0
TABLE
  2
VIEW
  5
6
330
0
100
AcDbSymbolTable
 70
     0
  0
ENDTAB
  0
TABLE
  2
UCS
  5
7
330
0
100
AcDbSymbolTable
 70
     0
  0
ENDTAB
  0
TABLE
  2
APPID
  5
9
330
0
100
AcDbSymbolTable
 70
     8
  0
APPID
  5
12
330
9
100
AcDbSymbolTableRecord
100
AcDbRegAppTableRecord
  2
ACAD
 70
     0
  0
APPID
  5
9E
330
9
100
AcDbSymbolTableRecord
100
AcDbRegAppTableRecord
  2
ACAD_PSEXT
 70
     0
  0
APPID
  5
133
330
9
100
AcDbSymbolTableRecord
100
AcDbRegAppTableRecord
  2
AcadAnnoPO
 70
     0
  0
APPID
  5
134
330
9
100
AcDbSymbolTableRecord
100
AcDbRegAppTableRecord
  2
AcadAnnotative
 70
     0
  0
APPID
  5
135
330
9
100
AcDbSymbolTableRecord
100
AcDbRegAppTableRecord
  2
ACAD_DSTYLE_DIMJAG
 70
     0
  0
APPID
  5
136
330
9
100
AcDbSymbolTableRecord
100
AcDbRegAppTableRecord
  2
ACAD_DSTYLE_DIMTALN
 70
     0
  0
APPID
  5
165
330
9
100
AcDbSymbolTableRecord
100
AcDbRegAppTableRecord
  2
ACAD_MLEADERVER
 70
     0
  0
APPID
  5
217
330
9
100
AcDbSymbolTableRecord
100
AcDbRegAppTableRecord
  2
ACAD_NAV_VCDISPLAY
 70
     0
  0
ENDTAB
  0
TABLE
  2
DIMSTYLE
  5
A
330
0
100
AcDbSymbolTable
 70
     1
100
AcDbDimStyleTable
 71
     0
  0
DIMSTYLE
105
27
330
A
100
AcDbSymbolTableRecord
100
AcDbDimStyleTableRecord
  2
ISO-25
 70
     0
 41
2.5
 42
0.625
 43
3.75
 44
1.25
 73
     0
 74
     0
 77
     1
 78
     8
140
2.5
141
2.5
143
0.03937007874016
147
0.625
171
     3
172
     1
271
     2
272
     2
274
     3
278
    44
283
     0
284
     8
340
11
  0
ENDTAB
  0
TABLE
  2
BLOCK_RECORD
  5
1
330
0
100
AcDbSymbolTable
 70
     7
  0
BLOCK_RECORD
  5
1F
102
{ACAD_XDICTIONARY
360
1CE
102
}
330
1
100
AcDbSymbolTableRecord
100
AcDbBlockTableRecord
  2
*Model_Space
340
22
  0
BLOCK_RECORD
  5
D2
102
{ACAD_XDICTIONARY
360
2640
102
}
330
1
100
AcDbSymbolTableRecord
100
AcDbBlockTableRecord
  2
*Paper_Space
340
D3
  0
BLOCK_RECORD
  5
D6
102
{ACAD_XDICTIONARY
360
2642
102
}
330
1
100
AcDbSymbolTableRecord
100
AcDbBlockTableRecord
  2
*Paper_Space0
340
D7
  0
BLOCK_RECORD
  5
2431
330
1
100
AcDbSymbolTableRecord
100
AcDbBlockTableRecord
  2
TU_S12_SKL-Front
340
0
102
{BLKREFS
331
2636
102
}
  0
BLOCK_RECORD
  5
2489
330
1
100
AcDbSymbolTableRecord
100
AcDbBlockTableRecord
  2
TU_S12_SKL-Left
340
0
102
{BLKREFS
331
2637
102
}
  0
BLOCK_RECORD
  5
24E6
330
1
100
AcDbSymbolTableRecord
100
AcDbBlockTableRecord
  2
TU_S12_SKL-Right
340
0
102
{BLKREFS
331
2638
102
}
  0
BLOCK_RECORD
  5
2534
330
1
100
AcDbSymbolTableRecord
100
AcDbBlockTableRecord
  2
TU_S12_SKL-Top
340
0
102
{BLKREFS
331
2639
102
}
  0
BLOCK_RECORD
  5
256E
330
1
100
AcDbSymbolTableRecord
100
AcDbBlockTableRecord
  2
TU_S12_SKL-Bottom
340
0
102
{BLKREFS
331
263A
102
}
  0
BLOCK_RECORD
  5
2596
330
1
100
AcDbSymbolTableRecord
100
AcDbBlockTableRecord
  2
TU_S12_SKL-ISO
340
0
102
{BLKREFS
331
263B
102
}
  0
ENDTAB
  0
ENDSEC
  0
SECTION
  2
BLOCKS
  0
BLOCK
  5
20
330
1F
100
AcDbEntity
  8
0
100
AcDbBlockBegin
  2
*Model_Space
 70
     0
 10
0.0
 20
0.0
 30
0.0
  3
*Model_Space
  1

  0
ENDBLK
  5
21
330
1F
100
AcDbEntity
  8
0
100
AcDbBlockEnd
  0
BLOCK
  5
D4
330
D2
100
AcDbEntity
 67
     1
  8
0
100
AcDbBlockBegin
  2
*Paper_Space
 70
     0
 10
0.0
 20
0.0
 30
0.0
  3
*Paper_Space
  1

  0
ENDBLK
  5
D5
330
D2
100
AcDbEntity
 67
     1
  8
0
100
AcDbBlockEnd
  0
BLOCK
  5
D8
330
D6
100
AcDbEntity
 67
     1
  8
0
100
AcDbBlockBegin
  2
*Paper_Space0
 70
     0
 10
0.0
 20
0.0
 30
0.0
  3
*Paper_Space0
  1

  0
ENDBLK
  5
D9
330
D6
100
AcDbEntity
 67
     1
  8
0
100
AcDbBlockEnd
  0
BLOCK
  5
2432
330
2431
100
AcDbEntity
  8
0
100
AcDbBlockBegin
  2
TU_S12_SKL-Front
 70
     0
 10
0.0
 20
0.0
 30
0.0
  3
TU_S12_SKL-Front
  1

  0
ELLIPSE
  5
2434
330
2431
100
AcDbEntity
  8
0
100
AcDbEllipse
 10
-78.55172527581375
 20
44.00000000000001
 30
0.0
 11
0.0000000000000089
 21
2.0
 31
0.0
210
0.0
220
0.0
230
1.0
 40
0.8660254037844389
 41
5.497787143782146
 42
6.283185307179594
  0
LINE
  5
2435
330
2431
100
AcDbEntity
  8
0
100
AcDbLine
 10
-81.73140065762941
 20
46.00000000000001
 30
0.0
 11
-83.23140065762942
 21
46.00000000000001
 31
0.0
  0
ELLIPSE
  5
2436
330
2431
100
AcDbEntity
  8
0
100
AcDbEllipse
 10
-63.89441554104969
 20
46.0
 30
0.0
 11
0.0
 21
2.0
 31
0.0
210
0.0
220
0.0
230
1.0
 40
0.8660254037844389
 41
0.0000000000000015
 42
0.7853981633974529
  0
ELLIPSE
  5
2437
330
2431
100
AcDbEntity
  8
0
100
AcDbEllipse
 10
-83.23140065762945
 20
-45.99999999999997
 30
0.0
 11
0.0000000000000001
 21
-2.0
 31
0.0
210
0.0
220
0.0
230
1.0
 40
0.8660254037844406
 41
4.712388980384689
 42
6.283185307179586
  0
ELLIPSE
  5
2438
330
2431
100
AcDbEntity
  8
0
100
AcDbEllipse
 10
-83.23140065762942
 20
44.00000000000001
 30
0.0
 11
0.0
 21
2.0
 31
0.0
210
0.0
220
0.0
230
1.0
 40
0.8660254037844389
 41
0.000000000000003
 42
1.570796326794896
  0
ELLIPSE
  5
2439
330
2431
100
AcDbEntity
  8
0
100
AcDbEllipse
 10
-62.3944155410497
 20
46.0
 30
0.0
 11
-0.0000000000000014
 21
2.0
 31
0.0
210
0.0
220
0.0
230
1.0
 40
0.8660254037844389
 41
0.0
 42
0.7853981633974474
  0
LINE
  5
243A
330
2431
100
AcDbEntity
  8
0
100
AcDbLine
 10
-62.3944155410497
 20
48.0
 30
0.0
 11
-63.89441554104969
 21
48.0
 31
0.0
  0
ELLIPSE
  5
243B
330
2431
100
AcDbEntity
  8
0
100
AcDbEllipse
 10
-81.73140065762941
 20
44.00000000000001
 30
0.0
 11
0.0000000000000076
 21
2.0
 31
0.0
210
0.0
220
0.0
230
1.0
 40
0.8660254037844406
 41
0.0
 42
1.570796326794895
  0
ELLIPSE
  5
243C
330
2431
100
AcDbEntity
  8
0
100
AcDbEllipse
 10
-81.73140065762945
 20
-45.99999999999997
 30
0.0
 11
0.0
 21
-2.0
 31
0.0
210
0.0
220
0.0
230
1.0
 40
0.8660254037844389
 41
4.712388980384684
 42
6.283185307179583
  0
LINE
  5
243D
330
2431
100
AcDbEntity
  8
0
100
AcDbLine
 10
-83.23140065762945
 20
-47.99999999999998
 30
0.0
 11
-81.73140065762945
 21
-47.99999999999998
 31
0.0
  0
ARC
  5
243E
330
2431
100
AcDbEntity
  8
0
100
AcDbCircle
 10
17.10799999999998
 20
-4.249999999999997
 30
0.0
 40
2.0
100
AcDbArc
 50
0.0
 51
90.00000000000007
  0
ARC
  5
243F
330
2431
100
AcDbEntity
  8
0
100
AcDbCircle
 10
17.108
 20
4.250000000000007
 30
0.0
 40
2.0
100
AcDbArc
 50
269.9999999999999
 51
0.0
  0
ARC
  5
2440
330
2431
100
AcDbEntity
  8
0
100
AcDbCircle
 10
17.10799999999998
 20
-46.0
 30
0.0
 40
2.0
100
AcDbArc
 50
270.0
 51
0.0
  0
ARC
  5
2441
330
2431
100
AcDbEntity
  8
0
100
AcDbCircle
 10
-18.89199999999999
 20
-34.94511068481089
 30
0.0
 40
2.0
100
AcDbArc
 50
109.9999999999996
 51
180.0
  0
ARC
  5
2442
330
2431
100
AcDbEntity
  8
0
100
AcDbCircle
 10
-18.892
 20
-45.99999999999998
 30
0.0
 40
2.0
100
AcDbArc
 50
180.0
 51
270.0
  0
ARC
  5
2443
330
2431
100
AcDbEntity
  8
0
100
AcDbCircle
 10
-18.89199999999998
 20
34.94511068481087
 30
0.0
 40
2.0
100
AcDbArc
 50
180.0
 51
250.0
  0
ARC
  5
2444
330
2431
100
AcDbEntity
  8
0
100
AcDbCircle
 10
17.10799999999997
 20
46.0
 30
0.0
 40
2.0
100
AcDbArc
 50
0.0
 51
90.0
  0
ARC
  5
2445
330
2431
100
AcDbEntity
  8
0
100
AcDbCircle
 10
-18.89199999999999
 20
45.99999999999998
 30
0.0
 40
2.0
100
AcDbArc
 50
90.0
 51
180.0
  0
LINE
  5
2446
330
2431
100
AcDbEntity
  8
0
100
AcDbLine
 10
-81.73140065762941
 20
46.00000000000001
 30
0.0
 11
-78.55172527581373
 21
46.00000000000001
 31
0.0
  0
ELLIPSE
  5
2447
330
2431
100
AcDbEntity
  8
0
100
AcDbEllipse
 10
-71.75656405748561
 20
36.00000000000002
 30
0.0
 11
-0.0000000000000045
 21
-4.25
 31
0.0
210
0.0
220
0.0
230
1.0
 40
0.8660254037844389
 41
0.0273034872508649
 42
1.570796326794897
  0
LINE
  5
2448
330
2431
100
AcDbEntity
  8
0
100
AcDbLine
 10
-68.07595609140173
 20
36.00000000000002
 30
0.0
 11
-68.07595609140173
 21
44.0
 31
0.0
  0
LINE
  5
2449
330
2431
100
AcDbEntity
  8
0
100
AcDbLine
 10
-84.96345146519834
 20
-45.99999999999997
 30
0.0
 11
-84.9634514651983
 21
44.00000000000002
 31
0.0
  0
LINE
  5
244A
330
2431
100
AcDbEntity
  8
0
100
AcDbLine
 10
-83.46345146519835
 20
-45.99999999999997
 30
0.0
 11
-83.4634514651983
 21
44.00000000000002
 31
0.0
  0
LINE
  5
244B
330
2431
100
AcDbEntity
  8
0
100
AcDbLine
 10
-59.44856701825585
 20
-48.0
 30
0.0
 11
-81.73140065762945
 21
-47.99999999999998
 31
0.0
  0
LINE
  5
244C
330
2431
100
AcDbEntity
  8
0
100
AcDbLine
 10
-12.24830149999217
 20
-28.16283168711123
 30
0.0
 11
-59.44856701825585
 21
-48.0
 31
0.0
  0
LINE
  5
244D
330
2431
100
AcDbEntity
  8
0
100
AcDbLine
 10
0.1080000000000067
 20
-25.6470286555879
 30
0.0
 11
-12.24830149999217
 21
-28.16283168711123
 31
0.0
  0
ELLIPSE
  5
244E
330
2431
100
AcDbEntity
  8
0
100
AcDbEllipse
 10
0.3245063509461202
 20
0.0000000000000217
 30
0.0
 11
-0.0000000000000001
 21
2.250000000000001
 31
0.0
210
0.0
220
0.0
230
1.0
 40
0.8660254037844385
 41
0.111341014340967
 42
3.030251639248826
  0
LINE
  5
244F
330
2431
100
AcDbEntity
  8
0
100
AcDbLine
 10
-12.24830149999217
 20
28.16283168711121
 30
0.0
 11
0.1079999999999992
 21
25.6470286555879
 31
0.0
  0
LINE
  5
2450
330
2431
100
AcDbEntity
  8
0
100
AcDbLine
 10
-59.44856701825585
 20
48.0
 30
0.0
 11
-12.24830149999217
 21
28.16283168711121
 31
0.0
  0
LINE
  5
2451
330
2431
100
AcDbEntity
  8
0
100
AcDbLine
 10
-62.3944155410497
 20
48.0
 30
0.0
 11
-59.44856701825585
 21
48.0
 31
0.0
  0
LINE
  5
2452
330
2431
100
AcDbEntity
  8
0
100
AcDbLine
 10
-66.57595609140173
 20
36.00000000000002
 30
0.0
 11
-66.57595609140173
 21
44.0
 31
0.0
  0
ELLIPSE
  5
2453
330
2431
100
AcDbEntity
  8
0
100
AcDbEllipse
 10
-70.25656405748562
 20
36.00000000000002
 30
0.0
 11
0.0
 21
-4.25
 31
0.0
210
0.0
220
0.0
230
1.0
 40
0.8660254037844389
 41
0.0
 42
1.570796326794896
  0
LINE
  5
2454
330
2431
100
AcDbEntity
  8
0
100
AcDbLine
 10
-71.55560216316229
 20
31.75000000000002
 30
0.0
 11
-70.25656405748562
 21
31.75000000000002
 31
0.0
  0
ELLIPSE
  5
2455
330
2431
100
AcDbEntity
  8
0
100
AcDbEllipse
 10
-71.55560216316229
 20
36.00000000000002
 30
0.0
 11
0.0000000000003789
 21
-4.249999999999998
 31
0.0
210
0.0
220
0.0
230
1.0
 40
0.8660254037844385
 41
4.012177424850287
 42
6.283185307179451
  0
LINE
  5
2456
330
2431
100
AcDbEntity
  8
0
100
AcDbLine
 10
-74.3701847254617
 20
42.00000000000001
 30
0.0
 11
-74.37018472546168
 21
38.7386127875259
 31
0.0
  0
LINE
  5
2457
330
2431
100
AcDbEntity
  8
0
100
AcDbLine
 10
1.608000000000004
 20
-2.249999999999989
 30
0.0
 11
17.10799999999998
 21
-2.249999999999997
 31
0.0
  0
LINE
  5
2458
330
2431
100
AcDbEntity
  8
0
100
AcDbLine
 10
19.10799999999998
 20
46.0
 30
0.0
 11
19.108
 21
4.250000000000007
 31
0.0
  0
LINE
  5
2459
330
2431
100
AcDbEntity
  8
0
100
AcDbLine
 10
17.10799999999998
 20
-48.0
 30
0.0
 11
1.417401076758491
 21
-47.99999999999997
 31
0.0
  0
ARC
  5
245A
330
2431
100
AcDbEntity
  8
0
100
AcDbCircle
 10
1.608000000000004
 20
-26.87377664808004
 30
0.0
 40
2.25
100
AcDbArc
 50
280.0000008537736
 51
89.99999999999992
  0
LINE
  5
245B
330
2431
100
AcDbEntity
  8
0
100
AcDbLine
 10
-18.65982799441731
 20
-32.7322514405971
 30
0.0
 11
1.998708399750599
 21
-29.08959409235752
 31
0.0
  0
LINE
  5
245C
330
2431
100
AcDbEntity
  8
0
100
AcDbLine
 10
-19.57604028665131
 20
-33.06572544323908
 30
0.0
 11
-18.65982799441731
 21
-32.7322514405971
 31
0.0
  0
LINE
  5
245D
330
2431
100
AcDbEntity
  8
0
100
AcDbLine
 10
-20.892
 20
-45.99999999999998
 30
0.0
 11
-20.89199999999999
 21
-34.94511068481089
 31
0.0
  0
LINE
  5
245E
330
2431
100
AcDbEntity
  8
0
100
AcDbLine
 10
-3.201401076758534
 20
-47.99999999999998
 30
0.0
 11
-18.892
 21
-47.99999999999998
 31
0.0
  0
LINE
  5
245F
330
2431
100
AcDbEntity
  8
0
100
AcDbLine
 10
19.10799999999998
 20
-4.249999999999998
 30
0.0
 11
19.10799999999998
 21
-46.0
 31
0.0
  0
LINE
  5
2460
330
2431
100
AcDbEntity
  8
0
100
AcDbLine
 10
-20.89199999999999
 20
34.94511068481087
 30
0.0
 11
-20.892
 21
45.99999999999998
 31
0.0
  0
LINE
  5
2461
330
2431
100
AcDbEntity
  8
0
100
AcDbLine
 10
1.417401076758477
 20
48.0
 30
0.0
 11
17.10799999999997
 21
48.0
 31
0.0
  0
LINE
  5
2462
330
2431
100
AcDbEntity
  8
0
100
AcDbLine
 10
-18.89199999999999
 20
47.99999999999998
 30
0.0
 11
-3.201401076758516
 21
47.99999999999998
 31
0.0
  0
LINE
  5
2463
330
2431
100
AcDbEntity
  8
0
100
AcDbLine
 10
-18.65982799441731
 20
32.73225144059707
 30
0.0
 11
-19.57604028665132
 21
33.06572544323906
 31
0.0
  0
LINE
  5
2464
330
2431
100
AcDbEntity
  8
0
100
AcDbLine
 10
1.998708399750598
 20
29.08959409235752
 30
0.0
 11
-18.65982799441731
 21
32.73225144059707
 31
0.0
  0
ARC
  5
2465
330
2431
100
AcDbEntity
  8
0
100
AcDbCircle
 10
1.608000000000004
 20
26.87377664808004
 30
0.0
 40
2.25
100
AcDbArc
 50
269.9999999999999
 51
80.00000000000005
  0
LINE
  5
2466
330
2431
100
AcDbEntity
  8
0
100
AcDbLine
 10
17.10799999999999
 20
2.250000000000007
 30
0.0
 11
1.608000000000004
 21
2.250000000000022
 31
0.0
  0
LINE
  5
2467
330
2431
100
AcDbEntity
  8
0
100
AcDbLine
 10
-65.11916041244129
 20
47.41421356237309
 30
0.0
 11
-68.07595609140173
 21
44.0
 31
0.0
  0
LINE
  5
2468
330
2431
100
AcDbEntity
  8
0
100
AcDbLine
 10
-68.07595609140173
 20
44.0
 30
0.0
 11
-66.57595609140173
 21
44.0
 31
0.0
  0
LINE
  5
2469
330
2431
100
AcDbEntity
  8
0
100
AcDbLine
 10
-66.57595609140173
 20
44.0
 30
0.0
 11
-63.61916041244128
 21
47.41421356237309
 31
0.0
  0
LINE
  5
246A
330
2431
100
AcDbEntity
  8
0
100
AcDbLine
 10
-77.32698040442215
 20
45.41421356237309
 30
0.0
 11
-74.3701847254617
 21
42.00000000000001
 31
0.0
  0
LINE
  5
246B
330
2431
100
AcDbEntity
  8
0
100
AcDbLine
 10
-3.201401076758534
 20
-47.99999999999998
 30
0.0
 11
-0.8920000000000097
 21
-43.99999999999995
 31
0.0
  0
LINE
  5
246C
330
2431
100
AcDbEntity
  8
0
100
AcDbLine
 10
-0.8920000000000097
 20
-43.99999999999995
 30
0.0
 11
1.417401076758491
 21
-47.99999999999997
 31
0.0
  0
LINE
  5
246D
330
2431
100
AcDbEntity
  8
0
100
AcDbLine
 10
1.417401076758477
 20
48.0
 30
0.0
 11
-0.8919999999999959
 21
43.99999999999999
 31
0.0
  0
LINE
  5
246E
330
2431
100
AcDbEntity
  8
0
100
AcDbLine
 10
-0.8919999999999959
 20
43.99999999999999
 30
0.0
 11
-3.201401076758517
 21
47.99999999999998
 31
0.0
  0
CIRCLE
  5
246F
330
2431
100
AcDbEntity
  8
0
100
AcDbCircle
 10
13.10799999999998
 20
-9.999999999999996
 30
0.0
 40
2.5
  0
CIRCLE
  5
2470
330
2431
100
AcDbEntity
  8
0
100
AcDbCircle
 10
13.10799999999998
 20
-40.0
 30
0.0
 40
2.5
  0
CIRCLE
  5
2471
330
2431
100
AcDbEntity
  8
0
100
AcDbCircle
 10
-14.89199999999999
 20
-40.0
 30
0.0
 40
2.5
  0
CIRCLE
  5
2472
330
2431
100
AcDbEntity
  8
0
100
AcDbCircle
 10
13.10799999999998
 20
40.0
 30
0.0
 40
2.5
  0
CIRCLE
  5
2473
330
2431
100
AcDbEntity
  8
0
100
AcDbCircle
 10
-14.89199999999999
 20
40.0
 30
0.0
 40
2.5
  0
CIRCLE
  5
2474
330
2431
100
AcDbEntity
  8
0
100
AcDbCircle
 10
13.10799999999998
 20
10.00000000000001
 30
0.0
 40
2.5
  0
ELLIPSE
  5
2475
330
2431
100
AcDbEntity
  8
0
100
AcDbEllipse
 10
-18.51776170926846
 20
-15.99999999999998
 30
0.0
 11
0.0
 21
-0.9999999999999932
 31
0.0
210
0.0
220
0.0
230
1.0
 40
0.8660254037844385
 41
0.0
 42
1.570796326794896
  0
ELLIPSE
  5
2476
330
2431
100
AcDbEntity
  8
0
100
AcDbEllipse
 10
-18.51776170926846
 20
16.0
 30
0.0
 11
0.0
 21
0.999999999999993
 31
0.0
210
0.0
220
0.0
230
1.0
 40
0.8660254037844387
 41
4.712388980384685
 42
6.283185307179586
  0
LINE
  5
2477
330
2431
100
AcDbEntity
  8
0
100
AcDbLine
 10
-17.65173630548401
 20
16.0
 30
0.0
 11
-17.65173630548402
 21
-15.99999999999998
 31
0.0
  0
SPLINE
  5
2478
330
2431
100
AcDbEntity
  8
0
100
AcDbSpline
210
0.0
220
0.0
230
1.0
 70
     8
 71
     3
 72
    20
 73
    16
 74
     0
 42
0.000000001
 43
0.0000000001
 40
3.141592653589795
 40
3.141592653589795
 40
3.141592653589795
 40
3.141592653589795
 40
3.455751918948774
 40
3.455751918948774
 40
3.769911184307753
 40
3.769911184307753
 40
4.073752930867218
 40
4.073752930867218
 40
4.29853512199872
 40
4.29853512199872
 40
4.501013013543572
 40
4.501013013543572
 40
4.695142187755243
 40
4.695142187755243
 40
4.712388980384689
 40
4.712388980384689
 40
4.712388980384689
 40
4.712388980384689
 10
-18.51776170926847
 20
-16.99999999999998
 30
0.0
 10
-18.51776170926847
 20
-16.99999999999998
 30
0.0
 10
-18.51856161270698
 20
-17.00135251969845
 30
0.0
 10
-18.55024284392676
 20
-16.98946619860529
 30
0.0
 10
-18.58149636216806
 20
-16.97489019773017
 30
0.0
 10
-18.66857645652008
 20
-16.90183530625355
 30
0.0
 10
-18.72274702409672
 20
-16.84431242551364
 30
0.0
 10
-18.81488212146685
 20
-16.70101402566923
 30
0.0
 10
-18.85316307798092
 20
-16.62678048993614
 30
0.0
 10
-18.91446892958616
 20
-16.46560892772772
 30
0.0
 10
-18.93860114759961
 20
-16.38075109042875
 30
0.0
 10
-18.97123189763122
 20
-16.20515919625006
 30
0.0
 10
-18.98032814626576
 20
-16.11486168495656
 30
0.0
 10
-18.98180312723079
 20
-16.01611912579491
 30
0.0
 10
-18.98186332440622
 20
-16.00805956295501
 30
0.0
 10
-18.98186332440622
 20
-15.99999999999998
 30
0.0
  0
LINE
  5
2479
330
2431
100
AcDbEntity
  8
0
100
AcDbLine
 10
-18.98186332440622
 20
-15.99999999999998
 30
0.0
 11
-18.98186332440621
 21
16.0
 31
0.0
  0
SPLINE
  5
247A
330
2431
100
AcDbEntity
  8
0
100
AcDbSpline
210
0.0
220
0.0
230
1.0
 70
     8
 71
     3
 72
    20
 73
    16
 74
     0
 42
0.000000001
 43
0.0000000001
 40
4.712388980384689
 40
4.712388980384689
 40
4.712388980384689
 40
4.712388980384689
 40
4.904132322018819
 40
4.904132322018819
 40
5.097817907001043
 40
5.097817907001043
 40
5.298621261247484
 40
5.298621261247484
 40
5.516439455253395
 40
5.516439455253395
 40
5.773875024011836
 40
5.773875024011836
 40
6.088034289370815
 40
6.088034289370815
 40
6.283185307179586
 40
6.283185307179586
 40
6.283185307179586
 40
6.283185307179586
 10
-18.98186332440621
 20
16.0
 30
0.0
 10
-18.98186332440621
 20
16.08960318398384
 30
0.0
 10
-18.97430739258975
 20
16.1791867828227
 30
0.0
 10
-18.94534041933377
 20
16.3514861595496
 30
0.0
 10
-18.92380027825004
 20
16.43408115487693
 30
0.0
 10
-18.86994621076095
 20
16.58735211888856
 30
0.0
 10
-18.83729390566083
 20
16.65742443055383
 30
0.0
 10
-18.76559648709062
 20
16.78208560186654
 30
0.0
 10
-18.72632938711868
 20
16.83477890556299
 30
0.0
 10
-18.64726492733569
 20
16.92273090671823
 30
0.0
 10
-18.60900424654627
 20
16.95298288200833
 30
0.0
 10
-18.54671719481309
 20
16.99314847630755
 30
0.0
 10
-18.52852006838325
 20
16.99778776761509
 30
0.0
 10
-18.51784030302968
 20
17.00022537992567
 30
0.0
 10
-18.51776170926846
 20
17.0
 30
0.0
 10
-18.51776170926846
 20
17.0
 30
0.0
  0
SPLINE
  5
247B
330
2431
100
AcDbEntity
  8
0
100
AcDbSpline
210
0.0
220
0.0
230
1.0
 70
     8
 71
     3
 72
    26
 73
    22
 74
     0
 42
0.000000001
 43
0.0000000001
 40
3.141592653589793
 40
3.141592653589793
 40
3.141592653589793
 40
3.141592653589793
 40
3.593471047452828
 40
3.593471047452828
 40
3.946265967722944
 40
3.946265967722944
 40
4.243899788394178
 40
4.243899788394178
 40
4.524569421572569
 40
4.524569421572569
 40
4.800019927045792
 40
4.800019927045792
 40
5.074860079697826
 40
5.074860079697826
 40
5.35277948761869
 40
5.35277948761869
 40
5.641098633481944
 40
5.641098633481944
 40
5.957772667735798
 40
5.957772667735798
 40
6.283185307179586
 40
6.283185307179586
 40
6.283185307179586
 40
6.283185307179586
 10
-71.75656405748566
 20
-40.24999999999997
 30
0.0
 10
-72.18051374003458
 20
-40.24999999999997
 30
0.0
 10
-72.60862178678607
 20
-40.1422883977129
 30
0.0
 10
-73.36158380654143
 20
-39.72028219387003
 30
0.0
 10
-73.6866329081011
 20
-39.45389384243068
 30
0.0
 10
-74.22062344026726
 20
-38.8130543662034
 30
0.0
 10
-74.43878409250558
 20
-38.46245149502432
 30
0.0
 10
-74.77346131957967
 20
-37.69881309552629
 30
0.0
 10
-74.89480385360524
 20
-37.2908741913028
 30
0.0
 10
-75.03321694630947
 20
-36.44995063540979
 30
0.0
 10
-75.05212330670776
 20
-36.01788886053066
 30
0.0
 10
-74.98755242588287
 20
-35.16922657239434
 30
0.0
 10
-74.90434213063522
 20
-34.75288848924132
 30
0.0
 10
-74.64834742970872
 20
-33.9734148139928
 30
0.0
 10
-74.47474766830788
 20
-33.61123535055285
 30
0.0
 10
-74.05860393054021
 20
-32.96637087384204
 30
0.0
 10
-73.8141879149873
 20
-32.68742819537923
 30
0.0
 10
-73.27245178978052
 20
-32.21965196902355
 30
0.0
 10
-72.97327267835789
 20
-32.04211912078525
 30
0.0
 10
-72.3680548715389
 20
-31.80632360016073
 30
0.0
 10
-72.06186430432909
 20
-31.74999999999998
 30
0.0
 10
-71.75656405748566
 20
-31.74999999999998
 30
0.0
  0
SPLINE
  5
247C
330
2431
100
AcDbEntity
  8
0
100
AcDbSpline
210
0.0
220
0.0
230
1.0
 70
     8
 71
     3
 72
    26
 73
    22
 74
     0
 42
0.000000001
 43
0.0000000001
 40
3.141592653589793
 40
3.141592653589793
 40
3.141592653589793
 40
3.141592653589793
 40
3.593471047452828
 40
3.593471047452828
 40
3.946265967722944
 40
3.946265967722944
 40
4.243899788394178
 40
4.243899788394178
 40
4.524569421572569
 40
4.524569421572569
 40
4.800019927045792
 40
4.800019927045792
 40
5.074860079697826
 40
5.074860079697826
 40
5.35277948761869
 40
5.35277948761869
 40
5.641098633481944
 40
5.641098633481944
 40
5.957772667735798
 40
5.957772667735798
 40
6.283185307179586
 40
6.283185307179586
 40
6.283185307179586
 40
6.283185307179586
 10
-71.75656405748563
 20
-16.24999999999998
 30
0.0
 10
-72.18051374003457
 20
-16.24999999999998
 30
0.0
 10
-72.60862178678606
 20
-16.1422883977129
 30
0.0
 10
-73.36158380654142
 20
-15.72028219387002
 30
0.0
 10
-73.68663290810108
 20
-15.45389384243068
 30
0.0
 10
-74.22062344026724
 20
-14.8130543662034
 30
0.0
 10
-74.43878409250557
 20
-14.46245149502431
 30
0.0
 10
-74.77346131957965
 20
-13.69881309552628
 30
0.0
 10
-74.89480385360522
 20
-13.2908741913028
 30
0.0
 10
-75.03321694630944
 20
-12.44995063540978
 30
0.0
 10
-75.05212330670774
 20
-12.01788886053064
 30
0.0
 10
-74.98755242588285
 20
-11.16922657239433
 30
0.0
 10
-74.90434213063521
 20
-10.75288848924131
 30
0.0
 10
-74.64834742970871
 20
-9.973414813992789
 30
0.0
 10
-74.47474766830787
 20
-9.611235350552844
 30
0.0
 10
-74.0586039305402
 20
-8.966370873842029
 30
0.0
 10
-73.81418791498728
 20
-8.687428195379224
 30
0.0
 10
-73.27245178978049
 20
-8.219651969023541
 30
0.0
 10
-72.97327267835786
 20
-8.042119120785237
 30
0.0
 10
-72.36805487153889
 20
-7.806323600160721
 30
0.0
 10
-72.06186430432907
 20
-7.749999999999973
 30
0.0
 10
-71.75656405748563
 20
-7.749999999999973
 30
0.0
  0
SPLINE
  5
247D
330
2431
100
AcDbEntity
  8
0
100
AcDbSpline
210
0.0
220
0.0
230
1.0
 70
     8
 71
     3
 72
    26
 73
    22
 74
     0
 42
0.000000001
 43
0.0000000001
 40
3.141592653589793
 40
3.141592653589793
 40
3.141592653589793
 40
3.141592653589793
 40
3.593471047452828
 40
3.593471047452828
 40
3.946265967722944
 40
3.946265967722944
 40
4.243899788394178
 40
4.243899788394178
 40
4.524569421572569
 40
4.524569421572569
 40
4.800019927045792
 40
4.800019927045792
 40
5.074860079697826
 40
5.074860079697826
 40
5.35277948761869
 40
5.35277948761869
 40
5.641098633481944
 40
5.641098633481944
 40
5.957772667735798
 40
5.957772667735798
 40
6.283185307179586
 40
6.283185307179586
 40
6.283185307179586
 40
6.283185307179586
 10
-71.75656405748563
 20
7.750000000000022
 30
0.0
 10
-72.18051374003454
 20
7.750000000000022
 30
0.0
 10
-72.60862178678606
 20
7.857711602287099
 30
0.0
 10
-73.36158380654142
 20
8.279717806129973
 30
0.0
 10
-73.68663290810106
 20
8.546106157569319
 30
0.0
 10
-74.22062344026722
 20
9.186945633796598
 30
0.0
 10
-74.43878409250555
 20
9.537548504975683
 30
0.0
 10
-74.77346131957965
 20
10.30118690447371
 30
0.0
 10
-74.89480385360522
 20
10.7091258086972
 30
0.0
 10
-75.03321694630942
 20
11.55004936459021
 30
0.0
 10
-75.05212330670774
 20
11.98211113946935
 30
0.0
 10
-74.98755242588282
 20
12.83077342760567
 30
0.0
 10
-74.9043421306352
 20
13.24711151075869
 30
0.0
 10
-74.64834742970868
 20
14.02658518600721
 30
0.0
 10
-74.47474766830787
 20
14.38876464944715
 30
0.0
 10
-74.0586039305402
 20
15.03362912615797
 30
0.0
 10
-73.81418791498728
 20
15.31257180462077
 30
0.0
 10
-73.27245178978047
 20
15.78034803097646
 30
0.0
 10
-72.97327267835784
 20
15.95788087921476
 30
0.0
 10
-72.36805487153889
 20
16.19367639983927
 30
0.0
 10
-72.06186430432907
 20
16.25000000000003
 30
0.0
 10
-71.75656405748563
 20
16.25000000000003
 30
0.0
  0
ELLIPSE
  5
247E
330
2431
100
AcDbEntity
  8
0
100
AcDbEllipse
 10
-73.00656405748566
 20
-35.99999999999998
 30
0.0
 11
-0.0000000000000001
 21
-4.25
 31
0.0
210
0.0
220
0.0
230
1.0
 40
0.8660254037844387
 41
0.1821075340383704
 42
2.959485119551422
  0
ELLIPSE
  5
247F
330
2431
100
AcDbEntity
  8
0
100
AcDbEllipse
 10
-73.00656405748563
 20
-11.99999999999997
 30
0.0
 11
0.0000000000000008
 21
-4.25
 31
0.0
210
0.0
220
0.0
230
1.0
 40
0.8660254037844389
 41
0.1821075340383729
 42
2.95948511955142
  0
ELLIPSE
  5
2480
330
2431
100
AcDbEntity
  8
0
100
AcDbEllipse
 10
-73.00656405748563
 20
12.00000000000002
 30
0.0
 11
0.0000000000000008
 21
-4.25
 31
0.0
210
0.0
220
0.0
230
1.0
 40
0.8660254037844389
 41
0.1821075340383729
 42
2.95948511955142
  0
SPLINE
  5
2481
330
2431
100
AcDbEntity
  8
0
100
AcDbSpline
210
0.0
220
0.0
230
1.0
 70
     8
 71
     3
 72
    10
 73
     6
 74
     0
 42
0.000000001
 43
0.0000000001
 40
0.0
 40
0.0
 40
0.0
 40
0.0
 40
0.0886369508136927
 40
0.0886369508136927
 40
0.177273901637333
 40
0.177273901637333
 40
0.177273901637333
 40
0.177273901637333
 10
0.1080000000000078
 20
-25.6470286555879
 30
0.0
 10
0.3202249328900972
 20
-25.48197720257587
 30
0.0
 10
0.5466660000708163
 20
-25.31754450267273
 30
0.0
 10
1.017848303794533
 20
-24.98744335675456
 30
0.0
 10
1.260818780703704
 20
-24.82301065683313
 30
0.0
 10
1.505732597466372
 20
-24.65795920380256
 30
0.0
  0
LINE
  5
2482
330
2431
100
AcDbEntity
  8
0
100
AcDbLine
 10
1.608000000000004
 20
-2.249999999999987
 30
0.0
 11
0.1650336932418434
 21
-2.249999999999995
 31
0.0
  0
SPLINE
  5
2483
330
2431
100
AcDbEntity
  8
0
100
AcDbSpline
210
0.0
220
0.0
230
1.0
 70
     8
 71
     3
 72
    10
 73
     6
 74
     0
 42
0.000000001
 43
0.0000000001
 40
0.0
 40
0.0
 40
0.0
 40
0.0
 40
0.0033190141477226
 40
0.0033190141477226
 40
0.0078572874880565
 40
0.0078572874880565
 40
0.0078572874880565
 40
0.0078572874880565
 10
0.1650336932418428
 20
-2.249999999999979
 30
0.0
 10
0.1553341315556531
 20
-2.250000044194673
 30
0.0
 10
0.1457616236691117
 20
-2.24880944067657
 30
0.0
 10
0.1234272448936793
 20
-2.243342589256237
 30
0.0
 10
0.1134319386902027
 20
-2.238741297993391
 30
0.0
 10
0.1080000000000039
 20
-2.236067977499769
 30
0.0
  0
SPLINE
  5
2484
330
2431
100
AcDbEntity
  8
0
100
AcDbSpline
210
0.0
220
0.0
230
1.0
 70
     8
 71
     3
 72
    10
 73
     6
 74
     0
 42
0.000000001
 43
0.0000000001
 40
0.0
 40
0.0
 40
0.0
 40
0.0
 40
0.0032590625388117
 40
0.0032590625388117
 40
0.0055671261380791
 40
0.0055671261380791
 40
0.0055671261380791
 40
0.0055671261380791
 10
1.505732597466372
 20
-24.65795920380257
 30
0.0
 10
1.514745848270584
 20
-24.65190252686774
 30
0.0
 10
1.532819138806313
 20
-24.64034269536453
 30
0.0
 10
1.573170881728004
 20
-24.62679709637202
 30
0.0
 10
1.590377799189526
 20
-24.62377638056886
 30
0.0
 10
1.608000000000007
 20
-24.62377664808004
 30
0.0
  0
LINE
  5
2485
330
2431
100
AcDbEntity
  8
0
100
AcDbLine
 10
0.1650336932418428
 20
2.250000000000011
 30
0.0
 11
1.608000000000003
 21
2.250000000000023
 31
0.0
  0
SPLINE
  5
2486
330
2431
100
AcDbEntity
  8
0
100
AcDbSpline
210
0.0
220
0.0
230
1.0
 70
     8
 71
     3
 72
    10
 73
     6
 74
     0
 42
0.000000001
 43
0.0000000001
 40
0.0
 40
0.0
 40
0.0
 40
0.0
 40
0.0052866602425417
 40
0.0052866602425417
 40
0.0127516002457275
 40
0.0127516002457275
 40
0.0127516002457275
 40
0.0127516002457275
 10
1.607999999815423
 20
24.62377664808003
 30
0.0
 10
1.590377799008981
 20
24.62377638058987
 30
0.0
 10
1.573170881545955
 20
24.62679709641305
 30
0.0
 10
1.532819138704248
 20
24.64034269542712
 30
0.0
 10
1.514745848228776
 20
24.65190252689582
 30
0.0
 10
1.505732597466366
 20
24.65795920380257
 30
0.0
  0
SPLINE
  5
2487
330
2431
100
AcDbEntity
  8
0
100
AcDbSpline
210
0.0
220
0.0
230
1.0
 70
     8
 71
     3
 72
    10
 73
     6
 74
     0
 42
0.000000001
 43
0.0000000001
 40
0.0
 40
0.0
 40
0.0
 40
0.0
 40
0.0886369508136886
 40
0.0886369508136886
 40
0.1772739016373251
 40
0.1772739016373251
 40
0.1772739016373251
 40
0.1772739016373251
 10
1.505732597466366
 20
24.65795920380256
 30
0.0
 10
1.260818780731147
 20
24.82301065681453
 30
0.0
 10
1.017848303848919
 20
24.98744335671772
 30
0.0
 10
0.546666000121565
 20
25.31754450263591
 30
0.0
 10
0.3202249329139251
 20
25.48197720255738
 30
0.0
 10
0.108
 20
25.6470286555879
 30
0.0
  0
SPLINE
  5
2488
330
2431
100
AcDbEntity
  8
0
100
AcDbSpline
210
0.0
220
0.0
230
1.0
 70
     8
 71
     3
 72
    10
 73
     6
 74
     0
 42
0.000000001
 43
0.0000000001
 40
0.0
 40
0.0
 40
0.0
 40
0.0
 40
0.0020454615069428
 40
0.0020454615069428
 40
0.0035413863162359
 40
0.0035413863162359
 40
0.0035413863162359
 40
0.0035413863162359
 10
0.1080000000000039
 20
2.236067977499809
 30
0.0
 10
0.1134319386919855
 20
2.238741297994315
 30
0.0
 10
0.1234272448949375
 20
2.243342589256557
 30
0.0
 10
0.1457616236695716
 20
2.248809440676746
 30
0.0
 10
0.1553341315556717
 20
2.250000044194692
 30
0.0
 10
0.1650336932418422
 20
2.250000000000022
 30
0.0
  0
ENDBLK
  5
2433
330
2431
100
AcDbEntity
  8
0
100
AcDbBlockEnd
  0
BLOCK
  5
248A
330
2489
100
AcDbEntity
  8
0
100
AcDbBlockBegin
  2
TU_S12_SKL-Left
 70
     0
 10
0.0
 20
0.0
 30
0.0
  3
TU_S12_SKL-Left
  1

  0
ELLIPSE
  5
248C
330
2489
100
AcDbEntity
  8
0
100
AcDbEllipse
 10
46.21806113966642
 20
44.00000000000001
 30
0.0
 11
0.0000000000000001
 21
2.0
 31
0.0
210
0.0
220
0.0
230
1.0
 40
0.5
 41
0.0
 42
0.7853981633974483
  0
LINE
  5
248D
330
2489
100
AcDbEntity
  8
0
100
AcDbLine
 10
50.65192378864665
 20
46.00000000000001
 30
0.0
 11
48.05384757729334
 21
46.00000000000001
 31
0.0
  0
ELLIPSE
  5
248E
330
2489
100
AcDbEntity
  8
0
100
AcDbEllipse
 10
36.88963401492026
 20
46.0
 30
0.0
 11
-0.0000000000000044
 21
2.0
 31
0.0
210
0.0
220
0.0
230
1.0
 40
0.5
 41
5.497787143782135
 42
6.283185307179586
  0
ELLIPSE
  5
248F
330
2489
100
AcDbEntity
  8
0
100
AcDbEllipse
 10
48.05384757729336
 20
-45.99999999999997
 30
0.0
 11
0.0000000000000001
 21
-2.0
 31
0.0
210
0.0
220
0.0
230
1.0
 40
0.4999999999999969
 41
0.0
 42
1.570796326794896
  0
ELLIPSE
  5
2490
330
2489
100
AcDbEntity
  8
0
100
AcDbEllipse
 10
48.05384757729334
 20
44.00000000000001
 30
0.0
 11
-0.0000000000000089
 21
2.0
 31
0.0
210
0.0
220
0.0
230
1.0
 40
0.5
 41
4.712388980384691
 42
6.283185307179586
  0
ELLIPSE
  5
2491
330
2489
100
AcDbEntity
  8
0
100
AcDbEllipse
 10
39.48771022627358
 20
46.0
 30
0.0
 11
-0.0000000000000003
 21
2.0
 31
0.0
210
0.0
220
0.0
230
1.0
 40
0.5
 41
5.497787143782137
 42
6.28318530717959
  0
LINE
  5
2492
330
2489
100
AcDbEntity
  8
0
100
AcDbLine
 10
39.48771022627357
 20
48.0
 30
0.0
 11
36.88963401492026
 21
48.0
 31
0.0
  0
ELLIPSE
  5
2493
330
2489
100
AcDbEntity
  8
0
100
AcDbEllipse
 10
50.65192378864665
 20
44.00000000000001
 30
0.0
 11
-0.0000000000000046
 21
2.0
 31
0.0
210
0.0
220
0.0
230
1.0
 40
0.4999999999999969
 41
4.712388980384697
 42
6.283185307179577
  0
ELLIPSE
  5
2494
330
2489
100
AcDbEntity
  8
0
100
AcDbEllipse
 10
50.65192378864669
 20
-45.99999999999997
 30
0.0
 11
-0.0000000000000089
 21
-2.0
 31
0.0
210
0.0
220
0.0
230
1.0
 40
0.5
 41
0.0
 42
1.570796326794898
  0
LINE
  5
2495
330
2489
100
AcDbEntity
  8
0
100
AcDbLine
 10
48.05384757729336
 20
-47.99999999999998
 30
0.0
 11
50.65192378864669
 21
-47.99999999999998
 31
0.0
  0
LINE
  5
2496
330
2489
100
AcDbEntity
  8
0
100
AcDbLine
 10
0.0
 20
-47.99999999999998
 30
0.0
 11
0.0
 21
-45.99999999999998
 31
0.0
  0
LINE
  5
2497
330
2489
100
AcDbEntity
  8
0
100
AcDbLine
 10
0.0
 20
-34.94511068481089
 30
0.0
 11
0.0
 21
-33.06572544323908
 31
0.0
  0
LINE
  5
2498
330
2489
100
AcDbEntity
  8
0
100
AcDbLine
 10
0.0
 20
33.06572544323906
 30
0.0
 11
0.0
 21
34.94511068481087
 31
0.0
  0
LINE
  5
2499
330
2489
100
AcDbEntity
  8
0
100
AcDbLine
 10
0.0
 20
45.99999999999998
 30
0.0
 11
0.0
 21
47.99999999999998
 31
0.0
  0
LINE
  5
249A
330
2489
100
AcDbEntity
  8
0
100
AcDbLine
 10
3.0
 20
-33.06572544323908
 30
0.0
 11
3.0
 21
-34.94511068481089
 31
0.0
  0
LINE
  5
249B
330
2489
100
AcDbEntity
  8
0
100
AcDbLine
 10
3.0
 20
-45.99999999999998
 30
0.0
 11
3.0
 21
-47.99999999999998
 31
0.0
  0
LINE
  5
249C
330
2489
100
AcDbEntity
  8
0
100
AcDbLine
 10
0.0
 20
-47.99999999999998
 30
0.0
 11
3.0
 21
-47.99999999999998
 31
0.0
  0
LINE
  5
249D
330
2489
100
AcDbEntity
  8
0
100
AcDbLine
 10
3.0
 20
34.94511068481087
 30
0.0
 11
3.0
 21
33.06572544323906
 31
0.0
  0
LINE
  5
249E
330
2489
100
AcDbEntity
  8
0
100
AcDbLine
 10
3.0
 20
47.99999999999998
 30
0.0
 11
3.0
 21
45.99999999999998
 31
0.0
  0
LINE
  5
249F
330
2489
100
AcDbEntity
  8
0
100
AcDbLine
 10
3.0
 20
47.99999999999998
 30
0.0
 11
0.0
 21
47.99999999999998
 31
0.0
  0
LINE
  5
24A0
330
2489
100
AcDbEntity
  8
0
100
AcDbLine
 10
48.05384757729334
 20
46.00000000000001
 30
0.0
 11
46.21806113966642
 21
46.00000000000001
 31
0.0
  0
LINE
  5
24A1
330
2489
100
AcDbEntity
  8
0
100
AcDbLine
 10
43.80384757729333
 20
42.00000000000001
 30
0.0
 11
43.80384757729333
 21
38.7386127875259
 31
0.0
  0
ELLIPSE
  5
24A2
330
2489
100
AcDbEntity
  8
0
100
AcDbEllipse
 10
42.17884757729335
 20
36.00000000000002
 30
0.0
 11
-0.0000000000002197
 21
-4.249999999999998
 31
0.0
210
0.0
220
0.0
230
1.0
 40
0.5000000000000002
 41
0.0
 42
2.271007882329467
  0
LINE
  5
24A3
330
2489
100
AcDbEntity
  8
0
100
AcDbLine
 10
42.17884757729335
 20
31.75000000000002
 30
0.0
 11
41.42884757729334
 21
31.75000000000002
 31
0.0
  0
ELLIPSE
  5
24A4
330
2489
100
AcDbEntity
  8
0
100
AcDbEllipse
 10
41.42884757729334
 20
36.00000000000002
 30
0.0
 11
0.0
 21
-4.25
 31
0.0
210
0.0
220
0.0
230
1.0
 40
0.5
 41
4.712388980384689
 42
6.283185307179586
  0
LINE
  5
24A5
330
2489
100
AcDbEntity
  8
0
100
AcDbLine
 10
39.30384757729334
 20
36.00000000000002
 30
0.0
 11
39.30384757729334
 21
44.0
 31
0.0
  0
LINE
  5
24A6
330
2489
100
AcDbEntity
  8
0
100
AcDbLine
 10
36.88963401492026
 20
48.0
 30
0.0
 11
35.18884757729337
 21
48.0
 31
0.0
  0
LINE
  5
24A7
330
2489
100
AcDbEntity
  8
0
100
AcDbLine
 10
35.18884757729337
 20
48.0
 30
0.0
 11
7.937761574502024
 21
28.16283168711121
 31
0.0
  0
LINE
  5
24A8
330
2489
100
AcDbEntity
  8
0
100
AcDbLine
 10
7.937761574502024
 20
28.16283168711121
 30
0.0
 11
0.8038475772933683
 21
25.6470286555879
 31
0.0
  0
ELLIPSE
  5
24A9
330
2489
100
AcDbEntity
  8
0
100
AcDbEllipse
 10
0.678847577293365
 20
0.0000000000000215
 30
0.0
 11
-0.0000000000000002
 21
2.250000000000001
 31
0.0
210
0.0
220
0.0
230
1.0
 40
0.4999999999999999
 41
3.25293366793076
 42
6.171844292838619
  0
LINE
  5
24AA
330
2489
100
AcDbEntity
  8
0
100
AcDbLine
 10
0.803847577293369
 20
-25.6470286555879
 30
0.0
 11
7.937761574502029
 21
-28.16283168711123
 31
0.0
  0
LINE
  5
24AB
330
2489
100
AcDbEntity
  8
0
100
AcDbLine
 10
7.937761574502029
 20
-28.16283168711123
 30
0.0
 11
35.18884757729338
 21
-48.0
 31
0.0
  0
LINE
  5
24AC
330
2489
100
AcDbEntity
  8
0
100
AcDbLine
 10
35.18884757729338
 20
-48.0
 30
0.0
 11
48.05384757729336
 21
-47.99999999999998
 31
0.0
  0
LINE
  5
24AD
330
2489
100
AcDbEntity
  8
0
100
AcDbLine
 10
49.05384757729336
 20
-45.99999999999997
 30
0.0
 11
49.05384757729334
 21
44.00000000000002
 31
0.0
  0
LINE
  5
24AE
330
2489
100
AcDbEntity
  8
0
100
AcDbLine
 10
51.65192378864668
 20
-45.99999999999997
 30
0.0
 11
51.65192378864666
 21
44.00000000000002
 31
0.0
  0
LINE
  5
24AF
330
2489
100
AcDbEntity
  8
0
100
AcDbLine
 10
41.90192378864665
 20
36.00000000000002
 30
0.0
 11
41.90192378864666
 21
44.0
 31
0.0
  0
ELLIPSE
  5
24B0
330
2489
100
AcDbEntity
  8
0
100
AcDbEllipse
 10
44.02692378864666
 20
36.00000000000002
 30
0.0
 11
0.0000000000002193
 21
4.25
 31
0.0
210
0.0
220
0.0
230
1.0
 40
0.5000000000000002
 41
1.570796326795159
 42
2.69173043901666
  0
LINE
  5
24B1
330
2489
100
AcDbEntity
  8
0
100
AcDbLine
 10
0.0
 20
-45.99999999999998
 30
0.0
 11
0.0
 21
-34.94511068481089
 31
0.0
  0
LINE
  5
24B2
330
2489
100
AcDbEntity
  8
0
100
AcDbLine
 10
0.0
 20
-33.06572544323908
 30
0.0
 11
0.0
 21
-32.7322514405971
 31
0.0
  0
LINE
  5
24B3
330
2489
100
AcDbEntity
  8
0
100
AcDbLine
 10
0.0
 20
-32.7322514405971
 30
0.0
 11
0.0
 21
-29.08959409235752
 31
0.0
  0
LINE
  5
24B4
330
2489
100
AcDbEntity
  8
0
100
AcDbLine
 10
0.0
 20
-29.08959408653551
 30
0.0
 11
0.0
 21
-24.62377664808004
 31
0.0
  0
LINE
  5
24B5
330
2489
100
AcDbEntity
  8
0
100
AcDbLine
 10
0.0
 20
24.62377664808004
 30
0.0
 11
0.0
 21
29.08959409235751
 31
0.0
  0
LINE
  5
24B6
330
2489
100
AcDbEntity
  8
0
100
AcDbLine
 10
0.0
 20
29.08959409235752
 30
0.0
 11
0.0
 21
32.73225144059707
 31
0.0
  0
LINE
  5
24B7
330
2489
100
AcDbEntity
  8
0
100
AcDbLine
 10
0.0
 20
32.73225144059707
 30
0.0
 11
0.0
 21
33.06572544323906
 31
0.0
  0
LINE
  5
24B8
330
2489
100
AcDbEntity
  8
0
100
AcDbLine
 10
0.0
 20
34.94511068481087
 30
0.0
 11
0.0
 21
45.99999999999998
 31
0.0
  0
LINE
  5
24B9
330
2489
100
AcDbEntity
  8
0
100
AcDbLine
 10
3.0
 20
-29.08959408653551
 30
0.0
 11
3.0
 21
-26.42151050733078
 31
0.0
  0
LINE
  5
24BA
330
2489
100
AcDbEntity
  8
0
100
AcDbLine
 10
3.0
 20
-32.7322514405971
 30
0.0
 11
3.0
 21
-29.08959409235752
 31
0.0
  0
LINE
  5
24BB
330
2489
100
AcDbEntity
  8
0
100
AcDbLine
 10
3.0
 20
-33.06572544323908
 30
0.0
 11
3.0
 21
-32.7322514405971
 31
0.0
  0
LINE
  5
24BC
330
2489
100
AcDbEntity
  8
0
100
AcDbLine
 10
3.0
 20
-45.99999999999998
 30
0.0
 11
3.0
 21
-34.94511068481089
 31
0.0
  0
LINE
  5
24BD
330
2489
100
AcDbEntity
  8
0
100
AcDbLine
 10
0.0
 20
-32.7322514405971
 30
0.0
 11
3.0
 21
-32.7322514405971
 31
0.0
  0
LINE
  5
24BE
330
2489
100
AcDbEntity
  8
0
100
AcDbLine
 10
3.0
 20
34.94511068481087
 30
0.0
 11
3.0
 21
45.99999999999998
 31
0.0
  0
LINE
  5
24BF
330
2489
100
AcDbEntity
  8
0
100
AcDbLine
 10
3.0
 20
32.73225144059707
 30
0.0
 11
3.0
 21
33.06572544323906
 31
0.0
  0
LINE
  5
24C0
330
2489
100
AcDbEntity
  8
0
100
AcDbLine
 10
3.0
 20
29.08959409235752
 30
0.0
 11
3.0
 21
32.73225144059707
 31
0.0
  0
LINE
  5
24C1
330
2489
100
AcDbEntity
  8
0
100
AcDbLine
 10
3.0
 20
26.42151050733077
 30
0.0
 11
3.0
 21
29.08959409235751
 31
0.0
  0
LINE
  5
24C2
330
2489
100
AcDbEntity
  8
0
100
AcDbLine
 10
0.0
 20
32.73225144059707
 30
0.0
 11
3.0
 21
32.73225144059707
 31
0.0
  0
LINE
  5
24C3
330
2489
100
AcDbEntity
  8
0
100
AcDbLine
 10
43.80384757729333
 20
42.00000000000001
 30
0.0
 11
45.51095435847989
 21
45.41421356237309
 31
0.0
  0
LINE
  5
24C4
330
2489
100
AcDbEntity
  8
0
100
AcDbLine
 10
37.5967407961068
 20
47.41421356237309
 30
0.0
 11
39.30384757729334
 21
44.0
 31
0.0
  0
LINE
  5
24C5
330
2489
100
AcDbEntity
  8
0
100
AcDbLine
 10
39.30384757729334
 20
44.0
 30
0.0
 11
41.90192378864666
 21
44.0
 31
0.0
  0
LINE
  5
24C6
330
2489
100
AcDbEntity
  8
0
100
AcDbLine
 10
41.90192378864666
 20
44.0
 30
0.0
 11
40.19481700746012
 21
47.41421356237309
 31
0.0
  0
ELLIPSE
  5
24C7
330
2489
100
AcDbEntity
  8
0
100
AcDbEllipse
 10
10.6914107102169
 20
16.0
 30
0.0
 11
-0.000000000000001
 21
4.000000000000003
 31
0.0
210
0.0
220
0.0
230
1.0
 40
0.5
 41
4.712388980384691
 42
6.380930886913569
  0
LINE
  5
24C8
330
2489
100
AcDbEntity
  8
0
100
AcDbLine
 10
12.69141071021691
 20
16.00000000000001
 30
0.0
 11
12.69141071021692
 21
-15.99999999999999
 31
0.0
  0
ELLIPSE
  5
24C9
330
2489
100
AcDbEntity
  8
0
100
AcDbEllipse
 10
10.6914107102169
 20
-15.99999999999998
 30
0.0
 11
-0.0000000000000042
 21
-4.0
 31
0.0
210
0.0
220
0.0
230
1.0
 40
0.5000000000000002
 41
6.185439727445609
 42
7.853981633974479
  0
ELLIPSE
  5
24CA
330
2489
100
AcDbEntity
  8
0
100
AcDbEllipse
 10
39.26378406783228
 20
-35.99999999999998
 30
0.0
 11
0.0000000000000014
 21
-7.250000000000001
 31
0.0
210
0.0
220
0.0
230
1.0
 40
0.5
 41
0.0
 42
6.283185307179585
  0
ELLIPSE
  5
24CB
330
2489
100
AcDbEntity
  8
0
100
AcDbEllipse
 10
39.26378406783229
 20
-11.99999999999997
 30
0.0
 11
0.0000000000000014
 21
-7.250000000000001
 31
0.0
210
0.0
220
0.0
230
1.0
 40
0.5
 41
0.0
 42
6.283185307179585
  0
ELLIPSE
  5
24CC
330
2489
100
AcDbEntity
  8
0
100
AcDbEllipse
 10
39.26378406783227
 20
12.00000000000002
 30
0.0
 11
0.0000000000000014
 21
-7.250000000000001
 31
0.0
210
0.0
220
0.0
230
1.0
 40
0.5
 41
0.0
 42
6.283185307179585
  0
SPLINE
  5
24CD
330
2489
100
AcDbEntity
  8
0
100
AcDbSpline
210
0.0
220
0.0
230
1.0
 70
     8
 71
     3
 72
    18
 73
    14
 74
     0
 42
0.000000001
 43
0.0000000001
 40
1.570796326794899
 40
1.570796326794899
 40
1.570796326794899
 40
1.570796326794899
 40
1.865406476207081
 40
1.865406476207081
 40
2.160016625619263
 40
2.160016625619263
 40
2.454626775031445
 40
2.454626775031445
 40
2.749236924443628
 40
2.749236924443628
 40
2.981818917847892
 40
2.981818917847892
 40
3.04384707385581
 40
3.04384707385581
 40
3.04384707385581
 40
3.04384707385581
 10
7.603443357884033
 20
-15.99999999999999
 30
0.0
 10
7.603443357884033
 20
-16.2496290824501
 30
0.0
 10
7.62138959563971
 20
-16.4991764768905
 30
0.0
 10
7.698276805833272
 20
-17.00594620419004
 30
0.0
 10
7.756797907992333
 20
-17.26307711991648
 30
0.0
 10
7.935194731487179
 20
-17.79685814980724
 30
0.0
 10
8.053880582510918
 20
-18.07419703202403
 30
0.0
 10
8.410964470829654
 20
-18.65999167104207
 30
0.0
 10
8.64966170578336
 20
-18.97365971507422
 30
0.0
 10
9.298882598177966
 20
-19.5109696720522
 30
0.0
 10
9.669902267523243
 20
-19.73858009627663
 30
0.0
 10
10.24164641853003
 20
-19.92285016276413
 30
0.0
 10
10.36715459563018
 20
-19.95559290635481
 30
0.0
 10
10.49623069562719
 20
-19.98090681222494
 30
0.0
  0
SPLINE
  5
24CE
330
2489
100
AcDbEntity
  8
0
100
AcDbSpline
210
0.0
220
0.0
230
1.0
 70
     8
 71
     3
 72
    18
 73
    14
 74
     0
 42
0.000000001
 43
0.0000000001
 40
0.0977455797339827
 40
0.0977455797339827
 40
0.0977455797339827
 40
0.0977455797339827
 40
0.2638807415943646
 40
0.2638807415943646
 40
0.4583623256732417
 40
0.4583623256732417
 40
0.7153518205455258
 40
0.7153518205455258
 40
1.009961969957708
 40
1.009961969957708
 40
1.30457211936989
 40
1.30457211936989
 40
1.570796326794895
 40
1.570796326794895
 40
1.570796326794895
 40
1.570796326794895
 10
10.49623069562719
 20
19.98090681222496
 30
0.0
 10
10.15051545684799
 20
19.91310647573721
 30
0.0
 10
9.832975042578823
 20
19.79144477086251
 30
0.0
 10
9.245548888584661
 20
19.4740217307155
 30
0.0
 10
8.991396937716526
 20
19.27175378887854
 30
0.0
 10
8.516204339291643
 20
18.80282351847051
 30
0.0
 10
8.328121806613911
 20
18.53586987106841
 30
0.0
 10
8.015590880530362
 20
17.99276772362001
 30
0.0
 10
7.904319122291768
 20
17.71813056377794
 30
0.0
 10
7.737845853171553
 20
17.18805583872524
 30
0.0
 10
7.683751052137646
 20
16.93209141144899
 30
0.0
 10
7.618169159586453
 20
16.45110477875474
 30
0.0
 10
7.603443357884027
 20
16.22557710505938
 30
0.0
 10
7.603443357884027
 20
16.0
 30
0.0
  0
LINE
  5
24CF
330
2489
100
AcDbEntity
  8
0
100
AcDbLine
 10
7.603443357884033
 20
-15.99999999999999
 30
0.0
 11
7.603443357884027
 21
16.0
 31
0.0
  0
SPLINE
  5
24D0
330
2489
100
AcDbEntity
  8
0
100
AcDbSpline
210
0.0
220
0.0
230
1.0
 70
     8
 71
     3
 72
     8
 73
     4
 74
     0
 42
0.000000001
 43
0.0000000001
 40
0.0977455797339822
 40
0.0977455797339822
 40
0.0977455797339822
 40
0.0977455797339822
 40
0.196059531272803
 40
0.196059531272803
 40
0.196059531272803
 40
0.196059531272803
 10
38.91002029138844
 20
-28.78460640284225
 30
0.0
 10
38.93114574775374
 20
-28.78046335998686
 30
0.0
 10
38.94396963337907
 20
-28.7756206631888
 30
0.0
 10
38.94396963337907
 20
-28.7756206631888
 30
0.0
  0
SPLINE
  5
24D1
330
2489
100
AcDbEntity
  8
0
100
AcDbSpline
210
0.0
220
0.0
230
1.0
 70
     8
 71
     3
 72
    10
 73
     6
 74
     0
 42
0.000000001
 43
0.0000000001
 40
2.945533122316989
 40
2.945533122316989
 40
2.945533122316989
 40
2.945533122316989
 40
2.946672907633787
 40
2.946672907633787
 40
3.043847073855811
 40
3.043847073855811
 40
3.043847073855811
 40
3.043847073855811
 10
38.94396963337907
 20
-43.22437933681116
 30
0.0
 10
38.94396963337907
 20
-43.22437933681116
 30
0.0
 10
38.94396795987979
 20
-43.22437867206334
 30
0.0
 10
38.94367956974817
 20
-43.22426480039932
 30
0.0
 10
38.9309008335315
 20
-43.21948860838239
 30
0.0
 10
38.91002029138844
 20
-43.2153935971577
 30
0.0
  0
SPLINE
  5
24D2
330
2489
100
AcDbEntity
  8
0
100
AcDbSpline
210
0.0
220
0.0
230
1.0
 70
     8
 71
     3
 72
     8
 73
     4
 74
     0
 42
0.000000001
 43
0.0000000001
 40
0.0977455797339819
 40
0.0977455797339819
 40
0.0977455797339819
 40
0.0977455797339819
 40
0.1960595312728031
 40
0.1960595312728031
 40
0.1960595312728031
 40
0.1960595312728031
 10
38.91002029138844
 20
-4.784606402842247
 30
0.0
 10
38.93114574775374
 20
-4.780463359986853
 30
0.0
 10
38.94396963337907
 20
-4.77562066318879
 30
0.0
 10
38.94396963337907
 20
-4.77562066318879
 30
0.0
  0
SPLINE
  5
24D3
330
2489
100
AcDbEntity
  8
0
100
AcDbSpline
210
0.0
220
0.0
230
1.0
 70
     8
 71
     3
 72
    10
 73
     6
 74
     0
 42
0.000000001
 43
0.0000000001
 40
2.945533122316989
 40
2.945533122316989
 40
2.945533122316989
 40
2.945533122316989
 40
2.946672907633788
 40
2.946672907633788
 40
3.043847073855811
 40
3.043847073855811
 40
3.043847073855811
 40
3.043847073855811
 10
38.94396963337907
 20
-19.22437933681116
 30
0.0
 10
38.94396963337907
 20
-19.22437933681116
 30
0.0
 10
38.9439679598798
 20
-19.22437867206334
 30
0.0
 10
38.94367956974818
 20
-19.22426480039932
 30
0.0
 10
38.9309008335315
 20
-19.21948860838239
 30
0.0
 10
38.91002029138844
 20
-19.2153935971577
 30
0.0
  0
SPLINE
  5
24D4
330
2489
100
AcDbEntity
  8
0
100
AcDbSpline
210
0.0
220
0.0
230
1.0
 70
     8
 71
     3
 72
     8
 73
     4
 74
     0
 42
0.000000001
 43
0.0000000001
 40
0.097745579733985
 40
0.097745579733985
 40
0.097745579733985
 40
0.097745579733985
 40
0.196059531272803
 40
0.196059531272803
 40
0.196059531272803
 40
0.196059531272803
 10
38.91002029138842
 20
19.21539359715776
 30
0.0
 10
38.93114574775373
 20
19.21953664001315
 30
0.0
 10
38.94396963337905
 20
19.22437933681121
 30
0.0
 10
38.94396963337905
 20
19.22437933681121
 30
0.0
  0
SPLINE
  5
24D5
330
2489
100
AcDbEntity
  8
0
100
AcDbSpline
210
0.0
220
0.0
230
1.0
 70
     8
 71
     3
 72
    10
 73
     6
 74
     0
 42
0.000000001
 43
0.0000000001
 40
2.945533122316989
 40
2.945533122316989
 40
2.945533122316989
 40
2.945533122316989
 40
2.946672907633784
 40
2.946672907633784
 40
3.043847073855808
 40
3.043847073855808
 40
3.043847073855808
 40
3.043847073855808
 10
38.94396963337905
 20
4.775620663188837
 30
0.0
 10
38.94396963337905
 20
4.775620663188837
 30
0.0
 10
38.94396795987978
 20
4.775621327936651
 30
0.0
 10
38.94367956974816
 20
4.775735199600671
 30
0.0
 10
38.93090083353149
 20
4.780511391617602
 30
0.0
 10
38.91002029138842
 20
4.784606402842292
 30
0.0
  0
SPLINE
  5
24D6
330
2489
100
AcDbEntity
  8
0
100
AcDbSpline
210
0.0
220
0.0
230
1.0
 70
     8
 71
     3
 72
    14
 73
    10
 74
     0
 42
0.000000001
 43
0.0000000001
 40
1.149645678282498
 40
1.149645678282498
 40
1.149645678282498
 40
1.149645678282498
 40
1.349489658888096
 40
1.349489658888096
 40
1.612176615175742
 40
1.612176615175742
 40
1.8784962049742
 40
1.8784962049742
 40
1.991946975307295
 40
1.991946975307295
 40
1.991946975307295
 40
1.991946975307295
 10
41.04807260596449
 20
-33.69180640960078
 30
0.0
 10
40.97432255033607
 20
-34.02108199801549
 30
0.0
 10
40.91486774249204
 20
-34.37580458410597
 30
0.0
 10
40.81901109591224
 20
-35.22789459760567
 30
0.0
 10
40.79589914794805
 20
-35.73502962974105
 30
0.0
 10
40.81686095294366
 20
-36.74758125527311
 30
0.0
 10
40.86191087472031
 20
-37.2528531058455
 30
0.0
 10
40.96889367339882
 20
-37.92613867759169
 30
0.0
 10
41.00620494201085
 20
-38.12126492212343
 30
0.0
 10
41.04807260596449
 20
-38.30819359039919
 30
0.0
  0
SPLINE
  5
24D7
330
2489
100
AcDbEntity
  8
0
100
AcDbSpline
210
0.0
220
0.0
230
1.0
 70
     8
 71
     3
 72
    14
 73
    10
 74
     0
 42
0.000000001
 43
0.0000000001
 40
1.149645678282497
 40
1.149645678282497
 40
1.149645678282497
 40
1.149645678282497
 40
1.349489658888096
 40
1.349489658888096
 40
1.612176615175742
 40
1.612176615175742
 40
1.8784962049742
 40
1.8784962049742
 40
1.991946975307297
 40
1.991946975307297
 40
1.991946975307297
 40
1.991946975307297
 10
41.04807260596449
 20
-9.691806409600774
 30
0.0
 10
40.97432255033607
 20
-10.02108199801548
 30
0.0
 10
40.91486774249204
 20
-10.37580458410596
 30
0.0
 10
40.81901109591224
 20
-11.22789459760566
 30
0.0
 10
40.79589914794805
 20
-11.73502962974104
 30
0.0
 10
40.81686095294366
 20
-12.74758125527311
 30
0.0
 10
40.86191087472031
 20
-13.25285310584549
 30
0.0
 10
40.96889367339882
 20
-13.92613867759168
 30
0.0
 10
41.00620494201085
 20
-14.12126492212342
 30
0.0
 10
41.04807260596449
 20
-14.30819359039919
 30
0.0
  0
SPLINE
  5
24D8
330
2489
100
AcDbEntity
  8
0
100
AcDbSpline
210
0.0
220
0.0
230
1.0
 70
     8
 71
     3
 72
    14
 73
    10
 74
     0
 42
0.000000001
 43
0.0000000001
 40
1.149645678282499
 40
1.149645678282499
 40
1.149645678282499
 40
1.149645678282499
 40
1.349489658888096
 40
1.349489658888096
 40
1.612176615175742
 40
1.612176615175742
 40
1.8784962049742
 40
1.8784962049742
 40
1.991946975307294
 40
1.991946975307294
 40
1.991946975307294
 40
1.991946975307294
 10
41.04807260596448
 20
14.30819359039922
 30
0.0
 10
40.97432255033606
 20
13.97891800198451
 30
0.0
 10
40.91486774249204
 20
13.62419541589403
 30
0.0
 10
40.81901109591224
 20
12.77210540239433
 30
0.0
 10
40.79589914794805
 20
12.26497037025895
 30
0.0
 10
40.81686095294366
 20
11.25241874472689
 30
0.0
 10
40.86191087472031
 20
10.74714689415451
 30
0.0
 10
40.96889367339882
 20
10.07386132240831
 30
0.0
 10
41.00620494201085
 20
9.878735077876585
 30
0.0
 10
41.04807260596449
 20
9.691806409600825
 30
0.0
  0
LINE
  5
24D9
330
2489
100
AcDbEntity
  8
0
100
AcDbLine
 10
0.0
 20
-24.62377664808004
 30
0.0
 11
0.0
 21
-2.249999999999987
 31
0.0
  0
LINE
  5
24DA
330
2489
100
AcDbEntity
  8
0
100
AcDbLine
 10
0.0
 20
2.250000000000022
 30
0.0
 11
0.0
 21
24.62377664808004
 31
0.0
  0
SPLINE
  5
24DB
330
2489
100
AcDbEntity
  8
0
100
AcDbSpline
210
0.0
220
0.0
230
1.0
 70
     8
 71
     3
 72
    10
 73
     6
 74
     0
 42
0.000000001
 43
0.0000000001
 40
0.0
 40
0.0
 40
0.0
 40
0.0
 40
0.155147460500738
 40
0.155147460500738
 40
0.3102949210733136
 40
0.3102949210733136
 40
0.3102949210733136
 40
0.3102949210733136
 10
0.0034872205992836
 20
-24.65795920380256
 30
0.0
 10
0.0201947489047001
 20
-24.82301022260316
 30
0.0
 10
0.0968573032142144
 20
-24.9874435316222
 30
0.0
 10
0.3666622982668786
 20
-25.31754432761628
 30
0.0
 10
0.5587910700501722
 20
-25.48197763671093
 30
0.0
 10
0.8038475772933894
 20
-25.64702865558792
 30
0.0
  0
LINE
  5
24DC
330
2489
100
AcDbEntity
  8
0
100
AcDbLine
 10
0.0
 20
-2.249999999999983
 30
0.0
 11
0.7396394657549522
 21
-2.250000000000002
 31
0.0
  0
SPLINE
  5
24DD
330
2489
100
AcDbEntity
  8
0
100
AcDbSpline
210
0.0
220
0.0
230
1.0
 70
     8
 71
     3
 72
    10
 73
     6
 74
     0
 42
0.000000001
 43
0.0000000001
 40
0.0
 40
0.0
 40
0.0
 40
0.0
 40
0.0050367638281728
 40
0.0050367638281728
 40
0.0090697126194823
 40
0.0090697126194823
 40
0.0090697126194823
 40
0.0090697126194823
 10
0.8038475772933683
 20
-2.236067977499769
 30
0.0
 10
0.7956376862666608
 20
-2.239570608287938
 30
0.0
 10
0.7849221550311829
 20
-2.243592436580944
 30
0.0
 10
0.7608379646721254
 20
-2.248828409703412
 30
0.0
 10
0.7501971296160144
 20
-2.250000014954584
 30
0.0
 10
0.7396394657549527
 20
-2.249999999999979
 30
0.0
  0
SPLINE
  5
24DE
330
2489
100
AcDbEntity
  8
0
100
AcDbSpline
210
0.0
220
0.0
230
1.0
 70
     8
 71
     3
 72
    10
 73
     6
 74
     0
 42
0.000000001
 43
0.0000000001
 40
0.0
 40
0.0
 40
0.0
 40
0.0
 40
0.0103760936347953
 40
0.0103760936347953
 40
0.0242612202928636
 40
0.0242612202928636
 40
0.0242612202928636
 40
0.0242612202928636
 10
0.0
 20
-24.62377664808004
 30
0.0
 10
0.0000000000001817
 20
-24.62377655829533
 30
0.0
 10
0.0002996209233266
 20
-24.62668553317782
 30
0.0
 10
0.0016710510031345
 20
-24.64007726401566
 30
0.0
 10
0.0028009240142562
 20
-24.65119019567949
 30
0.0
 10
0.0034872205992842
 20
-24.65795920380257
 30
0.0
  0
LINE
  5
24DF
330
2489
100
AcDbEntity
  8
0
100
AcDbLine
 10
0.739639465754951
 20
2.249999999999999
 30
0.0
 11
0.0
 21
2.250000000000023
 31
0.0
  0
SPLINE
  5
24E0
330
2489
100
AcDbEntity
  8
0
100
AcDbSpline
210
0.0
220
0.0
230
1.0
 70
     8
 71
     3
 72
    10
 73
     6
 74
     0
 42
0.000000001
 43
0.0000000001
 40
0.0
 40
0.0
 40
0.0
 40
0.0
 40
0.0065849752905507
 40
0.0065849752905507
 40
0.0148089739246606
 40
0.0148089739246606
 40
0.0148089739246606
 40
0.0148089739246606
 10
0.7396394657549522
 20
2.250000000000022
 30
0.0
 10
0.7501971296161716
 20
2.250000014954609
 30
0.0
 10
0.7608379646719829
 20
2.248828409703499
 30
0.0
 10
0.7849221550306769
 20
2.243592436581077
 30
0.0
 10
0.7956376862671278
 20
2.239570608287789
 30
0.0
 10
0.8038475772933683
 20
2.236067977499809
 30
0.0
  0
SPLINE
  5
24E1
330
2489
100
AcDbEntity
  8
0
100
AcDbSpline
210
0.0
220
0.0
230
1.0
 70
     8
 71
     3
 72
    10
 73
     6
 74
     0
 42
0.000000001
 43
0.0000000001
 40
0.0
 40
0.0
 40
0.0
 40
0.0
 40
0.1551474605007348
 40
0.1551474605007348
 40
0.3102949210733002
 40
0.3102949210733002
 40
0.3102949210733002
 40
0.3102949210733002
 10
0.8038475772933677
 20
25.6470286555879
 30
0.0
 10
0.5587910701636132
 20
25.48197763678737
 30
0.0
 10
0.3666622984443503
 20
25.31754432776827
 30
0.0
 10
0.0968573032851751
 20
24.98744353177418
 30
0.0
 10
0.0201947489124362
 20
24.82301022267951
 30
0.0
 10
0.0034872205992842
 20
24.65795920380256
 30
0.0
  0
SPLINE
  5
24E2
330
2489
100
AcDbEntity
  8
0
100
AcDbSpline
210
0.0
220
0.0
230
1.0
 70
     8
 71
     3
 72
    10
 73
     6
 74
     0
 42
0.000000001
 43
0.0000000001
 40
0.0
 40
0.0
 40
0.0
 40
0.0
 40
0.0063719716860363
 40
0.0063719716860363
 40
0.0111336261117285
 40
0.0111336261117285
 40
0.0111336261117285
 40
0.0111336261117285
 10
0.0034872205992842
 20
24.65795920380257
 30
0.0
 10
0.0028009240147768
 20
24.65119019568462
 30
0.0
 10
0.0016710510028035
 20
24.64007726401238
 30
0.0
 10
0.0002996209230777
 20
24.62668553317542
 30
0.0
 10
0.0000000000001817
 20
24.62377655829526
 30
0.0
 10
0.0
 20
24.62377664808004
 30
0.0
  0
ELLIPSE
  5
24E3
330
2489
100
AcDbEntity
  8
0
100
AcDbEllipse
 10
39.26378406783228
 20
-35.99999999999998
 30
0.0
 11
-0.0000000000000008
 21
4.25
 31
0.0
210
0.0
220
0.0
230
1.0
 40
0.5
 41
0.0
 42
6.283185307179585
  0
ELLIPSE
  5
24E4
330
2489
100
AcDbEntity
  8
0
100
AcDbEllipse
 10
39.26378406783228
 20
-11.99999999999997
 30
0.0
 11
-0.0000000000000008
 21
4.25
 31
0.0
210
0.0
220
0.0
230
1.0
 40
0.5
 41
0.0
 42
6.283185307179585
  0
ELLIPSE
  5
24E5
330
2489
100
AcDbEntity
  8
0
100
AcDbEllipse
 10
39.26378406783227
 20
12.00000000000002
 30
0.0
 11
-0.0000000000000008
 21
4.25
 31
0.0
210
0.0
220
0.0
230
1.0
 40
0.5000000000000002
 41
0.0
 42
6.283185307179585
  0
ENDBLK
  5
248B
330
2489
100
AcDbEntity
  8
0
100
AcDbBlockEnd
  0
BLOCK
  5
24E7
330
24E6
100
AcDbEntity
  8
0
100
AcDbBlockBegin
  2
TU_S12_SKL-Right
 70
     0
 10
0.0
 20
0.0
 30
0.0
  3
TU_S12_SKL-Right
  1

  0
ELLIPSE
  5
24E9
330
24E6
100
AcDbEntity
  8
0
100
AcDbEllipse
 10
-48.81613735101975
 20
44.00000000000001
 30
0.0
 11
0.0000000000000089
 21
2.0
 31
0.0
210
0.0
220
0.0
230
1.0
 40
0.5
 41
5.497787143782167
 42
6.283185307179619
  0
ELLIPSE
  5
24EA
330
24E6
100
AcDbEntity
  8
0
100
AcDbEllipse
 10
-46.21806113966642
 20
44.00000000000001
 30
0.0
 11
-0.0000000000000001
 21
2.0
 31
0.0
210
0.0
220
0.0
230
1.0
 40
0.5
 41
5.497787143782137
 42
6.283185307179586
  0
LINE
  5
24EB
330
24E6
100
AcDbEntity
  8
0
100
AcDbLine
 10
-46.21806113966642
 20
46.00000000000001
 30
0.0
 11
-48.81613735101975
 21
46.00000000000001
 31
0.0
  0
ELLIPSE
  5
24EC
330
24E6
100
AcDbEntity
  8
0
100
AcDbEllipse
 10
-39.48771022627358
 20
46.0
 30
0.0
 11
0.0000000000000003
 21
2.0
 31
0.0
210
0.0
220
0.0
230
1.0
 40
0.5
 41
0.0
 42
0.7853981633974483
  0
ELLIPSE
  5
24ED
330
24E6
100
AcDbEntity
  8
0
100
AcDbEllipse
 10
-50.65192378864665
 20
44.00000000000001
 30
0.0
 11
0.0000000000000046
 21
2.0
 31
0.0
210
0.0
220
0.0
230
1.0
 40
0.4999999999999969
 41
0.0
 42
1.570796326794888
  0
ELLIPSE
  5
24EE
330
24E6
100
AcDbEntity
  8
0
100
AcDbEllipse
 10
-50.65192378864669
 20
-45.99999999999997
 30
0.0
 11
0.0000000000000089
 21
-2.0
 31
0.0
210
0.0
220
0.0
230
1.0
 40
0.5
 41
4.712388980384687
 42
6.283185307179586
  0
LINE
  5
24EF
330
24E6
100
AcDbEntity
  8
0
100
AcDbLine
 10
-3.0
 20
-4.249999999999998
 30
0.0
 11
-3.0
 21
-2.249999999999997
 31
0.0
  0
LINE
  5
24F0
330
24E6
100
AcDbEntity
  8
0
100
AcDbLine
 10
0.0
 20
-2.249999999999997
 30
0.0
 11
0.0
 21
-4.249999999999998
 31
0.0
  0
LINE
  5
24F1
330
24E6
100
AcDbEntity
  8
0
100
AcDbLine
 10
0.0
 20
-2.249999999999997
 30
0.0
 11
-3.0
 21
-2.249999999999997
 31
0.0
  0
LINE
  5
24F2
330
24E6
100
AcDbEntity
  8
0
100
AcDbLine
 10
0.0
 20
-46.0
 30
0.0
 11
0.0
 21
-48.0
 31
0.0
  0
LINE
  5
24F3
330
24E6
100
AcDbEntity
  8
0
100
AcDbLine
 10
-3.0
 20
2.250000000000007
 30
0.0
 11
-3.0
 21
4.250000000000007
 31
0.0
  0
LINE
  5
24F4
330
24E6
100
AcDbEntity
  8
0
100
AcDbLine
 10
-3.0
 20
2.250000000000007
 30
0.0
 11
0.0
 21
2.250000000000007
 31
0.0
  0
LINE
  5
24F5
330
24E6
100
AcDbEntity
  8
0
100
AcDbLine
 10
0.0
 20
4.250000000000006
 30
0.0
 11
0.0
 21
2.250000000000007
 31
0.0
  0
LINE
  5
24F6
330
24E6
100
AcDbEntity
  8
0
100
AcDbLine
 10
0.0
 20
48.0
 30
0.0
 11
0.0
 21
46.0
 31
0.0
  0
LINE
  5
24F7
330
24E6
100
AcDbEntity
  8
0
100
AcDbLine
 10
-3.0
 20
-48.0
 30
0.0
 11
-3.0
 21
-46.0
 31
0.0
  0
LINE
  5
24F8
330
24E6
100
AcDbEntity
  8
0
100
AcDbLine
 10
-3.0
 20
-48.0
 30
0.0
 11
0.0
 21
-48.0
 31
0.0
  0
LINE
  5
24F9
330
24E6
100
AcDbEntity
  8
0
100
AcDbLine
 10
-3.0
 20
46.0
 30
0.0
 11
-3.0
 21
48.0
 31
0.0
  0
LINE
  5
24FA
330
24E6
100
AcDbEntity
  8
0
100
AcDbLine
 10
0.0
 20
48.0
 30
0.0
 11
-3.0
 21
48.0
 31
0.0
  0
LINE
  5
24FB
330
24E6
100
AcDbEntity
  8
0
100
AcDbLine
 10
-50.65192378864665
 20
46.00000000000001
 30
0.0
 11
-48.81613735101975
 21
46.00000000000001
 31
0.0
  0
LINE
  5
24FC
330
24E6
100
AcDbEntity
  8
0
100
AcDbLine
 10
-43.80384757729333
 20
42.00000000000001
 30
0.0
 11
-43.80384757729333
 21
38.7386127875259
 31
0.0
  0
ELLIPSE
  5
24FD
330
24E6
100
AcDbEntity
  8
0
100
AcDbEllipse
 10
-42.17884757729335
 20
36.00000000000002
 30
0.0
 11
0.0000000000002197
 21
-4.249999999999998
 31
0.0
210
0.0
220
0.0
230
1.0
 40
0.5000000000000002
 41
4.012177424850118
 42
5.833323092605458
  0
LINE
  5
24FE
330
24E6
100
AcDbEntity
  8
0
100
AcDbLine
 10
-35.18884757729337
 20
48.0
 30
0.0
 11
-7.937761574502024
 21
28.16283168711121
 31
0.0
  0
LINE
  5
24FF
330
24E6
100
AcDbEntity
  8
0
100
AcDbLine
 10
-7.937761574502024
 20
28.16283168711121
 30
0.0
 11
-2.999999999999998
 21
26.42151050733077
 31
0.0
  0
ELLIPSE
  5
2500
330
24E6
100
AcDbEntity
  8
0
100
AcDbEllipse
 10
-0.678847577293365
 20
0.0000000000000215
 30
0.0
 11
0.0000000000000002
 21
2.250000000000001
 31
0.0
210
0.0
220
0.0
230
1.0
 40
0.4999999999999999
 41
0.1113410143409672
 42
3.030251639248826
  0
LINE
  5
2501
330
24E6
100
AcDbEntity
  8
0
100
AcDbLine
 10
-2.999999999999999
 20
-26.42151050733078
 30
0.0
 11
-7.937761574502029
 21
-28.16283168711123
 31
0.0
  0
LINE
  5
2502
330
24E6
100
AcDbEntity
  8
0
100
AcDbLine
 10
-7.937761574502029
 20
-28.16283168711123
 30
0.0
 11
-35.18884757729338
 21
-48.0
 31
0.0
  0
LINE
  5
2503
330
24E6
100
AcDbEntity
  8
0
100
AcDbLine
 10
-51.65192378864668
 20
-45.99999999999997
 30
0.0
 11
-51.65192378864666
 21
44.00000000000002
 31
0.0
  0
LINE
  5
2504
330
24E6
100
AcDbEntity
  8
0
100
AcDbLine
 10
-37.7869237886467
 20
-48.0
 30
0.0
 11
-50.65192378864669
 21
-47.99999999999998
 31
0.0
  0
LINE
  5
2505
330
24E6
100
AcDbEntity
  8
0
100
AcDbLine
 10
-10.53583778585534
 20
-28.16283168711123
 30
0.0
 11
-37.78692378864669
 21
-48.0
 31
0.0
  0
LINE
  5
2506
330
24E6
100
AcDbEntity
  8
0
100
AcDbLine
 10
-3.401923788646686
 20
-25.6470286555879
 30
0.0
 11
-10.53583778585534
 21
-28.16283168711123
 31
0.0
  0
ELLIPSE
  5
2507
330
24E6
100
AcDbEntity
  8
0
100
AcDbEllipse
 10
-3.276923788646681
 20
0.0000000000000217
 30
0.0
 11
0.0
 21
2.250000000000001
 31
0.0
210
0.0
220
0.0
230
1.0
 40
0.4999999999999999
 41
0.1113410143409672
 42
3.030251639248826
  0
LINE
  5
2508
330
24E6
100
AcDbEntity
  8
0
100
AcDbLine
 10
-10.53583778585534
 20
28.16283168711121
 30
0.0
 11
-3.401923788646683
 21
25.6470286555879
 31
0.0
  0
LINE
  5
2509
330
24E6
100
AcDbEntity
  8
0
100
AcDbLine
 10
-37.78692378864668
 20
48.0
 30
0.0
 11
-10.53583778585534
 21
28.16283168711121
 31
0.0
  0
LINE
  5
250A
330
24E6
100
AcDbEntity
  8
0
100
AcDbLine
 10
-39.48771022627357
 20
48.0
 30
0.0
 11
-37.78692378864668
 21
48.0
 31
0.0
  0
LINE
  5
250B
330
24E6
100
AcDbEntity
  8
0
100
AcDbLine
 10
-41.90192378864665
 20
36.00000000000002
 30
0.0
 11
-41.90192378864666
 21
44.0
 31
0.0
  0
ELLIPSE
  5
250C
330
24E6
100
AcDbEntity
  8
0
100
AcDbEllipse
 10
-44.02692378864666
 20
36.00000000000002
 30
0.0
 11
0.0
 21
-4.25
 31
0.0
210
0.0
220
0.0
230
1.0
 40
0.5
 41
0.0
 42
1.570796326794896
  0
LINE
  5
250D
330
24E6
100
AcDbEntity
  8
0
100
AcDbLine
 10
-44.77692378864666
 20
31.75000000000002
 30
0.0
 11
-44.02692378864666
 21
31.75000000000002
 31
0.0
  0
ELLIPSE
  5
250E
330
24E6
100
AcDbEntity
  8
0
100
AcDbEllipse
 10
-44.77692378864666
 20
36.00000000000002
 30
0.0
 11
0.0000000000002197
 21
-4.249999999999998
 31
0.0
210
0.0
220
0.0
230
1.0
 40
0.5000000000000002
 41
4.012177424850118
 42
6.283185307179089
  0
LINE
  5
250F
330
24E6
100
AcDbEntity
  8
0
100
AcDbLine
 10
-46.40192378864665
 20
42.00000000000001
 30
0.0
 11
-46.40192378864665
 21
38.7386127875259
 31
0.0
  0
LINE
  5
2510
330
24E6
100
AcDbEntity
  8
0
100
AcDbLine
 10
-35.18884757729338
 20
-48.0
 30
0.0
 11
-37.7869237886467
 21
-48.0
 31
0.0
  0
LINE
  5
2511
330
24E6
100
AcDbEntity
  8
0
100
AcDbLine
 10
0.0
 20
-4.249999999999998
 30
0.0
 11
0.0
 21
-46.0
 31
0.0
  0
LINE
  5
2512
330
24E6
100
AcDbEntity
  8
0
100
AcDbLine
 10
0.0
 20
46.0
 30
0.0
 11
0.0
 21
4.250000000000007
 31
0.0
  0
LINE
  5
2513
330
24E6
100
AcDbEntity
  8
0
100
AcDbLine
 10
-3.0
 20
46.0
 30
0.0
 11
-3.0
 21
4.250000000000007
 31
0.0
  0
LINE
  5
2514
330
24E6
100
AcDbEntity
  8
0
100
AcDbLine
 10
-3.0
 20
-4.249999999999998
 30
0.0
 11
-3.0
 21
-46.0
 31
0.0
  0
LINE
  5
2515
330
24E6
100
AcDbEntity
  8
0
100
AcDbLine
 10
-35.18884757729337
 20
48.0
 30
0.0
 11
-37.78692378864668
 21
48.0
 31
0.0
  0
LINE
  5
2516
330
24E6
100
AcDbEntity
  8
0
100
AcDbLine
 10
-43.80384757729333
 20
38.7386127875259
 30
0.0
 11
-46.40192378864665
 21
38.7386127875259
 31
0.0
  0
LINE
  5
2517
330
24E6
100
AcDbEntity
  8
0
100
AcDbLine
 10
-7.937761574502024
 20
28.16283168711121
 30
0.0
 11
-10.53583778585534
 21
28.16283168711121
 31
0.0
  0
LINE
  5
2518
330
24E6
100
AcDbEntity
  8
0
100
AcDbLine
 10
-7.937761574502029
 20
-28.16283168711123
 30
0.0
 11
-10.53583778585534
 21
-28.16283168711123
 31
0.0
  0
LINE
  5
2519
330
24E6
100
AcDbEntity
  8
0
100
AcDbLine
 10
-43.80384757729333
 20
42.00000000000001
 30
0.0
 11
-45.51095435847989
 21
45.41421356237309
 31
0.0
  0
LINE
  5
251A
330
24E6
100
AcDbEntity
  8
0
100
AcDbLine
 10
-41.90192378864666
 20
44.0
 30
0.0
 11
-40.19481700746012
 21
47.41421356237309
 31
0.0
  0
LINE
  5
251B
330
24E6
100
AcDbEntity
  8
0
100
AcDbLine
 10
-48.1090305698332
 20
45.41421356237309
 30
0.0
 11
-46.40192378864665
 21
42.00000000000001
 31
0.0
  0
LINE
  5
251C
330
24E6
100
AcDbEntity
  8
0
100
AcDbLine
 10
-46.40192378864665
 20
42.00000000000001
 30
0.0
 11
-43.80384757729333
 21
42.00000000000001
 31
0.0
  0
ELLIPSE
  5
251D
330
24E6
100
AcDbEntity
  8
0
100
AcDbEllipse
 10
-39.26378406783228
 20
-35.99999999999998
 30
0.0
 11
0.0000000000002198
 21
-4.25
 31
0.0
210
0.0
220
0.0
230
1.0
 40
0.5000000000000002
 41
4.138259115494079
 42
5.286518845274943
  0
ELLIPSE
  5
251E
330
24E6
100
AcDbEntity
  8
0
100
AcDbEllipse
 10
-39.26378406783228
 20
-11.99999999999997
 30
0.0
 11
0.0000000000002198
 21
-4.25
 31
0.0
210
0.0
220
0.0
230
1.0
 40
0.5000000000000002
 41
4.138259115494079
 42
5.286518845274944
  0
ELLIPSE
  5
251F
330
24E6
100
AcDbEntity
  8
0
100
AcDbEllipse
 10
-39.26378406783227
 20
12.00000000000002
 30
0.0
 11
0.0000000000002169
 21
-4.25
 31
0.0
210
0.0
220
0.0
230
1.0
 40
0.4999999999999995
 41
4.138259115494083
 42
5.28651884527494
  0
SPLINE
  5
2520
330
24E6
100
AcDbEntity
  8
0
100
AcDbSpline
210
0.0
220
0.0
230
1.0
 70
     8
 71
     3
 72
    10
 73
     6
 74
     0
 42
0.000000001
 43
0.0000000001
 40
0.0
 40
0.0
 40
0.0
 40
0.0
 40
0.0886369508136927
 40
0.0886369508136927
 40
0.177273901637333
 40
0.177273901637333
 40
0.177273901637333
 40
0.177273901637333
 10
-3.401923788646684
 20
-25.6470286555879
 30
0.0
 10
-3.279395666513841
 20
-25.48197720257587
 30
0.0
 10
-3.183331220743544
 20
-25.31754450267273
 30
0.0
 10
-3.048428580074161
 20
-24.98744335675456
 30
0.0
 10
-3.010097365492479
 20
-24.82301065683313
 30
0.0
 10
-3.001743610299643
 20
-24.65795920380256
 30
0.0
  0
LINE
  5
2521
330
24E6
100
AcDbEntity
  8
0
100
AcDbLine
 10
-3.000000000000002
 20
-25.6470286555879
 30
0.0
 11
-3.401923788646686
 21
-25.6470286555879
 31
0.0
  0
LINE
  5
2522
330
24E6
100
AcDbEntity
  8
0
100
AcDbLine
 10
-3.0
 20
-2.249999999999987
 30
0.0
 11
-3.369819732877475
 21
-2.249999999999995
 31
0.0
  0
SPLINE
  5
2523
330
24E6
100
AcDbEntity
  8
0
100
AcDbSpline
210
0.0
220
0.0
230
1.0
 70
     8
 71
     3
 72
    10
 73
     6
 74
     0
 42
0.000000001
 43
0.0000000001
 40
0.0
 40
0.0
 40
0.0
 40
0.0
 40
0.0050367638281728
 40
0.0050367638281728
 40
0.0090697126194823
 40
0.0090697126194823
 40
0.0090697126194823
 40
0.0090697126194823
 10
-0.8038475772933683
 20
-2.236067977499769
 30
0.0
 10
-0.7956376862666608
 20
-2.239570608287938
 30
0.0
 10
-0.7849221550311829
 20
-2.243592436580944
 30
0.0
 10
-0.7608379646721254
 20
-2.248828409703412
 30
0.0
 10
-0.7501971296160144
 20
-2.250000014954584
 30
0.0
 10
-0.7396394657549527
 20
-2.249999999999979
 30
0.0
  0
LINE
  5
2524
330
24E6
100
AcDbEntity
  8
0
100
AcDbLine
 10
-3.401923788646683
 20
-2.236067977499768
 30
0.0
 11
-0.8038475772933683
 21
-2.236067977499768
 31
0.0
  0
SPLINE
  5
2525
330
24E6
100
AcDbEntity
  8
0
100
AcDbSpline
210
0.0
220
0.0
230
1.0
 70
     8
 71
     3
 72
    10
 73
     6
 74
     0
 42
0.000000001
 43
0.0000000001
 40
0.0
 40
0.0
 40
0.0
 40
0.0
 40
0.0033190141477226
 40
0.0033190141477226
 40
0.0078572874880565
 40
0.0078572874880565
 40
0.0078572874880565
 40
0.0078572874880565
 10
-3.369819732877477
 20
-2.249999999999979
 30
0.0
 10
-3.375141094640565
 20
-2.250000044194673
 30
0.0
 10
-3.380462608768331
 20
-2.24880944067657
 30
0.0
 10
-3.393035695679952
 20
-2.243342589256237
 30
0.0
 10
-3.398787657381676
 20
-2.238741297993391
 30
0.0
 10
-3.401923788646684
 20
-2.236067977499769
 30
0.0
  0
SPLINE
  5
2526
330
24E6
100
AcDbEntity
  8
0
100
AcDbSpline
210
0.0
220
0.0
230
1.0
 70
     8
 71
     3
 72
    10
 73
     6
 74
     0
 42
0.000000001
 43
0.0000000001
 40
0.0
 40
0.0
 40
0.0
 40
0.0
 40
0.0032590625388117
 40
0.0032590625388117
 40
0.0055671261380791
 40
0.0055671261380791
 40
0.0055671261380791
 40
0.0055671261380791
 10
-3.001743610299642
 20
-24.65795920380257
 30
0.0
 10
-3.001436177702717
 20
-24.65190252686774
 30
0.0
 10
-3.000849116744564
 20
-24.64034269536453
 30
0.0
 10
-3.000155522983897
 20
-24.62679709637202
 30
0.0
 10
-3.0
 20
-24.62377638056886
 30
0.0
 10
-3.0
 20
-24.62377664808004
 30
0.0
  0
LINE
  5
2527
330
24E6
100
AcDbEntity
  8
0
100
AcDbLine
 10
-3.369819732877476
 20
2.250000000000011
 30
0.0
 11
-3.0
 21
2.250000000000023
 31
0.0
  0
SPLINE
  5
2528
330
24E6
100
AcDbEntity
  8
0
100
AcDbSpline
210
0.0
220
0.0
230
1.0
 70
     8
 71
     3
 72
    10
 73
     6
 74
     0
 42
0.000000001
 43
0.0000000001
 40
0.0
 40
0.0
 40
0.0
 40
0.0
 40
0.0052866602425417
 40
0.0052866602425417
 40
0.0127516002457275
 40
0.0127516002457275
 40
0.0127516002457275
 40
0.0127516002457275
 10
-3.0
 20
24.62377664808003
 30
0.0
 10
-3.000000000001084
 20
24.62377638058987
 30
0.0
 10
-3.000155522986006
 20
24.62679709641305
 30
0.0
 10
-3.000849116747759
 20
24.64034269542712
 30
0.0
 10
-3.001436177704142
 20
24.65190252689582
 30
0.0
 10
-3.001743610299642
 20
24.65795920380257
 30
0.0
  0
SPLINE
  5
2529
330
24E6
100
AcDbEntity
  8
0
100
AcDbSpline
210
0.0
220
0.0
230
1.0
 70
     8
 71
     3
 72
    10
 73
     6
 74
     0
 42
0.000000001
 43
0.0000000001
 40
0.0
 40
0.0
 40
0.0
 40
0.0
 40
0.0886369508136886
 40
0.0886369508136886
 40
0.1772739016373251
 40
0.1772739016373251
 40
0.1772739016373251
 40
0.1772739016373251
 10
-3.001743610299643
 20
24.65795920380256
 30
0.0
 10
-3.010097365491544
 20
24.82301065681453
 30
0.0
 10
-3.048428580065572
 20
24.98744335671772
 30
0.0
 10
-3.183331220722029
 20
25.31754450263591
 30
0.0
 10
-3.279395666500079
 20
25.48197720255738
 30
0.0
 10
-3.401923788646684
 20
25.6470286555879
 30
0.0
  0
SPLINE
  5
252A
330
24E6
100
AcDbEntity
  8
0
100
AcDbSpline
210
0.0
220
0.0
230
1.0
 70
     8
 71
     3
 72
    10
 73
     6
 74
     0
 42
0.000000001
 43
0.0000000001
 40
0.0
 40
0.0
 40
0.0
 40
0.0
 40
0.0020454615069428
 40
0.0020454615069428
 40
0.0035413863162359
 40
0.0035413863162359
 40
0.0035413863162359
 40
0.0035413863162359
 10
-3.401923788646684
 20
2.236067977499809
 30
0.0
 10
-3.398787657380647
 20
2.238741297994315
 30
0.0
 10
-3.393035695679242
 20
2.243342589256557
 30
0.0
 10
-3.380462608768072
 20
2.248809440676746
 30
0.0
 10
-3.375141094640554
 20
2.250000044194692
 30
0.0
 10
-3.369819732877476
 20
2.250000000000022
 30
0.0
  0
SPLINE
  5
252B
330
24E6
100
AcDbEntity
  8
0
100
AcDbSpline
210
0.0
220
0.0
230
1.0
 70
     8
 71
     3
 72
    10
 73
     6
 74
     0
 42
0.000000001
 43
0.0000000001
 40
0.0
 40
0.0
 40
0.0
 40
0.0
 40
0.0065849752905507
 40
0.0065849752905507
 40
0.0148089739246606
 40
0.0148089739246606
 40
0.0148089739246606
 40
0.0148089739246606
 10
-0.7396394657549522
 20
2.250000000000022
 30
0.0
 10
-0.7501971296161716
 20
2.250000014954609
 30
0.0
 10
-0.7608379646719829
 20
2.248828409703499
 30
0.0
 10
-0.7849221550306769
 20
2.243592436581077
 30
0.0
 10
-0.7956376862671278
 20
2.239570608287789
 30
0.0
 10
-0.8038475772933683
 20
2.236067977499809
 30
0.0
  0
LINE
  5
252C
330
24E6
100
AcDbEntity
  8
0
100
AcDbLine
 10
-3.401923788646683
 20
25.6470286555879
 30
0.0
 11
-2.999999999999999
 21
25.6470286555879
 31
0.0
  0
LINE
  5
252D
330
24E6
100
AcDbEntity
  8
0
100
AcDbLine
 10
-0.8038475772933683
 20
2.236067977499811
 30
0.0
 11
-3.401923788646683
 21
2.236067977499812
 31
0.0
  0
SPLINE
  5
252E
330
24E6
100
AcDbEntity
  8
0
100
AcDbSpline
210
0.0
220
0.0
230
1.0
 70
     8
 71
     3
 72
    16
 73
    12
 74
     0
 42
0.000000001
 43
0.0000000001
 40
1.570796326794896
 40
1.570796326794896
 40
1.570796326794896
 40
1.570796326794896
 40
1.788026481451578
 40
1.788026481451578
 40
1.99893012122847
 40
1.99893012122847
 40
2.192379894249085
 40
2.192379894249085
 40
2.363550870791448
 40
2.363550870791448
 40
2.498062439817206
 40
2.498062439817206
 40
2.498062439817206
 40
2.498062439817206
 10
-11.69141071021691
 20
-15.99999999999998
 30
0.0
 10
-11.69141071021691
 20
-16.18102512888055
 30
0.0
 10
-11.70144338279131
 20
-16.36205472359523
 30
0.0
 10
-11.73863059123169
 20
-16.69902836662695
 30
0.0
 10
-11.76531692682844
 20
-16.85555239653734
 30
0.0
 10
-11.82558004669033
 20
-17.11965337985426
 30
0.0
 10
-11.85845535009126
 20
-17.23018863517862
 30
0.0
 10
-11.91756992683574
 20
-17.39524344727047
 30
0.0
 10
-11.94417538696585
 20
-17.45469202596487
 30
0.0
 10
-11.97769082621866
 20
-17.52074387958134
 30
0.0
 10
-11.98756159463792
 20
-17.53589941343556
 30
0.0
 10
-11.98756159463792
 20
-17.53589941343556
 30
0.0
  0
SPLINE
  5
252F
330
24E6
100
AcDbEntity
  8
0
100
AcDbSpline
210
0.0
220
0.0
230
1.0
 70
     8
 71
     3
 72
    18
 73
    14
 74
     0
 42
0.000000001
 43
0.0000000001
 40
0.6435302137725865
 40
0.6435302137725865
 40
0.6435302137725865
 40
0.6435302137725865
 40
0.7354629212602591
 40
0.7354629212602591
 40
0.8861971003333678
 40
0.8861971003333678
 40
1.050147787805794
 40
1.050147787805794
 40
1.233286194126396
 40
1.233286194126396
 40
1.435454441559463
 40
1.435454441559463
 40
1.570796326794901
 40
1.570796326794901
 40
1.570796326794901
 40
1.570796326794901
 10
-11.98756159463792
 20
17.53589941343558
 30
0.0
 10
-11.98756159463792
 20
17.53589941343558
 30
0.0
 10
-11.98291415274996
 20
17.52884772682679
 30
0.0
 10
-11.96282342999012
 20
17.49249139368785
 30
0.0
 10
-11.94248811139832
 20
17.45181635074175
 30
0.0
 10
-11.89475321810718
 20
17.33486157970695
 30
0.0
 10
-11.8668573365811
 20
17.25582743068082
 30
0.0
 10
-11.81048229330788
 20
17.05920115657448
 30
0.0
 10
-11.7822879322173
 20
16.93820438178899
 30
0.0
 10
-11.73350756740237
 20
16.66020441127221
 30
0.0
 10
-11.71399437229457
 20
16.5007724817037
 30
0.0
 10
-11.69525662795666
 20
16.22557023713322
 30
0.0
 10
-11.6914107102169
 20
16.11278490436285
 30
0.0
 10
-11.6914107102169
 20
15.99999999999999
 30
0.0
  0
LINE
  5
2530
330
24E6
100
AcDbEntity
  8
0
100
AcDbLine
 10
-11.69141071021689
 20
15.99999999999999
 30
0.0
 11
-11.6914107102169
 21
-15.99999999999998
 31
0.0
  0
SPLINE
  5
2531
330
24E6
100
AcDbEntity
  8
0
100
AcDbSpline
210
0.0
220
0.0
230
1.0
 70
     8
 71
     3
 72
    28
 73
    24
 74
     0
 42
0.000000001
 43
0.0000000001
 40
0.3734245915462142
 40
0.3734245915462142
 40
0.3734245915462142
 40
0.3734245915462142
 40
0.4762387280329417
 40
0.4762387280329417
 40
0.6686253244647763
 40
0.6686253244647763
 40
0.8730423112140799
 40
0.8730423112140799
 40
1.100506756919184
 40
1.100506756919184
 40
1.349489658888096
 40
1.349489658888096
 40
1.612176615175742
 40
1.612176615175742
 40
1.8784962049742
 40
1.8784962049742
 40
2.137609665820977
 40
2.137609665820977
 40
2.378437783440702
 40
2.378437783440702
 40
2.593382948721764
 40
2.593382948721764
 40
2.768168062043578
 40
2.768168062043578
 40
2.768168062043578
 40
2.768168062043578
 10
-41.95682542756419
 20
-31.6110042990407
 30
0.0
 10
-41.95682542756419
 20
-31.6110042990407
 30
0.0
 10
-41.94377393271046
 20
-31.62137772463219
 30
0.0
 10
-41.8787838994524
 20
-31.68842657118351
 30
0.0
 10
-41.80346962535375
 20
-31.77827956629238
 30
0.0
 10
-41.62437979336544
 20
-32.06124833990531
 30
0.0
 10
-41.51922684836949
 20
-32.25974849152729
 30
0.0
 10
-41.30486316873905
 20
-32.77107793950322
 30
0.0
 10
-41.19637576266232
 20
-33.093967384292
 30
0.0
 10
-41.0048621496201
 20
-33.84746815473314
 30
0.0
 10
-40.92505147690356
 20
-34.28527921417273
 30
0.0
 10
-40.81901109591224
 20
-35.22789459760567
 30
0.0
 10
-40.79589914794805
 20
-35.73502962974105
 30
0.0
 10
-40.81686095294366
 20
-36.74758125527311
 30
0.0
 10
-40.86191087472031
 20
-37.2528531058455
 30
0.0
 10
-41.00992742413385
 20
-38.18438049464824
 30
0.0
 10
-41.11147952472184
 20
-38.61234874595094
 30
0.0
 10
-41.33912810487021
 20
-39.32768285116747
 30
0.0
 10
-41.46328621196786
 20
-39.62260003745838
 30
0.0
 10
-41.68772481944226
 20
-40.05193959687622
 30
0.0
 10
-41.78920610562572
 20
-40.1995545665002
 30
0.0
 10
-41.91902260429468
 20
-40.35809806676266
 30
0.0
 10
-41.95682542756419
 20
-40.38899570095925
 30
0.0
 10
-41.95682542756419
 20
-40.38899570095925
 30
0.0
  0
SPLINE
  5
2532
330
24E6
100
AcDbEntity
  8
0
100
AcDbSpline
210
0.0
220
0.0
230
1.0
 70
     8
 71
     3
 72
    28
 73
    24
 74
     0
 42
0.000000001
 43
0.0000000001
 40
0.3734245915462142
 40
0.3734245915462142
 40
0.3734245915462142
 40
0.3734245915462142
 40
0.4762387280329417
 40
0.4762387280329417
 40
0.6686253244647763
 40
0.6686253244647763
 40
0.8730423112140799
 40
0.8730423112140799
 40
1.100506756919184
 40
1.100506756919184
 40
1.349489658888096
 40
1.349489658888096
 40
1.612176615175742
 40
1.612176615175742
 40
1.8784962049742
 40
1.8784962049742
 40
2.137609665820977
 40
2.137609665820977
 40
2.378437783440702
 40
2.378437783440702
 40
2.593382948721764
 40
2.593382948721764
 40
2.768168062043578
 40
2.768168062043578
 40
2.768168062043578
 40
2.768168062043578
 10
-41.95682542756419
 20
-7.611004299040696
 30
0.0
 10
-41.95682542756419
 20
-7.611004299040696
 30
0.0
 10
-41.94377393271046
 20
-7.621377724632182
 30
0.0
 10
-41.8787838994524
 20
-7.688426571183498
 30
0.0
 10
-41.80346962535375
 20
-7.77827956629237
 30
0.0
 10
-41.62437979336544
 20
-8.061248339905297
 30
0.0
 10
-41.51922684836949
 20
-8.259748491527288
 30
0.0
 10
-41.30486316873905
 20
-8.771077939503211
 30
0.0
 10
-41.19637576266232
 20
-9.093967384291996
 30
0.0
 10
-41.0048621496201
 20
-9.847468154733137
 30
0.0
 10
-40.92505147690356
 20
-10.28527921417272
 30
0.0
 10
-40.81901109591224
 20
-11.22789459760566
 30
0.0
 10
-40.79589914794805
 20
-11.73502962974104
 30
0.0
 10
-40.81686095294366
 20
-12.74758125527311
 30
0.0
 10
-40.86191087472031
 20
-13.25285310584549
 30
0.0
 10
-41.00992742413385
 20
-14.18438049464823
 30
0.0
 10
-41.11147952472184
 20
-14.61234874595093
 30
0.0
 10
-41.33912810487021
 20
-15.32768285116747
 30
0.0
 10
-41.46328621196786
 20
-15.62260003745838
 30
0.0
 10
-41.68772481944226
 20
-16.05193959687622
 30
0.0
 10
-41.78920610562572
 20
-16.1995545665002
 30
0.0
 10
-41.91902260429468
 20
-16.35809806676266
 30
0.0
 10
-41.95682542756419
 20
-16.38899570095925
 30
0.0
 10
-41.95682542756419
 20
-16.38899570095925
 30
0.0
  0
SPLINE
  5
2533
330
24E6
100
AcDbEntity
  8
0
100
AcDbSpline
210
0.0
220
0.0
230
1.0
 70
     8
 71
     3
 72
    28
 73
    24
 74
     0
 42
0.000000001
 43
0.0000000001
 40
0.3734245915462142
 40
0.3734245915462142
 40
0.3734245915462142
 40
0.3734245915462142
 40
0.4762387280329417
 40
0.4762387280329417
 40
0.6686253244647763
 40
0.6686253244647763
 40
0.8730423112140799
 40
0.8730423112140799
 40
1.100506756919184
 40
1.100506756919184
 40
1.349489658888096
 40
1.349489658888096
 40
1.612176615175742
 40
1.612176615175742
 40
1.8784962049742
 40
1.8784962049742
 40
2.137609665820977
 40
2.137609665820977
 40
2.378437783440702
 40
2.378437783440702
 40
2.593382948721764
 40
2.593382948721764
 40
2.768168062043578
 40
2.768168062043578
 40
2.768168062043578
 40
2.768168062043578
 10
-41.95682542756419
 20
16.3889957009593
 30
0.0
 10
-41.95682542756419
 20
16.3889957009593
 30
0.0
 10
-41.94377393271046
 20
16.37862227536782
 30
0.0
 10
-41.8787838994524
 20
16.3115734288165
 30
0.0
 10
-41.80346962535375
 20
16.22172043370763
 30
0.0
 10
-41.62437979336544
 20
15.9387516600947
 30
0.0
 10
-41.51922684836949
 20
15.74025150847271
 30
0.0
 10
-41.30486316873905
 20
15.22892206049679
 30
0.0
 10
-41.19637576266232
 20
14.906032615708
 30
0.0
 10
-41.0048621496201
 20
14.15253184526686
 30
0.0
 10
-40.92505147690356
 20
13.71472078582727
 30
0.0
 10
-40.81901109591224
 20
12.77210540239433
 30
0.0
 10
-40.79589914794805
 20
12.26497037025895
 30
0.0
 10
-40.81686095294366
 20
11.25241874472689
 30
0.0
 10
-40.86191087472031
 20
10.74714689415451
 30
0.0
 10
-41.00992742413385
 20
9.815619505351765
 30
0.0
 10
-41.11147952472184
 20
9.387651254049062
 30
0.0
 10
-41.33912810487021
 20
8.672317148832528
 30
0.0
 10
-41.46328621196786
 20
8.377399962541618
 30
0.0
 10
-41.68772481944226
 20
7.948060403123777
 30
0.0
 10
-41.78920610562572
 20
7.800445433499795
 30
0.0
 10
-41.91902260429468
 20
7.641901933237337
 30
0.0
 10
-41.95682542756419
 20
7.611004299040744
 30
0.0
 10
-41.95682542756419
 20
7.611004299040744
 30
0.0
  0
ENDBLK
  5
24E8
330
24E6
100
AcDbEntity
  8
0
100
AcDbBlockEnd
  0
BLOCK
  5
2535
330
2534
100
AcDbEntity
  8
0
100
AcDbBlockBegin
  2
TU_S12_SKL-Top
 70
     0
 10
0.0
 20
0.0
 30
0.0
  3
TU_S12_SKL-Top
  1

  0
LINE
  5
2537
330
2534
100
AcDbEntity
  8
0
100
AcDbLine
 10
-77.32698040442217
 20
-48.10903056983319
 30
0.0
 11
-78.55172527581375
 21
-48.81613735101973
 31
0.0
  0
LINE
  5
2538
330
2534
100
AcDbEntity
  8
0
100
AcDbLine
 10
-80.05172527581374
 20
-46.21806113966642
 30
0.0
 11
-78.82698040442216
 21
-45.51095435847988
 31
0.0
  0
LINE
  5
2539
330
2534
100
AcDbEntity
  8
0
100
AcDbLine
 10
-65.11916041244129
 20
-37.5967407961068
 30
0.0
 11
-63.89441554104969
 21
-36.88963401492026
 31
0.0
  0
LINE
  5
253A
330
2534
100
AcDbEntity
  8
0
100
AcDbLine
 10
-84.9634514651983
 20
-49.05384757729333
 30
0.0
 11
-83.23140065762942
 21
-48.05384757729332
 31
0.0
  0
LINE
  5
253B
330
2534
100
AcDbEntity
  8
0
100
AcDbLine
 10
-62.39441554104968
 20
-39.48771022627357
 30
0.0
 11
-63.61916041244128
 21
-40.19481700746012
 31
0.0
  0
LINE
  5
253C
330
2534
100
AcDbEntity
  8
0
100
AcDbLine
 10
-81.73140065762941
 20
-50.65192378864665
 30
0.0
 11
-83.4634514651983
 21
-51.65192378864666
 31
0.0
  0
LINE
  5
253D
330
2534
100
AcDbEntity
  8
0
100
AcDbLine
 10
-84.9634514651983
 20
-49.05384757729334
 30
0.0
 11
-83.4634514651983
 21
-51.65192378864666
 31
0.0
  0
LINE
  5
253E
330
2534
100
AcDbEntity
  8
0
100
AcDbLine
 10
19.10799999999998
 20
-3.0
 30
0.0
 11
19.10799999999998
 21
0.0
 31
0.0
  0
LINE
  5
253F
330
2534
100
AcDbEntity
  8
0
100
AcDbLine
 10
-20.892
 20
0.0
 30
0.0
 11
-18.89199999999999
 21
0.0
 31
0.0
  0
LINE
  5
2540
330
2534
100
AcDbEntity
  8
0
100
AcDbLine
 10
17.10799999999997
 20
0.0
 30
0.0
 11
19.10799999999997
 21
0.0
 31
0.0
  0
LINE
  5
2541
330
2534
100
AcDbEntity
  8
0
100
AcDbLine
 10
-20.892
 20
0.0
 30
0.0
 11
-20.892
 21
-3.0
 31
0.0
  0
LINE
  5
2542
330
2534
100
AcDbEntity
  8
0
100
AcDbLine
 10
19.10799999999997
 20
-3.0
 30
0.0
 11
17.10799999999997
 21
-3.0
 31
0.0
  0
LINE
  5
2543
330
2534
100
AcDbEntity
  8
0
100
AcDbLine
 10
-18.89199999999999
 20
-3.0
 30
0.0
 11
-20.892
 21
-3.0
 31
0.0
  0
LINE
  5
2544
330
2534
100
AcDbEntity
  8
0
100
AcDbLine
 10
-83.23140065762942
 20
-48.05384757729334
 30
0.0
 11
-80.05172527581374
 21
-46.21806113966642
 31
0.0
  0
LINE
  5
2545
330
2534
100
AcDbEntity
  8
0
100
AcDbLine
 10
-81.73140065762941
 20
-50.65192378864665
 30
0.0
 11
-78.55172527581373
 21
-48.81613735101975
 31
0.0
  0
LINE
  5
2546
330
2534
100
AcDbEntity
  8
0
100
AcDbLine
 10
-75.87018472546168
 20
-43.80384757729333
 30
0.0
 11
-73.05560216316229
 21
-42.17884757729335
 31
0.0
  0
LINE
  5
2547
330
2534
100
AcDbEntity
  8
0
100
AcDbLine
 10
-73.05560216316229
 20
-42.17884757729335
 30
0.0
 11
-71.75656405748561
 21
-41.42884757729334
 31
0.0
  0
LINE
  5
2548
330
2534
100
AcDbEntity
  8
0
100
AcDbLine
 10
-71.75656405748561
 20
-41.42884757729334
 30
0.0
 11
-68.07595609140176
 21
-39.30384757729335
 31
0.0
  0
LINE
  5
2549
330
2534
100
AcDbEntity
  8
0
100
AcDbLine
 10
-63.89441554104969
 20
-36.88963401492026
 30
0.0
 11
-60.94856701825586
 21
-35.18884757729337
 31
0.0
  0
LINE
  5
254A
330
2534
100
AcDbEntity
  8
0
100
AcDbLine
 10
-60.94856701825586
 20
-35.18884757729337
 30
0.0
 11
-13.74830149999217
 21
-7.937761574502024
 31
0.0
  0
LINE
  5
254B
330
2534
100
AcDbEntity
  8
0
100
AcDbLine
 10
-13.74830149999217
 20
-7.937761574502024
 30
0.0
 11
-5.195847577293366
 21
-2.999999999999997
 31
0.0
  0
LINE
  5
254C
330
2534
100
AcDbEntity
  8
0
100
AcDbLine
 10
-12.24830149999217
 20
-10.53583778585534
 30
0.0
 11
0.1079999999999992
 21
-3.401923788646683
 31
0.0
  0
LINE
  5
254D
330
2534
100
AcDbEntity
  8
0
100
AcDbLine
 10
-59.44856701825585
 20
-37.78692378864668
 30
0.0
 11
-12.24830149999217
 21
-10.53583778585534
 31
0.0
  0
LINE
  5
254E
330
2534
100
AcDbEntity
  8
0
100
AcDbLine
 10
-62.3944155410497
 20
-39.48771022627357
 30
0.0
 11
-59.44856701825585
 21
-37.78692378864668
 31
0.0
  0
LINE
  5
254F
330
2534
100
AcDbEntity
  8
0
100
AcDbLine
 10
-70.25656405748562
 20
-44.02692378864666
 30
0.0
 11
-66.57595609140175
 21
-41.90192378864666
 31
0.0
  0
LINE
  5
2550
330
2534
100
AcDbEntity
  8
0
100
AcDbLine
 10
-71.55560216316229
 20
-44.77692378864666
 30
0.0
 11
-70.25656405748562
 21
-44.02692378864666
 31
0.0
  0
LINE
  5
2551
330
2534
100
AcDbEntity
  8
0
100
AcDbLine
 10
-74.37018472546168
 20
-46.40192378864665
 30
0.0
 11
-71.55560216316229
 21
-44.77692378864666
 31
0.0
  0
LINE
  5
2552
330
2534
100
AcDbEntity
  8
0
100
AcDbLine
 10
-18.89199999999999
 20
0.0
 30
0.0
 11
-3.201401076758516
 21
0.0
 31
0.0
  0
LINE
  5
2553
330
2534
100
AcDbEntity
  8
0
100
AcDbLine
 10
1.417401076758477
 20
0.0
 30
0.0
 11
17.10799999999997
 21
0.0
 31
0.0
  0
LINE
  5
2554
330
2534
100
AcDbEntity
  8
0
100
AcDbLine
 10
1.417401076758477
 20
-3.0
 30
0.0
 11
17.10799999999997
 21
-3.0
 31
0.0
  0
LINE
  5
2555
330
2534
100
AcDbEntity
  8
0
100
AcDbLine
 10
-18.89199999999999
 20
-3.0
 30
0.0
 11
-3.201401076758516
 21
-3.0
 31
0.0
  0
LINE
  5
2556
330
2534
100
AcDbEntity
  8
0
100
AcDbLine
 10
-60.94856701825586
 20
-35.18884757729337
 30
0.0
 11
-59.44856701825585
 21
-37.78692378864668
 31
0.0
  0
LINE
  5
2557
330
2534
100
AcDbEntity
  8
0
100
AcDbLine
 10
-13.74830149999217
 20
-7.937761574502024
 30
0.0
 11
-12.24830149999217
 21
-10.53583778585534
 31
0.0
  0
LINE
  5
2558
330
2534
100
AcDbEntity
  8
0
100
AcDbLine
 10
-75.87018472546169
 20
-43.80384757729333
 30
0.0
 11
-78.82698040442216
 21
-45.51095435847989
 31
0.0
  0
LINE
  5
2559
330
2534
100
AcDbEntity
  8
0
100
AcDbLine
 10
-65.11916041244129
 20
-37.5967407961068
 30
0.0
 11
-68.07595609140173
 21
-39.30384757729334
 31
0.0
  0
LINE
  5
255A
330
2534
100
AcDbEntity
  8
0
100
AcDbLine
 10
-68.07595609140173
 20
-39.30384757729334
 30
0.0
 11
-66.57595609140173
 21
-41.90192378864666
 31
0.0
  0
LINE
  5
255B
330
2534
100
AcDbEntity
  8
0
100
AcDbLine
 10
-66.57595609140173
 20
-41.90192378864666
 30
0.0
 11
-63.61916041244128
 21
-40.19481700746012
 31
0.0
  0
LINE
  5
255C
330
2534
100
AcDbEntity
  8
0
100
AcDbLine
 10
-77.32698040442215
 20
-48.1090305698332
 30
0.0
 11
-74.3701847254617
 21
-46.40192378864665
 31
0.0
  0
LINE
  5
255D
330
2534
100
AcDbEntity
  8
0
100
AcDbLine
 10
-74.3701847254617
 20
-46.40192378864665
 30
0.0
 11
-75.87018472546169
 21
-43.80384757729333
 31
0.0
  0
LINE
  5
255E
330
2534
100
AcDbEntity
  8
0
100
AcDbLine
 10
-3.201401076758517
 20
0.0
 30
0.0
 11
-0.8919999999999959
 21
0.0
 31
0.0
  0
LINE
  5
255F
330
2534
100
AcDbEntity
  8
0
100
AcDbLine
 10
-0.8919999999999959
 20
0.0
 30
0.0
 11
1.417401076758477
 21
0.0
 31
0.0
  0
LINE
  5
2560
330
2534
100
AcDbEntity
  8
0
100
AcDbLine
 10
1.417401076758477
 20
-3.0
 30
0.0
 11
-0.8919999999999959
 21
-3.0
 31
0.0
  0
LINE
  5
2561
330
2534
100
AcDbEntity
  8
0
100
AcDbLine
 10
-0.8919999999999959
 20
-3.0
 30
0.0
 11
-3.201401076758517
 21
-3.0
 31
0.0
  0
LINE
  5
2562
330
2534
100
AcDbEntity
  8
0
100
AcDbLine
 10
1.417401076758477
 20
0.0
 30
0.0
 11
1.417401076758477
 21
-3.0
 31
0.0
  0
LINE
  5
2563
330
2534
100
AcDbEntity
  8
0
100
AcDbLine
 10
-3.201401076758517
 20
-3.0
 30
0.0
 11
-3.201401076758517
 21
0.0
 31
0.0
  0
LINE
  5
2564
330
2534
100
AcDbEntity
  8
0
100
AcDbLine
 10
-0.8919999999999959
 20
-3.0
 30
0.0
 11
-0.8919999999999959
 21
0.0
 31
0.0
  0
ARC
  5
2565
330
2534
100
AcDbEntity
  8
0
100
AcDbCircle
 10
-19.17012563291632
 20
-11.64540346633422
 30
0.0
 40
3.000000000000002
100
AcDbArc
 50
119.9999999999999
 51
200.4059317731395
  0
ARC
  5
2566
330
2534
100
AcDbEntity
  8
0
100
AcDbCircle
 10
-17.3653977856206
 20
-10.60344335788403
 30
0.0
 40
2.999999999999998
100
AcDbArc
 50
39.59406822686044
 51
120.0
  0
LINE
  5
2567
330
2534
100
AcDbEntity
  8
0
100
AcDbLine
 10
-20.67012563291632
 20
-9.047327254980908
 30
0.0
 11
-18.8653977856206
 21
-8.005367146530712
 31
0.0
  0
LINE
  5
2568
330
2534
100
AcDbEntity
  8
0
100
AcDbLine
 10
-66.72787988004845
 20
-35.63878406783226
 30
0.0
 11
-79.28524823492281
 21
-42.88878406783227
 31
0.0
  0
ARC
  5
2569
330
2534
100
AcDbEntity
  8
0
100
AcDbCircle
 10
-64.41614218855855
 20
-33.72675142016514
 30
0.0
 40
3.0
100
AcDbArc
 50
219.5940682268607
 51
300.0
  0
ARC
  5
256A
330
2534
100
AcDbEntity
  8
0
100
AcDbCircle
 10
-82.09698592641272
 20
-43.93479131171495
 30
0.0
 40
3.0
100
AcDbArc
 50
299.9999999999996
 51
20.40593177313947
  0
SPLINE
  5
256B
330
2534
100
AcDbEntity
  8
0
100
AcDbSpline
210
0.0
220
0.0
230
1.0
 70
     8
 71
     3
 72
    10
 73
     6
 74
     0
 42
0.000000001
 43
0.0000000001
 40
0.0
 40
0.0
 40
0.0
 40
0.0
 40
0.0052866602425417
 40
0.0052866602425417
 40
0.0127516002457275
 40
0.0127516002457275
 40
0.0127516002457275
 40
0.0127516002457275
 10
1.607999999815423
 20
-3.0
 30
0.0
 10
1.590377799008981
 20
-3.000000000001084
 30
0.0
 10
1.573170881545955
 20
-3.000155522986006
 30
0.0
 10
1.532819138704248
 20
-3.000849116747759
 30
0.0
 10
1.514745848228776
 20
-3.001436177704142
 30
0.0
 10
1.505732597466366
 20
-3.001743610299642
 30
0.0
  0
SPLINE
  5
256C
330
2534
100
AcDbEntity
  8
0
100
AcDbSpline
210
0.0
220
0.0
230
1.0
 70
     8
 71
     3
 72
    10
 73
     6
 74
     0
 42
0.000000001
 43
0.0000000001
 40
0.0
 40
0.0
 40
0.0
 40
0.0
 40
0.0886369508136886
 40
0.0886369508136886
 40
0.1772739016373251
 40
0.1772739016373251
 40
0.1772739016373251
 40
0.1772739016373251
 10
1.505732597466366
 20
-3.001743610299643
 30
0.0
 10
1.260818780731147
 20
-3.010097365491544
 30
0.0
 10
1.017848303848919
 20
-3.048428580065572
 30
0.0
 10
0.546666000121565
 20
-3.183331220722029
 30
0.0
 10
0.3202249329139251
 20
-3.279395666500079
 30
0.0
 10
0.108
 20
-3.401923788646684
 30
0.0
  0
LINE
  5
256D
330
2534
100
AcDbEntity
  8
0
100
AcDbLine
 10
0.108
 20
-3.401923788646683
 30
0.0
 11
-0.1240508075688772
 21
-3.0
 31
0.0
  0
ENDBLK
  5
2536
330
2534
100
AcDbEntity
  8
0
100
AcDbBlockEnd
  0
BLOCK
  5
256F
330
256E
100
AcDbEntity
  8
0
100
AcDbBlockBegin
  2
TU_S12_SKL-Bottom
 70
     0
 10
0.0
 20
0.0
 30
0.0
  3
TU_S12_SKL-Bottom
  1

  0
LINE
  5
2571
330
256E
100
AcDbEntity
  8
0
100
AcDbLine
 10
-5.195847577293361
 20
2.999999999999999
 30
0.0
 11
-13.74830149999217
 21
7.937761574502029
 31
0.0
  0
LINE
  5
2572
330
256E
100
AcDbEntity
  8
0
100
AcDbLine
 10
-13.74830149999217
 20
7.937761574502029
 30
0.0
 11
-60.94856701825586
 21
35.18884757729338
 31
0.0
  0
LINE
  5
2573
330
256E
100
AcDbEntity
  8
0
100
AcDbLine
 10
-60.94856701825586
 20
35.18884757729338
 30
0.0
 11
-83.23140065762945
 21
48.05384757729336
 31
0.0
  0
LINE
  5
2574
330
256E
100
AcDbEntity
  8
0
100
AcDbLine
 10
-59.44856701825585
 20
37.7869237886467
 30
0.0
 11
-81.73140065762945
 21
50.65192378864669
 31
0.0
  0
LINE
  5
2575
330
256E
100
AcDbEntity
  8
0
100
AcDbLine
 10
-12.24830149999217
 20
10.53583778585534
 30
0.0
 11
-59.44856701825585
 21
37.78692378864669
 31
0.0
  0
LINE
  5
2576
330
256E
100
AcDbEntity
  8
0
100
AcDbLine
 10
0.1080000000000067
 20
3.401923788646686
 30
0.0
 11
-12.24830149999217
 21
10.53583778585534
 31
0.0
  0
LINE
  5
2577
330
256E
100
AcDbEntity
  8
0
100
AcDbLine
 10
-60.94856701825586
 20
35.18884757729338
 30
0.0
 11
-59.44856701825585
 21
37.7869237886467
 31
0.0
  0
LINE
  5
2578
330
256E
100
AcDbEntity
  8
0
100
AcDbLine
 10
17.10799999999998
 20
0.0
 30
0.0
 11
1.417401076758491
 21
0.0
 31
0.0
  0
LINE
  5
2579
330
256E
100
AcDbEntity
  8
0
100
AcDbLine
 10
-3.201401076758534
 20
0.0
 30
0.0
 11
-18.892
 21
0.0
 31
0.0
  0
LINE
  5
257A
330
256E
100
AcDbEntity
  8
0
100
AcDbLine
 10
17.10799999999998
 20
3.0
 30
0.0
 11
1.417401076758491
 21
3.0
 31
0.0
  0
LINE
  5
257B
330
256E
100
AcDbEntity
  8
0
100
AcDbLine
 10
-3.201401076758534
 20
3.0
 30
0.0
 11
-18.892
 21
3.0
 31
0.0
  0
LINE
  5
257C
330
256E
100
AcDbEntity
  8
0
100
AcDbLine
 10
-13.74830149999217
 20
7.937761574502029
 30
0.0
 11
-12.24830149999217
 21
10.53583778585534
 31
0.0
  0
LINE
  5
257D
330
256E
100
AcDbEntity
  8
0
100
AcDbLine
 10
-83.23140065762945
 20
48.05384757729336
 30
0.0
 11
-84.96345146519834
 21
49.05384757729336
 31
0.0
  0
LINE
  5
257E
330
256E
100
AcDbEntity
  8
0
100
AcDbLine
 10
-83.46345146519835
 20
51.65192378864667
 30
0.0
 11
-81.73140065762945
 21
50.65192378864667
 31
0.0
  0
LINE
  5
257F
330
256E
100
AcDbEntity
  8
0
100
AcDbLine
 10
-83.46345146519835
 20
51.65192378864668
 30
0.0
 11
-84.96345146519834
 21
49.05384757729336
 31
0.0
  0
LINE
  5
2580
330
256E
100
AcDbEntity
  8
0
100
AcDbLine
 10
19.10799999999998
 20
0.0
 30
0.0
 11
17.10799999999998
 21
0.0
 31
0.0
  0
LINE
  5
2581
330
256E
100
AcDbEntity
  8
0
100
AcDbLine
 10
-18.892
 20
0.0
 30
0.0
 11
-20.892
 21
0.0
 31
0.0
  0
LINE
  5
2582
330
256E
100
AcDbEntity
  8
0
100
AcDbLine
 10
17.10799999999998
 20
3.0
 30
0.0
 11
19.10799999999998
 21
3.0
 31
0.0
  0
LINE
  5
2583
330
256E
100
AcDbEntity
  8
0
100
AcDbLine
 10
19.10799999999998
 20
0.0
 30
0.0
 11
19.10799999999998
 21
3.0
 31
0.0
  0
LINE
  5
2584
330
256E
100
AcDbEntity
  8
0
100
AcDbLine
 10
-20.892
 20
3.0
 30
0.0
 11
-18.892
 21
3.0
 31
0.0
  0
LINE
  5
2585
330
256E
100
AcDbEntity
  8
0
100
AcDbLine
 10
-20.892
 20
3.0
 30
0.0
 11
-20.892
 21
0.0
 31
0.0
  0
LINE
  5
2586
330
256E
100
AcDbEntity
  8
0
100
AcDbLine
 10
1.417401076758491
 20
0.0
 30
0.0
 11
-0.8920000000000097
 21
0.0
 31
0.0
  0
LINE
  5
2587
330
256E
100
AcDbEntity
  8
0
100
AcDbLine
 10
-0.8920000000000097
 20
0.0
 30
0.0
 11
-3.201401076758534
 21
0.0
 31
0.0
  0
LINE
  5
2588
330
256E
100
AcDbEntity
  8
0
100
AcDbLine
 10
1.417401076758491
 20
3.0
 30
0.0
 11
1.417401076758491
 21
0.0
 31
0.0
  0
LINE
  5
2589
330
256E
100
AcDbEntity
  8
0
100
AcDbLine
 10
-3.201401076758534
 20
3.0
 30
0.0
 11
-0.8920000000000097
 21
3.0
 31
0.0
  0
LINE
  5
258A
330
256E
100
AcDbEntity
  8
0
100
AcDbLine
 10
-0.8920000000000097
 20
3.0
 30
0.0
 11
1.417401076758491
 21
3.0
 31
0.0
  0
LINE
  5
258B
330
256E
100
AcDbEntity
  8
0
100
AcDbLine
 10
-0.8920000000000097
 20
3.0
 30
0.0
 11
-0.8920000000000097
 21
0.0
 31
0.0
  0
LINE
  5
258C
330
256E
100
AcDbEntity
  8
0
100
AcDbLine
 10
-3.201401076758534
 20
0.0
 30
0.0
 11
-3.201401076758534
 21
3.0
 31
0.0
  0
ARC
  5
258D
330
256E
100
AcDbEntity
  8
0
100
AcDbCircle
 10
-19.17012563291633
 20
11.64540346633423
 30
0.0
 40
3.0
100
AcDbArc
 50
159.5940682268605
 51
240.0
  0
ARC
  5
258E
330
256E
100
AcDbEntity
  8
0
100
AcDbCircle
 10
-17.36539778562061
 20
10.60344335788403
 30
0.0
 40
3.000000000000001
100
AcDbArc
 50
240.0
 51
320.4059317731396
  0
LINE
  5
258F
330
256E
100
AcDbEntity
  8
0
100
AcDbLine
 10
-18.86539778562061
 20
8.005367146530716
 30
0.0
 11
-20.67012563291632
 21
9.04732725498091
 31
0.0
  0
LINE
  5
2590
330
256E
100
AcDbEntity
  8
0
100
AcDbLine
 10
-79.28524823492283
 20
42.88878406783227
 30
0.0
 11
-66.72787988004848
 21
35.63878406783228
 31
0.0
  0
ARC
  5
2591
330
256E
100
AcDbEntity
  8
0
100
AcDbCircle
 10
-82.09698592641274
 20
43.93479131171496
 30
0.0
 40
3.0
100
AcDbArc
 50
339.5940682268606
 51
59.99999999999994
  0
ARC
  5
2592
330
256E
100
AcDbEntity
  8
0
100
AcDbCircle
 10
-64.41614218855858
 20
33.72675142016516
 30
0.0
 40
3.000000000000001
100
AcDbArc
 50
59.99999999999992
 51
140.4059317731395
  0
SPLINE
  5
2593
330
256E
100
AcDbEntity
  8
0
100
AcDbSpline
210
0.0
220
0.0
230
1.0
 70
     8
 71
     3
 72
    10
 73
     6
 74
     0
 42
0.000000001
 43
0.0000000001
 40
0.0
 40
0.0
 40
0.0
 40
0.0
 40
0.0886369508136927
 40
0.0886369508136927
 40
0.177273901637333
 40
0.177273901637333
 40
0.177273901637333
 40
0.177273901637333
 10
0.1080000000000078
 20
3.401923788646684
 30
0.0
 10
0.3202249328900972
 20
3.279395666513841
 30
0.0
 10
0.5466660000708163
 20
3.183331220743544
 30
0.0
 10
1.017848303794533
 20
3.048428580074161
 30
0.0
 10
1.260818780703704
 20
3.010097365492479
 30
0.0
 10
1.505732597466372
 20
3.001743610299643
 30
0.0
  0
LINE
  5
2594
330
256E
100
AcDbEntity
  8
0
100
AcDbLine
 10
-0.1240508075688709
 20
3.000000000000002
 30
0.0
 11
0.1080000000000067
 21
3.401923788646686
 31
0.0
  0
SPLINE
  5
2595
330
256E
100
AcDbEntity
  8
0
100
AcDbSpline
210
0.0
220
0.0
230
1.0
 70
     8
 71
     3
 72
    10
 73
     6
 74
     0
 42
0.000000001
 43
0.0000000001
 40
0.0
 40
0.0
 40
0.0
 40
0.0
 40
0.0032590625388117
 40
0.0032590625388117
 40
0.0055671261380791
 40
0.0055671261380791
 40
0.0055671261380791
 40
0.0055671261380791
 10
1.505732597466372
 20
3.001743610299642
 30
0.0
 10
1.514745848270584
 20
3.001436177702717
 30
0.0
 10
1.532819138806313
 20
3.000849116744564
 30
0.0
 10
1.573170881728004
 20
3.000155522983897
 30
0.0
 10
1.590377799189526
 20
3.0
 30
0.0
 10
1.608000000000007
 20
3.0
 30
0.0
  0
ENDBLK
  5
2570
330
256E
100
AcDbEntity
  8
0
100
AcDbBlockEnd
  0
BLOCK
  5
2597
330
2596
100
AcDbEntity
  8
0
100
AcDbBlockBegin
  2
TU_S12_SKL-ISO
 70
     0
 10
0.0
 20
0.0
 30
0.0
  3
TU_S12_SKL-ISO
  1

  0
ELLIPSE
  5
2599
330
2596
100
AcDbEntity
  8
0
100
AcDbEllipse
 10
-48.51755215261701
 20
45.16606740036767
 30
0.0
 11
1.814145479935737
 21
-0.8419478473330366
 31
0.0
210
0.0
220
0.0
230
1.0
 40
0.7886751345948141
 41
1.13627757426971
 42
1.92167573766715
  0
LINE
  5
259A
330
2596
100
AcDbEntity
  8
0
100
AcDbLine
 10
-47.15152674883259
 20
46.10944307334173
 30
0.0
 11
-46.375069613525
 21
47.78247568081734
 31
0.0
  0
ELLIPSE
  5
259B
330
2596
100
AcDbEntity
  8
0
100
AcDbEllipse
 10
-47.74109501730943
 20
46.83910000784329
 30
0.0
 11
-1.814145479935806
 21
0.8419478473328876
 31
0.0
210
0.0
220
0.0
230
1.0
 40
0.7886751345948128
 41
4.277870227859439
 42
5.063268391256894
  0
LINE
  5
259C
330
2596
100
AcDbEntity
  8
0
100
AcDbLine
 10
-47.74109501730943
 20
48.47209316969873
 30
0.0
 11
-48.517552152617
 21
46.79906056222312
 31
0.0
  0
LINE
  5
259D
330
2596
100
AcDbEntity
  8
0
100
AcDbLine
 10
-52.06401921592707
 20
47.34770092626148
 30
0.0
 11
-51.2875620806195
 21
49.02073353373709
 31
0.0
  0
ELLIPSE
  5
259E
330
2596
100
AcDbEntity
  8
0
100
AcDbEllipse
 10
-29.71995766041382
 20
45.68421351838053
 30
0.0
 11
-1.814145479935737
 21
0.8419478473330366
 31
0.0
210
0.0
220
0.0
230
1.0
 40
0.7886751345948141
 41
5.063268391256947
 42
5.848666554654396
  0
ELLIPSE
  5
259F
330
2596
100
AcDbEntity
  8
0
100
AcDbEllipse
 10
-51.2875620806195
 20
47.38774037188163
 30
0.0
 11
-1.814145479935736
 21
0.8419478473330384
 31
0.0
210
0.0
220
0.0
230
1.0
 40
0.7886751345948153
 41
5.063268391256945
 42
6.283185307179583
  0
LINE
  5
25A0
330
2596
100
AcDbEntity
  8
0
100
AcDbLine
 10
-31.08598306419826
 20
47.05023892216496
 30
0.0
 11
-31.86244019950583
 21
45.37720631468935
 31
0.0
  0
ELLIPSE
  5
25A1
330
2596
100
AcDbEntity
  8
0
100
AcDbEllipse
 10
-30.49641479572139
 20
44.01118091090491
 30
0.0
 11
1.814145479935669
 21
-0.8419478473331837
 31
0.0
210
0.0
220
0.0
230
1.0
 40
0.7886751345948129
 41
1.921675737667273
 42
2.707073901064797
  0
LINE
  5
25A2
330
2596
100
AcDbEntity
  8
0
100
AcDbLine
 10
-30.49641479572139
 20
45.64417407276035
 30
0.0
 11
-29.71995766041382
 21
47.31720668023598
 31
0.0
  0
ELLIPSE
  5
25A3
330
2596
100
AcDbEntity
  8
0
100
AcDbEllipse
 10
-52.06401921592707
 20
45.71470776440602
 30
0.0
 11
-1.814145479935733
 21
0.8419478473330441
 31
0.0
210
0.0
220
0.0
230
1.0
 40
0.7886751345948126
 41
5.063268391256952
 42
6.634064718051838
  0
ELLIPSE
  5
25A4
330
2596
100
AcDbEntity
  8
0
100
AcDbEllipse
 10
-52.06401921592711
 20
-27.76998451908934
 30
0.0
 11
-1.81414547993574
 21
0.8419478473330311
 31
0.0
210
0.0
220
0.0
230
1.0
 40
0.7886751345948109
 41
0.3508794108722606
 42
1.921675737667156
  0
ELLIPSE
  5
25A5
330
2596
100
AcDbEntity
  8
0
100
AcDbEllipse
 10
51.52098968503338
 20
-14.57845219027752
 30
0.0
 11
0.9999999999998966
 21
-1.732050807568937
 31
0.0
210
0.0
220
0.0
230
1.0
 40
0.5773502691896257
 41
0.7853981633976881
 42
2.356194490192585
  0
LINE
  5
25A6
330
2596
100
AcDbEntity
  8
0
100
AcDbLine
 10
52.93520324740647
 20
-15.39494877120525
 30
0.0
 11
55.05652359096611
 21
-14.17020389981366
 31
0.0
  0
ELLIPSE
  5
25A7
330
2596
100
AcDbEntity
  8
0
100
AcDbEllipse
 10
53.64231002859302
 20
-13.35370731888593
 30
0.0
 11
-1.000000000000103
 21
1.732050807568818
 31
0.0
210
0.0
220
0.0
230
1.0
 40
0.5773502691896257
 41
3.926990816986998
 42
5.497787143781897
  0
LINE
  5
25A8
330
2596
100
AcDbEntity
  8
0
100
AcDbLine
 10
53.64231002859302
 20
-11.72071415703048
 30
0.0
 11
51.52098968503338
 21
-12.94545902842207
 31
0.0
  0
ELLIPSE
  5
25A9
330
2596
100
AcDbEntity
  8
0
100
AcDbEllipse
 10
53.64231002859302
 20
-47.44243957261851
 30
0.0
 11
1.000000000000001
 21
-1.732050807568876
 31
0.0
210
0.0
220
0.0
230
1.0
 40
0.5773502691896259
 41
0.0
 42
0.7853981633974465
  0
ELLIPSE
  5
25AA
330
2596
100
AcDbEntity
  8
0
100
AcDbEllipse
 10
51.52098968503338
 20
-7.638231252391851
 30
0.0
 11
0.9999999999999996
 21
-1.732050807568878
 31
0.0
210
0.0
220
0.0
230
1.0
 40
0.5773502691896259
 41
5.497787143782137
 42
7.068583470577032
  0
ELLIPSE
  5
25AB
330
2596
100
AcDbEntity
  8
0
100
AcDbEllipse
 10
53.64231002859303
 20
-6.413486381000261
 30
0.0
 11
0.9999999999999996
 21
-1.732050807568878
 31
0.0
210
0.0
220
0.0
230
1.0
 40
0.5773502691896257
 41
0.0
 42
0.7853981633974457
  0
LINE
  5
25AC
330
2596
100
AcDbEntity
  8
0
100
AcDbLine
 10
55.05652359096612
 20
-7.229982961927987
 30
0.0
 11
52.93520324740647
 21
-8.454727833319577
 31
0.0
  0
LINE
  5
25AD
330
2596
100
AcDbEntity
  8
0
100
AcDbLine
 10
52.93520324740647
 20
25.634004420413
 30
0.0
 11
55.05652359096611
 21
26.85874929180459
 31
0.0
  0
ELLIPSE
  5
25AE
330
2596
100
AcDbEntity
  8
0
100
AcDbEllipse
 10
28.18646590587733
 20
42.37218432943136
 30
0.0
 11
-0.9999999999999996
 21
1.732050807568878
 31
0.0
210
0.0
220
0.0
230
1.0
 40
0.5773502691896257
 41
5.497787143782138
 42
6.283185307179591
  0
ELLIPSE
  5
25AF
330
2596
100
AcDbEntity
  8
0
100
AcDbEllipse
 10
53.64231002859302
 20
27.67524587273232
 30
0.0
 11
-1.000000000000103
 21
1.732050807568818
 31
0.0
210
0.0
220
0.0
230
1.0
 40
0.5773502691896257
 41
3.926990816986997
 42
5.497787143781891
  0
ELLIPSE
  5
25B0
330
2596
100
AcDbEntity
  8
0
100
AcDbEllipse
 10
51.52098968503338
 20
-48.66718444401009
 30
0.0
 11
1.0
 21
-1.732050807568878
 31
0.0
210
0.0
220
0.0
230
1.0
 40
0.5773502691896257
 41
5.497787143782137
 42
7.068583470577032
  0
LINE
  5
25B1
330
2596
100
AcDbEntity
  8
0
100
AcDbLine
 10
55.05652359096611
 20
-48.25893615354623
 30
0.0
 11
52.93520324740647
 21
-49.48368102493782
 31
0.0
  0
ELLIPSE
  5
25B2
330
2596
100
AcDbEntity
  8
0
100
AcDbEllipse
 10
26.06514556231768
 20
-33.97024598731102
 30
0.0
 11
-0.9999999999998962
 21
1.732050807568938
 31
0.0
210
0.0
220
0.0
230
1.0
 40
0.5773502691896257
 41
0.7853981633976899
 42
2.356194490192587
  0
ELLIPSE
  5
25B3
330
2596
100
AcDbEntity
  8
0
100
AcDbEllipse
 10
26.06514556231769
 20
32.1211601296534
 30
0.0
 11
-0.9999999999998955
 21
1.732050807568938
 31
0.0
210
0.0
220
0.0
230
1.0
 40
0.577350269189626
 41
0.7853981633976046
 42
2.007128639793545
  0
ELLIPSE
  5
25B4
330
2596
100
AcDbEntity
  8
0
100
AcDbEllipse
 10
51.52098968503337
 20
26.45050100134073
 30
0.0
 11
0.9999999999998962
 21
-1.732050807568938
 31
0.0
210
0.0
220
0.0
230
1.0
 40
0.5773502691896257
 41
0.7853981633976899
 42
2.356194490192587
  0
ELLIPSE
  5
25B5
330
2596
100
AcDbEntity
  8
0
100
AcDbEllipse
 10
26.06514556231768
 20
41.14743945803977
 30
0.0
 11
-1.0
 21
1.732050807568878
 31
0.0
210
0.0
220
0.0
230
1.0
 40
0.5773502691896257
 41
5.497787143782137
 42
7.068583470577032
  0
LINE
  5
25B6
330
2596
100
AcDbEntity
  8
0
100
AcDbLine
 10
53.64231002859302
 20
29.30823903458777
 30
0.0
 11
51.52098968503337
 21
28.08349416319618
 31
0.0
  0
LINE
  5
25B7
330
2596
100
AcDbEntity
  8
0
100
AcDbLine
 10
26.06514556231768
 20
42.78043261989522
 30
0.0
 11
28.18646590587733
 21
44.00517749128681
 31
0.0
  0
LINE
  5
25B8
330
2596
100
AcDbEntity
  8
0
100
AcDbLine
 10
-53.10170756055526
 20
48.22968821921467
 30
0.0
 11
-53.87816469586283
 21
46.55665561173904
 31
0.0
  0
LINE
  5
25B9
330
2596
100
AcDbEntity
  8
0
100
AcDbLine
 10
54.64231002859303
 20
-8.145537188569138
 30
0.0
 11
52.52098968503339
 21
-9.370282059960729
 31
0.0
  0
LINE
  5
25BA
330
2596
100
AcDbEntity
  8
0
100
AcDbLine
 10
54.64231002859301
 20
-49.17449038018738
 30
0.0
 11
52.52098968503337
 21
-50.39923525157897
 31
0.0
  0
LINE
  5
25BB
330
2596
100
AcDbEntity
  8
0
100
AcDbLine
 10
27.18646590587732
 20
44.10423513700023
 30
0.0
 11
25.06514556231768
 21
42.87949026560865
 31
0.0
  0
LINE
  5
25BC
330
2596
100
AcDbEntity
  8
0
100
AcDbLine
 10
-51.2875620806195
 20
49.02073353373709
 30
0.0
 11
-47.74109501730943
 21
48.47209316969873
 31
0.0
  0
LINE
  5
25BD
330
2596
100
AcDbEntity
  8
0
100
AcDbLine
 10
-52.06401921592707
 20
47.34770092626148
 30
0.0
 11
-48.517552152617
 21
46.79906056222312
 31
0.0
  0
LINE
  5
25BE
330
2596
100
AcDbEntity
  8
0
100
AcDbLine
 10
-43.07719255716244
 20
44.48459862445477
 30
0.0
 11
-43.07719255716242
 21
41.82168711638825
 31
0.0
  0
ELLIPSE
  5
25BF
330
2596
100
AcDbEntity
  8
0
100
AcDbEllipse
 10
-39.93793362172299
 20
39.09997409146406
 30
0.0
 11
-3.855059144863442
 21
1.789139175582698
 31
0.0
210
0.0
220
0.0
230
1.0
 40
0.788675134594813
 41
0.2787297072276588
 42
1.921675737667156
  0
LINE
  5
25C0
330
2596
100
AcDbEntity
  8
0
100
AcDbLine
 10
-39.93793362172299
 20
35.62986362252123
 30
0.0
 11
-38.48904488228939
 21
35.40571975447921
 31
0.0
  0
ELLIPSE
  5
25C1
330
2596
100
AcDbEntity
  8
0
100
AcDbEllipse
 10
-38.48904488228939
 20
38.87583022342205
 30
0.0
 11
3.855059144863445
 21
-1.789139175582699
 31
0.0
210
0.0
220
0.0
230
1.0
 40
0.788675134594813
 41
5.063268391256947
 42
6.004455599951929
  0
LINE
  5
25C2
330
2596
100
AcDbEntity
  8
0
100
AcDbLine
 10
-29.71995766041382
 20
47.31720668023598
 30
0.0
 11
-26.43429057020185
 21
46.80891221244521
 31
0.0
  0
LINE
  5
25C3
330
2596
100
AcDbEntity
  8
0
100
AcDbLine
 10
-26.43429057020185
 20
46.80891221244521
 30
0.0
 11
26.21076495883955
 21
22.46771367633537
 31
0.0
  0
LINE
  5
25C4
330
2596
100
AcDbEntity
  8
0
100
AcDbLine
 10
26.21076495883954
 20
22.46771367633537
 30
0.0
 11
39.99242850369739
 21
18.28153833265776
 31
0.0
  0
ELLIPSE
  5
25C5
330
2596
100
AcDbEntity
  8
0
100
AcDbEllipse
 10
40.23390996026967
 20
-2.696530186925494
 30
0.0
 11
2.040913664927784
 21
-0.9471913282494979
 31
0.0
210
0.0
220
0.0
230
1.0
 40
0.788675134594813
 41
3.688090896673276
 42
4.951927376915877
  0
LINE
  5
25C6
330
2596
100
AcDbEntity
  8
0
100
AcDbLine
 10
-53.99587086850527
 20
-27.47112602836665
 30
0.0
 11
-53.99587086850523
 21
46.0135662551287
 31
0.0
  0
LINE
  5
25C7
330
2596
100
AcDbEntity
  8
0
100
AcDbLine
 10
-27.21074770550941
 20
-33.24779216409214
 30
0.0
 11
-52.06401921592711
 21
-29.40297768094478
 31
0.0
  0
LINE
  5
25C8
330
2596
100
AcDbEntity
  8
0
100
AcDbLine
 10
25.43430782353198
 20
-25.19503049467893
 30
0.0
 11
-27.21074770550941
 21
-33.24779216409214
 31
0.0
  0
LINE
  5
25C9
330
2596
100
AcDbEntity
  8
0
100
AcDbLine
 10
39.21597136838983
 20
-25.27291669130374
 30
0.0
 11
25.43430782353198
 21
-25.19503049467893
 31
0.0
  0
ELLIPSE
  5
25CA
330
2596
100
AcDbEntity
  8
0
100
AcDbEllipse
 10
39.4574528249621
 20
-4.36956279440111
 30
0.0
 11
-2.040913664927705
 21
0.947191328249665
 31
0.0
210
0.0
220
0.0
230
0.9999999999999998
 40
0.7886751345948132
 41
5.174609405597915
 42
8.093520030505775
  0
LINE
  5
25CB
330
2596
100
AcDbEntity
  8
0
100
AcDbLine
 10
25.43430782353198
 20
20.79468106885976
 30
0.0
 11
39.21597136838983
 21
16.60850572518215
 31
0.0
  0
LINE
  5
25CC
330
2596
100
AcDbEntity
  8
0
100
AcDbLine
 10
-27.21074770550941
 20
45.13587960496958
 30
0.0
 11
25.43430782353198
 21
20.79468106885976
 31
0.0
  0
LINE
  5
25CD
330
2596
100
AcDbEntity
  8
0
100
AcDbLine
 10
-30.49641479572139
 20
45.64417407276035
 30
0.0
 11
-27.21074770550941
 21
45.13587960496958
 31
0.0
  0
LINE
  5
25CE
330
2596
100
AcDbEntity
  8
0
100
AcDbLine
 10
-35.16031725586838
 20
36.56772332316073
 30
0.0
 11
-35.16031725586839
 21
43.09969597058251
 31
0.0
  0
ELLIPSE
  5
25CF
330
2596
100
AcDbEntity
  8
0
100
AcDbEllipse
 10
-39.26550201759695
 20
37.20279761594643
 30
0.0
 11
3.855059144863445
 21
-1.789139175582699
 31
0.0
210
0.0
220
0.0
230
1.0
 40
0.788675134594813
 41
5.063268391256947
 42
6.634064718051845
  0
LINE
  5
25D0
330
2596
100
AcDbEntity
  8
0
100
AcDbLine
 10
-40.71439075703055
 20
33.95683101504561
 30
0.0
 11
-39.26550201759695
 21
33.7326871470036
 31
0.0
  0
ELLIPSE
  5
25D1
330
2596
100
AcDbEntity
  8
0
100
AcDbEllipse
 10
-40.71439075703055
 20
37.42694148398846
 30
0.0
 11
-3.855059144863442
 21
1.789139175582695
 31
0.0
210
0.0
220
0.0
230
1.0
 40
0.7886751345948133
 41
5.933853162517544
 42
8.20486104484674
  0
LINE
  5
25D2
330
2596
100
AcDbEntity
  8
0
100
AcDbLine
 10
-43.85364969246999
 20
42.81156601697915
 30
0.0
 11
-43.85364969246999
 21
40.14865450891263
 31
0.0
  0
LINE
  5
25D3
330
2596
100
AcDbEntity
  8
0
100
AcDbLine
 10
42.68215492020154
 20
-5.392865654840603
 30
0.0
 11
53.64231002859302
 21
-11.72071415703048
 31
0.0
  0
LINE
  5
25D4
330
2596
100
AcDbEntity
  8
0
100
AcDbLine
 10
40.56083457664191
 20
-6.617610526232193
 30
0.0
 11
51.52098968503338
 21
-12.94545902842207
 31
0.0
  0
LINE
  5
25D5
330
2596
100
AcDbEntity
  8
0
100
AcDbLine
 10
55.05652359096611
 20
-14.17020389981366
 30
0.0
 11
55.05652359096611
 21
-48.25893615354623
 31
0.0
  0
LINE
  5
25D6
330
2596
100
AcDbEntity
  8
0
100
AcDbLine
 10
37.0557457857248
 20
-25.26070831356053
 30
0.0
 11
42.09990698607831
 21
-27.14594040765048
 31
0.0
  0
LINE
  5
25D7
330
2596
100
AcDbEntity
  8
0
100
AcDbLine
 10
55.05652359096611
 20
26.85874929180459
 30
0.0
 11
55.05652359096612
 21
-7.229982961927987
 31
0.0
  0
LINE
  5
25D8
330
2596
100
AcDbEntity
  8
0
100
AcDbLine
 10
52.93520324740647
 20
25.634004420413
 30
0.0
 11
52.93520324740647
 21
-8.454727833319575
 31
0.0
  0
LINE
  5
25D9
330
2596
100
AcDbEntity
  8
0
100
AcDbLine
 10
28.18646590587733
 20
44.00517749128681
 30
0.0
 11
39.28139480537971
 21
37.59951730451935
 31
0.0
  0
LINE
  5
25DA
330
2596
100
AcDbEntity
  8
0
100
AcDbLine
 10
42.54738112909061
 20
35.71389922135524
 30
0.0
 11
53.64231002859302
 21
29.30823903458777
 31
0.0
  0
LINE
  5
25DB
330
2596
100
AcDbEntity
  8
0
100
AcDbLine
 10
51.52098968503338
 20
-50.30017760586556
 30
0.0
 11
40.42606078553098
 21
-43.89451741909805
 31
0.0
  0
ELLIPSE
  5
25DC
330
2596
100
AcDbEntity
  8
0
100
AcDbEllipse
 10
40.56083457664191
 20
-26.72283996891754
 30
0.0
 11
1.125
 21
-1.948557158514989
 31
0.0
210
0.0
220
0.0
230
1.0
 40
0.5773502691896257
 41
5.67232008388273
 42
8.639379797371926
  0
LINE
  5
25DD
330
2596
100
AcDbEntity
  8
0
100
AcDbLine
 10
31.57459488538858
 20
-25.22973193720623
 30
0.0
 11
40.83710713557209
 21
-28.69155337239817
 31
0.0
  0
LINE
  5
25DE
330
2596
100
AcDbEntity
  8
0
100
AcDbLine
 10
24.65093199994458
 20
-33.15374940638329
 30
0.0
 11
24.65093199994459
 21
-25.31485824947062
 31
0.0
  0
LINE
  5
25DF
330
2596
100
AcDbEntity
  8
0
100
AcDbLine
 10
37.16007446182006
 20
-42.00889933593393
 30
0.0
 11
26.06514556231768
 21
-35.60323914916647
 31
0.0
  0
LINE
  5
25E0
330
2596
100
AcDbEntity
  8
0
100
AcDbLine
 10
52.93520324740647
 20
-15.39494877120525
 30
0.0
 11
52.93520324740647
 21
-49.48368102493782
 31
0.0
  0
LINE
  5
25E1
330
2596
100
AcDbEntity
  8
0
100
AcDbLine
 10
24.6509319999446
 20
32.93765671058113
 30
0.0
 11
24.65093199994459
 21
41.9639360389675
 31
0.0
  0
LINE
  5
25E2
330
2596
100
AcDbEntity
  8
0
100
AcDbLine
 10
40.42606078553096
 20
34.48915434996365
 30
0.0
 11
51.52098968503337
 21
28.08349416319618
 31
0.0
  0
LINE
  5
25E3
330
2596
100
AcDbEntity
  8
0
100
AcDbLine
 10
26.06514556231768
 20
42.78043261989522
 30
0.0
 11
37.16007446182008
 21
36.37477243312776
 31
0.0
  0
LINE
  5
25E4
330
2596
100
AcDbEntity
  8
0
100
AcDbLine
 10
26.22931596186688
 20
30.21958429830583
 30
0.0
 11
25.58145603702174
 21
30.8659067832978
 31
0.0
  0
LINE
  5
25E5
330
2596
100
AcDbEntity
  8
0
100
AcDbLine
 10
40.83710713557209
 20
18.81155486157242
 30
0.0
 11
26.22931596186688
 21
30.21958429830583
 31
0.0
  0
ELLIPSE
  5
25E6
330
2596
100
AcDbEntity
  8
0
100
AcDbEllipse
 10
40.56083457664191
 20
17.16185353062791
 30
0.0
 11
1.125
 21
-1.948557158514988
 31
0.0
210
0.0
220
0.0
230
1.0
 40
0.5773502691896258
 41
5.497787143782137
 42
8.4648468721725
  0
LINE
  5
25E7
330
2596
100
AcDbEntity
  8
0
100
AcDbLine
 10
51.52098968503338
 20
-9.271224414247303
 30
0.0
 11
40.56083457664191
 21
-2.943375912057416
 31
0.0
  0
LINE
  5
25E8
330
2596
100
AcDbEntity
  8
0
100
AcDbLine
 10
-26.43429057020185
 20
46.80891221244521
 30
0.0
 11
-27.21074770550941
 21
45.13587960496958
 31
0.0
  0
LINE
  5
25E9
330
2596
100
AcDbEntity
  8
0
100
AcDbLine
 10
42.12765411736194
 20
-27.94645572505994
 30
0.0
 11
40.83710713557209
 21
-28.69155337239817
 31
0.0
  0
LINE
  5
25EA
330
2596
100
AcDbEntity
  8
0
100
AcDbLine
 10
-43.07719255716242
 20
41.82168711638825
 30
0.0
 11
-43.85364969246999
 21
40.14865450891263
 31
0.0
  0
LINE
  5
25EB
330
2596
100
AcDbEntity
  8
0
100
AcDbLine
 10
-39.93793362172299
 20
35.62986362252123
 30
0.0
 11
-40.71439075703055
 21
33.95683101504561
 31
0.0
  0
LINE
  5
25EC
330
2596
100
AcDbEntity
  8
0
100
AcDbLine
 10
-38.48904488228939
 20
35.40571975447921
 30
0.0
 11
-39.26550201759695
 21
33.7326871470036
 31
0.0
  0
LINE
  5
25ED
330
2596
100
AcDbEntity
  8
0
100
AcDbLine
 10
26.21076495883954
 20
22.46771367633537
 30
0.0
 11
25.43430782353198
 21
20.79468106885976
 31
0.0
  0
LINE
  5
25EE
330
2596
100
AcDbEntity
  8
0
100
AcDbLine
 10
-43.07719255716244
 20
44.48459862445477
 30
0.0
 11
-46.375069613525
 21
47.78247568081734
 31
0.0
  0
LINE
  5
25EF
330
2596
100
AcDbEntity
  8
0
100
AcDbLine
 10
-31.08598306419826
 20
47.05023892216496
 30
0.0
 11
-34.38386012056083
 21
44.77272857805814
 31
0.0
  0
LINE
  5
25F0
330
2596
100
AcDbEntity
  8
0
100
AcDbLine
 10
-34.38386012056083
 20
44.77272857805814
 30
0.0
 11
-35.16031725586839
 21
43.09969597058251
 31
0.0
  0
LINE
  5
25F1
330
2596
100
AcDbEntity
  8
0
100
AcDbLine
 10
-35.16031725586839
 20
43.09969597058251
 30
0.0
 11
-31.86244019950583
 21
45.37720631468935
 31
0.0
  0
LINE
  5
25F2
330
2596
100
AcDbEntity
  8
0
100
AcDbLine
 10
-47.15152674883259
 20
46.10944307334173
 30
0.0
 11
-43.85364969246999
 21
42.81156601697915
 31
0.0
  0
LINE
  5
25F3
330
2596
100
AcDbEntity
  8
0
100
AcDbLine
 10
-43.85364969246999
 20
42.81156601697915
 30
0.0
 11
-43.07719255716244
 21
44.48459862445477
 31
0.0
  0
LINE
  5
25F4
330
2596
100
AcDbEntity
  8
0
100
AcDbLine
 10
39.21597136838983
 20
-25.27291669130374
 30
0.0
 11
39.21597136838983
 21
-6.157947341411329
 31
0.0
  0
LINE
  5
25F5
330
2596
100
AcDbEntity
  8
0
100
AcDbLine
 10
39.21597136838983
 20
-2.506463624710218
 30
0.0
 11
39.21597136838983
 21
16.60850572518215
 31
0.0
  0
LINE
  5
25F6
330
2596
100
AcDbEntity
  8
0
100
AcDbLine
 10
42.68215492020154
 20
-5.392865654840603
 30
0.0
 11
40.56083457664191
 21
-6.617610526232193
 31
0.0
  0
LINE
  5
25F7
330
2596
100
AcDbEntity
  8
0
100
AcDbLine
 10
40.56083457664191
 20
-6.617610526232193
 30
0.0
 11
40.56083457664191
 21
-24.88572266183016
 31
0.0
  0
LINE
  5
25F8
330
2596
100
AcDbEntity
  8
0
100
AcDbLine
 10
40.5608345766419
 20
15.32473622354052
 30
0.0
 11
40.56083457664191
 21
-2.943375912057415
 31
0.0
  0
SPLINE
  5
25F9
330
2596
100
AcDbEntity
  8
0
100
AcDbSpline
210
0.0
220
0.0
230
1.0
 70
     8
 71
     3
 72
    10
 73
     6
 74
     0
 42
0.000000001
 43
0.0000000001
 40
0.0
 40
0.0
 40
0.0
 40
0.0
 40
0.0886369508136927
 40
0.0886369508136927
 40
0.177273901637333
 40
0.177273901637333
 40
0.177273901637333
 40
0.177273901637333
 10
39.21597136838983
 20
-25.27291669130374
 30
0.0
 10
39.45267752361946
 20
-25.17477131389397
 30
0.0
 10
39.68072335879717
 20
-25.09373860943759
 30
0.0
 10
40.10929013295259
 20
-24.96149774999478
 30
0.0
 10
40.30820046656502
 20
-24.9107826417232
 30
0.0
 10
40.48728768414942
 20
-24.8725939353745
 30
0.0
  0
ELLIPSE
  5
25FA
330
2596
100
AcDbEntity
  8
0
100
AcDbEllipse
 10
38.43951423308226
 20
-7.842355397623781
 30
0.0
 11
6.0
 21
0.0000000000000369
 31
0.0
210
0.0
220
0.0
230
1.0
 40
0.5773502691896226
 41
0.7853981633974448
 42
1.287180323345813
  0
LINE
  5
25FB
330
2596
100
AcDbEntity
  8
0
100
AcDbLine
 10
39.27900127517524
 20
-6.179500272028251
 30
0.0
 11
40.11848831726822
 21
-4.516645146432718
 31
0.0
  0
ELLIPSE
  5
25FC
330
2596
100
AcDbEntity
  8
0
100
AcDbEllipse
 10
38.43951423308226
 20
-7.842355397623781
 30
0.0
 11
-3.0
 21
-0.0000000000001928
 31
0.0
210
0.0
220
0.0
230
1.0
 40
0.577350269189623
 41
3.926990816986997
 42
4.428772976935483
  0
SPLINE
  5
25FD
330
2596
100
AcDbEntity
  8
0
100
AcDbSpline
210
0.0
220
0.0
230
1.0
 70
     8
 71
     3
 72
    10
 73
     6
 74
     0
 42
0.000000001
 43
0.0000000001
 40
0.0
 40
0.0
 40
0.0
 40
0.0
 40
0.0050367638281728
 40
0.0050367638281728
 40
0.0090697126194823
 40
0.0090697126194823
 40
0.0090697126194823
 40
0.0090697126194823
 10
39.99242850369739
 20
-4.484914733935712
 30
0.0
 10
40.00828879524482
 20
-4.490228215639743
 30
0.0
 10
40.02907174871595
 20
-4.496761873854585
 30
0.0
 10
40.07635348926073
 20
-4.508670494555607
 30
0.0
 10
40.0974153020391
 20
-4.513098944073075
 30
0.0
 10
40.11848831726822
 20
-4.516645146432712
 30
0.0
  0
LINE
  5
25FE
330
2596
100
AcDbEntity
  8
0
100
AcDbLine
 10
39.21597136838983
 20
-6.157947341411328
 30
0.0
 11
39.99242850369739
 21
-4.484914733935712
 31
0.0
  0
SPLINE
  5
25FF
330
2596
100
AcDbEntity
  8
0
100
AcDbSpline
210
0.0
220
0.0
230
1.0
 70
     8
 71
     3
 72
    10
 73
     6
 74
     0
 42
0.000000001
 43
0.0000000001
 40
0.0
 40
0.0
 40
0.0
 40
0.0
 40
0.0033190141477226
 40
0.0033190141477226
 40
0.0078572874880565
 40
0.0078572874880565
 40
0.0078572874880565
 40
0.0078572874880565
 10
39.27900127517524
 20
-6.179500272028244
 30
0.0
 10
39.26837987834458
 20
-6.177712915479145
 30
0.0
 10
39.25784821437911
 20
-6.175005330842582
 30
0.0
 10
39.23316490867776
 20
-6.16655663463332
 30
0.0
 10
39.22202990875683
 20
-6.161067357910663
 30
0.0
 10
39.21597136838983
 20
-6.157947341411329
 30
0.0
  0
SPLINE
  5
2600
330
2596
100
AcDbEntity
  8
0
100
AcDbSpline
210
0.0
220
0.0
230
1.0
 70
     8
 71
     3
 72
    10
 73
     6
 74
     0
 42
0.000000001
 43
0.0000000001
 40
0.0
 40
0.0
 40
0.0
 40
0.0
 40
0.0032590625388117
 40
0.0032590625388117
 40
0.0055671261380791
 40
0.0055671261380791
 40
0.0055671261380791
 40
0.0055671261380791
 10
40.48728768414942
 20
-24.87259393537451
 30
0.0
 10
40.49387840258765
 20
-24.87120281476564
 30
0.0
 10
40.5070732636683
 20
-24.86890297519888
 30
0.0
 10
40.53609669957248
 20
-24.87403341153282
 30
0.0
 10
40.54837379894938
 20
-24.87852821005311
 30
0.0
 10
40.56083457664191
 20
-24.88572266183016
 30
0.0
  0
ELLIPSE
  5
2601
330
2596
100
AcDbEntity
  8
0
100
AcDbEllipse
 10
38.43951423308226
 20
-4.168120783449004
 30
0.0
 11
3.0
 21
0.0000000000000212
 31
0.0
210
0.0
220
0.0
230
1.0
 40
0.5773502691896212
 41
0.7853981633974457
 42
1.287180323345814
  0
SPLINE
  5
2602
330
2596
100
AcDbEntity
  8
0
100
AcDbSpline
210
0.0
220
0.0
230
1.0
 70
     8
 71
     3
 72
    10
 73
     6
 74
     0
 42
0.000000001
 43
0.0000000001
 40
0.0
 40
0.0
 40
0.0
 40
0.0
 40
0.0052866602425417
 40
0.0052866602425417
 40
0.0127516002457275
 40
0.0127516002457275
 40
0.0127516002457275
 40
0.0127516002457275
 10
40.56083457651138
 20
15.32473622361587
 30
0.0
 10
40.54837379882095
 20
15.33193023856406
 30
0.0
 10
40.53609669944226
 20
15.34135784535136
 30
0.0
 10
40.50707326359387
 20
15.36860815219782
 30
0.0
 10
40.49387840255707
 20
15.38518543837593
 30
0.0
 10
40.48728768414941
 20
15.39368482974581
 30
0.0
  0
SPLINE
  5
2603
330
2596
100
AcDbEntity
  8
0
100
AcDbSpline
210
0.0
220
0.0
230
1.0
 70
     8
 71
     3
 72
    10
 73
     6
 74
     0
 42
0.000000001
 43
0.0000000001
 40
0.0
 40
0.0
 40
0.0
 40
0.0
 40
0.0886369508136886
 40
0.0886369508136886
 40
0.1772739016373251
 40
0.1772739016373251
 40
0.1772739016373251
 40
0.1772739016373251
 10
40.48728768414941
 20
15.39368482974581
 30
0.0
 10
40.30820046658509
 20
15.62502401752432
 30
0.0
 10
40.10929013299713
 20
15.84282638378709
 30
0.0
 10
39.68072335884826
 20
16.24963843835608
 30
0.0
 10
39.45267752364604
 20
16.43712320844976
 30
0.0
 10
39.21597136838983
 20
16.60850572518215
 30
0.0
  0
SPLINE
  5
2604
330
2596
100
AcDbEntity
  8
0
100
AcDbSpline
210
0.0
220
0.0
230
1.0
 70
     8
 71
     3
 72
    10
 73
     6
 74
     0
 42
0.000000001
 43
0.0000000001
 40
0.0
 40
0.0
 40
0.0
 40
0.0
 40
0.0020454615069428
 40
0.0020454615069428
 40
0.0035413863162359
 40
0.0035413863162359
 40
0.0035413863162359
 40
0.0035413863162359
 10
39.21597136838983
 20
-2.50646362471022
 30
0.0
 10
39.22202990875882
 20
-2.505218127123608
 30
0.0
 10
39.23316490867916
 20
-2.503193526678741
 30
0.0
 10
39.25784821437962
 20
-2.502714891901694
 30
0.0
 10
39.2683798783446
 20
-2.503478229134765
 30
0.0
 10
39.27900127517524
 20
-2.505265657853473
 30
0.0
  0
SPLINE
  5
2605
330
2596
100
AcDbEntity
  8
0
100
AcDbSpline
210
0.0
220
0.0
230
1.0
 70
     8
 71
     3
 72
    10
 73
     6
 74
     0
 42
0.000000001
 43
0.0000000001
 40
0.0
 40
0.0
 40
0.0
 40
0.0
 40
0.1551474605007348
 40
0.1551474605007348
 40
0.2371423634433062
 40
0.2371423634433062
 40
0.2371423634433062
 40
0.2371423634433062
 10
39.99242850369739
 20
18.28153833265776
 30
0.0
 10
40.46584132197103
 20
18.07353752226593
 30
0.0
 10
40.9219329389927
 20
17.83282615500523
 30
0.0
 10
41.57699509439563
 20
17.41700089467353
 30
0.0
 10
41.79490342371122
 20
17.26504101706397
 30
0.0
 10
42.00291043514291
 20
17.10530097637499
 30
0.0
  0
LINE
  5
2606
330
2596
100
AcDbEntity
  8
0
100
AcDbLine
 10
39.21597136838983
 20
16.60850572518215
 30
0.0
 11
39.99242850369739
 21
18.28153833265776
 31
0.0
  0
LINE
  5
2607
330
2596
100
AcDbEntity
  8
0
100
AcDbLine
 10
40.48728768414941
 20
15.39368482974581
 30
0.0
 11
42.14491563886164
 21
16.4183090017455
 31
0.0
  0
LINE
  5
2608
330
2596
100
AcDbEntity
  8
0
100
AcDbLine
 10
42.15182483431163
 20
16.24329487708422
 30
0.0
 11
40.5608345766419
 21
15.32473622354052
 31
0.0
  0
ELLIPSE
  5
2609
330
2596
100
AcDbEntity
  8
0
100
AcDbEllipse
 10
-39.26550201759699
 20
-21.58495621084985
 30
0.0
 11
6.576277364767051
 21
-3.052060946582251
 31
0.0
210
0.0
220
0.0
230
1.0
 40
0.7886751345948132
 41
0.0
 42
6.283185307179586
  0
ELLIPSE
  5
260A
330
2596
100
AcDbEntity
  8
0
100
AcDbEllipse
 10
-39.26550201759695
 20
17.60687967368101
 30
0.0
 11
6.576277364767051
 21
-3.052060946582251
 31
0.0
210
0.0
220
0.0
230
1.0
 40
0.7886751345948132
 41
0.0
 42
6.283185307179586
  0
ELLIPSE
  5
260B
330
2596
100
AcDbEntity
  8
0
100
AcDbEllipse
 10
-39.26550201759697
 20
-1.989038268584417
 30
0.0
 11
6.576277364767051
 21
-3.052060946582251
 31
0.0
210
0.0
220
0.0
230
1.0
 40
0.7886751345948132
 41
0.0
 42
6.283185307179586
  0
ELLIPSE
  5
260C
330
2596
100
AcDbEntity
  8
0
100
AcDbEllipse
 10
20.11466619008083
 20
-14.44116858307361
 30
0.0
 11
-3.62829095987147
 21
1.683895694666066
 31
0.0
210
0.0
220
0.0
230
1.0
 40
0.7886751345948131
 41
0.3508794108722579
 42
3.492472064462051
  0
LINE
  5
260D
330
2596
100
AcDbEntity
  8
0
100
AcDbLine
 10
16.25096288492457
 20
12.28443898805899
 30
0.0
 11
16.25096288492456
 21
-13.84345160162824
 31
0.0
  0
ELLIPSE
  5
260E
330
2596
100
AcDbEntity
  8
0
100
AcDbEllipse
 10
20.11466619008083
 20
11.68672200661362
 30
0.0
 11
3.62829095987147
 21
-1.683895694666066
 31
0.0
210
0.0
220
0.0
230
1.0
 40
0.7886751345948129
 41
0.3508794108722544
 42
3.492472064462051
  0
LINE
  5
260F
330
2596
100
AcDbEntity
  8
0
100
AcDbLine
 10
23.9783694952371
 20
-15.03888556451898
 30
0.0
 11
23.97836949523711
 21
11.08900502516824
 31
0.0
  0
ELLIPSE
  5
2610
330
2596
100
AcDbEntity
  8
0
100
AcDbEllipse
 10
24.75482663054466
 20
-13.36585295704337
 30
0.0
 11
-2.999999999999997
 21
-0.0000000000000001
 31
0.0
210
0.0
220
0.0
230
1.0
 40
0.5773502691896261
 41
0.0
 42
1.308996938995747
  0
ELLIPSE
  5
2611
330
2596
100
AcDbEntity
  8
0
100
AcDbEllipse
 10
20.89112332538839
 20
-12.768135975598
 30
0.0
 11
0.9070727399678631
 21
-0.4209739236665141
 31
0.0
210
0.0
220
0.0
230
1.0
 40
0.7886751345948132
 41
3.492472064462047
 42
6.169845600990724
  0
ELLIPSE
  5
2612
330
2596
100
AcDbEntity
  8
0
100
AcDbEllipse
 10
17.02742002023212
 20
-12.17041899415263
 30
0.0
 11
3.0
 21
0.0000000000000025
 31
0.0
210
0.0
220
0.0
230
1.0
 40
0.5773502691896259
 41
4.450589592585538
 42
6.021385919380433
  0
LINE
  5
2613
330
2596
100
AcDbEntity
  8
0
100
AcDbLine
 10
19.92519749909933
 20
-12.61870673023666
 30
0.0
 11
19.92519749909934
 21
13.50918385945057
 31
0.0
  0
ELLIPSE
  5
2614
330
2596
100
AcDbEntity
  8
0
100
AcDbEllipse
 10
17.02742002023213
 20
13.9574715955346
 30
0.0
 11
3.0
 21
-0.0000000000000001
 31
0.0
210
0.0
220
0.0
230
1.0
 40
0.577350269189626
 41
4.450589592585539
 42
6.021385919380435
  0
ELLIPSE
  5
2615
330
2596
100
AcDbEntity
  8
0
100
AcDbEllipse
 10
20.8911233253884
 20
13.35975461408924
 30
0.0
 11
-0.9070727399678631
 21
0.4209739236665144
 31
0.0
210
0.0
220
0.0
230
1.0
 40
0.788675134594813
 41
0.1738542478859246
 42
0.3508794108722579
  0
ELLIPSE
  5
2616
330
2596
100
AcDbEntity
  8
0
100
AcDbEllipse
 10
24.75482663054466
 20
12.76203763264385
 30
0.0
 11
-2.999999999999978
 21
0.0000000000000163
 31
0.0
210
0.0
220
0.0
230
1.0
 40
0.5773502691896269
 41
0.008736940933299
 42
1.30899693899575
  0
ELLIPSE
  5
2617
330
2596
100
AcDbEntity
  8
0
100
AcDbEllipse
 10
-38.48904488228942
 20
-19.91192360337423
 30
0.0
 11
3.855059144863445
 21
-1.789139175582694
 31
0.0
210
0.0
220
0.0
230
1.0
 40
0.7886751345948131
 41
3.141592653589791
 42
6.283185307179586
  0
ELLIPSE
  5
2618
330
2596
100
AcDbEntity
  8
0
100
AcDbEllipse
 10
-38.48904488228942
 20
-0.3160056611088041
 30
0.0
 11
3.855059144863444
 21
-1.789139175582697
 31
0.0
210
0.0
220
0.0
230
1.0
 40
0.788675134594813
 41
3.141592653589794
 42
6.283185307179587
  0
ELLIPSE
  5
2619
330
2596
100
AcDbEntity
  8
0
100
AcDbEllipse
 10
-38.4890448822894
 20
19.27991228115662
 30
0.0
 11
3.855059144863444
 21
-1.789139175582697
 31
0.0
210
0.0
220
0.0
230
1.0
 40
0.788675134594813
 41
3.141592653589794
 42
6.283185307179587
  0
SPLINE
  5
261A
330
2596
100
AcDbEntity
  8
0
100
AcDbSpline
210
0.0
220
0.0
230
1.0
 70
     8
 71
     3
 72
    30
 73
    26
 74
     0
 42
0.000000001
 43
0.0000000001
 40
5.549819499064614
 40
5.549819499064614
 40
5.549819499064614
 40
5.549819499064614
 40
5.621411039800454
 40
5.621411039800454
 40
5.898888038683087
 40
5.898888038683087
 40
6.107908546378959
 40
6.107908546378959
 40
6.300333294827159
 40
6.300333294827159
 40
6.488735717319422
 40
6.488735717319422
 40
6.676917857039799
 40
6.676917857039799
 40
6.865227946655407
 40
6.865227946655407
 40
7.053332751459996
 40
7.053332751459996
 40
7.242735453607811
 40
7.242735453607811
 40
7.439582959532045
 40
7.439582959532045
 40
7.659298743453481
 40
7.659298743453481
 40
7.718309937039073
 40
7.718309937039073
 40
7.718309937039073
 40
7.718309937039073
 10
19.8613626465732
 20
13.62161055956942
 30
0.0
 10
19.8613626465732
 20
13.62161055956942
 30
0.0
 10
19.86300012454357
 20
13.62260426717086
 30
0.0
 10
19.87994787702865
 20
13.63114164681614
 30
0.0
 10
19.92231567044827
 20
13.64931106540559
 30
0.0
 10
20.04876509130176
 20
13.67297507023293
 30
0.0
 10
20.11950539501408
 20
13.68038287414066
 30
0.0
 10
20.27863468995427
 20
13.67958674415209
 30
0.0
 10
20.36506852001233
 20
13.67258965130958
 30
0.0
 10
20.54680515719694
 20
13.641840331327
 30
0.0
 10
20.64183429473491
 20
13.61845666333667
 30
0.0
 10
20.83241161998412
 20
13.55538675101561
 30
0.0
 10
20.92792397699887
 20
13.5157332854217
 30
0.0
 10
21.11056467547733
 20
13.42334285295633
 30
0.0
 10
21.19765532853175
 20
13.3706123317452
 30
0.0
 10
21.35576929996135
 20
13.25819564106158
 30
0.0
 10
21.42677558765926
 20
13.19853966765183
 30
0.0
 10
21.54830168591008
 20
13.08010002707243
 30
0.0
 10
21.59863553846836
 20
13.02136646216672
 30
0.0
 10
21.67830721020052
 20
12.91293849341854
 30
0.0
 10
21.70669079041383
 20
12.86378381748579
 30
0.0
 10
21.74526822418693
 20
12.78368164542338
 30
0.0
 10
21.75294103484062
 20
12.75579759484522
 30
0.0
 10
21.7556767934493
 20
12.74364635035483
 30
0.0
 10
21.75587906217456
 20
12.74236243118384
 30
0.0
 10
21.75587906217456
 20
12.74236243118385
 30
0.0
  0
LINE
  5
261B
330
2596
100
AcDbEntity
  8
0
100
AcDbLine
 10
21.75482663054469
 20
12.74739672964218
 30
0.0
 11
21.75482663054467
 21
-13.36585295704337
 31
0.0
  0
SPLINE
  5
261C
330
2596
100
AcDbEntity
  8
0
100
AcDbSpline
210
0.0
220
0.0
230
1.0
 70
     8
 71
     3
 72
    28
 73
    24
 74
     0
 42
0.000000001
 43
0.0000000001
 40
5.063268391256947
 40
5.063268391256947
 40
5.063268391256947
 40
5.063268391256947
 40
5.377427656615926
 40
5.377427656615926
 40
5.785777181497214
 40
5.785777181497214
 40
6.069068018310138
 40
6.069068018310138
 40
6.336477709167683
 40
6.336477709167683
 40
6.601624775215442
 40
6.601624775215442
 40
6.866913776530642
 40
6.866913776530642
 40
7.132057506494824
 40
7.132057506494824
 40
7.398320940761498
 40
7.398320940761498
 40
7.674214381798171
 40
7.674214381798171
 40
7.990758265176819
 40
7.990758265176819
 40
8.20486104484674
 40
8.20486104484674
 40
8.20486104484674
 40
8.20486104484674
 10
-42.34410402715286
 20
-18.12278442779153
 30
0.0
 10
-42.25972462486086
 20
-17.94097208424481
 30
0.0
 10
-42.14055349027042
 20
-17.77318878610713
 30
0.0
 10
-41.73598801702637
 20
-17.39969460727366
 30
0.0
 10
-41.4036382883168
 20
-17.19862656439989
 30
0.0
 10
-40.64762308565362
 20
-16.96861052737923
 30
0.0
 10
-40.28549544548783
 20
-16.9075524892194
 30
0.0
 10
-39.51623849038302
 20
-16.8851591696584
 30
0.0
 10
-39.11334977309788
 20
-16.91846566000315
 30
0.0
 10
-38.29766534333938
 20
-17.08143228999672
 30
0.0
 10
-37.88528118768052
 20
-17.21019867780593
 30
0.0
 10
-37.09332467360912
 20
-17.55340142702602
 30
0.0
 10
-36.71399456422378
 20
-17.76778480562094
 30
0.0
 10
-36.02843863829749
 20
-18.25660650211864
 30
0.0
 10
-35.72240365118098
 20
-18.53085628161171
 30
0.0
 10
-35.20893687873531
 20
-19.10324168129257
 30
0.0
 10
-35.00216832984131
 20
-19.40113217560455
 30
0.0
 10
-34.69046683925395
 20
-19.98700781148919
 30
0.0
 10
-34.58951951056616
 20
-20.27343716858888
 30
0.0
 10
-34.4746591759214
 20
-20.82547051746663
 30
0.0
 10
-34.47409906798943
 20
-21.08018028626561
 30
0.0
 10
-34.53510695174518
 20
-21.44542579827762
 30
0.0
 10
-34.57648030445087
 20
-21.57715579156576
 30
0.0
 10
-34.63398573742598
 20
-21.70106277895693
 30
0.0
  0
SPLINE
  5
261D
330
2596
100
AcDbEntity
  8
0
100
AcDbSpline
210
0.0
220
0.0
230
1.0
 70
     8
 71
     3
 72
    28
 73
    24
 74
     0
 42
0.000000001
 43
0.0000000001
 40
5.063268391256947
 40
5.063268391256947
 40
5.063268391256947
 40
5.063268391256947
 40
5.377427656615926
 40
5.377427656615926
 40
5.785777181497214
 40
5.785777181497214
 40
6.069068018310138
 40
6.069068018310138
 40
6.336477709167683
 40
6.336477709167683
 40
6.601624775215442
 40
6.601624775215442
 40
6.866913776530642
 40
6.866913776530642
 40
7.132057506494824
 40
7.132057506494824
 40
7.398320940761498
 40
7.398320940761498
 40
7.674214381798171
 40
7.674214381798171
 40
7.990758265176819
 40
7.990758265176819
 40
8.20486104484674
 40
8.20486104484674
 40
8.20486104484674
 40
8.20486104484674
 10
-42.34410402715286
 20
1.473133514473892
 30
0.0
 10
-42.25972462486084
 20
1.654945858020604
 30
0.0
 10
-42.14055349027041
 20
1.822729156158295
 30
0.0
 10
-41.73598801702637
 20
2.196223334991754
 30
0.0
 10
-41.40363828831678
 20
2.397291377865534
 30
0.0
 10
-40.64762308565362
 20
2.627307414886192
 30
0.0
 10
-40.28549544548783
 20
2.688365453046015
 30
0.0
 10
-39.51623849038298
 20
2.710758772607016
 30
0.0
 10
-39.11334977309788
 20
2.677452282262278
 30
0.0
 10
-38.29766534333938
 20
2.514485652268703
 30
0.0
 10
-37.88528118768051
 20
2.385719264459493
 30
0.0
 10
-37.0933246736091
 20
2.042516515239403
 30
0.0
 10
-36.71399456422375
 20
1.828133136644474
 30
0.0
 10
-36.02843863829748
 20
1.339311440146783
 30
0.0
 10
-35.72240365118098
 20
1.065061660653716
 30
0.0
 10
-35.2089368787353
 20
0.4926762609728525
 30
0.0
 10
-35.0021683298413
 20
0.1947857666608738
 30
0.0
 10
-34.69046683925393
 20
-0.3910898692237646
 30
0.0
 10
-34.58951951056615
 20
-0.6775192263234592
 30
0.0
 10
-34.4746591759214
 20
-1.229552575201203
 30
0.0
 10
-34.47409906798942
 20
-1.484262344000176
 30
0.0
 10
-34.53510695174516
 20
-1.849507856012191
 30
0.0
 10
-34.57648030445086
 20
-1.981237849300337
 30
0.0
 10
-34.63398573742595
 20
-2.105144836691501
 30
0.0
  0
SPLINE
  5
261E
330
2596
100
AcDbEntity
  8
0
100
AcDbSpline
210
0.0
220
0.0
230
1.0
 70
     8
 71
     3
 72
    28
 73
    24
 74
     0
 42
0.000000001
 43
0.0000000001
 40
5.063268391256947
 40
5.063268391256947
 40
5.063268391256947
 40
5.063268391256947
 40
5.377427656615926
 40
5.377427656615926
 40
5.785777181497214
 40
5.785777181497214
 40
6.069068018310138
 40
6.069068018310138
 40
6.336477709167683
 40
6.336477709167683
 40
6.601624775215442
 40
6.601624775215442
 40
6.866913776530642
 40
6.866913776530642
 40
7.132057506494824
 40
7.132057506494824
 40
7.398320940761498
 40
7.398320940761498
 40
7.674214381798171
 40
7.674214381798171
 40
7.990758265176819
 40
7.990758265176819
 40
8.20486104484674
 40
8.20486104484674
 40
8.20486104484674
 40
8.20486104484674
 10
-42.34410402715284
 20
21.06905145673932
 30
0.0
 10
-42.25972462486084
 20
21.25086380028603
 30
0.0
 10
-42.14055349027041
 20
21.41864709842372
 30
0.0
 10
-41.73598801702637
 20
21.79214127725718
 30
0.0
 10
-41.40363828831678
 20
21.99320932013096
 30
0.0
 10
-40.64762308565362
 20
22.22322535715162
 30
0.0
 10
-40.28549544548783
 20
22.28428339531144
 30
0.0
 10
-39.51623849038298
 20
22.30667671487244
 30
0.0
 10
-39.11334977309786
 20
22.27337022452771
 30
0.0
 10
-38.29766534333936
 20
22.11040359453413
 30
0.0
 10
-37.8852811876805
 20
21.98163720672491
 30
0.0
 10
-37.0933246736091
 20
21.63843445750484
 30
0.0
 10
-36.71399456422375
 20
21.4240510789099
 30
0.0
 10
-36.02843863829747
 20
20.93522938241221
 30
0.0
 10
-35.72240365118097
 20
20.66097960291914
 30
0.0
 10
-35.20893687873529
 20
20.08859420323827
 30
0.0
 10
-35.0021683298413
 20
19.7907037089263
 30
0.0
 10
-34.69046683925393
 20
19.20482807304166
 30
0.0
 10
-34.58951951056615
 20
18.91839871594197
 30
0.0
 10
-34.47465917592138
 20
18.36636536706422
 30
0.0
 10
-34.47409906798942
 20
18.11165559826525
 30
0.0
 10
-34.53510695174516
 20
17.74641008625323
 30
0.0
 10
-34.57648030445085
 20
17.61468009296509
 30
0.0
 10
-34.63398573742595
 20
17.49077310557392
 30
0.0
  0
ELLIPSE
  5
261F
330
2596
100
AcDbEntity
  8
0
100
AcDbEllipse
 10
50.81388290384683
 20
-16.4155694973649
 30
0.0
 11
1.250000000000129
 21
-2.165063509461022
 31
0.0
210
0.0
220
0.0
230
0.9999999999999998
 40
0.5773502691896259
 41
4.154790153685036
 42
5.269987807084103
  0
ELLIPSE
  5
2620
330
2596
100
AcDbEntity
  8
0
100
AcDbEllipse
 10
50.81388290384683
 20
-40.91046692519669
 30
0.0
 11
1.250000000000129
 21
-2.165063509461022
 31
0.0
210
0.0
220
0.0
230
1.0
 40
0.5773502691896257
 41
4.15479015368504
 42
5.269987807084103
  0
ELLIPSE
  5
2621
330
2596
100
AcDbEntity
  8
0
100
AcDbEllipse
 10
31.01489303062352
 20
-29.47951479220853
 30
0.0
 11
1.250000000000129
 21
-2.165063509461022
 31
0.0
210
0.0
220
0.0
230
1.0
 40
0.5773502691896257
 41
4.15479015368504
 42
5.269987807084103
  0
ELLIPSE
  5
2622
330
2596
100
AcDbEntity
  8
0
100
AcDbEllipse
 10
50.81388290384683
 20
24.40925954902141
 30
0.0
 11
1.250000000000129
 21
-2.165063509461022
 31
0.0
210
0.0
220
0.0
230
1.0
 40
0.5773502691896259
 41
4.154790153685034
 42
5.269987807084099
  0
ELLIPSE
  5
2623
330
2596
100
AcDbEntity
  8
0
100
AcDbEllipse
 10
31.01489303062352
 20
35.84021168200957
 30
0.0
 11
1.250000000000129
 21
-2.165063509461022
 31
0.0
210
0.0
220
0.0
230
1.0
 40
0.5773502691896259
 41
4.154790153685036
 42
5.269987807084104
  0
ELLIPSE
  5
2624
330
2596
100
AcDbEntity
  8
0
100
AcDbEllipse
 10
50.81388290384683
 20
-0.0856378788103746
 30
0.0
 11
1.250000000000129
 21
-2.165063509461022
 31
0.0
210
0.0
220
0.0
230
0.9999999999999998
 40
0.5773502691896259
 41
4.154790153685036
 42
5.269987807084099
  0
ELLIPSE
  5
2625
330
2596
100
AcDbEntity
  8
0
100
AcDbEllipse
 10
48.69256256028719
 20
-17.64031436875649
 30
0.0
 11
1.249999999999999
 21
-2.165063509461097
 31
0.0
210
0.0
220
0.0
230
1.0
 40
0.5773502691896259
 41
0.0
 42
6.283185307179586
  0
ELLIPSE
  5
2626
330
2596
100
AcDbEntity
  8
0
100
AcDbEllipse
 10
48.69256256028719
 20
-42.13521179658828
 30
0.0
 11
1.249999999999999
 21
-2.165063509461097
 31
0.0
210
0.0
220
0.0
230
1.0
 40
0.5773502691896259
 41
0.0
 42
6.283185307179586
  0
ELLIPSE
  5
2627
330
2596
100
AcDbEntity
  8
0
100
AcDbEllipse
 10
28.89357268706387
 20
-30.70425966360013
 30
0.0
 11
1.249999999999999
 21
-2.165063509461097
 31
0.0
210
0.0
220
0.0
230
1.0
 40
0.5773502691896259
 41
0.0
 42
6.283185307179586
  0
ELLIPSE
  5
2628
330
2596
100
AcDbEntity
  8
0
100
AcDbEllipse
 10
48.69256256028719
 20
23.18451467762982
 30
0.0
 11
1.249999999999999
 21
-2.165063509461097
 31
0.0
210
0.0
220
0.0
230
1.0
 40
0.5773502691896259
 41
0.0
 42
6.283185307179586
  0
ELLIPSE
  5
2629
330
2596
100
AcDbEntity
  8
0
100
AcDbEllipse
 10
28.89357268706387
 20
34.61546681061798
 30
0.0
 11
1.249999999999999
 21
-2.165063509461097
 31
0.0
210
0.0
220
0.0
230
1.0
 40
0.5773502691896259
 41
0.0
 42
6.283185307179586
  0
ELLIPSE
  5
262A
330
2596
100
AcDbEntity
  8
0
100
AcDbEllipse
 10
48.69256256028719
 20
-1.310382750201966
 30
0.0
 11
1.249999999999999
 21
-2.165063509461097
 31
0.0
210
0.0
220
0.0
230
1.0
 40
0.5773502691896259
 41
0.0
 42
6.283185307179586
  0
LINE
  5
262B
330
2596
100
AcDbEntity
  8
0
100
AcDbLine
 10
39.28139480537971
 20
37.59951730451935
 30
0.0
 11
40.47682876827045
 21
34.51846525846452
 31
0.0
  0
LINE
  5
262C
330
2596
100
AcDbEntity
  8
0
100
AcDbLine
 10
37.16007446182006
 20
-42.00889933593393
 30
0.0
 11
38.79306762367553
 21
-39.68572205380507
 31
0.0
  0
LINE
  5
262D
330
2596
100
AcDbEntity
  8
0
100
AcDbLine
 10
38.79306762367553
 20
-39.68572205380507
 30
0.0
 11
40.42606078553098
 21
-43.89451741909805
 31
0.0
  0
LINE
  5
262E
330
2596
100
AcDbEntity
  8
0
100
AcDbLine
 10
40.42606078553096
 20
34.48915434996365
 30
0.0
 11
38.79306762367554
 21
32.16597706783479
 31
0.0
  0
LINE
  5
262F
330
2596
100
AcDbEntity
  8
0
100
AcDbLine
 10
38.79306762367554
 20
32.16597706783479
 30
0.0
 11
37.16007446182008
 21
36.37477243312776
 31
0.0
  0
LINE
  5
2630
330
2596
100
AcDbEntity
  8
0
100
AcDbLine
 10
42.54738112909061
 20
35.71389922135524
 30
0.0
 11
40.42606078553096
 21
34.48915434996365
 31
0.0
  0
LINE
  5
2631
330
2596
100
AcDbEntity
  8
0
100
AcDbLine
 10
37.16007446182008
 20
36.37477243312776
 30
0.0
 11
39.28139480537971
 21
37.59951730451935
 31
0.0
  0
LINE
  5
2632
330
2596
100
AcDbEntity
  8
0
100
AcDbLine
 10
39.23062682264025
 20
-40.81346537304319
 30
0.0
 11
37.16007446182006
 21
-42.00889933593393
 31
0.0
  0
ELLIPSE
  5
2633
330
2596
100
AcDbEntity
  8
0
100
AcDbEllipse
 10
-37.84199726953311
 20
-18.51772976381122
 30
0.0
 11
-3.855059144863441
 21
1.789139175582701
 31
0.0
210
0.0
220
0.0
230
1.0
 40
0.7886751345948131
 41
0.2630673306196432
 42
2.878525322970156
  0
ELLIPSE
  5
2634
330
2596
100
AcDbEntity
  8
0
100
AcDbEllipse
 10
-37.84199726953311
 20
1.078188178454205
 30
0.0
 11
-3.855059144863442
 21
1.7891391755827
 31
0.0
210
0.0
220
0.0
230
1.0
 40
0.788675134594813
 41
0.2630673306196432
 42
2.878525322970157
  0
ELLIPSE
  5
2635
330
2596
100
AcDbEntity
  8
0
100
AcDbEllipse
 10
-37.8419972695331
 20
20.67410612071963
 30
0.0
 11
-3.855059144863444
 21
1.789139175582702
 31
0.0
210
0.0
220
0.0
230
1.0
 40
0.7886751345948128
 41
0.2630673306196458
 42
2.878525322970156
  0
ENDBLK
  5
2598
330
2596
100
AcDbEntity
  8
0
100
AcDbBlockEnd
  0
ENDSEC
  0
SECTION
  2
ENTITIES
  0
INSERT
  5
2636
330
1F
100
AcDbEntity
  8
0
100
AcDbBlockReference
  2
TU_S12_SKL-Front
 10
0.0
 20
0.0
 30
0.0
  0
INSERT
  5
2637
330
1F
100
AcDbEntity
  8
0
100
AcDbBlockReference
  2
TU_S12_SKL-Left
 10
47.90799999999999
 20
0.0
 30
0.0
  0
INSERT
  5
2638
330
1F
100
AcDbEntity
  8
0
100
AcDbBlockReference
  2
TU_S12_SKL-Right
 10
-113.7634514651983
 20
0.0
 30
0.0
  0
INSERT
  5
2639
330
1F
100
AcDbEntity
  8
0
100
AcDbBlockReference
  2
TU_S12_SKL-Top
 10
0.0
 20
-76.80000000000001
 30
0.0
  0
INSERT
  5
263A
330
1F
100
AcDbEntity
  8
0
100
AcDbBlockReference
  2
TU_S12_SKL-Bottom
 10
0.0
 20
76.80000000000001
 30
0.0
  0
INSERT
  5
263B
330
1F
100
AcDbEntity
  8
0
100
AcDbBlockReference
  2
TU_S12_SKL-ISO
 10
101.9038708685052
 20
-125.8478557486382
 30
0.0
  0
MTEXT
  5
263C
330
1F
100
AcDbEntity
  8
0
100
AcDbMText
 10
0.0
 20
-157.2519237886466
 30
0.0
 40
9.599999999999999
 41
0.0
 71
     5
 72
     5
  1
TU/S12
 73
     1
 44
1.0
1001
ACAD
1000
MTEXTBEGIN
1070
    73
1070
     1
1070
    44
1040
1.0
1070
    74
1070
     0
1000
MTEXTEND
  0
ENDSEC
  0
SECTION
  2
OBJECTS
  0
DICTIONARY
  5
C
330
0
100
AcDbDictionary
281
     1
  3
ACAD_CIP_PREVIOUS_PRODUCT_INFO
350
216
  3
ACAD_COLOR
350
6B
  3
ACAD_DETAILVIEWSTYLE
350
21B
  3
ACAD_GROUP
350
D
  3
ACAD_LAYOUT
350
1A
  3
ACAD_MATERIAL
350
6A
  3
ACAD_MLEADERSTYLE
350
12D
  3
ACAD_MLINESTYLE
350
17
  3
ACAD_PLOTSETTINGS
350
19
  3
ACAD_PLOTSTYLENAME
350
E
  3
ACAD_SCALELIST
350
10C
  3
ACAD_SECTIONVIEWSTYLE
350
219
  3
ACAD_TABLESTYLE
350
7E
  3
ACAD_VISUALSTYLE
350
EF
  3
ACDB_RECOMPOSE_DATA
350
273D
  3
AcDbVariableDictionary
350
5E
  3
DWGPROPS
350
273E
  0
DICTIONARY
  5
268D
330
8
100
AcDbDictionary
280
     1
281
     1
  0
DICTIONARY
  5
1FF
330
2
100
AcDbDictionary
280
     1
281
     1
  3
ACAD_LAYERSTATES
360
200
  0
DICTIONARY
  5
13C
330
10
100
AcDbDictionary
280
     1
281
     1
  0
DICTIONARY
  5
1CE
330
1F
100
AcDbDictionary
280
     1
281
     1
  3
ACAD_LAYOUTSELFREF
360
2695
  0
DICTIONARY
  5
2640
330
D2
100
AcDbDictionary
280
     1
281
     1
  3
ACAD_LAYOUTSELFREF
360
269E
  0
DICTIONARY
  5
2642
330
D6
100
AcDbDictionary
280
     1
281
     1
  3
ACAD_LAYOUTSELFREF
360
26A1
  0
XRECORD
  5
216
102
{ACAD_REACTORS
330
C
102
}
330
C
100
AcDbXrecord
280
     1
300
ACD
300
2021
300

  0
DICTIONARY
  5
6B
102
{ACAD_REACTORS
330
C
102
}
330
C
100
AcDbDictionary
281
     1
  0
DICTIONARY
  5
21B
102
{ACAD_REACTORS
330
C
102
}
330
C
100
AcDbDictionary
281
     1
  3
Metric50
350
21C
  0
DICTIONARY
  5
D
102
{ACAD_REACTORS
330
C
102
}
330
C
100
AcDbDictionary
281
     1
  0
DICTIONARY
  5
1A
102
{ACAD_REACTORS
330
C
102
}
330
C
100
AcDbDictionary
281
     1
  3
Layout1
350
D3
  3
Layout2
350
D7
  3
Model
350
22
  0
DICTIONARY
  5
6A
102
{ACAD_REACTORS
330
C
102
}
330
C
100
AcDbDictionary
281
     1
  3
ByBlock
350
ED
  3
ByLayer
350
EC
  3
Global
350
EE
  0
DICTIONARY
  5
12D
102
{ACAD_REACTORS
330
C
102
}
330
C
100
AcDbDictionary
281
     1
  3
Standard
350
12E
  0
DICTIONARY
  5
17
102
{ACAD_REACTORS
330
C
102
}
330
C
100
AcDbDictionary
281
     1
  3
Standard
350
18
  0
DICTIONARY
  5
19
102
{ACAD_REACTORS
330
C
102
}
330
C
100
AcDbDictionary
281
     1
  0
ACDBDICTIONARYWDFLT
  5
E
102
{ACAD_REACTORS
330
C
102
}
330
C
100
AcDbDictionary
281
     1
  3
Normal
350
F
100
AcDbDictionaryWithDefault
340
F
  0
DICTIONARY
  5
10C
102
{ACAD_REACTORS
330
C
102
}
330
C
100
AcDbDictionary
281
     1
  3
A0
350
10D
  3
A1
350
1BE
  3
A2
350
1BF
  3
A3
350
1C0
  3
A4
350
1C1
  3
A5
350
1C2
  3
A6
350
1C3
  3
A7
350
1C4
  3
A8
350
1C5
  3
A9
350
1C6
  3
B0
350
1C7
  3
B1
350
1C8
  3
B2
350
1C9
  3
B3
350
1CA
  3
B4
350
1CB
  3
B5
350
1CC
  3
B6
350
1CD
  0
DICTIONARY
  5
219
102
{ACAD_REACTORS
330
C
102
}
330
C
100
AcDbDictionary
281
     1
  3
Metric50
350
21A
  0
DICTIONARY
  5
7E
102
{ACAD_REACTORS
330
C
102
}
330
C
100
AcDbDictionary
281
     1
  3
Standard
350
7F
  0
DICTIONARY
  5
EF
102
{ACAD_REACTORS
330
C
102
}
330
C
100
AcDbDictionary
281
     1
  3
2dWireframe
350
F5
  3
Basic
350
F4
  3
Brighten
350
FB
  3
ColorChange
350
FF
  3
Conceptual
350
F8
  3
Dim
350
FA
  3
EdgeColorOff
350
1E6
  3
Facepattern
350
FE
  3
Flat
350
F0
  3
FlatWithEdges
350
F1
  3
Gouraud
350
F2
  3
GouraudWithEdges
350
F3
  3
Hidden
350
F7
  3
JitterOff
350
1E4
  3
Linepattern
350
FD
  3
OverhangOff
350
1E5
  3
Realistic
350
F9
  3
Shaded
350
1F3
  3
Shaded with edges
350
1F2
  3
Shades of Gray
350
1EF
  3
Sketchy
350
1F0
  3
Thicken
350
FC
  3
Wireframe
350
F6
  3
X-Ray
350
1F1
  0
XRECORD
  5
273D
102
{ACAD_REACTORS
330
C
102
}
330
C
100
AcDbXrecord
280
     1
 90
        1
330
7F
  0
DICTIONARY
  5
5E
102
{ACAD_REACTORS
330
C
102
}
330
C
100
AcDbDictionary
281
     1
  3
CANNOSCALE
350
146
  3
CENTEREXE
350
259
  3
CENTERLTYPEFILE
350
25A
  3
CMLEADERSTYLE
350
145
  3
CTABLESTYLE
350
84
  3
CVIEWDETAILSTYLE
350
227
  3
CVIEWSECTIONSTYLE
350
228
  3
DIMASSOC
350
5F
  3
HIDETEXT
350
63
  3
INDEXCTL
350
26EA
  3
LAYEREVAL
350
1AE
  3
LAYERNOTIFY
350
1AF
  3
LIGHTINGUNITS
350
26E8
  3
MSLTSCALE
350
26E7
  3
PSOLHEIGHT
350
273A
  3
PSOLWIDTH
350
2739
  3
SORTENTS
350
26E9
  3
XCLIPFRAME
350
273B
  0
XRECORD
  5
273E
102
{ACAD_REACTORS
330
C
102
}
330
C
100
AcDbXrecord
280
     1
  1
DWGPROPS COOKIE
  2

  3

  4

  6

  7

  8
tronnguyen
  9

300
=
301
=
302
=
303
=
304
=
305
=
306
=
307
=
308
=
309
=
 40
0.0082986111111111
 41
2460312.625706019
 42
2460312.648472222
  1

 90
        0
  0
DICTIONARY
  5
200
102
{ACAD_REACTORS
330
1FF
102
}
330
1FF
100
AcDbDictionary
281
     1
  0
XRECORD
  5
2695
102
{ACAD_REACTORS
330
1CE
102
}
330
1CE
100
AcDbXrecord
280
     1
340
1F
  0
XRECORD
  5
269E
102
{ACAD_REACTORS
330
2640
102
}
330
2640
100
AcDbXrecord
280
     1
340
D2
  0
XRECORD
  5
26A1
102
{ACAD_REACTORS
330
2642
102
}
330
2642
100
AcDbXrecord
280
     1
340
D6
  0
ACDBDETAILVIEWSTYLE
  5
21C
102
{ACAD_XDICTIONARY
360
277D
102
}
102
{ACAD_REACTORS
330
21B
102
}
330
21B
100
AcDbModelDocViewStyle
 70
     0
  3
Metric50
290
     0
100
AcDbDetailViewStyle
 70
     0
 71
     0
 90
        3
 71
     1
340
11
 40
5.0
340
0
 40
5.0
300

 40
0.0
280
     1
 71
     2
340
16
 90
       25
 71
     3
340
11
 40
5.0
 90
        0
 40
15.0
 90
        1
300
%<\AcVar ViewDetailId>% (%<\AcVar ViewScale \f "%sn">%)
 71
     4
340
16
 90
       25
340
16
 90
       25
280
     0
  0
LAYOUT
  5
D3
102
{ACAD_XDICTIONARY
360
2742
102
}
102
{ACAD_REACTORS
330
1A
102
}
330
1A
100
AcDbPlotSettings
  1

  2
C:\Documents and Settings\basas\Application Data\Autodesk\AutoCAD 2005\R16.1\enu\plotters\Default Windows System Printer.pc3
  4

  6

 40
0.0
 41
0.0
 42
0.0
 43
0.0
 44
0.0
 45
0.0
 46
0.0
 47
0.0
 48
0.0
 49
0.0
140
0.0
141
0.0
142
1.0
143
1.0
 70
   688
 72
     0
 73
     0
 74
     5
  7

 75
    16
147
1.0
148
0.0
149
0.0
100
AcDbLayout
  1
Layout1
 70
     1
 71
     1
 10
0.0
 20
0.0
 11
12.0
 21
9.0
 12
0.0
 22
0.0
 32
0.0
 14
0.0
 24
0.0
 34
0.0
 15
0.0
 25
0.0
 35
0.0
146
0.0
 13
0.0
 23
0.0
 33
0.0
 16
1.0
 26
0.0
 36
0.0
 17
0.0
 27
1.0
 37
0.0
 76
     0
330
D2
  0
LAYOUT
  5
D7
102
{ACAD_XDICTIONARY
360
2744
102
}
102
{ACAD_REACTORS
330
1A
102
}
330
1A
100
AcDbPlotSettings
  1

  2
C:\Documents and Settings\basas\Application Data\Autodesk\AutoCAD 2005\R16.1\enu\plotters\Default Windows System Printer.pc3
  4

  6

 40
0.0
 41
0.0
 42
0.0
 43
0.0
 44
0.0
 45
0.0
 46
0.0
 47
0.0
 48
0.0
 49
0.0
140
0.0
141
0.0
142
1.0
143
1.0
 70
   688
 72
     0
 73
     0
 74
     5
  7

 75
    16
147
1.0
148
0.0
149
0.0
100
AcDbLayout
  1
Layout2
 70
     1
 71
     2
 10
0.0
 20
0.0
 11
12.0
 21
9.0
 12
0.0
 22
0.0
 32
0.0
 14
0.0
 24
0.0
 34
0.0
 15
0.0
 25
0.0
 35
0.0
146
0.0
 13
0.0
 23
0.0
 33
0.0
 16
1.0
 26
0.0
 36
0.0
 17
0.0
 27
1.0
 37
0.0
 76
     0
330
D6
  0
LAYOUT
  5
22
102
{ACAD_XDICTIONARY
360
273F
102
}
102
{ACAD_REACTORS
330
1A
102
}
330
1A
100
AcDbPlotSettings
  1

  2
none_device
  4
ISO_A4_(210.00_x_297.00_MM)
  6

 40
7.5
 41
20.0
 42
7.5
 43
20.0
 44
210.0
 45
297.0
 46
11.54999923706054
 47
-13.65000009536743
 48
0.0
 49
0.0
140
0.0
141
0.0
142
1.0
143
8.704084754739808
 70
 11952
 72
     1
 73
     0
 74
     0
  7

 75
     0
147
0.1148885871608098
148
0.0
149
0.0
100
AcDbLayout
  1
Model
 70
     1
 71
     0
 10
0.0
 20
0.0
 11
12.0
 21
9.0
 12
0.0
 22
0.0
 32
0.0
 14
0.0
 24
0.0
 34
0.0
 15
0.0
 25
0.0
 35
0.0
146
0.0
 13
0.0
 23
0.0
 33
0.0
 16
1.0
 26
0.0
 36
0.0
 17
0.0
 27
1.0
 37
0.0
 76
     0
330
1F
331
EA
1001
ACAD_PSEXT
1000
None
1000
None
1000
Not applicable
1000
The layout will not be plotted unless a new plotter configuration name is selected.
1070
     0
  0
MATERIAL
  5
ED
102
{ACAD_XDICTIONARY
360
1F9
102
}
102
{ACAD_REACTORS
330
6A
102
}
330
6A
100
AcDbMaterial
  1
ByBlock
  0
MATERIAL
  5
EC
102
{ACAD_XDICTIONARY
360
1F7
102
}
102
{ACAD_REACTORS
330
6A
102
}
330
6A
100
AcDbMaterial
  1
ByLayer
  0
MATERIAL
  5
EE
102
{ACAD_XDICTIONARY
360
173
102
}
102
{ACAD_REACTORS
330
6A
102
}
330
6A
100
AcDbMaterial
  1
Global
 43
0.0007999999797903
 43
0.0
 43
0.0
 43
0.0
 43
0.0
 43
0.0007999999797903
 43
0.0
 43
0.0
 43
0.0
 43
0.0
 43
1.0
 43
0.0
 43
0.0
 43
0.0
 43
0.0
 43
1.0
 49
0.0007999999797903
 49
0.0
 49
0.0
 49
0.0
 49
0.0
 49
0.0007999999797903
 49
0.0
 49
0.0
 49
0.0
 49
0.0
 49
1.0
 49
0.0
 49
0.0
 49
0.0
 49
0.0
 49
1.0
142
0.0007999999797903
142
0.0
142
0.0
142
0.0
142
0.0
142
0.0007999999797903
142
0.0
142
0.0
142
0.0
142
0.0
142
1.0
142
0.0
142
0.0
142
0.0
142
0.0
142
1.0
144
0.0007999999797903
144
0.0
144
0.0
144
0.0
144
0.0
144
0.0007999999797903
144
0.0
144
0.0
144
0.0
144
0.0
144
1.0
144
0.0
144
0.0
144
0.0
144
0.0
144
1.0
1001
ACAD
1070
    -1
1070
     3
1070
     0
1000

1071
        0
1070
     0
  0
MLEADERSTYLE
  5
12E
102
{ACAD_XDICTIONARY
360
2769
102
}
102
{ACAD_REACTORS
330
12D
102
}
330
12D
100
AcDbMLeaderStyle
170
     2
171
     1
172
     0
 90
        2
 40
0.0
 41
0.0
173
     1
 91
-1056964608
340
14
 92
       -2
290
     1
 42
2.0
291
     1
 43
8.0
  3
Standard
 44
4.0
300

342
11
174
     1
178
     1
175
     1
176
     0
 93
-1056964608
 45
4.0
292
     0
297
     0
 46
4.0
 94
-1056964608
 47
1.0
 49
1.0
140
1.0
293
     1
141
0.0
294
     1
177
     0
142
1.0
295
     0
296
     0
143
3.75
1001
ACAD_MLEADERVER
1070
     2
  0
MLINESTYLE
  5
18
102
{ACAD_REACTORS
330
17
102
}
330
17
100
AcDbMlineStyle
  2
STANDARD
 70
     0
  3

 62
   256
 51
90.0
 52
90.0
 71
     2
 49
0.5
 62
   256
  6
BYLAYER
 49
-0.5
 62
   256
  6
BYLAYER
  0
ACDBPLACEHOLDER
  5
F
102
{ACAD_REACTORS
330
E
102
}
330
E
  0
SCALE
  5
10D
102
{ACAD_REACTORS
330
10C
102
}
330
10C
100
AcDbScale
 70
     0
300
1:1
140
1.0
141
1.0
290
     1
  0
SCALE
  5
1BE
102
{ACAD_REACTORS
330
10C
102
}
330
10C
100
AcDbScale
 70
     0
300
1:2
140
1.0
141
2.0
290
     0
  0
SCALE
  5
1BF
102
{ACAD_REACTORS
330
10C
102
}
330
10C
100
AcDbScale
 70
     0
300
1:4
140
1.0
141
4.0
290
     0
  0
SCALE
  5
1C0
102
{ACAD_REACTORS
330
10C
102
}
330
10C
100
AcDbScale
 70
     0
300
1:5
140
1.0
141
5.0
290
     0
  0
SCALE
  5
1C1
102
{ACAD_REACTORS
330
10C
102
}
330
10C
100
AcDbScale
 70
     0
300
1:8
140
1.0
141
8.0
290
     0
  0
SCALE
  5
1C2
102
{ACAD_REACTORS
330
10C
102
}
330
10C
100
AcDbScale
 70
     0
300
1:10
140
1.0
141
10.0
290
     0
  0
SCALE
  5
1C3
102
{ACAD_REACTORS
330
10C
102
}
330
10C
100
AcDbScale
 70
     0
300
1:16
140
1.0
141
16.0
290
     0
  0
SCALE
  5
1C4
102
{ACAD_REACTORS
330
10C
102
}
330
10C
100
AcDbScale
 70
     0
300
1:20
140
1.0
141
20.0
290
     0
  0
SCALE
  5
1C5
102
{ACAD_REACTORS
330
10C
102
}
330
10C
100
AcDbScale
 70
     0
300
1:30
140
1.0
141
30.0
290
     0
  0
SCALE
  5
1C6
102
{ACAD_REACTORS
330
10C
102
}
330
10C
100
AcDbScale
 70
     0
300
1:40
140
1.0
141
40.0
290
     0
  0
SCALE
  5
1C7
102
{ACAD_REACTORS
330
10C
102
}
330
10C
100
AcDbScale
 70
     0
300
1:50
140
1.0
141
50.0
290
     0
  0
SCALE
  5
1C8
102
{ACAD_REACTORS
330
10C
102
}
330
10C
100
AcDbScale
 70
     0
300
1:100
140
1.0
141
100.0
290
     0
  0
SCALE
  5
1C9
102
{ACAD_REACTORS
330
10C
102
}
330
10C
100
AcDbScale
 70
     0
300
2:1
140
2.0
141
1.0
290
     0
  0
SCALE
  5
1CA
102
{ACAD_REACTORS
330
10C
102
}
330
10C
100
AcDbScale
 70
     0
300
4:1
140
4.0
141
1.0
290
     0
  0
SCALE
  5
1CB
102
{ACAD_REACTORS
330
10C
102
}
330
10C
100
AcDbScale
 70
     0
300
8:1
140
8.0
141
1.0
290
     0
  0
SCALE
  5
1CC
102
{ACAD_REACTORS
330
10C
102
}
330
10C
100
AcDbScale
 70
     0
300
10:1
140
10.0
141
1.0
290
     0
  0
SCALE
  5
1CD
102
{ACAD_REACTORS
330
10C
102
}
330
10C
100
AcDbScale
 70
     0
300
100:1
140
100.0
141
1.0
290
     0
  0
ACDBSECTIONVIEWSTYLE
  5
21A
102
{ACAD_XDICTIONARY
360
277B
102
}
102
{ACAD_REACTORS
330
219
102
}
330
219
100
AcDbModelDocViewStyle
 70
     0
  3
Metric50
290
     0
100
AcDbSectionViewStyle
 70
     0
 71
     0
 90
      102
 71
     1
340
11
 40
5.0
340
0
340
0
 40
5.0
300
I, O, Q, S, X, Z
 40
10.0
 90
        0
 40
2.5
 90
        0
 71
     2
340
16
 90
       25
340
16
 90
       50
 40
5.0
 40
2.5
 40
5.0
 71
     3
340
11
 40
5.0
 90
        0
 40
15.0
 90
        1
300
%<\AcVar ViewSectionStartId>%-%<\AcVar ViewSectionEndId>% (%<\AcVar ViewScale \f "%sn">%)
 71
     4
300
ANSI31
 40
1.0
 90
        0
290
     0
290
     0
 90
        6
 40
0.0
 40
1.570796326794896
 40
0.2617993877991494
 40
1.308996938995747
 40
-0.2617993877991494
 40
1.832595714594046
  0
TABLESTYLE
  5
7F
102
{ACAD_XDICTIONARY
360
162
102
}
102
{ACAD_REACTORS
330
7E
102
}
330
7E
100
AcDbTableStyle
  3
Standard
 70
     0
 71
     0
 40
1.5
 41
1.5
280
     0
281
     0
  7
Standard
140
4.5
170
     2
 62
     0
 63
     7
283
     0
274
    -2
284
     1
 64
     0
275
    -2
285
     1
 65
     0
276
    -2
286
     1
 66
     0
277
    -2
287
     1
 67
     0
278
    -2
288
     1
 68
     0
279
    -2
289
     1
 69
     0
  7
Standard
140
6.0
170
     5
 62
     0
 63
     7
283
     0
274
    -2
284
     1
 64
     0
275
    -2
285
     1
 65
     0
276
    -2
286
     1
 66
     0
277
    -2
287
     1
 67
     0
278
    -2
288
     1
 68
     0
279
    -2
289
     1
 69
     0
  7
Standard
140
4.5
170
     5
 62
     0
 63
     7
283
     0
274
    -2
284
     1
 64
     0
275
    -2
285
     1
 65
     0
276
    -2
286
     1
 66
     0
277
    -2
287
     1
 67
     0
278
    -2
288
     1
 68
     0
279
    -2
289
     1
 69
     0
  0
VISUALSTYLE
  5
F5
102
{ACAD_XDICTIONARY
360
2753
102
}
102
{ACAD_REACTORS
330
EF
102
}
330
EF
100
AcDbVisualStyle
  2
2dWireframe
 70
     4
 71
     0
 72
     2
 73
     1
 90
        0
 40
-0.6
 41
-30.0
 62
     5
 63
     7
 74
     1
 91
        4
 64
     7
 65
   257
 75
     1
175
     1
 42
1.0
 92
        0
 66
   257
 43
1.0
 76
     1
 77
     6
 78
     2
 67
     7
 79
     5
170
     0
171
     0
290
     0
174
     0
 93
        1
 44
0.0
173
     0
291
     0
 45
0.0
1001
ACAD
1000
AcDbSavedByObjectVersion
1070
     0
  0
VISUALSTYLE
  5
F4
102
{ACAD_XDICTIONARY
360
2751
102
}
102
{ACAD_REACTORS
330
EF
102
}
330
EF
100
AcDbVisualStyle
  2
Basic
 70
     7
 71
     1
 72
     0
 73
     1
 90
        0
 40
-0.6
 41
-30.0
 62
     5
 63
     7
 74
     0
 91
        4
 64
     7
 65
   257
 75
     1
175
     1
 42
1.0
 92
        8
 66
     7
 43
1.0
 76
     1
 77
     6
 78
     2
 67
     7
 79
     5
170
     0
171
     0
290
     0
174
     0
 93
        1
 44
0.0
173
     0
291
     1
 45
0.0
1001
ACAD
1000
AcDbSavedByObjectVersion
1070
     0
  0
VISUALSTYLE
  5
FB
102
{ACAD_XDICTIONARY
360
275F
102
}
102
{ACAD_REACTORS
330
EF
102
}
330
EF
100
AcDbVisualStyle
  2
Brighten
 70
    12
 71
     2
 72
     2
 73
     1
 90
        0
 40
-0.6
 41
-30.0
 62
     5
 63
     7
 74
     1
 91
        4
 64
     7
 65
   257
 75
     1
175
     1
 42
1.0
 92
        8
 66
     7
 43
1.0
 76
     1
 77
     6
 78
     2
 67
     7
 79
     5
170
     0
171
     0
290
     0
174
     0
 93
        1
 44
50.0
173
     0
291
     1
 45
0.0
1001
ACAD
1000
AcDbSavedByObjectVersion
1070
     0
  0
VISUALSTYLE
  5
FF
102
{ACAD_XDICTIONARY
360
2767
102
}
102
{ACAD_REACTORS
330
EF
102
}
330
EF
100
AcDbVisualStyle
  2
ColorChange
 70
    16
 71
     2
 72
     2
 73
     3
 90
        0
 40
-0.6
 41
-30.0
 62
     5
 63
     8
 74
     1
 91
        4
 64
     7
 65
   257
 75
     1
175
     1
 42
1.0
 92
        8
 66
     8
 43
1.0
 76
     1
 77
     6
 78
     2
 67
     7
 79
     5
170
     0
171
     0
290
     0
174
     0
 93
        1
 44
0.0
173
     0
291
     1
 45
0.0
1001
ACAD
1000
AcDbSavedByObjectVersion
1070
     0
  0
VISUALSTYLE
  5
F8
102
{ACAD_XDICTIONARY
360
2759
102
}
102
{ACAD_REACTORS
330
EF
102
}
330
EF
100
AcDbVisualStyle
  2
Conceptual
 70
     9
 71
     3
 72
     2
 73
     1
 90
        0
 40
-0.6
 41
-30.0
 62
     5
 63
     7
 74
     2
 91
        2
 64
     7
 65
   257
 75
     1
175
     1
 42
40.0
 92
        8
 66
     7
 43
1.0
 76
     1
 77
     6
 78
     2
 67
     7
 79
     3
170
     0
171
     0
290
     0
174
     0
 93
        1
 44
0.0
173
     0
291
     0
 45
0.0
1001
ACAD
1000
AcDbSavedByObjectVersion
1070
     0
  0
VISUALSTYLE
  5
FA
102
{ACAD_XDICTIONARY
360
275D
102
}
102
{ACAD_REACTORS
330
EF
102
}
330
EF
100
AcDbVisualStyle
  2
Dim
 70
    11
 71
     2
 72
     2
 73
     1
 90
        0
 40
-0.6
 41
-30.0
 62
     5
 63
     7
 74
     1
 91
        4
 64
     7
 65
   257
 75
     1
175
     1
 42
1.0
 92
        8
 66
     7
 43
1.0
 76
     1
 77
     6
 78
     2
 67
     7
 79
     5
170
     0
171
     0
290
     0
174
     0
 93
        1
 44
-50.0
173
     0
291
     1
 45
0.0
1001
ACAD
1000
AcDbSavedByObjectVersion
1070
     0
  0
VISUALSTYLE
  5
1E6
102
{ACAD_XDICTIONARY
360
276F
102
}
102
{ACAD_REACTORS
330
EF
102
}
330
EF
100
AcDbVisualStyle
  2
EdgeColorOff
 70
    22
 71
     2
 72
     2
 73
     0
 90
        0
 40
-0.6
 41
-30.0
 62
     5
 63
     7
 74
     1
 91
        4
 64
     7
 65
   257
 75
     1
175
     1
 42
1.0
 92
        8
 66
     7
 43
1.0
 76
     1
 77
     6
 78
     2
 67
     7
 79
     5
170
     0
171
     0
290
     0
174
     0
 93
        1
 44
0.0
173
     0
291
     1
 45
0.0
1001
ACAD
1000
AcDbSavedByObjectVersion
1070
     0
  0
VISUALSTYLE
  5
FE
102
{ACAD_XDICTIONARY
360
2765
102
}
102
{ACAD_REACTORS
330
EF
102
}
330
EF
100
AcDbVisualStyle
  2
Facepattern
 70
    15
 71
     2
 72
     2
 73
     1
 90
        0
 40
-0.6
 41
-30.0
 62
     5
 63
     7
 74
     1
 91
        4
 64
     7
 65
   257
 75
     1
175
     1
 42
1.0
 92
        8
 66
     7
 43
1.0
 76
     1
 77
     6
 78
     2
 67
     7
 79
     5
170
     0
171
     0
290
     0
174
     0
 93
        1
 44
0.0
173
     0
291
     1
 45
0.0
1001
ACAD
1000
AcDbSavedByObjectVersion
1070
     0
  0
VISUALSTYLE
  5
F0
102
{ACAD_XDICTIONARY
360
2749
102
}
102
{ACAD_REACTORS
330
EF
102
}
330
EF
100
AcDbVisualStyle
  2
Flat
 70
     0
 71
     2
 72
     1
 73
     1
 90
        2
 40
-0.6
 41
30.0
 62
     5
 63
     7
 74
     0
 91
        0
 64
     7
 65
   257
 75
     1
175
     1
 42
1.0
 92
        8
 66
     7
 43
1.0
 76
     1
 77
     6
 78
     2
 67
     7
 79
     5
170
     0
171
     0
290
     0
174
     0
 93
       13
 44
0.0
173
     0
291
     1
 45
0.0
1001
ACAD
1000
AcDbSavedByObjectVersion
1070
     0
  0
VISUALSTYLE
  5
F1
102
{ACAD_XDICTIONARY
360
274B
102
}
102
{ACAD_REACTORS
330
EF
102
}
330
EF
100
AcDbVisualStyle
  2
FlatWithEdges
 70
     1
 71
     2
 72
     1
 73
     1
 90
        2
 40
-0.6
 41
30.0
 62
     5
 63
     7
 74
     1
 91
        0
 64
     7
 65
   257
 75
     1
175
     1
 42
1.0
 92
        0
 66
   257
 43
1.0
 76
     1
 77
     6
 78
     2
 67
     7
 79
     5
170
     0
171
     0
290
     0
174
     0
 93
       13
 44
0.0
173
     0
291
     1
 45
0.0
1001
ACAD
1000
AcDbSavedByObjectVersion
1070
     0
  0
VISUALSTYLE
  5
F2
102
{ACAD_XDICTIONARY
360
274D
102
}
102
{ACAD_REACTORS
330
EF
102
}
330
EF
100
AcDbVisualStyle
  2
Gouraud
 70
     2
 71
     2
 72
     2
 73
     1
 90
        2
 40
-0.6
 41
30.0
 62
     5
 63
     7
 74
     0
 91
        0
 64
     7
 65
   257
 75
     1
175
     1
 42
1.0
 92
        0
 66
     7
 43
1.0
 76
     1
 77
     6
 78
     2
 67
     7
 79
     5
170
     0
171
     0
290
     0
174
     0
 93
       13
 44
0.0
173
     0
291
     1
 45
0.0
1001
ACAD
1000
AcDbSavedByObjectVersion
1070
     0
  0
VISUALSTYLE
  5
F3
102
{ACAD_XDICTIONARY
360
274F
102
}
102
{ACAD_REACTORS
330
EF
102
}
330
EF
100
AcDbVisualStyle
  2
GouraudWithEdges
 70
     3
 71
     2
 72
     2
 73
     1
 90
        2
 40
-0.6
 41
30.0
 62
     5
 63
     7
 74
     1
 91
        0
 64
     7
 65
   257
 75
     1
175
     1
 42
1.0
 92
        0
 66
   257
 43
1.0
 76
     1
 77
     6
 78
     2
 67
     7
 79
     5
170
     0
171
     0
290
     0
174
     0
 93
       13
 44
0.0
173
     0
291
     1
 45
0.0
1001
ACAD
1000
AcDbSavedByObjectVersion
1070
     0
  0
VISUALSTYLE
  5
F7
102
{ACAD_XDICTIONARY
360
2757
102
}
102
{ACAD_REACTORS
330
EF
102
}
330
EF
100
AcDbVisualStyle
  2
Hidden
 70
     6
 71
     1
 72
     2
 73
     2
 90
        0
 40
-0.6
 41
-30.0
 62
     5
 63
     7
 74
     2
 91
        2
 64
     7
 65
   257
 75
     2
175
     1
 42
40.0
 92
        0
 66
   257
 43
1.0
 76
     1
 77
     6
 78
     2
 67
     7
 79
     3
170
     0
171
     0
290
     0
174
     0
 93
        1
 44
0.0
173
     0
291
     0
 45
0.0
1001
ACAD
1000
AcDbSavedByObjectVersion
1070
     0
  0
VISUALSTYLE
  5
1E4
102
{ACAD_XDICTIONARY
360
276B
102
}
102
{ACAD_REACTORS
330
EF
102
}
330
EF
100
AcDbVisualStyle
  2
JitterOff
 70
    20
 71
     2
 72
     2
 73
     0
 90
        0
 40
-0.6
 41
-30.0
 62
     5
 63
     7
 74
     1
 91
        4
 64
     7
 65
   257
 75
     1
175
     1
 42
1.0
 92
       10
 66
     7
 43
1.0
 76
     1
 77
     6
 78
     2
 67
     7
 79
     5
170
     0
171
     0
290
     0
174
     0
 93
        1
 44
0.0
173
     0
291
     1
 45
0.0
1001
ACAD
1000
AcDbSavedByObjectVersion
1070
     0
  0
VISUALSTYLE
  5
FD
102
{ACAD_XDICTIONARY
360
2763
102
}
102
{ACAD_REACTORS
330
EF
102
}
330
EF
100
AcDbVisualStyle
  2
Linepattern
 70
    14
 71
     2
 72
     2
 73
     1
 90
        0
 40
-0.6
 41
-30.0
 62
     5
 63
     7
 74
     1
 91
        4
 64
     7
 65
   257
 75
     7
175
     7
 42
1.0
 92
        8
 66
     7
 43
1.0
 76
     1
 77
     6
 78
     2
 67
     7
 79
     5
170
     0
171
     0
290
     0
174
     0
 93
        1
 44
0.0
173
     0
291
     1
 45
0.0
1001
ACAD
1000
AcDbSavedByObjectVersion
1070
     0
  0
VISUALSTYLE
  5
1E5
102
{ACAD_XDICTIONARY
360
276D
102
}
102
{ACAD_REACTORS
330
EF
102
}
330
EF
100
AcDbVisualStyle
  2
OverhangOff
 70
    21
 71
     2
 72
     2
 73
     0
 90
        0
 40
-0.6
 41
-30.0
 62
     5
 63
     7
 74
     1
 91
        4
 64
     7
 65
   257
 75
     1
175
     1
 42
1.0
 92
        9
 66
     7
 43
1.0
 76
     1
 77
     6
 78
     2
 67
     7
 79
     5
170
     0
171
     0
290
     0
174
     0
 93
        1
 44
0.0
173
     0
291
     1
 45
0.0
1001
ACAD
1000
AcDbSavedByObjectVersion
1070
     0
  0
VISUALSTYLE
  5
F9
102
{ACAD_XDICTIONARY
360
275B
102
}
102
{ACAD_REACTORS
330
EF
102
}
330
EF
100
AcDbVisualStyle
  2
Realistic
 70
     8
 71
     2
 72
     2
 73
     0
 90
        2
 40
-0.6
 41
30.0
 62
     5
 63
     7
 74
     0
 91
        0
 64
     7
 65
   257
 75
     1
175
     1
 42
1.0
 92
        8
 66
   257
 43
1.0
 76
     1
 77
     6
 78
     2
 67
     7
 79
     3
170
     0
171
     0
290
     0
174
     0
 93
       13
 44
0.0
173
     0
291
     0
 45
0.0
1001
ACAD
1000
AcDbSavedByObjectVersion
1070
     0
  0
VISUALSTYLE
  5
1F3
102
{ACAD_XDICTIONARY
360
2779
102
}
102
{ACAD_REACTORS
330
EF
102
}
330
EF
100
AcDbVisualStyle
  2
Shaded
 70
    27
 71
     2
 72
     2
 73
     1
 90
        2
 40
-0.6
 41
30.0
 62
     5
 63
     7
 74
     0
 91
        4
 64
     7
 65
   257
 75
     1
175
     1
 42
1.0
 92
        8
 66
   257
 43
1.0
 76
     1
 77
     6
 78
     2
 67
     8
 79
     3
170
     0
171
     0
290
     0
174
     0
 93
        5
 44
0.0
173
     0
291
     0
 45
0.0
1001
ACAD
1000
AcDbSavedByObjectVersion
1070
     0
  0
VISUALSTYLE
  5
1F2
102
{ACAD_XDICTIONARY
360
2777
102
}
102
{ACAD_REACTORS
330
EF
102
}
330
EF
100
AcDbVisualStyle
  2
Shaded with edges
 70
    26
 71
     2
 72
     2
 73
     1
 90
        2
 40
-0.6
 41
30.0
 62
     5
 63
     7
 74
     1
 91
        2
 64
     7
 65
   257
 75
     2
175
     1
 42
1.0
 92
        8
 66
   257
 43
1.0
 76
     1
 77
     6
 78
     2
 67
     7
 79
     3
170
     0
171
     0
290
     0
174
     0
 93
        5
 44
0.0
173
     0
291
     0
 45
0.0
1001
ACAD
1000
AcDbSavedByObjectVersion
1070
     0
  0
VISUALSTYLE
  5
1EF
102
{ACAD_XDICTIONARY
360
2771
102
}
102
{ACAD_REACTORS
330
EF
102
}
330
EF
100
AcDbVisualStyle
  2
Shades of Gray
 70
    23
 71
     2
 72
     2
 73
     3
 90
        0
 40
-0.6
 41
-30.0
 62
     5
 63
     7
 74
     2
 91
        2
 64
     7
 65
     7
 75
     1
175
     1
 42
40.0
 92
        8
 66
     7
 43
1.0
 76
     1
 77
     6
 78
     2
 67
     7
 79
     3
170
     0
171
     0
290
     0
174
     0
 93
        1
 44
0.0
173
     0
291
     0
 45
0.0
1001
ACAD
1000
AcDbSavedByObjectVersion
1070
     0
  0
VISUALSTYLE
  5
1F0
102
{ACAD_XDICTIONARY
360
2773
102
}
102
{ACAD_REACTORS
330
EF
102
}
330
EF
100
AcDbVisualStyle
  2
Sketchy
 70
    24
 71
     1
 72
     2
 73
     2
 90
        0
 40
-0.6
 41
-30.0
 62
     5
 63
     7
 74
     2
 91
        2
 64
     7
 65
     7
 75
     1
175
     1
 42
40.0
 92
       11
 66
     7
 43
1.0
 76
     1
 77
     6
 78
     2
 67
     7
 79
     6
170
     0
171
     0
290
     0
174
     0
 93
        1
 44
0.0
173
     0
291
     0
 45
0.0
1001
ACAD
1000
AcDbSavedByObjectVersion
1070
     0
  0
VISUALSTYLE
  5
FC
102
{ACAD_XDICTIONARY
360
2761
102
}
102
{ACAD_REACTORS
330
EF
102
}
330
EF
100
AcDbVisualStyle
  2
Thicken
 70
    13
 71
     2
 72
     2
 73
     1
 90
        0
 40
-0.6
 41
-30.0
 62
     5
 63
     7
 74
     1
 91
        4
 64
     7
 65
   257
 75
     1
175
     1
 42
1.0
 92
       12
 66
     7
 43
1.0
 76
     1
 77
     6
 78
     2
 67
     7
 79
     5
170
     0
171
     0
290
     0
174
     0
 93
        1
 44
0.0
173
     0
291
     1
 45
0.0
1001
ACAD
1000
AcDbSavedByObjectVersion
1070
     0
  0
VISUALSTYLE
  5
F6
102
{ACAD_XDICTIONARY
360
2755
102
}
102
{ACAD_REACTORS
330
EF
102
}
330
EF
100
AcDbVisualStyle
  2
Wireframe
 70
     5
 71
     0
 72
     2
 73
     0
 90
        0
 40
-0.6
 41
-30.0
 62
     5
 63
     7
 74
     1
 91
        4
 64
     7
 65
   257
 75
     1
175
     1
 42
1.0
 92
        0
 66
   257
 43
1.0
 76
     1
 77
     6
 78
     2
 67
     7
 79
     3
170
     0
171
     0
290
     0
174
     0
 93
        1
 44
0.0
173
     0
291
     0
 45
0.0
1001
ACAD
1000
AcDbSavedByObjectVersion
1070
     0
  0
VISUALSTYLE
  5
1F1
102
{ACAD_XDICTIONARY
360
2775
102
}
102
{ACAD_REACTORS
330
EF
102
}
330
EF
100
AcDbVisualStyle
  2
X-Ray
 70
    25
 71
     2
 72
     2
 73
     1
 90
        1
 40
0.5
 41
-30.0
 62
     5
 63
     7
 74
     1
 91
        0
 64
     7
 65
   257
 75
     1
175
     1
 42
1.0
 92
        8
 66
     7
 43
1.0
 76
     1
 77
     6
 78
     2
 67
     7
 79
     3
170
     0
171
     0
290
     0
174
     0
 93
       13
 44
0.0
173
     0
291
     0
 45
0.0
1001
ACAD
1000
AcDbSavedByObjectVersion
1070
     0
  0
DICTIONARYVAR
  5
146
102
{ACAD_REACTORS
330
5E
102
}
330
5E
100
DictionaryVariables
280
     0
  1
1:1
  0
DICTIONARYVAR
  5
259
102
{ACAD_REACTORS
330
5E
102
}
330
5E
100
DictionaryVariables
280
     0
  1
3.500000
  0
DICTIONARYVAR
  5
25A
102
{ACAD_REACTORS
330
5E
102
}
330
5E
100
DictionaryVariables
280
     0
  1
acadiso.lin
  0
DICTIONARYVAR
  5
145
102
{ACAD_REACTORS
330
5E
102
}
330
5E
100
DictionaryVariables
280
     0
  1
STANDARD
  0
DICTIONARYVAR
  5
84
102
{ACAD_REACTORS
330
5E
102
}
330
5E
100
DictionaryVariables
280
     0
  1
STANDARD
  0
DICTIONARYVAR
  5
227
102
{ACAD_REACTORS
330
5E
102
}
330
5E
100
DictionaryVariables
280
     0
  1
Metric50
  0
DICTIONARYVAR
  5
228
102
{ACAD_REACTORS
330
5E
102
}
330
5E
100
DictionaryVariables
280
     0
  1
Metric50
  0
DICTIONARYVAR
  5
5F
102
{ACAD_REACTORS
330
5E
102
}
330
5E
100
DictionaryVariables
280
     0
  1
2
  0
DICTIONARYVAR
  5
63
102
{ACAD_REACTORS
330
5E
102
}
330
5E
100
DictionaryVariables
280
     0
  1
1
  0
DICTIONARYVAR
  5
26EA
102
{ACAD_REACTORS
330
5E
102
}
330
5E
100
DictionaryVariables
280
     0
  1
0
  0
DICTIONARYVAR
  5
1AE
102
{ACAD_REACTORS
330
5E
102
}
330
5E
100
DictionaryVariables
280
     0
  1
0
  0
DICTIONARYVAR
  5
1AF
102
{ACAD_REACTORS
330
5E
102
}
330
5E
100
DictionaryVariables
280
     0
  1
0
  0
DICTIONARYVAR
  5
26E8
102
{ACAD_REACTORS
330
5E
102
}
330
5E
100
DictionaryVariables
280
     0
  1
2
  0
DICTIONARYVAR
  5
26E7
102
{ACAD_REACTORS
330
5E
102
}
330
5E
100
DictionaryVariables
280
     0
  1
1
  0
DICTIONARYVAR
  5
273A
102
{ACAD_REACTORS
330
5E
102
}
330
5E
100
DictionaryVariables
280
     0
  1
80.000000
  0
DICTIONARYVAR
  5
2739
102
{ACAD_REACTORS
330
5E
102
}
330
5E
100
DictionaryVariables
280
     0
  1
5.000000
  0
DICTIONARYVAR
  5
26E9
102
{ACAD_REACTORS
330
5E
102
}
330
5E
100
DictionaryVariables
280
     0
  1
127
  0
DICTIONARYVAR
  5
273B
102
{ACAD_REACTORS
330
5E
102
}
330
5E
100
DictionaryVariables
280
     0
  1
2
  0
DICTIONARY
  5
277D
330
21C
100
AcDbDictionary
280
     1
281
     1
  3
ACAD_XREC_ROUNDTRIP
360
277E
  0
DICTIONARY
  5
2742
330
D3
100
AcDbDictionary
280
     1
281
     1
  3
ACAD_XREC_ROUNDTRIP
360
2743
  0
DICTIONARY
  5
2744
330
D7
100
AcDbDictionary
280
     1
281
     1
  3
ACAD_XREC_ROUNDTRIP
360
2745
  0
DICTIONARY
  5
273F
330
22
100
AcDbDictionary
280
     1
281
     1
  3
ACAD_XREC_ROUNDTRIP
360
2740
  0
DICTIONARY
  5
1F9
330
ED
100
AcDbDictionary
280
     1
281
     1
  3
ACAD_XREC_ROUNDTRIP
360
2747
  3
FBXASSET
360
1FA
  0
DICTIONARY
  5
1F7
330
EC
100
AcDbDictionary
280
     1
281
     1
  3
ACAD_XREC_ROUNDTRIP
360
2746
  3
FBXASSET
360
1F8
  0
DICTIONARY
  5
173
330
EE
100
AcDbDictionary
280
     1
281
     1
  3
ACAD_XREC_ROUNDTRIP
360
2748
  3
BUMPTILE
360
175
  3
DIFFUSETILE
360
174
  3
FBXASSET
360
1FB
  3
OPACITYTILE
360
176
  3
REFLECTIONTILE
360
177
  0
DICTIONARY
  5
2769
330
12E
100
AcDbDictionary
280
     1
281
     1
  3
ACAD_XREC_ROUNDTRIP
360
276A
  0
DICTIONARY
  5
277B
330
21A
100
AcDbDictionary
280
     1
281
     1
  3
ACAD_XREC_ROUNDTRIP
360
277C
  0
DICTIONARY
  5
162
330
7F
100
AcDbDictionary
280
     1
281
     1
  3
ACAD_ROUNDTRIP_2008_TABLESTYLE_CELLSTYLEMAP
360
273C
  3
ACAD_XREC_ROUNDTRIP
360
2741
  0
DICTIONARY
  5
2753
330
F5
100
AcDbDictionary
280
     1
281
     1
  3
ACAD_XREC_ROUNDTRIP
360
2754
  0
DICTIONARY
  5
2751
330
F4
100
AcDbDictionary
280
     1
281
     1
  3
ACAD_XREC_ROUNDTRIP
360
2752
  0
DICTIONARY
  5
275F
330
FB
100
AcDbDictionary
280
     1
281
     1
  3
ACAD_XREC_ROUNDTRIP
360
2760
  0
DICTIONARY
  5
2767
330
FF
100
AcDbDictionary
280
     1
281
     1
  3
ACAD_XREC_ROUNDTRIP
360
2768
  0
DICTIONARY
  5
2759
330
F8
100
AcDbDictionary
280
     1
281
     1
  3
ACAD_XREC_ROUNDTRIP
360
275A
  0
DICTIONARY
  5
275D
330
FA
100
AcDbDictionary
280
     1
281
     1
  3
ACAD_XREC_ROUNDTRIP
360
275E
  0
DICTIONARY
  5
276F
330
1E6
100
AcDbDictionary
280
     1
281
     1
  3
ACAD_XREC_ROUNDTRIP
360
2770
  0
DICTIONARY
  5
2765
330
FE
100
AcDbDictionary
280
     1
281
     1
  3
ACAD_XREC_ROUNDTRIP
360
2766
  0
DICTIONARY
  5
2749
330
F0
100
AcDbDictionary
280
     1
281
     1
  3
ACAD_XREC_ROUNDTRIP
360
274A
  0
DICTIONARY
  5
274B
330
F1
100
AcDbDictionary
280
     1
281
     1
  3
ACAD_XREC_ROUNDTRIP
360
274C
  0
DICTIONARY
  5
274D
330
F2
100
AcDbDictionary
280
     1
281
     1
  3
ACAD_XREC_ROUNDTRIP
360
274E
  0
DICTIONARY
  5
274F
330
F3
100
AcDbDictionary
280
     1
281
     1
  3
ACAD_XREC_ROUNDTRIP
360
2750
  0
DICTIONARY
  5
2757
330
F7
100
AcDbDictionary
280
     1
281
     1
  3
ACAD_XREC_ROUNDTRIP
360
2758
  0
DICTIONARY
  5
276B
330
1E4
100
AcDbDictionary
280
     1
281
     1
  3
ACAD_XREC_ROUNDTRIP
360
276C
  0
DICTIONARY
  5
2763
330
FD
100
AcDbDictionary
280
     1
281
     1
  3
ACAD_XREC_ROUNDTRIP
360
2764
  0
DICTIONARY
  5
276D
330
1E5
100
AcDbDictionary
280
     1
281
     1
  3
ACAD_XREC_ROUNDTRIP
360
276E
  0
DICTIONARY
  5
275B
330
F9
100
AcDbDictionary
280
     1
281
     1
  3
ACAD_XREC_ROUNDTRIP
360
275C
  0
DICTIONARY
  5
2779
330
1F3
100
AcDbDictionary
280
     1
281
     1
  3
ACAD_XREC_ROUNDTRIP
360
277A
  0
DICTIONARY
  5
2777
330
1F2
100
AcDbDictionary
280
     1
281
     1
  3
ACAD_XREC_ROUNDTRIP
360
2778
  0
DICTIONARY
  5
2771
330
1EF
100
AcDbDictionary
280
     1
281
     1
  3
ACAD_XREC_ROUNDTRIP
360
2772
  0
DICTIONARY
  5
2773
330
1F0
100
AcDbDictionary
280
     1
281
     1
  3
ACAD_XREC_ROUNDTRIP
360
2774
  0
DICTIONARY
  5
2761
330
FC
100
AcDbDictionary
280
     1
281
     1
  3
ACAD_XREC_ROUNDTRIP
360
2762
  0
DICTIONARY
  5
2755
330
F6
100
AcDbDictionary
280
     1
281
     1
  3
ACAD_XREC_ROUNDTRIP
360
2756
  0
DICTIONARY
  5
2775
330
1F1
100
AcDbDictionary
280
     1
281
     1
  3
ACAD_XREC_ROUNDTRIP
360
2776
  0
XRECORD
  5
277E
102
{ACAD_REACTORS
330
277D
102
}
330
277D
100
AcDbXrecord
280
     1
102
DISPLAYNAME
  1
Metric50
102
FLAGS
 90
        0
  0
XRECORD
  5
2743
102
{ACAD_REACTORS
330
2742
102
}
330
2742
100
AcDbXrecord
280
     1
102
SHADEPLOT
 70
     0
102
SHADEPLOTRESLEVEL
 70
     2
102
SHADEPLOTCUSTOMDPI
 70
   300
  0
XRECORD
  5
2745
102
{ACAD_REACTORS
330
2744
102
}
330
2744
100
AcDbXrecord
280
     1
102
SHADEPLOT
 70
     0
102
SHADEPLOTRESLEVEL
 70
     2
102
SHADEPLOTCUSTOMDPI
 70
   300
  0
XRECORD
  5
2740
102
{ACAD_REACTORS
330
273F
102
}
330
273F
100
AcDbXrecord
280
     1
102
SHADEPLOT
 70
     0
102
SHADEPLOTRESLEVEL
 70
     2
102
SHADEPLOTCUSTOMDPI
 70
   300
  0
XRECORD
  5
2747
102
{ACAD_REACTORS
330
1F9
102
}
330
1F9
100
AcDbXrecord
280
     1
102
MATERIAL
148
0.0
149
0.0
149
0.0
 93
        0
 94
       63
282
     0
 72
     1
 77
     1
171
     1
175
     1
179
     1
273
     0
  0
XRECORD
  5
1FA
102
{ACAD_REACTORS
330
1F9
102
}
330
1F9
100
AcDbXrecord
280
     1
 70
     1
 90
429727718
  1
D62C5603-E3A1-4AEA-B7FB-FE5D8D0755AF
310
504B03040A0000080000CC70623B3DEE336E79000000790000001B0000006175746F6465736B2D64657369676E2D7061636B6167652E786D6C3C3F786D6C2076657273696F6E3D22312E302220656E636F64696E673D227574662D3822203F3E3C666F726D6174733E3C666F726D61743E687474703A2F2F736368656D612E
310
6175746F6465736B2E636F6D2F64657369676E2D7061636B6167652F323030393C2F666F726D61743E3C2F666F726D6174733E504B0304140006080800CC70623BD486FD9CA0000000F4000000130000005B436F6E74656E745F54797065735D2E786D6C7D8EC10E82300C865F65E91D8A1E8C310C0EEA1BF002731658846E
310
D98AC1B77784ABF1D8FE5FBFBF75BBCE937A534CCEB38643598122B6FEE978D0B0485F9C41B54DDD7D022595594E1A469170414C76A4D9A4D207E29CF43ECE46F218070CC6BECC4078ACAA135ACF422C856C0E68EA1BF5669944DDD7BCDE7B1F8E415D77AECB980613C2E4AC91FC167A2B244592486606FC29C8FD7F045B9A
310
EF7053A7E60B504B0304140006080800CC70623B853B8169EB0000007C01000008000000636F72652E786D6C8D90416EC3201045AF62CDB6C206821CC7C244919D9CA01740401C94182C03558F5F9C3852BBEB6A467FFE9B197D7EFC9E1EC5975982F5AE035262288C535E5B377690E21535501C055FBC8FBF6C503839990E
310
5619041F179FE64D52DE45E362569DD7661365082642A11EB9E920A89B99642953CC8E702F67A9EE7234257977194EC9EAE275C4EABCCF5EAD5940D4AC6F0E35A568B8F43562CD7046CD199FD07E60174276A7BE677B5EADB0E0D14EEFFB6A31321A0D82627C4084204C3F096B71DD52F6819B16635EADF63F509AF53FA164
310
5DDCD1EDDD17164090FCC8732078B56691CB33A85CD7DCC40F504B0304140006080800CC70623B55019EA25F0000007C00000007000000636E782E786D6C4DCB3B0E80201045D1AD90E915ED2CF8AC45050C11660C8261F98AB1B07AC9C97D42D718D865D3E909258CFD00CCE24AC6E326A164D74DC0B4128928FF32603847
310
2BA13128B1252AC747C6BAB984FC68F0B87FE8960A5C09FE86CFB69FBA01504B0304140006080800CC70623BDBABAAF470010000D40300000C0000006662782F636F72652E786D6CC553D16E823014FD95A6AF4B694182CC941A83FA05FB810A9511A125A5257EFE2E82712ECEB8A7F100CD39F7F69E734AF9FADC366850B6
310
AF8DCE7018308C942E4C59EB2AC3DE1D498AD15A706B8CFB56869196ADCAF00863C12B6B7C374385D14E6907A836A59A41D9F7CA615434B0C8705F7CAA5606D23BA8E84F41278B93AC54100640439DE0BDB320004D43C63716C7C399D30917DCFBBA9CD9BA8469F5B156168B24CED3F7248AC8769F27244EB73B92EED8862C
310
B7F13E0C179B3C8F979C8ECD82BBBABDAA2BAC924E9558448CBD9330242CFA08E3154B5651FCC6D215639C8EE5774DBE2B5F6CF2B5768B68963BB5F5588420E442FC700B1139D4CB01F450C1E918227C2E09DF070D8140C84E1E9AAB8F1340832A9CB13130A5F1376A908D57309505ECF2A0DF179C4E9D30F5B239B87E3823
310
7A79C6F31DE1A8A5AEC08474B03C7837EAE4938639B44E5932B833D2C6B6B279CDC613877FA26EE21F4A2A4C63EC7F29A2F301D1F9F7A0E37D145F504B0304140006080800CC70623B9C113CC27E0000009D0000000B0000006662782F636E782E786D6C4DCCDF0A83201C86E15B91DFB94BFB330DD428C8FB886521330DA7
310
6397BF1A1DECE883878F57749FCDA1B7892F1BBC047A23808C7F84D9FA55424E0BE6803A256208E9EF06C84F9B91703228B1C690F78B66B34CD9A5439DF5CF0BFBF65E35BCA1B8D6A5C6F540381E886698B5741C695F9503EBA150A2F8958E3DC3EA0B504B0304140006080800CC70623B7DF2F77C2A010000120200003100
310
00006662782F41393633353835312D344632462D344230382D423046372D3739314545314133324237412F636F72652E786D6C8D51DB8EC22014FC15C2939B0D2DB4B45643319AE817EC0F6041255A68B86CFCFC856D4D76DF7CE190393373060EDB3DC707F856CE6B6B7A480A0C81328395DA5C7B18C3057510EC3873D686
310
3F34088C18550F330C39BB3A1BA7051AAC09CA84841A2BD5020AEF55806078A44B0FFD7053A328440C89E1EFC52486BBB8AA8214A99D789CF9E05200300FC927E4FB4D5B375D43103D5527440FB843077C5AA3F5861C8F645F5787F59E95B390B318B55CE45AA638FAA2957BD7248B390B7A7CC51F9C124149C82B8C378810
310
84AB2F42B7B8DD56F413775B8C5999E9FF4471926F8AA236A1AE96B8B3CC434E5839373893369E1FAF30EA395917409EB7F26AF8801C171837A4A6AC9C89E9F9C9B1A58BA30FD6A5EF5DDDCF894B9AD9B6A59C957943A9FCAE2FD5BC4DFE03504B0304140006080800CC70623BAD7543B64E01000033030000300000006662
310
782F41393633353835312D344632462D344230382D423046372D3739314545314133324237412F636E782E786D6CD593CD6EC32010845F0571AD6CE3D48AD20813A9873E410FBD12D82434182C7EAAE6EDBB2424CD25871E7B41D6EC30B3FA84F9E67BB2E40B4234DE8DB46F1925E094D7C6ED479AD3AE5951B2113C789FEE
310
6C943839C1488B4C05DF079FE72A69D8C96C13AAD6B8631503449F83828872B949AC57D26200B826A308D316B4064D6E46FCDA41C05550DC9E483A00797BFD207EFB092A45DE9514C1BBD22178396BD39D891265658C238DEA00936C654E5E433CB65A26D9F6EDB5EBC14EBF49A45CB856E66048291F6939A9A81BB5C89177
310
38143CA680F4AA299D66A042CEB3354A2684DC9D8D178FE0D9B8B41CAAD720F880EE7EF93C0C18769E099ECC04D5A102C8049A8A05632F4DDF376CF1DE0F6BB65C2F8627B65A33C6BB62177CEBBDAD973006829F89F22E814B54F4BC2BE347F8AA8F681390B50FA73F804400B5F542E796F19FF974E7F78DB802FE05E20750
310
4B0304140006080800CC70623BE75B7789680500003C100000340000006662782F41393633353835312D344632462D344230382D423046372D3739314545314133324237412F6F626A656374732E786D6CAD575B8F9B3818FD2B887D06C22499CB8AA1CA655245D5B455A356FB305264C061D8018C6C3393D95FBFC7600890
310
A4CD5EF210B0B1BFEBF98E3F7B1FF6596ABC522E1296DF9BAE3D320D9A872C4AF2F8DE2CE5CEBA358D0FBEC719939D65A691938CDE9B6ADAF4BD98B3B2D05311DD91329583D9D5FC0F438434A7A611A644887B5384CF34233629258BA878B12322891DEFF6B66BD70BFB62634E8AE781D082709A4B588AF91C528CDA28B73F
310
1C998EEF39EABBEFA97FBD6A7C7E9553F9D3D79FE442923C3C523610337627CB87ABE99D359D4CC6D6E4FACAB5E6ABF9D2726FC6A3C5F56271377BB88362213924694B38DD99FE47C48627A1E7D49F5A8BB5E1A74C0A599ED3B0F21F1E56366B89112D681E218F0915D0D6F17AD41FBA2A369DCF6335D62ABBD39779D5DDD1
310
11D4D8DE3CBB96B2E04FB8202E41051754A1AA8E8F76B4C6DFE810B580B1547F4B84911149794252234D024EF8BBE963A95AE27B3D310A9D5C215C7960FAEE415ED75694C6AFB17BCACA5D99A60A9AA65F217B0BFC53292ACB92BF283FAD0D3621576592CB5BED907C2FA8E9DF794E35E97BEA31BED21FEB401ABB94C44839
310
DCACBF0E1C5DA8DA5B2F4DFFD32AD86F543D9E565E7056502E157C00AD2671CD534549AB752FCA9CDA00677A313F04E51B22FF19E57B300579E3C97EB29F682D92935CEC18CF901B7B54FD8C51F362B56FC72FE0B3C1EAE335EDCCBF5AEC39ADB17DC238973F804BA5E6F6BFE7AF1FB32E523BE9F3BD571418E3631DCA4D48
310
5250CF639223210A9446CA30052EDF057BD35F8329C1ECD84552BF0DC8D18BE7BCE23BFE6BD960AB4A7DE79923A103BEBD80F911CBAA2C60DB19B01CF164A5583B772EE6D3FFA56666CBCDA74DC97724A48F9A58967497E489C4D979006FD7A05E227A1EBDD0F737C623387A9C844D3709995625106D157315F8B8392CD4E0
310
A0B9A720C4BE9829CEF37EA1E13111214D53925356365ADA634861B52519DD27A00AEB808EAF0628E6F435519D446F45CF2C9CF5214F0A15B2F6D06B79DA3EE3CBF7F56780D2F4E7EF73A0F5E5B02A38D07DC852C6B7C1FBB6664213E0C39E3EBA7FF4E1AD23EA2829407C85E586727488B751B2DB9502BC7B228A3FD68B6E
310
A65A22397E690AA8D158D7E404EC8CDA235CC3B7D1898680131CEC2CDF2638C65196279577750F15884AEE19F94199155B92B13297978469D4F8D358DF0AEF7631E28DC8F0D9F437D5D39A83B2231A1D52D543813A824EF8D44BCFF2FA6A31BD1E8DAD87F1CCB526B3879935BF59CDADD5C37479BB1CDD4CA7B3556B516589
310
EF352754B706114D9C885EC9131DE6EFEB43D99AFE2391C2F958179413D7CFEF6B1B6DB1E7600F00DE6E5C67454A339A4BA2E0FBA85ED26F045D454F463DBFCE484C2F90F2E5E3666003662ED8F755951A7D1BECD5B30B550B2785C8E7320B7292A4838DDA71BBC863ED7613CAF659337A3354231D4FF4A182A54904C2898C
310
98B28C4AD0CE056CCF332A80986E571EE9DBC305BB5FEB7E509220A58D25CF042D712A806AC0AD0C657FDEF80D2D9CEAA2EE4D1C76F60BFE74219A06527D6F82DF6412526107381E55E353090704D085B52408A8913C4ED159D79BDA71BB4BC506F4831350EB6F975CD22D69BF7AC49B91A2C0A9DDA3D5CA36AD20FC478E37
310
E61844E2352865EBCB61A275A65283CAAA9DD27703B4102F5AF51EF5F573B75CBB5AD38BC845F7A49F82A0966A49C2E3EA5EA0ECD326CD965F1DB402C6FA8B51A4658C5C5E2EC9E214602E55810345408596591009A82E7E7FFACA19EEA299B14A0081A705CB3296EBC14CDF658DCD336EA6D1136881AAEB87B81AB9EE53D5
310
F5EB8BC8362082DA24122F98680A4E7930C01A0079749CEA14382A0783E5EBA5A10F8C098456A03D6A4AEB6BB881E2513747552A5DB22C7EDAF83BD5528081A365F7FF06504B0304140006080000CC70623B000000000000000000000000350000006662782F41393633353835312D344632462D344230382D423046372D37
310
39314545314133324237412F76657274696365732E62696E504B0304140006080800CC70623BF270F1330600000004000000360000006662782F41393633353835312D344632462D344230382D423046372D3739314545314133324237412F747269616E676C65732E62696E636660600000504B0304140006080000CC7062
310
3B000000000000000000000000370000006662782F41393633353835312D344632462D344230382D423046372D3739314545314133324237412F617474726962757465732E62696E504B0304140006080800CC70623B08DA0BD19000000041010000360000006662782F41393633353835312D344632462D344230382D4230
310
46372D3739314545314133324237412F6469726563746F72792E786D6C858F410AC3201045AF22B36F53E9A60B35CBEEBAE80D244E44489C6234F4F835464A48035D0DF398FF9F8AF63D0E6CC63039F212F8F9020C7D47C6792B21C5FE7403D62A1188E2E60C98D7234A5830286103A55745067B9D86B8A3CF9C7F90C11DE6
310
07FB144396D7B6A82D282E9A152AD114D5EF2CB866EEE831B8EEA07A7BB5A8D7D61A2BAAEB7FD5F70921FF497D00504B0304140006080800CC70623BEDD1DC58FD000000A00100003B0000006662782F41393633353835312D344632462D344230382D423046372D3739314545314133324237412F7265736F75726365732F
310
636F72652E786D6C8D504B6E833010BD0A9A6D65B00922041947112427E8052C33A156828DFCA97AFC9A40A576D7CDCCE87D344F8F9FBFE667F689CE6B6B3A6039850C8DB2A336530731DC4903D95970676DF82583CCC8193B5861107C72362E3BA4AC096842428D1D7107A5F7182053CF7474E0D507CE32973124857FE48B
310
540F3961CEF244279DE03EB81420DB9EAC1384436FA353E879B1B182C7A8C75DA3C7F453DF353A1075D537A7BA6464B8F535A99AE14A9A2BBD90E350DD183B5CFABE3AF262350B1EF4FC9351399401471025A527C218A1E53BAB5A5AB765F5469B96525EACF23FA6B88CFF34456DC2A1DCE36E360F82A5202F42F062ED2BAD
310
579969AFDD8A6F504B010214000A0000080000CC70623B3DEE336E79000000790000001B00000000000000000000000000000000006175746F6465736B2D64657369676E2D7061636B6167652E786D6C504B01021400140006080800CC70623BD486FD9CA0000000F40000001300000000000000000000000000B20000005B
310
436F6E74656E745F54797065735D2E786D6C504B01021400140006080800CC70623B853B8169EB0000007C010000080000000000000000000000000083010000636F72652E786D6C504B01021400140006080800CC70623B55019EA25F0000007C000000070000000000000000000000000094020000636E782E786D6C504B
310
01021400140006080800CC70623BDBABAAF470010000D40300000C00000000000000000000000000180300006662782F636F72652E786D6C504B01021400140006080800CC70623B9C113CC27E0000009D0000000B00000000000000000000000000B20400006662782F636E782E786D6C504B01021400140006080800CC70
310
623B7DF2F77C2A010000120200003100000000000000000000000000590500006662782F41393633353835312D344632462D344230382D423046372D3739314545314133324237412F636F72652E786D6C504B01021400140006080800CC70623BAD7543B64E010000330300003000000000000000000000000000D2060000
310
6662782F41393633353835312D344632462D344230382D423046372D3739314545314133324237412F636E782E786D6C504B01021400140006080800CC70623BE75B7789680500003C10000034000000000000000000000000006E0800006662782F41393633353835312D344632462D344230382D423046372D3739314545
310
314133324237412F6F626A656374732E786D6C504B01021400140006080000CC70623B0000000000000000000000003500000000000000000000000000280E00006662782F41393633353835312D344632462D344230382D423046372D3739314545314133324237412F76657274696365732E62696E504B01021400140006
310
080800CC70623BF270F133060000000400000036000000000000000000000000007B0E00006662782F41393633353835312D344632462D344230382D423046372D3739314545314133324237412F747269616E676C65732E62696E504B01021400140006080000CC70623B0000000000000000000000003700000000000000
310
000000000000D50E00006662782F41393633353835312D344632462D344230382D423046372D3739314545314133324237412F617474726962757465732E62696E504B01021400140006080800CC70623B08DA0BD1900000004101000036000000000000000000000000002A0F00006662782F41393633353835312D344632
310
462D344230382D423046372D3739314545314133324237412F6469726563746F72792E786D6C504B01021400140006080800CC70623BEDD1DC58FD000000A00100003B000000000000000000000000000E1000006662782F41393633353835312D344632462D344230382D423046372D3739314545314133324237412F7265
310
736F75726365732F636F72652E786D6C504B0506000000000E000E0080040000641100000000
  0
XRECORD
  5
2746
102
{ACAD_REACTORS
330
1F7
102
}
330
1F7
100
AcDbXrecord
280
     1
102
MATERIAL
148
0.0
149
0.0
149
0.0
 93
        0
 94
       63
282
     0
 72
     1
 77
     1
171
     1
175
     1
179
     1
273
     0
  0
XRECORD
  5
1F8
102
{ACAD_REACTORS
330
1F7
102
}
330
1F7
100
AcDbXrecord
280
     1
 70
     1
 90
429727718
  1
30362254-06B7-45E0-A893-8CFA70E3D6BC
310
504B03040A0000080000CC70623B3DEE336E79000000790000001B0000006175746F6465736B2D64657369676E2D7061636B6167652E786D6C3C3F786D6C2076657273696F6E3D22312E302220656E636F64696E673D227574662D3822203F3E3C666F726D6174733E3C666F726D61743E687474703A2F2F736368656D612E
310
6175746F6465736B2E636F6D2F64657369676E2D7061636B6167652F323030393C2F666F726D61743E3C2F666F726D6174733E504B0304140006080800CC70623BD486FD9CA0000000F4000000130000005B436F6E74656E745F54797065735D2E786D6C7D8EC10E82300C865F65E91D8A1E8C310C0EEA1BF002731658846E
310
D98AC1B77784ABF1D8FE5FBFBF75BBCE937A534CCEB38643598122B6FEE978D0B0485F9C41B54DDD7D022595594E1A469170414C76A4D9A4D207E29CF43ECE46F218070CC6BECC4078ACAA135ACF422C856C0E68EA1BF5669944DDD7BCDE7B1F8E415D77AECB980613C2E4AC91FC167A2B244592486606FC29C8FD7F045B9A
310
EF7053A7E60B504B0304140006080800CC70623B1EC5D7A3EB0000007C01000008000000636F72652E786D6C8D90416EC3201045AF82665B6103C6756C6122AB4D4ED00B204C5C94182C03558F5F9C3852BBEB6A467FFE9B197D71FC9E6FE8CBACC17AD7032D0820E3B41FAD9B7A48F1820F808E52ACDEC75F36404ECDA687
310
4D0629A6D5A76597B477D1B89855E747B38B2A041301E95B6E7A08FAD3CCAA50296647B8168BD2573599823EBB0CA76447F43862C7BCCF5EAC59410E4DDD9C7973C2755553CCCFA4C603E3040F1565ED3B1FDE4E432BCA0D9622DAF9795FAF464533826484B498524CD807E51D79ED187F21878E10516EF63F505AC67F42C9
310
BA58B1FDDD071640D2FCC87D2045B96591CB3DA85CB7DCE40F504B0304140006080800CC70623B55019EA25F0000007C00000007000000636E782E786D6C4DCB3B0E80201045D1AD90E915ED2CF8AC45050C11660C8261F98AB1B07AC9C97D42D718D865D3E909258CFD00CCE24AC6E326A164D74DC0B4128928FF32603847
310
2BA13128B1252AC747C6BAB984FC68F0B87FE8960A5C09FE86CFB69FBA01504B0304140006080800CC70623B8C9102E971010000D40300000C0000006662782F636F72652E786D6CC5535B6E833010BC8AE5DF0A6C08340F1947A84D4ED00B38C6A128602363A31CBFCB234A53A551FA553EC09AD9F5CE8C31DB9E9B1AF5CA
310
7695D1198E428A91D2D214952E33ECDD315861B4E5CC1AE3BE9561A445A3323CC098B3D21ADFCE9034DA29ED00D5A6503328BA4E398C640D8B0C77F253352214DE4145770A5B214FA2546114020D759C75CE8200340D19DE981F0F6746269C33EFAB6266AB02A655C74A59CCF365BADC27CB5D902ED22848F6340DF238A141
310
BE88E2F57B92BFEDF23523433367AE6A2EEAA455C2A902F398D2751045018D3FA264435F3771F242571B4A1919CA6F9A7C5B3CD9E42BED16F12C776AEB308F40C848FC700B1139D4891EF410CEC810227CC6846F8386402064270EF5C5C709A05E49676C024C61FC95EA45ED154CA5211D1FF4FB8291A913A68E9B83EBBB33
310
E2A7673CDE118E5AE8124C0807CB8377834E366998436B950D7A7746DAD846D4CFD978E0F04FD455FC5D49D2D4C6FE9722321F10997F0F32DC47FE05504B0304140006080800CC70623BFFEA85907E0000009D0000000B0000006662782F636E782E786D6C4DCCD10A83201886E15B91FFDC95D95A811AB6F23E625948A6C3
310
E9D8E5AF46073BFAE0E1E365ED67B3E8ADC3CB78C7815C7240DA3DFC64DCC221C519D7805AC182F7F1EF06C88D9BE6703008B6049F9E274D7A1E938DBB5AE3D6131B2589BA0D3D965551E0B2EA732C9B9A624AAEB41E3A557677029960D9AFB4EF11165F504B0304140006080800CC70623B4FEEA4082C0100001202000031
310
0000006662782F39464131463745442D413632322D343644302D413938332D3331353338454246344243312F636F72652E786D6C8D515B6EC32010BC0AE2AB55850DD871ED0813254D72825EC00192A2C460F1A872FC42ED48ED5F7E00CDCECCCEB26C731F6FE05B39AFADE921293004CA082BB5B9F43086336A21D870E6AC
310
0D7F68109861543DCC30E4ECE26C9C164858139409093556AA051CBC570102714B8F1E7AF1A5C6A11862480C7F2DA6415C878B2A4891CA89C7990F2E050073937C42DE1DB7E4F87ED8A36D4329AA9B3D46DBAEAD504556557BD81DEBDD0761E52CE42C462D17B996298E3E6BE59E35C962CE821E1FF18553435012728A7187
310
0841987E927A8D9B35ADDF70BBC6989599FE4F1427F9A4286A132ABAC49D651EF234CD5CE04CDA78BA3DC2A8FB645D00B9DF8B57E215725C60BCA2A463E54C4CE327C7A65E1C7DB02E7DEFCBF594B864C5CA6CDBD49C957943E9FA5D5FBAF336F90F504B0304140006080800CC70623BAD7543B64E01000033030000300000
310
006662782F39464131463745442D413632322D343644302D413938332D3331353338454246344243312F636E782E786D6CD593CD6EC32010845F0571AD6CE3D48AD20813A9873E410FBD12D82434182C7EAAE6EDBB2424CD25871E7B41D6EC30B3FA84F9E67BB2E40B4234DE8DB46F1925E094D7C6ED479AD3AE5951B2113C
310
789FEE6C943839C1488B4C05DF079FE72A69D8C96C13AAD6B8631503449F83828872B949AC57D26200B826A308D316B4064D6E46FCDA41C05550DC9E483A00797BFD207EFB092A45DE9514C1BBD22178396BD39D891265658C238DEA00936C654E5E433CB65A26D9F6EDB5EBC14EBF49A45CB856E66048291F6939A9A81BB5
310
C8917738143CA680F4AA299D66A042CEB3354A2684DC9D8D178FE0D9B8B41CAAD720F880EE7EF93C0C18769E099ECC04D5A102C8049A8A05632F4DDF376CF1DE0F6BB65C2F8627B65A33C6BB62177CEBBDAD973006829F89F22E814B54F4BC2BE347F8AA8F681390B50FA73F804400B5F542E796F19FF974E7F78DB802FE05
310
E207504B0304140006080800CC70623B16AB87BA640500003C100000340000006662782F39464131463745442D413632322D343644302D413938332D3331353338454246344243312F6F626A656374732E786D6CAD575B6FA33818FD2B887DE6924B3BED8A326A92B68A663B534DD4D13E548A0C38942D60649B369D5FBFC7
310
600890A493BDE42160637FD7F31D7FF63E6FB3D478A55C242CBF3247B66B1A340F5994E4F19559CA8D75611A9F7D8F33263BCB4C232719BD32D5B4E97B316765A1A722BA21652A07B3B7B33F0D11D29C9A46981221AE4C113ED38CD8A4942CA2E2C58E882476BCD9DA23BB5ED8171B73523C0F841684D35CC252CCE79062D4
310
468DFA43D7747CCF51DF7D4FFDEB5593E3AB9CCA9FBEFE241792E4E19EB28198C968BAB8199F5D5A67D3E9C49A9E8F47D6EC76B6B0469F26EEFC7C3EBFBCBEB98462213924694B38DD98FE1D62C393D073EA4FADC5DAF04326852CCF6958F90F0F2B9BB5C48816348F90C7840A68EB78EDF68723159BCEE7891A6B95DDE9D3
310
BCEAEEE8086A6C6F9E5D4B59F0175C10A7A0820BAA5055C7473B5AE3CFDD452D602CD5DF12616444529E90D448938013FE6EFA58AA96F85E4F8C42275708571E98FE6827AF6B2B4AE3D7D83D64E5A64C53054DD3AF90BD06FEA9149565C94FCA0F6B834DC85599E4F2423B24DF0B6AFA979E534DFA9E7A4CC6FA631D486393
310
921829879BF5D781A373557BCB85E97FB90DB62B558F8795179C15944B051F40AB495CF35451D26A4727654E6D8033BD98EF82F21D91FF8AF2DD9982BCF1643BDD4EB516C9492E368C67C88DED563FC36D5EACF66DFF057C3658BDBFA69DF9578B3DA735B64F18C7F20770A9D45CFCF7FCF563D6456A277DBEF78A02637CA2
310
43B90A490AEAB94F72244481D24819A6C0E59B606BFA4B3025981DBB48EAB701D97BF19C577CC77F2D1B6C55A9EF3C732474C0B727303F625995056C3B02963D9EAC146BE78EC5FCEC7FA999EBC5EACBAAE41B12D27B4D2C0BBA49F244E2ECDC81B76B502F113D8F5EE8FB1BE3111CDD4FC2AA9B844CAB1288B68AB90A7CDC
310
1C166AB0D3DC5310625FCC14E779BFD0709F8890A629C9292B1B2DED31A4B0DA928CEE135085754027E3018A397D4D5427D15BD1330B677DC8934285AC3DF45A9EB68FF8F2B8FC0A509AFEECFD0FF2DE25CC6047F7214B195F07EFEB9A094D800F7BFAE8FED187B78EA8A3A400F115961BCAD1215E47C966530AF0EE8128FE
310
58CEBB996A8964FFA529A046635D9353B0336A8F700DDF46271A024E70B0B37C9DE01847591E54DED53D54202AB947E4076556AC49C6CA5C9E1226B7F1A7B1BE15DEED62C41B91E1B3E9AFAAA735036547343A925075041DF0A9979E893B391F8FCFA6967B3EFB644DCF6E5CEBFAE272625DCC6FAF3FB93793C5F90CE1EF57
310
407342756B10D1C489E8953CD1617E5CEECAD6F4EF8914CE5D5D504E5C3F1F9736DA62CFC11E00BCDDB8CC8A9466349744C1F75EBDA4DF09BA8A9E8C7A7E9991989E20E5DBDD6A6003664ED8F7A04A8DBE0DF6EAD9B9AA858342E47399053949D2C146EDB85DE4B176BB0965FBAC19BD19AA918E27FA50C1D22402E144464C
310
59462568E704B6E71915404CB72B8FF4EDE184DDAF753F284990D2C6926782963815403548A70C657FDEF80D2D9CEAA2AE4C1C76F60BFE74219A06527D6582DF6412526107381E55E353090704D085B52408D0933C4ED159D79BDA71BB4BC506F4831350EB6F979CD22D69BF7AC49B91A2C0A9DDA3D5CA36AD20FC478E37E6
310
1844E2352865EBCB6EA275A652E3836BE04EFB400BF1A2556F515F1FBB35B2AB35BD889C744FFA1004B5544B121E57F70215746DD2F5E2C1412B602CBF19455AC6C8E5E9922C4E01E65215385004546899059180EAFCF7A707CE7017CD8CDB0410789AB32C63B91E5CEBBBACB17AC6CD347A022D5075FD106377347AAABA7E
310
7D11590744509B44E205134DC1290F06580320F78E537D3D73540E06CB970B431F185308AD40BBD794D6D77003C5A36E8EAA54BA64597CD8F83BD552A080A365F7FF06504B0304140006080000CC70623B000000000000000000000000350000006662782F39464131463745442D413632322D343644302D413938332D3331
310
353338454246344243312F76657274696365732E62696E504B0304140006080800CC70623BF270F1330600000004000000360000006662782F39464131463745442D413632322D343644302D413938332D3331353338454246344243312F747269616E676C65732E62696E636660600000504B0304140006080000CC70623B
310
000000000000000000000000370000006662782F39464131463745442D413632322D343644302D413938332D3331353338454246344243312F617474726962757465732E62696E504B0304140006080800CC70623B08DA0BD19000000041010000360000006662782F39464131463745442D413632322D343644302D413938
310
332D3331353338454246344243312F6469726563746F72792E786D6C858F410AC3201045AF22B36F53E9A60B35CBEEBAE80D244E44489C6234F4F835464A48035D0DF398FF9F8AF63D0E6CC63039F212F8F9020C7D47C6792B21C5FE7403D62A1188E2E60C98D7234A5830286103A55745067B9D86B8A3CF9C7F90C11DE607
310
FB144396D7B6A82D282E9A152AD114D5EF2CB866EEE831B8EEA07A7BB5A8D7D61A2BAAEB7FD5F70921FF497D00504B0304140006080800CC70623B0D6EF93BFE000000A00100003B0000006662782F39464131463745442D413632322D343644302D413938332D3331353338454246344243312F7265736F75726365732F63
310
6F72652E786D6C8D50596E833010BD0A9ADFCA60B334011947A8694ED00B586642AC041B79A97AFC9A40A5F6AF3F33A3B7689E1E3F7DCD8FEC139DD7D6F4C0720A191A65476DA61E62B892236427C19DB5E1970C322367EC618541F0C9D9B8EC90B226A009093576C41D94DE63804C3DD2D18357379C652E63480A7FCF17A9
310
EE72C29CE5894E3AC17D702940B63D59270887DE46A7D0F36263058F518FBB468FE9A7BE6A7420864373B8D4873369AA8691FA421B3294352543C5CAF65C0F6FEF43CB8BD52C78D0F34F46E550061C419494B6843142CB0F5677F4B52BEB177AEC28E5C52AFF638ACBF84F53D42654E51E77B379102C05791282176B5F693D
310
CB4C7BED567C03504B010214000A0000080000CC70623B3DEE336E79000000790000001B00000000000000000000000000000000006175746F6465736B2D64657369676E2D7061636B6167652E786D6C504B01021400140006080800CC70623BD486FD9CA0000000F40000001300000000000000000000000000B20000005B
310
436F6E74656E745F54797065735D2E786D6C504B01021400140006080800CC70623B1EC5D7A3EB0000007C010000080000000000000000000000000083010000636F72652E786D6C504B01021400140006080800CC70623B55019EA25F0000007C000000070000000000000000000000000094020000636E782E786D6C504B
310
01021400140006080800CC70623B8C9102E971010000D40300000C00000000000000000000000000180300006662782F636F72652E786D6C504B01021400140006080800CC70623BFFEA85907E0000009D0000000B00000000000000000000000000B30400006662782F636E782E786D6C504B01021400140006080800CC70
310
623B4FEEA4082C0100001202000031000000000000000000000000005A0500006662782F39464131463745442D413632322D343644302D413938332D3331353338454246344243312F636F72652E786D6C504B01021400140006080800CC70623BAD7543B64E010000330300003000000000000000000000000000D5060000
310
6662782F39464131463745442D413632322D343644302D413938332D3331353338454246344243312F636E782E786D6C504B01021400140006080800CC70623B16AB87BA640500003C1000003400000000000000000000000000710800006662782F39464131463745442D413632322D343644302D413938332D3331353338
310
454246344243312F6F626A656374732E786D6C504B01021400140006080000CC70623B0000000000000000000000003500000000000000000000000000270E00006662782F39464131463745442D413632322D343644302D413938332D3331353338454246344243312F76657274696365732E62696E504B01021400140006
310
080800CC70623BF270F133060000000400000036000000000000000000000000007A0E00006662782F39464131463745442D413632322D343644302D413938332D3331353338454246344243312F747269616E676C65732E62696E504B01021400140006080000CC70623B0000000000000000000000003700000000000000
310
000000000000D40E00006662782F39464131463745442D413632322D343644302D413938332D3331353338454246344243312F617474726962757465732E62696E504B01021400140006080800CC70623B08DA0BD190000000410100003600000000000000000000000000290F00006662782F39464131463745442D413632
310
322D343644302D413938332D3331353338454246344243312F6469726563746F72792E786D6C504B01021400140006080800CC70623B0D6EF93BFE000000A00100003B000000000000000000000000000D1000006662782F39464131463745442D413632322D343644302D413938332D3331353338454246344243312F7265
310
736F75726365732F636F72652E786D6C504B0506000000000E000E0080040000641100000000
  0
XRECORD
  5
2748
102
{ACAD_REACTORS
330
173
102
}
330
173
100
AcDbXrecord
280
     1
102
MATERIAL
148
0.0
149
0.0
149
0.0
 93
        0
 94
       63
282
     0
 72
     1
 77
     1
171
     1
175
     1
179
     1
273
     0
  0
XRECORD
  5
175
102
{ACAD_REACTORS
330
173
102
}
330
173
100
AcDbXrecord
280
     1
270
     1
271
     1
  0
XRECORD
  5
174
102
{ACAD_REACTORS
330
173
102
}
330
173
100
AcDbXrecord
280
     1
270
     1
271
     1
  0
XRECORD
  5
1FB
102
{ACAD_REACTORS
330
173
102
}
330
173
100
AcDbXrecord
280
     1
 70
     0
 90
1673772943
  1
ECE7A1D2-D628-4531-984C-D00F80459256
310
504B03040A0000080000CC70623B3DEE336E79000000790000001B0000006175746F6465736B2D64657369676E2D7061636B6167652E786D6C3C3F786D6C2076657273696F6E3D22312E302220656E636F64696E673D227574662D3822203F3E3C666F726D6174733E3C666F726D61743E687474703A2F2F736368656D612E
310
6175746F6465736B2E636F6D2F64657369676E2D7061636B6167652F323030393C2F666F726D61743E3C2F666F726D6174733E504B0304140006080800CC70623BD486FD9CA0000000F4000000130000005B436F6E74656E745F54797065735D2E786D6C7D8EC10E82300C865F65E91D8A1E8C310C0EEA1BF002731658846E
310
D98AC1B77784ABF1D8FE5FBFBF75BBCE937A534CCEB38643598122B6FEE978D0B0485F9C41B54DDD7D022595594E1A469170414C76A4D9A4D207E29CF43ECE46F218070CC6BECC4078ACAA135ACF422C856C0E68EA1BF5669944DDD7BCDE7B1F8E415D77AECB980613C2E4AC91FC167A2B244592486606FC29C8FD7F045B9A
310
EF7053A7E60B504B0304140006080800CC70623BD9DDAED0EC0000007C01000008000000636F72652E786D6C8D90416EC3201045AF82665B61836D9CD8C2444DD39CA01740405C94182C03558F5F9C3852BBEB6A467FFE9B197D7EF89E6EE8CB2CC17A37002D0820E394D7D68D03A478C17B4007C117EFE32F1B20272733C0
310
2A83E0E3E2D3BC49CABB685CCCAAF3DA6CA20CC14440EA969B0182FA34932C648AD911AEC52CD5558EA6A0CF2EC329598D1E47ACCEFBECC59A050463A7EA5833865FEBDD0E37353BE3EE8DBDE3F6786A48D375FBF6CC78B9C282473B3DEFABC5C86834888A900E538A49F5419B9EB47DD5BC907D4F082F57FB1F28CDFA9F50
310
B22ED6D5F6EE030B20687EE43E10BC5CB3C8E51E54AE6B6EE207504B0304140006080800CC70623B55019EA25F0000007C00000007000000636E782E786D6C4DCB3B0E80201045D1AD90E915ED2CF8AC45050C11660C8261F98AB1B07AC9C97D42D718D865D3E909258CFD00CCE24AC6E326A164D74DC0B4128928FF326038
310
472BA13128B1252AC747C6BAB984FC68F0B87FE8960A5C09FE86CFB69FBA01504B0304140006080800CC70623BA24EB22D72010000D40300000C0000006662782F636F72652E786D6CC5535B6E833010BC8AE5DF0A6C5E49888CA3A6694ED00B38E05014B091B1518EDFE511A5A9D228FD2A1F60CDEC7A67C6986DCE4D8D7A
310
69BA4AAB0C073EC548AA5C17952A33ECECD15B61B4E1CC686DBF9561A44423333CC098B3D268D7CE50AE9595CA02AA74216750749DB418E5352C32DCE59FB211BE70162ABA93DF8AFC244AE9073ED050C759670D0840D390E18DF9F1706664C23973AE2A66B62A605A75ACA4C13C4976E1364A12EF355A2EBD384AF65EFA96
310
BC7B8BED2EA6719AAE16FB8491A199335B351775B991C2CA02F390D2D40B028F861F41BCA68B7518BFD0D59A524686F29B26D7164F36B94AD9289CE54E6D1DE6010819891F6E21228B3AD1831EC219194284CF98F06DD01008846CC5A1BEF83801D4CBDC6A1303536877A57A513B0953A94FC707FDBE6064EA84A9E3E6E0FA
310
EE8CF0E9198F7784A316AA0413C2C2F2E0ECA0934D1AE6D05A69BCDE9E91D2A611F573361E38FC1375157F5752AE6B6DFE4B11990F88CCBF0719EE23FF02504B0304140006080800CC70623B408A7D3B7C0000009D0000000B0000006662782F636E782E786D6C4DCCD10A83201886E15B91FFDC552A92A0064DBC8F581632
310
D3703A76F9ABD1C18E3E78F878E5F0D9027ABBFCF2292AE86E2D20171F69F6715550CB827B40839639A5F2770314A7CD293819B45C73AAFB45B35BA61ACAA1C1C7E7855C58C15BC331339661262CC762340413D68D77DA5B42298546CBE6573AF60CEB2F504B0304140006080800CC70623B449FB9BD290100001202000031
310
0000006662782F36394639363044362D344446342D343946362D394244322D3234314243333846323333332F636F72652E786D6C8D515B6EC32010BC0AE22B55850D98B871848994463E412FE002495162B07854397EA176A4F62F3F2C9A9D991D587EB84F37F0AD7D30CEF6905418026DA553C65E7A98E219ED203808EE9D
310
8B7F6810D871D23D2C3014FCE25D9A57483A1BB58D19B54EE9151C43D0110279CB971E06F9A5A7B11A53CC8C70ADE6515EC78BAE4895DB992778883E0700CB907242D17643D7E2538BD869608875438BBAE38922CAC8F1BDD90DB4691A5E2F42C153326A951B95E398B3D1FE599322163C9AE9115F7A3D46ADA0A018778810
310
84E907617BDCEE297BC5BB3DC6BC2EF47FA234AB2745C9D8D8D035EE220B50105E2F0DC1954B9FB747187D9F9D8FA0CCDB042D5FA0C015C65B42DF78BD10F3F3B363CB56C7109DCFDFBBB97E662ED92EB62D13BC2E1BCAE5777DB9966D8A1F504B0304140006080800CC70623BAD7543B64E01000033030000300000006662
310
782F36394639363044362D344446342D343946362D394244322D3234314243333846323333332F636E782E786D6CD593CD6EC32010845F0571AD6CE3D48AD20813A9873E410FBD12D82434182C7EAAE6EDBB2424CD25871E7B41D6EC30B3FA84F9E67BB2E40B4234DE8DB46F1925E094D7C6ED479AD3AE5951B2113C789FEE
310
6C943839C1488B4C05DF079FE72A69D8C96C13AAD6B8631503449F83828872B949AC57D26200B826A308D316B4064D6E46FCDA41C05550DC9E483A00797BFD207EFB092A45DE9514C1BBD22178396BD39D891265658C238DEA00936C654E5E433CB65A26D9F6EDB5EBC14EBF49A45CB856E66048291F6939A9A81BB5C89177
310
38143CA680F4AA299D66A042CEB3354A2684DC9D8D178FE0D9B8B41CAAD720F880EE7EF93C0C18769E099ECC04D5A102C8049A8A05632F4DDF376CF1DE0F6BB65C2F8627B65A33C6BB62177CEBBDAD973006829F89F22E814B54F4BC2BE347F8AA8F681390B50FA73F804400B5F542E796F19FF974E7F78DB802FE05E20750
310
4B0304140006080800CC70623B8D05915C650500003B100000340000006662782F36394639363044362D344446342D343946362D394244322D3234314243333846323333332F6F626A656374732E786D6CAD575B6FA33814FE2B887D06429276DA1565D4266D158D3A339A6846FB502932E050B66023DB74D2FDF5FB190C01
310
9276B2973C046C8ECFF53B17071F77456EBD502133CEAE6CDF9DD81665314F32965ED995DA3A17B6F5310C04E7AA47665B8C14F4CAD6DB7618A48257A5D94AE89654B91AEDDEDDFC61C998326A5B714EA4BCB265FC440BE2924AF184CA6737218AB8E976E7FA6E4338649B0A523E8D98964450A6A029F619B8588D52FE7039
310
B1BD30F0F4F730D0FF866AF6369557DB33949F31A9088B0F848DD8CCFCF9F2767A76E99CCDE733677E3EF59D9BBB9BA5E37F984D16E78BC5E5F5ED25044B25C0C96822E8D60EEFE11B91C581D77CEA34368A1F5329E68CD1B8B61F16D63A1B8E092D294B10C78C4A48EB593D192E7DED9BDEE7995E1B91FDEDD3ACEA9FE831
310
6A756F9F7D4D79F4274C90A7A04248AA51D5F8C718DAE06FB2F75AC4796EBE65D22A88A22223B995679120E2D50E41AA49C260C046A35368846B0BECD0DFF3EBEB8AD4F835768F69B9ADF25C43D30E6B646F807FAA64AD59F61715C7A54127C4AACA98BA3006A9D792DAE165E0D59B61A01FB3A9F9D838D2DAE62445C86166
310
F37564E842E7DE6A69879FEEA2DD5AE7E371E1A5E025154AC307D06A03D73EB5978C58FFA4C8E9033066E0F3BD53BEC1F39F91BE7B55103791EDE6BBB991A2046172CB4581D8B893FA674DDA17A77B3B7C413D1B511FD2743BFF8A38F03A658705E3ADF8015C3A3417FF3D7E439FF591DA0B5F18BC20C1B8981957AE6392A3
310
F43C640C01D1A0B4728E2DD4F26DB4B3C3152A252A3B4E913CEC1C72F012782FF88EFF8637AA552DBEF76408E8A8DE9E50F9E1CB3A2DA0DB1B6039A893B56063DC5B3E3FFB5F72E67AB9FEB4AEC496C4F4C1149625DD662C53E89D7BF0F6151A046260D1337DFDC94502430F83B0EE07A130A224BCAD7DAE1D9FB6CD422FF6
310
920702629C4BB9AE79C12F243C6432A6794E18E5552BA56B431AAB5D91317302B2B071E86C3A42B1A02F999E24061403B5D0EB639195DA655DD3EBEAB4FB862DDF579F014AD0E73C22F99E28DA57FB98E75C6CA2D74D53086D600F4786E0FE3144B771A8A7B900F03594DB8A633CBC49B2EDB69228BB479CF863B5E807AAAB
310
23872F6DFEB4129B949CA33823F58830E86D65621E10047D9DB34D862E8EAC3C2ABC2F7B2C40D67CDFE01F5545B92105AF983AC54D93D69E56FB8E797F88913F898A9FEC705D3F9D1B54EC8426FB500D40A03BD0119B06E1B95DDC7EB8F6975367793EBD70E66733DFB9BC982F9CE564727731999F5D4ECFCE3B8D6A4DC2A0
310
6D50FD148437D110834A64C6CDDF57FBACB5C307A2A477DFE4939736CFEF2B175371E0E10CF0DD1D5C15654E0BCA14D1E87DD02FF93782A162C0A3D95F1524A52770F972BF1EE9809D13CE7DD599467F8ECE9ADD85CE85A34CD45355448C64F9E8A031DC2D596ACC6E5DD93D9B82DE2EF5CAF81363A8E47996A0DE24564A79
310
4115AACE09C55E14540231FDA13C319787134EBF34E3A022514E5B4D9E0826E25C02D5805B15ABE1BEF51B26383D445DD9E875EE33FE4C22DA16427D65A3BCA92CA6D28DD01DF5DC53330704308475351050232CCD31583787BA75774AFB06E5070DD0C8EF484E19968C5D83BA5B90B244D31E54D55A372320FE4786B7EA58
310
44E135AA5467CB7EA333A61683CC6A8C3257034C10CF46F40EF9F5BE59BE5BD30C3C72D235E95D10345C1D45445A5F0BB47E46A5EBE5570F9380B5FA629579952296A773720405982B9DE04011506178964401AA8BDF1FBF0A8EAB6861DD6580C0E38217056766716DAEB2D6FA0917D3E4116581EADB879C4E7CFFB11EFACD
310
3D641311495D92C8676CB409A72D18610D803CE8A626049E8EC1887CB5B44CC39883690DDA8399B4B9855B481E7D71D4A9D22F96E5BB73BF5793020C02137BF837504B0304140006080000CC70623B000000000000000000000000350000006662782F36394639363044362D344446342D343946362D394244322D32343142
310
43333846323333332F76657274696365732E62696E504B0304140006080800CC70623BF270F1330600000004000000360000006662782F36394639363044362D344446342D343946362D394244322D3234314243333846323333332F747269616E676C65732E62696E636660600000504B0304140006080000CC70623B0000
310
00000000000000000000370000006662782F36394639363044362D344446342D343946362D394244322D3234314243333846323333332F617474726962757465732E62696E504B0304140006080800CC70623B08DA0BD19000000041010000360000006662782F36394639363044362D344446342D343946362D394244322D
310
3234314243333846323333332F6469726563746F72792E786D6C858F410AC3201045AF22B36F53E9A60B35CBEEBAE80D244E44489C6234F4F835464A48035D0DF398FF9F8AF63D0E6CC63039F212F8F9020C7D47C6792B21C5FE7403D62A1188E2E60C98D7234A5830286103A55745067B9D86B8A3CF9C7F90C11DE607FB14
310
4396D7B6A82D282E9A152AD114D5EF2CB866EEE831B8EEA07A7BB5A8D7D61A2BAAEB7FD5F70921FF497D00504B0304140006080800CC70623BCA768048FE000000A00100003B0000006662782F36394639363044362D344446342D343946362D394244322D3234314243333846323333332F7265736F75726365732F636F72
310
652E786D6C8D50596E833010BD0A9ADFCA60D600328E9AA639412F609909B1126CE4A5EAF16B0295DABFFECC8CDEA2797AECF8353F924FB44E193D409E5248504B332A3D0D10FC95B4901C39B3C6F85F3248B49871801506CE266BC2B243D2688FDA47549B11775038871E12F988C7004EDE7016A9083E2ADC3D5D84BC8B09
310
D33C8D74D471E6BC8D0192EDC93A815B742658898E651BCB59086ADC356A8C3FD555A1055ED7E7E254D615792D0F075295F585746FF53B694EE78A565DD736979A65AB9933AFE69F8CD2A2F038022F28ED489E135A7CE4554F9BBEA85E68DB53CAB255FEC71496F19FA6A0B42F8B3DEE6673C0F318E4497096AD7DC5F52C33
310
EEB55BFE0D504B010214000A0000080000CC70623B3DEE336E79000000790000001B00000000000000000000000000000000006175746F6465736B2D64657369676E2D7061636B6167652E786D6C504B01021400140006080800CC70623BD486FD9CA0000000F40000001300000000000000000000000000B20000005B436F
310
6E74656E745F54797065735D2E786D6C504B01021400140006080800CC70623BD9DDAED0EC0000007C010000080000000000000000000000000083010000636F72652E786D6C504B01021400140006080800CC70623B55019EA25F0000007C000000070000000000000000000000000095020000636E782E786D6C504B0102
310
1400140006080800CC70623BA24EB22D72010000D40300000C00000000000000000000000000190300006662782F636F72652E786D6C504B01021400140006080800CC70623B408A7D3B7C0000009D0000000B00000000000000000000000000B50400006662782F636E782E786D6C504B01021400140006080800CC70623B
310
449FB9BD290100001202000031000000000000000000000000005A0500006662782F36394639363044362D344446342D343946362D394244322D3234314243333846323333332F636F72652E786D6C504B01021400140006080800CC70623BAD7543B64E010000330300003000000000000000000000000000D20600006662
310
782F36394639363044362D344446342D343946362D394244322D3234314243333846323333332F636E782E786D6C504B01021400140006080800CC70623B8D05915C650500003B10000034000000000000000000000000006E0800006662782F36394639363044362D344446342D343946362D394244322D32343142433338
310
46323333332F6F626A656374732E786D6C504B01021400140006080000CC70623B0000000000000000000000003500000000000000000000000000250E00006662782F36394639363044362D344446342D343946362D394244322D3234314243333846323333332F76657274696365732E62696E504B010214001400060808
310
00CC70623BF270F13306000000040000003600000000000000000000000000780E00006662782F36394639363044362D344446342D343946362D394244322D3234314243333846323333332F747269616E676C65732E62696E504B01021400140006080000CC70623B00000000000000000000000037000000000000000000
310
00000000D20E00006662782F36394639363044362D344446342D343946362D394244322D3234314243333846323333332F617474726962757465732E62696E504B01021400140006080800CC70623B08DA0BD190000000410100003600000000000000000000000000270F00006662782F36394639363044362D344446342D
310
343946362D394244322D3234314243333846323333332F6469726563746F72792E786D6C504B01021400140006080800CC70623BCA768048FE000000A00100003B000000000000000000000000000B1000006662782F36394639363044362D344446342D343946362D394244322D3234314243333846323333332F7265736F
310
75726365732F636F72652E786D6C504B0506000000000E000E0080040000621100000000
  0
XRECORD
  5
176
102
{ACAD_REACTORS
330
173
102
}
330
173
100
AcDbXrecord
280
     1
270
     1
271
     1
  0
XRECORD
  5
177
102
{ACAD_REACTORS
330
173
102
}
330
173
100
AcDbXrecord
280
     1
270
     1
271
     1
  0
XRECORD
  5
276A
102
{ACAD_REACTORS
330
2769
102
}
330
2769
100
AcDbXrecord
280
     1
102
ACAD_ROUNDTRIP_2012_MLEADER_STYLE
298
     1
  0
XRECORD
  5
277C
102
{ACAD_REACTORS
330
277B
102
}
330
277B
100
AcDbXrecord
280
     1
102
DISPLAYNAME
  1
Metric50
102
FLAGS
 90
        0
  0
CELLSTYLEMAP
  5
273C
102
{ACAD_REACTORS
330
162
102
}
330
162
100
AcDbCellStyleMap
 90
        3
300
CELLSTYLE
  1
TABLEFORMAT_BEGIN
 90
        5
170
     1
 91
        0
 92
    32768
 62
   257
 93
        1
300
CONTENTFORMAT
  1
CONTENTFORMAT_BEGIN
 90
        0
 91
        0
 92
      512
 93
        0
300

 40
0.0
140
1.0
 94
        5
 62
     0
340
11
144
6.0
309
CONTENTFORMAT_END
171
     1
301
MARGIN
  1
CELLMARGIN_BEGIN
 40
1.5
 40
1.5
 40
1.5
 40
1.5
 40
4.5
 40
4.5
309
CELLMARGIN_END
 94
        6
 95
        1
302
GRIDFORMAT
  1
GRIDFORMAT_BEGIN
 90
        0
 91
        1
 62
     0
 92
       -2
340
14
 93
        0
 40
1.125
309
GRIDFORMAT_END
 95
        2
302
GRIDFORMAT
  1
GRIDFORMAT_BEGIN
 90
        0
 91
        1
 62
     0
 92
       -2
340
14
 93
        0
 40
1.125
309
GRIDFORMAT_END
 95
        4
302
GRIDFORMAT
  1
GRIDFORMAT_BEGIN
 90
        0
 91
        1
 62
     0
 92
       -2
340
14
 93
        0
 40
1.125
309
GRIDFORMAT_END
 95
        8
302
GRIDFORMAT
  1
GRIDFORMAT_BEGIN
 90
        0
 91
        1
 62
     0
 92
       -2
340
14
 93
        0
 40
1.125
309
GRIDFORMAT_END
 95
       16
302
GRIDFORMAT
  1
GRIDFORMAT_BEGIN
 90
        0
 91
        1
 62
     0
 92
       -2
340
14
 93
        0
 40
1.125
309
GRIDFORMAT_END
 95
       32
302
GRIDFORMAT
  1
GRIDFORMAT_BEGIN
 90
        0
 91
        1
 62
     0
 92
       -2
340
14
 93
        0
 40
1.125
309
GRIDFORMAT_END
309
TABLEFORMAT_END
  1
CELLSTYLE_BEGIN
 90
        1
 91
        1
300
_TITLE
309
CELLSTYLE_END
300
CELLSTYLE
  1
TABLEFORMAT_BEGIN
 90
        5
170
     1
 91
        0
 92
        0
 62
   257
 93
        1
300
CONTENTFORMAT
  1
CONTENTFORMAT_BEGIN
 90
        0
 91
        0
 92
      512
 93
        0
300

 40
0.0
140
1.0
 94
        5
 62
     0
340
11
144
4.5
309
CONTENTFORMAT_END
171
     1
301
MARGIN
  1
CELLMARGIN_BEGIN
 40
1.5
 40
1.5
 40
1.5
 40
1.5
 40
4.5
 40
4.5
309
CELLMARGIN_END
 94
        6
 95
        1
302
GRIDFORMAT
  1
GRIDFORMAT_BEGIN
 90
        0
 91
        1
 62
     0
 92
       -2
340
14
 93
        0
 40
1.125
309
GRIDFORMAT_END
 95
        2
302
GRIDFORMAT
  1
GRIDFORMAT_BEGIN
 90
        0
 91
        1
 62
     0
 92
       -2
340
14
 93
        0
 40
1.125
309
GRIDFORMAT_END
 95
        4
302
GRIDFORMAT
  1
GRIDFORMAT_BEGIN
 90
        0
 91
        1
 62
     0
 92
       -2
340
14
 93
        0
 40
1.125
309
GRIDFORMAT_END
 95
        8
302
GRIDFORMAT
  1
GRIDFORMAT_BEGIN
 90
        0
 91
        1
 62
     0
 92
       -2
340
14
 93
        0
 40
1.125
309
GRIDFORMAT_END
 95
       16
302
GRIDFORMAT
  1
GRIDFORMAT_BEGIN
 90
        0
 91
        1
 62
     0
 92
       -2
340
14
 93
        0
 40
1.125
309
GRIDFORMAT_END
 95
       32
302
GRIDFORMAT
  1
GRIDFORMAT_BEGIN
 90
        0
 91
        1
 62
     0
 92
       -2
340
14
 93
        0
 40
1.125
309
GRIDFORMAT_END
309
TABLEFORMAT_END
  1
CELLSTYLE_BEGIN
 90
        2
 91
        1
300
_HEADER
309
CELLSTYLE_END
300
CELLSTYLE
  1
TABLEFORMAT_BEGIN
 90
        5
170
     1
 91
        0
 92
        0
 62
   257
 93
        1
300
CONTENTFORMAT
  1
CONTENTFORMAT_BEGIN
 90
        0
 91
        0
 92
      512
 93
        0
300

 40
0.0
140
1.0
 94
        2
 62
     0
340
11
144
4.5
309
CONTENTFORMAT_END
171
     1
301
MARGIN
  1
CELLMARGIN_BEGIN
 40
1.5
 40
1.5
 40
1.5
 40
1.5
 40
4.5
 40
4.5
309
CELLMARGIN_END
 94
        6
 95
        1
302
GRIDFORMAT
  1
GRIDFORMAT_BEGIN
 90
        0
 91
        1
 62
     0
 92
       -2
340
14
 93
        0
 40
1.125
309
GRIDFORMAT_END
 95
        2
302
GRIDFORMAT
  1
GRIDFORMAT_BEGIN
 90
        0
 91
        1
 62
     0
 92
       -2
340
14
 93
        0
 40
1.125
309
GRIDFORMAT_END
 95
        4
302
GRIDFORMAT
  1
GRIDFORMAT_BEGIN
 90
        0
 91
        1
 62
     0
 92
       -2
340
14
 93
        0
 40
1.125
309
GRIDFORMAT_END
 95
        8
302
GRIDFORMAT
  1
GRIDFORMAT_BEGIN
 90
        0
 91
        1
 62
     0
 92
       -2
340
14
 93
        0
 40
1.125
309
GRIDFORMAT_END
 95
       16
302
GRIDFORMAT
  1
GRIDFORMAT_BEGIN
 90
        0
 91
        1
 62
     0
 92
       -2
340
14
 93
        0
 40
1.125
309
GRIDFORMAT_END
 95
       32
302
GRIDFORMAT
  1
GRIDFORMAT_BEGIN
 90
        0
 91
        1
 62
     0
 92
       -2
340
14
 93
        0
 40
1.125
309
GRIDFORMAT_END
309
TABLEFORMAT_END
  1
CELLSTYLE_BEGIN
 90
        3
 91
        2
300
_DATA
309
CELLSTYLE_END
  0
XRECORD
  5
2741
102
{ACAD_REACTORS
330
162
102
}
330
162
100
AcDbXrecord
280
     1
102
ACAD_ROUNDTRIP_PRE2007_TABLESTYLE
 90
      512
 91
        0
  1

 92
      512
 93
        0
  2

 94
      512
 95
        0
  3

  0
XRECORD
  5
2754
102
{ACAD_REACTORS
330
2753
102
}
330
2753
100
AcDbXrecord
280
     1
102
RTVSPost2010Prop28
280
     1
102
RTVSPost2010PropOp28
 70
     1
102
RTVSPost2010Prop29
280
     1
102
RTVSPost2010PropOp29
 70
     1
102
RTVSPost2010Prop30
280
     0
102
RTVSPost2010PropOp30
 70
     1
102
RTVSPost2010Prop31
280
     0
102
RTVSPost2010PropOp31
 70
     1
102
RTVSPost2010Prop32
280
     0
102
RTVSPost2010PropOp32
 70
     1
102
RTVSPost2010Prop33
280
     0
102
RTVSPost2010PropOp33
 70
     1
102
RTVSPost2010Prop34
280
     0
102
RTVSPost2010PropOp34
 70
     1
102
RTVSPost2010Prop35
280
     0
102
RTVSPost2010PropOp35
 70
     1
102
RTVSPost2010Prop36
280
     0
102
RTVSPost2010PropOp36
 70
     1
102
RTVSPost2010Prop37
 90
       50
102
RTVSPost2010PropOp37
 70
     1
102
RTVSPost2010Prop38
140
0.0
102
RTVSPost2010PropOp38
 70
     1
102
RTVSPost2010Prop39
140
1.0
102
RTVSPost2010PropOp39
 70
     1
102
RTVSPost2010Prop40
 90
        0
102
RTVSPost2010PropOp40
 70
     1
102
RTVSPost2010Prop41ColorIndex
 90
       18
102
RTVSPost2010Prop41ColorRGB
 90
        0
102
RTVSPost2010PropOp41
 70
     1
102
RTVSPost2010Prop42
 90
       50
102
RTVSPost2010PropOp42
 70
     1
102
RTVSPost2010Prop43
 90
        3
102
RTVSPost2010PropOp43
 70
     1
102
RTVSPost2010Prop44ColorIndex
 90
        5
102
RTVSPost2010Prop44ColorRGB
 90
      255
102
RTVSPost2010PropOp44
 70
     1
102
RTVSPost2010Prop45
280
     0
102
RTVSPost2010PropOp45
 70
     1
102
RTVSPost2010Prop46
 90
       50
102
RTVSPost2010PropOp46
 70
     1
102
RTVSPost2010Prop47
 90
       50
102
RTVSPost2010PropOp47
 70
     1
102
RTVSPost2010Prop48
 90
       50
102
RTVSPost2010PropOp48
 70
     1
102
RTVSPost2010Prop49
280
     0
102
RTVSPost2010PropOp49
 70
     1
102
RTVSPost2010Prop50
 90
       50
102
RTVSPost2010PropOp50
 70
     1
102
RTVSPost2010Prop51ColorIndex
 90
      256
102
RTVSPost2010Prop51ColorRGB
 90
-16777216
102
RTVSPost2010PropOp51
 70
     0
102
RTVSPost2010Prop52
140
1.0
102
RTVSPost2010PropOp52
 70
     0
102
RTVSPost2010Prop53
 90
        2
102
RTVSPost2010PropOp53
 70
     1
102
RTVSPost2010Prop54
  1
strokes_ogs.tif
102
RTVSPost2010PropOp54
 70
     1
102
RTVSPost2010Prop55
280
     0
102
RTVSPost2010PropOp55
 70
     1
102
RTVSPost2010Prop56
140
1.0
102
RTVSPost2010PropOp56
 70
     1
102
RTVSPost2010Prop57
140
1.0
102
RTVSPost2010PropOp57
 70
     1
102
RTVSPropertyOp0
 70
     1
102
RTVSPropertyOp1
 70
     1
102
RTVSPropertyOp2
 70
     1
102
RTVSPropertyOp3
 70
     1
102
RTVSPropertyOp4
 70
     1
102
RTVSPropertyOp5
 70
     1
102
RTVSPropertyOp6
 70
     1
102
RTVSPropertyOp7
 70
     1
102
RTVSPropertyOp8
 70
     1
102
RTVSPropertyOp9
 70
     1
102
RTVSPropertyOp10
 70
     1
102
RTVSPropertyOp11
 70
     1
102
RTVSPropertyOp12
 70
     1
102
RTVSPropertyOp13
 70
     1
102
RTVSPropertyOp14
 70
     1
102
RTVSPropertyOp15
 70
     1
102
RTVSPropertyOp16
 70
     1
102
RTVSPropertyOp17
 70
     1
102
RTVSPropertyOp18
 70
     1
102
RTVSPropertyOp19
 70
     1
102
RTVSPropertyOp20
 70
     1
102
RTVSPropertyOp21
 70
     1
102
RTVSPropertyOp22
 70
     1
102
RTVSPropertyOp23
 70
     1
102
RTVSPropertyOp24
 70
     1
102
RTVSPropertyOp25
 70
     1
102
RTVSPropertyOp26
 70
     1
102
RTVSPropertyOp27
 70
     1
102
RTVSPropertyOp28
 70
     1
102
RTVSPropertyOp29
 70
     1
102
RTVSPropertyOp30
 70
     1
102
RTVSPropertyOp31
 70
     1
102
RTVSPropertyOp32
 70
     1
102
RTVSPropertyOp33
 70
     1
102
RTVSPropertyOp34
 70
     1
102
RTVSPropertyOp35
 70
     1
102
RTVSPropertyOp36
 70
     1
102
RTVSPropertyOp37
 70
     1
102
RTVSPropertyOp38
 70
     1
102
RTVSPropertyOp39
 70
     1
102
RTVSPropertyOp40
 70
     1
102
RTVSPropertyOp41
 70
     1
102
RTVSPropertyOp42
 70
     1
102
RTVSPropertyOp43
 70
     1
102
RTVSPropertyOp44
 70
     1
102
RTVSPropertyOp45
 70
     1
102
RTVSPropertyOp46
 70
     1
102
RTVSPropertyOp47
 70
     1
102
RTVSPropertyOp48
 70
     1
102
RTVSPropertyOp49
 70
     1
102
RTVSPropertyOp50
 70
     1
102
RTVSPropertyOp51
 70
     0
102
RTVSPropertyOp52
 70
     0
102
RTVSPropertyOp53
 70
     1
102
RTVSPropertyOp54
 70
     1
102
RTVSPropertyOp55
 70
     1
102
RTVSPropertyOp56
 70
     1
102
RTVSPropertyOp57
 70
     1
102
RTVSPropertyOp58
 70
     1
102
RTVSPropertyOp59
 70
     1
102
RTVSPropertyOp60
 70
     1
102
RTVSPropertyOp61
 70
     1
102
RTVSPropertyOp62
 70
     1
  0
XRECORD
  5
2752
102
{ACAD_REACTORS
330
2751
102
}
330
2751
100
AcDbXrecord
280
     1
102
RTVSPost2010Prop28
280
     0
102
RTVSPost2010PropOp28
 70
     1
102
RTVSPost2010Prop29
280
     1
102
RTVSPost2010PropOp29
 70
     1
102
RTVSPost2010Prop30
280
     1
102
RTVSPost2010PropOp30
 70
     1
102
RTVSPost2010Prop31
280
     0
102
RTVSPost2010PropOp31
 70
     1
102
RTVSPost2010Prop32
280
     0
102
RTVSPost2010PropOp32
 70
     1
102
RTVSPost2010Prop33
280
     0
102
RTVSPost2010PropOp33
 70
     1
102
RTVSPost2010Prop34
280
     0
102
RTVSPost2010PropOp34
 70
     1
102
RTVSPost2010Prop35
280
     0
102
RTVSPost2010PropOp35
 70
     1
102
RTVSPost2010Prop36
280
     0
102
RTVSPost2010PropOp36
 70
     1
102
RTVSPost2010Prop37
 90
       50
102
RTVSPost2010PropOp37
 70
     1
102
RTVSPost2010Prop38
140
0.0
102
RTVSPost2010PropOp38
 70
     1
102
RTVSPost2010Prop39
140
1.0
102
RTVSPost2010PropOp39
 70
     1
102
RTVSPost2010Prop40
 90
        0
102
RTVSPost2010PropOp40
 70
     1
102
RTVSPost2010Prop41ColorIndex
 90
       18
102
RTVSPost2010Prop41ColorRGB
 90
        0
102
RTVSPost2010PropOp41
 70
     1
102
RTVSPost2010Prop42
 90
       50
102
RTVSPost2010PropOp42
 70
     1
102
RTVSPost2010Prop43
 90
        3
102
RTVSPost2010PropOp43
 70
     1
102
RTVSPost2010Prop44ColorIndex
 90
        5
102
RTVSPost2010Prop44ColorRGB
 90
      255
102
RTVSPost2010PropOp44
 70
     1
102
RTVSPost2010Prop45
280
     0
102
RTVSPost2010PropOp45
 70
     1
102
RTVSPost2010Prop46
 90
       50
102
RTVSPost2010PropOp46
 70
     1
102
RTVSPost2010Prop47
 90
       50
102
RTVSPost2010PropOp47
 70
     1
102
RTVSPost2010Prop48
 90
       50
102
RTVSPost2010PropOp48
 70
     1
102
RTVSPost2010Prop49
280
     0
102
RTVSPost2010PropOp49
 70
     1
102
RTVSPost2010Prop50
 90
       50
102
RTVSPost2010PropOp50
 70
     1
102
RTVSPost2010Prop51ColorIndex
 90
      256
102
RTVSPost2010Prop51ColorRGB
 90
-16777216
102
RTVSPost2010PropOp51
 70
     0
102
RTVSPost2010Prop52
140
1.0
102
RTVSPost2010PropOp52
 70
     0
102
RTVSPost2010Prop53
 90
        2
102
RTVSPost2010PropOp53
 70
     1
102
RTVSPost2010Prop54
  1
strokes_ogs.tif
102
RTVSPost2010PropOp54
 70
     1
102
RTVSPost2010Prop55
280
     0
102
RTVSPost2010PropOp55
 70
     1
102
RTVSPost2010Prop56
140
1.0
102
RTVSPost2010PropOp56
 70
     1
102
RTVSPost2010Prop57
140
1.0
102
RTVSPost2010PropOp57
 70
     1
102
RTVSPropertyOp0
 70
     1
102
RTVSPropertyOp1
 70
     1
102
RTVSPropertyOp2
 70
     1
102
RTVSPropertyOp3
 70
     1
102
RTVSPropertyOp4
 70
     1
102
RTVSPropertyOp5
 70
     1
102
RTVSPropertyOp6
 70
     1
102
RTVSPropertyOp7
 70
     1
102
RTVSPropertyOp8
 70
     1
102
RTVSPropertyOp9
 70
     1
102
RTVSPropertyOp10
 70
     1
102
RTVSPropertyOp11
 70
     1
102
RTVSPropertyOp12
 70
     1
102
RTVSPropertyOp13
 70
     1
102
RTVSPropertyOp14
 70
     1
102
RTVSPropertyOp15
 70
     1
102
RTVSPropertyOp16
 70
     1
102
RTVSPropertyOp17
 70
     1
102
RTVSPropertyOp18
 70
     1
102
RTVSPropertyOp19
 70
     1
102
RTVSPropertyOp20
 70
     1
102
RTVSPropertyOp21
 70
     1
102
RTVSPropertyOp22
 70
     1
102
RTVSPropertyOp23
 70
     1
102
RTVSPropertyOp24
 70
     1
102
RTVSPropertyOp25
 70
     1
102
RTVSPropertyOp26
 70
     1
102
RTVSPropertyOp27
 70
     1
102
RTVSPropertyOp28
 70
     1
102
RTVSPropertyOp29
 70
     1
102
RTVSPropertyOp30
 70
     1
102
RTVSPropertyOp31
 70
     1
102
RTVSPropertyOp32
 70
     1
102
RTVSPropertyOp33
 70
     1
102
RTVSPropertyOp34
 70
     1
102
RTVSPropertyOp35
 70
     1
102
RTVSPropertyOp36
 70
     1
102
RTVSPropertyOp37
 70
     1
102
RTVSPropertyOp38
 70
     1
102
RTVSPropertyOp39
 70
     1
102
RTVSPropertyOp40
 70
     1
102
RTVSPropertyOp41
 70
     1
102
RTVSPropertyOp42
 70
     1
102
RTVSPropertyOp43
 70
     1
102
RTVSPropertyOp44
 70
     1
102
RTVSPropertyOp45
 70
     1
102
RTVSPropertyOp46
 70
     1
102
RTVSPropertyOp47
 70
     1
102
RTVSPropertyOp48
 70
     1
102
RTVSPropertyOp49
 70
     1
102
RTVSPropertyOp50
 70
     1
102
RTVSPropertyOp51
 70
     0
102
RTVSPropertyOp52
 70
     0
102
RTVSPropertyOp53
 70
     1
102
RTVSPropertyOp54
 70
     1
102
RTVSPropertyOp55
 70
     1
102
RTVSPropertyOp56
 70
     1
102
RTVSPropertyOp57
 70
     1
102
RTVSPropertyOp58
 70
     1
102
RTVSPropertyOp59
 70
     1
102
RTVSPropertyOp60
 70
     1
102
RTVSPropertyOp61
 70
     1
102
RTVSPropertyOp62
 70
     1
  0
XRECORD
  5
2760
102
{ACAD_REACTORS
330
275F
102
}
330
275F
100
AcDbXrecord
280
     1
102
RTVSPost2010Prop28
280
     0
102
RTVSPost2010PropOp28
 70
     1
102
RTVSPost2010Prop29
280
     1
102
RTVSPost2010PropOp29
 70
     1
102
RTVSPost2010Prop30
280
     1
102
RTVSPost2010PropOp30
 70
     1
102
RTVSPost2010Prop31
280
     0
102
RTVSPost2010PropOp31
 70
     1
102
RTVSPost2010Prop32
280
     0
102
RTVSPost2010PropOp32
 70
     1
102
RTVSPost2010Prop33
280
     0
102
RTVSPost2010PropOp33
 70
     1
102
RTVSPost2010Prop34
280
     0
102
RTVSPost2010PropOp34
 70
     1
102
RTVSPost2010Prop35
280
     0
102
RTVSPost2010PropOp35
 70
     1
102
RTVSPost2010Prop36
280
     0
102
RTVSPost2010PropOp36
 70
     1
102
RTVSPost2010Prop37
 90
       50
102
RTVSPost2010PropOp37
 70
     1
102
RTVSPost2010Prop38
140
0.0
102
RTVSPost2010PropOp38
 70
     1
102
RTVSPost2010Prop39
140
1.0
102
RTVSPost2010PropOp39
 70
     1
102
RTVSPost2010Prop40
 90
        0
102
RTVSPost2010PropOp40
 70
     1
102
RTVSPost2010Prop41ColorIndex
 90
       18
102
RTVSPost2010Prop41ColorRGB
 90
        0
102
RTVSPost2010PropOp41
 70
     1
102
RTVSPost2010Prop42
 90
       50
102
RTVSPost2010PropOp42
 70
     1
102
RTVSPost2010Prop43
 90
        3
102
RTVSPost2010PropOp43
 70
     1
102
RTVSPost2010Prop44ColorIndex
 90
        5
102
RTVSPost2010Prop44ColorRGB
 90
      255
102
RTVSPost2010PropOp44
 70
     1
102
RTVSPost2010Prop45
280
     0
102
RTVSPost2010PropOp45
 70
     1
102
RTVSPost2010Prop46
 90
       50
102
RTVSPost2010PropOp46
 70
     1
102
RTVSPost2010Prop47
 90
       50
102
RTVSPost2010PropOp47
 70
     1
102
RTVSPost2010Prop48
 90
       50
102
RTVSPost2010PropOp48
 70
     1
102
RTVSPost2010Prop49
280
     0
102
RTVSPost2010PropOp49
 70
     1
102
RTVSPost2010Prop50
 90
       50
102
RTVSPost2010PropOp50
 70
     1
102
RTVSPost2010Prop51ColorIndex
 90
      256
102
RTVSPost2010Prop51ColorRGB
 90
-16777216
102
RTVSPost2010PropOp51
 70
     0
102
RTVSPost2010Prop52
140
1.0
102
RTVSPost2010PropOp52
 70
     0
102
RTVSPost2010Prop53
 90
        2
102
RTVSPost2010PropOp53
 70
     1
102
RTVSPost2010Prop54
  1
strokes_ogs.tif
102
RTVSPost2010PropOp54
 70
     1
102
RTVSPost2010Prop55
280
     0
102
RTVSPost2010PropOp55
 70
     1
102
RTVSPost2010Prop56
140
1.0
102
RTVSPost2010PropOp56
 70
     1
102
RTVSPost2010Prop57
140
1.0
102
RTVSPost2010PropOp57
 70
     1
102
RTVSPropertyOp0
 70
     1
102
RTVSPropertyOp1
 70
     1
102
RTVSPropertyOp2
 70
     1
102
RTVSPropertyOp3
 70
     1
102
RTVSPropertyOp4
 70
     1
102
RTVSPropertyOp5
 70
     1
102
RTVSPropertyOp6
 70
     1
102
RTVSPropertyOp7
 70
     1
102
RTVSPropertyOp8
 70
     1
102
RTVSPropertyOp9
 70
     1
102
RTVSPropertyOp10
 70
     1
102
RTVSPropertyOp11
 70
     1
102
RTVSPropertyOp12
 70
     1
102
RTVSPropertyOp13
 70
     1
102
RTVSPropertyOp14
 70
     1
102
RTVSPropertyOp15
 70
     1
102
RTVSPropertyOp16
 70
     1
102
RTVSPropertyOp17
 70
     1
102
RTVSPropertyOp18
 70
     1
102
RTVSPropertyOp19
 70
     1
102
RTVSPropertyOp20
 70
     1
102
RTVSPropertyOp21
 70
     1
102
RTVSPropertyOp22
 70
     1
102
RTVSPropertyOp23
 70
     1
102
RTVSPropertyOp24
 70
     1
102
RTVSPropertyOp25
 70
     1
102
RTVSPropertyOp26
 70
     1
102
RTVSPropertyOp27
 70
     1
102
RTVSPropertyOp28
 70
     1
102
RTVSPropertyOp29
 70
     1
102
RTVSPropertyOp30
 70
     1
102
RTVSPropertyOp31
 70
     1
102
RTVSPropertyOp32
 70
     1
102
RTVSPropertyOp33
 70
     1
102
RTVSPropertyOp34
 70
     1
102
RTVSPropertyOp35
 70
     1
102
RTVSPropertyOp36
 70
     1
102
RTVSPropertyOp37
 70
     1
102
RTVSPropertyOp38
 70
     1
102
RTVSPropertyOp39
 70
     1
102
RTVSPropertyOp40
 70
     1
102
RTVSPropertyOp41
 70
     1
102
RTVSPropertyOp42
 70
     1
102
RTVSPropertyOp43
 70
     1
102
RTVSPropertyOp44
 70
     1
102
RTVSPropertyOp45
 70
     1
102
RTVSPropertyOp46
 70
     1
102
RTVSPropertyOp47
 70
     1
102
RTVSPropertyOp48
 70
     1
102
RTVSPropertyOp49
 70
     1
102
RTVSPropertyOp50
 70
     1
102
RTVSPropertyOp51
 70
     0
102
RTVSPropertyOp52
 70
     0
102
RTVSPropertyOp53
 70
     1
102
RTVSPropertyOp54
 70
     1
102
RTVSPropertyOp55
 70
     1
102
RTVSPropertyOp56
 70
     1
102
RTVSPropertyOp57
 70
     1
102
RTVSPropertyOp58
 70
     1
102
RTVSPropertyOp59
 70
     1
102
RTVSPropertyOp60
 70
     1
102
RTVSPropertyOp61
 70
     1
102
RTVSPropertyOp62
 70
     1
  0
XRECORD
  5
2768
102
{ACAD_REACTORS
330
2767
102
}
330
2767
100
AcDbXrecord
280
     1
102
RTVSPost2010Prop28
280
     0
102
RTVSPost2010PropOp28
 70
     1
102
RTVSPost2010Prop29
280
     1
102
RTVSPost2010PropOp29
 70
     1
102
RTVSPost2010Prop30
280
     1
102
RTVSPost2010PropOp30
 70
     1
102
RTVSPost2010Prop31
280
     0
102
RTVSPost2010PropOp31
 70
     1
102
RTVSPost2010Prop32
280
     0
102
RTVSPost2010PropOp32
 70
     1
102
RTVSPost2010Prop33
280
     0
102
RTVSPost2010PropOp33
 70
     1
102
RTVSPost2010Prop34
280
     0
102
RTVSPost2010PropOp34
 70
     1
102
RTVSPost2010Prop35
280
     0
102
RTVSPost2010PropOp35
 70
     1
102
RTVSPost2010Prop36
280
     0
102
RTVSPost2010PropOp36
 70
     1
102
RTVSPost2010Prop37
 90
       50
102
RTVSPost2010PropOp37
 70
     1
102
RTVSPost2010Prop38
140
0.0
102
RTVSPost2010PropOp38
 70
     1
102
RTVSPost2010Prop39
140
1.0
102
RTVSPost2010PropOp39
 70
     1
102
RTVSPost2010Prop40
 90
        0
102
RTVSPost2010PropOp40
 70
     1
102
RTVSPost2010Prop41ColorIndex
 90
       18
102
RTVSPost2010Prop41ColorRGB
 90
        0
102
RTVSPost2010PropOp41
 70
     1
102
RTVSPost2010Prop42
 90
       50
102
RTVSPost2010PropOp42
 70
     1
102
RTVSPost2010Prop43
 90
        3
102
RTVSPost2010PropOp43
 70
     1
102
RTVSPost2010Prop44ColorIndex
 90
        5
102
RTVSPost2010Prop44ColorRGB
 90
      255
102
RTVSPost2010PropOp44
 70
     1
102
RTVSPost2010Prop45
280
     0
102
RTVSPost2010PropOp45
 70
     1
102
RTVSPost2010Prop46
 90
       50
102
RTVSPost2010PropOp46
 70
     1
102
RTVSPost2010Prop47
 90
       50
102
RTVSPost2010PropOp47
 70
     1
102
RTVSPost2010Prop48
 90
       50
102
RTVSPost2010PropOp48
 70
     1
102
RTVSPost2010Prop49
280
     0
102
RTVSPost2010PropOp49
 70
     1
102
RTVSPost2010Prop50
 90
       50
102
RTVSPost2010PropOp50
 70
     1
102
RTVSPost2010Prop51ColorIndex
 90
      256
102
RTVSPost2010Prop51ColorRGB
 90
-16777216
102
RTVSPost2010PropOp51
 70
     0
102
RTVSPost2010Prop52
140
1.0
102
RTVSPost2010PropOp52
 70
     0
102
RTVSPost2010Prop53
 90
        2
102
RTVSPost2010PropOp53
 70
     1
102
RTVSPost2010Prop54
  1
strokes_ogs.tif
102
RTVSPost2010PropOp54
 70
     1
102
RTVSPost2010Prop55
280
     0
102
RTVSPost2010PropOp55
 70
     1
102
RTVSPost2010Prop56
140
1.0
102
RTVSPost2010PropOp56
 70
     1
102
RTVSPost2010Prop57
140
1.0
102
RTVSPost2010PropOp57
 70
     1
102
RTVSPropertyOp0
 70
     1
102
RTVSPropertyOp1
 70
     1
102
RTVSPropertyOp2
 70
     1
102
RTVSPropertyOp3
 70
     1
102
RTVSPropertyOp4
 70
     1
102
RTVSPropertyOp5
 70
     1
102
RTVSPropertyOp6
 70
     1
102
RTVSPropertyOp7
 70
     1
102
RTVSPropertyOp8
 70
     1
102
RTVSPropertyOp9
 70
     1
102
RTVSPropertyOp10
 70
     1
102
RTVSPropertyOp11
 70
     1
102
RTVSPropertyOp12
 70
     1
102
RTVSPropertyOp13
 70
     1
102
RTVSPropertyOp14
 70
     1
102
RTVSPropertyOp15
 70
     1
102
RTVSPropertyOp16
 70
     1
102
RTVSPropertyOp17
 70
     1
102
RTVSPropertyOp18
 70
     1
102
RTVSPropertyOp19
 70
     1
102
RTVSPropertyOp20
 70
     1
102
RTVSPropertyOp21
 70
     1
102
RTVSPropertyOp22
 70
     1
102
RTVSPropertyOp23
 70
     1
102
RTVSPropertyOp24
 70
     1
102
RTVSPropertyOp25
 70
     1
102
RTVSPropertyOp26
 70
     1
102
RTVSPropertyOp27
 70
     1
102
RTVSPropertyOp28
 70
     1
102
RTVSPropertyOp29
 70
     1
102
RTVSPropertyOp30
 70
     1
102
RTVSPropertyOp31
 70
     1
102
RTVSPropertyOp32
 70
     1
102
RTVSPropertyOp33
 70
     1
102
RTVSPropertyOp34
 70
     1
102
RTVSPropertyOp35
 70
     1
102
RTVSPropertyOp36
 70
     1
102
RTVSPropertyOp37
 70
     1
102
RTVSPropertyOp38
 70
     1
102
RTVSPropertyOp39
 70
     1
102
RTVSPropertyOp40
 70
     1
102
RTVSPropertyOp41
 70
     1
102
RTVSPropertyOp42
 70
     1
102
RTVSPropertyOp43
 70
     1
102
RTVSPropertyOp44
 70
     1
102
RTVSPropertyOp45
 70
     1
102
RTVSPropertyOp46
 70
     1
102
RTVSPropertyOp47
 70
     1
102
RTVSPropertyOp48
 70
     1
102
RTVSPropertyOp49
 70
     1
102
RTVSPropertyOp50
 70
     1
102
RTVSPropertyOp51
 70
     0
102
RTVSPropertyOp52
 70
     0
102
RTVSPropertyOp53
 70
     1
102
RTVSPropertyOp54
 70
     1
102
RTVSPropertyOp55
 70
     1
102
RTVSPropertyOp56
 70
     1
102
RTVSPropertyOp57
 70
     1
102
RTVSPropertyOp58
 70
     1
102
RTVSPropertyOp59
 70
     1
102
RTVSPropertyOp60
 70
     1
102
RTVSPropertyOp61
 70
     1
102
RTVSPropertyOp62
 70
     1
  0
XRECORD
  5
275A
102
{ACAD_REACTORS
330
2759
102
}
330
2759
100
AcDbXrecord
280
     1
102
RTVSPost2010Prop28
280
     0
102
RTVSPost2010PropOp28
 70
     1
102
RTVSPost2010Prop29
280
     1
102
RTVSPost2010PropOp29
 70
     1
102
RTVSPost2010Prop30
280
     1
102
RTVSPost2010PropOp30
 70
     1
102
RTVSPost2010Prop31
280
     0
102
RTVSPost2010PropOp31
 70
     1
102
RTVSPost2010Prop32
280
     0
102
RTVSPost2010PropOp32
 70
     1
102
RTVSPost2010Prop33
280
     0
102
RTVSPost2010PropOp33
 70
     1
102
RTVSPost2010Prop34
280
     0
102
RTVSPost2010PropOp34
 70
     1
102
RTVSPost2010Prop35
280
     0
102
RTVSPost2010PropOp35
 70
     1
102
RTVSPost2010Prop36
280
     0
102
RTVSPost2010PropOp36
 70
     1
102
RTVSPost2010Prop37
 90
       50
102
RTVSPost2010PropOp37
 70
     1
102
RTVSPost2010Prop38
140
0.0
102
RTVSPost2010PropOp38
 70
     1
102
RTVSPost2010Prop39
140
1.0
102
RTVSPost2010PropOp39
 70
     1
102
RTVSPost2010Prop40
 90
        0
102
RTVSPost2010PropOp40
 70
     1
102
RTVSPost2010Prop41ColorIndex
 90
       18
102
RTVSPost2010Prop41ColorRGB
 90
        0
102
RTVSPost2010PropOp41
 70
     1
102
RTVSPost2010Prop42
 90
       50
102
RTVSPost2010PropOp42
 70
     1
102
RTVSPost2010Prop43
 90
        3
102
RTVSPost2010PropOp43
 70
     1
102
RTVSPost2010Prop44ColorIndex
 90
        5
102
RTVSPost2010Prop44ColorRGB
 90
      255
102
RTVSPost2010PropOp44
 70
     1
102
RTVSPost2010Prop45
280
     0
102
RTVSPost2010PropOp45
 70
     1
102
RTVSPost2010Prop46
 90
       50
102
RTVSPost2010PropOp46
 70
     1
102
RTVSPost2010Prop47
 90
       50
102
RTVSPost2010PropOp47
 70
     1
102
RTVSPost2010Prop48
 90
       50
102
RTVSPost2010PropOp48
 70
     1
102
RTVSPost2010Prop49
280
     0
102
RTVSPost2010PropOp49
 70
     1
102
RTVSPost2010Prop50
 90
       50
102
RTVSPost2010PropOp50
 70
     1
102
RTVSPost2010Prop51ColorIndex
 90
      256
102
RTVSPost2010Prop51ColorRGB
 90
-16777216
102
RTVSPost2010PropOp51
 70
     0
102
RTVSPost2010Prop52
140
1.0
102
RTVSPost2010PropOp52
 70
     0
102
RTVSPost2010Prop53
 90
        2
102
RTVSPost2010PropOp53
 70
     1
102
RTVSPost2010Prop54
  1
strokes_ogs.tif
102
RTVSPost2010PropOp54
 70
     1
102
RTVSPost2010Prop55
280
     0
102
RTVSPost2010PropOp55
 70
     1
102
RTVSPost2010Prop56
140
1.0
102
RTVSPost2010PropOp56
 70
     1
102
RTVSPost2010Prop57
140
1.0
102
RTVSPost2010PropOp57
 70
     1
102
RTVSPropertyOp0
 70
     1
102
RTVSPropertyOp1
 70
     1
102
RTVSPropertyOp2
 70
     1
102
RTVSPropertyOp3
 70
     1
102
RTVSPropertyOp4
 70
     1
102
RTVSPropertyOp5
 70
     1
102
RTVSPropertyOp6
 70
     1
102
RTVSPropertyOp7
 70
     1
102
RTVSPropertyOp8
 70
     1
102
RTVSPropertyOp9
 70
     1
102
RTVSPropertyOp10
 70
     1
102
RTVSPropertyOp11
 70
     1
102
RTVSPropertyOp12
 70
     1
102
RTVSPropertyOp13
 70
     1
102
RTVSPropertyOp14
 70
     1
102
RTVSPropertyOp15
 70
     1
102
RTVSPropertyOp16
 70
     1
102
RTVSPropertyOp17
 70
     1
102
RTVSPropertyOp18
 70
     1
102
RTVSPropertyOp19
 70
     1
102
RTVSPropertyOp20
 70
     1
102
RTVSPropertyOp21
 70
     1
102
RTVSPropertyOp22
 70
     1
102
RTVSPropertyOp23
 70
     1
102
RTVSPropertyOp24
 70
     1
102
RTVSPropertyOp25
 70
     1
102
RTVSPropertyOp26
 70
     1
102
RTVSPropertyOp27
 70
     1
102
RTVSPropertyOp28
 70
     1
102
RTVSPropertyOp29
 70
     1
102
RTVSPropertyOp30
 70
     1
102
RTVSPropertyOp31
 70
     1
102
RTVSPropertyOp32
 70
     1
102
RTVSPropertyOp33
 70
     1
102
RTVSPropertyOp34
 70
     1
102
RTVSPropertyOp35
 70
     1
102
RTVSPropertyOp36
 70
     1
102
RTVSPropertyOp37
 70
     1
102
RTVSPropertyOp38
 70
     1
102
RTVSPropertyOp39
 70
     1
102
RTVSPropertyOp40
 70
     1
102
RTVSPropertyOp41
 70
     1
102
RTVSPropertyOp42
 70
     1
102
RTVSPropertyOp43
 70
     1
102
RTVSPropertyOp44
 70
     1
102
RTVSPropertyOp45
 70
     1
102
RTVSPropertyOp46
 70
     1
102
RTVSPropertyOp47
 70
     1
102
RTVSPropertyOp48
 70
     1
102
RTVSPropertyOp49
 70
     1
102
RTVSPropertyOp50
 70
     1
102
RTVSPropertyOp51
 70
     0
102
RTVSPropertyOp52
 70
     0
102
RTVSPropertyOp53
 70
     1
102
RTVSPropertyOp54
 70
     1
102
RTVSPropertyOp55
 70
     1
102
RTVSPropertyOp56
 70
     1
102
RTVSPropertyOp57
 70
     1
102
RTVSPropertyOp58
 70
     1
102
RTVSPropertyOp59
 70
     1
102
RTVSPropertyOp60
 70
     1
102
RTVSPropertyOp61
 70
     1
102
RTVSPropertyOp62
 70
     1
  0
XRECORD
  5
275E
102
{ACAD_REACTORS
330
275D
102
}
330
275D
100
AcDbXrecord
280
     1
102
RTVSPost2010Prop28
280
     0
102
RTVSPost2010PropOp28
 70
     1
102
RTVSPost2010Prop29
280
     1
102
RTVSPost2010PropOp29
 70
     1
102
RTVSPost2010Prop30
280
     1
102
RTVSPost2010PropOp30
 70
     1
102
RTVSPost2010Prop31
280
     0
102
RTVSPost2010PropOp31
 70
     1
102
RTVSPost2010Prop32
280
     0
102
RTVSPost2010PropOp32
 70
     1
102
RTVSPost2010Prop33
280
     0
102
RTVSPost2010PropOp33
 70
     1
102
RTVSPost2010Prop34
280
     0
102
RTVSPost2010PropOp34
 70
     1
102
RTVSPost2010Prop35
280
     0
102
RTVSPost2010PropOp35
 70
     1
102
RTVSPost2010Prop36
280
     0
102
RTVSPost2010PropOp36
 70
     1
102
RTVSPost2010Prop37
 90
       50
102
RTVSPost2010PropOp37
 70
     1
102
RTVSPost2010Prop38
140
0.0
102
RTVSPost2010PropOp38
 70
     1
102
RTVSPost2010Prop39
140
1.0
102
RTVSPost2010PropOp39
 70
     1
102
RTVSPost2010Prop40
 90
        0
102
RTVSPost2010PropOp40
 70
     1
102
RTVSPost2010Prop41ColorIndex
 90
       18
102
RTVSPost2010Prop41ColorRGB
 90
        0
102
RTVSPost2010PropOp41
 70
     1
102
RTVSPost2010Prop42
 90
       50
102
RTVSPost2010PropOp42
 70
     1
102
RTVSPost2010Prop43
 90
        3
102
RTVSPost2010PropOp43
 70
     1
102
RTVSPost2010Prop44ColorIndex
 90
        5
102
RTVSPost2010Prop44ColorRGB
 90
      255
102
RTVSPost2010PropOp44
 70
     1
102
RTVSPost2010Prop45
280
     0
102
RTVSPost2010PropOp45
 70
     1
102
RTVSPost2010Prop46
 90
       50
102
RTVSPost2010PropOp46
 70
     1
102
RTVSPost2010Prop47
 90
       50
102
RTVSPost2010PropOp47
 70
     1
102
RTVSPost2010Prop48
 90
       50
102
RTVSPost2010PropOp48
 70
     1
102
RTVSPost2010Prop49
280
     0
102
RTVSPost2010PropOp49
 70
     1
102
RTVSPost2010Prop50
 90
       50
102
RTVSPost2010PropOp50
 70
     1
102
RTVSPost2010Prop51ColorIndex
 90
      256
102
RTVSPost2010Prop51ColorRGB
 90
-16777216
102
RTVSPost2010PropOp51
 70
     0
102
RTVSPost2010Prop52
140
1.0
102
RTVSPost2010PropOp52
 70
     0
102
RTVSPost2010Prop53
 90
        2
102
RTVSPost2010PropOp53
 70
     1
102
RTVSPost2010Prop54
  1
strokes_ogs.tif
102
RTVSPost2010PropOp54
 70
     1
102
RTVSPost2010Prop55
280
     0
102
RTVSPost2010PropOp55
 70
     1
102
RTVSPost2010Prop56
140
1.0
102
RTVSPost2010PropOp56
 70
     1
102
RTVSPost2010Prop57
140
1.0
102
RTVSPost2010PropOp57
 70
     1
102
RTVSPropertyOp0
 70
     1
102
RTVSPropertyOp1
 70
     1
102
RTVSPropertyOp2
 70
     1
102
RTVSPropertyOp3
 70
     1
102
RTVSPropertyOp4
 70
     1
102
RTVSPropertyOp5
 70
     1
102
RTVSPropertyOp6
 70
     1
102
RTVSPropertyOp7
 70
     1
102
RTVSPropertyOp8
 70
     1
102
RTVSPropertyOp9
 70
     1
102
RTVSPropertyOp10
 70
     1
102
RTVSPropertyOp11
 70
     1
102
RTVSPropertyOp12
 70
     1
102
RTVSPropertyOp13
 70
     1
102
RTVSPropertyOp14
 70
     1
102
RTVSPropertyOp15
 70
     1
102
RTVSPropertyOp16
 70
     1
102
RTVSPropertyOp17
 70
     1
102
RTVSPropertyOp18
 70
     1
102
RTVSPropertyOp19
 70
     1
102
RTVSPropertyOp20
 70
     1
102
RTVSPropertyOp21
 70
     1
102
RTVSPropertyOp22
 70
     1
102
RTVSPropertyOp23
 70
     1
102
RTVSPropertyOp24
 70
     1
102
RTVSPropertyOp25
 70
     1
102
RTVSPropertyOp26
 70
     1
102
RTVSPropertyOp27
 70
     1
102
RTVSPropertyOp28
 70
     1
102
RTVSPropertyOp29
 70
     1
102
RTVSPropertyOp30
 70
     1
102
RTVSPropertyOp31
 70
     1
102
RTVSPropertyOp32
 70
     1
102
RTVSPropertyOp33
 70
     1
102
RTVSPropertyOp34
 70
     1
102
RTVSPropertyOp35
 70
     1
102
RTVSPropertyOp36
 70
     1
102
RTVSPropertyOp37
 70
     1
102
RTVSPropertyOp38
 70
     1
102
RTVSPropertyOp39
 70
     1
102
RTVSPropertyOp40
 70
     1
102
RTVSPropertyOp41
 70
     1
102
RTVSPropertyOp42
 70
     1
102
RTVSPropertyOp43
 70
     1
102
RTVSPropertyOp44
 70
     1
102
RTVSPropertyOp45
 70
     1
102
RTVSPropertyOp46
 70
     1
102
RTVSPropertyOp47
 70
     1
102
RTVSPropertyOp48
 70
     1
102
RTVSPropertyOp49
 70
     1
102
RTVSPropertyOp50
 70
     1
102
RTVSPropertyOp51
 70
     0
102
RTVSPropertyOp52
 70
     0
102
RTVSPropertyOp53
 70
     1
102
RTVSPropertyOp54
 70
     1
102
RTVSPropertyOp55
 70
     1
102
RTVSPropertyOp56
 70
     1
102
RTVSPropertyOp57
 70
     1
102
RTVSPropertyOp58
 70
     1
102
RTVSPropertyOp59
 70
     1
102
RTVSPropertyOp60
 70
     1
102
RTVSPropertyOp61
 70
     1
102
RTVSPropertyOp62
 70
     1
  0
XRECORD
  5
2770
102
{ACAD_REACTORS
330
276F
102
}
330
276F
100
AcDbXrecord
280
     1
102
RTVSPost2010Prop28
280
     0
102
RTVSPost2010PropOp28
 70
     1
102
RTVSPost2010Prop29
280
     1
102
RTVSPost2010PropOp29
 70
     1
102
RTVSPost2010Prop30
280
     1
102
RTVSPost2010PropOp30
 70
     1
102
RTVSPost2010Prop31
280
     0
102
RTVSPost2010PropOp31
 70
     1
102
RTVSPost2010Prop32
280
     0
102
RTVSPost2010PropOp32
 70
     1
102
RTVSPost2010Prop33
280
     0
102
RTVSPost2010PropOp33
 70
     1
102
RTVSPost2010Prop34
280
     0
102
RTVSPost2010PropOp34
 70
     1
102
RTVSPost2010Prop35
280
     0
102
RTVSPost2010PropOp35
 70
     1
102
RTVSPost2010Prop36
280
     0
102
RTVSPost2010PropOp36
 70
     1
102
RTVSPost2010Prop37
 90
       50
102
RTVSPost2010PropOp37
 70
     1
102
RTVSPost2010Prop38
140
0.0
102
RTVSPost2010PropOp38
 70
     1
102
RTVSPost2010Prop39
140
1.0
102
RTVSPost2010PropOp39
 70
     1
102
RTVSPost2010Prop40
 90
        0
102
RTVSPost2010PropOp40
 70
     1
102
RTVSPost2010Prop41ColorIndex
 90
       18
102
RTVSPost2010Prop41ColorRGB
 90
        0
102
RTVSPost2010PropOp41
 70
     1
102
RTVSPost2010Prop42
 90
       50
102
RTVSPost2010PropOp42
 70
     1
102
RTVSPost2010Prop43
 90
        3
102
RTVSPost2010PropOp43
 70
     1
102
RTVSPost2010Prop44ColorIndex
 90
        5
102
RTVSPost2010Prop44ColorRGB
 90
      255
102
RTVSPost2010PropOp44
 70
     1
102
RTVSPost2010Prop45
280
     0
102
RTVSPost2010PropOp45
 70
     1
102
RTVSPost2010Prop46
 90
       50
102
RTVSPost2010PropOp46
 70
     1
102
RTVSPost2010Prop47
 90
       50
102
RTVSPost2010PropOp47
 70
     1
102
RTVSPost2010Prop48
 90
       50
102
RTVSPost2010PropOp48
 70
     1
102
RTVSPost2010Prop49
280
     0
102
RTVSPost2010PropOp49
 70
     1
102
RTVSPost2010Prop50
 90
       50
102
RTVSPost2010PropOp50
 70
     1
102
RTVSPost2010Prop51ColorIndex
 90
      256
102
RTVSPost2010Prop51ColorRGB
 90
-16777216
102
RTVSPost2010PropOp51
 70
     0
102
RTVSPost2010Prop52
140
1.0
102
RTVSPost2010PropOp52
 70
     0
102
RTVSPost2010Prop53
 90
        2
102
RTVSPost2010PropOp53
 70
     1
102
RTVSPost2010Prop54
  1
strokes_ogs.tif
102
RTVSPost2010PropOp54
 70
     1
102
RTVSPost2010Prop55
280
     0
102
RTVSPost2010PropOp55
 70
     1
102
RTVSPost2010Prop56
140
1.0
102
RTVSPost2010PropOp56
 70
     1
102
RTVSPost2010Prop57
140
1.0
102
RTVSPost2010PropOp57
 70
     1
102
RTVSPropertyOp0
 70
     0
102
RTVSPropertyOp1
 70
     0
102
RTVSPropertyOp2
 70
     0
102
RTVSPropertyOp3
 70
     0
102
RTVSPropertyOp4
 70
     0
102
RTVSPropertyOp5
 70
     0
102
RTVSPropertyOp6
 70
     0
102
RTVSPropertyOp7
 70
     0
102
RTVSPropertyOp8
 70
     0
102
RTVSPropertyOp9
 70
     0
102
RTVSPropertyOp10
 70
     0
102
RTVSPropertyOp11
 70
     0
102
RTVSPropertyOp12
 70
     0
102
RTVSPropertyOp13
 70
     0
102
RTVSPropertyOp14
 70
     2
102
RTVSPropertyOp15
 70
     0
102
RTVSPropertyOp16
 70
     0
102
RTVSPropertyOp17
 70
     0
102
RTVSPropertyOp18
 70
     0
102
RTVSPropertyOp19
 70
     0
102
RTVSPropertyOp20
 70
     0
102
RTVSPropertyOp21
 70
     0
102
RTVSPropertyOp22
 70
     0
102
RTVSPropertyOp23
 70
     0
102
RTVSPropertyOp24
 70
     0
102
RTVSPropertyOp25
 70
     0
102
RTVSPropertyOp26
 70
     0
102
RTVSPropertyOp27
 70
     0
102
RTVSPropertyOp28
 70
     1
102
RTVSPropertyOp29
 70
     1
102
RTVSPropertyOp30
 70
     1
102
RTVSPropertyOp31
 70
     1
102
RTVSPropertyOp32
 70
     1
102
RTVSPropertyOp33
 70
     1
102
RTVSPropertyOp34
 70
     1
102
RTVSPropertyOp35
 70
     1
102
RTVSPropertyOp36
 70
     1
102
RTVSPropertyOp37
 70
     1
102
RTVSPropertyOp38
 70
     1
102
RTVSPropertyOp39
 70
     1
102
RTVSPropertyOp40
 70
     1
102
RTVSPropertyOp41
 70
     1
102
RTVSPropertyOp42
 70
     1
102
RTVSPropertyOp43
 70
     1
102
RTVSPropertyOp44
 70
     1
102
RTVSPropertyOp45
 70
     1
102
RTVSPropertyOp46
 70
     1
102
RTVSPropertyOp47
 70
     1
102
RTVSPropertyOp48
 70
     1
102
RTVSPropertyOp49
 70
     1
102
RTVSPropertyOp50
 70
     1
102
RTVSPropertyOp51
 70
     0
102
RTVSPropertyOp52
 70
     0
102
RTVSPropertyOp53
 70
     1
102
RTVSPropertyOp54
 70
     1
102
RTVSPropertyOp55
 70
     1
102
RTVSPropertyOp56
 70
     1
102
RTVSPropertyOp57
 70
     1
102
RTVSPropertyOp58
 70
     1
102
RTVSPropertyOp59
 70
     1
102
RTVSPropertyOp60
 70
     1
102
RTVSPropertyOp61
 70
     1
102
RTVSPropertyOp62
 70
     1
  0
XRECORD
  5
2766
102
{ACAD_REACTORS
330
2765
102
}
330
2765
100
AcDbXrecord
280
     1
102
RTVSPost2010Prop28
280
     0
102
RTVSPost2010PropOp28
 70
     1
102
RTVSPost2010Prop29
280
     1
102
RTVSPost2010PropOp29
 70
     1
102
RTVSPost2010Prop30
280
     1
102
RTVSPost2010PropOp30
 70
     1
102
RTVSPost2010Prop31
280
     0
102
RTVSPost2010PropOp31
 70
     1
102
RTVSPost2010Prop32
280
     0
102
RTVSPost2010PropOp32
 70
     1
102
RTVSPost2010Prop33
280
     0
102
RTVSPost2010PropOp33
 70
     1
102
RTVSPost2010Prop34
280
     0
102
RTVSPost2010PropOp34
 70
     1
102
RTVSPost2010Prop35
280
     0
102
RTVSPost2010PropOp35
 70
     1
102
RTVSPost2010Prop36
280
     0
102
RTVSPost2010PropOp36
 70
     1
102
RTVSPost2010Prop37
 90
       50
102
RTVSPost2010PropOp37
 70
     1
102
RTVSPost2010Prop38
140
0.0
102
RTVSPost2010PropOp38
 70
     1
102
RTVSPost2010Prop39
140
1.0
102
RTVSPost2010PropOp39
 70
     1
102
RTVSPost2010Prop40
 90
        0
102
RTVSPost2010PropOp40
 70
     1
102
RTVSPost2010Prop41ColorIndex
 90
       18
102
RTVSPost2010Prop41ColorRGB
 90
        0
102
RTVSPost2010PropOp41
 70
     1
102
RTVSPost2010Prop42
 90
       50
102
RTVSPost2010PropOp42
 70
     1
102
RTVSPost2010Prop43
 90
        3
102
RTVSPost2010PropOp43
 70
     1
102
RTVSPost2010Prop44ColorIndex
 90
        5
102
RTVSPost2010Prop44ColorRGB
 90
      255
102
RTVSPost2010PropOp44
 70
     1
102
RTVSPost2010Prop45
280
     0
102
RTVSPost2010PropOp45
 70
     1
102
RTVSPost2010Prop46
 90
       50
102
RTVSPost2010PropOp46
 70
     1
102
RTVSPost2010Prop47
 90
       50
102
RTVSPost2010PropOp47
 70
     1
102
RTVSPost2010Prop48
 90
       50
102
RTVSPost2010PropOp48
 70
     1
102
RTVSPost2010Prop49
280
     0
102
RTVSPost2010PropOp49
 70
     1
102
RTVSPost2010Prop50
 90
       50
102
RTVSPost2010PropOp50
 70
     1
102
RTVSPost2010Prop51ColorIndex
 90
      256
102
RTVSPost2010Prop51ColorRGB
 90
-16777216
102
RTVSPost2010PropOp51
 70
     0
102
RTVSPost2010Prop52
140
1.0
102
RTVSPost2010PropOp52
 70
     0
102
RTVSPost2010Prop53
 90
        2
102
RTVSPost2010PropOp53
 70
     1
102
RTVSPost2010Prop54
  1
strokes_ogs.tif
102
RTVSPost2010PropOp54
 70
     1
102
RTVSPost2010Prop55
280
     0
102
RTVSPost2010PropOp55
 70
     1
102
RTVSPost2010Prop56
140
1.0
102
RTVSPost2010PropOp56
 70
     1
102
RTVSPost2010Prop57
140
1.0
102
RTVSPost2010PropOp57
 70
     1
102
RTVSPropertyOp0
 70
     1
102
RTVSPropertyOp1
 70
     1
102
RTVSPropertyOp2
 70
     1
102
RTVSPropertyOp3
 70
     1
102
RTVSPropertyOp4
 70
     1
102
RTVSPropertyOp5
 70
     1
102
RTVSPropertyOp6
 70
     1
102
RTVSPropertyOp7
 70
     1
102
RTVSPropertyOp8
 70
     1
102
RTVSPropertyOp9
 70
     1
102
RTVSPropertyOp10
 70
     1
102
RTVSPropertyOp11
 70
     1
102
RTVSPropertyOp12
 70
     1
102
RTVSPropertyOp13
 70
     1
102
RTVSPropertyOp14
 70
     1
102
RTVSPropertyOp15
 70
     1
102
RTVSPropertyOp16
 70
     1
102
RTVSPropertyOp17
 70
     1
102
RTVSPropertyOp18
 70
     1
102
RTVSPropertyOp19
 70
     1
102
RTVSPropertyOp20
 70
     1
102
RTVSPropertyOp21
 70
     1
102
RTVSPropertyOp22
 70
     1
102
RTVSPropertyOp23
 70
     1
102
RTVSPropertyOp24
 70
     1
102
RTVSPropertyOp25
 70
     1
102
RTVSPropertyOp26
 70
     1
102
RTVSPropertyOp27
 70
     1
102
RTVSPropertyOp28
 70
     1
102
RTVSPropertyOp29
 70
     1
102
RTVSPropertyOp30
 70
     1
102
RTVSPropertyOp31
 70
     1
102
RTVSPropertyOp32
 70
     1
102
RTVSPropertyOp33
 70
     1
102
RTVSPropertyOp34
 70
     1
102
RTVSPropertyOp35
 70
     1
102
RTVSPropertyOp36
 70
     1
102
RTVSPropertyOp37
 70
     1
102
RTVSPropertyOp38
 70
     1
102
RTVSPropertyOp39
 70
     1
102
RTVSPropertyOp40
 70
     1
102
RTVSPropertyOp41
 70
     1
102
RTVSPropertyOp42
 70
     1
102
RTVSPropertyOp43
 70
     1
102
RTVSPropertyOp44
 70
     1
102
RTVSPropertyOp45
 70
     1
102
RTVSPropertyOp46
 70
     1
102
RTVSPropertyOp47
 70
     1
102
RTVSPropertyOp48
 70
     1
102
RTVSPropertyOp49
 70
     1
102
RTVSPropertyOp50
 70
     1
102
RTVSPropertyOp51
 70
     0
102
RTVSPropertyOp52
 70
     0
102
RTVSPropertyOp53
 70
     1
102
RTVSPropertyOp54
 70
     1
102
RTVSPropertyOp55
 70
     1
102
RTVSPropertyOp56
 70
     1
102
RTVSPropertyOp57
 70
     1
102
RTVSPropertyOp58
 70
     1
102
RTVSPropertyOp59
 70
     1
102
RTVSPropertyOp60
 70
     1
102
RTVSPropertyOp61
 70
     1
102
RTVSPropertyOp62
 70
     1
  0
XRECORD
  5
274A
102
{ACAD_REACTORS
330
2749
102
}
330
2749
100
AcDbXrecord
280
     1
102
RTVSPost2010Prop28
280
     0
102
RTVSPost2010PropOp28
 70
     1
102
RTVSPost2010Prop29
280
     1
102
RTVSPost2010PropOp29
 70
     1
102
RTVSPost2010Prop30
280
     1
102
RTVSPost2010PropOp30
 70
     1
102
RTVSPost2010Prop31
280
     0
102
RTVSPost2010PropOp31
 70
     1
102
RTVSPost2010Prop32
280
     0
102
RTVSPost2010PropOp32
 70
     1
102
RTVSPost2010Prop33
280
     0
102
RTVSPost2010PropOp33
 70
     1
102
RTVSPost2010Prop34
280
     0
102
RTVSPost2010PropOp34
 70
     1
102
RTVSPost2010Prop35
280
     0
102
RTVSPost2010PropOp35
 70
     1
102
RTVSPost2010Prop36
280
     0
102
RTVSPost2010PropOp36
 70
     1
102
RTVSPost2010Prop37
 90
       50
102
RTVSPost2010PropOp37
 70
     1
102
RTVSPost2010Prop38
140
0.0
102
RTVSPost2010PropOp38
 70
     1
102
RTVSPost2010Prop39
140
1.0
102
RTVSPost2010PropOp39
 70
     1
102
RTVSPost2010Prop40
 90
        0
102
RTVSPost2010PropOp40
 70
     1
102
RTVSPost2010Prop41ColorIndex
 90
       18
102
RTVSPost2010Prop41ColorRGB
 90
        0
102
RTVSPost2010PropOp41
 70
     1
102
RTVSPost2010Prop42
 90
       50
102
RTVSPost2010PropOp42
 70
     1
102
RTVSPost2010Prop43
 90
        3
102
RTVSPost2010PropOp43
 70
     1
102
RTVSPost2010Prop44ColorIndex
 90
        5
102
RTVSPost2010Prop44ColorRGB
 90
      255
102
RTVSPost2010PropOp44
 70
     1
102
RTVSPost2010Prop45
280
     0
102
RTVSPost2010PropOp45
 70
     1
102
RTVSPost2010Prop46
 90
       50
102
RTVSPost2010PropOp46
 70
     1
102
RTVSPost2010Prop47
 90
       50
102
RTVSPost2010PropOp47
 70
     1
102
RTVSPost2010Prop48
 90
       50
102
RTVSPost2010PropOp48
 70
     1
102
RTVSPost2010Prop49
280
     0
102
RTVSPost2010PropOp49
 70
     1
102
RTVSPost2010Prop50
 90
       50
102
RTVSPost2010PropOp50
 70
     1
102
RTVSPost2010Prop51ColorIndex
 90
      256
102
RTVSPost2010Prop51ColorRGB
 90
-16777216
102
RTVSPost2010PropOp51
 70
     0
102
RTVSPost2010Prop52
140
1.0
102
RTVSPost2010PropOp52
 70
     0
102
RTVSPost2010Prop53
 90
        2
102
RTVSPost2010PropOp53
 70
     1
102
RTVSPost2010Prop54
  1
strokes_ogs.tif
102
RTVSPost2010PropOp54
 70
     1
102
RTVSPost2010Prop55
280
     0
102
RTVSPost2010PropOp55
 70
     1
102
RTVSPost2010Prop56
140
1.0
102
RTVSPost2010PropOp56
 70
     1
102
RTVSPost2010Prop57
140
1.0
102
RTVSPost2010PropOp57
 70
     1
102
RTVSPropertyOp0
 70
     1
102
RTVSPropertyOp1
 70
     1
102
RTVSPropertyOp2
 70
     1
102
RTVSPropertyOp3
 70
     1
102
RTVSPropertyOp4
 70
     1
102
RTVSPropertyOp5
 70
     1
102
RTVSPropertyOp6
 70
     1
102
RTVSPropertyOp7
 70
     1
102
RTVSPropertyOp8
 70
     1
102
RTVSPropertyOp9
 70
     1
102
RTVSPropertyOp10
 70
     1
102
RTVSPropertyOp11
 70
     1
102
RTVSPropertyOp12
 70
     1
102
RTVSPropertyOp13
 70
     1
102
RTVSPropertyOp14
 70
     1
102
RTVSPropertyOp15
 70
     1
102
RTVSPropertyOp16
 70
     1
102
RTVSPropertyOp17
 70
     1
102
RTVSPropertyOp18
 70
     1
102
RTVSPropertyOp19
 70
     1
102
RTVSPropertyOp20
 70
     1
102
RTVSPropertyOp21
 70
     1
102
RTVSPropertyOp22
 70
     1
102
RTVSPropertyOp23
 70
     1
102
RTVSPropertyOp24
 70
     1
102
RTVSPropertyOp25
 70
     1
102
RTVSPropertyOp26
 70
     1
102
RTVSPropertyOp27
 70
     1
102
RTVSPropertyOp28
 70
     1
102
RTVSPropertyOp29
 70
     1
102
RTVSPropertyOp30
 70
     1
102
RTVSPropertyOp31
 70
     1
102
RTVSPropertyOp32
 70
     1
102
RTVSPropertyOp33
 70
     1
102
RTVSPropertyOp34
 70
     1
102
RTVSPropertyOp35
 70
     1
102
RTVSPropertyOp36
 70
     1
102
RTVSPropertyOp37
 70
     1
102
RTVSPropertyOp38
 70
     1
102
RTVSPropertyOp39
 70
     1
102
RTVSPropertyOp40
 70
     1
102
RTVSPropertyOp41
 70
     1
102
RTVSPropertyOp42
 70
     1
102
RTVSPropertyOp43
 70
     1
102
RTVSPropertyOp44
 70
     1
102
RTVSPropertyOp45
 70
     1
102
RTVSPropertyOp46
 70
     1
102
RTVSPropertyOp47
 70
     1
102
RTVSPropertyOp48
 70
     1
102
RTVSPropertyOp49
 70
     1
102
RTVSPropertyOp50
 70
     1
102
RTVSPropertyOp51
 70
     0
102
RTVSPropertyOp52
 70
     0
102
RTVSPropertyOp53
 70
     1
102
RTVSPropertyOp54
 70
     1
102
RTVSPropertyOp55
 70
     1
102
RTVSPropertyOp56
 70
     1
102
RTVSPropertyOp57
 70
     1
102
RTVSPropertyOp58
 70
     1
102
RTVSPropertyOp59
 70
     1
102
RTVSPropertyOp60
 70
     1
102
RTVSPropertyOp61
 70
     1
102
RTVSPropertyOp62
 70
     1
  0
XRECORD
  5
274C
102
{ACAD_REACTORS
330
274B
102
}
330
274B
100
AcDbXrecord
280
     1
102
RTVSPost2010Prop28
280
     0
102
RTVSPost2010PropOp28
 70
     1
102
RTVSPost2010Prop29
280
     1
102
RTVSPost2010PropOp29
 70
     1
102
RTVSPost2010Prop30
280
     1
102
RTVSPost2010PropOp30
 70
     1
102
RTVSPost2010Prop31
280
     0
102
RTVSPost2010PropOp31
 70
     1
102
RTVSPost2010Prop32
280
     0
102
RTVSPost2010PropOp32
 70
     1
102
RTVSPost2010Prop33
280
     0
102
RTVSPost2010PropOp33
 70
     1
102
RTVSPost2010Prop34
280
     0
102
RTVSPost2010PropOp34
 70
     1
102
RTVSPost2010Prop35
280
     0
102
RTVSPost2010PropOp35
 70
     1
102
RTVSPost2010Prop36
280
     0
102
RTVSPost2010PropOp36
 70
     1
102
RTVSPost2010Prop37
 90
       50
102
RTVSPost2010PropOp37
 70
     1
102
RTVSPost2010Prop38
140
0.0
102
RTVSPost2010PropOp38
 70
     1
102
RTVSPost2010Prop39
140
1.0
102
RTVSPost2010PropOp39
 70
     1
102
RTVSPost2010Prop40
 90
        0
102
RTVSPost2010PropOp40
 70
     1
102
RTVSPost2010Prop41ColorIndex
 90
       18
102
RTVSPost2010Prop41ColorRGB
 90
        0
102
RTVSPost2010PropOp41
 70
     1
102
RTVSPost2010Prop42
 90
       50
102
RTVSPost2010PropOp42
 70
     1
102
RTVSPost2010Prop43
 90
        3
102
RTVSPost2010PropOp43
 70
     1
102
RTVSPost2010Prop44ColorIndex
 90
        5
102
RTVSPost2010Prop44ColorRGB
 90
      255
102
RTVSPost2010PropOp44
 70
     1
102
RTVSPost2010Prop45
280
     0
102
RTVSPost2010PropOp45
 70
     1
102
RTVSPost2010Prop46
 90
       50
102
RTVSPost2010PropOp46
 70
     1
102
RTVSPost2010Prop47
 90
       50
102
RTVSPost2010PropOp47
 70
     1
102
RTVSPost2010Prop48
 90
       50
102
RTVSPost2010PropOp48
 70
     1
102
RTVSPost2010Prop49
280
     0
102
RTVSPost2010PropOp49
 70
     1
102
RTVSPost2010Prop50
 90
       50
102
RTVSPost2010PropOp50
 70
     1
102
RTVSPost2010Prop51ColorIndex
 90
      256
102
RTVSPost2010Prop51ColorRGB
 90
-16777216
102
RTVSPost2010PropOp51
 70
     0
102
RTVSPost2010Prop52
140
1.0
102
RTVSPost2010PropOp52
 70
     0
102
RTVSPost2010Prop53
 90
        2
102
RTVSPost2010PropOp53
 70
     1
102
RTVSPost2010Prop54
  1
strokes_ogs.tif
102
RTVSPost2010PropOp54
 70
     1
102
RTVSPost2010Prop55
280
     0
102
RTVSPost2010PropOp55
 70
     1
102
RTVSPost2010Prop56
140
1.0
102
RTVSPost2010PropOp56
 70
     1
102
RTVSPost2010Prop57
140
1.0
102
RTVSPost2010PropOp57
 70
     1
102
RTVSPropertyOp0
 70
     1
102
RTVSPropertyOp1
 70
     1
102
RTVSPropertyOp2
 70
     1
102
RTVSPropertyOp3
 70
     1
102
RTVSPropertyOp4
 70
     1
102
RTVSPropertyOp5
 70
     1
102
RTVSPropertyOp6
 70
     1
102
RTVSPropertyOp7
 70
     1
102
RTVSPropertyOp8
 70
     1
102
RTVSPropertyOp9
 70
     1
102
RTVSPropertyOp10
 70
     1
102
RTVSPropertyOp11
 70
     1
102
RTVSPropertyOp12
 70
     1
102
RTVSPropertyOp13
 70
     1
102
RTVSPropertyOp14
 70
     1
102
RTVSPropertyOp15
 70
     1
102
RTVSPropertyOp16
 70
     1
102
RTVSPropertyOp17
 70
     1
102
RTVSPropertyOp18
 70
     1
102
RTVSPropertyOp19
 70
     1
102
RTVSPropertyOp20
 70
     1
102
RTVSPropertyOp21
 70
     1
102
RTVSPropertyOp22
 70
     1
102
RTVSPropertyOp23
 70
     1
102
RTVSPropertyOp24
 70
     1
102
RTVSPropertyOp25
 70
     1
102
RTVSPropertyOp26
 70
     1
102
RTVSPropertyOp27
 70
     1
102
RTVSPropertyOp28
 70
     1
102
RTVSPropertyOp29
 70
     1
102
RTVSPropertyOp30
 70
     1
102
RTVSPropertyOp31
 70
     1
102
RTVSPropertyOp32
 70
     1
102
RTVSPropertyOp33
 70
     1
102
RTVSPropertyOp34
 70
     1
102
RTVSPropertyOp35
 70
     1
102
RTVSPropertyOp36
 70
     1
102
RTVSPropertyOp37
 70
     1
102
RTVSPropertyOp38
 70
     1
102
RTVSPropertyOp39
 70
     1
102
RTVSPropertyOp40
 70
     1
102
RTVSPropertyOp41
 70
     1
102
RTVSPropertyOp42
 70
     1
102
RTVSPropertyOp43
 70
     1
102
RTVSPropertyOp44
 70
     1
102
RTVSPropertyOp45
 70
     1
102
RTVSPropertyOp46
 70
     1
102
RTVSPropertyOp47
 70
     1
102
RTVSPropertyOp48
 70
     1
102
RTVSPropertyOp49
 70
     1
102
RTVSPropertyOp50
 70
     1
102
RTVSPropertyOp51
 70
     0
102
RTVSPropertyOp52
 70
     0
102
RTVSPropertyOp53
 70
     1
102
RTVSPropertyOp54
 70
     1
102
RTVSPropertyOp55
 70
     1
102
RTVSPropertyOp56
 70
     1
102
RTVSPropertyOp57
 70
     1
102
RTVSPropertyOp58
 70
     1
102
RTVSPropertyOp59
 70
     1
102
RTVSPropertyOp60
 70
     1
102
RTVSPropertyOp61
 70
     1
102
RTVSPropertyOp62
 70
     1
  0
XRECORD
  5
274E
102
{ACAD_REACTORS
330
274D
102
}
330
274D
100
AcDbXrecord
280
     1
102
RTVSPost2010Prop28
280
     0
102
RTVSPost2010PropOp28
 70
     1
102
RTVSPost2010Prop29
280
     1
102
RTVSPost2010PropOp29
 70
     1
102
RTVSPost2010Prop30
280
     1
102
RTVSPost2010PropOp30
 70
     1
102
RTVSPost2010Prop31
280
     0
102
RTVSPost2010PropOp31
 70
     1
102
RTVSPost2010Prop32
280
     0
102
RTVSPost2010PropOp32
 70
     1
102
RTVSPost2010Prop33
280
     0
102
RTVSPost2010PropOp33
 70
     1
102
RTVSPost2010Prop34
280
     0
102
RTVSPost2010PropOp34
 70
     1
102
RTVSPost2010Prop35
280
     0
102
RTVSPost2010PropOp35
 70
     1
102
RTVSPost2010Prop36
280
     0
102
RTVSPost2010PropOp36
 70
     1
102
RTVSPost2010Prop37
 90
       50
102
RTVSPost2010PropOp37
 70
     1
102
RTVSPost2010Prop38
140
0.0
102
RTVSPost2010PropOp38
 70
     1
102
RTVSPost2010Prop39
140
1.0
102
RTVSPost2010PropOp39
 70
     1
102
RTVSPost2010Prop40
 90
        0
102
RTVSPost2010PropOp40
 70
     1
102
RTVSPost2010Prop41ColorIndex
 90
       18
102
RTVSPost2010Prop41ColorRGB
 90
        0
102
RTVSPost2010PropOp41
 70
     1
102
RTVSPost2010Prop42
 90
       50
102
RTVSPost2010PropOp42
 70
     1
102
RTVSPost2010Prop43
 90
        3
102
RTVSPost2010PropOp43
 70
     1
102
RTVSPost2010Prop44ColorIndex
 90
        5
102
RTVSPost2010Prop44ColorRGB
 90
      255
102
RTVSPost2010PropOp44
 70
     1
102
RTVSPost2010Prop45
280
     0
102
RTVSPost2010PropOp45
 70
     1
102
RTVSPost2010Prop46
 90
       50
102
RTVSPost2010PropOp46
 70
     1
102
RTVSPost2010Prop47
 90
       50
102
RTVSPost2010PropOp47
 70
     1
102
RTVSPost2010Prop48
 90
       50
102
RTVSPost2010PropOp48
 70
     1
102
RTVSPost2010Prop49
280
     0
102
RTVSPost2010PropOp49
 70
     1
102
RTVSPost2010Prop50
 90
       50
102
RTVSPost2010PropOp50
 70
     1
102
RTVSPost2010Prop51ColorIndex
 90
      256
102
RTVSPost2010Prop51ColorRGB
 90
-16777216
102
RTVSPost2010PropOp51
 70
     0
102
RTVSPost2010Prop52
140
1.0
102
RTVSPost2010PropOp52
 70
     0
102
RTVSPost2010Prop53
 90
        2
102
RTVSPost2010PropOp53
 70
     1
102
RTVSPost2010Prop54
  1
strokes_ogs.tif
102
RTVSPost2010PropOp54
 70
     1
102
RTVSPost2010Prop55
280
     0
102
RTVSPost2010PropOp55
 70
     1
102
RTVSPost2010Prop56
140
1.0
102
RTVSPost2010PropOp56
 70
     1
102
RTVSPost2010Prop57
140
1.0
102
RTVSPost2010PropOp57
 70
     1
102
RTVSPropertyOp0
 70
     1
102
RTVSPropertyOp1
 70
     1
102
RTVSPropertyOp2
 70
     1
102
RTVSPropertyOp3
 70
     1
102
RTVSPropertyOp4
 70
     1
102
RTVSPropertyOp5
 70
     1
102
RTVSPropertyOp6
 70
     1
102
RTVSPropertyOp7
 70
     1
102
RTVSPropertyOp8
 70
     1
102
RTVSPropertyOp9
 70
     1
102
RTVSPropertyOp10
 70
     1
102
RTVSPropertyOp11
 70
     1
102
RTVSPropertyOp12
 70
     1
102
RTVSPropertyOp13
 70
     1
102
RTVSPropertyOp14
 70
     1
102
RTVSPropertyOp15
 70
     1
102
RTVSPropertyOp16
 70
     1
102
RTVSPropertyOp17
 70
     1
102
RTVSPropertyOp18
 70
     1
102
RTVSPropertyOp19
 70
     1
102
RTVSPropertyOp20
 70
     1
102
RTVSPropertyOp21
 70
     1
102
RTVSPropertyOp22
 70
     1
102
RTVSPropertyOp23
 70
     1
102
RTVSPropertyOp24
 70
     1
102
RTVSPropertyOp25
 70
     1
102
RTVSPropertyOp26
 70
     1
102
RTVSPropertyOp27
 70
     1
102
RTVSPropertyOp28
 70
     1
102
RTVSPropertyOp29
 70
     1
102
RTVSPropertyOp30
 70
     1
102
RTVSPropertyOp31
 70
     1
102
RTVSPropertyOp32
 70
     1
102
RTVSPropertyOp33
 70
     1
102
RTVSPropertyOp34
 70
     1
102
RTVSPropertyOp35
 70
     1
102
RTVSPropertyOp36
 70
     1
102
RTVSPropertyOp37
 70
     1
102
RTVSPropertyOp38
 70
     1
102
RTVSPropertyOp39
 70
     1
102
RTVSPropertyOp40
 70
     1
102
RTVSPropertyOp41
 70
     1
102
RTVSPropertyOp42
 70
     1
102
RTVSPropertyOp43
 70
     1
102
RTVSPropertyOp44
 70
     1
102
RTVSPropertyOp45
 70
     1
102
RTVSPropertyOp46
 70
     1
102
RTVSPropertyOp47
 70
     1
102
RTVSPropertyOp48
 70
     1
102
RTVSPropertyOp49
 70
     1
102
RTVSPropertyOp50
 70
     1
102
RTVSPropertyOp51
 70
     0
102
RTVSPropertyOp52
 70
     0
102
RTVSPropertyOp53
 70
     1
102
RTVSPropertyOp54
 70
     1
102
RTVSPropertyOp55
 70
     1
102
RTVSPropertyOp56
 70
     1
102
RTVSPropertyOp57
 70
     1
102
RTVSPropertyOp58
 70
     1
102
RTVSPropertyOp59
 70
     1
102
RTVSPropertyOp60
 70
     1
102
RTVSPropertyOp61
 70
     1
102
RTVSPropertyOp62
 70
     1
  0
XRECORD
  5
2750
102
{ACAD_REACTORS
330
274F
102
}
330
274F
100
AcDbXrecord
280
     1
102
RTVSPost2010Prop28
280
     0
102
RTVSPost2010PropOp28
 70
     1
102
RTVSPost2010Prop29
280
     1
102
RTVSPost2010PropOp29
 70
     1
102
RTVSPost2010Prop30
280
     1
102
RTVSPost2010PropOp30
 70
     1
102
RTVSPost2010Prop31
280
     0
102
RTVSPost2010PropOp31
 70
     1
102
RTVSPost2010Prop32
280
     0
102
RTVSPost2010PropOp32
 70
     1
102
RTVSPost2010Prop33
280
     0
102
RTVSPost2010PropOp33
 70
     1
102
RTVSPost2010Prop34
280
     0
102
RTVSPost2010PropOp34
 70
     1
102
RTVSPost2010Prop35
280
     0
102
RTVSPost2010PropOp35
 70
     1
102
RTVSPost2010Prop36
280
     0
102
RTVSPost2010PropOp36
 70
     1
102
RTVSPost2010Prop37
 90
       50
102
RTVSPost2010PropOp37
 70
     1
102
RTVSPost2010Prop38
140
0.0
102
RTVSPost2010PropOp38
 70
     1
102
RTVSPost2010Prop39
140
1.0
102
RTVSPost2010PropOp39
 70
     1
102
RTVSPost2010Prop40
 90
        0
102
RTVSPost2010PropOp40
 70
     1
102
RTVSPost2010Prop41ColorIndex
 90
       18
102
RTVSPost2010Prop41ColorRGB
 90
        0
102
RTVSPost2010PropOp41
 70
     1
102
RTVSPost2010Prop42
 90
       50
102
RTVSPost2010PropOp42
 70
     1
102
RTVSPost2010Prop43
 90
        3
102
RTVSPost2010PropOp43
 70
     1
102
RTVSPost2010Prop44ColorIndex
 90
        5
102
RTVSPost2010Prop44ColorRGB
 90
      255
102
RTVSPost2010PropOp44
 70
     1
102
RTVSPost2010Prop45
280
     0
102
RTVSPost2010PropOp45
 70
     1
102
RTVSPost2010Prop46
 90
       50
102
RTVSPost2010PropOp46
 70
     1
102
RTVSPost2010Prop47
 90
       50
102
RTVSPost2010PropOp47
 70
     1
102
RTVSPost2010Prop48
 90
       50
102
RTVSPost2010PropOp48
 70
     1
102
RTVSPost2010Prop49
280
     0
102
RTVSPost2010PropOp49
 70
     1
102
RTVSPost2010Prop50
 90
       50
102
RTVSPost2010PropOp50
 70
     1
102
RTVSPost2010Prop51ColorIndex
 90
      256
102
RTVSPost2010Prop51ColorRGB
 90
-16777216
102
RTVSPost2010PropOp51
 70
     0
102
RTVSPost2010Prop52
140
1.0
102
RTVSPost2010PropOp52
 70
     0
102
RTVSPost2010Prop53
 90
        2
102
RTVSPost2010PropOp53
 70
     1
102
RTVSPost2010Prop54
  1
strokes_ogs.tif
102
RTVSPost2010PropOp54
 70
     1
102
RTVSPost2010Prop55
280
     0
102
RTVSPost2010PropOp55
 70
     1
102
RTVSPost2010Prop56
140
1.0
102
RTVSPost2010PropOp56
 70
     1
102
RTVSPost2010Prop57
140
1.0
102
RTVSPost2010PropOp57
 70
     1
102
RTVSPropertyOp0
 70
     1
102
RTVSPropertyOp1
 70
     1
102
RTVSPropertyOp2
 70
     1
102
RTVSPropertyOp3
 70
     1
102
RTVSPropertyOp4
 70
     1
102
RTVSPropertyOp5
 70
     1
102
RTVSPropertyOp6
 70
     1
102
RTVSPropertyOp7
 70
     1
102
RTVSPropertyOp8
 70
     1
102
RTVSPropertyOp9
 70
     1
102
RTVSPropertyOp10
 70
     1
102
RTVSPropertyOp11
 70
     1
102
RTVSPropertyOp12
 70
     1
102
RTVSPropertyOp13
 70
     1
102
RTVSPropertyOp14
 70
     1
102
RTVSPropertyOp15
 70
     1
102
RTVSPropertyOp16
 70
     1
102
RTVSPropertyOp17
 70
     1
102
RTVSPropertyOp18
 70
     1
102
RTVSPropertyOp19
 70
     1
102
RTVSPropertyOp20
 70
     1
102
RTVSPropertyOp21
 70
     1
102
RTVSPropertyOp22
 70
     1
102
RTVSPropertyOp23
 70
     1
102
RTVSPropertyOp24
 70
     1
102
RTVSPropertyOp25
 70
     1
102
RTVSPropertyOp26
 70
     1
102
RTVSPropertyOp27
 70
     1
102
RTVSPropertyOp28
 70
     1
102
RTVSPropertyOp29
 70
     1
102
RTVSPropertyOp30
 70
     1
102
RTVSPropertyOp31
 70
     1
102
RTVSPropertyOp32
 70
     1
102
RTVSPropertyOp33
 70
     1
102
RTVSPropertyOp34
 70
     1
102
RTVSPropertyOp35
 70
     1
102
RTVSPropertyOp36
 70
     1
102
RTVSPropertyOp37
 70
     1
102
RTVSPropertyOp38
 70
     1
102
RTVSPropertyOp39
 70
     1
102
RTVSPropertyOp40
 70
     1
102
RTVSPropertyOp41
 70
     1
102
RTVSPropertyOp42
 70
     1
102
RTVSPropertyOp43
 70
     1
102
RTVSPropertyOp44
 70
     1
102
RTVSPropertyOp45
 70
     1
102
RTVSPropertyOp46
 70
     1
102
RTVSPropertyOp47
 70
     1
102
RTVSPropertyOp48
 70
     1
102
RTVSPropertyOp49
 70
     1
102
RTVSPropertyOp50
 70
     1
102
RTVSPropertyOp51
 70
     0
102
RTVSPropertyOp52
 70
     0
102
RTVSPropertyOp53
 70
     1
102
RTVSPropertyOp54
 70
     1
102
RTVSPropertyOp55
 70
     1
102
RTVSPropertyOp56
 70
     1
102
RTVSPropertyOp57
 70
     1
102
RTVSPropertyOp58
 70
     1
102
RTVSPropertyOp59
 70
     1
102
RTVSPropertyOp60
 70
     1
102
RTVSPropertyOp61
 70
     1
102
RTVSPropertyOp62
 70
     1
  0
XRECORD
  5
2758
102
{ACAD_REACTORS
330
2757
102
}
330
2757
100
AcDbXrecord
280
     1
102
RTVSPost2010Prop28
280
     0
102
RTVSPost2010PropOp28
 70
     1
102
RTVSPost2010Prop29
280
     1
102
RTVSPost2010PropOp29
 70
     1
102
RTVSPost2010Prop30
280
     1
102
RTVSPost2010PropOp30
 70
     1
102
RTVSPost2010Prop31
280
     0
102
RTVSPost2010PropOp31
 70
     1
102
RTVSPost2010Prop32
280
     0
102
RTVSPost2010PropOp32
 70
     1
102
RTVSPost2010Prop33
280
     0
102
RTVSPost2010PropOp33
 70
     1
102
RTVSPost2010Prop34
280
     0
102
RTVSPost2010PropOp34
 70
     1
102
RTVSPost2010Prop35
280
     0
102
RTVSPost2010PropOp35
 70
     1
102
RTVSPost2010Prop36
280
     0
102
RTVSPost2010PropOp36
 70
     1
102
RTVSPost2010Prop37
 90
       50
102
RTVSPost2010PropOp37
 70
     1
102
RTVSPost2010Prop38
140
0.0
102
RTVSPost2010PropOp38
 70
     1
102
RTVSPost2010Prop39
140
1.0
102
RTVSPost2010PropOp39
 70
     1
102
RTVSPost2010Prop40
 90
        0
102
RTVSPost2010PropOp40
 70
     1
102
RTVSPost2010Prop41ColorIndex
 90
       18
102
RTVSPost2010Prop41ColorRGB
 90
        0
102
RTVSPost2010PropOp41
 70
     1
102
RTVSPost2010Prop42
 90
       50
102
RTVSPost2010PropOp42
 70
     1
102
RTVSPost2010Prop43
 90
        3
102
RTVSPost2010PropOp43
 70
     1
102
RTVSPost2010Prop44ColorIndex
 90
        5
102
RTVSPost2010Prop44ColorRGB
 90
      255
102
RTVSPost2010PropOp44
 70
     1
102
RTVSPost2010Prop45
280
     0
102
RTVSPost2010PropOp45
 70
     1
102
RTVSPost2010Prop46
 90
       50
102
RTVSPost2010PropOp46
 70
     1
102
RTVSPost2010Prop47
 90
       50
102
RTVSPost2010PropOp47
 70
     1
102
RTVSPost2010Prop48
 90
       50
102
RTVSPost2010PropOp48
 70
     1
102
RTVSPost2010Prop49
280
     0
102
RTVSPost2010PropOp49
 70
     1
102
RTVSPost2010Prop50
 90
       50
102
RTVSPost2010PropOp50
 70
     1
102
RTVSPost2010Prop51ColorIndex
 90
      256
102
RTVSPost2010Prop51ColorRGB
 90
-16777216
102
RTVSPost2010PropOp51
 70
     0
102
RTVSPost2010Prop52
140
1.0
102
RTVSPost2010PropOp52
 70
     0
102
RTVSPost2010Prop53
 90
        2
102
RTVSPost2010PropOp53
 70
     1
102
RTVSPost2010Prop54
  1
strokes_ogs.tif
102
RTVSPost2010PropOp54
 70
     1
102
RTVSPost2010Prop55
280
     0
102
RTVSPost2010PropOp55
 70
     1
102
RTVSPost2010Prop56
140
1.0
102
RTVSPost2010PropOp56
 70
     1
102
RTVSPost2010Prop57
140
1.0
102
RTVSPost2010PropOp57
 70
     1
102
RTVSPropertyOp0
 70
     1
102
RTVSPropertyOp1
 70
     1
102
RTVSPropertyOp2
 70
     1
102
RTVSPropertyOp3
 70
     1
102
RTVSPropertyOp4
 70
     1
102
RTVSPropertyOp5
 70
     1
102
RTVSPropertyOp6
 70
     1
102
RTVSPropertyOp7
 70
     1
102
RTVSPropertyOp8
 70
     1
102
RTVSPropertyOp9
 70
     1
102
RTVSPropertyOp10
 70
     1
102
RTVSPropertyOp11
 70
     1
102
RTVSPropertyOp12
 70
     1
102
RTVSPropertyOp13
 70
     1
102
RTVSPropertyOp14
 70
     1
102
RTVSPropertyOp15
 70
     1
102
RTVSPropertyOp16
 70
     1
102
RTVSPropertyOp17
 70
     1
102
RTVSPropertyOp18
 70
     1
102
RTVSPropertyOp19
 70
     1
102
RTVSPropertyOp20
 70
     1
102
RTVSPropertyOp21
 70
     1
102
RTVSPropertyOp22
 70
     1
102
RTVSPropertyOp23
 70
     1
102
RTVSPropertyOp24
 70
     1
102
RTVSPropertyOp25
 70
     1
102
RTVSPropertyOp26
 70
     1
102
RTVSPropertyOp27
 70
     1
102
RTVSPropertyOp28
 70
     1
102
RTVSPropertyOp29
 70
     1
102
RTVSPropertyOp30
 70
     1
102
RTVSPropertyOp31
 70
     1
102
RTVSPropertyOp32
 70
     1
102
RTVSPropertyOp33
 70
     1
102
RTVSPropertyOp34
 70
     1
102
RTVSPropertyOp35
 70
     1
102
RTVSPropertyOp36
 70
     1
102
RTVSPropertyOp37
 70
     1
102
RTVSPropertyOp38
 70
     1
102
RTVSPropertyOp39
 70
     1
102
RTVSPropertyOp40
 70
     1
102
RTVSPropertyOp41
 70
     1
102
RTVSPropertyOp42
 70
     1
102
RTVSPropertyOp43
 70
     1
102
RTVSPropertyOp44
 70
     1
102
RTVSPropertyOp45
 70
     1
102
RTVSPropertyOp46
 70
     1
102
RTVSPropertyOp47
 70
     1
102
RTVSPropertyOp48
 70
     1
102
RTVSPropertyOp49
 70
     1
102
RTVSPropertyOp50
 70
     1
102
RTVSPropertyOp51
 70
     0
102
RTVSPropertyOp52
 70
     0
102
RTVSPropertyOp53
 70
     1
102
RTVSPropertyOp54
 70
     1
102
RTVSPropertyOp55
 70
     1
102
RTVSPropertyOp56
 70
     1
102
RTVSPropertyOp57
 70
     1
102
RTVSPropertyOp58
 70
     1
102
RTVSPropertyOp59
 70
     1
102
RTVSPropertyOp60
 70
     1
102
RTVSPropertyOp61
 70
     1
102
RTVSPropertyOp62
 70
     1
  0
XRECORD
  5
276C
102
{ACAD_REACTORS
330
276B
102
}
330
276B
100
AcDbXrecord
280
     1
102
RTVSPost2010Prop28
280
     0
102
RTVSPost2010PropOp28
 70
     1
102
RTVSPost2010Prop29
280
     1
102
RTVSPost2010PropOp29
 70
     1
102
RTVSPost2010Prop30
280
     1
102
RTVSPost2010PropOp30
 70
     1
102
RTVSPost2010Prop31
280
     0
102
RTVSPost2010PropOp31
 70
     1
102
RTVSPost2010Prop32
280
     0
102
RTVSPost2010PropOp32
 70
     1
102
RTVSPost2010Prop33
280
     0
102
RTVSPost2010PropOp33
 70
     1
102
RTVSPost2010Prop34
280
     0
102
RTVSPost2010PropOp34
 70
     1
102
RTVSPost2010Prop35
280
     0
102
RTVSPost2010PropOp35
 70
     1
102
RTVSPost2010Prop36
280
     0
102
RTVSPost2010PropOp36
 70
     1
102
RTVSPost2010Prop37
 90
       50
102
RTVSPost2010PropOp37
 70
     1
102
RTVSPost2010Prop38
140
0.0
102
RTVSPost2010PropOp38
 70
     1
102
RTVSPost2010Prop39
140
1.0
102
RTVSPost2010PropOp39
 70
     1
102
RTVSPost2010Prop40
 90
        0
102
RTVSPost2010PropOp40
 70
     1
102
RTVSPost2010Prop41ColorIndex
 90
       18
102
RTVSPost2010Prop41ColorRGB
 90
        0
102
RTVSPost2010PropOp41
 70
     1
102
RTVSPost2010Prop42
 90
       50
102
RTVSPost2010PropOp42
 70
     1
102
RTVSPost2010Prop43
 90
        3
102
RTVSPost2010PropOp43
 70
     1
102
RTVSPost2010Prop44ColorIndex
 90
        5
102
RTVSPost2010Prop44ColorRGB
 90
      255
102
RTVSPost2010PropOp44
 70
     1
102
RTVSPost2010Prop45
280
     0
102
RTVSPost2010PropOp45
 70
     1
102
RTVSPost2010Prop46
 90
       50
102
RTVSPost2010PropOp46
 70
     1
102
RTVSPost2010Prop47
 90
       50
102
RTVSPost2010PropOp47
 70
     1
102
RTVSPost2010Prop48
 90
       50
102
RTVSPost2010PropOp48
 70
     1
102
RTVSPost2010Prop49
280
     0
102
RTVSPost2010PropOp49
 70
     1
102
RTVSPost2010Prop50
 90
       50
102
RTVSPost2010PropOp50
 70
     1
102
RTVSPost2010Prop51ColorIndex
 90
      256
102
RTVSPost2010Prop51ColorRGB
 90
-16777216
102
RTVSPost2010PropOp51
 70
     0
102
RTVSPost2010Prop52
140
1.0
102
RTVSPost2010PropOp52
 70
     0
102
RTVSPost2010Prop53
 90
        2
102
RTVSPost2010PropOp53
 70
     1
102
RTVSPost2010Prop54
  1
strokes_ogs.tif
102
RTVSPost2010PropOp54
 70
     1
102
RTVSPost2010Prop55
280
     0
102
RTVSPost2010PropOp55
 70
     1
102
RTVSPost2010Prop56
140
1.0
102
RTVSPost2010PropOp56
 70
     1
102
RTVSPost2010Prop57
140
1.0
102
RTVSPost2010PropOp57
 70
     1
102
RTVSPropertyOp0
 70
     0
102
RTVSPropertyOp1
 70
     0
102
RTVSPropertyOp2
 70
     0
102
RTVSPropertyOp3
 70
     0
102
RTVSPropertyOp4
 70
     0
102
RTVSPropertyOp5
 70
     0
102
RTVSPropertyOp6
 70
     0
102
RTVSPropertyOp7
 70
     0
102
RTVSPropertyOp8
 70
     0
102
RTVSPropertyOp9
 70
     0
102
RTVSPropertyOp10
 70
     0
102
RTVSPropertyOp11
 70
     0
102
RTVSPropertyOp12
 70
     0
102
RTVSPropertyOp13
 70
     0
102
RTVSPropertyOp14
 70
     2
102
RTVSPropertyOp15
 70
     0
102
RTVSPropertyOp16
 70
     0
102
RTVSPropertyOp17
 70
     0
102
RTVSPropertyOp18
 70
     0
102
RTVSPropertyOp19
 70
     0
102
RTVSPropertyOp20
 70
     0
102
RTVSPropertyOp21
 70
     0
102
RTVSPropertyOp22
 70
     0
102
RTVSPropertyOp23
 70
     0
102
RTVSPropertyOp24
 70
     0
102
RTVSPropertyOp25
 70
     0
102
RTVSPropertyOp26
 70
     0
102
RTVSPropertyOp27
 70
     0
102
RTVSPropertyOp28
 70
     1
102
RTVSPropertyOp29
 70
     1
102
RTVSPropertyOp30
 70
     1
102
RTVSPropertyOp31
 70
     1
102
RTVSPropertyOp32
 70
     1
102
RTVSPropertyOp33
 70
     1
102
RTVSPropertyOp34
 70
     1
102
RTVSPropertyOp35
 70
     1
102
RTVSPropertyOp36
 70
     1
102
RTVSPropertyOp37
 70
     1
102
RTVSPropertyOp38
 70
     1
102
RTVSPropertyOp39
 70
     1
102
RTVSPropertyOp40
 70
     1
102
RTVSPropertyOp41
 70
     1
102
RTVSPropertyOp42
 70
     1
102
RTVSPropertyOp43
 70
     1
102
RTVSPropertyOp44
 70
     1
102
RTVSPropertyOp45
 70
     1
102
RTVSPropertyOp46
 70
     1
102
RTVSPropertyOp47
 70
     1
102
RTVSPropertyOp48
 70
     1
102
RTVSPropertyOp49
 70
     1
102
RTVSPropertyOp50
 70
     1
102
RTVSPropertyOp51
 70
     0
102
RTVSPropertyOp52
 70
     0
102
RTVSPropertyOp53
 70
     1
102
RTVSPropertyOp54
 70
     1
102
RTVSPropertyOp55
 70
     1
102
RTVSPropertyOp56
 70
     1
102
RTVSPropertyOp57
 70
     1
102
RTVSPropertyOp58
 70
     1
102
RTVSPropertyOp59
 70
     1
102
RTVSPropertyOp60
 70
     1
102
RTVSPropertyOp61
 70
     1
102
RTVSPropertyOp62
 70
     1
  0
XRECORD
  5
2764
102
{ACAD_REACTORS
330
2763
102
}
330
2763
100
AcDbXrecord
280
     1
102
RTVSPost2010Prop28
280
     0
102
RTVSPost2010PropOp28
 70
     1
102
RTVSPost2010Prop29
280
     1
102
RTVSPost2010PropOp29
 70
     1
102
RTVSPost2010Prop30
280
     1
102
RTVSPost2010PropOp30
 70
     1
102
RTVSPost2010Prop31
280
     0
102
RTVSPost2010PropOp31
 70
     1
102
RTVSPost2010Prop32
280
     0
102
RTVSPost2010PropOp32
 70
     1
102
RTVSPost2010Prop33
280
     0
102
RTVSPost2010PropOp33
 70
     1
102
RTVSPost2010Prop34
280
     0
102
RTVSPost2010PropOp34
 70
     1
102
RTVSPost2010Prop35
280
     0
102
RTVSPost2010PropOp35
 70
     1
102
RTVSPost2010Prop36
280
     0
102
RTVSPost2010PropOp36
 70
     1
102
RTVSPost2010Prop37
 90
       50
102
RTVSPost2010PropOp37
 70
     1
102
RTVSPost2010Prop38
140
0.0
102
RTVSPost2010PropOp38
 70
     1
102
RTVSPost2010Prop39
140
1.0
102
RTVSPost2010PropOp39
 70
     1
102
RTVSPost2010Prop40
 90
        0
102
RTVSPost2010PropOp40
 70
     1
102
RTVSPost2010Prop41ColorIndex
 90
       18
102
RTVSPost2010Prop41ColorRGB
 90
        0
102
RTVSPost2010PropOp41
 70
     1
102
RTVSPost2010Prop42
 90
       50
102
RTVSPost2010PropOp42
 70
     1
102
RTVSPost2010Prop43
 90
        3
102
RTVSPost2010PropOp43
 70
     1
102
RTVSPost2010Prop44ColorIndex
 90
        5
102
RTVSPost2010Prop44ColorRGB
 90
      255
102
RTVSPost2010PropOp44
 70
     1
102
RTVSPost2010Prop45
280
     0
102
RTVSPost2010PropOp45
 70
     1
102
RTVSPost2010Prop46
 90
       50
102
RTVSPost2010PropOp46
 70
     1
102
RTVSPost2010Prop47
 90
       50
102
RTVSPost2010PropOp47
 70
     1
102
RTVSPost2010Prop48
 90
       50
102
RTVSPost2010PropOp48
 70
     1
102
RTVSPost2010Prop49
280
     0
102
RTVSPost2010PropOp49
 70
     1
102
RTVSPost2010Prop50
 90
       50
102
RTVSPost2010PropOp50
 70
     1
102
RTVSPost2010Prop51ColorIndex
 90
      256
102
RTVSPost2010Prop51ColorRGB
 90
-16777216
102
RTVSPost2010PropOp51
 70
     0
102
RTVSPost2010Prop52
140
1.0
102
RTVSPost2010PropOp52
 70
     0
102
RTVSPost2010Prop53
 90
        2
102
RTVSPost2010PropOp53
 70
     1
102
RTVSPost2010Prop54
  1
strokes_ogs.tif
102
RTVSPost2010PropOp54
 70
     1
102
RTVSPost2010Prop55
280
     0
102
RTVSPost2010PropOp55
 70
     1
102
RTVSPost2010Prop56
140
1.0
102
RTVSPost2010PropOp56
 70
     1
102
RTVSPost2010Prop57
140
1.0
102
RTVSPost2010PropOp57
 70
     1
102
RTVSPropertyOp0
 70
     1
102
RTVSPropertyOp1
 70
     1
102
RTVSPropertyOp2
 70
     1
102
RTVSPropertyOp3
 70
     1
102
RTVSPropertyOp4
 70
     1
102
RTVSPropertyOp5
 70
     1
102
RTVSPropertyOp6
 70
     1
102
RTVSPropertyOp7
 70
     1
102
RTVSPropertyOp8
 70
     1
102
RTVSPropertyOp9
 70
     1
102
RTVSPropertyOp10
 70
     1
102
RTVSPropertyOp11
 70
     1
102
RTVSPropertyOp12
 70
     1
102
RTVSPropertyOp13
 70
     1
102
RTVSPropertyOp14
 70
     1
102
RTVSPropertyOp15
 70
     1
102
RTVSPropertyOp16
 70
     1
102
RTVSPropertyOp17
 70
     1
102
RTVSPropertyOp18
 70
     1
102
RTVSPropertyOp19
 70
     1
102
RTVSPropertyOp20
 70
     1
102
RTVSPropertyOp21
 70
     1
102
RTVSPropertyOp22
 70
     1
102
RTVSPropertyOp23
 70
     1
102
RTVSPropertyOp24
 70
     1
102
RTVSPropertyOp25
 70
     1
102
RTVSPropertyOp26
 70
     1
102
RTVSPropertyOp27
 70
     1
102
RTVSPropertyOp28
 70
     1
102
RTVSPropertyOp29
 70
     1
102
RTVSPropertyOp30
 70
     1
102
RTVSPropertyOp31
 70
     1
102
RTVSPropertyOp32
 70
     1
102
RTVSPropertyOp33
 70
     1
102
RTVSPropertyOp34
 70
     1
102
RTVSPropertyOp35
 70
     1
102
RTVSPropertyOp36
 70
     1
102
RTVSPropertyOp37
 70
     1
102
RTVSPropertyOp38
 70
     1
102
RTVSPropertyOp39
 70
     1
102
RTVSPropertyOp40
 70
     1
102
RTVSPropertyOp41
 70
     1
102
RTVSPropertyOp42
 70
     1
102
RTVSPropertyOp43
 70
     1
102
RTVSPropertyOp44
 70
     1
102
RTVSPropertyOp45
 70
     1
102
RTVSPropertyOp46
 70
     1
102
RTVSPropertyOp47
 70
     1
102
RTVSPropertyOp48
 70
     1
102
RTVSPropertyOp49
 70
     1
102
RTVSPropertyOp50
 70
     1
102
RTVSPropertyOp51
 70
     0
102
RTVSPropertyOp52
 70
     0
102
RTVSPropertyOp53
 70
     1
102
RTVSPropertyOp54
 70
     1
102
RTVSPropertyOp55
 70
     1
102
RTVSPropertyOp56
 70
     1
102
RTVSPropertyOp57
 70
     1
102
RTVSPropertyOp58
 70
     1
102
RTVSPropertyOp59
 70
     1
102
RTVSPropertyOp60
 70
     1
102
RTVSPropertyOp61
 70
     1
102
RTVSPropertyOp62
 70
     1
  0
XRECORD
  5
276E
102
{ACAD_REACTORS
330
276D
102
}
330
276D
100
AcDbXrecord
280
     1
102
RTVSPost2010Prop28
280
     0
102
RTVSPost2010PropOp28
 70
     1
102
RTVSPost2010Prop29
280
     1
102
RTVSPost2010PropOp29
 70
     1
102
RTVSPost2010Prop30
280
     1
102
RTVSPost2010PropOp30
 70
     1
102
RTVSPost2010Prop31
280
     0
102
RTVSPost2010PropOp31
 70
     1
102
RTVSPost2010Prop32
280
     0
102
RTVSPost2010PropOp32
 70
     1
102
RTVSPost2010Prop33
280
     0
102
RTVSPost2010PropOp33
 70
     1
102
RTVSPost2010Prop34
280
     0
102
RTVSPost2010PropOp34
 70
     1
102
RTVSPost2010Prop35
280
     0
102
RTVSPost2010PropOp35
 70
     1
102
RTVSPost2010Prop36
280
     0
102
RTVSPost2010PropOp36
 70
     1
102
RTVSPost2010Prop37
 90
       50
102
RTVSPost2010PropOp37
 70
     1
102
RTVSPost2010Prop38
140
0.0
102
RTVSPost2010PropOp38
 70
     1
102
RTVSPost2010Prop39
140
1.0
102
RTVSPost2010PropOp39
 70
     1
102
RTVSPost2010Prop40
 90
        0
102
RTVSPost2010PropOp40
 70
     1
102
RTVSPost2010Prop41ColorIndex
 90
       18
102
RTVSPost2010Prop41ColorRGB
 90
        0
102
RTVSPost2010PropOp41
 70
     1
102
RTVSPost2010Prop42
 90
       50
102
RTVSPost2010PropOp42
 70
     1
102
RTVSPost2010Prop43
 90
        3
102
RTVSPost2010PropOp43
 70
     1
102
RTVSPost2010Prop44ColorIndex
 90
        5
102
RTVSPost2010Prop44ColorRGB
 90
      255
102
RTVSPost2010PropOp44
 70
     1
102
RTVSPost2010Prop45
280
     0
102
RTVSPost2010PropOp45
 70
     1
102
RTVSPost2010Prop46
 90
       50
102
RTVSPost2010PropOp46
 70
     1
102
RTVSPost2010Prop47
 90
       50
102
RTVSPost2010PropOp47
 70
     1
102
RTVSPost2010Prop48
 90
       50
102
RTVSPost2010PropOp48
 70
     1
102
RTVSPost2010Prop49
280
     0
102
RTVSPost2010PropOp49
 70
     1
102
RTVSPost2010Prop50
 90
       50
102
RTVSPost2010PropOp50
 70
     1
102
RTVSPost2010Prop51ColorIndex
 90
      256
102
RTVSPost2010Prop51ColorRGB
 90
-16777216
102
RTVSPost2010PropOp51
 70
     0
102
RTVSPost2010Prop52
140
1.0
102
RTVSPost2010PropOp52
 70
     0
102
RTVSPost2010Prop53
 90
        2
102
RTVSPost2010PropOp53
 70
     1
102
RTVSPost2010Prop54
  1
strokes_ogs.tif
102
RTVSPost2010PropOp54
 70
     1
102
RTVSPost2010Prop55
280
     0
102
RTVSPost2010PropOp55
 70
     1
102
RTVSPost2010Prop56
140
1.0
102
RTVSPost2010PropOp56
 70
     1
102
RTVSPost2010Prop57
140
1.0
102
RTVSPost2010PropOp57
 70
     1
102
RTVSPropertyOp0
 70
     0
102
RTVSPropertyOp1
 70
     0
102
RTVSPropertyOp2
 70
     0
102
RTVSPropertyOp3
 70
     0
102
RTVSPropertyOp4
 70
     0
102
RTVSPropertyOp5
 70
     0
102
RTVSPropertyOp6
 70
     0
102
RTVSPropertyOp7
 70
     0
102
RTVSPropertyOp8
 70
     0
102
RTVSPropertyOp9
 70
     0
102
RTVSPropertyOp10
 70
     0
102
RTVSPropertyOp11
 70
     0
102
RTVSPropertyOp12
 70
     0
102
RTVSPropertyOp13
 70
     0
102
RTVSPropertyOp14
 70
     2
102
RTVSPropertyOp15
 70
     0
102
RTVSPropertyOp16
 70
     0
102
RTVSPropertyOp17
 70
     0
102
RTVSPropertyOp18
 70
     0
102
RTVSPropertyOp19
 70
     0
102
RTVSPropertyOp20
 70
     0
102
RTVSPropertyOp21
 70
     0
102
RTVSPropertyOp22
 70
     0
102
RTVSPropertyOp23
 70
     0
102
RTVSPropertyOp24
 70
     0
102
RTVSPropertyOp25
 70
     0
102
RTVSPropertyOp26
 70
     0
102
RTVSPropertyOp27
 70
     0
102
RTVSPropertyOp28
 70
     1
102
RTVSPropertyOp29
 70
     1
102
RTVSPropertyOp30
 70
     1
102
RTVSPropertyOp31
 70
     1
102
RTVSPropertyOp32
 70
     1
102
RTVSPropertyOp33
 70
     1
102
RTVSPropertyOp34
 70
     1
102
RTVSPropertyOp35
 70
     1
102
RTVSPropertyOp36
 70
     1
102
RTVSPropertyOp37
 70
     1
102
RTVSPropertyOp38
 70
     1
102
RTVSPropertyOp39
 70
     1
102
RTVSPropertyOp40
 70
     1
102
RTVSPropertyOp41
 70
     1
102
RTVSPropertyOp42
 70
     1
102
RTVSPropertyOp43
 70
     1
102
RTVSPropertyOp44
 70
     1
102
RTVSPropertyOp45
 70
     1
102
RTVSPropertyOp46
 70
     1
102
RTVSPropertyOp47
 70
     1
102
RTVSPropertyOp48
 70
     1
102
RTVSPropertyOp49
 70
     1
102
RTVSPropertyOp50
 70
     1
102
RTVSPropertyOp51
 70
     0
102
RTVSPropertyOp52
 70
     0
102
RTVSPropertyOp53
 70
     1
102
RTVSPropertyOp54
 70
     1
102
RTVSPropertyOp55
 70
     1
102
RTVSPropertyOp56
 70
     1
102
RTVSPropertyOp57
 70
     1
102
RTVSPropertyOp58
 70
     1
102
RTVSPropertyOp59
 70
     1
102
RTVSPropertyOp60
 70
     1
102
RTVSPropertyOp61
 70
     1
102
RTVSPropertyOp62
 70
     1
  0
XRECORD
  5
275C
102
{ACAD_REACTORS
330
275B
102
}
330
275B
100
AcDbXrecord
280
     1
102
RTVSPost2010Prop28
280
     0
102
RTVSPost2010PropOp28
 70
     1
102
RTVSPost2010Prop29
280
     1
102
RTVSPost2010PropOp29
 70
     1
102
RTVSPost2010Prop30
280
     1
102
RTVSPost2010PropOp30
 70
     1
102
RTVSPost2010Prop31
280
     0
102
RTVSPost2010PropOp31
 70
     1
102
RTVSPost2010Prop32
280
     0
102
RTVSPost2010PropOp32
 70
     1
102
RTVSPost2010Prop33
280
     0
102
RTVSPost2010PropOp33
 70
     1
102
RTVSPost2010Prop34
280
     0
102
RTVSPost2010PropOp34
 70
     1
102
RTVSPost2010Prop35
280
     0
102
RTVSPost2010PropOp35
 70
     1
102
RTVSPost2010Prop36
280
     0
102
RTVSPost2010PropOp36
 70
     1
102
RTVSPost2010Prop37
 90
       50
102
RTVSPost2010PropOp37
 70
     1
102
RTVSPost2010Prop38
140
0.0
102
RTVSPost2010PropOp38
 70
     1
102
RTVSPost2010Prop39
140
1.0
102
RTVSPost2010PropOp39
 70
     1
102
RTVSPost2010Prop40
 90
        0
102
RTVSPost2010PropOp40
 70
     1
102
RTVSPost2010Prop41ColorIndex
 90
       18
102
RTVSPost2010Prop41ColorRGB
 90
        0
102
RTVSPost2010PropOp41
 70
     1
102
RTVSPost2010Prop42
 90
       50
102
RTVSPost2010PropOp42
 70
     1
102
RTVSPost2010Prop43
 90
        3
102
RTVSPost2010PropOp43
 70
     1
102
RTVSPost2010Prop44ColorIndex
 90
        5
102
RTVSPost2010Prop44ColorRGB
 90
      255
102
RTVSPost2010PropOp44
 70
     1
102
RTVSPost2010Prop45
280
     0
102
RTVSPost2010PropOp45
 70
     1
102
RTVSPost2010Prop46
 90
       50
102
RTVSPost2010PropOp46
 70
     1
102
RTVSPost2010Prop47
 90
       50
102
RTVSPost2010PropOp47
 70
     1
102
RTVSPost2010Prop48
 90
       50
102
RTVSPost2010PropOp48
 70
     1
102
RTVSPost2010Prop49
280
     0
102
RTVSPost2010PropOp49
 70
     1
102
RTVSPost2010Prop50
 90
       50
102
RTVSPost2010PropOp50
 70
     1
102
RTVSPost2010Prop51ColorIndex
 90
      256
102
RTVSPost2010Prop51ColorRGB
 90
-16777216
102
RTVSPost2010PropOp51
 70
     0
102
RTVSPost2010Prop52
140
1.0
102
RTVSPost2010PropOp52
 70
     0
102
RTVSPost2010Prop53
 90
        2
102
RTVSPost2010PropOp53
 70
     1
102
RTVSPost2010Prop54
  1
strokes_ogs.tif
102
RTVSPost2010PropOp54
 70
     1
102
RTVSPost2010Prop55
280
     0
102
RTVSPost2010PropOp55
 70
     1
102
RTVSPost2010Prop56
140
1.0
102
RTVSPost2010PropOp56
 70
     1
102
RTVSPost2010Prop57
140
1.0
102
RTVSPost2010PropOp57
 70
     1
102
RTVSPropertyOp0
 70
     1
102
RTVSPropertyOp1
 70
     1
102
RTVSPropertyOp2
 70
     1
102
RTVSPropertyOp3
 70
     1
102
RTVSPropertyOp4
 70
     1
102
RTVSPropertyOp5
 70
     1
102
RTVSPropertyOp6
 70
     1
102
RTVSPropertyOp7
 70
     1
102
RTVSPropertyOp8
 70
     1
102
RTVSPropertyOp9
 70
     1
102
RTVSPropertyOp10
 70
     1
102
RTVSPropertyOp11
 70
     1
102
RTVSPropertyOp12
 70
     1
102
RTVSPropertyOp13
 70
     1
102
RTVSPropertyOp14
 70
     1
102
RTVSPropertyOp15
 70
     1
102
RTVSPropertyOp16
 70
     1
102
RTVSPropertyOp17
 70
     1
102
RTVSPropertyOp18
 70
     1
102
RTVSPropertyOp19
 70
     1
102
RTVSPropertyOp20
 70
     1
102
RTVSPropertyOp21
 70
     1
102
RTVSPropertyOp22
 70
     1
102
RTVSPropertyOp23
 70
     1
102
RTVSPropertyOp24
 70
     1
102
RTVSPropertyOp25
 70
     1
102
RTVSPropertyOp26
 70
     1
102
RTVSPropertyOp27
 70
     1
102
RTVSPropertyOp28
 70
     1
102
RTVSPropertyOp29
 70
     1
102
RTVSPropertyOp30
 70
     1
102
RTVSPropertyOp31
 70
     1
102
RTVSPropertyOp32
 70
     1
102
RTVSPropertyOp33
 70
     1
102
RTVSPropertyOp34
 70
     1
102
RTVSPropertyOp35
 70
     1
102
RTVSPropertyOp36
 70
     1
102
RTVSPropertyOp37
 70
     1
102
RTVSPropertyOp38
 70
     1
102
RTVSPropertyOp39
 70
     1
102
RTVSPropertyOp40
 70
     1
102
RTVSPropertyOp41
 70
     1
102
RTVSPropertyOp42
 70
     1
102
RTVSPropertyOp43
 70
     1
102
RTVSPropertyOp44
 70
     1
102
RTVSPropertyOp45
 70
     1
102
RTVSPropertyOp46
 70
     1
102
RTVSPropertyOp47
 70
     1
102
RTVSPropertyOp48
 70
     1
102
RTVSPropertyOp49
 70
     1
102
RTVSPropertyOp50
 70
     1
102
RTVSPropertyOp51
 70
     0
102
RTVSPropertyOp52
 70
     0
102
RTVSPropertyOp53
 70
     1
102
RTVSPropertyOp54
 70
     1
102
RTVSPropertyOp55
 70
     1
102
RTVSPropertyOp56
 70
     1
102
RTVSPropertyOp57
 70
     1
102
RTVSPropertyOp58
 70
     1
102
RTVSPropertyOp59
 70
     1
102
RTVSPropertyOp60
 70
     1
102
RTVSPropertyOp61
 70
     1
102
RTVSPropertyOp62
 70
     1
  0
XRECORD
  5
277A
102
{ACAD_REACTORS
330
2779
102
}
330
2779
100
AcDbXrecord
280
     1
102
RTVSPost2010Prop28
280
     0
102
RTVSPost2010PropOp28
 70
     1
102
RTVSPost2010Prop29
280
     1
102
RTVSPost2010PropOp29
 70
     1
102
RTVSPost2010Prop30
280
     1
102
RTVSPost2010PropOp30
 70
     1
102
RTVSPost2010Prop31
280
     0
102
RTVSPost2010PropOp31
 70
     1
102
RTVSPost2010Prop32
280
     0
102
RTVSPost2010PropOp32
 70
     1
102
RTVSPost2010Prop33
280
     0
102
RTVSPost2010PropOp33
 70
     1
102
RTVSPost2010Prop34
280
     0
102
RTVSPost2010PropOp34
 70
     1
102
RTVSPost2010Prop35
280
     0
102
RTVSPost2010PropOp35
 70
     1
102
RTVSPost2010Prop36
280
     0
102
RTVSPost2010PropOp36
 70
     1
102
RTVSPost2010Prop37
 90
       50
102
RTVSPost2010PropOp37
 70
     1
102
RTVSPost2010Prop38
140
0.0
102
RTVSPost2010PropOp38
 70
     1
102
RTVSPost2010Prop39
140
1.0
102
RTVSPost2010PropOp39
 70
     1
102
RTVSPost2010Prop40
 90
        0
102
RTVSPost2010PropOp40
 70
     1
102
RTVSPost2010Prop41ColorIndex
 90
       18
102
RTVSPost2010Prop41ColorRGB
 90
        0
102
RTVSPost2010PropOp41
 70
     1
102
RTVSPost2010Prop42
 90
       50
102
RTVSPost2010PropOp42
 70
     1
102
RTVSPost2010Prop43
 90
        3
102
RTVSPost2010PropOp43
 70
     1
102
RTVSPost2010Prop44ColorIndex
 90
        5
102
RTVSPost2010Prop44ColorRGB
 90
      255
102
RTVSPost2010PropOp44
 70
     1
102
RTVSPost2010Prop45
280
     0
102
RTVSPost2010PropOp45
 70
     1
102
RTVSPost2010Prop46
 90
       50
102
RTVSPost2010PropOp46
 70
     1
102
RTVSPost2010Prop47
 90
       50
102
RTVSPost2010PropOp47
 70
     1
102
RTVSPost2010Prop48
 90
       50
102
RTVSPost2010PropOp48
 70
     1
102
RTVSPost2010Prop49
280
     0
102
RTVSPost2010PropOp49
 70
     1
102
RTVSPost2010Prop50
 90
       50
102
RTVSPost2010PropOp50
 70
     1
102
RTVSPost2010Prop51ColorIndex
 90
      256
102
RTVSPost2010Prop51ColorRGB
 90
-16777216
102
RTVSPost2010PropOp51
 70
     0
102
RTVSPost2010Prop52
140
1.0
102
RTVSPost2010PropOp52
 70
     0
102
RTVSPost2010Prop53
 90
        2
102
RTVSPost2010PropOp53
 70
     1
102
RTVSPost2010Prop54
  1
strokes_ogs.tif
102
RTVSPost2010PropOp54
 70
     1
102
RTVSPost2010Prop55
280
     0
102
RTVSPost2010PropOp55
 70
     1
102
RTVSPost2010Prop56
140
1.0
102
RTVSPost2010PropOp56
 70
     1
102
RTVSPost2010Prop57
140
1.0
102
RTVSPost2010PropOp57
 70
     1
102
RTVSPropertyOp0
 70
     1
102
RTVSPropertyOp1
 70
     1
102
RTVSPropertyOp2
 70
     1
102
RTVSPropertyOp3
 70
     1
102
RTVSPropertyOp4
 70
     1
102
RTVSPropertyOp5
 70
     1
102
RTVSPropertyOp6
 70
     1
102
RTVSPropertyOp7
 70
     1
102
RTVSPropertyOp8
 70
     1
102
RTVSPropertyOp9
 70
     1
102
RTVSPropertyOp10
 70
     1
102
RTVSPropertyOp11
 70
     1
102
RTVSPropertyOp12
 70
     1
102
RTVSPropertyOp13
 70
     1
102
RTVSPropertyOp14
 70
     1
102
RTVSPropertyOp15
 70
     1
102
RTVSPropertyOp16
 70
     1
102
RTVSPropertyOp17
 70
     1
102
RTVSPropertyOp18
 70
     1
102
RTVSPropertyOp19
 70
     1
102
RTVSPropertyOp20
 70
     1
102
RTVSPropertyOp21
 70
     1
102
RTVSPropertyOp22
 70
     1
102
RTVSPropertyOp23
 70
     1
102
RTVSPropertyOp24
 70
     1
102
RTVSPropertyOp25
 70
     1
102
RTVSPropertyOp26
 70
     1
102
RTVSPropertyOp27
 70
     1
102
RTVSPropertyOp28
 70
     1
102
RTVSPropertyOp29
 70
     1
102
RTVSPropertyOp30
 70
     1
102
RTVSPropertyOp31
 70
     1
102
RTVSPropertyOp32
 70
     1
102
RTVSPropertyOp33
 70
     1
102
RTVSPropertyOp34
 70
     1
102
RTVSPropertyOp35
 70
     1
102
RTVSPropertyOp36
 70
     1
102
RTVSPropertyOp37
 70
     1
102
RTVSPropertyOp38
 70
     1
102
RTVSPropertyOp39
 70
     1
102
RTVSPropertyOp40
 70
     1
102
RTVSPropertyOp41
 70
     1
102
RTVSPropertyOp42
 70
     1
102
RTVSPropertyOp43
 70
     1
102
RTVSPropertyOp44
 70
     1
102
RTVSPropertyOp45
 70
     1
102
RTVSPropertyOp46
 70
     1
102
RTVSPropertyOp47
 70
     1
102
RTVSPropertyOp48
 70
     1
102
RTVSPropertyOp49
 70
     1
102
RTVSPropertyOp50
 70
     1
102
RTVSPropertyOp51
 70
     0
102
RTVSPropertyOp52
 70
     0
102
RTVSPropertyOp53
 70
     1
102
RTVSPropertyOp54
 70
     1
102
RTVSPropertyOp55
 70
     1
102
RTVSPropertyOp56
 70
     1
102
RTVSPropertyOp57
 70
     1
102
RTVSPropertyOp58
 70
     1
102
RTVSPropertyOp59
 70
     1
102
RTVSPropertyOp60
 70
     1
102
RTVSPropertyOp61
 70
     1
102
RTVSPropertyOp62
 70
     1
  0
XRECORD
  5
2778
102
{ACAD_REACTORS
330
2777
102
}
330
2777
100
AcDbXrecord
280
     1
102
RTVSPost2010Prop28
280
     0
102
RTVSPost2010PropOp28
 70
     1
102
RTVSPost2010Prop29
280
     1
102
RTVSPost2010PropOp29
 70
     1
102
RTVSPost2010Prop30
280
     1
102
RTVSPost2010PropOp30
 70
     1
102
RTVSPost2010Prop31
280
     0
102
RTVSPost2010PropOp31
 70
     1
102
RTVSPost2010Prop32
280
     0
102
RTVSPost2010PropOp32
 70
     1
102
RTVSPost2010Prop33
280
     0
102
RTVSPost2010PropOp33
 70
     1
102
RTVSPost2010Prop34
280
     0
102
RTVSPost2010PropOp34
 70
     1
102
RTVSPost2010Prop35
280
     0
102
RTVSPost2010PropOp35
 70
     1
102
RTVSPost2010Prop36
280
     0
102
RTVSPost2010PropOp36
 70
     1
102
RTVSPost2010Prop37
 90
       50
102
RTVSPost2010PropOp37
 70
     1
102
RTVSPost2010Prop38
140
0.0
102
RTVSPost2010PropOp38
 70
     1
102
RTVSPost2010Prop39
140
1.0
102
RTVSPost2010PropOp39
 70
     1
102
RTVSPost2010Prop40
 90
        0
102
RTVSPost2010PropOp40
 70
     1
102
RTVSPost2010Prop41ColorIndex
 90
       18
102
RTVSPost2010Prop41ColorRGB
 90
        0
102
RTVSPost2010PropOp41
 70
     1
102
RTVSPost2010Prop42
 90
       50
102
RTVSPost2010PropOp42
 70
     1
102
RTVSPost2010Prop43
 90
        3
102
RTVSPost2010PropOp43
 70
     1
102
RTVSPost2010Prop44ColorIndex
 90
        5
102
RTVSPost2010Prop44ColorRGB
 90
      255
102
RTVSPost2010PropOp44
 70
     1
102
RTVSPost2010Prop45
280
     0
102
RTVSPost2010PropOp45
 70
     1
102
RTVSPost2010Prop46
 90
       50
102
RTVSPost2010PropOp46
 70
     1
102
RTVSPost2010Prop47
 90
       50
102
RTVSPost2010PropOp47
 70
     1
102
RTVSPost2010Prop48
 90
       50
102
RTVSPost2010PropOp48
 70
     1
102
RTVSPost2010Prop49
280
     0
102
RTVSPost2010PropOp49
 70
     1
102
RTVSPost2010Prop50
 90
       50
102
RTVSPost2010PropOp50
 70
     1
102
RTVSPost2010Prop51ColorIndex
 90
      256
102
RTVSPost2010Prop51ColorRGB
 90
-16777216
102
RTVSPost2010PropOp51
 70
     0
102
RTVSPost2010Prop52
140
1.0
102
RTVSPost2010PropOp52
 70
     0
102
RTVSPost2010Prop53
 90
        2
102
RTVSPost2010PropOp53
 70
     1
102
RTVSPost2010Prop54
  1
strokes_ogs.tif
102
RTVSPost2010PropOp54
 70
     1
102
RTVSPost2010Prop55
280
     0
102
RTVSPost2010PropOp55
 70
     1
102
RTVSPost2010Prop56
140
1.0
102
RTVSPost2010PropOp56
 70
     1
102
RTVSPost2010Prop57
140
1.0
102
RTVSPost2010PropOp57
 70
     1
102
RTVSPropertyOp0
 70
     1
102
RTVSPropertyOp1
 70
     1
102
RTVSPropertyOp2
 70
     1
102
RTVSPropertyOp3
 70
     1
102
RTVSPropertyOp4
 70
     1
102
RTVSPropertyOp5
 70
     1
102
RTVSPropertyOp6
 70
     1
102
RTVSPropertyOp7
 70
     1
102
RTVSPropertyOp8
 70
     1
102
RTVSPropertyOp9
 70
     1
102
RTVSPropertyOp10
 70
     1
102
RTVSPropertyOp11
 70
     1
102
RTVSPropertyOp12
 70
     1
102
RTVSPropertyOp13
 70
     1
102
RTVSPropertyOp14
 70
     1
102
RTVSPropertyOp15
 70
     1
102
RTVSPropertyOp16
 70
     1
102
RTVSPropertyOp17
 70
     1
102
RTVSPropertyOp18
 70
     1
102
RTVSPropertyOp19
 70
     1
102
RTVSPropertyOp20
 70
     1
102
RTVSPropertyOp21
 70
     1
102
RTVSPropertyOp22
 70
     1
102
RTVSPropertyOp23
 70
     1
102
RTVSPropertyOp24
 70
     1
102
RTVSPropertyOp25
 70
     1
102
RTVSPropertyOp26
 70
     1
102
RTVSPropertyOp27
 70
     1
102
RTVSPropertyOp28
 70
     1
102
RTVSPropertyOp29
 70
     1
102
RTVSPropertyOp30
 70
     1
102
RTVSPropertyOp31
 70
     1
102
RTVSPropertyOp32
 70
     1
102
RTVSPropertyOp33
 70
     1
102
RTVSPropertyOp34
 70
     1
102
RTVSPropertyOp35
 70
     1
102
RTVSPropertyOp36
 70
     1
102
RTVSPropertyOp37
 70
     1
102
RTVSPropertyOp38
 70
     1
102
RTVSPropertyOp39
 70
     1
102
RTVSPropertyOp40
 70
     1
102
RTVSPropertyOp41
 70
     1
102
RTVSPropertyOp42
 70
     1
102
RTVSPropertyOp43
 70
     1
102
RTVSPropertyOp44
 70
     1
102
RTVSPropertyOp45
 70
     1
102
RTVSPropertyOp46
 70
     1
102
RTVSPropertyOp47
 70
     1
102
RTVSPropertyOp48
 70
     1
102
RTVSPropertyOp49
 70
     1
102
RTVSPropertyOp50
 70
     1
102
RTVSPropertyOp51
 70
     0
102
RTVSPropertyOp52
 70
     0
102
RTVSPropertyOp53
 70
     1
102
RTVSPropertyOp54
 70
     1
102
RTVSPropertyOp55
 70
     1
102
RTVSPropertyOp56
 70
     1
102
RTVSPropertyOp57
 70
     1
102
RTVSPropertyOp58
 70
     1
102
RTVSPropertyOp59
 70
     1
102
RTVSPropertyOp60
 70
     1
102
RTVSPropertyOp61
 70
     1
102
RTVSPropertyOp62
 70
     1
  0
XRECORD
  5
2772
102
{ACAD_REACTORS
330
2771
102
}
330
2771
100
AcDbXrecord
280
     1
102
RTVSPost2010Prop28
280
     0
102
RTVSPost2010PropOp28
 70
     1
102
RTVSPost2010Prop29
280
     1
102
RTVSPost2010PropOp29
 70
     1
102
RTVSPost2010Prop30
280
     1
102
RTVSPost2010PropOp30
 70
     1
102
RTVSPost2010Prop31
280
     0
102
RTVSPost2010PropOp31
 70
     1
102
RTVSPost2010Prop32
280
     0
102
RTVSPost2010PropOp32
 70
     1
102
RTVSPost2010Prop33
280
     0
102
RTVSPost2010PropOp33
 70
     1
102
RTVSPost2010Prop34
280
     0
102
RTVSPost2010PropOp34
 70
     1
102
RTVSPost2010Prop35
280
     0
102
RTVSPost2010PropOp35
 70
     1
102
RTVSPost2010Prop36
280
     0
102
RTVSPost2010PropOp36
 70
     1
102
RTVSPost2010Prop37
 90
       50
102
RTVSPost2010PropOp37
 70
     1
102
RTVSPost2010Prop38
140
0.0
102
RTVSPost2010PropOp38
 70
     1
102
RTVSPost2010Prop39
140
1.0
102
RTVSPost2010PropOp39
 70
     1
102
RTVSPost2010Prop40
 90
        0
102
RTVSPost2010PropOp40
 70
     1
102
RTVSPost2010Prop41ColorIndex
 90
       18
102
RTVSPost2010Prop41ColorRGB
 90
        0
102
RTVSPost2010PropOp41
 70
     1
102
RTVSPost2010Prop42
 90
       50
102
RTVSPost2010PropOp42
 70
     1
102
RTVSPost2010Prop43
 90
        3
102
RTVSPost2010PropOp43
 70
     1
102
RTVSPost2010Prop44ColorIndex
 90
        5
102
RTVSPost2010Prop44ColorRGB
 90
      255
102
RTVSPost2010PropOp44
 70
     1
102
RTVSPost2010Prop45
280
     0
102
RTVSPost2010PropOp45
 70
     1
102
RTVSPost2010Prop46
 90
       50
102
RTVSPost2010PropOp46
 70
     1
102
RTVSPost2010Prop47
 90
       50
102
RTVSPost2010PropOp47
 70
     1
102
RTVSPost2010Prop48
 90
       50
102
RTVSPost2010PropOp48
 70
     1
102
RTVSPost2010Prop49
280
     0
102
RTVSPost2010PropOp49
 70
     1
102
RTVSPost2010Prop50
 90
       50
102
RTVSPost2010PropOp50
 70
     1
102
RTVSPost2010Prop51ColorIndex
 90
      256
102
RTVSPost2010Prop51ColorRGB
 90
-16777216
102
RTVSPost2010PropOp51
 70
     0
102
RTVSPost2010Prop52
140
1.0
102
RTVSPost2010PropOp52
 70
     0
102
RTVSPost2010Prop53
 90
        2
102
RTVSPost2010PropOp53
 70
     1
102
RTVSPost2010Prop54
  1
strokes_ogs.tif
102
RTVSPost2010PropOp54
 70
     1
102
RTVSPost2010Prop55
280
     0
102
RTVSPost2010PropOp55
 70
     1
102
RTVSPost2010Prop56
140
1.0
102
RTVSPost2010PropOp56
 70
     1
102
RTVSPost2010Prop57
140
1.0
102
RTVSPost2010PropOp57
 70
     1
102
RTVSPropertyOp0
 70
     1
102
RTVSPropertyOp1
 70
     1
102
RTVSPropertyOp2
 70
     1
102
RTVSPropertyOp3
 70
     1
102
RTVSPropertyOp4
 70
     1
102
RTVSPropertyOp5
 70
     1
102
RTVSPropertyOp6
 70
     1
102
RTVSPropertyOp7
 70
     1
102
RTVSPropertyOp8
 70
     1
102
RTVSPropertyOp9
 70
     1
102
RTVSPropertyOp10
 70
     1
102
RTVSPropertyOp11
 70
     1
102
RTVSPropertyOp12
 70
     1
102
RTVSPropertyOp13
 70
     1
102
RTVSPropertyOp14
 70
     1
102
RTVSPropertyOp15
 70
     1
102
RTVSPropertyOp16
 70
     1
102
RTVSPropertyOp17
 70
     1
102
RTVSPropertyOp18
 70
     1
102
RTVSPropertyOp19
 70
     1
102
RTVSPropertyOp20
 70
     1
102
RTVSPropertyOp21
 70
     1
102
RTVSPropertyOp22
 70
     1
102
RTVSPropertyOp23
 70
     1
102
RTVSPropertyOp24
 70
     1
102
RTVSPropertyOp25
 70
     1
102
RTVSPropertyOp26
 70
     1
102
RTVSPropertyOp27
 70
     1
102
RTVSPropertyOp28
 70
     1
102
RTVSPropertyOp29
 70
     1
102
RTVSPropertyOp30
 70
     1
102
RTVSPropertyOp31
 70
     1
102
RTVSPropertyOp32
 70
     1
102
RTVSPropertyOp33
 70
     1
102
RTVSPropertyOp34
 70
     1
102
RTVSPropertyOp35
 70
     1
102
RTVSPropertyOp36
 70
     1
102
RTVSPropertyOp37
 70
     1
102
RTVSPropertyOp38
 70
     1
102
RTVSPropertyOp39
 70
     1
102
RTVSPropertyOp40
 70
     1
102
RTVSPropertyOp41
 70
     1
102
RTVSPropertyOp42
 70
     1
102
RTVSPropertyOp43
 70
     1
102
RTVSPropertyOp44
 70
     1
102
RTVSPropertyOp45
 70
     1
102
RTVSPropertyOp46
 70
     1
102
RTVSPropertyOp47
 70
     1
102
RTVSPropertyOp48
 70
     1
102
RTVSPropertyOp49
 70
     1
102
RTVSPropertyOp50
 70
     1
102
RTVSPropertyOp51
 70
     0
102
RTVSPropertyOp52
 70
     0
102
RTVSPropertyOp53
 70
     1
102
RTVSPropertyOp54
 70
     1
102
RTVSPropertyOp55
 70
     1
102
RTVSPropertyOp56
 70
     1
102
RTVSPropertyOp57
 70
     1
102
RTVSPropertyOp58
 70
     1
102
RTVSPropertyOp59
 70
     1
102
RTVSPropertyOp60
 70
     1
102
RTVSPropertyOp61
 70
     1
102
RTVSPropertyOp62
 70
     1
  0
XRECORD
  5
2774
102
{ACAD_REACTORS
330
2773
102
}
330
2773
100
AcDbXrecord
280
     1
102
RTVSPost2010Prop28
280
     0
102
RTVSPost2010PropOp28
 70
     1
102
RTVSPost2010Prop29
280
     1
102
RTVSPost2010PropOp29
 70
     1
102
RTVSPost2010Prop30
280
     1
102
RTVSPost2010PropOp30
 70
     1
102
RTVSPost2010Prop31
280
     0
102
RTVSPost2010PropOp31
 70
     1
102
RTVSPost2010Prop32
280
     0
102
RTVSPost2010PropOp32
 70
     1
102
RTVSPost2010Prop33
280
     0
102
RTVSPost2010PropOp33
 70
     1
102
RTVSPost2010Prop34
280
     0
102
RTVSPost2010PropOp34
 70
     1
102
RTVSPost2010Prop35
280
     0
102
RTVSPost2010PropOp35
 70
     1
102
RTVSPost2010Prop36
280
     0
102
RTVSPost2010PropOp36
 70
     1
102
RTVSPost2010Prop37
 90
       50
102
RTVSPost2010PropOp37
 70
     1
102
RTVSPost2010Prop38
140
0.0
102
RTVSPost2010PropOp38
 70
     1
102
RTVSPost2010Prop39
140
1.0
102
RTVSPost2010PropOp39
 70
     1
102
RTVSPost2010Prop40
 90
        0
102
RTVSPost2010PropOp40
 70
     1
102
RTVSPost2010Prop41ColorIndex
 90
       18
102
RTVSPost2010Prop41ColorRGB
 90
        0
102
RTVSPost2010PropOp41
 70
     1
102
RTVSPost2010Prop42
 90
       50
102
RTVSPost2010PropOp42
 70
     1
102
RTVSPost2010Prop43
 90
        3
102
RTVSPost2010PropOp43
 70
     1
102
RTVSPost2010Prop44ColorIndex
 90
        5
102
RTVSPost2010Prop44ColorRGB
 90
      255
102
RTVSPost2010PropOp44
 70
     1
102
RTVSPost2010Prop45
280
     0
102
RTVSPost2010PropOp45
 70
     1
102
RTVSPost2010Prop46
 90
       50
102
RTVSPost2010PropOp46
 70
     1
102
RTVSPost2010Prop47
 90
       50
102
RTVSPost2010PropOp47
 70
     1
102
RTVSPost2010Prop48
 90
       50
102
RTVSPost2010PropOp48
 70
     1
102
RTVSPost2010Prop49
280
     0
102
RTVSPost2010PropOp49
 70
     1
102
RTVSPost2010Prop50
 90
       50
102
RTVSPost2010PropOp50
 70
     1
102
RTVSPost2010Prop51ColorIndex
 90
      256
102
RTVSPost2010Prop51ColorRGB
 90
-16777216
102
RTVSPost2010PropOp51
 70
     0
102
RTVSPost2010Prop52
140
1.0
102
RTVSPost2010PropOp52
 70
     0
102
RTVSPost2010Prop53
 90
        2
102
RTVSPost2010PropOp53
 70
     1
102
RTVSPost2010Prop54
  1
strokes_ogs.tif
102
RTVSPost2010PropOp54
 70
     1
102
RTVSPost2010Prop55
280
     0
102
RTVSPost2010PropOp55
 70
     1
102
RTVSPost2010Prop56
140
1.0
102
RTVSPost2010PropOp56
 70
     1
102
RTVSPost2010Prop57
140
1.0
102
RTVSPost2010PropOp57
 70
     1
102
RTVSPropertyOp0
 70
     1
102
RTVSPropertyOp1
 70
     1
102
RTVSPropertyOp2
 70
     1
102
RTVSPropertyOp3
 70
     1
102
RTVSPropertyOp4
 70
     1
102
RTVSPropertyOp5
 70
     1
102
RTVSPropertyOp6
 70
     1
102
RTVSPropertyOp7
 70
     1
102
RTVSPropertyOp8
 70
     1
102
RTVSPropertyOp9
 70
     1
102
RTVSPropertyOp10
 70
     1
102
RTVSPropertyOp11
 70
     1
102
RTVSPropertyOp12
 70
     1
102
RTVSPropertyOp13
 70
     1
102
RTVSPropertyOp14
 70
     1
102
RTVSPropertyOp15
 70
     1
102
RTVSPropertyOp16
 70
     1
102
RTVSPropertyOp17
 70
     1
102
RTVSPropertyOp18
 70
     1
102
RTVSPropertyOp19
 70
     1
102
RTVSPropertyOp20
 70
     1
102
RTVSPropertyOp21
 70
     1
102
RTVSPropertyOp22
 70
     1
102
RTVSPropertyOp23
 70
     1
102
RTVSPropertyOp24
 70
     1
102
RTVSPropertyOp25
 70
     1
102
RTVSPropertyOp26
 70
     1
102
RTVSPropertyOp27
 70
     1
102
RTVSPropertyOp28
 70
     1
102
RTVSPropertyOp29
 70
     1
102
RTVSPropertyOp30
 70
     1
102
RTVSPropertyOp31
 70
     1
102
RTVSPropertyOp32
 70
     1
102
RTVSPropertyOp33
 70
     1
102
RTVSPropertyOp34
 70
     1
102
RTVSPropertyOp35
 70
     1
102
RTVSPropertyOp36
 70
     1
102
RTVSPropertyOp37
 70
     1
102
RTVSPropertyOp38
 70
     1
102
RTVSPropertyOp39
 70
     1
102
RTVSPropertyOp40
 70
     1
102
RTVSPropertyOp41
 70
     1
102
RTVSPropertyOp42
 70
     1
102
RTVSPropertyOp43
 70
     1
102
RTVSPropertyOp44
 70
     1
102
RTVSPropertyOp45
 70
     1
102
RTVSPropertyOp46
 70
     1
102
RTVSPropertyOp47
 70
     1
102
RTVSPropertyOp48
 70
     1
102
RTVSPropertyOp49
 70
     1
102
RTVSPropertyOp50
 70
     1
102
RTVSPropertyOp51
 70
     0
102
RTVSPropertyOp52
 70
     0
102
RTVSPropertyOp53
 70
     1
102
RTVSPropertyOp54
 70
     1
102
RTVSPropertyOp55
 70
     1
102
RTVSPropertyOp56
 70
     1
102
RTVSPropertyOp57
 70
     1
102
RTVSPropertyOp58
 70
     1
102
RTVSPropertyOp59
 70
     1
102
RTVSPropertyOp60
 70
     1
102
RTVSPropertyOp61
 70
     1
102
RTVSPropertyOp62
 70
     1
  0
XRECORD
  5
2762
102
{ACAD_REACTORS
330
2761
102
}
330
2761
100
AcDbXrecord
280
     1
102
RTVSPost2010Prop28
280
     0
102
RTVSPost2010PropOp28
 70
     1
102
RTVSPost2010Prop29
280
     1
102
RTVSPost2010PropOp29
 70
     1
102
RTVSPost2010Prop30
280
     1
102
RTVSPost2010PropOp30
 70
     1
102
RTVSPost2010Prop31
280
     0
102
RTVSPost2010PropOp31
 70
     1
102
RTVSPost2010Prop32
280
     0
102
RTVSPost2010PropOp32
 70
     1
102
RTVSPost2010Prop33
280
     0
102
RTVSPost2010PropOp33
 70
     1
102
RTVSPost2010Prop34
280
     0
102
RTVSPost2010PropOp34
 70
     1
102
RTVSPost2010Prop35
280
     0
102
RTVSPost2010PropOp35
 70
     1
102
RTVSPost2010Prop36
280
     0
102
RTVSPost2010PropOp36
 70
     1
102
RTVSPost2010Prop37
 90
       50
102
RTVSPost2010PropOp37
 70
     1
102
RTVSPost2010Prop38
140
0.0
102
RTVSPost2010PropOp38
 70
     1
102
RTVSPost2010Prop39
140
1.0
102
RTVSPost2010PropOp39
 70
     1
102
RTVSPost2010Prop40
 90
        0
102
RTVSPost2010PropOp40
 70
     1
102
RTVSPost2010Prop41ColorIndex
 90
       18
102
RTVSPost2010Prop41ColorRGB
 90
        0
102
RTVSPost2010PropOp41
 70
     1
102
RTVSPost2010Prop42
 90
       50
102
RTVSPost2010PropOp42
 70
     1
102
RTVSPost2010Prop43
 90
        3
102
RTVSPost2010PropOp43
 70
     1
102
RTVSPost2010Prop44ColorIndex
 90
        5
102
RTVSPost2010Prop44ColorRGB
 90
      255
102
RTVSPost2010PropOp44
 70
     1
102
RTVSPost2010Prop45
280
     0
102
RTVSPost2010PropOp45
 70
     1
102
RTVSPost2010Prop46
 90
       50
102
RTVSPost2010PropOp46
 70
     1
102
RTVSPost2010Prop47
 90
       50
102
RTVSPost2010PropOp47
 70
     1
102
RTVSPost2010Prop48
 90
       50
102
RTVSPost2010PropOp48
 70
     1
102
RTVSPost2010Prop49
280
     0
102
RTVSPost2010PropOp49
 70
     1
102
RTVSPost2010Prop50
 90
       50
102
RTVSPost2010PropOp50
 70
     1
102
RTVSPost2010Prop51ColorIndex
 90
      256
102
RTVSPost2010Prop51ColorRGB
 90
-16777216
102
RTVSPost2010PropOp51
 70
     0
102
RTVSPost2010Prop52
140
1.0
102
RTVSPost2010PropOp52
 70
     0
102
RTVSPost2010Prop53
 90
        2
102
RTVSPost2010PropOp53
 70
     1
102
RTVSPost2010Prop54
  1
strokes_ogs.tif
102
RTVSPost2010PropOp54
 70
     1
102
RTVSPost2010Prop55
280
     0
102
RTVSPost2010PropOp55
 70
     1
102
RTVSPost2010Prop56
140
1.0
102
RTVSPost2010PropOp56
 70
     1
102
RTVSPost2010Prop57
140
1.0
102
RTVSPost2010PropOp57
 70
     1
102
RTVSPropertyOp0
 70
     1
102
RTVSPropertyOp1
 70
     1
102
RTVSPropertyOp2
 70
     1
102
RTVSPropertyOp3
 70
     1
102
RTVSPropertyOp4
 70
     1
102
RTVSPropertyOp5
 70
     1
102
RTVSPropertyOp6
 70
     1
102
RTVSPropertyOp7
 70
     1
102
RTVSPropertyOp8
 70
     1
102
RTVSPropertyOp9
 70
     1
102
RTVSPropertyOp10
 70
     1
102
RTVSPropertyOp11
 70
     1
102
RTVSPropertyOp12
 70
     1
102
RTVSPropertyOp13
 70
     1
102
RTVSPropertyOp14
 70
     1
102
RTVSPropertyOp15
 70
     1
102
RTVSPropertyOp16
 70
     1
102
RTVSPropertyOp17
 70
     1
102
RTVSPropertyOp18
 70
     1
102
RTVSPropertyOp19
 70
     1
102
RTVSPropertyOp20
 70
     1
102
RTVSPropertyOp21
 70
     1
102
RTVSPropertyOp22
 70
     1
102
RTVSPropertyOp23
 70
     1
102
RTVSPropertyOp24
 70
     1
102
RTVSPropertyOp25
 70
     1
102
RTVSPropertyOp26
 70
     1
102
RTVSPropertyOp27
 70
     1
102
RTVSPropertyOp28
 70
     1
102
RTVSPropertyOp29
 70
     1
102
RTVSPropertyOp30
 70
     1
102
RTVSPropertyOp31
 70
     1
102
RTVSPropertyOp32
 70
     1
102
RTVSPropertyOp33
 70
     1
102
RTVSPropertyOp34
 70
     1
102
RTVSPropertyOp35
 70
     1
102
RTVSPropertyOp36
 70
     1
102
RTVSPropertyOp37
 70
     1
102
RTVSPropertyOp38
 70
     1
102
RTVSPropertyOp39
 70
     1
102
RTVSPropertyOp40
 70
     1
102
RTVSPropertyOp41
 70
     1
102
RTVSPropertyOp42
 70
     1
102
RTVSPropertyOp43
 70
     1
102
RTVSPropertyOp44
 70
     1
102
RTVSPropertyOp45
 70
     1
102
RTVSPropertyOp46
 70
     1
102
RTVSPropertyOp47
 70
     1
102
RTVSPropertyOp48
 70
     1
102
RTVSPropertyOp49
 70
     1
102
RTVSPropertyOp50
 70
     1
102
RTVSPropertyOp51
 70
     0
102
RTVSPropertyOp52
 70
     0
102
RTVSPropertyOp53
 70
     1
102
RTVSPropertyOp54
 70
     1
102
RTVSPropertyOp55
 70
     1
102
RTVSPropertyOp56
 70
     1
102
RTVSPropertyOp57
 70
     1
102
RTVSPropertyOp58
 70
     1
102
RTVSPropertyOp59
 70
     1
102
RTVSPropertyOp60
 70
     1
102
RTVSPropertyOp61
 70
     1
102
RTVSPropertyOp62
 70
     1
  0
XRECORD
  5
2756
102
{ACAD_REACTORS
330
2755
102
}
330
2755
100
AcDbXrecord
280
     1
102
RTVSPost2010Prop28
280
     0
102
RTVSPost2010PropOp28
 70
     1
102
RTVSPost2010Prop29
280
     1
102
RTVSPost2010PropOp29
 70
     1
102
RTVSPost2010Prop30
280
     1
102
RTVSPost2010PropOp30
 70
     1
102
RTVSPost2010Prop31
280
     0
102
RTVSPost2010PropOp31
 70
     1
102
RTVSPost2010Prop32
280
     0
102
RTVSPost2010PropOp32
 70
     1
102
RTVSPost2010Prop33
280
     0
102
RTVSPost2010PropOp33
 70
     1
102
RTVSPost2010Prop34
280
     0
102
RTVSPost2010PropOp34
 70
     1
102
RTVSPost2010Prop35
280
     0
102
RTVSPost2010PropOp35
 70
     1
102
RTVSPost2010Prop36
280
     0
102
RTVSPost2010PropOp36
 70
     1
102
RTVSPost2010Prop37
 90
       50
102
RTVSPost2010PropOp37
 70
     1
102
RTVSPost2010Prop38
140
0.0
102
RTVSPost2010PropOp38
 70
     1
102
RTVSPost2010Prop39
140
1.0
102
RTVSPost2010PropOp39
 70
     1
102
RTVSPost2010Prop40
 90
        0
102
RTVSPost2010PropOp40
 70
     1
102
RTVSPost2010Prop41ColorIndex
 90
       18
102
RTVSPost2010Prop41ColorRGB
 90
        0
102
RTVSPost2010PropOp41
 70
     1
102
RTVSPost2010Prop42
 90
       50
102
RTVSPost2010PropOp42
 70
     1
102
RTVSPost2010Prop43
 90
        3
102
RTVSPost2010PropOp43
 70
     1
102
RTVSPost2010Prop44ColorIndex
 90
        5
102
RTVSPost2010Prop44ColorRGB
 90
      255
102
RTVSPost2010PropOp44
 70
     1
102
RTVSPost2010Prop45
280
     0
102
RTVSPost2010PropOp45
 70
     1
102
RTVSPost2010Prop46
 90
       50
102
RTVSPost2010PropOp46
 70
     1
102
RTVSPost2010Prop47
 90
       50
102
RTVSPost2010PropOp47
 70
     1
102
RTVSPost2010Prop48
 90
       50
102
RTVSPost2010PropOp48
 70
     1
102
RTVSPost2010Prop49
280
     0
102
RTVSPost2010PropOp49
 70
     1
102
RTVSPost2010Prop50
 90
       50
102
RTVSPost2010PropOp50
 70
     1
102
RTVSPost2010Prop51ColorIndex
 90
      256
102
RTVSPost2010Prop51ColorRGB
 90
-16777216
102
RTVSPost2010PropOp51
 70
     0
102
RTVSPost2010Prop52
140
1.0
102
RTVSPost2010PropOp52
 70
     0
102
RTVSPost2010Prop53
 90
        2
102
RTVSPost2010PropOp53
 70
     1
102
RTVSPost2010Prop54
  1
strokes_ogs.tif
102
RTVSPost2010PropOp54
 70
     1
102
RTVSPost2010Prop55
280
     0
102
RTVSPost2010PropOp55
 70
     1
102
RTVSPost2010Prop56
140
1.0
102
RTVSPost2010PropOp56
 70
     1
102
RTVSPost2010Prop57
140
1.0
102
RTVSPost2010PropOp57
 70
     1
102
RTVSPropertyOp0
 70
     1
102
RTVSPropertyOp1
 70
     1
102
RTVSPropertyOp2
 70
     1
102
RTVSPropertyOp3
 70
     1
102
RTVSPropertyOp4
 70
     1
102
RTVSPropertyOp5
 70
     1
102
RTVSPropertyOp6
 70
     1
102
RTVSPropertyOp7
 70
     1
102
RTVSPropertyOp8
 70
     1
102
RTVSPropertyOp9
 70
     1
102
RTVSPropertyOp10
 70
     1
102
RTVSPropertyOp11
 70
     1
102
RTVSPropertyOp12
 70
     1
102
RTVSPropertyOp13
 70
     1
102
RTVSPropertyOp14
 70
     1
102
RTVSPropertyOp15
 70
     1
102
RTVSPropertyOp16
 70
     1
102
RTVSPropertyOp17
 70
     1
102
RTVSPropertyOp18
 70
     1
102
RTVSPropertyOp19
 70
     1
102
RTVSPropertyOp20
 70
     1
102
RTVSPropertyOp21
 70
     1
102
RTVSPropertyOp22
 70
     1
102
RTVSPropertyOp23
 70
     1
102
RTVSPropertyOp24
 70
     1
102
RTVSPropertyOp25
 70
     1
102
RTVSPropertyOp26
 70
     1
102
RTVSPropertyOp27
 70
     1
102
RTVSPropertyOp28
 70
     1
102
RTVSPropertyOp29
 70
     1
102
RTVSPropertyOp30
 70
     1
102
RTVSPropertyOp31
 70
     1
102
RTVSPropertyOp32
 70
     1
102
RTVSPropertyOp33
 70
     1
102
RTVSPropertyOp34
 70
     1
102
RTVSPropertyOp35
 70
     1
102
RTVSPropertyOp36
 70
     1
102
RTVSPropertyOp37
 70
     1
102
RTVSPropertyOp38
 70
     1
102
RTVSPropertyOp39
 70
     1
102
RTVSPropertyOp40
 70
     1
102
RTVSPropertyOp41
 70
     1
102
RTVSPropertyOp42
 70
     1
102
RTVSPropertyOp43
 70
     1
102
RTVSPropertyOp44
 70
     1
102
RTVSPropertyOp45
 70
     1
102
RTVSPropertyOp46
 70
     1
102
RTVSPropertyOp47
 70
     1
102
RTVSPropertyOp48
 70
     1
102
RTVSPropertyOp49
 70
     1
102
RTVSPropertyOp50
 70
     1
102
RTVSPropertyOp51
 70
     0
102
RTVSPropertyOp52
 70
     0
102
RTVSPropertyOp53
 70
     1
102
RTVSPropertyOp54
 70
     1
102
RTVSPropertyOp55
 70
     1
102
RTVSPropertyOp56
 70
     1
102
RTVSPropertyOp57
 70
     1
102
RTVSPropertyOp58
 70
     1
102
RTVSPropertyOp59
 70
     1
102
RTVSPropertyOp60
 70
     1
102
RTVSPropertyOp61
 70
     1
102
RTVSPropertyOp62
 70
     1
  0
XRECORD
  5
2776
102
{ACAD_REACTORS
330
2775
102
}
330
2775
100
AcDbXrecord
280
     1
102
RTVSPost2010Prop28
280
     0
102
RTVSPost2010PropOp28
 70
     1
102
RTVSPost2010Prop29
280
     1
102
RTVSPost2010PropOp29
 70
     1
102
RTVSPost2010Prop30
280
     1
102
RTVSPost2010PropOp30
 70
     1
102
RTVSPost2010Prop31
280
     0
102
RTVSPost2010PropOp31
 70
     1
102
RTVSPost2010Prop32
280
     0
102
RTVSPost2010PropOp32
 70
     1
102
RTVSPost2010Prop33
280
     0
102
RTVSPost2010PropOp33
 70
     1
102
RTVSPost2010Prop34
280
     0
102
RTVSPost2010PropOp34
 70
     1
102
RTVSPost2010Prop35
280
     0
102
RTVSPost2010PropOp35
 70
     1
102
RTVSPost2010Prop36
280
     0
102
RTVSPost2010PropOp36
 70
     1
102
RTVSPost2010Prop37
 90
       50
102
RTVSPost2010PropOp37
 70
     1
102
RTVSPost2010Prop38
140
0.0
102
RTVSPost2010PropOp38
 70
     1
102
RTVSPost2010Prop39
140
1.0
102
RTVSPost2010PropOp39
 70
     1
102
RTVSPost2010Prop40
 90
        0
102
RTVSPost2010PropOp40
 70
     1
102
RTVSPost2010Prop41ColorIndex
 90
       18
102
RTVSPost2010Prop41ColorRGB
 90
        0
102
RTVSPost2010PropOp41
 70
     1
102
RTVSPost2010Prop42
 90
       50
102
RTVSPost2010PropOp42
 70
     1
102
RTVSPost2010Prop43
 90
        3
102
RTVSPost2010PropOp43
 70
     1
102
RTVSPost2010Prop44ColorIndex
 90
        5
102
RTVSPost2010Prop44ColorRGB
 90
      255
102
RTVSPost2010PropOp44
 70
     1
102
RTVSPost2010Prop45
280
     0
102
RTVSPost2010PropOp45
 70
     1
102
RTVSPost2010Prop46
 90
       50
102
RTVSPost2010PropOp46
 70
     1
102
RTVSPost2010Prop47
 90
       50
102
RTVSPost2010PropOp47
 70
     1
102
RTVSPost2010Prop48
 90
       50
102
RTVSPost2010PropOp48
 70
     1
102
RTVSPost2010Prop49
280
     0
102
RTVSPost2010PropOp49
 70
     1
102
RTVSPost2010Prop50
 90
       50
102
RTVSPost2010PropOp50
 70
     1
102
RTVSPost2010Prop51ColorIndex
 90
      256
102
RTVSPost2010Prop51ColorRGB
 90
-16777216
102
RTVSPost2010PropOp51
 70
     0
102
RTVSPost2010Prop52
140
1.0
102
RTVSPost2010PropOp52
 70
     0
102
RTVSPost2010Prop53
 90
        2
102
RTVSPost2010PropOp53
 70
     1
102
RTVSPost2010Prop54
  1
strokes_ogs.tif
102
RTVSPost2010PropOp54
 70
     1
102
RTVSPost2010Prop55
280
     0
102
RTVSPost2010PropOp55
 70
     1
102
RTVSPost2010Prop56
140
1.0
102
RTVSPost2010PropOp56
 70
     1
102
RTVSPost2010Prop57
140
1.0
102
RTVSPost2010PropOp57
 70
     1
102
RTVSPropertyOp0
 70
     1
102
RTVSPropertyOp1
 70
     1
102
RTVSPropertyOp2
 70
     1
102
RTVSPropertyOp3
 70
     1
102
RTVSPropertyOp4
 70
     1
102
RTVSPropertyOp5
 70
     1
102
RTVSPropertyOp6
 70
     1
102
RTVSPropertyOp7
 70
     1
102
RTVSPropertyOp8
 70
     1
102
RTVSPropertyOp9
 70
     1
102
RTVSPropertyOp10
 70
     1
102
RTVSPropertyOp11
 70
     1
102
RTVSPropertyOp12
 70
     1
102
RTVSPropertyOp13
 70
     1
102
RTVSPropertyOp14
 70
     1
102
RTVSPropertyOp15
 70
     1
102
RTVSPropertyOp16
 70
     1
102
RTVSPropertyOp17
 70
     1
102
RTVSPropertyOp18
 70
     1
102
RTVSPropertyOp19
 70
     1
102
RTVSPropertyOp20
 70
     1
102
RTVSPropertyOp21
 70
     1
102
RTVSPropertyOp22
 70
     1
102
RTVSPropertyOp23
 70
     1
102
RTVSPropertyOp24
 70
     1
102
RTVSPropertyOp25
 70
     1
102
RTVSPropertyOp26
 70
     1
102
RTVSPropertyOp27
 70
     1
102
RTVSPropertyOp28
 70
     1
102
RTVSPropertyOp29
 70
     1
102
RTVSPropertyOp30
 70
     1
102
RTVSPropertyOp31
 70
     1
102
RTVSPropertyOp32
 70
     1
102
RTVSPropertyOp33
 70
     1
102
RTVSPropertyOp34
 70
     1
102
RTVSPropertyOp35
 70
     1
102
RTVSPropertyOp36
 70
     1
102
RTVSPropertyOp37
 70
     1
102
RTVSPropertyOp38
 70
     1
102
RTVSPropertyOp39
 70
     1
102
RTVSPropertyOp40
 70
     1
102
RTVSPropertyOp41
 70
     1
102
RTVSPropertyOp42
 70
     1
102
RTVSPropertyOp43
 70
     1
102
RTVSPropertyOp44
 70
     1
102
RTVSPropertyOp45
 70
     1
102
RTVSPropertyOp46
 70
     1
102
RTVSPropertyOp47
 70
     1
102
RTVSPropertyOp48
 70
     1
102
RTVSPropertyOp49
 70
     1
102
RTVSPropertyOp50
 70
     1
102
RTVSPropertyOp51
 70
     0
102
RTVSPropertyOp52
 70
     0
102
RTVSPropertyOp53
 70
     1
102
RTVSPropertyOp54
 70
     1
102
RTVSPropertyOp55
 70
     1
102
RTVSPropertyOp56
 70
     1
102
RTVSPropertyOp57
 70
     1
102
RTVSPropertyOp58
 70
     1
102
RTVSPropertyOp59
 70
     1
102
RTVSPropertyOp60
 70
     1
102
RTVSPropertyOp61
 70
     1
102
RTVSPropertyOp62
 70
     1
  0
ENDSEC
  0
EOF
