  0
SECTION
  2
HEADER
  9
$ACADVER
  1
AC1015
  9
$ACADMAINTVER
 70
    18
  9
$DWGCODEPAGE
  3
ANSI_1252
  9
$INSBASE
 10
0.0
 20
0.0
 30
0.0
  9
$EXTMIN
 10
-246.9396965752119
 20
-401.6678464557834
 30
-0.0015258207003583
  9
$EXTMAX
 10
318.4030159963331
 20
359.5713966383731
 30
0.0000000349246037
  9
$LIMMIN
 10
0.0
 20
0.0
  9
$LIMMAX
 10
420.0
 20
297.0
  9
$ORTHOMODE
 70
     0
  9
$REGENMODE
 70
     1
  9
$FILLMODE
 70
     1
  9
$QTEXTMODE
 70
     0
  9
$MIRRTEXT
 70
     0
  9
$LTSCALE
 40
1.0
  9
$ATTMODE
 70
     1
  9
$TEXTSIZE
 40
2.5
  9
$TRACEWID
 40
1.0
  9
$TEXTSTYLE
  7
Standard
  9
$CLAYER
  8
0
  9
$CELTYPE
  6
ByLayer
  9
$CECOLOR
 62
   256
  9
$CELTSCALE
 40
1.0
  9
$DISPSILH
 70
     0
  9
$DIMSCALE
 40
1.0
  9
$DIMASZ
 40
2.5
  9
$DIMEXO
 40
0.625
  9
$DIMDLI
 40
3.75
  9
$DIMRND
 40
0.0
  9
$DIMDLE
 40
0.0
  9
$DIMEXE
 40
1.25
  9
$DIMTP
 40
0.0
  9
$DIMTM
 40
0.0
  9
$DIMTXT
 40
2.5
  9
$DIMCEN
 40
2.5
  9
$DIMTSZ
 40
0.0
  9
$DIMTOL
 70
     0
  9
$DIMLIM
 70
     0
  9
$DIMTIH
 70
     0
  9
$DIMTOH
 70
     0
  9
$DIMSE1
 70
     0
  9
$DIMSE2
 70
     0
  9
$DIMTAD
 70
     1
  9
$DIMZIN
 70
     8
  9
$DIMBLK
  1

  9
$DIMASO
 70
     1
  9
$DIMSHO
 70
     1
  9
$DIMPOST
  1

  9
$DIMAPOST
  1

  9
$DIMALT
 70
     0
  9
$DIMALTD
 70
     3
  9
$DIMALTF
 40
0.03937007874016
  9
$DIMLFAC
 40
1.0
  9
$DIMTOFL
 70
     1
  9
$DIMTVP
 40
0.0
  9
$DIMTIX
 70
     0
  9
$DIMSOXD
 70
     0
  9
$DIMSAH
 70
     0
  9
$DIMBLK1
  1

  9
$DIMBLK2
  1

  9
$DIMSTYLE
  2
ISO-25
  9
$DIMCLRD
 70
     0
  9
$DIMCLRE
 70
     0
  9
$DIMCLRT
 70
     0
  9
$DIMTFAC
 40
1.0
  9
$DIMGAP
 40
0.625
  9
$DIMJUST
 70
     0
  9
$DIMSD1
 70
     0
  9
$DIMSD2
 70
     0
  9
$DIMTOLJ
 70
     0
  9
$DIMTZIN
 70
     8
  9
$DIMALTZ
 70
     0
  9
$DIMALTTZ
 70
     0
  9
$DIMUPT
 70
     0
  9
$DIMDEC
 70
     2
  9
$DIMTDEC
 70
     2
  9
$DIMALTU
 70
     2
  9
$DIMALTTD
 70
     3
  9
$DIMTXSTY
  7
Standard
  9
$DIMAUNIT
 70
     0
  9
$DIMADEC
 70
     0
  9
$DIMALTRND
 40
0.0
  9
$DIMAZIN
 70
     0
  9
$DIMDSEP
 70
    44
  9
$DIMATFIT
 70
     3
  9
$DIMFRAC
 70
     0
  9
$DIMLDRBLK
  1

  9
$DIMLUNIT
 70
     2
  9
$DIMLWD
 70
    -2
  9
$DIMLWE
 70
    -2
  9
$DIMTMOVE
 70
     0
  9
$LUNITS
 70
     2
  9
$LUPREC
 70
     4
  9
$SKETCHINC
 40
1.0
  9
$FILLETRAD
 40
0.0
  9
$AUNITS
 70
     0
  9
$AUPREC
 70
     0
  9
$MENU
  1
.
  9
$ELEVATION
 40
0.0
  9
$PELEVATION
 40
0.0
  9
$THICKNESS
 40
0.0
  9
$LIMCHECK
 70
     0
  9
$CHAMFERA
 40
0.0
  9
$CHAMFERB
 40
0.0
  9
$CHAMFERC
 40
0.0
  9
$CHAMFERD
 40
0.0
  9
$SKPOLY
 70
     0
  9
$TDCREATE
 40
2460719.406504630
  9
$TDUCREATE
 40
2460719.114837963
  9
$TDUPDATE
 40
2460719.416446759
  9
$TDUUPDATE
 40
2460719.124780093
  9
$TDINDWG
 40
0.0027893519
  9
$TDUSRTIMER
 40
0.0027893519
  9
$USRTIMER
 70
     1
  9
$ANGBASE
 50
0.0
  9
$ANGDIR
 70
     0
  9
$PDMODE
 70
     0
  9
$PDSIZE
 40
0.0
  9
$PLINEWID
 40
0.0
  9
$SPLFRAME
 70
     0
  9
$SPLINETYPE
 70
     6
  9
$SPLINESEGS
 70
     8
  9
$HANDSEED
  5
1355E
  9
$SURFTAB1
 70
     6
  9
$SURFTAB2
 70
     6
  9
$SURFTYPE
 70
     6
  9
$SURFU
 70
     6
  9
$SURFV
 70
     6
  9
$UCSBASE
  2

  9
$UCSNAME
  2

  9
$UCSORG
 10
0.0
 20
0.0
 30
0.0
  9
$UCSXDIR
 10
1.0
 20
0.0
 30
0.0
  9
$UCSYDIR
 10
0.0
 20
1.0
 30
0.0
  9
$UCSORTHOREF
  2

  9
$UCSORTHOVIEW
 70
     0
  9
$UCSORGTOP
 10
0.0
 20
0.0
 30
0.0
  9
$UCSORGBOTTOM
 10
0.0
 20
0.0
 30
0.0
  9
$UCSORGLEFT
 10
0.0
 20
0.0
 30
0.0
  9
$UCSORGRIGHT
 10
0.0
 20
0.0
 30
0.0
  9
$UCSORGFRONT
 10
0.0
 20
0.0
 30
0.0
  9
$UCSORGBACK
 10
0.0
 20
0.0
 30
0.0
  9
$PUCSBASE
  2

  9
$PUCSNAME
  2

  9
$PUCSORG
 10
0.0
 20
0.0
 30
0.0
  9
$PUCSXDIR
 10
1.0
 20
0.0
 30
0.0
  9
$PUCSYDIR
 10
0.0
 20
1.0
 30
0.0
  9
$PUCSORTHOREF
  2

  9
$PUCSORTHOVIEW
 70
     0
  9
$PUCSORGTOP
 10
0.0
 20
0.0
 30
0.0
  9
$PUCSORGBOTTOM
 10
0.0
 20
0.0
 30
0.0
  9
$PUCSORGLEFT
 10
0.0
 20
0.0
 30
0.0
  9
$PUCSORGRIGHT
 10
0.0
 20
0.0
 30
0.0
  9
$PUCSORGFRONT
 10
0.0
 20
0.0
 30
0.0
  9
$PUCSORGBACK
 10
0.0
 20
0.0
 30
0.0
  9
$USERI1
 70
     0
  9
$USERI2
 70
     0
  9
$USERI3
 70
     0
  9
$USERI4
 70
     0
  9
$USERI5
 70
     0
  9
$USERR1
 40
0.0
  9
$USERR2
 40
0.0
  9
$USERR3
 40
0.0
  9
$USERR4
 40
0.0
  9
$USERR5
 40
0.0
  9
$WORLDVIEW
 70
     1
  9
$SHADEDGE
 70
     3
  9
$SHADEDIF
 70
    70
  9
$TILEMODE
 70
     1
  9
$MAXACTVP
 70
    48
  9
$PINSBASE
 10
0.0
 20
0.0
 30
0.0
  9
$PLIMCHECK
 70
     0
  9
$PEXTMIN
 10
0.0
 20
0.0
 30
0.0
  9
$PEXTMAX
 10
0.0
 20
0.0
 30
0.0
  9
$PLIMMIN
 10
0.0
 20
0.0
  9
$PLIMMAX
 10
12.0
 20
9.0
  9
$UNITMODE
 70
     0
  9
$VISRETAIN
 70
     1
  9
$PLINEGEN
 70
     0
  9
$PSLTSCALE
 70
     1
  9
$TREEDEPTH
 70
  3020
  9
$CMLSTYLE
  2
Standard
  9
$CMLJUST
 70
     0
  9
$CMLSCALE
 40
20.0
  9
$PROXYGRAPHICS
 70
     1
  9
$MEASUREMENT
 70
     1
  9
$CELWEIGHT
370
    -1
  9
$ENDCAPS
280
     0
  9
$JOINSTYLE
280
     0
  9
$LWDISPLAY
290
     0
  9
$INSUNITS
 70
     4
  9
$HYPERLINKBASE
  1

  9
$STYLESHEET
  1

  9
$XEDIT
290
     1
  9
$CEPSNTYPE
380
     0
  9
$PSTYLEMODE
290
     1
  9
$FINGERPRINTGUID
  2
{375C693C-302E-BC42-B92A-19F6C371B7B0}
  9
$VERSIONGUID
  2
{A3647282-C022-5641-89CD-4D595CDB892D}
  9
$EXTNAMES
290
     1
  9
$PSVPSCALE
 40
0.0
  9
$OLESTARTUP
290
     0
  0
ENDSEC
  0
SECTION
  2
CLASSES
  0
CLASS
  1
ACDBDICTIONARYWDFLT
  2
AcDbDictionaryWithDefault
  3
ObjectDBX Classes
 90
        0
280
     0
281
     0
  0
CLASS
  1
ACDBPLACEHOLDER
  2
AcDbPlaceHolder
  3
ObjectDBX Classes
 90
        0
280
     0
281
     0
  0
CLASS
  1
LAYOUT
  2
AcDbLayout
  3
ObjectDBX Classes
 90
        0
280
     0
281
     0
  0
CLASS
  1
DICTIONARYVAR
  2
AcDbDictionaryVar
  3
ObjectDBX Classes
 90
        0
280
     0
281
     0
  0
CLASS
  1
TABLESTYLE
  2
AcDbTableStyle
  3
ObjectDBX Classes
 90
     4095
280
     0
281
     0
  0
CLASS
  1
MATERIAL
  2
AcDbMaterial
  3
ObjectDBX Classes
 90
     1153
280
     0
281
     0
  0
CLASS
  1
VISUALSTYLE
  2
AcDbVisualStyle
  3
ObjectDBX Classes
 90
     4095
280
     0
281
     0
  0
CLASS
  1
SCALE
  2
AcDbScale
  3
ObjectDBX Classes
 90
     1153
280
     0
281
     0
  0
CLASS
  1
MLEADERSTYLE
  2
AcDbMLeaderStyle
  3
ACDB_MLEADERSTYLE_CLASS
 90
     4095
280
     0
281
     0
  0
CLASS
  1
CELLSTYLEMAP
  2
AcDbCellStyleMap
  3
ObjectDBX Classes
 90
     1152
280
     0
281
     0
  0
CLASS
  1
EXACXREFPANELOBJECT
  2
ExAcXREFPanelObject
  3
EXAC_ESW
 90
    33793
280
     0
281
     0
  0
CLASS
  1
NPOCOLLECTION
  2
AcDbImpNonPersistentObjectsCollection
  3
ObjectDBX Classes
 90
    33921
280
     0
281
     0
  0
CLASS
  1
LAYER_INDEX
  2
AcDbLayerIndex
  3
ObjectDBX Classes
 90
    32768
280
     0
281
     0
  0
CLASS
  1
SPATIAL_INDEX
  2
AcDbSpatialIndex
  3
ObjectDBX Classes
 90
    32768
280
     0
281
     0
  0
CLASS
  1
IDBUFFER
  2
AcDbIdBuffer
  3
ObjectDBX Classes
 90
    32768
280
     0
281
     0
  0
CLASS
  1
ACDBSECTIONVIEWSTYLE
  2
AcDbSectionViewStyle
  3
ObjectDBX Classes
 90
     1025
280
     0
281
     0
  0
CLASS
  1
ACDBDETAILVIEWSTYLE
  2
AcDbDetailViewStyle
  3
ObjectDBX Classes
 90
     1025
280
     0
281
     0
  0
CLASS
  1
XRECORD
  2
AcDbXrecord
  3
ObjectDBX Classes
 90
        0
280
     0
281
     0
  0
ENDSEC
  0
SECTION
  2
TABLES
  0
TABLE
  2
VPORT
  5
8
102
{ACAD_XDICTIONARY
360
1346C
102
}
330
0
100
AcDbSymbolTable
 70
     1
  0
VPORT
  5
EA
330
8
100
AcDbSymbolTableRecord
100
AcDbViewportTableRecord
  2
*Active
 70
     0
 10
0.0
 20
0.0
 11
1.0
 21
1.0
 12
35.73165971056061
 22
-21.04822490870515
 13
0.0
 23
0.0
 14
10.0
 24
10.0
 15
10.0
 25
10.0
 16
0.0
 26
0.0
 36
1.0
 17
0.0
 27
0.0
 37
0.0
 40
809.5089490061806
 41
0.9846153846153848
 42
50.0
 43
0.0
 44
0.0
 50
0.0
 51
0.0
 71
     0
 72
  1000
 73
     1
 74
     3
 75
     0
 76
     1
 77
     0
 78
     0
281
     0
 65
     1
110
0.0
120
0.0
130
0.0
111
1.0
121
0.0
131
0.0
112
0.0
122
1.0
132
0.0
 79
     0
146
0.0
1001
ACAD_NAV_VCDISPLAY
1070
     3
  0
ENDTAB
  0
TABLE
  2
LTYPE
  5
5
330
0
100
AcDbSymbolTable
 70
     1
  0
LTYPE
  5
14
330
5
100
AcDbSymbolTableRecord
100
AcDbLinetypeTableRecord
  2
ByBlock
 70
     0
  3

 72
    65
 73
     0
 40
0.0
  0
LTYPE
  5
15
330
5
100
AcDbSymbolTableRecord
100
AcDbLinetypeTableRecord
  2
ByLayer
 70
     0
  3

 72
    65
 73
     0
 40
0.0
  0
LTYPE
  5
16
330
5
100
AcDbSymbolTableRecord
100
AcDbLinetypeTableRecord
  2
Continuous
 70
     0
  3
Solid line
 72
    65
 73
     0
 40
0.0
  0
ENDTAB
  0
TABLE
  2
LAYER
  5
2
102
{ACAD_XDICTIONARY
360
1FF
102
}
330
0
100
AcDbSymbolTable
 70
     1
  0
LAYER
  5
10
102
{ACAD_XDICTIONARY
360
13C
102
}
330
2
100
AcDbSymbolTableRecord
100
AcDbLayerTableRecord
  2
0
 70
     0
 62
     7
  6
Continuous
370
    -3
390
F
  0
ENDTAB
  0
TABLE
  2
STYLE
  5
3
330
0
100
AcDbSymbolTable
 70
     1
  0
STYLE
  5
11
330
3
100
AcDbSymbolTableRecord
100
AcDbTextStyleTableRecord
  2
Standard
 70
     0
 40
0.0
 41
1.0
 50
0.0
 71
     0
 42
2.5
  3
arial.ttf
  4

1001
ACAD
1000
Arial
1071
       34
  0
ENDTAB
  0
TABLE
  2
VIEW
  5
6
330
0
100
AcDbSymbolTable
 70
     0
  0
ENDTAB
  0
TABLE
  2
UCS
  5
7
330
0
100
AcDbSymbolTable
 70
     0
  0
ENDTAB
  0
TABLE
  2
APPID
  5
9
330
0
100
AcDbSymbolTable
 70
     8
  0
APPID
  5
12
330
9
100
AcDbSymbolTableRecord
100
AcDbRegAppTableRecord
  2
ACAD
 70
     0
  0
APPID
  5
9E
330
9
100
AcDbSymbolTableRecord
100
AcDbRegAppTableRecord
  2
ACAD_PSEXT
 70
     0
  0
APPID
  5
133
330
9
100
AcDbSymbolTableRecord
100
AcDbRegAppTableRecord
  2
AcadAnnoPO
 70
     0
  0
APPID
  5
134
330
9
100
AcDbSymbolTableRecord
100
AcDbRegAppTableRecord
  2
AcadAnnotative
 70
     0
  0
APPID
  5
135
330
9
100
AcDbSymbolTableRecord
100
AcDbRegAppTableRecord
  2
ACAD_DSTYLE_DIMJAG
 70
     0
  0
APPID
  5
136
330
9
100
AcDbSymbolTableRecord
100
AcDbRegAppTableRecord
  2
ACAD_DSTYLE_DIMTALN
 70
     0
  0
APPID
  5
165
330
9
100
AcDbSymbolTableRecord
100
AcDbRegAppTableRecord
  2
ACAD_MLEADERVER
 70
     0
  0
APPID
  5
217
330
9
100
AcDbSymbolTableRecord
100
AcDbRegAppTableRecord
  2
ACAD_NAV_VCDISPLAY
 70
     0
  0
ENDTAB
  0
TABLE
  2
DIMSTYLE
  5
A
330
0
100
AcDbSymbolTable
 70
     1
100
AcDbDimStyleTable
 71
     0
  0
DIMSTYLE
105
27
330
A
100
AcDbSymbolTableRecord
100
AcDbDimStyleTableRecord
  2
ISO-25
 70
     0
 41
2.5
 42
0.625
 43
3.75
 44
1.25
 73
     0
 74
     0
 77
     1
 78
     8
140
2.5
141
2.5
143
0.03937007874016
147
0.625
171
     3
172
     1
271
     2
272
     2
274
     3
278
    44
283
     0
284
     8
340
11
  0
ENDTAB
  0
TABLE
  2
BLOCK_RECORD
  5
1
330
0
100
AcDbSymbolTable
 70
     7
  0
BLOCK_RECORD
  5
1F
102
{ACAD_XDICTIONARY
360
1CE
102
}
330
1
100
AcDbSymbolTableRecord
100
AcDbBlockTableRecord
  2
*Model_Space
340
22
  0
BLOCK_RECORD
  5
D2
102
{ACAD_XDICTIONARY
360
1341F
102
}
330
1
100
AcDbSymbolTableRecord
100
AcDbBlockTableRecord
  2
*Paper_Space
340
D3
  0
BLOCK_RECORD
  5
D6
102
{ACAD_XDICTIONARY
360
13421
102
}
330
1
100
AcDbSymbolTableRecord
100
AcDbBlockTableRecord
  2
*Paper_Space0
340
D7
  0
BLOCK_RECORD
  5
1314B
330
1
100
AcDbSymbolTableRecord
100
AcDbBlockTableRecord
  2
SPR91_200-Front
340
0
102
{BLKREFS
331
13415
102
}
  0
BLOCK_RECORD
  5
131CB
330
1
100
AcDbSymbolTableRecord
100
AcDbBlockTableRecord
  2
SPR91_200-Left
340
0
102
{BLKREFS
331
13416
102
}
  0
BLOCK_RECORD
  5
13207
330
1
100
AcDbSymbolTableRecord
100
AcDbBlockTableRecord
  2
SPR91_200-Right
340
0
102
{BLKREFS
331
13417
102
}
  0
BLOCK_RECORD
  5
13245
330
1
100
AcDbSymbolTableRecord
100
AcDbBlockTableRecord
  2
SPR91_200-Top
340
0
102
{BLKREFS
331
13418
102
}
  0
BLOCK_RECORD
  5
132AB
330
1
100
AcDbSymbolTableRecord
100
AcDbBlockTableRecord
  2
SPR91_200-Bottom
340
0
102
{BLKREFS
331
13419
102
}
  0
BLOCK_RECORD
  5
13309
330
1
100
AcDbSymbolTableRecord
100
AcDbBlockTableRecord
  2
SPR91_200-ISO
340
0
102
{BLKREFS
331
1341A
102
}
  0
ENDTAB
  0
ENDSEC
  0
SECTION
  2
BLOCKS
  0
BLOCK
  5
20
330
1F
100
AcDbEntity
  8
0
100
AcDbBlockBegin
  2
*Model_Space
 70
     0
 10
0.0
 20
0.0
 30
0.0
  3
*Model_Space
  1

  0
ENDBLK
  5
21
330
1F
100
AcDbEntity
  8
0
100
AcDbBlockEnd
  0
BLOCK
  5
D4
330
D2
100
AcDbEntity
 67
     1
  8
0
100
AcDbBlockBegin
  2
*Paper_Space
 70
     0
 10
0.0
 20
0.0
 30
0.0
  3
*Paper_Space
  1

  0
ENDBLK
  5
D5
330
D2
100
AcDbEntity
 67
     1
  8
0
100
AcDbBlockEnd
  0
BLOCK
  5
D8
330
D6
100
AcDbEntity
 67
     1
  8
0
100
AcDbBlockBegin
  2
*Paper_Space0
 70
     0
 10
0.0
 20
0.0
 30
0.0
  3
*Paper_Space0
  1

  0
ENDBLK
  5
D9
330
D6
100
AcDbEntity
 67
     1
  8
0
100
AcDbBlockEnd
  0
BLOCK
  5
1314C
330
1314B
100
AcDbEntity
  8
0
100
AcDbBlockBegin
  2
SPR91_200-Front
 70
     0
 10
0.0
 20
0.0
 30
0.0
  3
SPR91_200-Front
  1

  0
LINE
  5
1314E
330
1314B
100
AcDbEntity
  8
0
100
AcDbLine
 10
88.02709056099997
 20
6.269999999999987
 30
0.0
 11
83.02709056099997
 21
1.269999999999987
 31
0.0
  0
LINE
  5
1314F
330
1314B
100
AcDbEntity
  8
0
100
AcDbLine
 10
-83.02709056100001
 20
1.269999999999987
 30
0.0
 11
-88.02709056100001
 21
6.269999999999987
 31
0.0
  0
LINE
  5
13150
330
1314B
100
AcDbEntity
  8
0
100
AcDbLine
 10
-88.02709056100001
 20
72.27000000000001
 30
0.0
 11
-83.02709056100002
 21
77.27000000000001
 31
0.0
  0
LINE
  5
13151
330
1314B
100
AcDbEntity
  8
0
100
AcDbLine
 10
83.02709056099997
 20
77.27
 30
0.0
 11
88.02709056099999
 21
72.27
 31
0.0
  0
LINE
  5
13152
330
1314B
100
AcDbEntity
  8
0
100
AcDbLine
 10
88.02709056099999
 20
72.27
 30
0.0
 11
88.02709056099997
 21
6.269999999999988
 31
0.0
  0
LINE
  5
13153
330
1314B
100
AcDbEntity
  8
0
100
AcDbLine
 10
-88.02709056100001
 20
6.269999999999987
 30
0.0
 11
-88.02709056100001
 21
72.27000000000001
 31
0.0
  0
LINE
  5
13154
330
1314B
100
AcDbEntity
  8
0
100
AcDbLine
 10
41.99999999999998
 20
77.27
 30
0.0
 11
83.02709056099997
 21
77.27
 31
0.0
  0
LINE
  5
13155
330
1314B
100
AcDbEntity
  8
0
100
AcDbLine
 10
-42.00000000000001
 20
1.269999999999978
 30
0.0
 11
-83.02709056100001
 21
1.269999999999987
 31
0.0
  0
LINE
  5
13156
330
1314B
100
AcDbEntity
  8
0
100
AcDbLine
 10
83.02709056099997
 20
1.269999999999987
 30
0.0
 11
41.99999999999998
 21
1.269999999999978
 31
0.0
  0
ARC
  5
13157
330
1314B
100
AcDbEntity
  8
0
100
AcDbCircle
 10
41.99999999999998
 20
78.77000000000002
 30
0.0
 40
1.5
100
AcDbArc
 50
90.0
 51
270.0
  0
LINE
  5
13158
330
1314B
100
AcDbEntity
  8
0
100
AcDbLine
 10
-83.02709056100002
 20
77.27000000000001
 30
0.0
 11
-42.00000000000002
 21
77.27000000000001
 31
0.0
  0
ARC
  5
13159
330
1314B
100
AcDbEntity
  8
0
100
AcDbCircle
 10
-42.00000000000002
 20
78.77000000000001
 30
0.0
 40
1.5
100
AcDbArc
 50
270.0
 51
90.0
  0
LINE
  5
1315A
330
1314B
100
AcDbEntity
  8
0
100
AcDbLine
 10
46.99999999999969
 20
80.27000000000001
 30
0.0
 11
46.99999999999964
 21
85.27000000000001
 31
0.0
  0
LINE
  5
1315B
330
1314B
100
AcDbEntity
  8
0
100
AcDbLine
 10
46.99999999999964
 20
85.27000000000001
 30
0.0
 11
45.49999999999964
 21
85.27000000000001
 31
0.0
  0
LINE
  5
1315C
330
1314B
100
AcDbEntity
  8
0
100
AcDbLine
 10
45.49999999999964
 20
85.27000000000001
 30
0.0
 11
45.49999999999968
 21
80.27000000000001
 31
0.0
  0
LINE
  5
1315D
330
1314B
100
AcDbEntity
  8
0
100
AcDbLine
 10
45.49999999999968
 20
80.27000000000001
 30
0.0
 11
46.99999999999969
 21
80.27000000000001
 31
0.0
  0
LINE
  5
1315E
330
1314B
100
AcDbEntity
  8
0
100
AcDbLine
 10
45.49999999999964
 20
195.67
 30
0.0
 11
46.99999999999964
 21
195.67
 31
0.0
  0
LINE
  5
1315F
330
1314B
100
AcDbEntity
  8
0
100
AcDbLine
 10
46.99999999999964
 20
195.67
 30
0.0
 11
46.99999999999969
 21
200.67
 31
0.0
  0
LINE
  5
13160
330
1314B
100
AcDbEntity
  8
0
100
AcDbLine
 10
-47.00000000000001
 20
85.27000000000001
 30
0.0
 11
-47.00000000000001
 21
80.27000000000001
 31
0.0
  0
LINE
  5
13161
330
1314B
100
AcDbEntity
  8
0
100
AcDbLine
 10
-47.00000000000001
 20
80.27000000000001
 30
0.0
 11
-45.50000000000001
 21
80.27000000000001
 31
0.0
  0
LINE
  5
13162
330
1314B
100
AcDbEntity
  8
0
100
AcDbLine
 10
-45.50000000000001
 20
80.27000000000001
 30
0.0
 11
-45.50000000000001
 21
85.27000000000001
 31
0.0
  0
LINE
  5
13163
330
1314B
100
AcDbEntity
  8
0
100
AcDbLine
 10
-45.50000000000001
 20
85.27000000000001
 30
0.0
 11
-47.00000000000001
 21
85.27000000000001
 31
0.0
  0
LINE
  5
13164
330
1314B
100
AcDbEntity
  8
0
100
AcDbLine
 10
-47.00000000000001
 20
200.67
 30
0.0
 11
-47.00000000000001
 21
195.67
 31
0.0
  0
LINE
  5
13165
330
1314B
100
AcDbEntity
  8
0
100
AcDbLine
 10
-47.00000000000001
 20
195.67
 30
0.0
 11
-45.50000000000001
 21
195.67
 31
0.0
  0
LINE
  5
13166
330
1314B
100
AcDbEntity
  8
0
100
AcDbLine
 10
46.99999999999969
 20
200.67
 30
0.0
 11
45.49999999999968
 21
200.67
 31
0.0
  0
LINE
  5
13167
330
1314B
100
AcDbEntity
  8
0
100
AcDbLine
 10
45.49999999999968
 20
200.67
 30
0.0
 11
45.49999999999964
 21
195.67
 31
0.0
  0
LINE
  5
13168
330
1314B
100
AcDbEntity
  8
0
100
AcDbLine
 10
-45.50000000000001
 20
195.67
 30
0.0
 11
-45.50000000000001
 21
200.67
 31
0.0
  0
LINE
  5
13169
330
1314B
100
AcDbEntity
  8
0
100
AcDbLine
 10
-45.50000000000001
 20
200.67
 30
0.0
 11
-47.00000000000001
 21
200.67
 31
0.0
  0
LINE
  5
1316A
330
1314B
100
AcDbEntity
  8
0
100
AcDbLine
 10
46.99999999999996
 20
-28.4260825445001
 30
0.0
 11
46.99999999999999
 21
-21.35501473263461
 31
0.0
  0
LINE
  5
1316B
330
1314B
100
AcDbEntity
  8
0
100
AcDbLine
 10
46.99999999999999
 20
-21.35501473263461
 30
0.0
 11
45.49999999999998
 21
-21.35501473263462
 31
0.0
  0
LINE
  5
1316C
330
1314B
100
AcDbEntity
  8
0
100
AcDbLine
 10
45.49999999999998
 20
-21.35501473263462
 30
0.0
 11
45.49999999999998
 21
-28.4260825445001
 31
0.0
  0
LINE
  5
1316D
330
1314B
100
AcDbEntity
  8
0
100
AcDbLine
 10
45.49999999999998
 20
-28.4260825445001
 30
0.0
 11
46.99999999999996
 21
-28.4260825445001
 31
0.0
  0
LINE
  5
1316E
330
1314B
100
AcDbEntity
  8
0
100
AcDbLine
 10
-46.99999999999999
 20
-21.35501473263463
 30
0.0
 11
-46.99999999999996
 21
-28.4260825445001
 31
0.0
  0
LINE
  5
1316F
330
1314B
100
AcDbEntity
  8
0
100
AcDbLine
 10
-46.99999999999996
 20
-28.4260825445001
 30
0.0
 11
-45.49999999999998
 21
-28.4260825445001
 31
0.0
  0
LINE
  5
13170
330
1314B
100
AcDbEntity
  8
0
100
AcDbLine
 10
-45.49999999999998
 20
-28.4260825445001
 30
0.0
 11
-45.49999999999998
 21
-21.35501473263464
 31
0.0
  0
LINE
  5
13171
330
1314B
100
AcDbEntity
  8
0
100
AcDbLine
 10
-45.49999999999998
 20
-21.35501473263464
 30
0.0
 11
-46.99999999999999
 21
-21.35501473263463
 31
0.0
  0
LINE
  5
13172
330
1314B
100
AcDbEntity
  8
0
100
AcDbLine
 10
46.99999999999964
 20
85.27000000000001
 30
0.0
 11
46.99999999999964
 21
195.67
 31
0.0
  0
LINE
  5
13173
330
1314B
100
AcDbEntity
  8
0
100
AcDbLine
 10
45.49999999999964
 20
195.67
 30
0.0
 11
45.49999999999964
 21
85.27000000000001
 31
0.0
  0
LINE
  5
13174
330
1314B
100
AcDbEntity
  8
0
100
AcDbLine
 10
-47.00000000000001
 20
195.67
 30
0.0
 11
-47.00000000000001
 21
85.27000000000001
 31
0.0
  0
LINE
  5
13175
330
1314B
100
AcDbEntity
  8
0
100
AcDbLine
 10
-45.50000000000001
 20
195.67
 30
0.0
 11
-45.50000000000001
 21
85.27000000000001
 31
0.0
  0
LINE
  5
13176
330
1314B
100
AcDbEntity
  8
0
100
AcDbLine
 10
41.99999999999998
 20
80.27000000000001
 30
0.0
 11
44.89999999999999
 21
80.27000000000001
 31
0.0
  0
LINE
  5
13177
330
1314B
100
AcDbEntity
  8
0
100
AcDbLine
 10
-44.90000000000002
 20
80.27000000000001
 30
0.0
 11
-42.00000000000002
 21
80.27000000000001
 31
0.0
  0
LINE
  5
13178
330
1314B
100
AcDbEntity
  8
0
100
AcDbLine
 10
-44.90000000000002
 20
200.67
 30
0.0
 11
44.89999999999999
 21
200.67
 31
0.0
  0
LINE
  5
13179
330
1314B
100
AcDbEntity
  8
0
100
AcDbLine
 10
47.00000000000123
 20
-2.263131642256543
 30
0.0
 11
46.99999999999999
 21
-21.35501473263461
 31
0.0
  0
LINE
  5
1317A
330
1314B
100
AcDbEntity
  8
0
100
AcDbLine
 10
45.50000000000105
 20
-2.263131642256543
 30
0.0
 11
45.49999999999998
 21
-21.35501473263462
 31
0.0
  0
ELLIPSE
  5
1317B
330
1314B
100
AcDbEntity
  8
0
100
AcDbEllipse
 10
44.89999999999997
 20
-54.16476937947052
 30
0.0
 11
0.6000000000000087
 21
0.0000000000001049
 31
0.0
210
0.0
220
0.0
230
1.0
 40
0.7071067811866661
 41
4.712388980384567
 42
6.283185307179551
  0
ELLIPSE
  5
1317C
330
1314B
100
AcDbEntity
  8
0
100
AcDbEllipse
 10
44.89999999999997
 20
-54.16476937947052
 30
0.0
 11
2.100000000000031
 21
0.0000000000002576
 31
0.0
210
0.0
220
0.0
230
1.0
 40
0.7071067811865444
 41
4.71238898038481
 42
6.283185307179981
  0
LINE
  5
1317D
330
1314B
100
AcDbEntity
  8
0
100
AcDbLine
 10
47.00000000000123
 20
-2.263131642256543
 30
0.0
 11
45.50000000000105
 21
-2.263131642256543
 31
0.0
  0
ELLIPSE
  5
1317E
330
1314B
100
AcDbEntity
  8
0
100
AcDbEllipse
 10
-42.00000000000001
 20
0.0236058844763973
 30
0.0
 11
-1.5
 21
0.0000000000001095
 31
0.0
210
0.0
220
0.0
230
1.0
 40
0.7071067811865479
 41
1.570796326795026
 42
2.705254581962135
  0
LINE
  5
1317F
330
1314B
100
AcDbEntity
  8
0
100
AcDbLine
 10
-42.00000000000001
 20
-1.037054287303411
 30
0.0
 11
-44.29315533855963
 21
-1.037054287303411
 31
0.0
  0
LINE
  5
13180
330
1314B
100
AcDbEntity
  8
0
100
AcDbLine
 10
-44.29315533855963
 20
-1.037054287303411
 30
0.0
 11
-44.90000000000001
 21
-1.466158262545964
 31
0.0
  0
LINE
  5
13181
330
1314B
100
AcDbEntity
  8
0
100
AcDbLine
 10
44.89999999999998
 20
-1.466158262545967
 30
0.0
 11
44.2931553385596
 21
-1.037054287303415
 31
0.0
  0
LINE
  5
13182
330
1314B
100
AcDbEntity
  8
0
100
AcDbLine
 10
44.2931553385596
 20
-1.037054287303415
 30
0.0
 11
41.99999999999998
 21
-1.037054287303415
 31
0.0
  0
ELLIPSE
  5
13183
330
1314B
100
AcDbEntity
  8
0
100
AcDbEllipse
 10
41.99999999999998
 20
0.0236058844763973
 30
0.0
 11
-1.5
 21
0.0
 31
0.0
210
0.0
220
0.0
230
1.0
 40
0.7071067811865479
 41
0.4363380716279047
 42
1.570796326794896
  0
SPLINE
  5
13184
330
1314B
100
AcDbEntity
  8
0
100
AcDbSpline
210
0.0
220
0.0
230
1.0
 70
     8
 71
     3
 72
     8
 73
     4
 74
     0
 42
0.000000001
 43
0.0000000001
 40
-1.0
 40
-1.0
 40
-1.0
 40
-1.0
 40
0.0
 40
0.0
 40
0.0
 40
0.0
 10
40.64054197002045
 20
-0.4246540092928885
 30
0.0
 10
40.51586474390251
 20
-0.3214850446753071
 30
0.0
 10
40.47251992074075
 20
-0.159479210935458
 30
0.0
 10
40.51767776087193
 20
-0.0003899405809597
 30
0.0
  0
SPLINE
  5
13185
330
1314B
100
AcDbEntity
  8
0
100
AcDbSpline
210
0.0
220
0.0
230
1.0
 70
     8
 71
     3
 72
     8
 73
     4
 74
     0
 42
0.000000001
 43
0.0000000001
 40
-1.0
 40
-1.0
 40
-1.0
 40
-1.0
 40
0.0
 40
0.0
 40
0.0
 40
0.0
 10
-40.51767776087197
 20
-0.0003899405809596
 30
0.0
 10
-40.47251992074049
 20
-0.1594792109354548
 30
0.0
 10
-40.51586474390056
 20
-0.3214850446753066
 30
0.0
 10
-40.64054197002054
 20
-0.4246540092928885
 30
0.0
  0
LINE
  5
13186
330
1314B
100
AcDbEntity
  8
0
100
AcDbLine
 10
-45.50000000000145
 20
-2.263131642256716
 30
0.0
 11
-47.00000000000177
 21
-2.263131642256717
 31
0.0
  0
SPLINE
  5
13187
330
1314B
100
AcDbEntity
  8
0
100
AcDbSpline
210
0.0
220
0.0
230
1.0
 70
     8
 71
     3
 72
     8
 73
     4
 74
     0
 42
0.000000001
 43
0.0000000001
 40
-1.0
 40
-1.0
 40
-1.0
 40
-1.0
 40
0.0
 40
0.0
 40
0.0
 40
0.0
 10
-44.90000000000001
 20
-1.466158262545961
 30
0.0
 10
-45.214159265359
 20
-1.873237411765418
 30
0.0
 10
-45.50000000000003
 20
-2.078196639180341
 30
0.0
 10
-45.50000000000003
 20
-2.263131641492208
 30
0.0
  0
ARC
  5
13188
330
1314B
100
AcDbEntity
  8
0
100
AcDbCircle
 10
-42.00000000000001
 20
-0.2300000000000074
 30
0.0
 40
1.5
100
AcDbArc
 50
8.805075259701309
 51
90.0
  0
SPLINE
  5
13189
330
1314B
100
AcDbEntity
  8
0
100
AcDbSpline
210
0.0
220
0.0
230
1.0
 70
     8
 71
     3
 72
     8
 73
     4
 74
     0
 42
0.000000001
 43
0.0000000001
 40
-1.0
 40
-1.0
 40
-1.0
 40
-1.0
 40
0.0
 40
0.0
 40
0.0
 40
0.0
 10
45.49999999999998
 20
-2.263131641492212
 30
0.0
 10
45.49999999999998
 20
-2.078196639180497
 30
0.0
 10
45.21415926535895
 20
-1.873237411765412
 30
0.0
 10
44.89999999999997
 20
-1.466158262545979
 30
0.0
  0
ARC
  5
1318A
330
1314B
100
AcDbEntity
  8
0
100
AcDbCircle
 10
41.99999999999998
 20
-0.2300000000000074
 30
0.0
 40
1.5
100
AcDbArc
 50
90.0
 51
171.1949247402987
  0
SPLINE
  5
1318B
330
1314B
100
AcDbEntity
  8
0
100
AcDbSpline
210
0.0
220
0.0
230
1.0
 70
     8
 71
     3
 72
    16
 73
    12
 74
     0
 42
0.000000001
 43
0.0000000001
 40
0.0
 40
0.0
 40
0.0
 40
0.0
 40
0.0356537247328163
 40
0.0356537247328163
 40
0.0703704956558506
 40
0.0703704956558506
 40
0.1051345640226057
 40
0.1051345640226057
 40
0.1398962718783054
 40
0.1398962718783054
 40
0.1538885733137362
 40
0.1538885733137362
 40
0.1538885733137362
 40
0.1538885733137362
 10
-45.99950000000113
 20
-2.263131641492218
 30
0.0
 10
-45.99949999999886
 20
-2.263131641490666
 30
0.0
 10
-45.97955867539154
 20
-2.263059951014904
 30
0.0
 10
-45.90583172165928
 20
-2.25083645120478
 30
0.0
 10
-45.85213458022575
 20
-2.238741830449163
 30
0.0
 10
-45.72293730422455
 20
-2.194102190356677
 30
0.0
 10
-45.64591985426369
 20
-2.160888677188698
 30
0.0
 10
-45.48574064082675
 20
-2.069479202526501
 30
0.0
 10
-45.40073655250477
 20
-2.010107098185758
 30
0.0
 10
-45.2890141834344
 20
-1.909831885096318
 30
0.0
 10
-45.25758437989595
 20
-1.878943669844949
 30
0.0
 10
-45.2274215552439
 20
-1.846191951394333
 30
0.0
  0
SPLINE
  5
1318C
330
1314B
100
AcDbEntity
  8
0
100
AcDbSpline
210
0.0
220
0.0
230
1.0
 70
     8
 71
     3
 72
    16
 73
    12
 74
     0
 42
0.000000001
 43
0.0000000001
 40
0.0
 40
0.0
 40
0.0
 40
0.0
 40
0.0356266149391468
 40
0.0356266149391468
 40
0.0703447701857835
 40
0.0703447701857835
 40
0.1051087695049359
 40
0.1051087695049359
 40
0.1398704808104428
 40
0.1398704808104428
 40
0.1538888647029524
 40
0.1538888647029524
 40
0.1538888647029524
 40
0.1538888647029524
 10
45.22742155524389
 20
-1.846191951394327
 30
0.0
 10
45.30422088266804
 20
-1.929583012344682
 30
0.0
 10
45.38999615133088
 20
-2.001172959757264
 30
0.0
 10
45.55564046646374
 20
-2.113266523289035
 30
0.0
 10
45.63750261653336
 20
-2.155953002297191
 30
0.0
 10
45.78182181894273
 20
-2.217016703002331
 30
0.0
 10
45.84591305092129
 20
-2.236189491819142
 30
0.0
 10
45.94238223267317
 20
-2.258395304189982
 30
0.0
 10
45.97587215058378
 20
-2.261811174868447
 30
0.0
 10
45.99650501536587
 20
-2.263130971916403
 30
0.0
 10
45.99950000000017
 20
-2.263131641491612
 30
0.0
 10
45.99950000000066
 20
-2.263131641492222
 30
0.0
  0
LINE
  5
1318D
330
1314B
100
AcDbEntity
  8
0
100
AcDbLine
 10
46.99999999999998
 20
-54.16476937947052
 30
0.0
 11
46.99999999999996
 21
-28.4260825445001
 31
0.0
  0
LINE
  5
1318E
330
1314B
100
AcDbEntity
  8
0
100
AcDbLine
 10
-46.99999999999996
 20
-28.4260825445001
 30
0.0
 11
-47.0
 21
-54.16476937947052
 31
0.0
  0
LINE
  5
1318F
330
1314B
100
AcDbEntity
  8
0
100
AcDbLine
 10
-45.49999999999998
 20
-28.4260825445001
 30
0.0
 11
-45.49999999999999
 21
-54.16476937947052
 31
0.0
  0
LINE
  5
13190
330
1314B
100
AcDbEntity
  8
0
100
AcDbLine
 10
-44.90000000000001
 20
-54.58903344818245
 30
0.0
 11
44.89999999999998
 21
-54.58903344818245
 31
0.0
  0
LINE
  5
13191
330
1314B
100
AcDbEntity
  8
0
100
AcDbLine
 10
45.49999999999998
 20
-54.16476937947052
 30
0.0
 11
45.49999999999998
 21
-28.4260825445001
 31
0.0
  0
LINE
  5
13192
330
1314B
100
AcDbEntity
  8
0
100
AcDbLine
 10
-44.90000000000001
 20
-55.64969361996226
 30
0.0
 11
44.89999999999998
 21
-55.64969361996226
 31
0.0
  0
LINE
  5
13193
330
1314B
100
AcDbEntity
  8
0
100
AcDbLine
 10
-47.00000000000177
 20
-2.263131642256717
 30
0.0
 11
-46.99999999999999
 21
-21.35501473263463
 31
0.0
  0
LINE
  5
13194
330
1314B
100
AcDbEntity
  8
0
100
AcDbLine
 10
-45.50000000000145
 20
-2.263131642256716
 30
0.0
 11
-45.49999999999998
 21
-21.35501473263464
 31
0.0
  0
CIRCLE
  5
13195
330
1314B
100
AcDbEntity
  8
0
100
AcDbCircle
 10
35.49999999999998
 20
189.77
 30
0.0
 40
2.5
  0
CIRCLE
  5
13196
330
1314B
100
AcDbEntity
  8
0
100
AcDbCircle
 10
35.49999999999998
 20
149.77
 30
0.0
 40
2.5
  0
CIRCLE
  5
13197
330
1314B
100
AcDbEntity
  8
0
100
AcDbCircle
 10
35.49999999999998
 20
109.7699999999999
 30
0.0
 40
2.5
  0
CIRCLE
  5
13198
330
1314B
100
AcDbEntity
  8
0
100
AcDbCircle
 10
35.49999999999998
 20
69.76999999999996
 30
0.0
 40
2.5
  0
CIRCLE
  5
13199
330
1314B
100
AcDbEntity
  8
0
100
AcDbCircle
 10
35.49999999999998
 20
29.76999999999997
 30
0.0
 40
2.5
  0
CIRCLE
  5
1319A
330
1314B
100
AcDbEntity
  8
0
100
AcDbCircle
 10
25.49999999999997
 20
169.77
 30
0.0
 40
2.5
  0
CIRCLE
  5
1319B
330
1314B
100
AcDbEntity
  8
0
100
AcDbCircle
 10
25.49999999999997
 20
129.77
 30
0.0
 40
2.5
  0
CIRCLE
  5
1319C
330
1314B
100
AcDbEntity
  8
0
100
AcDbCircle
 10
25.49999999999997
 20
89.76999999999996
 30
0.0
 40
2.5
  0
CIRCLE
  5
1319D
330
1314B
100
AcDbEntity
  8
0
100
AcDbCircle
 10
25.49999999999997
 20
49.76999999999996
 30
0.0
 40
2.5
  0
CIRCLE
  5
1319E
330
1314B
100
AcDbEntity
  8
0
100
AcDbCircle
 10
25.49999999999997
 20
9.769999999999965
 30
0.0
 40
2.5
  0
CIRCLE
  5
1319F
330
1314B
100
AcDbEntity
  8
0
100
AcDbCircle
 10
-25.50000000000002
 20
189.77
 30
0.0
 40
2.5
  0
CIRCLE
  5
131A0
330
1314B
100
AcDbEntity
  8
0
100
AcDbCircle
 10
-25.50000000000002
 20
149.77
 30
0.0
 40
2.5
  0
CIRCLE
  5
131A1
330
1314B
100
AcDbEntity
  8
0
100
AcDbCircle
 10
-25.50000000000002
 20
109.7699999999999
 30
0.0
 40
2.5
  0
CIRCLE
  5
131A2
330
1314B
100
AcDbEntity
  8
0
100
AcDbCircle
 10
-25.50000000000002
 20
69.76999999999998
 30
0.0
 40
2.5
  0
CIRCLE
  5
131A3
330
1314B
100
AcDbEntity
  8
0
100
AcDbCircle
 10
-25.50000000000002
 20
29.76999999999998
 30
0.0
 40
2.5
  0
CIRCLE
  5
131A4
330
1314B
100
AcDbEntity
  8
0
100
AcDbCircle
 10
-35.50000000000003
 20
169.77
 30
0.0
 40
2.5
  0
CIRCLE
  5
131A5
330
1314B
100
AcDbEntity
  8
0
100
AcDbCircle
 10
-35.50000000000003
 20
129.77
 30
0.0
 40
2.5
  0
CIRCLE
  5
131A6
330
1314B
100
AcDbEntity
  8
0
100
AcDbCircle
 10
-35.50000000000003
 20
89.76999999999996
 30
0.0
 40
2.5
  0
CIRCLE
  5
131A7
330
1314B
100
AcDbEntity
  8
0
100
AcDbCircle
 10
-35.50000000000003
 20
49.76999999999997
 30
0.0
 40
2.5
  0
CIRCLE
  5
131A8
330
1314B
100
AcDbEntity
  8
0
100
AcDbCircle
 10
-35.50000000000003
 20
9.769999999999974
 30
0.0
 40
2.5
  0
CIRCLE
  5
131A9
330
1314B
100
AcDbEntity
  8
0
100
AcDbCircle
 10
-58.52709056100002
 20
69.76999999999998
 30
0.0
 40
2.5
  0
CIRCLE
  5
131AA
330
1314B
100
AcDbEntity
  8
0
100
AcDbCircle
 10
52.52709056099996
 20
69.76999999999995
 30
0.0
 40
2.5
  0
CIRCLE
  5
131AB
330
1314B
100
AcDbEntity
  8
0
100
AcDbCircle
 10
-52.52709056100001
 20
29.76999999999998
 30
0.0
 40
2.5
  0
CIRCLE
  5
131AC
330
1314B
100
AcDbEntity
  8
0
100
AcDbCircle
 10
58.52709056099997
 20
29.76999999999997
 30
0.0
 40
2.5
  0
ELLIPSE
  5
131AD
330
1314B
100
AcDbEntity
  8
0
100
AcDbEllipse
 10
-12.50000000000005
 20
0.0236058844763973
 30
0.0
 11
-2.5
 21
0.0
 31
0.0
210
0.0
220
0.0
230
1.0
 40
0.707106781186548
 41
0.2563733270184496
 42
1.570796326794896
  0
LINE
  5
131AE
330
1314B
100
AcDbEntity
  8
0
100
AcDbLine
 10
-7.500000000000016
 20
-1.744161068490021
 30
0.0
 11
-12.50000000000005
 21
-1.744161068490021
 31
0.0
  0
ELLIPSE
  5
131AF
330
1314B
100
AcDbEntity
  8
0
100
AcDbEllipse
 10
-7.500000000000017
 20
0.0236058844763974
 30
0.0
 11
2.5
 21
-0.0000000000000008
 31
0.0
210
0.0
220
0.0
230
1.0
 40
0.7071067811865478
 41
4.712388980384689
 42
6.026811980161137
  0
SPLINE
  5
131B0
330
1314B
100
AcDbEntity
  8
0
100
AcDbSpline
210
0.0
220
0.0
230
1.0
 70
     8
 71
     3
 72
     8
 73
     4
 74
     0
 42
0.000000001
 43
0.0000000001
 40
-1.0
 40
-1.0
 40
-1.0
 40
-1.0
 40
0.0
 40
0.0
 40
0.0
 40
0.0
 10
-14.91828991960768
 20
-0.4246540092928881
 30
0.0
 10
-14.99189972302028
 20
-0.3163012038325083
 30
0.0
 10
-15.01609483643931
 20
-0.1581319339738527
 30
0.0
 10
-14.98943351399748
 20
-0.0003899405809595
 30
0.0
  0
SPLINE
  5
131B1
330
1314B
100
AcDbEntity
  8
0
100
AcDbSpline
210
0.0
220
0.0
230
1.0
 70
     8
 71
     3
 72
     8
 73
     4
 74
     0
 42
0.000000001
 43
0.0000000001
 40
-1.0
 40
-1.0
 40
-1.0
 40
-1.0
 40
0.0
 40
0.0
 40
0.0
 40
0.0
 10
-5.01056648600259
 20
-0.0003899405809592
 30
0.0
 10
-4.983905163560564
 20
-0.1581319339738843
 30
0.0
 10
-5.008100276979964
 20
-0.3163012038325401
 30
0.0
 10
-5.081710080392381
 20
-0.4246540092928881
 30
0.0
  0
ARC
  5
131B2
330
1314B
100
AcDbEntity
  8
0
100
AcDbCircle
 10
-7.500000000000017
 20
-0.2300000000000074
 30
0.0
 40
2.5
100
AcDbArc
 50
5.269701326164559
 51
90.0
  0
LINE
  5
131B3
330
1314B
100
AcDbEntity
  8
0
100
AcDbLine
 10
-12.50000000000005
 20
2.269999999999921
 30
0.0
 11
-7.500000000000017
 21
2.269999999999921
 31
0.0
  0
ARC
  5
131B4
330
1314B
100
AcDbEntity
  8
0
100
AcDbCircle
 10
-12.50000000000005
 20
-0.2300000000000074
 30
0.0
 40
2.5
100
AcDbArc
 50
90.0
 51
174.7302986738354
  0
ELLIPSE
  5
131B5
330
1314B
100
AcDbEntity
  8
0
100
AcDbEllipse
 10
7.499999999999982
 20
0.0236058844763973
 30
0.0
 11
-2.5
 21
0.0
 31
0.0
210
0.0
220
0.0
230
1.0
 40
0.7071067811865479
 41
0.2563733270184487
 42
1.570796326794896
  0
LINE
  5
131B6
330
1314B
100
AcDbEntity
  8
0
100
AcDbLine
 10
12.50000000000001
 20
-1.744161068490022
 30
0.0
 11
7.499999999999983
 21
-1.744161068490021
 31
0.0
  0
ELLIPSE
  5
131B7
330
1314B
100
AcDbEntity
  8
0
100
AcDbEllipse
 10
12.50000000000001
 20
0.0236058844763973
 30
0.0
 11
2.5
 21
-0.0000000000000003
 31
0.0
210
0.0
220
0.0
230
1.0
 40
0.7071067811865479
 41
4.712388980384689
 42
6.026811980161137
  0
SPLINE
  5
131B8
330
1314B
100
AcDbEntity
  8
0
100
AcDbSpline
210
0.0
220
0.0
230
1.0
 70
     8
 71
     3
 72
     8
 73
     4
 74
     0
 42
0.000000001
 43
0.0000000001
 40
-1.0
 40
-1.0
 40
-1.0
 40
-1.0
 40
0.0
 40
0.0
 40
0.0
 40
0.0
 10
5.081710080392346
 20
-0.4246540092928881
 30
0.0
 10
5.008100276979861
 20
-0.316301203832535
 30
0.0
 10
4.983905163560433
 20
-0.1581319339738783
 30
0.0
 10
5.010566486002556
 20
-0.0003899405809593
 30
0.0
  0
SPLINE
  5
131B9
330
1314B
100
AcDbEntity
  8
0
100
AcDbSpline
210
0.0
220
0.0
230
1.0
 70
     8
 71
     3
 72
     8
 73
     4
 74
     0
 42
0.000000001
 43
0.0000000001
 40
-1.0
 40
-1.0
 40
-1.0
 40
-1.0
 40
0.0
 40
0.0
 40
0.0
 40
0.0
 10
14.98943351399745
 20
-0.0003899405809595
 30
0.0
 10
15.01609483643918
 20
-0.158131933973841
 30
0.0
 10
14.99189972302041
 20
-0.3163012038325118
 30
0.0
 10
14.91828991960765
 20
-0.4246540092928881
 30
0.0
  0
ARC
  5
131BA
330
1314B
100
AcDbEntity
  8
0
100
AcDbCircle
 10
12.50000000000001
 20
-0.2300000000000074
 30
0.0
 40
2.5
100
AcDbArc
 50
5.269701326164559
 51
90.0
  0
LINE
  5
131BB
330
1314B
100
AcDbEntity
  8
0
100
AcDbLine
 10
7.499999999999982
 20
2.269999999999921
 30
0.0
 11
12.50000000000001
 21
2.269999999999921
 31
0.0
  0
ARC
  5
131BC
330
1314B
100
AcDbEntity
  8
0
100
AcDbCircle
 10
7.499999999999982
 20
-0.2300000000000074
 30
0.0
 40
2.5
100
AcDbArc
 50
90.0
 51
174.7302986738354
  0
ELLIPSE
  5
131BD
330
1314B
100
AcDbEntity
  8
0
100
AcDbEllipse
 10
-28.00000000000002
 20
0.0236058844763973
 30
0.0
 11
2.5
 21
-0.0000000000000011
 31
0.0
210
0.0
220
0.0
230
1.0
 40
0.7071067811865478
 41
3.397965980608243
 42
6.026811980161136
  0
ELLIPSE
  5
131BE
330
1314B
100
AcDbEntity
  8
0
100
AcDbEllipse
 10
27.99999999999998
 20
0.0236058844763973
 30
0.0
 11
2.5
 21
-0.0000000000000007
 31
0.0
210
0.0
220
0.0
230
1.0
 40
0.7071067811865479
 41
3.39796598060824
 42
6.026811980161136
  0
SPLINE
  5
131BF
330
1314B
100
AcDbEntity
  8
0
100
AcDbSpline
210
0.0
220
0.0
230
1.0
 70
     8
 71
     3
 72
     8
 73
     4
 74
     0
 42
0.000000001
 43
0.0000000001
 40
-1.0
 40
-1.0
 40
-1.0
 40
-1.0
 40
0.0
 40
0.0
 40
0.0
 40
0.0
 10
25.58171008039237
 20
-0.4246540092928891
 30
0.0
 10
25.50810027697957
 20
-0.3163012038325219
 30
0.0
 10
25.48390516356024
 20
-0.1581319339738838
 30
0.0
 10
25.51056648600257
 20
-0.0003899405809596
 30
0.0
  0
SPLINE
  5
131C0
330
1314B
100
AcDbEntity
  8
0
100
AcDbSpline
210
0.0
220
0.0
230
1.0
 70
     8
 71
     3
 72
     8
 73
     4
 74
     0
 42
0.000000001
 43
0.0000000001
 40
-1.0
 40
-1.0
 40
-1.0
 40
-1.0
 40
0.0
 40
0.0
 40
0.0
 40
0.0
 10
-25.51056648600261
 20
-0.0003899405809595
 30
0.0
 10
-25.48390516356008
 20
-0.1581319339738775
 30
0.0
 10
-25.50810027697974
 20
-0.3163012038324725
 30
0.0
 10
-25.5817100803924
 20
-0.4246540092928883
 30
0.0
  0
SPLINE
  5
131C1
330
1314B
100
AcDbEntity
  8
0
100
AcDbSpline
210
0.0
220
0.0
230
1.0
 70
     8
 71
     3
 72
     8
 73
     4
 74
     0
 42
0.000000001
 43
0.0000000001
 40
-1.0
 40
-1.0
 40
-1.0
 40
-1.0
 40
0.0
 40
0.0
 40
0.0
 40
0.0
 10
-30.41828991960765
 20
-0.4246540092928891
 30
0.0
 10
-30.49189972302006
 20
-0.3163012038325144
 30
0.0
 10
-30.51609483643897
 20
-0.1581319339738771
 30
0.0
 10
-30.48943351399743
 20
-0.0003899405809593
 30
0.0
  0
ARC
  5
131C2
330
1314B
100
AcDbEntity
  8
0
100
AcDbCircle
 10
-28.00000000000002
 20
-0.2300000000000074
 30
0.0
 40
2.499999999999999
100
AcDbArc
 50
5.269701326164559
 51
174.7302986738354
  0
SPLINE
  5
131C3
330
1314B
100
AcDbEntity
  8
0
100
AcDbSpline
210
0.0
220
0.0
230
1.0
 70
     8
 71
     3
 72
     8
 73
     4
 74
     0
 42
0.000000001
 43
0.0000000001
 40
-1.0
 40
-1.0
 40
-1.0
 40
-1.0
 40
0.0
 40
0.0
 40
0.0
 40
0.0
 10
30.48943351399739
 20
-0.0003899405809595
 30
0.0
 10
30.51609483644023
 20
-0.1581319339738826
 30
0.0
 10
30.49189972301904
 20
-0.3163012038324654
 30
0.0
 10
30.41828991960763
 20
-0.4246540092928885
 30
0.0
  0
ARC
  5
131C4
330
1314B
100
AcDbEntity
  8
0
100
AcDbCircle
 10
27.99999999999998
 20
-0.2300000000000074
 30
0.0
 40
2.5
100
AcDbArc
 50
5.269701326164559
 51
174.7302986738354
  0
ELLIPSE
  5
131C5
330
1314B
100
AcDbEntity
  8
0
100
AcDbEllipse
 10
-44.89999999999999
 20
-54.16476937947049
 30
0.0
 11
-2.100000000000031
 21
0.0000000000000098
 31
0.0
210
0.0
220
0.0
230
1.0
 40
0.707106781186429
 41
0.0
 42
1.570796326794887
  0
ELLIPSE
  5
131C6
330
1314B
100
AcDbEntity
  8
0
100
AcDbEllipse
 10
-44.89999999999999
 20
-54.16476937947049
 30
0.0
 11
-0.6000000000000087
 21
0.0000000000001332
 31
0.0
210
0.0
220
0.0
230
1.0
 40
0.7071067811865435
 41
0.0000000000006702
 42
1.570796326795379
  0
LINE
  5
131C7
330
1314B
100
AcDbEntity
  8
0
100
AcDbLine
 10
44.89999999999999
 20
200.67
 30
0.0
 11
45.49999999999999
 21
200.67
 31
0.0
  0
LINE
  5
131C8
330
1314B
100
AcDbEntity
  8
0
100
AcDbLine
 10
44.89999999999999
 20
80.27000000000001
 30
0.0
 11
45.49999999999999
 21
80.27000000000001
 31
0.0
  0
LINE
  5
131C9
330
1314B
100
AcDbEntity
  8
0
100
AcDbLine
 10
-45.50000000000003
 20
200.67
 30
0.0
 11
-44.90000000000002
 21
200.67
 31
0.0
  0
LINE
  5
131CA
330
1314B
100
AcDbEntity
  8
0
100
AcDbLine
 10
-45.50000000000003
 20
80.27000000000001
 30
0.0
 11
-44.90000000000002
 21
80.27000000000001
 31
0.0
  0
ENDBLK
  5
1314D
330
1314B
100
AcDbEntity
  8
0
100
AcDbBlockEnd
  0
BLOCK
  5
131CC
330
131CB
100
AcDbEntity
  8
0
100
AcDbBlockBegin
  2
SPR91_200-Left
 70
     0
 10
0.0
 20
0.0
 30
0.0
  3
SPR91_200-Left
  1

  0
LINE
  5
131CE
330
131CB
100
AcDbEntity
  8
0
100
AcDbLine
 10
0.0
 20
-0.0003899405809605
 30
0.0
 11
0.0
 21
1.269999999999992
 31
0.0
  0
LINE
  5
131CF
330
131CB
100
AcDbEntity
  8
0
100
AcDbLine
 10
62.91118318265866
 20
-2.263131642256717
 30
0.0
 11
4.362741700911243
 21
-2.26313164149225
 31
0.0
  0
LINE
  5
131D0
330
131CB
100
AcDbEntity
  8
0
100
AcDbLine
 10
1.675735931288091
 20
-0.4246540092928866
 30
0.0
 11
2.288136209298628
 21
-1.037054287303424
 31
0.0
  0
LINE
  5
131D1
330
131CB
100
AcDbEntity
  8
0
100
AcDbLine
 10
2.288136209298621
 20
-1.037054287303411
 30
0.0
 11
2.717240184541174
 21
-1.466158262545964
 31
0.0
  0
SPLINE
  5
131D2
330
131CB
100
AcDbEntity
  8
0
100
AcDbSpline
210
0.0
220
0.0
230
1.0
 70
     8
 71
     3
 72
     8
 73
     4
 74
     0
 42
0.000000001
 43
0.0000000001
 40
0.0
 40
0.0
 40
0.0
 40
0.0
 40
1.0
 40
1.0
 40
1.0
 40
1.0
 10
0.615075759508271
 20
-1.485314181072709
 30
0.0
 10
0.2539843833467348
 20
-1.124222804911173
 30
0.0
 10
0.000000000000021
 20
-0.557202386821693
 30
0.0
 10
0.0000000000000209
 20
-0.0003899405809599
 30
0.0
  0
SPLINE
  5
131D3
330
131CB
100
AcDbEntity
  8
0
100
AcDbSpline
210
0.0
220
0.0
230
1.0
 70
     8
 71
     3
 72
     8
 73
     4
 74
     0
 42
0.000000001
 43
0.0000000001
 40
-1.0
 40
-1.0
 40
-1.0
 40
-1.0
 40
0.0
 40
0.0
 40
0.0
 40
0.0
 10
1.500000000000021
 20
-0.0003899405809596
 30
0.0
 10
1.500000000000021
 20
-0.1594792109354548
 30
0.0
 10
1.57256696667051
 20
-0.3214850446753066
 30
0.0
 10
1.675735931288092
 20
-0.4246540092928885
 30
0.0
  0
SPLINE
  5
131D4
330
131CB
100
AcDbEntity
  8
0
100
AcDbSpline
210
0.0
220
0.0
230
1.0
 70
     8
 71
     3
 72
     8
 73
     4
 74
     0
 42
0.000000001
 43
0.0000000001
 40
-1.0
 40
-1.0
 40
-1.0
 40
-1.0
 40
0.0
 40
0.0
 40
0.0
 40
0.0
 10
2.717240184541164
 20
-1.466158262545961
 30
0.0
 10
3.124319333760626
 20
-1.873237411765418
 30
0.0
 10
3.733518404783586
 20
-2.078196639180341
 30
0.0
 10
4.362741700911271
 20
-2.263131641492208
 30
0.0
  0
LINE
  5
131D5
330
131CB
100
AcDbEntity
  8
0
100
AcDbLine
 10
2.717240184541174
 20
-1.466158262545964
 30
0.0
 11
2.364040347338347
 21
-1.81935809974879
 31
0.0
  0
LINE
  5
131D6
330
131CB
100
AcDbEntity
  8
0
100
AcDbLine
 10
2.364040347338347
 20
-1.81935809974879
 30
0.0
 11
1.656580012761351
 21
-2.526818434325786
 31
0.0
  0
SPLINE
  5
131D7
330
131CB
100
AcDbEntity
  8
0
100
AcDbSpline
210
0.0
220
0.0
230
1.0
 70
     8
 71
     3
 72
     8
 73
     4
 74
     0
 42
0.000000001
 43
0.0000000001
 40
0.0
 40
0.0
 40
0.0
 40
0.0
 40
1.0
 40
1.0
 40
1.0
 40
1.0
 10
4.362741700911236
 20
-2.263131641492243
 30
0.0
 10
3.1781580375138
 20
-2.633557006450128
 30
0.0
 10
2.063659161980809
 20
-2.933897583545235
 30
0.0
 10
1.656580012761342
 20
-2.526818434325782
 30
0.0
  0
LINE
  5
131D8
330
131CB
100
AcDbEntity
  8
0
100
AcDbLine
 10
1.656580012761351
 20
-2.526818434325786
 30
0.0
 11
1.227476037518798
 21
-2.097714459083234
 31
0.0
  0
LINE
  5
131D9
330
131CB
100
AcDbEntity
  8
0
100
AcDbLine
 10
2.288136209298621
 20
-1.037054287303411
 30
0.0
 11
1.227476037518798
 21
-2.097714459083234
 31
0.0
  0
LINE
  5
131DA
330
131CB
100
AcDbEntity
  8
0
100
AcDbLine
 10
1.227476037518818
 20
-2.097714459083233
 30
0.0
 11
0.6150757595082808
 21
-1.485314181072695
 31
0.0
  0
LINE
  5
131DB
330
131CB
100
AcDbEntity
  8
0
100
AcDbLine
 10
1.675735931288092
 20
-0.4246540092928883
 30
0.0
 11
1.322536092799073
 21
-0.7778538477819069
 31
0.0
  0
LINE
  5
131DC
330
131CB
100
AcDbEntity
  8
0
100
AcDbLine
 10
1.322536092799073
 20
-0.7778538477819069
 30
0.0
 11
0.615075759508271
 21
-1.485314181072709
 31
0.0
  0
LINE
  5
131DD
330
131CB
100
AcDbEntity
  8
0
100
AcDbLine
 10
1.500000000000023
 20
-0.0003899405809593
 30
0.0
 11
1.000499995450075
 21
-0.0003899405809593
 31
0.0
  0
LINE
  5
131DE
330
131CB
100
AcDbEntity
  8
0
100
AcDbLine
 10
1.000499995450075
 20
-0.0003899405809593
 30
0.0
 11
0.0
 21
-0.0003899405809593
 31
0.0
  0
LINE
  5
131DF
330
131CB
100
AcDbEntity
  8
0
100
AcDbLine
 10
1.500000000000021
 20
1.269999999999992
 30
0.0
 11
1.500000000000021
 21
-0.0003899405809599
 31
0.0
  0
LINE
  5
131E0
330
131CB
100
AcDbEntity
  8
0
100
AcDbLine
 10
0.0
 20
6.269999999999987
 30
0.0
 11
0.0
 21
1.269999999999987
 31
0.0
  0
LINE
  5
131E1
330
131CB
100
AcDbEntity
  8
0
100
AcDbLine
 10
0.0
 20
77.27000000000001
 30
0.0
 11
0.0
 21
72.27000000000001
 31
0.0
  0
LINE
  5
131E2
330
131CB
100
AcDbEntity
  8
0
100
AcDbLine
 10
1.500000000000032
 20
1.269999999999987
 30
0.0
 11
1.500000000000033
 21
6.269999999999987
 31
0.0
  0
LINE
  5
131E3
330
131CB
100
AcDbEntity
  8
0
100
AcDbLine
 10
1.500000000000033
 20
6.269999999999987
 30
0.0
 11
0.0
 21
6.269999999999987
 31
0.0
  0
LINE
  5
131E4
330
131CB
100
AcDbEntity
  8
0
100
AcDbLine
 10
0.0
 20
1.269999999999987
 30
0.0
 11
1.500000000000032
 21
1.269999999999987
 31
0.0
  0
LINE
  5
131E5
330
131CB
100
AcDbEntity
  8
0
100
AcDbLine
 10
0.0
 20
72.27000000000001
 30
0.0
 11
1.500000000000033
 21
72.27000000000001
 31
0.0
  0
LINE
  5
131E6
330
131CB
100
AcDbEntity
  8
0
100
AcDbLine
 10
1.500000000000033
 20
72.27000000000001
 30
0.0
 11
1.500000000000032
 21
77.27000000000001
 31
0.0
  0
LINE
  5
131E7
330
131CB
100
AcDbEntity
  8
0
100
AcDbLine
 10
1.500000000000032
 20
77.27000000000001
 30
0.0
 11
0.0
 21
77.27000000000001
 31
0.0
  0
LINE
  5
131E8
330
131CB
100
AcDbEntity
  8
0
100
AcDbLine
 10
0.0
 20
6.269999999999987
 30
0.0
 11
0.0
 21
72.27000000000001
 31
0.0
  0
LINE
  5
131E9
330
131CB
100
AcDbEntity
  8
0
100
AcDbLine
 10
0.0
 20
77.27000000000001
 30
0.0
 11
0.0
 21
80.27000000000001
 31
0.0
  0
LINE
  5
131EA
330
131CB
100
AcDbEntity
  8
0
100
AcDbLine
 10
1.500000000000033
 20
6.269999999999987
 30
0.0
 11
1.500000000000033
 21
72.27000000000001
 31
0.0
  0
LINE
  5
131EB
330
131CB
100
AcDbEntity
  8
0
100
AcDbLine
 10
1.50000000000002
 20
77.27000000000001
 30
0.0
 11
1.50000000000002
 21
80.27000000000001
 31
0.0
  0
LINE
  5
131EC
330
131CB
100
AcDbEntity
  8
0
100
AcDbLine
 10
0.0
 20
80.27000000000001
 30
0.0
 11
0.0
 21
200.67
 31
0.0
  0
LINE
  5
131ED
330
131CB
100
AcDbEntity
  8
0
100
AcDbLine
 10
2.10000000000001
 20
200.67
 30
0.0
 11
0.0
 21
200.67
 31
0.0
  0
LINE
  5
131EE
330
131CB
100
AcDbEntity
  8
0
100
AcDbLine
 10
0.0
 20
80.27000000000001
 30
0.0
 11
2.100000000000001
 21
80.27000000000001
 31
0.0
  0
LINE
  5
131EF
330
131CB
100
AcDbEntity
  8
0
100
AcDbLine
 10
43.50000000000001
 20
85.27000000000001
 30
0.0
 11
38.50000000000001
 21
80.27000000000001
 31
0.0
  0
LINE
  5
131F0
330
131CB
100
AcDbEntity
  8
0
100
AcDbLine
 10
38.50000000000001
 20
200.67
 30
0.0
 11
43.50000000000001
 21
195.67
 31
0.0
  0
LINE
  5
131F1
330
131CB
100
AcDbEntity
  8
0
100
AcDbLine
 10
82.00306627386
 20
-21.35501473263463
 30
0.0
 11
82.00306627386
 21
-28.4260825445001
 31
0.0
  0
CIRCLE
  5
131F2
330
131CB
100
AcDbEntity
  8
0
100
AcDbCircle
 10
35.50000000000002
 20
187.77
 30
0.0
 40
2.5
  0
CIRCLE
  5
131F3
330
131CB
100
AcDbEntity
  8
0
100
AcDbCircle
 10
35.50000000000002
 20
167.7699999999999
 30
0.0
 40
2.5
  0
CIRCLE
  5
131F4
330
131CB
100
AcDbEntity
  8
0
100
AcDbCircle
 10
35.50000000000002
 20
147.77
 30
0.0
 40
2.5
  0
CIRCLE
  5
131F5
330
131CB
100
AcDbEntity
  8
0
100
AcDbCircle
 10
35.50000000000002
 20
127.77
 30
0.0
 40
2.5
  0
CIRCLE
  5
131F6
330
131CB
100
AcDbEntity
  8
0
100
AcDbCircle
 10
35.50000000000002
 20
107.77
 30
0.0
 40
2.5
  0
CIRCLE
  5
131F7
330
131CB
100
AcDbEntity
  8
0
100
AcDbCircle
 10
35.50000000000002
 20
87.76999999999999
 30
0.0
 40
2.5
  0
LINE
  5
131F8
330
131CB
100
AcDbEntity
  8
0
100
AcDbLine
 10
43.50000000000001
 20
195.67
 30
0.0
 11
43.50000000000001
 21
85.27000000000001
 31
0.0
  0
LINE
  5
131F9
330
131CB
100
AcDbEntity
  8
0
100
AcDbLine
 10
2.100000000000009
 20
200.67
 30
0.0
 11
38.50000000000001
 21
200.67
 31
0.0
  0
LINE
  5
131FA
330
131CB
100
AcDbEntity
  8
0
100
AcDbLine
 10
38.50000000000001
 20
80.27000000000001
 30
0.0
 11
2.099999999999999
 21
80.27000000000001
 31
0.0
  0
LINE
  5
131FB
330
131CB
100
AcDbEntity
  8
0
100
AcDbLine
 10
82.00306627386
 20
-28.4260825445001
 30
0.0
 11
56.26437943888956
 21
-54.16476937947052
 31
0.0
  0
LINE
  5
131FC
330
131CB
100
AcDbEntity
  8
0
100
AcDbLine
 10
62.91118318265866
 20
-2.263131642256717
 30
0.0
 11
82.00306627386
 21
-21.35501473263463
 31
0.0
  0
CIRCLE
  5
131FD
330
131CB
100
AcDbEntity
  8
0
100
AcDbCircle
 10
74.57844507130477
 20
-25.24410202925712
 30
0.0
 40
2.5
  0
ARC
  5
131FE
330
131CB
100
AcDbEntity
  8
0
100
AcDbCircle
 10
59.31559010709463
 20
-13.990452698916
 30
0.0
 40
0.8000000000000012
100
AcDbArc
 50
315.000000001042
 51
75.00000000104186
  0
LINE
  5
131FF
330
131CB
100
AcDbEntity
  8
0
100
AcDbLine
 10
59.88127553205416
 20
-14.55613812385495
 30
0.0
 11
56.81941335363088
 21
-17.61800030238965
 31
0.0
  0
ARC
  5
13200
330
131CB
100
AcDbEntity
  8
0
100
AcDbCircle
 10
56.25372792867135
 20
-17.05231487745071
 30
0.0
 40
0.8
100
AcDbArc
 50
195.0000000010428
 51
315.0000000010428
  0
LINE
  5
13201
330
131CB
100
AcDbEntity
  8
0
100
AcDbLine
 10
55.48098726764387
 20
-17.25937011354678
 30
0.0
 11
54.36026792735771
 21
-13.07678859487812
 31
0.0
  0
ARC
  5
13202
330
131CB
100
AcDbEntity
  8
0
100
AcDbCircle
 10
55.13300858838519
 20
-12.86973335878204
 30
0.0
 40
0.8000000000000014
100
AcDbArc
 50
75.00000000104188
 51
195.0000000010427
  0
LINE
  5
13203
330
131CB
100
AcDbEntity
  8
0
100
AcDbLine
 10
55.34006382445316
 20
-12.09699269774701
 30
0.0
 11
59.5226453431626
 21
-13.21771203788097
 31
0.0
  0
LINE
  5
13204
330
131CB
100
AcDbEntity
  8
0
100
AcDbLine
 10
55.28251771018369
 20
-12.08382813389862
 30
0.0
 11
54.34710336350719
 21
-13.01924248060915
 31
0.0
  0
LINE
  5
13205
330
131CB
100
AcDbEntity
  8
0
100
AcDbLine
 10
54.77945519839778
 20
-55.64969361996226
 30
0.0
 11
1.656580012761352
 21
-2.526818434325788
 31
0.0
  0
LINE
  5
13206
330
131CB
100
AcDbEntity
  8
0
100
AcDbLine
 10
56.26437943888969
 20
-54.16476937947034
 30
0.0
 11
54.77945519839751
 21
-55.64969361996201
 31
0.0
  0
ENDBLK
  5
131CD
330
131CB
100
AcDbEntity
  8
0
100
AcDbBlockEnd
  0
BLOCK
  5
13208
330
13207
100
AcDbEntity
  8
0
100
AcDbBlockBegin
  2
SPR91_200-Right
 70
     0
 10
0.0
 20
0.0
 30
0.0
  3
SPR91_200-Right
  1

  0
LINE
  5
1320A
330
13207
100
AcDbEntity
  8
0
100
AcDbLine
 10
-1.499999999999984
 20
6.269999999999987
 30
0.0
 11
-1.499999999999985
 21
1.269999999999987
 31
0.0
  0
LINE
  5
1320B
330
13207
100
AcDbEntity
  8
0
100
AcDbLine
 10
-1.499999999999985
 20
1.269999999999987
 30
0.0
 11
0.0
 21
1.269999999999996
 31
0.0
  0
LINE
  5
1320C
330
13207
100
AcDbEntity
  8
0
100
AcDbLine
 10
0.0
 20
1.269999999999996
 30
0.0
 11
0.0
 21
6.269999999999987
 31
0.0
  0
LINE
  5
1320D
330
13207
100
AcDbEntity
  8
0
100
AcDbLine
 10
0.0
 20
6.269999999999987
 30
0.0
 11
-1.499999999999984
 21
6.269999999999987
 31
0.0
  0
LINE
  5
1320E
330
13207
100
AcDbEntity
  8
0
100
AcDbLine
 10
-1.499999999999984
 20
72.27
 30
0.0
 11
0.0
 21
72.27
 31
0.0
  0
LINE
  5
1320F
330
13207
100
AcDbEntity
  8
0
100
AcDbLine
 10
0.0
 20
72.27
 30
0.0
 11
0.0
 21
77.27
 31
0.0
  0
LINE
  5
13210
330
13207
100
AcDbEntity
  8
0
100
AcDbLine
 10
-1.499999999999985
 20
77.27
 30
0.0
 11
-1.499999999999984
 21
72.27
 31
0.0
  0
LINE
  5
13211
330
13207
100
AcDbEntity
  8
0
100
AcDbLine
 10
0.0
 20
77.27
 30
0.0
 11
-1.499999999999985
 21
77.27
 31
0.0
  0
LINE
  5
13212
330
13207
100
AcDbEntity
  8
0
100
AcDbLine
 10
0.0
 20
72.27
 30
0.0
 11
0.0
 21
6.269999999999988
 31
0.0
  0
LINE
  5
13213
330
13207
100
AcDbEntity
  8
0
100
AcDbLine
 10
-1.499999999999984
 20
72.27
 30
0.0
 11
-1.499999999999984
 21
6.269999999999988
 31
0.0
  0
LINE
  5
13214
330
13207
100
AcDbEntity
  8
0
100
AcDbLine
 10
0.0
 20
80.27000000000002
 30
0.0
 11
0.0
 21
77.27000000000002
 31
0.0
  0
LINE
  5
13215
330
13207
100
AcDbEntity
  8
0
100
AcDbLine
 10
-1.499999999999997
 20
80.27000000000002
 30
0.0
 11
-1.499999999999997
 21
77.27000000000002
 31
0.0
  0
LINE
  5
13216
330
13207
100
AcDbEntity
  8
0
100
AcDbLine
 10
0.0
 20
1.269999999999992
 30
0.0
 11
0.0
 21
-0.0003899405809599
 31
0.0
  0
LINE
  5
13217
330
13207
100
AcDbEntity
  8
0
100
AcDbLine
 10
-4.362741700911197
 20
-2.26313164149223
 30
0.0
 11
-62.91118318265851
 21
-2.263131642256543
 31
0.0
  0
LINE
  5
13218
330
13207
100
AcDbEntity
  8
0
100
AcDbLine
 10
-2.71724018454115
 20
-1.466158262545967
 30
0.0
 11
-2.288136209298598
 21
-1.037054287303415
 31
0.0
  0
LINE
  5
13219
330
13207
100
AcDbEntity
  8
0
100
AcDbLine
 10
-2.28813620929861
 20
-1.037054287303424
 30
0.0
 11
-1.675735931288067
 21
-0.4246540092928813
 31
0.0
  0
SPLINE
  5
1321A
330
13207
100
AcDbEntity
  8
0
100
AcDbSpline
210
0.0
220
0.0
230
1.0
 70
     8
 71
     3
 72
     8
 73
     4
 74
     0
 42
0.000000001
 43
0.0000000001
 40
0.0
 40
0.0
 40
0.0
 40
0.0
 40
1.0
 40
1.0
 40
1.0
 40
1.0
 10
-0.000000000000003
 20
-0.0003899405809604
 30
0.0
 10
-0.0000000000000033
 20
-0.5572023868217041
 30
0.0
 10
-0.2539843833467188
 20
-1.124222804911175
 30
0.0
 10
-0.6150757595082532
 20
-1.485314181072709
 30
0.0
  0
SPLINE
  5
1321B
330
13207
100
AcDbEntity
  8
0
100
AcDbSpline
210
0.0
220
0.0
230
1.0
 70
     8
 71
     3
 72
     8
 73
     4
 74
     0
 42
0.000000001
 43
0.0000000001
 40
-1.0
 40
-1.0
 40
-1.0
 40
-1.0
 40
0.0
 40
0.0
 40
0.0
 40
0.0
 10
-1.675735931288074
 20
-0.4246540092928885
 30
0.0
 10
-1.572566966670493
 20
-0.3214850446753071
 30
0.0
 10
-1.500000000000003
 20
-0.159479210935458
 30
0.0
 10
-1.500000000000003
 20
-0.0003899405809597
 30
0.0
  0
LINE
  5
1321C
330
13207
100
AcDbEntity
  8
0
100
AcDbLine
 10
-2.71724018454115
 20
-1.466158262545967
 30
0.0
 11
-2.364040347338363
 21
-1.819358099748754
 31
0.0
  0
SPLINE
  5
1321D
330
13207
100
AcDbEntity
  8
0
100
AcDbSpline
210
0.0
220
0.0
230
1.0
 70
     8
 71
     3
 72
     8
 73
     4
 74
     0
 42
0.000000001
 43
0.0000000001
 40
-1.0
 40
-1.0
 40
-1.0
 40
-1.0
 40
0.0
 40
0.0
 40
0.0
 40
0.0
 10
-4.362741700911247
 20
-2.263131641492212
 30
0.0
 10
-3.733518404783693
 20
-2.078196639180497
 30
0.0
 10
-3.124319333760592
 20
-1.873237411765412
 30
0.0
 10
-2.717240184541162
 20
-1.466158262545979
 30
0.0
  0
SPLINE
  5
1321E
330
13207
100
AcDbEntity
  8
0
100
AcDbSpline
210
0.0
220
0.0
230
1.0
 70
     8
 71
     3
 72
     8
 73
     4
 74
     0
 42
0.000000001
 43
0.0000000001
 40
0.0
 40
0.0
 40
0.0
 40
0.0
 40
1.0
 40
1.0
 40
1.0
 40
1.0
 10
-1.656580012761339
 20
-2.5268184343258
 30
0.0
 10
-2.063659161980766
 20
-2.933897583545237
 30
0.0
 10
-3.178158037513872
 20
-2.633557006450318
 30
0.0
 10
-4.362741700911211
 20
-2.263131641492248
 30
0.0
  0
LINE
  5
1321F
330
13207
100
AcDbEntity
  8
0
100
AcDbLine
 10
-2.364040347338363
 20
-1.819358099748754
 30
0.0
 11
-1.656580012761328
 21
-2.526818434325789
 31
0.0
  0
LINE
  5
13220
330
13207
100
AcDbEntity
  8
0
100
AcDbLine
 10
-0.6150757595082595
 20
-1.485314181072686
 30
0.0
 11
-1.227476037518803
 21
-2.097714459083231
 31
0.0
  0
LINE
  5
13221
330
13207
100
AcDbEntity
  8
0
100
AcDbLine
 10
-0.615075759508253
 20
-1.485314181072709
 30
0.0
 11
-1.322536092811766
 21
-0.7778538477691966
 31
0.0
  0
LINE
  5
13222
330
13207
100
AcDbEntity
  8
0
100
AcDbLine
 10
-1.322536092811766
 20
-0.7778538477691966
 30
0.0
 11
-1.675735931288074
 21
-0.4246540092928881
 31
0.0
  0
LINE
  5
13223
330
13207
100
AcDbEntity
  8
0
100
AcDbLine
 10
-2.288136209298598
 20
-1.037054287303415
 30
0.0
 11
-1.227476037518776
 21
-2.097714459083237
 31
0.0
  0
LINE
  5
13224
330
13207
100
AcDbEntity
  8
0
100
AcDbLine
 10
-1.227476037518776
 20
-2.097714459083237
 30
0.0
 11
-1.656580012761328
 21
-2.526818434325789
 31
0.0
  0
LINE
  5
13225
330
13207
100
AcDbEntity
  8
0
100
AcDbLine
 10
-1.500000000000001
 20
-0.0003899405809593
 30
0.0
 11
-1.000499995457301
 21
-0.0003899405809593
 31
0.0
  0
LINE
  5
13226
330
13207
100
AcDbEntity
  8
0
100
AcDbLine
 10
-1.000499995457301
 20
-0.0003899405809593
 30
0.0
 11
0.0
 21
-0.0003899405809593
 31
0.0
  0
LINE
  5
13227
330
13207
100
AcDbEntity
  8
0
100
AcDbLine
 10
-1.500000000000003
 20
-0.0003899405809605
 30
0.0
 11
-1.500000000000003
 21
1.269999999999992
 31
0.0
  0
LINE
  5
13228
330
13207
100
AcDbEntity
  8
0
100
AcDbLine
 10
0.0
 20
80.27000000000001
 30
0.0
 11
0.0
 21
200.67
 31
0.0
  0
LINE
  5
13229
330
13207
100
AcDbEntity
  8
0
100
AcDbLine
 10
0.0
 20
200.67
 30
0.0
 11
-2.09999999999998
 21
200.67
 31
0.0
  0
LINE
  5
1322A
330
13207
100
AcDbEntity
  8
0
100
AcDbLine
 10
-2.099999999999997
 20
80.27000000000001
 30
0.0
 11
0.0
 21
80.27000000000001
 31
0.0
  0
LINE
  5
1322B
330
13207
100
AcDbEntity
  8
0
100
AcDbLine
 10
-38.49999999999999
 20
80.27000000000001
 30
0.0
 11
-43.49999999999998
 21
85.27000000000001
 31
0.0
  0
LINE
  5
1322C
330
13207
100
AcDbEntity
  8
0
100
AcDbLine
 10
-43.49999999999998
 20
195.67
 30
0.0
 11
-38.49999999999997
 21
200.67
 31
0.0
  0
LINE
  5
1322D
330
13207
100
AcDbEntity
  8
0
100
AcDbLine
 10
-82.00306627385996
 20
-28.4260825445001
 30
0.0
 11
-82.00306627385996
 21
-21.35501473263461
 31
0.0
  0
LINE
  5
1322E
330
13207
100
AcDbEntity
  8
0
100
AcDbLine
 10
-43.49999999999998
 20
85.27000000000001
 30
0.0
 11
-43.49999999999998
 21
195.67
 31
0.0
  0
LINE
  5
1322F
330
13207
100
AcDbEntity
  8
0
100
AcDbLine
 10
-2.099999999999998
 20
80.27000000000001
 30
0.0
 11
-38.49999999999999
 21
80.27000000000001
 31
0.0
  0
LINE
  5
13230
330
13207
100
AcDbEntity
  8
0
100
AcDbLine
 10
-38.49999999999997
 20
200.67
 30
0.0
 11
-2.099999999999981
 21
200.67
 31
0.0
  0
CIRCLE
  5
13231
330
13207
100
AcDbEntity
  8
0
100
AcDbCircle
 10
-35.5
 20
192.77
 30
0.0
 40
2.5
  0
CIRCLE
  5
13232
330
13207
100
AcDbEntity
  8
0
100
AcDbCircle
 10
-35.5
 20
172.77
 30
0.0
 40
2.5
  0
CIRCLE
  5
13233
330
13207
100
AcDbEntity
  8
0
100
AcDbCircle
 10
-35.5
 20
152.77
 30
0.0
 40
2.5
  0
CIRCLE
  5
13234
330
13207
100
AcDbEntity
  8
0
100
AcDbCircle
 10
-35.5
 20
132.77
 30
0.0
 40
2.5
  0
CIRCLE
  5
13235
330
13207
100
AcDbEntity
  8
0
100
AcDbCircle
 10
-35.5
 20
112.77
 30
0.0
 40
2.5
  0
CIRCLE
  5
13236
330
13207
100
AcDbEntity
  8
0
100
AcDbCircle
 10
-35.5
 20
92.76999999999999
 30
0.0
 40
2.5
  0
LINE
  5
13237
330
13207
100
AcDbEntity
  8
0
100
AcDbLine
 10
-62.91118318265851
 20
-2.263131642256543
 30
0.0
 11
-82.00306627385996
 21
-21.35501473263461
 31
0.0
  0
LINE
  5
13238
330
13207
100
AcDbEntity
  8
0
100
AcDbLine
 10
-1.656580012761328
 20
-2.526818434325789
 30
0.0
 11
-54.77945519839777
 21
-55.64969361996226
 31
0.0
  0
LINE
  5
13239
330
13207
100
AcDbEntity
  8
0
100
AcDbLine
 10
-54.77945519839777
 20
-55.64969361996228
 30
0.0
 11
-56.26437943888925
 21
-54.16476937947026
 31
0.0
  0
LINE
  5
1323A
330
13207
100
AcDbEntity
  8
0
100
AcDbLine
 10
-56.26437943888955
 20
-54.16476937947052
 30
0.0
 11
-82.00306627385996
 21
-28.4260825445001
 31
0.0
  0
CIRCLE
  5
1323B
330
13207
100
AcDbEntity
  8
0
100
AcDbCircle
 10
-71.04291116530767
 20
-21.70856812338872
 30
0.0
 40
2.5
  0
ARC
  5
1323C
330
13207
100
AcDbEntity
  8
0
100
AcDbCircle
 10
-51.59747468238809
 20
-9.334199452913638
 30
0.0
 40
0.8000000000000015
100
AcDbArc
 50
344.9999999989572
 51
355.4526675359234
  0
LINE
  5
1323D
330
13207
100
AcDbEntity
  8
0
100
AcDbLine
 10
-50.82473402136063
 20
-9.541254689009715
 30
0.0
 11
-51.94545336164679
 21
-13.72383620767837
 31
0.0
  0
ARC
  5
1323E
330
13207
100
AcDbEntity
  8
0
100
AcDbCircle
 10
-52.71819402267426
 20
-13.5167809715823
 30
0.0
 40
0.8
100
AcDbArc
 50
224.9999999989572
 51
344.9999999989576
  0
LINE
  5
1323F
330
13207
100
AcDbEntity
  8
0
100
AcDbLine
 10
-53.28387944763379
 20
-14.08246639652125
 30
0.0
 11
-56.34574162605708
 21
-11.02060421798654
 31
0.0
  0
ARC
  5
13240
330
13207
100
AcDbEntity
  8
0
100
AcDbCircle
 10
-55.78005620109753
 20
-10.4549187930476
 30
0.0
 40
0.8000000000000014
100
AcDbArc
 50
104.9999999989575
 51
224.9999999989572
  0
LINE
  5
13241
330
13207
100
AcDbEntity
  8
0
100
AcDbLine
 10
-55.9871114371655
 20
-9.682178132012568
 30
0.0
 11
-51.80452991845606
 21
-8.561458791878607
 31
0.0
  0
ARC
  5
13242
330
13207
100
AcDbEntity
  8
0
100
AcDbCircle
 10
-51.59747468238809
 20
-9.334199452913638
 30
0.0
 40
0.8000000000000014
100
AcDbArc
 50
49.59733246198601
 51
104.9999999989581
  0
LINE
  5
13243
330
13207
100
AcDbEntity
  8
0
100
AcDbLine
 10
-51.07895039795263
 20
-8.724992947325683
 30
0.0
 11
-50.79999294004348
 21
-9.397625556585495
 31
0.0
  0
ARC
  5
13244
330
13207
100
AcDbEntity
  8
0
100
AcDbCircle
 10
-55.13300858838519
 20
-12.86973335878204
 30
0.0
 40
0.8000000000000015
100
AcDbArc
 50
349.2288663267692
 51
100.7711336711455
  0
ENDBLK
  5
13209
330
13207
100
AcDbEntity
  8
0
100
AcDbBlockEnd
  0
BLOCK
  5
13246
330
13245
100
AcDbEntity
  8
0
100
AcDbBlockBegin
  2
SPR91_200-Top
 70
     0
 10
0.0
 20
0.0
 30
0.0
  3
SPR91_200-Top
  1

  0
LINE
  5
13248
330
13245
100
AcDbEntity
  8
0
100
AcDbLine
 10
88.02709056099999
 20
-1.499999999999984
 30
0.0
 11
88.02709056099999
 21
0.0
 31
0.0
  0
LINE
  5
13249
330
13245
100
AcDbEntity
  8
0
100
AcDbLine
 10
-83.02709056100002
 20
0.0
 30
0.0
 11
-88.02709056100001
 21
0.0
 31
0.0
  0
LINE
  5
1324A
330
13245
100
AcDbEntity
  8
0
100
AcDbLine
 10
88.02709056099999
 20
0.0
 30
0.0
 11
83.02709056099997
 21
0.0
 31
0.0
  0
LINE
  5
1324B
330
13245
100
AcDbEntity
  8
0
100
AcDbLine
 10
-88.02709056100001
 20
0.0
 30
0.0
 11
-88.02709056100001
 21
-1.500000000000033
 31
0.0
  0
LINE
  5
1324C
330
13245
100
AcDbEntity
  8
0
100
AcDbLine
 10
-88.02709056100001
 20
-1.500000000000033
 30
0.0
 11
-83.02709056100002
 21
-1.500000000000032
 31
0.0
  0
LINE
  5
1324D
330
13245
100
AcDbEntity
  8
0
100
AcDbLine
 10
-83.02709056100002
 20
-1.500000000000032
 30
0.0
 11
-83.02709056100002
 21
0.0
 31
0.0
  0
LINE
  5
1324E
330
13245
100
AcDbEntity
  8
0
100
AcDbLine
 10
83.02709056099997
 20
-1.499999999999985
 30
0.0
 11
88.02709056099999
 21
-1.499999999999984
 31
0.0
  0
LINE
  5
1324F
330
13245
100
AcDbEntity
  8
0
100
AcDbLine
 10
83.02709056099997
 20
0.0
 30
0.0
 11
83.02709056099997
 21
-1.499999999999985
 31
0.0
  0
LINE
  5
13250
330
13245
100
AcDbEntity
  8
0
100
AcDbLine
 10
-83.02709056100002
 20
0.0
 30
0.0
 11
-44.90000000000002
 21
0.0
 31
0.0
  0
LINE
  5
13251
330
13245
100
AcDbEntity
  8
0
100
AcDbLine
 10
44.89999999999999
 20
0.0
 30
0.0
 11
83.02709056099997
 21
0.0
 31
0.0
  0
LINE
  5
13252
330
13245
100
AcDbEntity
  8
0
100
AcDbLine
 10
46.91246117974981
 20
-1.499999999999995
 30
0.0
 11
83.02709056099997
 21
-1.499999999999985
 31
0.0
  0
LINE
  5
13253
330
13245
100
AcDbEntity
  8
0
100
AcDbLine
 10
-83.02709056100002
 20
-1.500000000000032
 30
0.0
 11
-46.91246117974984
 21
-1.500000000000022
 31
0.0
  0
LINE
  5
13254
330
13245
100
AcDbEntity
  8
0
100
AcDbLine
 10
44.89999999999999
 20
0.0
 30
0.0
 11
-44.90000000000002
 21
0.0
 31
0.0
  0
LINE
  5
13255
330
13245
100
AcDbEntity
  8
0
100
AcDbLine
 10
46.99999999999969
 20
-38.49999999999997
 30
0.0
 11
47.0
 21
-2.099999999999981
 31
0.0
  0
LINE
  5
13256
330
13245
100
AcDbEntity
  8
0
100
AcDbLine
 10
-47.00000000000002
 20
-2.10000000000001
 30
0.0
 11
-47.00000000000001
 21
-38.50000000000001
 31
0.0
  0
LINE
  5
13257
330
13245
100
AcDbEntity
  8
0
100
AcDbLine
 10
45.49999999999999
 20
-2.099999999999963
 30
0.0
 11
45.49999999999968
 21
-38.49999999999999
 31
0.0
  0
LINE
  5
13258
330
13245
100
AcDbEntity
  8
0
100
AcDbLine
 10
-44.90000000000002
 20
-1.500000000000013
 30
0.0
 11
44.89999999999999
 21
-1.499999999999984
 31
0.0
  0
LINE
  5
13259
330
13245
100
AcDbEntity
  8
0
100
AcDbLine
 10
-45.50000000000001
 20
-38.50000000000001
 30
0.0
 11
-45.50000000000003
 21
-2.100000000000008
 31
0.0
  0
LINE
  5
1325A
330
13245
100
AcDbEntity
  8
0
100
AcDbLine
 10
45.49999999999964
 20
-43.49999999999996
 30
0.0
 11
46.99999999999964
 21
-43.49999999999998
 31
0.0
  0
LINE
  5
1325B
330
13245
100
AcDbEntity
  8
0
100
AcDbLine
 10
46.99999999999964
 20
-43.49999999999998
 30
0.0
 11
46.99999999999969
 21
-38.49999999999997
 31
0.0
  0
LINE
  5
1325C
330
13245
100
AcDbEntity
  8
0
100
AcDbLine
 10
-47.00000000000001
 20
-38.50000000000001
 30
0.0
 11
-47.00000000000001
 21
-43.50000000000001
 31
0.0
  0
LINE
  5
1325D
330
13245
100
AcDbEntity
  8
0
100
AcDbLine
 10
-47.00000000000001
 20
-43.50000000000001
 30
0.0
 11
-45.50000000000001
 21
-43.50000000000001
 31
0.0
  0
LINE
  5
1325E
330
13245
100
AcDbEntity
  8
0
100
AcDbLine
 10
46.99999999999969
 20
-38.49999999999997
 30
0.0
 11
45.49999999999968
 21
-38.49999999999999
 31
0.0
  0
LINE
  5
1325F
330
13245
100
AcDbEntity
  8
0
100
AcDbLine
 10
45.49999999999968
 20
-38.49999999999999
 30
0.0
 11
45.49999999999964
 21
-43.49999999999996
 31
0.0
  0
LINE
  5
13260
330
13245
100
AcDbEntity
  8
0
100
AcDbLine
 10
-45.50000000000001
 20
-43.50000000000001
 30
0.0
 11
-45.50000000000001
 21
-38.50000000000001
 31
0.0
  0
LINE
  5
13261
330
13245
100
AcDbEntity
  8
0
100
AcDbLine
 10
-45.50000000000001
 20
-38.50000000000001
 30
0.0
 11
-47.00000000000001
 21
-38.50000000000001
 31
0.0
  0
LINE
  5
13262
330
13245
100
AcDbEntity
  8
0
100
AcDbLine
 10
46.99999999999999
 20
-82.00306627385996
 30
0.0
 11
45.49999999999998
 21
-82.00306627385996
 31
0.0
  0
LINE
  5
13263
330
13245
100
AcDbEntity
  8
0
100
AcDbLine
 10
-45.49999999999998
 20
-82.00306627386
 30
0.0
 11
-46.99999999999999
 21
-82.00306627386
 31
0.0
  0
LINE
  5
13264
330
13245
100
AcDbEntity
  8
0
100
AcDbLine
 10
47.00000000000123
 20
-62.91118318265851
 30
0.0
 11
46.99999999999999
 21
-82.00306627385996
 31
0.0
  0
LINE
  5
13265
330
13245
100
AcDbEntity
  8
0
100
AcDbLine
 10
45.50000000000105
 20
-62.91118318265851
 30
0.0
 11
45.49999999999998
 21
-82.00306627385996
 31
0.0
  0
ELLIPSE
  5
13266
330
13245
100
AcDbEntity
  8
0
100
AcDbEllipse
 10
44.89999999999997
 20
-56.26437943888955
 30
0.0
 11
0.6000000000000087
 21
0.0000000000000547
 31
0.0
210
0.0
220
0.0
230
1.0
 40
0.7071067811864291
 41
0.0
 42
1.570796326794654
  0
LINE
  5
13267
330
13245
100
AcDbEntity
  8
0
100
AcDbLine
 10
47.00000000000123
 20
-62.91118318265851
 30
0.0
 11
45.50000000000105
 21
-62.91118318265851
 31
0.0
  0
LINE
  5
13268
330
13245
100
AcDbEntity
  8
0
100
AcDbLine
 10
46.99999999999998
 20
-43.49999999999998
 30
0.0
 11
47.00000000000123
 21
-62.91118318265851
 31
0.0
  0
LINE
  5
13269
330
13245
100
AcDbEntity
  8
0
100
AcDbLine
 10
-47.00000000000177
 20
-62.91118318265866
 30
0.0
 11
-47.00000000000179
 21
-43.50000000000001
 31
0.0
  0
ELLIPSE
  5
1326A
330
13245
100
AcDbEntity
  8
0
100
AcDbEllipse
 10
-42.00000000000001
 20
-1.227476037518807
 30
0.0
 11
-1.5
 21
0.0000000000001092
 31
0.0
210
0.0
220
0.0
230
1.0
 40
0.7071067811865475
 41
1.570796326795026
 42
2.705254581962137
  0
LINE
  5
1326B
330
13245
100
AcDbEntity
  8
0
100
AcDbLine
 10
-42.00000000000001
 20
-2.288136209298621
 30
0.0
 11
-44.29315533855963
 21
-2.288136209298621
 31
0.0
  0
LINE
  5
1326C
330
13245
100
AcDbEntity
  8
0
100
AcDbLine
 10
-44.29315533855963
 20
-2.288136209298621
 30
0.0
 11
-44.90000000000001
 21
-2.717240184541174
 31
0.0
  0
LINE
  5
1326D
330
13245
100
AcDbEntity
  8
0
100
AcDbLine
 10
44.89999999999998
 20
-2.71724018454115
 30
0.0
 11
44.2931553385596
 21
-2.288136209298598
 31
0.0
  0
LINE
  5
1326E
330
13245
100
AcDbEntity
  8
0
100
AcDbLine
 10
44.2931553385596
 20
-2.288136209298598
 30
0.0
 11
41.99999999999998
 21
-2.288136209298598
 31
0.0
  0
ELLIPSE
  5
1326F
330
13245
100
AcDbEntity
  8
0
100
AcDbEllipse
 10
41.99999999999998
 20
-1.227476037518789
 30
0.0
 11
-1.5
 21
-0.0000000000000003
 31
0.0
210
0.0
220
0.0
230
1.0
 40
0.7071067811865474
 41
0.4363380716279047
 42
1.570796326794896
  0
SPLINE
  5
13270
330
13245
100
AcDbEntity
  8
0
100
AcDbSpline
210
0.0
220
0.0
230
1.0
 70
     8
 71
     3
 72
     8
 73
     4
 74
     0
 42
0.000000001
 43
0.0000000001
 40
-1.0
 40
-1.0
 40
-1.0
 40
-1.0
 40
0.0
 40
0.0
 40
0.0
 40
0.0
 10
40.64054197002045
 20
-1.675735931288074
 30
0.0
 10
40.51586474390251
 20
-1.572566966670493
 30
0.0
 10
40.47251992074075
 20
-1.500000000000003
 30
0.0
 10
40.51767776087193
 20
-1.500000000000003
 30
0.0
  0
SPLINE
  5
13271
330
13245
100
AcDbEntity
  8
0
100
AcDbSpline
210
0.0
220
0.0
230
1.0
 70
     8
 71
     3
 72
     8
 73
     4
 74
     0
 42
0.000000001
 43
0.0000000001
 40
-1.0
 40
-1.0
 40
-1.0
 40
-1.0
 40
0.0
 40
0.0
 40
0.0
 40
0.0
 10
-40.51767776087197
 20
-1.500000000000021
 30
0.0
 10
-40.47251992074049
 20
-1.500000000000021
 30
0.0
 10
-40.51586474390056
 20
-1.57256696667051
 30
0.0
 10
-40.64054197002054
 20
-1.675735931288092
 30
0.0
  0
LINE
  5
13272
330
13245
100
AcDbEntity
  8
0
100
AcDbLine
 10
-45.50000000000145
 20
-62.91118318265866
 30
0.0
 11
-47.00000000000177
 21
-62.91118318265866
 31
0.0
  0
LINE
  5
13273
330
13245
100
AcDbEntity
  8
0
100
AcDbLine
 10
-45.50000000000001
 20
-43.50000000000001
 30
0.0
 11
-45.50000000000145
 21
-62.91118318265866
 31
0.0
  0
SPLINE
  5
13274
330
13245
100
AcDbEntity
  8
0
100
AcDbSpline
210
0.0
220
0.0
230
1.0
 70
     8
 71
     3
 72
     8
 73
     4
 74
     0
 42
0.000000001
 43
0.0000000001
 40
-1.0
 40
-1.0
 40
-1.0
 40
-1.0
 40
0.0
 40
0.0
 40
0.0
 40
0.0
 10
-44.90000000000001
 20
-2.717240184541164
 30
0.0
 10
-45.214159265359
 20
-3.124319333760626
 30
0.0
 10
-45.50000000000003
 20
-3.733518404783586
 30
0.0
 10
-45.50000000000003
 20
-4.362741700911271
 30
0.0
  0
LINE
  5
13275
330
13245
100
AcDbEntity
  8
0
100
AcDbLine
 10
-44.90000000000001
 20
-2.717240184541174
 30
0.0
 11
-44.90000000000001
 21
-2.364040347338347
 31
0.0
  0
LINE
  5
13276
330
13245
100
AcDbEntity
  8
0
100
AcDbLine
 10
-44.90000000000001
 20
-2.364040347338347
 30
0.0
 11
-44.90000000000001
 21
-1.656580012761351
 31
0.0
  0
SPLINE
  5
13277
330
13245
100
AcDbEntity
  8
0
100
AcDbSpline
210
0.0
220
0.0
230
1.0
 70
     8
 71
     3
 72
     8
 73
     4
 74
     0
 42
0.000000001
 43
0.0000000001
 40
0.8233926083861613
 40
0.8233926083861613
 40
0.8233926083861613
 40
0.8233926083861613
 40
1.0
 40
1.0
 40
1.0
 40
1.0
 10
-45.46833079343952
 20
-1.934942494001982
 30
0.0
 10
-45.28528852951267
 20
-1.822430928281059
 30
0.0
 10
-45.09418996942231
 20
-1.728473199485373
 30
0.0
 10
-44.90000000000002
 20
-1.656580012761342
 30
0.0
  0
LINE
  5
13278
330
13245
100
AcDbEntity
  8
0
100
AcDbLine
 10
-44.90000000000001
 20
-1.656580012761351
 30
0.0
 11
-44.67856242236218
 21
-1.500000000000023
 31
0.0
  0
LINE
  5
13279
330
13245
100
AcDbEntity
  8
0
100
AcDbLine
 10
-44.29315533855963
 20
-2.288136209298621
 30
0.0
 11
-44.29315533855963
 21
-1.500000000000021
 31
0.0
  0
LINE
  5
1327A
330
13245
100
AcDbEntity
  8
0
100
AcDbLine
 10
-40.64054197002045
 20
-1.675735931288092
 30
0.0
 11
-40.64054197002045
 21
-1.50000000000002
 31
0.0
  0
LINE
  5
1327B
330
13245
100
AcDbEntity
  8
0
100
AcDbLine
 10
45.50000000000105
 20
-62.91118318265851
 30
0.0
 11
45.50000000000104
 21
-43.49999999999996
 31
0.0
  0
LINE
  5
1327C
330
13245
100
AcDbEntity
  8
0
100
AcDbLine
 10
44.89999999999998
 20
-2.71724018454115
 30
0.0
 11
44.89999999999998
 21
-2.364040347338363
 31
0.0
  0
SPLINE
  5
1327D
330
13245
100
AcDbEntity
  8
0
100
AcDbSpline
210
0.0
220
0.0
230
1.0
 70
     8
 71
     3
 72
     8
 73
     4
 74
     0
 42
0.000000001
 43
0.0000000001
 40
-1.0
 40
-1.0
 40
-1.0
 40
-1.0
 40
0.0
 40
0.0
 40
0.0
 40
0.0
 10
45.49999999999998
 20
-4.362741700911247
 30
0.0
 10
45.49999999999998
 20
-3.733518404783693
 30
0.0
 10
45.21415926535895
 20
-3.124319333760592
 30
0.0
 10
44.89999999999997
 20
-2.717240184541162
 30
0.0
  0
SPLINE
  5
1327E
330
13245
100
AcDbEntity
  8
0
100
AcDbSpline
210
0.0
220
0.0
230
1.0
 70
     8
 71
     3
 72
     8
 73
     4
 74
     0
 42
0.000000001
 43
0.0000000001
 40
0.0
 40
0.0
 40
0.0
 40
0.0
 40
0.1766073916138504
 40
0.1766073916138504
 40
0.1766073916138504
 40
0.1766073916138504
 10
44.89999999999996
 20
-1.656580012761339
 30
0.0
 10
45.09418996942226
 20
-1.728473199485368
 30
0.0
 10
45.28528852951263
 20
-1.82243092828106
 30
0.0
 10
45.46833079343949
 20
-1.934942494001993
 30
0.0
  0
LINE
  5
1327F
330
13245
100
AcDbEntity
  8
0
100
AcDbLine
 10
44.89999999999998
 20
-2.364040347338363
 30
0.0
 11
44.89999999999998
 21
-1.656580012761328
 31
0.0
  0
LINE
  5
13280
330
13245
100
AcDbEntity
  8
0
100
AcDbLine
 10
40.64054197002045
 20
-1.499999999999997
 30
0.0
 11
40.6405419700204
 21
-1.675735931288074
 31
0.0
  0
LINE
  5
13281
330
13245
100
AcDbEntity
  8
0
100
AcDbLine
 10
44.2931553385596
 20
-2.288136209298598
 30
0.0
 11
44.2931553385596
 21
-1.499999999999996
 31
0.0
  0
LINE
  5
13282
330
13245
100
AcDbEntity
  8
0
100
AcDbLine
 10
44.67856242236212
 20
-1.499999999999987
 30
0.0
 11
44.89999999999998
 21
-1.656580012761328
 31
0.0
  0
LINE
  5
13283
330
13245
100
AcDbEntity
  8
0
100
AcDbLine
 10
-47.00000000000177
 20
-62.91118318265866
 30
0.0
 11
-46.99999999999999
 21
-82.00306627386
 31
0.0
  0
LINE
  5
13284
330
13245
100
AcDbEntity
  8
0
100
AcDbLine
 10
-45.50000000000145
 20
-62.91118318265866
 30
0.0
 11
-45.49999999999998
 21
-82.00306627386
 31
0.0
  0
ELLIPSE
  5
13285
330
13245
100
AcDbEntity
  8
0
100
AcDbEllipse
 10
-12.50000000000005
 20
-0.1668158657389963
 30
0.0
 11
2.5
 21
0.0000000000001825
 31
0.0
210
0.0
220
0.0
230
1.0
 40
0.7071067811865474
 41
3.995971005724944
 42
4.712388980384622
  0
LINE
  5
13286
330
13245
100
AcDbEntity
  8
0
100
AcDbLine
 10
-14.91828991960768
 20
-1.500000000000003
 30
0.0
 11
-14.91828991960768
 21
-1.675735931288087
 31
0.0
  0
ELLIPSE
  5
13287
330
13245
100
AcDbEntity
  8
0
100
AcDbEllipse
 10
-12.50000000000005
 20
-1.227476037518801
 30
0.0
 11
-2.5
 21
-0.0000000000000006
 31
0.0
210
0.0
220
0.0
230
1.0
 40
0.7071067811865471
 41
0.2563733270184496
 42
1.570796326794896
  0
LINE
  5
13288
330
13245
100
AcDbEntity
  8
0
100
AcDbLine
 10
-12.50000000000005
 20
-1.934582818705399
 30
0.0
 11
-7.500000000000017
 21
-1.934582818705398
 31
0.0
  0
LINE
  5
13289
330
13245
100
AcDbEntity
  8
0
100
AcDbLine
 10
-7.500000000000016
 20
-2.99524299048522
 30
0.0
 11
-12.50000000000005
 21
-2.995242990485221
 31
0.0
  0
ELLIPSE
  5
1328A
330
13245
100
AcDbEntity
  8
0
100
AcDbEllipse
 10
-7.500000000000017
 20
-0.166815865738995
 30
0.0
 11
2.5
 21
0.0000000000000006
 31
0.0
210
0.0
220
0.0
230
1.0
 40
0.7071067811865471
 41
4.712388980384689
 42
5.428806955044299
  0
ELLIPSE
  5
1328B
330
13245
100
AcDbEntity
  8
0
100
AcDbEllipse
 10
-7.500000000000017
 20
-1.2274760375188
 30
0.0
 11
2.5
 21
0.0000000000000009
 31
0.0
210
0.0
220
0.0
230
1.0
 40
0.7071067811865475
 41
4.712388980384689
 42
6.026811980161137
  0
LINE
  5
1328C
330
13245
100
AcDbEntity
  8
0
100
AcDbLine
 10
-5.081710080392384
 20
-1.675735931288084
 30
0.0
 11
-5.081710080392384
 21
-1.500000000000001
 31
0.0
  0
SPLINE
  5
1328D
330
13245
100
AcDbEntity
  8
0
100
AcDbSpline
210
0.0
220
0.0
230
1.0
 70
     8
 71
     3
 72
     8
 73
     4
 74
     0
 42
0.000000001
 43
0.0000000001
 40
-1.0
 40
-1.0
 40
-1.0
 40
-1.0
 40
0.0
 40
0.0
 40
0.0
 40
0.0
 10
-14.91828991960768
 20
-1.675735931288087
 30
0.0
 10
-14.99189972302028
 20
-1.567383125827707
 30
0.0
 10
-15.01609483643931
 20
-1.500000000000015
 30
0.0
 10
-14.98943351399748
 20
-1.500000000000015
 30
0.0
  0
SPLINE
  5
1328E
330
13245
100
AcDbEntity
  8
0
100
AcDbSpline
210
0.0
220
0.0
230
1.0
 70
     8
 71
     3
 72
     8
 73
     4
 74
     0
 42
0.000000001
 43
0.0000000001
 40
-1.0
 40
-1.0
 40
-1.0
 40
-1.0
 40
0.0
 40
0.0
 40
0.0
 40
0.0
 10
-5.01056648600259
 20
-1.500000000000013
 30
0.0
 10
-4.983905163560564
 20
-1.500000000000013
 30
0.0
 10
-5.008100276979964
 20
-1.567383125827736
 30
0.0
 10
-5.081710080392381
 20
-1.675735931288084
 30
0.0
  0
ELLIPSE
  5
1328F
330
13245
100
AcDbEntity
  8
0
100
AcDbEllipse
 10
7.499999999999982
 20
-0.1668158657389941
 30
0.0
 11
2.5
 21
0.0000000000001822
 31
0.0
210
0.0
220
0.0
230
1.0
 40
0.7071067811865474
 41
3.995971005724943
 42
4.712388980384623
  0
LINE
  5
13290
330
13245
100
AcDbEntity
  8
0
100
AcDbLine
 10
5.081710080392346
 20
-1.499999999999997
 30
0.0
 11
5.081710080392345
 21
-1.675735931288082
 31
0.0
  0
ELLIPSE
  5
13291
330
13245
100
AcDbEntity
  8
0
100
AcDbEllipse
 10
7.499999999999982
 20
-1.227476037518796
 30
0.0
 11
-2.5
 21
-0.0000000000000006
 31
0.0
210
0.0
220
0.0
230
1.0
 40
0.7071067811865472
 41
0.2563733270184487
 42
1.570796326794896
  0
LINE
  5
13292
330
13245
100
AcDbEntity
  8
0
100
AcDbLine
 10
7.499999999999982
 20
-1.934582818705393
 30
0.0
 11
12.50000000000001
 21
-1.934582818705392
 31
0.0
  0
LINE
  5
13293
330
13245
100
AcDbEntity
  8
0
100
AcDbLine
 10
12.50000000000001
 20
-2.995242990485214
 30
0.0
 11
7.499999999999983
 21
-2.995242990485215
 31
0.0
  0
ELLIPSE
  5
13294
330
13245
100
AcDbEntity
  8
0
100
AcDbEllipse
 10
12.50000000000001
 20
-0.166815865738993
 30
0.0
 11
2.5
 21
0.0000000000000006
 31
0.0
210
0.0
220
0.0
230
1.0
 40
0.7071067811865472
 41
4.712388980384689
 42
5.428806955044302
  0
ELLIPSE
  5
13295
330
13245
100
AcDbEntity
  8
0
100
AcDbEllipse
 10
12.50000000000001
 20
-1.227476037518795
 30
0.0
 11
2.5
 21
0.0000000000000006
 31
0.0
210
0.0
220
0.0
230
1.0
 40
0.7071067811865474
 41
4.712388980384689
 42
6.026811980161137
  0
LINE
  5
13296
330
13245
100
AcDbEntity
  8
0
100
AcDbLine
 10
14.91828991960765
 20
-1.67573593128808
 30
0.0
 11
14.91828991960765
 21
-1.499999999999994
 31
0.0
  0
SPLINE
  5
13297
330
13245
100
AcDbEntity
  8
0
100
AcDbSpline
210
0.0
220
0.0
230
1.0
 70
     8
 71
     3
 72
     8
 73
     4
 74
     0
 42
0.000000001
 43
0.0000000001
 40
-1.0
 40
-1.0
 40
-1.0
 40
-1.0
 40
0.0
 40
0.0
 40
0.0
 40
0.0
 10
5.081710080392346
 20
-1.675735931288082
 30
0.0
 10
5.008100276979861
 20
-1.567383125827729
 30
0.0
 10
4.983905163560433
 20
-1.500000000000011
 30
0.0
 10
5.010566486002556
 20
-1.500000000000011
 30
0.0
  0
SPLINE
  5
13298
330
13245
100
AcDbEntity
  8
0
100
AcDbSpline
210
0.0
220
0.0
230
1.0
 70
     8
 71
     3
 72
     8
 73
     4
 74
     0
 42
0.000000001
 43
0.0000000001
 40
-1.0
 40
-1.0
 40
-1.0
 40
-1.0
 40
0.0
 40
0.0
 40
0.0
 40
0.0
 10
14.98943351399745
 20
-1.500000000000008
 30
0.0
 10
15.01609483643918
 20
-1.500000000000008
 30
0.0
 10
14.99189972302041
 20
-1.567383125827704
 30
0.0
 10
14.91828991960765
 20
-1.67573593128808
 30
0.0
  0
ELLIPSE
  5
13299
330
13245
100
AcDbEntity
  8
0
100
AcDbEllipse
 10
-28.00000000000002
 20
-1.227476037518804
 30
0.0
 11
2.5
 21
0.0000000000000005
 31
0.0
210
0.0
220
0.0
230
1.0
 40
0.7071067811865472
 41
3.397965980608242
 42
6.026811980161135
  0
ELLIPSE
  5
1329A
330
13245
100
AcDbEntity
  8
0
100
AcDbEllipse
 10
27.99999999999998
 20
-1.227476037518792
 30
0.0
 11
2.5
 21
0.0000000000000008
 31
0.0
210
0.0
220
0.0
230
1.0
 40
0.7071067811865472
 41
3.397965980608239
 42
6.026811980161136
  0
SPLINE
  5
1329B
330
13245
100
AcDbEntity
  8
0
100
AcDbSpline
210
0.0
220
0.0
230
1.0
 70
     8
 71
     3
 72
     8
 73
     4
 74
     0
 42
0.000000001
 43
0.0000000001
 40
-1.0
 40
-1.0
 40
-1.0
 40
-1.0
 40
0.0
 40
0.0
 40
0.0
 40
0.0
 10
25.58171008039237
 20
-1.675735931288079
 30
0.0
 10
25.50810027697957
 20
-1.567383125827711
 30
0.0
 10
25.48390516356024
 20
-1.500000000000006
 30
0.0
 10
25.51056648600257
 20
-1.500000000000006
 30
0.0
  0
SPLINE
  5
1329C
330
13245
100
AcDbEntity
  8
0
100
AcDbSpline
210
0.0
220
0.0
230
1.0
 70
     8
 71
     3
 72
     8
 73
     4
 74
     0
 42
0.000000001
 43
0.0000000001
 40
-1.0
 40
-1.0
 40
-1.0
 40
-1.0
 40
0.0
 40
0.0
 40
0.0
 40
0.0
 10
-25.51056648600261
 20
-1.500000000000017
 30
0.0
 10
-25.48390516356008
 20
-1.500000000000017
 30
0.0
 10
-25.50810027697974
 20
-1.567383125827673
 30
0.0
 10
-25.5817100803924
 20
-1.675735931288089
 30
0.0
  0
ELLIPSE
  5
1329D
330
13245
100
AcDbEntity
  8
0
100
AcDbEllipse
 10
-28.00000000000002
 20
-0.1668158657389974
 30
0.0
 11
2.5
 21
0.0000000000001821
 31
0.0
210
0.0
220
0.0
230
1.0
 40
0.7071067811865472
 41
3.995971005724948
 42
5.42880695504415
  0
LINE
  5
1329E
330
13245
100
AcDbEntity
  8
0
100
AcDbLine
 10
-30.41828991960765
 20
-1.500000000000008
 30
0.0
 11
-30.41828991960764
 21
-1.67573593128809
 31
0.0
  0
LINE
  5
1329F
330
13245
100
AcDbEntity
  8
0
100
AcDbLine
 10
-25.58171008039238
 20
-1.675735931288089
 30
0.0
 11
-25.58171008039238
 21
-1.500000000000017
 31
0.0
  0
SPLINE
  5
132A0
330
13245
100
AcDbEntity
  8
0
100
AcDbSpline
210
0.0
220
0.0
230
1.0
 70
     8
 71
     3
 72
     8
 73
     4
 74
     0
 42
0.000000001
 43
0.0000000001
 40
-1.0
 40
-1.0
 40
-1.0
 40
-1.0
 40
0.0
 40
0.0
 40
0.0
 40
0.0
 10
-30.41828991960765
 20
-1.675735931288091
 30
0.0
 10
-30.49189972302006
 20
-1.567383125827715
 30
0.0
 10
-30.51609483643897
 20
-1.500000000000018
 30
0.0
 10
-30.48943351399743
 20
-1.500000000000018
 30
0.0
  0
ELLIPSE
  5
132A1
330
13245
100
AcDbEntity
  8
0
100
AcDbEllipse
 10
27.99999999999998
 20
-0.1668158657389887
 30
0.0
 11
2.5
 21
0.0000000000001829
 31
0.0
210
0.0
220
0.0
230
1.0
 40
0.7071067811865474
 41
3.995971005724962
 42
5.428806955044168
  0
LINE
  5
132A2
330
13245
100
AcDbEntity
  8
0
100
AcDbLine
 10
25.58171008039237
 20
-1.500000000000006
 30
0.0
 11
25.58171008039233
 21
-1.675735931288078
 31
0.0
  0
LINE
  5
132A3
330
13245
100
AcDbEntity
  8
0
100
AcDbLine
 10
30.41828991960763
 20
-1.675735931288077
 30
0.0
 11
30.41828991960763
 21
-1.499999999999989
 31
0.0
  0
SPLINE
  5
132A4
330
13245
100
AcDbEntity
  8
0
100
AcDbSpline
210
0.0
220
0.0
230
1.0
 70
     8
 71
     3
 72
     8
 73
     4
 74
     0
 42
0.000000001
 43
0.0000000001
 40
-1.0
 40
-1.0
 40
-1.0
 40
-1.0
 40
0.0
 40
0.0
 40
0.0
 40
0.0
 10
30.48943351399739
 20
-1.500000000000005
 30
0.0
 10
30.51609483644023
 20
-1.500000000000005
 30
0.0
 10
30.49189972301904
 20
-1.567383125827654
 30
0.0
 10
30.41828991960763
 20
-1.675735931288077
 30
0.0
  0
LINE
  5
132A5
330
13245
100
AcDbEntity
  8
0
100
AcDbLine
 10
-44.90000000000001
 20
-55.8401153701776
 30
0.0
 11
44.89999999999998
 21
-55.84011537017758
 31
0.0
  0
ELLIPSE
  5
132A6
330
13245
100
AcDbEntity
  8
0
100
AcDbEllipse
 10
-44.89999999999999
 20
-56.26437943888953
 30
0.0
 11
-0.6000000000000087
 21
-0.0000000000001422
 31
0.0
210
0.0
220
0.0
230
1.0
 40
0.7071067811865517
 41
4.712388980384226
 42
6.283185307178958
  0
ARC
  5
132A7
330
13245
100
AcDbEntity
  8
0
100
AcDbCircle
 10
44.89999999999999
 20
-2.099999999999989
 30
0.0
 40
0.600000000000005
100
AcDbArc
 50
0.0
 51
90.0
  0
ARC
  5
132A8
330
13245
100
AcDbEntity
  8
0
100
AcDbCircle
 10
44.89999999999999
 20
-2.099999999999989
 30
0.0
 40
2.100000000000008
100
AcDbArc
 50
0.0
 51
90.0
  0
ARC
  5
132A9
330
13245
100
AcDbEntity
  8
0
100
AcDbCircle
 10
-44.90000000000002
 20
-2.100000000000009
 30
0.0
 40
0.5999999999999961
100
AcDbArc
 50
90.0
 51
180.0
  0
ARC
  5
132AA
330
13245
100
AcDbEntity
  8
0
100
AcDbCircle
 10
-44.90000000000002
 20
-2.100000000000009
 30
0.0
 40
2.099999999999999
100
AcDbArc
 50
90.0
 51
180.0
  0
ENDBLK
  5
13247
330
13245
100
AcDbEntity
  8
0
100
AcDbBlockEnd
  0
BLOCK
  5
132AC
330
132AB
100
AcDbEntity
  8
0
100
AcDbBlockBegin
  2
SPR91_200-Bottom
 70
     0
 10
0.0
 20
0.0
 30
0.0
  3
SPR91_200-Bottom
  1

  0
LINE
  5
132AE
330
132AB
100
AcDbEntity
  8
0
100
AcDbLine
 10
88.02709056099997
 20
1.499999999999984
 30
0.0
 11
83.02709056099997
 21
1.499999999999985
 31
0.0
  0
LINE
  5
132AF
330
132AB
100
AcDbEntity
  8
0
100
AcDbLine
 10
83.02709056099997
 20
1.499999999999985
 30
0.0
 11
83.02709056099997
 21
0.0
 31
0.0
  0
LINE
  5
132B0
330
132AB
100
AcDbEntity
  8
0
100
AcDbLine
 10
83.02709056099997
 20
0.0
 30
0.0
 11
88.02709056099997
 21
0.0
 31
0.0
  0
LINE
  5
132B1
330
132AB
100
AcDbEntity
  8
0
100
AcDbLine
 10
88.02709056099997
 20
0.0
 30
0.0
 11
88.02709056099997
 21
1.499999999999984
 31
0.0
  0
LINE
  5
132B2
330
132AB
100
AcDbEntity
  8
0
100
AcDbLine
 10
-88.02709056100001
 20
0.0
 30
0.0
 11
-83.02709056100001
 21
0.0
 31
0.0
  0
LINE
  5
132B3
330
132AB
100
AcDbEntity
  8
0
100
AcDbLine
 10
-83.02709056100001
 20
1.500000000000032
 30
0.0
 11
-88.02709056100001
 21
1.500000000000033
 31
0.0
  0
LINE
  5
132B4
330
132AB
100
AcDbEntity
  8
0
100
AcDbLine
 10
-88.02709056100001
 20
1.500000000000033
 30
0.0
 11
-88.02709056100001
 21
0.0
 31
0.0
  0
LINE
  5
132B5
330
132AB
100
AcDbEntity
  8
0
100
AcDbLine
 10
-83.02709056100001
 20
0.0
 30
0.0
 11
-83.02709056100001
 21
1.500000000000032
 31
0.0
  0
LINE
  5
132B6
330
132AB
100
AcDbEntity
  8
0
100
AcDbLine
 10
83.02709056099997
 20
0.0
 30
0.0
 11
41.99999999999998
 21
0.0
 31
0.0
  0
LINE
  5
132B7
330
132AB
100
AcDbEntity
  8
0
100
AcDbLine
 10
-42.00000000000001
 20
0.0
 30
0.0
 11
-83.02709056100001
 21
0.0
 31
0.0
  0
LINE
  5
132B8
330
132AB
100
AcDbEntity
  8
0
100
AcDbLine
 10
-44.67856242236218
 20
1.500000000000025
 30
0.0
 11
-83.02709056100001
 21
1.500000000000032
 31
0.0
  0
LINE
  5
132B9
330
132AB
100
AcDbEntity
  8
0
100
AcDbLine
 10
83.02709056099997
 20
1.499999999999985
 30
0.0
 11
44.67856242236213
 21
1.499999999999996
 31
0.0
  0
LINE
  5
132BA
330
132AB
100
AcDbEntity
  8
0
100
AcDbLine
 10
41.99999999999998
 20
0.0
 30
0.0
 11
40.51767776087193
 21
0.0
 31
0.0
  0
LINE
  5
132BB
330
132AB
100
AcDbEntity
  8
0
100
AcDbLine
 10
-40.51767776087197
 20
0.0
 30
0.0
 11
-42.00000000000001
 21
0.0
 31
0.0
  0
SPLINE
  5
132BC
330
132AB
100
AcDbEntity
  8
0
100
AcDbSpline
210
0.0
220
0.0
230
1.0
 70
     8
 71
     3
 72
     8
 73
     4
 74
     0
 42
0.000000001
 43
0.0000000001
 40
0.0
 40
0.0
 40
0.0
 40
0.0
 40
1.0
 40
1.0
 40
1.0
 40
1.0
 10
40.51767776087193
 20
0.0000000000000029
 30
0.0
 10
40.47251992074075
 20
0.0000000000000032
 30
0.0
 10
40.51586474390251
 20
0.2539843833467188
 30
0.0
 10
40.64054197002045
 20
0.615075759508253
 30
0.0
  0
SPLINE
  5
132BD
330
132AB
100
AcDbEntity
  8
0
100
AcDbSpline
210
0.0
220
0.0
230
1.0
 70
     8
 71
     3
 72
     8
 73
     4
 74
     0
 42
0.000000001
 43
0.0000000001
 40
0.0
 40
0.0
 40
0.0
 40
0.0
 40
1.0
 40
1.0
 40
1.0
 40
1.0
 10
-40.64054197002054
 20
0.6150757595082711
 30
0.0
 10
-40.51586474390056
 20
0.2539843833467349
 30
0.0
 10
-40.47251992074049
 20
0.0000000000000211
 30
0.0
 10
-40.51767776087197
 20
0.0000000000000209
 30
0.0
  0
SPLINE
  5
132BE
330
132AB
100
AcDbEntity
  8
0
100
AcDbSpline
210
0.0
220
0.0
230
1.0
 70
     8
 71
     3
 72
     8
 73
     4
 74
     0
 42
0.000000001
 43
0.0000000001
 40
0.0
 40
0.0
 40
0.0
 40
0.0
 40
1.0
 40
1.0
 40
1.0
 40
1.0
 10
-47.00000000000003
 20
4.362741700911236
 30
0.0
 10
-47.0
 20
3.1781580375138
 30
0.0
 10
-45.99955742875643
 20
2.063659161980809
 30
0.0
 10
-44.90000000000002
 20
1.656580012761342
 30
0.0
  0
LINE
  5
132BF
330
132AB
100
AcDbEntity
  8
0
100
AcDbLine
 10
-44.90000000000001
 20
1.656580012761351
 30
0.0
 11
-44.29315533855963
 21
1.227476037518798
 31
0.0
  0
LINE
  5
132C0
330
132AB
100
AcDbEntity
  8
0
100
AcDbLine
 10
-44.29315533855963
 20
1.227476037518798
 30
0.0
 11
-42.00000000000001
 21
1.227476037518798
 31
0.0
  0
ELLIPSE
  5
132C1
330
132AB
100
AcDbEntity
  8
0
100
AcDbEllipse
 10
-42.00000000000001
 20
0.1668158657389979
 30
0.0
 11
1.5
 21
-0.0000000000000003
 31
0.0
210
0.0
220
0.0
230
1.0
 40
0.7071067811865474
 41
0.4363380716279126
 42
1.570796326794896
  0
LINE
  5
132C2
330
132AB
100
AcDbEntity
  8
0
100
AcDbLine
 10
-40.51767776087197
 20
0.1805170265383209
 30
0.0
 11
-40.51767776087197
 21
0.0
 31
0.0
  0
SPLINE
  5
132C3
330
132AB
100
AcDbEntity
  8
0
100
AcDbSpline
210
0.0
220
0.0
230
1.0
 70
     8
 71
     3
 72
     8
 73
     4
 74
     0
 42
0.000000001
 43
0.0000000001
 40
0.0
 40
0.0
 40
0.0
 40
0.0
 40
1.0
 40
1.0
 40
1.0
 40
1.0
 10
44.89999999999996
 20
1.656580012761339
 30
0.0
 10
45.99955742875635
 20
2.063659161980766
 30
0.0
 10
46.99999999999995
 20
3.178158037513872
 30
0.0
 10
46.99999999999999
 20
4.362741700911211
 30
0.0
  0
ELLIPSE
  5
132C4
330
132AB
100
AcDbEntity
  8
0
100
AcDbEllipse
 10
41.99999999999998
 20
0.166815865738982
 30
0.0
 11
1.5
 21
-0.0000000000001098
 31
0.0
210
0.0
220
0.0
230
1.0
 40
0.7071067811865479
 41
1.570796326795031
 42
2.705254581962144
  0
LINE
  5
132C5
330
132AB
100
AcDbEntity
  8
0
100
AcDbLine
 10
41.99999999999998
 20
1.227476037518777
 30
0.0
 11
44.2931553385596
 21
1.227476037518776
 31
0.0
  0
LINE
  5
132C6
330
132AB
100
AcDbEntity
  8
0
100
AcDbLine
 10
44.2931553385596
 20
1.227476037518776
 30
0.0
 11
44.89999999999998
 21
1.656580012761328
 31
0.0
  0
LINE
  5
132C7
330
132AB
100
AcDbEntity
  8
0
100
AcDbLine
 10
40.51767776087193
 20
0.1805170265383825
 30
0.0
 11
40.51767776087193
 21
0.0
 31
0.0
  0
LINE
  5
132C8
330
132AB
100
AcDbEntity
  8
0
100
AcDbLine
 10
30.48943351399741
 20
0.0
 30
0.0
 11
40.51767776087193
 21
0.0
 31
0.0
  0
LINE
  5
132C9
330
132AB
100
AcDbEntity
  8
0
100
AcDbLine
 10
14.98943351399744
 20
0.0
 30
0.0
 11
25.51056648600255
 21
0.0
 31
0.0
  0
LINE
  5
132CA
330
132AB
100
AcDbEntity
  8
0
100
AcDbLine
 10
-5.01056648600259
 20
0.0
 30
0.0
 11
5.010566486002554
 21
0.0
 31
0.0
  0
LINE
  5
132CB
330
132AB
100
AcDbEntity
  8
0
100
AcDbLine
 10
-25.51056648600259
 20
0.0
 30
0.0
 11
-14.98943351399748
 21
0.0
 31
0.0
  0
LINE
  5
132CC
330
132AB
100
AcDbEntity
  8
0
100
AcDbLine
 10
-40.51767776087197
 20
0.0
 30
0.0
 11
-30.48943351399744
 21
0.0
 31
0.0
  0
LINE
  5
132CD
330
132AB
100
AcDbEntity
  8
0
100
AcDbLine
 10
46.99999999999998
 20
56.26437943888955
 30
0.0
 11
46.99999999999996
 21
82.00306627385996
 31
0.0
  0
LINE
  5
132CE
330
132AB
100
AcDbEntity
  8
0
100
AcDbLine
 10
-46.99999999999996
 20
82.00306627386
 30
0.0
 11
-47.0
 21
56.26437943888956
 31
0.0
  0
LINE
  5
132CF
330
132AB
100
AcDbEntity
  8
0
100
AcDbLine
 10
-45.49999999999998
 20
82.00306627386
 30
0.0
 11
-45.49999999999999
 21
56.26437943888955
 31
0.0
  0
LINE
  5
132D0
330
132AB
100
AcDbEntity
  8
0
100
AcDbLine
 10
-44.90000000000001
 20
55.8401153701776
 30
0.0
 11
44.89999999999998
 21
55.84011537017758
 31
0.0
  0
LINE
  5
132D1
330
132AB
100
AcDbEntity
  8
0
100
AcDbLine
 10
45.49999999999998
 20
56.26437943888952
 30
0.0
 11
45.49999999999998
 21
82.00306627385996
 31
0.0
  0
LINE
  5
132D2
330
132AB
100
AcDbEntity
  8
0
100
AcDbLine
 10
-44.90000000000001
 20
54.77945519839778
 30
0.0
 11
44.89999999999998
 21
54.77945519839777
 31
0.0
  0
LINE
  5
132D3
330
132AB
100
AcDbEntity
  8
0
100
AcDbLine
 10
30.48943351399741
 20
0.0
 30
0.0
 11
25.51056648600255
 21
0.0
 31
0.0
  0
LINE
  5
132D4
330
132AB
100
AcDbEntity
  8
0
100
AcDbLine
 10
-25.51056648600259
 20
0.0
 30
0.0
 11
-30.48943351399744
 21
0.0
 31
0.0
  0
SPLINE
  5
132D5
330
132AB
100
AcDbEntity
  8
0
100
AcDbSpline
210
0.0
220
0.0
230
1.0
 70
     8
 71
     3
 72
     8
 73
     4
 74
     0
 42
0.000000001
 43
0.0000000001
 40
0.0
 40
0.0
 40
0.0
 40
0.0
 40
1.0
 40
1.0
 40
1.0
 40
1.0
 10
-25.5817100803924
 20
0.6150757595082678
 30
0.0
 10
-25.50810027697974
 20
0.235840940396813
 30
0.0
 10
-25.48390516356008
 20
0.0000000000000176
 30
0.0
 10
-25.51056648600261
 20
0.0000000000000176
 30
0.0
  0
SPLINE
  5
132D6
330
132AB
100
AcDbEntity
  8
0
100
AcDbSpline
210
0.0
220
0.0
230
1.0
 70
     8
 71
     3
 72
     8
 73
     4
 74
     0
 42
0.000000001
 43
0.0000000001
 40
0.0
 40
0.0
 40
0.0
 40
0.0
 40
1.0
 40
1.0
 40
1.0
 40
1.0
 10
25.51056648600257
 20
0.0000000000000063
 30
0.0
 10
25.48390516356024
 20
0.0000000000000064
 30
0.0
 10
25.50810027697957
 20
0.235840940396973
 30
0.0
 10
25.58171008039237
 20
0.6150757595082591
 30
0.0
  0
ELLIPSE
  5
132D7
330
132AB
100
AcDbEntity
  8
0
100
AcDbEllipse
 10
-28.00000000000002
 20
0.1668158657389974
 30
0.0
 11
-2.5
 21
0.0000000000000009
 31
0.0
210
0.0
220
0.0
230
1.0
 40
0.7071067811865472
 41
3.397965980608241
 42
6.026811980161135
  0
SPLINE
  5
132D8
330
132AB
100
AcDbEntity
  8
0
100
AcDbSpline
210
0.0
220
0.0
230
1.0
 70
     8
 71
     3
 72
     8
 73
     4
 74
     0
 42
0.000000001
 43
0.0000000001
 40
0.0
 40
0.0
 40
0.0
 40
0.0
 40
1.0
 40
1.0
 40
1.0
 40
1.0
 10
-30.48943351399743
 20
0.0000000000000187
 30
0.0
 10
-30.51609483643897
 20
0.0000000000000186
 30
0.0
 10
-30.49189972302006
 20
0.235840940396959
 30
0.0
 10
-30.41828991960765
 20
0.6150757595082716
 30
0.0
  0
LINE
  5
132D9
330
132AB
100
AcDbEntity
  8
0
100
AcDbLine
 10
-30.48943351399744
 20
0.1805170265382234
 30
0.0
 11
-30.48943351399744
 21
0.0
 31
0.0
  0
LINE
  5
132DA
330
132AB
100
AcDbEntity
  8
0
100
AcDbLine
 10
-25.51056648600259
 20
0.1805170265381774
 30
0.0
 11
-25.51056648600259
 21
0.0
 31
0.0
  0
LINE
  5
132DB
330
132AB
100
AcDbEntity
  8
0
100
AcDbLine
 10
-29.64171865077712
 20
1.500000000000018
 30
0.0
 11
-26.35828134922292
 21
1.500000000000017
 31
0.0
  0
ELLIPSE
  5
132DC
330
132AB
100
AcDbEntity
  8
0
100
AcDbEllipse
 10
27.99999999999998
 20
0.1668158657389887
 30
0.0
 11
-2.5
 21
0.0000000000000006
 31
0.0
210
0.0
220
0.0
230
1.0
 40
0.7071067811865474
 41
3.397965980608241
 42
6.026811980161138
  0
LINE
  5
132DD
330
132AB
100
AcDbEntity
  8
0
100
AcDbLine
 10
25.51056648600255
 20
0.1805170265382479
 30
0.0
 11
25.51056648600255
 21
0.0
 31
0.0
  0
LINE
  5
132DE
330
132AB
100
AcDbEntity
  8
0
100
AcDbLine
 10
30.48943351399741
 20
0.180517026538151
 30
0.0
 11
30.48943351399741
 21
0.0
 31
0.0
  0
SPLINE
  5
132DF
330
132AB
100
AcDbEntity
  8
0
100
AcDbSpline
210
0.0
220
0.0
230
1.0
 70
     8
 71
     3
 72
     8
 73
     4
 74
     0
 42
0.000000001
 43
0.0000000001
 40
0.0
 40
0.0
 40
0.0
 40
0.0
 40
1.0
 40
1.0
 40
1.0
 40
1.0
 10
30.41828991960763
 20
0.6150757595082554
 30
0.0
 10
30.49189972301904
 20
0.2358409403967751
 30
0.0
 10
30.51609483644023
 20
0.0000000000000052
 30
0.0
 10
30.48943351399739
 20
0.0000000000000052
 30
0.0
  0
LINE
  5
132E0
330
132AB
100
AcDbEntity
  8
0
100
AcDbLine
 10
26.35828134922288
 20
1.500000000000006
 30
0.0
 11
29.64171865077709
 21
1.500000000000005
 31
0.0
  0
LINE
  5
132E1
330
132AB
100
AcDbEntity
  8
0
100
AcDbLine
 10
14.98943351399744
 20
0.0
 30
0.0
 11
12.50000000000001
 21
0.0
 31
0.0
  0
LINE
  5
132E2
330
132AB
100
AcDbEntity
  8
0
100
AcDbLine
 10
12.50000000000001
 20
0.0
 30
0.0
 11
7.499999999999982
 21
0.0
 31
0.0
  0
LINE
  5
132E3
330
132AB
100
AcDbEntity
  8
0
100
AcDbLine
 10
7.499999999999982
 20
0.0
 30
0.0
 11
5.010566486002554
 21
0.0
 31
0.0
  0
LINE
  5
132E4
330
132AB
100
AcDbEntity
  8
0
100
AcDbLine
 10
-5.01056648600259
 20
0.0
 30
0.0
 11
-7.500000000000017
 21
0.0
 31
0.0
  0
LINE
  5
132E5
330
132AB
100
AcDbEntity
  8
0
100
AcDbLine
 10
-7.500000000000017
 20
0.0
 30
0.0
 11
-12.50000000000005
 21
0.0
 31
0.0
  0
LINE
  5
132E6
330
132AB
100
AcDbEntity
  8
0
100
AcDbLine
 10
-12.50000000000005
 20
0.0
 30
0.0
 11
-14.98943351399748
 21
0.0
 31
0.0
  0
ELLIPSE
  5
132E7
330
132AB
100
AcDbEntity
  8
0
100
AcDbEllipse
 10
-12.50000000000005
 20
0.1668158657389963
 30
0.0
 11
-2.5
 21
0.0000000000000005
 31
0.0
210
0.0
220
0.0
230
1.0
 40
0.7071067811865474
 41
4.712388980384689
 42
6.026811980161136
  0
LINE
  5
132E8
330
132AB
100
AcDbEntity
  8
0
100
AcDbLine
 10
-12.50000000000005
 20
1.934582818705399
 30
0.0
 11
-7.500000000000017
 21
1.934582818705398
 31
0.0
  0
ELLIPSE
  5
132E9
330
132AB
100
AcDbEntity
  8
0
100
AcDbEllipse
 10
-7.500000000000017
 20
0.166815865738995
 30
0.0
 11
2.5
 21
-0.0000000000000006
 31
0.0
210
0.0
220
0.0
230
1.0
 40
0.7071067811865471
 41
0.2563733270184496
 42
1.570796326794896
  0
SPLINE
  5
132EA
330
132AB
100
AcDbEntity
  8
0
100
AcDbSpline
210
0.0
220
0.0
230
1.0
 70
     8
 71
     3
 72
     8
 73
     4
 74
     0
 42
0.000000001
 43
0.0000000001
 40
0.0
 40
0.0
 40
0.0
 40
0.0
 40
1.0
 40
1.0
 40
1.0
 40
1.0
 10
-14.98943351399748
 20
0.0000000000000153
 30
0.0
 10
-15.01609483643931
 20
0.0000000000000153
 30
0.0
 10
-14.99189972302028
 20
0.2358409403969363
 30
0.0
 10
-14.91828991960768
 20
0.6150757595082654
 30
0.0
  0
LINE
  5
132EB
330
132AB
100
AcDbEntity
  8
0
100
AcDbLine
 10
-14.98943351399748
 20
0.1805170265382403
 30
0.0
 11
-14.98943351399748
 21
0.0
 31
0.0
  0
LINE
  5
132EC
330
132AB
100
AcDbEntity
  8
0
100
AcDbLine
 10
-5.01056648600259
 20
0.1805170265382594
 30
0.0
 11
-5.01056648600259
 21
0.0
 31
0.0
  0
SPLINE
  5
132ED
330
132AB
100
AcDbEntity
  8
0
100
AcDbSpline
210
0.0
220
0.0
230
1.0
 70
     8
 71
     3
 72
     8
 73
     4
 74
     0
 42
0.000000001
 43
0.0000000001
 40
0.0
 40
0.0
 40
0.0
 40
0.0
 40
1.0
 40
1.0
 40
1.0
 40
1.0
 10
-5.081710080392381
 20
0.6150757595082622
 30
0.0
 10
-5.008100276979964
 20
0.2358409403970452
 30
0.0
 10
-4.983905163560565
 20
0.0000000000000128
 30
0.0
 10
-5.01056648600259
 20
0.000000000000013
 30
0.0
  0
LINE
  5
132EE
330
132AB
100
AcDbEntity
  8
0
100
AcDbLine
 10
-7.500000000000017
 20
1.500000000000014
 30
0.0
 11
-5.858281349222914
 21
1.500000000000013
 31
0.0
  0
LINE
  5
132EF
330
132AB
100
AcDbEntity
  8
0
100
AcDbLine
 10
-12.50000000000005
 20
1.500000000000015
 30
0.0
 11
-7.500000000000017
 21
1.500000000000014
 31
0.0
  0
LINE
  5
132F0
330
132AB
100
AcDbEntity
  8
0
100
AcDbLine
 10
-14.14171865077715
 20
1.500000000000015
 30
0.0
 11
-12.50000000000005
 21
1.500000000000015
 31
0.0
  0
ELLIPSE
  5
132F1
330
132AB
100
AcDbEntity
  8
0
100
AcDbEllipse
 10
7.499999999999982
 20
0.1668158657389941
 30
0.0
 11
-2.5
 21
-0.0000000000000001
 31
0.0
210
0.0
220
0.0
230
1.0
 40
0.7071067811865476
 41
4.712388980384689
 42
6.026811980161137
  0
LINE
  5
132F2
330
132AB
100
AcDbEntity
  8
0
100
AcDbLine
 10
7.499999999999982
 20
1.934582818705393
 30
0.0
 11
12.50000000000001
 21
1.934582818705392
 31
0.0
  0
ELLIPSE
  5
132F3
330
132AB
100
AcDbEntity
  8
0
100
AcDbEllipse
 10
12.50000000000001
 20
0.166815865738993
 30
0.0
 11
2.5
 21
-0.0000000000000006
 31
0.0
210
0.0
220
0.0
230
1.0
 40
0.7071067811865472
 41
0.2563733270184487
 42
1.570796326794896
  0
SPLINE
  5
132F4
330
132AB
100
AcDbEntity
  8
0
100
AcDbSpline
210
0.0
220
0.0
230
1.0
 70
     8
 71
     3
 72
     8
 73
     4
 74
     0
 42
0.000000001
 43
0.0000000001
 40
0.0
 40
0.0
 40
0.0
 40
0.0
 40
1.0
 40
1.0
 40
1.0
 40
1.0
 10
5.010566486002556
 20
0.0000000000000108
 30
0.0
 10
4.983905163560432
 20
0.0000000000000107
 30
0.0
 10
5.008100276979861
 20
0.2358409403970252
 30
0.0
 10
5.081710080392346
 20
0.61507575950826
 30
0.0
  0
LINE
  5
132F5
330
132AB
100
AcDbEntity
  8
0
100
AcDbLine
 10
5.010566486002554
 20
0.1805170265382422
 30
0.0
 11
5.010566486002554
 21
0.0
 31
0.0
  0
LINE
  5
132F6
330
132AB
100
AcDbEntity
  8
0
100
AcDbLine
 10
14.98943351399744
 20
0.1805170265382813
 30
0.0
 11
14.98943351399744
 21
0.0
 31
0.0
  0
SPLINE
  5
132F7
330
132AB
100
AcDbEntity
  8
0
100
AcDbSpline
210
0.0
220
0.0
230
1.0
 70
     8
 71
     3
 72
     8
 73
     4
 74
     0
 42
0.000000001
 43
0.0000000001
 40
0.0
 40
0.0
 40
0.0
 40
0.0
 40
1.0
 40
1.0
 40
1.0
 40
1.0
 10
14.91828991960765
 20
0.6150757595082578
 30
0.0
 10
14.99189972302041
 20
0.2358409403969417
 30
0.0
 10
15.01609483643918
 20
0.0000000000000086
 30
0.0
 10
14.98943351399745
 20
0.0000000000000086
 30
0.0
  0
LINE
  5
132F8
330
132AB
100
AcDbEntity
  8
0
100
AcDbLine
 10
12.50000000000001
 20
1.500000000000009
 30
0.0
 11
14.14171865077712
 21
1.500000000000009
 31
0.0
  0
LINE
  5
132F9
330
132AB
100
AcDbEntity
  8
0
100
AcDbLine
 10
7.499999999999982
 20
1.50000000000001
 30
0.0
 11
12.50000000000001
 21
1.500000000000008
 31
0.0
  0
LINE
  5
132FA
330
132AB
100
AcDbEntity
  8
0
100
AcDbLine
 10
5.858281349222876
 20
1.500000000000011
 30
0.0
 11
7.499999999999981
 21
1.50000000000001
 31
0.0
  0
LINE
  5
132FB
330
132AB
100
AcDbEntity
  8
0
100
AcDbLine
 10
47.0
 20
2.099999999999997
 30
0.0
 11
46.99999999999998
 21
4.362741700911197
 31
0.0
  0
LINE
  5
132FC
330
132AB
100
AcDbEntity
  8
0
100
AcDbLine
 10
-47.00000000000002
 20
4.362741700911249
 30
0.0
 11
-47.00000000000002
 21
2.100000000000001
 31
0.0
  0
LINE
  5
132FD
330
132AB
100
AcDbEntity
  8
0
100
AcDbLine
 10
45.49999999999998
 20
82.00306627385996
 30
0.0
 11
46.99999999999996
 21
82.00306627385996
 31
0.0
  0
LINE
  5
132FE
330
132AB
100
AcDbEntity
  8
0
100
AcDbLine
 10
-46.99999999999996
 20
82.00306627386
 30
0.0
 11
-45.49999999999998
 21
82.00306627386
 31
0.0
  0
LINE
  5
132FF
330
132AB
100
AcDbEntity
  8
0
100
AcDbLine
 10
46.99999999999998
 20
56.26437943888955
 30
0.0
 11
46.99999999999999
 21
4.362741700911199
 31
0.0
  0
ELLIPSE
  5
13300
330
132AB
100
AcDbEntity
  8
0
100
AcDbEllipse
 10
44.89999999999997
 20
56.26437943888955
 30
0.0
 11
0.6000000000000087
 21
-0.0000000000000547
 31
0.0
210
0.0
220
0.0
230
1.0
 40
0.7071067811864291
 41
4.712388980384931
 42
6.283185307179363
  0
ELLIPSE
  5
13301
330
132AB
100
AcDbEntity
  8
0
100
AcDbEllipse
 10
44.89999999999997
 20
56.26437943888955
 30
0.0
 11
2.100000000000031
 21
-0.0000000000002936
 31
0.0
210
0.0
220
0.0
230
1.0
 40
0.7071067811865506
 41
4.712388980384627
 42
6.283185307179239
  0
LINE
  5
13302
330
132AB
100
AcDbEntity
  8
0
100
AcDbLine
 10
-47.00000000000003
 20
4.362741700911247
 30
0.0
 11
-47.0
 21
56.26437943888956
 31
0.0
  0
ELLIPSE
  5
13303
330
132AB
100
AcDbEntity
  8
0
100
AcDbEllipse
 10
-44.89999999999999
 20
56.26437943888953
 30
0.0
 11
-2.100000000000031
 21
0.0000000000000158
 31
0.0
210
0.0
220
0.0
230
1.0
 40
0.707106781186666
 41
0.0
 42
1.570796326794889
  0
ELLIPSE
  5
13304
330
132AB
100
AcDbEntity
  8
0
100
AcDbEllipse
 10
-44.89999999999999
 20
56.26437943888953
 30
0.0
 11
-0.6000000000000087
 21
0.0000000000001422
 31
0.0
210
0.0
220
0.0
230
1.0
 40
0.7071067811865517
 41
0.0000000000006284
 42
1.57079632679536
  0
ARC
  5
13305
330
132AB
100
AcDbEntity
  8
0
100
AcDbCircle
 10
44.89999999999999
 20
2.099999999999989
 30
0.0
 40
0.600000000000005
100
AcDbArc
 50
270.0
 51
343.444434856459
  0
ARC
  5
13306
330
132AB
100
AcDbEntity
  8
0
100
AcDbCircle
 10
44.89999999999999
 20
2.099999999999989
 30
0.0
 40
2.100000000000008
100
AcDbArc
 50
343.3984504009799
 51
0.0
  0
ARC
  5
13307
330
132AB
100
AcDbEntity
  8
0
100
AcDbCircle
 10
-44.90000000000002
 20
2.100000000000009
 30
0.0
 40
0.5999999999999961
100
AcDbArc
 50
196.5555651435414
 51
270.0
  0
ARC
  5
13308
330
132AB
100
AcDbEntity
  8
0
100
AcDbCircle
 10
-44.90000000000002
 20
2.100000000000009
 30
0.0
 40
2.099999999999999
100
AcDbArc
 50
180.0
 51
196.6015495990198
  0
ENDBLK
  5
132AD
330
132AB
100
AcDbEntity
  8
0
100
AcDbBlockEnd
  0
BLOCK
  5
1330A
330
13309
100
AcDbEntity
  8
0
100
AcDbBlockBegin
  2
SPR91_200-ISO
 70
     0
 10
0.0
 20
0.0
 30
0.0
  3
SPR91_200-ISO
  1

  0
LINE
  5
1330C
330
13309
100
AcDbEntity
  8
0
100
AcDbLine
 10
90.17396316658398
 20
-73.89671516372828
 30
0.0
 11
86.63842926065127
 21
-75.9379566160476
 31
0.0
  0
LINE
  5
1330D
330
13309
100
AcDbEntity
  8
0
100
AcDbLine
 10
91.23462333836384
 20
-73.28434272803248
 30
0.0
 11
90.17396316658398
 21
-73.89671516372828
 31
0.0
  0
LINE
  5
1330E
330
13309
100
AcDbEntity
  8
0
100
AcDbLine
 10
90.17396316658398
 20
-20.00794082249836
 30
0.0
 11
91.23462333836384
 21
-19.39556838680256
 31
0.0
  0
LINE
  5
1330F
330
13309
100
AcDbEntity
  8
0
100
AcDbLine
 10
91.23462333836384
 20
-19.39556838680256
 30
0.0
 11
87.69908943243107
 21
-13.27184402984461
 31
0.0
  0
LINE
  5
13310
330
13309
100
AcDbEntity
  8
0
100
AcDbLine
 10
-30.77960825509415
 20
-8.146621048614441
 30
0.0
 11
-34.3151421610269
 21
-2.022896691656494
 31
0.0
  0
LINE
  5
13311
330
13309
100
AcDbEntity
  8
0
100
AcDbLine
 10
86.63842926065127
 20
-13.8842164655404
 30
0.0
 11
90.17396316658398
 21
-20.00794082249836
 31
0.0
  0
LINE
  5
13312
330
13309
100
AcDbEntity
  8
0
100
AcDbLine
 10
87.69908943243107
 20
-13.27184402984461
 30
0.0
 11
86.63842926065127
 21
-13.8842164655404
 31
0.0
  0
LINE
  5
13313
330
13309
100
AcDbEntity
  8
0
100
AcDbLine
 10
91.23462333836384
 20
-19.39556838680256
 30
0.0
 11
91.23462333836384
 21
-73.28434272803248
 31
0.0
  0
LINE
  5
13314
330
13309
100
AcDbEntity
  8
0
100
AcDbLine
 10
90.17396316658398
 20
-20.00794082249836
 30
0.0
 11
90.17396316658398
 21
-73.89671516372828
 31
0.0
  0
LINE
  5
13315
330
13309
100
AcDbEntity
  8
0
100
AcDbLine
 10
-5.304608212989223
 20
40.42386584136934
 30
0.0
 11
-0.7084141352766427
 21
37.77025195335423
 31
0.0
  0
LINE
  5
13316
330
13309
100
AcDbEntity
  8
0
100
AcDbLine
 10
60.10276904676647
 20
2.660898973462
 30
0.0
 11
87.69908943243107
 21
-13.27184402984461
 31
0.0
  0
LINE
  5
13317
330
13309
100
AcDbEntity
  8
0
100
AcDbLine
 10
-34.3151421610269
 20
-2.022896691656494
 30
0.0
 11
-34.3151421610269
 21
28.18747680266936
 31
0.0
  0
LINE
  5
13318
330
13309
100
AcDbEntity
  8
0
100
AcDbLine
 10
59.04210887498662
 20
2.048526537766219
 30
0.0
 11
86.63842926065127
 21
-13.8842164655404
 31
0.0
  0
LINE
  5
13319
330
13309
100
AcDbEntity
  8
0
100
AcDbLine
 10
-1.769074307056461
 20
-24.89586063284879
 30
0.0
 11
-30.77960825509415
 21
-8.146621048614441
 31
0.0
  0
LINE
  5
1331A
330
13309
100
AcDbEntity
  8
0
100
AcDbLine
 10
86.63842926065127
 20
-75.9379566160476
 30
0.0
 11
57.62789531261354
 21
-59.18871703181327
 31
0.0
  0
LINE
  5
1331B
330
13309
100
AcDbEntity
  8
0
100
AcDbLine
 10
-6.365268384769042
 20
39.81149340567355
 30
0.0
 11
-1.769074307056461
 21
37.15787951765843
 31
0.0
  0
LINE
  5
1331C
330
13309
100
AcDbEntity
  8
0
100
AcDbLine
 10
-0.7084141352766427
 20
37.77025195335423
 30
0.0
 11
-1.769074307056461
 21
37.15787951765843
 31
0.0
  0
ELLIPSE
  5
1331D
330
13309
100
AcDbEntity
  8
0
100
AcDbEllipse
 10
-1.769074307056461
 20
38.38262438905001
 30
0.0
 11
0.7500000000000004
 21
-1.299038105676658
 31
0.0
210
0.0
220
0.0
230
0.9999999999999998
 40
0.577350269189626
 41
5.497787143782137
 42
8.63937979737193
  0
ELLIPSE
  5
1331E
330
13309
100
AcDbEntity
  8
0
100
AcDbEllipse
 10
54.09236140668081
 20
97.98687479677399
 30
0.0
 11
1.250000000000129
 21
-2.165063509461022
 31
0.0
210
0.0
220
0.0
230
1.0
 40
0.577350269189626
 41
3.579741684173546
 42
4.454997905016182
  0
ELLIPSE
  5
1331F
330
13309
100
AcDbEntity
  8
0
100
AcDbEllipse
 10
54.09236140668081
 20
0.0072850854468598
 30
0.0
 11
1.25
 21
-2.165063509461097
 31
0.0
210
0.0
220
0.0
230
1.0
 40
0.5773502691896259
 41
4.999145532596207
 42
5.845036276595414
  0
ELLIPSE
  5
13320
330
13309
100
AcDbEntity
  8
0
100
AcDbEllipse
 10
53.03170123490098
 20
97.3745023610782
 30
0.0
 11
-1.25
 21
2.165063509461097
 31
0.0
210
0.0
220
0.0
230
1.0
 40
0.5773502691896259
 41
4.969780055752988
 42
7.596590558606184
  0
ELLIPSE
  5
13321
330
13309
100
AcDbEntity
  8
0
100
AcDbEllipse
 10
53.03170123490097
 20
-0.6050873502489296
 30
0.0
 11
1.25
 21
-2.165063509461096
 31
0.0
210
0.0
220
0.0
230
0.9999999999999998
 40
0.5773502691896261
 41
4.999145532596201
 42
7.567225081762964
  0
ELLIPSE
  5
13322
330
13309
100
AcDbEntity
  8
0
100
AcDbEllipse
 10
54.09236140668081
 20
-32.65257815166219
 30
0.0
 11
1.250000000000129
 21
-2.165063509461022
 31
0.0
210
0.0
220
0.0
230
1.0
 40
0.577350269189626
 41
3.579741684173548
 42
5.845036276594997
  0
ELLIPSE
  5
13323
330
13309
100
AcDbEntity
  8
0
100
AcDbEllipse
 10
53.03170123490097
 20
-33.26495058735797
 30
0.0
 11
1.25
 21
-2.165063509461096
 31
0.0
210
0.0
220
0.0
230
1.0
 40
0.5773502691896259
 41
0.0
 42
6.283185307179586
  0
ELLIPSE
  5
13324
330
13309
100
AcDbEntity
  8
0
100
AcDbEllipse
 10
47.02129359481532
 20
-12.24016362846902
 30
0.0
 11
1.250000000000129
 21
-2.165063509461022
 31
0.0
210
0.0
220
0.0
230
1.0
 40
0.577350269189626
 41
3.579741684173548
 42
5.845036276594998
  0
ELLIPSE
  5
13325
330
13309
100
AcDbEntity
  8
0
100
AcDbEllipse
 10
45.9606334230355
 20
-12.85253606416482
 30
0.0
 11
1.25
 21
-2.165063509461096
 31
0.0
210
0.0
220
0.0
230
1.0
 40
0.5773502691896259
 41
0.0
 42
6.283185307179586
  0
ELLIPSE
  5
13326
330
13309
100
AcDbEntity
  8
0
100
AcDbEllipse
 10
47.02129359481532
 20
-44.90002686557807
 30
0.0
 11
1.250000000000129
 21
-2.165063509461022
 31
0.0
210
0.0
220
0.0
230
1.0
 40
0.5773502691896261
 41
3.579741684173544
 42
5.845036276594997
  0
ELLIPSE
  5
13327
330
13309
100
AcDbEntity
  8
0
100
AcDbEllipse
 10
45.9606334230355
 20
-45.51239930127387
 30
0.0
 11
1.25
 21
-2.165063509461096
 31
0.0
210
0.0
220
0.0
230
1.0
 40
0.5773502691896259
 41
0.0
 42
6.283185307179586
  0
ELLIPSE
  5
13328
330
13309
100
AcDbEntity
  8
0
100
AcDbEllipse
 10
10.9588477543014
 20
122.8900205150696
 30
0.0
 11
1.250000000000129
 21
-2.165063509461022
 31
0.0
210
0.0
220
0.0
230
1.0
 40
0.577350269189626
 41
3.579741684173546
 42
5.845036276595001
  0
ELLIPSE
  5
13329
330
13309
100
AcDbEntity
  8
0
100
AcDbEllipse
 10
10.9588477543014
 20
90.23015727796062
 30
0.0
 11
1.250000000000129
 21
-2.165063509461022
 31
0.0
210
0.0
220
0.0
230
1.0
 40
0.577350269189626
 41
3.579741684173546
 42
5.845036276594998
  0
ELLIPSE
  5
1332A
330
13309
100
AcDbEntity
  8
0
100
AcDbEllipse
 10
10.9588477543014
 20
57.57029404085155
 30
0.0
 11
1.250000000000129
 21
-2.165063509461022
 31
0.0
210
0.0
220
0.0
230
1.0
 40
0.577350269189626
 41
3.579741684173546
 42
5.845036276594998
  0
ELLIPSE
  5
1332B
330
13309
100
AcDbEntity
  8
0
100
AcDbEllipse
 10
10.9588477543014
 20
24.91043080374251
 30
0.0
 11
1.250000000000129
 21
-2.165063509461022
 31
0.0
210
0.0
220
0.0
230
1.0
 40
0.577350269189626
 41
3.579741684173546
 42
5.845036276594995
  0
ELLIPSE
  5
1332C
330
13309
100
AcDbEntity
  8
0
100
AcDbEllipse
 10
9.898187582521579
 20
122.2776480793738
 30
0.0
 11
1.25
 21
-2.165063509461096
 31
0.0
210
0.0
220
0.0
230
1.0
 40
0.5773502691896259
 41
0.0
 42
6.283185307179586
  0
ELLIPSE
  5
1332D
330
13309
100
AcDbEntity
  8
0
100
AcDbEllipse
 10
9.898187582521579
 20
89.6177848422648
 30
0.0
 11
1.25
 21
-2.165063509461096
 31
0.0
210
0.0
220
0.0
230
1.0
 40
0.5773502691896259
 41
0.0
 42
6.283185307179586
  0
ELLIPSE
  5
1332E
330
13309
100
AcDbEntity
  8
0
100
AcDbEllipse
 10
9.898187582521577
 20
56.95792160515575
 30
0.0
 11
1.25
 21
-2.165063509461096
 31
0.0
210
0.0
220
0.0
230
1.0
 40
0.5773502691896259
 41
0.0
 42
6.283185307179586
  0
ELLIPSE
  5
1332F
330
13309
100
AcDbEntity
  8
0
100
AcDbEllipse
 10
9.898187582521577
 20
24.29805836804672
 30
0.0
 11
1.25
 21
-2.165063509461096
 31
0.0
210
0.0
220
0.0
230
1.0
 40
0.5773502691896259
 41
0.0
 42
6.283185307179586
  0
ELLIPSE
  5
13330
330
13309
100
AcDbEntity
  8
0
100
AcDbEllipse
 10
10.9588477543014
 20
-7.749432433366534
 30
0.0
 11
1.250000000000129
 21
-2.165063509461022
 31
0.0
210
0.0
220
0.0
230
1.0
 40
0.577350269189626
 41
3.579741684173546
 42
5.845036276594995
  0
ELLIPSE
  5
13331
330
13309
100
AcDbEntity
  8
0
100
AcDbEllipse
 10
9.898187582521575
 20
-8.361804869062329
 30
0.0
 11
1.25
 21
-2.165063509461096
 31
0.0
210
0.0
220
0.0
230
1.0
 40
0.5773502691896259
 41
0.0
 42
6.283185307179586
  0
ELLIPSE
  5
13332
330
13309
100
AcDbEntity
  8
0
100
AcDbEllipse
 10
3.887779942435924
 20
110.6425718011537
 30
0.0
 11
1.250000000000129
 21
-2.165063509461022
 31
0.0
210
0.0
220
0.0
230
1.0
 40
0.577350269189626
 41
3.579741684173546
 42
5.845036276595003
  0
ELLIPSE
  5
13333
330
13309
100
AcDbEntity
  8
0
100
AcDbEllipse
 10
3.887779942435924
 20
77.98270856404471
 30
0.0
 11
1.250000000000129
 21
-2.165063509461022
 31
0.0
210
0.0
220
0.0
230
1.0
 40
0.577350269189626
 41
3.579741684173546
 42
5.845036276595
  0
ELLIPSE
  5
13334
330
13309
100
AcDbEntity
  8
0
100
AcDbEllipse
 10
3.887779942435924
 20
45.32284532693566
 30
0.0
 11
1.250000000000129
 21
-2.165063509461022
 31
0.0
210
0.0
220
0.0
230
1.0
 40
0.577350269189626
 41
3.579741684173546
 42
5.845036276595
  0
ELLIPSE
  5
13335
330
13309
100
AcDbEntity
  8
0
100
AcDbEllipse
 10
3.88777994243592
 20
12.66298208982662
 30
0.0
 11
1.250000000000129
 21
-2.165063509461022
 31
0.0
210
0.0
220
0.0
230
1.0
 40
0.577350269189626
 41
3.579741684173544
 42
5.845036276594997
  0
ELLIPSE
  5
13336
330
13309
100
AcDbEntity
  8
0
100
AcDbEllipse
 10
2.827119770656101
 20
110.0301993654579
 30
0.0
 11
1.25
 21
-2.165063509461096
 31
0.0
210
0.0
220
0.0
230
1.0
 40
0.5773502691896259
 41
0.0
 42
6.283185307179586
  0
ELLIPSE
  5
13337
330
13309
100
AcDbEntity
  8
0
100
AcDbEllipse
 10
2.827119770656101
 20
77.37033612834891
 30
0.0
 11
1.25
 21
-2.165063509461096
 31
0.0
210
0.0
220
0.0
230
1.0
 40
0.5773502691896259
 41
0.0
 42
6.283185307179586
  0
ELLIPSE
  5
13338
330
13309
100
AcDbEntity
  8
0
100
AcDbEllipse
 10
2.827119770656101
 20
44.71047289123987
 30
0.0
 11
1.25
 21
-2.165063509461096
 31
0.0
210
0.0
220
0.0
230
1.0
 40
0.5773502691896259
 41
0.0
 42
6.283185307179586
  0
ELLIPSE
  5
13339
330
13309
100
AcDbEntity
  8
0
100
AcDbEllipse
 10
2.827119770656096
 20
12.05060965413082
 30
0.0
 11
1.25
 21
-2.165063509461096
 31
0.0
210
0.0
220
0.0
230
1.0
 40
0.5773502691896259
 41
0.0
 42
6.283185307179586
  0
ELLIPSE
  5
1333A
330
13309
100
AcDbEntity
  8
0
100
AcDbEllipse
 10
3.88777994243592
 20
-19.99688114728243
 30
0.0
 11
1.250000000000129
 21
-2.165063509461022
 31
0.0
210
0.0
220
0.0
230
1.0
 40
0.5773502691896261
 41
3.579741684173544
 42
5.845036276594997
  0
ELLIPSE
  5
1333B
330
13309
100
AcDbEntity
  8
0
100
AcDbEllipse
 10
2.827119770656096
 20
-20.60925358297822
 30
0.0
 11
1.25
 21
-2.165063509461096
 31
0.0
210
0.0
220
0.0
230
1.0
 40
0.5773502691896259
 41
0.0
 42
6.283185307179586
  0
ELLIPSE
  5
1333C
330
13309
100
AcDbEntity
  8
0
100
AcDbEllipse
 10
-12.39483194424392
 20
38.39368406426594
 30
0.0
 11
1.25
 21
-2.165063509461097
 31
0.0
210
0.0
220
0.0
230
1.0
 40
0.577350269189626
 41
5.508682942395983
 42
5.845036276595415
  0
ELLIPSE
  5
1333D
330
13309
100
AcDbEntity
  8
0
100
AcDbEllipse
 10
66.13233260624136
 20
-6.943995527654758
 30
0.0
 11
1.250000000000129
 21
-2.165063509461022
 31
0.0
210
0.0
220
0.0
230
1.0
 40
0.5773502691896259
 41
3.579741684173546
 42
5.845036276594998
  0
ELLIPSE
  5
1333E
330
13309
100
AcDbEntity
  8
0
100
AcDbEllipse
 10
-13.45549211602374
 20
37.78131162857015
 30
0.0
 11
1.25
 21
-2.165063509461097
 31
0.0
210
0.0
220
0.0
230
1.0
 40
0.5773502691896259
 41
5.508682942395984
 42
7.057687671963188
  0
ELLIPSE
  5
1333F
330
13309
100
AcDbEntity
  8
0
100
AcDbEllipse
 10
65.07167243446153
 20
-7.556367963350552
 30
0.0
 11
1.25
 21
-2.165063509461096
 31
0.0
210
0.0
220
0.0
230
1.0
 40
0.5773502691896259
 41
0.0
 42
6.283185307179586
  0
ELLIPSE
  5
13340
330
13309
100
AcDbEntity
  8
0
100
AcDbEllipse
 10
-8.15219125712462
 20
3.284331084373715
 30
0.0
 11
1.250000000000129
 21
-2.165063509461022
 31
0.0
210
0.0
220
0.0
230
1.0
 40
0.577350269189626
 41
3.579741684173546
 42
5.845036276594997
  0
ELLIPSE
  5
13341
330
13309
100
AcDbEntity
  8
0
100
AcDbEllipse
 10
70.37497329336066
 20
-42.05334850754697
 30
0.0
 11
1.250000000000129
 21
-2.165063509461022
 31
0.0
210
0.0
220
0.0
230
1.0
 40
0.577350269189626
 41
3.579741684173544
 42
5.845036276594997
  0
ELLIPSE
  5
13342
330
13309
100
AcDbEntity
  8
0
100
AcDbEllipse
 10
-9.212851428904444
 20
2.671958648677925
 30
0.0
 11
1.25
 21
-2.165063509461096
 31
0.0
210
0.0
220
0.0
230
1.0
 40
0.5773502691896259
 41
0.0
 42
6.283185307179586
  0
ELLIPSE
  5
13343
330
13309
100
AcDbEntity
  8
0
100
AcDbEllipse
 10
69.31431312158084
 20
-42.66572094324277
 30
0.0
 11
1.25
 21
-2.165063509461096
 31
0.0
210
0.0
220
0.0
230
1.0
 40
0.5773502691896259
 41
0.0
 42
6.283185307179586
  0
ELLIPSE
  5
13344
330
13309
100
AcDbEntity
  8
0
100
AcDbEllipse
 10
48.7890605477817
 20
-54.08561340101496
 30
0.0
 11
1.250000000000129
 21
-2.165063509461022
 31
0.0
210
0.0
220
0.0
230
1.0
 40
0.5773502691896261
 41
3.579741684173544
 42
3.835017178248603
  0
ELLIPSE
  5
13345
330
13309
100
AcDbEntity
  8
0
100
AcDbEllipse
 10
9.191080801335033
 20
-31.22370913503865
 30
0.0
 11
1.25000000000013
 21
-2.165063509461021
 31
0.0
210
0.0
220
0.0
230
1.0
 40
0.5773502691896259
 41
3.579741684173544
 42
3.835017178248603
  0
SPLINE
  5
13346
330
13309
100
AcDbEntity
  8
0
100
AcDbSpline
210
0.0
220
0.0
230
1.0
 70
     8
 71
     3
 72
     8
 73
     4
 74
     0
 42
0.000000001
 43
0.0000000001
 40
0.0
 40
0.0
 40
0.0
 40
0.0
 40
1.0
 40
1.0
 40
1.0
 40
1.0
 10
47.02876522872107
 20
-52.88183059623982
 30
0.0
 10
47.00991282682671
 20
-53.3217314508904
 30
0.0
 10
46.86025662736098
 20
-53.8798970634858
 30
0.0
 10
46.64414710626033
 20
-54.37441403965014
 30
0.0
  0
ELLIPSE
  5
13347
330
13309
100
AcDbEntity
  8
0
100
AcDbEllipse
 10
8.323124171461504
 20
-31.51775579136292
 30
0.0
 11
-1.249999999999998
 21
-2.165063509461096
 31
0.0
210
0.0
220
0.0
230
1.0
 40
0.816496580927726
 41
4.968762307403139
 42
7.597608306956034
  0
ELLIPSE
  5
13348
330
13309
100
AcDbEntity
  8
0
100
AcDbEllipse
 10
47.92110391790817
 20
-54.37966005733923
 30
0.0
 11
-1.249999999999998
 21
-2.165063509461098
 31
0.0
210
0.0
220
0.0
230
1.0
 40
0.816496580927726
 41
4.968762307403135
 42
7.597608306956034
  0
SPLINE
  5
13349
330
13309
100
AcDbEntity
  8
0
100
AcDbSpline
210
0.0
220
0.0
230
1.0
 70
     8
 71
     3
 72
     8
 73
     4
 74
     0
 42
0.000000001
 43
0.0000000001
 40
-1.0
 40
-1.0
 40
-1.0
 40
-1.0
 40
0.0
 40
0.0
 40
0.0
 40
0.0
 10
45.89414710626033
 20
-53.94140133775791
 30
0.0
 10
45.91871411860695
 20
-53.77864571856477
 30
0.0
 10
45.94925265504688
 20
-53.61211439090107
 30
0.0
 10
45.96810505694125
 20
-53.49420303193561
 30
0.0
  0
SPLINE
  5
1334A
330
13309
100
AcDbEntity
  8
0
100
AcDbSpline
210
0.0
220
0.0
230
1.0
 70
     8
 71
     3
 72
     8
 73
     4
 74
     0
 42
0.000000001
 43
0.0000000001
 40
-1.0
 40
-1.0
 40
-1.0
 40
-1.0
 40
0.0
 40
0.0
 40
0.0
 40
0.0
 10
9.890715948615838
 20
-32.66491271858507
 30
0.0
 10
9.909568350510348
 20
-32.80459295616778
 30
0.0
 10
9.844812756529446
 20
-32.95136905644926
 30
0.0
 10
9.716145761872901
 20
-33.05402252283319
 30
0.0
  0
ELLIPSE
  5
1334B
330
13309
100
AcDbEntity
  8
0
100
AcDbEllipse
 10
9.073124171461495
 20
-31.95076849325513
 30
0.0
 11
-1.249999999999999
 21
-2.165063509461097
 31
0.0
210
0.0
220
0.0
230
1.0
 40
0.816496580927726
 41
4.968762307403139
 42
6.069429174707153
  0
LINE
  5
1334C
330
13309
100
AcDbEntity
  8
0
100
AcDbLine
 10
7.046167359813662
 20
-31.5125097736738
 30
0.0
 11
6.545917359913344
 21
-31.22369030156924
 31
0.0
  0
LINE
  5
1334D
330
13309
100
AcDbEntity
  8
0
100
AcDbLine
 10
6.545917359913344
 20
-31.22369030156924
 30
0.0
 11
6.29616735981366
 21
-31.07949707178158
 31
0.0
  0
LINE
  5
1334E
330
13309
100
AcDbEntity
  8
0
100
AcDbLine
 10
6.370125310494572
 20
-30.63229876595928
 30
0.0
 11
6.723325148066061
 21
-30.42837874465965
 31
0.0
  0
SPLINE
  5
1334F
330
13309
100
AcDbEntity
  8
0
100
AcDbSpline
210
0.0
220
0.0
230
1.0
 70
     8
 71
     3
 72
     8
 73
     4
 74
     0
 42
0.000000001
 43
0.0000000001
 40
-1.0
 40
-1.0
 40
-1.0
 40
-1.0
 40
0.0
 40
0.0
 40
0.0
 40
0.0
 10
6.296167359813651
 20
-31.07949707178157
 30
0.0
 10
6.320734372160554
 20
-30.9167414525886
 30
0.0
 10
6.351272908600775
 20
-30.75021012492507
 30
0.0
 10
6.37012531049458
 20
-30.63229876595928
 30
0.0
  0
SPLINE
  5
13350
330
13309
100
AcDbEntity
  8
0
100
AcDbSpline
210
0.0
220
0.0
230
1.0
 70
     8
 71
     3
 72
     8
 73
     4
 74
     0
 42
0.000000001
 43
0.0000000001
 40
0.0
 40
0.0
 40
0.0
 40
0.0
 40
1.0
 40
1.0
 40
1.0
 40
1.0
 10
7.4307854822744
 20
-30.01992633026349
 30
0.0
 10
7.411933080380594
 20
-30.45982718491437
 30
0.0
 10
7.262276880914599
 20
-31.01799279750961
 30
0.0
 10
7.046167359813653
 20
-31.5125097736738
 30
0.0
  0
LINE
  5
13351
330
13309
100
AcDbEntity
  8
0
100
AcDbLine
 10
6.723325148066061
 20
-30.42837874465965
 30
0.0
 11
7.430785482274395
 21
-30.01992633026349
 31
0.0
  0
ELLIPSE
  5
13352
330
13309
100
AcDbEntity
  8
0
100
AcDbEllipse
 10
8.13042062955521
 20
-31.83608157073444
 30
0.0
 11
-1.25
 21
2.165063509461096
 31
0.0
210
0.0
220
0.0
230
1.0
 40
0.5773502691896259
 41
4.018964455725525
 42
6.976609831838752
  0
ELLIPSE
  5
13353
330
13309
100
AcDbEntity
  8
0
100
AcDbEllipse
 10
48.67110391790816
 20
-54.81267275923144
 30
0.0
 11
-1.249999999999998
 21
-2.165063509461097
 31
0.0
210
0.0
220
0.0
230
0.9999999999999998
 40
0.816496580927726
 41
4.968762307403135
 42
6.069429174707154
  0
LINE
  5
13354
330
13309
100
AcDbEntity
  8
0
100
AcDbLine
 10
46.64414710626032
 20
-54.37441403965011
 30
0.0
 11
46.14389710636301
 21
-54.0855945675473
 31
0.0
  0
LINE
  5
13355
330
13309
100
AcDbEntity
  8
0
100
AcDbLine
 10
46.14389710636301
 20
-54.0855945675473
 30
0.0
 11
45.89414710626031
 21
-53.94140133775789
 31
0.0
  0
LINE
  5
13356
330
13309
100
AcDbEntity
  8
0
100
AcDbLine
 10
45.96810505694124
 20
-53.49420303193561
 30
0.0
 11
46.32130489453576
 21
-53.29028301062267
 31
0.0
  0
LINE
  5
13357
330
13309
100
AcDbEntity
  8
0
100
AcDbLine
 10
46.32130489453576
 20
-53.29028301062267
 30
0.0
 11
47.02876522872106
 21
-52.88183059623982
 31
0.0
  0
SPLINE
  5
13358
330
13309
100
AcDbEntity
  8
0
100
AcDbSpline
210
0.0
220
0.0
230
1.0
 70
     8
 71
     3
 72
     8
 73
     4
 74
     0
 42
0.000000001
 43
0.0000000001
 40
-1.0
 40
-1.0
 40
-1.0
 40
-1.0
 40
0.0
 40
0.0
 40
0.0
 40
0.0
 10
49.4886956950625
 20
-55.52681698456139
 30
0.0
 10
49.50754809695723
 20
-55.66649722214423
 30
0.0
 10
49.44279250297526
 20
-55.81327332242508
 30
0.0
 10
49.31412550831959
 20
-55.91592678880953
 30
0.0
  0
ELLIPSE
  5
13359
330
13309
100
AcDbEntity
  8
0
100
AcDbEllipse
 10
47.72840037600189
 20
-54.69798583671077
 30
0.0
 11
-1.25
 21
2.165063509461097
 31
0.0
210
0.0
220
0.0
230
1.0
 40
0.577350269189626
 41
4.018964455725525
 42
6.97660983183875
  0
ELLIPSE
  5
1335A
330
13309
100
AcDbEntity
  8
0
100
AcDbEllipse
 10
34.29337153345747
 20
-45.71652344650579
 30
0.0
 11
1.250000000000129
 21
-2.165063509461021
 31
0.0
210
0.0
220
0.0
230
1.0
 40
0.5773502691896261
 41
3.579741684173542
 42
3.835017178248603
  0
ELLIPSE
  5
1335B
330
13309
100
AcDbEntity
  8
0
100
AcDbEllipse
 10
20.15123590972649
 20
-37.55155763722851
 30
0.0
 11
1.250000000000129
 21
-2.165063509461022
 31
0.0
210
0.0
220
0.0
230
1.0
 40
0.577350269189626
 41
3.579741684173548
 42
3.835017178248603
  0
ELLIPSE
  5
1335C
330
13309
100
AcDbEntity
  8
0
100
AcDbEllipse
 10
20.03327927985296
 20
-38.27861699544499
 30
0.0
 11
-1.25
 21
-2.165063509461097
 31
0.0
210
0.0
220
0.0
230
1.0
 40
0.816496580927726
 41
4.968762307403139
 42
6.283185307179587
  0
LINE
  5
1335D
330
13309
100
AcDbEntity
  8
0
100
AcDbLine
 10
18.00632246820511
 20
-37.84035827586366
 30
0.0
 11
17.50607246830626
 21
-37.55153880375994
 31
0.0
  0
LINE
  5
1335E
330
13309
100
AcDbEntity
  8
0
100
AcDbLine
 10
17.50607246830626
 20
-37.55153880375994
 30
0.0
 11
17.25632246820511
 21
-37.40734557397144
 31
0.0
  0
ELLIPSE
  5
1335F
330
13309
100
AcDbEntity
  8
0
100
AcDbEllipse
 10
19.28327927985297
 20
-37.84560429355277
 30
0.0
 11
-1.249999999999999
 21
-2.165063509461098
 31
0.0
210
0.0
220
0.0
230
1.0
 40
0.8164965809277259
 41
4.968762307403137
 42
6.283185307179586
  0
LINE
  5
13360
330
13309
100
AcDbEntity
  8
0
100
AcDbLine
 10
21.5688131857857
 20
-42.05190925533326
 30
0.0
 11
18.03327927985293
 21
-40.01066780301393
 31
0.0
  0
ELLIPSE
  5
13361
330
13309
100
AcDbEntity
  8
0
100
AcDbEllipse
 10
22.81881318578573
 20
-39.8868457458721
 30
0.0
 11
-1.249999999999999
 21
-2.165063509461097
 31
0.0
210
0.0
220
0.0
230
1.0
 40
0.816496580927726
 41
0.0
 42
1.314422999776446
  0
LINE
  5
13362
330
13309
100
AcDbEntity
  8
0
100
AcDbLine
 10
17.33028041888603
 20
-36.96014726814914
 30
0.0
 11
17.68348025646632
 21
-36.75622724684443
 31
0.0
  0
SPLINE
  5
13363
330
13309
100
AcDbEntity
  8
0
100
AcDbSpline
210
0.0
220
0.0
230
1.0
 70
     8
 71
     3
 72
     8
 73
     4
 74
     0
 42
0.000000001
 43
0.0000000001
 40
-1.0
 40
-1.0
 40
-1.0
 40
-1.0
 40
0.0
 40
0.0
 40
0.0
 40
0.0
 10
17.25632246820511
 20
-37.40734557397144
 30
0.0
 10
17.28088948055188
 20
-37.24458995477838
 30
0.0
 10
17.31142801699201
 20
-37.07805862711478
 30
0.0
 10
17.33028041888603
 20
-36.96014726814914
 30
0.0
  0
SPLINE
  5
13364
330
13309
100
AcDbEntity
  8
0
100
AcDbSpline
210
0.0
220
0.0
230
1.0
 70
     8
 71
     3
 72
     8
 73
     4
 74
     0
 42
0.000000001
 43
0.0000000001
 40
0.0
 40
0.0
 40
0.0
 40
0.0
 40
1.0
 40
1.0
 40
1.0
 40
1.0
 10
18.39094059066585
 20
-36.34777483245335
 30
0.0
 10
18.37208818877184
 20
-36.78767568710404
 30
0.0
 10
18.22243198930593
 20
-37.34584129969937
 30
0.0
 10
18.00632246820511
 20
-37.84035827586366
 30
0.0
  0
LINE
  5
13365
330
13309
100
AcDbEntity
  8
0
100
AcDbLine
 10
17.68348025646632
 20
-36.75622724684443
 30
0.0
 11
18.39094059066585
 21
-36.34777483245335
 31
0.0
  0
SPLINE
  5
13366
330
13309
100
AcDbEntity
  8
0
100
AcDbSpline
210
0.0
220
0.0
230
1.0
 70
     8
 71
     3
 72
     8
 73
     4
 74
     0
 42
0.000000001
 43
0.0000000001
 40
-1.0
 40
-1.0
 40
-1.0
 40
-1.0
 40
0.0
 40
0.0
 40
0.0
 40
0.0
 10
24.38640496294008
 20
-41.03400267309426
 30
0.0
 10
24.40525736483423
 20
-41.17368291067677
 30
0.0
 10
24.34050177085347
 20
-41.32045901095843
 30
0.0
 10
24.21183477619714
 20
-41.42311247734238
 30
0.0
  0
ELLIPSE
  5
13367
330
13309
100
AcDbEntity
  8
0
100
AcDbEllipse
 10
22.62610964387944
 20
-40.20517152524363
 30
0.0
 11
1.24999999999987
 21
-2.165063509461171
 31
0.0
210
0.0
220
0.0
230
1.0
 40
0.577350269189626
 41
0.8773718021359453
 42
2.356194490192585
  0
LINE
  5
13368
330
13309
100
AcDbEntity
  8
0
100
AcDbLine
 10
19.09057573794667
 20
-36.12268862060505
 30
0.0
 11
22.62610964387944
 21
-38.16393007292437
 31
0.0
  0
ELLIPSE
  5
13369
330
13309
100
AcDbEntity
  8
0
100
AcDbEllipse
 10
19.09057573794667
 20
-38.1639300729243
 30
0.0
 11
-1.25
 21
2.165063509461096
 31
0.0
210
0.0
220
0.0
230
0.9999999999999998
 40
0.5773502691896261
 41
5.497787143782137
 42
6.976609831838752
  0
ELLIPSE
  5
1336A
330
13309
100
AcDbEntity
  8
0
100
AcDbEllipse
 10
34.17541490358394
 20
-46.44358280472226
 30
0.0
 11
-1.249999999999998
 21
-2.165063509461098
 31
0.0
210
0.0
220
0.0
230
0.9999999999999998
 40
0.8164965809277259
 41
4.968762307403136
 42
6.283185307179582
  0
LINE
  5
1336B
330
13309
100
AcDbEntity
  8
0
100
AcDbLine
 10
32.14845809193609
 20
-46.00532408514093
 30
0.0
 11
31.64820809203654
 21
-45.71650461303682
 31
0.0
  0
LINE
  5
1336C
330
13309
100
AcDbEntity
  8
0
100
AcDbLine
 10
31.64820809203654
 20
-45.71650461303682
 30
0.0
 11
31.39845809193609
 21
-45.57231138324872
 31
0.0
  0
ELLIPSE
  5
1336D
330
13309
100
AcDbEntity
  8
0
100
AcDbEllipse
 10
33.42541490358394
 20
-46.01057010283004
 30
0.0
 11
-1.249999999999999
 21
-2.165063509461097
 31
0.0
210
0.0
220
0.0
230
1.0
 40
0.8164965809277259
 41
4.968762307403137
 42
6.283185307179585
  0
LINE
  5
1336E
330
13309
100
AcDbEntity
  8
0
100
AcDbLine
 10
35.71094880951668
 20
-50.21687506461053
 30
0.0
 11
32.17541490358391
 21
-48.17563361229121
 31
0.0
  0
ELLIPSE
  5
1336F
330
13309
100
AcDbEntity
  8
0
100
AcDbEllipse
 10
36.96094880951671
 20
-48.05181155514937
 30
0.0
 11
-1.249999999999998
 21
-2.165063509461098
 31
0.0
210
0.0
220
0.0
230
0.9999999999999998
 40
0.816496580927726
 41
0.0
 42
1.314422999776447
  0
LINE
  5
13370
330
13309
100
AcDbEntity
  8
0
100
AcDbLine
 10
31.47241604261701
 20
-45.12511307742641
 30
0.0
 11
31.82561588020579
 21
-44.9211930561168
 31
0.0
  0
SPLINE
  5
13371
330
13309
100
AcDbEntity
  8
0
100
AcDbSpline
210
0.0
220
0.0
230
1.0
 70
     8
 71
     3
 72
     8
 73
     4
 74
     0
 42
0.000000001
 43
0.0000000001
 40
-1.0
 40
-1.0
 40
-1.0
 40
-1.0
 40
0.0
 40
0.0
 40
0.0
 40
0.0
 10
31.39845809193609
 20
-45.57231138324872
 30
0.0
 10
31.42302510428292
 20
-45.40955576405572
 30
0.0
 10
31.45356364072279
 20
-45.24302443639196
 30
0.0
 10
31.47241604261702
 20
-45.12511307742641
 30
0.0
  0
SPLINE
  5
13372
330
13309
100
AcDbEntity
  8
0
100
AcDbSpline
210
0.0
220
0.0
230
1.0
 70
     8
 71
     3
 72
     8
 73
     4
 74
     0
 42
0.000000001
 43
0.0000000001
 40
0.0
 40
0.0
 40
0.0
 40
0.0
 40
1.0
 40
1.0
 40
1.0
 40
1.0
 10
32.53307621439684
 20
-44.51274064173062
 30
0.0
 10
32.51422381250261
 20
-44.95264149638126
 30
0.0
 10
32.36456761303692
 20
-45.5108071089768
 30
0.0
 10
32.14845809193609
 20
-46.00532408514093
 30
0.0
  0
LINE
  5
13373
330
13309
100
AcDbEntity
  8
0
100
AcDbLine
 10
31.82561588020579
 20
-44.9211930561168
 30
0.0
 11
32.53307621439684
 21
-44.51274064173062
 31
0.0
  0
SPLINE
  5
13374
330
13309
100
AcDbEntity
  8
0
100
AcDbSpline
210
0.0
220
0.0
230
1.0
 70
     8
 71
     3
 72
     8
 73
     4
 74
     0
 42
0.000000001
 43
0.0000000001
 40
-1.0
 40
-1.0
 40
-1.0
 40
-1.0
 40
0.0
 40
0.0
 40
0.0
 40
0.0
 10
38.52854058667105
 20
-49.19896848237154
 30
0.0
 10
38.54739298856501
 20
-49.33864871995389
 30
0.0
 10
38.48263739458471
 20
-49.4854248202358
 30
0.0
 10
38.35397039992812
 20
-49.58807828661966
 30
0.0
  0
ELLIPSE
  5
13375
330
13309
100
AcDbEntity
  8
0
100
AcDbEllipse
 10
36.76824526761042
 20
-48.3701373345209
 30
0.0
 11
1.24999999999987
 21
-2.165063509461171
 31
0.0
210
0.0
220
0.0
230
1.0
 40
0.577350269189626
 41
0.8773718021359453
 42
2.356194490192585
  0
LINE
  5
13376
330
13309
100
AcDbEntity
  8
0
100
AcDbLine
 10
33.23271136167765
 20
-44.28765442988232
 30
0.0
 11
36.76824526761042
 21
-46.32889588220165
 31
0.0
  0
ELLIPSE
  5
13377
330
13309
100
AcDbEntity
  8
0
100
AcDbEllipse
 10
33.23271136167765
 20
-46.32889588220158
 30
0.0
 11
-1.25
 21
2.165063509461096
 31
0.0
210
0.0
220
0.0
230
1.0
 40
0.577350269189626
 41
5.497787143782135
 42
6.976609831838749
  0
LINE
  5
13378
330
13309
100
AcDbEntity
  8
0
100
AcDbLine
 10
60.73916514983437
 20
103.0491535985259
 30
0.0
 11
-2.759023800717619
 21
139.7098500821808
 31
0.0
  0
LINE
  5
13379
330
13309
100
AcDbEntity
  8
0
100
AcDbLine
 10
31.46494440871107
 20
-9.790673885685663
 30
0.0
 11
31.46494440871107
 21
80.35054864873528
 31
0.0
  0
LINE
  5
1337A
330
13309
100
AcDbEntity
  8
0
100
AcDbLine
 10
30.40428423693125
 20
80.96292108443108
 30
0.0
 11
30.40428423693125
 21
-9.178301449989874
 31
0.0
  0
LINE
  5
1337B
330
13309
100
AcDbEntity
  8
0
100
AcDbLine
 10
60.73916514983437
 20
3.028322434879484
 30
0.0
 11
35.00047831464384
 21
-11.83191533800499
 31
0.0
  0
LINE
  5
1337C
330
13309
100
AcDbEntity
  8
0
100
AcDbLine
 10
35.00047831464385
 20
86.47427300569322
 30
0.0
 11
60.73916514983439
 21
101.3345107785777
 31
0.0
  0
LINE
  5
1337D
330
13309
100
AcDbEntity
  8
0
100
AcDbLine
 10
-35.00309302282418
 20
118.7258879523382
 30
0.0
 11
-35.00309302282419
 21
28.5846654179173
 31
0.0
  0
LINE
  5
1337E
330
13309
100
AcDbEntity
  8
0
100
AcDbLine
 10
-5.728872281701118
 20
139.7098500821808
 30
0.0
 11
-31.46755911689144
 21
124.8496123092962
 31
0.0
  0
LINE
  5
1337F
330
13309
100
AcDbEntity
  8
0
100
AcDbLine
 10
-33.94243285104437
 20
118.1135155166424
 30
0.0
 11
-33.94243285104437
 21
27.97229298222151
 31
0.0
  0
LINE
  5
13380
330
13309
100
AcDbEntity
  8
0
100
AcDbLine
 10
60.73916514983439
 20
101.3345107785777
 30
0.0
 11
59.67850497805457
 21
101.9468832142735
 31
0.0
  0
LINE
  5
13381
330
13309
100
AcDbEntity
  8
0
100
AcDbLine
 10
59.67850497805457
 20
101.9468832142735
 30
0.0
 11
33.93981814286401
 21
87.08664544138899
 31
0.0
  0
LINE
  5
13382
330
13309
100
AcDbEntity
  8
0
100
AcDbLine
 10
-3.819683972497442
 20
40.79128930278681
 30
0.0
 11
-1.769074307056457
 21
39.60736926044162
 31
0.0
  0
LINE
  5
13383
330
13309
100
AcDbEntity
  8
0
100
AcDbLine
 10
60.73916514983437
 20
103.0491535985259
 30
0.0
 11
59.67850497805456
 21
102.4367811628301
 31
0.0
  0
LINE
  5
13384
330
13309
100
AcDbEntity
  8
0
100
AcDbLine
 10
-2.759023800717619
 20
139.7098500821808
 30
0.0
 11
-3.819683972497442
 21
139.097477646485
 31
0.0
  0
LINE
  5
13385
330
13309
100
AcDbEntity
  8
0
100
AcDbLine
 10
-5.728872281701118
 20
139.7098500821808
 30
0.0
 11
-4.668212109921294
 21
139.097477646485
 31
0.0
  0
LINE
  5
13386
330
13309
100
AcDbEntity
  8
0
100
AcDbLine
 10
-3.819683972497442
 20
139.097477646485
 30
0.0
 11
59.67850497805456
 21
102.4367811628301
 31
0.0
  0
LINE
  5
13387
330
13309
100
AcDbEntity
  8
0
100
AcDbLine
 10
-30.40689894511162
 20
25.9310515299022
 30
0.0
 11
-4.668212109921294
 21
40.79128930278681
 31
0.0
  0
LINE
  5
13388
330
13309
100
AcDbEntity
  8
0
100
AcDbLine
 10
-30.40689894511162
 20
124.2372398736004
 30
0.0
 11
-4.668212109921294
 21
139.097477646485
 31
0.0
  0
LINE
  5
13389
330
13309
100
AcDbEntity
  8
0
100
AcDbLine
 10
35.00047831464384
 20
-11.83191533800499
 30
0.0
 11
31.46494440871107
 21
-9.790673885685663
 31
0.0
  0
LINE
  5
1338A
330
13309
100
AcDbEntity
  8
0
100
AcDbLine
 10
31.46494440871107
 20
-9.790673885685663
 30
0.0
 11
30.40428423693125
 21
-9.178301449989865
 31
0.0
  0
LINE
  5
1338B
330
13309
100
AcDbEntity
  8
0
100
AcDbLine
 10
30.40428423693125
 20
80.96292108443108
 30
0.0
 11
31.46494440871107
 21
80.35054864873528
 31
0.0
  0
LINE
  5
1338C
330
13309
100
AcDbEntity
  8
0
100
AcDbLine
 10
31.46494440871107
 20
80.35054864873528
 30
0.0
 11
35.00047831464385
 21
86.47427300569322
 31
0.0
  0
LINE
  5
1338D
330
13309
100
AcDbEntity
  8
0
100
AcDbLine
 10
-30.40689894511162
 20
25.9310515299022
 30
0.0
 11
-33.94243285104437
 21
27.97229298222151
 31
0.0
  0
LINE
  5
1338E
330
13309
100
AcDbEntity
  8
0
100
AcDbLine
 10
-33.94243285104437
 20
27.97229298222151
 30
0.0
 11
-35.00309302282419
 21
28.58466541791731
 31
0.0
  0
LINE
  5
1338F
330
13309
100
AcDbEntity
  8
0
100
AcDbLine
 10
-31.46755911689144
 20
124.8496123092962
 30
0.0
 11
-35.00309302282418
 21
118.7258879523382
 31
0.0
  0
LINE
  5
13390
330
13309
100
AcDbEntity
  8
0
100
AcDbLine
 10
-35.00309302282418
 20
118.7258879523382
 30
0.0
 11
-33.94243285104437
 21
118.1135155166424
 31
0.0
  0
LINE
  5
13391
330
13309
100
AcDbEntity
  8
0
100
AcDbLine
 10
35.00047831464385
 20
86.47427300569322
 30
0.0
 11
33.93981814286401
 21
87.08664544138899
 31
0.0
  0
LINE
  5
13392
330
13309
100
AcDbEntity
  8
0
100
AcDbLine
 10
33.93981814286401
 20
87.08664544138899
 30
0.0
 11
30.40428423693125
 21
80.96292108443108
 31
0.0
  0
LINE
  5
13393
330
13309
100
AcDbEntity
  8
0
100
AcDbLine
 10
-33.94243285104437
 20
118.1135155166424
 30
0.0
 11
-30.40689894511162
 21
124.2372398736004
 31
0.0
  0
LINE
  5
13394
330
13309
100
AcDbEntity
  8
0
100
AcDbLine
 10
-30.40689894511162
 20
124.2372398736004
 30
0.0
 11
-31.46755911689144
 21
124.8496123092962
 31
0.0
  0
LINE
  5
13395
330
13309
100
AcDbEntity
  8
0
100
AcDbLine
 10
4.239165149989827
 20
-118.3419475320668
 30
0.0
 11
4.239165149989863
 21
-112.5684448401705
 31
0.0
  0
LINE
  5
13396
330
13309
100
AcDbEntity
  8
0
100
AcDbLine
 10
4.239165149989863
 20
-112.5684448401705
 30
0.0
 11
3.178504978210039
 21
-111.9560724044747
 31
0.0
  0
LINE
  5
13397
330
13309
100
AcDbEntity
  8
0
100
AcDbLine
 10
3.178504978210039
 20
-111.9560724044747
 30
0.0
 11
3.178504978210021
 21
-117.729575096371
 31
0.0
  0
LINE
  5
13398
330
13309
100
AcDbEntity
  8
0
100
AcDbLine
 10
3.178504978210021
 20
-117.729575096371
 30
0.0
 11
4.239165149989827
 21
-118.3419475320668
 31
0.0
  0
LINE
  5
13399
330
13309
100
AcDbEntity
  8
0
100
AcDbLine
 10
-62.22887228154561
 20
-74.19310553656746
 30
0.0
 11
-62.22887228154561
 21
-79.96660822846374
 31
0.0
  0
LINE
  5
1339A
330
13309
100
AcDbEntity
  8
0
100
AcDbLine
 10
-62.22887228154561
 20
-79.96660822846374
 30
0.0
 11
-61.1682121097658
 21
-80.57898066415951
 31
0.0
  0
LINE
  5
1339B
330
13309
100
AcDbEntity
  8
0
100
AcDbLine
 10
-61.1682121097658
 20
-80.57898066415951
 30
0.0
 11
-61.1682121097658
 21
-74.80547797226328
 31
0.0
  0
LINE
  5
1339C
330
13309
100
AcDbEntity
  8
0
100
AcDbLine
 10
-61.1682121097658
 20
-74.80547797226328
 30
0.0
 11
-62.22887228154561
 21
-74.19310553656746
 31
0.0
  0
ELLIPSE
  5
1339D
330
13309
100
AcDbEntity
  8
0
100
AcDbEllipse
 10
37.12179865820397
 20
81.24869488775544
 30
0.0
 11
1.250000000000128
 21
2.165063509461022
 31
0.0
210
0.0
220
0.0
230
1.0
 40
0.5773502691896258
 41
0.0
 42
6.283185307179586
  0
ELLIPSE
  5
1339E
330
13309
100
AcDbEntity
  8
0
100
AcDbEllipse
 10
37.12179865820397
 20
64.91876326920092
 30
0.0
 11
1.250000000000128
 21
2.165063509461022
 31
0.0
210
0.0
220
0.0
230
1.0
 40
0.5773502691896258
 41
0.0
 42
6.283185307179586
  0
ELLIPSE
  5
1339F
330
13309
100
AcDbEntity
  8
0
100
AcDbEllipse
 10
37.12179865820397
 20
48.58883165064639
 30
0.0
 11
1.250000000000128
 21
2.165063509461022
 31
0.0
210
0.0
220
0.0
230
1.0
 40
0.5773502691896258
 41
0.0
 42
6.283185307179586
  0
ELLIPSE
  5
133A0
330
13309
100
AcDbEntity
  8
0
100
AcDbEllipse
 10
37.12179865820397
 20
32.25890003209187
 30
0.0
 11
1.250000000000128
 21
2.165063509461022
 31
0.0
210
0.0
220
0.0
230
1.0
 40
0.5773502691896258
 41
0.0
 42
6.283185307179586
  0
ELLIPSE
  5
133A1
330
13309
100
AcDbEntity
  8
0
100
AcDbEllipse
 10
37.12179865820397
 20
15.92896841353734
 30
0.0
 11
1.250000000000128
 21
2.165063509461022
 31
0.0
210
0.0
220
0.0
230
1.0
 40
0.5773502691896258
 41
0.0
 42
6.283185307179586
  0
ELLIPSE
  5
133A2
330
13309
100
AcDbEntity
  8
0
100
AcDbEllipse
 10
36.06113848642415
 20
81.86106732345125
 30
0.0
 11
1.249999999999879
 21
2.165063509461166
 31
0.0
210
0.0
220
0.0
230
1.0
 40
0.5773502691896319
 41
3.579741684173541
 42
5.845036276594993
  0
ELLIPSE
  5
133A3
330
13309
100
AcDbEntity
  8
0
100
AcDbEllipse
 10
36.06113848642415
 20
65.53113570489673
 30
0.0
 11
1.249999999999879
 21
2.165063509461166
 31
0.0
210
0.0
220
0.0
230
1.0
 40
0.5773502691896319
 41
3.579741684173541
 42
5.845036276595001
  0
ELLIPSE
  5
133A4
330
13309
100
AcDbEntity
  8
0
100
AcDbEllipse
 10
36.06113848642415
 20
49.2012040863422
 30
0.0
 11
1.249999999999879
 21
2.165063509461166
 31
0.0
210
0.0
220
0.0
230
0.9999999999999998
 40
0.5773502691896316
 41
3.579741684173548
 42
5.845036276595007
  0
ELLIPSE
  5
133A5
330
13309
100
AcDbEntity
  8
0
100
AcDbEllipse
 10
36.06113848642415
 20
32.87127246778767
 30
0.0
 11
1.249999999999879
 21
2.165063509461166
 31
0.0
210
0.0
220
0.0
230
0.9999999999999998
 40
0.5773502691896316
 41
3.57974168417355
 42
5.845036276595009
  0
ELLIPSE
  5
133A6
330
13309
100
AcDbEntity
  8
0
100
AcDbEllipse
 10
36.06113848642415
 20
16.54134084923314
 30
0.0
 11
1.249999999999879
 21
2.165063509461166
 31
0.0
210
0.0
220
0.0
230
0.9999999999999998
 40
0.5773502691896316
 41
3.57974168417355
 42
5.845036276595008
  0
ELLIPSE
  5
133A7
330
13309
100
AcDbEntity
  8
0
100
AcDbEllipse
 10
37.12179865820397
 20
-0.4009632050171775
 30
0.0
 11
1.250000000000128
 21
2.165063509461022
 31
0.0
210
0.0
220
0.0
230
1.0
 40
0.5773502691896258
 41
0.0
 42
6.283185307179586
  0
ELLIPSE
  5
133A8
330
13309
100
AcDbEntity
  8
0
100
AcDbEllipse
 10
36.06113848642415
 20
0.2114092306786208
 30
0.0
 11
1.249999999999879
 21
2.165063509461166
 31
0.0
210
0.0
220
0.0
230
0.9999999999999998
 40
0.5773502691896316
 41
3.57974168417355
 42
5.845036276595008
  0
LINE
  5
133A9
330
13309
100
AcDbEntity
  8
0
100
AcDbLine
 10
60.73916514983437
 20
3.028322434879484
 30
0.0
 11
60.73916514983439
 21
101.3345107785777
 31
0.0
  0
ELLIPSE
  5
133AA
330
13309
100
AcDbEntity
  8
0
100
AcDbEllipse
 10
59.25424090934263
 20
102.1918321885518
 30
0.0
 11
0.6000000000000051
 21
0.0
 31
0.0
210
0.0
220
0.0
230
1.0
 40
0.5773502691896258
 41
5.497787143782192
 42
7.068583470577037
  0
LINE
  5
133AB
330
13309
100
AcDbEntity
  8
0
100
AcDbLine
 10
59.67850497805456
 20
102.4367811628301
 30
0.0
 11
59.67850497805456
 21
101.9468832142735
 31
0.0
  0
ELLIPSE
  5
133AC
330
13309
100
AcDbEntity
  8
0
100
AcDbEllipse
 10
59.25424090934263
 20
102.1918321885518
 30
0.0
 11
2.100000000000008
 21
0.0000000000000001
 31
0.0
210
0.0
220
0.0
230
1.0
 40
0.5773502691896257
 41
5.497787143782142
 42
7.068583470577032
  0
ELLIPSE
  5
133AD
330
13309
100
AcDbEntity
  8
0
100
AcDbEllipse
 10
59.25424090934263
 20
3.885643844853596
 30
0.0
 11
2.100000000000008
 21
0.0000000000000015
 31
0.0
210
0.0
220
0.0
230
1.0
 40
0.5773502691896258
 41
5.497787143782129
 42
6.28318530717958
  0
LINE
  5
133AE
330
13309
100
AcDbEntity
  8
0
100
AcDbLine
 10
-3.819683972497442
 20
139.097477646485
 30
0.0
 11
-3.819683972497442
 21
40.79128930278681
 31
0.0
  0
ELLIPSE
  5
133AF
330
13309
100
AcDbEntity
  8
0
100
AcDbEllipse
 10
-4.243948041209368
 20
138.8525286722067
 30
0.0
 11
0.5999999999999961
 21
-0.0000000000000357
 31
0.0
210
0.0
220
0.0
230
1.0
 40
0.5773502691896259
 41
0.7853981633976979
 42
2.356194490192603
  0
LINE
  5
133B0
330
13309
100
AcDbEntity
  8
0
100
AcDbLine
 10
-4.668212109921294
 20
139.097477646485
 30
0.0
 11
-4.668212109921294
 21
40.79128930278681
 31
0.0
  0
ELLIPSE
  5
133B1
330
13309
100
AcDbEntity
  8
0
100
AcDbEllipse
 10
-4.243948041209368
 20
40.5463403285085
 30
0.0
 11
0.5999999999999961
 21
-0.0000000000000357
 31
0.0
210
0.0
220
0.0
230
1.0
 40
0.5773502691896259
 41
0.7853981633976881
 42
2.356194490192594
  0
ELLIPSE
  5
133B2
330
13309
100
AcDbEntity
  8
0
100
AcDbEllipse
 10
-4.243948041209368
 20
138.8525286722067
 30
0.0
 11
-2.099999999999999
 21
-0.0000000000001257
 31
0.0
210
0.0
220
0.0
230
1.0
 40
0.5773502691896259
 41
3.926990816987002
 42
5.497787143781899
  0
LINE
  5
133B3
330
13309
100
AcDbEntity
  8
0
100
AcDbLine
 10
61.35424090934261
 20
102.1918321885518
 30
0.0
 11
61.35424090934261
 21
3.885643844853632
 31
0.0
  0
ELLIPSE
  5
133B4
330
13309
100
AcDbEntity
  8
0
100
AcDbEllipse
 10
-29.3462387733318
 20
115.5415512867201
 30
0.0
 11
1.24999999999987
 21
2.165063509461171
 31
0.0
210
0.0
220
0.0
230
1.0
 40
0.5773502691896258
 41
3.579741684173542
 42
5.845036276594988
  0
ELLIPSE
  5
133B5
330
13309
100
AcDbEntity
  8
0
100
AcDbEllipse
 10
-29.3462387733318
 20
99.21161966816558
 30
0.0
 11
1.24999999999987
 21
2.165063509461171
 31
0.0
210
0.0
220
0.0
230
1.0
 40
0.5773502691896258
 41
3.579741684173542
 42
5.845036276594988
  0
ELLIPSE
  5
133B6
330
13309
100
AcDbEntity
  8
0
100
AcDbEllipse
 10
-29.3462387733318
 20
82.88168804961106
 30
0.0
 11
1.24999999999987
 21
2.165063509461171
 31
0.0
210
0.0
220
0.0
230
1.0
 40
0.5773502691896259
 41
3.579741684173544
 42
5.845036276594986
  0
ELLIPSE
  5
133B7
330
13309
100
AcDbEntity
  8
0
100
AcDbEllipse
 10
-29.3462387733318
 20
66.55175643105653
 30
0.0
 11
1.24999999999987
 21
2.165063509461171
 31
0.0
210
0.0
220
0.0
230
1.0
 40
0.5773502691896259
 41
3.579741684173544
 42
5.84503627659499
  0
ELLIPSE
  5
133B8
330
13309
100
AcDbEntity
  8
0
100
AcDbEllipse
 10
-29.3462387733318
 20
50.22182481250201
 30
0.0
 11
1.24999999999987
 21
2.165063509461171
 31
0.0
210
0.0
220
0.0
230
1.0
 40
0.5773502691896259
 41
3.579741684173544
 42
5.84503627659499
  0
ELLIPSE
  5
133B9
330
13309
100
AcDbEntity
  8
0
100
AcDbEllipse
 10
-28.28557860155198
 20
114.9291788510243
 30
0.0
 11
1.250000000000128
 21
2.165063509461022
 31
0.0
210
0.0
220
0.0
230
1.0
 40
0.5773502691896258
 41
0.0
 42
6.283185307179586
  0
ELLIPSE
  5
133BA
330
13309
100
AcDbEntity
  8
0
100
AcDbEllipse
 10
-28.28557860155198
 20
98.59924723246978
 30
0.0
 11
1.250000000000128
 21
2.165063509461022
 31
0.0
210
0.0
220
0.0
230
1.0
 40
0.5773502691896258
 41
0.0
 42
6.283185307179586
  0
ELLIPSE
  5
133BB
330
13309
100
AcDbEntity
  8
0
100
AcDbEllipse
 10
-28.28557860155198
 20
82.26931561391525
 30
0.0
 11
1.250000000000128
 21
2.165063509461022
 31
0.0
210
0.0
220
0.0
230
1.0
 40
0.5773502691896258
 41
0.0
 42
6.283185307179586
  0
ELLIPSE
  5
133BC
330
13309
100
AcDbEntity
  8
0
100
AcDbEllipse
 10
-28.28557860155198
 20
65.93938399536073
 30
0.0
 11
1.250000000000128
 21
2.165063509461022
 31
0.0
210
0.0
220
0.0
230
1.0
 40
0.5773502691896258
 41
0.0
 42
6.283185307179586
  0
ELLIPSE
  5
133BD
330
13309
100
AcDbEntity
  8
0
100
AcDbEllipse
 10
-28.28557860155198
 20
49.6094523768062
 30
0.0
 11
1.250000000000128
 21
2.165063509461022
 31
0.0
210
0.0
220
0.0
230
1.0
 40
0.5773502691896258
 41
0.0
 42
6.283185307179586
  0
ELLIPSE
  5
133BE
330
13309
100
AcDbEntity
  8
0
100
AcDbEllipse
 10
-29.3462387733318
 20
33.89189319394749
 30
0.0
 11
1.24999999999987
 21
2.165063509461171
 31
0.0
210
0.0
220
0.0
230
1.0
 40
0.5773502691896259
 41
3.579741684173546
 42
5.84503627659499
  0
ELLIPSE
  5
133BF
330
13309
100
AcDbEntity
  8
0
100
AcDbEllipse
 10
-28.28557860155198
 20
33.27952075825169
 30
0.0
 11
1.250000000000128
 21
2.165063509461022
 31
0.0
210
0.0
220
0.0
230
1.0
 40
0.5773502691896258
 41
0.0
 42
6.283185307179586
  0
LINE
  5
133C0
330
13309
100
AcDbEntity
  8
0
100
AcDbLine
 10
17.73916514940006
 20
-89.18575893968657
 30
0.0
 11
4.239165149989863
 21
-112.5684448401705
 31
0.0
  0
LINE
  5
133C1
330
13309
100
AcDbEntity
  8
0
100
AcDbLine
 10
16.67850497762011
 20
-88.57338650399071
 30
0.0
 11
3.178504978210039
 21
-111.9560724044747
 31
0.0
  0
LINE
  5
133C2
330
13309
100
AcDbEntity
  8
0
100
AcDbLine
 10
22.43916514983435
 20
-128.8497224312282
 30
0.0
 11
59.13916514904648
 21
-65.28345779481515
 31
0.0
  0
LINE
  5
133C3
330
13309
100
AcDbEntity
  8
0
100
AcDbLine
 10
57.8299768398395
 20
-64.81457314616784
 30
0.0
 11
58.81778618923272
 21
-63.10363716482722
 31
0.0
  0
LINE
  5
133C4
330
13309
100
AcDbEntity
  8
0
100
AcDbLine
 10
22.77289425729011
 20
-129.0424010212539
 30
0.0
 11
22.43916514983458
 21
-128.8497224312279
 31
0.0
  0
LINE
  5
133C5
330
13309
100
AcDbEntity
  8
0
100
AcDbLine
 10
59.81125422635239
 20
-64.89007972581274
 30
0.0
 11
22.77289425729012
 21
-129.0424010212539
 31
0.0
  0
LINE
  5
133C6
330
13309
100
AcDbEntity
  8
0
100
AcDbLine
 10
17.73916514940006
 20
-89.18575893968657
 30
0.0
 11
16.67850497762011
 21
-88.57338650399071
 31
0.0
  0
LINE
  5
133C7
330
13309
100
AcDbEntity
  8
0
100
AcDbLine
 10
59.13916514904648
 20
-65.28345779481515
 30
0.0
 11
17.73916514940007
 21
-89.18575893968657
 31
0.0
  0
LINE
  5
133C8
330
13309
100
AcDbEntity
  8
0
100
AcDbLine
 10
-48.72887228213764
 20
-50.81041963608242
 30
0.0
 11
-7.328872282489049
 21
-26.90811849121205
 31
0.0
  0
ELLIPSE
  5
133C9
330
13309
100
AcDbEntity
  8
0
100
AcDbEllipse
 10
-1.576370765150163
 20
-25.80227972486883
 30
0.0
 11
-0.7499999999999999
 21
-1.299038105676658
 31
0.0
210
0.0
220
0.0
230
1.0
 40
0.816496580927726
 41
0.0
 42
1.134458255166983
  0
LINE
  5
133CA
330
13309
100
AcDbEntity
  8
0
100
AcDbLine
 10
-2.32637076515016
 20
-27.10131783054548
 30
0.0
 11
-3.947876455359802
 21
-26.16514108381043
 31
0.0
  0
LINE
  5
133CB
330
13309
100
AcDbEntity
  8
0
100
AcDbLine
 10
-3.947876455359802
 20
-26.16514108381043
 30
0.0
 11
-4.680402761319264
 21
-26.44294068117233
 31
0.0
  0
LINE
  5
133CC
330
13309
100
AcDbEntity
  8
0
100
AcDbLine
 10
58.81778618923272
 20
-63.10363716482722
 30
0.0
 11
58.69210454472948
 21
-62.33035097624501
 31
0.0
  0
LINE
  5
133CD
330
13309
100
AcDbEntity
  8
0
100
AcDbLine
 10
58.69210454472948
 20
-62.33035097624501
 30
0.0
 11
57.07059885451984
 21
-61.39417422950997
 31
0.0
  0
ELLIPSE
  5
133CE
330
13309
100
AcDbEntity
  8
0
100
AcDbEllipse
 10
57.82059885451984
 20
-60.09513612383331
 30
0.0
 11
-0.7499999999999999
 21
-1.299038105676658
 31
0.0
210
0.0
220
0.0
230
1.0
 40
0.816496580927726
 41
5.148727052012596
 42
6.283185307179585
  0
SPLINE
  5
133CF
330
13309
100
AcDbEntity
  8
0
100
AcDbSpline
210
0.0
220
0.0
230
1.0
 70
     8
 71
     3
 72
     8
 73
     4
 74
     0
 42
0.000000001
 43
0.0000000001
 40
0.130246360654275
 40
0.130246360654275
 40
0.130246360654275
 40
0.130246360654275
 40
1.0
 40
1.0
 40
1.0
 40
1.0
 10
57.62218172028398
 20
-59.18590949799988
 30
0.0
 10
57.56935578449536
 20
-59.59533072543653
 30
0.0
 10
57.43774601037995
 20
-60.09324256060299
 30
0.0
 10
57.29234925216459
 20
-60.52215641497349
 30
0.0
  0
SPLINE
  5
133D0
330
13309
100
AcDbEntity
  8
0
100
AcDbSpline
210
0.0
220
0.0
230
1.0
 70
     8
 71
     3
 72
     8
 73
     4
 74
     0
 42
0.000000001
 43
0.0000000001
 40
-1.0
 40
-1.0
 40
-1.0
 40
-1.0
 40
0.0
 40
0.0
 40
0.0
 40
0.0
 10
56.54234925216458
 20
-60.08914371308128
 30
0.0
 10
56.52714061460615
 20
-59.91188878835669
 30
0.0
 10
56.54780379044198
 20
-59.73229078897414
 30
0.0
 10
56.57973520542248
 20
-59.62083055470199
 30
0.0
  0
SPLINE
  5
133D1
330
13309
100
AcDbEntity
  8
0
100
AcDbSpline
210
0.0
220
0.0
230
1.0
 70
     8
 71
     3
 72
     8
 73
     4
 74
     0
 42
0.000000001
 43
0.0000000001
 40
-1.0
 40
-1.0
 40
-1.0
 40
-1.0
 40
0.0
 40
0.0
 40
0.0
 40
0.0
 10
-0.7209141998653879
 20
-26.53828519581869
 30
0.0
 10
-0.6889827848846819
 20
-26.68661665216014
 30
0.0
 10
-0.7709447974933426
 20
-26.83082375163089
 30
0.0
 10
-0.9320563840313944
 20
-26.90628014750979
 30
0.0
  0
LINE
  5
133D2
330
13309
100
AcDbEntity
  8
0
100
AcDbLine
 10
-47.66821211035758
 20
-51.42279207177836
 30
0.0
 11
-48.72887228213764
 21
-50.81041963608242
 31
0.0
  0
LINE
  5
133D3
330
13309
100
AcDbEntity
  8
0
100
AcDbLine
 10
-6.268212110709243
 20
-27.52049092690783
 30
0.0
 11
-47.66821211035757
 21
-51.42279207177836
 31
0.0
  0
LINE
  5
133D4
330
13309
100
AcDbEntity
  8
0
100
AcDbLine
 10
-6.268212110709243
 20
-27.52049092690783
 30
0.0
 11
-6.621411947912689
 21
-27.31657090582068
 31
0.0
  0
LINE
  5
133D5
330
13309
100
AcDbEntity
  8
0
100
AcDbLine
 10
-6.621411947912689
 20
-27.31657090582068
 30
0.0
 11
-7.328872282489049
 21
-26.90811849121205
 31
0.0
  0
SPLINE
  5
133D6
330
13309
100
AcDbEntity
  8
0
100
AcDbSpline
210
0.0
220
0.0
230
1.0
 70
     8
 71
     3
 72
     8
 73
     4
 74
     0
 42
0.000000001
 43
0.0000000001
 40
-1.0
 40
-1.0
 40
-1.0
 40
-1.0
 40
0.0
 40
0.0
 40
0.0
 40
0.0
 10
-4.680402761319255
 20
-26.44294068117233
 30
0.0
 10
-5.190395335119899
 20
-26.81325379841312
 30
0.0
 10
-5.823284051136798
 20
-27.11261279486216
 30
0.0
 10
-6.268212110709239
 20
-27.52049092690783
 30
0.0
  0
SPLINE
  5
133D7
330
13309
100
AcDbEntity
  8
0
100
AcDbSpline
210
0.0
220
0.0
230
1.0
 70
     8
 71
     3
 72
     8
 73
     4
 74
     0
 42
0.000000001
 43
0.0000000001
 40
0.0
 40
0.0
 40
0.0
 40
0.0
 40
0.6081734479693861
 40
0.6081734479693861
 40
0.6081734479693861
 40
0.6081734479693861
 10
-7.32887228248904
 20
-26.90811849121204
 30
0.0
 10
-6.819449695869428
 20
-26.79794591795339
 30
0.0
 10
-6.066700329560772
 20
-26.82825812644975
 30
0.0
 10
-5.315367466358122
 20
-26.85775251649655
 30
0.0
  0
ELLIPSE
  5
133D8
330
13309
100
AcDbEntity
  8
0
100
AcDbEllipse
 10
-1.769074307056457
 20
-26.12060550424037
 30
0.0
 11
0.7499999999999233
 21
-1.299038105676702
 31
0.0
210
0.0
220
0.0
230
1.0
 40
0.5773502691896259
 41
0.9390757175653323
 42
2.356194490192585
  0
LINE
  5
133D9
330
13309
100
AcDbEntity
  8
0
100
AcDbLine
 10
59.13916514904648
 20
-65.28345779481515
 30
0.0
 11
58.43170481446978
 21
-64.87500538020634
 31
0.0
  0
LINE
  5
133DA
330
13309
100
AcDbEntity
  8
0
100
AcDbLine
 10
58.43170481446978
 20
-64.87500538020634
 30
0.0
 11
58.07850497726661
 21
-64.67108535911936
 31
0.0
  0
LINE
  5
133DB
330
13309
100
AcDbEntity
  8
0
100
AcDbLine
 10
16.67850497762011
 20
-88.57338650399071
 30
0.0
 11
58.07850497726661
 21
-64.67108535911936
 31
0.0
  0
LINE
  5
133DC
330
13309
100
AcDbEntity
  8
0
100
AcDbLine
 10
58.81778618923272
 20
-63.10363716482722
 30
0.0
 11
59.06753618923281
 21
-63.24783039455738
 31
0.0
  0
SPLINE
  5
133DD
330
13309
100
AcDbEntity
  8
0
100
AcDbSpline
210
0.0
220
0.0
230
1.0
 70
     8
 71
     3
 72
     8
 73
     4
 74
     0
 42
0.000000001
 43
0.0000000001
 40
-1.0
 40
-1.0
 40
-1.0
 40
-1.0
 40
0.0
 40
0.0
 40
0.0
 40
0.0
 10
58.07850497726661
 20
-64.67108535911936
 30
0.0
 10
58.52343303683895
 20
-64.26320722707387
 30
0.0
 10
58.75208190924792
 20
-63.73046024810038
 30
0.0
 10
58.8177861892327
 20
-63.10363716482725
 30
0.0
  0
SPLINE
  5
133DE
330
13309
100
AcDbEntity
  8
0
100
AcDbSpline
210
0.0
220
0.0
230
1.0
 70
     8
 71
     3
 72
     8
 73
     4
 74
     0
 42
0.000000001
 43
0.0000000001
 40
0.0
 40
0.0
 40
0.0
 40
0.0
 40
1.0
 40
1.0
 40
1.0
 40
1.0
 10
59.5677861892327
 20
-63.53664986671946
 30
0.0
 10
60.05744227651768
 20
-64.48411040753305
 30
0.0
 10
59.97679229031749
 20
-65.10230458329894
 30
0.0
 10
59.13916514904646
 20
-65.28345779481518
 30
0.0
  0
LINE
  5
133DF
330
13309
100
AcDbEntity
  8
0
100
AcDbLine
 10
59.06753618923281
 20
-63.24783039455738
 30
0.0
 11
59.56778618923273
 21
-63.53664986671944
 31
0.0
  0
ELLIPSE
  5
133E0
330
13309
100
AcDbEntity
  8
0
100
AcDbEllipse
 10
58.57059885451983
 20
-60.52814882572554
 30
0.0
 11
-0.75
 21
-1.299038105676659
 31
0.0
210
0.0
220
0.0
230
1.0
 40
0.8164965809277259
 41
5.148727052012596
 42
6.283185307179585
  0
LINE
  5
133E1
330
13309
100
AcDbEntity
  8
0
100
AcDbLine
 10
57.29234925216456
 20
-60.52215641497348
 30
0.0
 11
56.79209925306517
 21
-60.23333694333134
 31
0.0
  0
LINE
  5
133E2
330
13309
100
AcDbEntity
  8
0
100
AcDbLine
 10
56.79209925306517
 20
-60.23333694333134
 30
0.0
 11
56.54234925216456
 21
-60.08914371308126
 31
0.0
  0
LINE
  5
133E3
330
13309
100
AcDbEntity
  8
0
100
AcDbLine
 10
58.69210454472948
 20
-62.33035097624501
 30
0.0
 11
59.4421045447295
 21
-62.76336367813723
 31
0.0
  0
LINE
  5
133E4
330
13309
100
AcDbEntity
  8
0
100
AcDbLine
 10
59.4421045447295
 20
-62.76336367813723
 30
0.0
 11
59.56778618923273
 21
-63.53664986671944
 31
0.0
  0
LINE
  5
133E5
330
13309
100
AcDbEntity
  8
0
100
AcDbLine
 10
56.57973520542248
 20
-59.62083055470198
 30
0.0
 11
56.93293504583734
 21
-59.41691053176075
 31
0.0
  0
LINE
  5
133E6
330
13309
100
AcDbEntity
  8
0
100
AcDbLine
 10
56.93293504583734
 20
-59.41691053176075
 30
0.0
 11
57.46553648256969
 21
-59.10941294889254
 31
0.0
  0
ELLIPSE
  5
133E7
330
13309
100
AcDbEntity
  8
0
100
AcDbEllipse
 10
57.62789531261354
 20
-60.41346190320485
 30
0.0
 11
-0.7500000000000007
 21
1.299038105676658
 31
0.0
210
0.0
220
0.0
230
0.9999999999999998
 40
0.5773502691896259
 41
5.497787143782137
 42
6.914905916409349
  0
LINE
  5
133E8
330
13309
100
AcDbEntity
  8
0
100
AcDbLine
 10
22.43916514983435
 20
-128.8497224312282
 30
0.0
 11
4.239165149989827
 21
-118.3419475320668
 31
0.0
  0
LINE
  5
133E9
330
13309
100
AcDbEntity
  8
0
100
AcDbLine
 10
-61.1682121097658
 20
-80.57898066415951
 30
0.0
 11
-42.96821210992128
 21
-91.08675556332093
 31
0.0
  0
LINE
  5
133EA
330
13309
100
AcDbEntity
  8
0
100
AcDbLine
 10
17.25632246820511
 20
-37.40734557397144
 30
0.0
 11
9.716145761872914
 21
-33.05402252283319
 31
0.0
  0
LINE
  5
133EB
330
13309
100
AcDbEntity
  8
0
100
AcDbLine
 10
6.29616735981366
 20
-31.07949707178158
 30
0.0
 11
-0.9320563840313322
 21
-26.90628014750983
 31
0.0
  0
LINE
  5
133EC
330
13309
100
AcDbEntity
  8
0
100
AcDbLine
 10
-42.24394804120934
 20
-91.50490961835613
 30
0.0
 11
3.178504978210021
 21
-117.729575096371
 31
0.0
  0
LINE
  5
133ED
330
13309
100
AcDbEntity
  8
0
100
AcDbLine
 10
56.54234925216456
 20
-60.08914371308126
 30
0.0
 11
49.31412550831957
 21
-55.91592678880951
 31
0.0
  0
LINE
  5
133EE
330
13309
100
AcDbEntity
  8
0
100
AcDbLine
 10
45.89414710626031
 20
-53.94140133775789
 30
0.0
 11
38.35397039992813
 21
-49.58807828661966
 31
0.0
  0
LINE
  5
133EF
330
13309
100
AcDbEntity
  8
0
100
AcDbLine
 10
31.39845809193609
 20
-45.57231138324872
 30
0.0
 11
24.21183477619714
 21
-41.42311247734238
 31
0.0
  0
LINE
  5
133F0
330
13309
100
AcDbEntity
  8
0
100
AcDbLine
 10
38.52854058667105
 20
-49.19896848237154
 30
0.0
 11
45.96810505694124
 21
-53.49420303193561
 31
0.0
  0
LINE
  5
133F1
330
13309
100
AcDbEntity
  8
0
100
AcDbLine
 10
9.890715948615849
 20
-32.66491271858507
 30
0.0
 11
17.33028041888603
 21
-36.96014726814914
 31
0.0
  0
LINE
  5
133F2
330
13309
100
AcDbEntity
  8
0
100
AcDbLine
 10
24.38640496294008
 20
-41.03400267309426
 30
0.0
 11
31.47241604261701
 21
-45.12511307742641
 31
0.0
  0
LINE
  5
133F3
330
13309
100
AcDbEntity
  8
0
100
AcDbLine
 10
49.48869569506252
 20
-55.5268169845614
 30
0.0
 11
56.57973520542248
 21
-59.62083055470198
 31
0.0
  0
LINE
  5
133F4
330
13309
100
AcDbEntity
  8
0
100
AcDbLine
 10
-0.7209141998653923
 20
-26.53828519581869
 30
0.0
 11
6.370125310494572
 21
-30.63229876595928
 31
0.0
  0
ELLIPSE
  5
133F5
330
13309
100
AcDbEntity
  8
0
100
AcDbEllipse
 10
11.98916515010354
 20
-108.3826553886114
 30
0.0
 11
1.250000000000129
 21
2.165063509461022
 31
0.0
210
0.0
220
0.0
230
1.0
 40
0.5773502691896255
 41
0.0
 42
6.283185307179586
  0
ELLIPSE
  5
133F6
330
13309
100
AcDbEntity
  8
0
100
AcDbEllipse
 10
25.73916515030826
 20
-90.3404594765538
 30
0.0
 11
-0.4000000000000425
 21
-0.6928203230275284
 31
0.0
210
0.0
220
0.0
230
1.0
 40
0.5773502691896255
 41
2.094395102375157
 42
2.276828566511568
  0
LINE
  5
133F7
330
13309
100
AcDbEntity
  8
0
100
AcDbLine
 10
26.28557531181938
 20
-90.19404931505306
 30
0.0
 11
25.49310706649612
 21
-94.06664457925913
 31
0.0
  0
ELLIPSE
  5
133F8
330
13309
100
AcDbEntity
  8
0
100
AcDbEllipse
 10
24.94669690498501
 20
-94.21305474075991
 30
0.0
 11
-0.4000000000000419
 21
-0.6928203230275269
 31
0.0
210
0.0
220
0.0
230
1.0
 40
0.5773502691896255
 41
0.0
 42
2.094395102375107
  0
LINE
  5
133F9
330
13309
100
AcDbEntity
  8
0
100
AcDbLine
 10
24.54669690497774
 20
-94.90587506378325
 30
0.0
 11
22.38163339555602
 21
-93.655875063715
 31
0.0
  0
ELLIPSE
  5
133FA
330
13309
100
AcDbEntity
  8
0
100
AcDbEllipse
 10
22.78163339556329
 20
-92.96305474069164
 30
0.0
 11
-0.4000000000072804
 21
-0.6928203230233495
 31
0.0
210
0.0
220
0.0
230
1.0
 40
0.5773502691896257
 41
4.188790204822794
 42
6.283185307252373
  0
LINE
  5
133FB
330
13309
100
AcDbEntity
  8
0
100
AcDbLine
 10
22.63522323405946
 20
-92.41664457916906
 30
0.0
 11
25.59275498880444
 21
-89.79404931503124
 31
0.0
  0
ELLIPSE
  5
133FC
330
13309
100
AcDbEntity
  8
0
100
AcDbEllipse
 10
25.73916515030826
 20
-90.3404594765538
 30
0.0
 11
0.4000000000000012
 21
0.6928203230275523
 31
0.0
210
0.0
220
0.0
230
1.0
 40
0.5773502691896259
 41
0.0802385882704746
 42
1.047197551178412
  0
LINE
  5
133FD
330
13309
100
AcDbEntity
  8
0
100
AcDbLine
 10
26.1058171880425
 20
-89.63135779497754
 30
0.0
 11
26.30306989819262
 21
-90.06667611535512
 31
0.0
  0
ELLIPSE
  5
133FE
330
13309
100
AcDbEntity
  8
0
100
AcDbEllipse
 10
23.8860367332052
 20
-93.60068230506412
 30
0.0
 11
-0.4000000000072798
 21
-0.6928203230233483
 31
0.0
210
0.0
220
0.0
230
1.0
 40
0.5773502691896258
 41
0.0000000000727867
 42
2.094395102429601
  0
LINE
  5
133FF
330
13309
100
AcDbEntity
  8
0
100
AcDbLine
 10
24.43244689471629
 20
-93.45427214356334
 30
0.0
 11
25.49310706649612
 21
-94.06664457925913
 31
0.0
  0
LINE
  5
13400
330
13309
100
AcDbEntity
  8
0
100
AcDbLine
 10
24.43244689471629
 20
-93.45427214356334
 30
0.0
 11
25.09027641086694
 21
-90.23962287031608
 31
0.0
  0
LINE
  5
13401
330
13309
100
AcDbEntity
  8
0
100
AcDbLine
 10
25.59275498879182
 20
-89.79404931505305
 30
0.0
 11
26.28557531181938
 21
-90.19404931505306
 31
0.0
  0
LINE
  5
13402
330
13309
100
AcDbEntity
  8
0
100
AcDbLine
 10
25.69431612229764
 20
-89.71521195897196
 30
0.0
 11
26.30306989819262
 21
-90.06667611535512
 31
0.0
  0
ELLIPSE
  5
13403
330
13309
100
AcDbEntity
  8
0
100
AcDbEllipse
 10
10.92850497832374
 20
-107.7702829529156
 30
0.0
 11
1.249999999999871
 21
2.165063509461172
 31
0.0
210
0.0
220
0.0
230
1.0
 40
0.5773502691896259
 41
3.579741684173535
 42
5.845036276595007
  0
LINE
  5
13404
330
13309
100
AcDbEntity
  8
0
100
AcDbLine
 10
-48.72887228213764
 20
-50.81041963608242
 30
0.0
 11
-62.22887228154561
 21
-74.19310553656746
 31
0.0
  0
LINE
  5
13405
330
13309
100
AcDbEntity
  8
0
100
AcDbLine
 10
-47.66821211035758
 20
-51.42279207177836
 30
0.0
 11
-61.1682121097658
 21
-74.80547797226328
 31
0.0
  0
ELLIPSE
  5
13406
330
13309
100
AcDbEntity
  8
0
100
AcDbEllipse
 10
-56.97887228147738
 20
-74.33744310390427
 30
0.0
 11
1.24999999999987
 21
2.165063509461171
 31
0.0
210
0.0
220
0.0
230
1.0
 40
0.5773502691896254
 41
3.579741684173528
 42
5.845036276595005
  0
ELLIPSE
  5
13407
330
13309
100
AcDbEntity
  8
0
100
AcDbEllipse
 10
-44.02134052659592
 20
-60.16784245605272
 30
0.0
 11
-0.4000000000072798
 21
-0.6928203230233483
 31
0.0
210
0.0
220
0.0
230
1.0
 40
0.5773502691896258
 41
0.0000000000727783
 42
2.094395102429573
  0
LINE
  5
13408
330
13309
100
AcDbEntity
  8
0
100
AcDbLine
 10
-43.47493036508483
 20
-60.02143229455196
 30
0.0
 11
-42.81710084893418
 21
-56.8067830213047
 31
0.0
  0
LINE
  5
13409
330
13309
100
AcDbEntity
  8
0
100
AcDbLine
 10
-42.41427019330501
 20
-60.63380473024775
 30
0.0
 11
-43.47493036508483
 21
-60.02143229455196
 31
0.0
  0
LINE
  5
1340A
330
13309
100
AcDbEntity
  8
0
100
AcDbLine
 10
-41.62180194798175
 20
-56.76120946604168
 30
0.0
 11
-42.41427019330501
 21
-60.63380473024775
 31
0.0
  0
LINE
  5
1340B
330
13309
100
AcDbEntity
  8
0
100
AcDbLine
 10
-41.62180194798175
 20
-56.76120946604168
 30
0.0
 11
-42.31462227101657
 21
-56.36120946603748
 31
0.0
  0
ELLIPSE
  5
1340C
330
13309
100
AcDbEntity
  8
0
100
AcDbEllipse
 10
-42.16821210949285
 20
-56.90761962754243
 30
0.0
 11
0.4000000000000004
 21
0.6928203230275526
 31
0.0
210
0.0
220
0.0
230
1.0
 40
0.5773502691896255
 41
5.235987755964796
 42
7.330382858358005
  0
LINE
  5
1340D
330
13309
100
AcDbEntity
  8
0
100
AcDbLine
 10
-45.27215402574165
 20
-58.98380473015769
 30
0.0
 11
-42.31462227099669
 21
-56.36120946601984
 31
0.0
  0
ELLIPSE
  5
1340E
330
13309
100
AcDbEntity
  8
0
100
AcDbEllipse
 10
-45.12574386423783
 20
-59.53021489168026
 30
0.0
 11
-0.4000000000072796
 21
-0.6928203230233496
 31
0.0
210
0.0
220
0.0
230
1.0
 40
0.5773502691896258
 41
4.188790204822788
 42
6.283185307252368
  0
LINE
  5
1340F
330
13309
100
AcDbEntity
  8
0
100
AcDbLine
 10
-43.3606803548234
 20
-61.47303521477187
 30
0.0
 11
-45.5257438642451
 21
-60.22303521470362
 31
0.0
  0
ELLIPSE
  5
13410
330
13309
100
AcDbEntity
  8
0
100
AcDbEllipse
 10
-42.96068035481612
 20
-60.78021489174851
 30
0.0
 11
-0.4000000000000412
 21
-0.6928203230275275
 31
0.0
210
0.0
220
0.0
230
0.9999999999999998
 40
0.5773502691896258
 41
0.0
 42
2.094395102375109
  0
ELLIPSE
  5
13411
330
13309
100
AcDbEntity
  8
0
100
AcDbEllipse
 10
-55.91821210969758
 20
-74.94981553960005
 30
0.0
 11
1.250000000000128
 21
2.165063509461022
 31
0.0
210
0.0
220
0.0
230
1.0
 40
0.5773502691896259
 41
0.0
 42
6.283185307179586
  0
LINE
  5
13412
330
13309
100
AcDbEntity
  8
0
100
AcDbLine
 10
-4.680402761319264
 20
-26.44294068117233
 30
0.0
 11
-42.24394804120934
 21
-91.50490961835613
 31
0.0
  0
LINE
  5
13413
330
13309
100
AcDbEntity
  8
0
100
AcDbLine
 10
-42.96821210992137
 20
-91.08675556332082
 30
0.0
 11
-42.24394804120934
 21
-91.50490961835608
 31
0.0
  0
LINE
  5
13414
330
13309
100
AcDbEntity
  8
0
100
AcDbLine
 10
-42.96821210992128
 20
-91.08675556332093
 30
0.0
 11
-6.268212110709243
 21
-27.52049092690783
 31
0.0
  0
ENDBLK
  5
1330B
330
13309
100
AcDbEntity
  8
0
100
AcDbBlockEnd
  0
ENDSEC
  0
SECTION
  2
ENTITIES
  0
INSERT
  5
13415
330
1F
100
AcDbEntity
  8
0
100
AcDbBlockReference
  2
SPR91_200-Front
 10
0.0
 20
0.0
 30
0.0
  0
INSERT
  5
13416
330
1F
100
AcDbEntity
  8
0
100
AcDbBlockReference
  2
SPR91_200-Left
 10
164.9229986469887
 20
0.0
 30
0.0
  0
INSERT
  5
13417
330
1F
100
AcDbEntity
  8
0
100
AcDbBlockReference
  2
SPR91_200-Right
 10
-164.9229986469887
 20
0.0
 30
0.0
  0
INSERT
  5
13418
330
1F
100
AcDbEntity
  8
0
100
AcDbBlockReference
  2
SPR91_200-Top
 10
0.0
 20
-132.545601705951
 30
0.0
  0
INSERT
  5
13419
330
1F
100
AcDbEntity
  8
0
100
AcDbBlockReference
  2
SPR91_200-Bottom
 10
0.0
 20
277.5659080859887
 30
0.0
  0
INSERT
  5
1341A
330
1F
100
AcDbEntity
  8
0
100
AcDbBlockReference
  2
SPR91_200-ISO
 10
227.1518709285343
 20
-272.610565943456
 30
0.0
  0
MTEXT
  5
1341B
330
1F
100
AcDbEntity
  8
0
100
AcDbMText
 10
0.0
 20
-291.4445760657997
 30
0.0
 40
25.37276902261365
 41
0.0
 71
     5
 72
     5
  1
SPR91/200
 73
     1
 44
1.0
1001
ACAD
1000
MTEXTBEGIN
1070
    73
1070
     1
1070
    44
1040
1.0
1070
    74
1070
     0
1000
MTEXTEND
  0
ENDSEC
  0
SECTION
  2
OBJECTS
  0
DICTIONARY
  5
C
330
0
100
AcDbDictionary
281
     1
  3
ACAD_CIP_PREVIOUS_PRODUCT_INFO
350
216
  3
ACAD_COLOR
350
6B
  3
ACAD_DETAILVIEWSTYLE
350
21B
  3
ACAD_GROUP
350
D
  3
ACAD_LAYOUT
350
1A
  3
ACAD_MATERIAL
350
6A
  3
ACAD_MLEADERSTYLE
350
12D
  3
ACAD_MLINESTYLE
350
17
  3
ACAD_PLOTSETTINGS
350
19
  3
ACAD_PLOTSTYLENAME
350
E
  3
ACAD_SCALELIST
350
10C
  3
ACAD_SECTIONVIEWSTYLE
350
219
  3
ACAD_TABLESTYLE
350
7E
  3
ACAD_VISUALSTYLE
350
EF
  3
ACDB_RECOMPOSE_DATA
350
1351C
  3
AcDbVariableDictionary
350
5E
  3
DWGPROPS
350
1351D
  0
DICTIONARY
  5
1346C
330
8
100
AcDbDictionary
280
     1
281
     1
  0
DICTIONARY
  5
1FF
330
2
100
AcDbDictionary
280
     1
281
     1
  3
ACAD_LAYERSTATES
360
200
  0
DICTIONARY
  5
13C
330
10
100
AcDbDictionary
280
     1
281
     1
  0
DICTIONARY
  5
1CE
330
1F
100
AcDbDictionary
280
     1
281
     1
  3
ACAD_LAYOUTSELFREF
360
13474
  0
DICTIONARY
  5
1341F
330
D2
100
AcDbDictionary
280
     1
281
     1
  3
ACAD_LAYOUTSELFREF
360
1347D
  0
DICTIONARY
  5
13421
330
D6
100
AcDbDictionary
280
     1
281
     1
  3
ACAD_LAYOUTSELFREF
360
13480
  0
XRECORD
  5
216
102
{ACAD_REACTORS
330
C
102
}
330
C
100
AcDbXrecord
280
     1
300
ACD
300
2021
300
87393ACD_2021_0F
  0
DICTIONARY
  5
6B
102
{ACAD_REACTORS
330
C
102
}
330
C
100
AcDbDictionary
281
     1
  0
DICTIONARY
  5
21B
102
{ACAD_REACTORS
330
C
102
}
330
C
100
AcDbDictionary
281
     1
  3
Metric50
350
21C
  0
DICTIONARY
  5
D
102
{ACAD_REACTORS
330
C
102
}
330
C
100
AcDbDictionary
281
     1
  0
DICTIONARY
  5
1A
102
{ACAD_REACTORS
330
C
102
}
330
C
100
AcDbDictionary
281
     1
  3
Layout1
350
D3
  3
Layout2
350
D7
  3
Model
350
22
  0
DICTIONARY
  5
6A
102
{ACAD_REACTORS
330
C
102
}
330
C
100
AcDbDictionary
281
     1
  3
ByBlock
350
ED
  3
ByLayer
350
EC
  3
Global
350
EE
  0
DICTIONARY
  5
12D
102
{ACAD_REACTORS
330
C
102
}
330
C
100
AcDbDictionary
281
     1
  3
Standard
350
12E
  0
DICTIONARY
  5
17
102
{ACAD_REACTORS
330
C
102
}
330
C
100
AcDbDictionary
281
     1
  3
Standard
350
18
  0
DICTIONARY
  5
19
102
{ACAD_REACTORS
330
C
102
}
330
C
100
AcDbDictionary
281
     1
  0
ACDBDICTIONARYWDFLT
  5
E
102
{ACAD_REACTORS
330
C
102
}
330
C
100
AcDbDictionary
281
     1
  3
Normal
350
F
100
AcDbDictionaryWithDefault
340
F
  0
DICTIONARY
  5
10C
102
{ACAD_REACTORS
330
C
102
}
330
C
100
AcDbDictionary
281
     1
  3
A0
350
10D
  3
A1
350
1BE
  3
A2
350
1BF
  3
A3
350
1C0
  3
A4
350
1C1
  3
A5
350
1C2
  3
A6
350
1C3
  3
A7
350
1C4
  3
A8
350
1C5
  3
A9
350
1C6
  3
B0
350
1C7
  3
B1
350
1C8
  3
B2
350
1C9
  3
B3
350
1CA
  3
B4
350
1CB
  3
B5
350
1CC
  3
B6
350
1CD
  0
DICTIONARY
  5
219
102
{ACAD_REACTORS
330
C
102
}
330
C
100
AcDbDictionary
281
     1
  3
Metric50
350
21A
  0
DICTIONARY
  5
7E
102
{ACAD_REACTORS
330
C
102
}
330
C
100
AcDbDictionary
281
     1
  3
Standard
350
7F
  0
DICTIONARY
  5
EF
102
{ACAD_REACTORS
330
C
102
}
330
C
100
AcDbDictionary
281
     1
  3
2dWireframe
350
F5
  3
Basic
350
F4
  3
Brighten
350
FB
  3
ColorChange
350
FF
  3
Conceptual
350
F8
  3
Dim
350
FA
  3
EdgeColorOff
350
1E6
  3
Facepattern
350
FE
  3
Flat
350
F0
  3
FlatWithEdges
350
F1
  3
Gouraud
350
F2
  3
GouraudWithEdges
350
F3
  3
Hidden
350
F7
  3
JitterOff
350
1E4
  3
Linepattern
350
FD
  3
OverhangOff
350
1E5
  3
Realistic
350
F9
  3
Shaded
350
1F3
  3
Shaded with edges
350
1F2
  3
Shades of Gray
350
1EF
  3
Sketchy
350
1F0
  3
Thicken
350
FC
  3
Wireframe
350
F6
  3
X-Ray
350
1F1
  0
XRECORD
  5
1351C
102
{ACAD_REACTORS
330
C
102
}
330
C
100
AcDbXrecord
280
     1
 90
        1
330
7F
  0
DICTIONARY
  5
5E
102
{ACAD_REACTORS
330
C
102
}
330
C
100
AcDbDictionary
281
     1
  3
CANNOSCALE
350
146
  3
CENTEREXE
350
259
  3
CENTERLTYPEFILE
350
25A
  3
CMLEADERSTYLE
350
145
  3
CTABLESTYLE
350
84
  3
CVIEWDETAILSTYLE
350
227
  3
CVIEWSECTIONSTYLE
350
228
  3
DIMASSOC
350
5F
  3
HIDETEXT
350
63
  3
INDEXCTL
350
134C9
  3
LAYEREVAL
350
1AE
  3
LAYERNOTIFY
350
1AF
  3
LIGHTINGUNITS
350
134C7
  3
MSLTSCALE
350
134C6
  3
PSOLHEIGHT
350
13519
  3
PSOLWIDTH
350
13518
  3
SORTENTS
350
134C8
  3
XCLIPFRAME
350
1351A
  0
XRECORD
  5
1351D
102
{ACAD_REACTORS
330
C
102
}
330
C
100
AcDbXrecord
280
     1
  1
DWGPROPS COOKIE
  2

  3

  4

  6

  7

  8
truole
  9

300
=
301
=
302
=
303
=
304
=
305
=
306
=
307
=
308
=
309
=
 40
0.0027893518518519
 41
2460719.40650463
 42
2460719.416446759
  1

 90
        0
  0
DICTIONARY
  5
200
102
{ACAD_REACTORS
330
1FF
102
}
330
1FF
100
AcDbDictionary
281
     1
  0
XRECORD
  5
13474
102
{ACAD_REACTORS
330
1CE
102
}
330
1CE
100
AcDbXrecord
280
     1
340
1F
  0
XRECORD
  5
1347D
102
{ACAD_REACTORS
330
1341F
102
}
330
1341F
100
AcDbXrecord
280
     1
340
D2
  0
XRECORD
  5
13480
102
{ACAD_REACTORS
330
13421
102
}
330
13421
100
AcDbXrecord
280
     1
340
D6
  0
ACDBDETAILVIEWSTYLE
  5
21C
102
{ACAD_XDICTIONARY
360
1355C
102
}
102
{ACAD_REACTORS
330
21B
102
}
330
21B
100
AcDbModelDocViewStyle
 70
     0
  3
Metric50
290
     0
100
AcDbDetailViewStyle
 70
     0
 71
     0
 90
        3
 71
     1
340
11
 40
5.0
340
0
 40
5.0
300

 40
0.0
280
     1
 71
     2
340
16
 90
       25
 71
     3
340
11
 40
5.0
 90
        0
 40
15.0
 90
        1
300
%<\AcVar ViewDetailId>% (%<\AcVar ViewScale \f "%sn">%)
 71
     4
340
16
 90
       25
340
16
 90
       25
280
     0
  0
LAYOUT
  5
D3
102
{ACAD_XDICTIONARY
360
13521
102
}
102
{ACAD_REACTORS
330
1A
102
}
330
1A
100
AcDbPlotSettings
  1

  2
C:\Documents and Settings\basas\Application Data\Autodesk\AutoCAD 2005\R16.1\enu\plotters\Default Windows System Printer.pc3
  4

  6

 40
0.0
 41
0.0
 42
0.0
 43
0.0
 44
0.0
 45
0.0
 46
0.0
 47
0.0
 48
0.0
 49
0.0
140
0.0
141
0.0
142
1.0
143
1.0
 70
   688
 72
     0
 73
     0
 74
     5
  7

 75
    16
147
1.0
148
0.0
149
0.0
100
AcDbLayout
  1
Layout1
 70
     1
 71
     1
 10
0.0
 20
0.0
 11
12.0
 21
9.0
 12
0.0
 22
0.0
 32
0.0
 14
0.0
 24
0.0
 34
0.0
 15
0.0
 25
0.0
 35
0.0
146
0.0
 13
0.0
 23
0.0
 33
0.0
 16
1.0
 26
0.0
 36
0.0
 17
0.0
 27
1.0
 37
0.0
 76
     0
330
D2
  0
LAYOUT
  5
D7
102
{ACAD_XDICTIONARY
360
13523
102
}
102
{ACAD_REACTORS
330
1A
102
}
330
1A
100
AcDbPlotSettings
  1

  2
C:\Documents and Settings\basas\Application Data\Autodesk\AutoCAD 2005\R16.1\enu\plotters\Default Windows System Printer.pc3
  4

  6

 40
0.0
 41
0.0
 42
0.0
 43
0.0
 44
0.0
 45
0.0
 46
0.0
 47
0.0
 48
0.0
 49
0.0
140
0.0
141
0.0
142
1.0
143
1.0
 70
   688
 72
     0
 73
     0
 74
     5
  7

 75
    16
147
1.0
148
0.0
149
0.0
100
AcDbLayout
  1
Layout2
 70
     1
 71
     2
 10
0.0
 20
0.0
 11
12.0
 21
9.0
 12
0.0
 22
0.0
 32
0.0
 14
0.0
 24
0.0
 34
0.0
 15
0.0
 25
0.0
 35
0.0
146
0.0
 13
0.0
 23
0.0
 33
0.0
 16
1.0
 26
0.0
 36
0.0
 17
0.0
 27
1.0
 37
0.0
 76
     0
330
D6
  0
LAYOUT
  5
22
102
{ACAD_XDICTIONARY
360
1351E
102
}
102
{ACAD_REACTORS
330
1A
102
}
330
1A
100
AcDbPlotSettings
  1

  2
none_device
  4
ISO_A4_(210.00_x_297.00_MM)
  6

 40
7.5
 41
20.0
 42
7.5
 43
20.0
 44
210.0
 45
297.0
 46
11.54999923706054
 47
-13.65000009536743
 48
0.0
 49
0.0
140
0.0
141
0.0
142
1.0
143
8.704084754739808
 70
 11952
 72
     1
 73
     0
 74
     0
  7

 75
     0
147
0.1148885871608098
148
0.0
149
0.0
100
AcDbLayout
  1
Model
 70
     1
 71
     0
 10
0.0
 20
0.0
 11
12.0
 21
9.0
 12
0.0
 22
0.0
 32
0.0
 14
0.0
 24
0.0
 34
0.0
 15
0.0
 25
0.0
 35
0.0
146
0.0
 13
0.0
 23
0.0
 33
0.0
 16
1.0
 26
0.0
 36
0.0
 17
0.0
 27
1.0
 37
0.0
 76
     0
330
1F
331
EA
1001
ACAD_PSEXT
1000
None
1000
None
1000
Not applicable
1000
The layout will not be plotted unless a new plotter configuration name is selected.
1070
     0
  0
MATERIAL
  5
ED
102
{ACAD_XDICTIONARY
360
1F9
102
}
102
{ACAD_REACTORS
330
6A
102
}
330
6A
100
AcDbMaterial
  1
ByBlock
  0
MATERIAL
  5
EC
102
{ACAD_XDICTIONARY
360
1F7
102
}
102
{ACAD_REACTORS
330
6A
102
}
330
6A
100
AcDbMaterial
  1
ByLayer
  0
MATERIAL
  5
EE
102
{ACAD_XDICTIONARY
360
173
102
}
102
{ACAD_REACTORS
330
6A
102
}
330
6A
100
AcDbMaterial
  1
Global
 43
0.0007999999797903
 43
0.0
 43
0.0
 43
0.0
 43
0.0
 43
0.0007999999797903
 43
0.0
 43
0.0
 43
0.0
 43
0.0
 43
1.0
 43
0.0
 43
0.0
 43
0.0
 43
0.0
 43
1.0
 49
0.0007999999797903
 49
0.0
 49
0.0
 49
0.0
 49
0.0
 49
0.0007999999797903
 49
0.0
 49
0.0
 49
0.0
 49
0.0
 49
1.0
 49
0.0
 49
0.0
 49
0.0
 49
0.0
 49
1.0
142
0.0007999999797903
142
0.0
142
0.0
142
0.0
142
0.0
142
0.0007999999797903
142
0.0
142
0.0
142
0.0
142
0.0
142
1.0
142
0.0
142
0.0
142
0.0
142
0.0
142
1.0
144
0.0007999999797903
144
0.0
144
0.0
144
0.0
144
0.0
144
0.0007999999797903
144
0.0
144
0.0
144
0.0
144
0.0
144
1.0
144
0.0
144
0.0
144
0.0
144
0.0
144
1.0
1001
ACAD
1070
    -1
1070
     3
1070
     0
1000

1071
        0
1070
     0
  0
MLEADERSTYLE
  5
12E
102
{ACAD_XDICTIONARY
360
13548
102
}
102
{ACAD_REACTORS
330
12D
102
}
330
12D
100
AcDbMLeaderStyle
170
     2
171
     1
172
     0
 90
        2
 40
0.0
 41
0.0
173
     1
 91
-1056964608
340
14
 92
       -2
290
     1
 42
2.0
291
     1
 43
8.0
  3
Standard
 44
4.0
300

342
11
174
     1
178
     1
175
     1
176
     0
 93
-1056964608
 45
4.0
292
     0
297
     0
 46
4.0
 94
-1056964608
 47
1.0
 49
1.0
140
1.0
293
     1
141
0.0
294
     1
177
     0
142
1.0
295
     0
296
     0
143
3.75
1001
ACAD_MLEADERVER
1070
     2
  0
MLINESTYLE
  5
18
102
{ACAD_REACTORS
330
17
102
}
330
17
100
AcDbMlineStyle
  2
STANDARD
 70
     0
  3

 62
   256
 51
90.0
 52
90.0
 71
     2
 49
0.5
 62
   256
  6
BYLAYER
 49
-0.5
 62
   256
  6
BYLAYER
  0
ACDBPLACEHOLDER
  5
F
102
{ACAD_REACTORS
330
E
102
}
330
E
  0
SCALE
  5
10D
102
{ACAD_REACTORS
330
10C
102
}
330
10C
100
AcDbScale
 70
     0
300
1:1
140
1.0
141
1.0
290
     1
  0
SCALE
  5
1BE
102
{ACAD_REACTORS
330
10C
102
}
330
10C
100
AcDbScale
 70
     0
300
1:2
140
1.0
141
2.0
290
     0
  0
SCALE
  5
1BF
102
{ACAD_REACTORS
330
10C
102
}
330
10C
100
AcDbScale
 70
     0
300
1:4
140
1.0
141
4.0
290
     0
  0
SCALE
  5
1C0
102
{ACAD_REACTORS
330
10C
102
}
330
10C
100
AcDbScale
 70
     0
300
1:5
140
1.0
141
5.0
290
     0
  0
SCALE
  5
1C1
102
{ACAD_REACTORS
330
10C
102
}
330
10C
100
AcDbScale
 70
     0
300
1:8
140
1.0
141
8.0
290
     0
  0
SCALE
  5
1C2
102
{ACAD_REACTORS
330
10C
102
}
330
10C
100
AcDbScale
 70
     0
300
1:10
140
1.0
141
10.0
290
     0
  0
SCALE
  5
1C3
102
{ACAD_REACTORS
330
10C
102
}
330
10C
100
AcDbScale
 70
     0
300
1:16
140
1.0
141
16.0
290
     0
  0
SCALE
  5
1C4
102
{ACAD_REACTORS
330
10C
102
}
330
10C
100
AcDbScale
 70
     0
300
1:20
140
1.0
141
20.0
290
     0
  0
SCALE
  5
1C5
102
{ACAD_REACTORS
330
10C
102
}
330
10C
100
AcDbScale
 70
     0
300
1:30
140
1.0
141
30.0
290
     0
  0
SCALE
  5
1C6
102
{ACAD_REACTORS
330
10C
102
}
330
10C
100
AcDbScale
 70
     0
300
1:40
140
1.0
141
40.0
290
     0
  0
SCALE
  5
1C7
102
{ACAD_REACTORS
330
10C
102
}
330
10C
100
AcDbScale
 70
     0
300
1:50
140
1.0
141
50.0
290
     0
  0
SCALE
  5
1C8
102
{ACAD_REACTORS
330
10C
102
}
330
10C
100
AcDbScale
 70
     0
300
1:100
140
1.0
141
100.0
290
     0
  0
SCALE
  5
1C9
102
{ACAD_REACTORS
330
10C
102
}
330
10C
100
AcDbScale
 70
     0
300
2:1
140
2.0
141
1.0
290
     0
  0
SCALE
  5
1CA
102
{ACAD_REACTORS
330
10C
102
}
330
10C
100
AcDbScale
 70
     0
300
4:1
140
4.0
141
1.0
290
     0
  0
SCALE
  5
1CB
102
{ACAD_REACTORS
330
10C
102
}
330
10C
100
AcDbScale
 70
     0
300
8:1
140
8.0
141
1.0
290
     0
  0
SCALE
  5
1CC
102
{ACAD_REACTORS
330
10C
102
}
330
10C
100
AcDbScale
 70
     0
300
10:1
140
10.0
141
1.0
290
     0
  0
SCALE
  5
1CD
102
{ACAD_REACTORS
330
10C
102
}
330
10C
100
AcDbScale
 70
     0
300
100:1
140
100.0
141
1.0
290
     0
  0
ACDBSECTIONVIEWSTYLE
  5
21A
102
{ACAD_XDICTIONARY
360
1355A
102
}
102
{ACAD_REACTORS
330
219
102
}
330
219
100
AcDbModelDocViewStyle
 70
     0
  3
Metric50
290
     0
100
AcDbSectionViewStyle
 70
     0
 71
     0
 90
      102
 71
     1
340
11
 40
5.0
340
0
340
0
 40
5.0
300
I, O, Q, S, X, Z
 40
10.0
 90
        0
 40
2.5
 90
        0
 71
     2
340
16
 90
       25
340
16
 90
       50
 40
5.0
 40
2.5
 40
5.0
 71
     3
340
11
 40
5.0
 90
        0
 40
15.0
 90
        1
300
%<\AcVar ViewSectionStartId>%-%<\AcVar ViewSectionEndId>% (%<\AcVar ViewScale \f "%sn">%)
 71
     4
300
ANSI31
 40
1.0
 90
        0
290
     0
290
     0
 90
        6
 40
0.0
 40
1.570796326794896
 40
0.2617993877991494
 40
1.308996938995747
 40
-0.2617993877991494
 40
1.832595714594046
  0
TABLESTYLE
  5
7F
102
{ACAD_XDICTIONARY
360
162
102
}
102
{ACAD_REACTORS
330
7E
102
}
330
7E
100
AcDbTableStyle
  3
Standard
 70
     0
 71
     0
 40
1.5
 41
1.5
280
     0
281
     0
  7
Standard
140
4.5
170
     2
 62
     0
 63
     7
283
     0
274
    -2
284
     1
 64
     0
275
    -2
285
     1
 65
     0
276
    -2
286
     1
 66
     0
277
    -2
287
     1
 67
     0
278
    -2
288
     1
 68
     0
279
    -2
289
     1
 69
     0
  7
Standard
140
6.0
170
     5
 62
     0
 63
     7
283
     0
274
    -2
284
     1
 64
     0
275
    -2
285
     1
 65
     0
276
    -2
286
     1
 66
     0
277
    -2
287
     1
 67
     0
278
    -2
288
     1
 68
     0
279
    -2
289
     1
 69
     0
  7
Standard
140
4.5
170
     5
 62
     0
 63
     7
283
     0
274
    -2
284
     1
 64
     0
275
    -2
285
     1
 65
     0
276
    -2
286
     1
 66
     0
277
    -2
287
     1
 67
     0
278
    -2
288
     1
 68
     0
279
    -2
289
     1
 69
     0
  0
VISUALSTYLE
  5
F5
102
{ACAD_XDICTIONARY
360
13532
102
}
102
{ACAD_REACTORS
330
EF
102
}
330
EF
100
AcDbVisualStyle
  2
2dWireframe
 70
     4
 71
     0
 72
     2
 73
     1
 90
        0
 40
-0.6
 41
-30.0
 62
     5
 63
     7
 74
     1
 91
        4
 64
     7
 65
   257
 75
     1
175
     1
 42
1.0
 92
        0
 66
   257
 43
1.0
 76
     1
 77
     6
 78
     2
 67
     7
 79
     5
170
     0
171
     0
290
     0
174
     0
 93
        1
 44
0.0
173
     0
291
     0
 45
0.0
1001
ACAD
1000
AcDbSavedByObjectVersion
1070
     0
  0
VISUALSTYLE
  5
F4
102
{ACAD_XDICTIONARY
360
13530
102
}
102
{ACAD_REACTORS
330
EF
102
}
330
EF
100
AcDbVisualStyle
  2
Basic
 70
     7
 71
     1
 72
     0
 73
     1
 90
        0
 40
-0.6
 41
-30.0
 62
     5
 63
     7
 74
     0
 91
        4
 64
     7
 65
   257
 75
     1
175
     1
 42
1.0
 92
        8
 66
     7
 43
1.0
 76
     1
 77
     6
 78
     2
 67
     7
 79
     5
170
     0
171
     0
290
     0
174
     0
 93
        1
 44
0.0
173
     0
291
     1
 45
0.0
1001
ACAD
1000
AcDbSavedByObjectVersion
1070
     0
  0
VISUALSTYLE
  5
FB
102
{ACAD_XDICTIONARY
360
1353E
102
}
102
{ACAD_REACTORS
330
EF
102
}
330
EF
100
AcDbVisualStyle
  2
Brighten
 70
    12
 71
     2
 72
     2
 73
     1
 90
        0
 40
-0.6
 41
-30.0
 62
     5
 63
     7
 74
     1
 91
        4
 64
     7
 65
   257
 75
     1
175
     1
 42
1.0
 92
        8
 66
     7
 43
1.0
 76
     1
 77
     6
 78
     2
 67
     7
 79
     5
170
     0
171
     0
290
     0
174
     0
 93
        1
 44
50.0
173
     0
291
     1
 45
0.0
1001
ACAD
1000
AcDbSavedByObjectVersion
1070
     0
  0
VISUALSTYLE
  5
FF
102
{ACAD_XDICTIONARY
360
13546
102
}
102
{ACAD_REACTORS
330
EF
102
}
330
EF
100
AcDbVisualStyle
  2
ColorChange
 70
    16
 71
     2
 72
     2
 73
     3
 90
        0
 40
-0.6
 41
-30.0
 62
     5
 63
     8
 74
     1
 91
        4
 64
     7
 65
   257
 75
     1
175
     1
 42
1.0
 92
        8
 66
     8
 43
1.0
 76
     1
 77
     6
 78
     2
 67
     7
 79
     5
170
     0
171
     0
290
     0
174
     0
 93
        1
 44
0.0
173
     0
291
     1
 45
0.0
1001
ACAD
1000
AcDbSavedByObjectVersion
1070
     0
  0
VISUALSTYLE
  5
F8
102
{ACAD_XDICTIONARY
360
13538
102
}
102
{ACAD_REACTORS
330
EF
102
}
330
EF
100
AcDbVisualStyle
  2
Conceptual
 70
     9
 71
     3
 72
     2
 73
     1
 90
        0
 40
-0.6
 41
-30.0
 62
     5
 63
     7
 74
     2
 91
        2
 64
     7
 65
   257
 75
     1
175
     1
 42
40.0
 92
        8
 66
     7
 43
1.0
 76
     1
 77
     6
 78
     2
 67
     7
 79
     3
170
     0
171
     0
290
     0
174
     0
 93
        1
 44
0.0
173
     0
291
     0
 45
0.0
1001
ACAD
1000
AcDbSavedByObjectVersion
1070
     0
  0
VISUALSTYLE
  5
FA
102
{ACAD_XDICTIONARY
360
1353C
102
}
102
{ACAD_REACTORS
330
EF
102
}
330
EF
100
AcDbVisualStyle
  2
Dim
 70
    11
 71
     2
 72
     2
 73
     1
 90
        0
 40
-0.6
 41
-30.0
 62
     5
 63
     7
 74
     1
 91
        4
 64
     7
 65
   257
 75
     1
175
     1
 42
1.0
 92
        8
 66
     7
 43
1.0
 76
     1
 77
     6
 78
     2
 67
     7
 79
     5
170
     0
171
     0
290
     0
174
     0
 93
        1
 44
-50.0
173
     0
291
     1
 45
0.0
1001
ACAD
1000
AcDbSavedByObjectVersion
1070
     0
  0
VISUALSTYLE
  5
1E6
102
{ACAD_XDICTIONARY
360
1354E
102
}
102
{ACAD_REACTORS
330
EF
102
}
330
EF
100
AcDbVisualStyle
  2
EdgeColorOff
 70
    22
 71
     2
 72
     2
 73
     0
 90
        0
 40
-0.6
 41
-30.0
 62
     5
 63
     7
 74
     1
 91
        4
 64
     7
 65
   257
 75
     1
175
     1
 42
1.0
 92
        8
 66
     7
 43
1.0
 76
     1
 77
     6
 78
     2
 67
     7
 79
     5
170
     0
171
     0
290
     0
174
     0
 93
        1
 44
0.0
173
     0
291
     1
 45
0.0
1001
ACAD
1000
AcDbSavedByObjectVersion
1070
     0
  0
VISUALSTYLE
  5
FE
102
{ACAD_XDICTIONARY
360
13544
102
}
102
{ACAD_REACTORS
330
EF
102
}
330
EF
100
AcDbVisualStyle
  2
Facepattern
 70
    15
 71
     2
 72
     2
 73
     1
 90
        0
 40
-0.6
 41
-30.0
 62
     5
 63
     7
 74
     1
 91
        4
 64
     7
 65
   257
 75
     1
175
     1
 42
1.0
 92
        8
 66
     7
 43
1.0
 76
     1
 77
     6
 78
     2
 67
     7
 79
     5
170
     0
171
     0
290
     0
174
     0
 93
        1
 44
0.0
173
     0
291
     1
 45
0.0
1001
ACAD
1000
AcDbSavedByObjectVersion
1070
     0
  0
VISUALSTYLE
  5
F0
102
{ACAD_XDICTIONARY
360
13528
102
}
102
{ACAD_REACTORS
330
EF
102
}
330
EF
100
AcDbVisualStyle
  2
Flat
 70
     0
 71
     2
 72
     1
 73
     1
 90
        2
 40
-0.6
 41
30.0
 62
     5
 63
     7
 74
     0
 91
        0
 64
     7
 65
   257
 75
     1
175
     1
 42
1.0
 92
        8
 66
     7
 43
1.0
 76
     1
 77
     6
 78
     2
 67
     7
 79
     5
170
     0
171
     0
290
     0
174
     0
 93
       13
 44
0.0
173
     0
291
     1
 45
0.0
1001
ACAD
1000
AcDbSavedByObjectVersion
1070
     0
  0
VISUALSTYLE
  5
F1
102
{ACAD_XDICTIONARY
360
1352A
102
}
102
{ACAD_REACTORS
330
EF
102
}
330
EF
100
AcDbVisualStyle
  2
FlatWithEdges
 70
     1
 71
     2
 72
     1
 73
     1
 90
        2
 40
-0.6
 41
30.0
 62
     5
 63
     7
 74
     1
 91
        0
 64
     7
 65
   257
 75
     1
175
     1
 42
1.0
 92
        0
 66
   257
 43
1.0
 76
     1
 77
     6
 78
     2
 67
     7
 79
     5
170
     0
171
     0
290
     0
174
     0
 93
       13
 44
0.0
173
     0
291
     1
 45
0.0
1001
ACAD
1000
AcDbSavedByObjectVersion
1070
     0
  0
VISUALSTYLE
  5
F2
102
{ACAD_XDICTIONARY
360
1352C
102
}
102
{ACAD_REACTORS
330
EF
102
}
330
EF
100
AcDbVisualStyle
  2
Gouraud
 70
     2
 71
     2
 72
     2
 73
     1
 90
        2
 40
-0.6
 41
30.0
 62
     5
 63
     7
 74
     0
 91
        0
 64
     7
 65
   257
 75
     1
175
     1
 42
1.0
 92
        0
 66
     7
 43
1.0
 76
     1
 77
     6
 78
     2
 67
     7
 79
     5
170
     0
171
     0
290
     0
174
     0
 93
       13
 44
0.0
173
     0
291
     1
 45
0.0
1001
ACAD
1000
AcDbSavedByObjectVersion
1070
     0
  0
VISUALSTYLE
  5
F3
102
{ACAD_XDICTIONARY
360
1352E
102
}
102
{ACAD_REACTORS
330
EF
102
}
330
EF
100
AcDbVisualStyle
  2
GouraudWithEdges
 70
     3
 71
     2
 72
     2
 73
     1
 90
        2
 40
-0.6
 41
30.0
 62
     5
 63
     7
 74
     1
 91
        0
 64
     7
 65
   257
 75
     1
175
     1
 42
1.0
 92
        0
 66
   257
 43
1.0
 76
     1
 77
     6
 78
     2
 67
     7
 79
     5
170
     0
171
     0
290
     0
174
     0
 93
       13
 44
0.0
173
     0
291
     1
 45
0.0
1001
ACAD
1000
AcDbSavedByObjectVersion
1070
     0
  0
VISUALSTYLE
  5
F7
102
{ACAD_XDICTIONARY
360
13536
102
}
102
{ACAD_REACTORS
330
EF
102
}
330
EF
100
AcDbVisualStyle
  2
Hidden
 70
     6
 71
     1
 72
     2
 73
     2
 90
        0
 40
-0.6
 41
-30.0
 62
     5
 63
     7
 74
     2
 91
        2
 64
     7
 65
   257
 75
     2
175
     1
 42
40.0
 92
        0
 66
   257
 43
1.0
 76
     1
 77
     6
 78
     2
 67
     7
 79
     3
170
     0
171
     0
290
     0
174
     0
 93
        1
 44
0.0
173
     0
291
     0
 45
0.0
1001
ACAD
1000
AcDbSavedByObjectVersion
1070
     0
  0
VISUALSTYLE
  5
1E4
102
{ACAD_XDICTIONARY
360
1354A
102
}
102
{ACAD_REACTORS
330
EF
102
}
330
EF
100
AcDbVisualStyle
  2
JitterOff
 70
    20
 71
     2
 72
     2
 73
     0
 90
        0
 40
-0.6
 41
-30.0
 62
     5
 63
     7
 74
     1
 91
        4
 64
     7
 65
   257
 75
     1
175
     1
 42
1.0
 92
       10
 66
     7
 43
1.0
 76
     1
 77
     6
 78
     2
 67
     7
 79
     5
170
     0
171
     0
290
     0
174
     0
 93
        1
 44
0.0
173
     0
291
     1
 45
0.0
1001
ACAD
1000
AcDbSavedByObjectVersion
1070
     0
  0
VISUALSTYLE
  5
FD
102
{ACAD_XDICTIONARY
360
13542
102
}
102
{ACAD_REACTORS
330
EF
102
}
330
EF
100
AcDbVisualStyle
  2
Linepattern
 70
    14
 71
     2
 72
     2
 73
     1
 90
        0
 40
-0.6
 41
-30.0
 62
     5
 63
     7
 74
     1
 91
        4
 64
     7
 65
   257
 75
     7
175
     7
 42
1.0
 92
        8
 66
     7
 43
1.0
 76
     1
 77
     6
 78
     2
 67
     7
 79
     5
170
     0
171
     0
290
     0
174
     0
 93
        1
 44
0.0
173
     0
291
     1
 45
0.0
1001
ACAD
1000
AcDbSavedByObjectVersion
1070
     0
  0
VISUALSTYLE
  5
1E5
102
{ACAD_XDICTIONARY
360
1354C
102
}
102
{ACAD_REACTORS
330
EF
102
}
330
EF
100
AcDbVisualStyle
  2
OverhangOff
 70
    21
 71
     2
 72
     2
 73
     0
 90
        0
 40
-0.6
 41
-30.0
 62
     5
 63
     7
 74
     1
 91
        4
 64
     7
 65
   257
 75
     1
175
     1
 42
1.0
 92
        9
 66
     7
 43
1.0
 76
     1
 77
     6
 78
     2
 67
     7
 79
     5
170
     0
171
     0
290
     0
174
     0
 93
        1
 44
0.0
173
     0
291
     1
 45
0.0
1001
ACAD
1000
AcDbSavedByObjectVersion
1070
     0
  0
VISUALSTYLE
  5
F9
102
{ACAD_XDICTIONARY
360
1353A
102
}
102
{ACAD_REACTORS
330
EF
102
}
330
EF
100
AcDbVisualStyle
  2
Realistic
 70
     8
 71
     2
 72
     2
 73
     0
 90
        2
 40
-0.6
 41
30.0
 62
     5
 63
     7
 74
     0
 91
        0
 64
     7
 65
   257
 75
     1
175
     1
 42
1.0
 92
        8
 66
   257
 43
1.0
 76
     1
 77
     6
 78
     2
 67
     7
 79
     3
170
     0
171
     0
290
     0
174
     0
 93
       13
 44
0.0
173
     0
291
     0
 45
0.0
1001
ACAD
1000
AcDbSavedByObjectVersion
1070
     0
  0
VISUALSTYLE
  5
1F3
102
{ACAD_XDICTIONARY
360
13558
102
}
102
{ACAD_REACTORS
330
EF
102
}
330
EF
100
AcDbVisualStyle
  2
Shaded
 70
    27
 71
     2
 72
     2
 73
     1
 90
        2
 40
-0.6
 41
30.0
 62
     5
 63
     7
 74
     0
 91
        4
 64
     7
 65
   257
 75
     1
175
     1
 42
1.0
 92
        8
 66
   257
 43
1.0
 76
     1
 77
     6
 78
     2
 67
     8
 79
     3
170
     0
171
     0
290
     0
174
     0
 93
        5
 44
0.0
173
     0
291
     0
 45
0.0
1001
ACAD
1000
AcDbSavedByObjectVersion
1070
     0
  0
VISUALSTYLE
  5
1F2
102
{ACAD_XDICTIONARY
360
13556
102
}
102
{ACAD_REACTORS
330
EF
102
}
330
EF
100
AcDbVisualStyle
  2
Shaded with edges
 70
    26
 71
     2
 72
     2
 73
     1
 90
        2
 40
-0.6
 41
30.0
 62
     5
 63
     7
 74
     1
 91
        2
 64
     7
 65
   257
 75
     2
175
     1
 42
1.0
 92
        8
 66
   257
 43
1.0
 76
     1
 77
     6
 78
     2
 67
     7
 79
     3
170
     0
171
     0
290
     0
174
     0
 93
        5
 44
0.0
173
     0
291
     0
 45
0.0
1001
ACAD
1000
AcDbSavedByObjectVersion
1070
     0
  0
VISUALSTYLE
  5
1EF
102
{ACAD_XDICTIONARY
360
13550
102
}
102
{ACAD_REACTORS
330
EF
102
}
330
EF
100
AcDbVisualStyle
  2
Shades of Gray
 70
    23
 71
     2
 72
     2
 73
     3
 90
        0
 40
-0.6
 41
-30.0
 62
     5
 63
     7
 74
     2
 91
        2
 64
     7
 65
     7
 75
     1
175
     1
 42
40.0
 92
        8
 66
     7
 43
1.0
 76
     1
 77
     6
 78
     2
 67
     7
 79
     3
170
     0
171
     0
290
     0
174
     0
 93
        1
 44
0.0
173
     0
291
     0
 45
0.0
1001
ACAD
1000
AcDbSavedByObjectVersion
1070
     0
  0
VISUALSTYLE
  5
1F0
102
{ACAD_XDICTIONARY
360
13552
102
}
102
{ACAD_REACTORS
330
EF
102
}
330
EF
100
AcDbVisualStyle
  2
Sketchy
 70
    24
 71
     1
 72
     2
 73
     2
 90
        0
 40
-0.6
 41
-30.0
 62
     5
 63
     7
 74
     2
 91
        2
 64
     7
 65
     7
 75
     1
175
     1
 42
40.0
 92
       11
 66
     7
 43
1.0
 76
     1
 77
     6
 78
     2
 67
     7
 79
     6
170
     0
171
     0
290
     0
174
     0
 93
        1
 44
0.0
173
     0
291
     0
 45
0.0
1001
ACAD
1000
AcDbSavedByObjectVersion
1070
     0
  0
VISUALSTYLE
  5
FC
102
{ACAD_XDICTIONARY
360
13540
102
}
102
{ACAD_REACTORS
330
EF
102
}
330
EF
100
AcDbVisualStyle
  2
Thicken
 70
    13
 71
     2
 72
     2
 73
     1
 90
        0
 40
-0.6
 41
-30.0
 62
     5
 63
     7
 74
     1
 91
        4
 64
     7
 65
   257
 75
     1
175
     1
 42
1.0
 92
       12
 66
     7
 43
1.0
 76
     1
 77
     6
 78
     2
 67
     7
 79
     5
170
     0
171
     0
290
     0
174
     0
 93
        1
 44
0.0
173
     0
291
     1
 45
0.0
1001
ACAD
1000
AcDbSavedByObjectVersion
1070
     0
  0
VISUALSTYLE
  5
F6
102
{ACAD_XDICTIONARY
360
13534
102
}
102
{ACAD_REACTORS
330
EF
102
}
330
EF
100
AcDbVisualStyle
  2
Wireframe
 70
     5
 71
     0
 72
     2
 73
     0
 90
        0
 40
-0.6
 41
-30.0
 62
     5
 63
     7
 74
     1
 91
        4
 64
     7
 65
   257
 75
     1
175
     1
 42
1.0
 92
        0
 66
   257
 43
1.0
 76
     1
 77
     6
 78
     2
 67
     7
 79
     3
170
     0
171
     0
290
     0
174
     0
 93
        1
 44
0.0
173
     0
291
     0
 45
0.0
1001
ACAD
1000
AcDbSavedByObjectVersion
1070
     0
  0
VISUALSTYLE
  5
1F1
102
{ACAD_XDICTIONARY
360
13554
102
}
102
{ACAD_REACTORS
330
EF
102
}
330
EF
100
AcDbVisualStyle
  2
X-Ray
 70
    25
 71
     2
 72
     2
 73
     1
 90
        1
 40
0.5
 41
-30.0
 62
     5
 63
     7
 74
     1
 91
        0
 64
     7
 65
   257
 75
     1
175
     1
 42
1.0
 92
        8
 66
     7
 43
1.0
 76
     1
 77
     6
 78
     2
 67
     7
 79
     3
170
     0
171
     0
290
     0
174
     0
 93
       13
 44
0.0
173
     0
291
     0
 45
0.0
1001
ACAD
1000
AcDbSavedByObjectVersion
1070
     0
  0
DICTIONARYVAR
  5
146
102
{ACAD_REACTORS
330
5E
102
}
330
5E
100
DictionaryVariables
280
     0
  1
1:1
  0
DICTIONARYVAR
  5
259
102
{ACAD_REACTORS
330
5E
102
}
330
5E
100
DictionaryVariables
280
     0
  1
3.500000
  0
DICTIONARYVAR
  5
25A
102
{ACAD_REACTORS
330
5E
102
}
330
5E
100
DictionaryVariables
280
     0
  1
acadiso.lin
  0
DICTIONARYVAR
  5
145
102
{ACAD_REACTORS
330
5E
102
}
330
5E
100
DictionaryVariables
280
     0
  1
STANDARD
  0
DICTIONARYVAR
  5
84
102
{ACAD_REACTORS
330
5E
102
}
330
5E
100
DictionaryVariables
280
     0
  1
STANDARD
  0
DICTIONARYVAR
  5
227
102
{ACAD_REACTORS
330
5E
102
}
330
5E
100
DictionaryVariables
280
     0
  1
Metric50
  0
DICTIONARYVAR
  5
228
102
{ACAD_REACTORS
330
5E
102
}
330
5E
100
DictionaryVariables
280
     0
  1
Metric50
  0
DICTIONARYVAR
  5
5F
102
{ACAD_REACTORS
330
5E
102
}
330
5E
100
DictionaryVariables
280
     0
  1
2
  0
DICTIONARYVAR
  5
63
102
{ACAD_REACTORS
330
5E
102
}
330
5E
100
DictionaryVariables
280
     0
  1
1
  0
DICTIONARYVAR
  5
134C9
102
{ACAD_REACTORS
330
5E
102
}
330
5E
100
DictionaryVariables
280
     0
  1
0
  0
DICTIONARYVAR
  5
1AE
102
{ACAD_REACTORS
330
5E
102
}
330
5E
100
DictionaryVariables
280
     0
  1
0
  0
DICTIONARYVAR
  5
1AF
102
{ACAD_REACTORS
330
5E
102
}
330
5E
100
DictionaryVariables
280
     0
  1
0
  0
DICTIONARYVAR
  5
134C7
102
{ACAD_REACTORS
330
5E
102
}
330
5E
100
DictionaryVariables
280
     0
  1
2
  0
DICTIONARYVAR
  5
134C6
102
{ACAD_REACTORS
330
5E
102
}
330
5E
100
DictionaryVariables
280
     0
  1
1
  0
DICTIONARYVAR
  5
13519
102
{ACAD_REACTORS
330
5E
102
}
330
5E
100
DictionaryVariables
280
     0
  1
80.000000
  0
DICTIONARYVAR
  5
13518
102
{ACAD_REACTORS
330
5E
102
}
330
5E
100
DictionaryVariables
280
     0
  1
5.000000
  0
DICTIONARYVAR
  5
134C8
102
{ACAD_REACTORS
330
5E
102
}
330
5E
100
DictionaryVariables
280
     0
  1
127
  0
DICTIONARYVAR
  5
1351A
102
{ACAD_REACTORS
330
5E
102
}
330
5E
100
DictionaryVariables
280
     0
  1
2
  0
DICTIONARY
  5
1355C
330
21C
100
AcDbDictionary
280
     1
281
     1
  3
ACAD_XREC_ROUNDTRIP
360
1355D
  0
DICTIONARY
  5
13521
330
D3
100
AcDbDictionary
280
     1
281
     1
  3
ACAD_XREC_ROUNDTRIP
360
13522
  0
DICTIONARY
  5
13523
330
D7
100
AcDbDictionary
280
     1
281
     1
  3
ACAD_XREC_ROUNDTRIP
360
13524
  0
DICTIONARY
  5
1351E
330
22
100
AcDbDictionary
280
     1
281
     1
  3
ACAD_XREC_ROUNDTRIP
360
1351F
  0
DICTIONARY
  5
1F9
330
ED
100
AcDbDictionary
280
     1
281
     1
  3
ACAD_XREC_ROUNDTRIP
360
13526
  3
FBXASSET
360
1FA
  0
DICTIONARY
  5
1F7
330
EC
100
AcDbDictionary
280
     1
281
     1
  3
ACAD_XREC_ROUNDTRIP
360
13525
  3
FBXASSET
360
1F8
  0
DICTIONARY
  5
173
330
EE
100
AcDbDictionary
280
     1
281
     1
  3
ACAD_XREC_ROUNDTRIP
360
13527
  3
BUMPTILE
360
175
  3
DIFFUSETILE
360
174
  3
FBXASSET
360
1FB
  3
OPACITYTILE
360
176
  3
REFLECTIONTILE
360
177
  0
DICTIONARY
  5
13548
330
12E
100
AcDbDictionary
280
     1
281
     1
  3
ACAD_XREC_ROUNDTRIP
360
13549
  0
DICTIONARY
  5
1355A
330
21A
100
AcDbDictionary
280
     1
281
     1
  3
ACAD_XREC_ROUNDTRIP
360
1355B
  0
DICTIONARY
  5
162
330
7F
100
AcDbDictionary
280
     1
281
     1
  3
ACAD_ROUNDTRIP_2008_TABLESTYLE_CELLSTYLEMAP
360
1351B
  3
ACAD_XREC_ROUNDTRIP
360
13520
  0
DICTIONARY
  5
13532
330
F5
100
AcDbDictionary
280
     1
281
     1
  3
ACAD_XREC_ROUNDTRIP
360
13533
  0
DICTIONARY
  5
13530
330
F4
100
AcDbDictionary
280
     1
281
     1
  3
ACAD_XREC_ROUNDTRIP
360
13531
  0
DICTIONARY
  5
1353E
330
FB
100
AcDbDictionary
280
     1
281
     1
  3
ACAD_XREC_ROUNDTRIP
360
1353F
  0
DICTIONARY
  5
13546
330
FF
100
AcDbDictionary
280
     1
281
     1
  3
ACAD_XREC_ROUNDTRIP
360
13547
  0
DICTIONARY
  5
13538
330
F8
100
AcDbDictionary
280
     1
281
     1
  3
ACAD_XREC_ROUNDTRIP
360
13539
  0
DICTIONARY
  5
1353C
330
FA
100
AcDbDictionary
280
     1
281
     1
  3
ACAD_XREC_ROUNDTRIP
360
1353D
  0
DICTIONARY
  5
1354E
330
1E6
100
AcDbDictionary
280
     1
281
     1
  3
ACAD_XREC_ROUNDTRIP
360
1354F
  0
DICTIONARY
  5
13544
330
FE
100
AcDbDictionary
280
     1
281
     1
  3
ACAD_XREC_ROUNDTRIP
360
13545
  0
DICTIONARY
  5
13528
330
F0
100
AcDbDictionary
280
     1
281
     1
  3
ACAD_XREC_ROUNDTRIP
360
13529
  0
DICTIONARY
  5
1352A
330
F1
100
AcDbDictionary
280
     1
281
     1
  3
ACAD_XREC_ROUNDTRIP
360
1352B
  0
DICTIONARY
  5
1352C
330
F2
100
AcDbDictionary
280
     1
281
     1
  3
ACAD_XREC_ROUNDTRIP
360
1352D
  0
DICTIONARY
  5
1352E
330
F3
100
AcDbDictionary
280
     1
281
     1
  3
ACAD_XREC_ROUNDTRIP
360
1352F
  0
DICTIONARY
  5
13536
330
F7
100
AcDbDictionary
280
     1
281
     1
  3
ACAD_XREC_ROUNDTRIP
360
13537
  0
DICTIONARY
  5
1354A
330
1E4
100
AcDbDictionary
280
     1
281
     1
  3
ACAD_XREC_ROUNDTRIP
360
1354B
  0
DICTIONARY
  5
13542
330
FD
100
AcDbDictionary
280
     1
281
     1
  3
ACAD_XREC_ROUNDTRIP
360
13543
  0
DICTIONARY
  5
1354C
330
1E5
100
AcDbDictionary
280
     1
281
     1
  3
ACAD_XREC_ROUNDTRIP
360
1354D
  0
DICTIONARY
  5
1353A
330
F9
100
AcDbDictionary
280
     1
281
     1
  3
ACAD_XREC_ROUNDTRIP
360
1353B
  0
DICTIONARY
  5
13558
330
1F3
100
AcDbDictionary
280
     1
281
     1
  3
ACAD_XREC_ROUNDTRIP
360
13559
  0
DICTIONARY
  5
13556
330
1F2
100
AcDbDictionary
280
     1
281
     1
  3
ACAD_XREC_ROUNDTRIP
360
13557
  0
DICTIONARY
  5
13550
330
1EF
100
AcDbDictionary
280
     1
281
     1
  3
ACAD_XREC_ROUNDTRIP
360
13551
  0
DICTIONARY
  5
13552
330
1F0
100
AcDbDictionary
280
     1
281
     1
  3
ACAD_XREC_ROUNDTRIP
360
13553
  0
DICTIONARY
  5
13540
330
FC
100
AcDbDictionary
280
     1
281
     1
  3
ACAD_XREC_ROUNDTRIP
360
13541
  0
DICTIONARY
  5
13534
330
F6
100
AcDbDictionary
280
     1
281
     1
  3
ACAD_XREC_ROUNDTRIP
360
13535
  0
DICTIONARY
  5
13554
330
1F1
100
AcDbDictionary
280
     1
281
     1
  3
ACAD_XREC_ROUNDTRIP
360
13555
  0
XRECORD
  5
1355D
102
{ACAD_REACTORS
330
1355C
102
}
330
1355C
100
AcDbXrecord
280
     1
102
DISPLAYNAME
  1
Metric50
102
FLAGS
 90
        0
  0
XRECORD
  5
13522
102
{ACAD_REACTORS
330
13521
102
}
330
13521
100
AcDbXrecord
280
     1
102
SHADEPLOT
 70
     0
102
SHADEPLOTRESLEVEL
 70
     2
102
SHADEPLOTCUSTOMDPI
 70
   300
  0
XRECORD
  5
13524
102
{ACAD_REACTORS
330
13523
102
}
330
13523
100
AcDbXrecord
280
     1
102
SHADEPLOT
 70
     0
102
SHADEPLOTRESLEVEL
 70
     2
102
SHADEPLOTCUSTOMDPI
 70
   300
  0
XRECORD
  5
1351F
102
{ACAD_REACTORS
330
1351E
102
}
330
1351E
100
AcDbXrecord
280
     1
102
SHADEPLOT
 70
     0
102
SHADEPLOTRESLEVEL
 70
     2
102
SHADEPLOTCUSTOMDPI
 70
   300
  0
XRECORD
  5
13526
102
{ACAD_REACTORS
330
1F9
102
}
330
1F9
100
AcDbXrecord
280
     1
102
MATERIAL
148
0.0
149
0.0
149
0.0
 93
        0
 94
       63
282
     0
 72
     1
 77
     1
171
     1
175
     1
179
     1
273
     0
  0
XRECORD
  5
1FA
102
{ACAD_REACTORS
330
1F9
102
}
330
1F9
100
AcDbXrecord
280
     1
 70
     1
 90
429727718
  1
D62C5603-E3A1-4AEA-B7FB-FE5D8D0755AF
310
504B03040A0000080000CC70623B3DEE336E79000000790000001B0000006175746F6465736B2D64657369676E2D7061636B6167652E786D6C3C3F786D6C2076657273696F6E3D22312E302220656E636F64696E673D227574662D3822203F3E3C666F726D6174733E3C666F726D61743E687474703A2F2F736368656D612E
310
6175746F6465736B2E636F6D2F64657369676E2D7061636B6167652F323030393C2F666F726D61743E3C2F666F726D6174733E504B0304140006080800CC70623BD486FD9CA0000000F4000000130000005B436F6E74656E745F54797065735D2E786D6C7D8EC10E82300C865F65E91D8A1E8C310C0EEA1BF002731658846E
310
D98AC1B77784ABF1D8FE5FBFBF75BBCE937A534CCEB38643598122B6FEE978D0B0485F9C41B54DDD7D022595594E1A469170414C76A4D9A4D207E29CF43ECE46F218070CC6BECC4078ACAA135ACF422C856C0E68EA1BF5669944DDD7BCDE7B1F8E415D77AECB980613C2E4AC91FC167A2B244592486606FC29C8FD7F045B9A
310
EF7053A7E60B504B0304140006080800CC70623B853B8169EB0000007C01000008000000636F72652E786D6C8D90416EC3201045AF62CDB6C206821CC7C244919D9CA01740401C94182C03558F5F9C3852BBEB6A467FFE9B197D7EFC9E1EC5975982F5AE035262288C535E5B377690E21535501C055FBC8FBF6C503839990E
310
5619041F179FE64D52DE45E362569DD7661365082642A11EB9E920A89B99642953CC8E702F67A9EE7234257977194EC9EAE275C4EABCCF5EAD5940D4AC6F0E35A568B8F43562CD7046CD199FD07E60174276A7BE677B5EADB0E0D14EEFFB6A31321A0D82627C4084204C3F096B71DD52F6819B16635EADF63F509AF53FA164
310
5DDCD1EDDD17164090FCC8732078B56691CB33A85CD7DCC40F504B0304140006080800CC70623B55019EA25F0000007C00000007000000636E782E786D6C4DCB3B0E80201045D1AD90E915ED2CF8AC45050C11660C8261F98AB1B07AC9C97D42D718D865D3E909258CFD00CCE24AC6E326A164D74DC0B4128928FF32603847
310
2BA13128B1252AC747C6BAB984FC68F0B87FE8960A5C09FE86CFB69FBA01504B0304140006080800CC70623BDBABAAF470010000D40300000C0000006662782F636F72652E786D6CC553D16E823014FD95A6AF4B694182CC941A83FA05FB810A9511A125A5257EFE2E82712ECEB8A7F100CD39F7F69E734AF9FADC366850B6
310
AF8DCE7018308C942E4C59EB2AC3DE1D498AD15A706B8CFB56869196ADCAF00863C12B6B7C374385D14E6907A836A59A41D9F7CA615434B0C8705F7CAA5606D23BA8E84F41278B93AC54100640439DE0BDB320004D43C63716C7C399D30917DCFBBA9CD9BA8469F5B156168B24CED3F7248AC8769F27244EB73B92EED8862C
310
B7F13E0C179B3C8F979C8ECD82BBBABDAA2BAC924E9558448CBD9330242CFA08E3154B5651FCC6D215639C8EE5774DBE2B5F6CF2B5768B68963BB5F5588420E442FC700B1139D4CB01F450C1E918227C2E09DF070D8140C84E1E9AAB8F1340832A9CB13130A5F1376A908D57309505ECF2A0DF179C4E9D30F5B239B87E3823
310
7A79C6F31DE1A8A5AEC08474B03C7837EAE4938639B44E5932B833D2C6B6B279CDC613877FA26EE21F4A2A4C63EC7F29A2F301D1F9F7A0E37D145F504B0304140006080800CC70623B9C113CC27E0000009D0000000B0000006662782F636E782E786D6C4DCCDF0A83201C86E15B91DFB94BFB330DD428C8FB886521330DA7
310
6397BF1A1DECE883878F57749FCDA1B7892F1BBC047A23808C7F84D9FA55424E0BE6803A256208E9EF06C84F9B91703228B1C690F78B66B34CD9A5439DF5CF0BFBF65E35BCA1B8D6A5C6F540381E886698B5741C695F9503EBA150A2F8958E3DC3EA0B504B0304140006080800CC70623B7DF2F77C2A010000120200003100
310
00006662782F41393633353835312D344632462D344230382D423046372D3739314545314133324237412F636F72652E786D6C8D51DB8EC22014FC15C2939B0D2DB4B45643319AE817EC0F6041255A68B86CFCFC856D4D76DF7CE190393373060EDB3DC707F856CE6B6B7A480A0C81328395DA5C7B18C3057510EC3873D686
310
3F34088C18550F330C39BB3A1BA7051AAC09CA84841A2BD5020AEF55806078A44B0FFD7053A328440C89E1EFC52486BBB8AA8214A99D789CF9E05200300FC927E4FB4D5B375D43103D5527440FB843077C5AA3F5861C8F645F5787F59E95B390B318B55CE45AA638FAA2957BD7248B390B7A7CC51F9C124149C82B8C378810
310
84AB2F42B7B8DD56F413775B8C5999E9FF4471926F8AA236A1AE96B8B3CC434E5839373893369E1FAF30EA395917409EB7F26AF8801C171837A4A6AC9C89E9F9C9B1A58BA30FD6A5EF5DDDCF894B9AD9B6A59C957943A9FCAE2FD5BC4DFE03504B0304140006080800CC70623BAD7543B64E01000033030000300000006662
310
782F41393633353835312D344632462D344230382D423046372D3739314545314133324237412F636E782E786D6CD593CD6EC32010845F0571AD6CE3D48AD20813A9873E410FBD12D82434182C7EAAE6EDBB2424CD25871E7B41D6EC30B3FA84F9E67BB2E40B4234DE8DB46F1925E094D7C6ED479AD3AE5951B2113C789FEE
310
6C943839C1488B4C05DF079FE72A69D8C96C13AAD6B8631503449F83828872B949AC57D26200B826A308D316B4064D6E46FCDA41C05550DC9E483A00797BFD207EFB092A45DE9514C1BBD22178396BD39D891265658C238DEA00936C654E5E433CB65A26D9F6EDB5EBC14EBF49A45CB856E66048291F6939A9A81BB5C89177
310
38143CA680F4AA299D66A042CEB3354A2684DC9D8D178FE0D9B8B41CAAD720F880EE7EF93C0C18769E099ECC04D5A102C8049A8A05632F4DDF376CF1DE0F6BB65C2F8627B65A33C6BB62177CEBBDAD973006829F89F22E814B54F4BC2BE347F8AA8F681390B50FA73F804400B5F542E796F19FF974E7F78DB802FE05E20750
310
4B0304140006080800CC70623BE75B7789680500003C100000340000006662782F41393633353835312D344632462D344230382D423046372D3739314545314133324237412F6F626A656374732E786D6CAD575B8F9B3818FD2B887D06C22499CB8AA1CA655245D5B455A356FB305264C061D8018C6C3393D95FBFC7600890
310
A4CD5EF210B0B1BFEBF98E3F7B1FF6596ABC522E1296DF9BAE3D320D9A872C4AF2F8DE2CE5CEBA358D0FBEC719939D65A691938CDE9B6ADAF4BD98B3B2D05311DD91329583D9D5FC0F438434A7A611A644887B5384CF34233629258BA878B12322891DEFF6B66BD70BFB62634E8AE781D082709A4B588AF91C528CDA28B73F
310
1C998EEF39EABBEFA97FBD6A7C7E9553F9D3D79FE442923C3C523610337627CB87ABE99D359D4CC6D6E4FACAB5E6ABF9D2726FC6A3C5F56271377BB88362213924694B38DD99FE47C48627A1E7D49F5A8BB5E1A74C0A599ED3B0F21F1E56366B89112D681E218F0915D0D6F17AD41FBA2A369DCF6335D62ABBD39779D5DDD1
310
11D4D8DE3CBB96B2E04FB8202E41051754A1AA8E8F76B4C6DFE810B580B1547F4B84911149794252234D024EF8BBE963A95AE27B3D310A9D5C215C7960FAEE415ED75694C6AFB17BCACA5D99A60A9AA65F217B0BFC53292ACB92BF283FAD0D3621576592CB5BED907C2FA8E9DF794E35E97BEA31BED21FEB401ABB94C44839
310
DCACBF0E1C5DA8DA5B2F4DFFD32AD86F543D9E565E7056502E157C00AD2671CD534549AB752FCA9CDA00677A313F04E51B22FF19E57B300579E3C97EB29F682D92935CEC18CF901B7B54FD8C51F362B56FC72FE0B3C1EAE335EDCCBF5AEC39ADB17DC238973F804BA5E6F6BFE7AF1FB32E523BE9F3BD571418E3631DCA4D48
310
5250CF639223210A9446CA30052EDF057BD35F8329C1ECD84552BF0DC8D18BE7BCE23BFE6BD960AB4A7DE79923A103BEBD80F911CBAA2C60DB19B01CF164A5583B772EE6D3FFA56666CBCDA74DC97724A48F9A58967497E489C4D979006FD7A05E227A1EBDD0F737C623387A9C844D3709995625106D157315F8B8392CD4E0
310
A0B9A720C4BE9829CEF37EA1E13111214D53925356365ADA634861B52519DD27A00AEB808EAF0628E6F435519D446F45CF2C9CF5214F0A15B2F6D06B79DA3EE3CBF7F56780D2F4E7EF73A0F5E5B02A38D07DC852C6B7C1FBB6664213E0C39E3EBA7FF4E1AD23EA2829407C85E586727488B751B2DB9502BC7B228A3FD68B6E
310
A65A22397E690AA8D158D7E404EC8CDA235CC3B7D1898680131CEC2CDF2638C65196279577750F15884AEE19F94199155B92B13297978469D4F8D358DF0AEF7631E28DC8F0D9F437D5D39A83B2231A1D52D543813A824EF8D44BCFF2FA6A31BD1E8DAD87F1CCB526B3879935BF59CDADD5C37479BB1CDD4CA7B3556B516589
310
EF352754B706114D9C885EC9131DE6EFEB43D99AFE2391C2F958179413D7CFEF6B1B6DB1E7600F00DE6E5C67454A339A4BA2E0FBA85ED26F045D454F463DBFCE484C2F90F2E5E3666003662ED8F755951A7D1BECD5B30B550B2785C8E7320B7292A4838DDA71BBC863ED7613CAF659337A3354231D4FF4A182A54904C2898C
310
98B28C4AD0CE056CCF332A80986E571EE9DBC305BB5FEB7E509220A58D25CF042D712A806AC0AD0C657FDEF80D2D9CEAA2EE4D1C76F60BFE74219A06527D6F82DF6412526107381E55E353090704D085B52408A8913C4ED159D79BDA71BB4BC506F4831350EB6F975CD22D69BF7AC49B91A2C0A9DDA3D5CA36AD20FC478E37
310
E61844E2352865EBCB61A275A65283CAAA9DD27703B4102F5AF51EF5F573B75CBB5AD38BC845F7A49F82A0966A49C2E3EA5EA0ECD326CD965F1DB402C6FA8B51A4658C5C5E2EC9E214602E55810345408596591009A82E7E7FFACA19EEA299B14A0081A705CB3296EBC14CDF658DCD336EA6D1136881AAEB87B81AB9EE53D5
310
F5EB8BC8362082DA24122F98680A4E7930C01A0079749CEA14382A0783E5EBA5A10F8C098456A03D6A4AEB6BB881E2513747552A5DB22C7EDAF83BD5528081A365F7FF06504B0304140006080000CC70623B000000000000000000000000350000006662782F41393633353835312D344632462D344230382D423046372D37
310
39314545314133324237412F76657274696365732E62696E504B0304140006080800CC70623BF270F1330600000004000000360000006662782F41393633353835312D344632462D344230382D423046372D3739314545314133324237412F747269616E676C65732E62696E636660600000504B0304140006080000CC7062
310
3B000000000000000000000000370000006662782F41393633353835312D344632462D344230382D423046372D3739314545314133324237412F617474726962757465732E62696E504B0304140006080800CC70623B08DA0BD19000000041010000360000006662782F41393633353835312D344632462D344230382D4230
310
46372D3739314545314133324237412F6469726563746F72792E786D6C858F410AC3201045AF22B36F53E9A60B35CBEEBAE80D244E44489C6234F4F835464A48035D0DF398FF9F8AF63D0E6CC63039F212F8F9020C7D47C6792B21C5FE7403D62A1188E2E60C98D7234A5830286103A55745067B9D86B8A3CF9C7F90C11DE6
310
07FB144396D7B6A82D282E9A152AD114D5EF2CB866EEE831B8EEA07A7BB5A8D7D61A2BAAEB7FD5F70921FF497D00504B0304140006080800CC70623BEDD1DC58FD000000A00100003B0000006662782F41393633353835312D344632462D344230382D423046372D3739314545314133324237412F7265736F75726365732F
310
636F72652E786D6C8D504B6E833010BD0A9A6D65B00922041947112427E8052C33A156828DFCA97AFC9A40A576D7CDCCE87D344F8F9FBFE667F689CE6B6B3A6039850C8DB2A336530731DC4903D95970676DF82583CCC8193B5861107C72362E3BA4AC096842428D1D7107A5F7182053CF7474E0D507CE32973124857FE48B
310
540F3961CEF244279DE03EB81420DB9EAC1384436FA353E879B1B182C7A8C75DA3C7F453DF353A1075D537A7BA6464B8F535A99AE14A9A2BBD90E350DD183B5CFABE3AF262350B1EF4FC9351399401471025A527C218A1E53BAB5A5AB765F5469B96525EACF23FA6B88CFF34456DC2A1DCE36E360F82A5202F42F062ED2BAD
310
579969AFDD8A6F504B010214000A0000080000CC70623B3DEE336E79000000790000001B00000000000000000000000000000000006175746F6465736B2D64657369676E2D7061636B6167652E786D6C504B01021400140006080800CC70623BD486FD9CA0000000F40000001300000000000000000000000000B20000005B
310
436F6E74656E745F54797065735D2E786D6C504B01021400140006080800CC70623B853B8169EB0000007C010000080000000000000000000000000083010000636F72652E786D6C504B01021400140006080800CC70623B55019EA25F0000007C000000070000000000000000000000000094020000636E782E786D6C504B
310
01021400140006080800CC70623BDBABAAF470010000D40300000C00000000000000000000000000180300006662782F636F72652E786D6C504B01021400140006080800CC70623B9C113CC27E0000009D0000000B00000000000000000000000000B20400006662782F636E782E786D6C504B01021400140006080800CC70
310
623B7DF2F77C2A010000120200003100000000000000000000000000590500006662782F41393633353835312D344632462D344230382D423046372D3739314545314133324237412F636F72652E786D6C504B01021400140006080800CC70623BAD7543B64E010000330300003000000000000000000000000000D2060000
310
6662782F41393633353835312D344632462D344230382D423046372D3739314545314133324237412F636E782E786D6C504B01021400140006080800CC70623BE75B7789680500003C10000034000000000000000000000000006E0800006662782F41393633353835312D344632462D344230382D423046372D3739314545
310
314133324237412F6F626A656374732E786D6C504B01021400140006080000CC70623B0000000000000000000000003500000000000000000000000000280E00006662782F41393633353835312D344632462D344230382D423046372D3739314545314133324237412F76657274696365732E62696E504B01021400140006
310
080800CC70623BF270F133060000000400000036000000000000000000000000007B0E00006662782F41393633353835312D344632462D344230382D423046372D3739314545314133324237412F747269616E676C65732E62696E504B01021400140006080000CC70623B0000000000000000000000003700000000000000
310
000000000000D50E00006662782F41393633353835312D344632462D344230382D423046372D3739314545314133324237412F617474726962757465732E62696E504B01021400140006080800CC70623B08DA0BD1900000004101000036000000000000000000000000002A0F00006662782F41393633353835312D344632
310
462D344230382D423046372D3739314545314133324237412F6469726563746F72792E786D6C504B01021400140006080800CC70623BEDD1DC58FD000000A00100003B000000000000000000000000000E1000006662782F41393633353835312D344632462D344230382D423046372D3739314545314133324237412F7265
310
736F75726365732F636F72652E786D6C504B0506000000000E000E0080040000641100000000
  0
XRECORD
  5
13525
102
{ACAD_REACTORS
330
1F7
102
}
330
1F7
100
AcDbXrecord
280
     1
102
MATERIAL
148
0.0
149
0.0
149
0.0
 93
        0
 94
       63
282
     0
 72
     1
 77
     1
171
     1
175
     1
179
     1
273
     0
  0
XRECORD
  5
1F8
102
{ACAD_REACTORS
330
1F7
102
}
330
1F7
100
AcDbXrecord
280
     1
 70
     1
 90
429727718
  1
30362254-06B7-45E0-A893-8CFA70E3D6BC
310
504B03040A0000080000CC70623B3DEE336E79000000790000001B0000006175746F6465736B2D64657369676E2D7061636B6167652E786D6C3C3F786D6C2076657273696F6E3D22312E302220656E636F64696E673D227574662D3822203F3E3C666F726D6174733E3C666F726D61743E687474703A2F2F736368656D612E
310
6175746F6465736B2E636F6D2F64657369676E2D7061636B6167652F323030393C2F666F726D61743E3C2F666F726D6174733E504B0304140006080800CC70623BD486FD9CA0000000F4000000130000005B436F6E74656E745F54797065735D2E786D6C7D8EC10E82300C865F65E91D8A1E8C310C0EEA1BF002731658846E
310
D98AC1B77784ABF1D8FE5FBFBF75BBCE937A534CCEB38643598122B6FEE978D0B0485F9C41B54DDD7D022595594E1A469170414C76A4D9A4D207E29CF43ECE46F218070CC6BECC4078ACAA135ACF422C856C0E68EA1BF5669944DDD7BCDE7B1F8E415D77AECB980613C2E4AC91FC167A2B244592486606FC29C8FD7F045B9A
310
EF7053A7E60B504B0304140006080800CC70623B1EC5D7A3EB0000007C01000008000000636F72652E786D6C8D90416EC3201045AF82665B6103C6756C6122AB4D4ED00B204C5C94182C03558F5F9C3852BBEB6A467FFE9B197D71FC9E6FE8CBACC17AD7032D0820E3B41FAD9B7A48F1820F808E52ACDEC75F36404ECDA687
310
4D0629A6D5A76597B477D1B89855E747B38B2A041301E95B6E7A08FAD3CCAA50296647B8168BD2573599823EBB0CA76447F43862C7BCCF5EAC59410E4DDD9C7973C2755553CCCFA4C603E3040F1565ED3B1FDE4E432BCA0D9622DAF9795FAF464533826484B498524CD807E51D79ED187F21878E10516EF63F505AC67F42C9
310
BA58B1FDDD071640D2FCC87D2045B96591CB3DA85CB7DCE40F504B0304140006080800CC70623B55019EA25F0000007C00000007000000636E782E786D6C4DCB3B0E80201045D1AD90E915ED2CF8AC45050C11660C8261F98AB1B07AC9C97D42D718D865D3E909258CFD00CCE24AC6E326A164D74DC0B4128928FF32603847
310
2BA13128B1252AC747C6BAB984FC68F0B87FE8960A5C09FE86CFB69FBA01504B0304140006080800CC70623B8C9102E971010000D40300000C0000006662782F636F72652E786D6CC5535B6E833010BC8AE5DF0A6C08340F1947A84D4ED00B38C6A128602363A31CBFCB234A53A551FA553EC09AD9F5CE8C31DB9E9B1AF5CA
310
7695D1198E428A91D2D214952E33ECDD315861B4E5CC1AE3BE9561A445A3323CC098B3D21ADFCE9034DA29ED00D5A6503328BA4E398C640D8B0C77F253352214DE4145770A5B214FA2546114020D759C75CE8200340D19DE981F0F6746269C33EFAB6266AB02A655C74A59CCF365BADC27CB5D902ED22848F6340DF238A141
310
BE88E2F57B92BFEDF23523433367AE6A2EEAA455C2A902F398D2751045018D3FA264435F3771F242571B4A1919CA6F9A7C5B3CD9E42BED16F12C776AEB308F40C848FC700B1139D4891EF410CEC810227CC6846F8386402064270EF5C5C709A05E49676C024C61FC95EA45ED154CA5211D1FF4FB8291A913A68E9B83EBBB33
310
E2A7673CDE118E5AE8124C0807CB8377834E366998436B950D7A7746DAD846D4CFD978E0F04FD455FC5D49D2D4C6FE9722321F10997F0F32DC47FE05504B0304140006080800CC70623BFFEA85907E0000009D0000000B0000006662782F636E782E786D6C4DCCD10A83201886E15B91FFDC95D95A811AB6F23E625948A6C3
310
E9D8E5AF46073BFAE0E1E365ED67B3E8ADC3CB78C7815C7240DA3DFC64DCC221C519D7805AC182F7F1EF06C88D9BE6703008B6049F9E274D7A1E938DBB5AE3D6131B2589BA0D3D965551E0B2EA732C9B9A624AAEB41E3A557677029960D9AFB4EF11165F504B0304140006080800CC70623B4FEEA4082C0100001202000031
310
0000006662782F39464131463745442D413632322D343644302D413938332D3331353338454246344243312F636F72652E786D6C8D515B6EC32010BC0AE2AB55850DD871ED0813254D72825EC00192A2C460F1A872FC42ED48ED5F7E00CDCECCCEB26C731F6FE05B39AFADE921293004CA082BB5B9F43086336A21D870E6AC
310
0D7F68109861543DCC30E4ECE26C9C164858139409093556AA051CBC570102714B8F1E7AF1A5C6A11862480C7F2DA6415C878B2A4891CA89C7990F2E050073937C42DE1DB7E4F87ED8A36D4329AA9B3D46DBAEAD504556557BD81DEBDD0761E52CE42C462D17B996298E3E6BE59E35C962CE821E1FF18553435012728A7187
310
0841987E927A8D9B35ADDF70BBC6989599FE4F1427F9A4286A132ABAC49D651EF234CD5CE04CDA78BA3DC2A8FB645D00B9DF8B57E215725C60BCA2A463E54C4CE327C7A65E1C7DB02E7DEFCBF594B864C5CA6CDBD49C957943E9FA5D5FBAF336F90F504B0304140006080800CC70623BAD7543B64E01000033030000300000
310
006662782F39464131463745442D413632322D343644302D413938332D3331353338454246344243312F636E782E786D6CD593CD6EC32010845F0571AD6CE3D48AD20813A9873E410FBD12D82434182C7EAAE6EDBB2424CD25871E7B41D6EC30B3FA84F9E67BB2E40B4234DE8DB46F1925E094D7C6ED479AD3AE5951B2113C
310
789FEE6C943839C1488B4C05DF079FE72A69D8C96C13AAD6B8631503449F83828872B949AC57D26200B826A308D316B4064D6E46FCDA41C05550DC9E483A00797BFD207EFB092A45DE9514C1BBD22178396BD39D891265658C238DEA00936C654E5E433CB65A26D9F6EDB5EBC14EBF49A45CB856E66048291F6939A9A81BB5
310
C8917738143CA680F4AA299D66A042CEB3354A2684DC9D8D178FE0D9B8B41CAAD720F880EE7EF93C0C18769E099ECC04D5A102C8049A8A05632F4DDF376CF1DE0F6BB65C2F8627B65A33C6BB62177CEBBDAD973006829F89F22E814B54F4BC2BE347F8AA8F681390B50FA73F804400B5F542E796F19FF974E7F78DB802FE05
310
E207504B0304140006080800CC70623B16AB87BA640500003C100000340000006662782F39464131463745442D413632322D343644302D413938332D3331353338454246344243312F6F626A656374732E786D6CAD575B6FA33818FD2B887DE6924B3BED8A326A92B68A663B534DD4D13E548A0C38942D60649B369D5FBFC7
310
600890A493BDE42160637FD7F31D7FF63E6FB3D478A55C242CBF3247B66B1A340F5994E4F19559CA8D75611A9F7D8F33263BCB4C232719BD32D5B4E97B316765A1A722BA21652A07B3B7B33F0D11D29C9A46981221AE4C113ED38CD8A4942CA2E2C58E882476BCD9DA23BB5ED8171B73523C0F841684D35CC252CCE79062D4
310
468DFA43D7747CCF51DF7D4FFDEB5593E3AB9CCA9FBEFE241792E4E19EB28198C968BAB8199F5D5A67D3E9C49A9E8F47D6EC76B6B0469F26EEFC7C3EBFBCBEB98462213924694B38DD98FE1D62C393D073EA4FADC5DAF04326852CCF6958F90F0F2B9BB5C48816348F90C7840A68EB78EDF68723159BCEE7891A6B95DDE9D3
310
BCEAEEE8086A6C6F9E5D4B59F0175C10A7A0820BAA5055C7473B5AE3CFDD452D602CD5DF12616444529E90D448938013FE6EFA58AA96F85E4F8C42275708571E98FE6827AF6B2B4AE3D7D83D64E5A64C53054DD3AF90BD06FEA9149565C94FCA0F6B834DC85599E4F2423B24DF0B6AFA979E534DFA9E7A4CC6FA631D486393
310
921829879BF5D781A373557BCB85E97FB90DB62B558F8795179C15944B051F40AB495CF35451D26A4727654E6D8033BD98EF82F21D91FF8AF2DD9982BCF1643BDD4EB516C9492E368C67C88DED563FC36D5EACF66DFF057C3658BDBFA69DF9578B3DA735B64F18C7F20770A9D45CFCF7FCF563D6456A277DBEF78A02637CA2
310
43B90A490AEAB94F72244481D24819A6C0E59B606BFA4B3025981DBB48EAB701D97BF19C577CC77F2D1B6C55A9EF3C732474C0B727303F625995056C3B02963D9EAC146BE78EC5FCEC7FA999EBC5EACBAAE41B12D27B4D2C0BBA49F244E2ECDC81B76B502F113D8F5EE8FB1BE3111CDD4FC2AA9B844CAB1288B68AB90A7CDC
310
1C166AB0D3DC5310625FCC14E779BFD0709F8890A629C9292B1B2DED31A4B0DA928CEE135085754027E3018A397D4D5427D15BD1330B677DC8934285AC3DF45A9EB68FF8F2B8FC0A509AFEECFD0FF2DE25CC6047F7214B195F07EFEB9A094D800F7BFAE8FED187B78EA8A3A400F115961BCAD1215E47C966530AF0EE8128FE
310
58CEBB996A8964FFA529A046635D9353B0336A8F700DDF46271A024E70B0B37C9DE01847591E54DED53D54202AB947E4076556AC49C6CA5C9E1226B7F1A7B1BE15DEED62C41B91E1B3E9AFAAA735036547343A925075041DF0A9979E893B391F8FCFA6967B3EFB644DCF6E5CEBFAE272625DCC6FAF3FB93793C5F90CE1EF57
310
407342756B10D1C489E8953CD1617E5CEECAD6F4EF8914CE5D5D504E5C3F1F9736DA62CFC11E00BCDDB8CC8A9466349744C1F75EBDA4DF09BA8A9E8C7A7E9991989E20E5DBDD6A6003664ED8F7A04A8DBE0DF6EAD9B9AA858342E47399053949D2C146EDB85DE4B176BB0965FBAC19BD19AA918E27FA50C1D22402E144464C
310
59462568E704B6E71915404CB72B8FF4EDE184DDAF753F284990D2C6926782963815403548A70C657FDEF80D2D9CEAA2AE4C1C76F60BFE74219A06527D6582DF6412526107381E55E353090704D085B52408D0933C4ED159D79BDA71BB4BC506F4831350EB6F979CD22D69BF7AC49B91A2C0A9DDA3D5CA36AD20FC478E37E6
310
1844E2352865EBCB6EA275A652E3836BE04EFB400BF1A2556F515F1FBB35B2AB35BD889C744FFA1004B5544B121E57F70215746DD2F5E2C1412B602CBF19455AC6C8E5E9922C4E01E65215385004546899059180EAFCF7A707CE7017CD8CDB0410789AB32C63B91E5CEBBBACB17AC6CD347A022D5075FD106377347AAABA7E
310
7D11590744509B44E205134DC1290F06580320F78E537D3D73540E06CB970B431F185308AD40BBD794D6D77003C5A36E8EAA54BA64597CD8F83BD552A080A365F7FF06504B0304140006080000CC70623B000000000000000000000000350000006662782F39464131463745442D413632322D343644302D413938332D3331
310
353338454246344243312F76657274696365732E62696E504B0304140006080800CC70623BF270F1330600000004000000360000006662782F39464131463745442D413632322D343644302D413938332D3331353338454246344243312F747269616E676C65732E62696E636660600000504B0304140006080000CC70623B
310
000000000000000000000000370000006662782F39464131463745442D413632322D343644302D413938332D3331353338454246344243312F617474726962757465732E62696E504B0304140006080800CC70623B08DA0BD19000000041010000360000006662782F39464131463745442D413632322D343644302D413938
310
332D3331353338454246344243312F6469726563746F72792E786D6C858F410AC3201045AF22B36F53E9A60B35CBEEBAE80D244E44489C6234F4F835464A48035D0DF398FF9F8AF63D0E6CC63039F212F8F9020C7D47C6792B21C5FE7403D62A1188E2E60C98D7234A5830286103A55745067B9D86B8A3CF9C7F90C11DE607
310
FB144396D7B6A82D282E9A152AD114D5EF2CB866EEE831B8EEA07A7BB5A8D7D61A2BAAEB7FD5F70921FF497D00504B0304140006080800CC70623B0D6EF93BFE000000A00100003B0000006662782F39464131463745442D413632322D343644302D413938332D3331353338454246344243312F7265736F75726365732F63
310
6F72652E786D6C8D50596E833010BD0A9ADFCA60B334011947A8694ED00B586642AC041B79A97AFC9A40A5F6AF3F33A3B7689E1E3F7DCD8FEC139DD7D6F4C0720A191A65476DA61E62B892236427C19DB5E1970C322367EC618541F0C9D9B8EC90B226A009093576C41D94DE63804C3DD2D18357379C652E63480A7FCF17A9
310
EE72C29CE5894E3AC17D702940B63D59270887DE46A7D0F36263058F518FBB468FE9A7BE6A7420864373B8D4873369AA8691FA421B3294352543C5CAF65C0F6FEF43CB8BD52C78D0F34F46E550061C419494B6843142CB0F5677F4B52BEB177AEC28E5C52AFF638ACBF84F53D42654E51E77B379102C05791282176B5F693D
310
CB4C7BED567C03504B010214000A0000080000CC70623B3DEE336E79000000790000001B00000000000000000000000000000000006175746F6465736B2D64657369676E2D7061636B6167652E786D6C504B01021400140006080800CC70623BD486FD9CA0000000F40000001300000000000000000000000000B20000005B
310
436F6E74656E745F54797065735D2E786D6C504B01021400140006080800CC70623B1EC5D7A3EB0000007C010000080000000000000000000000000083010000636F72652E786D6C504B01021400140006080800CC70623B55019EA25F0000007C000000070000000000000000000000000094020000636E782E786D6C504B
310
01021400140006080800CC70623B8C9102E971010000D40300000C00000000000000000000000000180300006662782F636F72652E786D6C504B01021400140006080800CC70623BFFEA85907E0000009D0000000B00000000000000000000000000B30400006662782F636E782E786D6C504B01021400140006080800CC70
310
623B4FEEA4082C0100001202000031000000000000000000000000005A0500006662782F39464131463745442D413632322D343644302D413938332D3331353338454246344243312F636F72652E786D6C504B01021400140006080800CC70623BAD7543B64E010000330300003000000000000000000000000000D5060000
310
6662782F39464131463745442D413632322D343644302D413938332D3331353338454246344243312F636E782E786D6C504B01021400140006080800CC70623B16AB87BA640500003C1000003400000000000000000000000000710800006662782F39464131463745442D413632322D343644302D413938332D3331353338
310
454246344243312F6F626A656374732E786D6C504B01021400140006080000CC70623B0000000000000000000000003500000000000000000000000000270E00006662782F39464131463745442D413632322D343644302D413938332D3331353338454246344243312F76657274696365732E62696E504B01021400140006
310
080800CC70623BF270F133060000000400000036000000000000000000000000007A0E00006662782F39464131463745442D413632322D343644302D413938332D3331353338454246344243312F747269616E676C65732E62696E504B01021400140006080000CC70623B0000000000000000000000003700000000000000
310
000000000000D40E00006662782F39464131463745442D413632322D343644302D413938332D3331353338454246344243312F617474726962757465732E62696E504B01021400140006080800CC70623B08DA0BD190000000410100003600000000000000000000000000290F00006662782F39464131463745442D413632
310
322D343644302D413938332D3331353338454246344243312F6469726563746F72792E786D6C504B01021400140006080800CC70623B0D6EF93BFE000000A00100003B000000000000000000000000000D1000006662782F39464131463745442D413632322D343644302D413938332D3331353338454246344243312F7265
310
736F75726365732F636F72652E786D6C504B0506000000000E000E0080040000641100000000
  0
XRECORD
  5
13527
102
{ACAD_REACTORS
330
173
102
}
330
173
100
AcDbXrecord
280
     1
102
MATERIAL
148
0.0
149
0.0
149
0.0
 93
        0
 94
       63
282
     0
 72
     1
 77
     1
171
     1
175
     1
179
     1
273
     0
  0
XRECORD
  5
175
102
{ACAD_REACTORS
330
173
102
}
330
173
100
AcDbXrecord
280
     1
270
     1
271
     1
  0
XRECORD
  5
174
102
{ACAD_REACTORS
330
173
102
}
330
173
100
AcDbXrecord
280
     1
270
     1
271
     1
  0
XRECORD
  5
1FB
102
{ACAD_REACTORS
330
173
102
}
330
173
100
AcDbXrecord
280
     1
 70
     0
 90
1673772943
  1
ECE7A1D2-D628-4531-984C-D00F80459256
310
504B03040A0000080000CC70623B3DEE336E79000000790000001B0000006175746F6465736B2D64657369676E2D7061636B6167652E786D6C3C3F786D6C2076657273696F6E3D22312E302220656E636F64696E673D227574662D3822203F3E3C666F726D6174733E3C666F726D61743E687474703A2F2F736368656D612E
310
6175746F6465736B2E636F6D2F64657369676E2D7061636B6167652F323030393C2F666F726D61743E3C2F666F726D6174733E504B0304140006080800CC70623BD486FD9CA0000000F4000000130000005B436F6E74656E745F54797065735D2E786D6C7D8EC10E82300C865F65E91D8A1E8C310C0EEA1BF002731658846E
310
D98AC1B77784ABF1D8FE5FBFBF75BBCE937A534CCEB38643598122B6FEE978D0B0485F9C41B54DDD7D022595594E1A469170414C76A4D9A4D207E29CF43ECE46F218070CC6BECC4078ACAA135ACF422C856C0E68EA1BF5669944DDD7BCDE7B1F8E415D77AECB980613C2E4AC91FC167A2B244592486606FC29C8FD7F045B9A
310
EF7053A7E60B504B0304140006080800CC70623BD9DDAED0EC0000007C01000008000000636F72652E786D6C8D90416EC3201045AF82665B61836D9CD8C2444DD39CA01740405C94182C03558F5F9C3852BBEB6A467FFE9B197D7EF89E6EE8CB2CC17A37002D0820E394D7D68D03A478C17B4007C117EFE32F1B20272733C0
310
2A83E0E3E2D3BC49CABB685CCCAAF3DA6CA20CC14440EA969B0182FA34932C648AD911AEC52CD5558EA6A0CF2EC329598D1E47ACCEFBECC59A050463A7EA5833865FEBDD0E37353BE3EE8DBDE3F6786A48D375FBF6CC78B9C282473B3DEFABC5C86834888A900E538A49F5419B9EB47DD5BC907D4F082F57FB1F28CDFA9F50
310
B22ED6D5F6EE030B20687EE43E10BC5CB3C8E51E54AE6B6EE207504B0304140006080800CC70623B55019EA25F0000007C00000007000000636E782E786D6C4DCB3B0E80201045D1AD90E915ED2CF8AC45050C11660C8261F98AB1B07AC9C97D42D718D865D3E909258CFD00CCE24AC6E326A164D74DC0B4128928FF326038
310
472BA13128B1252AC747C6BAB984FC68F0B87FE8960A5C09FE86CFB69FBA01504B0304140006080800CC70623BA24EB22D72010000D40300000C0000006662782F636F72652E786D6CC5535B6E833010BC8AE5DF0A6C5E49888CA3A6694ED00B38E05014B091B1518EDFE511A5A9D228FD2A1F60CDEC7A67C6986DCE4D8D7A
310
69BA4AAB0C073EC548AA5C17952A33ECECD15B61B4E1CC686DBF9561A44423333CC098B3D268D7CE50AE9595CA02AA74216750749DB418E5352C32DCE59FB211BE70162ABA93DF8AFC244AE9073ED050C759670D0840D390E18DF9F1706664C23973AE2A66B62A605A75ACA4C13C4976E1364A12EF355A2EBD384AF65EFA96
310
BC7B8BED2EA6719AAE16FB8491A199335B351775B991C2CA02F390D2D40B028F861F41BCA68B7518BFD0D59A524686F29B26D7164F36B94AD9289CE54E6D1DE6010819891F6E21228B3AD1831EC219194284CF98F06DD01008846CC5A1BEF83801D4CBDC6A1303536877A57A513B0953A94FC707FDBE6064EA84A9E3E6E0FA
310
EE8CF0E9198F7784A316AA0413C2C2F2E0ECA0934D1AE6D05A69BCDE9E91D2A611F573361E38FC1375157F5752AE6B6DFE4B11990F88CCBF0719EE23FF02504B0304140006080800CC70623B408A7D3B7C0000009D0000000B0000006662782F636E782E786D6C4DCCD10A83201886E15B91FFDC552A92A0064DBC8F581632
310
D3703A76F9ABD1C18E3E78F878E5F0D9027ABBFCF2292AE86E2D20171F69F6715550CB827B40839639A5F2770314A7CD293819B45C73AAFB45B35BA61ACAA1C1C7E7855C58C15BC331339661262CC762340413D68D77DA5B42298546CBE6573AF60CEB2F504B0304140006080800CC70623B449FB9BD290100001202000031
310
0000006662782F36394639363044362D344446342D343946362D394244322D3234314243333846323333332F636F72652E786D6C8D515B6EC32010BC0AE22B55850D98B871848994463E412FE002495162B07854397EA176A4F62F3F2C9A9D991D587EB84F37F0AD7D30CEF6905418026DA553C65E7A98E219ED203808EE9D
310
8B7F6810D871D23D2C3014FCE25D9A57483A1BB58D19B54EE9151C43D0110279CB971E06F9A5A7B11A53CC8C70ADE6515EC78BAE4895DB992778883E0700CB907242D17643D7E2538BD869608875438BBAE38922CAC8F1BDD90DB4691A5E2F42C153326A951B95E398B3D1FE599322163C9AE9115F7A3D46ADA0A018778810
310
84E907617BDCEE297BC5BB3DC6BC2EF47FA234AB2745C9D8D8D035EE220B50105E2F0DC1954B9FB747187D9F9D8FA0CCDB042D5FA0C015C65B42DF78BD10F3F3B363CB56C7109DCFDFBBB97E662ED92EB62D13BC2E1BCAE5777DB9966D8A1F504B0304140006080800CC70623BAD7543B64E01000033030000300000006662
310
782F36394639363044362D344446342D343946362D394244322D3234314243333846323333332F636E782E786D6CD593CD6EC32010845F0571AD6CE3D48AD20813A9873E410FBD12D82434182C7EAAE6EDBB2424CD25871E7B41D6EC30B3FA84F9E67BB2E40B4234DE8DB46F1925E094D7C6ED479AD3AE5951B2113C789FEE
310
6C943839C1488B4C05DF079FE72A69D8C96C13AAD6B8631503449F83828872B949AC57D26200B826A308D316B4064D6E46FCDA41C05550DC9E483A00797BFD207EFB092A45DE9514C1BBD22178396BD39D891265658C238DEA00936C654E5E433CB65A26D9F6EDB5EBC14EBF49A45CB856E66048291F6939A9A81BB5C89177
310
38143CA680F4AA299D66A042CEB3354A2684DC9D8D178FE0D9B8B41CAAD720F880EE7EF93C0C18769E099ECC04D5A102C8049A8A05632F4DDF376CF1DE0F6BB65C2F8627B65A33C6BB62177CEBBDAD973006829F89F22E814B54F4BC2BE347F8AA8F681390B50FA73F804400B5F542E796F19FF974E7F78DB802FE05E20750
310
4B0304140006080800CC70623B8D05915C650500003B100000340000006662782F36394639363044362D344446342D343946362D394244322D3234314243333846323333332F6F626A656374732E786D6CAD575B6FA33814FE2B887D06429276DA1565D4266D158D3A339A6846FB502932E050B66023DB74D2FDF5FB190C01
310
9276B2973C046C8ECFF53B17071F77456EBD502133CEAE6CDF9DD81665314F32965ED995DA3A17B6F5310C04E7AA47665B8C14F4CAD6DB7618A48257A5D94AE89654B91AEDDEDDFC61C998326A5B714EA4BCB265FC440BE2924AF184CA6737218AB8E976E7FA6E4338649B0A523E8D98964450A6A029F619B8588D52FE7039
310
B1BD30F0F4F730D0FF866AF6369557DB33949F31A9088B0F848DD8CCFCF9F2767A76E99CCDE733677E3EF59D9BBB9BA5E37F984D16E78BC5E5F5ED25044B25C0C96822E8D60EEFE11B91C581D77CEA34368A1F5329E68CD1B8B61F16D63A1B8E092D294B10C78C4A48EB593D192E7DED9BDEE7995E1B91FDEDD3ACEA9FE831
310
6A756F9F7D4D79F4274C90A7A04248AA51D5F8C718DAE06FB2F75AC4796EBE65D22A88A22223B995679120E2D50E41AA49C260C046A35368846B0BECD0DFF3EBEB8AD4F835768F69B9ADF25C43D30E6B646F807FAA64AD59F61715C7A54127C4AACA98BA3006A9D792DAE165E0D59B61A01FB3A9F9D838D2DAE62445C86166
310
F37564E842E7DE6A69879FEEA2DD5AE7E371E1A5E025154AC307D06A03D73EB5978C58FFA4C8E9033066E0F3BD53BEC1F39F91BE7B55103791EDE6BBB991A2046172CB4581D8B893FA674DDA17A77B3B7C413D1B511FD2743BFF8A38F03A658705E3ADF8015C3A3417FF3D7E439FF591DA0B5F18BC20C1B8981957AE6392A3
310
F43C640C01D1A0B4728E2DD4F26DB4B3C3152A252A3B4E913CEC1C72F012782FF88EFF8637AA552DBEF76408E8A8DE9E50F9E1CB3A2DA0DB1B6039A893B56063DC5B3E3FFB5F72E67AB9FEB4AEC496C4F4C1149625DD662C53E89D7BF0F6151A046260D1337DFDC94502430F83B0EE07A130A224BCAD7DAE1D9FB6CD422FF6
310
920702629C4BB9AE79C12F243C6432A6794E18E5552BA56B431AAB5D91317302B2B071E86C3A42B1A02F999E24061403B5D0EB639195DA655DD3EBEAB4FB862DDF579F014AD0E73C22F99E28DA57FB98E75C6CA2D74D53086D600F4786E0FE3144B771A8A7B900F03594DB8A633CBC49B2EDB69228BB479CF863B5E807AAAB
310
23872F6DFEB4129B949CA33823F58830E86D65621E10047D9DB34D862E8EAC3C2ABC2F7B2C40D67CDFE01F5545B92105AF983AC54D93D69E56FB8E797F88913F898A9FEC705D3F9D1B54EC8426FB500D40A03BD0119B06E1B95DDC7EB8F6975367793EBD70E66733DFB9BC982F9CE564727731999F5D4ECFCE3B8D6A4DC2A0
310
6D50FD148437D110834A64C6CDDF57FBACB5C307A2A477DFE4939736CFEF2B175371E0E10CF0DD1D5C15654E0BCA14D1E87DD02FF93782A162C0A3D95F1524A52770F972BF1EE9809D13CE7DD599467F8ECE9ADD85CE85A34CD45355448C64F9E8A031DC2D596ACC6E5DD93D9B82DE2EF5CAF81363A8E47996A0DE24564A79
310
4115AACE09C55E14540231FDA13C319787134EBF34E3A022514E5B4D9E0826E25C02D5805B15ABE1BEF51B26383D445DD9E875EE33FE4C22DA16427D65A3BCA92CA6D28DD01DF5DC53330704308475351050232CCD31583787BA75774AFB06E5070DD0C8EF484E19968C5D83BA5B90B244D31E54D55A372320FE4786B7EA58
310
44E135AA5467CB7EA333A61683CC6A8C3257034C10CF46F40EF9F5BE59BE5BD30C3C72D235E95D10345C1D45445A5F0BB47E46A5EBE5570F9380B5FA629579952296A773720405982B9DE04011506178964401AA8BDF1FBF0A8EAB6861DD6580C0E38217056766716DAEB2D6FA0917D3E4116581EADB879C4E7CFFB11EFACD
310
3D641311495D92C8676CB409A72D18610D803CE8A626049E8EC1887CB5B44CC39883690DDA8399B4B9855B481E7D71D4A9D22F96E5BB73BF5793020C02137BF837504B0304140006080000CC70623B000000000000000000000000350000006662782F36394639363044362D344446342D343946362D394244322D32343142
310
43333846323333332F76657274696365732E62696E504B0304140006080800CC70623BF270F1330600000004000000360000006662782F36394639363044362D344446342D343946362D394244322D3234314243333846323333332F747269616E676C65732E62696E636660600000504B0304140006080000CC70623B0000
310
00000000000000000000370000006662782F36394639363044362D344446342D343946362D394244322D3234314243333846323333332F617474726962757465732E62696E504B0304140006080800CC70623B08DA0BD19000000041010000360000006662782F36394639363044362D344446342D343946362D394244322D
310
3234314243333846323333332F6469726563746F72792E786D6C858F410AC3201045AF22B36F53E9A60B35CBEEBAE80D244E44489C6234F4F835464A48035D0DF398FF9F8AF63D0E6CC63039F212F8F9020C7D47C6792B21C5FE7403D62A1188E2E60C98D7234A5830286103A55745067B9D86B8A3CF9C7F90C11DE607FB14
310
4396D7B6A82D282E9A152AD114D5EF2CB866EEE831B8EEA07A7BB5A8D7D61A2BAAEB7FD5F70921FF497D00504B0304140006080800CC70623BCA768048FE000000A00100003B0000006662782F36394639363044362D344446342D343946362D394244322D3234314243333846323333332F7265736F75726365732F636F72
310
652E786D6C8D50596E833010BD0A9ADFCA60D600328E9AA639412F609909B1126CE4A5EAF16B0295DABFFECC8CDEA2797AECF8353F924FB44E193D409E5248504B332A3D0D10FC95B4901C39B3C6F85F3248B49871801506CE266BC2B243D2688FDA47549B11775038871E12F988C7004EDE7016A9083E2ADC3D5D84BC8B09
310
D33C8D74D471E6BC8D0192EDC93A815B742658898E651BCB59086ADC356A8C3FD555A1055ED7E7E254D615792D0F075295F585746FF53B694EE78A565DD736979A65AB9933AFE69F8CD2A2F038022F28ED489E135A7CE4554F9BBEA85E68DB53CAB255FEC71496F19FA6A0B42F8B3DEE6673C0F318E4497096AD7DC5F52C33
310
EEB55BFE0D504B010214000A0000080000CC70623B3DEE336E79000000790000001B00000000000000000000000000000000006175746F6465736B2D64657369676E2D7061636B6167652E786D6C504B01021400140006080800CC70623BD486FD9CA0000000F40000001300000000000000000000000000B20000005B436F
310
6E74656E745F54797065735D2E786D6C504B01021400140006080800CC70623BD9DDAED0EC0000007C010000080000000000000000000000000083010000636F72652E786D6C504B01021400140006080800CC70623B55019EA25F0000007C000000070000000000000000000000000095020000636E782E786D6C504B0102
310
1400140006080800CC70623BA24EB22D72010000D40300000C00000000000000000000000000190300006662782F636F72652E786D6C504B01021400140006080800CC70623B408A7D3B7C0000009D0000000B00000000000000000000000000B50400006662782F636E782E786D6C504B01021400140006080800CC70623B
310
449FB9BD290100001202000031000000000000000000000000005A0500006662782F36394639363044362D344446342D343946362D394244322D3234314243333846323333332F636F72652E786D6C504B01021400140006080800CC70623BAD7543B64E010000330300003000000000000000000000000000D20600006662
310
782F36394639363044362D344446342D343946362D394244322D3234314243333846323333332F636E782E786D6C504B01021400140006080800CC70623B8D05915C650500003B10000034000000000000000000000000006E0800006662782F36394639363044362D344446342D343946362D394244322D32343142433338
310
46323333332F6F626A656374732E786D6C504B01021400140006080000CC70623B0000000000000000000000003500000000000000000000000000250E00006662782F36394639363044362D344446342D343946362D394244322D3234314243333846323333332F76657274696365732E62696E504B010214001400060808
310
00CC70623BF270F13306000000040000003600000000000000000000000000780E00006662782F36394639363044362D344446342D343946362D394244322D3234314243333846323333332F747269616E676C65732E62696E504B01021400140006080000CC70623B00000000000000000000000037000000000000000000
310
00000000D20E00006662782F36394639363044362D344446342D343946362D394244322D3234314243333846323333332F617474726962757465732E62696E504B01021400140006080800CC70623B08DA0BD190000000410100003600000000000000000000000000270F00006662782F36394639363044362D344446342D
310
343946362D394244322D3234314243333846323333332F6469726563746F72792E786D6C504B01021400140006080800CC70623BCA768048FE000000A00100003B000000000000000000000000000B1000006662782F36394639363044362D344446342D343946362D394244322D3234314243333846323333332F7265736F
310
75726365732F636F72652E786D6C504B0506000000000E000E0080040000621100000000
  0
XRECORD
  5
176
102
{ACAD_REACTORS
330
173
102
}
330
173
100
AcDbXrecord
280
     1
270
     1
271
     1
  0
XRECORD
  5
177
102
{ACAD_REACTORS
330
173
102
}
330
173
100
AcDbXrecord
280
     1
270
     1
271
     1
  0
XRECORD
  5
13549
102
{ACAD_REACTORS
330
13548
102
}
330
13548
100
AcDbXrecord
280
     1
102
ACAD_ROUNDTRIP_2012_MLEADER_STYLE
298
     1
  0
XRECORD
  5
1355B
102
{ACAD_REACTORS
330
1355A
102
}
330
1355A
100
AcDbXrecord
280
     1
102
DISPLAYNAME
  1
Metric50
102
FLAGS
 90
        0
  0
CELLSTYLEMAP
  5
1351B
102
{ACAD_REACTORS
330
162
102
}
330
162
100
AcDbCellStyleMap
 90
        3
300
CELLSTYLE
  1
TABLEFORMAT_BEGIN
 90
        5
170
     1
 91
        0
 92
    32768
 62
   257
 93
        1
300
CONTENTFORMAT
  1
CONTENTFORMAT_BEGIN
 90
        0
 91
        0
 92
      512
 93
        0
300

 40
0.0
140
1.0
 94
        5
 62
     0
340
11
144
6.0
309
CONTENTFORMAT_END
171
     1
301
MARGIN
  1
CELLMARGIN_BEGIN
 40
1.5
 40
1.5
 40
1.5
 40
1.5
 40
4.5
 40
4.5
309
CELLMARGIN_END
 94
        6
 95
        1
302
GRIDFORMAT
  1
GRIDFORMAT_BEGIN
 90
        0
 91
        1
 62
     0
 92
       -2
340
14
 93
        0
 40
1.125
309
GRIDFORMAT_END
 95
        2
302
GRIDFORMAT
  1
GRIDFORMAT_BEGIN
 90
        0
 91
        1
 62
     0
 92
       -2
340
14
 93
        0
 40
1.125
309
GRIDFORMAT_END
 95
        4
302
GRIDFORMAT
  1
GRIDFORMAT_BEGIN
 90
        0
 91
        1
 62
     0
 92
       -2
340
14
 93
        0
 40
1.125
309
GRIDFORMAT_END
 95
        8
302
GRIDFORMAT
  1
GRIDFORMAT_BEGIN
 90
        0
 91
        1
 62
     0
 92
       -2
340
14
 93
        0
 40
1.125
309
GRIDFORMAT_END
 95
       16
302
GRIDFORMAT
  1
GRIDFORMAT_BEGIN
 90
        0
 91
        1
 62
     0
 92
       -2
340
14
 93
        0
 40
1.125
309
GRIDFORMAT_END
 95
       32
302
GRIDFORMAT
  1
GRIDFORMAT_BEGIN
 90
        0
 91
        1
 62
     0
 92
       -2
340
14
 93
        0
 40
1.125
309
GRIDFORMAT_END
309
TABLEFORMAT_END
  1
CELLSTYLE_BEGIN
 90
        1
 91
        1
300
_TITLE
309
CELLSTYLE_END
300
CELLSTYLE
  1
TABLEFORMAT_BEGIN
 90
        5
170
     1
 91
        0
 92
        0
 62
   257
 93
        1
300
CONTENTFORMAT
  1
CONTENTFORMAT_BEGIN
 90
        0
 91
        0
 92
      512
 93
        0
300

 40
0.0
140
1.0
 94
        5
 62
     0
340
11
144
4.5
309
CONTENTFORMAT_END
171
     1
301
MARGIN
  1
CELLMARGIN_BEGIN
 40
1.5
 40
1.5
 40
1.5
 40
1.5
 40
4.5
 40
4.5
309
CELLMARGIN_END
 94
        6
 95
        1
302
GRIDFORMAT
  1
GRIDFORMAT_BEGIN
 90
        0
 91
        1
 62
     0
 92
       -2
340
14
 93
        0
 40
1.125
309
GRIDFORMAT_END
 95
        2
302
GRIDFORMAT
  1
GRIDFORMAT_BEGIN
 90
        0
 91
        1
 62
     0
 92
       -2
340
14
 93
        0
 40
1.125
309
GRIDFORMAT_END
 95
        4
302
GRIDFORMAT
  1
GRIDFORMAT_BEGIN
 90
        0
 91
        1
 62
     0
 92
       -2
340
14
 93
        0
 40
1.125
309
GRIDFORMAT_END
 95
        8
302
GRIDFORMAT
  1
GRIDFORMAT_BEGIN
 90
        0
 91
        1
 62
     0
 92
       -2
340
14
 93
        0
 40
1.125
309
GRIDFORMAT_END
 95
       16
302
GRIDFORMAT
  1
GRIDFORMAT_BEGIN
 90
        0
 91
        1
 62
     0
 92
       -2
340
14
 93
        0
 40
1.125
309
GRIDFORMAT_END
 95
       32
302
GRIDFORMAT
  1
GRIDFORMAT_BEGIN
 90
        0
 91
        1
 62
     0
 92
       -2
340
14
 93
        0
 40
1.125
309
GRIDFORMAT_END
309
TABLEFORMAT_END
  1
CELLSTYLE_BEGIN
 90
        2
 91
        1
300
_HEADER
309
CELLSTYLE_END
300
CELLSTYLE
  1
TABLEFORMAT_BEGIN
 90
        5
170
     1
 91
        0
 92
        0
 62
   257
 93
        1
300
CONTENTFORMAT
  1
CONTENTFORMAT_BEGIN
 90
        0
 91
        0
 92
      512
 93
        0
300

 40
0.0
140
1.0
 94
        2
 62
     0
340
11
144
4.5
309
CONTENTFORMAT_END
171
     1
301
MARGIN
  1
CELLMARGIN_BEGIN
 40
1.5
 40
1.5
 40
1.5
 40
1.5
 40
4.5
 40
4.5
309
CELLMARGIN_END
 94
        6
 95
        1
302
GRIDFORMAT
  1
GRIDFORMAT_BEGIN
 90
        0
 91
        1
 62
     0
 92
       -2
340
14
 93
        0
 40
1.125
309
GRIDFORMAT_END
 95
        2
302
GRIDFORMAT
  1
GRIDFORMAT_BEGIN
 90
        0
 91
        1
 62
     0
 92
       -2
340
14
 93
        0
 40
1.125
309
GRIDFORMAT_END
 95
        4
302
GRIDFORMAT
  1
GRIDFORMAT_BEGIN
 90
        0
 91
        1
 62
     0
 92
       -2
340
14
 93
        0
 40
1.125
309
GRIDFORMAT_END
 95
        8
302
GRIDFORMAT
  1
GRIDFORMAT_BEGIN
 90
        0
 91
        1
 62
     0
 92
       -2
340
14
 93
        0
 40
1.125
309
GRIDFORMAT_END
 95
       16
302
GRIDFORMAT
  1
GRIDFORMAT_BEGIN
 90
        0
 91
        1
 62
     0
 92
       -2
340
14
 93
        0
 40
1.125
309
GRIDFORMAT_END
 95
       32
302
GRIDFORMAT
  1
GRIDFORMAT_BEGIN
 90
        0
 91
        1
 62
     0
 92
       -2
340
14
 93
        0
 40
1.125
309
GRIDFORMAT_END
309
TABLEFORMAT_END
  1
CELLSTYLE_BEGIN
 90
        3
 91
        2
300
_DATA
309
CELLSTYLE_END
  0
XRECORD
  5
13520
102
{ACAD_REACTORS
330
162
102
}
330
162
100
AcDbXrecord
280
     1
102
ACAD_ROUNDTRIP_PRE2007_TABLESTYLE
 90
      512
 91
        0
  1

 92
      512
 93
        0
  2

 94
      512
 95
        0
  3

  0
XRECORD
  5
13533
102
{ACAD_REACTORS
330
13532
102
}
330
13532
100
AcDbXrecord
280
     1
102
RTVSPost2010Prop28
280
     1
102
RTVSPost2010PropOp28
 70
     1
102
RTVSPost2010Prop29
280
     1
102
RTVSPost2010PropOp29
 70
     1
102
RTVSPost2010Prop30
280
     0
102
RTVSPost2010PropOp30
 70
     1
102
RTVSPost2010Prop31
280
     0
102
RTVSPost2010PropOp31
 70
     1
102
RTVSPost2010Prop32
280
     0
102
RTVSPost2010PropOp32
 70
     1
102
RTVSPost2010Prop33
280
     0
102
RTVSPost2010PropOp33
 70
     1
102
RTVSPost2010Prop34
280
     0
102
RTVSPost2010PropOp34
 70
     1
102
RTVSPost2010Prop35
280
     0
102
RTVSPost2010PropOp35
 70
     1
102
RTVSPost2010Prop36
280
     0
102
RTVSPost2010PropOp36
 70
     1
102
RTVSPost2010Prop37
 90
       50
102
RTVSPost2010PropOp37
 70
     1
102
RTVSPost2010Prop38
140
0.0
102
RTVSPost2010PropOp38
 70
     1
102
RTVSPost2010Prop39
140
1.0
102
RTVSPost2010PropOp39
 70
     1
102
RTVSPost2010Prop40
 90
        0
102
RTVSPost2010PropOp40
 70
     1
102
RTVSPost2010Prop41ColorIndex
 90
       18
102
RTVSPost2010Prop41ColorRGB
 90
        0
102
RTVSPost2010PropOp41
 70
     1
102
RTVSPost2010Prop42
 90
       50
102
RTVSPost2010PropOp42
 70
     1
102
RTVSPost2010Prop43
 90
        3
102
RTVSPost2010PropOp43
 70
     1
102
RTVSPost2010Prop44ColorIndex
 90
        5
102
RTVSPost2010Prop44ColorRGB
 90
      255
102
RTVSPost2010PropOp44
 70
     1
102
RTVSPost2010Prop45
280
     0
102
RTVSPost2010PropOp45
 70
     1
102
RTVSPost2010Prop46
 90
       50
102
RTVSPost2010PropOp46
 70
     1
102
RTVSPost2010Prop47
 90
       50
102
RTVSPost2010PropOp47
 70
     1
102
RTVSPost2010Prop48
 90
       50
102
RTVSPost2010PropOp48
 70
     1
102
RTVSPost2010Prop49
280
     0
102
RTVSPost2010PropOp49
 70
     1
102
RTVSPost2010Prop50
 90
       50
102
RTVSPost2010PropOp50
 70
     1
102
RTVSPost2010Prop51ColorIndex
 90
      256
102
RTVSPost2010Prop51ColorRGB
 90
-16777216
102
RTVSPost2010PropOp51
 70
     0
102
RTVSPost2010Prop52
140
1.0
102
RTVSPost2010PropOp52
 70
     0
102
RTVSPost2010Prop53
 90
        2
102
RTVSPost2010PropOp53
 70
     1
102
RTVSPost2010Prop54
  1
strokes_ogs.tif
102
RTVSPost2010PropOp54
 70
     1
102
RTVSPost2010Prop55
280
     0
102
RTVSPost2010PropOp55
 70
     1
102
RTVSPost2010Prop56
140
1.0
102
RTVSPost2010PropOp56
 70
     1
102
RTVSPost2010Prop57
140
1.0
102
RTVSPost2010PropOp57
 70
     1
102
RTVSPropertyOp0
 70
     1
102
RTVSPropertyOp1
 70
     1
102
RTVSPropertyOp2
 70
     1
102
RTVSPropertyOp3
 70
     1
102
RTVSPropertyOp4
 70
     1
102
RTVSPropertyOp5
 70
     1
102
RTVSPropertyOp6
 70
     1
102
RTVSPropertyOp7
 70
     1
102
RTVSPropertyOp8
 70
     1
102
RTVSPropertyOp9
 70
     1
102
RTVSPropertyOp10
 70
     1
102
RTVSPropertyOp11
 70
     1
102
RTVSPropertyOp12
 70
     1
102
RTVSPropertyOp13
 70
     1
102
RTVSPropertyOp14
 70
     1
102
RTVSPropertyOp15
 70
     1
102
RTVSPropertyOp16
 70
     1
102
RTVSPropertyOp17
 70
     1
102
RTVSPropertyOp18
 70
     1
102
RTVSPropertyOp19
 70
     1
102
RTVSPropertyOp20
 70
     1
102
RTVSPropertyOp21
 70
     1
102
RTVSPropertyOp22
 70
     1
102
RTVSPropertyOp23
 70
     1
102
RTVSPropertyOp24
 70
     1
102
RTVSPropertyOp25
 70
     1
102
RTVSPropertyOp26
 70
     1
102
RTVSPropertyOp27
 70
     1
102
RTVSPropertyOp28
 70
     1
102
RTVSPropertyOp29
 70
     1
102
RTVSPropertyOp30
 70
     1
102
RTVSPropertyOp31
 70
     1
102
RTVSPropertyOp32
 70
     1
102
RTVSPropertyOp33
 70
     1
102
RTVSPropertyOp34
 70
     1
102
RTVSPropertyOp35
 70
     1
102
RTVSPropertyOp36
 70
     1
102
RTVSPropertyOp37
 70
     1
102
RTVSPropertyOp38
 70
     1
102
RTVSPropertyOp39
 70
     1
102
RTVSPropertyOp40
 70
     1
102
RTVSPropertyOp41
 70
     1
102
RTVSPropertyOp42
 70
     1
102
RTVSPropertyOp43
 70
     1
102
RTVSPropertyOp44
 70
     1
102
RTVSPropertyOp45
 70
     1
102
RTVSPropertyOp46
 70
     1
102
RTVSPropertyOp47
 70
     1
102
RTVSPropertyOp48
 70
     1
102
RTVSPropertyOp49
 70
     1
102
RTVSPropertyOp50
 70
     1
102
RTVSPropertyOp51
 70
     0
102
RTVSPropertyOp52
 70
     0
102
RTVSPropertyOp53
 70
     1
102
RTVSPropertyOp54
 70
     1
102
RTVSPropertyOp55
 70
     1
102
RTVSPropertyOp56
 70
     1
102
RTVSPropertyOp57
 70
     1
102
RTVSPropertyOp58
 70
     1
102
RTVSPropertyOp59
 70
     1
102
RTVSPropertyOp60
 70
     1
102
RTVSPropertyOp61
 70
     1
102
RTVSPropertyOp62
 70
     1
  0
XRECORD
  5
13531
102
{ACAD_REACTORS
330
13530
102
}
330
13530
100
AcDbXrecord
280
     1
102
RTVSPost2010Prop28
280
     0
102
RTVSPost2010PropOp28
 70
     1
102
RTVSPost2010Prop29
280
     1
102
RTVSPost2010PropOp29
 70
     1
102
RTVSPost2010Prop30
280
     1
102
RTVSPost2010PropOp30
 70
     1
102
RTVSPost2010Prop31
280
     0
102
RTVSPost2010PropOp31
 70
     1
102
RTVSPost2010Prop32
280
     0
102
RTVSPost2010PropOp32
 70
     1
102
RTVSPost2010Prop33
280
     0
102
RTVSPost2010PropOp33
 70
     1
102
RTVSPost2010Prop34
280
     0
102
RTVSPost2010PropOp34
 70
     1
102
RTVSPost2010Prop35
280
     0
102
RTVSPost2010PropOp35
 70
     1
102
RTVSPost2010Prop36
280
     0
102
RTVSPost2010PropOp36
 70
     1
102
RTVSPost2010Prop37
 90
       50
102
RTVSPost2010PropOp37
 70
     1
102
RTVSPost2010Prop38
140
0.0
102
RTVSPost2010PropOp38
 70
     1
102
RTVSPost2010Prop39
140
1.0
102
RTVSPost2010PropOp39
 70
     1
102
RTVSPost2010Prop40
 90
        0
102
RTVSPost2010PropOp40
 70
     1
102
RTVSPost2010Prop41ColorIndex
 90
       18
102
RTVSPost2010Prop41ColorRGB
 90
        0
102
RTVSPost2010PropOp41
 70
     1
102
RTVSPost2010Prop42
 90
       50
102
RTVSPost2010PropOp42
 70
     1
102
RTVSPost2010Prop43
 90
        3
102
RTVSPost2010PropOp43
 70
     1
102
RTVSPost2010Prop44ColorIndex
 90
        5
102
RTVSPost2010Prop44ColorRGB
 90
      255
102
RTVSPost2010PropOp44
 70
     1
102
RTVSPost2010Prop45
280
     0
102
RTVSPost2010PropOp45
 70
     1
102
RTVSPost2010Prop46
 90
       50
102
RTVSPost2010PropOp46
 70
     1
102
RTVSPost2010Prop47
 90
       50
102
RTVSPost2010PropOp47
 70
     1
102
RTVSPost2010Prop48
 90
       50
102
RTVSPost2010PropOp48
 70
     1
102
RTVSPost2010Prop49
280
     0
102
RTVSPost2010PropOp49
 70
     1
102
RTVSPost2010Prop50
 90
       50
102
RTVSPost2010PropOp50
 70
     1
102
RTVSPost2010Prop51ColorIndex
 90
      256
102
RTVSPost2010Prop51ColorRGB
 90
-16777216
102
RTVSPost2010PropOp51
 70
     0
102
RTVSPost2010Prop52
140
1.0
102
RTVSPost2010PropOp52
 70
     0
102
RTVSPost2010Prop53
 90
        2
102
RTVSPost2010PropOp53
 70
     1
102
RTVSPost2010Prop54
  1
strokes_ogs.tif
102
RTVSPost2010PropOp54
 70
     1
102
RTVSPost2010Prop55
280
     0
102
RTVSPost2010PropOp55
 70
     1
102
RTVSPost2010Prop56
140
1.0
102
RTVSPost2010PropOp56
 70
     1
102
RTVSPost2010Prop57
140
1.0
102
RTVSPost2010PropOp57
 70
     1
102
RTVSPropertyOp0
 70
     1
102
RTVSPropertyOp1
 70
     1
102
RTVSPropertyOp2
 70
     1
102
RTVSPropertyOp3
 70
     1
102
RTVSPropertyOp4
 70
     1
102
RTVSPropertyOp5
 70
     1
102
RTVSPropertyOp6
 70
     1
102
RTVSPropertyOp7
 70
     1
102
RTVSPropertyOp8
 70
     1
102
RTVSPropertyOp9
 70
     1
102
RTVSPropertyOp10
 70
     1
102
RTVSPropertyOp11
 70
     1
102
RTVSPropertyOp12
 70
     1
102
RTVSPropertyOp13
 70
     1
102
RTVSPropertyOp14
 70
     1
102
RTVSPropertyOp15
 70
     1
102
RTVSPropertyOp16
 70
     1
102
RTVSPropertyOp17
 70
     1
102
RTVSPropertyOp18
 70
     1
102
RTVSPropertyOp19
 70
     1
102
RTVSPropertyOp20
 70
     1
102
RTVSPropertyOp21
 70
     1
102
RTVSPropertyOp22
 70
     1
102
RTVSPropertyOp23
 70
     1
102
RTVSPropertyOp24
 70
     1
102
RTVSPropertyOp25
 70
     1
102
RTVSPropertyOp26
 70
     1
102
RTVSPropertyOp27
 70
     1
102
RTVSPropertyOp28
 70
     1
102
RTVSPropertyOp29
 70
     1
102
RTVSPropertyOp30
 70
     1
102
RTVSPropertyOp31
 70
     1
102
RTVSPropertyOp32
 70
     1
102
RTVSPropertyOp33
 70
     1
102
RTVSPropertyOp34
 70
     1
102
RTVSPropertyOp35
 70
     1
102
RTVSPropertyOp36
 70
     1
102
RTVSPropertyOp37
 70
     1
102
RTVSPropertyOp38
 70
     1
102
RTVSPropertyOp39
 70
     1
102
RTVSPropertyOp40
 70
     1
102
RTVSPropertyOp41
 70
     1
102
RTVSPropertyOp42
 70
     1
102
RTVSPropertyOp43
 70
     1
102
RTVSPropertyOp44
 70
     1
102
RTVSPropertyOp45
 70
     1
102
RTVSPropertyOp46
 70
     1
102
RTVSPropertyOp47
 70
     1
102
RTVSPropertyOp48
 70
     1
102
RTVSPropertyOp49
 70
     1
102
RTVSPropertyOp50
 70
     1
102
RTVSPropertyOp51
 70
     0
102
RTVSPropertyOp52
 70
     0
102
RTVSPropertyOp53
 70
     1
102
RTVSPropertyOp54
 70
     1
102
RTVSPropertyOp55
 70
     1
102
RTVSPropertyOp56
 70
     1
102
RTVSPropertyOp57
 70
     1
102
RTVSPropertyOp58
 70
     1
102
RTVSPropertyOp59
 70
     1
102
RTVSPropertyOp60
 70
     1
102
RTVSPropertyOp61
 70
     1
102
RTVSPropertyOp62
 70
     1
  0
XRECORD
  5
1353F
102
{ACAD_REACTORS
330
1353E
102
}
330
1353E
100
AcDbXrecord
280
     1
102
RTVSPost2010Prop28
280
     0
102
RTVSPost2010PropOp28
 70
     1
102
RTVSPost2010Prop29
280
     1
102
RTVSPost2010PropOp29
 70
     1
102
RTVSPost2010Prop30
280
     1
102
RTVSPost2010PropOp30
 70
     1
102
RTVSPost2010Prop31
280
     0
102
RTVSPost2010PropOp31
 70
     1
102
RTVSPost2010Prop32
280
     0
102
RTVSPost2010PropOp32
 70
     1
102
RTVSPost2010Prop33
280
     0
102
RTVSPost2010PropOp33
 70
     1
102
RTVSPost2010Prop34
280
     0
102
RTVSPost2010PropOp34
 70
     1
102
RTVSPost2010Prop35
280
     0
102
RTVSPost2010PropOp35
 70
     1
102
RTVSPost2010Prop36
280
     0
102
RTVSPost2010PropOp36
 70
     1
102
RTVSPost2010Prop37
 90
       50
102
RTVSPost2010PropOp37
 70
     1
102
RTVSPost2010Prop38
140
0.0
102
RTVSPost2010PropOp38
 70
     1
102
RTVSPost2010Prop39
140
1.0
102
RTVSPost2010PropOp39
 70
     1
102
RTVSPost2010Prop40
 90
        0
102
RTVSPost2010PropOp40
 70
     1
102
RTVSPost2010Prop41ColorIndex
 90
       18
102
RTVSPost2010Prop41ColorRGB
 90
        0
102
RTVSPost2010PropOp41
 70
     1
102
RTVSPost2010Prop42
 90
       50
102
RTVSPost2010PropOp42
 70
     1
102
RTVSPost2010Prop43
 90
        3
102
RTVSPost2010PropOp43
 70
     1
102
RTVSPost2010Prop44ColorIndex
 90
        5
102
RTVSPost2010Prop44ColorRGB
 90
      255
102
RTVSPost2010PropOp44
 70
     1
102
RTVSPost2010Prop45
280
     0
102
RTVSPost2010PropOp45
 70
     1
102
RTVSPost2010Prop46
 90
       50
102
RTVSPost2010PropOp46
 70
     1
102
RTVSPost2010Prop47
 90
       50
102
RTVSPost2010PropOp47
 70
     1
102
RTVSPost2010Prop48
 90
       50
102
RTVSPost2010PropOp48
 70
     1
102
RTVSPost2010Prop49
280
     0
102
RTVSPost2010PropOp49
 70
     1
102
RTVSPost2010Prop50
 90
       50
102
RTVSPost2010PropOp50
 70
     1
102
RTVSPost2010Prop51ColorIndex
 90
      256
102
RTVSPost2010Prop51ColorRGB
 90
-16777216
102
RTVSPost2010PropOp51
 70
     0
102
RTVSPost2010Prop52
140
1.0
102
RTVSPost2010PropOp52
 70
     0
102
RTVSPost2010Prop53
 90
        2
102
RTVSPost2010PropOp53
 70
     1
102
RTVSPost2010Prop54
  1
strokes_ogs.tif
102
RTVSPost2010PropOp54
 70
     1
102
RTVSPost2010Prop55
280
     0
102
RTVSPost2010PropOp55
 70
     1
102
RTVSPost2010Prop56
140
1.0
102
RTVSPost2010PropOp56
 70
     1
102
RTVSPost2010Prop57
140
1.0
102
RTVSPost2010PropOp57
 70
     1
102
RTVSPropertyOp0
 70
     1
102
RTVSPropertyOp1
 70
     1
102
RTVSPropertyOp2
 70
     1
102
RTVSPropertyOp3
 70
     1
102
RTVSPropertyOp4
 70
     1
102
RTVSPropertyOp5
 70
     1
102
RTVSPropertyOp6
 70
     1
102
RTVSPropertyOp7
 70
     1
102
RTVSPropertyOp8
 70
     1
102
RTVSPropertyOp9
 70
     1
102
RTVSPropertyOp10
 70
     1
102
RTVSPropertyOp11
 70
     1
102
RTVSPropertyOp12
 70
     1
102
RTVSPropertyOp13
 70
     1
102
RTVSPropertyOp14
 70
     1
102
RTVSPropertyOp15
 70
     1
102
RTVSPropertyOp16
 70
     1
102
RTVSPropertyOp17
 70
     1
102
RTVSPropertyOp18
 70
     1
102
RTVSPropertyOp19
 70
     1
102
RTVSPropertyOp20
 70
     1
102
RTVSPropertyOp21
 70
     1
102
RTVSPropertyOp22
 70
     1
102
RTVSPropertyOp23
 70
     1
102
RTVSPropertyOp24
 70
     1
102
RTVSPropertyOp25
 70
     1
102
RTVSPropertyOp26
 70
     1
102
RTVSPropertyOp27
 70
     1
102
RTVSPropertyOp28
 70
     1
102
RTVSPropertyOp29
 70
     1
102
RTVSPropertyOp30
 70
     1
102
RTVSPropertyOp31
 70
     1
102
RTVSPropertyOp32
 70
     1
102
RTVSPropertyOp33
 70
     1
102
RTVSPropertyOp34
 70
     1
102
RTVSPropertyOp35
 70
     1
102
RTVSPropertyOp36
 70
     1
102
RTVSPropertyOp37
 70
     1
102
RTVSPropertyOp38
 70
     1
102
RTVSPropertyOp39
 70
     1
102
RTVSPropertyOp40
 70
     1
102
RTVSPropertyOp41
 70
     1
102
RTVSPropertyOp42
 70
     1
102
RTVSPropertyOp43
 70
     1
102
RTVSPropertyOp44
 70
     1
102
RTVSPropertyOp45
 70
     1
102
RTVSPropertyOp46
 70
     1
102
RTVSPropertyOp47
 70
     1
102
RTVSPropertyOp48
 70
     1
102
RTVSPropertyOp49
 70
     1
102
RTVSPropertyOp50
 70
     1
102
RTVSPropertyOp51
 70
     0
102
RTVSPropertyOp52
 70
     0
102
RTVSPropertyOp53
 70
     1
102
RTVSPropertyOp54
 70
     1
102
RTVSPropertyOp55
 70
     1
102
RTVSPropertyOp56
 70
     1
102
RTVSPropertyOp57
 70
     1
102
RTVSPropertyOp58
 70
     1
102
RTVSPropertyOp59
 70
     1
102
RTVSPropertyOp60
 70
     1
102
RTVSPropertyOp61
 70
     1
102
RTVSPropertyOp62
 70
     1
  0
XRECORD
  5
13547
102
{ACAD_REACTORS
330
13546
102
}
330
13546
100
AcDbXrecord
280
     1
102
RTVSPost2010Prop28
280
     0
102
RTVSPost2010PropOp28
 70
     1
102
RTVSPost2010Prop29
280
     1
102
RTVSPost2010PropOp29
 70
     1
102
RTVSPost2010Prop30
280
     1
102
RTVSPost2010PropOp30
 70
     1
102
RTVSPost2010Prop31
280
     0
102
RTVSPost2010PropOp31
 70
     1
102
RTVSPost2010Prop32
280
     0
102
RTVSPost2010PropOp32
 70
     1
102
RTVSPost2010Prop33
280
     0
102
RTVSPost2010PropOp33
 70
     1
102
RTVSPost2010Prop34
280
     0
102
RTVSPost2010PropOp34
 70
     1
102
RTVSPost2010Prop35
280
     0
102
RTVSPost2010PropOp35
 70
     1
102
RTVSPost2010Prop36
280
     0
102
RTVSPost2010PropOp36
 70
     1
102
RTVSPost2010Prop37
 90
       50
102
RTVSPost2010PropOp37
 70
     1
102
RTVSPost2010Prop38
140
0.0
102
RTVSPost2010PropOp38
 70
     1
102
RTVSPost2010Prop39
140
1.0
102
RTVSPost2010PropOp39
 70
     1
102
RTVSPost2010Prop40
 90
        0
102
RTVSPost2010PropOp40
 70
     1
102
RTVSPost2010Prop41ColorIndex
 90
       18
102
RTVSPost2010Prop41ColorRGB
 90
        0
102
RTVSPost2010PropOp41
 70
     1
102
RTVSPost2010Prop42
 90
       50
102
RTVSPost2010PropOp42
 70
     1
102
RTVSPost2010Prop43
 90
        3
102
RTVSPost2010PropOp43
 70
     1
102
RTVSPost2010Prop44ColorIndex
 90
        5
102
RTVSPost2010Prop44ColorRGB
 90
      255
102
RTVSPost2010PropOp44
 70
     1
102
RTVSPost2010Prop45
280
     0
102
RTVSPost2010PropOp45
 70
     1
102
RTVSPost2010Prop46
 90
       50
102
RTVSPost2010PropOp46
 70
     1
102
RTVSPost2010Prop47
 90
       50
102
RTVSPost2010PropOp47
 70
     1
102
RTVSPost2010Prop48
 90
       50
102
RTVSPost2010PropOp48
 70
     1
102
RTVSPost2010Prop49
280
     0
102
RTVSPost2010PropOp49
 70
     1
102
RTVSPost2010Prop50
 90
       50
102
RTVSPost2010PropOp50
 70
     1
102
RTVSPost2010Prop51ColorIndex
 90
      256
102
RTVSPost2010Prop51ColorRGB
 90
-16777216
102
RTVSPost2010PropOp51
 70
     0
102
RTVSPost2010Prop52
140
1.0
102
RTVSPost2010PropOp52
 70
     0
102
RTVSPost2010Prop53
 90
        2
102
RTVSPost2010PropOp53
 70
     1
102
RTVSPost2010Prop54
  1
strokes_ogs.tif
102
RTVSPost2010PropOp54
 70
     1
102
RTVSPost2010Prop55
280
     0
102
RTVSPost2010PropOp55
 70
     1
102
RTVSPost2010Prop56
140
1.0
102
RTVSPost2010PropOp56
 70
     1
102
RTVSPost2010Prop57
140
1.0
102
RTVSPost2010PropOp57
 70
     1
102
RTVSPropertyOp0
 70
     1
102
RTVSPropertyOp1
 70
     1
102
RTVSPropertyOp2
 70
     1
102
RTVSPropertyOp3
 70
     1
102
RTVSPropertyOp4
 70
     1
102
RTVSPropertyOp5
 70
     1
102
RTVSPropertyOp6
 70
     1
102
RTVSPropertyOp7
 70
     1
102
RTVSPropertyOp8
 70
     1
102
RTVSPropertyOp9
 70
     1
102
RTVSPropertyOp10
 70
     1
102
RTVSPropertyOp11
 70
     1
102
RTVSPropertyOp12
 70
     1
102
RTVSPropertyOp13
 70
     1
102
RTVSPropertyOp14
 70
     1
102
RTVSPropertyOp15
 70
     1
102
RTVSPropertyOp16
 70
     1
102
RTVSPropertyOp17
 70
     1
102
RTVSPropertyOp18
 70
     1
102
RTVSPropertyOp19
 70
     1
102
RTVSPropertyOp20
 70
     1
102
RTVSPropertyOp21
 70
     1
102
RTVSPropertyOp22
 70
     1
102
RTVSPropertyOp23
 70
     1
102
RTVSPropertyOp24
 70
     1
102
RTVSPropertyOp25
 70
     1
102
RTVSPropertyOp26
 70
     1
102
RTVSPropertyOp27
 70
     1
102
RTVSPropertyOp28
 70
     1
102
RTVSPropertyOp29
 70
     1
102
RTVSPropertyOp30
 70
     1
102
RTVSPropertyOp31
 70
     1
102
RTVSPropertyOp32
 70
     1
102
RTVSPropertyOp33
 70
     1
102
RTVSPropertyOp34
 70
     1
102
RTVSPropertyOp35
 70
     1
102
RTVSPropertyOp36
 70
     1
102
RTVSPropertyOp37
 70
     1
102
RTVSPropertyOp38
 70
     1
102
RTVSPropertyOp39
 70
     1
102
RTVSPropertyOp40
 70
     1
102
RTVSPropertyOp41
 70
     1
102
RTVSPropertyOp42
 70
     1
102
RTVSPropertyOp43
 70
     1
102
RTVSPropertyOp44
 70
     1
102
RTVSPropertyOp45
 70
     1
102
RTVSPropertyOp46
 70
     1
102
RTVSPropertyOp47
 70
     1
102
RTVSPropertyOp48
 70
     1
102
RTVSPropertyOp49
 70
     1
102
RTVSPropertyOp50
 70
     1
102
RTVSPropertyOp51
 70
     0
102
RTVSPropertyOp52
 70
     0
102
RTVSPropertyOp53
 70
     1
102
RTVSPropertyOp54
 70
     1
102
RTVSPropertyOp55
 70
     1
102
RTVSPropertyOp56
 70
     1
102
RTVSPropertyOp57
 70
     1
102
RTVSPropertyOp58
 70
     1
102
RTVSPropertyOp59
 70
     1
102
RTVSPropertyOp60
 70
     1
102
RTVSPropertyOp61
 70
     1
102
RTVSPropertyOp62
 70
     1
  0
XRECORD
  5
13539
102
{ACAD_REACTORS
330
13538
102
}
330
13538
100
AcDbXrecord
280
     1
102
RTVSPost2010Prop28
280
     0
102
RTVSPost2010PropOp28
 70
     1
102
RTVSPost2010Prop29
280
     1
102
RTVSPost2010PropOp29
 70
     1
102
RTVSPost2010Prop30
280
     1
102
RTVSPost2010PropOp30
 70
     1
102
RTVSPost2010Prop31
280
     0
102
RTVSPost2010PropOp31
 70
     1
102
RTVSPost2010Prop32
280
     0
102
RTVSPost2010PropOp32
 70
     1
102
RTVSPost2010Prop33
280
     0
102
RTVSPost2010PropOp33
 70
     1
102
RTVSPost2010Prop34
280
     0
102
RTVSPost2010PropOp34
 70
     1
102
RTVSPost2010Prop35
280
     0
102
RTVSPost2010PropOp35
 70
     1
102
RTVSPost2010Prop36
280
     0
102
RTVSPost2010PropOp36
 70
     1
102
RTVSPost2010Prop37
 90
       50
102
RTVSPost2010PropOp37
 70
     1
102
RTVSPost2010Prop38
140
0.0
102
RTVSPost2010PropOp38
 70
     1
102
RTVSPost2010Prop39
140
1.0
102
RTVSPost2010PropOp39
 70
     1
102
RTVSPost2010Prop40
 90
        0
102
RTVSPost2010PropOp40
 70
     1
102
RTVSPost2010Prop41ColorIndex
 90
       18
102
RTVSPost2010Prop41ColorRGB
 90
        0
102
RTVSPost2010PropOp41
 70
     1
102
RTVSPost2010Prop42
 90
       50
102
RTVSPost2010PropOp42
 70
     1
102
RTVSPost2010Prop43
 90
        3
102
RTVSPost2010PropOp43
 70
     1
102
RTVSPost2010Prop44ColorIndex
 90
        5
102
RTVSPost2010Prop44ColorRGB
 90
      255
102
RTVSPost2010PropOp44
 70
     1
102
RTVSPost2010Prop45
280
     0
102
RTVSPost2010PropOp45
 70
     1
102
RTVSPost2010Prop46
 90
       50
102
RTVSPost2010PropOp46
 70
     1
102
RTVSPost2010Prop47
 90
       50
102
RTVSPost2010PropOp47
 70
     1
102
RTVSPost2010Prop48
 90
       50
102
RTVSPost2010PropOp48
 70
     1
102
RTVSPost2010Prop49
280
     0
102
RTVSPost2010PropOp49
 70
     1
102
RTVSPost2010Prop50
 90
       50
102
RTVSPost2010PropOp50
 70
     1
102
RTVSPost2010Prop51ColorIndex
 90
      256
102
RTVSPost2010Prop51ColorRGB
 90
-16777216
102
RTVSPost2010PropOp51
 70
     0
102
RTVSPost2010Prop52
140
1.0
102
RTVSPost2010PropOp52
 70
     0
102
RTVSPost2010Prop53
 90
        2
102
RTVSPost2010PropOp53
 70
     1
102
RTVSPost2010Prop54
  1
strokes_ogs.tif
102
RTVSPost2010PropOp54
 70
     1
102
RTVSPost2010Prop55
280
     0
102
RTVSPost2010PropOp55
 70
     1
102
RTVSPost2010Prop56
140
1.0
102
RTVSPost2010PropOp56
 70
     1
102
RTVSPost2010Prop57
140
1.0
102
RTVSPost2010PropOp57
 70
     1
102
RTVSPropertyOp0
 70
     1
102
RTVSPropertyOp1
 70
     1
102
RTVSPropertyOp2
 70
     1
102
RTVSPropertyOp3
 70
     1
102
RTVSPropertyOp4
 70
     1
102
RTVSPropertyOp5
 70
     1
102
RTVSPropertyOp6
 70
     1
102
RTVSPropertyOp7
 70
     1
102
RTVSPropertyOp8
 70
     1
102
RTVSPropertyOp9
 70
     1
102
RTVSPropertyOp10
 70
     1
102
RTVSPropertyOp11
 70
     1
102
RTVSPropertyOp12
 70
     1
102
RTVSPropertyOp13
 70
     1
102
RTVSPropertyOp14
 70
     1
102
RTVSPropertyOp15
 70
     1
102
RTVSPropertyOp16
 70
     1
102
RTVSPropertyOp17
 70
     1
102
RTVSPropertyOp18
 70
     1
102
RTVSPropertyOp19
 70
     1
102
RTVSPropertyOp20
 70
     1
102
RTVSPropertyOp21
 70
     1
102
RTVSPropertyOp22
 70
     1
102
RTVSPropertyOp23
 70
     1
102
RTVSPropertyOp24
 70
     1
102
RTVSPropertyOp25
 70
     1
102
RTVSPropertyOp26
 70
     1
102
RTVSPropertyOp27
 70
     1
102
RTVSPropertyOp28
 70
     1
102
RTVSPropertyOp29
 70
     1
102
RTVSPropertyOp30
 70
     1
102
RTVSPropertyOp31
 70
     1
102
RTVSPropertyOp32
 70
     1
102
RTVSPropertyOp33
 70
     1
102
RTVSPropertyOp34
 70
     1
102
RTVSPropertyOp35
 70
     1
102
RTVSPropertyOp36
 70
     1
102
RTVSPropertyOp37
 70
     1
102
RTVSPropertyOp38
 70
     1
102
RTVSPropertyOp39
 70
     1
102
RTVSPropertyOp40
 70
     1
102
RTVSPropertyOp41
 70
     1
102
RTVSPropertyOp42
 70
     1
102
RTVSPropertyOp43
 70
     1
102
RTVSPropertyOp44
 70
     1
102
RTVSPropertyOp45
 70
     1
102
RTVSPropertyOp46
 70
     1
102
RTVSPropertyOp47
 70
     1
102
RTVSPropertyOp48
 70
     1
102
RTVSPropertyOp49
 70
     1
102
RTVSPropertyOp50
 70
     1
102
RTVSPropertyOp51
 70
     0
102
RTVSPropertyOp52
 70
     0
102
RTVSPropertyOp53
 70
     1
102
RTVSPropertyOp54
 70
     1
102
RTVSPropertyOp55
 70
     1
102
RTVSPropertyOp56
 70
     1
102
RTVSPropertyOp57
 70
     1
102
RTVSPropertyOp58
 70
     1
102
RTVSPropertyOp59
 70
     1
102
RTVSPropertyOp60
 70
     1
102
RTVSPropertyOp61
 70
     1
102
RTVSPropertyOp62
 70
     1
  0
XRECORD
  5
1353D
102
{ACAD_REACTORS
330
1353C
102
}
330
1353C
100
AcDbXrecord
280
     1
102
RTVSPost2010Prop28
280
     0
102
RTVSPost2010PropOp28
 70
     1
102
RTVSPost2010Prop29
280
     1
102
RTVSPost2010PropOp29
 70
     1
102
RTVSPost2010Prop30
280
     1
102
RTVSPost2010PropOp30
 70
     1
102
RTVSPost2010Prop31
280
     0
102
RTVSPost2010PropOp31
 70
     1
102
RTVSPost2010Prop32
280
     0
102
RTVSPost2010PropOp32
 70
     1
102
RTVSPost2010Prop33
280
     0
102
RTVSPost2010PropOp33
 70
     1
102
RTVSPost2010Prop34
280
     0
102
RTVSPost2010PropOp34
 70
     1
102
RTVSPost2010Prop35
280
     0
102
RTVSPost2010PropOp35
 70
     1
102
RTVSPost2010Prop36
280
     0
102
RTVSPost2010PropOp36
 70
     1
102
RTVSPost2010Prop37
 90
       50
102
RTVSPost2010PropOp37
 70
     1
102
RTVSPost2010Prop38
140
0.0
102
RTVSPost2010PropOp38
 70
     1
102
RTVSPost2010Prop39
140
1.0
102
RTVSPost2010PropOp39
 70
     1
102
RTVSPost2010Prop40
 90
        0
102
RTVSPost2010PropOp40
 70
     1
102
RTVSPost2010Prop41ColorIndex
 90
       18
102
RTVSPost2010Prop41ColorRGB
 90
        0
102
RTVSPost2010PropOp41
 70
     1
102
RTVSPost2010Prop42
 90
       50
102
RTVSPost2010PropOp42
 70
     1
102
RTVSPost2010Prop43
 90
        3
102
RTVSPost2010PropOp43
 70
     1
102
RTVSPost2010Prop44ColorIndex
 90
        5
102
RTVSPost2010Prop44ColorRGB
 90
      255
102
RTVSPost2010PropOp44
 70
     1
102
RTVSPost2010Prop45
280
     0
102
RTVSPost2010PropOp45
 70
     1
102
RTVSPost2010Prop46
 90
       50
102
RTVSPost2010PropOp46
 70
     1
102
RTVSPost2010Prop47
 90
       50
102
RTVSPost2010PropOp47
 70
     1
102
RTVSPost2010Prop48
 90
       50
102
RTVSPost2010PropOp48
 70
     1
102
RTVSPost2010Prop49
280
     0
102
RTVSPost2010PropOp49
 70
     1
102
RTVSPost2010Prop50
 90
       50
102
RTVSPost2010PropOp50
 70
     1
102
RTVSPost2010Prop51ColorIndex
 90
      256
102
RTVSPost2010Prop51ColorRGB
 90
-16777216
102
RTVSPost2010PropOp51
 70
     0
102
RTVSPost2010Prop52
140
1.0
102
RTVSPost2010PropOp52
 70
     0
102
RTVSPost2010Prop53
 90
        2
102
RTVSPost2010PropOp53
 70
     1
102
RTVSPost2010Prop54
  1
strokes_ogs.tif
102
RTVSPost2010PropOp54
 70
     1
102
RTVSPost2010Prop55
280
     0
102
RTVSPost2010PropOp55
 70
     1
102
RTVSPost2010Prop56
140
1.0
102
RTVSPost2010PropOp56
 70
     1
102
RTVSPost2010Prop57
140
1.0
102
RTVSPost2010PropOp57
 70
     1
102
RTVSPropertyOp0
 70
     1
102
RTVSPropertyOp1
 70
     1
102
RTVSPropertyOp2
 70
     1
102
RTVSPropertyOp3
 70
     1
102
RTVSPropertyOp4
 70
     1
102
RTVSPropertyOp5
 70
     1
102
RTVSPropertyOp6
 70
     1
102
RTVSPropertyOp7
 70
     1
102
RTVSPropertyOp8
 70
     1
102
RTVSPropertyOp9
 70
     1
102
RTVSPropertyOp10
 70
     1
102
RTVSPropertyOp11
 70
     1
102
RTVSPropertyOp12
 70
     1
102
RTVSPropertyOp13
 70
     1
102
RTVSPropertyOp14
 70
     1
102
RTVSPropertyOp15
 70
     1
102
RTVSPropertyOp16
 70
     1
102
RTVSPropertyOp17
 70
     1
102
RTVSPropertyOp18
 70
     1
102
RTVSPropertyOp19
 70
     1
102
RTVSPropertyOp20
 70
     1
102
RTVSPropertyOp21
 70
     1
102
RTVSPropertyOp22
 70
     1
102
RTVSPropertyOp23
 70
     1
102
RTVSPropertyOp24
 70
     1
102
RTVSPropertyOp25
 70
     1
102
RTVSPropertyOp26
 70
     1
102
RTVSPropertyOp27
 70
     1
102
RTVSPropertyOp28
 70
     1
102
RTVSPropertyOp29
 70
     1
102
RTVSPropertyOp30
 70
     1
102
RTVSPropertyOp31
 70
     1
102
RTVSPropertyOp32
 70
     1
102
RTVSPropertyOp33
 70
     1
102
RTVSPropertyOp34
 70
     1
102
RTVSPropertyOp35
 70
     1
102
RTVSPropertyOp36
 70
     1
102
RTVSPropertyOp37
 70
     1
102
RTVSPropertyOp38
 70
     1
102
RTVSPropertyOp39
 70
     1
102
RTVSPropertyOp40
 70
     1
102
RTVSPropertyOp41
 70
     1
102
RTVSPropertyOp42
 70
     1
102
RTVSPropertyOp43
 70
     1
102
RTVSPropertyOp44
 70
     1
102
RTVSPropertyOp45
 70
     1
102
RTVSPropertyOp46
 70
     1
102
RTVSPropertyOp47
 70
     1
102
RTVSPropertyOp48
 70
     1
102
RTVSPropertyOp49
 70
     1
102
RTVSPropertyOp50
 70
     1
102
RTVSPropertyOp51
 70
     0
102
RTVSPropertyOp52
 70
     0
102
RTVSPropertyOp53
 70
     1
102
RTVSPropertyOp54
 70
     1
102
RTVSPropertyOp55
 70
     1
102
RTVSPropertyOp56
 70
     1
102
RTVSPropertyOp57
 70
     1
102
RTVSPropertyOp58
 70
     1
102
RTVSPropertyOp59
 70
     1
102
RTVSPropertyOp60
 70
     1
102
RTVSPropertyOp61
 70
     1
102
RTVSPropertyOp62
 70
     1
  0
XRECORD
  5
1354F
102
{ACAD_REACTORS
330
1354E
102
}
330
1354E
100
AcDbXrecord
280
     1
102
RTVSPost2010Prop28
280
     0
102
RTVSPost2010PropOp28
 70
     1
102
RTVSPost2010Prop29
280
     1
102
RTVSPost2010PropOp29
 70
     1
102
RTVSPost2010Prop30
280
     1
102
RTVSPost2010PropOp30
 70
     1
102
RTVSPost2010Prop31
280
     0
102
RTVSPost2010PropOp31
 70
     1
102
RTVSPost2010Prop32
280
     0
102
RTVSPost2010PropOp32
 70
     1
102
RTVSPost2010Prop33
280
     0
102
RTVSPost2010PropOp33
 70
     1
102
RTVSPost2010Prop34
280
     0
102
RTVSPost2010PropOp34
 70
     1
102
RTVSPost2010Prop35
280
     0
102
RTVSPost2010PropOp35
 70
     1
102
RTVSPost2010Prop36
280
     0
102
RTVSPost2010PropOp36
 70
     1
102
RTVSPost2010Prop37
 90
       50
102
RTVSPost2010PropOp37
 70
     1
102
RTVSPost2010Prop38
140
0.0
102
RTVSPost2010PropOp38
 70
     1
102
RTVSPost2010Prop39
140
1.0
102
RTVSPost2010PropOp39
 70
     1
102
RTVSPost2010Prop40
 90
        0
102
RTVSPost2010PropOp40
 70
     1
102
RTVSPost2010Prop41ColorIndex
 90
       18
102
RTVSPost2010Prop41ColorRGB
 90
        0
102
RTVSPost2010PropOp41
 70
     1
102
RTVSPost2010Prop42
 90
       50
102
RTVSPost2010PropOp42
 70
     1
102
RTVSPost2010Prop43
 90
        3
102
RTVSPost2010PropOp43
 70
     1
102
RTVSPost2010Prop44ColorIndex
 90
        5
102
RTVSPost2010Prop44ColorRGB
 90
      255
102
RTVSPost2010PropOp44
 70
     1
102
RTVSPost2010Prop45
280
     0
102
RTVSPost2010PropOp45
 70
     1
102
RTVSPost2010Prop46
 90
       50
102
RTVSPost2010PropOp46
 70
     1
102
RTVSPost2010Prop47
 90
       50
102
RTVSPost2010PropOp47
 70
     1
102
RTVSPost2010Prop48
 90
       50
102
RTVSPost2010PropOp48
 70
     1
102
RTVSPost2010Prop49
280
     0
102
RTVSPost2010PropOp49
 70
     1
102
RTVSPost2010Prop50
 90
       50
102
RTVSPost2010PropOp50
 70
     1
102
RTVSPost2010Prop51ColorIndex
 90
      256
102
RTVSPost2010Prop51ColorRGB
 90
-16777216
102
RTVSPost2010PropOp51
 70
     0
102
RTVSPost2010Prop52
140
1.0
102
RTVSPost2010PropOp52
 70
     0
102
RTVSPost2010Prop53
 90
        2
102
RTVSPost2010PropOp53
 70
     1
102
RTVSPost2010Prop54
  1
strokes_ogs.tif
102
RTVSPost2010PropOp54
 70
     1
102
RTVSPost2010Prop55
280
     0
102
RTVSPost2010PropOp55
 70
     1
102
RTVSPost2010Prop56
140
1.0
102
RTVSPost2010PropOp56
 70
     1
102
RTVSPost2010Prop57
140
1.0
102
RTVSPost2010PropOp57
 70
     1
102
RTVSPropertyOp0
 70
     0
102
RTVSPropertyOp1
 70
     0
102
RTVSPropertyOp2
 70
     0
102
RTVSPropertyOp3
 70
     0
102
RTVSPropertyOp4
 70
     0
102
RTVSPropertyOp5
 70
     0
102
RTVSPropertyOp6
 70
     0
102
RTVSPropertyOp7
 70
     0
102
RTVSPropertyOp8
 70
     0
102
RTVSPropertyOp9
 70
     0
102
RTVSPropertyOp10
 70
     0
102
RTVSPropertyOp11
 70
     0
102
RTVSPropertyOp12
 70
     0
102
RTVSPropertyOp13
 70
     0
102
RTVSPropertyOp14
 70
     2
102
RTVSPropertyOp15
 70
     0
102
RTVSPropertyOp16
 70
     0
102
RTVSPropertyOp17
 70
     0
102
RTVSPropertyOp18
 70
     0
102
RTVSPropertyOp19
 70
     0
102
RTVSPropertyOp20
 70
     0
102
RTVSPropertyOp21
 70
     0
102
RTVSPropertyOp22
 70
     0
102
RTVSPropertyOp23
 70
     0
102
RTVSPropertyOp24
 70
     0
102
RTVSPropertyOp25
 70
     0
102
RTVSPropertyOp26
 70
     0
102
RTVSPropertyOp27
 70
     0
102
RTVSPropertyOp28
 70
     1
102
RTVSPropertyOp29
 70
     1
102
RTVSPropertyOp30
 70
     1
102
RTVSPropertyOp31
 70
     1
102
RTVSPropertyOp32
 70
     1
102
RTVSPropertyOp33
 70
     1
102
RTVSPropertyOp34
 70
     1
102
RTVSPropertyOp35
 70
     1
102
RTVSPropertyOp36
 70
     1
102
RTVSPropertyOp37
 70
     1
102
RTVSPropertyOp38
 70
     1
102
RTVSPropertyOp39
 70
     1
102
RTVSPropertyOp40
 70
     1
102
RTVSPropertyOp41
 70
     1
102
RTVSPropertyOp42
 70
     1
102
RTVSPropertyOp43
 70
     1
102
RTVSPropertyOp44
 70
     1
102
RTVSPropertyOp45
 70
     1
102
RTVSPropertyOp46
 70
     1
102
RTVSPropertyOp47
 70
     1
102
RTVSPropertyOp48
 70
     1
102
RTVSPropertyOp49
 70
     1
102
RTVSPropertyOp50
 70
     1
102
RTVSPropertyOp51
 70
     0
102
RTVSPropertyOp52
 70
     0
102
RTVSPropertyOp53
 70
     1
102
RTVSPropertyOp54
 70
     1
102
RTVSPropertyOp55
 70
     1
102
RTVSPropertyOp56
 70
     1
102
RTVSPropertyOp57
 70
     1
102
RTVSPropertyOp58
 70
     1
102
RTVSPropertyOp59
 70
     1
102
RTVSPropertyOp60
 70
     1
102
RTVSPropertyOp61
 70
     1
102
RTVSPropertyOp62
 70
     1
  0
XRECORD
  5
13545
102
{ACAD_REACTORS
330
13544
102
}
330
13544
100
AcDbXrecord
280
     1
102
RTVSPost2010Prop28
280
     0
102
RTVSPost2010PropOp28
 70
     1
102
RTVSPost2010Prop29
280
     1
102
RTVSPost2010PropOp29
 70
     1
102
RTVSPost2010Prop30
280
     1
102
RTVSPost2010PropOp30
 70
     1
102
RTVSPost2010Prop31
280
     0
102
RTVSPost2010PropOp31
 70
     1
102
RTVSPost2010Prop32
280
     0
102
RTVSPost2010PropOp32
 70
     1
102
RTVSPost2010Prop33
280
     0
102
RTVSPost2010PropOp33
 70
     1
102
RTVSPost2010Prop34
280
     0
102
RTVSPost2010PropOp34
 70
     1
102
RTVSPost2010Prop35
280
     0
102
RTVSPost2010PropOp35
 70
     1
102
RTVSPost2010Prop36
280
     0
102
RTVSPost2010PropOp36
 70
     1
102
RTVSPost2010Prop37
 90
       50
102
RTVSPost2010PropOp37
 70
     1
102
RTVSPost2010Prop38
140
0.0
102
RTVSPost2010PropOp38
 70
     1
102
RTVSPost2010Prop39
140
1.0
102
RTVSPost2010PropOp39
 70
     1
102
RTVSPost2010Prop40
 90
        0
102
RTVSPost2010PropOp40
 70
     1
102
RTVSPost2010Prop41ColorIndex
 90
       18
102
RTVSPost2010Prop41ColorRGB
 90
        0
102
RTVSPost2010PropOp41
 70
     1
102
RTVSPost2010Prop42
 90
       50
102
RTVSPost2010PropOp42
 70
     1
102
RTVSPost2010Prop43
 90
        3
102
RTVSPost2010PropOp43
 70
     1
102
RTVSPost2010Prop44ColorIndex
 90
        5
102
RTVSPost2010Prop44ColorRGB
 90
      255
102
RTVSPost2010PropOp44
 70
     1
102
RTVSPost2010Prop45
280
     0
102
RTVSPost2010PropOp45
 70
     1
102
RTVSPost2010Prop46
 90
       50
102
RTVSPost2010PropOp46
 70
     1
102
RTVSPost2010Prop47
 90
       50
102
RTVSPost2010PropOp47
 70
     1
102
RTVSPost2010Prop48
 90
       50
102
RTVSPost2010PropOp48
 70
     1
102
RTVSPost2010Prop49
280
     0
102
RTVSPost2010PropOp49
 70
     1
102
RTVSPost2010Prop50
 90
       50
102
RTVSPost2010PropOp50
 70
     1
102
RTVSPost2010Prop51ColorIndex
 90
      256
102
RTVSPost2010Prop51ColorRGB
 90
-16777216
102
RTVSPost2010PropOp51
 70
     0
102
RTVSPost2010Prop52
140
1.0
102
RTVSPost2010PropOp52
 70
     0
102
RTVSPost2010Prop53
 90
        2
102
RTVSPost2010PropOp53
 70
     1
102
RTVSPost2010Prop54
  1
strokes_ogs.tif
102
RTVSPost2010PropOp54
 70
     1
102
RTVSPost2010Prop55
280
     0
102
RTVSPost2010PropOp55
 70
     1
102
RTVSPost2010Prop56
140
1.0
102
RTVSPost2010PropOp56
 70
     1
102
RTVSPost2010Prop57
140
1.0
102
RTVSPost2010PropOp57
 70
     1
102
RTVSPropertyOp0
 70
     1
102
RTVSPropertyOp1
 70
     1
102
RTVSPropertyOp2
 70
     1
102
RTVSPropertyOp3
 70
     1
102
RTVSPropertyOp4
 70
     1
102
RTVSPropertyOp5
 70
     1
102
RTVSPropertyOp6
 70
     1
102
RTVSPropertyOp7
 70
     1
102
RTVSPropertyOp8
 70
     1
102
RTVSPropertyOp9
 70
     1
102
RTVSPropertyOp10
 70
     1
102
RTVSPropertyOp11
 70
     1
102
RTVSPropertyOp12
 70
     1
102
RTVSPropertyOp13
 70
     1
102
RTVSPropertyOp14
 70
     1
102
RTVSPropertyOp15
 70
     1
102
RTVSPropertyOp16
 70
     1
102
RTVSPropertyOp17
 70
     1
102
RTVSPropertyOp18
 70
     1
102
RTVSPropertyOp19
 70
     1
102
RTVSPropertyOp20
 70
     1
102
RTVSPropertyOp21
 70
     1
102
RTVSPropertyOp22
 70
     1
102
RTVSPropertyOp23
 70
     1
102
RTVSPropertyOp24
 70
     1
102
RTVSPropertyOp25
 70
     1
102
RTVSPropertyOp26
 70
     1
102
RTVSPropertyOp27
 70
     1
102
RTVSPropertyOp28
 70
     1
102
RTVSPropertyOp29
 70
     1
102
RTVSPropertyOp30
 70
     1
102
RTVSPropertyOp31
 70
     1
102
RTVSPropertyOp32
 70
     1
102
RTVSPropertyOp33
 70
     1
102
RTVSPropertyOp34
 70
     1
102
RTVSPropertyOp35
 70
     1
102
RTVSPropertyOp36
 70
     1
102
RTVSPropertyOp37
 70
     1
102
RTVSPropertyOp38
 70
     1
102
RTVSPropertyOp39
 70
     1
102
RTVSPropertyOp40
 70
     1
102
RTVSPropertyOp41
 70
     1
102
RTVSPropertyOp42
 70
     1
102
RTVSPropertyOp43
 70
     1
102
RTVSPropertyOp44
 70
     1
102
RTVSPropertyOp45
 70
     1
102
RTVSPropertyOp46
 70
     1
102
RTVSPropertyOp47
 70
     1
102
RTVSPropertyOp48
 70
     1
102
RTVSPropertyOp49
 70
     1
102
RTVSPropertyOp50
 70
     1
102
RTVSPropertyOp51
 70
     0
102
RTVSPropertyOp52
 70
     0
102
RTVSPropertyOp53
 70
     1
102
RTVSPropertyOp54
 70
     1
102
RTVSPropertyOp55
 70
     1
102
RTVSPropertyOp56
 70
     1
102
RTVSPropertyOp57
 70
     1
102
RTVSPropertyOp58
 70
     1
102
RTVSPropertyOp59
 70
     1
102
RTVSPropertyOp60
 70
     1
102
RTVSPropertyOp61
 70
     1
102
RTVSPropertyOp62
 70
     1
  0
XRECORD
  5
13529
102
{ACAD_REACTORS
330
13528
102
}
330
13528
100
AcDbXrecord
280
     1
102
RTVSPost2010Prop28
280
     0
102
RTVSPost2010PropOp28
 70
     1
102
RTVSPost2010Prop29
280
     1
102
RTVSPost2010PropOp29
 70
     1
102
RTVSPost2010Prop30
280
     1
102
RTVSPost2010PropOp30
 70
     1
102
RTVSPost2010Prop31
280
     0
102
RTVSPost2010PropOp31
 70
     1
102
RTVSPost2010Prop32
280
     0
102
RTVSPost2010PropOp32
 70
     1
102
RTVSPost2010Prop33
280
     0
102
RTVSPost2010PropOp33
 70
     1
102
RTVSPost2010Prop34
280
     0
102
RTVSPost2010PropOp34
 70
     1
102
RTVSPost2010Prop35
280
     0
102
RTVSPost2010PropOp35
 70
     1
102
RTVSPost2010Prop36
280
     0
102
RTVSPost2010PropOp36
 70
     1
102
RTVSPost2010Prop37
 90
       50
102
RTVSPost2010PropOp37
 70
     1
102
RTVSPost2010Prop38
140
0.0
102
RTVSPost2010PropOp38
 70
     1
102
RTVSPost2010Prop39
140
1.0
102
RTVSPost2010PropOp39
 70
     1
102
RTVSPost2010Prop40
 90
        0
102
RTVSPost2010PropOp40
 70
     1
102
RTVSPost2010Prop41ColorIndex
 90
       18
102
RTVSPost2010Prop41ColorRGB
 90
        0
102
RTVSPost2010PropOp41
 70
     1
102
RTVSPost2010Prop42
 90
       50
102
RTVSPost2010PropOp42
 70
     1
102
RTVSPost2010Prop43
 90
        3
102
RTVSPost2010PropOp43
 70
     1
102
RTVSPost2010Prop44ColorIndex
 90
        5
102
RTVSPost2010Prop44ColorRGB
 90
      255
102
RTVSPost2010PropOp44
 70
     1
102
RTVSPost2010Prop45
280
     0
102
RTVSPost2010PropOp45
 70
     1
102
RTVSPost2010Prop46
 90
       50
102
RTVSPost2010PropOp46
 70
     1
102
RTVSPost2010Prop47
 90
       50
102
RTVSPost2010PropOp47
 70
     1
102
RTVSPost2010Prop48
 90
       50
102
RTVSPost2010PropOp48
 70
     1
102
RTVSPost2010Prop49
280
     0
102
RTVSPost2010PropOp49
 70
     1
102
RTVSPost2010Prop50
 90
       50
102
RTVSPost2010PropOp50
 70
     1
102
RTVSPost2010Prop51ColorIndex
 90
      256
102
RTVSPost2010Prop51ColorRGB
 90
-16777216
102
RTVSPost2010PropOp51
 70
     0
102
RTVSPost2010Prop52
140
1.0
102
RTVSPost2010PropOp52
 70
     0
102
RTVSPost2010Prop53
 90
        2
102
RTVSPost2010PropOp53
 70
     1
102
RTVSPost2010Prop54
  1
strokes_ogs.tif
102
RTVSPost2010PropOp54
 70
     1
102
RTVSPost2010Prop55
280
     0
102
RTVSPost2010PropOp55
 70
     1
102
RTVSPost2010Prop56
140
1.0
102
RTVSPost2010PropOp56
 70
     1
102
RTVSPost2010Prop57
140
1.0
102
RTVSPost2010PropOp57
 70
     1
102
RTVSPropertyOp0
 70
     1
102
RTVSPropertyOp1
 70
     1
102
RTVSPropertyOp2
 70
     1
102
RTVSPropertyOp3
 70
     1
102
RTVSPropertyOp4
 70
     1
102
RTVSPropertyOp5
 70
     1
102
RTVSPropertyOp6
 70
     1
102
RTVSPropertyOp7
 70
     1
102
RTVSPropertyOp8
 70
     1
102
RTVSPropertyOp9
 70
     1
102
RTVSPropertyOp10
 70
     1
102
RTVSPropertyOp11
 70
     1
102
RTVSPropertyOp12
 70
     1
102
RTVSPropertyOp13
 70
     1
102
RTVSPropertyOp14
 70
     1
102
RTVSPropertyOp15
 70
     1
102
RTVSPropertyOp16
 70
     1
102
RTVSPropertyOp17
 70
     1
102
RTVSPropertyOp18
 70
     1
102
RTVSPropertyOp19
 70
     1
102
RTVSPropertyOp20
 70
     1
102
RTVSPropertyOp21
 70
     1
102
RTVSPropertyOp22
 70
     1
102
RTVSPropertyOp23
 70
     1
102
RTVSPropertyOp24
 70
     1
102
RTVSPropertyOp25
 70
     1
102
RTVSPropertyOp26
 70
     1
102
RTVSPropertyOp27
 70
     1
102
RTVSPropertyOp28
 70
     1
102
RTVSPropertyOp29
 70
     1
102
RTVSPropertyOp30
 70
     1
102
RTVSPropertyOp31
 70
     1
102
RTVSPropertyOp32
 70
     1
102
RTVSPropertyOp33
 70
     1
102
RTVSPropertyOp34
 70
     1
102
RTVSPropertyOp35
 70
     1
102
RTVSPropertyOp36
 70
     1
102
RTVSPropertyOp37
 70
     1
102
RTVSPropertyOp38
 70
     1
102
RTVSPropertyOp39
 70
     1
102
RTVSPropertyOp40
 70
     1
102
RTVSPropertyOp41
 70
     1
102
RTVSPropertyOp42
 70
     1
102
RTVSPropertyOp43
 70
     1
102
RTVSPropertyOp44
 70
     1
102
RTVSPropertyOp45
 70
     1
102
RTVSPropertyOp46
 70
     1
102
RTVSPropertyOp47
 70
     1
102
RTVSPropertyOp48
 70
     1
102
RTVSPropertyOp49
 70
     1
102
RTVSPropertyOp50
 70
     1
102
RTVSPropertyOp51
 70
     0
102
RTVSPropertyOp52
 70
     0
102
RTVSPropertyOp53
 70
     1
102
RTVSPropertyOp54
 70
     1
102
RTVSPropertyOp55
 70
     1
102
RTVSPropertyOp56
 70
     1
102
RTVSPropertyOp57
 70
     1
102
RTVSPropertyOp58
 70
     1
102
RTVSPropertyOp59
 70
     1
102
RTVSPropertyOp60
 70
     1
102
RTVSPropertyOp61
 70
     1
102
RTVSPropertyOp62
 70
     1
  0
XRECORD
  5
1352B
102
{ACAD_REACTORS
330
1352A
102
}
330
1352A
100
AcDbXrecord
280
     1
102
RTVSPost2010Prop28
280
     0
102
RTVSPost2010PropOp28
 70
     1
102
RTVSPost2010Prop29
280
     1
102
RTVSPost2010PropOp29
 70
     1
102
RTVSPost2010Prop30
280
     1
102
RTVSPost2010PropOp30
 70
     1
102
RTVSPost2010Prop31
280
     0
102
RTVSPost2010PropOp31
 70
     1
102
RTVSPost2010Prop32
280
     0
102
RTVSPost2010PropOp32
 70
     1
102
RTVSPost2010Prop33
280
     0
102
RTVSPost2010PropOp33
 70
     1
102
RTVSPost2010Prop34
280
     0
102
RTVSPost2010PropOp34
 70
     1
102
RTVSPost2010Prop35
280
     0
102
RTVSPost2010PropOp35
 70
     1
102
RTVSPost2010Prop36
280
     0
102
RTVSPost2010PropOp36
 70
     1
102
RTVSPost2010Prop37
 90
       50
102
RTVSPost2010PropOp37
 70
     1
102
RTVSPost2010Prop38
140
0.0
102
RTVSPost2010PropOp38
 70
     1
102
RTVSPost2010Prop39
140
1.0
102
RTVSPost2010PropOp39
 70
     1
102
RTVSPost2010Prop40
 90
        0
102
RTVSPost2010PropOp40
 70
     1
102
RTVSPost2010Prop41ColorIndex
 90
       18
102
RTVSPost2010Prop41ColorRGB
 90
        0
102
RTVSPost2010PropOp41
 70
     1
102
RTVSPost2010Prop42
 90
       50
102
RTVSPost2010PropOp42
 70
     1
102
RTVSPost2010Prop43
 90
        3
102
RTVSPost2010PropOp43
 70
     1
102
RTVSPost2010Prop44ColorIndex
 90
        5
102
RTVSPost2010Prop44ColorRGB
 90
      255
102
RTVSPost2010PropOp44
 70
     1
102
RTVSPost2010Prop45
280
     0
102
RTVSPost2010PropOp45
 70
     1
102
RTVSPost2010Prop46
 90
       50
102
RTVSPost2010PropOp46
 70
     1
102
RTVSPost2010Prop47
 90
       50
102
RTVSPost2010PropOp47
 70
     1
102
RTVSPost2010Prop48
 90
       50
102
RTVSPost2010PropOp48
 70
     1
102
RTVSPost2010Prop49
280
     0
102
RTVSPost2010PropOp49
 70
     1
102
RTVSPost2010Prop50
 90
       50
102
RTVSPost2010PropOp50
 70
     1
102
RTVSPost2010Prop51ColorIndex
 90
      256
102
RTVSPost2010Prop51ColorRGB
 90
-16777216
102
RTVSPost2010PropOp51
 70
     0
102
RTVSPost2010Prop52
140
1.0
102
RTVSPost2010PropOp52
 70
     0
102
RTVSPost2010Prop53
 90
        2
102
RTVSPost2010PropOp53
 70
     1
102
RTVSPost2010Prop54
  1
strokes_ogs.tif
102
RTVSPost2010PropOp54
 70
     1
102
RTVSPost2010Prop55
280
     0
102
RTVSPost2010PropOp55
 70
     1
102
RTVSPost2010Prop56
140
1.0
102
RTVSPost2010PropOp56
 70
     1
102
RTVSPost2010Prop57
140
1.0
102
RTVSPost2010PropOp57
 70
     1
102
RTVSPropertyOp0
 70
     1
102
RTVSPropertyOp1
 70
     1
102
RTVSPropertyOp2
 70
     1
102
RTVSPropertyOp3
 70
     1
102
RTVSPropertyOp4
 70
     1
102
RTVSPropertyOp5
 70
     1
102
RTVSPropertyOp6
 70
     1
102
RTVSPropertyOp7
 70
     1
102
RTVSPropertyOp8
 70
     1
102
RTVSPropertyOp9
 70
     1
102
RTVSPropertyOp10
 70
     1
102
RTVSPropertyOp11
 70
     1
102
RTVSPropertyOp12
 70
     1
102
RTVSPropertyOp13
 70
     1
102
RTVSPropertyOp14
 70
     1
102
RTVSPropertyOp15
 70
     1
102
RTVSPropertyOp16
 70
     1
102
RTVSPropertyOp17
 70
     1
102
RTVSPropertyOp18
 70
     1
102
RTVSPropertyOp19
 70
     1
102
RTVSPropertyOp20
 70
     1
102
RTVSPropertyOp21
 70
     1
102
RTVSPropertyOp22
 70
     1
102
RTVSPropertyOp23
 70
     1
102
RTVSPropertyOp24
 70
     1
102
RTVSPropertyOp25
 70
     1
102
RTVSPropertyOp26
 70
     1
102
RTVSPropertyOp27
 70
     1
102
RTVSPropertyOp28
 70
     1
102
RTVSPropertyOp29
 70
     1
102
RTVSPropertyOp30
 70
     1
102
RTVSPropertyOp31
 70
     1
102
RTVSPropertyOp32
 70
     1
102
RTVSPropertyOp33
 70
     1
102
RTVSPropertyOp34
 70
     1
102
RTVSPropertyOp35
 70
     1
102
RTVSPropertyOp36
 70
     1
102
RTVSPropertyOp37
 70
     1
102
RTVSPropertyOp38
 70
     1
102
RTVSPropertyOp39
 70
     1
102
RTVSPropertyOp40
 70
     1
102
RTVSPropertyOp41
 70
     1
102
RTVSPropertyOp42
 70
     1
102
RTVSPropertyOp43
 70
     1
102
RTVSPropertyOp44
 70
     1
102
RTVSPropertyOp45
 70
     1
102
RTVSPropertyOp46
 70
     1
102
RTVSPropertyOp47
 70
     1
102
RTVSPropertyOp48
 70
     1
102
RTVSPropertyOp49
 70
     1
102
RTVSPropertyOp50
 70
     1
102
RTVSPropertyOp51
 70
     0
102
RTVSPropertyOp52
 70
     0
102
RTVSPropertyOp53
 70
     1
102
RTVSPropertyOp54
 70
     1
102
RTVSPropertyOp55
 70
     1
102
RTVSPropertyOp56
 70
     1
102
RTVSPropertyOp57
 70
     1
102
RTVSPropertyOp58
 70
     1
102
RTVSPropertyOp59
 70
     1
102
RTVSPropertyOp60
 70
     1
102
RTVSPropertyOp61
 70
     1
102
RTVSPropertyOp62
 70
     1
  0
XRECORD
  5
1352D
102
{ACAD_REACTORS
330
1352C
102
}
330
1352C
100
AcDbXrecord
280
     1
102
RTVSPost2010Prop28
280
     0
102
RTVSPost2010PropOp28
 70
     1
102
RTVSPost2010Prop29
280
     1
102
RTVSPost2010PropOp29
 70
     1
102
RTVSPost2010Prop30
280
     1
102
RTVSPost2010PropOp30
 70
     1
102
RTVSPost2010Prop31
280
     0
102
RTVSPost2010PropOp31
 70
     1
102
RTVSPost2010Prop32
280
     0
102
RTVSPost2010PropOp32
 70
     1
102
RTVSPost2010Prop33
280
     0
102
RTVSPost2010PropOp33
 70
     1
102
RTVSPost2010Prop34
280
     0
102
RTVSPost2010PropOp34
 70
     1
102
RTVSPost2010Prop35
280
     0
102
RTVSPost2010PropOp35
 70
     1
102
RTVSPost2010Prop36
280
     0
102
RTVSPost2010PropOp36
 70
     1
102
RTVSPost2010Prop37
 90
       50
102
RTVSPost2010PropOp37
 70
     1
102
RTVSPost2010Prop38
140
0.0
102
RTVSPost2010PropOp38
 70
     1
102
RTVSPost2010Prop39
140
1.0
102
RTVSPost2010PropOp39
 70
     1
102
RTVSPost2010Prop40
 90
        0
102
RTVSPost2010PropOp40
 70
     1
102
RTVSPost2010Prop41ColorIndex
 90
       18
102
RTVSPost2010Prop41ColorRGB
 90
        0
102
RTVSPost2010PropOp41
 70
     1
102
RTVSPost2010Prop42
 90
       50
102
RTVSPost2010PropOp42
 70
     1
102
RTVSPost2010Prop43
 90
        3
102
RTVSPost2010PropOp43
 70
     1
102
RTVSPost2010Prop44ColorIndex
 90
        5
102
RTVSPost2010Prop44ColorRGB
 90
      255
102
RTVSPost2010PropOp44
 70
     1
102
RTVSPost2010Prop45
280
     0
102
RTVSPost2010PropOp45
 70
     1
102
RTVSPost2010Prop46
 90
       50
102
RTVSPost2010PropOp46
 70
     1
102
RTVSPost2010Prop47
 90
       50
102
RTVSPost2010PropOp47
 70
     1
102
RTVSPost2010Prop48
 90
       50
102
RTVSPost2010PropOp48
 70
     1
102
RTVSPost2010Prop49
280
     0
102
RTVSPost2010PropOp49
 70
     1
102
RTVSPost2010Prop50
 90
       50
102
RTVSPost2010PropOp50
 70
     1
102
RTVSPost2010Prop51ColorIndex
 90
      256
102
RTVSPost2010Prop51ColorRGB
 90
-16777216
102
RTVSPost2010PropOp51
 70
     0
102
RTVSPost2010Prop52
140
1.0
102
RTVSPost2010PropOp52
 70
     0
102
RTVSPost2010Prop53
 90
        2
102
RTVSPost2010PropOp53
 70
     1
102
RTVSPost2010Prop54
  1
strokes_ogs.tif
102
RTVSPost2010PropOp54
 70
     1
102
RTVSPost2010Prop55
280
     0
102
RTVSPost2010PropOp55
 70
     1
102
RTVSPost2010Prop56
140
1.0
102
RTVSPost2010PropOp56
 70
     1
102
RTVSPost2010Prop57
140
1.0
102
RTVSPost2010PropOp57
 70
     1
102
RTVSPropertyOp0
 70
     1
102
RTVSPropertyOp1
 70
     1
102
RTVSPropertyOp2
 70
     1
102
RTVSPropertyOp3
 70
     1
102
RTVSPropertyOp4
 70
     1
102
RTVSPropertyOp5
 70
     1
102
RTVSPropertyOp6
 70
     1
102
RTVSPropertyOp7
 70
     1
102
RTVSPropertyOp8
 70
     1
102
RTVSPropertyOp9
 70
     1
102
RTVSPropertyOp10
 70
     1
102
RTVSPropertyOp11
 70
     1
102
RTVSPropertyOp12
 70
     1
102
RTVSPropertyOp13
 70
     1
102
RTVSPropertyOp14
 70
     1
102
RTVSPropertyOp15
 70
     1
102
RTVSPropertyOp16
 70
     1
102
RTVSPropertyOp17
 70
     1
102
RTVSPropertyOp18
 70
     1
102
RTVSPropertyOp19
 70
     1
102
RTVSPropertyOp20
 70
     1
102
RTVSPropertyOp21
 70
     1
102
RTVSPropertyOp22
 70
     1
102
RTVSPropertyOp23
 70
     1
102
RTVSPropertyOp24
 70
     1
102
RTVSPropertyOp25
 70
     1
102
RTVSPropertyOp26
 70
     1
102
RTVSPropertyOp27
 70
     1
102
RTVSPropertyOp28
 70
     1
102
RTVSPropertyOp29
 70
     1
102
RTVSPropertyOp30
 70
     1
102
RTVSPropertyOp31
 70
     1
102
RTVSPropertyOp32
 70
     1
102
RTVSPropertyOp33
 70
     1
102
RTVSPropertyOp34
 70
     1
102
RTVSPropertyOp35
 70
     1
102
RTVSPropertyOp36
 70
     1
102
RTVSPropertyOp37
 70
     1
102
RTVSPropertyOp38
 70
     1
102
RTVSPropertyOp39
 70
     1
102
RTVSPropertyOp40
 70
     1
102
RTVSPropertyOp41
 70
     1
102
RTVSPropertyOp42
 70
     1
102
RTVSPropertyOp43
 70
     1
102
RTVSPropertyOp44
 70
     1
102
RTVSPropertyOp45
 70
     1
102
RTVSPropertyOp46
 70
     1
102
RTVSPropertyOp47
 70
     1
102
RTVSPropertyOp48
 70
     1
102
RTVSPropertyOp49
 70
     1
102
RTVSPropertyOp50
 70
     1
102
RTVSPropertyOp51
 70
     0
102
RTVSPropertyOp52
 70
     0
102
RTVSPropertyOp53
 70
     1
102
RTVSPropertyOp54
 70
     1
102
RTVSPropertyOp55
 70
     1
102
RTVSPropertyOp56
 70
     1
102
RTVSPropertyOp57
 70
     1
102
RTVSPropertyOp58
 70
     1
102
RTVSPropertyOp59
 70
     1
102
RTVSPropertyOp60
 70
     1
102
RTVSPropertyOp61
 70
     1
102
RTVSPropertyOp62
 70
     1
  0
XRECORD
  5
1352F
102
{ACAD_REACTORS
330
1352E
102
}
330
1352E
100
AcDbXrecord
280
     1
102
RTVSPost2010Prop28
280
     0
102
RTVSPost2010PropOp28
 70
     1
102
RTVSPost2010Prop29
280
     1
102
RTVSPost2010PropOp29
 70
     1
102
RTVSPost2010Prop30
280
     1
102
RTVSPost2010PropOp30
 70
     1
102
RTVSPost2010Prop31
280
     0
102
RTVSPost2010PropOp31
 70
     1
102
RTVSPost2010Prop32
280
     0
102
RTVSPost2010PropOp32
 70
     1
102
RTVSPost2010Prop33
280
     0
102
RTVSPost2010PropOp33
 70
     1
102
RTVSPost2010Prop34
280
     0
102
RTVSPost2010PropOp34
 70
     1
102
RTVSPost2010Prop35
280
     0
102
RTVSPost2010PropOp35
 70
     1
102
RTVSPost2010Prop36
280
     0
102
RTVSPost2010PropOp36
 70
     1
102
RTVSPost2010Prop37
 90
       50
102
RTVSPost2010PropOp37
 70
     1
102
RTVSPost2010Prop38
140
0.0
102
RTVSPost2010PropOp38
 70
     1
102
RTVSPost2010Prop39
140
1.0
102
RTVSPost2010PropOp39
 70
     1
102
RTVSPost2010Prop40
 90
        0
102
RTVSPost2010PropOp40
 70
     1
102
RTVSPost2010Prop41ColorIndex
 90
       18
102
RTVSPost2010Prop41ColorRGB
 90
        0
102
RTVSPost2010PropOp41
 70
     1
102
RTVSPost2010Prop42
 90
       50
102
RTVSPost2010PropOp42
 70
     1
102
RTVSPost2010Prop43
 90
        3
102
RTVSPost2010PropOp43
 70
     1
102
RTVSPost2010Prop44ColorIndex
 90
        5
102
RTVSPost2010Prop44ColorRGB
 90
      255
102
RTVSPost2010PropOp44
 70
     1
102
RTVSPost2010Prop45
280
     0
102
RTVSPost2010PropOp45
 70
     1
102
RTVSPost2010Prop46
 90
       50
102
RTVSPost2010PropOp46
 70
     1
102
RTVSPost2010Prop47
 90
       50
102
RTVSPost2010PropOp47
 70
     1
102
RTVSPost2010Prop48
 90
       50
102
RTVSPost2010PropOp48
 70
     1
102
RTVSPost2010Prop49
280
     0
102
RTVSPost2010PropOp49
 70
     1
102
RTVSPost2010Prop50
 90
       50
102
RTVSPost2010PropOp50
 70
     1
102
RTVSPost2010Prop51ColorIndex
 90
      256
102
RTVSPost2010Prop51ColorRGB
 90
-16777216
102
RTVSPost2010PropOp51
 70
     0
102
RTVSPost2010Prop52
140
1.0
102
RTVSPost2010PropOp52
 70
     0
102
RTVSPost2010Prop53
 90
        2
102
RTVSPost2010PropOp53
 70
     1
102
RTVSPost2010Prop54
  1
strokes_ogs.tif
102
RTVSPost2010PropOp54
 70
     1
102
RTVSPost2010Prop55
280
     0
102
RTVSPost2010PropOp55
 70
     1
102
RTVSPost2010Prop56
140
1.0
102
RTVSPost2010PropOp56
 70
     1
102
RTVSPost2010Prop57
140
1.0
102
RTVSPost2010PropOp57
 70
     1
102
RTVSPropertyOp0
 70
     1
102
RTVSPropertyOp1
 70
     1
102
RTVSPropertyOp2
 70
     1
102
RTVSPropertyOp3
 70
     1
102
RTVSPropertyOp4
 70
     1
102
RTVSPropertyOp5
 70
     1
102
RTVSPropertyOp6
 70
     1
102
RTVSPropertyOp7
 70
     1
102
RTVSPropertyOp8
 70
     1
102
RTVSPropertyOp9
 70
     1
102
RTVSPropertyOp10
 70
     1
102
RTVSPropertyOp11
 70
     1
102
RTVSPropertyOp12
 70
     1
102
RTVSPropertyOp13
 70
     1
102
RTVSPropertyOp14
 70
     1
102
RTVSPropertyOp15
 70
     1
102
RTVSPropertyOp16
 70
     1
102
RTVSPropertyOp17
 70
     1
102
RTVSPropertyOp18
 70
     1
102
RTVSPropertyOp19
 70
     1
102
RTVSPropertyOp20
 70
     1
102
RTVSPropertyOp21
 70
     1
102
RTVSPropertyOp22
 70
     1
102
RTVSPropertyOp23
 70
     1
102
RTVSPropertyOp24
 70
     1
102
RTVSPropertyOp25
 70
     1
102
RTVSPropertyOp26
 70
     1
102
RTVSPropertyOp27
 70
     1
102
RTVSPropertyOp28
 70
     1
102
RTVSPropertyOp29
 70
     1
102
RTVSPropertyOp30
 70
     1
102
RTVSPropertyOp31
 70
     1
102
RTVSPropertyOp32
 70
     1
102
RTVSPropertyOp33
 70
     1
102
RTVSPropertyOp34
 70
     1
102
RTVSPropertyOp35
 70
     1
102
RTVSPropertyOp36
 70
     1
102
RTVSPropertyOp37
 70
     1
102
RTVSPropertyOp38
 70
     1
102
RTVSPropertyOp39
 70
     1
102
RTVSPropertyOp40
 70
     1
102
RTVSPropertyOp41
 70
     1
102
RTVSPropertyOp42
 70
     1
102
RTVSPropertyOp43
 70
     1
102
RTVSPropertyOp44
 70
     1
102
RTVSPropertyOp45
 70
     1
102
RTVSPropertyOp46
 70
     1
102
RTVSPropertyOp47
 70
     1
102
RTVSPropertyOp48
 70
     1
102
RTVSPropertyOp49
 70
     1
102
RTVSPropertyOp50
 70
     1
102
RTVSPropertyOp51
 70
     0
102
RTVSPropertyOp52
 70
     0
102
RTVSPropertyOp53
 70
     1
102
RTVSPropertyOp54
 70
     1
102
RTVSPropertyOp55
 70
     1
102
RTVSPropertyOp56
 70
     1
102
RTVSPropertyOp57
 70
     1
102
RTVSPropertyOp58
 70
     1
102
RTVSPropertyOp59
 70
     1
102
RTVSPropertyOp60
 70
     1
102
RTVSPropertyOp61
 70
     1
102
RTVSPropertyOp62
 70
     1
  0
XRECORD
  5
13537
102
{ACAD_REACTORS
330
13536
102
}
330
13536
100
AcDbXrecord
280
     1
102
RTVSPost2010Prop28
280
     0
102
RTVSPost2010PropOp28
 70
     1
102
RTVSPost2010Prop29
280
     1
102
RTVSPost2010PropOp29
 70
     1
102
RTVSPost2010Prop30
280
     1
102
RTVSPost2010PropOp30
 70
     1
102
RTVSPost2010Prop31
280
     0
102
RTVSPost2010PropOp31
 70
     1
102
RTVSPost2010Prop32
280
     0
102
RTVSPost2010PropOp32
 70
     1
102
RTVSPost2010Prop33
280
     0
102
RTVSPost2010PropOp33
 70
     1
102
RTVSPost2010Prop34
280
     0
102
RTVSPost2010PropOp34
 70
     1
102
RTVSPost2010Prop35
280
     0
102
RTVSPost2010PropOp35
 70
     1
102
RTVSPost2010Prop36
280
     0
102
RTVSPost2010PropOp36
 70
     1
102
RTVSPost2010Prop37
 90
       50
102
RTVSPost2010PropOp37
 70
     1
102
RTVSPost2010Prop38
140
0.0
102
RTVSPost2010PropOp38
 70
     1
102
RTVSPost2010Prop39
140
1.0
102
RTVSPost2010PropOp39
 70
     1
102
RTVSPost2010Prop40
 90
        0
102
RTVSPost2010PropOp40
 70
     1
102
RTVSPost2010Prop41ColorIndex
 90
       18
102
RTVSPost2010Prop41ColorRGB
 90
        0
102
RTVSPost2010PropOp41
 70
     1
102
RTVSPost2010Prop42
 90
       50
102
RTVSPost2010PropOp42
 70
     1
102
RTVSPost2010Prop43
 90
        3
102
RTVSPost2010PropOp43
 70
     1
102
RTVSPost2010Prop44ColorIndex
 90
        5
102
RTVSPost2010Prop44ColorRGB
 90
      255
102
RTVSPost2010PropOp44
 70
     1
102
RTVSPost2010Prop45
280
     0
102
RTVSPost2010PropOp45
 70
     1
102
RTVSPost2010Prop46
 90
       50
102
RTVSPost2010PropOp46
 70
     1
102
RTVSPost2010Prop47
 90
       50
102
RTVSPost2010PropOp47
 70
     1
102
RTVSPost2010Prop48
 90
       50
102
RTVSPost2010PropOp48
 70
     1
102
RTVSPost2010Prop49
280
     0
102
RTVSPost2010PropOp49
 70
     1
102
RTVSPost2010Prop50
 90
       50
102
RTVSPost2010PropOp50
 70
     1
102
RTVSPost2010Prop51ColorIndex
 90
      256
102
RTVSPost2010Prop51ColorRGB
 90
-16777216
102
RTVSPost2010PropOp51
 70
     0
102
RTVSPost2010Prop52
140
1.0
102
RTVSPost2010PropOp52
 70
     0
102
RTVSPost2010Prop53
 90
        2
102
RTVSPost2010PropOp53
 70
     1
102
RTVSPost2010Prop54
  1
strokes_ogs.tif
102
RTVSPost2010PropOp54
 70
     1
102
RTVSPost2010Prop55
280
     0
102
RTVSPost2010PropOp55
 70
     1
102
RTVSPost2010Prop56
140
1.0
102
RTVSPost2010PropOp56
 70
     1
102
RTVSPost2010Prop57
140
1.0
102
RTVSPost2010PropOp57
 70
     1
102
RTVSPropertyOp0
 70
     1
102
RTVSPropertyOp1
 70
     1
102
RTVSPropertyOp2
 70
     1
102
RTVSPropertyOp3
 70
     1
102
RTVSPropertyOp4
 70
     1
102
RTVSPropertyOp5
 70
     1
102
RTVSPropertyOp6
 70
     1
102
RTVSPropertyOp7
 70
     1
102
RTVSPropertyOp8
 70
     1
102
RTVSPropertyOp9
 70
     1
102
RTVSPropertyOp10
 70
     1
102
RTVSPropertyOp11
 70
     1
102
RTVSPropertyOp12
 70
     1
102
RTVSPropertyOp13
 70
     1
102
RTVSPropertyOp14
 70
     1
102
RTVSPropertyOp15
 70
     1
102
RTVSPropertyOp16
 70
     1
102
RTVSPropertyOp17
 70
     1
102
RTVSPropertyOp18
 70
     1
102
RTVSPropertyOp19
 70
     1
102
RTVSPropertyOp20
 70
     1
102
RTVSPropertyOp21
 70
     1
102
RTVSPropertyOp22
 70
     1
102
RTVSPropertyOp23
 70
     1
102
RTVSPropertyOp24
 70
     1
102
RTVSPropertyOp25
 70
     1
102
RTVSPropertyOp26
 70
     1
102
RTVSPropertyOp27
 70
     1
102
RTVSPropertyOp28
 70
     1
102
RTVSPropertyOp29
 70
     1
102
RTVSPropertyOp30
 70
     1
102
RTVSPropertyOp31
 70
     1
102
RTVSPropertyOp32
 70
     1
102
RTVSPropertyOp33
 70
     1
102
RTVSPropertyOp34
 70
     1
102
RTVSPropertyOp35
 70
     1
102
RTVSPropertyOp36
 70
     1
102
RTVSPropertyOp37
 70
     1
102
RTVSPropertyOp38
 70
     1
102
RTVSPropertyOp39
 70
     1
102
RTVSPropertyOp40
 70
     1
102
RTVSPropertyOp41
 70
     1
102
RTVSPropertyOp42
 70
     1
102
RTVSPropertyOp43
 70
     1
102
RTVSPropertyOp44
 70
     1
102
RTVSPropertyOp45
 70
     1
102
RTVSPropertyOp46
 70
     1
102
RTVSPropertyOp47
 70
     1
102
RTVSPropertyOp48
 70
     1
102
RTVSPropertyOp49
 70
     1
102
RTVSPropertyOp50
 70
     1
102
RTVSPropertyOp51
 70
     0
102
RTVSPropertyOp52
 70
     0
102
RTVSPropertyOp53
 70
     1
102
RTVSPropertyOp54
 70
     1
102
RTVSPropertyOp55
 70
     1
102
RTVSPropertyOp56
 70
     1
102
RTVSPropertyOp57
 70
     1
102
RTVSPropertyOp58
 70
     1
102
RTVSPropertyOp59
 70
     1
102
RTVSPropertyOp60
 70
     1
102
RTVSPropertyOp61
 70
     1
102
RTVSPropertyOp62
 70
     1
  0
XRECORD
  5
1354B
102
{ACAD_REACTORS
330
1354A
102
}
330
1354A
100
AcDbXrecord
280
     1
102
RTVSPost2010Prop28
280
     0
102
RTVSPost2010PropOp28
 70
     1
102
RTVSPost2010Prop29
280
     1
102
RTVSPost2010PropOp29
 70
     1
102
RTVSPost2010Prop30
280
     1
102
RTVSPost2010PropOp30
 70
     1
102
RTVSPost2010Prop31
280
     0
102
RTVSPost2010PropOp31
 70
     1
102
RTVSPost2010Prop32
280
     0
102
RTVSPost2010PropOp32
 70
     1
102
RTVSPost2010Prop33
280
     0
102
RTVSPost2010PropOp33
 70
     1
102
RTVSPost2010Prop34
280
     0
102
RTVSPost2010PropOp34
 70
     1
102
RTVSPost2010Prop35
280
     0
102
RTVSPost2010PropOp35
 70
     1
102
RTVSPost2010Prop36
280
     0
102
RTVSPost2010PropOp36
 70
     1
102
RTVSPost2010Prop37
 90
       50
102
RTVSPost2010PropOp37
 70
     1
102
RTVSPost2010Prop38
140
0.0
102
RTVSPost2010PropOp38
 70
     1
102
RTVSPost2010Prop39
140
1.0
102
RTVSPost2010PropOp39
 70
     1
102
RTVSPost2010Prop40
 90
        0
102
RTVSPost2010PropOp40
 70
     1
102
RTVSPost2010Prop41ColorIndex
 90
       18
102
RTVSPost2010Prop41ColorRGB
 90
        0
102
RTVSPost2010PropOp41
 70
     1
102
RTVSPost2010Prop42
 90
       50
102
RTVSPost2010PropOp42
 70
     1
102
RTVSPost2010Prop43
 90
        3
102
RTVSPost2010PropOp43
 70
     1
102
RTVSPost2010Prop44ColorIndex
 90
        5
102
RTVSPost2010Prop44ColorRGB
 90
      255
102
RTVSPost2010PropOp44
 70
     1
102
RTVSPost2010Prop45
280
     0
102
RTVSPost2010PropOp45
 70
     1
102
RTVSPost2010Prop46
 90
       50
102
RTVSPost2010PropOp46
 70
     1
102
RTVSPost2010Prop47
 90
       50
102
RTVSPost2010PropOp47
 70
     1
102
RTVSPost2010Prop48
 90
       50
102
RTVSPost2010PropOp48
 70
     1
102
RTVSPost2010Prop49
280
     0
102
RTVSPost2010PropOp49
 70
     1
102
RTVSPost2010Prop50
 90
       50
102
RTVSPost2010PropOp50
 70
     1
102
RTVSPost2010Prop51ColorIndex
 90
      256
102
RTVSPost2010Prop51ColorRGB
 90
-16777216
102
RTVSPost2010PropOp51
 70
     0
102
RTVSPost2010Prop52
140
1.0
102
RTVSPost2010PropOp52
 70
     0
102
RTVSPost2010Prop53
 90
        2
102
RTVSPost2010PropOp53
 70
     1
102
RTVSPost2010Prop54
  1
strokes_ogs.tif
102
RTVSPost2010PropOp54
 70
     1
102
RTVSPost2010Prop55
280
     0
102
RTVSPost2010PropOp55
 70
     1
102
RTVSPost2010Prop56
140
1.0
102
RTVSPost2010PropOp56
 70
     1
102
RTVSPost2010Prop57
140
1.0
102
RTVSPost2010PropOp57
 70
     1
102
RTVSPropertyOp0
 70
     0
102
RTVSPropertyOp1
 70
     0
102
RTVSPropertyOp2
 70
     0
102
RTVSPropertyOp3
 70
     0
102
RTVSPropertyOp4
 70
     0
102
RTVSPropertyOp5
 70
     0
102
RTVSPropertyOp6
 70
     0
102
RTVSPropertyOp7
 70
     0
102
RTVSPropertyOp8
 70
     0
102
RTVSPropertyOp9
 70
     0
102
RTVSPropertyOp10
 70
     0
102
RTVSPropertyOp11
 70
     0
102
RTVSPropertyOp12
 70
     0
102
RTVSPropertyOp13
 70
     0
102
RTVSPropertyOp14
 70
     2
102
RTVSPropertyOp15
 70
     0
102
RTVSPropertyOp16
 70
     0
102
RTVSPropertyOp17
 70
     0
102
RTVSPropertyOp18
 70
     0
102
RTVSPropertyOp19
 70
     0
102
RTVSPropertyOp20
 70
     0
102
RTVSPropertyOp21
 70
     0
102
RTVSPropertyOp22
 70
     0
102
RTVSPropertyOp23
 70
     0
102
RTVSPropertyOp24
 70
     0
102
RTVSPropertyOp25
 70
     0
102
RTVSPropertyOp26
 70
     0
102
RTVSPropertyOp27
 70
     0
102
RTVSPropertyOp28
 70
     1
102
RTVSPropertyOp29
 70
     1
102
RTVSPropertyOp30
 70
     1
102
RTVSPropertyOp31
 70
     1
102
RTVSPropertyOp32
 70
     1
102
RTVSPropertyOp33
 70
     1
102
RTVSPropertyOp34
 70
     1
102
RTVSPropertyOp35
 70
     1
102
RTVSPropertyOp36
 70
     1
102
RTVSPropertyOp37
 70
     1
102
RTVSPropertyOp38
 70
     1
102
RTVSPropertyOp39
 70
     1
102
RTVSPropertyOp40
 70
     1
102
RTVSPropertyOp41
 70
     1
102
RTVSPropertyOp42
 70
     1
102
RTVSPropertyOp43
 70
     1
102
RTVSPropertyOp44
 70
     1
102
RTVSPropertyOp45
 70
     1
102
RTVSPropertyOp46
 70
     1
102
RTVSPropertyOp47
 70
     1
102
RTVSPropertyOp48
 70
     1
102
RTVSPropertyOp49
 70
     1
102
RTVSPropertyOp50
 70
     1
102
RTVSPropertyOp51
 70
     0
102
RTVSPropertyOp52
 70
     0
102
RTVSPropertyOp53
 70
     1
102
RTVSPropertyOp54
 70
     1
102
RTVSPropertyOp55
 70
     1
102
RTVSPropertyOp56
 70
     1
102
RTVSPropertyOp57
 70
     1
102
RTVSPropertyOp58
 70
     1
102
RTVSPropertyOp59
 70
     1
102
RTVSPropertyOp60
 70
     1
102
RTVSPropertyOp61
 70
     1
102
RTVSPropertyOp62
 70
     1
  0
XRECORD
  5
13543
102
{ACAD_REACTORS
330
13542
102
}
330
13542
100
AcDbXrecord
280
     1
102
RTVSPost2010Prop28
280
     0
102
RTVSPost2010PropOp28
 70
     1
102
RTVSPost2010Prop29
280
     1
102
RTVSPost2010PropOp29
 70
     1
102
RTVSPost2010Prop30
280
     1
102
RTVSPost2010PropOp30
 70
     1
102
RTVSPost2010Prop31
280
     0
102
RTVSPost2010PropOp31
 70
     1
102
RTVSPost2010Prop32
280
     0
102
RTVSPost2010PropOp32
 70
     1
102
RTVSPost2010Prop33
280
     0
102
RTVSPost2010PropOp33
 70
     1
102
RTVSPost2010Prop34
280
     0
102
RTVSPost2010PropOp34
 70
     1
102
RTVSPost2010Prop35
280
     0
102
RTVSPost2010PropOp35
 70
     1
102
RTVSPost2010Prop36
280
     0
102
RTVSPost2010PropOp36
 70
     1
102
RTVSPost2010Prop37
 90
       50
102
RTVSPost2010PropOp37
 70
     1
102
RTVSPost2010Prop38
140
0.0
102
RTVSPost2010PropOp38
 70
     1
102
RTVSPost2010Prop39
140
1.0
102
RTVSPost2010PropOp39
 70
     1
102
RTVSPost2010Prop40
 90
        0
102
RTVSPost2010PropOp40
 70
     1
102
RTVSPost2010Prop41ColorIndex
 90
       18
102
RTVSPost2010Prop41ColorRGB
 90
        0
102
RTVSPost2010PropOp41
 70
     1
102
RTVSPost2010Prop42
 90
       50
102
RTVSPost2010PropOp42
 70
     1
102
RTVSPost2010Prop43
 90
        3
102
RTVSPost2010PropOp43
 70
     1
102
RTVSPost2010Prop44ColorIndex
 90
        5
102
RTVSPost2010Prop44ColorRGB
 90
      255
102
RTVSPost2010PropOp44
 70
     1
102
RTVSPost2010Prop45
280
     0
102
RTVSPost2010PropOp45
 70
     1
102
RTVSPost2010Prop46
 90
       50
102
RTVSPost2010PropOp46
 70
     1
102
RTVSPost2010Prop47
 90
       50
102
RTVSPost2010PropOp47
 70
     1
102
RTVSPost2010Prop48
 90
       50
102
RTVSPost2010PropOp48
 70
     1
102
RTVSPost2010Prop49
280
     0
102
RTVSPost2010PropOp49
 70
     1
102
RTVSPost2010Prop50
 90
       50
102
RTVSPost2010PropOp50
 70
     1
102
RTVSPost2010Prop51ColorIndex
 90
      256
102
RTVSPost2010Prop51ColorRGB
 90
-16777216
102
RTVSPost2010PropOp51
 70
     0
102
RTVSPost2010Prop52
140
1.0
102
RTVSPost2010PropOp52
 70
     0
102
RTVSPost2010Prop53
 90
        2
102
RTVSPost2010PropOp53
 70
     1
102
RTVSPost2010Prop54
  1
strokes_ogs.tif
102
RTVSPost2010PropOp54
 70
     1
102
RTVSPost2010Prop55
280
     0
102
RTVSPost2010PropOp55
 70
     1
102
RTVSPost2010Prop56
140
1.0
102
RTVSPost2010PropOp56
 70
     1
102
RTVSPost2010Prop57
140
1.0
102
RTVSPost2010PropOp57
 70
     1
102
RTVSPropertyOp0
 70
     1
102
RTVSPropertyOp1
 70
     1
102
RTVSPropertyOp2
 70
     1
102
RTVSPropertyOp3
 70
     1
102
RTVSPropertyOp4
 70
     1
102
RTVSPropertyOp5
 70
     1
102
RTVSPropertyOp6
 70
     1
102
RTVSPropertyOp7
 70
     1
102
RTVSPropertyOp8
 70
     1
102
RTVSPropertyOp9
 70
     1
102
RTVSPropertyOp10
 70
     1
102
RTVSPropertyOp11
 70
     1
102
RTVSPropertyOp12
 70
     1
102
RTVSPropertyOp13
 70
     1
102
RTVSPropertyOp14
 70
     1
102
RTVSPropertyOp15
 70
     1
102
RTVSPropertyOp16
 70
     1
102
RTVSPropertyOp17
 70
     1
102
RTVSPropertyOp18
 70
     1
102
RTVSPropertyOp19
 70
     1
102
RTVSPropertyOp20
 70
     1
102
RTVSPropertyOp21
 70
     1
102
RTVSPropertyOp22
 70
     1
102
RTVSPropertyOp23
 70
     1
102
RTVSPropertyOp24
 70
     1
102
RTVSPropertyOp25
 70
     1
102
RTVSPropertyOp26
 70
     1
102
RTVSPropertyOp27
 70
     1
102
RTVSPropertyOp28
 70
     1
102
RTVSPropertyOp29
 70
     1
102
RTVSPropertyOp30
 70
     1
102
RTVSPropertyOp31
 70
     1
102
RTVSPropertyOp32
 70
     1
102
RTVSPropertyOp33
 70
     1
102
RTVSPropertyOp34
 70
     1
102
RTVSPropertyOp35
 70
     1
102
RTVSPropertyOp36
 70
     1
102
RTVSPropertyOp37
 70
     1
102
RTVSPropertyOp38
 70
     1
102
RTVSPropertyOp39
 70
     1
102
RTVSPropertyOp40
 70
     1
102
RTVSPropertyOp41
 70
     1
102
RTVSPropertyOp42
 70
     1
102
RTVSPropertyOp43
 70
     1
102
RTVSPropertyOp44
 70
     1
102
RTVSPropertyOp45
 70
     1
102
RTVSPropertyOp46
 70
     1
102
RTVSPropertyOp47
 70
     1
102
RTVSPropertyOp48
 70
     1
102
RTVSPropertyOp49
 70
     1
102
RTVSPropertyOp50
 70
     1
102
RTVSPropertyOp51
 70
     0
102
RTVSPropertyOp52
 70
     0
102
RTVSPropertyOp53
 70
     1
102
RTVSPropertyOp54
 70
     1
102
RTVSPropertyOp55
 70
     1
102
RTVSPropertyOp56
 70
     1
102
RTVSPropertyOp57
 70
     1
102
RTVSPropertyOp58
 70
     1
102
RTVSPropertyOp59
 70
     1
102
RTVSPropertyOp60
 70
     1
102
RTVSPropertyOp61
 70
     1
102
RTVSPropertyOp62
 70
     1
  0
XRECORD
  5
1354D
102
{ACAD_REACTORS
330
1354C
102
}
330
1354C
100
AcDbXrecord
280
     1
102
RTVSPost2010Prop28
280
     0
102
RTVSPost2010PropOp28
 70
     1
102
RTVSPost2010Prop29
280
     1
102
RTVSPost2010PropOp29
 70
     1
102
RTVSPost2010Prop30
280
     1
102
RTVSPost2010PropOp30
 70
     1
102
RTVSPost2010Prop31
280
     0
102
RTVSPost2010PropOp31
 70
     1
102
RTVSPost2010Prop32
280
     0
102
RTVSPost2010PropOp32
 70
     1
102
RTVSPost2010Prop33
280
     0
102
RTVSPost2010PropOp33
 70
     1
102
RTVSPost2010Prop34
280
     0
102
RTVSPost2010PropOp34
 70
     1
102
RTVSPost2010Prop35
280
     0
102
RTVSPost2010PropOp35
 70
     1
102
RTVSPost2010Prop36
280
     0
102
RTVSPost2010PropOp36
 70
     1
102
RTVSPost2010Prop37
 90
       50
102
RTVSPost2010PropOp37
 70
     1
102
RTVSPost2010Prop38
140
0.0
102
RTVSPost2010PropOp38
 70
     1
102
RTVSPost2010Prop39
140
1.0
102
RTVSPost2010PropOp39
 70
     1
102
RTVSPost2010Prop40
 90
        0
102
RTVSPost2010PropOp40
 70
     1
102
RTVSPost2010Prop41ColorIndex
 90
       18
102
RTVSPost2010Prop41ColorRGB
 90
        0
102
RTVSPost2010PropOp41
 70
     1
102
RTVSPost2010Prop42
 90
       50
102
RTVSPost2010PropOp42
 70
     1
102
RTVSPost2010Prop43
 90
        3
102
RTVSPost2010PropOp43
 70
     1
102
RTVSPost2010Prop44ColorIndex
 90
        5
102
RTVSPost2010Prop44ColorRGB
 90
      255
102
RTVSPost2010PropOp44
 70
     1
102
RTVSPost2010Prop45
280
     0
102
RTVSPost2010PropOp45
 70
     1
102
RTVSPost2010Prop46
 90
       50
102
RTVSPost2010PropOp46
 70
     1
102
RTVSPost2010Prop47
 90
       50
102
RTVSPost2010PropOp47
 70
     1
102
RTVSPost2010Prop48
 90
       50
102
RTVSPost2010PropOp48
 70
     1
102
RTVSPost2010Prop49
280
     0
102
RTVSPost2010PropOp49
 70
     1
102
RTVSPost2010Prop50
 90
       50
102
RTVSPost2010PropOp50
 70
     1
102
RTVSPost2010Prop51ColorIndex
 90
      256
102
RTVSPost2010Prop51ColorRGB
 90
-16777216
102
RTVSPost2010PropOp51
 70
     0
102
RTVSPost2010Prop52
140
1.0
102
RTVSPost2010PropOp52
 70
     0
102
RTVSPost2010Prop53
 90
        2
102
RTVSPost2010PropOp53
 70
     1
102
RTVSPost2010Prop54
  1
strokes_ogs.tif
102
RTVSPost2010PropOp54
 70
     1
102
RTVSPost2010Prop55
280
     0
102
RTVSPost2010PropOp55
 70
     1
102
RTVSPost2010Prop56
140
1.0
102
RTVSPost2010PropOp56
 70
     1
102
RTVSPost2010Prop57
140
1.0
102
RTVSPost2010PropOp57
 70
     1
102
RTVSPropertyOp0
 70
     0
102
RTVSPropertyOp1
 70
     0
102
RTVSPropertyOp2
 70
     0
102
RTVSPropertyOp3
 70
     0
102
RTVSPropertyOp4
 70
     0
102
RTVSPropertyOp5
 70
     0
102
RTVSPropertyOp6
 70
     0
102
RTVSPropertyOp7
 70
     0
102
RTVSPropertyOp8
 70
     0
102
RTVSPropertyOp9
 70
     0
102
RTVSPropertyOp10
 70
     0
102
RTVSPropertyOp11
 70
     0
102
RTVSPropertyOp12
 70
     0
102
RTVSPropertyOp13
 70
     0
102
RTVSPropertyOp14
 70
     2
102
RTVSPropertyOp15
 70
     0
102
RTVSPropertyOp16
 70
     0
102
RTVSPropertyOp17
 70
     0
102
RTVSPropertyOp18
 70
     0
102
RTVSPropertyOp19
 70
     0
102
RTVSPropertyOp20
 70
     0
102
RTVSPropertyOp21
 70
     0
102
RTVSPropertyOp22
 70
     0
102
RTVSPropertyOp23
 70
     0
102
RTVSPropertyOp24
 70
     0
102
RTVSPropertyOp25
 70
     0
102
RTVSPropertyOp26
 70
     0
102
RTVSPropertyOp27
 70
     0
102
RTVSPropertyOp28
 70
     1
102
RTVSPropertyOp29
 70
     1
102
RTVSPropertyOp30
 70
     1
102
RTVSPropertyOp31
 70
     1
102
RTVSPropertyOp32
 70
     1
102
RTVSPropertyOp33
 70
     1
102
RTVSPropertyOp34
 70
     1
102
RTVSPropertyOp35
 70
     1
102
RTVSPropertyOp36
 70
     1
102
RTVSPropertyOp37
 70
     1
102
RTVSPropertyOp38
 70
     1
102
RTVSPropertyOp39
 70
     1
102
RTVSPropertyOp40
 70
     1
102
RTVSPropertyOp41
 70
     1
102
RTVSPropertyOp42
 70
     1
102
RTVSPropertyOp43
 70
     1
102
RTVSPropertyOp44
 70
     1
102
RTVSPropertyOp45
 70
     1
102
RTVSPropertyOp46
 70
     1
102
RTVSPropertyOp47
 70
     1
102
RTVSPropertyOp48
 70
     1
102
RTVSPropertyOp49
 70
     1
102
RTVSPropertyOp50
 70
     1
102
RTVSPropertyOp51
 70
     0
102
RTVSPropertyOp52
 70
     0
102
RTVSPropertyOp53
 70
     1
102
RTVSPropertyOp54
 70
     1
102
RTVSPropertyOp55
 70
     1
102
RTVSPropertyOp56
 70
     1
102
RTVSPropertyOp57
 70
     1
102
RTVSPropertyOp58
 70
     1
102
RTVSPropertyOp59
 70
     1
102
RTVSPropertyOp60
 70
     1
102
RTVSPropertyOp61
 70
     1
102
RTVSPropertyOp62
 70
     1
  0
XRECORD
  5
1353B
102
{ACAD_REACTORS
330
1353A
102
}
330
1353A
100
AcDbXrecord
280
     1
102
RTVSPost2010Prop28
280
     0
102
RTVSPost2010PropOp28
 70
     1
102
RTVSPost2010Prop29
280
     1
102
RTVSPost2010PropOp29
 70
     1
102
RTVSPost2010Prop30
280
     1
102
RTVSPost2010PropOp30
 70
     1
102
RTVSPost2010Prop31
280
     0
102
RTVSPost2010PropOp31
 70
     1
102
RTVSPost2010Prop32
280
     0
102
RTVSPost2010PropOp32
 70
     1
102
RTVSPost2010Prop33
280
     0
102
RTVSPost2010PropOp33
 70
     1
102
RTVSPost2010Prop34
280
     0
102
RTVSPost2010PropOp34
 70
     1
102
RTVSPost2010Prop35
280
     0
102
RTVSPost2010PropOp35
 70
     1
102
RTVSPost2010Prop36
280
     0
102
RTVSPost2010PropOp36
 70
     1
102
RTVSPost2010Prop37
 90
       50
102
RTVSPost2010PropOp37
 70
     1
102
RTVSPost2010Prop38
140
0.0
102
RTVSPost2010PropOp38
 70
     1
102
RTVSPost2010Prop39
140
1.0
102
RTVSPost2010PropOp39
 70
     1
102
RTVSPost2010Prop40
 90
        0
102
RTVSPost2010PropOp40
 70
     1
102
RTVSPost2010Prop41ColorIndex
 90
       18
102
RTVSPost2010Prop41ColorRGB
 90
        0
102
RTVSPost2010PropOp41
 70
     1
102
RTVSPost2010Prop42
 90
       50
102
RTVSPost2010PropOp42
 70
     1
102
RTVSPost2010Prop43
 90
        3
102
RTVSPost2010PropOp43
 70
     1
102
RTVSPost2010Prop44ColorIndex
 90
        5
102
RTVSPost2010Prop44ColorRGB
 90
      255
102
RTVSPost2010PropOp44
 70
     1
102
RTVSPost2010Prop45
280
     0
102
RTVSPost2010PropOp45
 70
     1
102
RTVSPost2010Prop46
 90
       50
102
RTVSPost2010PropOp46
 70
     1
102
RTVSPost2010Prop47
 90
       50
102
RTVSPost2010PropOp47
 70
     1
102
RTVSPost2010Prop48
 90
       50
102
RTVSPost2010PropOp48
 70
     1
102
RTVSPost2010Prop49
280
     0
102
RTVSPost2010PropOp49
 70
     1
102
RTVSPost2010Prop50
 90
       50
102
RTVSPost2010PropOp50
 70
     1
102
RTVSPost2010Prop51ColorIndex
 90
      256
102
RTVSPost2010Prop51ColorRGB
 90
-16777216
102
RTVSPost2010PropOp51
 70
     0
102
RTVSPost2010Prop52
140
1.0
102
RTVSPost2010PropOp52
 70
     0
102
RTVSPost2010Prop53
 90
        2
102
RTVSPost2010PropOp53
 70
     1
102
RTVSPost2010Prop54
  1
strokes_ogs.tif
102
RTVSPost2010PropOp54
 70
     1
102
RTVSPost2010Prop55
280
     0
102
RTVSPost2010PropOp55
 70
     1
102
RTVSPost2010Prop56
140
1.0
102
RTVSPost2010PropOp56
 70
     1
102
RTVSPost2010Prop57
140
1.0
102
RTVSPost2010PropOp57
 70
     1
102
RTVSPropertyOp0
 70
     1
102
RTVSPropertyOp1
 70
     1
102
RTVSPropertyOp2
 70
     1
102
RTVSPropertyOp3
 70
     1
102
RTVSPropertyOp4
 70
     1
102
RTVSPropertyOp5
 70
     1
102
RTVSPropertyOp6
 70
     1
102
RTVSPropertyOp7
 70
     1
102
RTVSPropertyOp8
 70
     1
102
RTVSPropertyOp9
 70
     1
102
RTVSPropertyOp10
 70
     1
102
RTVSPropertyOp11
 70
     1
102
RTVSPropertyOp12
 70
     1
102
RTVSPropertyOp13
 70
     1
102
RTVSPropertyOp14
 70
     1
102
RTVSPropertyOp15
 70
     1
102
RTVSPropertyOp16
 70
     1
102
RTVSPropertyOp17
 70
     1
102
RTVSPropertyOp18
 70
     1
102
RTVSPropertyOp19
 70
     1
102
RTVSPropertyOp20
 70
     1
102
RTVSPropertyOp21
 70
     1
102
RTVSPropertyOp22
 70
     1
102
RTVSPropertyOp23
 70
     1
102
RTVSPropertyOp24
 70
     1
102
RTVSPropertyOp25
 70
     1
102
RTVSPropertyOp26
 70
     1
102
RTVSPropertyOp27
 70
     1
102
RTVSPropertyOp28
 70
     1
102
RTVSPropertyOp29
 70
     1
102
RTVSPropertyOp30
 70
     1
102
RTVSPropertyOp31
 70
     1
102
RTVSPropertyOp32
 70
     1
102
RTVSPropertyOp33
 70
     1
102
RTVSPropertyOp34
 70
     1
102
RTVSPropertyOp35
 70
     1
102
RTVSPropertyOp36
 70
     1
102
RTVSPropertyOp37
 70
     1
102
RTVSPropertyOp38
 70
     1
102
RTVSPropertyOp39
 70
     1
102
RTVSPropertyOp40
 70
     1
102
RTVSPropertyOp41
 70
     1
102
RTVSPropertyOp42
 70
     1
102
RTVSPropertyOp43
 70
     1
102
RTVSPropertyOp44
 70
     1
102
RTVSPropertyOp45
 70
     1
102
RTVSPropertyOp46
 70
     1
102
RTVSPropertyOp47
 70
     1
102
RTVSPropertyOp48
 70
     1
102
RTVSPropertyOp49
 70
     1
102
RTVSPropertyOp50
 70
     1
102
RTVSPropertyOp51
 70
     0
102
RTVSPropertyOp52
 70
     0
102
RTVSPropertyOp53
 70
     1
102
RTVSPropertyOp54
 70
     1
102
RTVSPropertyOp55
 70
     1
102
RTVSPropertyOp56
 70
     1
102
RTVSPropertyOp57
 70
     1
102
RTVSPropertyOp58
 70
     1
102
RTVSPropertyOp59
 70
     1
102
RTVSPropertyOp60
 70
     1
102
RTVSPropertyOp61
 70
     1
102
RTVSPropertyOp62
 70
     1
  0
XRECORD
  5
13559
102
{ACAD_REACTORS
330
13558
102
}
330
13558
100
AcDbXrecord
280
     1
102
RTVSPost2010Prop28
280
     0
102
RTVSPost2010PropOp28
 70
     1
102
RTVSPost2010Prop29
280
     1
102
RTVSPost2010PropOp29
 70
     1
102
RTVSPost2010Prop30
280
     1
102
RTVSPost2010PropOp30
 70
     1
102
RTVSPost2010Prop31
280
     0
102
RTVSPost2010PropOp31
 70
     1
102
RTVSPost2010Prop32
280
     0
102
RTVSPost2010PropOp32
 70
     1
102
RTVSPost2010Prop33
280
     0
102
RTVSPost2010PropOp33
 70
     1
102
RTVSPost2010Prop34
280
     0
102
RTVSPost2010PropOp34
 70
     1
102
RTVSPost2010Prop35
280
     0
102
RTVSPost2010PropOp35
 70
     1
102
RTVSPost2010Prop36
280
     0
102
RTVSPost2010PropOp36
 70
     1
102
RTVSPost2010Prop37
 90
       50
102
RTVSPost2010PropOp37
 70
     1
102
RTVSPost2010Prop38
140
0.0
102
RTVSPost2010PropOp38
 70
     1
102
RTVSPost2010Prop39
140
1.0
102
RTVSPost2010PropOp39
 70
     1
102
RTVSPost2010Prop40
 90
        0
102
RTVSPost2010PropOp40
 70
     1
102
RTVSPost2010Prop41ColorIndex
 90
       18
102
RTVSPost2010Prop41ColorRGB
 90
        0
102
RTVSPost2010PropOp41
 70
     1
102
RTVSPost2010Prop42
 90
       50
102
RTVSPost2010PropOp42
 70
     1
102
RTVSPost2010Prop43
 90
        3
102
RTVSPost2010PropOp43
 70
     1
102
RTVSPost2010Prop44ColorIndex
 90
        5
102
RTVSPost2010Prop44ColorRGB
 90
      255
102
RTVSPost2010PropOp44
 70
     1
102
RTVSPost2010Prop45
280
     0
102
RTVSPost2010PropOp45
 70
     1
102
RTVSPost2010Prop46
 90
       50
102
RTVSPost2010PropOp46
 70
     1
102
RTVSPost2010Prop47
 90
       50
102
RTVSPost2010PropOp47
 70
     1
102
RTVSPost2010Prop48
 90
       50
102
RTVSPost2010PropOp48
 70
     1
102
RTVSPost2010Prop49
280
     0
102
RTVSPost2010PropOp49
 70
     1
102
RTVSPost2010Prop50
 90
       50
102
RTVSPost2010PropOp50
 70
     1
102
RTVSPost2010Prop51ColorIndex
 90
      256
102
RTVSPost2010Prop51ColorRGB
 90
-16777216
102
RTVSPost2010PropOp51
 70
     0
102
RTVSPost2010Prop52
140
1.0
102
RTVSPost2010PropOp52
 70
     0
102
RTVSPost2010Prop53
 90
        2
102
RTVSPost2010PropOp53
 70
     1
102
RTVSPost2010Prop54
  1
strokes_ogs.tif
102
RTVSPost2010PropOp54
 70
     1
102
RTVSPost2010Prop55
280
     0
102
RTVSPost2010PropOp55
 70
     1
102
RTVSPost2010Prop56
140
1.0
102
RTVSPost2010PropOp56
 70
     1
102
RTVSPost2010Prop57
140
1.0
102
RTVSPost2010PropOp57
 70
     1
102
RTVSPropertyOp0
 70
     1
102
RTVSPropertyOp1
 70
     1
102
RTVSPropertyOp2
 70
     1
102
RTVSPropertyOp3
 70
     1
102
RTVSPropertyOp4
 70
     1
102
RTVSPropertyOp5
 70
     1
102
RTVSPropertyOp6
 70
     1
102
RTVSPropertyOp7
 70
     1
102
RTVSPropertyOp8
 70
     1
102
RTVSPropertyOp9
 70
     1
102
RTVSPropertyOp10
 70
     1
102
RTVSPropertyOp11
 70
     1
102
RTVSPropertyOp12
 70
     1
102
RTVSPropertyOp13
 70
     1
102
RTVSPropertyOp14
 70
     1
102
RTVSPropertyOp15
 70
     1
102
RTVSPropertyOp16
 70
     1
102
RTVSPropertyOp17
 70
     1
102
RTVSPropertyOp18
 70
     1
102
RTVSPropertyOp19
 70
     1
102
RTVSPropertyOp20
 70
     1
102
RTVSPropertyOp21
 70
     1
102
RTVSPropertyOp22
 70
     1
102
RTVSPropertyOp23
 70
     1
102
RTVSPropertyOp24
 70
     1
102
RTVSPropertyOp25
 70
     1
102
RTVSPropertyOp26
 70
     1
102
RTVSPropertyOp27
 70
     1
102
RTVSPropertyOp28
 70
     1
102
RTVSPropertyOp29
 70
     1
102
RTVSPropertyOp30
 70
     1
102
RTVSPropertyOp31
 70
     1
102
RTVSPropertyOp32
 70
     1
102
RTVSPropertyOp33
 70
     1
102
RTVSPropertyOp34
 70
     1
102
RTVSPropertyOp35
 70
     1
102
RTVSPropertyOp36
 70
     1
102
RTVSPropertyOp37
 70
     1
102
RTVSPropertyOp38
 70
     1
102
RTVSPropertyOp39
 70
     1
102
RTVSPropertyOp40
 70
     1
102
RTVSPropertyOp41
 70
     1
102
RTVSPropertyOp42
 70
     1
102
RTVSPropertyOp43
 70
     1
102
RTVSPropertyOp44
 70
     1
102
RTVSPropertyOp45
 70
     1
102
RTVSPropertyOp46
 70
     1
102
RTVSPropertyOp47
 70
     1
102
RTVSPropertyOp48
 70
     1
102
RTVSPropertyOp49
 70
     1
102
RTVSPropertyOp50
 70
     1
102
RTVSPropertyOp51
 70
     0
102
RTVSPropertyOp52
 70
     0
102
RTVSPropertyOp53
 70
     1
102
RTVSPropertyOp54
 70
     1
102
RTVSPropertyOp55
 70
     1
102
RTVSPropertyOp56
 70
     1
102
RTVSPropertyOp57
 70
     1
102
RTVSPropertyOp58
 70
     1
102
RTVSPropertyOp59
 70
     1
102
RTVSPropertyOp60
 70
     1
102
RTVSPropertyOp61
 70
     1
102
RTVSPropertyOp62
 70
     1
  0
XRECORD
  5
13557
102
{ACAD_REACTORS
330
13556
102
}
330
13556
100
AcDbXrecord
280
     1
102
RTVSPost2010Prop28
280
     0
102
RTVSPost2010PropOp28
 70
     1
102
RTVSPost2010Prop29
280
     1
102
RTVSPost2010PropOp29
 70
     1
102
RTVSPost2010Prop30
280
     1
102
RTVSPost2010PropOp30
 70
     1
102
RTVSPost2010Prop31
280
     0
102
RTVSPost2010PropOp31
 70
     1
102
RTVSPost2010Prop32
280
     0
102
RTVSPost2010PropOp32
 70
     1
102
RTVSPost2010Prop33
280
     0
102
RTVSPost2010PropOp33
 70
     1
102
RTVSPost2010Prop34
280
     0
102
RTVSPost2010PropOp34
 70
     1
102
RTVSPost2010Prop35
280
     0
102
RTVSPost2010PropOp35
 70
     1
102
RTVSPost2010Prop36
280
     0
102
RTVSPost2010PropOp36
 70
     1
102
RTVSPost2010Prop37
 90
       50
102
RTVSPost2010PropOp37
 70
     1
102
RTVSPost2010Prop38
140
0.0
102
RTVSPost2010PropOp38
 70
     1
102
RTVSPost2010Prop39
140
1.0
102
RTVSPost2010PropOp39
 70
     1
102
RTVSPost2010Prop40
 90
        0
102
RTVSPost2010PropOp40
 70
     1
102
RTVSPost2010Prop41ColorIndex
 90
       18
102
RTVSPost2010Prop41ColorRGB
 90
        0
102
RTVSPost2010PropOp41
 70
     1
102
RTVSPost2010Prop42
 90
       50
102
RTVSPost2010PropOp42
 70
     1
102
RTVSPost2010Prop43
 90
        3
102
RTVSPost2010PropOp43
 70
     1
102
RTVSPost2010Prop44ColorIndex
 90
        5
102
RTVSPost2010Prop44ColorRGB
 90
      255
102
RTVSPost2010PropOp44
 70
     1
102
RTVSPost2010Prop45
280
     0
102
RTVSPost2010PropOp45
 70
     1
102
RTVSPost2010Prop46
 90
       50
102
RTVSPost2010PropOp46
 70
     1
102
RTVSPost2010Prop47
 90
       50
102
RTVSPost2010PropOp47
 70
     1
102
RTVSPost2010Prop48
 90
       50
102
RTVSPost2010PropOp48
 70
     1
102
RTVSPost2010Prop49
280
     0
102
RTVSPost2010PropOp49
 70
     1
102
RTVSPost2010Prop50
 90
       50
102
RTVSPost2010PropOp50
 70
     1
102
RTVSPost2010Prop51ColorIndex
 90
      256
102
RTVSPost2010Prop51ColorRGB
 90
-16777216
102
RTVSPost2010PropOp51
 70
     0
102
RTVSPost2010Prop52
140
1.0
102
RTVSPost2010PropOp52
 70
     0
102
RTVSPost2010Prop53
 90
        2
102
RTVSPost2010PropOp53
 70
     1
102
RTVSPost2010Prop54
  1
strokes_ogs.tif
102
RTVSPost2010PropOp54
 70
     1
102
RTVSPost2010Prop55
280
     0
102
RTVSPost2010PropOp55
 70
     1
102
RTVSPost2010Prop56
140
1.0
102
RTVSPost2010PropOp56
 70
     1
102
RTVSPost2010Prop57
140
1.0
102
RTVSPost2010PropOp57
 70
     1
102
RTVSPropertyOp0
 70
     1
102
RTVSPropertyOp1
 70
     1
102
RTVSPropertyOp2
 70
     1
102
RTVSPropertyOp3
 70
     1
102
RTVSPropertyOp4
 70
     1
102
RTVSPropertyOp5
 70
     1
102
RTVSPropertyOp6
 70
     1
102
RTVSPropertyOp7
 70
     1
102
RTVSPropertyOp8
 70
     1
102
RTVSPropertyOp9
 70
     1
102
RTVSPropertyOp10
 70
     1
102
RTVSPropertyOp11
 70
     1
102
RTVSPropertyOp12
 70
     1
102
RTVSPropertyOp13
 70
     1
102
RTVSPropertyOp14
 70
     1
102
RTVSPropertyOp15
 70
     1
102
RTVSPropertyOp16
 70
     1
102
RTVSPropertyOp17
 70
     1
102
RTVSPropertyOp18
 70
     1
102
RTVSPropertyOp19
 70
     1
102
RTVSPropertyOp20
 70
     1
102
RTVSPropertyOp21
 70
     1
102
RTVSPropertyOp22
 70
     1
102
RTVSPropertyOp23
 70
     1
102
RTVSPropertyOp24
 70
     1
102
RTVSPropertyOp25
 70
     1
102
RTVSPropertyOp26
 70
     1
102
RTVSPropertyOp27
 70
     1
102
RTVSPropertyOp28
 70
     1
102
RTVSPropertyOp29
 70
     1
102
RTVSPropertyOp30
 70
     1
102
RTVSPropertyOp31
 70
     1
102
RTVSPropertyOp32
 70
     1
102
RTVSPropertyOp33
 70
     1
102
RTVSPropertyOp34
 70
     1
102
RTVSPropertyOp35
 70
     1
102
RTVSPropertyOp36
 70
     1
102
RTVSPropertyOp37
 70
     1
102
RTVSPropertyOp38
 70
     1
102
RTVSPropertyOp39
 70
     1
102
RTVSPropertyOp40
 70
     1
102
RTVSPropertyOp41
 70
     1
102
RTVSPropertyOp42
 70
     1
102
RTVSPropertyOp43
 70
     1
102
RTVSPropertyOp44
 70
     1
102
RTVSPropertyOp45
 70
     1
102
RTVSPropertyOp46
 70
     1
102
RTVSPropertyOp47
 70
     1
102
RTVSPropertyOp48
 70
     1
102
RTVSPropertyOp49
 70
     1
102
RTVSPropertyOp50
 70
     1
102
RTVSPropertyOp51
 70
     0
102
RTVSPropertyOp52
 70
     0
102
RTVSPropertyOp53
 70
     1
102
RTVSPropertyOp54
 70
     1
102
RTVSPropertyOp55
 70
     1
102
RTVSPropertyOp56
 70
     1
102
RTVSPropertyOp57
 70
     1
102
RTVSPropertyOp58
 70
     1
102
RTVSPropertyOp59
 70
     1
102
RTVSPropertyOp60
 70
     1
102
RTVSPropertyOp61
 70
     1
102
RTVSPropertyOp62
 70
     1
  0
XRECORD
  5
13551
102
{ACAD_REACTORS
330
13550
102
}
330
13550
100
AcDbXrecord
280
     1
102
RTVSPost2010Prop28
280
     0
102
RTVSPost2010PropOp28
 70
     1
102
RTVSPost2010Prop29
280
     1
102
RTVSPost2010PropOp29
 70
     1
102
RTVSPost2010Prop30
280
     1
102
RTVSPost2010PropOp30
 70
     1
102
RTVSPost2010Prop31
280
     0
102
RTVSPost2010PropOp31
 70
     1
102
RTVSPost2010Prop32
280
     0
102
RTVSPost2010PropOp32
 70
     1
102
RTVSPost2010Prop33
280
     0
102
RTVSPost2010PropOp33
 70
     1
102
RTVSPost2010Prop34
280
     0
102
RTVSPost2010PropOp34
 70
     1
102
RTVSPost2010Prop35
280
     0
102
RTVSPost2010PropOp35
 70
     1
102
RTVSPost2010Prop36
280
     0
102
RTVSPost2010PropOp36
 70
     1
102
RTVSPost2010Prop37
 90
       50
102
RTVSPost2010PropOp37
 70
     1
102
RTVSPost2010Prop38
140
0.0
102
RTVSPost2010PropOp38
 70
     1
102
RTVSPost2010Prop39
140
1.0
102
RTVSPost2010PropOp39
 70
     1
102
RTVSPost2010Prop40
 90
        0
102
RTVSPost2010PropOp40
 70
     1
102
RTVSPost2010Prop41ColorIndex
 90
       18
102
RTVSPost2010Prop41ColorRGB
 90
        0
102
RTVSPost2010PropOp41
 70
     1
102
RTVSPost2010Prop42
 90
       50
102
RTVSPost2010PropOp42
 70
     1
102
RTVSPost2010Prop43
 90
        3
102
RTVSPost2010PropOp43
 70
     1
102
RTVSPost2010Prop44ColorIndex
 90
        5
102
RTVSPost2010Prop44ColorRGB
 90
      255
102
RTVSPost2010PropOp44
 70
     1
102
RTVSPost2010Prop45
280
     0
102
RTVSPost2010PropOp45
 70
     1
102
RTVSPost2010Prop46
 90
       50
102
RTVSPost2010PropOp46
 70
     1
102
RTVSPost2010Prop47
 90
       50
102
RTVSPost2010PropOp47
 70
     1
102
RTVSPost2010Prop48
 90
       50
102
RTVSPost2010PropOp48
 70
     1
102
RTVSPost2010Prop49
280
     0
102
RTVSPost2010PropOp49
 70
     1
102
RTVSPost2010Prop50
 90
       50
102
RTVSPost2010PropOp50
 70
     1
102
RTVSPost2010Prop51ColorIndex
 90
      256
102
RTVSPost2010Prop51ColorRGB
 90
-16777216
102
RTVSPost2010PropOp51
 70
     0
102
RTVSPost2010Prop52
140
1.0
102
RTVSPost2010PropOp52
 70
     0
102
RTVSPost2010Prop53
 90
        2
102
RTVSPost2010PropOp53
 70
     1
102
RTVSPost2010Prop54
  1
strokes_ogs.tif
102
RTVSPost2010PropOp54
 70
     1
102
RTVSPost2010Prop55
280
     0
102
RTVSPost2010PropOp55
 70
     1
102
RTVSPost2010Prop56
140
1.0
102
RTVSPost2010PropOp56
 70
     1
102
RTVSPost2010Prop57
140
1.0
102
RTVSPost2010PropOp57
 70
     1
102
RTVSPropertyOp0
 70
     1
102
RTVSPropertyOp1
 70
     1
102
RTVSPropertyOp2
 70
     1
102
RTVSPropertyOp3
 70
     1
102
RTVSPropertyOp4
 70
     1
102
RTVSPropertyOp5
 70
     1
102
RTVSPropertyOp6
 70
     1
102
RTVSPropertyOp7
 70
     1
102
RTVSPropertyOp8
 70
     1
102
RTVSPropertyOp9
 70
     1
102
RTVSPropertyOp10
 70
     1
102
RTVSPropertyOp11
 70
     1
102
RTVSPropertyOp12
 70
     1
102
RTVSPropertyOp13
 70
     1
102
RTVSPropertyOp14
 70
     1
102
RTVSPropertyOp15
 70
     1
102
RTVSPropertyOp16
 70
     1
102
RTVSPropertyOp17
 70
     1
102
RTVSPropertyOp18
 70
     1
102
RTVSPropertyOp19
 70
     1
102
RTVSPropertyOp20
 70
     1
102
RTVSPropertyOp21
 70
     1
102
RTVSPropertyOp22
 70
     1
102
RTVSPropertyOp23
 70
     1
102
RTVSPropertyOp24
 70
     1
102
RTVSPropertyOp25
 70
     1
102
RTVSPropertyOp26
 70
     1
102
RTVSPropertyOp27
 70
     1
102
RTVSPropertyOp28
 70
     1
102
RTVSPropertyOp29
 70
     1
102
RTVSPropertyOp30
 70
     1
102
RTVSPropertyOp31
 70
     1
102
RTVSPropertyOp32
 70
     1
102
RTVSPropertyOp33
 70
     1
102
RTVSPropertyOp34
 70
     1
102
RTVSPropertyOp35
 70
     1
102
RTVSPropertyOp36
 70
     1
102
RTVSPropertyOp37
 70
     1
102
RTVSPropertyOp38
 70
     1
102
RTVSPropertyOp39
 70
     1
102
RTVSPropertyOp40
 70
     1
102
RTVSPropertyOp41
 70
     1
102
RTVSPropertyOp42
 70
     1
102
RTVSPropertyOp43
 70
     1
102
RTVSPropertyOp44
 70
     1
102
RTVSPropertyOp45
 70
     1
102
RTVSPropertyOp46
 70
     1
102
RTVSPropertyOp47
 70
     1
102
RTVSPropertyOp48
 70
     1
102
RTVSPropertyOp49
 70
     1
102
RTVSPropertyOp50
 70
     1
102
RTVSPropertyOp51
 70
     0
102
RTVSPropertyOp52
 70
     0
102
RTVSPropertyOp53
 70
     1
102
RTVSPropertyOp54
 70
     1
102
RTVSPropertyOp55
 70
     1
102
RTVSPropertyOp56
 70
     1
102
RTVSPropertyOp57
 70
     1
102
RTVSPropertyOp58
 70
     1
102
RTVSPropertyOp59
 70
     1
102
RTVSPropertyOp60
 70
     1
102
RTVSPropertyOp61
 70
     1
102
RTVSPropertyOp62
 70
     1
  0
XRECORD
  5
13553
102
{ACAD_REACTORS
330
13552
102
}
330
13552
100
AcDbXrecord
280
     1
102
RTVSPost2010Prop28
280
     0
102
RTVSPost2010PropOp28
 70
     1
102
RTVSPost2010Prop29
280
     1
102
RTVSPost2010PropOp29
 70
     1
102
RTVSPost2010Prop30
280
     1
102
RTVSPost2010PropOp30
 70
     1
102
RTVSPost2010Prop31
280
     0
102
RTVSPost2010PropOp31
 70
     1
102
RTVSPost2010Prop32
280
     0
102
RTVSPost2010PropOp32
 70
     1
102
RTVSPost2010Prop33
280
     0
102
RTVSPost2010PropOp33
 70
     1
102
RTVSPost2010Prop34
280
     0
102
RTVSPost2010PropOp34
 70
     1
102
RTVSPost2010Prop35
280
     0
102
RTVSPost2010PropOp35
 70
     1
102
RTVSPost2010Prop36
280
     0
102
RTVSPost2010PropOp36
 70
     1
102
RTVSPost2010Prop37
 90
       50
102
RTVSPost2010PropOp37
 70
     1
102
RTVSPost2010Prop38
140
0.0
102
RTVSPost2010PropOp38
 70
     1
102
RTVSPost2010Prop39
140
1.0
102
RTVSPost2010PropOp39
 70
     1
102
RTVSPost2010Prop40
 90
        0
102
RTVSPost2010PropOp40
 70
     1
102
RTVSPost2010Prop41ColorIndex
 90
       18
102
RTVSPost2010Prop41ColorRGB
 90
        0
102
RTVSPost2010PropOp41
 70
     1
102
RTVSPost2010Prop42
 90
       50
102
RTVSPost2010PropOp42
 70
     1
102
RTVSPost2010Prop43
 90
        3
102
RTVSPost2010PropOp43
 70
     1
102
RTVSPost2010Prop44ColorIndex
 90
        5
102
RTVSPost2010Prop44ColorRGB
 90
      255
102
RTVSPost2010PropOp44
 70
     1
102
RTVSPost2010Prop45
280
     0
102
RTVSPost2010PropOp45
 70
     1
102
RTVSPost2010Prop46
 90
       50
102
RTVSPost2010PropOp46
 70
     1
102
RTVSPost2010Prop47
 90
       50
102
RTVSPost2010PropOp47
 70
     1
102
RTVSPost2010Prop48
 90
       50
102
RTVSPost2010PropOp48
 70
     1
102
RTVSPost2010Prop49
280
     0
102
RTVSPost2010PropOp49
 70
     1
102
RTVSPost2010Prop50
 90
       50
102
RTVSPost2010PropOp50
 70
     1
102
RTVSPost2010Prop51ColorIndex
 90
      256
102
RTVSPost2010Prop51ColorRGB
 90
-16777216
102
RTVSPost2010PropOp51
 70
     0
102
RTVSPost2010Prop52
140
1.0
102
RTVSPost2010PropOp52
 70
     0
102
RTVSPost2010Prop53
 90
        2
102
RTVSPost2010PropOp53
 70
     1
102
RTVSPost2010Prop54
  1
strokes_ogs.tif
102
RTVSPost2010PropOp54
 70
     1
102
RTVSPost2010Prop55
280
     0
102
RTVSPost2010PropOp55
 70
     1
102
RTVSPost2010Prop56
140
1.0
102
RTVSPost2010PropOp56
 70
     1
102
RTVSPost2010Prop57
140
1.0
102
RTVSPost2010PropOp57
 70
     1
102
RTVSPropertyOp0
 70
     1
102
RTVSPropertyOp1
 70
     1
102
RTVSPropertyOp2
 70
     1
102
RTVSPropertyOp3
 70
     1
102
RTVSPropertyOp4
 70
     1
102
RTVSPropertyOp5
 70
     1
102
RTVSPropertyOp6
 70
     1
102
RTVSPropertyOp7
 70
     1
102
RTVSPropertyOp8
 70
     1
102
RTVSPropertyOp9
 70
     1
102
RTVSPropertyOp10
 70
     1
102
RTVSPropertyOp11
 70
     1
102
RTVSPropertyOp12
 70
     1
102
RTVSPropertyOp13
 70
     1
102
RTVSPropertyOp14
 70
     1
102
RTVSPropertyOp15
 70
     1
102
RTVSPropertyOp16
 70
     1
102
RTVSPropertyOp17
 70
     1
102
RTVSPropertyOp18
 70
     1
102
RTVSPropertyOp19
 70
     1
102
RTVSPropertyOp20
 70
     1
102
RTVSPropertyOp21
 70
     1
102
RTVSPropertyOp22
 70
     1
102
RTVSPropertyOp23
 70
     1
102
RTVSPropertyOp24
 70
     1
102
RTVSPropertyOp25
 70
     1
102
RTVSPropertyOp26
 70
     1
102
RTVSPropertyOp27
 70
     1
102
RTVSPropertyOp28
 70
     1
102
RTVSPropertyOp29
 70
     1
102
RTVSPropertyOp30
 70
     1
102
RTVSPropertyOp31
 70
     1
102
RTVSPropertyOp32
 70
     1
102
RTVSPropertyOp33
 70
     1
102
RTVSPropertyOp34
 70
     1
102
RTVSPropertyOp35
 70
     1
102
RTVSPropertyOp36
 70
     1
102
RTVSPropertyOp37
 70
     1
102
RTVSPropertyOp38
 70
     1
102
RTVSPropertyOp39
 70
     1
102
RTVSPropertyOp40
 70
     1
102
RTVSPropertyOp41
 70
     1
102
RTVSPropertyOp42
 70
     1
102
RTVSPropertyOp43
 70
     1
102
RTVSPropertyOp44
 70
     1
102
RTVSPropertyOp45
 70
     1
102
RTVSPropertyOp46
 70
     1
102
RTVSPropertyOp47
 70
     1
102
RTVSPropertyOp48
 70
     1
102
RTVSPropertyOp49
 70
     1
102
RTVSPropertyOp50
 70
     1
102
RTVSPropertyOp51
 70
     0
102
RTVSPropertyOp52
 70
     0
102
RTVSPropertyOp53
 70
     1
102
RTVSPropertyOp54
 70
     1
102
RTVSPropertyOp55
 70
     1
102
RTVSPropertyOp56
 70
     1
102
RTVSPropertyOp57
 70
     1
102
RTVSPropertyOp58
 70
     1
102
RTVSPropertyOp59
 70
     1
102
RTVSPropertyOp60
 70
     1
102
RTVSPropertyOp61
 70
     1
102
RTVSPropertyOp62
 70
     1
  0
XRECORD
  5
13541
102
{ACAD_REACTORS
330
13540
102
}
330
13540
100
AcDbXrecord
280
     1
102
RTVSPost2010Prop28
280
     0
102
RTVSPost2010PropOp28
 70
     1
102
RTVSPost2010Prop29
280
     1
102
RTVSPost2010PropOp29
 70
     1
102
RTVSPost2010Prop30
280
     1
102
RTVSPost2010PropOp30
 70
     1
102
RTVSPost2010Prop31
280
     0
102
RTVSPost2010PropOp31
 70
     1
102
RTVSPost2010Prop32
280
     0
102
RTVSPost2010PropOp32
 70
     1
102
RTVSPost2010Prop33
280
     0
102
RTVSPost2010PropOp33
 70
     1
102
RTVSPost2010Prop34
280
     0
102
RTVSPost2010PropOp34
 70
     1
102
RTVSPost2010Prop35
280
     0
102
RTVSPost2010PropOp35
 70
     1
102
RTVSPost2010Prop36
280
     0
102
RTVSPost2010PropOp36
 70
     1
102
RTVSPost2010Prop37
 90
       50
102
RTVSPost2010PropOp37
 70
     1
102
RTVSPost2010Prop38
140
0.0
102
RTVSPost2010PropOp38
 70
     1
102
RTVSPost2010Prop39
140
1.0
102
RTVSPost2010PropOp39
 70
     1
102
RTVSPost2010Prop40
 90
        0
102
RTVSPost2010PropOp40
 70
     1
102
RTVSPost2010Prop41ColorIndex
 90
       18
102
RTVSPost2010Prop41ColorRGB
 90
        0
102
RTVSPost2010PropOp41
 70
     1
102
RTVSPost2010Prop42
 90
       50
102
RTVSPost2010PropOp42
 70
     1
102
RTVSPost2010Prop43
 90
        3
102
RTVSPost2010PropOp43
 70
     1
102
RTVSPost2010Prop44ColorIndex
 90
        5
102
RTVSPost2010Prop44ColorRGB
 90
      255
102
RTVSPost2010PropOp44
 70
     1
102
RTVSPost2010Prop45
280
     0
102
RTVSPost2010PropOp45
 70
     1
102
RTVSPost2010Prop46
 90
       50
102
RTVSPost2010PropOp46
 70
     1
102
RTVSPost2010Prop47
 90
       50
102
RTVSPost2010PropOp47
 70
     1
102
RTVSPost2010Prop48
 90
       50
102
RTVSPost2010PropOp48
 70
     1
102
RTVSPost2010Prop49
280
     0
102
RTVSPost2010PropOp49
 70
     1
102
RTVSPost2010Prop50
 90
       50
102
RTVSPost2010PropOp50
 70
     1
102
RTVSPost2010Prop51ColorIndex
 90
      256
102
RTVSPost2010Prop51ColorRGB
 90
-16777216
102
RTVSPost2010PropOp51
 70
     0
102
RTVSPost2010Prop52
140
1.0
102
RTVSPost2010PropOp52
 70
     0
102
RTVSPost2010Prop53
 90
        2
102
RTVSPost2010PropOp53
 70
     1
102
RTVSPost2010Prop54
  1
strokes_ogs.tif
102
RTVSPost2010PropOp54
 70
     1
102
RTVSPost2010Prop55
280
     0
102
RTVSPost2010PropOp55
 70
     1
102
RTVSPost2010Prop56
140
1.0
102
RTVSPost2010PropOp56
 70
     1
102
RTVSPost2010Prop57
140
1.0
102
RTVSPost2010PropOp57
 70
     1
102
RTVSPropertyOp0
 70
     1
102
RTVSPropertyOp1
 70
     1
102
RTVSPropertyOp2
 70
     1
102
RTVSPropertyOp3
 70
     1
102
RTVSPropertyOp4
 70
     1
102
RTVSPropertyOp5
 70
     1
102
RTVSPropertyOp6
 70
     1
102
RTVSPropertyOp7
 70
     1
102
RTVSPropertyOp8
 70
     1
102
RTVSPropertyOp9
 70
     1
102
RTVSPropertyOp10
 70
     1
102
RTVSPropertyOp11
 70
     1
102
RTVSPropertyOp12
 70
     1
102
RTVSPropertyOp13
 70
     1
102
RTVSPropertyOp14
 70
     1
102
RTVSPropertyOp15
 70
     1
102
RTVSPropertyOp16
 70
     1
102
RTVSPropertyOp17
 70
     1
102
RTVSPropertyOp18
 70
     1
102
RTVSPropertyOp19
 70
     1
102
RTVSPropertyOp20
 70
     1
102
RTVSPropertyOp21
 70
     1
102
RTVSPropertyOp22
 70
     1
102
RTVSPropertyOp23
 70
     1
102
RTVSPropertyOp24
 70
     1
102
RTVSPropertyOp25
 70
     1
102
RTVSPropertyOp26
 70
     1
102
RTVSPropertyOp27
 70
     1
102
RTVSPropertyOp28
 70
     1
102
RTVSPropertyOp29
 70
     1
102
RTVSPropertyOp30
 70
     1
102
RTVSPropertyOp31
 70
     1
102
RTVSPropertyOp32
 70
     1
102
RTVSPropertyOp33
 70
     1
102
RTVSPropertyOp34
 70
     1
102
RTVSPropertyOp35
 70
     1
102
RTVSPropertyOp36
 70
     1
102
RTVSPropertyOp37
 70
     1
102
RTVSPropertyOp38
 70
     1
102
RTVSPropertyOp39
 70
     1
102
RTVSPropertyOp40
 70
     1
102
RTVSPropertyOp41
 70
     1
102
RTVSPropertyOp42
 70
     1
102
RTVSPropertyOp43
 70
     1
102
RTVSPropertyOp44
 70
     1
102
RTVSPropertyOp45
 70
     1
102
RTVSPropertyOp46
 70
     1
102
RTVSPropertyOp47
 70
     1
102
RTVSPropertyOp48
 70
     1
102
RTVSPropertyOp49
 70
     1
102
RTVSPropertyOp50
 70
     1
102
RTVSPropertyOp51
 70
     0
102
RTVSPropertyOp52
 70
     0
102
RTVSPropertyOp53
 70
     1
102
RTVSPropertyOp54
 70
     1
102
RTVSPropertyOp55
 70
     1
102
RTVSPropertyOp56
 70
     1
102
RTVSPropertyOp57
 70
     1
102
RTVSPropertyOp58
 70
     1
102
RTVSPropertyOp59
 70
     1
102
RTVSPropertyOp60
 70
     1
102
RTVSPropertyOp61
 70
     1
102
RTVSPropertyOp62
 70
     1
  0
XRECORD
  5
13535
102
{ACAD_REACTORS
330
13534
102
}
330
13534
100
AcDbXrecord
280
     1
102
RTVSPost2010Prop28
280
     0
102
RTVSPost2010PropOp28
 70
     1
102
RTVSPost2010Prop29
280
     1
102
RTVSPost2010PropOp29
 70
     1
102
RTVSPost2010Prop30
280
     1
102
RTVSPost2010PropOp30
 70
     1
102
RTVSPost2010Prop31
280
     0
102
RTVSPost2010PropOp31
 70
     1
102
RTVSPost2010Prop32
280
     0
102
RTVSPost2010PropOp32
 70
     1
102
RTVSPost2010Prop33
280
     0
102
RTVSPost2010PropOp33
 70
     1
102
RTVSPost2010Prop34
280
     0
102
RTVSPost2010PropOp34
 70
     1
102
RTVSPost2010Prop35
280
     0
102
RTVSPost2010PropOp35
 70
     1
102
RTVSPost2010Prop36
280
     0
102
RTVSPost2010PropOp36
 70
     1
102
RTVSPost2010Prop37
 90
       50
102
RTVSPost2010PropOp37
 70
     1
102
RTVSPost2010Prop38
140
0.0
102
RTVSPost2010PropOp38
 70
     1
102
RTVSPost2010Prop39
140
1.0
102
RTVSPost2010PropOp39
 70
     1
102
RTVSPost2010Prop40
 90
        0
102
RTVSPost2010PropOp40
 70
     1
102
RTVSPost2010Prop41ColorIndex
 90
       18
102
RTVSPost2010Prop41ColorRGB
 90
        0
102
RTVSPost2010PropOp41
 70
     1
102
RTVSPost2010Prop42
 90
       50
102
RTVSPost2010PropOp42
 70
     1
102
RTVSPost2010Prop43
 90
        3
102
RTVSPost2010PropOp43
 70
     1
102
RTVSPost2010Prop44ColorIndex
 90
        5
102
RTVSPost2010Prop44ColorRGB
 90
      255
102
RTVSPost2010PropOp44
 70
     1
102
RTVSPost2010Prop45
280
     0
102
RTVSPost2010PropOp45
 70
     1
102
RTVSPost2010Prop46
 90
       50
102
RTVSPost2010PropOp46
 70
     1
102
RTVSPost2010Prop47
 90
       50
102
RTVSPost2010PropOp47
 70
     1
102
RTVSPost2010Prop48
 90
       50
102
RTVSPost2010PropOp48
 70
     1
102
RTVSPost2010Prop49
280
     0
102
RTVSPost2010PropOp49
 70
     1
102
RTVSPost2010Prop50
 90
       50
102
RTVSPost2010PropOp50
 70
     1
102
RTVSPost2010Prop51ColorIndex
 90
      256
102
RTVSPost2010Prop51ColorRGB
 90
-16777216
102
RTVSPost2010PropOp51
 70
     0
102
RTVSPost2010Prop52
140
1.0
102
RTVSPost2010PropOp52
 70
     0
102
RTVSPost2010Prop53
 90
        2
102
RTVSPost2010PropOp53
 70
     1
102
RTVSPost2010Prop54
  1
strokes_ogs.tif
102
RTVSPost2010PropOp54
 70
     1
102
RTVSPost2010Prop55
280
     0
102
RTVSPost2010PropOp55
 70
     1
102
RTVSPost2010Prop56
140
1.0
102
RTVSPost2010PropOp56
 70
     1
102
RTVSPost2010Prop57
140
1.0
102
RTVSPost2010PropOp57
 70
     1
102
RTVSPropertyOp0
 70
     1
102
RTVSPropertyOp1
 70
     1
102
RTVSPropertyOp2
 70
     1
102
RTVSPropertyOp3
 70
     1
102
RTVSPropertyOp4
 70
     1
102
RTVSPropertyOp5
 70
     1
102
RTVSPropertyOp6
 70
     1
102
RTVSPropertyOp7
 70
     1
102
RTVSPropertyOp8
 70
     1
102
RTVSPropertyOp9
 70
     1
102
RTVSPropertyOp10
 70
     1
102
RTVSPropertyOp11
 70
     1
102
RTVSPropertyOp12
 70
     1
102
RTVSPropertyOp13
 70
     1
102
RTVSPropertyOp14
 70
     1
102
RTVSPropertyOp15
 70
     1
102
RTVSPropertyOp16
 70
     1
102
RTVSPropertyOp17
 70
     1
102
RTVSPropertyOp18
 70
     1
102
RTVSPropertyOp19
 70
     1
102
RTVSPropertyOp20
 70
     1
102
RTVSPropertyOp21
 70
     1
102
RTVSPropertyOp22
 70
     1
102
RTVSPropertyOp23
 70
     1
102
RTVSPropertyOp24
 70
     1
102
RTVSPropertyOp25
 70
     1
102
RTVSPropertyOp26
 70
     1
102
RTVSPropertyOp27
 70
     1
102
RTVSPropertyOp28
 70
     1
102
RTVSPropertyOp29
 70
     1
102
RTVSPropertyOp30
 70
     1
102
RTVSPropertyOp31
 70
     1
102
RTVSPropertyOp32
 70
     1
102
RTVSPropertyOp33
 70
     1
102
RTVSPropertyOp34
 70
     1
102
RTVSPropertyOp35
 70
     1
102
RTVSPropertyOp36
 70
     1
102
RTVSPropertyOp37
 70
     1
102
RTVSPropertyOp38
 70
     1
102
RTVSPropertyOp39
 70
     1
102
RTVSPropertyOp40
 70
     1
102
RTVSPropertyOp41
 70
     1
102
RTVSPropertyOp42
 70
     1
102
RTVSPropertyOp43
 70
     1
102
RTVSPropertyOp44
 70
     1
102
RTVSPropertyOp45
 70
     1
102
RTVSPropertyOp46
 70
     1
102
RTVSPropertyOp47
 70
     1
102
RTVSPropertyOp48
 70
     1
102
RTVSPropertyOp49
 70
     1
102
RTVSPropertyOp50
 70
     1
102
RTVSPropertyOp51
 70
     0
102
RTVSPropertyOp52
 70
     0
102
RTVSPropertyOp53
 70
     1
102
RTVSPropertyOp54
 70
     1
102
RTVSPropertyOp55
 70
     1
102
RTVSPropertyOp56
 70
     1
102
RTVSPropertyOp57
 70
     1
102
RTVSPropertyOp58
 70
     1
102
RTVSPropertyOp59
 70
     1
102
RTVSPropertyOp60
 70
     1
102
RTVSPropertyOp61
 70
     1
102
RTVSPropertyOp62
 70
     1
  0
XRECORD
  5
13555
102
{ACAD_REACTORS
330
13554
102
}
330
13554
100
AcDbXrecord
280
     1
102
RTVSPost2010Prop28
280
     0
102
RTVSPost2010PropOp28
 70
     1
102
RTVSPost2010Prop29
280
     1
102
RTVSPost2010PropOp29
 70
     1
102
RTVSPost2010Prop30
280
     1
102
RTVSPost2010PropOp30
 70
     1
102
RTVSPost2010Prop31
280
     0
102
RTVSPost2010PropOp31
 70
     1
102
RTVSPost2010Prop32
280
     0
102
RTVSPost2010PropOp32
 70
     1
102
RTVSPost2010Prop33
280
     0
102
RTVSPost2010PropOp33
 70
     1
102
RTVSPost2010Prop34
280
     0
102
RTVSPost2010PropOp34
 70
     1
102
RTVSPost2010Prop35
280
     0
102
RTVSPost2010PropOp35
 70
     1
102
RTVSPost2010Prop36
280
     0
102
RTVSPost2010PropOp36
 70
     1
102
RTVSPost2010Prop37
 90
       50
102
RTVSPost2010PropOp37
 70
     1
102
RTVSPost2010Prop38
140
0.0
102
RTVSPost2010PropOp38
 70
     1
102
RTVSPost2010Prop39
140
1.0
102
RTVSPost2010PropOp39
 70
     1
102
RTVSPost2010Prop40
 90
        0
102
RTVSPost2010PropOp40
 70
     1
102
RTVSPost2010Prop41ColorIndex
 90
       18
102
RTVSPost2010Prop41ColorRGB
 90
        0
102
RTVSPost2010PropOp41
 70
     1
102
RTVSPost2010Prop42
 90
       50
102
RTVSPost2010PropOp42
 70
     1
102
RTVSPost2010Prop43
 90
        3
102
RTVSPost2010PropOp43
 70
     1
102
RTVSPost2010Prop44ColorIndex
 90
        5
102
RTVSPost2010Prop44ColorRGB
 90
      255
102
RTVSPost2010PropOp44
 70
     1
102
RTVSPost2010Prop45
280
     0
102
RTVSPost2010PropOp45
 70
     1
102
RTVSPost2010Prop46
 90
       50
102
RTVSPost2010PropOp46
 70
     1
102
RTVSPost2010Prop47
 90
       50
102
RTVSPost2010PropOp47
 70
     1
102
RTVSPost2010Prop48
 90
       50
102
RTVSPost2010PropOp48
 70
     1
102
RTVSPost2010Prop49
280
     0
102
RTVSPost2010PropOp49
 70
     1
102
RTVSPost2010Prop50
 90
       50
102
RTVSPost2010PropOp50
 70
     1
102
RTVSPost2010Prop51ColorIndex
 90
      256
102
RTVSPost2010Prop51ColorRGB
 90
-16777216
102
RTVSPost2010PropOp51
 70
     0
102
RTVSPost2010Prop52
140
1.0
102
RTVSPost2010PropOp52
 70
     0
102
RTVSPost2010Prop53
 90
        2
102
RTVSPost2010PropOp53
 70
     1
102
RTVSPost2010Prop54
  1
strokes_ogs.tif
102
RTVSPost2010PropOp54
 70
     1
102
RTVSPost2010Prop55
280
     0
102
RTVSPost2010PropOp55
 70
     1
102
RTVSPost2010Prop56
140
1.0
102
RTVSPost2010PropOp56
 70
     1
102
RTVSPost2010Prop57
140
1.0
102
RTVSPost2010PropOp57
 70
     1
102
RTVSPropertyOp0
 70
     1
102
RTVSPropertyOp1
 70
     1
102
RTVSPropertyOp2
 70
     1
102
RTVSPropertyOp3
 70
     1
102
RTVSPropertyOp4
 70
     1
102
RTVSPropertyOp5
 70
     1
102
RTVSPropertyOp6
 70
     1
102
RTVSPropertyOp7
 70
     1
102
RTVSPropertyOp8
 70
     1
102
RTVSPropertyOp9
 70
     1
102
RTVSPropertyOp10
 70
     1
102
RTVSPropertyOp11
 70
     1
102
RTVSPropertyOp12
 70
     1
102
RTVSPropertyOp13
 70
     1
102
RTVSPropertyOp14
 70
     1
102
RTVSPropertyOp15
 70
     1
102
RTVSPropertyOp16
 70
     1
102
RTVSPropertyOp17
 70
     1
102
RTVSPropertyOp18
 70
     1
102
RTVSPropertyOp19
 70
     1
102
RTVSPropertyOp20
 70
     1
102
RTVSPropertyOp21
 70
     1
102
RTVSPropertyOp22
 70
     1
102
RTVSPropertyOp23
 70
     1
102
RTVSPropertyOp24
 70
     1
102
RTVSPropertyOp25
 70
     1
102
RTVSPropertyOp26
 70
     1
102
RTVSPropertyOp27
 70
     1
102
RTVSPropertyOp28
 70
     1
102
RTVSPropertyOp29
 70
     1
102
RTVSPropertyOp30
 70
     1
102
RTVSPropertyOp31
 70
     1
102
RTVSPropertyOp32
 70
     1
102
RTVSPropertyOp33
 70
     1
102
RTVSPropertyOp34
 70
     1
102
RTVSPropertyOp35
 70
     1
102
RTVSPropertyOp36
 70
     1
102
RTVSPropertyOp37
 70
     1
102
RTVSPropertyOp38
 70
     1
102
RTVSPropertyOp39
 70
     1
102
RTVSPropertyOp40
 70
     1
102
RTVSPropertyOp41
 70
     1
102
RTVSPropertyOp42
 70
     1
102
RTVSPropertyOp43
 70
     1
102
RTVSPropertyOp44
 70
     1
102
RTVSPropertyOp45
 70
     1
102
RTVSPropertyOp46
 70
     1
102
RTVSPropertyOp47
 70
     1
102
RTVSPropertyOp48
 70
     1
102
RTVSPropertyOp49
 70
     1
102
RTVSPropertyOp50
 70
     1
102
RTVSPropertyOp51
 70
     0
102
RTVSPropertyOp52
 70
     0
102
RTVSPropertyOp53
 70
     1
102
RTVSPropertyOp54
 70
     1
102
RTVSPropertyOp55
 70
     1
102
RTVSPropertyOp56
 70
     1
102
RTVSPropertyOp57
 70
     1
102
RTVSPropertyOp58
 70
     1
102
RTVSPropertyOp59
 70
     1
102
RTVSPropertyOp60
 70
     1
102
RTVSPropertyOp61
 70
     1
102
RTVSPropertyOp62
 70
     1
  0
ENDSEC
  0
EOF
