  0
SECTION
  2
HEADER
  9
$ACADVER
  1
AC1015
  9
$ACADMAINTVER
 70
    18
  9
$DWGCODEPAGE
  3
ANSI_1252
  9
$INSBASE
 10
0.0
 20
0.0
 30
0.0
  9
$EXTMIN
 10
-234.955443631573
 20
-357.0063626391422
 30
-0.0015258207003583
  9
$EXTMAX
 10
306.3867195956254
 20
307.590958345438
 30
0.0000000349246037
  9
$LIMMIN
 10
0.0
 20
0.0
  9
$LIMMAX
 10
420.0
 20
297.0
  9
$ORTHOMODE
 70
     0
  9
$REGENMODE
 70
     1
  9
$FILLMODE
 70
     1
  9
$QTEXTMODE
 70
     0
  9
$MIRRTEXT
 70
     0
  9
$LTSCALE
 40
1.0
  9
$ATTMODE
 70
     1
  9
$TEXTSIZE
 40
2.5
  9
$TRACEWID
 40
1.0
  9
$TEXTSTYLE
  7
Standard
  9
$CLAYER
  8
0
  9
$CELTYPE
  6
ByLayer
  9
$CECOLOR
 62
   256
  9
$CELTSCALE
 40
1.0
  9
$DISPSILH
 70
     0
  9
$DIMSCALE
 40
1.0
  9
$DIMASZ
 40
2.5
  9
$DIMEXO
 40
0.625
  9
$DIMDLI
 40
3.75
  9
$DIMRND
 40
0.0
  9
$DIMDLE
 40
0.0
  9
$DIMEXE
 40
1.25
  9
$DIMTP
 40
0.0
  9
$DIMTM
 40
0.0
  9
$DIMTXT
 40
2.5
  9
$DIMCEN
 40
2.5
  9
$DIMTSZ
 40
0.0
  9
$DIMTOL
 70
     0
  9
$DIMLIM
 70
     0
  9
$DIMTIH
 70
     0
  9
$DIMTOH
 70
     0
  9
$DIMSE1
 70
     0
  9
$DIMSE2
 70
     0
  9
$DIMTAD
 70
     1
  9
$DIMZIN
 70
     8
  9
$DIMBLK
  1

  9
$DIMASO
 70
     1
  9
$DIMSHO
 70
     1
  9
$DIMPOST
  1

  9
$DIMAPOST
  1

  9
$DIMALT
 70
     0
  9
$DIMALTD
 70
     3
  9
$DIMALTF
 40
0.03937007874016
  9
$DIMLFAC
 40
1.0
  9
$DIMTOFL
 70
     1
  9
$DIMTVP
 40
0.0
  9
$DIMTIX
 70
     0
  9
$DIMSOXD
 70
     0
  9
$DIMSAH
 70
     0
  9
$DIMBLK1
  1

  9
$DIMBLK2
  1

  9
$DIMSTYLE
  2
ISO-25
  9
$DIMCLRD
 70
     0
  9
$DIMCLRE
 70
     0
  9
$DIMCLRT
 70
     0
  9
$DIMTFAC
 40
1.0
  9
$DIMGAP
 40
0.625
  9
$DIMJUST
 70
     0
  9
$DIMSD1
 70
     0
  9
$DIMSD2
 70
     0
  9
$DIMTOLJ
 70
     0
  9
$DIMTZIN
 70
     8
  9
$DIMALTZ
 70
     0
  9
$DIMALTTZ
 70
     0
  9
$DIMUPT
 70
     0
  9
$DIMDEC
 70
     2
  9
$DIMTDEC
 70
     2
  9
$DIMALTU
 70
     2
  9
$DIMALTTD
 70
     3
  9
$DIMTXSTY
  7
Standard
  9
$DIMAUNIT
 70
     0
  9
$DIMADEC
 70
     0
  9
$DIMALTRND
 40
0.0
  9
$DIMAZIN
 70
     0
  9
$DIMDSEP
 70
    44
  9
$DIMATFIT
 70
     3
  9
$DIMFRAC
 70
     0
  9
$DIMLDRBLK
  1

  9
$DIMLUNIT
 70
     2
  9
$DIMLWD
 70
    -2
  9
$DIMLWE
 70
    -2
  9
$DIMTMOVE
 70
     0
  9
$LUNITS
 70
     2
  9
$LUPREC
 70
     4
  9
$SKETCHINC
 40
1.0
  9
$FILLETRAD
 40
0.0
  9
$AUNITS
 70
     0
  9
$AUPREC
 70
     0
  9
$MENU
  1
.
  9
$ELEVATION
 40
0.0
  9
$PELEVATION
 40
0.0
  9
$THICKNESS
 40
0.0
  9
$LIMCHECK
 70
     0
  9
$CHAMFERA
 40
0.0
  9
$CHAMFERB
 40
0.0
  9
$CHAMFERC
 40
0.0
  9
$CHAMFERD
 40
0.0
  9
$SKPOLY
 70
     0
  9
$TDCREATE
 40
2460719.406504630
  9
$TDUCREATE
 40
2460719.114837963
  9
$TDUPDATE
 40
2460719.416296296
  9
$TDUUPDATE
 40
2460719.124629630
  9
$TDINDWG
 40
0.0027546296
  9
$TDUSRTIMER
 40
0.0027546296
  9
$USRTIMER
 70
     1
  9
$ANGBASE
 50
0.0
  9
$ANGDIR
 70
     0
  9
$PDMODE
 70
     0
  9
$PDSIZE
 40
0.0
  9
$PLINEWID
 40
0.0
  9
$SPLFRAME
 70
     0
  9
$SPLINETYPE
 70
     6
  9
$SPLINESEGS
 70
     8
  9
$HANDSEED
  5
12E64
  9
$SURFTAB1
 70
     6
  9
$SURFTAB2
 70
     6
  9
$SURFTYPE
 70
     6
  9
$SURFU
 70
     6
  9
$SURFV
 70
     6
  9
$UCSBASE
  2

  9
$UCSNAME
  2

  9
$UCSORG
 10
0.0
 20
0.0
 30
0.0
  9
$UCSXDIR
 10
1.0
 20
0.0
 30
0.0
  9
$UCSYDIR
 10
0.0
 20
1.0
 30
0.0
  9
$UCSORTHOREF
  2

  9
$UCSORTHOVIEW
 70
     0
  9
$UCSORGTOP
 10
0.0
 20
0.0
 30
0.0
  9
$UCSORGBOTTOM
 10
0.0
 20
0.0
 30
0.0
  9
$UCSORGLEFT
 10
0.0
 20
0.0
 30
0.0
  9
$UCSORGRIGHT
 10
0.0
 20
0.0
 30
0.0
  9
$UCSORGFRONT
 10
0.0
 20
0.0
 30
0.0
  9
$UCSORGBACK
 10
0.0
 20
0.0
 30
0.0
  9
$PUCSBASE
  2

  9
$PUCSNAME
  2

  9
$PUCSORG
 10
0.0
 20
0.0
 30
0.0
  9
$PUCSXDIR
 10
1.0
 20
0.0
 30
0.0
  9
$PUCSYDIR
 10
0.0
 20
1.0
 30
0.0
  9
$PUCSORTHOREF
  2

  9
$PUCSORTHOVIEW
 70
     0
  9
$PUCSORGTOP
 10
0.0
 20
0.0
 30
0.0
  9
$PUCSORGBOTTOM
 10
0.0
 20
0.0
 30
0.0
  9
$PUCSORGLEFT
 10
0.0
 20
0.0
 30
0.0
  9
$PUCSORGRIGHT
 10
0.0
 20
0.0
 30
0.0
  9
$PUCSORGFRONT
 10
0.0
 20
0.0
 30
0.0
  9
$PUCSORGBACK
 10
0.0
 20
0.0
 30
0.0
  9
$USERI1
 70
     0
  9
$USERI2
 70
     0
  9
$USERI3
 70
     0
  9
$USERI4
 70
     0
  9
$USERI5
 70
     0
  9
$USERR1
 40
0.0
  9
$USERR2
 40
0.0
  9
$USERR3
 40
0.0
  9
$USERR4
 40
0.0
  9
$USERR5
 40
0.0
  9
$WORLDVIEW
 70
     1
  9
$SHADEDGE
 70
     3
  9
$SHADEDIF
 70
    70
  9
$TILEMODE
 70
     1
  9
$MAXACTVP
 70
    48
  9
$PINSBASE
 10
0.0
 20
0.0
 30
0.0
  9
$PLIMCHECK
 70
     0
  9
$PEXTMIN
 10
0.0
 20
0.0
 30
0.0
  9
$PEXTMAX
 10
0.0
 20
0.0
 30
0.0
  9
$PLIMMIN
 10
0.0
 20
0.0
  9
$PLIMMAX
 10
12.0
 20
9.0
  9
$UNITMODE
 70
     0
  9
$VISRETAIN
 70
     1
  9
$PLINEGEN
 70
     0
  9
$PSLTSCALE
 70
     1
  9
$TREEDEPTH
 70
  3020
  9
$CMLSTYLE
  2
Standard
  9
$CMLJUST
 70
     0
  9
$CMLSCALE
 40
20.0
  9
$PROXYGRAPHICS
 70
     1
  9
$MEASUREMENT
 70
     1
  9
$CELWEIGHT
370
    -1
  9
$ENDCAPS
280
     0
  9
$JOINSTYLE
280
     0
  9
$LWDISPLAY
290
     0
  9
$INSUNITS
 70
     4
  9
$HYPERLINKBASE
  1

  9
$STYLESHEET
  1

  9
$XEDIT
290
     1
  9
$CEPSNTYPE
380
     0
  9
$PSTYLEMODE
290
     1
  9
$FINGERPRINTGUID
  2
{375C693C-302E-BC42-B92A-19F6C371B7B0}
  9
$VERSIONGUID
  2
{14AD45E3-5D3D-6A42-987B-93F598149175}
  9
$EXTNAMES
290
     1
  9
$PSVPSCALE
 40
0.0
  9
$OLESTARTUP
290
     0
  0
ENDSEC
  0
SECTION
  2
CLASSES
  0
CLASS
  1
ACDBDICTIONARYWDFLT
  2
AcDbDictionaryWithDefault
  3
ObjectDBX Classes
 90
        0
280
     0
281
     0
  0
CLASS
  1
ACDBPLACEHOLDER
  2
AcDbPlaceHolder
  3
ObjectDBX Classes
 90
        0
280
     0
281
     0
  0
CLASS
  1
LAYOUT
  2
AcDbLayout
  3
ObjectDBX Classes
 90
        0
280
     0
281
     0
  0
CLASS
  1
DICTIONARYVAR
  2
AcDbDictionaryVar
  3
ObjectDBX Classes
 90
        0
280
     0
281
     0
  0
CLASS
  1
TABLESTYLE
  2
AcDbTableStyle
  3
ObjectDBX Classes
 90
     4095
280
     0
281
     0
  0
CLASS
  1
MATERIAL
  2
AcDbMaterial
  3
ObjectDBX Classes
 90
     1153
280
     0
281
     0
  0
CLASS
  1
VISUALSTYLE
  2
AcDbVisualStyle
  3
ObjectDBX Classes
 90
     4095
280
     0
281
     0
  0
CLASS
  1
SCALE
  2
AcDbScale
  3
ObjectDBX Classes
 90
     1153
280
     0
281
     0
  0
CLASS
  1
MLEADERSTYLE
  2
AcDbMLeaderStyle
  3
ACDB_MLEADERSTYLE_CLASS
 90
     4095
280
     0
281
     0
  0
CLASS
  1
CELLSTYLEMAP
  2
AcDbCellStyleMap
  3
ObjectDBX Classes
 90
     1152
280
     0
281
     0
  0
CLASS
  1
EXACXREFPANELOBJECT
  2
ExAcXREFPanelObject
  3
EXAC_ESW
 90
    33793
280
     0
281
     0
  0
CLASS
  1
NPOCOLLECTION
  2
AcDbImpNonPersistentObjectsCollection
  3
ObjectDBX Classes
 90
    33921
280
     0
281
     0
  0
CLASS
  1
LAYER_INDEX
  2
AcDbLayerIndex
  3
ObjectDBX Classes
 90
    32768
280
     0
281
     0
  0
CLASS
  1
SPATIAL_INDEX
  2
AcDbSpatialIndex
  3
ObjectDBX Classes
 90
    32768
280
     0
281
     0
  0
CLASS
  1
IDBUFFER
  2
AcDbIdBuffer
  3
ObjectDBX Classes
 90
    32768
280
     0
281
     0
  0
CLASS
  1
ACDBSECTIONVIEWSTYLE
  2
AcDbSectionViewStyle
  3
ObjectDBX Classes
 90
     1025
280
     0
281
     0
  0
CLASS
  1
ACDBDETAILVIEWSTYLE
  2
AcDbDetailViewStyle
  3
ObjectDBX Classes
 90
     1025
280
     0
281
     0
  0
CLASS
  1
XRECORD
  2
AcDbXrecord
  3
ObjectDBX Classes
 90
        0
280
     0
281
     0
  0
ENDSEC
  0
SECTION
  2
TABLES
  0
TABLE
  2
VPORT
  5
8
102
{ACAD_XDICTIONARY
360
12D72
102
}
330
0
100
AcDbSymbolTable
 70
     1
  0
VPORT
  5
EA
330
8
100
AcDbSymbolTableRecord
100
AcDbViewportTableRecord
  2
*Active
 70
     0
 10
0.0
 20
0.0
 11
1.0
 21
1.0
 12
35.71563798202622
 22
-24.70770214685206
 13
0.0
 23
0.0
 14
10.0
 24
10.0
 15
10.0
 25
10.0
 16
0.0
 26
0.0
 36
1.0
 17
0.0
 27
0.0
 37
0.0
 40
706.7390228540893
 41
0.9846153846153848
 42
50.0
 43
0.0
 44
0.0
 50
0.0
 51
0.0
 71
     0
 72
  1000
 73
     1
 74
     3
 75
     0
 76
     1
 77
     0
 78
     0
281
     0
 65
     1
110
0.0
120
0.0
130
0.0
111
1.0
121
0.0
131
0.0
112
0.0
122
1.0
132
0.0
 79
     0
146
0.0
1001
ACAD_NAV_VCDISPLAY
1070
     3
  0
ENDTAB
  0
TABLE
  2
LTYPE
  5
5
330
0
100
AcDbSymbolTable
 70
     1
  0
LTYPE
  5
14
330
5
100
AcDbSymbolTableRecord
100
AcDbLinetypeTableRecord
  2
ByBlock
 70
     0
  3

 72
    65
 73
     0
 40
0.0
  0
LTYPE
  5
15
330
5
100
AcDbSymbolTableRecord
100
AcDbLinetypeTableRecord
  2
ByLayer
 70
     0
  3

 72
    65
 73
     0
 40
0.0
  0
LTYPE
  5
16
330
5
100
AcDbSymbolTableRecord
100
AcDbLinetypeTableRecord
  2
Continuous
 70
     0
  3
Solid line
 72
    65
 73
     0
 40
0.0
  0
ENDTAB
  0
TABLE
  2
LAYER
  5
2
102
{ACAD_XDICTIONARY
360
1FF
102
}
330
0
100
AcDbSymbolTable
 70
     1
  0
LAYER
  5
10
102
{ACAD_XDICTIONARY
360
13C
102
}
330
2
100
AcDbSymbolTableRecord
100
AcDbLayerTableRecord
  2
0
 70
     0
 62
     7
  6
Continuous
370
    -3
390
F
  0
ENDTAB
  0
TABLE
  2
STYLE
  5
3
330
0
100
AcDbSymbolTable
 70
     1
  0
STYLE
  5
11
330
3
100
AcDbSymbolTableRecord
100
AcDbTextStyleTableRecord
  2
Standard
 70
     0
 40
0.0
 41
1.0
 50
0.0
 71
     0
 42
2.5
  3
arial.ttf
  4

1001
ACAD
1000
Arial
1071
       34
  0
ENDTAB
  0
TABLE
  2
VIEW
  5
6
330
0
100
AcDbSymbolTable
 70
     0
  0
ENDTAB
  0
TABLE
  2
UCS
  5
7
330
0
100
AcDbSymbolTable
 70
     0
  0
ENDTAB
  0
TABLE
  2
APPID
  5
9
330
0
100
AcDbSymbolTable
 70
     8
  0
APPID
  5
12
330
9
100
AcDbSymbolTableRecord
100
AcDbRegAppTableRecord
  2
ACAD
 70
     0
  0
APPID
  5
9E
330
9
100
AcDbSymbolTableRecord
100
AcDbRegAppTableRecord
  2
ACAD_PSEXT
 70
     0
  0
APPID
  5
133
330
9
100
AcDbSymbolTableRecord
100
AcDbRegAppTableRecord
  2
AcadAnnoPO
 70
     0
  0
APPID
  5
134
330
9
100
AcDbSymbolTableRecord
100
AcDbRegAppTableRecord
  2
AcadAnnotative
 70
     0
  0
APPID
  5
135
330
9
100
AcDbSymbolTableRecord
100
AcDbRegAppTableRecord
  2
ACAD_DSTYLE_DIMJAG
 70
     0
  0
APPID
  5
136
330
9
100
AcDbSymbolTableRecord
100
AcDbRegAppTableRecord
  2
ACAD_DSTYLE_DIMTALN
 70
     0
  0
APPID
  5
165
330
9
100
AcDbSymbolTableRecord
100
AcDbRegAppTableRecord
  2
ACAD_MLEADERVER
 70
     0
  0
APPID
  5
217
330
9
100
AcDbSymbolTableRecord
100
AcDbRegAppTableRecord
  2
ACAD_NAV_VCDISPLAY
 70
     0
  0
ENDTAB
  0
TABLE
  2
DIMSTYLE
  5
A
330
0
100
AcDbSymbolTable
 70
     1
100
AcDbDimStyleTable
 71
     0
  0
DIMSTYLE
105
27
330
A
100
AcDbSymbolTableRecord
100
AcDbDimStyleTableRecord
  2
ISO-25
 70
     0
 41
2.5
 42
0.625
 43
3.75
 44
1.25
 73
     0
 74
     0
 77
     1
 78
     8
140
2.5
141
2.5
143
0.03937007874016
147
0.625
171
     3
172
     1
271
     2
272
     2
274
     3
278
    44
283
     0
284
     8
340
11
  0
ENDTAB
  0
TABLE
  2
BLOCK_RECORD
  5
1
330
0
100
AcDbSymbolTable
 70
     7
  0
BLOCK_RECORD
  5
1F
102
{ACAD_XDICTIONARY
360
1CE
102
}
330
1
100
AcDbSymbolTableRecord
100
AcDbBlockTableRecord
  2
*Model_Space
340
22
  0
BLOCK_RECORD
  5
D2
102
{ACAD_XDICTIONARY
360
12D25
102
}
330
1
100
AcDbSymbolTableRecord
100
AcDbBlockTableRecord
  2
*Paper_Space
340
D3
  0
BLOCK_RECORD
  5
D6
102
{ACAD_XDICTIONARY
360
12D27
102
}
330
1
100
AcDbSymbolTableRecord
100
AcDbBlockTableRecord
  2
*Paper_Space0
340
D7
  0
BLOCK_RECORD
  5
12A65
330
1
100
AcDbSymbolTableRecord
100
AcDbBlockTableRecord
  2
SPR91_160-Front
340
0
102
{BLKREFS
331
12D1B
102
}
  0
BLOCK_RECORD
  5
12AE1
330
1
100
AcDbSymbolTableRecord
100
AcDbBlockTableRecord
  2
SPR91_160-Left
340
0
102
{BLKREFS
331
12D1C
102
}
  0
BLOCK_RECORD
  5
12B1B
330
1
100
AcDbSymbolTableRecord
100
AcDbBlockTableRecord
  2
SPR91_160-Right
340
0
102
{BLKREFS
331
12D1D
102
}
  0
BLOCK_RECORD
  5
12B57
330
1
100
AcDbSymbolTableRecord
100
AcDbBlockTableRecord
  2
SPR91_160-Top
340
0
102
{BLKREFS
331
12D1E
102
}
  0
BLOCK_RECORD
  5
12BBD
330
1
100
AcDbSymbolTableRecord
100
AcDbBlockTableRecord
  2
SPR91_160-Bottom
340
0
102
{BLKREFS
331
12D1F
102
}
  0
BLOCK_RECORD
  5
12C1B
330
1
100
AcDbSymbolTableRecord
100
AcDbBlockTableRecord
  2
SPR91_160-ISO
340
0
102
{BLKREFS
331
12D20
102
}
  0
ENDTAB
  0
ENDSEC
  0
SECTION
  2
BLOCKS
  0
BLOCK
  5
20
330
1F
100
AcDbEntity
  8
0
100
AcDbBlockBegin
  2
*Model_Space
 70
     0
 10
0.0
 20
0.0
 30
0.0
  3
*Model_Space
  1

  0
ENDBLK
  5
21
330
1F
100
AcDbEntity
  8
0
100
AcDbBlockEnd
  0
BLOCK
  5
D4
330
D2
100
AcDbEntity
 67
     1
  8
0
100
AcDbBlockBegin
  2
*Paper_Space
 70
     0
 10
0.0
 20
0.0
 30
0.0
  3
*Paper_Space
  1

  0
ENDBLK
  5
D5
330
D2
100
AcDbEntity
 67
     1
  8
0
100
AcDbBlockEnd
  0
BLOCK
  5
D8
330
D6
100
AcDbEntity
 67
     1
  8
0
100
AcDbBlockBegin
  2
*Paper_Space0
 70
     0
 10
0.0
 20
0.0
 30
0.0
  3
*Paper_Space0
  1

  0
ENDBLK
  5
D9
330
D6
100
AcDbEntity
 67
     1
  8
0
100
AcDbBlockEnd
  0
BLOCK
  5
12A66
330
12A65
100
AcDbEntity
  8
0
100
AcDbBlockBegin
  2
SPR91_160-Front
 70
     0
 10
0.0
 20
0.0
 30
0.0
  3
SPR91_160-Front
  1

  0
LINE
  5
12A68
330
12A65
100
AcDbEntity
  8
0
100
AcDbLine
 10
88.02709056099997
 20
6.269999999999996
 30
0.0
 11
83.02709056099997
 21
1.269999999999996
 31
0.0
  0
LINE
  5
12A69
330
12A65
100
AcDbEntity
  8
0
100
AcDbLine
 10
-83.02709056100001
 20
1.269999999999996
 30
0.0
 11
-88.02709056100001
 21
6.269999999999996
 31
0.0
  0
LINE
  5
12A6A
330
12A65
100
AcDbEntity
  8
0
100
AcDbLine
 10
-88.02709056100001
 20
72.27000000000001
 30
0.0
 11
-83.02709056100002
 21
77.27000000000001
 31
0.0
  0
LINE
  5
12A6B
330
12A65
100
AcDbEntity
  8
0
100
AcDbLine
 10
83.02709056099997
 20
77.27000000000001
 30
0.0
 11
88.02709056099999
 21
72.27000000000001
 31
0.0
  0
LINE
  5
12A6C
330
12A65
100
AcDbEntity
  8
0
100
AcDbLine
 10
88.02709056099999
 20
72.27000000000001
 30
0.0
 11
88.02709056099997
 21
6.269999999999997
 31
0.0
  0
LINE
  5
12A6D
330
12A65
100
AcDbEntity
  8
0
100
AcDbLine
 10
-88.02709056100001
 20
6.269999999999996
 30
0.0
 11
-88.02709056100001
 21
72.27000000000001
 31
0.0
  0
LINE
  5
12A6E
330
12A65
100
AcDbEntity
  8
0
100
AcDbLine
 10
41.99999999999998
 20
77.27000000000001
 30
0.0
 11
83.02709056099997
 21
77.27000000000001
 31
0.0
  0
LINE
  5
12A6F
330
12A65
100
AcDbEntity
  8
0
100
AcDbLine
 10
-42.00000000000001
 20
1.269999999999987
 30
0.0
 11
-83.02709056100001
 21
1.269999999999996
 31
0.0
  0
LINE
  5
12A70
330
12A65
100
AcDbEntity
  8
0
100
AcDbLine
 10
83.02709056099997
 20
1.269999999999996
 30
0.0
 11
41.99999999999998
 21
1.269999999999987
 31
0.0
  0
ARC
  5
12A71
330
12A65
100
AcDbEntity
  8
0
100
AcDbCircle
 10
41.99999999999998
 20
78.77000000000004
 30
0.0
 40
1.5
100
AcDbArc
 50
90.0
 51
270.0
  0
LINE
  5
12A72
330
12A65
100
AcDbEntity
  8
0
100
AcDbLine
 10
-83.02709056100002
 20
77.27000000000001
 30
0.0
 11
-42.00000000000002
 21
77.27000000000001
 31
0.0
  0
ARC
  5
12A73
330
12A65
100
AcDbEntity
  8
0
100
AcDbCircle
 10
-42.00000000000002
 20
78.77000000000001
 30
0.0
 40
1.5
100
AcDbArc
 50
270.0
 51
90.0
  0
LINE
  5
12A74
330
12A65
100
AcDbEntity
  8
0
100
AcDbLine
 10
46.99999999999969
 20
80.27000000000002
 30
0.0
 11
46.99999999999964
 21
85.27000000000002
 31
0.0
  0
LINE
  5
12A75
330
12A65
100
AcDbEntity
  8
0
100
AcDbLine
 10
46.99999999999964
 20
85.27000000000002
 30
0.0
 11
45.49999999999964
 21
85.27000000000002
 31
0.0
  0
LINE
  5
12A76
330
12A65
100
AcDbEntity
  8
0
100
AcDbLine
 10
45.49999999999964
 20
85.27000000000002
 30
0.0
 11
45.49999999999968
 21
80.27000000000002
 31
0.0
  0
LINE
  5
12A77
330
12A65
100
AcDbEntity
  8
0
100
AcDbLine
 10
45.49999999999968
 20
80.27000000000002
 30
0.0
 11
46.99999999999969
 21
80.27000000000002
 31
0.0
  0
LINE
  5
12A78
330
12A65
100
AcDbEntity
  8
0
100
AcDbLine
 10
45.49999999999964
 20
155.67
 30
0.0
 11
46.99999999999964
 21
155.67
 31
0.0
  0
LINE
  5
12A79
330
12A65
100
AcDbEntity
  8
0
100
AcDbLine
 10
46.99999999999964
 20
155.67
 30
0.0
 11
46.99999999999969
 21
160.67
 31
0.0
  0
LINE
  5
12A7A
330
12A65
100
AcDbEntity
  8
0
100
AcDbLine
 10
-47.00000000000001
 20
85.27000000000001
 30
0.0
 11
-47.00000000000001
 21
80.27000000000002
 31
0.0
  0
LINE
  5
12A7B
330
12A65
100
AcDbEntity
  8
0
100
AcDbLine
 10
-47.00000000000001
 20
80.27000000000002
 30
0.0
 11
-45.50000000000001
 21
80.27000000000002
 31
0.0
  0
LINE
  5
12A7C
330
12A65
100
AcDbEntity
  8
0
100
AcDbLine
 10
-45.50000000000001
 20
80.27000000000002
 30
0.0
 11
-45.50000000000001
 21
85.27000000000001
 31
0.0
  0
LINE
  5
12A7D
330
12A65
100
AcDbEntity
  8
0
100
AcDbLine
 10
-45.50000000000001
 20
85.27000000000001
 30
0.0
 11
-47.00000000000001
 21
85.27000000000001
 31
0.0
  0
LINE
  5
12A7E
330
12A65
100
AcDbEntity
  8
0
100
AcDbLine
 10
-47.00000000000001
 20
160.67
 30
0.0
 11
-47.00000000000001
 21
155.67
 31
0.0
  0
LINE
  5
12A7F
330
12A65
100
AcDbEntity
  8
0
100
AcDbLine
 10
-47.00000000000001
 20
155.67
 30
0.0
 11
-45.50000000000001
 21
155.67
 31
0.0
  0
LINE
  5
12A80
330
12A65
100
AcDbEntity
  8
0
100
AcDbLine
 10
46.99999999999969
 20
160.67
 30
0.0
 11
45.49999999999968
 21
160.67
 31
0.0
  0
LINE
  5
12A81
330
12A65
100
AcDbEntity
  8
0
100
AcDbLine
 10
45.49999999999968
 20
160.67
 30
0.0
 11
45.49999999999964
 21
155.67
 31
0.0
  0
LINE
  5
12A82
330
12A65
100
AcDbEntity
  8
0
100
AcDbLine
 10
-45.50000000000001
 20
155.67
 30
0.0
 11
-45.50000000000001
 21
160.67
 31
0.0
  0
LINE
  5
12A83
330
12A65
100
AcDbEntity
  8
0
100
AcDbLine
 10
-45.50000000000001
 20
160.67
 30
0.0
 11
-47.00000000000001
 21
160.67
 31
0.0
  0
LINE
  5
12A84
330
12A65
100
AcDbEntity
  8
0
100
AcDbLine
 10
46.99999999999996
 20
-28.42608254450009
 30
0.0
 11
46.99999999999999
 21
-21.3550147326346
 31
0.0
  0
LINE
  5
12A85
330
12A65
100
AcDbEntity
  8
0
100
AcDbLine
 10
46.99999999999999
 20
-21.3550147326346
 30
0.0
 11
45.49999999999998
 21
-21.35501473263461
 31
0.0
  0
LINE
  5
12A86
330
12A65
100
AcDbEntity
  8
0
100
AcDbLine
 10
45.49999999999998
 20
-21.35501473263461
 30
0.0
 11
45.49999999999998
 21
-28.42608254450009
 31
0.0
  0
LINE
  5
12A87
330
12A65
100
AcDbEntity
  8
0
100
AcDbLine
 10
45.49999999999998
 20
-28.42608254450009
 30
0.0
 11
46.99999999999996
 21
-28.42608254450009
 31
0.0
  0
LINE
  5
12A88
330
12A65
100
AcDbEntity
  8
0
100
AcDbLine
 10
-46.99999999999999
 20
-21.35501473263462
 30
0.0
 11
-46.99999999999996
 21
-28.42608254450009
 31
0.0
  0
LINE
  5
12A89
330
12A65
100
AcDbEntity
  8
0
100
AcDbLine
 10
-46.99999999999996
 20
-28.42608254450009
 30
0.0
 11
-45.49999999999998
 21
-28.42608254450009
 31
0.0
  0
LINE
  5
12A8A
330
12A65
100
AcDbEntity
  8
0
100
AcDbLine
 10
-45.49999999999998
 20
-28.42608254450009
 30
0.0
 11
-45.49999999999998
 21
-21.35501473263463
 31
0.0
  0
LINE
  5
12A8B
330
12A65
100
AcDbEntity
  8
0
100
AcDbLine
 10
-45.49999999999998
 20
-21.35501473263463
 30
0.0
 11
-46.99999999999999
 21
-21.35501473263462
 31
0.0
  0
LINE
  5
12A8C
330
12A65
100
AcDbEntity
  8
0
100
AcDbLine
 10
46.99999999999964
 20
85.27000000000002
 30
0.0
 11
46.99999999999964
 21
155.67
 31
0.0
  0
LINE
  5
12A8D
330
12A65
100
AcDbEntity
  8
0
100
AcDbLine
 10
45.49999999999964
 20
155.67
 30
0.0
 11
45.49999999999964
 21
85.27000000000002
 31
0.0
  0
LINE
  5
12A8E
330
12A65
100
AcDbEntity
  8
0
100
AcDbLine
 10
-47.00000000000001
 20
155.67
 30
0.0
 11
-47.00000000000001
 21
85.27000000000001
 31
0.0
  0
LINE
  5
12A8F
330
12A65
100
AcDbEntity
  8
0
100
AcDbLine
 10
-45.50000000000001
 20
155.67
 30
0.0
 11
-45.50000000000001
 21
85.27000000000001
 31
0.0
  0
LINE
  5
12A90
330
12A65
100
AcDbEntity
  8
0
100
AcDbLine
 10
41.99999999999998
 20
80.27000000000002
 30
0.0
 11
44.89999999999999
 21
80.27000000000002
 31
0.0
  0
LINE
  5
12A91
330
12A65
100
AcDbEntity
  8
0
100
AcDbLine
 10
-44.90000000000002
 20
80.27000000000002
 30
0.0
 11
-42.00000000000002
 21
80.27000000000001
 31
0.0
  0
LINE
  5
12A92
330
12A65
100
AcDbEntity
  8
0
100
AcDbLine
 10
-44.90000000000002
 20
160.67
 30
0.0
 11
44.89999999999999
 21
160.67
 31
0.0
  0
LINE
  5
12A93
330
12A65
100
AcDbEntity
  8
0
100
AcDbLine
 10
47.00000000000123
 20
-2.263131642256535
 30
0.0
 11
46.99999999999999
 21
-21.3550147326346
 31
0.0
  0
LINE
  5
12A94
330
12A65
100
AcDbEntity
  8
0
100
AcDbLine
 10
45.50000000000105
 20
-2.263131642256534
 30
0.0
 11
45.49999999999998
 21
-21.35501473263461
 31
0.0
  0
ELLIPSE
  5
12A95
330
12A65
100
AcDbEntity
  8
0
100
AcDbEllipse
 10
44.89999999999997
 20
-54.16476937947051
 30
0.0
 11
0.6000000000000087
 21
0.0000000000001049
 31
0.0
210
0.0
220
0.0
230
1.0
 40
0.7071067811864884
 41
4.712388980384567
 42
6.283185307179551
  0
ELLIPSE
  5
12A96
330
12A65
100
AcDbEntity
  8
0
100
AcDbEllipse
 10
44.89999999999997
 20
-54.16476937947051
 30
0.0
 11
2.100000000000031
 21
0.0000000000002576
 31
0.0
210
0.0
220
0.0
230
1.0
 40
0.7071067811865444
 41
4.712388980384814
 42
6.283185307179981
  0
LINE
  5
12A97
330
12A65
100
AcDbEntity
  8
0
100
AcDbLine
 10
47.00000000000123
 20
-2.263131642256535
 30
0.0
 11
45.50000000000105
 21
-2.263131642256534
 31
0.0
  0
ELLIPSE
  5
12A98
330
12A65
100
AcDbEntity
  8
0
100
AcDbEllipse
 10
-42.00000000000001
 20
0.0236058844764062
 30
0.0
 11
-1.5
 21
0.0000000000001095
 31
0.0
210
0.0
220
0.0
230
1.0
 40
0.7071067811865479
 41
1.570796326795026
 42
2.705254581962135
  0
LINE
  5
12A99
330
12A65
100
AcDbEntity
  8
0
100
AcDbLine
 10
-42.00000000000001
 20
-1.037054287303402
 30
0.0
 11
-44.29315533855963
 21
-1.037054287303402
 31
0.0
  0
LINE
  5
12A9A
330
12A65
100
AcDbEntity
  8
0
100
AcDbLine
 10
-44.29315533855963
 20
-1.037054287303402
 30
0.0
 11
-44.90000000000001
 21
-1.466158262545955
 31
0.0
  0
LINE
  5
12A9B
330
12A65
100
AcDbEntity
  8
0
100
AcDbLine
 10
44.89999999999998
 20
-1.466158262545959
 30
0.0
 11
44.2931553385596
 21
-1.037054287303406
 31
0.0
  0
LINE
  5
12A9C
330
12A65
100
AcDbEntity
  8
0
100
AcDbLine
 10
44.2931553385596
 20
-1.037054287303406
 30
0.0
 11
41.99999999999998
 21
-1.037054287303406
 31
0.0
  0
ELLIPSE
  5
12A9D
330
12A65
100
AcDbEntity
  8
0
100
AcDbEllipse
 10
41.99999999999998
 20
0.0236058844764062
 30
0.0
 11
-1.5
 21
0.0
 31
0.0
210
0.0
220
0.0
230
1.0
 40
0.7071067811865479
 41
0.4363380716279047
 42
1.570796326794896
  0
SPLINE
  5
12A9E
330
12A65
100
AcDbEntity
  8
0
100
AcDbSpline
210
0.0
220
0.0
230
1.0
 70
     8
 71
     3
 72
     8
 73
     4
 74
     0
 42
0.000000001
 43
0.0000000001
 40
-1.0
 40
-1.0
 40
-1.0
 40
-1.0
 40
0.0
 40
0.0
 40
0.0
 40
0.0
 10
40.64054197002045
 20
-0.4246540092928796
 30
0.0
 10
40.51586474390251
 20
-0.3214850446752982
 30
0.0
 10
40.47251992074075
 20
-0.1594792109354491
 30
0.0
 10
40.51767776087193
 20
-0.0003899405809508
 30
0.0
  0
SPLINE
  5
12A9F
330
12A65
100
AcDbEntity
  8
0
100
AcDbSpline
210
0.0
220
0.0
230
1.0
 70
     8
 71
     3
 72
     8
 73
     4
 74
     0
 42
0.000000001
 43
0.0000000001
 40
-1.0
 40
-1.0
 40
-1.0
 40
-1.0
 40
0.0
 40
0.0
 40
0.0
 40
0.0
 10
-40.51767776087197
 20
-0.0003899405809507
 30
0.0
 10
-40.47251992074049
 20
-0.1594792109354459
 30
0.0
 10
-40.51586474390056
 20
-0.3214850446752977
 30
0.0
 10
-40.64054197002054
 20
-0.4246540092928796
 30
0.0
  0
LINE
  5
12AA0
330
12A65
100
AcDbEntity
  8
0
100
AcDbLine
 10
-45.50000000000145
 20
-2.263131642256707
 30
0.0
 11
-47.00000000000177
 21
-2.263131642256708
 31
0.0
  0
SPLINE
  5
12AA1
330
12A65
100
AcDbEntity
  8
0
100
AcDbSpline
210
0.0
220
0.0
230
1.0
 70
     8
 71
     3
 72
     8
 73
     4
 74
     0
 42
0.000000001
 43
0.0000000001
 40
-1.0
 40
-1.0
 40
-1.0
 40
-1.0
 40
0.0
 40
0.0
 40
0.0
 40
0.0
 10
-44.90000000000001
 20
-1.466158262545957
 30
0.0
 10
-45.214159265359
 20
-1.873237411765414
 30
0.0
 10
-45.50000000000003
 20
-2.078196639180336
 30
0.0
 10
-45.50000000000003
 20
-2.263131641492203
 30
0.0
  0
ARC
  5
12AA2
330
12A65
100
AcDbEntity
  8
0
100
AcDbCircle
 10
-42.00000000000001
 20
-0.2299999999999986
 30
0.0
 40
1.5
100
AcDbArc
 50
8.805075259701309
 51
90.0
  0
SPLINE
  5
12AA3
330
12A65
100
AcDbEntity
  8
0
100
AcDbSpline
210
0.0
220
0.0
230
1.0
 70
     8
 71
     3
 72
     8
 73
     4
 74
     0
 42
0.000000001
 43
0.0000000001
 40
-1.0
 40
-1.0
 40
-1.0
 40
-1.0
 40
0.0
 40
0.0
 40
0.0
 40
0.0
 10
45.49999999999998
 20
-2.263131641492199
 30
0.0
 10
45.49999999999998
 20
-2.078196639180483
 30
0.0
 10
45.21415926535895
 20
-1.873237411765399
 30
0.0
 10
44.89999999999997
 20
-1.466158262545966
 30
0.0
  0
ARC
  5
12AA4
330
12A65
100
AcDbEntity
  8
0
100
AcDbCircle
 10
41.99999999999998
 20
-0.2299999999999986
 30
0.0
 40
1.5
100
AcDbArc
 50
90.0
 51
171.1949247402987
  0
SPLINE
  5
12AA5
330
12A65
100
AcDbEntity
  8
0
100
AcDbSpline
210
0.0
220
0.0
230
1.0
 70
     8
 71
     3
 72
    16
 73
    12
 74
     0
 42
0.000000001
 43
0.0000000001
 40
0.0
 40
0.0
 40
0.0
 40
0.0
 40
0.0356537247272589
 40
0.0356537247272589
 40
0.0703704956503872
 40
0.0703704956503872
 40
0.1051345640163886
 40
0.1051345640163886
 40
0.1398962718733175
 40
0.1398962718733175
 40
0.1538885733137689
 40
0.1538885733137689
 40
0.1538885733137689
 40
0.1538885733137689
 10
-45.99950000000113
 20
-2.263131641492199
 30
0.0
 10
-45.99949999999906
 20
-2.26313164149066
 30
0.0
 10
-45.97955867539802
 20
-2.263059951014954
 30
0.0
 10
-45.90583172168225
 20
-2.250836451209559
 30
0.0
 10
-45.8521345802536
 20
-2.238741830456772
 30
0.0
 10
-45.72293730425957
 20
-2.194102190370775
 30
0.0
 10
-45.6459198543036
 20
-2.160888677207709
 30
0.0
 10
-45.48574064086884
 20
-2.06947920255428
 30
0.0
 10
-45.40073655254362
 20
-2.010107098215845
 30
0.0
 10
-45.28901418345696
 20
-1.909831885118486
 30
0.0
 10
-45.2575843799068
 20
-1.878943669856715
 30
0.0
 10
-45.22742155524395
 20
-1.846191951394362
 30
0.0
  0
SPLINE
  5
12AA6
330
12A65
100
AcDbEntity
  8
0
100
AcDbSpline
210
0.0
220
0.0
230
1.0
 70
     8
 71
     3
 72
    16
 73
    12
 74
     0
 42
0.000000001
 43
0.0000000001
 40
0.0
 40
0.0
 40
0.0
 40
0.0
 40
0.0356266149391468
 40
0.0356266149391468
 40
0.0703447701857835
 40
0.0703447701857835
 40
0.1051087695049359
 40
0.1051087695049359
 40
0.1398704808104428
 40
0.1398704808104428
 40
0.1538888647029524
 40
0.1538888647029524
 40
0.1538888647029524
 40
0.1538888647029524
 10
45.22742155524389
 20
-1.846191951394314
 30
0.0
 10
45.30422088266804
 20
-1.929583012344669
 30
0.0
 10
45.38999615133088
 20
-2.001172959757251
 30
0.0
 10
45.55564046646374
 20
-2.113266523289021
 30
0.0
 10
45.63750261653336
 20
-2.155953002297177
 30
0.0
 10
45.78182181894273
 20
-2.217016703002317
 30
0.0
 10
45.84591305092129
 20
-2.236189491819129
 30
0.0
 10
45.94238223267317
 20
-2.258395304189968
 30
0.0
 10
45.97587215058378
 20
-2.261811174868433
 30
0.0
 10
45.99650501536587
 20
-2.263130971916389
 30
0.0
 10
45.99950000000017
 20
-2.263131641491598
 30
0.0
 10
45.99950000000066
 20
-2.263131641492209
 30
0.0
  0
LINE
  5
12AA7
330
12A65
100
AcDbEntity
  8
0
100
AcDbLine
 10
46.99999999999998
 20
-54.16476937947052
 30
0.0
 11
46.99999999999996
 21
-28.42608254450009
 31
0.0
  0
LINE
  5
12AA8
330
12A65
100
AcDbEntity
  8
0
100
AcDbLine
 10
-46.99999999999996
 20
-28.42608254450009
 30
0.0
 11
-47.0
 21
-54.16476937947052
 31
0.0
  0
LINE
  5
12AA9
330
12A65
100
AcDbEntity
  8
0
100
AcDbLine
 10
-45.49999999999998
 20
-28.42608254450009
 30
0.0
 11
-45.49999999999999
 21
-54.16476937947052
 31
0.0
  0
LINE
  5
12AAA
330
12A65
100
AcDbEntity
  8
0
100
AcDbLine
 10
-44.90000000000001
 20
-54.58903344818243
 30
0.0
 11
44.89999999999998
 21
-54.58903344818243
 31
0.0
  0
LINE
  5
12AAB
330
12A65
100
AcDbEntity
  8
0
100
AcDbLine
 10
45.49999999999998
 20
-54.16476937947052
 30
0.0
 11
45.49999999999998
 21
-28.42608254450009
 31
0.0
  0
LINE
  5
12AAC
330
12A65
100
AcDbEntity
  8
0
100
AcDbLine
 10
-44.90000000000001
 20
-55.64969361996226
 30
0.0
 11
44.89999999999998
 21
-55.64969361996226
 31
0.0
  0
LINE
  5
12AAD
330
12A65
100
AcDbEntity
  8
0
100
AcDbLine
 10
-47.00000000000177
 20
-2.263131642256708
 30
0.0
 11
-46.99999999999999
 21
-21.35501473263462
 31
0.0
  0
LINE
  5
12AAE
330
12A65
100
AcDbEntity
  8
0
100
AcDbLine
 10
-45.50000000000145
 20
-2.263131642256707
 30
0.0
 11
-45.49999999999998
 21
-21.35501473263463
 31
0.0
  0
CIRCLE
  5
12AAF
330
12A65
100
AcDbEntity
  8
0
100
AcDbCircle
 10
35.49999999999998
 20
149.77
 30
0.0
 40
2.5
  0
CIRCLE
  5
12AB0
330
12A65
100
AcDbEntity
  8
0
100
AcDbCircle
 10
35.49999999999998
 20
109.7699999999999
 30
0.0
 40
2.5
  0
CIRCLE
  5
12AB1
330
12A65
100
AcDbEntity
  8
0
100
AcDbCircle
 10
35.49999999999998
 20
69.76999999999998
 30
0.0
 40
2.5
  0
CIRCLE
  5
12AB2
330
12A65
100
AcDbEntity
  8
0
100
AcDbCircle
 10
35.49999999999998
 20
29.76999999999998
 30
0.0
 40
2.5
  0
CIRCLE
  5
12AB3
330
12A65
100
AcDbEntity
  8
0
100
AcDbCircle
 10
25.49999999999997
 20
129.77
 30
0.0
 40
2.5
  0
CIRCLE
  5
12AB4
330
12A65
100
AcDbEntity
  8
0
100
AcDbCircle
 10
25.49999999999997
 20
89.76999999999996
 30
0.0
 40
2.5
  0
CIRCLE
  5
12AB5
330
12A65
100
AcDbEntity
  8
0
100
AcDbCircle
 10
25.49999999999997
 20
49.76999999999997
 30
0.0
 40
2.5
  0
CIRCLE
  5
12AB6
330
12A65
100
AcDbEntity
  8
0
100
AcDbCircle
 10
25.49999999999997
 20
9.769999999999974
 30
0.0
 40
2.5
  0
CIRCLE
  5
12AB7
330
12A65
100
AcDbEntity
  8
0
100
AcDbCircle
 10
-25.50000000000002
 20
149.77
 30
0.0
 40
2.5
  0
CIRCLE
  5
12AB8
330
12A65
100
AcDbEntity
  8
0
100
AcDbCircle
 10
-25.50000000000002
 20
109.77
 30
0.0
 40
2.5
  0
CIRCLE
  5
12AB9
330
12A65
100
AcDbEntity
  8
0
100
AcDbCircle
 10
-25.50000000000002
 20
69.76999999999998
 30
0.0
 40
2.5
  0
CIRCLE
  5
12ABA
330
12A65
100
AcDbEntity
  8
0
100
AcDbCircle
 10
-25.50000000000002
 20
29.76999999999998
 30
0.0
 40
2.5
  0
CIRCLE
  5
12ABB
330
12A65
100
AcDbEntity
  8
0
100
AcDbCircle
 10
-35.50000000000003
 20
129.77
 30
0.0
 40
2.5
  0
CIRCLE
  5
12ABC
330
12A65
100
AcDbEntity
  8
0
100
AcDbCircle
 10
-35.50000000000003
 20
89.76999999999998
 30
0.0
 40
2.5
  0
CIRCLE
  5
12ABD
330
12A65
100
AcDbEntity
  8
0
100
AcDbCircle
 10
-35.50000000000003
 20
49.76999999999998
 30
0.0
 40
2.5
  0
CIRCLE
  5
12ABE
330
12A65
100
AcDbEntity
  8
0
100
AcDbCircle
 10
-35.50000000000003
 20
9.769999999999983
 30
0.0
 40
2.5
  0
CIRCLE
  5
12ABF
330
12A65
100
AcDbEntity
  8
0
100
AcDbCircle
 10
-58.52709056100002
 20
69.76999999999998
 30
0.0
 40
2.5
  0
CIRCLE
  5
12AC0
330
12A65
100
AcDbEntity
  8
0
100
AcDbCircle
 10
52.52709056099996
 20
69.76999999999996
 30
0.0
 40
2.5
  0
CIRCLE
  5
12AC1
330
12A65
100
AcDbEntity
  8
0
100
AcDbCircle
 10
-52.52709056100001
 20
29.76999999999999
 30
0.0
 40
2.5
  0
CIRCLE
  5
12AC2
330
12A65
100
AcDbEntity
  8
0
100
AcDbCircle
 10
58.52709056099997
 20
29.76999999999998
 30
0.0
 40
2.5
  0
ELLIPSE
  5
12AC3
330
12A65
100
AcDbEntity
  8
0
100
AcDbEllipse
 10
-12.50000000000001
 20
0.0236058844764062
 30
0.0
 11
-2.5
 21
0.0
 31
0.0
210
0.0
220
0.0
230
1.0
 40
0.707106781186548
 41
0.2563733270184496
 42
1.570796326794896
  0
LINE
  5
12AC4
330
12A65
100
AcDbEntity
  8
0
100
AcDbLine
 10
-7.500000000000016
 20
-1.744161068489962
 30
0.0
 11
-12.50000000000001
 21
-1.744161068489961
 31
0.0
  0
ELLIPSE
  5
12AC5
330
12A65
100
AcDbEntity
  8
0
100
AcDbEllipse
 10
-7.500000000000017
 20
0.0236058844764063
 30
0.0
 11
2.5
 21
-0.0000000000000008
 31
0.0
210
0.0
220
0.0
230
1.0
 40
0.7071067811865478
 41
4.712388980384689
 42
6.026811980161137
  0
SPLINE
  5
12AC6
330
12A65
100
AcDbEntity
  8
0
100
AcDbSpline
210
0.0
220
0.0
230
1.0
 70
     8
 71
     3
 72
     8
 73
     4
 74
     0
 42
0.000000001
 43
0.0000000001
 40
-1.0
 40
-1.0
 40
-1.0
 40
-1.0
 40
0.0
 40
0.0
 40
0.0
 40
0.0
 10
-14.91828991960765
 20
-0.4246540092928793
 30
0.0
 10
-14.99189972302031
 20
-0.3163012038324994
 30
0.0
 10
-15.01609483643921
 20
-0.1581319339738438
 30
0.0
 10
-14.98943351399745
 20
-0.0003899405809506
 30
0.0
  0
SPLINE
  5
12AC7
330
12A65
100
AcDbEntity
  8
0
100
AcDbSpline
210
0.0
220
0.0
230
1.0
 70
     8
 71
     3
 72
     8
 73
     4
 74
     0
 42
0.000000001
 43
0.0000000001
 40
-1.0
 40
-1.0
 40
-1.0
 40
-1.0
 40
0.0
 40
0.0
 40
0.0
 40
0.0
 10
-5.01056648600259
 20
-0.0003899405809503
 30
0.0
 10
-4.983905163560564
 20
-0.1581319339738754
 30
0.0
 10
-5.008100276979964
 20
-0.3163012038325312
 30
0.0
 10
-5.081710080392381
 20
-0.4246540092928792
 30
0.0
  0
ARC
  5
12AC8
330
12A65
100
AcDbEntity
  8
0
100
AcDbCircle
 10
-7.500000000000017
 20
-0.2299999999999986
 30
0.0
 40
2.5
100
AcDbArc
 50
5.269701326164559
 51
90.0
  0
LINE
  5
12AC9
330
12A65
100
AcDbEntity
  8
0
100
AcDbLine
 10
-12.50000000000001
 20
2.270000000000001
 30
0.0
 11
-7.500000000000017
 21
2.270000000000001
 31
0.0
  0
ARC
  5
12ACA
330
12A65
100
AcDbEntity
  8
0
100
AcDbCircle
 10
-12.50000000000001
 20
-0.2299999999999986
 30
0.0
 40
2.5
100
AcDbArc
 50
90.0
 51
174.7302986738354
  0
ELLIPSE
  5
12ACB
330
12A65
100
AcDbEntity
  8
0
100
AcDbEllipse
 10
7.499999999999982
 20
0.0236058844764062
 30
0.0
 11
-2.5
 21
0.0
 31
0.0
210
0.0
220
0.0
230
1.0
 40
0.7071067811865479
 41
0.2563733270184487
 42
1.570796326794896
  0
LINE
  5
12ACC
330
12A65
100
AcDbEntity
  8
0
100
AcDbLine
 10
12.49999999999998
 20
-1.744161068489962
 30
0.0
 11
7.499999999999983
 21
-1.744161068489962
 31
0.0
  0
ELLIPSE
  5
12ACD
330
12A65
100
AcDbEntity
  8
0
100
AcDbEllipse
 10
12.49999999999998
 20
0.0236058844764062
 30
0.0
 11
2.5
 21
-0.000000000000001
 31
0.0
210
0.0
220
0.0
230
1.0
 40
0.7071067811865478
 41
4.712388980384689
 42
6.026811980161137
  0
SPLINE
  5
12ACE
330
12A65
100
AcDbEntity
  8
0
100
AcDbSpline
210
0.0
220
0.0
230
1.0
 70
     8
 71
     3
 72
     8
 73
     4
 74
     0
 42
0.000000001
 43
0.0000000001
 40
-1.0
 40
-1.0
 40
-1.0
 40
-1.0
 40
0.0
 40
0.0
 40
0.0
 40
0.0
 10
5.081710080392346
 20
-0.4246540092928792
 30
0.0
 10
5.008100276979861
 20
-0.3163012038325261
 30
0.0
 10
4.983905163560433
 20
-0.1581319339738695
 30
0.0
 10
5.010566486002556
 20
-0.0003899405809504
 30
0.0
  0
SPLINE
  5
12ACF
330
12A65
100
AcDbEntity
  8
0
100
AcDbSpline
210
0.0
220
0.0
230
1.0
 70
     8
 71
     3
 72
     8
 73
     4
 74
     0
 42
0.000000001
 43
0.0000000001
 40
-1.0
 40
-1.0
 40
-1.0
 40
-1.0
 40
0.0
 40
0.0
 40
0.0
 40
0.0
 10
14.98943351399742
 20
-0.0003899405809506
 30
0.0
 10
15.01609483643944
 20
-0.1581319339738321
 30
0.0
 10
14.9918997230205
 20
-0.3163012038325029
 30
0.0
 10
14.91828991960761
 20
-0.4246540092928792
 30
0.0
  0
ARC
  5
12AD0
330
12A65
100
AcDbEntity
  8
0
100
AcDbCircle
 10
12.49999999999998
 20
-0.2299999999999986
 30
0.0
 40
2.5
100
AcDbArc
 50
5.269701326164559
 51
90.0
  0
LINE
  5
12AD1
330
12A65
100
AcDbEntity
  8
0
100
AcDbLine
 10
7.499999999999982
 20
2.270000000000001
 30
0.0
 11
12.49999999999998
 21
2.270000000000001
 31
0.0
  0
ARC
  5
12AD2
330
12A65
100
AcDbEntity
  8
0
100
AcDbCircle
 10
7.499999999999982
 20
-0.2299999999999986
 30
0.0
 40
2.5
100
AcDbArc
 50
90.0
 51
174.7302986738354
  0
ELLIPSE
  5
12AD3
330
12A65
100
AcDbEntity
  8
0
100
AcDbEllipse
 10
-28.00000000000002
 20
0.0236058844764062
 30
0.0
 11
2.5
 21
-0.0000000000000011
 31
0.0
210
0.0
220
0.0
230
1.0
 40
0.7071067811865478
 41
3.397965980608243
 42
6.026811980161136
  0
ELLIPSE
  5
12AD4
330
12A65
100
AcDbEntity
  8
0
100
AcDbEllipse
 10
27.99999999999998
 20
0.0236058844764062
 30
0.0
 11
2.5
 21
-0.0000000000000007
 31
0.0
210
0.0
220
0.0
230
1.0
 40
0.7071067811865479
 41
3.39796598060824
 42
6.026811980161136
  0
SPLINE
  5
12AD5
330
12A65
100
AcDbEntity
  8
0
100
AcDbSpline
210
0.0
220
0.0
230
1.0
 70
     8
 71
     3
 72
     8
 73
     4
 74
     0
 42
0.000000001
 43
0.0000000001
 40
-1.0
 40
-1.0
 40
-1.0
 40
-1.0
 40
0.0
 40
0.0
 40
0.0
 40
0.0
 10
25.58171008039237
 20
-0.4246540092928802
 30
0.0
 10
25.50810027697957
 20
-0.316301203832513
 30
0.0
 10
25.48390516356024
 20
-0.1581319339738749
 30
0.0
 10
25.51056648600257
 20
-0.0003899405809507
 30
0.0
  0
SPLINE
  5
12AD6
330
12A65
100
AcDbEntity
  8
0
100
AcDbSpline
210
0.0
220
0.0
230
1.0
 70
     8
 71
     3
 72
     8
 73
     4
 74
     0
 42
0.000000001
 43
0.0000000001
 40
-1.0
 40
-1.0
 40
-1.0
 40
-1.0
 40
0.0
 40
0.0
 40
0.0
 40
0.0
 10
-25.51056648600261
 20
-0.0003899405809506
 30
0.0
 10
-25.48390516356008
 20
-0.1581319339738686
 30
0.0
 10
-25.50810027697974
 20
-0.3163012038324636
 30
0.0
 10
-25.5817100803924
 20
-0.4246540092928794
 30
0.0
  0
SPLINE
  5
12AD7
330
12A65
100
AcDbEntity
  8
0
100
AcDbSpline
210
0.0
220
0.0
230
1.0
 70
     8
 71
     3
 72
     8
 73
     4
 74
     0
 42
0.000000001
 43
0.0000000001
 40
-1.0
 40
-1.0
 40
-1.0
 40
-1.0
 40
0.0
 40
0.0
 40
0.0
 40
0.0
 10
-30.41828991960765
 20
-0.4246540092928802
 30
0.0
 10
-30.49189972302006
 20
-0.3163012038325055
 30
0.0
 10
-30.51609483643897
 20
-0.1581319339738682
 30
0.0
 10
-30.48943351399743
 20
-0.0003899405809504
 30
0.0
  0
ARC
  5
12AD8
330
12A65
100
AcDbEntity
  8
0
100
AcDbCircle
 10
-28.00000000000002
 20
-0.2299999999999986
 30
0.0
 40
2.499999999999999
100
AcDbArc
 50
5.269701326164559
 51
174.7302986738354
  0
SPLINE
  5
12AD9
330
12A65
100
AcDbEntity
  8
0
100
AcDbSpline
210
0.0
220
0.0
230
1.0
 70
     8
 71
     3
 72
     8
 73
     4
 74
     0
 42
0.000000001
 43
0.0000000001
 40
-1.0
 40
-1.0
 40
-1.0
 40
-1.0
 40
0.0
 40
0.0
 40
0.0
 40
0.0
 10
30.48943351399739
 20
-0.0003899405809506
 30
0.0
 10
30.51609483644023
 20
-0.1581319339738738
 30
0.0
 10
30.49189972301904
 20
-0.3163012038324565
 30
0.0
 10
30.41828991960763
 20
-0.4246540092928796
 30
0.0
  0
ARC
  5
12ADA
330
12A65
100
AcDbEntity
  8
0
100
AcDbCircle
 10
27.99999999999998
 20
-0.2299999999999986
 30
0.0
 40
2.5
100
AcDbArc
 50
5.269701326164559
 51
174.7302986738354
  0
ELLIPSE
  5
12ADB
330
12A65
100
AcDbEntity
  8
0
100
AcDbEllipse
 10
-44.89999999999999
 20
-54.16476937947049
 30
0.0
 11
-2.100000000000031
 21
0.0000000000000098
 31
0.0
210
0.0
220
0.0
230
1.0
 40
0.7071067811864883
 41
0.0
 42
1.570796326794887
  0
ELLIPSE
  5
12ADC
330
12A65
100
AcDbEntity
  8
0
100
AcDbEllipse
 10
-44.89999999999999
 20
-54.16476937947049
 30
0.0
 11
-0.6000000000000087
 21
0.0000000000001332
 31
0.0
210
0.0
220
0.0
230
1.0
 40
0.7071067811865435
 41
0.0000000000006702
 42
1.570796326795379
  0
LINE
  5
12ADD
330
12A65
100
AcDbEntity
  8
0
100
AcDbLine
 10
44.89999999999999
 20
160.67
 30
0.0
 11
45.49999999999999
 21
160.67
 31
0.0
  0
LINE
  5
12ADE
330
12A65
100
AcDbEntity
  8
0
100
AcDbLine
 10
44.89999999999999
 20
80.27000000000002
 30
0.0
 11
45.49999999999999
 21
80.27000000000002
 31
0.0
  0
LINE
  5
12ADF
330
12A65
100
AcDbEntity
  8
0
100
AcDbLine
 10
-45.50000000000003
 20
160.67
 30
0.0
 11
-44.90000000000002
 21
160.67
 31
0.0
  0
LINE
  5
12AE0
330
12A65
100
AcDbEntity
  8
0
100
AcDbLine
 10
-45.50000000000003
 20
80.27000000000002
 30
0.0
 11
-44.90000000000002
 21
80.27000000000002
 31
0.0
  0
ENDBLK
  5
12A67
330
12A65
100
AcDbEntity
  8
0
100
AcDbBlockEnd
  0
BLOCK
  5
12AE2
330
12AE1
100
AcDbEntity
  8
0
100
AcDbBlockBegin
  2
SPR91_160-Left
 70
     0
 10
0.0
 20
0.0
 30
0.0
  3
SPR91_160-Left
  1

  0
LINE
  5
12AE4
330
12AE1
100
AcDbEntity
  8
0
100
AcDbLine
 10
0.0
 20
-0.0003899405809516
 30
0.0
 11
0.0
 21
1.270000000000001
 31
0.0
  0
LINE
  5
12AE5
330
12AE1
100
AcDbEntity
  8
0
100
AcDbLine
 10
62.91118318265866
 20
-2.263131642256708
 30
0.0
 11
4.362741700911234
 21
-2.263131641492245
 31
0.0
  0
LINE
  5
12AE6
330
12AE1
100
AcDbEntity
  8
0
100
AcDbLine
 10
1.675735931288091
 20
-0.4246540092928777
 30
0.0
 11
2.288136209298629
 21
-1.037054287303415
 31
0.0
  0
LINE
  5
12AE7
330
12AE1
100
AcDbEntity
  8
0
100
AcDbLine
 10
2.288136209298622
 20
-1.037054287303402
 30
0.0
 11
2.717240184541174
 21
-1.466158262545955
 31
0.0
  0
SPLINE
  5
12AE8
330
12AE1
100
AcDbEntity
  8
0
100
AcDbSpline
210
0.0
220
0.0
230
1.0
 70
     8
 71
     3
 72
     8
 73
     4
 74
     0
 42
0.000000001
 43
0.0000000001
 40
0.0
 40
0.0
 40
0.0
 40
0.0
 40
1.0
 40
1.0
 40
1.0
 40
1.0
 10
0.6150757595082714
 20
-1.485314181072701
 30
0.0
 10
0.2539843833467352
 20
-1.124222804911164
 30
0.0
 10
0.0000000000000213
 20
-0.5572023868216841
 30
0.0
 10
0.0000000000000212
 20
-0.000389940580951
 30
0.0
  0
SPLINE
  5
12AE9
330
12AE1
100
AcDbEntity
  8
0
100
AcDbSpline
210
0.0
220
0.0
230
1.0
 70
     8
 71
     3
 72
     8
 73
     4
 74
     0
 42
0.000000001
 43
0.0000000001
 40
-1.0
 40
-1.0
 40
-1.0
 40
-1.0
 40
0.0
 40
0.0
 40
0.0
 40
0.0
 10
1.500000000000021
 20
-0.0003899405809507
 30
0.0
 10
1.500000000000021
 20
-0.1594792109354459
 30
0.0
 10
1.572566966670511
 20
-0.3214850446752977
 30
0.0
 10
1.675735931288093
 20
-0.4246540092928796
 30
0.0
  0
SPLINE
  5
12AEA
330
12AE1
100
AcDbEntity
  8
0
100
AcDbSpline
210
0.0
220
0.0
230
1.0
 70
     8
 71
     3
 72
     8
 73
     4
 74
     0
 42
0.000000001
 43
0.0000000001
 40
-1.0
 40
-1.0
 40
-1.0
 40
-1.0
 40
0.0
 40
0.0
 40
0.0
 40
0.0
 10
2.717240184541151
 20
-1.466158262545957
 30
0.0
 10
3.124319333760613
 20
-1.873237411765414
 30
0.0
 10
3.733518404783578
 20
-2.078196639180336
 30
0.0
 10
4.362741700911263
 20
-2.263131641492203
 30
0.0
  0
LINE
  5
12AEB
330
12AE1
100
AcDbEntity
  8
0
100
AcDbLine
 10
2.717240184541174
 20
-1.466158262545955
 30
0.0
 11
2.364040347338338
 21
-1.81935809974879
 31
0.0
  0
LINE
  5
12AEC
330
12AE1
100
AcDbEntity
  8
0
100
AcDbLine
 10
2.364040347338338
 20
-1.81935809974879
 30
0.0
 11
1.656580012761351
 21
-2.526818434325777
 31
0.0
  0
SPLINE
  5
12AED
330
12AE1
100
AcDbEntity
  8
0
100
AcDbSpline
210
0.0
220
0.0
230
1.0
 70
     8
 71
     3
 72
     8
 73
     4
 74
     0
 42
0.000000001
 43
0.0000000001
 40
0.0
 40
0.0
 40
0.0
 40
0.0
 40
1.0
 40
1.0
 40
1.0
 40
1.0
 10
4.362741700911231
 20
-2.263131641492235
 30
0.0
 10
3.178158037513794
 20
-2.63355700645012
 30
0.0
 10
2.063659161980796
 20
-2.93389758354523
 30
0.0
 10
1.656580012761329
 20
-2.526818434325778
 30
0.0
  0
LINE
  5
12AEE
330
12AE1
100
AcDbEntity
  8
0
100
AcDbLine
 10
1.656580012761351
 20
-2.526818434325777
 30
0.0
 11
1.227476037518798
 21
-2.097714459083225
 31
0.0
  0
LINE
  5
12AEF
330
12AE1
100
AcDbEntity
  8
0
100
AcDbLine
 10
2.288136209298622
 20
-1.037054287303402
 30
0.0
 11
1.227476037518798
 21
-2.097714459083225
 31
0.0
  0
LINE
  5
12AF0
330
12AE1
100
AcDbEntity
  8
0
100
AcDbLine
 10
1.227476037518819
 20
-2.097714459083224
 30
0.0
 11
0.6150757595082812
 21
-1.485314181072686
 31
0.0
  0
LINE
  5
12AF1
330
12AE1
100
AcDbEntity
  8
0
100
AcDbLine
 10
1.675735931288093
 20
-0.4246540092928794
 30
0.0
 11
1.322536092799074
 21
-0.7778538477818981
 31
0.0
  0
LINE
  5
12AF2
330
12AE1
100
AcDbEntity
  8
0
100
AcDbLine
 10
1.322536092799074
 20
-0.7778538477818981
 30
0.0
 11
0.6150757595082714
 21
-1.4853141810727
 31
0.0
  0
LINE
  5
12AF3
330
12AE1
100
AcDbEntity
  8
0
100
AcDbLine
 10
1.500000000000023
 20
-0.0003899405809504
 30
0.0
 11
1.000499995450076
 21
-0.0003899405809504
 31
0.0
  0
LINE
  5
12AF4
330
12AE1
100
AcDbEntity
  8
0
100
AcDbLine
 10
1.000499995450076
 20
-0.0003899405809504
 30
0.0
 11
0.0
 21
-0.0003899405809504
 31
0.0
  0
LINE
  5
12AF5
330
12AE1
100
AcDbEntity
  8
0
100
AcDbLine
 10
1.500000000000022
 20
1.270000000000001
 30
0.0
 11
1.500000000000021
 21
-0.000389940580951
 31
0.0
  0
LINE
  5
12AF6
330
12AE1
100
AcDbEntity
  8
0
100
AcDbLine
 10
0.0
 20
6.269999999999996
 30
0.0
 11
0.0
 21
1.269999999999996
 31
0.0
  0
LINE
  5
12AF7
330
12AE1
100
AcDbEntity
  8
0
100
AcDbLine
 10
0.0
 20
77.27000000000001
 30
0.0
 11
0.0
 21
72.27000000000001
 31
0.0
  0
LINE
  5
12AF8
330
12AE1
100
AcDbEntity
  8
0
100
AcDbLine
 10
1.500000000000033
 20
1.269999999999996
 30
0.0
 11
1.500000000000034
 21
6.269999999999996
 31
0.0
  0
LINE
  5
12AF9
330
12AE1
100
AcDbEntity
  8
0
100
AcDbLine
 10
1.500000000000034
 20
6.269999999999996
 30
0.0
 11
0.0
 21
6.269999999999996
 31
0.0
  0
LINE
  5
12AFA
330
12AE1
100
AcDbEntity
  8
0
100
AcDbLine
 10
0.0
 20
1.269999999999996
 30
0.0
 11
1.500000000000033
 21
1.269999999999996
 31
0.0
  0
LINE
  5
12AFB
330
12AE1
100
AcDbEntity
  8
0
100
AcDbLine
 10
0.0
 20
72.27000000000001
 30
0.0
 11
1.500000000000034
 21
72.27000000000001
 31
0.0
  0
LINE
  5
12AFC
330
12AE1
100
AcDbEntity
  8
0
100
AcDbLine
 10
1.500000000000034
 20
72.27000000000001
 30
0.0
 11
1.500000000000033
 21
77.27000000000001
 31
0.0
  0
LINE
  5
12AFD
330
12AE1
100
AcDbEntity
  8
0
100
AcDbLine
 10
1.500000000000033
 20
77.27000000000001
 30
0.0
 11
0.0
 21
77.27000000000001
 31
0.0
  0
LINE
  5
12AFE
330
12AE1
100
AcDbEntity
  8
0
100
AcDbLine
 10
0.0
 20
6.269999999999996
 30
0.0
 11
0.0
 21
72.27000000000001
 31
0.0
  0
LINE
  5
12AFF
330
12AE1
100
AcDbEntity
  8
0
100
AcDbLine
 10
0.0
 20
77.27000000000001
 30
0.0
 11
0.0
 21
80.27000000000001
 31
0.0
  0
LINE
  5
12B00
330
12AE1
100
AcDbEntity
  8
0
100
AcDbLine
 10
1.500000000000034
 20
6.269999999999996
 30
0.0
 11
1.500000000000034
 21
72.27000000000001
 31
0.0
  0
LINE
  5
12B01
330
12AE1
100
AcDbEntity
  8
0
100
AcDbLine
 10
1.500000000000021
 20
77.27000000000001
 30
0.0
 11
1.500000000000021
 21
80.27000000000001
 31
0.0
  0
LINE
  5
12B02
330
12AE1
100
AcDbEntity
  8
0
100
AcDbLine
 10
0.0
 20
80.27000000000002
 30
0.0
 11
0.0
 21
160.67
 31
0.0
  0
LINE
  5
12B03
330
12AE1
100
AcDbEntity
  8
0
100
AcDbLine
 10
2.10000000000001
 20
160.67
 30
0.0
 11
0.0
 21
160.67
 31
0.0
  0
LINE
  5
12B04
330
12AE1
100
AcDbEntity
  8
0
100
AcDbLine
 10
0.0
 20
80.27000000000002
 30
0.0
 11
2.100000000000001
 21
80.27000000000002
 31
0.0
  0
LINE
  5
12B05
330
12AE1
100
AcDbEntity
  8
0
100
AcDbLine
 10
43.50000000000001
 20
85.27000000000001
 30
0.0
 11
38.50000000000001
 21
80.27000000000002
 31
0.0
  0
LINE
  5
12B06
330
12AE1
100
AcDbEntity
  8
0
100
AcDbLine
 10
38.50000000000001
 20
160.67
 30
0.0
 11
43.50000000000001
 21
155.67
 31
0.0
  0
LINE
  5
12B07
330
12AE1
100
AcDbEntity
  8
0
100
AcDbLine
 10
82.00306627386
 20
-21.35501473263462
 30
0.0
 11
82.00306627386
 21
-28.42608254450009
 31
0.0
  0
CIRCLE
  5
12B08
330
12AE1
100
AcDbEntity
  8
0
100
AcDbCircle
 10
35.50000000000002
 20
147.77
 30
0.0
 40
2.5
  0
CIRCLE
  5
12B09
330
12AE1
100
AcDbEntity
  8
0
100
AcDbCircle
 10
35.50000000000002
 20
127.77
 30
0.0
 40
2.5
  0
CIRCLE
  5
12B0A
330
12AE1
100
AcDbEntity
  8
0
100
AcDbCircle
 10
35.50000000000002
 20
107.77
 30
0.0
 40
2.5
  0
CIRCLE
  5
12B0B
330
12AE1
100
AcDbEntity
  8
0
100
AcDbCircle
 10
35.50000000000002
 20
87.77000000000001
 30
0.0
 40
2.5
  0
LINE
  5
12B0C
330
12AE1
100
AcDbEntity
  8
0
100
AcDbLine
 10
43.50000000000001
 20
155.67
 30
0.0
 11
43.50000000000001
 21
85.27000000000001
 31
0.0
  0
LINE
  5
12B0D
330
12AE1
100
AcDbEntity
  8
0
100
AcDbLine
 10
2.10000000000001
 20
160.67
 30
0.0
 11
38.50000000000001
 21
160.67
 31
0.0
  0
LINE
  5
12B0E
330
12AE1
100
AcDbEntity
  8
0
100
AcDbLine
 10
38.50000000000001
 20
80.27000000000002
 30
0.0
 11
2.099999999999999
 21
80.27000000000002
 31
0.0
  0
LINE
  5
12B0F
330
12AE1
100
AcDbEntity
  8
0
100
AcDbLine
 10
82.00306627386
 20
-28.42608254450009
 30
0.0
 11
56.26437943888956
 21
-54.16476937947052
 31
0.0
  0
LINE
  5
12B10
330
12AE1
100
AcDbEntity
  8
0
100
AcDbLine
 10
62.91118318265866
 20
-2.263131642256708
 30
0.0
 11
82.00306627386
 21
-21.35501473263462
 31
0.0
  0
CIRCLE
  5
12B11
330
12AE1
100
AcDbEntity
  8
0
100
AcDbCircle
 10
74.57844507130477
 20
-25.24410202925711
 30
0.0
 40
2.5
  0
ARC
  5
12B12
330
12AE1
100
AcDbEntity
  8
0
100
AcDbCircle
 10
59.31559010709463
 20
-13.990452698916
 30
0.0
 40
0.8000000000000012
100
AcDbArc
 50
315.000000001042
 51
75.00000000104186
  0
LINE
  5
12B13
330
12AE1
100
AcDbEntity
  8
0
100
AcDbLine
 10
59.88127553205416
 20
-14.55613812385494
 30
0.0
 11
56.81941335363088
 21
-17.61800030238964
 31
0.0
  0
ARC
  5
12B14
330
12AE1
100
AcDbEntity
  8
0
100
AcDbCircle
 10
56.25372792867135
 20
-17.0523148774507
 30
0.0
 40
0.8
100
AcDbArc
 50
195.0000000010428
 51
315.0000000010428
  0
LINE
  5
12B15
330
12AE1
100
AcDbEntity
  8
0
100
AcDbLine
 10
55.48098726764387
 20
-17.25937011354677
 30
0.0
 11
54.36026792735771
 21
-13.07678859487811
 31
0.0
  0
ARC
  5
12B16
330
12AE1
100
AcDbEntity
  8
0
100
AcDbCircle
 10
55.13300858838519
 20
-12.86973335878203
 30
0.0
 40
0.8000000000000014
100
AcDbArc
 50
75.00000000104188
 51
195.0000000010427
  0
LINE
  5
12B17
330
12AE1
100
AcDbEntity
  8
0
100
AcDbLine
 10
55.34006382445316
 20
-12.096992697747
 30
0.0
 11
59.5226453431626
 21
-13.21771203788096
 31
0.0
  0
LINE
  5
12B18
330
12AE1
100
AcDbEntity
  8
0
100
AcDbLine
 10
55.28251771018369
 20
-12.08382813389861
 30
0.0
 11
54.34710336350719
 21
-13.01924248060914
 31
0.0
  0
LINE
  5
12B19
330
12AE1
100
AcDbEntity
  8
0
100
AcDbLine
 10
54.77945519839778
 20
-55.64969361996226
 30
0.0
 11
1.656580012761352
 21
-2.526818434325779
 31
0.0
  0
LINE
  5
12B1A
330
12AE1
100
AcDbEntity
  8
0
100
AcDbLine
 10
56.26437943888969
 20
-54.16476937947034
 30
0.0
 11
54.77945519839764
 21
-55.64969361996213
 31
0.0
  0
ENDBLK
  5
12AE3
330
12AE1
100
AcDbEntity
  8
0
100
AcDbBlockEnd
  0
BLOCK
  5
12B1C
330
12B1B
100
AcDbEntity
  8
0
100
AcDbBlockBegin
  2
SPR91_160-Right
 70
     0
 10
0.0
 20
0.0
 30
0.0
  3
SPR91_160-Right
  1

  0
LINE
  5
12B1E
330
12B1B
100
AcDbEntity
  8
0
100
AcDbLine
 10
-1.499999999999983
 20
6.269999999999996
 30
0.0
 11
-1.499999999999984
 21
1.269999999999996
 31
0.0
  0
LINE
  5
12B1F
330
12B1B
100
AcDbEntity
  8
0
100
AcDbLine
 10
-1.499999999999984
 20
1.269999999999996
 30
0.0
 11
0.0
 21
1.270000000000001
 31
0.0
  0
LINE
  5
12B20
330
12B1B
100
AcDbEntity
  8
0
100
AcDbLine
 10
0.0
 20
1.270000000000001
 30
0.0
 11
0.0
 21
6.269999999999996
 31
0.0
  0
LINE
  5
12B21
330
12B1B
100
AcDbEntity
  8
0
100
AcDbLine
 10
0.0
 20
6.269999999999996
 30
0.0
 11
-1.499999999999983
 21
6.269999999999996
 31
0.0
  0
LINE
  5
12B22
330
12B1B
100
AcDbEntity
  8
0
100
AcDbLine
 10
-1.499999999999983
 20
72.27000000000001
 30
0.0
 11
0.0
 21
72.27000000000001
 31
0.0
  0
LINE
  5
12B23
330
12B1B
100
AcDbEntity
  8
0
100
AcDbLine
 10
0.0
 20
72.27000000000001
 30
0.0
 11
0.0
 21
77.27000000000001
 31
0.0
  0
LINE
  5
12B24
330
12B1B
100
AcDbEntity
  8
0
100
AcDbLine
 10
-1.499999999999984
 20
77.27000000000001
 30
0.0
 11
-1.499999999999983
 21
72.27000000000001
 31
0.0
  0
LINE
  5
12B25
330
12B1B
100
AcDbEntity
  8
0
100
AcDbLine
 10
0.0
 20
77.27000000000001
 30
0.0
 11
-1.499999999999984
 21
77.27000000000001
 31
0.0
  0
LINE
  5
12B26
330
12B1B
100
AcDbEntity
  8
0
100
AcDbLine
 10
0.0
 20
72.27000000000001
 30
0.0
 11
0.0
 21
6.269999999999997
 31
0.0
  0
LINE
  5
12B27
330
12B1B
100
AcDbEntity
  8
0
100
AcDbLine
 10
-1.499999999999983
 20
72.27000000000001
 30
0.0
 11
-1.499999999999983
 21
6.269999999999997
 31
0.0
  0
LINE
  5
12B28
330
12B1B
100
AcDbEntity
  8
0
100
AcDbLine
 10
0.0
 20
80.27000000000002
 30
0.0
 11
0.0
 21
77.27000000000002
 31
0.0
  0
LINE
  5
12B29
330
12B1B
100
AcDbEntity
  8
0
100
AcDbLine
 10
-1.499999999999996
 20
80.27000000000002
 30
0.0
 11
-1.499999999999996
 21
77.27000000000002
 31
0.0
  0
LINE
  5
12B2A
330
12B1B
100
AcDbEntity
  8
0
100
AcDbLine
 10
0.0
 20
1.270000000000001
 30
0.0
 11
0.0
 21
-0.000389940580951
 31
0.0
  0
LINE
  5
12B2B
330
12B1B
100
AcDbEntity
  8
0
100
AcDbLine
 10
-4.362741700911197
 20
-2.263131641492217
 30
0.0
 11
-62.91118318265851
 21
-2.263131642256535
 31
0.0
  0
LINE
  5
12B2C
330
12B1B
100
AcDbEntity
  8
0
100
AcDbLine
 10
-2.717240184541149
 20
-1.466158262545959
 30
0.0
 11
-2.288136209298597
 21
-1.037054287303406
 31
0.0
  0
LINE
  5
12B2D
330
12B1B
100
AcDbEntity
  8
0
100
AcDbLine
 10
-2.28813620929861
 20
-1.037054287303415
 30
0.0
 11
-1.675735931288067
 21
-0.4246540092928724
 31
0.0
  0
SPLINE
  5
12B2E
330
12B1B
100
AcDbEntity
  8
0
100
AcDbSpline
210
0.0
220
0.0
230
1.0
 70
     8
 71
     3
 72
     8
 73
     4
 74
     0
 42
0.000000001
 43
0.0000000001
 40
0.0
 40
0.0
 40
0.0
 40
0.0
 40
1.0
 40
1.0
 40
1.0
 40
1.0
 10
-0.0000000000000027
 20
-0.0003899405809515
 30
0.0
 10
-0.0000000000000029
 20
-0.5572023868216953
 30
0.0
 10
-0.2539843833467184
 20
-1.124222804911166
 30
0.0
 10
-0.6150757595082528
 20
-1.485314181072701
 30
0.0
  0
SPLINE
  5
12B2F
330
12B1B
100
AcDbEntity
  8
0
100
AcDbSpline
210
0.0
220
0.0
230
1.0
 70
     8
 71
     3
 72
     8
 73
     4
 74
     0
 42
0.000000001
 43
0.0000000001
 40
-1.0
 40
-1.0
 40
-1.0
 40
-1.0
 40
0.0
 40
0.0
 40
0.0
 40
0.0
 10
-1.675735931288074
 20
-0.4246540092928796
 30
0.0
 10
-1.572566966670493
 20
-0.3214850446752982
 30
0.0
 10
-1.500000000000003
 20
-0.1594792109354491
 30
0.0
 10
-1.500000000000003
 20
-0.0003899405809508
 30
0.0
  0
LINE
  5
12B30
330
12B1B
100
AcDbEntity
  8
0
100
AcDbLine
 10
-2.717240184541149
 20
-1.466158262545959
 30
0.0
 11
-2.364040347338364
 21
-1.819358099748743
 31
0.0
  0
SPLINE
  5
12B31
330
12B1B
100
AcDbEntity
  8
0
100
AcDbSpline
210
0.0
220
0.0
230
1.0
 70
     8
 71
     3
 72
     8
 73
     4
 74
     0
 42
0.000000001
 43
0.0000000001
 40
-1.0
 40
-1.0
 40
-1.0
 40
-1.0
 40
0.0
 40
0.0
 40
0.0
 40
0.0
 10
-4.362741700911246
 20
-2.263131641492199
 30
0.0
 10
-3.733518404783692
 20
-2.078196639180483
 30
0.0
 10
-3.124319333760592
 20
-1.873237411765399
 30
0.0
 10
-2.717240184541161
 20
-1.466158262545966
 30
0.0
  0
SPLINE
  5
12B32
330
12B1B
100
AcDbEntity
  8
0
100
AcDbSpline
210
0.0
220
0.0
230
1.0
 70
     8
 71
     3
 72
     8
 73
     4
 74
     0
 42
0.000000001
 43
0.0000000001
 40
0.0
 40
0.0
 40
0.0
 40
0.0
 40
1.0
 40
1.0
 40
1.0
 40
1.0
 10
-1.656580012761339
 20
-2.526818434325787
 30
0.0
 10
-2.063659161980766
 20
-2.933897583545224
 30
0.0
 10
-3.178158037513872
 20
-2.633557006450304
 30
0.0
 10
-4.362741700911211
 20
-2.263131641492234
 30
0.0
  0
LINE
  5
12B33
330
12B1B
100
AcDbEntity
  8
0
100
AcDbLine
 10
-2.364040347338364
 20
-1.819358099748743
 30
0.0
 11
-1.656580012761327
 21
-2.52681843432578
 31
0.0
  0
LINE
  5
12B34
330
12B1B
100
AcDbEntity
  8
0
100
AcDbLine
 10
-0.6150757595082591
 20
-1.485314181072677
 30
0.0
 11
-1.227476037518803
 21
-2.097714459083222
 31
0.0
  0
LINE
  5
12B35
330
12B1B
100
AcDbEntity
  8
0
100
AcDbLine
 10
-0.6150757595082526
 20
-1.4853141810727
 30
0.0
 11
-1.322536092811766
 21
-0.7778538477691877
 31
0.0
  0
LINE
  5
12B36
330
12B1B
100
AcDbEntity
  8
0
100
AcDbLine
 10
-1.322536092811766
 20
-0.7778538477691877
 30
0.0
 11
-1.675735931288074
 21
-0.4246540092928793
 31
0.0
  0
LINE
  5
12B37
330
12B1B
100
AcDbEntity
  8
0
100
AcDbLine
 10
-2.288136209298597
 20
-1.037054287303406
 30
0.0
 11
-1.227476037518775
 21
-2.097714459083228
 31
0.0
  0
LINE
  5
12B38
330
12B1B
100
AcDbEntity
  8
0
100
AcDbLine
 10
-1.227476037518775
 20
-2.097714459083228
 30
0.0
 11
-1.656580012761327
 21
-2.52681843432578
 31
0.0
  0
LINE
  5
12B39
330
12B1B
100
AcDbEntity
  8
0
100
AcDbLine
 10
-1.5
 20
-0.0003899405809504
 30
0.0
 11
-1.000499995457301
 21
-0.0003899405809504
 31
0.0
  0
LINE
  5
12B3A
330
12B1B
100
AcDbEntity
  8
0
100
AcDbLine
 10
-1.000499995457301
 20
-0.0003899405809504
 30
0.0
 11
0.0
 21
-0.0003899405809504
 31
0.0
  0
LINE
  5
12B3B
330
12B1B
100
AcDbEntity
  8
0
100
AcDbLine
 10
-1.500000000000003
 20
-0.0003899405809516
 30
0.0
 11
-1.500000000000002
 21
1.270000000000001
 31
0.0
  0
LINE
  5
12B3C
330
12B1B
100
AcDbEntity
  8
0
100
AcDbLine
 10
0.0
 20
80.27000000000002
 30
0.0
 11
0.0
 21
160.67
 31
0.0
  0
LINE
  5
12B3D
330
12B1B
100
AcDbEntity
  8
0
100
AcDbLine
 10
0.0
 20
160.67
 30
0.0
 11
-2.09999999999998
 21
160.67
 31
0.0
  0
LINE
  5
12B3E
330
12B1B
100
AcDbEntity
  8
0
100
AcDbLine
 10
-2.099999999999997
 20
80.27000000000002
 30
0.0
 11
0.0
 21
80.27000000000002
 31
0.0
  0
LINE
  5
12B3F
330
12B1B
100
AcDbEntity
  8
0
100
AcDbLine
 10
-38.49999999999999
 20
80.27000000000002
 30
0.0
 11
-43.49999999999998
 21
85.27000000000002
 31
0.0
  0
LINE
  5
12B40
330
12B1B
100
AcDbEntity
  8
0
100
AcDbLine
 10
-43.49999999999998
 20
155.67
 30
0.0
 11
-38.49999999999997
 21
160.67
 31
0.0
  0
LINE
  5
12B41
330
12B1B
100
AcDbEntity
  8
0
100
AcDbLine
 10
-82.00306627385996
 20
-28.42608254450009
 30
0.0
 11
-82.00306627385996
 21
-21.3550147326346
 31
0.0
  0
LINE
  5
12B42
330
12B1B
100
AcDbEntity
  8
0
100
AcDbLine
 10
-43.49999999999998
 20
85.27000000000002
 30
0.0
 11
-43.49999999999998
 21
155.67
 31
0.0
  0
LINE
  5
12B43
330
12B1B
100
AcDbEntity
  8
0
100
AcDbLine
 10
-2.099999999999997
 20
80.27000000000002
 30
0.0
 11
-38.49999999999999
 21
80.27000000000002
 31
0.0
  0
LINE
  5
12B44
330
12B1B
100
AcDbEntity
  8
0
100
AcDbLine
 10
-38.49999999999997
 20
160.67
 30
0.0
 11
-2.099999999999981
 21
160.67
 31
0.0
  0
CIRCLE
  5
12B45
330
12B1B
100
AcDbEntity
  8
0
100
AcDbCircle
 10
-35.5
 20
152.77
 30
0.0
 40
2.5
  0
CIRCLE
  5
12B46
330
12B1B
100
AcDbEntity
  8
0
100
AcDbCircle
 10
-35.5
 20
132.77
 30
0.0
 40
2.5
  0
CIRCLE
  5
12B47
330
12B1B
100
AcDbEntity
  8
0
100
AcDbCircle
 10
-35.5
 20
112.77
 30
0.0
 40
2.5
  0
CIRCLE
  5
12B48
330
12B1B
100
AcDbEntity
  8
0
100
AcDbCircle
 10
-35.5
 20
92.77000000000001
 30
0.0
 40
2.5
  0
LINE
  5
12B49
330
12B1B
100
AcDbEntity
  8
0
100
AcDbLine
 10
-62.91118318265851
 20
-2.263131642256535
 30
0.0
 11
-82.00306627385996
 21
-21.3550147326346
 31
0.0
  0
LINE
  5
12B4A
330
12B1B
100
AcDbEntity
  8
0
100
AcDbLine
 10
-1.656580012761327
 20
-2.52681843432578
 30
0.0
 11
-54.77945519839777
 21
-55.64969361996226
 31
0.0
  0
LINE
  5
12B4B
330
12B1B
100
AcDbEntity
  8
0
100
AcDbLine
 10
-54.77945519839777
 20
-55.64969361996227
 30
0.0
 11
-56.26437943888925
 21
-54.16476937947025
 31
0.0
  0
LINE
  5
12B4C
330
12B1B
100
AcDbEntity
  8
0
100
AcDbLine
 10
-56.26437943888955
 20
-54.16476937947052
 30
0.0
 11
-82.00306627385996
 21
-28.42608254450009
 31
0.0
  0
CIRCLE
  5
12B4D
330
12B1B
100
AcDbEntity
  8
0
100
AcDbCircle
 10
-71.04291116530767
 20
-21.70856812338872
 30
0.0
 40
2.5
  0
ARC
  5
12B4E
330
12B1B
100
AcDbEntity
  8
0
100
AcDbCircle
 10
-51.59747468238809
 20
-9.33419945291363
 30
0.0
 40
0.8000000000000015
100
AcDbArc
 50
344.9999999989572
 51
355.4526675359234
  0
LINE
  5
12B4F
330
12B1B
100
AcDbEntity
  8
0
100
AcDbLine
 10
-50.82473402136063
 20
-9.541254689009706
 30
0.0
 11
-51.94545336164679
 21
-13.72383620767836
 31
0.0
  0
ARC
  5
12B50
330
12B1B
100
AcDbEntity
  8
0
100
AcDbCircle
 10
-52.71819402267426
 20
-13.51678097158229
 30
0.0
 40
0.8
100
AcDbArc
 50
224.9999999989572
 51
344.9999999989576
  0
LINE
  5
12B51
330
12B1B
100
AcDbEntity
  8
0
100
AcDbLine
 10
-53.28387944763379
 20
-14.08246639652124
 30
0.0
 11
-56.34574162605708
 21
-11.02060421798654
 31
0.0
  0
ARC
  5
12B52
330
12B1B
100
AcDbEntity
  8
0
100
AcDbCircle
 10
-55.78005620109753
 20
-10.45491879304759
 30
0.0
 40
0.8000000000000014
100
AcDbArc
 50
104.9999999989575
 51
224.9999999989572
  0
LINE
  5
12B53
330
12B1B
100
AcDbEntity
  8
0
100
AcDbLine
 10
-55.9871114371655
 20
-9.682178132012559
 30
0.0
 11
-51.80452991845606
 21
-8.561458791878598
 31
0.0
  0
ARC
  5
12B54
330
12B1B
100
AcDbEntity
  8
0
100
AcDbCircle
 10
-51.59747468238809
 20
-9.33419945291363
 30
0.0
 40
0.8000000000000014
100
AcDbArc
 50
49.59733246198601
 51
104.9999999989581
  0
LINE
  5
12B55
330
12B1B
100
AcDbEntity
  8
0
100
AcDbLine
 10
-51.07895039795263
 20
-8.724992947325674
 30
0.0
 11
-50.79999294004348
 21
-9.397625556585486
 31
0.0
  0
ARC
  5
12B56
330
12B1B
100
AcDbEntity
  8
0
100
AcDbCircle
 10
-55.13300858838519
 20
-12.86973335878203
 30
0.0
 40
0.8000000000000015
100
AcDbArc
 50
349.2288663267692
 51
100.7711336711455
  0
ENDBLK
  5
12B1D
330
12B1B
100
AcDbEntity
  8
0
100
AcDbBlockEnd
  0
BLOCK
  5
12B58
330
12B57
100
AcDbEntity
  8
0
100
AcDbBlockBegin
  2
SPR91_160-Top
 70
     0
 10
0.0
 20
0.0
 30
0.0
  3
SPR91_160-Top
  1

  0
LINE
  5
12B5A
330
12B57
100
AcDbEntity
  8
0
100
AcDbLine
 10
88.02709056099999
 20
-1.499999999999984
 30
0.0
 11
88.02709056099999
 21
0.0
 31
0.0
  0
LINE
  5
12B5B
330
12B57
100
AcDbEntity
  8
0
100
AcDbLine
 10
-83.02709056100002
 20
0.0
 30
0.0
 11
-88.02709056100001
 21
0.0
 31
0.0
  0
LINE
  5
12B5C
330
12B57
100
AcDbEntity
  8
0
100
AcDbLine
 10
88.02709056099999
 20
0.0
 30
0.0
 11
83.02709056099997
 21
0.0
 31
0.0
  0
LINE
  5
12B5D
330
12B57
100
AcDbEntity
  8
0
100
AcDbLine
 10
-88.02709056100001
 20
0.0
 30
0.0
 11
-88.02709056100001
 21
-1.500000000000033
 31
0.0
  0
LINE
  5
12B5E
330
12B57
100
AcDbEntity
  8
0
100
AcDbLine
 10
-88.02709056100001
 20
-1.500000000000033
 30
0.0
 11
-83.02709056100002
 21
-1.500000000000032
 31
0.0
  0
LINE
  5
12B5F
330
12B57
100
AcDbEntity
  8
0
100
AcDbLine
 10
-83.02709056100002
 20
-1.500000000000032
 30
0.0
 11
-83.02709056100002
 21
0.0
 31
0.0
  0
LINE
  5
12B60
330
12B57
100
AcDbEntity
  8
0
100
AcDbLine
 10
83.02709056099997
 20
-1.499999999999985
 30
0.0
 11
88.02709056099999
 21
-1.499999999999984
 31
0.0
  0
LINE
  5
12B61
330
12B57
100
AcDbEntity
  8
0
100
AcDbLine
 10
83.02709056099997
 20
0.0
 30
0.0
 11
83.02709056099997
 21
-1.499999999999985
 31
0.0
  0
LINE
  5
12B62
330
12B57
100
AcDbEntity
  8
0
100
AcDbLine
 10
-83.02709056100002
 20
0.0
 30
0.0
 11
-44.90000000000002
 21
0.0
 31
0.0
  0
LINE
  5
12B63
330
12B57
100
AcDbEntity
  8
0
100
AcDbLine
 10
44.89999999999999
 20
0.0
 30
0.0
 11
83.02709056099997
 21
0.0
 31
0.0
  0
LINE
  5
12B64
330
12B57
100
AcDbEntity
  8
0
100
AcDbLine
 10
46.91246117974981
 20
-1.499999999999995
 30
0.0
 11
83.02709056099997
 21
-1.499999999999985
 31
0.0
  0
LINE
  5
12B65
330
12B57
100
AcDbEntity
  8
0
100
AcDbLine
 10
-83.02709056100002
 20
-1.500000000000032
 30
0.0
 11
-46.91246117974984
 21
-1.500000000000022
 31
0.0
  0
LINE
  5
12B66
330
12B57
100
AcDbEntity
  8
0
100
AcDbLine
 10
44.89999999999999
 20
0.0
 30
0.0
 11
-44.90000000000002
 21
0.0
 31
0.0
  0
LINE
  5
12B67
330
12B57
100
AcDbEntity
  8
0
100
AcDbLine
 10
46.99999999999969
 20
-38.49999999999997
 30
0.0
 11
47.0
 21
-2.099999999999981
 31
0.0
  0
LINE
  5
12B68
330
12B57
100
AcDbEntity
  8
0
100
AcDbLine
 10
-47.00000000000002
 20
-2.10000000000001
 30
0.0
 11
-47.00000000000001
 21
-38.50000000000001
 31
0.0
  0
LINE
  5
12B69
330
12B57
100
AcDbEntity
  8
0
100
AcDbLine
 10
45.49999999999999
 20
-2.099999999999963
 30
0.0
 11
45.49999999999968
 21
-38.49999999999999
 31
0.0
  0
LINE
  5
12B6A
330
12B57
100
AcDbEntity
  8
0
100
AcDbLine
 10
-44.90000000000002
 20
-1.500000000000013
 30
0.0
 11
44.89999999999999
 21
-1.499999999999984
 31
0.0
  0
LINE
  5
12B6B
330
12B57
100
AcDbEntity
  8
0
100
AcDbLine
 10
-45.50000000000001
 20
-38.50000000000001
 30
0.0
 11
-45.50000000000003
 21
-2.100000000000008
 31
0.0
  0
LINE
  5
12B6C
330
12B57
100
AcDbEntity
  8
0
100
AcDbLine
 10
45.49999999999964
 20
-43.49999999999996
 30
0.0
 11
46.99999999999964
 21
-43.49999999999998
 31
0.0
  0
LINE
  5
12B6D
330
12B57
100
AcDbEntity
  8
0
100
AcDbLine
 10
46.99999999999964
 20
-43.49999999999998
 30
0.0
 11
46.99999999999969
 21
-38.49999999999997
 31
0.0
  0
LINE
  5
12B6E
330
12B57
100
AcDbEntity
  8
0
100
AcDbLine
 10
-47.00000000000001
 20
-38.50000000000001
 30
0.0
 11
-47.00000000000001
 21
-43.50000000000001
 31
0.0
  0
LINE
  5
12B6F
330
12B57
100
AcDbEntity
  8
0
100
AcDbLine
 10
-47.00000000000001
 20
-43.50000000000001
 30
0.0
 11
-45.50000000000001
 21
-43.50000000000001
 31
0.0
  0
LINE
  5
12B70
330
12B57
100
AcDbEntity
  8
0
100
AcDbLine
 10
46.99999999999969
 20
-38.49999999999997
 30
0.0
 11
45.49999999999968
 21
-38.49999999999999
 31
0.0
  0
LINE
  5
12B71
330
12B57
100
AcDbEntity
  8
0
100
AcDbLine
 10
45.49999999999968
 20
-38.49999999999999
 30
0.0
 11
45.49999999999964
 21
-43.49999999999996
 31
0.0
  0
LINE
  5
12B72
330
12B57
100
AcDbEntity
  8
0
100
AcDbLine
 10
-45.50000000000001
 20
-43.50000000000001
 30
0.0
 11
-45.50000000000001
 21
-38.50000000000001
 31
0.0
  0
LINE
  5
12B73
330
12B57
100
AcDbEntity
  8
0
100
AcDbLine
 10
-45.50000000000001
 20
-38.50000000000001
 30
0.0
 11
-47.00000000000001
 21
-38.50000000000001
 31
0.0
  0
LINE
  5
12B74
330
12B57
100
AcDbEntity
  8
0
100
AcDbLine
 10
46.99999999999999
 20
-82.00306627385996
 30
0.0
 11
45.49999999999998
 21
-82.00306627385996
 31
0.0
  0
LINE
  5
12B75
330
12B57
100
AcDbEntity
  8
0
100
AcDbLine
 10
-45.49999999999998
 20
-82.00306627386
 30
0.0
 11
-46.99999999999999
 21
-82.00306627386
 31
0.0
  0
LINE
  5
12B76
330
12B57
100
AcDbEntity
  8
0
100
AcDbLine
 10
47.00000000000123
 20
-62.91118318265851
 30
0.0
 11
46.99999999999999
 21
-82.00306627385996
 31
0.0
  0
LINE
  5
12B77
330
12B57
100
AcDbEntity
  8
0
100
AcDbLine
 10
45.50000000000105
 20
-62.91118318265851
 30
0.0
 11
45.49999999999998
 21
-82.00306627385996
 31
0.0
  0
ELLIPSE
  5
12B78
330
12B57
100
AcDbEntity
  8
0
100
AcDbEllipse
 10
44.89999999999997
 20
-56.26437943888955
 30
0.0
 11
0.6000000000000087
 21
0.0000000000000547
 31
0.0
210
0.0
220
0.0
230
1.0
 40
0.7071067811866067
 41
0.0
 42
1.570796326794654
  0
LINE
  5
12B79
330
12B57
100
AcDbEntity
  8
0
100
AcDbLine
 10
47.00000000000123
 20
-62.91118318265851
 30
0.0
 11
45.50000000000105
 21
-62.91118318265851
 31
0.0
  0
LINE
  5
12B7A
330
12B57
100
AcDbEntity
  8
0
100
AcDbLine
 10
46.99999999999998
 20
-43.49999999999998
 30
0.0
 11
47.00000000000123
 21
-62.91118318265851
 31
0.0
  0
LINE
  5
12B7B
330
12B57
100
AcDbEntity
  8
0
100
AcDbLine
 10
-47.00000000000177
 20
-62.91118318265866
 30
0.0
 11
-47.00000000000179
 21
-43.50000000000001
 31
0.0
  0
ELLIPSE
  5
12B7C
330
12B57
100
AcDbEntity
  8
0
100
AcDbEllipse
 10
-42.00000000000001
 20
-1.227476037518807
 30
0.0
 11
-1.5
 21
0.0000000000001092
 31
0.0
210
0.0
220
0.0
230
1.0
 40
0.7071067811865475
 41
1.570796326795026
 42
2.705254581962137
  0
LINE
  5
12B7D
330
12B57
100
AcDbEntity
  8
0
100
AcDbLine
 10
-42.00000000000001
 20
-2.288136209298621
 30
0.0
 11
-44.29315533855963
 21
-2.288136209298621
 31
0.0
  0
LINE
  5
12B7E
330
12B57
100
AcDbEntity
  8
0
100
AcDbLine
 10
-44.29315533855963
 20
-2.288136209298621
 30
0.0
 11
-44.90000000000001
 21
-2.717240184541174
 31
0.0
  0
LINE
  5
12B7F
330
12B57
100
AcDbEntity
  8
0
100
AcDbLine
 10
44.89999999999998
 20
-2.71724018454115
 30
0.0
 11
44.2931553385596
 21
-2.288136209298598
 31
0.0
  0
LINE
  5
12B80
330
12B57
100
AcDbEntity
  8
0
100
AcDbLine
 10
44.2931553385596
 20
-2.288136209298598
 30
0.0
 11
41.99999999999998
 21
-2.288136209298598
 31
0.0
  0
ELLIPSE
  5
12B81
330
12B57
100
AcDbEntity
  8
0
100
AcDbEllipse
 10
41.99999999999998
 20
-1.227476037518789
 30
0.0
 11
-1.5
 21
-0.0000000000000003
 31
0.0
210
0.0
220
0.0
230
1.0
 40
0.7071067811865474
 41
0.4363380716279047
 42
1.570796326794896
  0
SPLINE
  5
12B82
330
12B57
100
AcDbEntity
  8
0
100
AcDbSpline
210
0.0
220
0.0
230
1.0
 70
     8
 71
     3
 72
     8
 73
     4
 74
     0
 42
0.000000001
 43
0.0000000001
 40
-1.0
 40
-1.0
 40
-1.0
 40
-1.0
 40
0.0
 40
0.0
 40
0.0
 40
0.0
 10
40.64054197002045
 20
-1.675735931288074
 30
0.0
 10
40.51586474390251
 20
-1.572566966670493
 30
0.0
 10
40.47251992074075
 20
-1.500000000000003
 30
0.0
 10
40.51767776087193
 20
-1.500000000000003
 30
0.0
  0
SPLINE
  5
12B83
330
12B57
100
AcDbEntity
  8
0
100
AcDbSpline
210
0.0
220
0.0
230
1.0
 70
     8
 71
     3
 72
     8
 73
     4
 74
     0
 42
0.000000001
 43
0.0000000001
 40
-1.0
 40
-1.0
 40
-1.0
 40
-1.0
 40
0.0
 40
0.0
 40
0.0
 40
0.0
 10
-40.51767776087197
 20
-1.500000000000021
 30
0.0
 10
-40.47251992074049
 20
-1.500000000000021
 30
0.0
 10
-40.51586474390056
 20
-1.57256696667051
 30
0.0
 10
-40.64054197002054
 20
-1.675735931288092
 30
0.0
  0
LINE
  5
12B84
330
12B57
100
AcDbEntity
  8
0
100
AcDbLine
 10
-45.50000000000145
 20
-62.91118318265866
 30
0.0
 11
-47.00000000000177
 21
-62.91118318265866
 31
0.0
  0
LINE
  5
12B85
330
12B57
100
AcDbEntity
  8
0
100
AcDbLine
 10
-45.50000000000001
 20
-43.50000000000001
 30
0.0
 11
-45.50000000000145
 21
-62.91118318265866
 31
0.0
  0
SPLINE
  5
12B86
330
12B57
100
AcDbEntity
  8
0
100
AcDbSpline
210
0.0
220
0.0
230
1.0
 70
     8
 71
     3
 72
     8
 73
     4
 74
     0
 42
0.000000001
 43
0.0000000001
 40
-1.0
 40
-1.0
 40
-1.0
 40
-1.0
 40
0.0
 40
0.0
 40
0.0
 40
0.0
 10
-44.90000000000001
 20
-2.71724018454115
 30
0.0
 10
-45.214159265359
 20
-3.124319333760612
 30
0.0
 10
-45.50000000000003
 20
-3.733518404783577
 30
0.0
 10
-45.50000000000003
 20
-4.362741700911262
 30
0.0
  0
LINE
  5
12B87
330
12B57
100
AcDbEntity
  8
0
100
AcDbLine
 10
-44.90000000000001
 20
-2.717240184541174
 30
0.0
 11
-44.90000000000001
 21
-2.364040347338338
 31
0.0
  0
LINE
  5
12B88
330
12B57
100
AcDbEntity
  8
0
100
AcDbLine
 10
-44.90000000000001
 20
-2.364040347338338
 30
0.0
 11
-44.90000000000001
 21
-1.656580012761351
 31
0.0
  0
SPLINE
  5
12B89
330
12B57
100
AcDbEntity
  8
0
100
AcDbSpline
210
0.0
220
0.0
230
1.0
 70
     8
 71
     3
 72
     8
 73
     4
 74
     0
 42
0.000000001
 43
0.0000000001
 40
0.8233926083861652
 40
0.8233926083861652
 40
0.8233926083861652
 40
0.8233926083861652
 40
1.0
 40
1.0
 40
1.0
 40
1.0
 10
-45.46833079343952
 20
-1.934942494001962
 30
0.0
 10
-45.28528852951267
 20
-1.822430928281042
 30
0.0
 10
-45.09418996942231
 20
-1.728473199485358
 30
0.0
 10
-44.90000000000002
 20
-1.656580012761328
 30
0.0
  0
LINE
  5
12B8A
330
12B57
100
AcDbEntity
  8
0
100
AcDbLine
 10
-44.90000000000001
 20
-1.656580012761351
 30
0.0
 11
-44.67856242236218
 21
-1.500000000000023
 31
0.0
  0
LINE
  5
12B8B
330
12B57
100
AcDbEntity
  8
0
100
AcDbLine
 10
-44.29315533855963
 20
-2.288136209298621
 30
0.0
 11
-44.29315533855963
 21
-1.500000000000021
 31
0.0
  0
LINE
  5
12B8C
330
12B57
100
AcDbEntity
  8
0
100
AcDbLine
 10
-40.64054197002045
 20
-1.675735931288092
 30
0.0
 11
-40.64054197002045
 21
-1.50000000000002
 31
0.0
  0
LINE
  5
12B8D
330
12B57
100
AcDbEntity
  8
0
100
AcDbLine
 10
45.50000000000105
 20
-62.91118318265851
 30
0.0
 11
45.50000000000104
 21
-43.49999999999996
 31
0.0
  0
LINE
  5
12B8E
330
12B57
100
AcDbEntity
  8
0
100
AcDbLine
 10
44.89999999999998
 20
-2.71724018454115
 30
0.0
 11
44.89999999999998
 21
-2.364040347338365
 31
0.0
  0
SPLINE
  5
12B8F
330
12B57
100
AcDbEntity
  8
0
100
AcDbSpline
210
0.0
220
0.0
230
1.0
 70
     8
 71
     3
 72
     8
 73
     4
 74
     0
 42
0.000000001
 43
0.0000000001
 40
-1.0
 40
-1.0
 40
-1.0
 40
-1.0
 40
0.0
 40
0.0
 40
0.0
 40
0.0
 10
45.49999999999998
 20
-4.362741700911247
 30
0.0
 10
45.49999999999998
 20
-3.733518404783693
 30
0.0
 10
45.21415926535895
 20
-3.124319333760592
 30
0.0
 10
44.89999999999997
 20
-2.717240184541162
 30
0.0
  0
SPLINE
  5
12B90
330
12B57
100
AcDbEntity
  8
0
100
AcDbSpline
210
0.0
220
0.0
230
1.0
 70
     8
 71
     3
 72
     8
 73
     4
 74
     0
 42
0.000000001
 43
0.0000000001
 40
0.0
 40
0.0
 40
0.0
 40
0.0
 40
0.1766073916138504
 40
0.1766073916138504
 40
0.1766073916138504
 40
0.1766073916138504
 10
44.89999999999996
 20
-1.656580012761339
 30
0.0
 10
45.09418996942226
 20
-1.728473199485368
 30
0.0
 10
45.28528852951263
 20
-1.82243092828106
 30
0.0
 10
45.46833079343949
 20
-1.934942494001993
 30
0.0
  0
LINE
  5
12B91
330
12B57
100
AcDbEntity
  8
0
100
AcDbLine
 10
44.89999999999998
 20
-2.364040347338365
 30
0.0
 11
44.89999999999998
 21
-1.656580012761328
 31
0.0
  0
LINE
  5
12B92
330
12B57
100
AcDbEntity
  8
0
100
AcDbLine
 10
40.64054197002045
 20
-1.499999999999997
 30
0.0
 11
40.6405419700204
 21
-1.675735931288074
 31
0.0
  0
LINE
  5
12B93
330
12B57
100
AcDbEntity
  8
0
100
AcDbLine
 10
44.2931553385596
 20
-2.288136209298598
 30
0.0
 11
44.2931553385596
 21
-1.499999999999996
 31
0.0
  0
LINE
  5
12B94
330
12B57
100
AcDbEntity
  8
0
100
AcDbLine
 10
44.67856242236212
 20
-1.499999999999987
 30
0.0
 11
44.89999999999998
 21
-1.656580012761328
 31
0.0
  0
LINE
  5
12B95
330
12B57
100
AcDbEntity
  8
0
100
AcDbLine
 10
-47.00000000000177
 20
-62.91118318265866
 30
0.0
 11
-46.99999999999999
 21
-82.00306627386
 31
0.0
  0
LINE
  5
12B96
330
12B57
100
AcDbEntity
  8
0
100
AcDbLine
 10
-45.50000000000145
 20
-62.91118318265866
 30
0.0
 11
-45.49999999999998
 21
-82.00306627386
 31
0.0
  0
ELLIPSE
  5
12B97
330
12B57
100
AcDbEntity
  8
0
100
AcDbEllipse
 10
-12.50000000000001
 20
-0.1668158657389963
 30
0.0
 11
2.5
 21
0.0000000000001825
 31
0.0
210
0.0
220
0.0
230
1.0
 40
0.7071067811865474
 41
3.995971005724944
 42
4.712388980384622
  0
LINE
  5
12B98
330
12B57
100
AcDbEntity
  8
0
100
AcDbLine
 10
-14.91828991960765
 20
-1.500000000000003
 30
0.0
 11
-14.91828991960765
 21
-1.675735931288087
 31
0.0
  0
ELLIPSE
  5
12B99
330
12B57
100
AcDbEntity
  8
0
100
AcDbEllipse
 10
-12.50000000000001
 20
-1.227476037518801
 30
0.0
 11
-2.5
 21
-0.0000000000000006
 31
0.0
210
0.0
220
0.0
230
1.0
 40
0.7071067811865471
 41
0.2563733270184496
 42
1.570796326794896
  0
LINE
  5
12B9A
330
12B57
100
AcDbEntity
  8
0
100
AcDbLine
 10
-12.50000000000001
 20
-1.934582818705348
 30
0.0
 11
-7.500000000000017
 21
-1.934582818705347
 31
0.0
  0
LINE
  5
12B9B
330
12B57
100
AcDbEntity
  8
0
100
AcDbLine
 10
-7.500000000000016
 20
-2.995242990485169
 30
0.0
 11
-12.50000000000001
 21
-2.99524299048517
 31
0.0
  0
ELLIPSE
  5
12B9C
330
12B57
100
AcDbEntity
  8
0
100
AcDbEllipse
 10
-7.500000000000017
 20
-0.166815865738995
 30
0.0
 11
2.5
 21
0.0000000000000006
 31
0.0
210
0.0
220
0.0
230
1.0
 40
0.7071067811865471
 41
4.712388980384689
 42
5.428806955044299
  0
ELLIPSE
  5
12B9D
330
12B57
100
AcDbEntity
  8
0
100
AcDbEllipse
 10
-7.500000000000017
 20
-1.2274760375188
 30
0.0
 11
2.5
 21
0.0000000000000009
 31
0.0
210
0.0
220
0.0
230
1.0
 40
0.7071067811865475
 41
4.712388980384689
 42
6.026811980161137
  0
LINE
  5
12B9E
330
12B57
100
AcDbEntity
  8
0
100
AcDbLine
 10
-5.081710080392384
 20
-1.675735931288084
 30
0.0
 11
-5.081710080392384
 21
-1.500000000000001
 31
0.0
  0
SPLINE
  5
12B9F
330
12B57
100
AcDbEntity
  8
0
100
AcDbSpline
210
0.0
220
0.0
230
1.0
 70
     8
 71
     3
 72
     8
 73
     4
 74
     0
 42
0.000000001
 43
0.0000000001
 40
-1.0
 40
-1.0
 40
-1.0
 40
-1.0
 40
0.0
 40
0.0
 40
0.0
 40
0.0
 10
-14.91828991960765
 20
-1.675735931288087
 30
0.0
 10
-14.99189972302031
 20
-1.567383125827707
 30
0.0
 10
-15.01609483643921
 20
-1.500000000000015
 30
0.0
 10
-14.98943351399745
 20
-1.500000000000015
 30
0.0
  0
SPLINE
  5
12BA0
330
12B57
100
AcDbEntity
  8
0
100
AcDbSpline
210
0.0
220
0.0
230
1.0
 70
     8
 71
     3
 72
     8
 73
     4
 74
     0
 42
0.000000001
 43
0.0000000001
 40
-1.0
 40
-1.0
 40
-1.0
 40
-1.0
 40
0.0
 40
0.0
 40
0.0
 40
0.0
 10
-5.01056648600259
 20
-1.500000000000013
 30
0.0
 10
-4.983905163560564
 20
-1.500000000000013
 30
0.0
 10
-5.008100276979964
 20
-1.567383125827736
 30
0.0
 10
-5.081710080392381
 20
-1.675735931288084
 30
0.0
  0
ELLIPSE
  5
12BA1
330
12B57
100
AcDbEntity
  8
0
100
AcDbEllipse
 10
7.499999999999982
 20
-0.1668158657389941
 30
0.0
 11
2.5
 21
0.0000000000001822
 31
0.0
210
0.0
220
0.0
230
1.0
 40
0.7071067811865474
 41
3.995971005724943
 42
4.712388980384623
  0
LINE
  5
12BA2
330
12B57
100
AcDbEntity
  8
0
100
AcDbLine
 10
5.081710080392346
 20
-1.499999999999997
 30
0.0
 11
5.081710080392346
 21
-1.675735931288082
 31
0.0
  0
ELLIPSE
  5
12BA3
330
12B57
100
AcDbEntity
  8
0
100
AcDbEllipse
 10
7.499999999999982
 20
-1.227476037518796
 30
0.0
 11
-2.5
 21
-0.0000000000000006
 31
0.0
210
0.0
220
0.0
230
1.0
 40
0.7071067811865472
 41
0.2563733270184487
 42
1.570796326794896
  0
LINE
  5
12BA4
330
12B57
100
AcDbEntity
  8
0
100
AcDbLine
 10
7.499999999999982
 20
-1.934582818705343
 30
0.0
 11
12.49999999999998
 21
-1.934582818705342
 31
0.0
  0
LINE
  5
12BA5
330
12B57
100
AcDbEntity
  8
0
100
AcDbLine
 10
12.49999999999998
 20
-2.995242990485164
 30
0.0
 11
7.499999999999983
 21
-2.995242990485165
 31
0.0
  0
ELLIPSE
  5
12BA6
330
12B57
100
AcDbEntity
  8
0
100
AcDbEllipse
 10
12.49999999999998
 20
-0.166815865738993
 30
0.0
 11
2.5
 21
0.0000000000000006
 31
0.0
210
0.0
220
0.0
230
1.0
 40
0.7071067811865472
 41
4.712388980384689
 42
5.428806955044302
  0
ELLIPSE
  5
12BA7
330
12B57
100
AcDbEntity
  8
0
100
AcDbEllipse
 10
12.49999999999998
 20
-1.227476037518795
 30
0.0
 11
2.5
 21
0.0000000000000006
 31
0.0
210
0.0
220
0.0
230
1.0
 40
0.7071067811865472
 41
4.712388980384689
 42
6.026811980161137
  0
LINE
  5
12BA8
330
12B57
100
AcDbEntity
  8
0
100
AcDbLine
 10
14.91828991960761
 20
-1.67573593128808
 30
0.0
 11
14.91828991960761
 21
-1.499999999999994
 31
0.0
  0
SPLINE
  5
12BA9
330
12B57
100
AcDbEntity
  8
0
100
AcDbSpline
210
0.0
220
0.0
230
1.0
 70
     8
 71
     3
 72
     8
 73
     4
 74
     0
 42
0.000000001
 43
0.0000000001
 40
-1.0
 40
-1.0
 40
-1.0
 40
-1.0
 40
0.0
 40
0.0
 40
0.0
 40
0.0
 10
5.081710080392346
 20
-1.675735931288082
 30
0.0
 10
5.008100276979861
 20
-1.567383125827729
 30
0.0
 10
4.983905163560433
 20
-1.500000000000011
 30
0.0
 10
5.010566486002556
 20
-1.500000000000011
 30
0.0
  0
SPLINE
  5
12BAA
330
12B57
100
AcDbEntity
  8
0
100
AcDbSpline
210
0.0
220
0.0
230
1.0
 70
     8
 71
     3
 72
     8
 73
     4
 74
     0
 42
0.000000001
 43
0.0000000001
 40
-1.0
 40
-1.0
 40
-1.0
 40
-1.0
 40
0.0
 40
0.0
 40
0.0
 40
0.0
 10
14.98943351399742
 20
-1.500000000000008
 30
0.0
 10
15.01609483643944
 20
-1.500000000000008
 30
0.0
 10
14.9918997230205
 20
-1.567383125827704
 30
0.0
 10
14.91828991960761
 20
-1.67573593128808
 30
0.0
  0
ELLIPSE
  5
12BAB
330
12B57
100
AcDbEntity
  8
0
100
AcDbEllipse
 10
-28.00000000000002
 20
-1.227476037518804
 30
0.0
 11
2.5
 21
0.0000000000000005
 31
0.0
210
0.0
220
0.0
230
1.0
 40
0.7071067811865472
 41
3.397965980608242
 42
6.026811980161135
  0
ELLIPSE
  5
12BAC
330
12B57
100
AcDbEntity
  8
0
100
AcDbEllipse
 10
27.99999999999998
 20
-1.227476037518792
 30
0.0
 11
2.5
 21
0.0000000000000008
 31
0.0
210
0.0
220
0.0
230
1.0
 40
0.7071067811865472
 41
3.397965980608239
 42
6.026811980161136
  0
SPLINE
  5
12BAD
330
12B57
100
AcDbEntity
  8
0
100
AcDbSpline
210
0.0
220
0.0
230
1.0
 70
     8
 71
     3
 72
     8
 73
     4
 74
     0
 42
0.000000001
 43
0.0000000001
 40
-1.0
 40
-1.0
 40
-1.0
 40
-1.0
 40
0.0
 40
0.0
 40
0.0
 40
0.0
 10
25.58171008039237
 20
-1.675735931288079
 30
0.0
 10
25.50810027697957
 20
-1.567383125827711
 30
0.0
 10
25.48390516356024
 20
-1.500000000000006
 30
0.0
 10
25.51056648600257
 20
-1.500000000000006
 30
0.0
  0
SPLINE
  5
12BAE
330
12B57
100
AcDbEntity
  8
0
100
AcDbSpline
210
0.0
220
0.0
230
1.0
 70
     8
 71
     3
 72
     8
 73
     4
 74
     0
 42
0.000000001
 43
0.0000000001
 40
-1.0
 40
-1.0
 40
-1.0
 40
-1.0
 40
0.0
 40
0.0
 40
0.0
 40
0.0
 10
-25.51056648600261
 20
-1.500000000000017
 30
0.0
 10
-25.48390516356008
 20
-1.500000000000017
 30
0.0
 10
-25.50810027697974
 20
-1.567383125827673
 30
0.0
 10
-25.5817100803924
 20
-1.675735931288089
 30
0.0
  0
ELLIPSE
  5
12BAF
330
12B57
100
AcDbEntity
  8
0
100
AcDbEllipse
 10
-28.00000000000002
 20
-0.1668158657389974
 30
0.0
 11
2.5
 21
0.0000000000001821
 31
0.0
210
0.0
220
0.0
230
1.0
 40
0.7071067811865472
 41
3.995971005724948
 42
5.428806955044152
  0
LINE
  5
12BB0
330
12B57
100
AcDbEntity
  8
0
100
AcDbLine
 10
-30.41828991960765
 20
-1.500000000000008
 30
0.0
 11
-30.41828991960764
 21
-1.67573593128809
 31
0.0
  0
LINE
  5
12BB1
330
12B57
100
AcDbEntity
  8
0
100
AcDbLine
 10
-25.58171008039238
 20
-1.675735931288089
 30
0.0
 11
-25.58171008039238
 21
-1.500000000000017
 31
0.0
  0
SPLINE
  5
12BB2
330
12B57
100
AcDbEntity
  8
0
100
AcDbSpline
210
0.0
220
0.0
230
1.0
 70
     8
 71
     3
 72
     8
 73
     4
 74
     0
 42
0.000000001
 43
0.0000000001
 40
-1.0
 40
-1.0
 40
-1.0
 40
-1.0
 40
0.0
 40
0.0
 40
0.0
 40
0.0
 10
-30.41828991960765
 20
-1.675735931288091
 30
0.0
 10
-30.49189972302006
 20
-1.567383125827715
 30
0.0
 10
-30.51609483643897
 20
-1.500000000000018
 30
0.0
 10
-30.48943351399743
 20
-1.500000000000018
 30
0.0
  0
ELLIPSE
  5
12BB3
330
12B57
100
AcDbEntity
  8
0
100
AcDbEllipse
 10
27.99999999999998
 20
-0.1668158657389887
 30
0.0
 11
2.5
 21
0.0000000000001835
 31
0.0
210
0.0
220
0.0
230
1.0
 40
0.7071067811865475
 41
3.995971005724957
 42
5.428806955044168
  0
LINE
  5
12BB4
330
12B57
100
AcDbEntity
  8
0
100
AcDbLine
 10
25.58171008039237
 20
-1.500000000000006
 30
0.0
 11
25.58171008039233
 21
-1.675735931288078
 31
0.0
  0
LINE
  5
12BB5
330
12B57
100
AcDbEntity
  8
0
100
AcDbLine
 10
30.41828991960763
 20
-1.675735931288077
 30
0.0
 11
30.41828991960763
 21
-1.499999999999989
 31
0.0
  0
SPLINE
  5
12BB6
330
12B57
100
AcDbEntity
  8
0
100
AcDbSpline
210
0.0
220
0.0
230
1.0
 70
     8
 71
     3
 72
     8
 73
     4
 74
     0
 42
0.000000001
 43
0.0000000001
 40
-1.0
 40
-1.0
 40
-1.0
 40
-1.0
 40
0.0
 40
0.0
 40
0.0
 40
0.0
 10
30.48943351399739
 20
-1.500000000000005
 30
0.0
 10
30.51609483644023
 20
-1.500000000000005
 30
0.0
 10
30.49189972301904
 20
-1.567383125827654
 30
0.0
 10
30.41828991960763
 20
-1.675735931288077
 30
0.0
  0
LINE
  5
12BB7
330
12B57
100
AcDbEntity
  8
0
100
AcDbLine
 10
-44.90000000000001
 20
-55.8401153701776
 30
0.0
 11
44.89999999999998
 21
-55.84011537017758
 31
0.0
  0
ELLIPSE
  5
12BB8
330
12B57
100
AcDbEntity
  8
0
100
AcDbEllipse
 10
-44.89999999999999
 20
-56.26437943888953
 30
0.0
 11
-0.6000000000000087
 21
-0.0000000000001422
 31
0.0
210
0.0
220
0.0
230
1.0
 40
0.7071067811865517
 41
4.712388980384226
 42
6.283185307178958
  0
ARC
  5
12BB9
330
12B57
100
AcDbEntity
  8
0
100
AcDbCircle
 10
44.89999999999999
 20
-2.099999999999989
 30
0.0
 40
0.600000000000005
100
AcDbArc
 50
0.0
 51
90.0
  0
ARC
  5
12BBA
330
12B57
100
AcDbEntity
  8
0
100
AcDbCircle
 10
44.89999999999999
 20
-2.099999999999989
 30
0.0
 40
2.100000000000008
100
AcDbArc
 50
0.0
 51
90.0
  0
ARC
  5
12BBB
330
12B57
100
AcDbEntity
  8
0
100
AcDbCircle
 10
-44.90000000000002
 20
-2.100000000000009
 30
0.0
 40
0.5999999999999961
100
AcDbArc
 50
90.0
 51
180.0
  0
ARC
  5
12BBC
330
12B57
100
AcDbEntity
  8
0
100
AcDbCircle
 10
-44.90000000000002
 20
-2.100000000000009
 30
0.0
 40
2.099999999999999
100
AcDbArc
 50
90.0
 51
180.0
  0
ENDBLK
  5
12B59
330
12B57
100
AcDbEntity
  8
0
100
AcDbBlockEnd
  0
BLOCK
  5
12BBE
330
12BBD
100
AcDbEntity
  8
0
100
AcDbBlockBegin
  2
SPR91_160-Bottom
 70
     0
 10
0.0
 20
0.0
 30
0.0
  3
SPR91_160-Bottom
  1

  0
LINE
  5
12BC0
330
12BBD
100
AcDbEntity
  8
0
100
AcDbLine
 10
88.02709056099997
 20
1.499999999999984
 30
0.0
 11
83.02709056099997
 21
1.499999999999985
 31
0.0
  0
LINE
  5
12BC1
330
12BBD
100
AcDbEntity
  8
0
100
AcDbLine
 10
83.02709056099997
 20
1.499999999999985
 30
0.0
 11
83.02709056099997
 21
0.0
 31
0.0
  0
LINE
  5
12BC2
330
12BBD
100
AcDbEntity
  8
0
100
AcDbLine
 10
83.02709056099997
 20
0.0
 30
0.0
 11
88.02709056099997
 21
0.0
 31
0.0
  0
LINE
  5
12BC3
330
12BBD
100
AcDbEntity
  8
0
100
AcDbLine
 10
88.02709056099997
 20
0.0
 30
0.0
 11
88.02709056099997
 21
1.499999999999984
 31
0.0
  0
LINE
  5
12BC4
330
12BBD
100
AcDbEntity
  8
0
100
AcDbLine
 10
-88.02709056100001
 20
0.0
 30
0.0
 11
-83.02709056100001
 21
0.0
 31
0.0
  0
LINE
  5
12BC5
330
12BBD
100
AcDbEntity
  8
0
100
AcDbLine
 10
-83.02709056100001
 20
1.500000000000032
 30
0.0
 11
-88.02709056100001
 21
1.500000000000033
 31
0.0
  0
LINE
  5
12BC6
330
12BBD
100
AcDbEntity
  8
0
100
AcDbLine
 10
-88.02709056100001
 20
1.500000000000033
 30
0.0
 11
-88.02709056100001
 21
0.0
 31
0.0
  0
LINE
  5
12BC7
330
12BBD
100
AcDbEntity
  8
0
100
AcDbLine
 10
-83.02709056100001
 20
0.0
 30
0.0
 11
-83.02709056100001
 21
1.500000000000032
 31
0.0
  0
LINE
  5
12BC8
330
12BBD
100
AcDbEntity
  8
0
100
AcDbLine
 10
83.02709056099997
 20
0.0
 30
0.0
 11
41.99999999999998
 21
0.0
 31
0.0
  0
LINE
  5
12BC9
330
12BBD
100
AcDbEntity
  8
0
100
AcDbLine
 10
-42.00000000000001
 20
0.0
 30
0.0
 11
-83.02709056100001
 21
0.0
 31
0.0
  0
LINE
  5
12BCA
330
12BBD
100
AcDbEntity
  8
0
100
AcDbLine
 10
-44.67856242236218
 20
1.500000000000025
 30
0.0
 11
-83.02709056100001
 21
1.500000000000032
 31
0.0
  0
LINE
  5
12BCB
330
12BBD
100
AcDbEntity
  8
0
100
AcDbLine
 10
83.02709056099997
 20
1.499999999999985
 30
0.0
 11
44.67856242236213
 21
1.499999999999996
 31
0.0
  0
LINE
  5
12BCC
330
12BBD
100
AcDbEntity
  8
0
100
AcDbLine
 10
41.99999999999998
 20
0.0
 30
0.0
 11
40.51767776087193
 21
0.0
 31
0.0
  0
LINE
  5
12BCD
330
12BBD
100
AcDbEntity
  8
0
100
AcDbLine
 10
-40.51767776087197
 20
0.0
 30
0.0
 11
-42.00000000000001
 21
0.0
 31
0.0
  0
SPLINE
  5
12BCE
330
12BBD
100
AcDbEntity
  8
0
100
AcDbSpline
210
0.0
220
0.0
230
1.0
 70
     8
 71
     3
 72
     8
 73
     4
 74
     0
 42
0.000000001
 43
0.0000000001
 40
0.0
 40
0.0
 40
0.0
 40
0.0
 40
1.0
 40
1.0
 40
1.0
 40
1.0
 10
40.51767776087193
 20
0.0000000000000029
 30
0.0
 10
40.47251992074075
 20
0.0000000000000032
 30
0.0
 10
40.51586474390251
 20
0.2539843833467188
 30
0.0
 10
40.64054197002045
 20
0.615075759508253
 30
0.0
  0
SPLINE
  5
12BCF
330
12BBD
100
AcDbEntity
  8
0
100
AcDbSpline
210
0.0
220
0.0
230
1.0
 70
     8
 71
     3
 72
     8
 73
     4
 74
     0
 42
0.000000001
 43
0.0000000001
 40
0.0
 40
0.0
 40
0.0
 40
0.0
 40
1.0
 40
1.0
 40
1.0
 40
1.0
 10
-40.64054197002054
 20
0.6150757595082711
 30
0.0
 10
-40.51586474390056
 20
0.2539843833467349
 30
0.0
 10
-40.47251992074049
 20
0.0000000000000211
 30
0.0
 10
-40.51767776087197
 20
0.0000000000000209
 30
0.0
  0
SPLINE
  5
12BD0
330
12BBD
100
AcDbEntity
  8
0
100
AcDbSpline
210
0.0
220
0.0
230
1.0
 70
     8
 71
     3
 72
     8
 73
     4
 74
     0
 42
0.000000001
 43
0.0000000001
 40
0.0
 40
0.0
 40
0.0
 40
0.0
 40
1.0
 40
1.0
 40
1.0
 40
1.0
 10
-47.00000000000003
 20
4.362741700911231
 30
0.0
 10
-47.0
 20
3.178158037513794
 30
0.0
 10
-45.99955742875643
 20
2.063659161980796
 30
0.0
 10
-44.90000000000002
 20
1.656580012761328
 30
0.0
  0
LINE
  5
12BD1
330
12BBD
100
AcDbEntity
  8
0
100
AcDbLine
 10
-44.90000000000001
 20
1.656580012761351
 30
0.0
 11
-44.29315533855963
 21
1.227476037518798
 31
0.0
  0
LINE
  5
12BD2
330
12BBD
100
AcDbEntity
  8
0
100
AcDbLine
 10
-44.29315533855963
 20
1.227476037518798
 30
0.0
 11
-42.00000000000001
 21
1.227476037518798
 31
0.0
  0
ELLIPSE
  5
12BD3
330
12BBD
100
AcDbEntity
  8
0
100
AcDbEllipse
 10
-42.00000000000001
 20
0.1668158657389979
 30
0.0
 11
1.5
 21
-0.0000000000000003
 31
0.0
210
0.0
220
0.0
230
1.0
 40
0.7071067811865474
 41
0.4363380716279126
 42
1.570796326794896
  0
LINE
  5
12BD4
330
12BBD
100
AcDbEntity
  8
0
100
AcDbLine
 10
-40.51767776087197
 20
0.1805170265383209
 30
0.0
 11
-40.51767776087197
 21
0.0
 31
0.0
  0
SPLINE
  5
12BD5
330
12BBD
100
AcDbEntity
  8
0
100
AcDbSpline
210
0.0
220
0.0
230
1.0
 70
     8
 71
     3
 72
     8
 73
     4
 74
     0
 42
0.000000001
 43
0.0000000001
 40
0.0
 40
0.0
 40
0.0
 40
0.0
 40
1.0
 40
1.0
 40
1.0
 40
1.0
 10
44.89999999999996
 20
1.656580012761339
 30
0.0
 10
45.99955742875635
 20
2.063659161980766
 30
0.0
 10
46.99999999999995
 20
3.178158037513872
 30
0.0
 10
46.99999999999999
 20
4.362741700911211
 30
0.0
  0
ELLIPSE
  5
12BD6
330
12BBD
100
AcDbEntity
  8
0
100
AcDbEllipse
 10
41.99999999999998
 20
0.166815865738982
 30
0.0
 11
1.5
 21
-0.0000000000001098
 31
0.0
210
0.0
220
0.0
230
1.0
 40
0.7071067811865479
 41
1.570796326795031
 42
2.705254581962144
  0
LINE
  5
12BD7
330
12BBD
100
AcDbEntity
  8
0
100
AcDbLine
 10
41.99999999999998
 20
1.227476037518777
 30
0.0
 11
44.2931553385596
 21
1.227476037518776
 31
0.0
  0
LINE
  5
12BD8
330
12BBD
100
AcDbEntity
  8
0
100
AcDbLine
 10
44.2931553385596
 20
1.227476037518776
 30
0.0
 11
44.89999999999998
 21
1.656580012761328
 31
0.0
  0
LINE
  5
12BD9
330
12BBD
100
AcDbEntity
  8
0
100
AcDbLine
 10
40.51767776087193
 20
0.1805170265383825
 30
0.0
 11
40.51767776087193
 21
0.0
 31
0.0
  0
LINE
  5
12BDA
330
12BBD
100
AcDbEntity
  8
0
100
AcDbLine
 10
30.48943351399741
 20
0.0
 30
0.0
 11
40.51767776087193
 21
0.0
 31
0.0
  0
LINE
  5
12BDB
330
12BBD
100
AcDbEntity
  8
0
100
AcDbLine
 10
14.98943351399741
 20
0.0
 30
0.0
 11
25.51056648600255
 21
0.0
 31
0.0
  0
LINE
  5
12BDC
330
12BBD
100
AcDbEntity
  8
0
100
AcDbLine
 10
-5.01056648600259
 20
0.0
 30
0.0
 11
5.010566486002554
 21
0.0
 31
0.0
  0
LINE
  5
12BDD
330
12BBD
100
AcDbEntity
  8
0
100
AcDbLine
 10
-25.51056648600259
 20
0.0
 30
0.0
 11
-14.98943351399744
 21
0.0
 31
0.0
  0
LINE
  5
12BDE
330
12BBD
100
AcDbEntity
  8
0
100
AcDbLine
 10
-40.51767776087197
 20
0.0
 30
0.0
 11
-30.48943351399744
 21
0.0
 31
0.0
  0
LINE
  5
12BDF
330
12BBD
100
AcDbEntity
  8
0
100
AcDbLine
 10
46.99999999999998
 20
56.26437943888955
 30
0.0
 11
46.99999999999996
 21
82.00306627385996
 31
0.0
  0
LINE
  5
12BE0
330
12BBD
100
AcDbEntity
  8
0
100
AcDbLine
 10
-46.99999999999996
 20
82.00306627386
 30
0.0
 11
-47.0
 21
56.26437943888956
 31
0.0
  0
LINE
  5
12BE1
330
12BBD
100
AcDbEntity
  8
0
100
AcDbLine
 10
-45.49999999999998
 20
82.00306627386
 30
0.0
 11
-45.49999999999999
 21
56.26437943888955
 31
0.0
  0
LINE
  5
12BE2
330
12BBD
100
AcDbEntity
  8
0
100
AcDbLine
 10
-44.90000000000001
 20
55.8401153701776
 30
0.0
 11
44.89999999999998
 21
55.84011537017758
 31
0.0
  0
LINE
  5
12BE3
330
12BBD
100
AcDbEntity
  8
0
100
AcDbLine
 10
45.49999999999998
 20
56.26437943888952
 30
0.0
 11
45.49999999999998
 21
82.00306627385996
 31
0.0
  0
LINE
  5
12BE4
330
12BBD
100
AcDbEntity
  8
0
100
AcDbLine
 10
-44.90000000000001
 20
54.77945519839778
 30
0.0
 11
44.89999999999998
 21
54.77945519839777
 31
0.0
  0
LINE
  5
12BE5
330
12BBD
100
AcDbEntity
  8
0
100
AcDbLine
 10
30.48943351399741
 20
0.0
 30
0.0
 11
25.51056648600255
 21
0.0
 31
0.0
  0
LINE
  5
12BE6
330
12BBD
100
AcDbEntity
  8
0
100
AcDbLine
 10
-25.51056648600259
 20
0.0
 30
0.0
 11
-30.48943351399744
 21
0.0
 31
0.0
  0
SPLINE
  5
12BE7
330
12BBD
100
AcDbEntity
  8
0
100
AcDbSpline
210
0.0
220
0.0
230
1.0
 70
     8
 71
     3
 72
     8
 73
     4
 74
     0
 42
0.000000001
 43
0.0000000001
 40
0.0
 40
0.0
 40
0.0
 40
0.0
 40
1.0
 40
1.0
 40
1.0
 40
1.0
 10
-25.5817100803924
 20
0.6150757595082678
 30
0.0
 10
-25.50810027697974
 20
0.235840940396813
 30
0.0
 10
-25.48390516356008
 20
0.0000000000000176
 30
0.0
 10
-25.51056648600261
 20
0.0000000000000176
 30
0.0
  0
SPLINE
  5
12BE8
330
12BBD
100
AcDbEntity
  8
0
100
AcDbSpline
210
0.0
220
0.0
230
1.0
 70
     8
 71
     3
 72
     8
 73
     4
 74
     0
 42
0.000000001
 43
0.0000000001
 40
0.0
 40
0.0
 40
0.0
 40
0.0
 40
1.0
 40
1.0
 40
1.0
 40
1.0
 10
25.51056648600257
 20
0.0000000000000063
 30
0.0
 10
25.48390516356024
 20
0.0000000000000064
 30
0.0
 10
25.50810027697957
 20
0.235840940396973
 30
0.0
 10
25.58171008039237
 20
0.6150757595082591
 30
0.0
  0
ELLIPSE
  5
12BE9
330
12BBD
100
AcDbEntity
  8
0
100
AcDbEllipse
 10
-28.00000000000002
 20
0.1668158657389974
 30
0.0
 11
-2.5
 21
0.0000000000000009
 31
0.0
210
0.0
220
0.0
230
1.0
 40
0.7071067811865472
 41
3.397965980608241
 42
6.026811980161135
  0
SPLINE
  5
12BEA
330
12BBD
100
AcDbEntity
  8
0
100
AcDbSpline
210
0.0
220
0.0
230
1.0
 70
     8
 71
     3
 72
     8
 73
     4
 74
     0
 42
0.000000001
 43
0.0000000001
 40
0.0
 40
0.0
 40
0.0
 40
0.0
 40
1.0
 40
1.0
 40
1.0
 40
1.0
 10
-30.48943351399743
 20
0.0000000000000187
 30
0.0
 10
-30.51609483643897
 20
0.0000000000000186
 30
0.0
 10
-30.49189972302006
 20
0.235840940396959
 30
0.0
 10
-30.41828991960765
 20
0.6150757595082716
 30
0.0
  0
LINE
  5
12BEB
330
12BBD
100
AcDbEntity
  8
0
100
AcDbLine
 10
-30.48943351399744
 20
0.1805170265382234
 30
0.0
 11
-30.48943351399744
 21
0.0
 31
0.0
  0
LINE
  5
12BEC
330
12BBD
100
AcDbEntity
  8
0
100
AcDbLine
 10
-25.51056648600259
 20
0.1805170265381774
 30
0.0
 11
-25.51056648600259
 21
0.0
 31
0.0
  0
LINE
  5
12BED
330
12BBD
100
AcDbEntity
  8
0
100
AcDbLine
 10
-29.64171865077712
 20
1.500000000000018
 30
0.0
 11
-26.35828134922292
 21
1.500000000000017
 31
0.0
  0
ELLIPSE
  5
12BEE
330
12BBD
100
AcDbEntity
  8
0
100
AcDbEllipse
 10
27.99999999999998
 20
0.1668158657389887
 30
0.0
 11
-2.5
 21
0.0000000000000006
 31
0.0
210
0.0
220
0.0
230
1.0
 40
0.7071067811865474
 41
3.397965980608241
 42
6.026811980161138
  0
LINE
  5
12BEF
330
12BBD
100
AcDbEntity
  8
0
100
AcDbLine
 10
25.51056648600255
 20
0.1805170265382479
 30
0.0
 11
25.51056648600255
 21
0.0
 31
0.0
  0
LINE
  5
12BF0
330
12BBD
100
AcDbEntity
  8
0
100
AcDbLine
 10
30.48943351399741
 20
0.180517026538151
 30
0.0
 11
30.48943351399741
 21
0.0
 31
0.0
  0
SPLINE
  5
12BF1
330
12BBD
100
AcDbEntity
  8
0
100
AcDbSpline
210
0.0
220
0.0
230
1.0
 70
     8
 71
     3
 72
     8
 73
     4
 74
     0
 42
0.000000001
 43
0.0000000001
 40
0.0
 40
0.0
 40
0.0
 40
0.0
 40
1.0
 40
1.0
 40
1.0
 40
1.0
 10
30.41828991960763
 20
0.6150757595082554
 30
0.0
 10
30.49189972301904
 20
0.2358409403967751
 30
0.0
 10
30.51609483644023
 20
0.0000000000000052
 30
0.0
 10
30.48943351399739
 20
0.0000000000000052
 30
0.0
  0
LINE
  5
12BF2
330
12BBD
100
AcDbEntity
  8
0
100
AcDbLine
 10
26.35828134922288
 20
1.500000000000006
 30
0.0
 11
29.64171865077709
 21
1.500000000000005
 31
0.0
  0
LINE
  5
12BF3
330
12BBD
100
AcDbEntity
  8
0
100
AcDbLine
 10
14.98943351399741
 20
0.0
 30
0.0
 11
12.49999999999998
 21
0.0
 31
0.0
  0
LINE
  5
12BF4
330
12BBD
100
AcDbEntity
  8
0
100
AcDbLine
 10
12.49999999999998
 20
0.0
 30
0.0
 11
7.499999999999982
 21
0.0
 31
0.0
  0
LINE
  5
12BF5
330
12BBD
100
AcDbEntity
  8
0
100
AcDbLine
 10
7.499999999999982
 20
0.0
 30
0.0
 11
5.010566486002554
 21
0.0
 31
0.0
  0
LINE
  5
12BF6
330
12BBD
100
AcDbEntity
  8
0
100
AcDbLine
 10
-5.01056648600259
 20
0.0
 30
0.0
 11
-7.500000000000017
 21
0.0
 31
0.0
  0
LINE
  5
12BF7
330
12BBD
100
AcDbEntity
  8
0
100
AcDbLine
 10
-7.500000000000017
 20
0.0
 30
0.0
 11
-12.50000000000001
 21
0.0
 31
0.0
  0
LINE
  5
12BF8
330
12BBD
100
AcDbEntity
  8
0
100
AcDbLine
 10
-12.50000000000001
 20
0.0
 30
0.0
 11
-14.98943351399744
 21
0.0
 31
0.0
  0
ELLIPSE
  5
12BF9
330
12BBD
100
AcDbEntity
  8
0
100
AcDbEllipse
 10
-12.50000000000001
 20
0.1668158657389963
 30
0.0
 11
-2.5
 21
0.0000000000000005
 31
0.0
210
0.0
220
0.0
230
1.0
 40
0.7071067811865474
 41
4.712388980384689
 42
6.026811980161136
  0
LINE
  5
12BFA
330
12BBD
100
AcDbEntity
  8
0
100
AcDbLine
 10
-12.50000000000001
 20
1.934582818705348
 30
0.0
 11
-7.500000000000017
 21
1.934582818705347
 31
0.0
  0
ELLIPSE
  5
12BFB
330
12BBD
100
AcDbEntity
  8
0
100
AcDbEllipse
 10
-7.500000000000017
 20
0.166815865738995
 30
0.0
 11
2.5
 21
-0.0000000000000006
 31
0.0
210
0.0
220
0.0
230
1.0
 40
0.7071067811865471
 41
0.2563733270184496
 42
1.570796326794896
  0
SPLINE
  5
12BFC
330
12BBD
100
AcDbEntity
  8
0
100
AcDbSpline
210
0.0
220
0.0
230
1.0
 70
     8
 71
     3
 72
     8
 73
     4
 74
     0
 42
0.000000001
 43
0.0000000001
 40
0.0
 40
0.0
 40
0.0
 40
0.0
 40
1.0
 40
1.0
 40
1.0
 40
1.0
 10
-14.98943351399745
 20
0.0000000000000153
 30
0.0
 10
-15.01609483643921
 20
0.0000000000000153
 30
0.0
 10
-14.99189972302031
 20
0.2358409403969363
 30
0.0
 10
-14.91828991960765
 20
0.6150757595082654
 30
0.0
  0
LINE
  5
12BFD
330
12BBD
100
AcDbEntity
  8
0
100
AcDbLine
 10
-14.98943351399744
 20
0.1805170265382439
 30
0.0
 11
-14.98943351399744
 21
0.0
 31
0.0
  0
LINE
  5
12BFE
330
12BBD
100
AcDbEntity
  8
0
100
AcDbLine
 10
-5.01056648600259
 20
0.1805170265382594
 30
0.0
 11
-5.01056648600259
 21
0.0
 31
0.0
  0
SPLINE
  5
12BFF
330
12BBD
100
AcDbEntity
  8
0
100
AcDbSpline
210
0.0
220
0.0
230
1.0
 70
     8
 71
     3
 72
     8
 73
     4
 74
     0
 42
0.000000001
 43
0.0000000001
 40
0.0
 40
0.0
 40
0.0
 40
0.0
 40
1.0
 40
1.0
 40
1.0
 40
1.0
 10
-5.081710080392381
 20
0.6150757595082622
 30
0.0
 10
-5.008100276979964
 20
0.2358409403970452
 30
0.0
 10
-4.983905163560565
 20
0.0000000000000128
 30
0.0
 10
-5.01056648600259
 20
0.000000000000013
 30
0.0
  0
LINE
  5
12C00
330
12BBD
100
AcDbEntity
  8
0
100
AcDbLine
 10
-7.500000000000017
 20
1.500000000000014
 30
0.0
 11
-5.858281349222914
 21
1.500000000000013
 31
0.0
  0
LINE
  5
12C01
330
12BBD
100
AcDbEntity
  8
0
100
AcDbLine
 10
-12.50000000000001
 20
1.500000000000015
 30
0.0
 11
-7.500000000000017
 21
1.500000000000014
 31
0.0
  0
LINE
  5
12C02
330
12BBD
100
AcDbEntity
  8
0
100
AcDbLine
 10
-14.14171865077712
 20
1.500000000000015
 30
0.0
 11
-12.50000000000002
 21
1.500000000000015
 31
0.0
  0
ELLIPSE
  5
12C03
330
12BBD
100
AcDbEntity
  8
0
100
AcDbEllipse
 10
7.499999999999982
 20
0.1668158657389941
 30
0.0
 11
-2.5
 21
0.0000000000000003
 31
0.0
210
0.0
220
0.0
230
1.0
 40
0.7071067811865475
 41
4.712388980384689
 42
6.026811980161137
  0
LINE
  5
12C04
330
12BBD
100
AcDbEntity
  8
0
100
AcDbLine
 10
7.499999999999982
 20
1.934582818705343
 30
0.0
 11
12.49999999999998
 21
1.934582818705342
 31
0.0
  0
ELLIPSE
  5
12C05
330
12BBD
100
AcDbEntity
  8
0
100
AcDbEllipse
 10
12.49999999999998
 20
0.166815865738993
 30
0.0
 11
2.5
 21
-0.0000000000000006
 31
0.0
210
0.0
220
0.0
230
1.0
 40
0.7071067811865472
 41
0.2563733270184496
 42
1.570796326794896
  0
SPLINE
  5
12C06
330
12BBD
100
AcDbEntity
  8
0
100
AcDbSpline
210
0.0
220
0.0
230
1.0
 70
     8
 71
     3
 72
     8
 73
     4
 74
     0
 42
0.000000001
 43
0.0000000001
 40
0.0
 40
0.0
 40
0.0
 40
0.0
 40
1.0
 40
1.0
 40
1.0
 40
1.0
 10
5.010566486002556
 20
0.0000000000000108
 30
0.0
 10
4.983905163560432
 20
0.0000000000000107
 30
0.0
 10
5.008100276979861
 20
0.2358409403970252
 30
0.0
 10
5.081710080392346
 20
0.61507575950826
 30
0.0
  0
LINE
  5
12C07
330
12BBD
100
AcDbEntity
  8
0
100
AcDbLine
 10
5.010566486002554
 20
0.1805170265382422
 30
0.0
 11
5.010566486002554
 21
0.0
 31
0.0
  0
LINE
  5
12C08
330
12BBD
100
AcDbEntity
  8
0
100
AcDbLine
 10
14.98943351399741
 20
0.1805170265382469
 30
0.0
 11
14.98943351399741
 21
0.0
 31
0.0
  0
SPLINE
  5
12C09
330
12BBD
100
AcDbEntity
  8
0
100
AcDbSpline
210
0.0
220
0.0
230
1.0
 70
     8
 71
     3
 72
     8
 73
     4
 74
     0
 42
0.000000001
 43
0.0000000001
 40
0.0
 40
0.0
 40
0.0
 40
0.0
 40
1.0
 40
1.0
 40
1.0
 40
1.0
 10
14.91828991960761
 20
0.6150757595082578
 30
0.0
 10
14.9918997230205
 20
0.2358409403969417
 30
0.0
 10
15.01609483643944
 20
0.0000000000000086
 30
0.0
 10
14.98943351399742
 20
0.0000000000000086
 30
0.0
  0
LINE
  5
12C0A
330
12BBD
100
AcDbEntity
  8
0
100
AcDbLine
 10
12.49999999999998
 20
1.500000000000009
 30
0.0
 11
14.14171865077709
 21
1.500000000000009
 31
0.0
  0
LINE
  5
12C0B
330
12BBD
100
AcDbEntity
  8
0
100
AcDbLine
 10
7.499999999999982
 20
1.50000000000001
 30
0.0
 11
12.49999999999998
 21
1.500000000000008
 31
0.0
  0
LINE
  5
12C0C
330
12BBD
100
AcDbEntity
  8
0
100
AcDbLine
 10
5.858281349222876
 20
1.500000000000011
 30
0.0
 11
7.499999999999981
 21
1.50000000000001
 31
0.0
  0
LINE
  5
12C0D
330
12BBD
100
AcDbEntity
  8
0
100
AcDbLine
 10
47.0
 20
2.099999999999997
 30
0.0
 11
46.99999999999998
 21
4.362741700911197
 31
0.0
  0
LINE
  5
12C0E
330
12BBD
100
AcDbEntity
  8
0
100
AcDbLine
 10
-47.00000000000002
 20
4.362741700911236
 30
0.0
 11
-47.00000000000002
 21
2.100000000000001
 31
0.0
  0
LINE
  5
12C0F
330
12BBD
100
AcDbEntity
  8
0
100
AcDbLine
 10
45.49999999999998
 20
82.00306627385996
 30
0.0
 11
46.99999999999996
 21
82.00306627385996
 31
0.0
  0
LINE
  5
12C10
330
12BBD
100
AcDbEntity
  8
0
100
AcDbLine
 10
-46.99999999999996
 20
82.00306627386
 30
0.0
 11
-45.49999999999998
 21
82.00306627386
 31
0.0
  0
LINE
  5
12C11
330
12BBD
100
AcDbEntity
  8
0
100
AcDbLine
 10
46.99999999999998
 20
56.26437943888955
 30
0.0
 11
46.99999999999999
 21
4.362741700911199
 31
0.0
  0
ELLIPSE
  5
12C12
330
12BBD
100
AcDbEntity
  8
0
100
AcDbEllipse
 10
44.89999999999997
 20
56.26437943888955
 30
0.0
 11
0.6000000000000087
 21
-0.0000000000000547
 31
0.0
210
0.0
220
0.0
230
1.0
 40
0.7071067811866067
 41
4.712388980384931
 42
6.283185307179363
  0
ELLIPSE
  5
12C13
330
12BBD
100
AcDbEntity
  8
0
100
AcDbEllipse
 10
44.89999999999997
 20
56.26437943888955
 30
0.0
 11
2.100000000000031
 21
-0.0000000000002936
 31
0.0
210
0.0
220
0.0
230
1.0
 40
0.7071067811865506
 41
4.712388980384627
 42
6.283185307179239
  0
LINE
  5
12C14
330
12BBD
100
AcDbEntity
  8
0
100
AcDbLine
 10
-47.00000000000003
 20
4.362741700911238
 30
0.0
 11
-47.0
 21
56.26437943888956
 31
0.0
  0
ELLIPSE
  5
12C15
330
12BBD
100
AcDbEntity
  8
0
100
AcDbEllipse
 10
-44.89999999999999
 20
56.26437943888953
 30
0.0
 11
-2.100000000000031
 21
0.0000000000000158
 31
0.0
210
0.0
220
0.0
230
1.0
 40
0.7071067811866067
 41
0.0
 42
1.570796326794889
  0
ELLIPSE
  5
12C16
330
12BBD
100
AcDbEntity
  8
0
100
AcDbEllipse
 10
-44.89999999999999
 20
56.26437943888953
 30
0.0
 11
-0.6000000000000087
 21
0.0000000000001422
 31
0.0
210
0.0
220
0.0
230
1.0
 40
0.7071067811865517
 41
0.0000000000006284
 42
1.57079632679536
  0
ARC
  5
12C17
330
12BBD
100
AcDbEntity
  8
0
100
AcDbCircle
 10
44.89999999999999
 20
2.099999999999989
 30
0.0
 40
0.600000000000005
100
AcDbArc
 50
270.0
 51
343.444434856459
  0
ARC
  5
12C18
330
12BBD
100
AcDbEntity
  8
0
100
AcDbCircle
 10
44.89999999999999
 20
2.099999999999989
 30
0.0
 40
2.100000000000008
100
AcDbArc
 50
343.3984504009799
 51
0.0
  0
ARC
  5
12C19
330
12BBD
100
AcDbEntity
  8
0
100
AcDbCircle
 10
-44.90000000000002
 20
2.100000000000009
 30
0.0
 40
0.599999999999996
100
AcDbArc
 50
196.5555651435438
 51
270.0
  0
ARC
  5
12C1A
330
12BBD
100
AcDbEntity
  8
0
100
AcDbCircle
 10
-44.90000000000002
 20
2.100000000000009
 30
0.0
 40
2.099999999999999
100
AcDbArc
 50
180.0
 51
196.6015495990198
  0
ENDBLK
  5
12BBF
330
12BBD
100
AcDbEntity
  8
0
100
AcDbBlockEnd
  0
BLOCK
  5
12C1C
330
12C1B
100
AcDbEntity
  8
0
100
AcDbBlockBegin
  2
SPR91_160-ISO
 70
     0
 10
0.0
 20
0.0
 30
0.0
  3
SPR91_160-ISO
  1

  0
LINE
  5
12C1E
330
12C1B
100
AcDbEntity
  8
0
100
AcDbLine
 10
90.173963166584
 20
-57.56678354517386
 30
0.0
 11
86.63842926065127
 21
-59.60802499749316
 31
0.0
  0
LINE
  5
12C1F
330
12C1B
100
AcDbEntity
  8
0
100
AcDbLine
 10
91.23462333836384
 20
-56.95441110947806
 30
0.0
 11
90.173963166584
 21
-57.56678354517386
 31
0.0
  0
LINE
  5
12C20
330
12C1B
100
AcDbEntity
  8
0
100
AcDbLine
 10
90.173963166584
 20
-3.678009203943926
 30
0.0
 11
91.23462333836384
 21
-3.065636768248127
 31
0.0
  0
LINE
  5
12C21
330
12C1B
100
AcDbEntity
  8
0
100
AcDbLine
 10
91.23462333836384
 20
-3.065636768248127
 30
0.0
 11
87.69908943243109
 21
3.058087588709827
 31
0.0
  0
LINE
  5
12C22
330
12C1B
100
AcDbEntity
  8
0
100
AcDbLine
 10
-30.77960825509415
 20
8.183310569940003
 30
0.0
 11
-34.31514216102689
 21
14.30703492689795
 31
0.0
  0
LINE
  5
12C23
330
12C1B
100
AcDbEntity
  8
0
100
AcDbLine
 10
86.63842926065127
 20
2.445715153014029
 30
0.0
 11
90.173963166584
 21
-3.678009203943926
 31
0.0
  0
LINE
  5
12C24
330
12C1B
100
AcDbEntity
  8
0
100
AcDbLine
 10
87.69908943243109
 20
3.058087588709827
 30
0.0
 11
86.63842926065127
 21
2.445715153014029
 31
0.0
  0
LINE
  5
12C25
330
12C1B
100
AcDbEntity
  8
0
100
AcDbLine
 10
91.23462333836384
 20
-3.065636768248127
 30
0.0
 11
91.23462333836384
 21
-56.95441110947806
 31
0.0
  0
LINE
  5
12C26
330
12C1B
100
AcDbEntity
  8
0
100
AcDbLine
 10
90.173963166584
 20
-3.678009203943926
 30
0.0
 11
90.173963166584
 21
-57.56678354517385
 31
0.0
  0
LINE
  5
12C27
330
12C1B
100
AcDbEntity
  8
0
100
AcDbLine
 10
-5.304608212989205
 20
56.7537974599238
 30
0.0
 11
-0.7084141352766249
 21
54.10018357190867
 31
0.0
  0
LINE
  5
12C28
330
12C1B
100
AcDbEntity
  8
0
100
AcDbLine
 10
60.10276904676648
 20
18.99083059201644
 30
0.0
 11
87.69908943243109
 21
3.058087588709827
 31
0.0
  0
LINE
  5
12C29
330
12C1B
100
AcDbEntity
  8
0
100
AcDbLine
 10
-34.31514216102689
 20
14.30703492689795
 30
0.0
 11
-34.31514216102689
 21
44.51740842122382
 31
0.0
  0
LINE
  5
12C2A
330
12C1B
100
AcDbEntity
  8
0
100
AcDbLine
 10
59.04210887498663
 20
18.37845815632065
 30
0.0
 11
86.63842926065127
 21
2.445715153014029
 31
0.0
  0
LINE
  5
12C2B
330
12C1B
100
AcDbEntity
  8
0
100
AcDbLine
 10
-1.769074307056448
 20
-8.565929014294344
 30
0.0
 11
-30.77960825509415
 21
8.183310569940003
 31
0.0
  0
LINE
  5
12C2C
330
12C1B
100
AcDbEntity
  8
0
100
AcDbLine
 10
86.63842926065127
 20
-59.60802499749316
 30
0.0
 11
57.62789531261356
 21
-42.85878541325884
 31
0.0
  0
LINE
  5
12C2D
330
12C1B
100
AcDbEntity
  8
0
100
AcDbLine
 10
-6.365268384769025
 20
56.141425024228
 30
0.0
 11
-1.769074307056444
 21
53.48781113621289
 31
0.0
  0
LINE
  5
12C2E
330
12C1B
100
AcDbEntity
  8
0
100
AcDbLine
 10
-0.7084141352766249
 20
54.10018357190867
 30
0.0
 11
-1.769074307056444
 21
53.48781113621289
 31
0.0
  0
ELLIPSE
  5
12C2F
330
12C1B
100
AcDbEntity
  8
0
100
AcDbEllipse
 10
-1.769074307056444
 20
54.71255600760446
 30
0.0
 11
0.7500000000000004
 21
-1.299038105676658
 31
0.0
210
0.0
220
0.0
230
0.9999999999999998
 40
0.5773502691896259
 41
5.497787143782137
 42
8.63937979737193
  0
ELLIPSE
  5
12C30
330
12C1B
100
AcDbEntity
  8
0
100
AcDbEllipse
 10
54.09236140668084
 20
81.65694317821939
 30
0.0
 11
1.250000000000129
 21
-2.165063509461022
 31
0.0
210
0.0
220
0.0
230
1.0
 40
0.577350269189626
 41
3.579741684173546
 42
4.45499790501619
  0
ELLIPSE
  5
12C31
330
12C1B
100
AcDbEntity
  8
0
100
AcDbEllipse
 10
54.09236140668082
 20
16.3372167040013
 30
0.0
 11
1.25
 21
-2.165063509461097
 31
0.0
210
0.0
220
0.0
230
1.0
 40
0.577350269189626
 41
4.999145532596207
 42
5.845036276595419
  0
ELLIPSE
  5
12C32
330
12C1B
100
AcDbEntity
  8
0
100
AcDbEllipse
 10
53.03170123490101
 20
81.04457074252358
 30
0.0
 11
-1.25
 21
2.165063509461097
 31
0.0
210
0.0
220
0.0
230
1.0
 40
0.5773502691896259
 41
4.969780055752986
 42
7.596590558606176
  0
ELLIPSE
  5
12C33
330
12C1B
100
AcDbEntity
  8
0
100
AcDbEllipse
 10
53.03170123490099
 20
15.7248442683055
 30
0.0
 11
1.25
 21
-2.165063509461097
 31
0.0
210
0.0
220
0.0
230
0.9999999999999998
 40
0.5773502691896259
 41
4.999145532596201
 42
7.567225081762964
  0
ELLIPSE
  5
12C34
330
12C1B
100
AcDbEntity
  8
0
100
AcDbEllipse
 10
54.09236140668081
 20
-16.32264653310774
 30
0.0
 11
1.250000000000129
 21
-2.165063509461022
 31
0.0
210
0.0
220
0.0
230
1.0
 40
0.5773502691896259
 41
3.579741684173548
 42
5.845036276594999
  0
ELLIPSE
  5
12C35
330
12C1B
100
AcDbEntity
  8
0
100
AcDbEllipse
 10
53.03170123490099
 20
-16.93501896880354
 30
0.0
 11
1.25
 21
-2.165063509461097
 31
0.0
210
0.0
220
0.0
230
1.0
 40
0.5773502691896259
 41
0.0
 42
6.283185307179586
  0
ELLIPSE
  5
12C36
330
12C1B
100
AcDbEntity
  8
0
100
AcDbEllipse
 10
47.02129359481533
 20
4.089767990085411
 30
0.0
 11
1.250000000000129
 21
-2.165063509461022
 31
0.0
210
0.0
220
0.0
230
1.0
 40
0.577350269189626
 41
3.579741684173548
 42
5.845036276594998
  0
ELLIPSE
  5
12C37
330
12C1B
100
AcDbEntity
  8
0
100
AcDbEllipse
 10
45.96063342303551
 20
3.477395554389612
 30
0.0
 11
1.25
 21
-2.165063509461097
 31
0.0
210
0.0
220
0.0
230
1.0
 40
0.5773502691896259
 41
0.0
 42
6.283185307179586
  0
ELLIPSE
  5
12C38
330
12C1B
100
AcDbEntity
  8
0
100
AcDbEllipse
 10
47.02129359481533
 20
-28.57009524702364
 30
0.0
 11
1.250000000000129
 21
-2.165063509461022
 31
0.0
210
0.0
220
0.0
230
1.0
 40
0.577350269189626
 41
3.579741684173548
 42
5.845036276594999
  0
ELLIPSE
  5
12C39
330
12C1B
100
AcDbEntity
  8
0
100
AcDbEllipse
 10
45.96063342303551
 20
-29.18246768271944
 30
0.0
 11
1.25
 21
-2.165063509461097
 31
0.0
210
0.0
220
0.0
230
1.0
 40
0.5773502691896259
 41
0.0
 42
6.283185307179586
  0
ELLIPSE
  5
12C3A
330
12C1B
100
AcDbEntity
  8
0
100
AcDbEllipse
 10
10.95884775430142
 20
106.560088896515
 30
0.0
 11
1.250000000000129
 21
-2.165063509461022
 31
0.0
210
0.0
220
0.0
230
1.0
 40
0.577350269189626
 41
3.579741684173546
 42
5.845036276594998
  0
ELLIPSE
  5
12C3B
330
12C1B
100
AcDbEntity
  8
0
100
AcDbEllipse
 10
10.95884775430142
 20
73.90022565940601
 30
0.0
 11
1.250000000000129
 21
-2.165063509461022
 31
0.0
210
0.0
220
0.0
230
1.0
 40
0.577350269189626
 41
3.579741684173546
 42
5.845036276594998
  0
ELLIPSE
  5
12C3C
330
12C1B
100
AcDbEntity
  8
0
100
AcDbEllipse
 10
10.95884775430141
 20
41.24036242229696
 30
0.0
 11
1.250000000000129
 21
-2.165063509461022
 31
0.0
210
0.0
220
0.0
230
1.0
 40
0.577350269189626
 41
3.579741684173546
 42
5.845036276594995
  0
ELLIPSE
  5
12C3D
330
12C1B
100
AcDbEntity
  8
0
100
AcDbEllipse
 10
9.898187582521597
 20
105.9477164608192
 30
0.0
 11
1.25
 21
-2.165063509461097
 31
0.0
210
0.0
220
0.0
230
1.0
 40
0.5773502691896259
 41
0.0
 42
6.283185307179586
  0
ELLIPSE
  5
12C3E
330
12C1B
100
AcDbEntity
  8
0
100
AcDbEllipse
 10
9.898187582521595
 20
73.28785322371022
 30
0.0
 11
1.25
 21
-2.165063509461097
 31
0.0
210
0.0
220
0.0
230
1.0
 40
0.5773502691896259
 41
0.0
 42
6.283185307179586
  0
ELLIPSE
  5
12C3F
330
12C1B
100
AcDbEntity
  8
0
100
AcDbEllipse
 10
9.898187582521593
 20
40.62798998660116
 30
0.0
 11
1.25
 21
-2.165063509461097
 31
0.0
210
0.0
220
0.0
230
1.0
 40
0.5773502691896259
 41
0.0
 42
6.283185307179586
  0
ELLIPSE
  5
12C40
330
12C1B
100
AcDbEntity
  8
0
100
AcDbEllipse
 10
10.95884775430141
 20
8.58049918518791
 30
0.0
 11
1.250000000000129
 21
-2.165063509461022
 31
0.0
210
0.0
220
0.0
230
1.0
 40
0.5773502691896259
 41
3.579741684173548
 42
5.845036276594996
  0
ELLIPSE
  5
12C41
330
12C1B
100
AcDbEntity
  8
0
100
AcDbEllipse
 10
9.898187582521591
 20
7.968126749492112
 30
0.0
 11
1.25
 21
-2.165063509461097
 31
0.0
210
0.0
220
0.0
230
1.0
 40
0.5773502691896259
 41
0.0
 42
6.283185307179586
  0
ELLIPSE
  5
12C42
330
12C1B
100
AcDbEntity
  8
0
100
AcDbEllipse
 10
3.887779942435942
 20
94.31264018259916
 30
0.0
 11
1.250000000000129
 21
-2.165063509461022
 31
0.0
210
0.0
220
0.0
230
1.0
 40
0.577350269189626
 41
3.579741684173546
 42
5.845036276595
  0
ELLIPSE
  5
12C43
330
12C1B
100
AcDbEntity
  8
0
100
AcDbEllipse
 10
3.887779942435938
 20
61.65277694549011
 30
0.0
 11
1.250000000000129
 21
-2.165063509461022
 31
0.0
210
0.0
220
0.0
230
1.0
 40
0.577350269189626
 41
3.579741684173546
 42
5.845036276595
  0
ELLIPSE
  5
12C44
330
12C1B
100
AcDbEntity
  8
0
100
AcDbEllipse
 10
3.887779942435938
 20
28.99291370838107
 30
0.0
 11
1.250000000000129
 21
-2.165063509461022
 31
0.0
210
0.0
220
0.0
230
1.0
 40
0.577350269189626
 41
3.579741684173544
 42
5.845036276594996
  0
ELLIPSE
  5
12C45
330
12C1B
100
AcDbEntity
  8
0
100
AcDbEllipse
 10
2.827119770656119
 20
93.70026774690337
 30
0.0
 11
1.25
 21
-2.165063509461097
 31
0.0
210
0.0
220
0.0
230
1.0
 40
0.5773502691896259
 41
0.0
 42
6.283185307179586
  0
ELLIPSE
  5
12C46
330
12C1B
100
AcDbEntity
  8
0
100
AcDbEllipse
 10
2.827119770656114
 20
61.04040450979432
 30
0.0
 11
1.25
 21
-2.165063509461097
 31
0.0
210
0.0
220
0.0
230
1.0
 40
0.5773502691896259
 41
0.0
 42
6.283185307179586
  0
ELLIPSE
  5
12C47
330
12C1B
100
AcDbEntity
  8
0
100
AcDbEllipse
 10
2.827119770656114
 20
28.38054127268527
 30
0.0
 11
1.25
 21
-2.165063509461097
 31
0.0
210
0.0
220
0.0
230
1.0
 40
0.5773502691896259
 41
0.0
 42
6.283185307179586
  0
ELLIPSE
  5
12C48
330
12C1B
100
AcDbEntity
  8
0
100
AcDbEllipse
 10
3.887779942435933
 20
-3.666949528727982
 30
0.0
 11
1.250000000000129
 21
-2.165063509461022
 31
0.0
210
0.0
220
0.0
230
1.0
 40
0.577350269189626
 41
3.579741684173548
 42
5.845036276594999
  0
ELLIPSE
  5
12C49
330
12C1B
100
AcDbEntity
  8
0
100
AcDbEllipse
 10
2.82711977065611
 20
-4.279321964423781
 30
0.0
 11
1.25
 21
-2.165063509461097
 31
0.0
210
0.0
220
0.0
230
1.0
 40
0.5773502691896259
 41
0.0
 42
6.283185307179586
  0
ELLIPSE
  5
12C4A
330
12C1B
100
AcDbEntity
  8
0
100
AcDbEllipse
 10
-12.39483194424391
 20
54.72361568282039
 30
0.0
 11
1.25
 21
-2.165063509461097
 31
0.0
210
0.0
220
0.0
230
1.0
 40
0.5773502691896259
 41
5.508682942395983
 42
5.845036276595417
  0
ELLIPSE
  5
12C4B
330
12C1B
100
AcDbEntity
  8
0
100
AcDbEllipse
 10
66.13233260624138
 20
9.385936090899683
 30
0.0
 11
1.250000000000129
 21
-2.165063509461022
 31
0.0
210
0.0
220
0.0
230
1.0
 40
0.5773502691896259
 41
3.579741684173546
 42
5.845036276594998
  0
ELLIPSE
  5
12C4C
330
12C1B
100
AcDbEntity
  8
0
100
AcDbEllipse
 10
-13.45549211602373
 20
54.1112432471246
 30
0.0
 11
1.25
 21
-2.165063509461097
 31
0.0
210
0.0
220
0.0
230
0.9999999999999998
 40
0.5773502691896259
 41
5.508682942395981
 42
7.057687671963186
  0
ELLIPSE
  5
12C4D
330
12C1B
100
AcDbEntity
  8
0
100
AcDbEllipse
 10
65.07167243446154
 20
8.773563655203888
 30
0.0
 11
1.25
 21
-2.165063509461097
 31
0.0
210
0.0
220
0.0
230
1.0
 40
0.5773502691896259
 41
0.0
 42
6.283185307179586
  0
ELLIPSE
  5
12C4E
330
12C1B
100
AcDbEntity
  8
0
100
AcDbEllipse
 10
-8.152191257124608
 20
19.61426270292817
 30
0.0
 11
1.250000000000129
 21
-2.165063509461022
 31
0.0
210
0.0
220
0.0
230
0.9999999999999998
 40
0.5773502691896259
 41
3.579741684173544
 42
5.845036276594996
  0
ELLIPSE
  5
12C4F
330
12C1B
100
AcDbEntity
  8
0
100
AcDbEllipse
 10
70.37497329336066
 20
-25.72341688899256
 30
0.0
 11
1.250000000000129
 21
-2.165063509461022
 31
0.0
210
0.0
220
0.0
230
0.9999999999999998
 40
0.5773502691896259
 41
3.579741684173546
 42
5.845036276594997
  0
ELLIPSE
  5
12C50
330
12C1B
100
AcDbEntity
  8
0
100
AcDbEllipse
 10
-9.212851428904432
 20
19.00189026723237
 30
0.0
 11
1.25
 21
-2.165063509461097
 31
0.0
210
0.0
220
0.0
230
1.0
 40
0.5773502691896259
 41
0.0
 42
6.283185307179586
  0
ELLIPSE
  5
12C51
330
12C1B
100
AcDbEntity
  8
0
100
AcDbEllipse
 10
69.31431312158084
 20
-26.33578932468835
 30
0.0
 11
1.25
 21
-2.165063509461097
 31
0.0
210
0.0
220
0.0
230
1.0
 40
0.5773502691896259
 41
0.0
 42
6.283185307179586
  0
ELLIPSE
  5
12C52
330
12C1B
100
AcDbEntity
  8
0
100
AcDbEllipse
 10
48.78906054778171
 20
-37.75568178246054
 30
0.0
 11
1.250000000000129
 21
-2.165063509461022
 31
0.0
210
0.0
220
0.0
230
0.9999999999999998
 40
0.577350269189626
 41
3.579741684173548
 42
3.835017178248603
  0
ELLIPSE
  5
12C53
330
12C1B
100
AcDbEntity
  8
0
100
AcDbEllipse
 10
9.191080801335047
 20
-14.89377751648421
 30
0.0
 11
1.250000000000129
 21
-2.165063509461021
 31
0.0
210
0.0
220
0.0
230
1.0
 40
0.5773502691896259
 41
3.579741684173544
 42
3.835017178248602
  0
SPLINE
  5
12C54
330
12C1B
100
AcDbEntity
  8
0
100
AcDbSpline
210
0.0
220
0.0
230
1.0
 70
     8
 71
     3
 72
     8
 73
     4
 74
     0
 42
0.000000001
 43
0.0000000001
 40
0.0
 40
0.0
 40
0.0
 40
0.0
 40
1.0
 40
1.0
 40
1.0
 40
1.0
 10
47.02876522872108
 20
-36.55189897768539
 30
0.0
 10
47.00991282682672
 20
-36.99179983233597
 30
0.0
 10
46.86025662736099
 20
-37.54996544493138
 30
0.0
 10
46.64414710626034
 20
-38.0444824210957
 30
0.0
  0
ELLIPSE
  5
12C55
330
12C1B
100
AcDbEntity
  8
0
100
AcDbEllipse
 10
8.323124171461518
 20
-15.18782417280847
 30
0.0
 11
-1.249999999999996
 21
-2.165063509461098
 31
0.0
210
0.0
220
0.0
230
0.9999999999999998
 40
0.8164965809277262
 41
4.968762307403137
 42
7.597608306956033
  0
ELLIPSE
  5
12C56
330
12C1B
100
AcDbEntity
  8
0
100
AcDbEllipse
 10
47.92110391790818
 20
-38.04972843878481
 30
0.0
 11
-1.249999999999997
 21
-2.165063509461098
 31
0.0
210
0.0
220
0.0
230
0.9999999999999998
 40
0.8164965809277264
 41
4.968762307403137
 42
7.597608306956033
  0
SPLINE
  5
12C57
330
12C1B
100
AcDbEntity
  8
0
100
AcDbSpline
210
0.0
220
0.0
230
1.0
 70
     8
 71
     3
 72
     8
 73
     4
 74
     0
 42
0.000000001
 43
0.0000000001
 40
-1.0
 40
-1.0
 40
-1.0
 40
-1.0
 40
0.0
 40
0.0
 40
0.0
 40
0.0
 10
45.89414710626035
 20
-37.61146971920348
 30
0.0
 10
45.91871411860696
 20
-37.44871410001035
 30
0.0
 10
45.94925265504691
 20
-37.28218277234665
 30
0.0
 10
45.96810505694126
 20
-37.16427141338118
 30
0.0
  0
SPLINE
  5
12C58
330
12C1B
100
AcDbEntity
  8
0
100
AcDbSpline
210
0.0
220
0.0
230
1.0
 70
     8
 71
     3
 72
     8
 73
     4
 74
     0
 42
0.000000001
 43
0.0000000001
 40
-1.0
 40
-1.0
 40
-1.0
 40
-1.0
 40
0.0
 40
0.0
 40
0.0
 40
0.0
 10
9.89071594861585
 20
-16.33498110003063
 30
0.0
 10
9.90956835051036
 20
-16.47466133761334
 30
0.0
 10
9.84481275652946
 20
-16.62143743789481
 30
0.0
 10
9.716145761872914
 20
-16.72409090427875
 30
0.0
  0
ELLIPSE
  5
12C59
330
12C1B
100
AcDbEntity
  8
0
100
AcDbEllipse
 10
9.073124171461508
 20
-15.62083687470068
 30
0.0
 11
-1.249999999999999
 21
-2.165063509461098
 31
0.0
210
0.0
220
0.0
230
0.9999999999999998
 40
0.816496580927726
 41
4.968762307403139
 42
6.069429174707152
  0
LINE
  5
12C5A
330
12C1B
100
AcDbEntity
  8
0
100
AcDbLine
 10
7.046167359813675
 20
-15.18257815511936
 30
0.0
 11
6.545917359913357
 21
-14.8937586830148
 31
0.0
  0
LINE
  5
12C5B
330
12C1B
100
AcDbEntity
  8
0
100
AcDbLine
 10
6.545917359913357
 20
-14.8937586830148
 30
0.0
 11
6.296167359813673
 21
-14.74956545322714
 31
0.0
  0
LINE
  5
12C5C
330
12C1B
100
AcDbEntity
  8
0
100
AcDbLine
 10
6.370125310494585
 20
-14.30236714740484
 30
0.0
 11
6.723325148066074
 21
-14.09844712610521
 31
0.0
  0
SPLINE
  5
12C5D
330
12C1B
100
AcDbEntity
  8
0
100
AcDbSpline
210
0.0
220
0.0
230
1.0
 70
     8
 71
     3
 72
     8
 73
     4
 74
     0
 42
0.000000001
 43
0.0000000001
 40
-1.0
 40
-1.0
 40
-1.0
 40
-1.0
 40
0.0
 40
0.0
 40
0.0
 40
0.0
 10
6.296167359813664
 20
-14.74956545322713
 30
0.0
 10
6.320734372160567
 20
-14.58680983403415
 30
0.0
 10
6.351272908600789
 20
-14.42027850637062
 30
0.0
 10
6.370125310494594
 20
-14.30236714740484
 30
0.0
  0
SPLINE
  5
12C5E
330
12C1B
100
AcDbEntity
  8
0
100
AcDbSpline
210
0.0
220
0.0
230
1.0
 70
     8
 71
     3
 72
     8
 73
     4
 74
     0
 42
0.000000001
 43
0.0000000001
 40
0.0
 40
0.0
 40
0.0
 40
0.0
 40
1.0
 40
1.0
 40
1.0
 40
1.0
 10
7.430785482274413
 20
-13.68999471170905
 30
0.0
 10
7.411933080380608
 20
-14.12989556635993
 30
0.0
 10
7.262276880914613
 20
-14.68806117895517
 30
0.0
 10
7.046167359813666
 20
-15.18257815511935
 30
0.0
  0
LINE
  5
12C5F
330
12C1B
100
AcDbEntity
  8
0
100
AcDbLine
 10
6.723325148066074
 20
-14.09844712610521
 30
0.0
 11
7.430785482274409
 21
-13.68999471170905
 31
0.0
  0
ELLIPSE
  5
12C60
330
12C1B
100
AcDbEntity
  8
0
100
AcDbEllipse
 10
8.130420629555224
 20
-15.50614995218
 30
0.0
 11
-1.249999999999999
 21
2.165063509461097
 31
0.0
210
0.0
220
0.0
230
0.9999999999999998
 40
0.5773502691896259
 41
4.018964455725524
 42
6.976609831838751
  0
ELLIPSE
  5
12C61
330
12C1B
100
AcDbEntity
  8
0
100
AcDbEllipse
 10
48.67110391790816
 20
-38.48274114067702
 30
0.0
 11
-1.249999999999998
 21
-2.165063509461098
 31
0.0
210
0.0
220
0.0
230
0.9999999999999998
 40
0.816496580927726
 41
4.968762307403135
 42
6.069429174707154
  0
LINE
  5
12C62
330
12C1B
100
AcDbEntity
  8
0
100
AcDbLine
 10
46.64414710626032
 20
-38.04448242109568
 30
0.0
 11
46.14389710636302
 21
-37.75566294899287
 31
0.0
  0
LINE
  5
12C63
330
12C1B
100
AcDbEntity
  8
0
100
AcDbLine
 10
46.14389710636302
 20
-37.75566294899287
 30
0.0
 11
45.89414710626032
 21
-37.61146971920346
 31
0.0
  0
LINE
  5
12C64
330
12C1B
100
AcDbEntity
  8
0
100
AcDbLine
 10
45.96810505694125
 20
-37.16427141338118
 30
0.0
 11
46.32130489453577
 21
-36.96035139206825
 31
0.0
  0
LINE
  5
12C65
330
12C1B
100
AcDbEntity
  8
0
100
AcDbLine
 10
46.32130489453577
 20
-36.96035139206825
 30
0.0
 11
47.02876522872108
 21
-36.55189897768538
 31
0.0
  0
SPLINE
  5
12C66
330
12C1B
100
AcDbEntity
  8
0
100
AcDbSpline
210
0.0
220
0.0
230
1.0
 70
     8
 71
     3
 72
     8
 73
     4
 74
     0
 42
0.000000001
 43
0.0000000001
 40
-1.0
 40
-1.0
 40
-1.0
 40
-1.0
 40
0.0
 40
0.0
 40
0.0
 40
0.0
 10
49.48869569506252
 20
-39.19688536600696
 30
0.0
 10
49.50754809695725
 20
-39.33656560358981
 30
0.0
 10
49.44279250297527
 20
-39.48334170387063
 30
0.0
 10
49.31412550831961
 20
-39.5859951702551
 30
0.0
  0
ELLIPSE
  5
12C67
330
12C1B
100
AcDbEntity
  8
0
100
AcDbEllipse
 10
47.72840037600189
 20
-38.36805421815634
 30
0.0
 11
-1.25
 21
2.165063509461097
 31
0.0
210
0.0
220
0.0
230
1.0
 40
0.5773502691896259
 41
4.018964455725523
 42
6.976609831838752
  0
ELLIPSE
  5
12C68
330
12C1B
100
AcDbEntity
  8
0
100
AcDbEllipse
 10
34.29337153345749
 20
-29.38659182795135
 30
0.0
 11
1.250000000000129
 21
-2.165063509461022
 31
0.0
210
0.0
220
0.0
230
0.9999999999999998
 40
0.5773502691896259
 41
3.579741684173546
 42
3.835017178248601
  0
ELLIPSE
  5
12C69
330
12C1B
100
AcDbEntity
  8
0
100
AcDbEllipse
 10
20.15123590972653
 20
-21.22162601867409
 30
0.0
 11
1.250000000000129
 21
-2.165063509461022
 31
0.0
210
0.0
220
0.0
230
0.9999999999999998
 40
0.577350269189626
 41
3.579741684173548
 42
3.835017178248603
  0
ELLIPSE
  5
12C6A
330
12C1B
100
AcDbEntity
  8
0
100
AcDbEllipse
 10
20.03327927985299
 20
-21.94868537689057
 30
0.0
 11
-1.249999999999999
 21
-2.165063509461097
 31
0.0
210
0.0
220
0.0
230
1.0
 40
0.816496580927726
 41
4.968762307403139
 42
6.283185307179586
  0
LINE
  5
12C6B
330
12C1B
100
AcDbEntity
  8
0
100
AcDbLine
 10
18.00632246820515
 20
-21.51042665730923
 30
0.0
 11
17.50607246830679
 21
-21.2216071852058
 31
0.0
  0
LINE
  5
12C6C
330
12C1B
100
AcDbEntity
  8
0
100
AcDbLine
 10
17.50607246830679
 20
-21.2216071852058
 30
0.0
 11
17.25632246820515
 21
-21.07741395541701
 31
0.0
  0
ELLIPSE
  5
12C6D
330
12C1B
100
AcDbEntity
  8
0
100
AcDbEllipse
 10
19.283279279853
 20
-21.51567267499835
 30
0.0
 11
-1.249999999999999
 21
-2.165063509461097
 31
0.0
210
0.0
220
0.0
230
1.0
 40
0.816496580927726
 41
4.968762307403139
 42
6.283185307179586
  0
LINE
  5
12C6E
330
12C1B
100
AcDbEntity
  8
0
100
AcDbLine
 10
21.56881318578574
 20
-25.72197763677877
 30
0.0
 11
18.033279279853
 21
-23.68073618445945
 31
0.0
  0
ELLIPSE
  5
12C6F
330
12C1B
100
AcDbEntity
  8
0
100
AcDbEllipse
 10
22.81881318578574
 20
-23.55691412731767
 30
0.0
 11
-1.249999999999999
 21
-2.165063509461097
 31
0.0
210
0.0
220
0.0
230
1.0
 40
0.8164965809277262
 41
0.0
 42
1.314422999776446
  0
LINE
  5
12C70
330
12C1B
100
AcDbEntity
  8
0
100
AcDbLine
 10
17.33028041888607
 20
-20.63021564959472
 30
0.0
 11
17.68348025646443
 21
-20.42629562829112
 31
0.0
  0
SPLINE
  5
12C71
330
12C1B
100
AcDbEntity
  8
0
100
AcDbSpline
210
0.0
220
0.0
230
1.0
 70
     8
 71
     3
 72
     8
 73
     4
 74
     0
 42
0.000000001
 43
0.0000000001
 40
-1.0
 40
-1.0
 40
-1.0
 40
-1.0
 40
0.0
 40
0.0
 40
0.0
 40
0.0
 10
17.25632246820515
 20
-21.07741395541701
 30
0.0
 10
17.28088948055187
 20
-20.91465833622392
 30
0.0
 10
17.31142801699209
 20
-20.74812700856038
 30
0.0
 10
17.33028041888607
 20
-20.63021564959472
 30
0.0
  0
SPLINE
  5
12C72
330
12C1B
100
AcDbEntity
  8
0
100
AcDbSpline
210
0.0
220
0.0
230
1.0
 70
     8
 71
     3
 72
     8
 73
     4
 74
     0
 42
0.000000001
 43
0.0000000001
 40
0.0
 40
0.0
 40
0.0
 40
0.0
 40
1.0
 40
1.0
 40
1.0
 40
1.0
 10
18.39094059066589
 20
-20.01784321389892
 30
0.0
 10
18.37208818877192
 20
-20.45774406854964
 30
0.0
 10
18.22243198930593
 20
-21.01590968114491
 30
0.0
 10
18.00632246820515
 20
-21.51042665730923
 30
0.0
  0
LINE
  5
12C73
330
12C1B
100
AcDbEntity
  8
0
100
AcDbLine
 10
17.68348025646443
 20
-20.42629562829112
 30
0.0
 11
18.39094059066589
 21
-20.01784321389893
 31
0.0
  0
SPLINE
  5
12C74
330
12C1B
100
AcDbEntity
  8
0
100
AcDbSpline
210
0.0
220
0.0
230
1.0
 70
     8
 71
     3
 72
     8
 73
     4
 74
     0
 42
0.000000001
 43
0.0000000001
 40
-1.0
 40
-1.0
 40
-1.0
 40
-1.0
 40
0.0
 40
0.0
 40
0.0
 40
0.0
 10
24.38640496294009
 20
-24.70407105453983
 30
0.0
 10
24.40525736483424
 20
-24.84375129212234
 30
0.0
 10
24.34050177085348
 20
-24.990527392404
 30
0.0
 10
24.21183477619715
 20
-25.09318085878795
 30
0.0
  0
ELLIPSE
  5
12C75
330
12C1B
100
AcDbEntity
  8
0
100
AcDbEllipse
 10
22.62610964387945
 20
-23.8752399066892
 30
0.0
 11
1.24999999999987
 21
-2.165063509461171
 31
0.0
210
0.0
220
0.0
230
1.0
 40
0.577350269189626
 41
0.877371802135948
 42
2.356194490192585
  0
LINE
  5
12C76
330
12C1B
100
AcDbEntity
  8
0
100
AcDbLine
 10
19.09057573794671
 20
-19.79275700205057
 30
0.0
 11
22.62610964387945
 21
-21.83399845436988
 31
0.0
  0
ELLIPSE
  5
12C77
330
12C1B
100
AcDbEntity
  8
0
100
AcDbEllipse
 10
19.09057573794671
 20
-21.83399845436988
 30
0.0
 11
-1.250000000000001
 21
2.165063509461096
 31
0.0
210
0.0
220
0.0
230
0.9999999999999998
 40
0.577350269189626
 41
5.497787143782137
 42
6.976609831838752
  0
ELLIPSE
  5
12C78
330
12C1B
100
AcDbEntity
  8
0
100
AcDbEllipse
 10
34.17541490358395
 20
-30.11365118616782
 30
0.0
 11
-1.249999999999999
 21
-2.165063509461097
 31
0.0
210
0.0
220
0.0
230
1.0
 40
0.816496580927726
 41
4.968762307403139
 42
6.283185307179586
  0
LINE
  5
12C79
330
12C1B
100
AcDbEntity
  8
0
100
AcDbLine
 10
32.14845809193611
 20
-29.67539246658649
 30
0.0
 11
31.64820809203656
 21
-29.38657299448238
 31
0.0
  0
LINE
  5
12C7A
330
12C1B
100
AcDbEntity
  8
0
100
AcDbLine
 10
31.64820809203656
 20
-29.38657299448238
 30
0.0
 11
31.39845809193611
 21
-29.24237976469428
 31
0.0
  0
ELLIPSE
  5
12C7B
330
12C1B
100
AcDbEntity
  8
0
100
AcDbEllipse
 10
33.42541490358396
 20
-29.68063848427562
 30
0.0
 11
-1.249999999999999
 21
-2.165063509461097
 31
0.0
210
0.0
220
0.0
230
1.0
 40
0.816496580927726
 41
4.968762307403137
 42
6.283185307179586
  0
LINE
  5
12C7C
330
12C1B
100
AcDbEntity
  8
0
100
AcDbLine
 10
35.7109488095167
 20
-33.88694344605603
 30
0.0
 11
32.17541490358396
 21
-31.84570199373671
 31
0.0
  0
ELLIPSE
  5
12C7D
330
12C1B
100
AcDbEntity
  8
0
100
AcDbEllipse
 10
36.9609488095167
 20
-31.72187993659492
 30
0.0
 11
-1.249999999999997
 21
-2.165063509461098
 31
0.0
210
0.0
220
0.0
230
1.0
 40
0.816496580927726
 41
0.0
 42
1.314422999776447
  0
LINE
  5
12C7E
330
12C1B
100
AcDbEntity
  8
0
100
AcDbLine
 10
31.47241604261703
 20
-28.79518145887198
 30
0.0
 11
31.8256158802058
 21
-28.59126143756237
 31
0.0
  0
SPLINE
  5
12C7F
330
12C1B
100
AcDbEntity
  8
0
100
AcDbSpline
210
0.0
220
0.0
230
1.0
 70
     8
 71
     3
 72
     8
 73
     4
 74
     0
 42
0.000000001
 43
0.0000000001
 40
-1.0
 40
-1.0
 40
-1.0
 40
-1.0
 40
0.0
 40
0.0
 40
0.0
 40
0.0
 10
31.39845809193611
 20
-29.24237976469428
 30
0.0
 10
31.42302510428294
 20
-29.07962414550129
 30
0.0
 10
31.45356364072281
 20
-28.91309281783752
 30
0.0
 10
31.47241604261703
 20
-28.79518145887198
 30
0.0
  0
SPLINE
  5
12C80
330
12C1B
100
AcDbEntity
  8
0
100
AcDbSpline
210
0.0
220
0.0
230
1.0
 70
     8
 71
     3
 72
     8
 73
     4
 74
     0
 42
0.000000001
 43
0.0000000001
 40
0.0
 40
0.0
 40
0.0
 40
0.0
 40
1.0
 40
1.0
 40
1.0
 40
1.0
 10
32.53307621439685
 20
-28.18280902317619
 30
0.0
 10
32.51422381250262
 20
-28.62270987782683
 30
0.0
 10
32.36456761303694
 20
-29.18087549042237
 30
0.0
 10
32.14845809193611
 20
-29.67539246658649
 30
0.0
  0
LINE
  5
12C81
330
12C1B
100
AcDbEntity
  8
0
100
AcDbLine
 10
31.8256158802058
 20
-28.59126143756237
 30
0.0
 11
32.53307621439685
 21
-28.18280902317619
 31
0.0
  0
SPLINE
  5
12C82
330
12C1B
100
AcDbEntity
  8
0
100
AcDbSpline
210
0.0
220
0.0
230
1.0
 70
     8
 71
     3
 72
     8
 73
     4
 74
     0
 42
0.000000001
 43
0.0000000001
 40
-1.0
 40
-1.0
 40
-1.0
 40
-1.0
 40
0.0
 40
0.0
 40
0.0
 40
0.0
 10
38.52854058667105
 20
-32.86903686381709
 30
0.0
 10
38.54739298856521
 20
-33.00871710139957
 30
0.0
 10
38.48263739458479
 20
-33.15549320168142
 30
0.0
 10
38.3539703999281
 20
-33.25814666806521
 30
0.0
  0
ELLIPSE
  5
12C83
330
12C1B
100
AcDbEntity
  8
0
100
AcDbEllipse
 10
36.7682452676104
 20
-32.04020571596646
 30
0.0
 11
1.24999999999987
 21
-2.165063509461171
 31
0.0
210
0.0
220
0.0
230
1.0
 40
0.577350269189626
 41
0.877371802135948
 42
2.356194490192585
  0
LINE
  5
12C84
330
12C1B
100
AcDbEntity
  8
0
100
AcDbLine
 10
33.23271136167767
 20
-27.95772281132783
 30
0.0
 11
36.7682452676104
 21
-29.99896426364714
 31
0.0
  0
ELLIPSE
  5
12C85
330
12C1B
100
AcDbEntity
  8
0
100
AcDbEllipse
 10
33.23271136167767
 20
-29.99896426364714
 30
0.0
 11
-1.25
 21
2.165063509461096
 31
0.0
210
0.0
220
0.0
230
1.0
 40
0.5773502691896261
 41
5.49778714378214
 42
6.976609831838752
  0
LINE
  5
12C86
330
12C1B
100
AcDbEntity
  8
0
100
AcDbLine
 10
60.73916514983439
 20
86.71922197997133
 30
0.0
 11
-2.759023800717601
 21
123.3799184636262
 31
0.0
  0
LINE
  5
12C87
330
12C1B
100
AcDbEntity
  8
0
100
AcDbLine
 10
31.46494440871109
 20
6.539257732868772
 30
0.0
 11
31.46494440871109
 21
64.02061703018069
 31
0.0
  0
LINE
  5
12C88
330
12C1B
100
AcDbEntity
  8
0
100
AcDbLine
 10
30.40428423693127
 20
64.63298946587649
 30
0.0
 11
30.40428423693126
 21
7.15163016856458
 31
0.0
  0
LINE
  5
12C89
330
12C1B
100
AcDbEntity
  8
0
100
AcDbLine
 10
60.73916514983439
 20
19.35825405343392
 30
0.0
 11
35.00047831464385
 21
4.498016280549439
 31
0.0
  0
LINE
  5
12C8A
330
12C1B
100
AcDbEntity
  8
0
100
AcDbLine
 10
35.00047831464387
 20
70.14434138713864
 30
0.0
 11
60.73916514983441
 21
85.00457916002311
 31
0.0
  0
LINE
  5
12C8B
330
12C1B
100
AcDbEntity
  8
0
100
AcDbLine
 10
-35.00309302282417
 20
102.3959563337837
 30
0.0
 11
-35.00309302282417
 21
44.91459703647175
 31
0.0
  0
LINE
  5
12C8C
330
12C1B
100
AcDbEntity
  8
0
100
AcDbLine
 10
-5.7288722817011
 20
123.3799184636262
 30
0.0
 11
-31.46755911689143
 21
108.5196806907416
 31
0.0
  0
LINE
  5
12C8D
330
12C1B
100
AcDbEntity
  8
0
100
AcDbLine
 10
-33.94243285104435
 20
101.7835838980879
 30
0.0
 11
-33.94243285104435
 21
44.30222460077596
 31
0.0
  0
LINE
  5
12C8E
330
12C1B
100
AcDbEntity
  8
0
100
AcDbLine
 10
60.73916514983441
 20
85.00457916002311
 30
0.0
 11
59.67850497805459
 21
85.6169515957189
 31
0.0
  0
LINE
  5
12C8F
330
12C1B
100
AcDbEntity
  8
0
100
AcDbLine
 10
59.67850497805459
 20
85.6169515957189
 30
0.0
 11
33.93981814286403
 21
70.75671382283442
 31
0.0
  0
LINE
  5
12C90
330
12C1B
100
AcDbEntity
  8
0
100
AcDbLine
 10
-3.819683972497429
 20
57.12122092134126
 30
0.0
 11
-1.769074307056444
 21
55.93730087899604
 31
0.0
  0
LINE
  5
12C91
330
12C1B
100
AcDbEntity
  8
0
100
AcDbLine
 10
60.73916514983439
 20
86.71922197997133
 30
0.0
 11
59.67850497805457
 21
86.10684954427552
 31
0.0
  0
LINE
  5
12C92
330
12C1B
100
AcDbEntity
  8
0
100
AcDbLine
 10
-2.759023800717601
 20
123.3799184636262
 30
0.0
 11
-3.819683972497425
 21
122.7675460279304
 31
0.0
  0
LINE
  5
12C93
330
12C1B
100
AcDbEntity
  8
0
100
AcDbLine
 10
-5.7288722817011
 20
123.3799184636262
 30
0.0
 11
-4.668212109921276
 21
122.7675460279304
 31
0.0
  0
LINE
  5
12C94
330
12C1B
100
AcDbEntity
  8
0
100
AcDbLine
 10
-3.819683972497425
 20
122.7675460279304
 30
0.0
 11
59.67850497805457
 21
86.10684954427552
 31
0.0
  0
LINE
  5
12C95
330
12C1B
100
AcDbEntity
  8
0
100
AcDbLine
 10
-30.40689894511161
 20
42.26098314845665
 30
0.0
 11
-4.668212109921281
 21
57.12122092134126
 31
0.0
  0
LINE
  5
12C96
330
12C1B
100
AcDbEntity
  8
0
100
AcDbLine
 10
-30.40689894511161
 20
107.9073082550458
 30
0.0
 11
-4.668212109921276
 21
122.7675460279304
 31
0.0
  0
LINE
  5
12C97
330
12C1B
100
AcDbEntity
  8
0
100
AcDbLine
 10
35.00047831464385
 20
4.498016280549439
 30
0.0
 11
31.46494440871109
 21
6.539257732868772
 31
0.0
  0
LINE
  5
12C98
330
12C1B
100
AcDbEntity
  8
0
100
AcDbLine
 10
31.46494440871109
 20
6.539257732868772
 30
0.0
 11
30.40428423693126
 21
7.151630168564575
 31
0.0
  0
LINE
  5
12C99
330
12C1B
100
AcDbEntity
  8
0
100
AcDbLine
 10
30.40428423693127
 20
64.63298946587649
 30
0.0
 11
31.46494440871109
 21
64.02061703018069
 31
0.0
  0
LINE
  5
12C9A
330
12C1B
100
AcDbEntity
  8
0
100
AcDbLine
 10
31.46494440871109
 20
64.02061703018069
 30
0.0
 11
35.00047831464387
 21
70.14434138713864
 31
0.0
  0
LINE
  5
12C9B
330
12C1B
100
AcDbEntity
  8
0
100
AcDbLine
 10
-30.40689894511161
 20
42.26098314845665
 30
0.0
 11
-33.94243285104435
 21
44.30222460077596
 31
0.0
  0
LINE
  5
12C9C
330
12C1B
100
AcDbEntity
  8
0
100
AcDbLine
 10
-33.94243285104435
 20
44.30222460077596
 30
0.0
 11
-35.00309302282417
 21
44.91459703647175
 31
0.0
  0
LINE
  5
12C9D
330
12C1B
100
AcDbEntity
  8
0
100
AcDbLine
 10
-31.46755911689143
 20
108.5196806907416
 30
0.0
 11
-35.00309302282417
 21
102.3959563337837
 31
0.0
  0
LINE
  5
12C9E
330
12C1B
100
AcDbEntity
  8
0
100
AcDbLine
 10
-35.00309302282417
 20
102.3959563337837
 30
0.0
 11
-33.94243285104435
 21
101.7835838980879
 31
0.0
  0
LINE
  5
12C9F
330
12C1B
100
AcDbEntity
  8
0
100
AcDbLine
 10
35.00047831464387
 20
70.14434138713864
 30
0.0
 11
33.93981814286403
 21
70.75671382283442
 31
0.0
  0
LINE
  5
12CA0
330
12C1B
100
AcDbEntity
  8
0
100
AcDbLine
 10
33.93981814286403
 20
70.75671382283442
 30
0.0
 11
30.40428423693127
 21
64.63298946587649
 31
0.0
  0
LINE
  5
12CA1
330
12C1B
100
AcDbEntity
  8
0
100
AcDbLine
 10
-33.94243285104435
 20
101.7835838980879
 30
0.0
 11
-30.40689894511161
 21
107.9073082550458
 31
0.0
  0
LINE
  5
12CA2
330
12C1B
100
AcDbEntity
  8
0
100
AcDbLine
 10
-30.40689894511161
 20
107.9073082550458
 30
0.0
 11
-31.46755911689143
 21
108.5196806907416
 31
0.0
  0
LINE
  5
12CA3
330
12C1B
100
AcDbEntity
  8
0
100
AcDbLine
 10
4.23916514998984
 20
-102.0120159135124
 30
0.0
 11
4.239165149989876
 21
-96.23851322161613
 31
0.0
  0
LINE
  5
12CA4
330
12C1B
100
AcDbEntity
  8
0
100
AcDbLine
 10
4.239165149989876
 20
-96.23851322161613
 30
0.0
 11
3.178504978210052
 21
-95.62614078592034
 31
0.0
  0
LINE
  5
12CA5
330
12C1B
100
AcDbEntity
  8
0
100
AcDbLine
 10
3.178504978210052
 20
-95.62614078592034
 30
0.0
 11
3.178504978210034
 21
-101.3996434778166
 31
0.0
  0
LINE
  5
12CA6
330
12C1B
100
AcDbEntity
  8
0
100
AcDbLine
 10
3.178504978210034
 20
-101.3996434778166
 30
0.0
 11
4.23916514998984
 21
-102.0120159135124
 31
0.0
  0
LINE
  5
12CA7
330
12C1B
100
AcDbEntity
  8
0
100
AcDbLine
 10
-62.22887228154561
 20
-57.86317391801303
 30
0.0
 11
-62.22887228154558
 21
-63.63667660990929
 31
0.0
  0
LINE
  5
12CA8
330
12C1B
100
AcDbEntity
  8
0
100
AcDbLine
 10
-62.22887228154558
 20
-63.63667660990929
 30
0.0
 11
-61.16821210976578
 21
-64.24904904560508
 31
0.0
  0
LINE
  5
12CA9
330
12C1B
100
AcDbEntity
  8
0
100
AcDbLine
 10
-61.16821210976578
 20
-64.24904904560508
 30
0.0
 11
-61.16821210976578
 21
-58.47554635370883
 31
0.0
  0
LINE
  5
12CAA
330
12C1B
100
AcDbEntity
  8
0
100
AcDbLine
 10
-61.16821210976578
 20
-58.47554635370883
 30
0.0
 11
-62.22887228154561
 21
-57.86317391801303
 31
0.0
  0
ELLIPSE
  5
12CAB
330
12C1B
100
AcDbEntity
  8
0
100
AcDbEllipse
 10
37.12179865820399
 20
64.91876326920086
 30
0.0
 11
1.250000000000128
 21
2.165063509461022
 31
0.0
210
0.0
220
0.0
230
1.0
 40
0.5773502691896258
 41
0.0
 42
6.283185307179586
  0
ELLIPSE
  5
12CAC
330
12C1B
100
AcDbEntity
  8
0
100
AcDbEllipse
 10
37.12179865820399
 20
48.58883165064634
 30
0.0
 11
1.250000000000128
 21
2.165063509461022
 31
0.0
210
0.0
220
0.0
230
1.0
 40
0.5773502691896258
 41
0.0
 42
6.283185307179586
  0
ELLIPSE
  5
12CAD
330
12C1B
100
AcDbEntity
  8
0
100
AcDbEllipse
 10
37.12179865820399
 20
32.25890003209182
 30
0.0
 11
1.250000000000128
 21
2.165063509461022
 31
0.0
210
0.0
220
0.0
230
1.0
 40
0.5773502691896258
 41
0.0
 42
6.283185307179586
  0
ELLIPSE
  5
12CAE
330
12C1B
100
AcDbEntity
  8
0
100
AcDbEllipse
 10
36.06113848642417
 20
65.53113570489665
 30
0.0
 11
1.249999999999879
 21
2.165063509461166
 31
0.0
210
0.0
220
0.0
230
1.0
 40
0.5773502691896317
 41
3.579741684173548
 42
5.845036276595007
  0
ELLIPSE
  5
12CAF
330
12C1B
100
AcDbEntity
  8
0
100
AcDbEllipse
 10
36.06113848642417
 20
49.20120408634213
 30
0.0
 11
1.249999999999879
 21
2.165063509461166
 31
0.0
210
0.0
220
0.0
230
1.0
 40
0.5773502691896317
 41
3.579741684173548
 42
5.845036276595007
  0
ELLIPSE
  5
12CB0
330
12C1B
100
AcDbEntity
  8
0
100
AcDbEllipse
 10
36.06113848642416
 20
32.87127246778761
 30
0.0
 11
1.249999999999879
 21
2.165063509461166
 31
0.0
210
0.0
220
0.0
230
1.0
 40
0.5773502691896317
 41
3.57974168417355
 42
5.84503627659501
  0
ELLIPSE
  5
12CB1
330
12C1B
100
AcDbEntity
  8
0
100
AcDbEllipse
 10
37.12179865820399
 20
15.9289684135373
 30
0.0
 11
1.250000000000128
 21
2.165063509461022
 31
0.0
210
0.0
220
0.0
230
1.0
 40
0.5773502691896258
 41
0.0
 42
6.283185307179586
  0
ELLIPSE
  5
12CB2
330
12C1B
100
AcDbEntity
  8
0
100
AcDbEllipse
 10
36.06113848642416
 20
16.5413408492331
 30
0.0
 11
1.249999999999879
 21
2.165063509461166
 31
0.0
210
0.0
220
0.0
230
1.0
 40
0.5773502691896317
 41
3.57974168417355
 42
5.845036276595008
  0
LINE
  5
12CB3
330
12C1B
100
AcDbEntity
  8
0
100
AcDbLine
 10
60.73916514983439
 20
19.35825405343392
 30
0.0
 11
60.73916514983441
 21
85.00457916002311
 31
0.0
  0
ELLIPSE
  5
12CB4
330
12C1B
100
AcDbEntity
  8
0
100
AcDbEllipse
 10
59.25424090934264
 20
85.86190056999724
 30
0.0
 11
0.6000000000000049
 21
-0.0000000000000001
 31
0.0
210
0.0
220
0.0
230
1.0
 40
0.5773502691896259
 41
5.497787143782192
 42
7.068583470577037
  0
LINE
  5
12CB5
330
12C1B
100
AcDbEntity
  8
0
100
AcDbLine
 10
59.67850497805457
 20
86.10684954427552
 30
0.0
 11
59.67850497805457
 21
85.61695159571888
 31
0.0
  0
ELLIPSE
  5
12CB6
330
12C1B
100
AcDbEntity
  8
0
100
AcDbEllipse
 10
59.25424090934264
 20
85.86190056999724
 30
0.0
 11
2.100000000000008
 21
-0.0000000000000001
 31
0.0
210
0.0
220
0.0
230
1.0
 40
0.5773502691896259
 41
5.497787143782142
 42
7.068583470577032
  0
ELLIPSE
  5
12CB7
330
12C1B
100
AcDbEntity
  8
0
100
AcDbEllipse
 10
59.25424090934264
 20
20.21557546340805
 30
0.0
 11
2.100000000000008
 21
0.0000000000000013
 31
0.0
210
0.0
220
0.0
230
1.0
 40
0.5773502691896259
 41
5.497787143782128
 42
6.283185307179579
  0
LINE
  5
12CB8
330
12C1B
100
AcDbEntity
  8
0
100
AcDbLine
 10
-3.819683972497425
 20
122.7675460279304
 30
0.0
 11
-3.819683972497429
 21
57.12122092134126
 31
0.0
  0
ELLIPSE
  5
12CB9
330
12C1B
100
AcDbEntity
  8
0
100
AcDbEllipse
 10
-4.243948041209351
 20
122.5225970536521
 30
0.0
 11
0.5999999999999961
 21
-0.0000000000000359
 31
0.0
210
0.0
220
0.0
230
1.0
 40
0.577350269189626
 41
0.7853981633976988
 42
2.356194490192605
  0
LINE
  5
12CBA
330
12C1B
100
AcDbEntity
  8
0
100
AcDbLine
 10
-4.668212109921276
 20
122.7675460279304
 30
0.0
 11
-4.668212109921281
 21
57.12122092134126
 31
0.0
  0
ELLIPSE
  5
12CBB
330
12C1B
100
AcDbEntity
  8
0
100
AcDbEllipse
 10
-4.243948041209355
 20
56.87627194706294
 30
0.0
 11
0.5999999999999961
 21
-0.0000000000000359
 31
0.0
210
0.0
220
0.0
230
1.0
 40
0.577350269189626
 41
0.7853981633976908
 42
2.356194490192596
  0
ELLIPSE
  5
12CBC
330
12C1B
100
AcDbEntity
  8
0
100
AcDbEllipse
 10
-4.243948041209351
 20
122.5225970536521
 30
0.0
 11
-2.1
 21
-0.0000000000001249
 31
0.0
210
0.0
220
0.0
230
1.0
 40
0.5773502691896258
 41
3.926990816987004
 42
5.4977871437819
  0
LINE
  5
12CBD
330
12C1B
100
AcDbEntity
  8
0
100
AcDbLine
 10
61.35424090934264
 20
85.86190056999724
 30
0.0
 11
61.35424090934264
 21
20.21557546340806
 31
0.0
  0
ELLIPSE
  5
12CBE
330
12C1B
100
AcDbEntity
  8
0
100
AcDbEllipse
 10
-29.34623877333179
 20
99.21161966816555
 30
0.0
 11
1.24999999999987
 21
2.165063509461171
 31
0.0
210
0.0
220
0.0
230
1.0
 40
0.5773502691896258
 41
3.579741684173544
 42
5.845036276594987
  0
ELLIPSE
  5
12CBF
330
12C1B
100
AcDbEntity
  8
0
100
AcDbEllipse
 10
-29.34623877333179
 20
82.88168804961101
 30
0.0
 11
1.24999999999987
 21
2.165063509461171
 31
0.0
210
0.0
220
0.0
230
1.0
 40
0.5773502691896258
 41
3.579741684173544
 42
5.845036276594987
  0
ELLIPSE
  5
12CC0
330
12C1B
100
AcDbEntity
  8
0
100
AcDbEllipse
 10
-29.34623877333179
 20
66.55175643105649
 30
0.0
 11
1.24999999999987
 21
2.165063509461171
 31
0.0
210
0.0
220
0.0
230
1.0
 40
0.5773502691896258
 41
3.57974168417355
 42
5.845036276594989
  0
ELLIPSE
  5
12CC1
330
12C1B
100
AcDbEntity
  8
0
100
AcDbEllipse
 10
-28.28557860155197
 20
98.59924723246976
 30
0.0
 11
1.250000000000128
 21
2.165063509461022
 31
0.0
210
0.0
220
0.0
230
1.0
 40
0.5773502691896258
 41
0.0
 42
6.283185307179586
  0
ELLIPSE
  5
12CC2
330
12C1B
100
AcDbEntity
  8
0
100
AcDbEllipse
 10
-28.28557860155197
 20
82.26931561391522
 30
0.0
 11
1.250000000000128
 21
2.165063509461022
 31
0.0
210
0.0
220
0.0
230
1.0
 40
0.5773502691896258
 41
0.0
 42
6.283185307179586
  0
ELLIPSE
  5
12CC3
330
12C1B
100
AcDbEntity
  8
0
100
AcDbEllipse
 10
-28.28557860155197
 20
65.9393839953607
 30
0.0
 11
1.250000000000128
 21
2.165063509461022
 31
0.0
210
0.0
220
0.0
230
1.0
 40
0.5773502691896258
 41
0.0
 42
6.283185307179586
  0
ELLIPSE
  5
12CC4
330
12C1B
100
AcDbEntity
  8
0
100
AcDbEllipse
 10
-29.34623877333179
 20
50.22182481250197
 30
0.0
 11
1.24999999999987
 21
2.165063509461171
 31
0.0
210
0.0
220
0.0
230
1.0
 40
0.5773502691896258
 41
3.57974168417355
 42
5.845036276594989
  0
ELLIPSE
  5
12CC5
330
12C1B
100
AcDbEntity
  8
0
100
AcDbEllipse
 10
-28.28557860155197
 20
49.60945237680618
 30
0.0
 11
1.250000000000128
 21
2.165063509461022
 31
0.0
210
0.0
220
0.0
230
1.0
 40
0.5773502691896258
 41
0.0
 42
6.283185307179586
  0
LINE
  5
12CC6
330
12C1B
100
AcDbEntity
  8
0
100
AcDbLine
 10
17.73916514940008
 20
-72.85582732113214
 30
0.0
 11
4.239165149989876
 21
-96.23851322161613
 31
0.0
  0
LINE
  5
12CC7
330
12C1B
100
AcDbEntity
  8
0
100
AcDbLine
 10
16.67850497762013
 20
-72.24345488543628
 30
0.0
 11
3.178504978210052
 21
-95.62614078592034
 31
0.0
  0
LINE
  5
12CC8
330
12C1B
100
AcDbEntity
  8
0
100
AcDbLine
 10
22.43916514983436
 20
-112.5197908126738
 30
0.0
 11
59.13916514904649
 21
-48.95352617626072
 31
0.0
  0
LINE
  5
12CC9
330
12C1B
100
AcDbEntity
  8
0
100
AcDbLine
 10
57.82997683983952
 20
-48.48464152761341
 30
0.0
 11
58.81778618923274
 21
-46.77370554627279
 31
0.0
  0
LINE
  5
12CCA
330
12C1B
100
AcDbEntity
  8
0
100
AcDbLine
 10
22.77289425729012
 20
-112.7124694026994
 30
0.0
 11
22.43916514983459
 21
-112.5197908126735
 31
0.0
  0
LINE
  5
12CCB
330
12C1B
100
AcDbEntity
  8
0
100
AcDbLine
 10
59.81125422635241
 20
-48.56014810725831
 30
0.0
 11
22.77289425729013
 21
-112.7124694026994
 31
0.0
  0
LINE
  5
12CCC
330
12C1B
100
AcDbEntity
  8
0
100
AcDbLine
 10
17.73916514940008
 20
-72.85582732113214
 30
0.0
 11
16.67850497762013
 21
-72.24345488543628
 31
0.0
  0
LINE
  5
12CCD
330
12C1B
100
AcDbEntity
  8
0
100
AcDbLine
 10
59.13916514904649
 20
-48.95352617626072
 30
0.0
 11
17.73916514940008
 21
-72.85582732113214
 31
0.0
  0
LINE
  5
12CCE
330
12C1B
100
AcDbEntity
  8
0
100
AcDbLine
 10
-48.72887228213762
 20
-34.48048801752799
 30
0.0
 11
-7.328872282489022
 21
-10.5781868726576
 31
0.0
  0
ELLIPSE
  5
12CCF
330
12C1B
100
AcDbEntity
  8
0
100
AcDbEllipse
 10
-1.57637076515015
 20
-9.47234810631439
 30
0.0
 11
-0.7499999999999993
 21
-1.299038105676659
 31
0.0
210
0.0
220
0.0
230
1.0
 40
0.8164965809277259
 41
0.0
 42
1.134458255166984
  0
LINE
  5
12CD0
330
12C1B
100
AcDbEntity
  8
0
100
AcDbLine
 10
-2.326370765150147
 20
-10.77138621199103
 30
0.0
 11
-3.947876455359788
 21
-9.835209465255989
 31
0.0
  0
LINE
  5
12CD1
330
12C1B
100
AcDbEntity
  8
0
100
AcDbLine
 10
-3.947876455359788
 20
-9.835209465255989
 30
0.0
 11
-4.680402761319251
 21
-10.11300906261789
 31
0.0
  0
LINE
  5
12CD2
330
12C1B
100
AcDbEntity
  8
0
100
AcDbLine
 10
58.81778618923274
 20
-46.77370554627279
 30
0.0
 11
58.6921045447295
 21
-46.00041935769057
 31
0.0
  0
LINE
  5
12CD3
330
12C1B
100
AcDbEntity
  8
0
100
AcDbLine
 10
58.6921045447295
 20
-46.00041935769057
 30
0.0
 11
57.07059885451986
 21
-45.06424261095553
 31
0.0
  0
ELLIPSE
  5
12CD4
330
12C1B
100
AcDbEntity
  8
0
100
AcDbEllipse
 10
57.82059885451985
 20
-43.76520450527888
 30
0.0
 11
-0.7500000000000001
 21
-1.299038105676659
 31
0.0
210
0.0
220
0.0
230
1.0
 40
0.8164965809277259
 41
5.148727052012596
 42
6.283185307179585
  0
SPLINE
  5
12CD5
330
12C1B
100
AcDbEntity
  8
0
100
AcDbSpline
210
0.0
220
0.0
230
1.0
 70
     8
 71
     3
 72
     8
 73
     4
 74
     0
 42
0.000000001
 43
0.0000000001
 40
0.130246360654275
 40
0.130246360654275
 40
0.130246360654275
 40
0.130246360654275
 40
1.0
 40
1.0
 40
1.0
 40
1.0
 10
57.62218172028399
 20
-42.85597787944545
 30
0.0
 10
57.56935578449537
 20
-43.26539910688208
 30
0.0
 10
57.43774601037997
 20
-43.76331094204856
 30
0.0
 10
57.29234925216459
 20
-44.19222479641906
 30
0.0
  0
SPLINE
  5
12CD6
330
12C1B
100
AcDbEntity
  8
0
100
AcDbSpline
210
0.0
220
0.0
230
1.0
 70
     8
 71
     3
 72
     8
 73
     4
 74
     0
 42
0.000000001
 43
0.0000000001
 40
-1.0
 40
-1.0
 40
-1.0
 40
-1.0
 40
0.0
 40
0.0
 40
0.0
 40
0.0
 10
56.5423492521646
 20
-43.75921209452684
 30
0.0
 10
56.52714061460617
 20
-43.58195716980226
 30
0.0
 10
56.54780379044199
 20
-43.4023591704197
 30
0.0
 10
56.57973520542249
 20
-43.29089893614757
 30
0.0
  0
SPLINE
  5
12CD7
330
12C1B
100
AcDbEntity
  8
0
100
AcDbSpline
210
0.0
220
0.0
230
1.0
 70
     8
 71
     3
 72
     8
 73
     4
 74
     0
 42
0.000000001
 43
0.0000000001
 40
-1.0
 40
-1.0
 40
-1.0
 40
-1.0
 40
0.0
 40
0.0
 40
0.0
 40
0.0
 10
-0.7209141998653746
 20
-10.20835357726424
 30
0.0
 10
-0.6889827848846686
 20
-10.35668503360569
 30
0.0
 10
-0.7709447974933293
 20
-10.50089213307644
 30
0.0
 10
-0.9320563840313811
 20
-10.57634852895535
 30
0.0
  0
LINE
  5
12CD8
330
12C1B
100
AcDbEntity
  8
0
100
AcDbLine
 10
-47.66821211035757
 20
-35.09286045322391
 30
0.0
 11
-48.72887228213762
 21
-34.48048801752799
 31
0.0
  0
LINE
  5
12CD9
330
12C1B
100
AcDbEntity
  8
0
100
AcDbLine
 10
-6.268212110709225
 20
-11.19055930835339
 30
0.0
 11
-47.66821211035757
 21
-35.09286045322391
 31
0.0
  0
LINE
  5
12CDA
330
12C1B
100
AcDbEntity
  8
0
100
AcDbLine
 10
-6.268212110709225
 20
-11.19055930835339
 30
0.0
 11
-6.621411947912672
 21
-10.98663928726623
 31
0.0
  0
LINE
  5
12CDB
330
12C1B
100
AcDbEntity
  8
0
100
AcDbLine
 10
-6.621411947912672
 20
-10.98663928726623
 30
0.0
 11
-7.328872282489031
 21
-10.5781868726576
 31
0.0
  0
SPLINE
  5
12CDC
330
12C1B
100
AcDbEntity
  8
0
100
AcDbSpline
210
0.0
220
0.0
230
1.0
 70
     8
 71
     3
 72
     8
 73
     4
 74
     0
 42
0.000000001
 43
0.0000000001
 40
-1.0
 40
-1.0
 40
-1.0
 40
-1.0
 40
0.0
 40
0.0
 40
0.0
 40
0.0
 10
-4.680402761319233
 20
-10.11300906261788
 30
0.0
 10
-5.190395335119877
 20
-10.48332217985868
 30
0.0
 10
-5.823284051136776
 20
-10.78268117630772
 30
0.0
 10
-6.268212110709221
 20
-11.19055930835338
 30
0.0
  0
SPLINE
  5
12CDD
330
12C1B
100
AcDbEntity
  8
0
100
AcDbSpline
210
0.0
220
0.0
230
1.0
 70
     8
 71
     3
 72
     8
 73
     4
 74
     0
 42
0.000000001
 43
0.0000000001
 40
0.0
 40
0.0
 40
0.0
 40
0.0
 40
0.6081734479693824
 40
0.6081734479693824
 40
0.6081734479693824
 40
0.6081734479693824
 10
-7.328872282489027
 20
-10.5781868726576
 30
0.0
 10
-6.81944969586941
 20
-10.46801429939894
 30
0.0
 10
-6.066700329560759
 20
-10.49832650789531
 30
0.0
 10
-5.315367466358118
 20
-10.52782089794211
 30
0.0
  0
ELLIPSE
  5
12CDE
330
12C1B
100
AcDbEntity
  8
0
100
AcDbEllipse
 10
-1.769074307056444
 20
-9.790673885685921
 30
0.0
 11
0.7499999999999226
 21
-1.299038105676702
 31
0.0
210
0.0
220
0.0
230
0.9999999999999998
 40
0.577350269189626
 41
0.9390757175653323
 42
2.356194490192585
  0
LINE
  5
12CDF
330
12C1B
100
AcDbEntity
  8
0
100
AcDbLine
 10
59.13916514904649
 20
-48.95352617626072
 30
0.0
 11
58.43170481446979
 21
-48.54507376165191
 31
0.0
  0
LINE
  5
12CE0
330
12C1B
100
AcDbEntity
  8
0
100
AcDbLine
 10
58.43170481446979
 20
-48.54507376165191
 30
0.0
 11
58.07850497726663
 21
-48.34115374056492
 31
0.0
  0
LINE
  5
12CE1
330
12C1B
100
AcDbEntity
  8
0
100
AcDbLine
 10
16.67850497762013
 20
-72.24345488543628
 30
0.0
 11
58.07850497726663
 21
-48.34115374056492
 31
0.0
  0
LINE
  5
12CE2
330
12C1B
100
AcDbEntity
  8
0
100
AcDbLine
 10
58.81778618923274
 20
-46.77370554627279
 30
0.0
 11
59.06753618923282
 21
-46.91789877600294
 31
0.0
  0
SPLINE
  5
12CE3
330
12C1B
100
AcDbEntity
  8
0
100
AcDbSpline
210
0.0
220
0.0
230
1.0
 70
     8
 71
     3
 72
     8
 73
     4
 74
     0
 42
0.000000001
 43
0.0000000001
 40
-1.0
 40
-1.0
 40
-1.0
 40
-1.0
 40
0.0
 40
0.0
 40
0.0
 40
0.0
 10
58.07850497726663
 20
-48.34115374056493
 30
0.0
 10
58.52343303683896
 20
-47.93327560851944
 30
0.0
 10
58.75208190924793
 20
-47.40052862954594
 30
0.0
 10
58.81778618923272
 20
-46.7737055462728
 30
0.0
  0
SPLINE
  5
12CE4
330
12C1B
100
AcDbEntity
  8
0
100
AcDbSpline
210
0.0
220
0.0
230
1.0
 70
     8
 71
     3
 72
     8
 73
     4
 74
     0
 42
0.000000001
 43
0.0000000001
 40
0.0
 40
0.0
 40
0.0
 40
0.0
 40
1.0
 40
1.0
 40
1.0
 40
1.0
 10
59.56778618923272
 20
-47.20671824816502
 30
0.0
 10
60.05744227651769
 20
-48.15417878897861
 30
0.0
 10
59.97679229031752
 20
-48.77237296474451
 30
0.0
 10
59.13916514904648
 20
-48.95352617626073
 30
0.0
  0
LINE
  5
12CE5
330
12C1B
100
AcDbEntity
  8
0
100
AcDbLine
 10
59.06753618923282
 20
-46.91789877600294
 30
0.0
 11
59.56778618923274
 21
-47.20671824816501
 31
0.0
  0
ELLIPSE
  5
12CE6
330
12C1B
100
AcDbEntity
  8
0
100
AcDbEllipse
 10
58.57059885451985
 20
-44.19821720717109
 30
0.0
 11
-0.7499999999999997
 21
-1.299038105676659
 31
0.0
210
0.0
220
0.0
230
1.0
 40
0.8164965809277259
 41
5.148727052012596
 42
6.283185307179584
  0
LINE
  5
12CE7
330
12C1B
100
AcDbEntity
  8
0
100
AcDbLine
 10
57.29234925216456
 20
-44.19222479641904
 30
0.0
 11
56.79209925306519
 21
-43.90340532477691
 31
0.0
  0
LINE
  5
12CE8
330
12C1B
100
AcDbEntity
  8
0
100
AcDbLine
 10
56.79209925306519
 20
-43.90340532477691
 30
0.0
 11
56.54234925216456
 21
-43.75921209452683
 31
0.0
  0
LINE
  5
12CE9
330
12C1B
100
AcDbEntity
  8
0
100
AcDbLine
 10
58.6921045447295
 20
-46.00041935769057
 30
0.0
 11
59.44210454472951
 21
-46.4334320595828
 31
0.0
  0
LINE
  5
12CEA
330
12C1B
100
AcDbEntity
  8
0
100
AcDbLine
 10
59.44210454472951
 20
-46.4334320595828
 30
0.0
 11
59.56778618923274
 21
-47.20671824816501
 31
0.0
  0
LINE
  5
12CEB
330
12C1B
100
AcDbEntity
  8
0
100
AcDbLine
 10
56.57973520542249
 20
-43.29089893614756
 30
0.0
 11
56.93293504583735
 21
-43.08697891320631
 31
0.0
  0
LINE
  5
12CEC
330
12C1B
100
AcDbEntity
  8
0
100
AcDbLine
 10
56.93293504583735
 20
-43.08697891320631
 30
0.0
 11
57.4655364825697
 21
-42.7794813303381
 31
0.0
  0
ELLIPSE
  5
12CED
330
12C1B
100
AcDbEntity
  8
0
100
AcDbEllipse
 10
57.62789531261356
 20
-44.08353028465042
 30
0.0
 11
-0.7500000000000007
 21
1.299038105676658
 31
0.0
210
0.0
220
0.0
230
0.9999999999999998
 40
0.5773502691896259
 41
5.497787143782137
 42
6.914905916409349
  0
LINE
  5
12CEE
330
12C1B
100
AcDbEntity
  8
0
100
AcDbLine
 10
22.43916514983436
 20
-112.5197908126738
 30
0.0
 11
4.23916514998984
 21
-102.0120159135124
 31
0.0
  0
LINE
  5
12CEF
330
12C1B
100
AcDbEntity
  8
0
100
AcDbLine
 10
-61.16821210976578
 20
-64.24904904560508
 30
0.0
 11
-42.96821210992127
 21
-74.75682394476649
 31
0.0
  0
LINE
  5
12CF0
330
12C1B
100
AcDbEntity
  8
0
100
AcDbLine
 10
17.25632246820515
 20
-21.07741395541701
 30
0.0
 11
9.716145761872926
 21
-16.72409090427876
 31
0.0
  0
LINE
  5
12CF1
330
12C1B
100
AcDbEntity
  8
0
100
AcDbLine
 10
6.296167359813673
 20
-14.74956545322714
 30
0.0
 11
-0.9320563840313189
 21
-10.57634852895539
 31
0.0
  0
LINE
  5
12CF2
330
12C1B
100
AcDbEntity
  8
0
100
AcDbLine
 10
-42.24394804120933
 20
-75.17497799980168
 30
0.0
 11
3.17850497821003
 21
-101.3996434778166
 31
0.0
  0
LINE
  5
12CF3
330
12C1B
100
AcDbEntity
  8
0
100
AcDbLine
 10
56.54234925216456
 20
-43.75921209452683
 30
0.0
 11
49.31412550831959
 21
-39.58599517025509
 31
0.0
  0
LINE
  5
12CF4
330
12C1B
100
AcDbEntity
  8
0
100
AcDbLine
 10
45.89414710626032
 20
-37.61146971920346
 30
0.0
 11
38.3539703999281
 21
-33.25814666806521
 31
0.0
  0
LINE
  5
12CF5
330
12C1B
100
AcDbEntity
  8
0
100
AcDbLine
 10
31.39845809193611
 20
-29.24237976469428
 30
0.0
 11
24.21183477619715
 21
-25.09318085878795
 31
0.0
  0
LINE
  5
12CF6
330
12C1B
100
AcDbEntity
  8
0
100
AcDbLine
 10
38.52854058667104
 20
-32.86903686381709
 30
0.0
 11
45.96810505694125
 21
-37.16427141338118
 31
0.0
  0
LINE
  5
12CF7
330
12C1B
100
AcDbEntity
  8
0
100
AcDbLine
 10
9.890715948615863
 20
-16.33498110003064
 30
0.0
 11
17.33028041888607
 21
-20.63021564959472
 31
0.0
  0
LINE
  5
12CF8
330
12C1B
100
AcDbEntity
  8
0
100
AcDbLine
 10
24.38640496294009
 20
-24.70407105453983
 30
0.0
 11
31.47241604261703
 21
-28.79518145887198
 31
0.0
  0
LINE
  5
12CF9
330
12C1B
100
AcDbEntity
  8
0
100
AcDbLine
 10
49.48869569506253
 20
-39.19688536600697
 30
0.0
 11
56.57973520542249
 21
-43.29089893614756
 31
0.0
  0
LINE
  5
12CFA
330
12C1B
100
AcDbEntity
  8
0
100
AcDbLine
 10
-0.720914199865379
 20
-10.20835357726424
 30
0.0
 11
6.370125310494585
 21
-14.30236714740484
 31
0.0
  0
ELLIPSE
  5
12CFB
330
12C1B
100
AcDbEntity
  8
0
100
AcDbEllipse
 10
11.98916515010355
 20
-92.05272377005702
 30
0.0
 11
1.250000000000129
 21
2.165063509461022
 31
0.0
210
0.0
220
0.0
230
1.0
 40
0.5773502691896254
 41
0.0
 42
6.283185307179586
  0
ELLIPSE
  5
12CFC
330
12C1B
100
AcDbEntity
  8
0
100
AcDbEllipse
 10
25.73916515030827
 20
-74.01052785799939
 30
0.0
 11
-0.4000000000000425
 21
-0.6928203230275289
 31
0.0
210
0.0
220
0.0
230
1.0
 40
0.5773502691896252
 41
2.094395102375143
 42
2.276828566511582
  0
LINE
  5
12CFD
330
12C1B
100
AcDbEntity
  8
0
100
AcDbLine
 10
26.2855753118194
 20
-73.86411769649862
 30
0.0
 11
25.49310706649613
 21
-77.73671296070472
 31
0.0
  0
ELLIPSE
  5
12CFE
330
12C1B
100
AcDbEntity
  8
0
100
AcDbEllipse
 10
24.94669690498501
 20
-77.88312312220546
 30
0.0
 11
-0.4000000000000416
 21
-0.6928203230275272
 31
0.0
210
0.0
220
0.0
230
0.9999999999999998
 40
0.5773502691896255
 41
0.0
 42
2.094395102375107
  0
LINE
  5
12CFF
330
12C1B
100
AcDbEntity
  8
0
100
AcDbLine
 10
24.54669690497774
 20
-78.57594344522881
 30
0.0
 11
22.38163339555603
 21
-77.32594344516058
 31
0.0
  0
ELLIPSE
  5
12D00
330
12C1B
100
AcDbEntity
  8
0
100
AcDbEllipse
 10
22.7816333955633
 20
-76.63312312213722
 30
0.0
 11
-0.4000000000072804
 21
-0.6928203230233495
 31
0.0
210
0.0
220
0.0
230
1.0
 40
0.5773502691896257
 41
4.188790204822808
 42
6.2831853072524
  0
LINE
  5
12D01
330
12C1B
100
AcDbEntity
  8
0
100
AcDbLine
 10
22.63522323405947
 20
-76.08671296061462
 30
0.0
 11
25.59275498880445
 21
-73.46411769647679
 31
0.0
  0
ELLIPSE
  5
12D02
330
12C1B
100
AcDbEntity
  8
0
100
AcDbEllipse
 10
25.73916515030827
 20
-74.01052785799939
 30
0.0
 11
0.4000000000000011
 21
0.6928203230275525
 31
0.0
210
0.0
220
0.0
230
1.0
 40
0.5773502691896259
 41
0.0802385882704746
 42
1.047197551178412
  0
LINE
  5
12D03
330
12C1B
100
AcDbEntity
  8
0
100
AcDbLine
 10
26.10581718804251
 20
-73.30142617642312
 30
0.0
 11
26.30306989819263
 21
-73.7367444968007
 31
0.0
  0
ELLIPSE
  5
12D04
330
12C1B
100
AcDbEntity
  8
0
100
AcDbEllipse
 10
23.88603673320522
 20
-77.27075068650967
 30
0.0
 11
-0.4000000000072798
 21
-0.6928203230233483
 31
0.0
210
0.0
220
0.0
230
1.0
 40
0.5773502691896258
 41
0.000000000072787
 42
2.094395102429588
  0
LINE
  5
12D05
330
12C1B
100
AcDbEntity
  8
0
100
AcDbLine
 10
24.4324468947163
 20
-77.1243405250089
 30
0.0
 11
25.49310706649613
 21
-77.73671296070472
 31
0.0
  0
LINE
  5
12D06
330
12C1B
100
AcDbEntity
  8
0
100
AcDbLine
 10
24.4324468947163
 20
-77.1243405250089
 30
0.0
 11
25.09027641086695
 21
-73.90969125176164
 31
0.0
  0
LINE
  5
12D07
330
12C1B
100
AcDbEntity
  8
0
100
AcDbLine
 10
25.59275498879183
 20
-73.46411769649863
 30
0.0
 11
26.2855753118194
 21
-73.86411769649862
 31
0.0
  0
LINE
  5
12D08
330
12C1B
100
AcDbEntity
  8
0
100
AcDbLine
 10
25.69431612229765
 20
-73.38528034041752
 30
0.0
 11
26.30306989819263
 21
-73.7367444968007
 31
0.0
  0
ELLIPSE
  5
12D09
330
12C1B
100
AcDbEntity
  8
0
100
AcDbEllipse
 10
10.92850497832376
 20
-91.44035133436123
 30
0.0
 11
1.24999999999987
 21
2.165063509461171
 31
0.0
210
0.0
220
0.0
230
1.0
 40
0.5773502691896258
 41
3.579741684173535
 42
5.845036276595007
  0
LINE
  5
12D0A
330
12C1B
100
AcDbEntity
  8
0
100
AcDbLine
 10
-48.72887228213762
 20
-34.48048801752799
 30
0.0
 11
-62.22887228154561
 21
-57.86317391801303
 31
0.0
  0
LINE
  5
12D0B
330
12C1B
100
AcDbEntity
  8
0
100
AcDbLine
 10
-47.66821211035757
 20
-35.09286045322391
 30
0.0
 11
-61.16821210976578
 21
-58.47554635370883
 31
0.0
  0
ELLIPSE
  5
12D0C
330
12C1B
100
AcDbEntity
  8
0
100
AcDbEllipse
 10
-56.97887228147736
 20
-58.00751148534984
 30
0.0
 11
1.24999999999987
 21
2.165063509461172
 31
0.0
210
0.0
220
0.0
230
0.9999999999999998
 40
0.5773502691896254
 41
3.579741684173528
 42
5.845036276595005
  0
ELLIPSE
  5
12D0D
330
12C1B
100
AcDbEntity
  8
0
100
AcDbEllipse
 10
-44.0213405265959
 20
-43.83791083749828
 30
0.0
 11
-0.4000000000072798
 21
-0.6928203230233483
 31
0.0
210
0.0
220
0.0
230
1.0
 40
0.5773502691896258
 41
0.0000000000727787
 42
2.094395102429573
  0
LINE
  5
12D0E
330
12C1B
100
AcDbEntity
  8
0
100
AcDbLine
 10
-43.47493036508481
 20
-43.69150067599753
 30
0.0
 11
-42.81710084893417
 21
-40.47685140275027
 31
0.0
  0
LINE
  5
12D0F
330
12C1B
100
AcDbEntity
  8
0
100
AcDbLine
 10
-42.414270193305
 20
-44.30387311169332
 30
0.0
 11
-43.47493036508481
 21
-43.69150067599753
 31
0.0
  0
LINE
  5
12D10
330
12C1B
100
AcDbEntity
  8
0
100
AcDbLine
 10
-41.62180194798174
 20
-40.43127784748725
 30
0.0
 11
-42.414270193305
 21
-44.30387311169332
 31
0.0
  0
LINE
  5
12D11
330
12C1B
100
AcDbEntity
  8
0
100
AcDbLine
 10
-41.62180194798174
 20
-40.43127784748725
 30
0.0
 11
-42.31462227101655
 21
-40.03127784748304
 31
0.0
  0
ELLIPSE
  5
12D12
330
12C1B
100
AcDbEntity
  8
0
100
AcDbEllipse
 10
-42.16821210949284
 20
-40.57768800898799
 30
0.0
 11
0.4000000000000004
 21
0.6928203230275526
 31
0.0
210
0.0
220
0.0
230
1.0
 40
0.5773502691896255
 41
5.235987755964798
 42
7.330382858358005
  0
LINE
  5
12D13
330
12C1B
100
AcDbEntity
  8
0
100
AcDbLine
 10
-45.27215402574164
 20
-42.65387311160323
 30
0.0
 11
-42.31462227099668
 21
-40.03127784746539
 31
0.0
  0
ELLIPSE
  5
12D14
330
12C1B
100
AcDbEntity
  8
0
100
AcDbEllipse
 10
-45.12574386423782
 20
-43.20028327312583
 30
0.0
 11
-0.4000000000072797
 21
-0.6928203230233497
 31
0.0
210
0.0
220
0.0
230
1.0
 40
0.5773502691896255
 41
4.18879020482279
 42
6.283185307252368
  0
LINE
  5
12D15
330
12C1B
100
AcDbEntity
  8
0
100
AcDbLine
 10
-43.36068035482337
 20
-45.14310359621742
 30
0.0
 11
-45.52574386424509
 21
-43.89310359614919
 31
0.0
  0
ELLIPSE
  5
12D16
330
12C1B
100
AcDbEntity
  8
0
100
AcDbEllipse
 10
-42.9606803548161
 20
-44.45028327319406
 30
0.0
 11
-0.4000000000000412
 21
-0.6928203230275275
 31
0.0
210
0.0
220
0.0
230
0.9999999999999998
 40
0.5773502691896258
 41
0.0
 42
2.094395102375109
  0
ELLIPSE
  5
12D17
330
12C1B
100
AcDbEntity
  8
0
100
AcDbEllipse
 10
-55.91821210969756
 20
-58.61988392104563
 30
0.0
 11
1.250000000000128
 21
2.165063509461023
 31
0.0
210
0.0
220
0.0
230
1.0
 40
0.5773502691896258
 41
0.0
 42
6.283185307179586
  0
LINE
  5
12D18
330
12C1B
100
AcDbEntity
  8
0
100
AcDbLine
 10
-4.680402761319251
 20
-10.11300906261789
 30
0.0
 11
-42.24394804120933
 21
-75.17497799980168
 31
0.0
  0
LINE
  5
12D19
330
12C1B
100
AcDbEntity
  8
0
100
AcDbLine
 10
-42.96821210992136
 20
-74.75682394476641
 30
0.0
 11
-42.24394804120932
 21
-75.17497799980167
 31
0.0
  0
LINE
  5
12D1A
330
12C1B
100
AcDbEntity
  8
0
100
AcDbLine
 10
-42.96821210992127
 20
-74.75682394476649
 30
0.0
 11
-6.268212110709225
 21
-11.19055930835339
 31
0.0
  0
ENDBLK
  5
12C1D
330
12C1B
100
AcDbEntity
  8
0
100
AcDbBlockEnd
  0
ENDSEC
  0
SECTION
  2
ENTITIES
  0
INSERT
  5
12D1B
330
1F
100
AcDbEntity
  8
0
100
AcDbBlockReference
  2
SPR91_160-Front
 10
0.0
 20
0.0
 30
0.0
  0
INSERT
  5
12D1C
330
1F
100
AcDbEntity
  8
0
100
AcDbBlockReference
  2
SPR91_160-Left
 10
152.9229986469887
 20
0.0
 30
0.0
  0
INSERT
  5
12D1D
330
1F
100
AcDbEntity
  8
0
100
AcDbBlockReference
  2
SPR91_160-Right
 10
-152.9229986469887
 20
0.0
 30
0.0
  0
INSERT
  5
12D1E
330
1F
100
AcDbEntity
  8
0
100
AcDbBlockReference
  2
SPR91_160-Top
 10
0.0
 20
-120.545601705951
 30
0.0
  0
INSERT
  5
12D1F
330
1F
100
AcDbEntity
  8
0
100
AcDbBlockReference
  2
SPR91_160-Bottom
 10
0.0
 20
225.5659080859887
 30
0.0
  0
INSERT
  5
12D20
330
1F
100
AcDbEntity
  8
0
100
AcDbBlockReference
  2
SPR91_160-ISO
 10
215.1518709285343
 20
-244.2806343249013
 30
0.0
  0
MTEXT
  5
12D21
330
1F
100
AcDbEntity
  8
0
100
AcDbMText
 10
0.0
 20
-267.4445760657997
 30
0.0
 40
21.63196936199623
 41
0.0
 71
     5
 72
     5
  1
SPR91/160
 73
     1
 44
1.0
1001
ACAD
1000
MTEXTBEGIN
1070
    73
1070
     1
1070
    44
1040
1.0
1070
    74
1070
     0
1000
MTEXTEND
  0
ENDSEC
  0
SECTION
  2
OBJECTS
  0
DICTIONARY
  5
C
330
0
100
AcDbDictionary
281
     1
  3
ACAD_CIP_PREVIOUS_PRODUCT_INFO
350
216
  3
ACAD_COLOR
350
6B
  3
ACAD_DETAILVIEWSTYLE
350
21B
  3
ACAD_GROUP
350
D
  3
ACAD_LAYOUT
350
1A
  3
ACAD_MATERIAL
350
6A
  3
ACAD_MLEADERSTYLE
350
12D
  3
ACAD_MLINESTYLE
350
17
  3
ACAD_PLOTSETTINGS
350
19
  3
ACAD_PLOTSTYLENAME
350
E
  3
ACAD_SCALELIST
350
10C
  3
ACAD_SECTIONVIEWSTYLE
350
219
  3
ACAD_TABLESTYLE
350
7E
  3
ACAD_VISUALSTYLE
350
EF
  3
ACDB_RECOMPOSE_DATA
350
12E22
  3
AcDbVariableDictionary
350
5E
  3
DWGPROPS
350
12E23
  0
DICTIONARY
  5
12D72
330
8
100
AcDbDictionary
280
     1
281
     1
  0
DICTIONARY
  5
1FF
330
2
100
AcDbDictionary
280
     1
281
     1
  3
ACAD_LAYERSTATES
360
200
  0
DICTIONARY
  5
13C
330
10
100
AcDbDictionary
280
     1
281
     1
  0
DICTIONARY
  5
1CE
330
1F
100
AcDbDictionary
280
     1
281
     1
  3
ACAD_LAYOUTSELFREF
360
12D7A
  0
DICTIONARY
  5
12D25
330
D2
100
AcDbDictionary
280
     1
281
     1
  3
ACAD_LAYOUTSELFREF
360
12D83
  0
DICTIONARY
  5
12D27
330
D6
100
AcDbDictionary
280
     1
281
     1
  3
ACAD_LAYOUTSELFREF
360
12D86
  0
XRECORD
  5
216
102
{ACAD_REACTORS
330
C
102
}
330
C
100
AcDbXrecord
280
     1
300
ACD
300
2021
300
87393ACD_2021_0F
  0
DICTIONARY
  5
6B
102
{ACAD_REACTORS
330
C
102
}
330
C
100
AcDbDictionary
281
     1
  0
DICTIONARY
  5
21B
102
{ACAD_REACTORS
330
C
102
}
330
C
100
AcDbDictionary
281
     1
  3
Metric50
350
21C
  0
DICTIONARY
  5
D
102
{ACAD_REACTORS
330
C
102
}
330
C
100
AcDbDictionary
281
     1
  0
DICTIONARY
  5
1A
102
{ACAD_REACTORS
330
C
102
}
330
C
100
AcDbDictionary
281
     1
  3
Layout1
350
D3
  3
Layout2
350
D7
  3
Model
350
22
  0
DICTIONARY
  5
6A
102
{ACAD_REACTORS
330
C
102
}
330
C
100
AcDbDictionary
281
     1
  3
ByBlock
350
ED
  3
ByLayer
350
EC
  3
Global
350
EE
  0
DICTIONARY
  5
12D
102
{ACAD_REACTORS
330
C
102
}
330
C
100
AcDbDictionary
281
     1
  3
Standard
350
12E
  0
DICTIONARY
  5
17
102
{ACAD_REACTORS
330
C
102
}
330
C
100
AcDbDictionary
281
     1
  3
Standard
350
18
  0
DICTIONARY
  5
19
102
{ACAD_REACTORS
330
C
102
}
330
C
100
AcDbDictionary
281
     1
  0
ACDBDICTIONARYWDFLT
  5
E
102
{ACAD_REACTORS
330
C
102
}
330
C
100
AcDbDictionary
281
     1
  3
Normal
350
F
100
AcDbDictionaryWithDefault
340
F
  0
DICTIONARY
  5
10C
102
{ACAD_REACTORS
330
C
102
}
330
C
100
AcDbDictionary
281
     1
  3
A0
350
10D
  3
A1
350
1BE
  3
A2
350
1BF
  3
A3
350
1C0
  3
A4
350
1C1
  3
A5
350
1C2
  3
A6
350
1C3
  3
A7
350
1C4
  3
A8
350
1C5
  3
A9
350
1C6
  3
B0
350
1C7
  3
B1
350
1C8
  3
B2
350
1C9
  3
B3
350
1CA
  3
B4
350
1CB
  3
B5
350
1CC
  3
B6
350
1CD
  0
DICTIONARY
  5
219
102
{ACAD_REACTORS
330
C
102
}
330
C
100
AcDbDictionary
281
     1
  3
Metric50
350
21A
  0
DICTIONARY
  5
7E
102
{ACAD_REACTORS
330
C
102
}
330
C
100
AcDbDictionary
281
     1
  3
Standard
350
7F
  0
DICTIONARY
  5
EF
102
{ACAD_REACTORS
330
C
102
}
330
C
100
AcDbDictionary
281
     1
  3
2dWireframe
350
F5
  3
Basic
350
F4
  3
Brighten
350
FB
  3
ColorChange
350
FF
  3
Conceptual
350
F8
  3
Dim
350
FA
  3
EdgeColorOff
350
1E6
  3
Facepattern
350
FE
  3
Flat
350
F0
  3
FlatWithEdges
350
F1
  3
Gouraud
350
F2
  3
GouraudWithEdges
350
F3
  3
Hidden
350
F7
  3
JitterOff
350
1E4
  3
Linepattern
350
FD
  3
OverhangOff
350
1E5
  3
Realistic
350
F9
  3
Shaded
350
1F3
  3
Shaded with edges
350
1F2
  3
Shades of Gray
350
1EF
  3
Sketchy
350
1F0
  3
Thicken
350
FC
  3
Wireframe
350
F6
  3
X-Ray
350
1F1
  0
XRECORD
  5
12E22
102
{ACAD_REACTORS
330
C
102
}
330
C
100
AcDbXrecord
280
     1
 90
        1
330
7F
  0
DICTIONARY
  5
5E
102
{ACAD_REACTORS
330
C
102
}
330
C
100
AcDbDictionary
281
     1
  3
CANNOSCALE
350
146
  3
CENTEREXE
350
259
  3
CENTERLTYPEFILE
350
25A
  3
CMLEADERSTYLE
350
145
  3
CTABLESTYLE
350
84
  3
CVIEWDETAILSTYLE
350
227
  3
CVIEWSECTIONSTYLE
350
228
  3
DIMASSOC
350
5F
  3
HIDETEXT
350
63
  3
INDEXCTL
350
12DCF
  3
LAYEREVAL
350
1AE
  3
LAYERNOTIFY
350
1AF
  3
LIGHTINGUNITS
350
12DCD
  3
MSLTSCALE
350
12DCC
  3
PSOLHEIGHT
350
12E1F
  3
PSOLWIDTH
350
12E1E
  3
SORTENTS
350
12DCE
  3
XCLIPFRAME
350
12E20
  0
XRECORD
  5
12E23
102
{ACAD_REACTORS
330
C
102
}
330
C
100
AcDbXrecord
280
     1
  1
DWGPROPS COOKIE
  2

  3

  4

  6

  7

  8
truole
  9

300
=
301
=
302
=
303
=
304
=
305
=
306
=
307
=
308
=
309
=
 40
0.0027546296296296
 41
2460719.40650463
 42
2460719.416296296
  1

 90
        0
  0
DICTIONARY
  5
200
102
{ACAD_REACTORS
330
1FF
102
}
330
1FF
100
AcDbDictionary
281
     1
  0
XRECORD
  5
12D7A
102
{ACAD_REACTORS
330
1CE
102
}
330
1CE
100
AcDbXrecord
280
     1
340
1F
  0
XRECORD
  5
12D83
102
{ACAD_REACTORS
330
12D25
102
}
330
12D25
100
AcDbXrecord
280
     1
340
D2
  0
XRECORD
  5
12D86
102
{ACAD_REACTORS
330
12D27
102
}
330
12D27
100
AcDbXrecord
280
     1
340
D6
  0
ACDBDETAILVIEWSTYLE
  5
21C
102
{ACAD_XDICTIONARY
360
12E62
102
}
102
{ACAD_REACTORS
330
21B
102
}
330
21B
100
AcDbModelDocViewStyle
 70
     0
  3
Metric50
290
     0
100
AcDbDetailViewStyle
 70
     0
 71
     0
 90
        3
 71
     1
340
11
 40
5.0
340
0
 40
5.0
300

 40
0.0
280
     1
 71
     2
340
16
 90
       25
 71
     3
340
11
 40
5.0
 90
        0
 40
15.0
 90
        1
300
%<\AcVar ViewDetailId>% (%<\AcVar ViewScale \f "%sn">%)
 71
     4
340
16
 90
       25
340
16
 90
       25
280
     0
  0
LAYOUT
  5
D3
102
{ACAD_XDICTIONARY
360
12E27
102
}
102
{ACAD_REACTORS
330
1A
102
}
330
1A
100
AcDbPlotSettings
  1

  2
C:\Documents and Settings\basas\Application Data\Autodesk\AutoCAD 2005\R16.1\enu\plotters\Default Windows System Printer.pc3
  4

  6

 40
0.0
 41
0.0
 42
0.0
 43
0.0
 44
0.0
 45
0.0
 46
0.0
 47
0.0
 48
0.0
 49
0.0
140
0.0
141
0.0
142
1.0
143
1.0
 70
   688
 72
     0
 73
     0
 74
     5
  7

 75
    16
147
1.0
148
0.0
149
0.0
100
AcDbLayout
  1
Layout1
 70
     1
 71
     1
 10
0.0
 20
0.0
 11
12.0
 21
9.0
 12
0.0
 22
0.0
 32
0.0
 14
0.0
 24
0.0
 34
0.0
 15
0.0
 25
0.0
 35
0.0
146
0.0
 13
0.0
 23
0.0
 33
0.0
 16
1.0
 26
0.0
 36
0.0
 17
0.0
 27
1.0
 37
0.0
 76
     0
330
D2
  0
LAYOUT
  5
D7
102
{ACAD_XDICTIONARY
360
12E29
102
}
102
{ACAD_REACTORS
330
1A
102
}
330
1A
100
AcDbPlotSettings
  1

  2
C:\Documents and Settings\basas\Application Data\Autodesk\AutoCAD 2005\R16.1\enu\plotters\Default Windows System Printer.pc3
  4

  6

 40
0.0
 41
0.0
 42
0.0
 43
0.0
 44
0.0
 45
0.0
 46
0.0
 47
0.0
 48
0.0
 49
0.0
140
0.0
141
0.0
142
1.0
143
1.0
 70
   688
 72
     0
 73
     0
 74
     5
  7

 75
    16
147
1.0
148
0.0
149
0.0
100
AcDbLayout
  1
Layout2
 70
     1
 71
     2
 10
0.0
 20
0.0
 11
12.0
 21
9.0
 12
0.0
 22
0.0
 32
0.0
 14
0.0
 24
0.0
 34
0.0
 15
0.0
 25
0.0
 35
0.0
146
0.0
 13
0.0
 23
0.0
 33
0.0
 16
1.0
 26
0.0
 36
0.0
 17
0.0
 27
1.0
 37
0.0
 76
     0
330
D6
  0
LAYOUT
  5
22
102
{ACAD_XDICTIONARY
360
12E24
102
}
102
{ACAD_REACTORS
330
1A
102
}
330
1A
100
AcDbPlotSettings
  1

  2
none_device
  4
ISO_A4_(210.00_x_297.00_MM)
  6

 40
7.5
 41
20.0
 42
7.5
 43
20.0
 44
210.0
 45
297.0
 46
11.54999923706054
 47
-13.65000009536743
 48
0.0
 49
0.0
140
0.0
141
0.0
142
1.0
143
8.704084754739808
 70
 11952
 72
     1
 73
     0
 74
     0
  7

 75
     0
147
0.1148885871608098
148
0.0
149
0.0
100
AcDbLayout
  1
Model
 70
     1
 71
     0
 10
0.0
 20
0.0
 11
12.0
 21
9.0
 12
0.0
 22
0.0
 32
0.0
 14
0.0
 24
0.0
 34
0.0
 15
0.0
 25
0.0
 35
0.0
146
0.0
 13
0.0
 23
0.0
 33
0.0
 16
1.0
 26
0.0
 36
0.0
 17
0.0
 27
1.0
 37
0.0
 76
     0
330
1F
331
EA
1001
ACAD_PSEXT
1000
None
1000
None
1000
Not applicable
1000
The layout will not be plotted unless a new plotter configuration name is selected.
1070
     0
  0
MATERIAL
  5
ED
102
{ACAD_XDICTIONARY
360
1F9
102
}
102
{ACAD_REACTORS
330
6A
102
}
330
6A
100
AcDbMaterial
  1
ByBlock
  0
MATERIAL
  5
EC
102
{ACAD_XDICTIONARY
360
1F7
102
}
102
{ACAD_REACTORS
330
6A
102
}
330
6A
100
AcDbMaterial
  1
ByLayer
  0
MATERIAL
  5
EE
102
{ACAD_XDICTIONARY
360
173
102
}
102
{ACAD_REACTORS
330
6A
102
}
330
6A
100
AcDbMaterial
  1
Global
 43
0.0007999999797903
 43
0.0
 43
0.0
 43
0.0
 43
0.0
 43
0.0007999999797903
 43
0.0
 43
0.0
 43
0.0
 43
0.0
 43
1.0
 43
0.0
 43
0.0
 43
0.0
 43
0.0
 43
1.0
 49
0.0007999999797903
 49
0.0
 49
0.0
 49
0.0
 49
0.0
 49
0.0007999999797903
 49
0.0
 49
0.0
 49
0.0
 49
0.0
 49
1.0
 49
0.0
 49
0.0
 49
0.0
 49
0.0
 49
1.0
142
0.0007999999797903
142
0.0
142
0.0
142
0.0
142
0.0
142
0.0007999999797903
142
0.0
142
0.0
142
0.0
142
0.0
142
1.0
142
0.0
142
0.0
142
0.0
142
0.0
142
1.0
144
0.0007999999797903
144
0.0
144
0.0
144
0.0
144
0.0
144
0.0007999999797903
144
0.0
144
0.0
144
0.0
144
0.0
144
1.0
144
0.0
144
0.0
144
0.0
144
0.0
144
1.0
1001
ACAD
1070
    -1
1070
     3
1070
     0
1000

1071
        0
1070
     0
  0
MLEADERSTYLE
  5
12E
102
{ACAD_XDICTIONARY
360
12E4E
102
}
102
{ACAD_REACTORS
330
12D
102
}
330
12D
100
AcDbMLeaderStyle
170
     2
171
     1
172
     0
 90
        2
 40
0.0
 41
0.0
173
     1
 91
-1056964608
340
14
 92
       -2
290
     1
 42
2.0
291
     1
 43
8.0
  3
Standard
 44
4.0
300

342
11
174
     1
178
     1
175
     1
176
     0
 93
-1056964608
 45
4.0
292
     0
297
     0
 46
4.0
 94
-1056964608
 47
1.0
 49
1.0
140
1.0
293
     1
141
0.0
294
     1
177
     0
142
1.0
295
     0
296
     0
143
3.75
1001
ACAD_MLEADERVER
1070
     2
  0
MLINESTYLE
  5
18
102
{ACAD_REACTORS
330
17
102
}
330
17
100
AcDbMlineStyle
  2
STANDARD
 70
     0
  3

 62
   256
 51
90.0
 52
90.0
 71
     2
 49
0.5
 62
   256
  6
BYLAYER
 49
-0.5
 62
   256
  6
BYLAYER
  0
ACDBPLACEHOLDER
  5
F
102
{ACAD_REACTORS
330
E
102
}
330
E
  0
SCALE
  5
10D
102
{ACAD_REACTORS
330
10C
102
}
330
10C
100
AcDbScale
 70
     0
300
1:1
140
1.0
141
1.0
290
     1
  0
SCALE
  5
1BE
102
{ACAD_REACTORS
330
10C
102
}
330
10C
100
AcDbScale
 70
     0
300
1:2
140
1.0
141
2.0
290
     0
  0
SCALE
  5
1BF
102
{ACAD_REACTORS
330
10C
102
}
330
10C
100
AcDbScale
 70
     0
300
1:4
140
1.0
141
4.0
290
     0
  0
SCALE
  5
1C0
102
{ACAD_REACTORS
330
10C
102
}
330
10C
100
AcDbScale
 70
     0
300
1:5
140
1.0
141
5.0
290
     0
  0
SCALE
  5
1C1
102
{ACAD_REACTORS
330
10C
102
}
330
10C
100
AcDbScale
 70
     0
300
1:8
140
1.0
141
8.0
290
     0
  0
SCALE
  5
1C2
102
{ACAD_REACTORS
330
10C
102
}
330
10C
100
AcDbScale
 70
     0
300
1:10
140
1.0
141
10.0
290
     0
  0
SCALE
  5
1C3
102
{ACAD_REACTORS
330
10C
102
}
330
10C
100
AcDbScale
 70
     0
300
1:16
140
1.0
141
16.0
290
     0
  0
SCALE
  5
1C4
102
{ACAD_REACTORS
330
10C
102
}
330
10C
100
AcDbScale
 70
     0
300
1:20
140
1.0
141
20.0
290
     0
  0
SCALE
  5
1C5
102
{ACAD_REACTORS
330
10C
102
}
330
10C
100
AcDbScale
 70
     0
300
1:30
140
1.0
141
30.0
290
     0
  0
SCALE
  5
1C6
102
{ACAD_REACTORS
330
10C
102
}
330
10C
100
AcDbScale
 70
     0
300
1:40
140
1.0
141
40.0
290
     0
  0
SCALE
  5
1C7
102
{ACAD_REACTORS
330
10C
102
}
330
10C
100
AcDbScale
 70
     0
300
1:50
140
1.0
141
50.0
290
     0
  0
SCALE
  5
1C8
102
{ACAD_REACTORS
330
10C
102
}
330
10C
100
AcDbScale
 70
     0
300
1:100
140
1.0
141
100.0
290
     0
  0
SCALE
  5
1C9
102
{ACAD_REACTORS
330
10C
102
}
330
10C
100
AcDbScale
 70
     0
300
2:1
140
2.0
141
1.0
290
     0
  0
SCALE
  5
1CA
102
{ACAD_REACTORS
330
10C
102
}
330
10C
100
AcDbScale
 70
     0
300
4:1
140
4.0
141
1.0
290
     0
  0
SCALE
  5
1CB
102
{ACAD_REACTORS
330
10C
102
}
330
10C
100
AcDbScale
 70
     0
300
8:1
140
8.0
141
1.0
290
     0
  0
SCALE
  5
1CC
102
{ACAD_REACTORS
330
10C
102
}
330
10C
100
AcDbScale
 70
     0
300
10:1
140
10.0
141
1.0
290
     0
  0
SCALE
  5
1CD
102
{ACAD_REACTORS
330
10C
102
}
330
10C
100
AcDbScale
 70
     0
300
100:1
140
100.0
141
1.0
290
     0
  0
ACDBSECTIONVIEWSTYLE
  5
21A
102
{ACAD_XDICTIONARY
360
12E60
102
}
102
{ACAD_REACTORS
330
219
102
}
330
219
100
AcDbModelDocViewStyle
 70
     0
  3
Metric50
290
     0
100
AcDbSectionViewStyle
 70
     0
 71
     0
 90
      102
 71
     1
340
11
 40
5.0
340
0
340
0
 40
5.0
300
I, O, Q, S, X, Z
 40
10.0
 90
        0
 40
2.5
 90
        0
 71
     2
340
16
 90
       25
340
16
 90
       50
 40
5.0
 40
2.5
 40
5.0
 71
     3
340
11
 40
5.0
 90
        0
 40
15.0
 90
        1
300
%<\AcVar ViewSectionStartId>%-%<\AcVar ViewSectionEndId>% (%<\AcVar ViewScale \f "%sn">%)
 71
     4
300
ANSI31
 40
1.0
 90
        0
290
     0
290
     0
 90
        6
 40
0.0
 40
1.570796326794896
 40
0.2617993877991494
 40
1.308996938995747
 40
-0.2617993877991494
 40
1.832595714594046
  0
TABLESTYLE
  5
7F
102
{ACAD_XDICTIONARY
360
162
102
}
102
{ACAD_REACTORS
330
7E
102
}
330
7E
100
AcDbTableStyle
  3
Standard
 70
     0
 71
     0
 40
1.5
 41
1.5
280
     0
281
     0
  7
Standard
140
4.5
170
     2
 62
     0
 63
     7
283
     0
274
    -2
284
     1
 64
     0
275
    -2
285
     1
 65
     0
276
    -2
286
     1
 66
     0
277
    -2
287
     1
 67
     0
278
    -2
288
     1
 68
     0
279
    -2
289
     1
 69
     0
  7
Standard
140
6.0
170
     5
 62
     0
 63
     7
283
     0
274
    -2
284
     1
 64
     0
275
    -2
285
     1
 65
     0
276
    -2
286
     1
 66
     0
277
    -2
287
     1
 67
     0
278
    -2
288
     1
 68
     0
279
    -2
289
     1
 69
     0
  7
Standard
140
4.5
170
     5
 62
     0
 63
     7
283
     0
274
    -2
284
     1
 64
     0
275
    -2
285
     1
 65
     0
276
    -2
286
     1
 66
     0
277
    -2
287
     1
 67
     0
278
    -2
288
     1
 68
     0
279
    -2
289
     1
 69
     0
  0
VISUALSTYLE
  5
F5
102
{ACAD_XDICTIONARY
360
12E38
102
}
102
{ACAD_REACTORS
330
EF
102
}
330
EF
100
AcDbVisualStyle
  2
2dWireframe
 70
     4
 71
     0
 72
     2
 73
     1
 90
        0
 40
-0.6
 41
-30.0
 62
     5
 63
     7
 74
     1
 91
        4
 64
     7
 65
   257
 75
     1
175
     1
 42
1.0
 92
        0
 66
   257
 43
1.0
 76
     1
 77
     6
 78
     2
 67
     7
 79
     5
170
     0
171
     0
290
     0
174
     0
 93
        1
 44
0.0
173
     0
291
     0
 45
0.0
1001
ACAD
1000
AcDbSavedByObjectVersion
1070
     0
  0
VISUALSTYLE
  5
F4
102
{ACAD_XDICTIONARY
360
12E36
102
}
102
{ACAD_REACTORS
330
EF
102
}
330
EF
100
AcDbVisualStyle
  2
Basic
 70
     7
 71
     1
 72
     0
 73
     1
 90
        0
 40
-0.6
 41
-30.0
 62
     5
 63
     7
 74
     0
 91
        4
 64
     7
 65
   257
 75
     1
175
     1
 42
1.0
 92
        8
 66
     7
 43
1.0
 76
     1
 77
     6
 78
     2
 67
     7
 79
     5
170
     0
171
     0
290
     0
174
     0
 93
        1
 44
0.0
173
     0
291
     1
 45
0.0
1001
ACAD
1000
AcDbSavedByObjectVersion
1070
     0
  0
VISUALSTYLE
  5
FB
102
{ACAD_XDICTIONARY
360
12E44
102
}
102
{ACAD_REACTORS
330
EF
102
}
330
EF
100
AcDbVisualStyle
  2
Brighten
 70
    12
 71
     2
 72
     2
 73
     1
 90
        0
 40
-0.6
 41
-30.0
 62
     5
 63
     7
 74
     1
 91
        4
 64
     7
 65
   257
 75
     1
175
     1
 42
1.0
 92
        8
 66
     7
 43
1.0
 76
     1
 77
     6
 78
     2
 67
     7
 79
     5
170
     0
171
     0
290
     0
174
     0
 93
        1
 44
50.0
173
     0
291
     1
 45
0.0
1001
ACAD
1000
AcDbSavedByObjectVersion
1070
     0
  0
VISUALSTYLE
  5
FF
102
{ACAD_XDICTIONARY
360
12E4C
102
}
102
{ACAD_REACTORS
330
EF
102
}
330
EF
100
AcDbVisualStyle
  2
ColorChange
 70
    16
 71
     2
 72
     2
 73
     3
 90
        0
 40
-0.6
 41
-30.0
 62
     5
 63
     8
 74
     1
 91
        4
 64
     7
 65
   257
 75
     1
175
     1
 42
1.0
 92
        8
 66
     8
 43
1.0
 76
     1
 77
     6
 78
     2
 67
     7
 79
     5
170
     0
171
     0
290
     0
174
     0
 93
        1
 44
0.0
173
     0
291
     1
 45
0.0
1001
ACAD
1000
AcDbSavedByObjectVersion
1070
     0
  0
VISUALSTYLE
  5
F8
102
{ACAD_XDICTIONARY
360
12E3E
102
}
102
{ACAD_REACTORS
330
EF
102
}
330
EF
100
AcDbVisualStyle
  2
Conceptual
 70
     9
 71
     3
 72
     2
 73
     1
 90
        0
 40
-0.6
 41
-30.0
 62
     5
 63
     7
 74
     2
 91
        2
 64
     7
 65
   257
 75
     1
175
     1
 42
40.0
 92
        8
 66
     7
 43
1.0
 76
     1
 77
     6
 78
     2
 67
     7
 79
     3
170
     0
171
     0
290
     0
174
     0
 93
        1
 44
0.0
173
     0
291
     0
 45
0.0
1001
ACAD
1000
AcDbSavedByObjectVersion
1070
     0
  0
VISUALSTYLE
  5
FA
102
{ACAD_XDICTIONARY
360
12E42
102
}
102
{ACAD_REACTORS
330
EF
102
}
330
EF
100
AcDbVisualStyle
  2
Dim
 70
    11
 71
     2
 72
     2
 73
     1
 90
        0
 40
-0.6
 41
-30.0
 62
     5
 63
     7
 74
     1
 91
        4
 64
     7
 65
   257
 75
     1
175
     1
 42
1.0
 92
        8
 66
     7
 43
1.0
 76
     1
 77
     6
 78
     2
 67
     7
 79
     5
170
     0
171
     0
290
     0
174
     0
 93
        1
 44
-50.0
173
     0
291
     1
 45
0.0
1001
ACAD
1000
AcDbSavedByObjectVersion
1070
     0
  0
VISUALSTYLE
  5
1E6
102
{ACAD_XDICTIONARY
360
12E54
102
}
102
{ACAD_REACTORS
330
EF
102
}
330
EF
100
AcDbVisualStyle
  2
EdgeColorOff
 70
    22
 71
     2
 72
     2
 73
     0
 90
        0
 40
-0.6
 41
-30.0
 62
     5
 63
     7
 74
     1
 91
        4
 64
     7
 65
   257
 75
     1
175
     1
 42
1.0
 92
        8
 66
     7
 43
1.0
 76
     1
 77
     6
 78
     2
 67
     7
 79
     5
170
     0
171
     0
290
     0
174
     0
 93
        1
 44
0.0
173
     0
291
     1
 45
0.0
1001
ACAD
1000
AcDbSavedByObjectVersion
1070
     0
  0
VISUALSTYLE
  5
FE
102
{ACAD_XDICTIONARY
360
12E4A
102
}
102
{ACAD_REACTORS
330
EF
102
}
330
EF
100
AcDbVisualStyle
  2
Facepattern
 70
    15
 71
     2
 72
     2
 73
     1
 90
        0
 40
-0.6
 41
-30.0
 62
     5
 63
     7
 74
     1
 91
        4
 64
     7
 65
   257
 75
     1
175
     1
 42
1.0
 92
        8
 66
     7
 43
1.0
 76
     1
 77
     6
 78
     2
 67
     7
 79
     5
170
     0
171
     0
290
     0
174
     0
 93
        1
 44
0.0
173
     0
291
     1
 45
0.0
1001
ACAD
1000
AcDbSavedByObjectVersion
1070
     0
  0
VISUALSTYLE
  5
F0
102
{ACAD_XDICTIONARY
360
12E2E
102
}
102
{ACAD_REACTORS
330
EF
102
}
330
EF
100
AcDbVisualStyle
  2
Flat
 70
     0
 71
     2
 72
     1
 73
     1
 90
        2
 40
-0.6
 41
30.0
 62
     5
 63
     7
 74
     0
 91
        0
 64
     7
 65
   257
 75
     1
175
     1
 42
1.0
 92
        8
 66
     7
 43
1.0
 76
     1
 77
     6
 78
     2
 67
     7
 79
     5
170
     0
171
     0
290
     0
174
     0
 93
       13
 44
0.0
173
     0
291
     1
 45
0.0
1001
ACAD
1000
AcDbSavedByObjectVersion
1070
     0
  0
VISUALSTYLE
  5
F1
102
{ACAD_XDICTIONARY
360
12E30
102
}
102
{ACAD_REACTORS
330
EF
102
}
330
EF
100
AcDbVisualStyle
  2
FlatWithEdges
 70
     1
 71
     2
 72
     1
 73
     1
 90
        2
 40
-0.6
 41
30.0
 62
     5
 63
     7
 74
     1
 91
        0
 64
     7
 65
   257
 75
     1
175
     1
 42
1.0
 92
        0
 66
   257
 43
1.0
 76
     1
 77
     6
 78
     2
 67
     7
 79
     5
170
     0
171
     0
290
     0
174
     0
 93
       13
 44
0.0
173
     0
291
     1
 45
0.0
1001
ACAD
1000
AcDbSavedByObjectVersion
1070
     0
  0
VISUALSTYLE
  5
F2
102
{ACAD_XDICTIONARY
360
12E32
102
}
102
{ACAD_REACTORS
330
EF
102
}
330
EF
100
AcDbVisualStyle
  2
Gouraud
 70
     2
 71
     2
 72
     2
 73
     1
 90
        2
 40
-0.6
 41
30.0
 62
     5
 63
     7
 74
     0
 91
        0
 64
     7
 65
   257
 75
     1
175
     1
 42
1.0
 92
        0
 66
     7
 43
1.0
 76
     1
 77
     6
 78
     2
 67
     7
 79
     5
170
     0
171
     0
290
     0
174
     0
 93
       13
 44
0.0
173
     0
291
     1
 45
0.0
1001
ACAD
1000
AcDbSavedByObjectVersion
1070
     0
  0
VISUALSTYLE
  5
F3
102
{ACAD_XDICTIONARY
360
12E34
102
}
102
{ACAD_REACTORS
330
EF
102
}
330
EF
100
AcDbVisualStyle
  2
GouraudWithEdges
 70
     3
 71
     2
 72
     2
 73
     1
 90
        2
 40
-0.6
 41
30.0
 62
     5
 63
     7
 74
     1
 91
        0
 64
     7
 65
   257
 75
     1
175
     1
 42
1.0
 92
        0
 66
   257
 43
1.0
 76
     1
 77
     6
 78
     2
 67
     7
 79
     5
170
     0
171
     0
290
     0
174
     0
 93
       13
 44
0.0
173
     0
291
     1
 45
0.0
1001
ACAD
1000
AcDbSavedByObjectVersion
1070
     0
  0
VISUALSTYLE
  5
F7
102
{ACAD_XDICTIONARY
360
12E3C
102
}
102
{ACAD_REACTORS
330
EF
102
}
330
EF
100
AcDbVisualStyle
  2
Hidden
 70
     6
 71
     1
 72
     2
 73
     2
 90
        0
 40
-0.6
 41
-30.0
 62
     5
 63
     7
 74
     2
 91
        2
 64
     7
 65
   257
 75
     2
175
     1
 42
40.0
 92
        0
 66
   257
 43
1.0
 76
     1
 77
     6
 78
     2
 67
     7
 79
     3
170
     0
171
     0
290
     0
174
     0
 93
        1
 44
0.0
173
     0
291
     0
 45
0.0
1001
ACAD
1000
AcDbSavedByObjectVersion
1070
     0
  0
VISUALSTYLE
  5
1E4
102
{ACAD_XDICTIONARY
360
12E50
102
}
102
{ACAD_REACTORS
330
EF
102
}
330
EF
100
AcDbVisualStyle
  2
JitterOff
 70
    20
 71
     2
 72
     2
 73
     0
 90
        0
 40
-0.6
 41
-30.0
 62
     5
 63
     7
 74
     1
 91
        4
 64
     7
 65
   257
 75
     1
175
     1
 42
1.0
 92
       10
 66
     7
 43
1.0
 76
     1
 77
     6
 78
     2
 67
     7
 79
     5
170
     0
171
     0
290
     0
174
     0
 93
        1
 44
0.0
173
     0
291
     1
 45
0.0
1001
ACAD
1000
AcDbSavedByObjectVersion
1070
     0
  0
VISUALSTYLE
  5
FD
102
{ACAD_XDICTIONARY
360
12E48
102
}
102
{ACAD_REACTORS
330
EF
102
}
330
EF
100
AcDbVisualStyle
  2
Linepattern
 70
    14
 71
     2
 72
     2
 73
     1
 90
        0
 40
-0.6
 41
-30.0
 62
     5
 63
     7
 74
     1
 91
        4
 64
     7
 65
   257
 75
     7
175
     7
 42
1.0
 92
        8
 66
     7
 43
1.0
 76
     1
 77
     6
 78
     2
 67
     7
 79
     5
170
     0
171
     0
290
     0
174
     0
 93
        1
 44
0.0
173
     0
291
     1
 45
0.0
1001
ACAD
1000
AcDbSavedByObjectVersion
1070
     0
  0
VISUALSTYLE
  5
1E5
102
{ACAD_XDICTIONARY
360
12E52
102
}
102
{ACAD_REACTORS
330
EF
102
}
330
EF
100
AcDbVisualStyle
  2
OverhangOff
 70
    21
 71
     2
 72
     2
 73
     0
 90
        0
 40
-0.6
 41
-30.0
 62
     5
 63
     7
 74
     1
 91
        4
 64
     7
 65
   257
 75
     1
175
     1
 42
1.0
 92
        9
 66
     7
 43
1.0
 76
     1
 77
     6
 78
     2
 67
     7
 79
     5
170
     0
171
     0
290
     0
174
     0
 93
        1
 44
0.0
173
     0
291
     1
 45
0.0
1001
ACAD
1000
AcDbSavedByObjectVersion
1070
     0
  0
VISUALSTYLE
  5
F9
102
{ACAD_XDICTIONARY
360
12E40
102
}
102
{ACAD_REACTORS
330
EF
102
}
330
EF
100
AcDbVisualStyle
  2
Realistic
 70
     8
 71
     2
 72
     2
 73
     0
 90
        2
 40
-0.6
 41
30.0
 62
     5
 63
     7
 74
     0
 91
        0
 64
     7
 65
   257
 75
     1
175
     1
 42
1.0
 92
        8
 66
   257
 43
1.0
 76
     1
 77
     6
 78
     2
 67
     7
 79
     3
170
     0
171
     0
290
     0
174
     0
 93
       13
 44
0.0
173
     0
291
     0
 45
0.0
1001
ACAD
1000
AcDbSavedByObjectVersion
1070
     0
  0
VISUALSTYLE
  5
1F3
102
{ACAD_XDICTIONARY
360
12E5E
102
}
102
{ACAD_REACTORS
330
EF
102
}
330
EF
100
AcDbVisualStyle
  2
Shaded
 70
    27
 71
     2
 72
     2
 73
     1
 90
        2
 40
-0.6
 41
30.0
 62
     5
 63
     7
 74
     0
 91
        4
 64
     7
 65
   257
 75
     1
175
     1
 42
1.0
 92
        8
 66
   257
 43
1.0
 76
     1
 77
     6
 78
     2
 67
     8
 79
     3
170
     0
171
     0
290
     0
174
     0
 93
        5
 44
0.0
173
     0
291
     0
 45
0.0
1001
ACAD
1000
AcDbSavedByObjectVersion
1070
     0
  0
VISUALSTYLE
  5
1F2
102
{ACAD_XDICTIONARY
360
12E5C
102
}
102
{ACAD_REACTORS
330
EF
102
}
330
EF
100
AcDbVisualStyle
  2
Shaded with edges
 70
    26
 71
     2
 72
     2
 73
     1
 90
        2
 40
-0.6
 41
30.0
 62
     5
 63
     7
 74
     1
 91
        2
 64
     7
 65
   257
 75
     2
175
     1
 42
1.0
 92
        8
 66
   257
 43
1.0
 76
     1
 77
     6
 78
     2
 67
     7
 79
     3
170
     0
171
     0
290
     0
174
     0
 93
        5
 44
0.0
173
     0
291
     0
 45
0.0
1001
ACAD
1000
AcDbSavedByObjectVersion
1070
     0
  0
VISUALSTYLE
  5
1EF
102
{ACAD_XDICTIONARY
360
12E56
102
}
102
{ACAD_REACTORS
330
EF
102
}
330
EF
100
AcDbVisualStyle
  2
Shades of Gray
 70
    23
 71
     2
 72
     2
 73
     3
 90
        0
 40
-0.6
 41
-30.0
 62
     5
 63
     7
 74
     2
 91
        2
 64
     7
 65
     7
 75
     1
175
     1
 42
40.0
 92
        8
 66
     7
 43
1.0
 76
     1
 77
     6
 78
     2
 67
     7
 79
     3
170
     0
171
     0
290
     0
174
     0
 93
        1
 44
0.0
173
     0
291
     0
 45
0.0
1001
ACAD
1000
AcDbSavedByObjectVersion
1070
     0
  0
VISUALSTYLE
  5
1F0
102
{ACAD_XDICTIONARY
360
12E58
102
}
102
{ACAD_REACTORS
330
EF
102
}
330
EF
100
AcDbVisualStyle
  2
Sketchy
 70
    24
 71
     1
 72
     2
 73
     2
 90
        0
 40
-0.6
 41
-30.0
 62
     5
 63
     7
 74
     2
 91
        2
 64
     7
 65
     7
 75
     1
175
     1
 42
40.0
 92
       11
 66
     7
 43
1.0
 76
     1
 77
     6
 78
     2
 67
     7
 79
     6
170
     0
171
     0
290
     0
174
     0
 93
        1
 44
0.0
173
     0
291
     0
 45
0.0
1001
ACAD
1000
AcDbSavedByObjectVersion
1070
     0
  0
VISUALSTYLE
  5
FC
102
{ACAD_XDICTIONARY
360
12E46
102
}
102
{ACAD_REACTORS
330
EF
102
}
330
EF
100
AcDbVisualStyle
  2
Thicken
 70
    13
 71
     2
 72
     2
 73
     1
 90
        0
 40
-0.6
 41
-30.0
 62
     5
 63
     7
 74
     1
 91
        4
 64
     7
 65
   257
 75
     1
175
     1
 42
1.0
 92
       12
 66
     7
 43
1.0
 76
     1
 77
     6
 78
     2
 67
     7
 79
     5
170
     0
171
     0
290
     0
174
     0
 93
        1
 44
0.0
173
     0
291
     1
 45
0.0
1001
ACAD
1000
AcDbSavedByObjectVersion
1070
     0
  0
VISUALSTYLE
  5
F6
102
{ACAD_XDICTIONARY
360
12E3A
102
}
102
{ACAD_REACTORS
330
EF
102
}
330
EF
100
AcDbVisualStyle
  2
Wireframe
 70
     5
 71
     0
 72
     2
 73
     0
 90
        0
 40
-0.6
 41
-30.0
 62
     5
 63
     7
 74
     1
 91
        4
 64
     7
 65
   257
 75
     1
175
     1
 42
1.0
 92
        0
 66
   257
 43
1.0
 76
     1
 77
     6
 78
     2
 67
     7
 79
     3
170
     0
171
     0
290
     0
174
     0
 93
        1
 44
0.0
173
     0
291
     0
 45
0.0
1001
ACAD
1000
AcDbSavedByObjectVersion
1070
     0
  0
VISUALSTYLE
  5
1F1
102
{ACAD_XDICTIONARY
360
12E5A
102
}
102
{ACAD_REACTORS
330
EF
102
}
330
EF
100
AcDbVisualStyle
  2
X-Ray
 70
    25
 71
     2
 72
     2
 73
     1
 90
        1
 40
0.5
 41
-30.0
 62
     5
 63
     7
 74
     1
 91
        0
 64
     7
 65
   257
 75
     1
175
     1
 42
1.0
 92
        8
 66
     7
 43
1.0
 76
     1
 77
     6
 78
     2
 67
     7
 79
     3
170
     0
171
     0
290
     0
174
     0
 93
       13
 44
0.0
173
     0
291
     0
 45
0.0
1001
ACAD
1000
AcDbSavedByObjectVersion
1070
     0
  0
DICTIONARYVAR
  5
146
102
{ACAD_REACTORS
330
5E
102
}
330
5E
100
DictionaryVariables
280
     0
  1
1:1
  0
DICTIONARYVAR
  5
259
102
{ACAD_REACTORS
330
5E
102
}
330
5E
100
DictionaryVariables
280
     0
  1
3.500000
  0
DICTIONARYVAR
  5
25A
102
{ACAD_REACTORS
330
5E
102
}
330
5E
100
DictionaryVariables
280
     0
  1
acadiso.lin
  0
DICTIONARYVAR
  5
145
102
{ACAD_REACTORS
330
5E
102
}
330
5E
100
DictionaryVariables
280
     0
  1
STANDARD
  0
DICTIONARYVAR
  5
84
102
{ACAD_REACTORS
330
5E
102
}
330
5E
100
DictionaryVariables
280
     0
  1
STANDARD
  0
DICTIONARYVAR
  5
227
102
{ACAD_REACTORS
330
5E
102
}
330
5E
100
DictionaryVariables
280
     0
  1
Metric50
  0
DICTIONARYVAR
  5
228
102
{ACAD_REACTORS
330
5E
102
}
330
5E
100
DictionaryVariables
280
     0
  1
Metric50
  0
DICTIONARYVAR
  5
5F
102
{ACAD_REACTORS
330
5E
102
}
330
5E
100
DictionaryVariables
280
     0
  1
2
  0
DICTIONARYVAR
  5
63
102
{ACAD_REACTORS
330
5E
102
}
330
5E
100
DictionaryVariables
280
     0
  1
1
  0
DICTIONARYVAR
  5
12DCF
102
{ACAD_REACTORS
330
5E
102
}
330
5E
100
DictionaryVariables
280
     0
  1
0
  0
DICTIONARYVAR
  5
1AE
102
{ACAD_REACTORS
330
5E
102
}
330
5E
100
DictionaryVariables
280
     0
  1
0
  0
DICTIONARYVAR
  5
1AF
102
{ACAD_REACTORS
330
5E
102
}
330
5E
100
DictionaryVariables
280
     0
  1
0
  0
DICTIONARYVAR
  5
12DCD
102
{ACAD_REACTORS
330
5E
102
}
330
5E
100
DictionaryVariables
280
     0
  1
2
  0
DICTIONARYVAR
  5
12DCC
102
{ACAD_REACTORS
330
5E
102
}
330
5E
100
DictionaryVariables
280
     0
  1
1
  0
DICTIONARYVAR
  5
12E1F
102
{ACAD_REACTORS
330
5E
102
}
330
5E
100
DictionaryVariables
280
     0
  1
80.000000
  0
DICTIONARYVAR
  5
12E1E
102
{ACAD_REACTORS
330
5E
102
}
330
5E
100
DictionaryVariables
280
     0
  1
5.000000
  0
DICTIONARYVAR
  5
12DCE
102
{ACAD_REACTORS
330
5E
102
}
330
5E
100
DictionaryVariables
280
     0
  1
127
  0
DICTIONARYVAR
  5
12E20
102
{ACAD_REACTORS
330
5E
102
}
330
5E
100
DictionaryVariables
280
     0
  1
2
  0
DICTIONARY
  5
12E62
330
21C
100
AcDbDictionary
280
     1
281
     1
  3
ACAD_XREC_ROUNDTRIP
360
12E63
  0
DICTIONARY
  5
12E27
330
D3
100
AcDbDictionary
280
     1
281
     1
  3
ACAD_XREC_ROUNDTRIP
360
12E28
  0
DICTIONARY
  5
12E29
330
D7
100
AcDbDictionary
280
     1
281
     1
  3
ACAD_XREC_ROUNDTRIP
360
12E2A
  0
DICTIONARY
  5
12E24
330
22
100
AcDbDictionary
280
     1
281
     1
  3
ACAD_XREC_ROUNDTRIP
360
12E25
  0
DICTIONARY
  5
1F9
330
ED
100
AcDbDictionary
280
     1
281
     1
  3
ACAD_XREC_ROUNDTRIP
360
12E2C
  3
FBXASSET
360
1FA
  0
DICTIONARY
  5
1F7
330
EC
100
AcDbDictionary
280
     1
281
     1
  3
ACAD_XREC_ROUNDTRIP
360
12E2B
  3
FBXASSET
360
1F8
  0
DICTIONARY
  5
173
330
EE
100
AcDbDictionary
280
     1
281
     1
  3
ACAD_XREC_ROUNDTRIP
360
12E2D
  3
BUMPTILE
360
175
  3
DIFFUSETILE
360
174
  3
FBXASSET
360
1FB
  3
OPACITYTILE
360
176
  3
REFLECTIONTILE
360
177
  0
DICTIONARY
  5
12E4E
330
12E
100
AcDbDictionary
280
     1
281
     1
  3
ACAD_XREC_ROUNDTRIP
360
12E4F
  0
DICTIONARY
  5
12E60
330
21A
100
AcDbDictionary
280
     1
281
     1
  3
ACAD_XREC_ROUNDTRIP
360
12E61
  0
DICTIONARY
  5
162
330
7F
100
AcDbDictionary
280
     1
281
     1
  3
ACAD_ROUNDTRIP_2008_TABLESTYLE_CELLSTYLEMAP
360
12E21
  3
ACAD_XREC_ROUNDTRIP
360
12E26
  0
DICTIONARY
  5
12E38
330
F5
100
AcDbDictionary
280
     1
281
     1
  3
ACAD_XREC_ROUNDTRIP
360
12E39
  0
DICTIONARY
  5
12E36
330
F4
100
AcDbDictionary
280
     1
281
     1
  3
ACAD_XREC_ROUNDTRIP
360
12E37
  0
DICTIONARY
  5
12E44
330
FB
100
AcDbDictionary
280
     1
281
     1
  3
ACAD_XREC_ROUNDTRIP
360
12E45
  0
DICTIONARY
  5
12E4C
330
FF
100
AcDbDictionary
280
     1
281
     1
  3
ACAD_XREC_ROUNDTRIP
360
12E4D
  0
DICTIONARY
  5
12E3E
330
F8
100
AcDbDictionary
280
     1
281
     1
  3
ACAD_XREC_ROUNDTRIP
360
12E3F
  0
DICTIONARY
  5
12E42
330
FA
100
AcDbDictionary
280
     1
281
     1
  3
ACAD_XREC_ROUNDTRIP
360
12E43
  0
DICTIONARY
  5
12E54
330
1E6
100
AcDbDictionary
280
     1
281
     1
  3
ACAD_XREC_ROUNDTRIP
360
12E55
  0
DICTIONARY
  5
12E4A
330
FE
100
AcDbDictionary
280
     1
281
     1
  3
ACAD_XREC_ROUNDTRIP
360
12E4B
  0
DICTIONARY
  5
12E2E
330
F0
100
AcDbDictionary
280
     1
281
     1
  3
ACAD_XREC_ROUNDTRIP
360
12E2F
  0
DICTIONARY
  5
12E30
330
F1
100
AcDbDictionary
280
     1
281
     1
  3
ACAD_XREC_ROUNDTRIP
360
12E31
  0
DICTIONARY
  5
12E32
330
F2
100
AcDbDictionary
280
     1
281
     1
  3
ACAD_XREC_ROUNDTRIP
360
12E33
  0
DICTIONARY
  5
12E34
330
F3
100
AcDbDictionary
280
     1
281
     1
  3
ACAD_XREC_ROUNDTRIP
360
12E35
  0
DICTIONARY
  5
12E3C
330
F7
100
AcDbDictionary
280
     1
281
     1
  3
ACAD_XREC_ROUNDTRIP
360
12E3D
  0
DICTIONARY
  5
12E50
330
1E4
100
AcDbDictionary
280
     1
281
     1
  3
ACAD_XREC_ROUNDTRIP
360
12E51
  0
DICTIONARY
  5
12E48
330
FD
100
AcDbDictionary
280
     1
281
     1
  3
ACAD_XREC_ROUNDTRIP
360
12E49
  0
DICTIONARY
  5
12E52
330
1E5
100
AcDbDictionary
280
     1
281
     1
  3
ACAD_XREC_ROUNDTRIP
360
12E53
  0
DICTIONARY
  5
12E40
330
F9
100
AcDbDictionary
280
     1
281
     1
  3
ACAD_XREC_ROUNDTRIP
360
12E41
  0
DICTIONARY
  5
12E5E
330
1F3
100
AcDbDictionary
280
     1
281
     1
  3
ACAD_XREC_ROUNDTRIP
360
12E5F
  0
DICTIONARY
  5
12E5C
330
1F2
100
AcDbDictionary
280
     1
281
     1
  3
ACAD_XREC_ROUNDTRIP
360
12E5D
  0
DICTIONARY
  5
12E56
330
1EF
100
AcDbDictionary
280
     1
281
     1
  3
ACAD_XREC_ROUNDTRIP
360
12E57
  0
DICTIONARY
  5
12E58
330
1F0
100
AcDbDictionary
280
     1
281
     1
  3
ACAD_XREC_ROUNDTRIP
360
12E59
  0
DICTIONARY
  5
12E46
330
FC
100
AcDbDictionary
280
     1
281
     1
  3
ACAD_XREC_ROUNDTRIP
360
12E47
  0
DICTIONARY
  5
12E3A
330
F6
100
AcDbDictionary
280
     1
281
     1
  3
ACAD_XREC_ROUNDTRIP
360
12E3B
  0
DICTIONARY
  5
12E5A
330
1F1
100
AcDbDictionary
280
     1
281
     1
  3
ACAD_XREC_ROUNDTRIP
360
12E5B
  0
XRECORD
  5
12E63
102
{ACAD_REACTORS
330
12E62
102
}
330
12E62
100
AcDbXrecord
280
     1
102
DISPLAYNAME
  1
Metric50
102
FLAGS
 90
        0
  0
XRECORD
  5
12E28
102
{ACAD_REACTORS
330
12E27
102
}
330
12E27
100
AcDbXrecord
280
     1
102
SHADEPLOT
 70
     0
102
SHADEPLOTRESLEVEL
 70
     2
102
SHADEPLOTCUSTOMDPI
 70
   300
  0
XRECORD
  5
12E2A
102
{ACAD_REACTORS
330
12E29
102
}
330
12E29
100
AcDbXrecord
280
     1
102
SHADEPLOT
 70
     0
102
SHADEPLOTRESLEVEL
 70
     2
102
SHADEPLOTCUSTOMDPI
 70
   300
  0
XRECORD
  5
12E25
102
{ACAD_REACTORS
330
12E24
102
}
330
12E24
100
AcDbXrecord
280
     1
102
SHADEPLOT
 70
     0
102
SHADEPLOTRESLEVEL
 70
     2
102
SHADEPLOTCUSTOMDPI
 70
   300
  0
XRECORD
  5
12E2C
102
{ACAD_REACTORS
330
1F9
102
}
330
1F9
100
AcDbXrecord
280
     1
102
MATERIAL
148
0.0
149
0.0
149
0.0
 93
        0
 94
       63
282
     0
 72
     1
 77
     1
171
     1
175
     1
179
     1
273
     0
  0
XRECORD
  5
1FA
102
{ACAD_REACTORS
330
1F9
102
}
330
1F9
100
AcDbXrecord
280
     1
 70
     1
 90
429727718
  1
D62C5603-E3A1-4AEA-B7FB-FE5D8D0755AF
310
504B03040A0000080000CC70623B3DEE336E79000000790000001B0000006175746F6465736B2D64657369676E2D7061636B6167652E786D6C3C3F786D6C2076657273696F6E3D22312E302220656E636F64696E673D227574662D3822203F3E3C666F726D6174733E3C666F726D61743E687474703A2F2F736368656D612E
310
6175746F6465736B2E636F6D2F64657369676E2D7061636B6167652F323030393C2F666F726D61743E3C2F666F726D6174733E504B0304140006080800CC70623BD486FD9CA0000000F4000000130000005B436F6E74656E745F54797065735D2E786D6C7D8EC10E82300C865F65E91D8A1E8C310C0EEA1BF002731658846E
310
D98AC1B77784ABF1D8FE5FBFBF75BBCE937A534CCEB38643598122B6FEE978D0B0485F9C41B54DDD7D022595594E1A469170414C76A4D9A4D207E29CF43ECE46F218070CC6BECC4078ACAA135ACF422C856C0E68EA1BF5669944DDD7BCDE7B1F8E415D77AECB980613C2E4AC91FC167A2B244592486606FC29C8FD7F045B9A
310
EF7053A7E60B504B0304140006080800CC70623B853B8169EB0000007C01000008000000636F72652E786D6C8D90416EC3201045AF62CDB6C206821CC7C244919D9CA01740401C94182C03558F5F9C3852BBEB6A467FFE9B197D7EFC9E1EC5975982F5AE035262288C535E5B377690E21535501C055FBC8FBF6C503839990E
310
5619041F179FE64D52DE45E362569DD7661365082642A11EB9E920A89B99642953CC8E702F67A9EE7234257977194EC9EAE275C4EABCCF5EAD5940D4AC6F0E35A568B8F43562CD7046CD199FD07E60174276A7BE677B5EADB0E0D14EEFFB6A31321A0D82627C4084204C3F096B71DD52F6819B16635EADF63F509AF53FA164
310
5DDCD1EDDD17164090FCC8732078B56691CB33A85CD7DCC40F504B0304140006080800CC70623B55019EA25F0000007C00000007000000636E782E786D6C4DCB3B0E80201045D1AD90E915ED2CF8AC45050C11660C8261F98AB1B07AC9C97D42D718D865D3E909258CFD00CCE24AC6E326A164D74DC0B4128928FF32603847
310
2BA13128B1252AC747C6BAB984FC68F0B87FE8960A5C09FE86CFB69FBA01504B0304140006080800CC70623BDBABAAF470010000D40300000C0000006662782F636F72652E786D6CC553D16E823014FD95A6AF4B694182CC941A83FA05FB810A9511A125A5257EFE2E82712ECEB8A7F100CD39F7F69E734AF9FADC366850B6
310
AF8DCE7018308C942E4C59EB2AC3DE1D498AD15A706B8CFB56869196ADCAF00863C12B6B7C374385D14E6907A836A59A41D9F7CA615434B0C8705F7CAA5606D23BA8E84F41278B93AC54100640439DE0BDB320004D43C63716C7C399D30917DCFBBA9CD9BA8469F5B156168B24CED3F7248AC8769F27244EB73B92EED8862C
310
B7F13E0C179B3C8F979C8ECD82BBBABDAA2BAC924E9558448CBD9330242CFA08E3154B5651FCC6D215639C8EE5774DBE2B5F6CF2B5768B68963BB5F5588420E442FC700B1139D4CB01F450C1E918227C2E09DF070D8140C84E1E9AAB8F1340832A9CB13130A5F1376A908D57309505ECF2A0DF179C4E9D30F5B239B87E3823
310
7A79C6F31DE1A8A5AEC08474B03C7837EAE4938639B44E5932B833D2C6B6B279CDC613877FA26EE21F4A2A4C63EC7F29A2F301D1F9F7A0E37D145F504B0304140006080800CC70623B9C113CC27E0000009D0000000B0000006662782F636E782E786D6C4DCCDF0A83201C86E15B91DFB94BFB330DD428C8FB886521330DA7
310
6397BF1A1DECE883878F57749FCDA1B7892F1BBC047A23808C7F84D9FA55424E0BE6803A256208E9EF06C84F9B91703228B1C690F78B66B34CD9A5439DF5CF0BFBF65E35BCA1B8D6A5C6F540381E886698B5741C695F9503EBA150A2F8958E3DC3EA0B504B0304140006080800CC70623B7DF2F77C2A010000120200003100
310
00006662782F41393633353835312D344632462D344230382D423046372D3739314545314133324237412F636F72652E786D6C8D51DB8EC22014FC15C2939B0D2DB4B45643319AE817EC0F6041255A68B86CFCFC856D4D76DF7CE190393373060EDB3DC707F856CE6B6B7A480A0C81328395DA5C7B18C3057510EC3873D686
310
3F34088C18550F330C39BB3A1BA7051AAC09CA84841A2BD5020AEF55806078A44B0FFD7053A328440C89E1EFC52486BBB8AA8214A99D789CF9E05200300FC927E4FB4D5B375D43103D5527440FB843077C5AA3F5861C8F645F5787F59E95B390B318B55CE45AA638FAA2957BD7248B390B7A7CC51F9C124149C82B8C378810
310
84AB2F42B7B8DD56F413775B8C5999E9FF4471926F8AA236A1AE96B8B3CC434E5839373893369E1FAF30EA395917409EB7F26AF8801C171837A4A6AC9C89E9F9C9B1A58BA30FD6A5EF5DDDCF894B9AD9B6A59C957943A9FCAE2FD5BC4DFE03504B0304140006080800CC70623BAD7543B64E01000033030000300000006662
310
782F41393633353835312D344632462D344230382D423046372D3739314545314133324237412F636E782E786D6CD593CD6EC32010845F0571AD6CE3D48AD20813A9873E410FBD12D82434182C7EAAE6EDBB2424CD25871E7B41D6EC30B3FA84F9E67BB2E40B4234DE8DB46F1925E094D7C6ED479AD3AE5951B2113C789FEE
310
6C943839C1488B4C05DF079FE72A69D8C96C13AAD6B8631503449F83828872B949AC57D26200B826A308D316B4064D6E46FCDA41C05550DC9E483A00797BFD207EFB092A45DE9514C1BBD22178396BD39D891265658C238DEA00936C654E5E433CB65A26D9F6EDB5EBC14EBF49A45CB856E66048291F6939A9A81BB5C89177
310
38143CA680F4AA299D66A042CEB3354A2684DC9D8D178FE0D9B8B41CAAD720F880EE7EF93C0C18769E099ECC04D5A102C8049A8A05632F4DDF376CF1DE0F6BB65C2F8627B65A33C6BB62177CEBBDAD973006829F89F22E814B54F4BC2BE347F8AA8F681390B50FA73F804400B5F542E796F19FF974E7F78DB802FE05E20750
310
4B0304140006080800CC70623BE75B7789680500003C100000340000006662782F41393633353835312D344632462D344230382D423046372D3739314545314133324237412F6F626A656374732E786D6CAD575B8F9B3818FD2B887D06C22499CB8AA1CA655245D5B455A356FB305264C061D8018C6C3393D95FBFC7600890
310
A4CD5EF210B0B1BFEBF98E3F7B1FF6596ABC522E1296DF9BAE3D320D9A872C4AF2F8DE2CE5CEBA358D0FBEC719939D65A691938CDE9B6ADAF4BD98B3B2D05311DD91329583D9D5FC0F438434A7A611A644887B5384CF34233629258BA878B12322891DEFF6B66BD70BFB62634E8AE781D082709A4B588AF91C528CDA28B73F
310
1C998EEF39EABBEFA97FBD6A7C7E9553F9D3D79FE442923C3C523610337627CB87ABE99D359D4CC6D6E4FACAB5E6ABF9D2726FC6A3C5F56271377BB88362213924694B38DD99FE47C48627A1E7D49F5A8BB5E1A74C0A599ED3B0F21F1E56366B89112D681E218F0915D0D6F17AD41FBA2A369DCF6335D62ABBD39779D5DDD1
310
11D4D8DE3CBB96B2E04FB8202E41051754A1AA8E8F76B4C6DFE810B580B1547F4B84911149794252234D024EF8BBE963A95AE27B3D310A9D5C215C7960FAEE415ED75694C6AFB17BCACA5D99A60A9AA65F217B0BFC53292ACB92BF283FAD0D3621576592CB5BED907C2FA8E9DF794E35E97BEA31BED21FEB401ABB94C44839
310
DCACBF0E1C5DA8DA5B2F4DFFD32AD86F543D9E565E7056502E157C00AD2671CD534549AB752FCA9CDA00677A313F04E51B22FF19E57B300579E3C97EB29F682D92935CEC18CF901B7B54FD8C51F362B56FC72FE0B3C1EAE335EDCCBF5AEC39ADB17DC238973F804BA5E6F6BFE7AF1FB32E523BE9F3BD571418E3631DCA4D48
310
5250CF639223210A9446CA30052EDF057BD35F8329C1ECD84552BF0DC8D18BE7BCE23BFE6BD960AB4A7DE79923A103BEBD80F911CBAA2C60DB19B01CF164A5583B772EE6D3FFA56666CBCDA74DC97724A48F9A58967497E489C4D979006FD7A05E227A1EBDD0F737C623387A9C844D3709995625106D157315F8B8392CD4E0
310
A0B9A720C4BE9829CEF37EA1E13111214D53925356365ADA634861B52519DD27A00AEB808EAF0628E6F435519D446F45CF2C9CF5214F0A15B2F6D06B79DA3EE3CBF7F56780D2F4E7EF73A0F5E5B02A38D07DC852C6B7C1FBB6664213E0C39E3EBA7FF4E1AD23EA2829407C85E586727488B751B2DB9502BC7B228A3FD68B6E
310
A65A22397E690AA8D158D7E404EC8CDA235CC3B7D1898680131CEC2CDF2638C65196279577750F15884AEE19F94199155B92B13297978469D4F8D358DF0AEF7631E28DC8F0D9F437D5D39A83B2231A1D52D543813A824EF8D44BCFF2FA6A31BD1E8DAD87F1CCB526B3879935BF59CDADD5C37479BB1CDD4CA7B3556B516589
310
EF352754B706114D9C885EC9131DE6EFEB43D99AFE2391C2F958179413D7CFEF6B1B6DB1E7600F00DE6E5C67454A339A4BA2E0FBA85ED26F045D454F463DBFCE484C2F90F2E5E3666003662ED8F755951A7D1BECD5B30B550B2785C8E7320B7292A4838DDA71BBC863ED7613CAF659337A3354231D4FF4A182A54904C2898C
310
98B28C4AD0CE056CCF332A80986E571EE9DBC305BB5FEB7E509220A58D25CF042D712A806AC0AD0C657FDEF80D2D9CEAA2EE4D1C76F60BFE74219A06527D6F82DF6412526107381E55E353090704D085B52408A8913C4ED159D79BDA71BB4BC506F4831350EB6F975CD22D69BF7AC49B91A2C0A9DDA3D5CA36AD20FC478E37
310
E61844E2352865EBCB61A275A65283CAAA9DD27703B4102F5AF51EF5F573B75CBB5AD38BC845F7A49F82A0966A49C2E3EA5EA0ECD326CD965F1DB402C6FA8B51A4658C5C5E2EC9E214602E55810345408596591009A82E7E7FFACA19EEA299B14A0081A705CB3296EBC14CDF658DCD336EA6D1136881AAEB87B81AB9EE53D5
310
F5EB8BC8362082DA24122F98680A4E7930C01A0079749CEA14382A0783E5EBA5A10F8C098456A03D6A4AEB6BB881E2513747552A5DB22C7EDAF83BD5528081A365F7FF06504B0304140006080000CC70623B000000000000000000000000350000006662782F41393633353835312D344632462D344230382D423046372D37
310
39314545314133324237412F76657274696365732E62696E504B0304140006080800CC70623BF270F1330600000004000000360000006662782F41393633353835312D344632462D344230382D423046372D3739314545314133324237412F747269616E676C65732E62696E636660600000504B0304140006080000CC7062
310
3B000000000000000000000000370000006662782F41393633353835312D344632462D344230382D423046372D3739314545314133324237412F617474726962757465732E62696E504B0304140006080800CC70623B08DA0BD19000000041010000360000006662782F41393633353835312D344632462D344230382D4230
310
46372D3739314545314133324237412F6469726563746F72792E786D6C858F410AC3201045AF22B36F53E9A60B35CBEEBAE80D244E44489C6234F4F835464A48035D0DF398FF9F8AF63D0E6CC63039F212F8F9020C7D47C6792B21C5FE7403D62A1188E2E60C98D7234A5830286103A55745067B9D86B8A3CF9C7F90C11DE6
310
07FB144396D7B6A82D282E9A152AD114D5EF2CB866EEE831B8EEA07A7BB5A8D7D61A2BAAEB7FD5F70921FF497D00504B0304140006080800CC70623BEDD1DC58FD000000A00100003B0000006662782F41393633353835312D344632462D344230382D423046372D3739314545314133324237412F7265736F75726365732F
310
636F72652E786D6C8D504B6E833010BD0A9A6D65B00922041947112427E8052C33A156828DFCA97AFC9A40A576D7CDCCE87D344F8F9FBFE667F689CE6B6B3A6039850C8DB2A336530731DC4903D95970676DF82583CCC8193B5861107C72362E3BA4AC096842428D1D7107A5F7182053CF7474E0D507CE32973124857FE48B
310
540F3961CEF244279DE03EB81420DB9EAC1384436FA353E879B1B182C7A8C75DA3C7F453DF353A1075D537A7BA6464B8F535A99AE14A9A2BBD90E350DD183B5CFABE3AF262350B1EF4FC9351399401471025A527C218A1E53BAB5A5AB765F5469B96525EACF23FA6B88CFF34456DC2A1DCE36E360F82A5202F42F062ED2BAD
310
579969AFDD8A6F504B010214000A0000080000CC70623B3DEE336E79000000790000001B00000000000000000000000000000000006175746F6465736B2D64657369676E2D7061636B6167652E786D6C504B01021400140006080800CC70623BD486FD9CA0000000F40000001300000000000000000000000000B20000005B
310
436F6E74656E745F54797065735D2E786D6C504B01021400140006080800CC70623B853B8169EB0000007C010000080000000000000000000000000083010000636F72652E786D6C504B01021400140006080800CC70623B55019EA25F0000007C000000070000000000000000000000000094020000636E782E786D6C504B
310
01021400140006080800CC70623BDBABAAF470010000D40300000C00000000000000000000000000180300006662782F636F72652E786D6C504B01021400140006080800CC70623B9C113CC27E0000009D0000000B00000000000000000000000000B20400006662782F636E782E786D6C504B01021400140006080800CC70
310
623B7DF2F77C2A010000120200003100000000000000000000000000590500006662782F41393633353835312D344632462D344230382D423046372D3739314545314133324237412F636F72652E786D6C504B01021400140006080800CC70623BAD7543B64E010000330300003000000000000000000000000000D2060000
310
6662782F41393633353835312D344632462D344230382D423046372D3739314545314133324237412F636E782E786D6C504B01021400140006080800CC70623BE75B7789680500003C10000034000000000000000000000000006E0800006662782F41393633353835312D344632462D344230382D423046372D3739314545
310
314133324237412F6F626A656374732E786D6C504B01021400140006080000CC70623B0000000000000000000000003500000000000000000000000000280E00006662782F41393633353835312D344632462D344230382D423046372D3739314545314133324237412F76657274696365732E62696E504B01021400140006
310
080800CC70623BF270F133060000000400000036000000000000000000000000007B0E00006662782F41393633353835312D344632462D344230382D423046372D3739314545314133324237412F747269616E676C65732E62696E504B01021400140006080000CC70623B0000000000000000000000003700000000000000
310
000000000000D50E00006662782F41393633353835312D344632462D344230382D423046372D3739314545314133324237412F617474726962757465732E62696E504B01021400140006080800CC70623B08DA0BD1900000004101000036000000000000000000000000002A0F00006662782F41393633353835312D344632
310
462D344230382D423046372D3739314545314133324237412F6469726563746F72792E786D6C504B01021400140006080800CC70623BEDD1DC58FD000000A00100003B000000000000000000000000000E1000006662782F41393633353835312D344632462D344230382D423046372D3739314545314133324237412F7265
310
736F75726365732F636F72652E786D6C504B0506000000000E000E0080040000641100000000
  0
XRECORD
  5
12E2B
102
{ACAD_REACTORS
330
1F7
102
}
330
1F7
100
AcDbXrecord
280
     1
102
MATERIAL
148
0.0
149
0.0
149
0.0
 93
        0
 94
       63
282
     0
 72
     1
 77
     1
171
     1
175
     1
179
     1
273
     0
  0
XRECORD
  5
1F8
102
{ACAD_REACTORS
330
1F7
102
}
330
1F7
100
AcDbXrecord
280
     1
 70
     1
 90
429727718
  1
30362254-06B7-45E0-A893-8CFA70E3D6BC
310
504B03040A0000080000CC70623B3DEE336E79000000790000001B0000006175746F6465736B2D64657369676E2D7061636B6167652E786D6C3C3F786D6C2076657273696F6E3D22312E302220656E636F64696E673D227574662D3822203F3E3C666F726D6174733E3C666F726D61743E687474703A2F2F736368656D612E
310
6175746F6465736B2E636F6D2F64657369676E2D7061636B6167652F323030393C2F666F726D61743E3C2F666F726D6174733E504B0304140006080800CC70623BD486FD9CA0000000F4000000130000005B436F6E74656E745F54797065735D2E786D6C7D8EC10E82300C865F65E91D8A1E8C310C0EEA1BF002731658846E
310
D98AC1B77784ABF1D8FE5FBFBF75BBCE937A534CCEB38643598122B6FEE978D0B0485F9C41B54DDD7D022595594E1A469170414C76A4D9A4D207E29CF43ECE46F218070CC6BECC4078ACAA135ACF422C856C0E68EA1BF5669944DDD7BCDE7B1F8E415D77AECB980613C2E4AC91FC167A2B244592486606FC29C8FD7F045B9A
310
EF7053A7E60B504B0304140006080800CC70623B1EC5D7A3EB0000007C01000008000000636F72652E786D6C8D90416EC3201045AF82665B6103C6756C6122AB4D4ED00B204C5C94182C03558F5F9C3852BBEB6A467FFE9B197D71FC9E6FE8CBACC17AD7032D0820E3B41FAD9B7A48F1820F808E52ACDEC75F36404ECDA687
310
4D0629A6D5A76597B477D1B89855E747B38B2A041301E95B6E7A08FAD3CCAA50296647B8168BD2573599823EBB0CA76447F43862C7BCCF5EAC59410E4DDD9C7973C2755553CCCFA4C603E3040F1565ED3B1FDE4E432BCA0D9622DAF9795FAF464533826484B498524CD807E51D79ED187F21878E10516EF63F505AC67F42C9
310
BA58B1FDDD071640D2FCC87D2045B96591CB3DA85CB7DCE40F504B0304140006080800CC70623B55019EA25F0000007C00000007000000636E782E786D6C4DCB3B0E80201045D1AD90E915ED2CF8AC45050C11660C8261F98AB1B07AC9C97D42D718D865D3E909258CFD00CCE24AC6E326A164D74DC0B4128928FF32603847
310
2BA13128B1252AC747C6BAB984FC68F0B87FE8960A5C09FE86CFB69FBA01504B0304140006080800CC70623B8C9102E971010000D40300000C0000006662782F636F72652E786D6CC5535B6E833010BC8AE5DF0A6C08340F1947A84D4ED00B38C6A128602363A31CBFCB234A53A551FA553EC09AD9F5CE8C31DB9E9B1AF5CA
310
7695D1198E428A91D2D214952E33ECDD315861B4E5CC1AE3BE9561A445A3323CC098B3D21ADFCE9034DA29ED00D5A6503328BA4E398C640D8B0C77F253352214DE4145770A5B214FA2546114020D759C75CE8200340D19DE981F0F6746269C33EFAB6266AB02A655C74A59CCF365BADC27CB5D902ED22848F6340DF238A141
310
BE88E2F57B92BFEDF23523433367AE6A2EEAA455C2A902F398D2751045018D3FA264435F3771F242571B4A1919CA6F9A7C5B3CD9E42BED16F12C776AEB308F40C848FC700B1139D4891EF410CEC810227CC6846F8386402064270EF5C5C709A05E49676C024C61FC95EA45ED154CA5211D1FF4FB8291A913A68E9B83EBBB33
310
E2A7673CDE118E5AE8124C0807CB8377834E366998436B950D7A7746DAD846D4CFD978E0F04FD455FC5D49D2D4C6FE9722321F10997F0F32DC47FE05504B0304140006080800CC70623BFFEA85907E0000009D0000000B0000006662782F636E782E786D6C4DCCD10A83201886E15B91FFDC95D95A811AB6F23E625948A6C3
310
E9D8E5AF46073BFAE0E1E365ED67B3E8ADC3CB78C7815C7240DA3DFC64DCC221C519D7805AC182F7F1EF06C88D9BE6703008B6049F9E274D7A1E938DBB5AE3D6131B2589BA0D3D965551E0B2EA732C9B9A624AAEB41E3A557677029960D9AFB4EF11165F504B0304140006080800CC70623B4FEEA4082C0100001202000031
310
0000006662782F39464131463745442D413632322D343644302D413938332D3331353338454246344243312F636F72652E786D6C8D515B6EC32010BC0AE2AB55850DD871ED0813254D72825EC00192A2C460F1A872FC42ED48ED5F7E00CDCECCCEB26C731F6FE05B39AFADE921293004CA082BB5B9F43086336A21D870E6AC
310
0D7F68109861543DCC30E4ECE26C9C164858139409093556AA051CBC570102714B8F1E7AF1A5C6A11862480C7F2DA6415C878B2A4891CA89C7990F2E050073937C42DE1DB7E4F87ED8A36D4329AA9B3D46DBAEAD504556557BD81DEBDD0761E52CE42C462D17B996298E3E6BE59E35C962CE821E1FF18553435012728A7187
310
0841987E927A8D9B35ADDF70BBC6989599FE4F1427F9A4286A132ABAC49D651EF234CD5CE04CDA78BA3DC2A8FB645D00B9DF8B57E215725C60BCA2A463E54C4CE327C7A65E1C7DB02E7DEFCBF594B864C5CA6CDBD49C957943E9FA5D5FBAF336F90F504B0304140006080800CC70623BAD7543B64E01000033030000300000
310
006662782F39464131463745442D413632322D343644302D413938332D3331353338454246344243312F636E782E786D6CD593CD6EC32010845F0571AD6CE3D48AD20813A9873E410FBD12D82434182C7EAAE6EDBB2424CD25871E7B41D6EC30B3FA84F9E67BB2E40B4234DE8DB46F1925E094D7C6ED479AD3AE5951B2113C
310
789FEE6C943839C1488B4C05DF079FE72A69D8C96C13AAD6B8631503449F83828872B949AC57D26200B826A308D316B4064D6E46FCDA41C05550DC9E483A00797BFD207EFB092A45DE9514C1BBD22178396BD39D891265658C238DEA00936C654E5E433CB65A26D9F6EDB5EBC14EBF49A45CB856E66048291F6939A9A81BB5
310
C8917738143CA680F4AA299D66A042CEB3354A2684DC9D8D178FE0D9B8B41CAAD720F880EE7EF93C0C18769E099ECC04D5A102C8049A8A05632F4DDF376CF1DE0F6BB65C2F8627B65A33C6BB62177CEBBDAD973006829F89F22E814B54F4BC2BE347F8AA8F681390B50FA73F804400B5F542E796F19FF974E7F78DB802FE05
310
E207504B0304140006080800CC70623B16AB87BA640500003C100000340000006662782F39464131463745442D413632322D343644302D413938332D3331353338454246344243312F6F626A656374732E786D6CAD575B6FA33818FD2B887DE6924B3BED8A326A92B68A663B534DD4D13E548A0C38942D60649B369D5FBFC7
310
600890A493BDE42160637FD7F31D7FF63E6FB3D478A55C242CBF3247B66B1A340F5994E4F19559CA8D75611A9F7D8F33263BCB4C232719BD32D5B4E97B316765A1A722BA21652A07B3B7B33F0D11D29C9A46981221AE4C113ED38CD8A4942CA2E2C58E882476BCD9DA23BB5ED8171B73523C0F841684D35CC252CCE79062D4
310
468DFA43D7747CCF51DF7D4FFDEB5593E3AB9CCA9FBEFE241792E4E19EB28198C968BAB8199F5D5A67D3E9C49A9E8F47D6EC76B6B0469F26EEFC7C3EBFBCBEB98462213924694B38DD98FE1D62C393D073EA4FADC5DAF04326852CCF6958F90F0F2B9BB5C48816348F90C7840A68EB78EDF68723159BCEE7891A6B95DDE9D3
310
BCEAEEE8086A6C6F9E5D4B59F0175C10A7A0820BAA5055C7473B5AE3CFDD452D602CD5DF12616444529E90D448938013FE6EFA58AA96F85E4F8C42275708571E98FE6827AF6B2B4AE3D7D83D64E5A64C53054DD3AF90BD06FEA9149565C94FCA0F6B834DC85599E4F2423B24DF0B6AFA979E534DFA9E7A4CC6FA631D486393
310
921829879BF5D781A373557BCB85E97FB90DB62B558F8795179C15944B051F40AB495CF35451D26A4727654E6D8033BD98EF82F21D91FF8AF2DD9982BCF1643BDD4EB516C9492E368C67C88DED563FC36D5EACF66DFF057C3658BDBFA69DF9578B3DA735B64F18C7F20770A9D45CFCF7FCF563D6456A277DBEF78A02637CA2
310
43B90A490AEAB94F72244481D24819A6C0E59B606BFA4B3025981DBB48EAB701D97BF19C577CC77F2D1B6C55A9EF3C732474C0B727303F625995056C3B02963D9EAC146BE78EC5FCEC7FA999EBC5EACBAAE41B12D27B4D2C0BBA49F244E2ECDC81B76B502F113D8F5EE8FB1BE3111CDD4FC2AA9B844CAB1288B68AB90A7CDC
310
1C166AB0D3DC5310625FCC14E779BFD0709F8890A629C9292B1B2DED31A4B0DA928CEE135085754027E3018A397D4D5427D15BD1330B677DC8934285AC3DF45A9EB68FF8F2B8FC0A509AFEECFD0FF2DE25CC6047F7214B195F07EFEB9A094D800F7BFAE8FED187B78EA8A3A400F115961BCAD1215E47C966530AF0EE8128FE
310
58CEBB996A8964FFA529A046635D9353B0336A8F700DDF46271A024E70B0B37C9DE01847591E54DED53D54202AB947E4076556AC49C6CA5C9E1226B7F1A7B1BE15DEED62C41B91E1B3E9AFAAA735036547343A925075041DF0A9979E893B391F8FCFA6967B3EFB644DCF6E5CEBFAE272625DCC6FAF3FB93793C5F90CE1EF57
310
407342756B10D1C489E8953CD1617E5CEECAD6F4EF8914CE5D5D504E5C3F1F9736DA62CFC11E00BCDDB8CC8A9466349744C1F75EBDA4DF09BA8A9E8C7A7E9991989E20E5DBDD6A6003664ED8F7A04A8DBE0DF6EAD9B9AA858342E47399053949D2C146EDB85DE4B176BB0965FBAC19BD19AA918E27FA50C1D22402E144464C
310
59462568E704B6E71915404CB72B8FF4EDE184DDAF753F284990D2C6926782963815403548A70C657FDEF80D2D9CEAA2AE4C1C76F60BFE74219A06527D6582DF6412526107381E55E353090704D085B52408D0933C4ED159D79BDA71BB4BC506F4831350EB6F979CD22D69BF7AC49B91A2C0A9DDA3D5CA36AD20FC478E37E6
310
1844E2352865EBCB6EA275A652E3836BE04EFB400BF1A2556F515F1FBB35B2AB35BD889C744FFA1004B5544B121E57F70215746DD2F5E2C1412B602CBF19455AC6C8E5E9922C4E01E65215385004546899059180EAFCF7A707CE7017CD8CDB0410789AB32C63B91E5CEBBBACB17AC6CD347A022D5075FD106377347AAABA7E
310
7D11590744509B44E205134DC1290F06580320F78E537D3D73540E06CB970B431F185308AD40BBD794D6D77003C5A36E8EAA54BA64597CD8F83BD552A080A365F7FF06504B0304140006080000CC70623B000000000000000000000000350000006662782F39464131463745442D413632322D343644302D413938332D3331
310
353338454246344243312F76657274696365732E62696E504B0304140006080800CC70623BF270F1330600000004000000360000006662782F39464131463745442D413632322D343644302D413938332D3331353338454246344243312F747269616E676C65732E62696E636660600000504B0304140006080000CC70623B
310
000000000000000000000000370000006662782F39464131463745442D413632322D343644302D413938332D3331353338454246344243312F617474726962757465732E62696E504B0304140006080800CC70623B08DA0BD19000000041010000360000006662782F39464131463745442D413632322D343644302D413938
310
332D3331353338454246344243312F6469726563746F72792E786D6C858F410AC3201045AF22B36F53E9A60B35CBEEBAE80D244E44489C6234F4F835464A48035D0DF398FF9F8AF63D0E6CC63039F212F8F9020C7D47C6792B21C5FE7403D62A1188E2E60C98D7234A5830286103A55745067B9D86B8A3CF9C7F90C11DE607
310
FB144396D7B6A82D282E9A152AD114D5EF2CB866EEE831B8EEA07A7BB5A8D7D61A2BAAEB7FD5F70921FF497D00504B0304140006080800CC70623B0D6EF93BFE000000A00100003B0000006662782F39464131463745442D413632322D343644302D413938332D3331353338454246344243312F7265736F75726365732F63
310
6F72652E786D6C8D50596E833010BD0A9ADFCA60B334011947A8694ED00B586642AC041B79A97AFC9A40A5F6AF3F33A3B7689E1E3F7DCD8FEC139DD7D6F4C0720A191A65476DA61E62B892236427C19DB5E1970C322367EC618541F0C9D9B8EC90B226A009093576C41D94DE63804C3DD2D18357379C652E63480A7FCF17A9
310
EE72C29CE5894E3AC17D702940B63D59270887DE46A7D0F36263058F518FBB468FE9A7BE6A7420864373B8D4873369AA8691FA421B3294352543C5CAF65C0F6FEF43CB8BD52C78D0F34F46E550061C419494B6843142CB0F5677F4B52BEB177AEC28E5C52AFF638ACBF84F53D42654E51E77B379102C05791282176B5F693D
310
CB4C7BED567C03504B010214000A0000080000CC70623B3DEE336E79000000790000001B00000000000000000000000000000000006175746F6465736B2D64657369676E2D7061636B6167652E786D6C504B01021400140006080800CC70623BD486FD9CA0000000F40000001300000000000000000000000000B20000005B
310
436F6E74656E745F54797065735D2E786D6C504B01021400140006080800CC70623B1EC5D7A3EB0000007C010000080000000000000000000000000083010000636F72652E786D6C504B01021400140006080800CC70623B55019EA25F0000007C000000070000000000000000000000000094020000636E782E786D6C504B
310
01021400140006080800CC70623B8C9102E971010000D40300000C00000000000000000000000000180300006662782F636F72652E786D6C504B01021400140006080800CC70623BFFEA85907E0000009D0000000B00000000000000000000000000B30400006662782F636E782E786D6C504B01021400140006080800CC70
310
623B4FEEA4082C0100001202000031000000000000000000000000005A0500006662782F39464131463745442D413632322D343644302D413938332D3331353338454246344243312F636F72652E786D6C504B01021400140006080800CC70623BAD7543B64E010000330300003000000000000000000000000000D5060000
310
6662782F39464131463745442D413632322D343644302D413938332D3331353338454246344243312F636E782E786D6C504B01021400140006080800CC70623B16AB87BA640500003C1000003400000000000000000000000000710800006662782F39464131463745442D413632322D343644302D413938332D3331353338
310
454246344243312F6F626A656374732E786D6C504B01021400140006080000CC70623B0000000000000000000000003500000000000000000000000000270E00006662782F39464131463745442D413632322D343644302D413938332D3331353338454246344243312F76657274696365732E62696E504B01021400140006
310
080800CC70623BF270F133060000000400000036000000000000000000000000007A0E00006662782F39464131463745442D413632322D343644302D413938332D3331353338454246344243312F747269616E676C65732E62696E504B01021400140006080000CC70623B0000000000000000000000003700000000000000
310
000000000000D40E00006662782F39464131463745442D413632322D343644302D413938332D3331353338454246344243312F617474726962757465732E62696E504B01021400140006080800CC70623B08DA0BD190000000410100003600000000000000000000000000290F00006662782F39464131463745442D413632
310
322D343644302D413938332D3331353338454246344243312F6469726563746F72792E786D6C504B01021400140006080800CC70623B0D6EF93BFE000000A00100003B000000000000000000000000000D1000006662782F39464131463745442D413632322D343644302D413938332D3331353338454246344243312F7265
310
736F75726365732F636F72652E786D6C504B0506000000000E000E0080040000641100000000
  0
XRECORD
  5
12E2D
102
{ACAD_REACTORS
330
173
102
}
330
173
100
AcDbXrecord
280
     1
102
MATERIAL
148
0.0
149
0.0
149
0.0
 93
        0
 94
       63
282
     0
 72
     1
 77
     1
171
     1
175
     1
179
     1
273
     0
  0
XRECORD
  5
175
102
{ACAD_REACTORS
330
173
102
}
330
173
100
AcDbXrecord
280
     1
270
     1
271
     1
  0
XRECORD
  5
174
102
{ACAD_REACTORS
330
173
102
}
330
173
100
AcDbXrecord
280
     1
270
     1
271
     1
  0
XRECORD
  5
1FB
102
{ACAD_REACTORS
330
173
102
}
330
173
100
AcDbXrecord
280
     1
 70
     0
 90
1673772943
  1
ECE7A1D2-D628-4531-984C-D00F80459256
310
504B03040A0000080000CC70623B3DEE336E79000000790000001B0000006175746F6465736B2D64657369676E2D7061636B6167652E786D6C3C3F786D6C2076657273696F6E3D22312E302220656E636F64696E673D227574662D3822203F3E3C666F726D6174733E3C666F726D61743E687474703A2F2F736368656D612E
310
6175746F6465736B2E636F6D2F64657369676E2D7061636B6167652F323030393C2F666F726D61743E3C2F666F726D6174733E504B0304140006080800CC70623BD486FD9CA0000000F4000000130000005B436F6E74656E745F54797065735D2E786D6C7D8EC10E82300C865F65E91D8A1E8C310C0EEA1BF002731658846E
310
D98AC1B77784ABF1D8FE5FBFBF75BBCE937A534CCEB38643598122B6FEE978D0B0485F9C41B54DDD7D022595594E1A469170414C76A4D9A4D207E29CF43ECE46F218070CC6BECC4078ACAA135ACF422C856C0E68EA1BF5669944DDD7BCDE7B1F8E415D77AECB980613C2E4AC91FC167A2B244592486606FC29C8FD7F045B9A
310
EF7053A7E60B504B0304140006080800CC70623BD9DDAED0EC0000007C01000008000000636F72652E786D6C8D90416EC3201045AF82665B61836D9CD8C2444DD39CA01740405C94182C03558F5F9C3852BBEB6A467FFE9B197D7EF89E6EE8CB2CC17A37002D0820E394D7D68D03A478C17B4007C117EFE32F1B20272733C0
310
2A83E0E3E2D3BC49CABB685CCCAAF3DA6CA20CC14440EA969B0182FA34932C648AD911AEC52CD5558EA6A0CF2EC329598D1E47ACCEFBECC59A050463A7EA5833865FEBDD0E37353BE3EE8DBDE3F6786A48D375FBF6CC78B9C282473B3DEFABC5C86834888A900E538A49F5419B9EB47DD5BC907D4F082F57FB1F28CDFA9F50
310
B22ED6D5F6EE030B20687EE43E10BC5CB3C8E51E54AE6B6EE207504B0304140006080800CC70623B55019EA25F0000007C00000007000000636E782E786D6C4DCB3B0E80201045D1AD90E915ED2CF8AC45050C11660C8261F98AB1B07AC9C97D42D718D865D3E909258CFD00CCE24AC6E326A164D74DC0B4128928FF326038
310
472BA13128B1252AC747C6BAB984FC68F0B87FE8960A5C09FE86CFB69FBA01504B0304140006080800CC70623BA24EB22D72010000D40300000C0000006662782F636F72652E786D6CC5535B6E833010BC8AE5DF0A6C5E49888CA3A6694ED00B38E05014B091B1518EDFE511A5A9D228FD2A1F60CDEC7A67C6986DCE4D8D7A
310
69BA4AAB0C073EC548AA5C17952A33ECECD15B61B4E1CC686DBF9561A44423333CC098B3D268D7CE50AE9595CA02AA74216750749DB418E5352C32DCE59FB211BE70162ABA93DF8AFC244AE9073ED050C759670D0840D390E18DF9F1706664C23973AE2A66B62A605A75ACA4C13C4976E1364A12EF355A2EBD384AF65EFA96
310
BC7B8BED2EA6719AAE16FB8491A199335B351775B991C2CA02F390D2D40B028F861F41BCA68B7518BFD0D59A524686F29B26D7164F36B94AD9289CE54E6D1DE6010819891F6E21228B3AD1831EC219194284CF98F06DD01008846CC5A1BEF83801D4CBDC6A1303536877A57A513B0953A94FC707FDBE6064EA84A9E3E6E0FA
310
EE8CF0E9198F7784A316AA0413C2C2F2E0ECA0934D1AE6D05A69BCDE9E91D2A611F573361E38FC1375157F5752AE6B6DFE4B11990F88CCBF0719EE23FF02504B0304140006080800CC70623B408A7D3B7C0000009D0000000B0000006662782F636E782E786D6C4DCCD10A83201886E15B91FFDC552A92A0064DBC8F581632
310
D3703A76F9ABD1C18E3E78F878E5F0D9027ABBFCF2292AE86E2D20171F69F6715550CB827B40839639A5F2770314A7CD293819B45C73AAFB45B35BA61ACAA1C1C7E7855C58C15BC331339661262CC762340413D68D77DA5B42298546CBE6573AF60CEB2F504B0304140006080800CC70623B449FB9BD290100001202000031
310
0000006662782F36394639363044362D344446342D343946362D394244322D3234314243333846323333332F636F72652E786D6C8D515B6EC32010BC0AE22B55850D98B871848994463E412FE002495162B07854397EA176A4F62F3F2C9A9D991D587EB84F37F0AD7D30CEF6905418026DA553C65E7A98E219ED203808EE9D
310
8B7F6810D871D23D2C3014FCE25D9A57483A1BB58D19B54EE9151C43D0110279CB971E06F9A5A7B11A53CC8C70ADE6515EC78BAE4895DB992778883E0700CB907242D17643D7E2538BD869608875438BBAE38922CAC8F1BDD90DB4691A5E2F42C153326A951B95E398B3D1FE599322163C9AE9115F7A3D46ADA0A018778810
310
84E907617BDCEE297BC5BB3DC6BC2EF47FA234AB2745C9D8D8D035EE220B50105E2F0DC1954B9FB747187D9F9D8FA0CCDB042D5FA0C015C65B42DF78BD10F3F3B363CB56C7109DCFDFBBB97E662ED92EB62D13BC2E1BCAE5777DB9966D8A1F504B0304140006080800CC70623BAD7543B64E01000033030000300000006662
310
782F36394639363044362D344446342D343946362D394244322D3234314243333846323333332F636E782E786D6CD593CD6EC32010845F0571AD6CE3D48AD20813A9873E410FBD12D82434182C7EAAE6EDBB2424CD25871E7B41D6EC30B3FA84F9E67BB2E40B4234DE8DB46F1925E094D7C6ED479AD3AE5951B2113C789FEE
310
6C943839C1488B4C05DF079FE72A69D8C96C13AAD6B8631503449F83828872B949AC57D26200B826A308D316B4064D6E46FCDA41C05550DC9E483A00797BFD207EFB092A45DE9514C1BBD22178396BD39D891265658C238DEA00936C654E5E433CB65A26D9F6EDB5EBC14EBF49A45CB856E66048291F6939A9A81BB5C89177
310
38143CA680F4AA299D66A042CEB3354A2684DC9D8D178FE0D9B8B41CAAD720F880EE7EF93C0C18769E099ECC04D5A102C8049A8A05632F4DDF376CF1DE0F6BB65C2F8627B65A33C6BB62177CEBBDAD973006829F89F22E814B54F4BC2BE347F8AA8F681390B50FA73F804400B5F542E796F19FF974E7F78DB802FE05E20750
310
4B0304140006080800CC70623B8D05915C650500003B100000340000006662782F36394639363044362D344446342D343946362D394244322D3234314243333846323333332F6F626A656374732E786D6CAD575B6FA33814FE2B887D06429276DA1565D4266D158D3A339A6846FB502932E050B66023DB74D2FDF5FB190C01
310
9276B2973C046C8ECFF53B17071F77456EBD502133CEAE6CDF9DD81665314F32965ED995DA3A17B6F5310C04E7AA47665B8C14F4CAD6DB7618A48257A5D94AE89654B91AEDDEDDFC61C998326A5B714EA4BCB265FC440BE2924AF184CA6737218AB8E976E7FA6E4338649B0A523E8D98964450A6A029F619B8588D52FE7039
310
B1BD30F0F4F730D0FF866AF6369557DB33949F31A9088B0F848DD8CCFCF9F2767A76E99CCDE733677E3EF59D9BBB9BA5E37F984D16E78BC5E5F5ED25044B25C0C96822E8D60EEFE11B91C581D77CEA34368A1F5329E68CD1B8B61F16D63A1B8E092D294B10C78C4A48EB593D192E7DED9BDEE7995E1B91FDEDD3ACEA9FE831
310
6A756F9F7D4D79F4274C90A7A04248AA51D5F8C718DAE06FB2F75AC4796EBE65D22A88A22223B995679120E2D50E41AA49C260C046A35368846B0BECD0DFF3EBEB8AD4F835768F69B9ADF25C43D30E6B646F807FAA64AD59F61715C7A54127C4AACA98BA3006A9D792DAE165E0D59B61A01FB3A9F9D838D2DAE62445C86166
310
F37564E842E7DE6A69879FEEA2DD5AE7E371E1A5E025154AC307D06A03D73EB5978C58FFA4C8E9033066E0F3BD53BEC1F39F91BE7B55103791EDE6BBB991A2046172CB4581D8B893FA674DDA17A77B3B7C413D1B511FD2743BFF8A38F03A658705E3ADF8015C3A3417FF3D7E439FF591DA0B5F18BC20C1B8981957AE6392A3
310
F43C640C01D1A0B4728E2DD4F26DB4B3C3152A252A3B4E913CEC1C72F012782FF88EFF8637AA552DBEF76408E8A8DE9E50F9E1CB3A2DA0DB1B6039A893B56063DC5B3E3FFB5F72E67AB9FEB4AEC496C4F4C1149625DD662C53E89D7BF0F6151A046260D1337DFDC94502430F83B0EE07A130A224BCAD7DAE1D9FB6CD422FF6
310
920702629C4BB9AE79C12F243C6432A6794E18E5552BA56B431AAB5D91317302B2B071E86C3A42B1A02F999E24061403B5D0EB639195DA655DD3EBEAB4FB862DDF579F014AD0E73C22F99E28DA57FB98E75C6CA2D74D53086D600F4786E0FE3144B771A8A7B900F03594DB8A633CBC49B2EDB69228BB479CF863B5E807AAAB
310
23872F6DFEB4129B949CA33823F58830E86D65621E10047D9DB34D862E8EAC3C2ABC2F7B2C40D67CDFE01F5545B92105AF983AC54D93D69E56FB8E797F88913F898A9FEC705D3F9D1B54EC8426FB500D40A03BD0119B06E1B95DDC7EB8F6975367793EBD70E66733DFB9BC982F9CE564727731999F5D4ECFCE3B8D6A4DC2A0
310
6D50FD148437D110834A64C6CDDF57FBACB5C307A2A477DFE4939736CFEF2B175371E0E10CF0DD1D5C15654E0BCA14D1E87DD02FF93782A162C0A3D95F1524A52770F972BF1EE9809D13CE7DD599467F8ECE9ADD85CE85A34CD45355448C64F9E8A031DC2D596ACC6E5DD93D9B82DE2EF5CAF81363A8E47996A0DE24564A79
310
4115AACE09C55E14540231FDA13C319787134EBF34E3A022514E5B4D9E0826E25C02D5805B15ABE1BEF51B26383D445DD9E875EE33FE4C22DA16427D65A3BCA92CA6D28DD01DF5DC53330704308475351050232CCD31583787BA75774AFB06E5070DD0C8EF484E19968C5D83BA5B90B244D31E54D55A372320FE4786B7EA58
310
44E135AA5467CB7EA333A61683CC6A8C3257034C10CF46F40EF9F5BE59BE5BD30C3C72D235E95D10345C1D45445A5F0BB47E46A5EBE5570F9380B5FA629579952296A773720405982B9DE04011506178964401AA8BDF1FBF0A8EAB6861DD6580C0E38217056766716DAEB2D6FA0917D3E4116581EADB879C4E7CFFB11EFACD
310
3D641311495D92C8676CB409A72D18610D803CE8A626049E8EC1887CB5B44CC39883690DDA8399B4B9855B481E7D71D4A9D22F96E5BB73BF5793020C02137BF837504B0304140006080000CC70623B000000000000000000000000350000006662782F36394639363044362D344446342D343946362D394244322D32343142
310
43333846323333332F76657274696365732E62696E504B0304140006080800CC70623BF270F1330600000004000000360000006662782F36394639363044362D344446342D343946362D394244322D3234314243333846323333332F747269616E676C65732E62696E636660600000504B0304140006080000CC70623B0000
310
00000000000000000000370000006662782F36394639363044362D344446342D343946362D394244322D3234314243333846323333332F617474726962757465732E62696E504B0304140006080800CC70623B08DA0BD19000000041010000360000006662782F36394639363044362D344446342D343946362D394244322D
310
3234314243333846323333332F6469726563746F72792E786D6C858F410AC3201045AF22B36F53E9A60B35CBEEBAE80D244E44489C6234F4F835464A48035D0DF398FF9F8AF63D0E6CC63039F212F8F9020C7D47C6792B21C5FE7403D62A1188E2E60C98D7234A5830286103A55745067B9D86B8A3CF9C7F90C11DE607FB14
310
4396D7B6A82D282E9A152AD114D5EF2CB866EEE831B8EEA07A7BB5A8D7D61A2BAAEB7FD5F70921FF497D00504B0304140006080800CC70623BCA768048FE000000A00100003B0000006662782F36394639363044362D344446342D343946362D394244322D3234314243333846323333332F7265736F75726365732F636F72
310
652E786D6C8D50596E833010BD0A9ADFCA60D600328E9AA639412F609909B1126CE4A5EAF16B0295DABFFECC8CDEA2797AECF8353F924FB44E193D409E5248504B332A3D0D10FC95B4901C39B3C6F85F3248B49871801506CE266BC2B243D2688FDA47549B11775038871E12F988C7004EDE7016A9083E2ADC3D5D84BC8B09
310
D33C8D74D471E6BC8D0192EDC93A815B742658898E651BCB59086ADC356A8C3FD555A1055ED7E7E254D615792D0F075295F585746FF53B694EE78A565DD736979A65AB9933AFE69F8CD2A2F038022F28ED489E135A7CE4554F9BBEA85E68DB53CAB255FEC71496F19FA6A0B42F8B3DEE6673C0F318E4497096AD7DC5F52C33
310
EEB55BFE0D504B010214000A0000080000CC70623B3DEE336E79000000790000001B00000000000000000000000000000000006175746F6465736B2D64657369676E2D7061636B6167652E786D6C504B01021400140006080800CC70623BD486FD9CA0000000F40000001300000000000000000000000000B20000005B436F
310
6E74656E745F54797065735D2E786D6C504B01021400140006080800CC70623BD9DDAED0EC0000007C010000080000000000000000000000000083010000636F72652E786D6C504B01021400140006080800CC70623B55019EA25F0000007C000000070000000000000000000000000095020000636E782E786D6C504B0102
310
1400140006080800CC70623BA24EB22D72010000D40300000C00000000000000000000000000190300006662782F636F72652E786D6C504B01021400140006080800CC70623B408A7D3B7C0000009D0000000B00000000000000000000000000B50400006662782F636E782E786D6C504B01021400140006080800CC70623B
310
449FB9BD290100001202000031000000000000000000000000005A0500006662782F36394639363044362D344446342D343946362D394244322D3234314243333846323333332F636F72652E786D6C504B01021400140006080800CC70623BAD7543B64E010000330300003000000000000000000000000000D20600006662
310
782F36394639363044362D344446342D343946362D394244322D3234314243333846323333332F636E782E786D6C504B01021400140006080800CC70623B8D05915C650500003B10000034000000000000000000000000006E0800006662782F36394639363044362D344446342D343946362D394244322D32343142433338
310
46323333332F6F626A656374732E786D6C504B01021400140006080000CC70623B0000000000000000000000003500000000000000000000000000250E00006662782F36394639363044362D344446342D343946362D394244322D3234314243333846323333332F76657274696365732E62696E504B010214001400060808
310
00CC70623BF270F13306000000040000003600000000000000000000000000780E00006662782F36394639363044362D344446342D343946362D394244322D3234314243333846323333332F747269616E676C65732E62696E504B01021400140006080000CC70623B00000000000000000000000037000000000000000000
310
00000000D20E00006662782F36394639363044362D344446342D343946362D394244322D3234314243333846323333332F617474726962757465732E62696E504B01021400140006080800CC70623B08DA0BD190000000410100003600000000000000000000000000270F00006662782F36394639363044362D344446342D
310
343946362D394244322D3234314243333846323333332F6469726563746F72792E786D6C504B01021400140006080800CC70623BCA768048FE000000A00100003B000000000000000000000000000B1000006662782F36394639363044362D344446342D343946362D394244322D3234314243333846323333332F7265736F
310
75726365732F636F72652E786D6C504B0506000000000E000E0080040000621100000000
  0
XRECORD
  5
176
102
{ACAD_REACTORS
330
173
102
}
330
173
100
AcDbXrecord
280
     1
270
     1
271
     1
  0
XRECORD
  5
177
102
{ACAD_REACTORS
330
173
102
}
330
173
100
AcDbXrecord
280
     1
270
     1
271
     1
  0
XRECORD
  5
12E4F
102
{ACAD_REACTORS
330
12E4E
102
}
330
12E4E
100
AcDbXrecord
280
     1
102
ACAD_ROUNDTRIP_2012_MLEADER_STYLE
298
     1
  0
XRECORD
  5
12E61
102
{ACAD_REACTORS
330
12E60
102
}
330
12E60
100
AcDbXrecord
280
     1
102
DISPLAYNAME
  1
Metric50
102
FLAGS
 90
        0
  0
CELLSTYLEMAP
  5
12E21
102
{ACAD_REACTORS
330
162
102
}
330
162
100
AcDbCellStyleMap
 90
        3
300
CELLSTYLE
  1
TABLEFORMAT_BEGIN
 90
        5
170
     1
 91
        0
 92
    32768
 62
   257
 93
        1
300
CONTENTFORMAT
  1
CONTENTFORMAT_BEGIN
 90
        0
 91
        0
 92
      512
 93
        0
300

 40
0.0
140
1.0
 94
        5
 62
     0
340
11
144
6.0
309
CONTENTFORMAT_END
171
     1
301
MARGIN
  1
CELLMARGIN_BEGIN
 40
1.5
 40
1.5
 40
1.5
 40
1.5
 40
4.5
 40
4.5
309
CELLMARGIN_END
 94
        6
 95
        1
302
GRIDFORMAT
  1
GRIDFORMAT_BEGIN
 90
        0
 91
        1
 62
     0
 92
       -2
340
14
 93
        0
 40
1.125
309
GRIDFORMAT_END
 95
        2
302
GRIDFORMAT
  1
GRIDFORMAT_BEGIN
 90
        0
 91
        1
 62
     0
 92
       -2
340
14
 93
        0
 40
1.125
309
GRIDFORMAT_END
 95
        4
302
GRIDFORMAT
  1
GRIDFORMAT_BEGIN
 90
        0
 91
        1
 62
     0
 92
       -2
340
14
 93
        0
 40
1.125
309
GRIDFORMAT_END
 95
        8
302
GRIDFORMAT
  1
GRIDFORMAT_BEGIN
 90
        0
 91
        1
 62
     0
 92
       -2
340
14
 93
        0
 40
1.125
309
GRIDFORMAT_END
 95
       16
302
GRIDFORMAT
  1
GRIDFORMAT_BEGIN
 90
        0
 91
        1
 62
     0
 92
       -2
340
14
 93
        0
 40
1.125
309
GRIDFORMAT_END
 95
       32
302
GRIDFORMAT
  1
GRIDFORMAT_BEGIN
 90
        0
 91
        1
 62
     0
 92
       -2
340
14
 93
        0
 40
1.125
309
GRIDFORMAT_END
309
TABLEFORMAT_END
  1
CELLSTYLE_BEGIN
 90
        1
 91
        1
300
_TITLE
309
CELLSTYLE_END
300
CELLSTYLE
  1
TABLEFORMAT_BEGIN
 90
        5
170
     1
 91
        0
 92
        0
 62
   257
 93
        1
300
CONTENTFORMAT
  1
CONTENTFORMAT_BEGIN
 90
        0
 91
        0
 92
      512
 93
        0
300

 40
0.0
140
1.0
 94
        5
 62
     0
340
11
144
4.5
309
CONTENTFORMAT_END
171
     1
301
MARGIN
  1
CELLMARGIN_BEGIN
 40
1.5
 40
1.5
 40
1.5
 40
1.5
 40
4.5
 40
4.5
309
CELLMARGIN_END
 94
        6
 95
        1
302
GRIDFORMAT
  1
GRIDFORMAT_BEGIN
 90
        0
 91
        1
 62
     0
 92
       -2
340
14
 93
        0
 40
1.125
309
GRIDFORMAT_END
 95
        2
302
GRIDFORMAT
  1
GRIDFORMAT_BEGIN
 90
        0
 91
        1
 62
     0
 92
       -2
340
14
 93
        0
 40
1.125
309
GRIDFORMAT_END
 95
        4
302
GRIDFORMAT
  1
GRIDFORMAT_BEGIN
 90
        0
 91
        1
 62
     0
 92
       -2
340
14
 93
        0
 40
1.125
309
GRIDFORMAT_END
 95
        8
302
GRIDFORMAT
  1
GRIDFORMAT_BEGIN
 90
        0
 91
        1
 62
     0
 92
       -2
340
14
 93
        0
 40
1.125
309
GRIDFORMAT_END
 95
       16
302
GRIDFORMAT
  1
GRIDFORMAT_BEGIN
 90
        0
 91
        1
 62
     0
 92
       -2
340
14
 93
        0
 40
1.125
309
GRIDFORMAT_END
 95
       32
302
GRIDFORMAT
  1
GRIDFORMAT_BEGIN
 90
        0
 91
        1
 62
     0
 92
       -2
340
14
 93
        0
 40
1.125
309
GRIDFORMAT_END
309
TABLEFORMAT_END
  1
CELLSTYLE_BEGIN
 90
        2
 91
        1
300
_HEADER
309
CELLSTYLE_END
300
CELLSTYLE
  1
TABLEFORMAT_BEGIN
 90
        5
170
     1
 91
        0
 92
        0
 62
   257
 93
        1
300
CONTENTFORMAT
  1
CONTENTFORMAT_BEGIN
 90
        0
 91
        0
 92
      512
 93
        0
300

 40
0.0
140
1.0
 94
        2
 62
     0
340
11
144
4.5
309
CONTENTFORMAT_END
171
     1
301
MARGIN
  1
CELLMARGIN_BEGIN
 40
1.5
 40
1.5
 40
1.5
 40
1.5
 40
4.5
 40
4.5
309
CELLMARGIN_END
 94
        6
 95
        1
302
GRIDFORMAT
  1
GRIDFORMAT_BEGIN
 90
        0
 91
        1
 62
     0
 92
       -2
340
14
 93
        0
 40
1.125
309
GRIDFORMAT_END
 95
        2
302
GRIDFORMAT
  1
GRIDFORMAT_BEGIN
 90
        0
 91
        1
 62
     0
 92
       -2
340
14
 93
        0
 40
1.125
309
GRIDFORMAT_END
 95
        4
302
GRIDFORMAT
  1
GRIDFORMAT_BEGIN
 90
        0
 91
        1
 62
     0
 92
       -2
340
14
 93
        0
 40
1.125
309
GRIDFORMAT_END
 95
        8
302
GRIDFORMAT
  1
GRIDFORMAT_BEGIN
 90
        0
 91
        1
 62
     0
 92
       -2
340
14
 93
        0
 40
1.125
309
GRIDFORMAT_END
 95
       16
302
GRIDFORMAT
  1
GRIDFORMAT_BEGIN
 90
        0
 91
        1
 62
     0
 92
       -2
340
14
 93
        0
 40
1.125
309
GRIDFORMAT_END
 95
       32
302
GRIDFORMAT
  1
GRIDFORMAT_BEGIN
 90
        0
 91
        1
 62
     0
 92
       -2
340
14
 93
        0
 40
1.125
309
GRIDFORMAT_END
309
TABLEFORMAT_END
  1
CELLSTYLE_BEGIN
 90
        3
 91
        2
300
_DATA
309
CELLSTYLE_END
  0
XRECORD
  5
12E26
102
{ACAD_REACTORS
330
162
102
}
330
162
100
AcDbXrecord
280
     1
102
ACAD_ROUNDTRIP_PRE2007_TABLESTYLE
 90
      512
 91
        0
  1

 92
      512
 93
        0
  2

 94
      512
 95
        0
  3

  0
XRECORD
  5
12E39
102
{ACAD_REACTORS
330
12E38
102
}
330
12E38
100
AcDbXrecord
280
     1
102
RTVSPost2010Prop28
280
     1
102
RTVSPost2010PropOp28
 70
     1
102
RTVSPost2010Prop29
280
     1
102
RTVSPost2010PropOp29
 70
     1
102
RTVSPost2010Prop30
280
     0
102
RTVSPost2010PropOp30
 70
     1
102
RTVSPost2010Prop31
280
     0
102
RTVSPost2010PropOp31
 70
     1
102
RTVSPost2010Prop32
280
     0
102
RTVSPost2010PropOp32
 70
     1
102
RTVSPost2010Prop33
280
     0
102
RTVSPost2010PropOp33
 70
     1
102
RTVSPost2010Prop34
280
     0
102
RTVSPost2010PropOp34
 70
     1
102
RTVSPost2010Prop35
280
     0
102
RTVSPost2010PropOp35
 70
     1
102
RTVSPost2010Prop36
280
     0
102
RTVSPost2010PropOp36
 70
     1
102
RTVSPost2010Prop37
 90
       50
102
RTVSPost2010PropOp37
 70
     1
102
RTVSPost2010Prop38
140
0.0
102
RTVSPost2010PropOp38
 70
     1
102
RTVSPost2010Prop39
140
1.0
102
RTVSPost2010PropOp39
 70
     1
102
RTVSPost2010Prop40
 90
        0
102
RTVSPost2010PropOp40
 70
     1
102
RTVSPost2010Prop41ColorIndex
 90
       18
102
RTVSPost2010Prop41ColorRGB
 90
        0
102
RTVSPost2010PropOp41
 70
     1
102
RTVSPost2010Prop42
 90
       50
102
RTVSPost2010PropOp42
 70
     1
102
RTVSPost2010Prop43
 90
        3
102
RTVSPost2010PropOp43
 70
     1
102
RTVSPost2010Prop44ColorIndex
 90
        5
102
RTVSPost2010Prop44ColorRGB
 90
      255
102
RTVSPost2010PropOp44
 70
     1
102
RTVSPost2010Prop45
280
     0
102
RTVSPost2010PropOp45
 70
     1
102
RTVSPost2010Prop46
 90
       50
102
RTVSPost2010PropOp46
 70
     1
102
RTVSPost2010Prop47
 90
       50
102
RTVSPost2010PropOp47
 70
     1
102
RTVSPost2010Prop48
 90
       50
102
RTVSPost2010PropOp48
 70
     1
102
RTVSPost2010Prop49
280
     0
102
RTVSPost2010PropOp49
 70
     1
102
RTVSPost2010Prop50
 90
       50
102
RTVSPost2010PropOp50
 70
     1
102
RTVSPost2010Prop51ColorIndex
 90
      256
102
RTVSPost2010Prop51ColorRGB
 90
-16777216
102
RTVSPost2010PropOp51
 70
     0
102
RTVSPost2010Prop52
140
1.0
102
RTVSPost2010PropOp52
 70
     0
102
RTVSPost2010Prop53
 90
        2
102
RTVSPost2010PropOp53
 70
     1
102
RTVSPost2010Prop54
  1
strokes_ogs.tif
102
RTVSPost2010PropOp54
 70
     1
102
RTVSPost2010Prop55
280
     0
102
RTVSPost2010PropOp55
 70
     1
102
RTVSPost2010Prop56
140
1.0
102
RTVSPost2010PropOp56
 70
     1
102
RTVSPost2010Prop57
140
1.0
102
RTVSPost2010PropOp57
 70
     1
102
RTVSPropertyOp0
 70
     1
102
RTVSPropertyOp1
 70
     1
102
RTVSPropertyOp2
 70
     1
102
RTVSPropertyOp3
 70
     1
102
RTVSPropertyOp4
 70
     1
102
RTVSPropertyOp5
 70
     1
102
RTVSPropertyOp6
 70
     1
102
RTVSPropertyOp7
 70
     1
102
RTVSPropertyOp8
 70
     1
102
RTVSPropertyOp9
 70
     1
102
RTVSPropertyOp10
 70
     1
102
RTVSPropertyOp11
 70
     1
102
RTVSPropertyOp12
 70
     1
102
RTVSPropertyOp13
 70
     1
102
RTVSPropertyOp14
 70
     1
102
RTVSPropertyOp15
 70
     1
102
RTVSPropertyOp16
 70
     1
102
RTVSPropertyOp17
 70
     1
102
RTVSPropertyOp18
 70
     1
102
RTVSPropertyOp19
 70
     1
102
RTVSPropertyOp20
 70
     1
102
RTVSPropertyOp21
 70
     1
102
RTVSPropertyOp22
 70
     1
102
RTVSPropertyOp23
 70
     1
102
RTVSPropertyOp24
 70
     1
102
RTVSPropertyOp25
 70
     1
102
RTVSPropertyOp26
 70
     1
102
RTVSPropertyOp27
 70
     1
102
RTVSPropertyOp28
 70
     1
102
RTVSPropertyOp29
 70
     1
102
RTVSPropertyOp30
 70
     1
102
RTVSPropertyOp31
 70
     1
102
RTVSPropertyOp32
 70
     1
102
RTVSPropertyOp33
 70
     1
102
RTVSPropertyOp34
 70
     1
102
RTVSPropertyOp35
 70
     1
102
RTVSPropertyOp36
 70
     1
102
RTVSPropertyOp37
 70
     1
102
RTVSPropertyOp38
 70
     1
102
RTVSPropertyOp39
 70
     1
102
RTVSPropertyOp40
 70
     1
102
RTVSPropertyOp41
 70
     1
102
RTVSPropertyOp42
 70
     1
102
RTVSPropertyOp43
 70
     1
102
RTVSPropertyOp44
 70
     1
102
RTVSPropertyOp45
 70
     1
102
RTVSPropertyOp46
 70
     1
102
RTVSPropertyOp47
 70
     1
102
RTVSPropertyOp48
 70
     1
102
RTVSPropertyOp49
 70
     1
102
RTVSPropertyOp50
 70
     1
102
RTVSPropertyOp51
 70
     0
102
RTVSPropertyOp52
 70
     0
102
RTVSPropertyOp53
 70
     1
102
RTVSPropertyOp54
 70
     1
102
RTVSPropertyOp55
 70
     1
102
RTVSPropertyOp56
 70
     1
102
RTVSPropertyOp57
 70
     1
102
RTVSPropertyOp58
 70
     1
102
RTVSPropertyOp59
 70
     1
102
RTVSPropertyOp60
 70
     1
102
RTVSPropertyOp61
 70
     1
102
RTVSPropertyOp62
 70
     1
  0
XRECORD
  5
12E37
102
{ACAD_REACTORS
330
12E36
102
}
330
12E36
100
AcDbXrecord
280
     1
102
RTVSPost2010Prop28
280
     0
102
RTVSPost2010PropOp28
 70
     1
102
RTVSPost2010Prop29
280
     1
102
RTVSPost2010PropOp29
 70
     1
102
RTVSPost2010Prop30
280
     1
102
RTVSPost2010PropOp30
 70
     1
102
RTVSPost2010Prop31
280
     0
102
RTVSPost2010PropOp31
 70
     1
102
RTVSPost2010Prop32
280
     0
102
RTVSPost2010PropOp32
 70
     1
102
RTVSPost2010Prop33
280
     0
102
RTVSPost2010PropOp33
 70
     1
102
RTVSPost2010Prop34
280
     0
102
RTVSPost2010PropOp34
 70
     1
102
RTVSPost2010Prop35
280
     0
102
RTVSPost2010PropOp35
 70
     1
102
RTVSPost2010Prop36
280
     0
102
RTVSPost2010PropOp36
 70
     1
102
RTVSPost2010Prop37
 90
       50
102
RTVSPost2010PropOp37
 70
     1
102
RTVSPost2010Prop38
140
0.0
102
RTVSPost2010PropOp38
 70
     1
102
RTVSPost2010Prop39
140
1.0
102
RTVSPost2010PropOp39
 70
     1
102
RTVSPost2010Prop40
 90
        0
102
RTVSPost2010PropOp40
 70
     1
102
RTVSPost2010Prop41ColorIndex
 90
       18
102
RTVSPost2010Prop41ColorRGB
 90
        0
102
RTVSPost2010PropOp41
 70
     1
102
RTVSPost2010Prop42
 90
       50
102
RTVSPost2010PropOp42
 70
     1
102
RTVSPost2010Prop43
 90
        3
102
RTVSPost2010PropOp43
 70
     1
102
RTVSPost2010Prop44ColorIndex
 90
        5
102
RTVSPost2010Prop44ColorRGB
 90
      255
102
RTVSPost2010PropOp44
 70
     1
102
RTVSPost2010Prop45
280
     0
102
RTVSPost2010PropOp45
 70
     1
102
RTVSPost2010Prop46
 90
       50
102
RTVSPost2010PropOp46
 70
     1
102
RTVSPost2010Prop47
 90
       50
102
RTVSPost2010PropOp47
 70
     1
102
RTVSPost2010Prop48
 90
       50
102
RTVSPost2010PropOp48
 70
     1
102
RTVSPost2010Prop49
280
     0
102
RTVSPost2010PropOp49
 70
     1
102
RTVSPost2010Prop50
 90
       50
102
RTVSPost2010PropOp50
 70
     1
102
RTVSPost2010Prop51ColorIndex
 90
      256
102
RTVSPost2010Prop51ColorRGB
 90
-16777216
102
RTVSPost2010PropOp51
 70
     0
102
RTVSPost2010Prop52
140
1.0
102
RTVSPost2010PropOp52
 70
     0
102
RTVSPost2010Prop53
 90
        2
102
RTVSPost2010PropOp53
 70
     1
102
RTVSPost2010Prop54
  1
strokes_ogs.tif
102
RTVSPost2010PropOp54
 70
     1
102
RTVSPost2010Prop55
280
     0
102
RTVSPost2010PropOp55
 70
     1
102
RTVSPost2010Prop56
140
1.0
102
RTVSPost2010PropOp56
 70
     1
102
RTVSPost2010Prop57
140
1.0
102
RTVSPost2010PropOp57
 70
     1
102
RTVSPropertyOp0
 70
     1
102
RTVSPropertyOp1
 70
     1
102
RTVSPropertyOp2
 70
     1
102
RTVSPropertyOp3
 70
     1
102
RTVSPropertyOp4
 70
     1
102
RTVSPropertyOp5
 70
     1
102
RTVSPropertyOp6
 70
     1
102
RTVSPropertyOp7
 70
     1
102
RTVSPropertyOp8
 70
     1
102
RTVSPropertyOp9
 70
     1
102
RTVSPropertyOp10
 70
     1
102
RTVSPropertyOp11
 70
     1
102
RTVSPropertyOp12
 70
     1
102
RTVSPropertyOp13
 70
     1
102
RTVSPropertyOp14
 70
     1
102
RTVSPropertyOp15
 70
     1
102
RTVSPropertyOp16
 70
     1
102
RTVSPropertyOp17
 70
     1
102
RTVSPropertyOp18
 70
     1
102
RTVSPropertyOp19
 70
     1
102
RTVSPropertyOp20
 70
     1
102
RTVSPropertyOp21
 70
     1
102
RTVSPropertyOp22
 70
     1
102
RTVSPropertyOp23
 70
     1
102
RTVSPropertyOp24
 70
     1
102
RTVSPropertyOp25
 70
     1
102
RTVSPropertyOp26
 70
     1
102
RTVSPropertyOp27
 70
     1
102
RTVSPropertyOp28
 70
     1
102
RTVSPropertyOp29
 70
     1
102
RTVSPropertyOp30
 70
     1
102
RTVSPropertyOp31
 70
     1
102
RTVSPropertyOp32
 70
     1
102
RTVSPropertyOp33
 70
     1
102
RTVSPropertyOp34
 70
     1
102
RTVSPropertyOp35
 70
     1
102
RTVSPropertyOp36
 70
     1
102
RTVSPropertyOp37
 70
     1
102
RTVSPropertyOp38
 70
     1
102
RTVSPropertyOp39
 70
     1
102
RTVSPropertyOp40
 70
     1
102
RTVSPropertyOp41
 70
     1
102
RTVSPropertyOp42
 70
     1
102
RTVSPropertyOp43
 70
     1
102
RTVSPropertyOp44
 70
     1
102
RTVSPropertyOp45
 70
     1
102
RTVSPropertyOp46
 70
     1
102
RTVSPropertyOp47
 70
     1
102
RTVSPropertyOp48
 70
     1
102
RTVSPropertyOp49
 70
     1
102
RTVSPropertyOp50
 70
     1
102
RTVSPropertyOp51
 70
     0
102
RTVSPropertyOp52
 70
     0
102
RTVSPropertyOp53
 70
     1
102
RTVSPropertyOp54
 70
     1
102
RTVSPropertyOp55
 70
     1
102
RTVSPropertyOp56
 70
     1
102
RTVSPropertyOp57
 70
     1
102
RTVSPropertyOp58
 70
     1
102
RTVSPropertyOp59
 70
     1
102
RTVSPropertyOp60
 70
     1
102
RTVSPropertyOp61
 70
     1
102
RTVSPropertyOp62
 70
     1
  0
XRECORD
  5
12E45
102
{ACAD_REACTORS
330
12E44
102
}
330
12E44
100
AcDbXrecord
280
     1
102
RTVSPost2010Prop28
280
     0
102
RTVSPost2010PropOp28
 70
     1
102
RTVSPost2010Prop29
280
     1
102
RTVSPost2010PropOp29
 70
     1
102
RTVSPost2010Prop30
280
     1
102
RTVSPost2010PropOp30
 70
     1
102
RTVSPost2010Prop31
280
     0
102
RTVSPost2010PropOp31
 70
     1
102
RTVSPost2010Prop32
280
     0
102
RTVSPost2010PropOp32
 70
     1
102
RTVSPost2010Prop33
280
     0
102
RTVSPost2010PropOp33
 70
     1
102
RTVSPost2010Prop34
280
     0
102
RTVSPost2010PropOp34
 70
     1
102
RTVSPost2010Prop35
280
     0
102
RTVSPost2010PropOp35
 70
     1
102
RTVSPost2010Prop36
280
     0
102
RTVSPost2010PropOp36
 70
     1
102
RTVSPost2010Prop37
 90
       50
102
RTVSPost2010PropOp37
 70
     1
102
RTVSPost2010Prop38
140
0.0
102
RTVSPost2010PropOp38
 70
     1
102
RTVSPost2010Prop39
140
1.0
102
RTVSPost2010PropOp39
 70
     1
102
RTVSPost2010Prop40
 90
        0
102
RTVSPost2010PropOp40
 70
     1
102
RTVSPost2010Prop41ColorIndex
 90
       18
102
RTVSPost2010Prop41ColorRGB
 90
        0
102
RTVSPost2010PropOp41
 70
     1
102
RTVSPost2010Prop42
 90
       50
102
RTVSPost2010PropOp42
 70
     1
102
RTVSPost2010Prop43
 90
        3
102
RTVSPost2010PropOp43
 70
     1
102
RTVSPost2010Prop44ColorIndex
 90
        5
102
RTVSPost2010Prop44ColorRGB
 90
      255
102
RTVSPost2010PropOp44
 70
     1
102
RTVSPost2010Prop45
280
     0
102
RTVSPost2010PropOp45
 70
     1
102
RTVSPost2010Prop46
 90
       50
102
RTVSPost2010PropOp46
 70
     1
102
RTVSPost2010Prop47
 90
       50
102
RTVSPost2010PropOp47
 70
     1
102
RTVSPost2010Prop48
 90
       50
102
RTVSPost2010PropOp48
 70
     1
102
RTVSPost2010Prop49
280
     0
102
RTVSPost2010PropOp49
 70
     1
102
RTVSPost2010Prop50
 90
       50
102
RTVSPost2010PropOp50
 70
     1
102
RTVSPost2010Prop51ColorIndex
 90
      256
102
RTVSPost2010Prop51ColorRGB
 90
-16777216
102
RTVSPost2010PropOp51
 70
     0
102
RTVSPost2010Prop52
140
1.0
102
RTVSPost2010PropOp52
 70
     0
102
RTVSPost2010Prop53
 90
        2
102
RTVSPost2010PropOp53
 70
     1
102
RTVSPost2010Prop54
  1
strokes_ogs.tif
102
RTVSPost2010PropOp54
 70
     1
102
RTVSPost2010Prop55
280
     0
102
RTVSPost2010PropOp55
 70
     1
102
RTVSPost2010Prop56
140
1.0
102
RTVSPost2010PropOp56
 70
     1
102
RTVSPost2010Prop57
140
1.0
102
RTVSPost2010PropOp57
 70
     1
102
RTVSPropertyOp0
 70
     1
102
RTVSPropertyOp1
 70
     1
102
RTVSPropertyOp2
 70
     1
102
RTVSPropertyOp3
 70
     1
102
RTVSPropertyOp4
 70
     1
102
RTVSPropertyOp5
 70
     1
102
RTVSPropertyOp6
 70
     1
102
RTVSPropertyOp7
 70
     1
102
RTVSPropertyOp8
 70
     1
102
RTVSPropertyOp9
 70
     1
102
RTVSPropertyOp10
 70
     1
102
RTVSPropertyOp11
 70
     1
102
RTVSPropertyOp12
 70
     1
102
RTVSPropertyOp13
 70
     1
102
RTVSPropertyOp14
 70
     1
102
RTVSPropertyOp15
 70
     1
102
RTVSPropertyOp16
 70
     1
102
RTVSPropertyOp17
 70
     1
102
RTVSPropertyOp18
 70
     1
102
RTVSPropertyOp19
 70
     1
102
RTVSPropertyOp20
 70
     1
102
RTVSPropertyOp21
 70
     1
102
RTVSPropertyOp22
 70
     1
102
RTVSPropertyOp23
 70
     1
102
RTVSPropertyOp24
 70
     1
102
RTVSPropertyOp25
 70
     1
102
RTVSPropertyOp26
 70
     1
102
RTVSPropertyOp27
 70
     1
102
RTVSPropertyOp28
 70
     1
102
RTVSPropertyOp29
 70
     1
102
RTVSPropertyOp30
 70
     1
102
RTVSPropertyOp31
 70
     1
102
RTVSPropertyOp32
 70
     1
102
RTVSPropertyOp33
 70
     1
102
RTVSPropertyOp34
 70
     1
102
RTVSPropertyOp35
 70
     1
102
RTVSPropertyOp36
 70
     1
102
RTVSPropertyOp37
 70
     1
102
RTVSPropertyOp38
 70
     1
102
RTVSPropertyOp39
 70
     1
102
RTVSPropertyOp40
 70
     1
102
RTVSPropertyOp41
 70
     1
102
RTVSPropertyOp42
 70
     1
102
RTVSPropertyOp43
 70
     1
102
RTVSPropertyOp44
 70
     1
102
RTVSPropertyOp45
 70
     1
102
RTVSPropertyOp46
 70
     1
102
RTVSPropertyOp47
 70
     1
102
RTVSPropertyOp48
 70
     1
102
RTVSPropertyOp49
 70
     1
102
RTVSPropertyOp50
 70
     1
102
RTVSPropertyOp51
 70
     0
102
RTVSPropertyOp52
 70
     0
102
RTVSPropertyOp53
 70
     1
102
RTVSPropertyOp54
 70
     1
102
RTVSPropertyOp55
 70
     1
102
RTVSPropertyOp56
 70
     1
102
RTVSPropertyOp57
 70
     1
102
RTVSPropertyOp58
 70
     1
102
RTVSPropertyOp59
 70
     1
102
RTVSPropertyOp60
 70
     1
102
RTVSPropertyOp61
 70
     1
102
RTVSPropertyOp62
 70
     1
  0
XRECORD
  5
12E4D
102
{ACAD_REACTORS
330
12E4C
102
}
330
12E4C
100
AcDbXrecord
280
     1
102
RTVSPost2010Prop28
280
     0
102
RTVSPost2010PropOp28
 70
     1
102
RTVSPost2010Prop29
280
     1
102
RTVSPost2010PropOp29
 70
     1
102
RTVSPost2010Prop30
280
     1
102
RTVSPost2010PropOp30
 70
     1
102
RTVSPost2010Prop31
280
     0
102
RTVSPost2010PropOp31
 70
     1
102
RTVSPost2010Prop32
280
     0
102
RTVSPost2010PropOp32
 70
     1
102
RTVSPost2010Prop33
280
     0
102
RTVSPost2010PropOp33
 70
     1
102
RTVSPost2010Prop34
280
     0
102
RTVSPost2010PropOp34
 70
     1
102
RTVSPost2010Prop35
280
     0
102
RTVSPost2010PropOp35
 70
     1
102
RTVSPost2010Prop36
280
     0
102
RTVSPost2010PropOp36
 70
     1
102
RTVSPost2010Prop37
 90
       50
102
RTVSPost2010PropOp37
 70
     1
102
RTVSPost2010Prop38
140
0.0
102
RTVSPost2010PropOp38
 70
     1
102
RTVSPost2010Prop39
140
1.0
102
RTVSPost2010PropOp39
 70
     1
102
RTVSPost2010Prop40
 90
        0
102
RTVSPost2010PropOp40
 70
     1
102
RTVSPost2010Prop41ColorIndex
 90
       18
102
RTVSPost2010Prop41ColorRGB
 90
        0
102
RTVSPost2010PropOp41
 70
     1
102
RTVSPost2010Prop42
 90
       50
102
RTVSPost2010PropOp42
 70
     1
102
RTVSPost2010Prop43
 90
        3
102
RTVSPost2010PropOp43
 70
     1
102
RTVSPost2010Prop44ColorIndex
 90
        5
102
RTVSPost2010Prop44ColorRGB
 90
      255
102
RTVSPost2010PropOp44
 70
     1
102
RTVSPost2010Prop45
280
     0
102
RTVSPost2010PropOp45
 70
     1
102
RTVSPost2010Prop46
 90
       50
102
RTVSPost2010PropOp46
 70
     1
102
RTVSPost2010Prop47
 90
       50
102
RTVSPost2010PropOp47
 70
     1
102
RTVSPost2010Prop48
 90
       50
102
RTVSPost2010PropOp48
 70
     1
102
RTVSPost2010Prop49
280
     0
102
RTVSPost2010PropOp49
 70
     1
102
RTVSPost2010Prop50
 90
       50
102
RTVSPost2010PropOp50
 70
     1
102
RTVSPost2010Prop51ColorIndex
 90
      256
102
RTVSPost2010Prop51ColorRGB
 90
-16777216
102
RTVSPost2010PropOp51
 70
     0
102
RTVSPost2010Prop52
140
1.0
102
RTVSPost2010PropOp52
 70
     0
102
RTVSPost2010Prop53
 90
        2
102
RTVSPost2010PropOp53
 70
     1
102
RTVSPost2010Prop54
  1
strokes_ogs.tif
102
RTVSPost2010PropOp54
 70
     1
102
RTVSPost2010Prop55
280
     0
102
RTVSPost2010PropOp55
 70
     1
102
RTVSPost2010Prop56
140
1.0
102
RTVSPost2010PropOp56
 70
     1
102
RTVSPost2010Prop57
140
1.0
102
RTVSPost2010PropOp57
 70
     1
102
RTVSPropertyOp0
 70
     1
102
RTVSPropertyOp1
 70
     1
102
RTVSPropertyOp2
 70
     1
102
RTVSPropertyOp3
 70
     1
102
RTVSPropertyOp4
 70
     1
102
RTVSPropertyOp5
 70
     1
102
RTVSPropertyOp6
 70
     1
102
RTVSPropertyOp7
 70
     1
102
RTVSPropertyOp8
 70
     1
102
RTVSPropertyOp9
 70
     1
102
RTVSPropertyOp10
 70
     1
102
RTVSPropertyOp11
 70
     1
102
RTVSPropertyOp12
 70
     1
102
RTVSPropertyOp13
 70
     1
102
RTVSPropertyOp14
 70
     1
102
RTVSPropertyOp15
 70
     1
102
RTVSPropertyOp16
 70
     1
102
RTVSPropertyOp17
 70
     1
102
RTVSPropertyOp18
 70
     1
102
RTVSPropertyOp19
 70
     1
102
RTVSPropertyOp20
 70
     1
102
RTVSPropertyOp21
 70
     1
102
RTVSPropertyOp22
 70
     1
102
RTVSPropertyOp23
 70
     1
102
RTVSPropertyOp24
 70
     1
102
RTVSPropertyOp25
 70
     1
102
RTVSPropertyOp26
 70
     1
102
RTVSPropertyOp27
 70
     1
102
RTVSPropertyOp28
 70
     1
102
RTVSPropertyOp29
 70
     1
102
RTVSPropertyOp30
 70
     1
102
RTVSPropertyOp31
 70
     1
102
RTVSPropertyOp32
 70
     1
102
RTVSPropertyOp33
 70
     1
102
RTVSPropertyOp34
 70
     1
102
RTVSPropertyOp35
 70
     1
102
RTVSPropertyOp36
 70
     1
102
RTVSPropertyOp37
 70
     1
102
RTVSPropertyOp38
 70
     1
102
RTVSPropertyOp39
 70
     1
102
RTVSPropertyOp40
 70
     1
102
RTVSPropertyOp41
 70
     1
102
RTVSPropertyOp42
 70
     1
102
RTVSPropertyOp43
 70
     1
102
RTVSPropertyOp44
 70
     1
102
RTVSPropertyOp45
 70
     1
102
RTVSPropertyOp46
 70
     1
102
RTVSPropertyOp47
 70
     1
102
RTVSPropertyOp48
 70
     1
102
RTVSPropertyOp49
 70
     1
102
RTVSPropertyOp50
 70
     1
102
RTVSPropertyOp51
 70
     0
102
RTVSPropertyOp52
 70
     0
102
RTVSPropertyOp53
 70
     1
102
RTVSPropertyOp54
 70
     1
102
RTVSPropertyOp55
 70
     1
102
RTVSPropertyOp56
 70
     1
102
RTVSPropertyOp57
 70
     1
102
RTVSPropertyOp58
 70
     1
102
RTVSPropertyOp59
 70
     1
102
RTVSPropertyOp60
 70
     1
102
RTVSPropertyOp61
 70
     1
102
RTVSPropertyOp62
 70
     1
  0
XRECORD
  5
12E3F
102
{ACAD_REACTORS
330
12E3E
102
}
330
12E3E
100
AcDbXrecord
280
     1
102
RTVSPost2010Prop28
280
     0
102
RTVSPost2010PropOp28
 70
     1
102
RTVSPost2010Prop29
280
     1
102
RTVSPost2010PropOp29
 70
     1
102
RTVSPost2010Prop30
280
     1
102
RTVSPost2010PropOp30
 70
     1
102
RTVSPost2010Prop31
280
     0
102
RTVSPost2010PropOp31
 70
     1
102
RTVSPost2010Prop32
280
     0
102
RTVSPost2010PropOp32
 70
     1
102
RTVSPost2010Prop33
280
     0
102
RTVSPost2010PropOp33
 70
     1
102
RTVSPost2010Prop34
280
     0
102
RTVSPost2010PropOp34
 70
     1
102
RTVSPost2010Prop35
280
     0
102
RTVSPost2010PropOp35
 70
     1
102
RTVSPost2010Prop36
280
     0
102
RTVSPost2010PropOp36
 70
     1
102
RTVSPost2010Prop37
 90
       50
102
RTVSPost2010PropOp37
 70
     1
102
RTVSPost2010Prop38
140
0.0
102
RTVSPost2010PropOp38
 70
     1
102
RTVSPost2010Prop39
140
1.0
102
RTVSPost2010PropOp39
 70
     1
102
RTVSPost2010Prop40
 90
        0
102
RTVSPost2010PropOp40
 70
     1
102
RTVSPost2010Prop41ColorIndex
 90
       18
102
RTVSPost2010Prop41ColorRGB
 90
        0
102
RTVSPost2010PropOp41
 70
     1
102
RTVSPost2010Prop42
 90
       50
102
RTVSPost2010PropOp42
 70
     1
102
RTVSPost2010Prop43
 90
        3
102
RTVSPost2010PropOp43
 70
     1
102
RTVSPost2010Prop44ColorIndex
 90
        5
102
RTVSPost2010Prop44ColorRGB
 90
      255
102
RTVSPost2010PropOp44
 70
     1
102
RTVSPost2010Prop45
280
     0
102
RTVSPost2010PropOp45
 70
     1
102
RTVSPost2010Prop46
 90
       50
102
RTVSPost2010PropOp46
 70
     1
102
RTVSPost2010Prop47
 90
       50
102
RTVSPost2010PropOp47
 70
     1
102
RTVSPost2010Prop48
 90
       50
102
RTVSPost2010PropOp48
 70
     1
102
RTVSPost2010Prop49
280
     0
102
RTVSPost2010PropOp49
 70
     1
102
RTVSPost2010Prop50
 90
       50
102
RTVSPost2010PropOp50
 70
     1
102
RTVSPost2010Prop51ColorIndex
 90
      256
102
RTVSPost2010Prop51ColorRGB
 90
-16777216
102
RTVSPost2010PropOp51
 70
     0
102
RTVSPost2010Prop52
140
1.0
102
RTVSPost2010PropOp52
 70
     0
102
RTVSPost2010Prop53
 90
        2
102
RTVSPost2010PropOp53
 70
     1
102
RTVSPost2010Prop54
  1
strokes_ogs.tif
102
RTVSPost2010PropOp54
 70
     1
102
RTVSPost2010Prop55
280
     0
102
RTVSPost2010PropOp55
 70
     1
102
RTVSPost2010Prop56
140
1.0
102
RTVSPost2010PropOp56
 70
     1
102
RTVSPost2010Prop57
140
1.0
102
RTVSPost2010PropOp57
 70
     1
102
RTVSPropertyOp0
 70
     1
102
RTVSPropertyOp1
 70
     1
102
RTVSPropertyOp2
 70
     1
102
RTVSPropertyOp3
 70
     1
102
RTVSPropertyOp4
 70
     1
102
RTVSPropertyOp5
 70
     1
102
RTVSPropertyOp6
 70
     1
102
RTVSPropertyOp7
 70
     1
102
RTVSPropertyOp8
 70
     1
102
RTVSPropertyOp9
 70
     1
102
RTVSPropertyOp10
 70
     1
102
RTVSPropertyOp11
 70
     1
102
RTVSPropertyOp12
 70
     1
102
RTVSPropertyOp13
 70
     1
102
RTVSPropertyOp14
 70
     1
102
RTVSPropertyOp15
 70
     1
102
RTVSPropertyOp16
 70
     1
102
RTVSPropertyOp17
 70
     1
102
RTVSPropertyOp18
 70
     1
102
RTVSPropertyOp19
 70
     1
102
RTVSPropertyOp20
 70
     1
102
RTVSPropertyOp21
 70
     1
102
RTVSPropertyOp22
 70
     1
102
RTVSPropertyOp23
 70
     1
102
RTVSPropertyOp24
 70
     1
102
RTVSPropertyOp25
 70
     1
102
RTVSPropertyOp26
 70
     1
102
RTVSPropertyOp27
 70
     1
102
RTVSPropertyOp28
 70
     1
102
RTVSPropertyOp29
 70
     1
102
RTVSPropertyOp30
 70
     1
102
RTVSPropertyOp31
 70
     1
102
RTVSPropertyOp32
 70
     1
102
RTVSPropertyOp33
 70
     1
102
RTVSPropertyOp34
 70
     1
102
RTVSPropertyOp35
 70
     1
102
RTVSPropertyOp36
 70
     1
102
RTVSPropertyOp37
 70
     1
102
RTVSPropertyOp38
 70
     1
102
RTVSPropertyOp39
 70
     1
102
RTVSPropertyOp40
 70
     1
102
RTVSPropertyOp41
 70
     1
102
RTVSPropertyOp42
 70
     1
102
RTVSPropertyOp43
 70
     1
102
RTVSPropertyOp44
 70
     1
102
RTVSPropertyOp45
 70
     1
102
RTVSPropertyOp46
 70
     1
102
RTVSPropertyOp47
 70
     1
102
RTVSPropertyOp48
 70
     1
102
RTVSPropertyOp49
 70
     1
102
RTVSPropertyOp50
 70
     1
102
RTVSPropertyOp51
 70
     0
102
RTVSPropertyOp52
 70
     0
102
RTVSPropertyOp53
 70
     1
102
RTVSPropertyOp54
 70
     1
102
RTVSPropertyOp55
 70
     1
102
RTVSPropertyOp56
 70
     1
102
RTVSPropertyOp57
 70
     1
102
RTVSPropertyOp58
 70
     1
102
RTVSPropertyOp59
 70
     1
102
RTVSPropertyOp60
 70
     1
102
RTVSPropertyOp61
 70
     1
102
RTVSPropertyOp62
 70
     1
  0
XRECORD
  5
12E43
102
{ACAD_REACTORS
330
12E42
102
}
330
12E42
100
AcDbXrecord
280
     1
102
RTVSPost2010Prop28
280
     0
102
RTVSPost2010PropOp28
 70
     1
102
RTVSPost2010Prop29
280
     1
102
RTVSPost2010PropOp29
 70
     1
102
RTVSPost2010Prop30
280
     1
102
RTVSPost2010PropOp30
 70
     1
102
RTVSPost2010Prop31
280
     0
102
RTVSPost2010PropOp31
 70
     1
102
RTVSPost2010Prop32
280
     0
102
RTVSPost2010PropOp32
 70
     1
102
RTVSPost2010Prop33
280
     0
102
RTVSPost2010PropOp33
 70
     1
102
RTVSPost2010Prop34
280
     0
102
RTVSPost2010PropOp34
 70
     1
102
RTVSPost2010Prop35
280
     0
102
RTVSPost2010PropOp35
 70
     1
102
RTVSPost2010Prop36
280
     0
102
RTVSPost2010PropOp36
 70
     1
102
RTVSPost2010Prop37
 90
       50
102
RTVSPost2010PropOp37
 70
     1
102
RTVSPost2010Prop38
140
0.0
102
RTVSPost2010PropOp38
 70
     1
102
RTVSPost2010Prop39
140
1.0
102
RTVSPost2010PropOp39
 70
     1
102
RTVSPost2010Prop40
 90
        0
102
RTVSPost2010PropOp40
 70
     1
102
RTVSPost2010Prop41ColorIndex
 90
       18
102
RTVSPost2010Prop41ColorRGB
 90
        0
102
RTVSPost2010PropOp41
 70
     1
102
RTVSPost2010Prop42
 90
       50
102
RTVSPost2010PropOp42
 70
     1
102
RTVSPost2010Prop43
 90
        3
102
RTVSPost2010PropOp43
 70
     1
102
RTVSPost2010Prop44ColorIndex
 90
        5
102
RTVSPost2010Prop44ColorRGB
 90
      255
102
RTVSPost2010PropOp44
 70
     1
102
RTVSPost2010Prop45
280
     0
102
RTVSPost2010PropOp45
 70
     1
102
RTVSPost2010Prop46
 90
       50
102
RTVSPost2010PropOp46
 70
     1
102
RTVSPost2010Prop47
 90
       50
102
RTVSPost2010PropOp47
 70
     1
102
RTVSPost2010Prop48
 90
       50
102
RTVSPost2010PropOp48
 70
     1
102
RTVSPost2010Prop49
280
     0
102
RTVSPost2010PropOp49
 70
     1
102
RTVSPost2010Prop50
 90
       50
102
RTVSPost2010PropOp50
 70
     1
102
RTVSPost2010Prop51ColorIndex
 90
      256
102
RTVSPost2010Prop51ColorRGB
 90
-16777216
102
RTVSPost2010PropOp51
 70
     0
102
RTVSPost2010Prop52
140
1.0
102
RTVSPost2010PropOp52
 70
     0
102
RTVSPost2010Prop53
 90
        2
102
RTVSPost2010PropOp53
 70
     1
102
RTVSPost2010Prop54
  1
strokes_ogs.tif
102
RTVSPost2010PropOp54
 70
     1
102
RTVSPost2010Prop55
280
     0
102
RTVSPost2010PropOp55
 70
     1
102
RTVSPost2010Prop56
140
1.0
102
RTVSPost2010PropOp56
 70
     1
102
RTVSPost2010Prop57
140
1.0
102
RTVSPost2010PropOp57
 70
     1
102
RTVSPropertyOp0
 70
     1
102
RTVSPropertyOp1
 70
     1
102
RTVSPropertyOp2
 70
     1
102
RTVSPropertyOp3
 70
     1
102
RTVSPropertyOp4
 70
     1
102
RTVSPropertyOp5
 70
     1
102
RTVSPropertyOp6
 70
     1
102
RTVSPropertyOp7
 70
     1
102
RTVSPropertyOp8
 70
     1
102
RTVSPropertyOp9
 70
     1
102
RTVSPropertyOp10
 70
     1
102
RTVSPropertyOp11
 70
     1
102
RTVSPropertyOp12
 70
     1
102
RTVSPropertyOp13
 70
     1
102
RTVSPropertyOp14
 70
     1
102
RTVSPropertyOp15
 70
     1
102
RTVSPropertyOp16
 70
     1
102
RTVSPropertyOp17
 70
     1
102
RTVSPropertyOp18
 70
     1
102
RTVSPropertyOp19
 70
     1
102
RTVSPropertyOp20
 70
     1
102
RTVSPropertyOp21
 70
     1
102
RTVSPropertyOp22
 70
     1
102
RTVSPropertyOp23
 70
     1
102
RTVSPropertyOp24
 70
     1
102
RTVSPropertyOp25
 70
     1
102
RTVSPropertyOp26
 70
     1
102
RTVSPropertyOp27
 70
     1
102
RTVSPropertyOp28
 70
     1
102
RTVSPropertyOp29
 70
     1
102
RTVSPropertyOp30
 70
     1
102
RTVSPropertyOp31
 70
     1
102
RTVSPropertyOp32
 70
     1
102
RTVSPropertyOp33
 70
     1
102
RTVSPropertyOp34
 70
     1
102
RTVSPropertyOp35
 70
     1
102
RTVSPropertyOp36
 70
     1
102
RTVSPropertyOp37
 70
     1
102
RTVSPropertyOp38
 70
     1
102
RTVSPropertyOp39
 70
     1
102
RTVSPropertyOp40
 70
     1
102
RTVSPropertyOp41
 70
     1
102
RTVSPropertyOp42
 70
     1
102
RTVSPropertyOp43
 70
     1
102
RTVSPropertyOp44
 70
     1
102
RTVSPropertyOp45
 70
     1
102
RTVSPropertyOp46
 70
     1
102
RTVSPropertyOp47
 70
     1
102
RTVSPropertyOp48
 70
     1
102
RTVSPropertyOp49
 70
     1
102
RTVSPropertyOp50
 70
     1
102
RTVSPropertyOp51
 70
     0
102
RTVSPropertyOp52
 70
     0
102
RTVSPropertyOp53
 70
     1
102
RTVSPropertyOp54
 70
     1
102
RTVSPropertyOp55
 70
     1
102
RTVSPropertyOp56
 70
     1
102
RTVSPropertyOp57
 70
     1
102
RTVSPropertyOp58
 70
     1
102
RTVSPropertyOp59
 70
     1
102
RTVSPropertyOp60
 70
     1
102
RTVSPropertyOp61
 70
     1
102
RTVSPropertyOp62
 70
     1
  0
XRECORD
  5
12E55
102
{ACAD_REACTORS
330
12E54
102
}
330
12E54
100
AcDbXrecord
280
     1
102
RTVSPost2010Prop28
280
     0
102
RTVSPost2010PropOp28
 70
     1
102
RTVSPost2010Prop29
280
     1
102
RTVSPost2010PropOp29
 70
     1
102
RTVSPost2010Prop30
280
     1
102
RTVSPost2010PropOp30
 70
     1
102
RTVSPost2010Prop31
280
     0
102
RTVSPost2010PropOp31
 70
     1
102
RTVSPost2010Prop32
280
     0
102
RTVSPost2010PropOp32
 70
     1
102
RTVSPost2010Prop33
280
     0
102
RTVSPost2010PropOp33
 70
     1
102
RTVSPost2010Prop34
280
     0
102
RTVSPost2010PropOp34
 70
     1
102
RTVSPost2010Prop35
280
     0
102
RTVSPost2010PropOp35
 70
     1
102
RTVSPost2010Prop36
280
     0
102
RTVSPost2010PropOp36
 70
     1
102
RTVSPost2010Prop37
 90
       50
102
RTVSPost2010PropOp37
 70
     1
102
RTVSPost2010Prop38
140
0.0
102
RTVSPost2010PropOp38
 70
     1
102
RTVSPost2010Prop39
140
1.0
102
RTVSPost2010PropOp39
 70
     1
102
RTVSPost2010Prop40
 90
        0
102
RTVSPost2010PropOp40
 70
     1
102
RTVSPost2010Prop41ColorIndex
 90
       18
102
RTVSPost2010Prop41ColorRGB
 90
        0
102
RTVSPost2010PropOp41
 70
     1
102
RTVSPost2010Prop42
 90
       50
102
RTVSPost2010PropOp42
 70
     1
102
RTVSPost2010Prop43
 90
        3
102
RTVSPost2010PropOp43
 70
     1
102
RTVSPost2010Prop44ColorIndex
 90
        5
102
RTVSPost2010Prop44ColorRGB
 90
      255
102
RTVSPost2010PropOp44
 70
     1
102
RTVSPost2010Prop45
280
     0
102
RTVSPost2010PropOp45
 70
     1
102
RTVSPost2010Prop46
 90
       50
102
RTVSPost2010PropOp46
 70
     1
102
RTVSPost2010Prop47
 90
       50
102
RTVSPost2010PropOp47
 70
     1
102
RTVSPost2010Prop48
 90
       50
102
RTVSPost2010PropOp48
 70
     1
102
RTVSPost2010Prop49
280
     0
102
RTVSPost2010PropOp49
 70
     1
102
RTVSPost2010Prop50
 90
       50
102
RTVSPost2010PropOp50
 70
     1
102
RTVSPost2010Prop51ColorIndex
 90
      256
102
RTVSPost2010Prop51ColorRGB
 90
-16777216
102
RTVSPost2010PropOp51
 70
     0
102
RTVSPost2010Prop52
140
1.0
102
RTVSPost2010PropOp52
 70
     0
102
RTVSPost2010Prop53
 90
        2
102
RTVSPost2010PropOp53
 70
     1
102
RTVSPost2010Prop54
  1
strokes_ogs.tif
102
RTVSPost2010PropOp54
 70
     1
102
RTVSPost2010Prop55
280
     0
102
RTVSPost2010PropOp55
 70
     1
102
RTVSPost2010Prop56
140
1.0
102
RTVSPost2010PropOp56
 70
     1
102
RTVSPost2010Prop57
140
1.0
102
RTVSPost2010PropOp57
 70
     1
102
RTVSPropertyOp0
 70
     0
102
RTVSPropertyOp1
 70
     0
102
RTVSPropertyOp2
 70
     0
102
RTVSPropertyOp3
 70
     0
102
RTVSPropertyOp4
 70
     0
102
RTVSPropertyOp5
 70
     0
102
RTVSPropertyOp6
 70
     0
102
RTVSPropertyOp7
 70
     0
102
RTVSPropertyOp8
 70
     0
102
RTVSPropertyOp9
 70
     0
102
RTVSPropertyOp10
 70
     0
102
RTVSPropertyOp11
 70
     0
102
RTVSPropertyOp12
 70
     0
102
RTVSPropertyOp13
 70
     0
102
RTVSPropertyOp14
 70
     2
102
RTVSPropertyOp15
 70
     0
102
RTVSPropertyOp16
 70
     0
102
RTVSPropertyOp17
 70
     0
102
RTVSPropertyOp18
 70
     0
102
RTVSPropertyOp19
 70
     0
102
RTVSPropertyOp20
 70
     0
102
RTVSPropertyOp21
 70
     0
102
RTVSPropertyOp22
 70
     0
102
RTVSPropertyOp23
 70
     0
102
RTVSPropertyOp24
 70
     0
102
RTVSPropertyOp25
 70
     0
102
RTVSPropertyOp26
 70
     0
102
RTVSPropertyOp27
 70
     0
102
RTVSPropertyOp28
 70
     1
102
RTVSPropertyOp29
 70
     1
102
RTVSPropertyOp30
 70
     1
102
RTVSPropertyOp31
 70
     1
102
RTVSPropertyOp32
 70
     1
102
RTVSPropertyOp33
 70
     1
102
RTVSPropertyOp34
 70
     1
102
RTVSPropertyOp35
 70
     1
102
RTVSPropertyOp36
 70
     1
102
RTVSPropertyOp37
 70
     1
102
RTVSPropertyOp38
 70
     1
102
RTVSPropertyOp39
 70
     1
102
RTVSPropertyOp40
 70
     1
102
RTVSPropertyOp41
 70
     1
102
RTVSPropertyOp42
 70
     1
102
RTVSPropertyOp43
 70
     1
102
RTVSPropertyOp44
 70
     1
102
RTVSPropertyOp45
 70
     1
102
RTVSPropertyOp46
 70
     1
102
RTVSPropertyOp47
 70
     1
102
RTVSPropertyOp48
 70
     1
102
RTVSPropertyOp49
 70
     1
102
RTVSPropertyOp50
 70
     1
102
RTVSPropertyOp51
 70
     0
102
RTVSPropertyOp52
 70
     0
102
RTVSPropertyOp53
 70
     1
102
RTVSPropertyOp54
 70
     1
102
RTVSPropertyOp55
 70
     1
102
RTVSPropertyOp56
 70
     1
102
RTVSPropertyOp57
 70
     1
102
RTVSPropertyOp58
 70
     1
102
RTVSPropertyOp59
 70
     1
102
RTVSPropertyOp60
 70
     1
102
RTVSPropertyOp61
 70
     1
102
RTVSPropertyOp62
 70
     1
  0
XRECORD
  5
12E4B
102
{ACAD_REACTORS
330
12E4A
102
}
330
12E4A
100
AcDbXrecord
280
     1
102
RTVSPost2010Prop28
280
     0
102
RTVSPost2010PropOp28
 70
     1
102
RTVSPost2010Prop29
280
     1
102
RTVSPost2010PropOp29
 70
     1
102
RTVSPost2010Prop30
280
     1
102
RTVSPost2010PropOp30
 70
     1
102
RTVSPost2010Prop31
280
     0
102
RTVSPost2010PropOp31
 70
     1
102
RTVSPost2010Prop32
280
     0
102
RTVSPost2010PropOp32
 70
     1
102
RTVSPost2010Prop33
280
     0
102
RTVSPost2010PropOp33
 70
     1
102
RTVSPost2010Prop34
280
     0
102
RTVSPost2010PropOp34
 70
     1
102
RTVSPost2010Prop35
280
     0
102
RTVSPost2010PropOp35
 70
     1
102
RTVSPost2010Prop36
280
     0
102
RTVSPost2010PropOp36
 70
     1
102
RTVSPost2010Prop37
 90
       50
102
RTVSPost2010PropOp37
 70
     1
102
RTVSPost2010Prop38
140
0.0
102
RTVSPost2010PropOp38
 70
     1
102
RTVSPost2010Prop39
140
1.0
102
RTVSPost2010PropOp39
 70
     1
102
RTVSPost2010Prop40
 90
        0
102
RTVSPost2010PropOp40
 70
     1
102
RTVSPost2010Prop41ColorIndex
 90
       18
102
RTVSPost2010Prop41ColorRGB
 90
        0
102
RTVSPost2010PropOp41
 70
     1
102
RTVSPost2010Prop42
 90
       50
102
RTVSPost2010PropOp42
 70
     1
102
RTVSPost2010Prop43
 90
        3
102
RTVSPost2010PropOp43
 70
     1
102
RTVSPost2010Prop44ColorIndex
 90
        5
102
RTVSPost2010Prop44ColorRGB
 90
      255
102
RTVSPost2010PropOp44
 70
     1
102
RTVSPost2010Prop45
280
     0
102
RTVSPost2010PropOp45
 70
     1
102
RTVSPost2010Prop46
 90
       50
102
RTVSPost2010PropOp46
 70
     1
102
RTVSPost2010Prop47
 90
       50
102
RTVSPost2010PropOp47
 70
     1
102
RTVSPost2010Prop48
 90
       50
102
RTVSPost2010PropOp48
 70
     1
102
RTVSPost2010Prop49
280
     0
102
RTVSPost2010PropOp49
 70
     1
102
RTVSPost2010Prop50
 90
       50
102
RTVSPost2010PropOp50
 70
     1
102
RTVSPost2010Prop51ColorIndex
 90
      256
102
RTVSPost2010Prop51ColorRGB
 90
-16777216
102
RTVSPost2010PropOp51
 70
     0
102
RTVSPost2010Prop52
140
1.0
102
RTVSPost2010PropOp52
 70
     0
102
RTVSPost2010Prop53
 90
        2
102
RTVSPost2010PropOp53
 70
     1
102
RTVSPost2010Prop54
  1
strokes_ogs.tif
102
RTVSPost2010PropOp54
 70
     1
102
RTVSPost2010Prop55
280
     0
102
RTVSPost2010PropOp55
 70
     1
102
RTVSPost2010Prop56
140
1.0
102
RTVSPost2010PropOp56
 70
     1
102
RTVSPost2010Prop57
140
1.0
102
RTVSPost2010PropOp57
 70
     1
102
RTVSPropertyOp0
 70
     1
102
RTVSPropertyOp1
 70
     1
102
RTVSPropertyOp2
 70
     1
102
RTVSPropertyOp3
 70
     1
102
RTVSPropertyOp4
 70
     1
102
RTVSPropertyOp5
 70
     1
102
RTVSPropertyOp6
 70
     1
102
RTVSPropertyOp7
 70
     1
102
RTVSPropertyOp8
 70
     1
102
RTVSPropertyOp9
 70
     1
102
RTVSPropertyOp10
 70
     1
102
RTVSPropertyOp11
 70
     1
102
RTVSPropertyOp12
 70
     1
102
RTVSPropertyOp13
 70
     1
102
RTVSPropertyOp14
 70
     1
102
RTVSPropertyOp15
 70
     1
102
RTVSPropertyOp16
 70
     1
102
RTVSPropertyOp17
 70
     1
102
RTVSPropertyOp18
 70
     1
102
RTVSPropertyOp19
 70
     1
102
RTVSPropertyOp20
 70
     1
102
RTVSPropertyOp21
 70
     1
102
RTVSPropertyOp22
 70
     1
102
RTVSPropertyOp23
 70
     1
102
RTVSPropertyOp24
 70
     1
102
RTVSPropertyOp25
 70
     1
102
RTVSPropertyOp26
 70
     1
102
RTVSPropertyOp27
 70
     1
102
RTVSPropertyOp28
 70
     1
102
RTVSPropertyOp29
 70
     1
102
RTVSPropertyOp30
 70
     1
102
RTVSPropertyOp31
 70
     1
102
RTVSPropertyOp32
 70
     1
102
RTVSPropertyOp33
 70
     1
102
RTVSPropertyOp34
 70
     1
102
RTVSPropertyOp35
 70
     1
102
RTVSPropertyOp36
 70
     1
102
RTVSPropertyOp37
 70
     1
102
RTVSPropertyOp38
 70
     1
102
RTVSPropertyOp39
 70
     1
102
RTVSPropertyOp40
 70
     1
102
RTVSPropertyOp41
 70
     1
102
RTVSPropertyOp42
 70
     1
102
RTVSPropertyOp43
 70
     1
102
RTVSPropertyOp44
 70
     1
102
RTVSPropertyOp45
 70
     1
102
RTVSPropertyOp46
 70
     1
102
RTVSPropertyOp47
 70
     1
102
RTVSPropertyOp48
 70
     1
102
RTVSPropertyOp49
 70
     1
102
RTVSPropertyOp50
 70
     1
102
RTVSPropertyOp51
 70
     0
102
RTVSPropertyOp52
 70
     0
102
RTVSPropertyOp53
 70
     1
102
RTVSPropertyOp54
 70
     1
102
RTVSPropertyOp55
 70
     1
102
RTVSPropertyOp56
 70
     1
102
RTVSPropertyOp57
 70
     1
102
RTVSPropertyOp58
 70
     1
102
RTVSPropertyOp59
 70
     1
102
RTVSPropertyOp60
 70
     1
102
RTVSPropertyOp61
 70
     1
102
RTVSPropertyOp62
 70
     1
  0
XRECORD
  5
12E2F
102
{ACAD_REACTORS
330
12E2E
102
}
330
12E2E
100
AcDbXrecord
280
     1
102
RTVSPost2010Prop28
280
     0
102
RTVSPost2010PropOp28
 70
     1
102
RTVSPost2010Prop29
280
     1
102
RTVSPost2010PropOp29
 70
     1
102
RTVSPost2010Prop30
280
     1
102
RTVSPost2010PropOp30
 70
     1
102
RTVSPost2010Prop31
280
     0
102
RTVSPost2010PropOp31
 70
     1
102
RTVSPost2010Prop32
280
     0
102
RTVSPost2010PropOp32
 70
     1
102
RTVSPost2010Prop33
280
     0
102
RTVSPost2010PropOp33
 70
     1
102
RTVSPost2010Prop34
280
     0
102
RTVSPost2010PropOp34
 70
     1
102
RTVSPost2010Prop35
280
     0
102
RTVSPost2010PropOp35
 70
     1
102
RTVSPost2010Prop36
280
     0
102
RTVSPost2010PropOp36
 70
     1
102
RTVSPost2010Prop37
 90
       50
102
RTVSPost2010PropOp37
 70
     1
102
RTVSPost2010Prop38
140
0.0
102
RTVSPost2010PropOp38
 70
     1
102
RTVSPost2010Prop39
140
1.0
102
RTVSPost2010PropOp39
 70
     1
102
RTVSPost2010Prop40
 90
        0
102
RTVSPost2010PropOp40
 70
     1
102
RTVSPost2010Prop41ColorIndex
 90
       18
102
RTVSPost2010Prop41ColorRGB
 90
        0
102
RTVSPost2010PropOp41
 70
     1
102
RTVSPost2010Prop42
 90
       50
102
RTVSPost2010PropOp42
 70
     1
102
RTVSPost2010Prop43
 90
        3
102
RTVSPost2010PropOp43
 70
     1
102
RTVSPost2010Prop44ColorIndex
 90
        5
102
RTVSPost2010Prop44ColorRGB
 90
      255
102
RTVSPost2010PropOp44
 70
     1
102
RTVSPost2010Prop45
280
     0
102
RTVSPost2010PropOp45
 70
     1
102
RTVSPost2010Prop46
 90
       50
102
RTVSPost2010PropOp46
 70
     1
102
RTVSPost2010Prop47
 90
       50
102
RTVSPost2010PropOp47
 70
     1
102
RTVSPost2010Prop48
 90
       50
102
RTVSPost2010PropOp48
 70
     1
102
RTVSPost2010Prop49
280
     0
102
RTVSPost2010PropOp49
 70
     1
102
RTVSPost2010Prop50
 90
       50
102
RTVSPost2010PropOp50
 70
     1
102
RTVSPost2010Prop51ColorIndex
 90
      256
102
RTVSPost2010Prop51ColorRGB
 90
-16777216
102
RTVSPost2010PropOp51
 70
     0
102
RTVSPost2010Prop52
140
1.0
102
RTVSPost2010PropOp52
 70
     0
102
RTVSPost2010Prop53
 90
        2
102
RTVSPost2010PropOp53
 70
     1
102
RTVSPost2010Prop54
  1
strokes_ogs.tif
102
RTVSPost2010PropOp54
 70
     1
102
RTVSPost2010Prop55
280
     0
102
RTVSPost2010PropOp55
 70
     1
102
RTVSPost2010Prop56
140
1.0
102
RTVSPost2010PropOp56
 70
     1
102
RTVSPost2010Prop57
140
1.0
102
RTVSPost2010PropOp57
 70
     1
102
RTVSPropertyOp0
 70
     1
102
RTVSPropertyOp1
 70
     1
102
RTVSPropertyOp2
 70
     1
102
RTVSPropertyOp3
 70
     1
102
RTVSPropertyOp4
 70
     1
102
RTVSPropertyOp5
 70
     1
102
RTVSPropertyOp6
 70
     1
102
RTVSPropertyOp7
 70
     1
102
RTVSPropertyOp8
 70
     1
102
RTVSPropertyOp9
 70
     1
102
RTVSPropertyOp10
 70
     1
102
RTVSPropertyOp11
 70
     1
102
RTVSPropertyOp12
 70
     1
102
RTVSPropertyOp13
 70
     1
102
RTVSPropertyOp14
 70
     1
102
RTVSPropertyOp15
 70
     1
102
RTVSPropertyOp16
 70
     1
102
RTVSPropertyOp17
 70
     1
102
RTVSPropertyOp18
 70
     1
102
RTVSPropertyOp19
 70
     1
102
RTVSPropertyOp20
 70
     1
102
RTVSPropertyOp21
 70
     1
102
RTVSPropertyOp22
 70
     1
102
RTVSPropertyOp23
 70
     1
102
RTVSPropertyOp24
 70
     1
102
RTVSPropertyOp25
 70
     1
102
RTVSPropertyOp26
 70
     1
102
RTVSPropertyOp27
 70
     1
102
RTVSPropertyOp28
 70
     1
102
RTVSPropertyOp29
 70
     1
102
RTVSPropertyOp30
 70
     1
102
RTVSPropertyOp31
 70
     1
102
RTVSPropertyOp32
 70
     1
102
RTVSPropertyOp33
 70
     1
102
RTVSPropertyOp34
 70
     1
102
RTVSPropertyOp35
 70
     1
102
RTVSPropertyOp36
 70
     1
102
RTVSPropertyOp37
 70
     1
102
RTVSPropertyOp38
 70
     1
102
RTVSPropertyOp39
 70
     1
102
RTVSPropertyOp40
 70
     1
102
RTVSPropertyOp41
 70
     1
102
RTVSPropertyOp42
 70
     1
102
RTVSPropertyOp43
 70
     1
102
RTVSPropertyOp44
 70
     1
102
RTVSPropertyOp45
 70
     1
102
RTVSPropertyOp46
 70
     1
102
RTVSPropertyOp47
 70
     1
102
RTVSPropertyOp48
 70
     1
102
RTVSPropertyOp49
 70
     1
102
RTVSPropertyOp50
 70
     1
102
RTVSPropertyOp51
 70
     0
102
RTVSPropertyOp52
 70
     0
102
RTVSPropertyOp53
 70
     1
102
RTVSPropertyOp54
 70
     1
102
RTVSPropertyOp55
 70
     1
102
RTVSPropertyOp56
 70
     1
102
RTVSPropertyOp57
 70
     1
102
RTVSPropertyOp58
 70
     1
102
RTVSPropertyOp59
 70
     1
102
RTVSPropertyOp60
 70
     1
102
RTVSPropertyOp61
 70
     1
102
RTVSPropertyOp62
 70
     1
  0
XRECORD
  5
12E31
102
{ACAD_REACTORS
330
12E30
102
}
330
12E30
100
AcDbXrecord
280
     1
102
RTVSPost2010Prop28
280
     0
102
RTVSPost2010PropOp28
 70
     1
102
RTVSPost2010Prop29
280
     1
102
RTVSPost2010PropOp29
 70
     1
102
RTVSPost2010Prop30
280
     1
102
RTVSPost2010PropOp30
 70
     1
102
RTVSPost2010Prop31
280
     0
102
RTVSPost2010PropOp31
 70
     1
102
RTVSPost2010Prop32
280
     0
102
RTVSPost2010PropOp32
 70
     1
102
RTVSPost2010Prop33
280
     0
102
RTVSPost2010PropOp33
 70
     1
102
RTVSPost2010Prop34
280
     0
102
RTVSPost2010PropOp34
 70
     1
102
RTVSPost2010Prop35
280
     0
102
RTVSPost2010PropOp35
 70
     1
102
RTVSPost2010Prop36
280
     0
102
RTVSPost2010PropOp36
 70
     1
102
RTVSPost2010Prop37
 90
       50
102
RTVSPost2010PropOp37
 70
     1
102
RTVSPost2010Prop38
140
0.0
102
RTVSPost2010PropOp38
 70
     1
102
RTVSPost2010Prop39
140
1.0
102
RTVSPost2010PropOp39
 70
     1
102
RTVSPost2010Prop40
 90
        0
102
RTVSPost2010PropOp40
 70
     1
102
RTVSPost2010Prop41ColorIndex
 90
       18
102
RTVSPost2010Prop41ColorRGB
 90
        0
102
RTVSPost2010PropOp41
 70
     1
102
RTVSPost2010Prop42
 90
       50
102
RTVSPost2010PropOp42
 70
     1
102
RTVSPost2010Prop43
 90
        3
102
RTVSPost2010PropOp43
 70
     1
102
RTVSPost2010Prop44ColorIndex
 90
        5
102
RTVSPost2010Prop44ColorRGB
 90
      255
102
RTVSPost2010PropOp44
 70
     1
102
RTVSPost2010Prop45
280
     0
102
RTVSPost2010PropOp45
 70
     1
102
RTVSPost2010Prop46
 90
       50
102
RTVSPost2010PropOp46
 70
     1
102
RTVSPost2010Prop47
 90
       50
102
RTVSPost2010PropOp47
 70
     1
102
RTVSPost2010Prop48
 90
       50
102
RTVSPost2010PropOp48
 70
     1
102
RTVSPost2010Prop49
280
     0
102
RTVSPost2010PropOp49
 70
     1
102
RTVSPost2010Prop50
 90
       50
102
RTVSPost2010PropOp50
 70
     1
102
RTVSPost2010Prop51ColorIndex
 90
      256
102
RTVSPost2010Prop51ColorRGB
 90
-16777216
102
RTVSPost2010PropOp51
 70
     0
102
RTVSPost2010Prop52
140
1.0
102
RTVSPost2010PropOp52
 70
     0
102
RTVSPost2010Prop53
 90
        2
102
RTVSPost2010PropOp53
 70
     1
102
RTVSPost2010Prop54
  1
strokes_ogs.tif
102
RTVSPost2010PropOp54
 70
     1
102
RTVSPost2010Prop55
280
     0
102
RTVSPost2010PropOp55
 70
     1
102
RTVSPost2010Prop56
140
1.0
102
RTVSPost2010PropOp56
 70
     1
102
RTVSPost2010Prop57
140
1.0
102
RTVSPost2010PropOp57
 70
     1
102
RTVSPropertyOp0
 70
     1
102
RTVSPropertyOp1
 70
     1
102
RTVSPropertyOp2
 70
     1
102
RTVSPropertyOp3
 70
     1
102
RTVSPropertyOp4
 70
     1
102
RTVSPropertyOp5
 70
     1
102
RTVSPropertyOp6
 70
     1
102
RTVSPropertyOp7
 70
     1
102
RTVSPropertyOp8
 70
     1
102
RTVSPropertyOp9
 70
     1
102
RTVSPropertyOp10
 70
     1
102
RTVSPropertyOp11
 70
     1
102
RTVSPropertyOp12
 70
     1
102
RTVSPropertyOp13
 70
     1
102
RTVSPropertyOp14
 70
     1
102
RTVSPropertyOp15
 70
     1
102
RTVSPropertyOp16
 70
     1
102
RTVSPropertyOp17
 70
     1
102
RTVSPropertyOp18
 70
     1
102
RTVSPropertyOp19
 70
     1
102
RTVSPropertyOp20
 70
     1
102
RTVSPropertyOp21
 70
     1
102
RTVSPropertyOp22
 70
     1
102
RTVSPropertyOp23
 70
     1
102
RTVSPropertyOp24
 70
     1
102
RTVSPropertyOp25
 70
     1
102
RTVSPropertyOp26
 70
     1
102
RTVSPropertyOp27
 70
     1
102
RTVSPropertyOp28
 70
     1
102
RTVSPropertyOp29
 70
     1
102
RTVSPropertyOp30
 70
     1
102
RTVSPropertyOp31
 70
     1
102
RTVSPropertyOp32
 70
     1
102
RTVSPropertyOp33
 70
     1
102
RTVSPropertyOp34
 70
     1
102
RTVSPropertyOp35
 70
     1
102
RTVSPropertyOp36
 70
     1
102
RTVSPropertyOp37
 70
     1
102
RTVSPropertyOp38
 70
     1
102
RTVSPropertyOp39
 70
     1
102
RTVSPropertyOp40
 70
     1
102
RTVSPropertyOp41
 70
     1
102
RTVSPropertyOp42
 70
     1
102
RTVSPropertyOp43
 70
     1
102
RTVSPropertyOp44
 70
     1
102
RTVSPropertyOp45
 70
     1
102
RTVSPropertyOp46
 70
     1
102
RTVSPropertyOp47
 70
     1
102
RTVSPropertyOp48
 70
     1
102
RTVSPropertyOp49
 70
     1
102
RTVSPropertyOp50
 70
     1
102
RTVSPropertyOp51
 70
     0
102
RTVSPropertyOp52
 70
     0
102
RTVSPropertyOp53
 70
     1
102
RTVSPropertyOp54
 70
     1
102
RTVSPropertyOp55
 70
     1
102
RTVSPropertyOp56
 70
     1
102
RTVSPropertyOp57
 70
     1
102
RTVSPropertyOp58
 70
     1
102
RTVSPropertyOp59
 70
     1
102
RTVSPropertyOp60
 70
     1
102
RTVSPropertyOp61
 70
     1
102
RTVSPropertyOp62
 70
     1
  0
XRECORD
  5
12E33
102
{ACAD_REACTORS
330
12E32
102
}
330
12E32
100
AcDbXrecord
280
     1
102
RTVSPost2010Prop28
280
     0
102
RTVSPost2010PropOp28
 70
     1
102
RTVSPost2010Prop29
280
     1
102
RTVSPost2010PropOp29
 70
     1
102
RTVSPost2010Prop30
280
     1
102
RTVSPost2010PropOp30
 70
     1
102
RTVSPost2010Prop31
280
     0
102
RTVSPost2010PropOp31
 70
     1
102
RTVSPost2010Prop32
280
     0
102
RTVSPost2010PropOp32
 70
     1
102
RTVSPost2010Prop33
280
     0
102
RTVSPost2010PropOp33
 70
     1
102
RTVSPost2010Prop34
280
     0
102
RTVSPost2010PropOp34
 70
     1
102
RTVSPost2010Prop35
280
     0
102
RTVSPost2010PropOp35
 70
     1
102
RTVSPost2010Prop36
280
     0
102
RTVSPost2010PropOp36
 70
     1
102
RTVSPost2010Prop37
 90
       50
102
RTVSPost2010PropOp37
 70
     1
102
RTVSPost2010Prop38
140
0.0
102
RTVSPost2010PropOp38
 70
     1
102
RTVSPost2010Prop39
140
1.0
102
RTVSPost2010PropOp39
 70
     1
102
RTVSPost2010Prop40
 90
        0
102
RTVSPost2010PropOp40
 70
     1
102
RTVSPost2010Prop41ColorIndex
 90
       18
102
RTVSPost2010Prop41ColorRGB
 90
        0
102
RTVSPost2010PropOp41
 70
     1
102
RTVSPost2010Prop42
 90
       50
102
RTVSPost2010PropOp42
 70
     1
102
RTVSPost2010Prop43
 90
        3
102
RTVSPost2010PropOp43
 70
     1
102
RTVSPost2010Prop44ColorIndex
 90
        5
102
RTVSPost2010Prop44ColorRGB
 90
      255
102
RTVSPost2010PropOp44
 70
     1
102
RTVSPost2010Prop45
280
     0
102
RTVSPost2010PropOp45
 70
     1
102
RTVSPost2010Prop46
 90
       50
102
RTVSPost2010PropOp46
 70
     1
102
RTVSPost2010Prop47
 90
       50
102
RTVSPost2010PropOp47
 70
     1
102
RTVSPost2010Prop48
 90
       50
102
RTVSPost2010PropOp48
 70
     1
102
RTVSPost2010Prop49
280
     0
102
RTVSPost2010PropOp49
 70
     1
102
RTVSPost2010Prop50
 90
       50
102
RTVSPost2010PropOp50
 70
     1
102
RTVSPost2010Prop51ColorIndex
 90
      256
102
RTVSPost2010Prop51ColorRGB
 90
-16777216
102
RTVSPost2010PropOp51
 70
     0
102
RTVSPost2010Prop52
140
1.0
102
RTVSPost2010PropOp52
 70
     0
102
RTVSPost2010Prop53
 90
        2
102
RTVSPost2010PropOp53
 70
     1
102
RTVSPost2010Prop54
  1
strokes_ogs.tif
102
RTVSPost2010PropOp54
 70
     1
102
RTVSPost2010Prop55
280
     0
102
RTVSPost2010PropOp55
 70
     1
102
RTVSPost2010Prop56
140
1.0
102
RTVSPost2010PropOp56
 70
     1
102
RTVSPost2010Prop57
140
1.0
102
RTVSPost2010PropOp57
 70
     1
102
RTVSPropertyOp0
 70
     1
102
RTVSPropertyOp1
 70
     1
102
RTVSPropertyOp2
 70
     1
102
RTVSPropertyOp3
 70
     1
102
RTVSPropertyOp4
 70
     1
102
RTVSPropertyOp5
 70
     1
102
RTVSPropertyOp6
 70
     1
102
RTVSPropertyOp7
 70
     1
102
RTVSPropertyOp8
 70
     1
102
RTVSPropertyOp9
 70
     1
102
RTVSPropertyOp10
 70
     1
102
RTVSPropertyOp11
 70
     1
102
RTVSPropertyOp12
 70
     1
102
RTVSPropertyOp13
 70
     1
102
RTVSPropertyOp14
 70
     1
102
RTVSPropertyOp15
 70
     1
102
RTVSPropertyOp16
 70
     1
102
RTVSPropertyOp17
 70
     1
102
RTVSPropertyOp18
 70
     1
102
RTVSPropertyOp19
 70
     1
102
RTVSPropertyOp20
 70
     1
102
RTVSPropertyOp21
 70
     1
102
RTVSPropertyOp22
 70
     1
102
RTVSPropertyOp23
 70
     1
102
RTVSPropertyOp24
 70
     1
102
RTVSPropertyOp25
 70
     1
102
RTVSPropertyOp26
 70
     1
102
RTVSPropertyOp27
 70
     1
102
RTVSPropertyOp28
 70
     1
102
RTVSPropertyOp29
 70
     1
102
RTVSPropertyOp30
 70
     1
102
RTVSPropertyOp31
 70
     1
102
RTVSPropertyOp32
 70
     1
102
RTVSPropertyOp33
 70
     1
102
RTVSPropertyOp34
 70
     1
102
RTVSPropertyOp35
 70
     1
102
RTVSPropertyOp36
 70
     1
102
RTVSPropertyOp37
 70
     1
102
RTVSPropertyOp38
 70
     1
102
RTVSPropertyOp39
 70
     1
102
RTVSPropertyOp40
 70
     1
102
RTVSPropertyOp41
 70
     1
102
RTVSPropertyOp42
 70
     1
102
RTVSPropertyOp43
 70
     1
102
RTVSPropertyOp44
 70
     1
102
RTVSPropertyOp45
 70
     1
102
RTVSPropertyOp46
 70
     1
102
RTVSPropertyOp47
 70
     1
102
RTVSPropertyOp48
 70
     1
102
RTVSPropertyOp49
 70
     1
102
RTVSPropertyOp50
 70
     1
102
RTVSPropertyOp51
 70
     0
102
RTVSPropertyOp52
 70
     0
102
RTVSPropertyOp53
 70
     1
102
RTVSPropertyOp54
 70
     1
102
RTVSPropertyOp55
 70
     1
102
RTVSPropertyOp56
 70
     1
102
RTVSPropertyOp57
 70
     1
102
RTVSPropertyOp58
 70
     1
102
RTVSPropertyOp59
 70
     1
102
RTVSPropertyOp60
 70
     1
102
RTVSPropertyOp61
 70
     1
102
RTVSPropertyOp62
 70
     1
  0
XRECORD
  5
12E35
102
{ACAD_REACTORS
330
12E34
102
}
330
12E34
100
AcDbXrecord
280
     1
102
RTVSPost2010Prop28
280
     0
102
RTVSPost2010PropOp28
 70
     1
102
RTVSPost2010Prop29
280
     1
102
RTVSPost2010PropOp29
 70
     1
102
RTVSPost2010Prop30
280
     1
102
RTVSPost2010PropOp30
 70
     1
102
RTVSPost2010Prop31
280
     0
102
RTVSPost2010PropOp31
 70
     1
102
RTVSPost2010Prop32
280
     0
102
RTVSPost2010PropOp32
 70
     1
102
RTVSPost2010Prop33
280
     0
102
RTVSPost2010PropOp33
 70
     1
102
RTVSPost2010Prop34
280
     0
102
RTVSPost2010PropOp34
 70
     1
102
RTVSPost2010Prop35
280
     0
102
RTVSPost2010PropOp35
 70
     1
102
RTVSPost2010Prop36
280
     0
102
RTVSPost2010PropOp36
 70
     1
102
RTVSPost2010Prop37
 90
       50
102
RTVSPost2010PropOp37
 70
     1
102
RTVSPost2010Prop38
140
0.0
102
RTVSPost2010PropOp38
 70
     1
102
RTVSPost2010Prop39
140
1.0
102
RTVSPost2010PropOp39
 70
     1
102
RTVSPost2010Prop40
 90
        0
102
RTVSPost2010PropOp40
 70
     1
102
RTVSPost2010Prop41ColorIndex
 90
       18
102
RTVSPost2010Prop41ColorRGB
 90
        0
102
RTVSPost2010PropOp41
 70
     1
102
RTVSPost2010Prop42
 90
       50
102
RTVSPost2010PropOp42
 70
     1
102
RTVSPost2010Prop43
 90
        3
102
RTVSPost2010PropOp43
 70
     1
102
RTVSPost2010Prop44ColorIndex
 90
        5
102
RTVSPost2010Prop44ColorRGB
 90
      255
102
RTVSPost2010PropOp44
 70
     1
102
RTVSPost2010Prop45
280
     0
102
RTVSPost2010PropOp45
 70
     1
102
RTVSPost2010Prop46
 90
       50
102
RTVSPost2010PropOp46
 70
     1
102
RTVSPost2010Prop47
 90
       50
102
RTVSPost2010PropOp47
 70
     1
102
RTVSPost2010Prop48
 90
       50
102
RTVSPost2010PropOp48
 70
     1
102
RTVSPost2010Prop49
280
     0
102
RTVSPost2010PropOp49
 70
     1
102
RTVSPost2010Prop50
 90
       50
102
RTVSPost2010PropOp50
 70
     1
102
RTVSPost2010Prop51ColorIndex
 90
      256
102
RTVSPost2010Prop51ColorRGB
 90
-16777216
102
RTVSPost2010PropOp51
 70
     0
102
RTVSPost2010Prop52
140
1.0
102
RTVSPost2010PropOp52
 70
     0
102
RTVSPost2010Prop53
 90
        2
102
RTVSPost2010PropOp53
 70
     1
102
RTVSPost2010Prop54
  1
strokes_ogs.tif
102
RTVSPost2010PropOp54
 70
     1
102
RTVSPost2010Prop55
280
     0
102
RTVSPost2010PropOp55
 70
     1
102
RTVSPost2010Prop56
140
1.0
102
RTVSPost2010PropOp56
 70
     1
102
RTVSPost2010Prop57
140
1.0
102
RTVSPost2010PropOp57
 70
     1
102
RTVSPropertyOp0
 70
     1
102
RTVSPropertyOp1
 70
     1
102
RTVSPropertyOp2
 70
     1
102
RTVSPropertyOp3
 70
     1
102
RTVSPropertyOp4
 70
     1
102
RTVSPropertyOp5
 70
     1
102
RTVSPropertyOp6
 70
     1
102
RTVSPropertyOp7
 70
     1
102
RTVSPropertyOp8
 70
     1
102
RTVSPropertyOp9
 70
     1
102
RTVSPropertyOp10
 70
     1
102
RTVSPropertyOp11
 70
     1
102
RTVSPropertyOp12
 70
     1
102
RTVSPropertyOp13
 70
     1
102
RTVSPropertyOp14
 70
     1
102
RTVSPropertyOp15
 70
     1
102
RTVSPropertyOp16
 70
     1
102
RTVSPropertyOp17
 70
     1
102
RTVSPropertyOp18
 70
     1
102
RTVSPropertyOp19
 70
     1
102
RTVSPropertyOp20
 70
     1
102
RTVSPropertyOp21
 70
     1
102
RTVSPropertyOp22
 70
     1
102
RTVSPropertyOp23
 70
     1
102
RTVSPropertyOp24
 70
     1
102
RTVSPropertyOp25
 70
     1
102
RTVSPropertyOp26
 70
     1
102
RTVSPropertyOp27
 70
     1
102
RTVSPropertyOp28
 70
     1
102
RTVSPropertyOp29
 70
     1
102
RTVSPropertyOp30
 70
     1
102
RTVSPropertyOp31
 70
     1
102
RTVSPropertyOp32
 70
     1
102
RTVSPropertyOp33
 70
     1
102
RTVSPropertyOp34
 70
     1
102
RTVSPropertyOp35
 70
     1
102
RTVSPropertyOp36
 70
     1
102
RTVSPropertyOp37
 70
     1
102
RTVSPropertyOp38
 70
     1
102
RTVSPropertyOp39
 70
     1
102
RTVSPropertyOp40
 70
     1
102
RTVSPropertyOp41
 70
     1
102
RTVSPropertyOp42
 70
     1
102
RTVSPropertyOp43
 70
     1
102
RTVSPropertyOp44
 70
     1
102
RTVSPropertyOp45
 70
     1
102
RTVSPropertyOp46
 70
     1
102
RTVSPropertyOp47
 70
     1
102
RTVSPropertyOp48
 70
     1
102
RTVSPropertyOp49
 70
     1
102
RTVSPropertyOp50
 70
     1
102
RTVSPropertyOp51
 70
     0
102
RTVSPropertyOp52
 70
     0
102
RTVSPropertyOp53
 70
     1
102
RTVSPropertyOp54
 70
     1
102
RTVSPropertyOp55
 70
     1
102
RTVSPropertyOp56
 70
     1
102
RTVSPropertyOp57
 70
     1
102
RTVSPropertyOp58
 70
     1
102
RTVSPropertyOp59
 70
     1
102
RTVSPropertyOp60
 70
     1
102
RTVSPropertyOp61
 70
     1
102
RTVSPropertyOp62
 70
     1
  0
XRECORD
  5
12E3D
102
{ACAD_REACTORS
330
12E3C
102
}
330
12E3C
100
AcDbXrecord
280
     1
102
RTVSPost2010Prop28
280
     0
102
RTVSPost2010PropOp28
 70
     1
102
RTVSPost2010Prop29
280
     1
102
RTVSPost2010PropOp29
 70
     1
102
RTVSPost2010Prop30
280
     1
102
RTVSPost2010PropOp30
 70
     1
102
RTVSPost2010Prop31
280
     0
102
RTVSPost2010PropOp31
 70
     1
102
RTVSPost2010Prop32
280
     0
102
RTVSPost2010PropOp32
 70
     1
102
RTVSPost2010Prop33
280
     0
102
RTVSPost2010PropOp33
 70
     1
102
RTVSPost2010Prop34
280
     0
102
RTVSPost2010PropOp34
 70
     1
102
RTVSPost2010Prop35
280
     0
102
RTVSPost2010PropOp35
 70
     1
102
RTVSPost2010Prop36
280
     0
102
RTVSPost2010PropOp36
 70
     1
102
RTVSPost2010Prop37
 90
       50
102
RTVSPost2010PropOp37
 70
     1
102
RTVSPost2010Prop38
140
0.0
102
RTVSPost2010PropOp38
 70
     1
102
RTVSPost2010Prop39
140
1.0
102
RTVSPost2010PropOp39
 70
     1
102
RTVSPost2010Prop40
 90
        0
102
RTVSPost2010PropOp40
 70
     1
102
RTVSPost2010Prop41ColorIndex
 90
       18
102
RTVSPost2010Prop41ColorRGB
 90
        0
102
RTVSPost2010PropOp41
 70
     1
102
RTVSPost2010Prop42
 90
       50
102
RTVSPost2010PropOp42
 70
     1
102
RTVSPost2010Prop43
 90
        3
102
RTVSPost2010PropOp43
 70
     1
102
RTVSPost2010Prop44ColorIndex
 90
        5
102
RTVSPost2010Prop44ColorRGB
 90
      255
102
RTVSPost2010PropOp44
 70
     1
102
RTVSPost2010Prop45
280
     0
102
RTVSPost2010PropOp45
 70
     1
102
RTVSPost2010Prop46
 90
       50
102
RTVSPost2010PropOp46
 70
     1
102
RTVSPost2010Prop47
 90
       50
102
RTVSPost2010PropOp47
 70
     1
102
RTVSPost2010Prop48
 90
       50
102
RTVSPost2010PropOp48
 70
     1
102
RTVSPost2010Prop49
280
     0
102
RTVSPost2010PropOp49
 70
     1
102
RTVSPost2010Prop50
 90
       50
102
RTVSPost2010PropOp50
 70
     1
102
RTVSPost2010Prop51ColorIndex
 90
      256
102
RTVSPost2010Prop51ColorRGB
 90
-16777216
102
RTVSPost2010PropOp51
 70
     0
102
RTVSPost2010Prop52
140
1.0
102
RTVSPost2010PropOp52
 70
     0
102
RTVSPost2010Prop53
 90
        2
102
RTVSPost2010PropOp53
 70
     1
102
RTVSPost2010Prop54
  1
strokes_ogs.tif
102
RTVSPost2010PropOp54
 70
     1
102
RTVSPost2010Prop55
280
     0
102
RTVSPost2010PropOp55
 70
     1
102
RTVSPost2010Prop56
140
1.0
102
RTVSPost2010PropOp56
 70
     1
102
RTVSPost2010Prop57
140
1.0
102
RTVSPost2010PropOp57
 70
     1
102
RTVSPropertyOp0
 70
     1
102
RTVSPropertyOp1
 70
     1
102
RTVSPropertyOp2
 70
     1
102
RTVSPropertyOp3
 70
     1
102
RTVSPropertyOp4
 70
     1
102
RTVSPropertyOp5
 70
     1
102
RTVSPropertyOp6
 70
     1
102
RTVSPropertyOp7
 70
     1
102
RTVSPropertyOp8
 70
     1
102
RTVSPropertyOp9
 70
     1
102
RTVSPropertyOp10
 70
     1
102
RTVSPropertyOp11
 70
     1
102
RTVSPropertyOp12
 70
     1
102
RTVSPropertyOp13
 70
     1
102
RTVSPropertyOp14
 70
     1
102
RTVSPropertyOp15
 70
     1
102
RTVSPropertyOp16
 70
     1
102
RTVSPropertyOp17
 70
     1
102
RTVSPropertyOp18
 70
     1
102
RTVSPropertyOp19
 70
     1
102
RTVSPropertyOp20
 70
     1
102
RTVSPropertyOp21
 70
     1
102
RTVSPropertyOp22
 70
     1
102
RTVSPropertyOp23
 70
     1
102
RTVSPropertyOp24
 70
     1
102
RTVSPropertyOp25
 70
     1
102
RTVSPropertyOp26
 70
     1
102
RTVSPropertyOp27
 70
     1
102
RTVSPropertyOp28
 70
     1
102
RTVSPropertyOp29
 70
     1
102
RTVSPropertyOp30
 70
     1
102
RTVSPropertyOp31
 70
     1
102
RTVSPropertyOp32
 70
     1
102
RTVSPropertyOp33
 70
     1
102
RTVSPropertyOp34
 70
     1
102
RTVSPropertyOp35
 70
     1
102
RTVSPropertyOp36
 70
     1
102
RTVSPropertyOp37
 70
     1
102
RTVSPropertyOp38
 70
     1
102
RTVSPropertyOp39
 70
     1
102
RTVSPropertyOp40
 70
     1
102
RTVSPropertyOp41
 70
     1
102
RTVSPropertyOp42
 70
     1
102
RTVSPropertyOp43
 70
     1
102
RTVSPropertyOp44
 70
     1
102
RTVSPropertyOp45
 70
     1
102
RTVSPropertyOp46
 70
     1
102
RTVSPropertyOp47
 70
     1
102
RTVSPropertyOp48
 70
     1
102
RTVSPropertyOp49
 70
     1
102
RTVSPropertyOp50
 70
     1
102
RTVSPropertyOp51
 70
     0
102
RTVSPropertyOp52
 70
     0
102
RTVSPropertyOp53
 70
     1
102
RTVSPropertyOp54
 70
     1
102
RTVSPropertyOp55
 70
     1
102
RTVSPropertyOp56
 70
     1
102
RTVSPropertyOp57
 70
     1
102
RTVSPropertyOp58
 70
     1
102
RTVSPropertyOp59
 70
     1
102
RTVSPropertyOp60
 70
     1
102
RTVSPropertyOp61
 70
     1
102
RTVSPropertyOp62
 70
     1
  0
XRECORD
  5
12E51
102
{ACAD_REACTORS
330
12E50
102
}
330
12E50
100
AcDbXrecord
280
     1
102
RTVSPost2010Prop28
280
     0
102
RTVSPost2010PropOp28
 70
     1
102
RTVSPost2010Prop29
280
     1
102
RTVSPost2010PropOp29
 70
     1
102
RTVSPost2010Prop30
280
     1
102
RTVSPost2010PropOp30
 70
     1
102
RTVSPost2010Prop31
280
     0
102
RTVSPost2010PropOp31
 70
     1
102
RTVSPost2010Prop32
280
     0
102
RTVSPost2010PropOp32
 70
     1
102
RTVSPost2010Prop33
280
     0
102
RTVSPost2010PropOp33
 70
     1
102
RTVSPost2010Prop34
280
     0
102
RTVSPost2010PropOp34
 70
     1
102
RTVSPost2010Prop35
280
     0
102
RTVSPost2010PropOp35
 70
     1
102
RTVSPost2010Prop36
280
     0
102
RTVSPost2010PropOp36
 70
     1
102
RTVSPost2010Prop37
 90
       50
102
RTVSPost2010PropOp37
 70
     1
102
RTVSPost2010Prop38
140
0.0
102
RTVSPost2010PropOp38
 70
     1
102
RTVSPost2010Prop39
140
1.0
102
RTVSPost2010PropOp39
 70
     1
102
RTVSPost2010Prop40
 90
        0
102
RTVSPost2010PropOp40
 70
     1
102
RTVSPost2010Prop41ColorIndex
 90
       18
102
RTVSPost2010Prop41ColorRGB
 90
        0
102
RTVSPost2010PropOp41
 70
     1
102
RTVSPost2010Prop42
 90
       50
102
RTVSPost2010PropOp42
 70
     1
102
RTVSPost2010Prop43
 90
        3
102
RTVSPost2010PropOp43
 70
     1
102
RTVSPost2010Prop44ColorIndex
 90
        5
102
RTVSPost2010Prop44ColorRGB
 90
      255
102
RTVSPost2010PropOp44
 70
     1
102
RTVSPost2010Prop45
280
     0
102
RTVSPost2010PropOp45
 70
     1
102
RTVSPost2010Prop46
 90
       50
102
RTVSPost2010PropOp46
 70
     1
102
RTVSPost2010Prop47
 90
       50
102
RTVSPost2010PropOp47
 70
     1
102
RTVSPost2010Prop48
 90
       50
102
RTVSPost2010PropOp48
 70
     1
102
RTVSPost2010Prop49
280
     0
102
RTVSPost2010PropOp49
 70
     1
102
RTVSPost2010Prop50
 90
       50
102
RTVSPost2010PropOp50
 70
     1
102
RTVSPost2010Prop51ColorIndex
 90
      256
102
RTVSPost2010Prop51ColorRGB
 90
-16777216
102
RTVSPost2010PropOp51
 70
     0
102
RTVSPost2010Prop52
140
1.0
102
RTVSPost2010PropOp52
 70
     0
102
RTVSPost2010Prop53
 90
        2
102
RTVSPost2010PropOp53
 70
     1
102
RTVSPost2010Prop54
  1
strokes_ogs.tif
102
RTVSPost2010PropOp54
 70
     1
102
RTVSPost2010Prop55
280
     0
102
RTVSPost2010PropOp55
 70
     1
102
RTVSPost2010Prop56
140
1.0
102
RTVSPost2010PropOp56
 70
     1
102
RTVSPost2010Prop57
140
1.0
102
RTVSPost2010PropOp57
 70
     1
102
RTVSPropertyOp0
 70
     0
102
RTVSPropertyOp1
 70
     0
102
RTVSPropertyOp2
 70
     0
102
RTVSPropertyOp3
 70
     0
102
RTVSPropertyOp4
 70
     0
102
RTVSPropertyOp5
 70
     0
102
RTVSPropertyOp6
 70
     0
102
RTVSPropertyOp7
 70
     0
102
RTVSPropertyOp8
 70
     0
102
RTVSPropertyOp9
 70
     0
102
RTVSPropertyOp10
 70
     0
102
RTVSPropertyOp11
 70
     0
102
RTVSPropertyOp12
 70
     0
102
RTVSPropertyOp13
 70
     0
102
RTVSPropertyOp14
 70
     2
102
RTVSPropertyOp15
 70
     0
102
RTVSPropertyOp16
 70
     0
102
RTVSPropertyOp17
 70
     0
102
RTVSPropertyOp18
 70
     0
102
RTVSPropertyOp19
 70
     0
102
RTVSPropertyOp20
 70
     0
102
RTVSPropertyOp21
 70
     0
102
RTVSPropertyOp22
 70
     0
102
RTVSPropertyOp23
 70
     0
102
RTVSPropertyOp24
 70
     0
102
RTVSPropertyOp25
 70
     0
102
RTVSPropertyOp26
 70
     0
102
RTVSPropertyOp27
 70
     0
102
RTVSPropertyOp28
 70
     1
102
RTVSPropertyOp29
 70
     1
102
RTVSPropertyOp30
 70
     1
102
RTVSPropertyOp31
 70
     1
102
RTVSPropertyOp32
 70
     1
102
RTVSPropertyOp33
 70
     1
102
RTVSPropertyOp34
 70
     1
102
RTVSPropertyOp35
 70
     1
102
RTVSPropertyOp36
 70
     1
102
RTVSPropertyOp37
 70
     1
102
RTVSPropertyOp38
 70
     1
102
RTVSPropertyOp39
 70
     1
102
RTVSPropertyOp40
 70
     1
102
RTVSPropertyOp41
 70
     1
102
RTVSPropertyOp42
 70
     1
102
RTVSPropertyOp43
 70
     1
102
RTVSPropertyOp44
 70
     1
102
RTVSPropertyOp45
 70
     1
102
RTVSPropertyOp46
 70
     1
102
RTVSPropertyOp47
 70
     1
102
RTVSPropertyOp48
 70
     1
102
RTVSPropertyOp49
 70
     1
102
RTVSPropertyOp50
 70
     1
102
RTVSPropertyOp51
 70
     0
102
RTVSPropertyOp52
 70
     0
102
RTVSPropertyOp53
 70
     1
102
RTVSPropertyOp54
 70
     1
102
RTVSPropertyOp55
 70
     1
102
RTVSPropertyOp56
 70
     1
102
RTVSPropertyOp57
 70
     1
102
RTVSPropertyOp58
 70
     1
102
RTVSPropertyOp59
 70
     1
102
RTVSPropertyOp60
 70
     1
102
RTVSPropertyOp61
 70
     1
102
RTVSPropertyOp62
 70
     1
  0
XRECORD
  5
12E49
102
{ACAD_REACTORS
330
12E48
102
}
330
12E48
100
AcDbXrecord
280
     1
102
RTVSPost2010Prop28
280
     0
102
RTVSPost2010PropOp28
 70
     1
102
RTVSPost2010Prop29
280
     1
102
RTVSPost2010PropOp29
 70
     1
102
RTVSPost2010Prop30
280
     1
102
RTVSPost2010PropOp30
 70
     1
102
RTVSPost2010Prop31
280
     0
102
RTVSPost2010PropOp31
 70
     1
102
RTVSPost2010Prop32
280
     0
102
RTVSPost2010PropOp32
 70
     1
102
RTVSPost2010Prop33
280
     0
102
RTVSPost2010PropOp33
 70
     1
102
RTVSPost2010Prop34
280
     0
102
RTVSPost2010PropOp34
 70
     1
102
RTVSPost2010Prop35
280
     0
102
RTVSPost2010PropOp35
 70
     1
102
RTVSPost2010Prop36
280
     0
102
RTVSPost2010PropOp36
 70
     1
102
RTVSPost2010Prop37
 90
       50
102
RTVSPost2010PropOp37
 70
     1
102
RTVSPost2010Prop38
140
0.0
102
RTVSPost2010PropOp38
 70
     1
102
RTVSPost2010Prop39
140
1.0
102
RTVSPost2010PropOp39
 70
     1
102
RTVSPost2010Prop40
 90
        0
102
RTVSPost2010PropOp40
 70
     1
102
RTVSPost2010Prop41ColorIndex
 90
       18
102
RTVSPost2010Prop41ColorRGB
 90
        0
102
RTVSPost2010PropOp41
 70
     1
102
RTVSPost2010Prop42
 90
       50
102
RTVSPost2010PropOp42
 70
     1
102
RTVSPost2010Prop43
 90
        3
102
RTVSPost2010PropOp43
 70
     1
102
RTVSPost2010Prop44ColorIndex
 90
        5
102
RTVSPost2010Prop44ColorRGB
 90
      255
102
RTVSPost2010PropOp44
 70
     1
102
RTVSPost2010Prop45
280
     0
102
RTVSPost2010PropOp45
 70
     1
102
RTVSPost2010Prop46
 90
       50
102
RTVSPost2010PropOp46
 70
     1
102
RTVSPost2010Prop47
 90
       50
102
RTVSPost2010PropOp47
 70
     1
102
RTVSPost2010Prop48
 90
       50
102
RTVSPost2010PropOp48
 70
     1
102
RTVSPost2010Prop49
280
     0
102
RTVSPost2010PropOp49
 70
     1
102
RTVSPost2010Prop50
 90
       50
102
RTVSPost2010PropOp50
 70
     1
102
RTVSPost2010Prop51ColorIndex
 90
      256
102
RTVSPost2010Prop51ColorRGB
 90
-16777216
102
RTVSPost2010PropOp51
 70
     0
102
RTVSPost2010Prop52
140
1.0
102
RTVSPost2010PropOp52
 70
     0
102
RTVSPost2010Prop53
 90
        2
102
RTVSPost2010PropOp53
 70
     1
102
RTVSPost2010Prop54
  1
strokes_ogs.tif
102
RTVSPost2010PropOp54
 70
     1
102
RTVSPost2010Prop55
280
     0
102
RTVSPost2010PropOp55
 70
     1
102
RTVSPost2010Prop56
140
1.0
102
RTVSPost2010PropOp56
 70
     1
102
RTVSPost2010Prop57
140
1.0
102
RTVSPost2010PropOp57
 70
     1
102
RTVSPropertyOp0
 70
     1
102
RTVSPropertyOp1
 70
     1
102
RTVSPropertyOp2
 70
     1
102
RTVSPropertyOp3
 70
     1
102
RTVSPropertyOp4
 70
     1
102
RTVSPropertyOp5
 70
     1
102
RTVSPropertyOp6
 70
     1
102
RTVSPropertyOp7
 70
     1
102
RTVSPropertyOp8
 70
     1
102
RTVSPropertyOp9
 70
     1
102
RTVSPropertyOp10
 70
     1
102
RTVSPropertyOp11
 70
     1
102
RTVSPropertyOp12
 70
     1
102
RTVSPropertyOp13
 70
     1
102
RTVSPropertyOp14
 70
     1
102
RTVSPropertyOp15
 70
     1
102
RTVSPropertyOp16
 70
     1
102
RTVSPropertyOp17
 70
     1
102
RTVSPropertyOp18
 70
     1
102
RTVSPropertyOp19
 70
     1
102
RTVSPropertyOp20
 70
     1
102
RTVSPropertyOp21
 70
     1
102
RTVSPropertyOp22
 70
     1
102
RTVSPropertyOp23
 70
     1
102
RTVSPropertyOp24
 70
     1
102
RTVSPropertyOp25
 70
     1
102
RTVSPropertyOp26
 70
     1
102
RTVSPropertyOp27
 70
     1
102
RTVSPropertyOp28
 70
     1
102
RTVSPropertyOp29
 70
     1
102
RTVSPropertyOp30
 70
     1
102
RTVSPropertyOp31
 70
     1
102
RTVSPropertyOp32
 70
     1
102
RTVSPropertyOp33
 70
     1
102
RTVSPropertyOp34
 70
     1
102
RTVSPropertyOp35
 70
     1
102
RTVSPropertyOp36
 70
     1
102
RTVSPropertyOp37
 70
     1
102
RTVSPropertyOp38
 70
     1
102
RTVSPropertyOp39
 70
     1
102
RTVSPropertyOp40
 70
     1
102
RTVSPropertyOp41
 70
     1
102
RTVSPropertyOp42
 70
     1
102
RTVSPropertyOp43
 70
     1
102
RTVSPropertyOp44
 70
     1
102
RTVSPropertyOp45
 70
     1
102
RTVSPropertyOp46
 70
     1
102
RTVSPropertyOp47
 70
     1
102
RTVSPropertyOp48
 70
     1
102
RTVSPropertyOp49
 70
     1
102
RTVSPropertyOp50
 70
     1
102
RTVSPropertyOp51
 70
     0
102
RTVSPropertyOp52
 70
     0
102
RTVSPropertyOp53
 70
     1
102
RTVSPropertyOp54
 70
     1
102
RTVSPropertyOp55
 70
     1
102
RTVSPropertyOp56
 70
     1
102
RTVSPropertyOp57
 70
     1
102
RTVSPropertyOp58
 70
     1
102
RTVSPropertyOp59
 70
     1
102
RTVSPropertyOp60
 70
     1
102
RTVSPropertyOp61
 70
     1
102
RTVSPropertyOp62
 70
     1
  0
XRECORD
  5
12E53
102
{ACAD_REACTORS
330
12E52
102
}
330
12E52
100
AcDbXrecord
280
     1
102
RTVSPost2010Prop28
280
     0
102
RTVSPost2010PropOp28
 70
     1
102
RTVSPost2010Prop29
280
     1
102
RTVSPost2010PropOp29
 70
     1
102
RTVSPost2010Prop30
280
     1
102
RTVSPost2010PropOp30
 70
     1
102
RTVSPost2010Prop31
280
     0
102
RTVSPost2010PropOp31
 70
     1
102
RTVSPost2010Prop32
280
     0
102
RTVSPost2010PropOp32
 70
     1
102
RTVSPost2010Prop33
280
     0
102
RTVSPost2010PropOp33
 70
     1
102
RTVSPost2010Prop34
280
     0
102
RTVSPost2010PropOp34
 70
     1
102
RTVSPost2010Prop35
280
     0
102
RTVSPost2010PropOp35
 70
     1
102
RTVSPost2010Prop36
280
     0
102
RTVSPost2010PropOp36
 70
     1
102
RTVSPost2010Prop37
 90
       50
102
RTVSPost2010PropOp37
 70
     1
102
RTVSPost2010Prop38
140
0.0
102
RTVSPost2010PropOp38
 70
     1
102
RTVSPost2010Prop39
140
1.0
102
RTVSPost2010PropOp39
 70
     1
102
RTVSPost2010Prop40
 90
        0
102
RTVSPost2010PropOp40
 70
     1
102
RTVSPost2010Prop41ColorIndex
 90
       18
102
RTVSPost2010Prop41ColorRGB
 90
        0
102
RTVSPost2010PropOp41
 70
     1
102
RTVSPost2010Prop42
 90
       50
102
RTVSPost2010PropOp42
 70
     1
102
RTVSPost2010Prop43
 90
        3
102
RTVSPost2010PropOp43
 70
     1
102
RTVSPost2010Prop44ColorIndex
 90
        5
102
RTVSPost2010Prop44ColorRGB
 90
      255
102
RTVSPost2010PropOp44
 70
     1
102
RTVSPost2010Prop45
280
     0
102
RTVSPost2010PropOp45
 70
     1
102
RTVSPost2010Prop46
 90
       50
102
RTVSPost2010PropOp46
 70
     1
102
RTVSPost2010Prop47
 90
       50
102
RTVSPost2010PropOp47
 70
     1
102
RTVSPost2010Prop48
 90
       50
102
RTVSPost2010PropOp48
 70
     1
102
RTVSPost2010Prop49
280
     0
102
RTVSPost2010PropOp49
 70
     1
102
RTVSPost2010Prop50
 90
       50
102
RTVSPost2010PropOp50
 70
     1
102
RTVSPost2010Prop51ColorIndex
 90
      256
102
RTVSPost2010Prop51ColorRGB
 90
-16777216
102
RTVSPost2010PropOp51
 70
     0
102
RTVSPost2010Prop52
140
1.0
102
RTVSPost2010PropOp52
 70
     0
102
RTVSPost2010Prop53
 90
        2
102
RTVSPost2010PropOp53
 70
     1
102
RTVSPost2010Prop54
  1
strokes_ogs.tif
102
RTVSPost2010PropOp54
 70
     1
102
RTVSPost2010Prop55
280
     0
102
RTVSPost2010PropOp55
 70
     1
102
RTVSPost2010Prop56
140
1.0
102
RTVSPost2010PropOp56
 70
     1
102
RTVSPost2010Prop57
140
1.0
102
RTVSPost2010PropOp57
 70
     1
102
RTVSPropertyOp0
 70
     0
102
RTVSPropertyOp1
 70
     0
102
RTVSPropertyOp2
 70
     0
102
RTVSPropertyOp3
 70
     0
102
RTVSPropertyOp4
 70
     0
102
RTVSPropertyOp5
 70
     0
102
RTVSPropertyOp6
 70
     0
102
RTVSPropertyOp7
 70
     0
102
RTVSPropertyOp8
 70
     0
102
RTVSPropertyOp9
 70
     0
102
RTVSPropertyOp10
 70
     0
102
RTVSPropertyOp11
 70
     0
102
RTVSPropertyOp12
 70
     0
102
RTVSPropertyOp13
 70
     0
102
RTVSPropertyOp14
 70
     2
102
RTVSPropertyOp15
 70
     0
102
RTVSPropertyOp16
 70
     0
102
RTVSPropertyOp17
 70
     0
102
RTVSPropertyOp18
 70
     0
102
RTVSPropertyOp19
 70
     0
102
RTVSPropertyOp20
 70
     0
102
RTVSPropertyOp21
 70
     0
102
RTVSPropertyOp22
 70
     0
102
RTVSPropertyOp23
 70
     0
102
RTVSPropertyOp24
 70
     0
102
RTVSPropertyOp25
 70
     0
102
RTVSPropertyOp26
 70
     0
102
RTVSPropertyOp27
 70
     0
102
RTVSPropertyOp28
 70
     1
102
RTVSPropertyOp29
 70
     1
102
RTVSPropertyOp30
 70
     1
102
RTVSPropertyOp31
 70
     1
102
RTVSPropertyOp32
 70
     1
102
RTVSPropertyOp33
 70
     1
102
RTVSPropertyOp34
 70
     1
102
RTVSPropertyOp35
 70
     1
102
RTVSPropertyOp36
 70
     1
102
RTVSPropertyOp37
 70
     1
102
RTVSPropertyOp38
 70
     1
102
RTVSPropertyOp39
 70
     1
102
RTVSPropertyOp40
 70
     1
102
RTVSPropertyOp41
 70
     1
102
RTVSPropertyOp42
 70
     1
102
RTVSPropertyOp43
 70
     1
102
RTVSPropertyOp44
 70
     1
102
RTVSPropertyOp45
 70
     1
102
RTVSPropertyOp46
 70
     1
102
RTVSPropertyOp47
 70
     1
102
RTVSPropertyOp48
 70
     1
102
RTVSPropertyOp49
 70
     1
102
RTVSPropertyOp50
 70
     1
102
RTVSPropertyOp51
 70
     0
102
RTVSPropertyOp52
 70
     0
102
RTVSPropertyOp53
 70
     1
102
RTVSPropertyOp54
 70
     1
102
RTVSPropertyOp55
 70
     1
102
RTVSPropertyOp56
 70
     1
102
RTVSPropertyOp57
 70
     1
102
RTVSPropertyOp58
 70
     1
102
RTVSPropertyOp59
 70
     1
102
RTVSPropertyOp60
 70
     1
102
RTVSPropertyOp61
 70
     1
102
RTVSPropertyOp62
 70
     1
  0
XRECORD
  5
12E41
102
{ACAD_REACTORS
330
12E40
102
}
330
12E40
100
AcDbXrecord
280
     1
102
RTVSPost2010Prop28
280
     0
102
RTVSPost2010PropOp28
 70
     1
102
RTVSPost2010Prop29
280
     1
102
RTVSPost2010PropOp29
 70
     1
102
RTVSPost2010Prop30
280
     1
102
RTVSPost2010PropOp30
 70
     1
102
RTVSPost2010Prop31
280
     0
102
RTVSPost2010PropOp31
 70
     1
102
RTVSPost2010Prop32
280
     0
102
RTVSPost2010PropOp32
 70
     1
102
RTVSPost2010Prop33
280
     0
102
RTVSPost2010PropOp33
 70
     1
102
RTVSPost2010Prop34
280
     0
102
RTVSPost2010PropOp34
 70
     1
102
RTVSPost2010Prop35
280
     0
102
RTVSPost2010PropOp35
 70
     1
102
RTVSPost2010Prop36
280
     0
102
RTVSPost2010PropOp36
 70
     1
102
RTVSPost2010Prop37
 90
       50
102
RTVSPost2010PropOp37
 70
     1
102
RTVSPost2010Prop38
140
0.0
102
RTVSPost2010PropOp38
 70
     1
102
RTVSPost2010Prop39
140
1.0
102
RTVSPost2010PropOp39
 70
     1
102
RTVSPost2010Prop40
 90
        0
102
RTVSPost2010PropOp40
 70
     1
102
RTVSPost2010Prop41ColorIndex
 90
       18
102
RTVSPost2010Prop41ColorRGB
 90
        0
102
RTVSPost2010PropOp41
 70
     1
102
RTVSPost2010Prop42
 90
       50
102
RTVSPost2010PropOp42
 70
     1
102
RTVSPost2010Prop43
 90
        3
102
RTVSPost2010PropOp43
 70
     1
102
RTVSPost2010Prop44ColorIndex
 90
        5
102
RTVSPost2010Prop44ColorRGB
 90
      255
102
RTVSPost2010PropOp44
 70
     1
102
RTVSPost2010Prop45
280
     0
102
RTVSPost2010PropOp45
 70
     1
102
RTVSPost2010Prop46
 90
       50
102
RTVSPost2010PropOp46
 70
     1
102
RTVSPost2010Prop47
 90
       50
102
RTVSPost2010PropOp47
 70
     1
102
RTVSPost2010Prop48
 90
       50
102
RTVSPost2010PropOp48
 70
     1
102
RTVSPost2010Prop49
280
     0
102
RTVSPost2010PropOp49
 70
     1
102
RTVSPost2010Prop50
 90
       50
102
RTVSPost2010PropOp50
 70
     1
102
RTVSPost2010Prop51ColorIndex
 90
      256
102
RTVSPost2010Prop51ColorRGB
 90
-16777216
102
RTVSPost2010PropOp51
 70
     0
102
RTVSPost2010Prop52
140
1.0
102
RTVSPost2010PropOp52
 70
     0
102
RTVSPost2010Prop53
 90
        2
102
RTVSPost2010PropOp53
 70
     1
102
RTVSPost2010Prop54
  1
strokes_ogs.tif
102
RTVSPost2010PropOp54
 70
     1
102
RTVSPost2010Prop55
280
     0
102
RTVSPost2010PropOp55
 70
     1
102
RTVSPost2010Prop56
140
1.0
102
RTVSPost2010PropOp56
 70
     1
102
RTVSPost2010Prop57
140
1.0
102
RTVSPost2010PropOp57
 70
     1
102
RTVSPropertyOp0
 70
     1
102
RTVSPropertyOp1
 70
     1
102
RTVSPropertyOp2
 70
     1
102
RTVSPropertyOp3
 70
     1
102
RTVSPropertyOp4
 70
     1
102
RTVSPropertyOp5
 70
     1
102
RTVSPropertyOp6
 70
     1
102
RTVSPropertyOp7
 70
     1
102
RTVSPropertyOp8
 70
     1
102
RTVSPropertyOp9
 70
     1
102
RTVSPropertyOp10
 70
     1
102
RTVSPropertyOp11
 70
     1
102
RTVSPropertyOp12
 70
     1
102
RTVSPropertyOp13
 70
     1
102
RTVSPropertyOp14
 70
     1
102
RTVSPropertyOp15
 70
     1
102
RTVSPropertyOp16
 70
     1
102
RTVSPropertyOp17
 70
     1
102
RTVSPropertyOp18
 70
     1
102
RTVSPropertyOp19
 70
     1
102
RTVSPropertyOp20
 70
     1
102
RTVSPropertyOp21
 70
     1
102
RTVSPropertyOp22
 70
     1
102
RTVSPropertyOp23
 70
     1
102
RTVSPropertyOp24
 70
     1
102
RTVSPropertyOp25
 70
     1
102
RTVSPropertyOp26
 70
     1
102
RTVSPropertyOp27
 70
     1
102
RTVSPropertyOp28
 70
     1
102
RTVSPropertyOp29
 70
     1
102
RTVSPropertyOp30
 70
     1
102
RTVSPropertyOp31
 70
     1
102
RTVSPropertyOp32
 70
     1
102
RTVSPropertyOp33
 70
     1
102
RTVSPropertyOp34
 70
     1
102
RTVSPropertyOp35
 70
     1
102
RTVSPropertyOp36
 70
     1
102
RTVSPropertyOp37
 70
     1
102
RTVSPropertyOp38
 70
     1
102
RTVSPropertyOp39
 70
     1
102
RTVSPropertyOp40
 70
     1
102
RTVSPropertyOp41
 70
     1
102
RTVSPropertyOp42
 70
     1
102
RTVSPropertyOp43
 70
     1
102
RTVSPropertyOp44
 70
     1
102
RTVSPropertyOp45
 70
     1
102
RTVSPropertyOp46
 70
     1
102
RTVSPropertyOp47
 70
     1
102
RTVSPropertyOp48
 70
     1
102
RTVSPropertyOp49
 70
     1
102
RTVSPropertyOp50
 70
     1
102
RTVSPropertyOp51
 70
     0
102
RTVSPropertyOp52
 70
     0
102
RTVSPropertyOp53
 70
     1
102
RTVSPropertyOp54
 70
     1
102
RTVSPropertyOp55
 70
     1
102
RTVSPropertyOp56
 70
     1
102
RTVSPropertyOp57
 70
     1
102
RTVSPropertyOp58
 70
     1
102
RTVSPropertyOp59
 70
     1
102
RTVSPropertyOp60
 70
     1
102
RTVSPropertyOp61
 70
     1
102
RTVSPropertyOp62
 70
     1
  0
XRECORD
  5
12E5F
102
{ACAD_REACTORS
330
12E5E
102
}
330
12E5E
100
AcDbXrecord
280
     1
102
RTVSPost2010Prop28
280
     0
102
RTVSPost2010PropOp28
 70
     1
102
RTVSPost2010Prop29
280
     1
102
RTVSPost2010PropOp29
 70
     1
102
RTVSPost2010Prop30
280
     1
102
RTVSPost2010PropOp30
 70
     1
102
RTVSPost2010Prop31
280
     0
102
RTVSPost2010PropOp31
 70
     1
102
RTVSPost2010Prop32
280
     0
102
RTVSPost2010PropOp32
 70
     1
102
RTVSPost2010Prop33
280
     0
102
RTVSPost2010PropOp33
 70
     1
102
RTVSPost2010Prop34
280
     0
102
RTVSPost2010PropOp34
 70
     1
102
RTVSPost2010Prop35
280
     0
102
RTVSPost2010PropOp35
 70
     1
102
RTVSPost2010Prop36
280
     0
102
RTVSPost2010PropOp36
 70
     1
102
RTVSPost2010Prop37
 90
       50
102
RTVSPost2010PropOp37
 70
     1
102
RTVSPost2010Prop38
140
0.0
102
RTVSPost2010PropOp38
 70
     1
102
RTVSPost2010Prop39
140
1.0
102
RTVSPost2010PropOp39
 70
     1
102
RTVSPost2010Prop40
 90
        0
102
RTVSPost2010PropOp40
 70
     1
102
RTVSPost2010Prop41ColorIndex
 90
       18
102
RTVSPost2010Prop41ColorRGB
 90
        0
102
RTVSPost2010PropOp41
 70
     1
102
RTVSPost2010Prop42
 90
       50
102
RTVSPost2010PropOp42
 70
     1
102
RTVSPost2010Prop43
 90
        3
102
RTVSPost2010PropOp43
 70
     1
102
RTVSPost2010Prop44ColorIndex
 90
        5
102
RTVSPost2010Prop44ColorRGB
 90
      255
102
RTVSPost2010PropOp44
 70
     1
102
RTVSPost2010Prop45
280
     0
102
RTVSPost2010PropOp45
 70
     1
102
RTVSPost2010Prop46
 90
       50
102
RTVSPost2010PropOp46
 70
     1
102
RTVSPost2010Prop47
 90
       50
102
RTVSPost2010PropOp47
 70
     1
102
RTVSPost2010Prop48
 90
       50
102
RTVSPost2010PropOp48
 70
     1
102
RTVSPost2010Prop49
280
     0
102
RTVSPost2010PropOp49
 70
     1
102
RTVSPost2010Prop50
 90
       50
102
RTVSPost2010PropOp50
 70
     1
102
RTVSPost2010Prop51ColorIndex
 90
      256
102
RTVSPost2010Prop51ColorRGB
 90
-16777216
102
RTVSPost2010PropOp51
 70
     0
102
RTVSPost2010Prop52
140
1.0
102
RTVSPost2010PropOp52
 70
     0
102
RTVSPost2010Prop53
 90
        2
102
RTVSPost2010PropOp53
 70
     1
102
RTVSPost2010Prop54
  1
strokes_ogs.tif
102
RTVSPost2010PropOp54
 70
     1
102
RTVSPost2010Prop55
280
     0
102
RTVSPost2010PropOp55
 70
     1
102
RTVSPost2010Prop56
140
1.0
102
RTVSPost2010PropOp56
 70
     1
102
RTVSPost2010Prop57
140
1.0
102
RTVSPost2010PropOp57
 70
     1
102
RTVSPropertyOp0
 70
     1
102
RTVSPropertyOp1
 70
     1
102
RTVSPropertyOp2
 70
     1
102
RTVSPropertyOp3
 70
     1
102
RTVSPropertyOp4
 70
     1
102
RTVSPropertyOp5
 70
     1
102
RTVSPropertyOp6
 70
     1
102
RTVSPropertyOp7
 70
     1
102
RTVSPropertyOp8
 70
     1
102
RTVSPropertyOp9
 70
     1
102
RTVSPropertyOp10
 70
     1
102
RTVSPropertyOp11
 70
     1
102
RTVSPropertyOp12
 70
     1
102
RTVSPropertyOp13
 70
     1
102
RTVSPropertyOp14
 70
     1
102
RTVSPropertyOp15
 70
     1
102
RTVSPropertyOp16
 70
     1
102
RTVSPropertyOp17
 70
     1
102
RTVSPropertyOp18
 70
     1
102
RTVSPropertyOp19
 70
     1
102
RTVSPropertyOp20
 70
     1
102
RTVSPropertyOp21
 70
     1
102
RTVSPropertyOp22
 70
     1
102
RTVSPropertyOp23
 70
     1
102
RTVSPropertyOp24
 70
     1
102
RTVSPropertyOp25
 70
     1
102
RTVSPropertyOp26
 70
     1
102
RTVSPropertyOp27
 70
     1
102
RTVSPropertyOp28
 70
     1
102
RTVSPropertyOp29
 70
     1
102
RTVSPropertyOp30
 70
     1
102
RTVSPropertyOp31
 70
     1
102
RTVSPropertyOp32
 70
     1
102
RTVSPropertyOp33
 70
     1
102
RTVSPropertyOp34
 70
     1
102
RTVSPropertyOp35
 70
     1
102
RTVSPropertyOp36
 70
     1
102
RTVSPropertyOp37
 70
     1
102
RTVSPropertyOp38
 70
     1
102
RTVSPropertyOp39
 70
     1
102
RTVSPropertyOp40
 70
     1
102
RTVSPropertyOp41
 70
     1
102
RTVSPropertyOp42
 70
     1
102
RTVSPropertyOp43
 70
     1
102
RTVSPropertyOp44
 70
     1
102
RTVSPropertyOp45
 70
     1
102
RTVSPropertyOp46
 70
     1
102
RTVSPropertyOp47
 70
     1
102
RTVSPropertyOp48
 70
     1
102
RTVSPropertyOp49
 70
     1
102
RTVSPropertyOp50
 70
     1
102
RTVSPropertyOp51
 70
     0
102
RTVSPropertyOp52
 70
     0
102
RTVSPropertyOp53
 70
     1
102
RTVSPropertyOp54
 70
     1
102
RTVSPropertyOp55
 70
     1
102
RTVSPropertyOp56
 70
     1
102
RTVSPropertyOp57
 70
     1
102
RTVSPropertyOp58
 70
     1
102
RTVSPropertyOp59
 70
     1
102
RTVSPropertyOp60
 70
     1
102
RTVSPropertyOp61
 70
     1
102
RTVSPropertyOp62
 70
     1
  0
XRECORD
  5
12E5D
102
{ACAD_REACTORS
330
12E5C
102
}
330
12E5C
100
AcDbXrecord
280
     1
102
RTVSPost2010Prop28
280
     0
102
RTVSPost2010PropOp28
 70
     1
102
RTVSPost2010Prop29
280
     1
102
RTVSPost2010PropOp29
 70
     1
102
RTVSPost2010Prop30
280
     1
102
RTVSPost2010PropOp30
 70
     1
102
RTVSPost2010Prop31
280
     0
102
RTVSPost2010PropOp31
 70
     1
102
RTVSPost2010Prop32
280
     0
102
RTVSPost2010PropOp32
 70
     1
102
RTVSPost2010Prop33
280
     0
102
RTVSPost2010PropOp33
 70
     1
102
RTVSPost2010Prop34
280
     0
102
RTVSPost2010PropOp34
 70
     1
102
RTVSPost2010Prop35
280
     0
102
RTVSPost2010PropOp35
 70
     1
102
RTVSPost2010Prop36
280
     0
102
RTVSPost2010PropOp36
 70
     1
102
RTVSPost2010Prop37
 90
       50
102
RTVSPost2010PropOp37
 70
     1
102
RTVSPost2010Prop38
140
0.0
102
RTVSPost2010PropOp38
 70
     1
102
RTVSPost2010Prop39
140
1.0
102
RTVSPost2010PropOp39
 70
     1
102
RTVSPost2010Prop40
 90
        0
102
RTVSPost2010PropOp40
 70
     1
102
RTVSPost2010Prop41ColorIndex
 90
       18
102
RTVSPost2010Prop41ColorRGB
 90
        0
102
RTVSPost2010PropOp41
 70
     1
102
RTVSPost2010Prop42
 90
       50
102
RTVSPost2010PropOp42
 70
     1
102
RTVSPost2010Prop43
 90
        3
102
RTVSPost2010PropOp43
 70
     1
102
RTVSPost2010Prop44ColorIndex
 90
        5
102
RTVSPost2010Prop44ColorRGB
 90
      255
102
RTVSPost2010PropOp44
 70
     1
102
RTVSPost2010Prop45
280
     0
102
RTVSPost2010PropOp45
 70
     1
102
RTVSPost2010Prop46
 90
       50
102
RTVSPost2010PropOp46
 70
     1
102
RTVSPost2010Prop47
 90
       50
102
RTVSPost2010PropOp47
 70
     1
102
RTVSPost2010Prop48
 90
       50
102
RTVSPost2010PropOp48
 70
     1
102
RTVSPost2010Prop49
280
     0
102
RTVSPost2010PropOp49
 70
     1
102
RTVSPost2010Prop50
 90
       50
102
RTVSPost2010PropOp50
 70
     1
102
RTVSPost2010Prop51ColorIndex
 90
      256
102
RTVSPost2010Prop51ColorRGB
 90
-16777216
102
RTVSPost2010PropOp51
 70
     0
102
RTVSPost2010Prop52
140
1.0
102
RTVSPost2010PropOp52
 70
     0
102
RTVSPost2010Prop53
 90
        2
102
RTVSPost2010PropOp53
 70
     1
102
RTVSPost2010Prop54
  1
strokes_ogs.tif
102
RTVSPost2010PropOp54
 70
     1
102
RTVSPost2010Prop55
280
     0
102
RTVSPost2010PropOp55
 70
     1
102
RTVSPost2010Prop56
140
1.0
102
RTVSPost2010PropOp56
 70
     1
102
RTVSPost2010Prop57
140
1.0
102
RTVSPost2010PropOp57
 70
     1
102
RTVSPropertyOp0
 70
     1
102
RTVSPropertyOp1
 70
     1
102
RTVSPropertyOp2
 70
     1
102
RTVSPropertyOp3
 70
     1
102
RTVSPropertyOp4
 70
     1
102
RTVSPropertyOp5
 70
     1
102
RTVSPropertyOp6
 70
     1
102
RTVSPropertyOp7
 70
     1
102
RTVSPropertyOp8
 70
     1
102
RTVSPropertyOp9
 70
     1
102
RTVSPropertyOp10
 70
     1
102
RTVSPropertyOp11
 70
     1
102
RTVSPropertyOp12
 70
     1
102
RTVSPropertyOp13
 70
     1
102
RTVSPropertyOp14
 70
     1
102
RTVSPropertyOp15
 70
     1
102
RTVSPropertyOp16
 70
     1
102
RTVSPropertyOp17
 70
     1
102
RTVSPropertyOp18
 70
     1
102
RTVSPropertyOp19
 70
     1
102
RTVSPropertyOp20
 70
     1
102
RTVSPropertyOp21
 70
     1
102
RTVSPropertyOp22
 70
     1
102
RTVSPropertyOp23
 70
     1
102
RTVSPropertyOp24
 70
     1
102
RTVSPropertyOp25
 70
     1
102
RTVSPropertyOp26
 70
     1
102
RTVSPropertyOp27
 70
     1
102
RTVSPropertyOp28
 70
     1
102
RTVSPropertyOp29
 70
     1
102
RTVSPropertyOp30
 70
     1
102
RTVSPropertyOp31
 70
     1
102
RTVSPropertyOp32
 70
     1
102
RTVSPropertyOp33
 70
     1
102
RTVSPropertyOp34
 70
     1
102
RTVSPropertyOp35
 70
     1
102
RTVSPropertyOp36
 70
     1
102
RTVSPropertyOp37
 70
     1
102
RTVSPropertyOp38
 70
     1
102
RTVSPropertyOp39
 70
     1
102
RTVSPropertyOp40
 70
     1
102
RTVSPropertyOp41
 70
     1
102
RTVSPropertyOp42
 70
     1
102
RTVSPropertyOp43
 70
     1
102
RTVSPropertyOp44
 70
     1
102
RTVSPropertyOp45
 70
     1
102
RTVSPropertyOp46
 70
     1
102
RTVSPropertyOp47
 70
     1
102
RTVSPropertyOp48
 70
     1
102
RTVSPropertyOp49
 70
     1
102
RTVSPropertyOp50
 70
     1
102
RTVSPropertyOp51
 70
     0
102
RTVSPropertyOp52
 70
     0
102
RTVSPropertyOp53
 70
     1
102
RTVSPropertyOp54
 70
     1
102
RTVSPropertyOp55
 70
     1
102
RTVSPropertyOp56
 70
     1
102
RTVSPropertyOp57
 70
     1
102
RTVSPropertyOp58
 70
     1
102
RTVSPropertyOp59
 70
     1
102
RTVSPropertyOp60
 70
     1
102
RTVSPropertyOp61
 70
     1
102
RTVSPropertyOp62
 70
     1
  0
XRECORD
  5
12E57
102
{ACAD_REACTORS
330
12E56
102
}
330
12E56
100
AcDbXrecord
280
     1
102
RTVSPost2010Prop28
280
     0
102
RTVSPost2010PropOp28
 70
     1
102
RTVSPost2010Prop29
280
     1
102
RTVSPost2010PropOp29
 70
     1
102
RTVSPost2010Prop30
280
     1
102
RTVSPost2010PropOp30
 70
     1
102
RTVSPost2010Prop31
280
     0
102
RTVSPost2010PropOp31
 70
     1
102
RTVSPost2010Prop32
280
     0
102
RTVSPost2010PropOp32
 70
     1
102
RTVSPost2010Prop33
280
     0
102
RTVSPost2010PropOp33
 70
     1
102
RTVSPost2010Prop34
280
     0
102
RTVSPost2010PropOp34
 70
     1
102
RTVSPost2010Prop35
280
     0
102
RTVSPost2010PropOp35
 70
     1
102
RTVSPost2010Prop36
280
     0
102
RTVSPost2010PropOp36
 70
     1
102
RTVSPost2010Prop37
 90
       50
102
RTVSPost2010PropOp37
 70
     1
102
RTVSPost2010Prop38
140
0.0
102
RTVSPost2010PropOp38
 70
     1
102
RTVSPost2010Prop39
140
1.0
102
RTVSPost2010PropOp39
 70
     1
102
RTVSPost2010Prop40
 90
        0
102
RTVSPost2010PropOp40
 70
     1
102
RTVSPost2010Prop41ColorIndex
 90
       18
102
RTVSPost2010Prop41ColorRGB
 90
        0
102
RTVSPost2010PropOp41
 70
     1
102
RTVSPost2010Prop42
 90
       50
102
RTVSPost2010PropOp42
 70
     1
102
RTVSPost2010Prop43
 90
        3
102
RTVSPost2010PropOp43
 70
     1
102
RTVSPost2010Prop44ColorIndex
 90
        5
102
RTVSPost2010Prop44ColorRGB
 90
      255
102
RTVSPost2010PropOp44
 70
     1
102
RTVSPost2010Prop45
280
     0
102
RTVSPost2010PropOp45
 70
     1
102
RTVSPost2010Prop46
 90
       50
102
RTVSPost2010PropOp46
 70
     1
102
RTVSPost2010Prop47
 90
       50
102
RTVSPost2010PropOp47
 70
     1
102
RTVSPost2010Prop48
 90
       50
102
RTVSPost2010PropOp48
 70
     1
102
RTVSPost2010Prop49
280
     0
102
RTVSPost2010PropOp49
 70
     1
102
RTVSPost2010Prop50
 90
       50
102
RTVSPost2010PropOp50
 70
     1
102
RTVSPost2010Prop51ColorIndex
 90
      256
102
RTVSPost2010Prop51ColorRGB
 90
-16777216
102
RTVSPost2010PropOp51
 70
     0
102
RTVSPost2010Prop52
140
1.0
102
RTVSPost2010PropOp52
 70
     0
102
RTVSPost2010Prop53
 90
        2
102
RTVSPost2010PropOp53
 70
     1
102
RTVSPost2010Prop54
  1
strokes_ogs.tif
102
RTVSPost2010PropOp54
 70
     1
102
RTVSPost2010Prop55
280
     0
102
RTVSPost2010PropOp55
 70
     1
102
RTVSPost2010Prop56
140
1.0
102
RTVSPost2010PropOp56
 70
     1
102
RTVSPost2010Prop57
140
1.0
102
RTVSPost2010PropOp57
 70
     1
102
RTVSPropertyOp0
 70
     1
102
RTVSPropertyOp1
 70
     1
102
RTVSPropertyOp2
 70
     1
102
RTVSPropertyOp3
 70
     1
102
RTVSPropertyOp4
 70
     1
102
RTVSPropertyOp5
 70
     1
102
RTVSPropertyOp6
 70
     1
102
RTVSPropertyOp7
 70
     1
102
RTVSPropertyOp8
 70
     1
102
RTVSPropertyOp9
 70
     1
102
RTVSPropertyOp10
 70
     1
102
RTVSPropertyOp11
 70
     1
102
RTVSPropertyOp12
 70
     1
102
RTVSPropertyOp13
 70
     1
102
RTVSPropertyOp14
 70
     1
102
RTVSPropertyOp15
 70
     1
102
RTVSPropertyOp16
 70
     1
102
RTVSPropertyOp17
 70
     1
102
RTVSPropertyOp18
 70
     1
102
RTVSPropertyOp19
 70
     1
102
RTVSPropertyOp20
 70
     1
102
RTVSPropertyOp21
 70
     1
102
RTVSPropertyOp22
 70
     1
102
RTVSPropertyOp23
 70
     1
102
RTVSPropertyOp24
 70
     1
102
RTVSPropertyOp25
 70
     1
102
RTVSPropertyOp26
 70
     1
102
RTVSPropertyOp27
 70
     1
102
RTVSPropertyOp28
 70
     1
102
RTVSPropertyOp29
 70
     1
102
RTVSPropertyOp30
 70
     1
102
RTVSPropertyOp31
 70
     1
102
RTVSPropertyOp32
 70
     1
102
RTVSPropertyOp33
 70
     1
102
RTVSPropertyOp34
 70
     1
102
RTVSPropertyOp35
 70
     1
102
RTVSPropertyOp36
 70
     1
102
RTVSPropertyOp37
 70
     1
102
RTVSPropertyOp38
 70
     1
102
RTVSPropertyOp39
 70
     1
102
RTVSPropertyOp40
 70
     1
102
RTVSPropertyOp41
 70
     1
102
RTVSPropertyOp42
 70
     1
102
RTVSPropertyOp43
 70
     1
102
RTVSPropertyOp44
 70
     1
102
RTVSPropertyOp45
 70
     1
102
RTVSPropertyOp46
 70
     1
102
RTVSPropertyOp47
 70
     1
102
RTVSPropertyOp48
 70
     1
102
RTVSPropertyOp49
 70
     1
102
RTVSPropertyOp50
 70
     1
102
RTVSPropertyOp51
 70
     0
102
RTVSPropertyOp52
 70
     0
102
RTVSPropertyOp53
 70
     1
102
RTVSPropertyOp54
 70
     1
102
RTVSPropertyOp55
 70
     1
102
RTVSPropertyOp56
 70
     1
102
RTVSPropertyOp57
 70
     1
102
RTVSPropertyOp58
 70
     1
102
RTVSPropertyOp59
 70
     1
102
RTVSPropertyOp60
 70
     1
102
RTVSPropertyOp61
 70
     1
102
RTVSPropertyOp62
 70
     1
  0
XRECORD
  5
12E59
102
{ACAD_REACTORS
330
12E58
102
}
330
12E58
100
AcDbXrecord
280
     1
102
RTVSPost2010Prop28
280
     0
102
RTVSPost2010PropOp28
 70
     1
102
RTVSPost2010Prop29
280
     1
102
RTVSPost2010PropOp29
 70
     1
102
RTVSPost2010Prop30
280
     1
102
RTVSPost2010PropOp30
 70
     1
102
RTVSPost2010Prop31
280
     0
102
RTVSPost2010PropOp31
 70
     1
102
RTVSPost2010Prop32
280
     0
102
RTVSPost2010PropOp32
 70
     1
102
RTVSPost2010Prop33
280
     0
102
RTVSPost2010PropOp33
 70
     1
102
RTVSPost2010Prop34
280
     0
102
RTVSPost2010PropOp34
 70
     1
102
RTVSPost2010Prop35
280
     0
102
RTVSPost2010PropOp35
 70
     1
102
RTVSPost2010Prop36
280
     0
102
RTVSPost2010PropOp36
 70
     1
102
RTVSPost2010Prop37
 90
       50
102
RTVSPost2010PropOp37
 70
     1
102
RTVSPost2010Prop38
140
0.0
102
RTVSPost2010PropOp38
 70
     1
102
RTVSPost2010Prop39
140
1.0
102
RTVSPost2010PropOp39
 70
     1
102
RTVSPost2010Prop40
 90
        0
102
RTVSPost2010PropOp40
 70
     1
102
RTVSPost2010Prop41ColorIndex
 90
       18
102
RTVSPost2010Prop41ColorRGB
 90
        0
102
RTVSPost2010PropOp41
 70
     1
102
RTVSPost2010Prop42
 90
       50
102
RTVSPost2010PropOp42
 70
     1
102
RTVSPost2010Prop43
 90
        3
102
RTVSPost2010PropOp43
 70
     1
102
RTVSPost2010Prop44ColorIndex
 90
        5
102
RTVSPost2010Prop44ColorRGB
 90
      255
102
RTVSPost2010PropOp44
 70
     1
102
RTVSPost2010Prop45
280
     0
102
RTVSPost2010PropOp45
 70
     1
102
RTVSPost2010Prop46
 90
       50
102
RTVSPost2010PropOp46
 70
     1
102
RTVSPost2010Prop47
 90
       50
102
RTVSPost2010PropOp47
 70
     1
102
RTVSPost2010Prop48
 90
       50
102
RTVSPost2010PropOp48
 70
     1
102
RTVSPost2010Prop49
280
     0
102
RTVSPost2010PropOp49
 70
     1
102
RTVSPost2010Prop50
 90
       50
102
RTVSPost2010PropOp50
 70
     1
102
RTVSPost2010Prop51ColorIndex
 90
      256
102
RTVSPost2010Prop51ColorRGB
 90
-16777216
102
RTVSPost2010PropOp51
 70
     0
102
RTVSPost2010Prop52
140
1.0
102
RTVSPost2010PropOp52
 70
     0
102
RTVSPost2010Prop53
 90
        2
102
RTVSPost2010PropOp53
 70
     1
102
RTVSPost2010Prop54
  1
strokes_ogs.tif
102
RTVSPost2010PropOp54
 70
     1
102
RTVSPost2010Prop55
280
     0
102
RTVSPost2010PropOp55
 70
     1
102
RTVSPost2010Prop56
140
1.0
102
RTVSPost2010PropOp56
 70
     1
102
RTVSPost2010Prop57
140
1.0
102
RTVSPost2010PropOp57
 70
     1
102
RTVSPropertyOp0
 70
     1
102
RTVSPropertyOp1
 70
     1
102
RTVSPropertyOp2
 70
     1
102
RTVSPropertyOp3
 70
     1
102
RTVSPropertyOp4
 70
     1
102
RTVSPropertyOp5
 70
     1
102
RTVSPropertyOp6
 70
     1
102
RTVSPropertyOp7
 70
     1
102
RTVSPropertyOp8
 70
     1
102
RTVSPropertyOp9
 70
     1
102
RTVSPropertyOp10
 70
     1
102
RTVSPropertyOp11
 70
     1
102
RTVSPropertyOp12
 70
     1
102
RTVSPropertyOp13
 70
     1
102
RTVSPropertyOp14
 70
     1
102
RTVSPropertyOp15
 70
     1
102
RTVSPropertyOp16
 70
     1
102
RTVSPropertyOp17
 70
     1
102
RTVSPropertyOp18
 70
     1
102
RTVSPropertyOp19
 70
     1
102
RTVSPropertyOp20
 70
     1
102
RTVSPropertyOp21
 70
     1
102
RTVSPropertyOp22
 70
     1
102
RTVSPropertyOp23
 70
     1
102
RTVSPropertyOp24
 70
     1
102
RTVSPropertyOp25
 70
     1
102
RTVSPropertyOp26
 70
     1
102
RTVSPropertyOp27
 70
     1
102
RTVSPropertyOp28
 70
     1
102
RTVSPropertyOp29
 70
     1
102
RTVSPropertyOp30
 70
     1
102
RTVSPropertyOp31
 70
     1
102
RTVSPropertyOp32
 70
     1
102
RTVSPropertyOp33
 70
     1
102
RTVSPropertyOp34
 70
     1
102
RTVSPropertyOp35
 70
     1
102
RTVSPropertyOp36
 70
     1
102
RTVSPropertyOp37
 70
     1
102
RTVSPropertyOp38
 70
     1
102
RTVSPropertyOp39
 70
     1
102
RTVSPropertyOp40
 70
     1
102
RTVSPropertyOp41
 70
     1
102
RTVSPropertyOp42
 70
     1
102
RTVSPropertyOp43
 70
     1
102
RTVSPropertyOp44
 70
     1
102
RTVSPropertyOp45
 70
     1
102
RTVSPropertyOp46
 70
     1
102
RTVSPropertyOp47
 70
     1
102
RTVSPropertyOp48
 70
     1
102
RTVSPropertyOp49
 70
     1
102
RTVSPropertyOp50
 70
     1
102
RTVSPropertyOp51
 70
     0
102
RTVSPropertyOp52
 70
     0
102
RTVSPropertyOp53
 70
     1
102
RTVSPropertyOp54
 70
     1
102
RTVSPropertyOp55
 70
     1
102
RTVSPropertyOp56
 70
     1
102
RTVSPropertyOp57
 70
     1
102
RTVSPropertyOp58
 70
     1
102
RTVSPropertyOp59
 70
     1
102
RTVSPropertyOp60
 70
     1
102
RTVSPropertyOp61
 70
     1
102
RTVSPropertyOp62
 70
     1
  0
XRECORD
  5
12E47
102
{ACAD_REACTORS
330
12E46
102
}
330
12E46
100
AcDbXrecord
280
     1
102
RTVSPost2010Prop28
280
     0
102
RTVSPost2010PropOp28
 70
     1
102
RTVSPost2010Prop29
280
     1
102
RTVSPost2010PropOp29
 70
     1
102
RTVSPost2010Prop30
280
     1
102
RTVSPost2010PropOp30
 70
     1
102
RTVSPost2010Prop31
280
     0
102
RTVSPost2010PropOp31
 70
     1
102
RTVSPost2010Prop32
280
     0
102
RTVSPost2010PropOp32
 70
     1
102
RTVSPost2010Prop33
280
     0
102
RTVSPost2010PropOp33
 70
     1
102
RTVSPost2010Prop34
280
     0
102
RTVSPost2010PropOp34
 70
     1
102
RTVSPost2010Prop35
280
     0
102
RTVSPost2010PropOp35
 70
     1
102
RTVSPost2010Prop36
280
     0
102
RTVSPost2010PropOp36
 70
     1
102
RTVSPost2010Prop37
 90
       50
102
RTVSPost2010PropOp37
 70
     1
102
RTVSPost2010Prop38
140
0.0
102
RTVSPost2010PropOp38
 70
     1
102
RTVSPost2010Prop39
140
1.0
102
RTVSPost2010PropOp39
 70
     1
102
RTVSPost2010Prop40
 90
        0
102
RTVSPost2010PropOp40
 70
     1
102
RTVSPost2010Prop41ColorIndex
 90
       18
102
RTVSPost2010Prop41ColorRGB
 90
        0
102
RTVSPost2010PropOp41
 70
     1
102
RTVSPost2010Prop42
 90
       50
102
RTVSPost2010PropOp42
 70
     1
102
RTVSPost2010Prop43
 90
        3
102
RTVSPost2010PropOp43
 70
     1
102
RTVSPost2010Prop44ColorIndex
 90
        5
102
RTVSPost2010Prop44ColorRGB
 90
      255
102
RTVSPost2010PropOp44
 70
     1
102
RTVSPost2010Prop45
280
     0
102
RTVSPost2010PropOp45
 70
     1
102
RTVSPost2010Prop46
 90
       50
102
RTVSPost2010PropOp46
 70
     1
102
RTVSPost2010Prop47
 90
       50
102
RTVSPost2010PropOp47
 70
     1
102
RTVSPost2010Prop48
 90
       50
102
RTVSPost2010PropOp48
 70
     1
102
RTVSPost2010Prop49
280
     0
102
RTVSPost2010PropOp49
 70
     1
102
RTVSPost2010Prop50
 90
       50
102
RTVSPost2010PropOp50
 70
     1
102
RTVSPost2010Prop51ColorIndex
 90
      256
102
RTVSPost2010Prop51ColorRGB
 90
-16777216
102
RTVSPost2010PropOp51
 70
     0
102
RTVSPost2010Prop52
140
1.0
102
RTVSPost2010PropOp52
 70
     0
102
RTVSPost2010Prop53
 90
        2
102
RTVSPost2010PropOp53
 70
     1
102
RTVSPost2010Prop54
  1
strokes_ogs.tif
102
RTVSPost2010PropOp54
 70
     1
102
RTVSPost2010Prop55
280
     0
102
RTVSPost2010PropOp55
 70
     1
102
RTVSPost2010Prop56
140
1.0
102
RTVSPost2010PropOp56
 70
     1
102
RTVSPost2010Prop57
140
1.0
102
RTVSPost2010PropOp57
 70
     1
102
RTVSPropertyOp0
 70
     1
102
RTVSPropertyOp1
 70
     1
102
RTVSPropertyOp2
 70
     1
102
RTVSPropertyOp3
 70
     1
102
RTVSPropertyOp4
 70
     1
102
RTVSPropertyOp5
 70
     1
102
RTVSPropertyOp6
 70
     1
102
RTVSPropertyOp7
 70
     1
102
RTVSPropertyOp8
 70
     1
102
RTVSPropertyOp9
 70
     1
102
RTVSPropertyOp10
 70
     1
102
RTVSPropertyOp11
 70
     1
102
RTVSPropertyOp12
 70
     1
102
RTVSPropertyOp13
 70
     1
102
RTVSPropertyOp14
 70
     1
102
RTVSPropertyOp15
 70
     1
102
RTVSPropertyOp16
 70
     1
102
RTVSPropertyOp17
 70
     1
102
RTVSPropertyOp18
 70
     1
102
RTVSPropertyOp19
 70
     1
102
RTVSPropertyOp20
 70
     1
102
RTVSPropertyOp21
 70
     1
102
RTVSPropertyOp22
 70
     1
102
RTVSPropertyOp23
 70
     1
102
RTVSPropertyOp24
 70
     1
102
RTVSPropertyOp25
 70
     1
102
RTVSPropertyOp26
 70
     1
102
RTVSPropertyOp27
 70
     1
102
RTVSPropertyOp28
 70
     1
102
RTVSPropertyOp29
 70
     1
102
RTVSPropertyOp30
 70
     1
102
RTVSPropertyOp31
 70
     1
102
RTVSPropertyOp32
 70
     1
102
RTVSPropertyOp33
 70
     1
102
RTVSPropertyOp34
 70
     1
102
RTVSPropertyOp35
 70
     1
102
RTVSPropertyOp36
 70
     1
102
RTVSPropertyOp37
 70
     1
102
RTVSPropertyOp38
 70
     1
102
RTVSPropertyOp39
 70
     1
102
RTVSPropertyOp40
 70
     1
102
RTVSPropertyOp41
 70
     1
102
RTVSPropertyOp42
 70
     1
102
RTVSPropertyOp43
 70
     1
102
RTVSPropertyOp44
 70
     1
102
RTVSPropertyOp45
 70
     1
102
RTVSPropertyOp46
 70
     1
102
RTVSPropertyOp47
 70
     1
102
RTVSPropertyOp48
 70
     1
102
RTVSPropertyOp49
 70
     1
102
RTVSPropertyOp50
 70
     1
102
RTVSPropertyOp51
 70
     0
102
RTVSPropertyOp52
 70
     0
102
RTVSPropertyOp53
 70
     1
102
RTVSPropertyOp54
 70
     1
102
RTVSPropertyOp55
 70
     1
102
RTVSPropertyOp56
 70
     1
102
RTVSPropertyOp57
 70
     1
102
RTVSPropertyOp58
 70
     1
102
RTVSPropertyOp59
 70
     1
102
RTVSPropertyOp60
 70
     1
102
RTVSPropertyOp61
 70
     1
102
RTVSPropertyOp62
 70
     1
  0
XRECORD
  5
12E3B
102
{ACAD_REACTORS
330
12E3A
102
}
330
12E3A
100
AcDbXrecord
280
     1
102
RTVSPost2010Prop28
280
     0
102
RTVSPost2010PropOp28
 70
     1
102
RTVSPost2010Prop29
280
     1
102
RTVSPost2010PropOp29
 70
     1
102
RTVSPost2010Prop30
280
     1
102
RTVSPost2010PropOp30
 70
     1
102
RTVSPost2010Prop31
280
     0
102
RTVSPost2010PropOp31
 70
     1
102
RTVSPost2010Prop32
280
     0
102
RTVSPost2010PropOp32
 70
     1
102
RTVSPost2010Prop33
280
     0
102
RTVSPost2010PropOp33
 70
     1
102
RTVSPost2010Prop34
280
     0
102
RTVSPost2010PropOp34
 70
     1
102
RTVSPost2010Prop35
280
     0
102
RTVSPost2010PropOp35
 70
     1
102
RTVSPost2010Prop36
280
     0
102
RTVSPost2010PropOp36
 70
     1
102
RTVSPost2010Prop37
 90
       50
102
RTVSPost2010PropOp37
 70
     1
102
RTVSPost2010Prop38
140
0.0
102
RTVSPost2010PropOp38
 70
     1
102
RTVSPost2010Prop39
140
1.0
102
RTVSPost2010PropOp39
 70
     1
102
RTVSPost2010Prop40
 90
        0
102
RTVSPost2010PropOp40
 70
     1
102
RTVSPost2010Prop41ColorIndex
 90
       18
102
RTVSPost2010Prop41ColorRGB
 90
        0
102
RTVSPost2010PropOp41
 70
     1
102
RTVSPost2010Prop42
 90
       50
102
RTVSPost2010PropOp42
 70
     1
102
RTVSPost2010Prop43
 90
        3
102
RTVSPost2010PropOp43
 70
     1
102
RTVSPost2010Prop44ColorIndex
 90
        5
102
RTVSPost2010Prop44ColorRGB
 90
      255
102
RTVSPost2010PropOp44
 70
     1
102
RTVSPost2010Prop45
280
     0
102
RTVSPost2010PropOp45
 70
     1
102
RTVSPost2010Prop46
 90
       50
102
RTVSPost2010PropOp46
 70
     1
102
RTVSPost2010Prop47
 90
       50
102
RTVSPost2010PropOp47
 70
     1
102
RTVSPost2010Prop48
 90
       50
102
RTVSPost2010PropOp48
 70
     1
102
RTVSPost2010Prop49
280
     0
102
RTVSPost2010PropOp49
 70
     1
102
RTVSPost2010Prop50
 90
       50
102
RTVSPost2010PropOp50
 70
     1
102
RTVSPost2010Prop51ColorIndex
 90
      256
102
RTVSPost2010Prop51ColorRGB
 90
-16777216
102
RTVSPost2010PropOp51
 70
     0
102
RTVSPost2010Prop52
140
1.0
102
RTVSPost2010PropOp52
 70
     0
102
RTVSPost2010Prop53
 90
        2
102
RTVSPost2010PropOp53
 70
     1
102
RTVSPost2010Prop54
  1
strokes_ogs.tif
102
RTVSPost2010PropOp54
 70
     1
102
RTVSPost2010Prop55
280
     0
102
RTVSPost2010PropOp55
 70
     1
102
RTVSPost2010Prop56
140
1.0
102
RTVSPost2010PropOp56
 70
     1
102
RTVSPost2010Prop57
140
1.0
102
RTVSPost2010PropOp57
 70
     1
102
RTVSPropertyOp0
 70
     1
102
RTVSPropertyOp1
 70
     1
102
RTVSPropertyOp2
 70
     1
102
RTVSPropertyOp3
 70
     1
102
RTVSPropertyOp4
 70
     1
102
RTVSPropertyOp5
 70
     1
102
RTVSPropertyOp6
 70
     1
102
RTVSPropertyOp7
 70
     1
102
RTVSPropertyOp8
 70
     1
102
RTVSPropertyOp9
 70
     1
102
RTVSPropertyOp10
 70
     1
102
RTVSPropertyOp11
 70
     1
102
RTVSPropertyOp12
 70
     1
102
RTVSPropertyOp13
 70
     1
102
RTVSPropertyOp14
 70
     1
102
RTVSPropertyOp15
 70
     1
102
RTVSPropertyOp16
 70
     1
102
RTVSPropertyOp17
 70
     1
102
RTVSPropertyOp18
 70
     1
102
RTVSPropertyOp19
 70
     1
102
RTVSPropertyOp20
 70
     1
102
RTVSPropertyOp21
 70
     1
102
RTVSPropertyOp22
 70
     1
102
RTVSPropertyOp23
 70
     1
102
RTVSPropertyOp24
 70
     1
102
RTVSPropertyOp25
 70
     1
102
RTVSPropertyOp26
 70
     1
102
RTVSPropertyOp27
 70
     1
102
RTVSPropertyOp28
 70
     1
102
RTVSPropertyOp29
 70
     1
102
RTVSPropertyOp30
 70
     1
102
RTVSPropertyOp31
 70
     1
102
RTVSPropertyOp32
 70
     1
102
RTVSPropertyOp33
 70
     1
102
RTVSPropertyOp34
 70
     1
102
RTVSPropertyOp35
 70
     1
102
RTVSPropertyOp36
 70
     1
102
RTVSPropertyOp37
 70
     1
102
RTVSPropertyOp38
 70
     1
102
RTVSPropertyOp39
 70
     1
102
RTVSPropertyOp40
 70
     1
102
RTVSPropertyOp41
 70
     1
102
RTVSPropertyOp42
 70
     1
102
RTVSPropertyOp43
 70
     1
102
RTVSPropertyOp44
 70
     1
102
RTVSPropertyOp45
 70
     1
102
RTVSPropertyOp46
 70
     1
102
RTVSPropertyOp47
 70
     1
102
RTVSPropertyOp48
 70
     1
102
RTVSPropertyOp49
 70
     1
102
RTVSPropertyOp50
 70
     1
102
RTVSPropertyOp51
 70
     0
102
RTVSPropertyOp52
 70
     0
102
RTVSPropertyOp53
 70
     1
102
RTVSPropertyOp54
 70
     1
102
RTVSPropertyOp55
 70
     1
102
RTVSPropertyOp56
 70
     1
102
RTVSPropertyOp57
 70
     1
102
RTVSPropertyOp58
 70
     1
102
RTVSPropertyOp59
 70
     1
102
RTVSPropertyOp60
 70
     1
102
RTVSPropertyOp61
 70
     1
102
RTVSPropertyOp62
 70
     1
  0
XRECORD
  5
12E5B
102
{ACAD_REACTORS
330
12E5A
102
}
330
12E5A
100
AcDbXrecord
280
     1
102
RTVSPost2010Prop28
280
     0
102
RTVSPost2010PropOp28
 70
     1
102
RTVSPost2010Prop29
280
     1
102
RTVSPost2010PropOp29
 70
     1
102
RTVSPost2010Prop30
280
     1
102
RTVSPost2010PropOp30
 70
     1
102
RTVSPost2010Prop31
280
     0
102
RTVSPost2010PropOp31
 70
     1
102
RTVSPost2010Prop32
280
     0
102
RTVSPost2010PropOp32
 70
     1
102
RTVSPost2010Prop33
280
     0
102
RTVSPost2010PropOp33
 70
     1
102
RTVSPost2010Prop34
280
     0
102
RTVSPost2010PropOp34
 70
     1
102
RTVSPost2010Prop35
280
     0
102
RTVSPost2010PropOp35
 70
     1
102
RTVSPost2010Prop36
280
     0
102
RTVSPost2010PropOp36
 70
     1
102
RTVSPost2010Prop37
 90
       50
102
RTVSPost2010PropOp37
 70
     1
102
RTVSPost2010Prop38
140
0.0
102
RTVSPost2010PropOp38
 70
     1
102
RTVSPost2010Prop39
140
1.0
102
RTVSPost2010PropOp39
 70
     1
102
RTVSPost2010Prop40
 90
        0
102
RTVSPost2010PropOp40
 70
     1
102
RTVSPost2010Prop41ColorIndex
 90
       18
102
RTVSPost2010Prop41ColorRGB
 90
        0
102
RTVSPost2010PropOp41
 70
     1
102
RTVSPost2010Prop42
 90
       50
102
RTVSPost2010PropOp42
 70
     1
102
RTVSPost2010Prop43
 90
        3
102
RTVSPost2010PropOp43
 70
     1
102
RTVSPost2010Prop44ColorIndex
 90
        5
102
RTVSPost2010Prop44ColorRGB
 90
      255
102
RTVSPost2010PropOp44
 70
     1
102
RTVSPost2010Prop45
280
     0
102
RTVSPost2010PropOp45
 70
     1
102
RTVSPost2010Prop46
 90
       50
102
RTVSPost2010PropOp46
 70
     1
102
RTVSPost2010Prop47
 90
       50
102
RTVSPost2010PropOp47
 70
     1
102
RTVSPost2010Prop48
 90
       50
102
RTVSPost2010PropOp48
 70
     1
102
RTVSPost2010Prop49
280
     0
102
RTVSPost2010PropOp49
 70
     1
102
RTVSPost2010Prop50
 90
       50
102
RTVSPost2010PropOp50
 70
     1
102
RTVSPost2010Prop51ColorIndex
 90
      256
102
RTVSPost2010Prop51ColorRGB
 90
-16777216
102
RTVSPost2010PropOp51
 70
     0
102
RTVSPost2010Prop52
140
1.0
102
RTVSPost2010PropOp52
 70
     0
102
RTVSPost2010Prop53
 90
        2
102
RTVSPost2010PropOp53
 70
     1
102
RTVSPost2010Prop54
  1
strokes_ogs.tif
102
RTVSPost2010PropOp54
 70
     1
102
RTVSPost2010Prop55
280
     0
102
RTVSPost2010PropOp55
 70
     1
102
RTVSPost2010Prop56
140
1.0
102
RTVSPost2010PropOp56
 70
     1
102
RTVSPost2010Prop57
140
1.0
102
RTVSPost2010PropOp57
 70
     1
102
RTVSPropertyOp0
 70
     1
102
RTVSPropertyOp1
 70
     1
102
RTVSPropertyOp2
 70
     1
102
RTVSPropertyOp3
 70
     1
102
RTVSPropertyOp4
 70
     1
102
RTVSPropertyOp5
 70
     1
102
RTVSPropertyOp6
 70
     1
102
RTVSPropertyOp7
 70
     1
102
RTVSPropertyOp8
 70
     1
102
RTVSPropertyOp9
 70
     1
102
RTVSPropertyOp10
 70
     1
102
RTVSPropertyOp11
 70
     1
102
RTVSPropertyOp12
 70
     1
102
RTVSPropertyOp13
 70
     1
102
RTVSPropertyOp14
 70
     1
102
RTVSPropertyOp15
 70
     1
102
RTVSPropertyOp16
 70
     1
102
RTVSPropertyOp17
 70
     1
102
RTVSPropertyOp18
 70
     1
102
RTVSPropertyOp19
 70
     1
102
RTVSPropertyOp20
 70
     1
102
RTVSPropertyOp21
 70
     1
102
RTVSPropertyOp22
 70
     1
102
RTVSPropertyOp23
 70
     1
102
RTVSPropertyOp24
 70
     1
102
RTVSPropertyOp25
 70
     1
102
RTVSPropertyOp26
 70
     1
102
RTVSPropertyOp27
 70
     1
102
RTVSPropertyOp28
 70
     1
102
RTVSPropertyOp29
 70
     1
102
RTVSPropertyOp30
 70
     1
102
RTVSPropertyOp31
 70
     1
102
RTVSPropertyOp32
 70
     1
102
RTVSPropertyOp33
 70
     1
102
RTVSPropertyOp34
 70
     1
102
RTVSPropertyOp35
 70
     1
102
RTVSPropertyOp36
 70
     1
102
RTVSPropertyOp37
 70
     1
102
RTVSPropertyOp38
 70
     1
102
RTVSPropertyOp39
 70
     1
102
RTVSPropertyOp40
 70
     1
102
RTVSPropertyOp41
 70
     1
102
RTVSPropertyOp42
 70
     1
102
RTVSPropertyOp43
 70
     1
102
RTVSPropertyOp44
 70
     1
102
RTVSPropertyOp45
 70
     1
102
RTVSPropertyOp46
 70
     1
102
RTVSPropertyOp47
 70
     1
102
RTVSPropertyOp48
 70
     1
102
RTVSPropertyOp49
 70
     1
102
RTVSPropertyOp50
 70
     1
102
RTVSPropertyOp51
 70
     0
102
RTVSPropertyOp52
 70
     0
102
RTVSPropertyOp53
 70
     1
102
RTVSPropertyOp54
 70
     1
102
RTVSPropertyOp55
 70
     1
102
RTVSPropertyOp56
 70
     1
102
RTVSPropertyOp57
 70
     1
102
RTVSPropertyOp58
 70
     1
102
RTVSPropertyOp59
 70
     1
102
RTVSPropertyOp60
 70
     1
102
RTVSPropertyOp61
 70
     1
102
RTVSPropertyOp62
 70
     1
  0
ENDSEC
  0
EOF
