  0
SECTION
  2
HEADER
  9
$ACADVER
  1
AC1015
  9
$ACADMAINTVER
 70
    18
  9
$DWGCODEPAGE
  3
ANSI_1252
  9
$INSBASE
 10
0.0
 20
0.0
 30
0.0
  9
$EXTMIN
 10
-301.4260649208487
 20
-620.4615519551528
 30
0.0
  9
$EXTMAX
 10
365.1083196738462
 20
619.5689743598486
 30
0.0
  9
$LIMMIN
 10
0.0
 20
0.0
  9
$LIMMAX
 10
420.0
 20
297.0
  9
$ORTHOMODE
 70
     0
  9
$REGENMODE
 70
     1
  9
$FILLMODE
 70
     1
  9
$QTEXTMODE
 70
     0
  9
$MIRRTEXT
 70
     0
  9
$LTSCALE
 40
1.0
  9
$ATTMODE
 70
     1
  9
$TEXTSIZE
 40
2.5
  9
$TRACEWID
 40
1.0
  9
$TEXTSTYLE
  7
Standard
  9
$CLAYER
  8
0
  9
$CELTYPE
  6
ByLayer
  9
$CECOLOR
 62
   256
  9
$CELTSCALE
 40
1.0
  9
$DISPSILH
 70
     0
  9
$DIMSCALE
 40
1.0
  9
$DIMASZ
 40
2.5
  9
$DIMEXO
 40
0.625
  9
$DIMDLI
 40
3.75
  9
$DIMRND
 40
0.0
  9
$DIMDLE
 40
0.0
  9
$DIMEXE
 40
1.25
  9
$DIMTP
 40
0.0
  9
$DIMTM
 40
0.0
  9
$DIMTXT
 40
2.5
  9
$DIMCEN
 40
2.5
  9
$DIMTSZ
 40
0.0
  9
$DIMTOL
 70
     0
  9
$DIMLIM
 70
     0
  9
$DIMTIH
 70
     0
  9
$DIMTOH
 70
     0
  9
$DIMSE1
 70
     0
  9
$DIMSE2
 70
     0
  9
$DIMTAD
 70
     1
  9
$DIMZIN
 70
     8
  9
$DIMBLK
  1

  9
$DIMASO
 70
     1
  9
$DIMSHO
 70
     1
  9
$DIMPOST
  1

  9
$DIMAPOST
  1

  9
$DIMALT
 70
     0
  9
$DIMALTD
 70
     3
  9
$DIMALTF
 40
0.03937007874016
  9
$DIMLFAC
 40
1.0
  9
$DIMTOFL
 70
     1
  9
$DIMTVP
 40
0.0
  9
$DIMTIX
 70
     0
  9
$DIMSOXD
 70
     0
  9
$DIMSAH
 70
     0
  9
$DIMBLK1
  1

  9
$DIMBLK2
  1

  9
$DIMSTYLE
  2
ISO-25
  9
$DIMCLRD
 70
     0
  9
$DIMCLRE
 70
     0
  9
$DIMCLRT
 70
     0
  9
$DIMTFAC
 40
1.0
  9
$DIMGAP
 40
0.625
  9
$DIMJUST
 70
     0
  9
$DIMSD1
 70
     0
  9
$DIMSD2
 70
     0
  9
$DIMTOLJ
 70
     0
  9
$DIMTZIN
 70
     8
  9
$DIMALTZ
 70
     0
  9
$DIMALTTZ
 70
     0
  9
$DIMUPT
 70
     0
  9
$DIMDEC
 70
     2
  9
$DIMTDEC
 70
     2
  9
$DIMALTU
 70
     2
  9
$DIMALTTD
 70
     3
  9
$DIMTXSTY
  7
Standard
  9
$DIMAUNIT
 70
     0
  9
$DIMADEC
 70
     0
  9
$DIMALTRND
 40
0.0
  9
$DIMAZIN
 70
     0
  9
$DIMDSEP
 70
    44
  9
$DIMATFIT
 70
     3
  9
$DIMFRAC
 70
     0
  9
$DIMLDRBLK
  1

  9
$DIMLUNIT
 70
     2
  9
$DIMLWD
 70
    -2
  9
$DIMLWE
 70
    -2
  9
$DIMTMOVE
 70
     0
  9
$LUNITS
 70
     2
  9
$LUPREC
 70
     4
  9
$SKETCHINC
 40
1.0
  9
$FILLETRAD
 40
0.0
  9
$AUNITS
 70
     0
  9
$AUPREC
 70
     0
  9
$MENU
  1
.
  9
$ELEVATION
 40
0.0
  9
$PELEVATION
 40
0.0
  9
$THICKNESS
 40
0.0
  9
$LIMCHECK
 70
     0
  9
$CHAMFERA
 40
0.0
  9
$CHAMFERB
 40
0.0
  9
$CHAMFERC
 40
0.0
  9
$CHAMFERD
 40
0.0
  9
$SKPOLY
 70
     0
  9
$TDCREATE
 40
2460719.406504630
  9
$TDUCREATE
 40
2460719.114837963
  9
$TDUPDATE
 40
2460719.416157407
  9
$TDUUPDATE
 40
2460719.124490741
  9
$TDINDWG
 40
0.0027430556
  9
$TDUSRTIMER
 40
0.0027430556
  9
$USRTIMER
 70
     1
  9
$ANGBASE
 50
0.0
  9
$ANGDIR
 70
     0
  9
$PDMODE
 70
     0
  9
$PDSIZE
 40
0.0
  9
$PLINEWID
 40
0.0
  9
$SPLFRAME
 70
     0
  9
$SPLINETYPE
 70
     6
  9
$SPLINESEGS
 70
     8
  9
$HANDSEED
  5
12792
  9
$SURFTAB1
 70
     6
  9
$SURFTAB2
 70
     6
  9
$SURFTYPE
 70
     6
  9
$SURFU
 70
     6
  9
$SURFV
 70
     6
  9
$UCSBASE
  2

  9
$UCSNAME
  2

  9
$UCSORG
 10
0.0
 20
0.0
 30
0.0
  9
$UCSXDIR
 10
1.0
 20
0.0
 30
0.0
  9
$UCSYDIR
 10
0.0
 20
1.0
 30
0.0
  9
$UCSORTHOREF
  2

  9
$UCSORTHOVIEW
 70
     0
  9
$UCSORGTOP
 10
0.0
 20
0.0
 30
0.0
  9
$UCSORGBOTTOM
 10
0.0
 20
0.0
 30
0.0
  9
$UCSORGLEFT
 10
0.0
 20
0.0
 30
0.0
  9
$UCSORGRIGHT
 10
0.0
 20
0.0
 30
0.0
  9
$UCSORGFRONT
 10
0.0
 20
0.0
 30
0.0
  9
$UCSORGBACK
 10
0.0
 20
0.0
 30
0.0
  9
$PUCSBASE
  2

  9
$PUCSNAME
  2

  9
$PUCSORG
 10
0.0
 20
0.0
 30
0.0
  9
$PUCSXDIR
 10
1.0
 20
0.0
 30
0.0
  9
$PUCSYDIR
 10
0.0
 20
1.0
 30
0.0
  9
$PUCSORTHOREF
  2

  9
$PUCSORTHOVIEW
 70
     0
  9
$PUCSORGTOP
 10
0.0
 20
0.0
 30
0.0
  9
$PUCSORGBOTTOM
 10
0.0
 20
0.0
 30
0.0
  9
$PUCSORGLEFT
 10
0.0
 20
0.0
 30
0.0
  9
$PUCSORGRIGHT
 10
0.0
 20
0.0
 30
0.0
  9
$PUCSORGFRONT
 10
0.0
 20
0.0
 30
0.0
  9
$PUCSORGBACK
 10
0.0
 20
0.0
 30
0.0
  9
$USERI1
 70
     0
  9
$USERI2
 70
     0
  9
$USERI3
 70
     0
  9
$USERI4
 70
     0
  9
$USERI5
 70
     0
  9
$USERR1
 40
0.0
  9
$USERR2
 40
0.0
  9
$USERR3
 40
0.0
  9
$USERR4
 40
0.0
  9
$USERR5
 40
0.0
  9
$WORLDVIEW
 70
     1
  9
$SHADEDGE
 70
     3
  9
$SHADEDIF
 70
    70
  9
$TILEMODE
 70
     1
  9
$MAXACTVP
 70
    48
  9
$PINSBASE
 10
0.0
 20
0.0
 30
0.0
  9
$PLIMCHECK
 70
     0
  9
$PEXTMIN
 10
0.0
 20
0.0
 30
0.0
  9
$PEXTMAX
 10
0.0
 20
0.0
 30
0.0
  9
$PLIMMIN
 10
0.0
 20
0.0
  9
$PLIMMAX
 10
12.0
 20
9.0
  9
$UNITMODE
 70
     0
  9
$VISRETAIN
 70
     1
  9
$PLINEGEN
 70
     0
  9
$PSLTSCALE
 70
     1
  9
$TREEDEPTH
 70
  3020
  9
$CMLSTYLE
  2
Standard
  9
$CMLJUST
 70
     0
  9
$CMLSCALE
 40
20.0
  9
$PROXYGRAPHICS
 70
     1
  9
$MEASUREMENT
 70
     1
  9
$CELWEIGHT
370
    -1
  9
$ENDCAPS
280
     0
  9
$JOINSTYLE
280
     0
  9
$LWDISPLAY
290
     0
  9
$INSUNITS
 70
     4
  9
$HYPERLINKBASE
  1

  9
$STYLESHEET
  1

  9
$XEDIT
290
     1
  9
$CEPSNTYPE
380
     0
  9
$PSTYLEMODE
290
     1
  9
$FINGERPRINTGUID
  2
{375C693C-302E-BC42-B92A-19F6C371B7B0}
  9
$VERSIONGUID
  2
{BA7AFC4A-AB51-EF47-95F5-AC521500B016}
  9
$EXTNAMES
290
     1
  9
$PSVPSCALE
 40
0.0
  9
$OLESTARTUP
290
     0
  0
ENDSEC
  0
SECTION
  2
CLASSES
  0
CLASS
  1
ACDBDICTIONARYWDFLT
  2
AcDbDictionaryWithDefault
  3
ObjectDBX Classes
 90
        0
280
     0
281
     0
  0
CLASS
  1
ACDBPLACEHOLDER
  2
AcDbPlaceHolder
  3
ObjectDBX Classes
 90
        0
280
     0
281
     0
  0
CLASS
  1
LAYOUT
  2
AcDbLayout
  3
ObjectDBX Classes
 90
        0
280
     0
281
     0
  0
CLASS
  1
DICTIONARYVAR
  2
AcDbDictionaryVar
  3
ObjectDBX Classes
 90
        0
280
     0
281
     0
  0
CLASS
  1
TABLESTYLE
  2
AcDbTableStyle
  3
ObjectDBX Classes
 90
     4095
280
     0
281
     0
  0
CLASS
  1
MATERIAL
  2
AcDbMaterial
  3
ObjectDBX Classes
 90
     1153
280
     0
281
     0
  0
CLASS
  1
VISUALSTYLE
  2
AcDbVisualStyle
  3
ObjectDBX Classes
 90
     4095
280
     0
281
     0
  0
CLASS
  1
SCALE
  2
AcDbScale
  3
ObjectDBX Classes
 90
     1153
280
     0
281
     0
  0
CLASS
  1
MLEADERSTYLE
  2
AcDbMLeaderStyle
  3
ACDB_MLEADERSTYLE_CLASS
 90
     4095
280
     0
281
     0
  0
CLASS
  1
CELLSTYLEMAP
  2
AcDbCellStyleMap
  3
ObjectDBX Classes
 90
     1152
280
     0
281
     0
  0
CLASS
  1
EXACXREFPANELOBJECT
  2
ExAcXREFPanelObject
  3
EXAC_ESW
 90
    33793
280
     0
281
     0
  0
CLASS
  1
NPOCOLLECTION
  2
AcDbImpNonPersistentObjectsCollection
  3
ObjectDBX Classes
 90
    33921
280
     0
281
     0
  0
CLASS
  1
LAYER_INDEX
  2
AcDbLayerIndex
  3
ObjectDBX Classes
 90
    32768
280
     0
281
     0
  0
CLASS
  1
SPATIAL_INDEX
  2
AcDbSpatialIndex
  3
ObjectDBX Classes
 90
    32768
280
     0
281
     0
  0
CLASS
  1
IDBUFFER
  2
AcDbIdBuffer
  3
ObjectDBX Classes
 90
    32768
280
     0
281
     0
  0
CLASS
  1
ACDBSECTIONVIEWSTYLE
  2
AcDbSectionViewStyle
  3
ObjectDBX Classes
 90
     1025
280
     0
281
     0
  0
CLASS
  1
ACDBDETAILVIEWSTYLE
  2
AcDbDetailViewStyle
  3
ObjectDBX Classes
 90
     1025
280
     0
281
     0
  0
CLASS
  1
XRECORD
  2
AcDbXrecord
  3
ObjectDBX Classes
 90
        0
280
     0
281
     0
  0
ENDSEC
  0
SECTION
  2
TABLES
  0
TABLE
  2
VPORT
  5
8
102
{ACAD_XDICTIONARY
360
126A0
102
}
330
0
100
AcDbSymbolTable
 70
     1
  0
VPORT
  5
EA
330
8
100
AcDbSymbolTableRecord
100
AcDbViewportTableRecord
  2
*Active
 70
     0
 10
0.0
 20
0.0
 11
1.0
 21
1.0
 12
31.84112737649872
 22
-0.4462887976520733
 13
0.0
 23
0.0
 14
10.0
 24
10.0
 15
10.0
 25
10.0
 16
0.0
 26
0.0
 36
1.0
 17
0.0
 27
0.0
 37
0.0
 40
1318.660089057806
 41
0.9846153846153844
 42
50.0
 43
0.0
 44
0.0
 50
0.0
 51
0.0
 71
     0
 72
  1000
 73
     1
 74
     3
 75
     0
 76
     1
 77
     0
 78
     0
281
     0
 65
     1
110
0.0
120
0.0
130
0.0
111
1.0
121
0.0
131
0.0
112
0.0
122
1.0
132
0.0
 79
     0
146
0.0
1001
ACAD_NAV_VCDISPLAY
1070
     3
  0
ENDTAB
  0
TABLE
  2
LTYPE
  5
5
330
0
100
AcDbSymbolTable
 70
     1
  0
LTYPE
  5
14
330
5
100
AcDbSymbolTableRecord
100
AcDbLinetypeTableRecord
  2
ByBlock
 70
     0
  3

 72
    65
 73
     0
 40
0.0
  0
LTYPE
  5
15
330
5
100
AcDbSymbolTableRecord
100
AcDbLinetypeTableRecord
  2
ByLayer
 70
     0
  3

 72
    65
 73
     0
 40
0.0
  0
LTYPE
  5
16
330
5
100
AcDbSymbolTableRecord
100
AcDbLinetypeTableRecord
  2
Continuous
 70
     0
  3
Solid line
 72
    65
 73
     0
 40
0.0
  0
ENDTAB
  0
TABLE
  2
LAYER
  5
2
102
{ACAD_XDICTIONARY
360
1FF
102
}
330
0
100
AcDbSymbolTable
 70
     1
  0
LAYER
  5
10
102
{ACAD_XDICTIONARY
360
13C
102
}
330
2
100
AcDbSymbolTableRecord
100
AcDbLayerTableRecord
  2
0
 70
     0
 62
     7
  6
Continuous
370
    -3
390
F
  0
ENDTAB
  0
TABLE
  2
STYLE
  5
3
330
0
100
AcDbSymbolTable
 70
     1
  0
STYLE
  5
11
330
3
100
AcDbSymbolTableRecord
100
AcDbTextStyleTableRecord
  2
Standard
 70
     0
 40
0.0
 41
1.0
 50
0.0
 71
     0
 42
2.5
  3
arial.ttf
  4

1001
ACAD
1000
Arial
1071
       34
  0
ENDTAB
  0
TABLE
  2
VIEW
  5
6
330
0
100
AcDbSymbolTable
 70
     0
  0
ENDTAB
  0
TABLE
  2
UCS
  5
7
330
0
100
AcDbSymbolTable
 70
     0
  0
ENDTAB
  0
TABLE
  2
APPID
  5
9
330
0
100
AcDbSymbolTable
 70
     8
  0
APPID
  5
12
330
9
100
AcDbSymbolTableRecord
100
AcDbRegAppTableRecord
  2
ACAD
 70
     0
  0
APPID
  5
9E
330
9
100
AcDbSymbolTableRecord
100
AcDbRegAppTableRecord
  2
ACAD_PSEXT
 70
     0
  0
APPID
  5
133
330
9
100
AcDbSymbolTableRecord
100
AcDbRegAppTableRecord
  2
AcadAnnoPO
 70
     0
  0
APPID
  5
134
330
9
100
AcDbSymbolTableRecord
100
AcDbRegAppTableRecord
  2
AcadAnnotative
 70
     0
  0
APPID
  5
135
330
9
100
AcDbSymbolTableRecord
100
AcDbRegAppTableRecord
  2
ACAD_DSTYLE_DIMJAG
 70
     0
  0
APPID
  5
136
330
9
100
AcDbSymbolTableRecord
100
AcDbRegAppTableRecord
  2
ACAD_DSTYLE_DIMTALN
 70
     0
  0
APPID
  5
165
330
9
100
AcDbSymbolTableRecord
100
AcDbRegAppTableRecord
  2
ACAD_MLEADERVER
 70
     0
  0
APPID
  5
217
330
9
100
AcDbSymbolTableRecord
100
AcDbRegAppTableRecord
  2
ACAD_NAV_VCDISPLAY
 70
     0
  0
ENDTAB
  0
TABLE
  2
DIMSTYLE
  5
A
330
0
100
AcDbSymbolTable
 70
     1
100
AcDbDimStyleTable
 71
     0
  0
DIMSTYLE
105
27
330
A
100
AcDbSymbolTableRecord
100
AcDbDimStyleTableRecord
  2
ISO-25
 70
     0
 41
2.5
 42
0.625
 43
3.75
 44
1.25
 73
     0
 74
     0
 77
     1
 78
     8
140
2.5
141
2.5
143
0.03937007874016
147
0.625
171
     3
172
     1
271
     2
272
     2
274
     3
278
    44
283
     0
284
     8
340
11
  0
ENDTAB
  0
TABLE
  2
BLOCK_RECORD
  5
1
330
0
100
AcDbSymbolTable
 70
     7
  0
BLOCK_RECORD
  5
1F
102
{ACAD_XDICTIONARY
360
1CE
102
}
330
1
100
AcDbSymbolTableRecord
100
AcDbBlockTableRecord
  2
*Model_Space
340
22
  0
BLOCK_RECORD
  5
D2
102
{ACAD_XDICTIONARY
360
12653
102
}
330
1
100
AcDbSymbolTableRecord
100
AcDbBlockTableRecord
  2
*Paper_Space
340
D3
  0
BLOCK_RECORD
  5
D6
102
{ACAD_XDICTIONARY
360
12655
102
}
330
1
100
AcDbSymbolTableRecord
100
AcDbBlockTableRecord
  2
*Paper_Space0
340
D7
  0
BLOCK_RECORD
  5
1234C
330
1
100
AcDbSymbolTableRecord
100
AcDbBlockTableRecord
  2
SPR80_400-Front
340
0
102
{BLKREFS
331
12649
102
}
  0
BLOCK_RECORD
  5
123D8
330
1
100
AcDbSymbolTableRecord
100
AcDbBlockTableRecord
  2
SPR80_400-Left
340
0
102
{BLKREFS
331
1264A
102
}
  0
BLOCK_RECORD
  5
1241E
330
1
100
AcDbSymbolTableRecord
100
AcDbBlockTableRecord
  2
SPR80_400-Right
340
0
102
{BLKREFS
331
1264B
102
}
  0
BLOCK_RECORD
  5
12466
330
1
100
AcDbSymbolTableRecord
100
AcDbBlockTableRecord
  2
SPR80_400-Top
340
0
102
{BLKREFS
331
1264C
102
}
  0
BLOCK_RECORD
  5
124C2
330
1
100
AcDbSymbolTableRecord
100
AcDbBlockTableRecord
  2
SPR80_400-Bottom
340
0
102
{BLKREFS
331
1264D
102
}
  0
BLOCK_RECORD
  5
12512
330
1
100
AcDbSymbolTableRecord
100
AcDbBlockTableRecord
  2
SPR80_400-ISO
340
0
102
{BLKREFS
331
1264E
102
}
  0
ENDTAB
  0
ENDSEC
  0
SECTION
  2
BLOCKS
  0
BLOCK
  5
20
330
1F
100
AcDbEntity
  8
0
100
AcDbBlockBegin
  2
*Model_Space
 70
     0
 10
0.0
 20
0.0
 30
0.0
  3
*Model_Space
  1

  0
ENDBLK
  5
21
330
1F
100
AcDbEntity
  8
0
100
AcDbBlockEnd
  0
BLOCK
  5
D4
330
D2
100
AcDbEntity
 67
     1
  8
0
100
AcDbBlockBegin
  2
*Paper_Space
 70
     0
 10
0.0
 20
0.0
 30
0.0
  3
*Paper_Space
  1

  0
ENDBLK
  5
D5
330
D2
100
AcDbEntity
 67
     1
  8
0
100
AcDbBlockEnd
  0
BLOCK
  5
D8
330
D6
100
AcDbEntity
 67
     1
  8
0
100
AcDbBlockBegin
  2
*Paper_Space0
 70
     0
 10
0.0
 20
0.0
 30
0.0
  3
*Paper_Space0
  1

  0
ENDBLK
  5
D9
330
D6
100
AcDbEntity
 67
     1
  8
0
100
AcDbBlockEnd
  0
BLOCK
  5
1234D
330
1234C
100
AcDbEntity
  8
0
100
AcDbBlockBegin
  2
SPR80_400-Front
 70
     0
 10
0.0
 20
0.0
 30
0.0
  3
SPR80_400-Front
  1

  0
LINE
  5
1234F
330
1234C
100
AcDbEntity
  8
0
100
AcDbLine
 10
82.527090561
 20
6.269999999999996
 30
0.0
 11
77.52709056100001
 21
1.269999999999996
 31
0.0
  0
LINE
  5
12350
330
1234C
100
AcDbEntity
  8
0
100
AcDbLine
 10
-77.52709056100004
 20
1.269999999999996
 30
0.0
 11
-82.52709056100004
 21
6.269999999999997
 31
0.0
  0
LINE
  5
12351
330
1234C
100
AcDbEntity
  8
0
100
AcDbLine
 10
-82.52709056100004
 20
72.27
 30
0.0
 11
-77.52709056100001
 21
77.27
 31
0.0
  0
LINE
  5
12352
330
1234C
100
AcDbEntity
  8
0
100
AcDbLine
 10
77.52709056099998
 20
77.27000000000001
 30
0.0
 11
82.52709056099996
 21
72.27000000000001
 31
0.0
  0
LINE
  5
12353
330
1234C
100
AcDbEntity
  8
0
100
AcDbLine
 10
82.52709056099996
 20
72.27000000000001
 30
0.0
 11
82.527090561
 21
6.269999999999997
 31
0.0
  0
LINE
  5
12354
330
1234C
100
AcDbEntity
  8
0
100
AcDbLine
 10
-82.52709056100004
 20
6.269999999999997
 30
0.0
 11
-82.52709056100004
 21
72.27
 31
0.0
  0
LINE
  5
12355
330
1234C
100
AcDbEntity
  8
0
100
AcDbLine
 10
36.5
 20
77.27000000000001
 30
0.0
 11
77.52709056099999
 21
77.27000000000001
 31
0.0
  0
LINE
  5
12356
330
1234C
100
AcDbEntity
  8
0
100
AcDbLine
 10
-36.50000000000001
 20
1.270000000000022
 30
0.0
 11
-77.52709056100002
 21
1.269999999999996
 31
0.0
  0
LINE
  5
12357
330
1234C
100
AcDbEntity
  8
0
100
AcDbLine
 10
77.52709056100001
 20
1.269999999999996
 30
0.0
 11
36.49999999999999
 21
1.270000000000022
 31
0.0
  0
ARC
  5
12358
330
1234C
100
AcDbEntity
  8
0
100
AcDbCircle
 10
36.49999999999998
 20
78.77000000000001
 30
0.0
 40
1.5
100
AcDbArc
 50
90.00000000000067
 51
270.0000000000007
  0
LINE
  5
12359
330
1234C
100
AcDbEntity
  8
0
100
AcDbLine
 10
-77.52709056100001
 20
77.27
 30
0.0
 11
-36.50000000000002
 21
77.27
 31
0.0
  0
ARC
  5
1235A
330
1234C
100
AcDbEntity
  8
0
100
AcDbCircle
 10
-36.50000000000002
 20
78.76999999999999
 30
0.0
 40
1.5
100
AcDbArc
 50
270.0
 51
90.0
  0
LINE
  5
1235B
330
1234C
100
AcDbEntity
  8
0
100
AcDbLine
 10
41.50000000000021
 20
80.27000000000001
 30
0.0
 11
41.50000000000026
 21
85.27000000000001
 31
0.0
  0
LINE
  5
1235C
330
1234C
100
AcDbEntity
  8
0
100
AcDbLine
 10
41.50000000000026
 20
85.27000000000001
 30
0.0
 11
40.00000000000024
 21
85.27000000000001
 31
0.0
  0
LINE
  5
1235D
330
1234C
100
AcDbEntity
  8
0
100
AcDbLine
 10
40.00000000000024
 20
85.27000000000001
 30
0.0
 11
40.00000000000021
 21
80.27000000000001
 31
0.0
  0
LINE
  5
1235E
330
1234C
100
AcDbEntity
  8
0
100
AcDbLine
 10
40.00000000000021
 20
80.27000000000001
 30
0.0
 11
41.50000000000021
 21
80.27000000000001
 31
0.0
  0
LINE
  5
1235F
330
1234C
100
AcDbEntity
  8
0
100
AcDbLine
 10
40.00000000000024
 20
395.67
 30
0.0
 11
41.50000000000026
 21
395.67
 31
0.0
  0
LINE
  5
12360
330
1234C
100
AcDbEntity
  8
0
100
AcDbLine
 10
41.50000000000026
 20
395.67
 30
0.0
 11
41.50000000000021
 21
400.67
 31
0.0
  0
LINE
  5
12361
330
1234C
100
AcDbEntity
  8
0
100
AcDbLine
 10
-41.5
 20
85.27000000000001
 30
0.0
 11
-41.5
 21
80.27000000000001
 31
0.0
  0
LINE
  5
12362
330
1234C
100
AcDbEntity
  8
0
100
AcDbLine
 10
-41.5
 20
80.27000000000001
 30
0.0
 11
-40.0
 21
80.27000000000001
 31
0.0
  0
LINE
  5
12363
330
1234C
100
AcDbEntity
  8
0
100
AcDbLine
 10
-40.0
 20
80.27000000000001
 30
0.0
 11
-40.0
 21
85.27000000000001
 31
0.0
  0
LINE
  5
12364
330
1234C
100
AcDbEntity
  8
0
100
AcDbLine
 10
-40.0
 20
85.27000000000001
 30
0.0
 11
-41.5
 21
85.27000000000001
 31
0.0
  0
LINE
  5
12365
330
1234C
100
AcDbEntity
  8
0
100
AcDbLine
 10
-41.5
 20
400.67
 30
0.0
 11
-41.5
 21
395.67
 31
0.0
  0
LINE
  5
12366
330
1234C
100
AcDbEntity
  8
0
100
AcDbLine
 10
-41.5
 20
395.67
 30
0.0
 11
-40.0
 21
395.67
 31
0.0
  0
LINE
  5
12367
330
1234C
100
AcDbEntity
  8
0
100
AcDbLine
 10
41.50000000000021
 20
400.67
 30
0.0
 11
40.00000000000021
 21
400.67
 31
0.0
  0
LINE
  5
12368
330
1234C
100
AcDbEntity
  8
0
100
AcDbLine
 10
40.00000000000021
 20
400.67
 30
0.0
 11
40.00000000000024
 21
395.67
 31
0.0
  0
LINE
  5
12369
330
1234C
100
AcDbEntity
  8
0
100
AcDbLine
 10
-40.0
 20
395.67
 30
0.0
 11
-40.0
 21
400.67
 31
0.0
  0
LINE
  5
1236A
330
1234C
100
AcDbEntity
  8
0
100
AcDbLine
 10
-40.0
 20
400.67
 30
0.0
 11
-41.5
 21
400.67
 31
0.0
  0
LINE
  5
1236B
330
1234C
100
AcDbEntity
  8
0
100
AcDbLine
 10
41.49999999999995
 20
-28.42608254450009
 30
0.0
 11
41.49999999999997
 21
-21.35501473263464
 31
0.0
  0
LINE
  5
1236C
330
1234C
100
AcDbEntity
  8
0
100
AcDbLine
 10
41.49999999999997
 20
-21.35501473263464
 30
0.0
 11
39.99999999999998
 21
-21.35501473263464
 31
0.0
  0
LINE
  5
1236D
330
1234C
100
AcDbEntity
  8
0
100
AcDbLine
 10
39.99999999999998
 20
-21.35501473263464
 30
0.0
 11
39.99999999999999
 21
-28.42608254450009
 31
0.0
  0
LINE
  5
1236E
330
1234C
100
AcDbEntity
  8
0
100
AcDbLine
 10
39.99999999999999
 20
-28.42608254450009
 30
0.0
 11
41.49999999999995
 21
-28.42608254450009
 31
0.0
  0
LINE
  5
1236F
330
1234C
100
AcDbEntity
  8
0
100
AcDbLine
 10
-41.49999999999995
 20
-21.35501473263463
 30
0.0
 11
-41.49999999999994
 21
-28.42608254450008
 31
0.0
  0
LINE
  5
12370
330
1234C
100
AcDbEntity
  8
0
100
AcDbLine
 10
-41.49999999999994
 20
-28.42608254450008
 30
0.0
 11
-39.99999999999997
 21
-28.42608254450008
 31
0.0
  0
LINE
  5
12371
330
1234C
100
AcDbEntity
  8
0
100
AcDbLine
 10
-39.99999999999997
 20
-28.42608254450008
 30
0.0
 11
-39.99999999999996
 21
-21.35501473263464
 31
0.0
  0
LINE
  5
12372
330
1234C
100
AcDbEntity
  8
0
100
AcDbLine
 10
-39.99999999999996
 20
-21.35501473263464
 30
0.0
 11
-41.49999999999995
 21
-21.35501473263463
 31
0.0
  0
LINE
  5
12373
330
1234C
100
AcDbEntity
  8
0
100
AcDbLine
 10
41.50000000000026
 20
85.27000000000001
 30
0.0
 11
41.50000000000026
 21
395.67
 31
0.0
  0
LINE
  5
12374
330
1234C
100
AcDbEntity
  8
0
100
AcDbLine
 10
40.00000000000024
 20
395.67
 30
0.0
 11
40.00000000000024
 21
85.27000000000001
 31
0.0
  0
LINE
  5
12375
330
1234C
100
AcDbEntity
  8
0
100
AcDbLine
 10
-41.5
 20
395.67
 30
0.0
 11
-41.5
 21
85.27000000000001
 31
0.0
  0
LINE
  5
12376
330
1234C
100
AcDbEntity
  8
0
100
AcDbLine
 10
-40.0
 20
395.67
 30
0.0
 11
-40.0
 21
85.27000000000001
 31
0.0
  0
LINE
  5
12377
330
1234C
100
AcDbEntity
  8
0
100
AcDbLine
 10
36.5
 20
80.27000000000001
 30
0.0
 11
39.40000000000001
 21
80.27000000000001
 31
0.0
  0
LINE
  5
12378
330
1234C
100
AcDbEntity
  8
0
100
AcDbLine
 10
-39.40000000000001
 20
80.27000000000001
 30
0.0
 11
-36.50000000000002
 21
80.26999999999999
 31
0.0
  0
LINE
  5
12379
330
1234C
100
AcDbEntity
  8
0
100
AcDbLine
 10
-39.40000000000001
 20
400.67
 30
0.0
 11
39.4
 21
400.67
 31
0.0
  0
LINE
  5
1237A
330
1234C
100
AcDbEntity
  8
0
100
AcDbLine
 10
41.50000000000694
 20
-2.263131642256641
 30
0.0
 11
41.49999999999997
 21
-21.35501473263464
 31
0.0
  0
LINE
  5
1237B
330
1234C
100
AcDbEntity
  8
0
100
AcDbLine
 10
40.0000000000059
 20
-2.263131642256641
 30
0.0
 11
39.99999999999998
 21
-21.35501473263464
 31
0.0
  0
ELLIPSE
  5
1237C
330
1234C
100
AcDbEntity
  8
0
100
AcDbEllipse
 10
39.4
 20
-54.16476937947045
 30
0.0
 11
0.6000000000001095
 21
-0.0000000000000093
 31
0.0
210
0.0
220
0.0
230
1.0
 40
0.7071067811865476
 41
4.712388980384708
 42
6.283185307179439
  0
ELLIPSE
  5
1237D
330
1234C
100
AcDbEntity
  8
0
100
AcDbEllipse
 10
39.4
 20
-54.16476937947045
 30
0.0
 11
2.100000000000081
 21
-0.0000000000000888
 31
0.0
210
0.0
220
0.0
230
1.0
 40
0.707106781186547
 41
4.712388980384737
 42
6.283185307179622
  0
LINE
  5
1237E
330
1234C
100
AcDbEntity
  8
0
100
AcDbLine
 10
41.50000000000694
 20
-2.263131642256641
 30
0.0
 11
40.0000000000059
 21
-2.263131642256641
 31
0.0
  0
SPLINE
  5
1237F
330
1234C
100
AcDbEntity
  8
0
100
AcDbSpline
210
0.0
220
0.0
230
1.0
 70
     8
 71
     3
 72
     8
 73
     4
 74
     0
 42
0.000000001
 43
0.0000000001
 40
-1.0
 40
-1.0
 40
-1.0
 40
-1.0
 40
0.0
 40
0.0
 40
0.0
 40
0.0
 10
-35.01767776087194
 20
-0.0003899405809504
 30
0.0
 10
-34.97251992073993
 20
-0.1594792109354416
 30
0.0
 10
-35.01586474390245
 20
-0.321485044675321
 30
0.0
 10
-35.14054197002052
 20
-0.4246540092928796
 30
0.0
  0
SPLINE
  5
12380
330
1234C
100
AcDbEntity
  8
0
100
AcDbSpline
210
0.0
220
0.0
230
1.0
 70
     8
 71
     3
 72
     8
 73
     4
 74
     0
 42
0.000000001
 43
0.0000000001
 40
-1.0
 40
-1.0
 40
-1.0
 40
-1.0
 40
0.0
 40
0.0
 40
0.0
 40
0.0
 10
35.1405419700205
 20
-0.4246540092928794
 30
0.0
 10
35.01586474390217
 20
-0.3214850446753142
 30
0.0
 10
34.97251992073988
 20
-0.1594792109354447
 30
0.0
 10
35.01767776087195
 20
-0.0003899405809504
 30
0.0
  0
ELLIPSE
  5
12381
330
1234C
100
AcDbEntity
  8
0
100
AcDbEllipse
 10
-36.50000000000001
 20
0.0236058844764815
 30
0.0
 11
-1.5
 21
0.0000000000001102
 31
0.0
210
0.0
220
0.0
230
1.0
 40
0.7071067811865479
 41
1.570796326795026
 42
2.70525458196206
  0
LINE
  5
12382
330
1234C
100
AcDbEntity
  8
0
100
AcDbLine
 10
-36.50000000000001
 20
-1.037054287303335
 30
0.0
 11
-38.79315533855965
 21
-1.037054287303334
 31
0.0
  0
LINE
  5
12383
330
1234C
100
AcDbEntity
  8
0
100
AcDbLine
 10
-38.79315533855965
 20
-1.037054287303334
 30
0.0
 11
-39.40000000000001
 21
-1.466158262545871
 31
0.0
  0
LINE
  5
12384
330
1234C
100
AcDbEntity
  8
0
100
AcDbLine
 10
39.39999999999999
 20
-1.46615826254589
 30
0.0
 11
38.79315533855963
 21
-1.037054287303349
 31
0.0
  0
LINE
  5
12385
330
1234C
100
AcDbEntity
  8
0
100
AcDbLine
 10
38.79315533855963
 20
-1.037054287303349
 30
0.0
 11
36.49999999999999
 21
-1.037054287303349
 31
0.0
  0
ELLIPSE
  5
12386
330
1234C
100
AcDbEntity
  8
0
100
AcDbEllipse
 10
36.49999999999999
 20
0.0236058844764817
 30
0.0
 11
-1.5
 21
0.0
 31
0.0
210
0.0
220
0.0
230
1.0
 40
0.7071067811865479
 41
0.4363380716279881
 42
1.570796326794896
  0
LINE
  5
12387
330
1234C
100
AcDbEntity
  8
0
100
AcDbLine
 10
-40.00000000000606
 20
-2.26313164225665
 30
0.0
 11
-41.5000000000071
 21
-2.26313164225665
 31
0.0
  0
SPLINE
  5
12388
330
1234C
100
AcDbEntity
  8
0
100
AcDbSpline
210
0.0
220
0.0
230
1.0
 70
     8
 71
     3
 72
     8
 73
     4
 74
     0
 42
0.000000001
 43
0.0000000001
 40
-1.0
 40
-1.0
 40
-1.0
 40
-1.0
 40
0.0
 40
0.0
 40
0.0
 40
0.0
 10
-39.40000000000001
 20
-1.466158262545864
 30
0.0
 10
-39.714159265359
 20
-1.873237411765427
 30
0.0
 10
-40.00000000000003
 20
-2.078196639180463
 30
0.0
 10
-40.00000000000007
 20
-2.263131641492128
 30
0.0
  0
ARC
  5
12389
330
1234C
100
AcDbEntity
  8
0
100
AcDbCircle
 10
-36.50000000000001
 20
-0.229999999999892
 30
0.0
 40
1.5
100
AcDbArc
 50
8.80507525969728
 51
90.0
  0
SPLINE
  5
1238A
330
1234C
100
AcDbEntity
  8
0
100
AcDbSpline
210
0.0
220
0.0
230
1.0
 70
     8
 71
     3
 72
     8
 73
     4
 74
     0
 42
0.000000001
 43
0.0000000001
 40
-1.0
 40
-1.0
 40
-1.0
 40
-1.0
 40
0.0
 40
0.0
 40
0.0
 40
0.0
 10
40.00000000000006
 20
-2.263131641492119
 30
0.0
 10
40.00000000000001
 20
-2.078196639180835
 30
0.0
 10
39.71415926535897
 20
-1.873237411765946
 30
0.0
 10
39.39999999999999
 20
-1.466158262545842
 30
0.0
  0
ARC
  5
1238B
330
1234C
100
AcDbEntity
  8
0
100
AcDbCircle
 10
36.49999999999999
 20
-0.229999999999892
 30
0.0
 40
1.5
100
AcDbArc
 50
90.0
 51
171.1949247403028
  0
SPLINE
  5
1238C
330
1234C
100
AcDbEntity
  8
0
100
AcDbSpline
210
0.0
220
0.0
230
1.0
 70
     8
 71
     3
 72
    16
 73
    12
 74
     0
 42
0.000000001
 43
0.0000000001
 40
0.0
 40
0.0
 40
0.0
 40
0.0
 40
0.0356537247354312
 40
0.0356537247354312
 40
0.0703704956567751
 40
0.0703704956567751
 40
0.1051345640226045
 40
0.1051345640226045
 40
0.1398962718801939
 40
0.1398962718801939
 40
0.1538885733136828
 40
0.1538885733136828
 40
0.1538885733136828
 40
0.1538885733136828
 10
-40.49950000000065
 20
-2.263131641492189
 30
0.0
 10
-40.49949999999967
 20
-2.263131641490622
 30
0.0
 10
-40.47955867538874
 20
-2.263059951014837
 30
0.0
 10
-40.40583172164987
 20
-2.250836451202673
 30
0.0
 10
-40.35213458021899
 20
-2.238741830447072
 30
0.0
 10
-40.22293730421916
 20
-2.194102190354378
 30
0.0
 10
-40.1459198542611
 20
-2.160888677187188
 30
0.0
 10
-39.98574064082234
 20
-2.069479202523877
 30
0.0
 10
-39.9007365524952
 20
-2.01010709817891
 30
0.0
 10
-39.78901418342571
 20
-1.909831885087673
 30
0.0
 10
-39.75758437989185
 20
-1.87894366984041
 30
0.0
 10
-39.72742155524395
 20
-1.846191951394287
 30
0.0
  0
SPLINE
  5
1238D
330
1234C
100
AcDbEntity
  8
0
100
AcDbSpline
210
0.0
220
0.0
230
1.0
 70
     8
 71
     3
 72
    16
 73
    12
 74
     0
 42
0.000000001
 43
0.0000000001
 40
0.0
 40
0.0
 40
0.0
 40
0.0
 40
0.0356266149307683
 40
0.0356266149307683
 40
0.0703447701778954
 40
0.0703447701778954
 40
0.1051087694964992
 40
0.1051087694964992
 40
0.1398704808016583
 40
0.1398704808016583
 40
0.1538888647030757
 40
0.1538888647030757
 40
0.1538888647030757
 40
0.1538888647030757
 10
39.72742155524379
 20
-1.846191951394118
 30
0.0
 10
39.80422088264981
 20
-1.929583012324791
 30
0.0
 10
39.8899961512901
 20
-2.001172959723362
 30
0.0
 10
40.05564046640501
 20
-2.113266523255283
 30
0.0
 10
40.13750261647897
 20
-2.155953002270528
 30
0.0
 10
40.28182181889549
 20
-2.217016702985783
 30
0.0
 10
40.34591305087968
 20
-2.236189491807429
 30
0.0
 10
40.44238223264348
 20
-2.258395304185155
 30
0.0
 10
40.47587215056369
 20
-2.261811174866512
 30
0.0
 10
40.49650501536247
 20
-2.263130971916397
 30
0.0
 10
40.49949999999998
 20
-2.263131641491556
 30
0.0
 10
40.49949999999955
 20
-2.263131641492166
 30
0.0
  0
LINE
  5
1238E
330
1234C
100
AcDbEntity
  8
0
100
AcDbLine
 10
41.49999999999997
 20
-54.16476937947052
 30
0.0
 11
41.49999999999995
 21
-28.42608254450009
 31
0.0
  0
LINE
  5
1238F
330
1234C
100
AcDbEntity
  8
0
100
AcDbLine
 10
-41.49999999999994
 20
-28.42608254450008
 30
0.0
 11
-41.49999999999997
 21
-54.16476937947052
 31
0.0
  0
LINE
  5
12390
330
1234C
100
AcDbEntity
  8
0
100
AcDbLine
 10
-39.99999999999997
 20
-28.42608254450008
 30
0.0
 11
-39.99999999999997
 21
-54.16476937947052
 31
0.0
  0
LINE
  5
12391
330
1234C
100
AcDbEntity
  8
0
100
AcDbLine
 10
-39.39999999999999
 20
-54.58903344818243
 30
0.0
 11
39.4
 21
-54.58903344818243
 31
0.0
  0
LINE
  5
12392
330
1234C
100
AcDbEntity
  8
0
100
AcDbLine
 10
39.99999999999999
 20
-54.16476937947052
 30
0.0
 11
39.99999999999999
 21
-28.42608254450009
 31
0.0
  0
LINE
  5
12393
330
1234C
100
AcDbEntity
  8
0
100
AcDbLine
 10
-39.39999999999999
 20
-55.64969361996226
 30
0.0
 11
39.4
 21
-55.64969361996226
 31
0.0
  0
LINE
  5
12394
330
1234C
100
AcDbEntity
  8
0
100
AcDbLine
 10
-41.5000000000071
 20
-2.26313164225665
 30
0.0
 11
-41.49999999999995
 21
-21.35501473263463
 31
0.0
  0
LINE
  5
12395
330
1234C
100
AcDbEntity
  8
0
100
AcDbLine
 10
-40.00000000000606
 20
-2.26313164225665
 30
0.0
 11
-39.99999999999996
 21
-21.35501473263464
 31
0.0
  0
CIRCLE
  5
12396
330
1234C
100
AcDbEntity
  8
0
100
AcDbCircle
 10
29.99999999999999
 20
389.77
 30
0.0
 40
2.5
  0
CIRCLE
  5
12397
330
1234C
100
AcDbEntity
  8
0
100
AcDbCircle
 10
29.99999999999999
 20
349.7700000000001
 30
0.0
 40
2.5
  0
CIRCLE
  5
12398
330
1234C
100
AcDbEntity
  8
0
100
AcDbCircle
 10
29.99999999999999
 20
309.7700000000001
 30
0.0
 40
2.5
  0
CIRCLE
  5
12399
330
1234C
100
AcDbEntity
  8
0
100
AcDbCircle
 10
29.99999999999999
 20
269.7700000000001
 30
0.0
 40
2.5
  0
CIRCLE
  5
1239A
330
1234C
100
AcDbEntity
  8
0
100
AcDbCircle
 10
29.99999999999999
 20
229.7700000000001
 30
0.0
 40
2.5
  0
CIRCLE
  5
1239B
330
1234C
100
AcDbEntity
  8
0
100
AcDbCircle
 10
29.99999999999999
 20
189.77
 30
0.0
 40
2.5
  0
CIRCLE
  5
1239C
330
1234C
100
AcDbEntity
  8
0
100
AcDbCircle
 10
29.99999999999999
 20
149.77
 30
0.0
 40
2.5
  0
CIRCLE
  5
1239D
330
1234C
100
AcDbEntity
  8
0
100
AcDbCircle
 10
29.99999999999999
 20
109.7700000000001
 30
0.0
 40
2.5
  0
CIRCLE
  5
1239E
330
1234C
100
AcDbEntity
  8
0
100
AcDbCircle
 10
29.99999999999999
 20
69.77000000000007
 30
0.0
 40
2.5
  0
CIRCLE
  5
1239F
330
1234C
100
AcDbEntity
  8
0
100
AcDbCircle
 10
29.99999999999999
 20
29.77000000000007
 30
0.0
 40
2.5
  0
CIRCLE
  5
123A0
330
1234C
100
AcDbEntity
  8
0
100
AcDbCircle
 10
19.99999999999998
 20
369.7700000000001
 30
0.0
 40
2.5
  0
CIRCLE
  5
123A1
330
1234C
100
AcDbEntity
  8
0
100
AcDbCircle
 10
19.99999999999998
 20
329.77
 30
0.0
 40
2.5
  0
CIRCLE
  5
123A2
330
1234C
100
AcDbEntity
  8
0
100
AcDbCircle
 10
19.99999999999998
 20
289.77
 30
0.0
 40
2.5
  0
CIRCLE
  5
123A3
330
1234C
100
AcDbEntity
  8
0
100
AcDbCircle
 10
19.99999999999998
 20
249.77
 30
0.0
 40
2.5
  0
CIRCLE
  5
123A4
330
1234C
100
AcDbEntity
  8
0
100
AcDbCircle
 10
19.99999999999998
 20
209.7700000000001
 30
0.0
 40
2.5
  0
CIRCLE
  5
123A5
330
1234C
100
AcDbEntity
  8
0
100
AcDbCircle
 10
19.99999999999998
 20
169.77
 30
0.0
 40
2.5
  0
CIRCLE
  5
123A6
330
1234C
100
AcDbEntity
  8
0
100
AcDbCircle
 10
19.99999999999998
 20
129.77
 30
0.0
 40
2.5
  0
CIRCLE
  5
123A7
330
1234C
100
AcDbEntity
  8
0
100
AcDbCircle
 10
19.99999999999998
 20
89.77000000000005
 30
0.0
 40
2.5
  0
CIRCLE
  5
123A8
330
1234C
100
AcDbEntity
  8
0
100
AcDbCircle
 10
19.99999999999998
 20
49.77000000000005
 30
0.0
 40
2.5
  0
CIRCLE
  5
123A9
330
1234C
100
AcDbEntity
  8
0
100
AcDbCircle
 10
19.99999999999998
 20
9.770000000000054
 30
0.0
 40
2.5
  0
CIRCLE
  5
123AA
330
1234C
100
AcDbEntity
  8
0
100
AcDbCircle
 10
-20.00000000000001
 20
389.77
 30
0.0
 40
2.5
  0
CIRCLE
  5
123AB
330
1234C
100
AcDbEntity
  8
0
100
AcDbCircle
 10
-20.00000000000001
 20
349.77
 30
0.0
 40
2.5
  0
CIRCLE
  5
123AC
330
1234C
100
AcDbEntity
  8
0
100
AcDbCircle
 10
-20.00000000000001
 20
309.7700000000001
 30
0.0
 40
2.5
  0
CIRCLE
  5
123AD
330
1234C
100
AcDbEntity
  8
0
100
AcDbCircle
 10
-20.00000000000001
 20
269.7700000000001
 30
0.0
 40
2.5
  0
CIRCLE
  5
123AE
330
1234C
100
AcDbEntity
  8
0
100
AcDbCircle
 10
-20.00000000000001
 20
229.77
 30
0.0
 40
2.5
  0
CIRCLE
  5
123AF
330
1234C
100
AcDbEntity
  8
0
100
AcDbCircle
 10
-20.00000000000001
 20
189.77
 30
0.0
 40
2.5
  0
CIRCLE
  5
123B0
330
1234C
100
AcDbEntity
  8
0
100
AcDbCircle
 10
-20.00000000000001
 20
149.77
 30
0.0
 40
2.5
  0
CIRCLE
  5
123B1
330
1234C
100
AcDbEntity
  8
0
100
AcDbCircle
 10
-20.00000000000001
 20
109.77
 30
0.0
 40
2.5
  0
CIRCLE
  5
123B2
330
1234C
100
AcDbEntity
  8
0
100
AcDbCircle
 10
-20.00000000000001
 20
69.77000000000003
 30
0.0
 40
2.5
  0
CIRCLE
  5
123B3
330
1234C
100
AcDbEntity
  8
0
100
AcDbCircle
 10
-20.00000000000001
 20
29.77000000000004
 30
0.0
 40
2.5
  0
CIRCLE
  5
123B4
330
1234C
100
AcDbEntity
  8
0
100
AcDbCircle
 10
-30.00000000000002
 20
369.7700000000001
 30
0.0
 40
2.5
  0
CIRCLE
  5
123B5
330
1234C
100
AcDbEntity
  8
0
100
AcDbCircle
 10
-30.00000000000002
 20
329.77
 30
0.0
 40
2.5
  0
CIRCLE
  5
123B6
330
1234C
100
AcDbEntity
  8
0
100
AcDbCircle
 10
-30.00000000000002
 20
289.77
 30
0.0
 40
2.5
  0
CIRCLE
  5
123B7
330
1234C
100
AcDbEntity
  8
0
100
AcDbCircle
 10
-30.00000000000002
 20
249.77
 30
0.0
 40
2.5
  0
CIRCLE
  5
123B8
330
1234C
100
AcDbEntity
  8
0
100
AcDbCircle
 10
-30.00000000000002
 20
209.7700000000001
 30
0.0
 40
2.5
  0
CIRCLE
  5
123B9
330
1234C
100
AcDbEntity
  8
0
100
AcDbCircle
 10
-30.00000000000002
 20
169.77
 30
0.0
 40
2.5
  0
CIRCLE
  5
123BA
330
1234C
100
AcDbEntity
  8
0
100
AcDbCircle
 10
-30.00000000000002
 20
129.77
 30
0.0
 40
2.5
  0
CIRCLE
  5
123BB
330
1234C
100
AcDbEntity
  8
0
100
AcDbCircle
 10
-30.00000000000002
 20
89.77000000000002
 30
0.0
 40
2.5
  0
CIRCLE
  5
123BC
330
1234C
100
AcDbEntity
  8
0
100
AcDbCircle
 10
-30.00000000000002
 20
49.77000000000002
 30
0.0
 40
2.5
  0
CIRCLE
  5
123BD
330
1234C
100
AcDbEntity
  8
0
100
AcDbCircle
 10
-30.00000000000002
 20
9.770000000000019
 30
0.0
 40
2.5
  0
CIRCLE
  5
123BE
330
1234C
100
AcDbEntity
  8
0
100
AcDbCircle
 10
-53.02709056100003
 20
69.77000000000001
 30
0.0
 40
2.5
  0
CIRCLE
  5
123BF
330
1234C
100
AcDbEntity
  8
0
100
AcDbCircle
 10
47.02709056099997
 20
69.77000000000001
 30
0.0
 40
2.5
  0
CIRCLE
  5
123C0
330
1234C
100
AcDbEntity
  8
0
100
AcDbCircle
 10
-47.02709056100002
 20
29.77000000000002
 30
0.0
 40
2.5
  0
CIRCLE
  5
123C1
330
1234C
100
AcDbEntity
  8
0
100
AcDbCircle
 10
53.02709056099998
 20
29.77000000000002
 30
0.0
 40
2.5
  0
ELLIPSE
  5
123C2
330
1234C
100
AcDbEntity
  8
0
100
AcDbEllipse
 10
-22.50000000000001
 20
0.0236058844764815
 30
0.0
 11
2.499999999999999
 21
-0.0000000000000006
 31
0.0
210
0.0
220
0.0
230
1.0
 40
0.7071067811865479
 41
3.397965980608285
 42
6.026811980161093
  0
SPLINE
  5
123C3
330
1234C
100
AcDbEntity
  8
0
100
AcDbSpline
210
0.0
220
0.0
230
1.0
 70
     8
 71
     3
 72
     8
 73
     4
 74
     0
 42
0.000000001
 43
0.0000000001
 40
-1.0
 40
-1.0
 40
-1.0
 40
-1.0
 40
0.0
 40
0.0
 40
0.0
 40
0.0
 10
-24.91828991960762
 20
-0.4246540092928796
 30
0.0
 10
-24.99189972302012
 20
-0.3163012038324831
 30
0.0
 10
-25.01609483643936
 20
-0.1581319339738785
 30
0.0
 10
-24.98943351399745
 20
-0.0003899405809506
 30
0.0
  0
SPLINE
  5
123C4
330
1234C
100
AcDbEntity
  8
0
100
AcDbSpline
210
0.0
220
0.0
230
1.0
 70
     8
 71
     3
 72
     8
 73
     4
 74
     0
 42
0.000000001
 43
0.0000000001
 40
-1.0
 40
-1.0
 40
-1.0
 40
-1.0
 40
0.0
 40
0.0
 40
0.0
 40
0.0
 10
-20.01056648600258
 20
-0.0003899405809503
 30
0.0
 10
-19.98390516356066
 20
-0.15813193397387
 30
0.0
 10
-20.00810027697966
 20
-0.3163012038324567
 30
0.0
 10
-20.08171008039241
 20
-0.4246540092928792
 30
0.0
  0
ARC
  5
123C5
330
1234C
100
AcDbEntity
  8
0
100
AcDbCircle
 10
-22.50000000000001
 20
-0.229999999999892
 30
0.0
 40
2.499999999999999
100
AcDbArc
 50
5.269701326162068
 51
174.7302986738379
  0
ELLIPSE
  5
123C6
330
1234C
100
AcDbEntity
  8
0
100
AcDbEllipse
 10
22.49999999999999
 20
0.0236058844764817
 30
0.0
 11
2.5
 21
-0.0000000000000006
 31
0.0
210
0.0
220
0.0
230
1.0
 40
0.7071067811865479
 41
3.397965980608285
 42
6.026811980161093
  0
SPLINE
  5
123C7
330
1234C
100
AcDbEntity
  8
0
100
AcDbSpline
210
0.0
220
0.0
230
1.0
 70
     8
 71
     3
 72
     8
 73
     4
 74
     0
 42
0.000000001
 43
0.0000000001
 40
-1.0
 40
-1.0
 40
-1.0
 40
-1.0
 40
0.0
 40
0.0
 40
0.0
 40
0.0
 10
20.08171008039238
 20
-0.4246540092928796
 30
0.0
 10
20.00810027697975
 20
-0.3163012038324939
 30
0.0
 10
19.98390516356064
 20
-0.1581319339738735
 30
0.0
 10
20.01056648600255
 20
-0.0003899405809504
 30
0.0
  0
SPLINE
  5
123C8
330
1234C
100
AcDbEntity
  8
0
100
AcDbSpline
210
0.0
220
0.0
230
1.0
 70
     8
 71
     3
 72
     8
 73
     4
 74
     0
 42
0.000000001
 43
0.0000000001
 40
-1.0
 40
-1.0
 40
-1.0
 40
-1.0
 40
0.0
 40
0.0
 40
0.0
 40
0.0
 10
24.98943351399742
 20
-0.0003899405809502
 30
0.0
 10
25.0160948364393
 20
-0.1581319339738713
 30
0.0
 10
24.99189972302016
 20
-0.3163012038324384
 30
0.0
 10
24.9182899196076
 20
-0.4246540092928796
 30
0.0
  0
ARC
  5
123C9
330
1234C
100
AcDbEntity
  8
0
100
AcDbCircle
 10
22.49999999999999
 20
-0.229999999999892
 30
0.0
 40
2.5
100
AcDbArc
 50
5.269701326162068
 51
174.7302986738379
  0
SPLINE
  5
123CA
330
1234C
100
AcDbEntity
  8
0
100
AcDbSpline
210
0.0
220
0.0
230
1.0
 70
     8
 71
     3
 72
     8
 73
     4
 74
     0
 42
0.000000001
 43
0.0000000001
 40
-1.0
 40
-1.0
 40
-1.0
 40
-1.0
 40
0.0
 40
0.0
 40
0.0
 40
0.0
 10
-4.918289920131944
 20
-0.4246540092928794
 30
0.0
 10
-4.991899723307195
 20
-0.3163012038163609
 30
0.0
 10
-5.01609483648541
 20
-0.158131933951481
 30
0.0
 10
-4.989433513812963
 20
-0.0003899405809506
 30
0.0
  0
SPLINE
  5
123CB
330
1234C
100
AcDbEntity
  8
0
100
AcDbSpline
210
0.0
220
0.0
230
1.0
 70
     8
 71
     3
 72
     8
 73
     4
 74
     0
 42
0.000000001
 43
0.0000000001
 40
-1.0
 40
-1.0
 40
-1.0
 40
-1.0
 40
0.0
 40
0.0
 40
0.0
 40
0.0
 10
4.989433513812949
 20
-0.0003899405809503
 30
0.0
 10
5.016094836485295
 20
-0.1581319339514889
 30
0.0
 10
4.991899723307192
 20
-0.3163012038163565
 30
0.0
 10
4.918289920131907
 20
-0.4246540092928796
 30
0.0
  0
ELLIPSE
  5
123CC
330
1234C
100
AcDbEntity
  8
0
100
AcDbEllipse
 10
-2.500000000000008
 20
0.0236058830621423
 30
0.0
 11
-2.5
 21
0.0000000000000004
 31
0.0
210
0.0
220
0.0
230
1.0
 40
0.7071067811865479
 41
0.2563733261913885
 42
1.570796326794896
  0
LINE
  5
123CD
330
1234C
100
AcDbEntity
  8
0
100
AcDbLine
 10
2.499999999999987
 20
-1.744161069904239
 30
0.0
 11
-2.500000000000008
 21
-1.744161069904238
 31
0.0
  0
ELLIPSE
  5
123CE
330
1234C
100
AcDbEntity
  8
0
100
AcDbEllipse
 10
2.499999999999986
 20
0.0236058830621926
 30
0.0
 11
2.5
 21
-0.0000000000000005
 31
0.0
210
0.0
220
0.0
230
1.0
 40
0.7071067811865479
 41
4.712388980384689
 42
6.026811980988168
  0
ARC
  5
123CF
330
1234C
100
AcDbEntity
  8
0
100
AcDbCircle
 10
2.499999999999986
 20
-0.2300000019999987
 30
0.0
 40
2.5
100
AcDbArc
 50
5.269701372195669
 51
89.9999999999998
  0
LINE
  5
123D0
330
1234C
100
AcDbEntity
  8
0
100
AcDbLine
 10
-2.500000000000012
 20
2.269999997999859
 30
0.0
 11
2.499999999999996
 21
2.269999997999859
 31
0.0
  0
ARC
  5
123D1
330
1234C
100
AcDbEntity
  8
0
100
AcDbCircle
 10
-2.500000000000008
 20
-0.2300000020000698
 30
0.0
 40
2.5
100
AcDbArc
 50
90.0000000000001
 51
174.7302986278027
  0
ELLIPSE
  5
123D2
330
1234C
100
AcDbEntity
  8
0
100
AcDbEllipse
 10
-39.39999999999999
 20
-54.16476937947038
 30
0.0
 11
-2.100000000000181
 21
0.0000000000000014
 31
0.0
210
0.0
220
0.0
230
1.0
 40
0.7071067811865476
 41
0.0
 42
1.570796326794896
  0
ELLIPSE
  5
123D3
330
1234C
100
AcDbEntity
  8
0
100
AcDbEllipse
 10
-39.39999999999999
 20
-54.16476937947045
 30
0.0
 11
-0.6000000000001095
 21
-0.0000000000000089
 31
0.0
210
0.0
220
0.0
230
1.0
 40
0.7071067811865764
 41
0.0
 42
1.570796326794848
  0
LINE
  5
123D4
330
1234C
100
AcDbEntity
  8
0
100
AcDbLine
 10
39.40000000000001
 20
400.67
 30
0.0
 11
40.0
 21
400.67
 31
0.0
  0
LINE
  5
123D5
330
1234C
100
AcDbEntity
  8
0
100
AcDbLine
 10
39.40000000000001
 20
80.27000000000001
 30
0.0
 11
40.0
 21
80.27000000000001
 31
0.0
  0
LINE
  5
123D6
330
1234C
100
AcDbEntity
  8
0
100
AcDbLine
 10
-40.0
 20
400.67
 30
0.0
 11
-39.40000000000001
 21
400.67
 31
0.0
  0
LINE
  5
123D7
330
1234C
100
AcDbEntity
  8
0
100
AcDbLine
 10
-40.0
 20
80.27000000000001
 30
0.0
 11
-39.40000000000001
 21
80.27000000000001
 31
0.0
  0
ENDBLK
  5
1234E
330
1234C
100
AcDbEntity
  8
0
100
AcDbBlockEnd
  0
BLOCK
  5
123D9
330
123D8
100
AcDbEntity
  8
0
100
AcDbBlockBegin
  2
SPR80_400-Left
 70
     0
 10
0.0
 20
0.0
 30
0.0
  3
SPR80_400-Left
  1

  0
LINE
  5
123DB
330
123D8
100
AcDbEntity
  8
0
100
AcDbLine
 10
0.0
 20
-0.0003899405809505
 30
0.0
 11
0.0
 21
1.270000000000108
 31
0.0
  0
LINE
  5
123DC
330
123D8
100
AcDbEntity
  8
0
100
AcDbLine
 10
62.91118318265852
 20
-2.26313164225665
 30
0.0
 11
4.36274170091103
 21
-2.263131641492263
 31
0.0
  0
SPLINE
  5
123DD
330
123D8
100
AcDbEntity
  8
0
100
AcDbSpline
210
0.0
220
0.0
230
1.0
 70
     8
 71
     3
 72
     8
 73
     4
 74
     0
 42
0.000000001
 43
0.0000000001
 40
-1.0
 40
-1.0
 40
-1.0
 40
-1.0
 40
0.0
 40
0.0
 40
0.0
 40
0.0
 10
1.500000000000019
 20
-0.0003899405809504
 30
0.0
 10
1.500000000000019
 20
-0.1594792109354416
 30
0.0
 10
1.572566966670533
 20
-0.321485044675321
 30
0.0
 10
1.675735931288091
 20
-0.4246540092928796
 30
0.0
  0
SPLINE
  5
123DE
330
123D8
100
AcDbEntity
  8
0
100
AcDbSpline
210
0.0
220
0.0
230
1.0
 70
     8
 71
     3
 72
     8
 73
     4
 74
     0
 42
0.000000001
 43
0.0000000001
 40
0.0
 40
0.0
 40
0.0
 40
0.0
 40
1.0
 40
1.0
 40
1.0
 40
1.0
 10
0.61507575950827
 20
-1.485314181072701
 30
0.0
 10
0.2539843833468154
 20
-1.124222804911246
 30
0.0
 10
0.0000000000000197
 20
-0.5572023868216692
 30
0.0
 10
0.0000000000000198
 20
-0.0003899405809502
 30
0.0
  0
LINE
  5
123DF
330
123D8
100
AcDbEntity
  8
0
100
AcDbLine
 10
1.675735931288086
 20
-0.4246540092928742
 30
0.0
 11
2.288136209298552
 21
-1.03705428730334
 31
0.0
  0
LINE
  5
123E0
330
123D8
100
AcDbEntity
  8
0
100
AcDbLine
 10
2.288136209298538
 20
-1.037054287303334
 30
0.0
 11
2.717240184541075
 21
-1.466158262545871
 31
0.0
  0
SPLINE
  5
123E1
330
123D8
100
AcDbEntity
  8
0
100
AcDbSpline
210
0.0
220
0.0
230
1.0
 70
     8
 71
     3
 72
     8
 73
     4
 74
     0
 42
0.000000001
 43
0.0000000001
 40
-1.0
 40
-1.0
 40
-1.0
 40
-1.0
 40
0.0
 40
0.0
 40
0.0
 40
0.0
 10
2.717240184541065
 20
-1.466158262545864
 30
0.0
 10
3.124319333760628
 20
-1.873237411765427
 30
0.0
 10
3.733518404783674
 20
-2.078196639180463
 30
0.0
 10
4.362741700911181
 20
-2.263131641492128
 30
0.0
  0
LINE
  5
123E2
330
123D8
100
AcDbEntity
  8
0
100
AcDbLine
 10
2.717240184541075
 20
-1.466158262545871
 30
0.0
 11
2.364040347338058
 21
-1.819358099748887
 31
0.0
  0
LINE
  5
123E3
330
123D8
100
AcDbEntity
  8
0
100
AcDbLine
 10
2.364040347338058
 20
-1.819358099748887
 30
0.0
 11
1.656580012761253
 21
-2.526818434325692
 31
0.0
  0
SPLINE
  5
123E4
330
123D8
100
AcDbEntity
  8
0
100
AcDbSpline
210
0.0
220
0.0
230
1.0
 70
     8
 71
     3
 72
     8
 73
     4
 74
     0
 42
0.000000001
 43
0.0000000001
 40
0.0
 40
0.0
 40
0.0
 40
0.0
 40
1.0
 40
1.0
 40
1.0
 40
1.0
 10
4.362741700911036
 20
-2.263131641492273
 30
0.0
 10
3.178158037513796
 20
-2.633557006450341
 30
0.0
 10
2.063659161980805
 20
-2.93389758354525
 30
0.0
 10
1.656580012761243
 20
-2.526818434325685
 30
0.0
  0
LINE
  5
123E5
330
123D8
100
AcDbEntity
  8
0
100
AcDbLine
 10
1.656580012761253
 20
-2.526818434325692
 30
0.0
 11
1.227476037518718
 21
-2.097714459083153
 31
0.0
  0
LINE
  5
123E6
330
123D8
100
AcDbEntity
  8
0
100
AcDbLine
 10
2.288136209298538
 20
-1.037054287303334
 30
0.0
 11
1.227476037518718
 21
-2.097714459083153
 31
0.0
  0
LINE
  5
123E7
330
123D8
100
AcDbEntity
  8
0
100
AcDbLine
 10
1.227476037518744
 20
-2.097714459083146
 30
0.0
 11
0.6150757595082796
 21
-1.485314181072681
 31
0.0
  0
LINE
  5
123E8
330
123D8
100
AcDbEntity
  8
0
100
AcDbLine
 10
1.675735931288091
 20
-0.4246540092928796
 30
0.0
 11
1.32253609281094
 21
-0.7778538477700304
 31
0.0
  0
LINE
  5
123E9
330
123D8
100
AcDbEntity
  8
0
100
AcDbLine
 10
1.32253609281094
 20
-0.7778538477700304
 30
0.0
 11
0.6150757595082701
 21
-1.485314181072701
 31
0.0
  0
LINE
  5
123EA
330
123D8
100
AcDbEntity
  8
0
100
AcDbLine
 10
1.500000000000012
 20
-0.0003899405809504
 30
0.0
 11
1.000499995436689
 21
-0.0003899405809504
 31
0.0
  0
LINE
  5
123EB
330
123D8
100
AcDbEntity
  8
0
100
AcDbLine
 10
1.000499995436689
 20
-0.0003899405809504
 30
0.0
 11
0.0
 21
-0.0003899405809504
 31
0.0
  0
LINE
  5
123EC
330
123D8
100
AcDbEntity
  8
0
100
AcDbLine
 10
1.500000000000003
 20
1.270000000000108
 30
0.0
 11
1.500000000000002
 21
-0.0003899405809504
 31
0.0
  0
LINE
  5
123ED
330
123D8
100
AcDbEntity
  8
0
100
AcDbLine
 10
0.0
 20
6.269999999999997
 30
0.0
 11
0.0
 21
1.269999999999995
 31
0.0
  0
LINE
  5
123EE
330
123D8
100
AcDbEntity
  8
0
100
AcDbLine
 10
0.0
 20
77.27
 30
0.0
 11
0.0
 21
72.27
 31
0.0
  0
LINE
  5
123EF
330
123D8
100
AcDbEntity
  8
0
100
AcDbLine
 10
1.50000000000003
 20
1.269999999999996
 30
0.0
 11
1.500000000000033
 21
6.269999999999997
 31
0.0
  0
LINE
  5
123F0
330
123D8
100
AcDbEntity
  8
0
100
AcDbLine
 10
1.500000000000033
 20
6.269999999999997
 30
0.0
 11
0.0
 21
6.269999999999997
 31
0.0
  0
LINE
  5
123F1
330
123D8
100
AcDbEntity
  8
0
100
AcDbLine
 10
0.0
 20
1.269999999999996
 30
0.0
 11
1.50000000000003
 21
1.269999999999996
 31
0.0
  0
LINE
  5
123F2
330
123D8
100
AcDbEntity
  8
0
100
AcDbLine
 10
0.0
 20
72.27
 30
0.0
 11
1.500000000000033
 21
72.27
 31
0.0
  0
LINE
  5
123F3
330
123D8
100
AcDbEntity
  8
0
100
AcDbLine
 10
1.500000000000033
 20
72.27
 30
0.0
 11
1.50000000000003
 21
77.27
 31
0.0
  0
LINE
  5
123F4
330
123D8
100
AcDbEntity
  8
0
100
AcDbLine
 10
1.50000000000003
 20
77.27
 30
0.0
 11
0.0
 21
77.27
 31
0.0
  0
LINE
  5
123F5
330
123D8
100
AcDbEntity
  8
0
100
AcDbLine
 10
0.0
 20
6.269999999999997
 30
0.0
 11
0.0
 21
72.27
 31
0.0
  0
LINE
  5
123F6
330
123D8
100
AcDbEntity
  8
0
100
AcDbLine
 10
0.0
 20
77.27
 30
0.0
 11
0.0
 21
80.26999999999999
 31
0.0
  0
LINE
  5
123F7
330
123D8
100
AcDbEntity
  8
0
100
AcDbLine
 10
1.500000000000033
 20
6.269999999999997
 30
0.0
 11
1.500000000000033
 21
72.27
 31
0.0
  0
LINE
  5
123F8
330
123D8
100
AcDbEntity
  8
0
100
AcDbLine
 10
1.500000000000009
 20
77.27
 30
0.0
 11
1.500000000000009
 21
80.26999999999999
 31
0.0
  0
LINE
  5
123F9
330
123D8
100
AcDbEntity
  8
0
100
AcDbLine
 10
0.0
 20
80.27000000000001
 30
0.0
 11
0.0
 21
400.67
 31
0.0
  0
LINE
  5
123FA
330
123D8
100
AcDbEntity
  8
0
100
AcDbLine
 10
2.100000000000008
 20
400.67
 30
0.0
 11
0.0
 21
400.67
 31
0.0
  0
LINE
  5
123FB
330
123D8
100
AcDbEntity
  8
0
100
AcDbLine
 10
0.0
 20
80.27000000000001
 30
0.0
 11
2.1
 21
80.27000000000001
 31
0.0
  0
LINE
  5
123FC
330
123D8
100
AcDbEntity
  8
0
100
AcDbLine
 10
43.50000000000001
 20
85.27000000000001
 30
0.0
 11
38.50000000000001
 21
80.27000000000001
 31
0.0
  0
LINE
  5
123FD
330
123D8
100
AcDbEntity
  8
0
100
AcDbLine
 10
38.50000000000001
 20
400.67
 30
0.0
 11
43.50000000000001
 21
395.67
 31
0.0
  0
LINE
  5
123FE
330
123D8
100
AcDbEntity
  8
0
100
AcDbLine
 10
82.00306627386
 20
-21.35501473263463
 30
0.0
 11
82.00306627386
 21
-28.42608254450008
 31
0.0
  0
CIRCLE
  5
123FF
330
123D8
100
AcDbEntity
  8
0
100
AcDbCircle
 10
35.50000000000002
 20
387.7700000000001
 30
0.0
 40
2.5
  0
CIRCLE
  5
12400
330
123D8
100
AcDbEntity
  8
0
100
AcDbCircle
 10
35.50000000000002
 20
367.7700000000001
 30
0.0
 40
2.5
  0
CIRCLE
  5
12401
330
123D8
100
AcDbEntity
  8
0
100
AcDbCircle
 10
35.50000000000002
 20
347.7700000000001
 30
0.0
 40
2.5
  0
CIRCLE
  5
12402
330
123D8
100
AcDbEntity
  8
0
100
AcDbCircle
 10
35.50000000000002
 20
327.7700000000001
 30
0.0
 40
2.5
  0
CIRCLE
  5
12403
330
123D8
100
AcDbEntity
  8
0
100
AcDbCircle
 10
35.50000000000002
 20
307.77
 30
0.0
 40
2.5
  0
CIRCLE
  5
12404
330
123D8
100
AcDbEntity
  8
0
100
AcDbCircle
 10
35.50000000000002
 20
287.77
 30
0.0
 40
2.5
  0
CIRCLE
  5
12405
330
123D8
100
AcDbEntity
  8
0
100
AcDbCircle
 10
35.50000000000002
 20
267.7700000000001
 30
0.0
 40
2.5
  0
CIRCLE
  5
12406
330
123D8
100
AcDbEntity
  8
0
100
AcDbCircle
 10
35.50000000000002
 20
247.77
 30
0.0
 40
2.5
  0
CIRCLE
  5
12407
330
123D8
100
AcDbEntity
  8
0
100
AcDbCircle
 10
35.50000000000002
 20
227.77
 30
0.0
 40
2.5
  0
CIRCLE
  5
12408
330
123D8
100
AcDbEntity
  8
0
100
AcDbCircle
 10
35.50000000000002
 20
207.77
 30
0.0
 40
2.5
  0
CIRCLE
  5
12409
330
123D8
100
AcDbEntity
  8
0
100
AcDbCircle
 10
35.50000000000002
 20
187.77
 30
0.0
 40
2.5
  0
CIRCLE
  5
1240A
330
123D8
100
AcDbEntity
  8
0
100
AcDbCircle
 10
35.50000000000002
 20
167.77
 30
0.0
 40
2.5
  0
CIRCLE
  5
1240B
330
123D8
100
AcDbEntity
  8
0
100
AcDbCircle
 10
35.50000000000002
 20
147.77
 30
0.0
 40
2.5
  0
CIRCLE
  5
1240C
330
123D8
100
AcDbEntity
  8
0
100
AcDbCircle
 10
35.50000000000002
 20
127.77
 30
0.0
 40
2.5
  0
CIRCLE
  5
1240D
330
123D8
100
AcDbEntity
  8
0
100
AcDbCircle
 10
35.50000000000002
 20
107.77
 30
0.0
 40
2.5
  0
CIRCLE
  5
1240E
330
123D8
100
AcDbEntity
  8
0
100
AcDbCircle
 10
35.50000000000002
 20
87.77000000000004
 30
0.0
 40
2.5
  0
LINE
  5
1240F
330
123D8
100
AcDbEntity
  8
0
100
AcDbLine
 10
43.50000000000001
 20
395.67
 30
0.0
 11
43.50000000000001
 21
85.27000000000001
 31
0.0
  0
LINE
  5
12410
330
123D8
100
AcDbEntity
  8
0
100
AcDbLine
 10
2.100000000000008
 20
400.67
 30
0.0
 11
38.50000000000001
 21
400.67
 31
0.0
  0
LINE
  5
12411
330
123D8
100
AcDbEntity
  8
0
100
AcDbLine
 10
38.50000000000001
 20
80.27000000000001
 30
0.0
 11
2.099999999999999
 21
80.27000000000001
 31
0.0
  0
LINE
  5
12412
330
123D8
100
AcDbEntity
  8
0
100
AcDbLine
 10
82.00306627386
 20
-28.42608254450008
 30
0.0
 11
56.26437943888952
 21
-54.16476937947052
 31
0.0
  0
LINE
  5
12413
330
123D8
100
AcDbEntity
  8
0
100
AcDbLine
 10
62.91118318265852
 20
-2.26313164225665
 30
0.0
 11
82.00306627386
 21
-21.35501473263463
 31
0.0
  0
CIRCLE
  5
12414
330
123D8
100
AcDbEntity
  8
0
100
AcDbCircle
 10
74.57844507130477
 20
-25.24410202925711
 30
0.0
 40
2.5
  0
ARC
  5
12415
330
123D8
100
AcDbEntity
  8
0
100
AcDbCircle
 10
59.31559010709463
 20
-13.990452698916
 30
0.0
 40
0.8000000000000012
100
AcDbArc
 50
315.000000001042
 51
75.00000000104186
  0
LINE
  5
12416
330
123D8
100
AcDbEntity
  8
0
100
AcDbLine
 10
59.88127553205416
 20
-14.55613812385494
 30
0.0
 11
56.81941335363088
 21
-17.61800030238964
 31
0.0
  0
ARC
  5
12417
330
123D8
100
AcDbEntity
  8
0
100
AcDbCircle
 10
56.25372792867135
 20
-17.0523148774507
 30
0.0
 40
0.8
100
AcDbArc
 50
195.0000000010428
 51
315.0000000010428
  0
LINE
  5
12418
330
123D8
100
AcDbEntity
  8
0
100
AcDbLine
 10
55.48098726764387
 20
-17.25937011354677
 30
0.0
 11
54.36026792735771
 21
-13.07678859487811
 31
0.0
  0
ARC
  5
12419
330
123D8
100
AcDbEntity
  8
0
100
AcDbCircle
 10
55.13300858838519
 20
-12.86973335878203
 30
0.0
 40
0.8000000000000014
100
AcDbArc
 50
75.00000000104188
 51
195.0000000010427
  0
LINE
  5
1241A
330
123D8
100
AcDbEntity
  8
0
100
AcDbLine
 10
55.34006382445316
 20
-12.096992697747
 30
0.0
 11
59.5226453431626
 21
-13.21771203788096
 31
0.0
  0
LINE
  5
1241B
330
123D8
100
AcDbEntity
  8
0
100
AcDbLine
 10
55.28251771018368
 20
-12.08382813389861
 30
0.0
 11
54.3471033635072
 21
-13.01924248060914
 31
0.0
  0
LINE
  5
1241C
330
123D8
100
AcDbEntity
  8
0
100
AcDbLine
 10
54.77945519839778
 20
-55.64969361996226
 30
0.0
 11
1.656580012761255
 21
-2.52681843432569
 31
0.0
  0
LINE
  5
1241D
330
123D8
100
AcDbEntity
  8
0
100
AcDbLine
 10
56.26437943888958
 20
-54.16476937947046
 30
0.0
 11
54.77945519839778
 21
-55.64969361996226
 31
0.0
  0
ENDBLK
  5
123DA
330
123D8
100
AcDbEntity
  8
0
100
AcDbBlockEnd
  0
BLOCK
  5
1241F
330
1241E
100
AcDbEntity
  8
0
100
AcDbBlockBegin
  2
SPR80_400-Right
 70
     0
 10
0.0
 20
0.0
 30
0.0
  3
SPR80_400-Right
  1

  0
LINE
  5
12421
330
1241E
100
AcDbEntity
  8
0
100
AcDbLine
 10
-1.499999999999949
 20
6.269999999999996
 30
0.0
 11
-1.499999999999952
 21
1.269999999999996
 31
0.0
  0
LINE
  5
12422
330
1241E
100
AcDbEntity
  8
0
100
AcDbLine
 10
-1.499999999999952
 20
1.269999999999996
 30
0.0
 11
0.0
 21
1.269999999999987
 31
0.0
  0
LINE
  5
12423
330
1241E
100
AcDbEntity
  8
0
100
AcDbLine
 10
0.0
 20
1.269999999999987
 30
0.0
 11
0.0
 21
6.269999999999996
 31
0.0
  0
LINE
  5
12424
330
1241E
100
AcDbEntity
  8
0
100
AcDbLine
 10
0.0
 20
6.269999999999996
 30
0.0
 11
-1.499999999999949
 21
6.269999999999996
 31
0.0
  0
LINE
  5
12425
330
1241E
100
AcDbEntity
  8
0
100
AcDbLine
 10
-1.499999999999949
 20
72.27000000000001
 30
0.0
 11
0.0
 21
72.27000000000001
 31
0.0
  0
LINE
  5
12426
330
1241E
100
AcDbEntity
  8
0
100
AcDbLine
 10
0.0
 20
72.27000000000001
 30
0.0
 11
0.0
 21
77.27000000000001
 31
0.0
  0
LINE
  5
12427
330
1241E
100
AcDbEntity
  8
0
100
AcDbLine
 10
-1.499999999999952
 20
77.27000000000001
 30
0.0
 11
-1.499999999999949
 21
72.27000000000001
 31
0.0
  0
LINE
  5
12428
330
1241E
100
AcDbEntity
  8
0
100
AcDbLine
 10
0.0
 20
77.27000000000001
 30
0.0
 11
-1.499999999999952
 21
77.27000000000001
 31
0.0
  0
LINE
  5
12429
330
1241E
100
AcDbEntity
  8
0
100
AcDbLine
 10
0.0
 20
72.27000000000001
 30
0.0
 11
0.0
 21
6.269999999999997
 31
0.0
  0
LINE
  5
1242A
330
1241E
100
AcDbEntity
  8
0
100
AcDbLine
 10
-1.499999999999949
 20
72.27000000000001
 30
0.0
 11
-1.499999999999949
 21
6.269999999999997
 31
0.0
  0
LINE
  5
1242B
330
1241E
100
AcDbEntity
  8
0
100
AcDbLine
 10
0.0
 20
80.27000000000001
 30
0.0
 11
0.0
 21
77.27000000000001
 31
0.0
  0
LINE
  5
1242C
330
1241E
100
AcDbEntity
  8
0
100
AcDbLine
 10
-1.499999999999972
 20
80.27000000000001
 30
0.0
 11
-1.499999999999972
 21
77.27000000000001
 31
0.0
  0
LINE
  5
1242D
330
1241E
100
AcDbEntity
  8
0
100
AcDbLine
 10
0.0
 20
1.270000000000108
 30
0.0
 11
0.0
 21
-0.0003899405809504
 31
0.0
  0
LINE
  5
1242E
330
1241E
100
AcDbEntity
  8
0
100
AcDbLine
 10
-4.362741700911009
 20
-2.263131641492263
 30
0.0
 11
-62.91118318265851
 21
-2.263131642256641
 31
0.0
  0
SPLINE
  5
1242F
330
1241E
100
AcDbEntity
  8
0
100
AcDbSpline
210
0.0
220
0.0
230
1.0
 70
     8
 71
     3
 72
     8
 73
     4
 74
     0
 42
0.000000001
 43
0.0000000001
 40
-1.0
 40
-1.0
 40
-1.0
 40
-1.0
 40
0.0
 40
0.0
 40
0.0
 40
0.0
 10
-1.675735931288075
 20
-0.4246540092928794
 30
0.0
 10
-1.57256696667051
 20
-0.3214850446753142
 30
0.0
 10
-1.500000000000004
 20
-0.1594792109354447
 30
0.0
 10
-1.500000000000004
 20
-0.0003899405809504
 30
0.0
  0
SPLINE
  5
12430
330
1241E
100
AcDbEntity
  8
0
100
AcDbSpline
210
0.0
220
0.0
230
1.0
 70
     8
 71
     3
 72
     8
 73
     4
 74
     0
 42
0.000000001
 43
0.0000000001
 40
0.0
 40
0.0
 40
0.0
 40
0.0
 40
1.0
 40
1.0
 40
1.0
 40
1.0
 10
-0.000000000000004
 20
-0.0003899405809502
 30
0.0
 10
-0.0000000000000039
 20
-0.5572023868216798
 30
0.0
 10
-0.2539843833467763
 20
-1.124222804911223
 30
0.0
 10
-0.6150757595082541
 20
-1.4853141810727
 30
0.0
  0
LINE
  5
12431
330
1241E
100
AcDbEntity
  8
0
100
AcDbLine
 10
-2.717240184541045
 20
-1.46615826254589
 30
0.0
 11
-2.288136209298505
 21
-1.037054287303349
 31
0.0
  0
LINE
  5
12432
330
1241E
100
AcDbEntity
  8
0
100
AcDbLine
 10
-2.288136209298535
 20
-1.03705428730334
 30
0.0
 11
-1.675735931288072
 21
-0.4246540092928758
 31
0.0
  0
LINE
  5
12433
330
1241E
100
AcDbEntity
  8
0
100
AcDbLine
 10
-2.717240184541045
 20
-1.46615826254589
 30
0.0
 11
-2.364040347336991
 21
-1.819358099749943
 31
0.0
  0
SPLINE
  5
12434
330
1241E
100
AcDbEntity
  8
0
100
AcDbSpline
210
0.0
220
0.0
230
1.0
 70
     8
 71
     3
 72
     8
 73
     4
 74
     0
 42
0.000000001
 43
0.0000000001
 40
-1.0
 40
-1.0
 40
-1.0
 40
-1.0
 40
0.0
 40
0.0
 40
0.0
 40
0.0
 10
-4.362741700911154
 20
-2.263131641492119
 30
0.0
 10
-3.733518404783987
 20
-2.078196639180835
 30
0.0
 10
-3.124319333761131
 20
-1.873237411765946
 30
0.0
 10
-2.717240184541029
 20
-1.466158262545842
 30
0.0
  0
SPLINE
  5
12435
330
1241E
100
AcDbEntity
  8
0
100
AcDbSpline
210
0.0
220
0.0
230
1.0
 70
     8
 71
     3
 72
     8
 73
     4
 74
     0
 42
0.000000001
 43
0.0000000001
 40
0.0
 40
0.0
 40
0.0
 40
0.0
 40
1.0
 40
1.0
 40
1.0
 40
1.0
 10
-1.656580012761208
 20
-2.526818434325662
 30
0.0
 10
-2.063659161981307
 20
-2.933897583545769
 30
0.0
 10
-3.178158037514054
 20
-2.633557006450768
 30
0.0
 10
-4.362741700911005
 20
-2.263131641492268
 30
0.0
  0
LINE
  5
12436
330
1241E
100
AcDbEntity
  8
0
100
AcDbLine
 10
-2.364040347336991
 20
-1.819358099749943
 30
0.0
 11
-1.656580012761225
 21
-2.52681843432571
 31
0.0
  0
LINE
  5
12437
330
1241E
100
AcDbEntity
  8
0
100
AcDbLine
 10
-0.6150757595082662
 20
-1.485314181072681
 30
0.0
 11
-1.227476037518729
 21
-2.097714459083146
 31
0.0
  0
LINE
  5
12438
330
1241E
100
AcDbEntity
  8
0
100
AcDbLine
 10
-0.6150757595082541
 20
-1.4853141810727
 30
0.0
 11
-1.322536092809332
 21
-0.7778538477716226
 31
0.0
  0
LINE
  5
12439
330
1241E
100
AcDbEntity
  8
0
100
AcDbLine
 10
-1.322536092809332
 20
-0.7778538477716226
 30
0.0
 11
-1.675735931288075
 21
-0.4246540092928793
 31
0.0
  0
LINE
  5
1243A
330
1241E
100
AcDbEntity
  8
0
100
AcDbLine
 10
-2.288136209298505
 20
-1.037054287303349
 30
0.0
 11
-1.227476037518692
 21
-2.097714459083162
 31
0.0
  0
LINE
  5
1243B
330
1241E
100
AcDbEntity
  8
0
100
AcDbLine
 10
-1.227476037518692
 20
-2.097714459083162
 30
0.0
 11
-1.656580012761225
 21
-2.52681843432571
 31
0.0
  0
LINE
  5
1243C
330
1241E
100
AcDbEntity
  8
0
100
AcDbLine
 10
-1.499999999999977
 20
-0.0003899405809504
 30
0.0
 11
-1.000499995435046
 21
-0.0003899405809504
 31
0.0
  0
LINE
  5
1243D
330
1241E
100
AcDbEntity
  8
0
100
AcDbLine
 10
-1.000499995435046
 20
-0.0003899405809504
 30
0.0
 11
0.0
 21
-0.0003899405809504
 31
0.0
  0
LINE
  5
1243E
330
1241E
100
AcDbEntity
  8
0
100
AcDbLine
 10
-1.499999999999987
 20
-0.0003899405809505
 30
0.0
 11
-1.499999999999986
 21
1.270000000000108
 31
0.0
  0
LINE
  5
1243F
330
1241E
100
AcDbEntity
  8
0
100
AcDbLine
 10
0.0
 20
80.27000000000001
 30
0.0
 11
0.0
 21
400.67
 31
0.0
  0
LINE
  5
12440
330
1241E
100
AcDbEntity
  8
0
100
AcDbLine
 10
0.0
 20
400.67
 30
0.0
 11
-2.099999999999945
 21
400.67
 31
0.0
  0
LINE
  5
12441
330
1241E
100
AcDbEntity
  8
0
100
AcDbLine
 10
-2.099999999999963
 20
80.27000000000001
 30
0.0
 11
0.0
 21
80.27000000000001
 31
0.0
  0
LINE
  5
12442
330
1241E
100
AcDbEntity
  8
0
100
AcDbLine
 10
-38.49999999999996
 20
80.27000000000001
 30
0.0
 11
-43.49999999999996
 21
85.27000000000001
 31
0.0
  0
LINE
  5
12443
330
1241E
100
AcDbEntity
  8
0
100
AcDbLine
 10
-43.49999999999996
 20
395.67
 30
0.0
 11
-38.49999999999995
 21
400.67
 31
0.0
  0
LINE
  5
12444
330
1241E
100
AcDbEntity
  8
0
100
AcDbLine
 10
-82.00306627385996
 20
-28.42608254450009
 30
0.0
 11
-82.00306627385998
 21
-21.35501473263464
 31
0.0
  0
LINE
  5
12445
330
1241E
100
AcDbEntity
  8
0
100
AcDbLine
 10
-43.49999999999996
 20
85.27000000000001
 30
0.0
 11
-43.49999999999996
 21
395.67
 31
0.0
  0
LINE
  5
12446
330
1241E
100
AcDbEntity
  8
0
100
AcDbLine
 10
-2.099999999999963
 20
80.27000000000001
 30
0.0
 11
-38.49999999999996
 21
80.27000000000001
 31
0.0
  0
LINE
  5
12447
330
1241E
100
AcDbEntity
  8
0
100
AcDbLine
 10
-38.49999999999995
 20
400.67
 30
0.0
 11
-2.099999999999946
 21
400.67
 31
0.0
  0
CIRCLE
  5
12448
330
1241E
100
AcDbEntity
  8
0
100
AcDbCircle
 10
-35.5
 20
392.7700000000001
 30
0.0
 40
2.5
  0
CIRCLE
  5
12449
330
1241E
100
AcDbEntity
  8
0
100
AcDbCircle
 10
-35.5
 20
372.7700000000001
 30
0.0
 40
2.5
  0
CIRCLE
  5
1244A
330
1241E
100
AcDbEntity
  8
0
100
AcDbCircle
 10
-35.5
 20
352.7700000000001
 30
0.0
 40
2.5
  0
CIRCLE
  5
1244B
330
1241E
100
AcDbEntity
  8
0
100
AcDbCircle
 10
-35.5
 20
332.7700000000001
 30
0.0
 40
2.5
  0
CIRCLE
  5
1244C
330
1241E
100
AcDbEntity
  8
0
100
AcDbCircle
 10
-35.5
 20
312.77
 30
0.0
 40
2.5
  0
CIRCLE
  5
1244D
330
1241E
100
AcDbEntity
  8
0
100
AcDbCircle
 10
-35.5
 20
292.7700000000001
 30
0.0
 40
2.5
  0
CIRCLE
  5
1244E
330
1241E
100
AcDbEntity
  8
0
100
AcDbCircle
 10
-35.5
 20
272.77
 30
0.0
 40
2.5
  0
CIRCLE
  5
1244F
330
1241E
100
AcDbEntity
  8
0
100
AcDbCircle
 10
-35.5
 20
252.77
 30
0.0
 40
2.5
  0
CIRCLE
  5
12450
330
1241E
100
AcDbEntity
  8
0
100
AcDbCircle
 10
-35.5
 20
232.77
 30
0.0
 40
2.5
  0
CIRCLE
  5
12451
330
1241E
100
AcDbEntity
  8
0
100
AcDbCircle
 10
-35.5
 20
212.77
 30
0.0
 40
2.5
  0
CIRCLE
  5
12452
330
1241E
100
AcDbEntity
  8
0
100
AcDbCircle
 10
-35.5
 20
192.77
 30
0.0
 40
2.5
  0
CIRCLE
  5
12453
330
1241E
100
AcDbEntity
  8
0
100
AcDbCircle
 10
-35.5
 20
172.77
 30
0.0
 40
2.5
  0
CIRCLE
  5
12454
330
1241E
100
AcDbEntity
  8
0
100
AcDbCircle
 10
-35.5
 20
152.77
 30
0.0
 40
2.5
  0
CIRCLE
  5
12455
330
1241E
100
AcDbEntity
  8
0
100
AcDbCircle
 10
-35.5
 20
132.77
 30
0.0
 40
2.5
  0
CIRCLE
  5
12456
330
1241E
100
AcDbEntity
  8
0
100
AcDbCircle
 10
-35.5
 20
112.77
 30
0.0
 40
2.5
  0
CIRCLE
  5
12457
330
1241E
100
AcDbEntity
  8
0
100
AcDbCircle
 10
-35.5
 20
92.77000000000004
 30
0.0
 40
2.5
  0
LINE
  5
12458
330
1241E
100
AcDbEntity
  8
0
100
AcDbLine
 10
-62.91118318265851
 20
-2.263131642256641
 30
0.0
 11
-82.00306627385998
 21
-21.35501473263464
 31
0.0
  0
LINE
  5
12459
330
1241E
100
AcDbEntity
  8
0
100
AcDbLine
 10
-1.656580012761225
 20
-2.52681843432571
 30
0.0
 11
-54.77945519839777
 21
-55.64969361996226
 31
0.0
  0
LINE
  5
1245A
330
1241E
100
AcDbEntity
  8
0
100
AcDbLine
 10
-54.77945519839775
 20
-55.64969361996226
 30
0.0
 11
-56.26437943888953
 21
-54.16476937947054
 31
0.0
  0
LINE
  5
1245B
330
1241E
100
AcDbEntity
  8
0
100
AcDbLine
 10
-56.26437943888952
 20
-54.16476937947052
 30
0.0
 11
-82.00306627385996
 21
-28.42608254450009
 31
0.0
  0
CIRCLE
  5
1245C
330
1241E
100
AcDbEntity
  8
0
100
AcDbCircle
 10
-71.04291116530767
 20
-21.70856812338872
 30
0.0
 40
2.5
  0
ARC
  5
1245D
330
1241E
100
AcDbEntity
  8
0
100
AcDbCircle
 10
-51.59747468238809
 20
-9.33419945291363
 30
0.0
 40
0.8000000000000015
100
AcDbArc
 50
344.9999999989572
 51
355.4526675359234
  0
LINE
  5
1245E
330
1241E
100
AcDbEntity
  8
0
100
AcDbLine
 10
-50.82473402136063
 20
-9.541254689009706
 30
0.0
 11
-51.94545336164679
 21
-13.72383620767836
 31
0.0
  0
ARC
  5
1245F
330
1241E
100
AcDbEntity
  8
0
100
AcDbCircle
 10
-52.71819402267426
 20
-13.51678097158229
 30
0.0
 40
0.8
100
AcDbArc
 50
224.9999999989572
 51
344.9999999989576
  0
LINE
  5
12460
330
1241E
100
AcDbEntity
  8
0
100
AcDbLine
 10
-53.28387944763379
 20
-14.08246639652124
 30
0.0
 11
-56.34574162605708
 21
-11.02060421798654
 31
0.0
  0
ARC
  5
12461
330
1241E
100
AcDbEntity
  8
0
100
AcDbCircle
 10
-55.78005620109753
 20
-10.45491879304759
 30
0.0
 40
0.8000000000000014
100
AcDbArc
 50
104.9999999989575
 51
224.9999999989572
  0
LINE
  5
12462
330
1241E
100
AcDbEntity
  8
0
100
AcDbLine
 10
-55.9871114371655
 20
-9.682178132012559
 30
0.0
 11
-51.80452991845606
 21
-8.561458791878598
 31
0.0
  0
ARC
  5
12463
330
1241E
100
AcDbEntity
  8
0
100
AcDbCircle
 10
-51.59747468238809
 20
-9.33419945291363
 30
0.0
 40
0.8000000000000014
100
AcDbArc
 50
49.59733246198601
 51
104.9999999989581
  0
LINE
  5
12464
330
1241E
100
AcDbEntity
  8
0
100
AcDbLine
 10
-51.07895039795263
 20
-8.724992947325674
 30
0.0
 11
-50.79999294004348
 21
-9.397625556585486
 31
0.0
  0
ARC
  5
12465
330
1241E
100
AcDbEntity
  8
0
100
AcDbCircle
 10
-55.13300858838519
 20
-12.86973335878203
 30
0.0
 40
0.8000000000000015
100
AcDbArc
 50
349.2288663267692
 51
100.7711336711455
  0
ENDBLK
  5
12420
330
1241E
100
AcDbEntity
  8
0
100
AcDbBlockEnd
  0
BLOCK
  5
12467
330
12466
100
AcDbEntity
  8
0
100
AcDbBlockBegin
  2
SPR80_400-Top
 70
     0
 10
0.0
 20
0.0
 30
0.0
  3
SPR80_400-Top
  1

  0
LINE
  5
12469
330
12466
100
AcDbEntity
  8
0
100
AcDbLine
 10
82.52709056099996
 20
-1.499999999999949
 30
0.0
 11
82.52709056099996
 21
0.0
 31
0.0
  0
LINE
  5
1246A
330
12466
100
AcDbEntity
  8
0
100
AcDbLine
 10
-77.52709056100001
 20
0.0
 30
0.0
 11
-82.52709056100004
 21
0.0
 31
0.0
  0
LINE
  5
1246B
330
12466
100
AcDbEntity
  8
0
100
AcDbLine
 10
82.52709056099996
 20
0.0
 30
0.0
 11
77.52709056099998
 21
0.0
 31
0.0
  0
LINE
  5
1246C
330
12466
100
AcDbEntity
  8
0
100
AcDbLine
 10
-82.52709056100004
 20
0.0
 30
0.0
 11
-82.52709056100004
 21
-1.500000000000032
 31
0.0
  0
LINE
  5
1246D
330
12466
100
AcDbEntity
  8
0
100
AcDbLine
 10
-82.52709056100004
 20
-1.500000000000032
 30
0.0
 11
-77.52709056100001
 21
-1.50000000000003
 31
0.0
  0
LINE
  5
1246E
330
12466
100
AcDbEntity
  8
0
100
AcDbLine
 10
-77.52709056100001
 20
-1.50000000000003
 30
0.0
 11
-77.52709056100001
 21
0.0
 31
0.0
  0
LINE
  5
1246F
330
12466
100
AcDbEntity
  8
0
100
AcDbLine
 10
77.52709056099998
 20
-1.499999999999952
 30
0.0
 11
82.52709056099996
 21
-1.499999999999949
 31
0.0
  0
LINE
  5
12470
330
12466
100
AcDbEntity
  8
0
100
AcDbLine
 10
77.52709056099998
 20
0.0
 30
0.0
 11
77.52709056099998
 21
-1.499999999999952
 31
0.0
  0
LINE
  5
12471
330
12466
100
AcDbEntity
  8
0
100
AcDbLine
 10
-77.52709056100001
 20
0.0
 30
0.0
 11
-39.40000000000002
 21
0.0
 31
0.0
  0
LINE
  5
12472
330
12466
100
AcDbEntity
  8
0
100
AcDbLine
 10
39.40000000000001
 20
0.0
 30
0.0
 11
77.52709056099998
 21
0.0
 31
0.0
  0
LINE
  5
12473
330
12466
100
AcDbEntity
  8
0
100
AcDbLine
 10
41.41246117974982
 20
-1.49999999999997
 30
0.0
 11
77.52709056099998
 21
-1.499999999999952
 31
0.0
  0
LINE
  5
12474
330
12466
100
AcDbEntity
  8
0
100
AcDbLine
 10
-77.52709056100001
 20
-1.50000000000003
 30
0.0
 11
-41.41246117974982
 21
-1.500000000000012
 31
0.0
  0
LINE
  5
12475
330
12466
100
AcDbEntity
  8
0
100
AcDbLine
 10
39.40000000000001
 20
0.0
 30
0.0
 11
-39.40000000000001
 21
0.0
 31
0.0
  0
LINE
  5
12476
330
12466
100
AcDbEntity
  8
0
100
AcDbLine
 10
41.50000000000021
 20
-38.49999999999995
 30
0.0
 11
41.5
 21
-2.099999999999946
 31
0.0
  0
LINE
  5
12477
330
12466
100
AcDbEntity
  8
0
100
AcDbLine
 10
-41.50000000000001
 20
-2.100000000000008
 30
0.0
 11
-41.5
 21
-38.50000000000001
 31
0.0
  0
LINE
  5
12478
330
12466
100
AcDbEntity
  8
0
100
AcDbLine
 10
40.0
 20
-2.099999999999946
 30
0.0
 11
40.00000000000021
 21
-38.49999999999997
 31
0.0
  0
LINE
  5
12479
330
12466
100
AcDbEntity
  8
0
100
AcDbLine
 10
-39.40000000000001
 20
-1.500000000000012
 30
0.0
 11
39.4
 21
-1.499999999999968
 31
0.0
  0
LINE
  5
1247A
330
12466
100
AcDbEntity
  8
0
100
AcDbLine
 10
-40.0
 20
-38.50000000000001
 30
0.0
 11
-40.0
 21
-2.100000000000008
 31
0.0
  0
LINE
  5
1247B
330
12466
100
AcDbEntity
  8
0
100
AcDbLine
 10
40.00000000000024
 20
-43.49999999999996
 30
0.0
 11
41.50000000000026
 21
-43.49999999999996
 31
0.0
  0
LINE
  5
1247C
330
12466
100
AcDbEntity
  8
0
100
AcDbLine
 10
41.50000000000026
 20
-43.49999999999996
 30
0.0
 11
41.50000000000021
 21
-38.49999999999995
 31
0.0
  0
LINE
  5
1247D
330
12466
100
AcDbEntity
  8
0
100
AcDbLine
 10
-41.5
 20
-38.50000000000001
 30
0.0
 11
-41.5
 21
-43.50000000000001
 31
0.0
  0
LINE
  5
1247E
330
12466
100
AcDbEntity
  8
0
100
AcDbLine
 10
-41.5
 20
-43.50000000000001
 30
0.0
 11
-40.0
 21
-43.50000000000001
 31
0.0
  0
LINE
  5
1247F
330
12466
100
AcDbEntity
  8
0
100
AcDbLine
 10
41.50000000000021
 20
-38.49999999999995
 30
0.0
 11
40.00000000000021
 21
-38.49999999999997
 31
0.0
  0
LINE
  5
12480
330
12466
100
AcDbEntity
  8
0
100
AcDbLine
 10
40.00000000000021
 20
-38.49999999999997
 30
0.0
 11
40.00000000000024
 21
-43.49999999999996
 31
0.0
  0
LINE
  5
12481
330
12466
100
AcDbEntity
  8
0
100
AcDbLine
 10
-40.0
 20
-43.50000000000001
 30
0.0
 11
-40.0
 21
-38.50000000000001
 31
0.0
  0
LINE
  5
12482
330
12466
100
AcDbEntity
  8
0
100
AcDbLine
 10
-40.0
 20
-38.50000000000001
 30
0.0
 11
-41.5
 21
-38.50000000000001
 31
0.0
  0
LINE
  5
12483
330
12466
100
AcDbEntity
  8
0
100
AcDbLine
 10
41.49999999999997
 20
-82.00306627385998
 30
0.0
 11
39.99999999999998
 21
-82.00306627385998
 31
0.0
  0
LINE
  5
12484
330
12466
100
AcDbEntity
  8
0
100
AcDbLine
 10
-39.99999999999996
 20
-82.00306627385998
 30
0.0
 11
-41.49999999999995
 21
-82.00306627386
 31
0.0
  0
LINE
  5
12485
330
12466
100
AcDbEntity
  8
0
100
AcDbLine
 10
41.50000000000694
 20
-62.91118318265851
 30
0.0
 11
41.49999999999997
 21
-82.00306627385998
 31
0.0
  0
LINE
  5
12486
330
12466
100
AcDbEntity
  8
0
100
AcDbLine
 10
40.0000000000059
 20
-62.91118318265851
 30
0.0
 11
39.99999999999998
 21
-82.00306627385998
 31
0.0
  0
ELLIPSE
  5
12487
330
12466
100
AcDbEntity
  8
0
100
AcDbEllipse
 10
39.4
 20
-56.26437943888956
 30
0.0
 11
0.6000000000001095
 21
-0.0000000000000092
 31
0.0
210
0.0
220
0.0
230
1.0
 40
0.7071067811865476
 41
0.0
 42
1.570796326794914
  0
LINE
  5
12488
330
12466
100
AcDbEntity
  8
0
100
AcDbLine
 10
41.50000000000694
 20
-62.91118318265851
 30
0.0
 11
40.0000000000059
 21
-62.91118318265851
 31
0.0
  0
LINE
  5
12489
330
12466
100
AcDbEntity
  8
0
100
AcDbLine
 10
41.50000000000006
 20
-43.49999999999996
 30
0.0
 11
41.50000000000694
 21
-62.91118318265851
 31
0.0
  0
LINE
  5
1248A
330
12466
100
AcDbEntity
  8
0
100
AcDbLine
 10
-41.5000000000071
 20
-62.91118318265852
 30
0.0
 11
-41.50000000000711
 21
-43.50000000000001
 31
0.0
  0
SPLINE
  5
1248B
330
12466
100
AcDbEntity
  8
0
100
AcDbSpline
210
0.0
220
0.0
230
1.0
 70
     8
 71
     3
 72
     8
 73
     4
 74
     0
 42
0.000000001
 43
0.0000000001
 40
-1.0
 40
-1.0
 40
-1.0
 40
-1.0
 40
0.0
 40
0.0
 40
0.0
 40
0.0
 10
-35.01767776087194
 20
-1.500000000000019
 30
0.0
 10
-34.97251992073993
 20
-1.500000000000019
 30
0.0
 10
-35.01586474390245
 20
-1.572566966670533
 30
0.0
 10
-35.14054197002052
 20
-1.675735931288091
 30
0.0
  0
SPLINE
  5
1248C
330
12466
100
AcDbEntity
  8
0
100
AcDbSpline
210
0.0
220
0.0
230
1.0
 70
     8
 71
     3
 72
     8
 73
     4
 74
     0
 42
0.000000001
 43
0.0000000001
 40
-1.0
 40
-1.0
 40
-1.0
 40
-1.0
 40
0.0
 40
0.0
 40
0.0
 40
0.0
 10
35.1405419700205
 20
-1.675735931288075
 30
0.0
 10
35.01586474390217
 20
-1.57256696667051
 30
0.0
 10
34.97251992073988
 20
-1.500000000000004
 30
0.0
 10
35.01767776087195
 20
-1.500000000000004
 30
0.0
  0
ELLIPSE
  5
1248D
330
12466
100
AcDbEntity
  8
0
100
AcDbEllipse
 10
-36.50000000000001
 20
-1.227476037518731
 30
0.0
 11
-1.5
 21
0.0000000000001091
 31
0.0
210
0.0
220
0.0
230
1.0
 40
0.7071067811865474
 41
1.570796326795026
 42
2.70525458196206
  0
LINE
  5
1248E
330
12466
100
AcDbEntity
  8
0
100
AcDbLine
 10
-36.50000000000001
 20
-2.288136209298537
 30
0.0
 11
-38.79315533855965
 21
-2.288136209298538
 31
0.0
  0
LINE
  5
1248F
330
12466
100
AcDbEntity
  8
0
100
AcDbLine
 10
-38.79315533855965
 20
-2.288136209298538
 30
0.0
 11
-39.40000000000001
 21
-2.717240184541075
 31
0.0
  0
LINE
  5
12490
330
12466
100
AcDbEntity
  8
0
100
AcDbLine
 10
39.39999999999999
 20
-2.717240184541045
 30
0.0
 11
38.79315533855963
 21
-2.288136209298505
 31
0.0
  0
LINE
  5
12491
330
12466
100
AcDbEntity
  8
0
100
AcDbLine
 10
38.79315533855963
 20
-2.288136209298505
 30
0.0
 11
36.49999999999999
 21
-2.288136209298506
 31
0.0
  0
ELLIPSE
  5
12492
330
12466
100
AcDbEntity
  8
0
100
AcDbEllipse
 10
36.49999999999999
 20
-1.227476037518715
 30
0.0
 11
-1.5
 21
-0.0000000000000003
 31
0.0
210
0.0
220
0.0
230
1.0
 40
0.7071067811865474
 41
0.436338071627989
 42
1.570796326794896
  0
LINE
  5
12493
330
12466
100
AcDbEntity
  8
0
100
AcDbLine
 10
-40.00000000000606
 20
-62.91118318265852
 30
0.0
 11
-41.5000000000071
 21
-62.91118318265852
 31
0.0
  0
LINE
  5
12494
330
12466
100
AcDbEntity
  8
0
100
AcDbLine
 10
-40.00000000000007
 20
-43.50000000000001
 30
0.0
 11
-40.00000000000606
 21
-62.91118318265852
 31
0.0
  0
SPLINE
  5
12495
330
12466
100
AcDbEntity
  8
0
100
AcDbSpline
210
0.0
220
0.0
230
1.0
 70
     8
 71
     3
 72
     8
 73
     4
 74
     0
 42
0.000000001
 43
0.0000000001
 40
-1.0
 40
-1.0
 40
-1.0
 40
-1.0
 40
0.0
 40
0.0
 40
0.0
 40
0.0
 10
-39.40000000000001
 20
-2.717240184541065
 30
0.0
 10
-39.714159265359
 20
-3.124319333760628
 30
0.0
 10
-40.00000000000003
 20
-3.733518404783674
 30
0.0
 10
-40.00000000000007
 20
-4.362741700911181
 30
0.0
  0
LINE
  5
12496
330
12466
100
AcDbEntity
  8
0
100
AcDbLine
 10
-39.40000000000001
 20
-2.717240184541075
 30
0.0
 11
-39.40000000000001
 21
-2.364040347338058
 31
0.0
  0
LINE
  5
12497
330
12466
100
AcDbEntity
  8
0
100
AcDbLine
 10
-39.40000000000001
 20
-2.364040347338058
 30
0.0
 11
-39.40000000000001
 21
-1.656580012761253
 31
0.0
  0
SPLINE
  5
12498
330
12466
100
AcDbEntity
  8
0
100
AcDbSpline
210
0.0
220
0.0
230
1.0
 70
     8
 71
     3
 72
     8
 73
     4
 74
     0
 42
0.000000001
 43
0.0000000001
 40
0.8233926083861659
 40
0.8233926083861659
 40
0.8233926083861659
 40
0.8233926083861659
 40
1.0
 40
1.0
 40
1.0
 40
1.0
 10
-39.96833079343948
 20
-1.934942494001915
 30
0.0
 10
-39.78528852951263
 20
-1.822430928280986
 30
0.0
 10
-39.59418996942228
 20
-1.728473199485289
 30
0.0
 10
-39.4
 20
-1.656580012761243
 30
0.0
  0
LINE
  5
12499
330
12466
100
AcDbEntity
  8
0
100
AcDbLine
 10
-39.40000000000001
 20
-1.656580012761253
 30
0.0
 11
-39.17856242236228
 21
-1.500000000000007
 31
0.0
  0
LINE
  5
1249A
330
12466
100
AcDbEntity
  8
0
100
AcDbLine
 10
-38.79315533855965
 20
-2.288136209298538
 30
0.0
 11
-38.79315533855965
 21
-1.500000000000012
 31
0.0
  0
LINE
  5
1249B
330
12466
100
AcDbEntity
  8
0
100
AcDbLine
 10
-35.14054197002048
 20
-1.675735931288091
 30
0.0
 11
-35.14054197002048
 21
-1.500000000000009
 31
0.0
  0
LINE
  5
1249C
330
12466
100
AcDbEntity
  8
0
100
AcDbLine
 10
40.0000000000059
 20
-62.91118318265851
 30
0.0
 11
40.00000000000589
 21
-43.49999999999996
 31
0.0
  0
LINE
  5
1249D
330
12466
100
AcDbEntity
  8
0
100
AcDbLine
 10
39.39999999999999
 20
-2.717240184541045
 30
0.0
 11
39.39999999999999
 21
-2.364040347336991
 31
0.0
  0
SPLINE
  5
1249E
330
12466
100
AcDbEntity
  8
0
100
AcDbSpline
210
0.0
220
0.0
230
1.0
 70
     8
 71
     3
 72
     8
 73
     4
 74
     0
 42
0.000000001
 43
0.0000000001
 40
-1.0
 40
-1.0
 40
-1.0
 40
-1.0
 40
0.0
 40
0.0
 40
0.0
 40
0.0
 10
40.00000000000006
 20
-4.362741700911154
 30
0.0
 10
40.00000000000001
 20
-3.733518404783987
 30
0.0
 10
39.71415926535897
 20
-3.124319333761131
 30
0.0
 10
39.39999999999999
 20
-2.717240184541029
 30
0.0
  0
SPLINE
  5
1249F
330
12466
100
AcDbEntity
  8
0
100
AcDbSpline
210
0.0
220
0.0
230
1.0
 70
     8
 71
     3
 72
     8
 73
     4
 74
     0
 42
0.000000001
 43
0.0000000001
 40
0.0
 40
0.0
 40
0.0
 40
0.0
 40
0.176607391613844
 40
0.176607391613844
 40
0.176607391613844
 40
0.176607391613844
 10
39.39999999999998
 20
-1.656580012761208
 30
0.0
 10
39.59418996942227
 20
-1.728473199485352
 30
0.0
 10
39.78528852951262
 20
-1.822430928281126
 30
0.0
 10
39.96833079343948
 20
-1.934942494002114
 30
0.0
  0
LINE
  5
124A0
330
12466
100
AcDbEntity
  8
0
100
AcDbLine
 10
39.39999999999999
 20
-2.364040347336991
 30
0.0
 11
39.39999999999999
 21
-1.656580012761225
 31
0.0
  0
LINE
  5
124A1
330
12466
100
AcDbEntity
  8
0
100
AcDbLine
 10
35.1405419700205
 20
-1.499999999999973
 30
0.0
 11
35.14054197002047
 21
-1.675735931288075
 31
0.0
  0
LINE
  5
124A2
330
12466
100
AcDbEntity
  8
0
100
AcDbLine
 10
38.79315533855963
 20
-2.288136209298505
 30
0.0
 11
38.79315533855963
 21
-1.499999999999971
 31
0.0
  0
LINE
  5
124A3
330
12466
100
AcDbEntity
  8
0
100
AcDbLine
 10
39.17856242236222
 20
-1.49999999999996
 30
0.0
 11
39.39999999999999
 21
-1.656580012761225
 31
0.0
  0
LINE
  5
124A4
330
12466
100
AcDbEntity
  8
0
100
AcDbLine
 10
-41.5000000000071
 20
-62.91118318265852
 30
0.0
 11
-41.49999999999995
 21
-82.00306627386
 31
0.0
  0
LINE
  5
124A5
330
12466
100
AcDbEntity
  8
0
100
AcDbLine
 10
-40.00000000000606
 20
-62.91118318265852
 30
0.0
 11
-39.99999999999996
 21
-82.00306627385998
 31
0.0
  0
ELLIPSE
  5
124A6
330
12466
100
AcDbEntity
  8
0
100
AcDbEllipse
 10
-22.50000000000001
 20
-0.1668158657389272
 30
0.0
 11
2.499999999999999
 21
0.0000000000001836
 31
0.0
210
0.0
220
0.0
230
1.0
 40
0.7071067811865474
 41
3.995971005725007
 42
5.428806955044096
  0
LINE
  5
124A7
330
12466
100
AcDbEntity
  8
0
100
AcDbLine
 10
-24.91828991960762
 20
-1.500000000000003
 30
0.0
 11
-24.91828991960762
 21
-1.675735931288089
 31
0.0
  0
ELLIPSE
  5
124A8
330
12466
100
AcDbEntity
  8
0
100
AcDbEllipse
 10
-22.50000000000001
 20
-1.227476037518728
 30
0.0
 11
2.499999999999999
 21
0.0000000000000003
 31
0.0
210
0.0
220
0.0
230
1.0
 40
0.7071067811865475
 41
3.397965980608286
 42
6.026811980161093
  0
LINE
  5
124A9
330
12466
100
AcDbEntity
  8
0
100
AcDbLine
 10
-20.08171008039241
 20
-1.675735931288088
 30
0.0
 11
-20.08171008039241
 21
-1.500000000000001
 31
0.0
  0
SPLINE
  5
124AA
330
12466
100
AcDbEntity
  8
0
100
AcDbSpline
210
0.0
220
0.0
230
1.0
 70
     8
 71
     3
 72
     8
 73
     4
 74
     0
 42
0.000000001
 43
0.0000000001
 40
-1.0
 40
-1.0
 40
-1.0
 40
-1.0
 40
0.0
 40
0.0
 40
0.0
 40
0.0
 10
-24.91828991960762
 20
-1.675735931288089
 30
0.0
 10
-24.99189972302012
 20
-1.567383125827692
 30
0.0
 10
-25.01609483643936
 20
-1.500000000000017
 30
0.0
 10
-24.98943351399745
 20
-1.500000000000017
 30
0.0
  0
SPLINE
  5
124AB
330
12466
100
AcDbEntity
  8
0
100
AcDbSpline
210
0.0
220
0.0
230
1.0
 70
     8
 71
     3
 72
     8
 73
     4
 74
     0
 42
0.000000001
 43
0.0000000001
 40
-1.0
 40
-1.0
 40
-1.0
 40
-1.0
 40
0.0
 40
0.0
 40
0.0
 40
0.0
 10
-20.01056648600258
 20
-1.500000000000016
 30
0.0
 10
-19.98390516356066
 20
-1.500000000000016
 30
0.0
 10
-20.00810027697966
 20
-1.567383125827665
 30
0.0
 10
-20.08171008039241
 20
-1.675735931288087
 30
0.0
  0
ELLIPSE
  5
124AC
330
12466
100
AcDbEntity
  8
0
100
AcDbEllipse
 10
22.49999999999999
 20
-0.1668158657389175
 30
0.0
 11
2.5
 21
0.0000000000001826
 31
0.0
210
0.0
220
0.0
230
1.0
 40
0.7071067811865475
 41
3.995971005725005
 42
5.428806955044115
  0
LINE
  5
124AD
330
12466
100
AcDbEntity
  8
0
100
AcDbLine
 10
20.08171008039238
 20
-1.49999999999999
 30
0.0
 11
20.08171008039238
 21
-1.675735931288079
 31
0.0
  0
ELLIPSE
  5
124AE
330
12466
100
AcDbEntity
  8
0
100
AcDbEllipse
 10
22.49999999999999
 20
-1.227476037518718
 30
0.0
 11
2.5
 21
0.0000000000000003
 31
0.0
210
0.0
220
0.0
230
1.0
 40
0.7071067811865475
 41
3.397965980608286
 42
6.026811980161093
  0
LINE
  5
124AF
330
12466
100
AcDbEntity
  8
0
100
AcDbLine
 10
24.91828991960759
 20
-1.675735931288078
 30
0.0
 11
24.91828991960759
 21
-1.499999999999976
 31
0.0
  0
SPLINE
  5
124B0
330
12466
100
AcDbEntity
  8
0
100
AcDbSpline
210
0.0
220
0.0
230
1.0
 70
     8
 71
     3
 72
     8
 73
     4
 74
     0
 42
0.000000001
 43
0.0000000001
 40
-1.0
 40
-1.0
 40
-1.0
 40
-1.0
 40
0.0
 40
0.0
 40
0.0
 40
0.0
 10
20.08171008039238
 20
-1.675735931288079
 30
0.0
 10
20.00810027697975
 20
-1.567383125827693
 30
0.0
 10
19.98390516356064
 20
-1.500000000000007
 30
0.0
 10
20.01056648600255
 20
-1.500000000000007
 30
0.0
  0
SPLINE
  5
124B1
330
12466
100
AcDbEntity
  8
0
100
AcDbSpline
210
0.0
220
0.0
230
1.0
 70
     8
 71
     3
 72
     8
 73
     4
 74
     0
 42
0.000000001
 43
0.0000000001
 40
-1.0
 40
-1.0
 40
-1.0
 40
-1.0
 40
0.0
 40
0.0
 40
0.0
 40
0.0
 10
24.98943351399742
 20
-1.500000000000006
 30
0.0
 10
25.0160948364393
 20
-1.500000000000006
 30
0.0
 10
24.99189972302016
 20
-1.567383125827636
 30
0.0
 10
24.9182899196076
 20
-1.675735931288078
 30
0.0
  0
SPLINE
  5
124B2
330
12466
100
AcDbEntity
  8
0
100
AcDbSpline
210
0.0
220
0.0
230
1.0
 70
     8
 71
     3
 72
     8
 73
     4
 74
     0
 42
0.000000001
 43
0.0000000001
 40
-1.0
 40
-1.0
 40
-1.0
 40
-1.0
 40
0.0
 40
0.0
 40
0.0
 40
0.0
 10
-4.918289920131944
 20
-1.675735931288084
 30
0.0
 10
-4.991899723307195
 20
-1.567383125811566
 30
0.0
 10
-5.01609483648541
 20
-1.500000000000013
 30
0.0
 10
-4.989433513812963
 20
-1.500000000000013
 30
0.0
  0
SPLINE
  5
124B3
330
12466
100
AcDbEntity
  8
0
100
AcDbSpline
210
0.0
220
0.0
230
1.0
 70
     8
 71
     3
 72
     8
 73
     4
 74
     0
 42
0.000000001
 43
0.0000000001
 40
-1.0
 40
-1.0
 40
-1.0
 40
-1.0
 40
0.0
 40
0.0
 40
0.0
 40
0.0
 10
4.989433513812949
 20
-1.500000000000011
 30
0.0
 10
5.016094836485295
 20
-1.500000000000011
 30
0.0
 10
4.991899723307192
 20
-1.567383125811559
 30
0.0
 10
4.918289920131907
 20
-1.675735931288082
 30
0.0
  0
ELLIPSE
  5
124B4
330
12466
100
AcDbEntity
  8
0
100
AcDbEllipse
 10
-2.500000000000008
 20
-0.166815867153261
 30
0.0
 11
2.5
 21
0.000000000000183
 31
0.0
210
0.0
220
0.0
230
1.0
 40
0.7071067811865474
 41
3.99597100450666
 42
4.712388980384622
  0
LINE
  5
124B5
330
12466
100
AcDbEntity
  8
0
100
AcDbLine
 10
-4.918289920131944
 20
-1.499999999999992
 30
0.0
 11
-4.918289920131945
 21
-1.675735931288084
 31
0.0
  0
ELLIPSE
  5
124B6
330
12466
100
AcDbEntity
  8
0
100
AcDbEllipse
 10
-2.500000000000008
 20
-1.227476038933062
 30
0.0
 11
-2.5
 21
-0.0000000000000002
 31
0.0
210
0.0
220
0.0
230
1.0
 40
0.7071067811865474
 41
0.2563733261913885
 42
1.570796326794896
  0
LINE
  5
124B7
330
12466
100
AcDbEntity
  8
0
100
AcDbLine
 10
-2.500000000000008
 20
-1.934582820119596
 30
0.0
 11
2.499999999999987
 21
-1.934582820119594
 31
0.0
  0
LINE
  5
124B8
330
12466
100
AcDbEntity
  8
0
100
AcDbLine
 10
2.499999999999987
 20
-2.995242991899417
 30
0.0
 11
-2.500000000000008
 21
-2.995242991899419
 31
0.0
  0
ELLIPSE
  5
124B9
330
12466
100
AcDbEntity
  8
0
100
AcDbEllipse
 10
2.499999999999986
 20
-0.1668158671532056
 30
0.0
 11
2.5
 21
0.0000000000000006
 31
0.0
210
0.0
220
0.0
230
1.0
 40
0.7071067811865472
 41
4.712388980384689
 42
5.42880695626254
  0
ELLIPSE
  5
124BA
330
12466
100
AcDbEntity
  8
0
100
AcDbEllipse
 10
2.499999999999986
 20
-1.227476038933011
 30
0.0
 11
2.499999999999999
 21
0.0000000000000006
 31
0.0
210
0.0
220
0.0
230
1.0
 40
0.7071067811865475
 41
4.712388980384689
 42
6.026811980988168
  0
LINE
  5
124BB
330
12466
100
AcDbEntity
  8
0
100
AcDbLine
 10
4.918289920131904
 20
-1.675735931288082
 30
0.0
 11
4.918289920131904
 21
-1.499999999999987
 31
0.0
  0
LINE
  5
124BC
330
12466
100
AcDbEntity
  8
0
100
AcDbLine
 10
-39.39999999999999
 20
-55.8401153701776
 30
0.0
 11
39.4
 21
-55.84011537017758
 31
0.0
  0
ELLIPSE
  5
124BD
330
12466
100
AcDbEntity
  8
0
100
AcDbEllipse
 10
-39.39999999999999
 20
-56.26437943888959
 30
0.0
 11
-0.6000000000001095
 21
0.0000000000000176
 31
0.0
210
0.0
220
0.0
230
1.0
 40
0.7071067811865188
 41
4.712388980384725
 42
6.283185307179627
  0
ARC
  5
124BE
330
12466
100
AcDbEntity
  8
0
100
AcDbCircle
 10
39.40000000000001
 20
-2.099999999999972
 30
0.0
 40
0.6000000000000006
100
AcDbArc
 50
0.0
 51
90.0
  0
ARC
  5
124BF
330
12466
100
AcDbEntity
  8
0
100
AcDbCircle
 10
39.40000000000001
 20
-2.099999999999972
 30
0.0
 40
2.100000000000008
100
AcDbArc
 50
0.0
 51
90.0
  0
ARC
  5
124C0
330
12466
100
AcDbEntity
  8
0
100
AcDbCircle
 10
-39.40000000000001
 20
-2.100000000000008
 30
0.0
 40
0.6000000000000006
100
AcDbArc
 50
90.0
 51
180.0
  0
ARC
  5
124C1
330
12466
100
AcDbEntity
  8
0
100
AcDbCircle
 10
-39.40000000000001
 20
-2.100000000000008
 30
0.0
 40
2.100000000000004
100
AcDbArc
 50
90.0
 51
180.0
  0
ENDBLK
  5
12468
330
12466
100
AcDbEntity
  8
0
100
AcDbBlockEnd
  0
BLOCK
  5
124C3
330
124C2
100
AcDbEntity
  8
0
100
AcDbBlockBegin
  2
SPR80_400-Bottom
 70
     0
 10
0.0
 20
0.0
 30
0.0
  3
SPR80_400-Bottom
  1

  0
LINE
  5
124C5
330
124C2
100
AcDbEntity
  8
0
100
AcDbLine
 10
82.527090561
 20
1.499999999999949
 30
0.0
 11
77.52709056100001
 21
1.499999999999952
 31
0.0
  0
LINE
  5
124C6
330
124C2
100
AcDbEntity
  8
0
100
AcDbLine
 10
77.52709056100001
 20
1.499999999999952
 30
0.0
 11
77.52709056100001
 21
0.0
 31
0.0
  0
LINE
  5
124C7
330
124C2
100
AcDbEntity
  8
0
100
AcDbLine
 10
77.52709056100001
 20
0.0
 30
0.0
 11
82.527090561
 21
0.0
 31
0.0
  0
LINE
  5
124C8
330
124C2
100
AcDbEntity
  8
0
100
AcDbLine
 10
82.527090561
 20
0.0
 30
0.0
 11
82.527090561
 21
1.499999999999949
 31
0.0
  0
LINE
  5
124C9
330
124C2
100
AcDbEntity
  8
0
100
AcDbLine
 10
-82.52709056100004
 20
0.0
 30
0.0
 11
-77.52709056100004
 21
0.0
 31
0.0
  0
LINE
  5
124CA
330
124C2
100
AcDbEntity
  8
0
100
AcDbLine
 10
-77.52709056100004
 20
1.50000000000003
 30
0.0
 11
-82.52709056100004
 21
1.500000000000032
 31
0.0
  0
LINE
  5
124CB
330
124C2
100
AcDbEntity
  8
0
100
AcDbLine
 10
-82.52709056100004
 20
1.500000000000032
 30
0.0
 11
-82.52709056100004
 21
0.0
 31
0.0
  0
LINE
  5
124CC
330
124C2
100
AcDbEntity
  8
0
100
AcDbLine
 10
-77.52709056100004
 20
0.0
 30
0.0
 11
-77.52709056100004
 21
1.50000000000003
 31
0.0
  0
LINE
  5
124CD
330
124C2
100
AcDbEntity
  8
0
100
AcDbLine
 10
77.52709056100001
 20
0.0
 30
0.0
 11
36.49999999999999
 21
0.0
 31
0.0
  0
LINE
  5
124CE
330
124C2
100
AcDbEntity
  8
0
100
AcDbLine
 10
-36.50000000000001
 20
0.0
 30
0.0
 11
-77.52709056100002
 21
0.0
 31
0.0
  0
LINE
  5
124CF
330
124C2
100
AcDbEntity
  8
0
100
AcDbLine
 10
-39.17856242236229
 20
1.500000000000014
 30
0.0
 11
-77.52709056100004
 21
1.50000000000003
 31
0.0
  0
LINE
  5
124D0
330
124C2
100
AcDbEntity
  8
0
100
AcDbLine
 10
77.52709056100001
 20
1.499999999999952
 30
0.0
 11
39.17856242236226
 21
1.499999999999971
 31
0.0
  0
LINE
  5
124D1
330
124C2
100
AcDbEntity
  8
0
100
AcDbLine
 10
36.49999999999999
 20
0.0
 30
0.0
 11
35.01767776087193
 21
0.0
 31
0.0
  0
LINE
  5
124D2
330
124C2
100
AcDbEntity
  8
0
100
AcDbLine
 10
-35.01767776087195
 20
0.0
 30
0.0
 11
-36.50000000000001
 21
0.0
 31
0.0
  0
SPLINE
  5
124D3
330
124C2
100
AcDbEntity
  8
0
100
AcDbSpline
210
0.0
220
0.0
230
1.0
 70
     8
 71
     3
 72
     8
 73
     4
 74
     0
 42
0.000000001
 43
0.0000000001
 40
0.0
 40
0.0
 40
0.0
 40
0.0
 40
1.0
 40
1.0
 40
1.0
 40
1.0
 10
-35.14054197002052
 20
0.6150757595082699
 30
0.0
 10
-35.01586474390245
 20
0.2539843833468153
 30
0.0
 10
-34.97251992073993
 20
0.0000000000000196
 30
0.0
 10
-35.01767776087194
 20
0.0000000000000197
 30
0.0
  0
SPLINE
  5
124D4
330
124C2
100
AcDbEntity
  8
0
100
AcDbSpline
210
0.0
220
0.0
230
1.0
 70
     8
 71
     3
 72
     8
 73
     4
 74
     0
 42
0.000000001
 43
0.0000000001
 40
0.0
 40
0.0
 40
0.0
 40
0.0
 40
1.0
 40
1.0
 40
1.0
 40
1.0
 10
35.01767776087195
 20
0.0000000000000042
 30
0.0
 10
34.97251992073988
 20
0.000000000000004
 30
0.0
 10
35.01586474390217
 20
0.2539843833467764
 30
0.0
 10
35.1405419700205
 20
0.6150757595082544
 30
0.0
  0
SPLINE
  5
124D5
330
124C2
100
AcDbEntity
  8
0
100
AcDbSpline
210
0.0
220
0.0
230
1.0
 70
     8
 71
     3
 72
     8
 73
     4
 74
     0
 42
0.000000001
 43
0.0000000001
 40
0.0
 40
0.0
 40
0.0
 40
0.0
 40
1.0
 40
1.0
 40
1.0
 40
1.0
 10
-41.50000000000008
 20
4.362741700911036
 30
0.0
 10
-41.49999999999993
 20
3.178158037513796
 30
0.0
 10
-40.49955742875638
 20
2.063659161980805
 30
0.0
 10
-39.4
 20
1.656580012761243
 30
0.0
  0
LINE
  5
124D6
330
124C2
100
AcDbEntity
  8
0
100
AcDbLine
 10
-39.40000000000001
 20
1.656580012761253
 30
0.0
 11
-38.79315533855965
 21
1.227476037518718
 31
0.0
  0
LINE
  5
124D7
330
124C2
100
AcDbEntity
  8
0
100
AcDbLine
 10
-38.79315533855965
 20
1.227476037518718
 30
0.0
 11
-36.50000000000001
 21
1.227476037518715
 31
0.0
  0
ELLIPSE
  5
124D8
330
124C2
100
AcDbEntity
  8
0
100
AcDbEllipse
 10
-36.50000000000001
 20
0.1668158657389237
 30
0.0
 11
1.5
 21
-0.0000000000000003
 31
0.0
210
0.0
220
0.0
230
1.0
 40
0.7071067811865474
 41
0.4363380716279864
 42
1.570796326794896
  0
LINE
  5
124D9
330
124C2
100
AcDbEntity
  8
0
100
AcDbLine
 10
-35.01767776087195
 20
0.1805170265381398
 30
0.0
 11
-35.01767776087195
 21
0.0
 31
0.0
  0
SPLINE
  5
124DA
330
124C2
100
AcDbEntity
  8
0
100
AcDbSpline
210
0.0
220
0.0
230
1.0
 70
     8
 71
     3
 72
     8
 73
     4
 74
     0
 42
0.000000001
 43
0.0000000001
 40
0.0
 40
0.0
 40
0.0
 40
0.0
 40
1.0
 40
1.0
 40
1.0
 40
1.0
 10
39.39999999999998
 20
1.656580012761208
 30
0.0
 10
40.49955742875633
 20
2.063659161981307
 30
0.0
 10
41.49999999999991
 20
3.178158037514054
 30
0.0
 10
41.50000000000006
 20
4.362741700911005
 30
0.0
  0
ELLIPSE
  5
124DB
330
124C2
100
AcDbEntity
  8
0
100
AcDbEllipse
 10
36.49999999999999
 20
0.1668158657389084
 30
0.0
 11
1.5
 21
-0.00000000000011
 31
0.0
210
0.0
220
0.0
230
1.0
 40
0.7071067811865475
 41
1.570796326795022
 42
2.705254581962059
  0
LINE
  5
124DC
330
124C2
100
AcDbEntity
  8
0
100
AcDbLine
 10
36.49999999999999
 20
1.227476037518684
 30
0.0
 11
38.79315533855963
 21
1.227476037518692
 31
0.0
  0
LINE
  5
124DD
330
124C2
100
AcDbEntity
  8
0
100
AcDbLine
 10
38.79315533855963
 20
1.227476037518692
 30
0.0
 11
39.39999999999999
 21
1.656580012761225
 31
0.0
  0
LINE
  5
124DE
330
124C2
100
AcDbEntity
  8
0
100
AcDbLine
 10
35.01767776087193
 20
0.1805170265380515
 30
0.0
 11
35.01767776087193
 21
0.0
 31
0.0
  0
LINE
  5
124DF
330
124C2
100
AcDbEntity
  8
0
100
AcDbLine
 10
24.98943351399742
 20
0.0
 30
0.0
 11
35.01767776087193
 21
0.0
 31
0.0
  0
LINE
  5
124E0
330
124C2
100
AcDbEntity
  8
0
100
AcDbLine
 10
4.989433513812945
 20
0.0
 30
0.0
 11
20.01056648600255
 21
0.0
 31
0.0
  0
LINE
  5
124E1
330
124C2
100
AcDbEntity
  8
0
100
AcDbLine
 10
-20.01056648600258
 20
0.0
 30
0.0
 11
-4.989433513812961
 21
0.0
 31
0.0
  0
LINE
  5
124E2
330
124C2
100
AcDbEntity
  8
0
100
AcDbLine
 10
-35.01767776087195
 20
0.0
 30
0.0
 11
-24.98943351399745
 21
0.0
 31
0.0
  0
LINE
  5
124E3
330
124C2
100
AcDbEntity
  8
0
100
AcDbLine
 10
41.49999999999997
 20
56.26437943888952
 30
0.0
 11
41.49999999999995
 21
82.00306627385996
 31
0.0
  0
LINE
  5
124E4
330
124C2
100
AcDbEntity
  8
0
100
AcDbLine
 10
-41.49999999999994
 20
82.00306627386
 30
0.0
 11
-41.49999999999997
 21
56.26437943888952
 31
0.0
  0
LINE
  5
124E5
330
124C2
100
AcDbEntity
  8
0
100
AcDbLine
 10
-39.99999999999997
 20
82.00306627385996
 30
0.0
 11
-39.99999999999997
 21
56.26437943888952
 31
0.0
  0
LINE
  5
124E6
330
124C2
100
AcDbEntity
  8
0
100
AcDbLine
 10
-39.39999999999999
 20
55.8401153701776
 30
0.0
 11
39.4
 21
55.84011537017758
 31
0.0
  0
LINE
  5
124E7
330
124C2
100
AcDbEntity
  8
0
100
AcDbLine
 10
39.99999999999999
 20
56.26437943888952
 30
0.0
 11
39.99999999999999
 21
82.00306627385996
 31
0.0
  0
LINE
  5
124E8
330
124C2
100
AcDbEntity
  8
0
100
AcDbLine
 10
-39.39999999999999
 20
54.77945519839778
 30
0.0
 11
39.4
 21
54.77945519839777
 31
0.0
  0
LINE
  5
124E9
330
124C2
100
AcDbEntity
  8
0
100
AcDbLine
 10
24.98943351399742
 20
0.0
 30
0.0
 11
20.01056648600255
 21
0.0
 31
0.0
  0
LINE
  5
124EA
330
124C2
100
AcDbEntity
  8
0
100
AcDbLine
 10
-20.01056648600258
 20
0.0
 30
0.0
 11
-24.98943351399745
 21
0.0
 31
0.0
  0
ELLIPSE
  5
124EB
330
124C2
100
AcDbEntity
  8
0
100
AcDbEllipse
 10
-22.50000000000001
 20
0.1668158657389272
 30
0.0
 11
-2.5
 21
0.0000000000000008
 31
0.0
210
0.0
220
0.0
230
1.0
 40
0.7071067811865475
 41
3.397965980608286
 42
6.026811980161093
  0
SPLINE
  5
124EC
330
124C2
100
AcDbEntity
  8
0
100
AcDbSpline
210
0.0
220
0.0
230
1.0
 70
     8
 71
     3
 72
     8
 73
     4
 74
     0
 42
0.000000001
 43
0.0000000001
 40
0.0
 40
0.0
 40
0.0
 40
0.0
 40
1.0
 40
1.0
 40
1.0
 40
1.0
 10
-24.98943351399745
 20
0.0000000000000175
 30
0.0
 10
-25.01609483643936
 20
0.0000000000000175
 30
0.0
 10
-24.99189972302012
 20
0.2358409403968805
 30
0.0
 10
-24.91828991960762
 20
0.6150757595082677
 30
0.0
  0
LINE
  5
124ED
330
124C2
100
AcDbEntity
  8
0
100
AcDbLine
 10
-24.98943351399745
 20
0.1805170265381093
 30
0.0
 11
-24.98943351399745
 21
0.0
 31
0.0
  0
LINE
  5
124EE
330
124C2
100
AcDbEntity
  8
0
100
AcDbLine
 10
-20.01056648600258
 20
0.1805170265380809
 30
0.0
 11
-20.01056648600258
 21
0.0
 31
0.0
  0
SPLINE
  5
124EF
330
124C2
100
AcDbEntity
  8
0
100
AcDbSpline
210
0.0
220
0.0
230
1.0
 70
     8
 71
     3
 72
     8
 73
     4
 74
     0
 42
0.000000001
 43
0.0000000001
 40
0.0
 40
0.0
 40
0.0
 40
0.0
 40
1.0
 40
1.0
 40
1.0
 40
1.0
 10
-20.08171008039241
 20
0.6150757595082656
 30
0.0
 10
-20.00810027697966
 20
0.235840940396788
 30
0.0
 10
-19.98390516356066
 20
0.0000000000000161
 30
0.0
 10
-20.01056648600258
 20
0.0000000000000164
 30
0.0
  0
LINE
  5
124F0
330
124C2
100
AcDbEntity
  8
0
100
AcDbLine
 10
-24.14171865077702
 20
1.5
 30
0.0
 11
-20.85828134922299
 21
1.499999999999998
 31
0.0
  0
ELLIPSE
  5
124F1
330
124C2
100
AcDbEntity
  8
0
100
AcDbEllipse
 10
22.49999999999999
 20
0.1668158657389175
 30
0.0
 11
-2.5
 21
0.0000000000000006
 31
0.0
210
0.0
220
0.0
230
1.0
 40
0.7071067811865475
 41
3.397965980608285
 42
6.026811980161093
  0
SPLINE
  5
124F2
330
124C2
100
AcDbEntity
  8
0
100
AcDbSpline
210
0.0
220
0.0
230
1.0
 70
     8
 71
     3
 72
     8
 73
     4
 74
     0
 42
0.000000001
 43
0.0000000001
 40
0.0
 40
0.0
 40
0.0
 40
0.0
 40
1.0
 40
1.0
 40
1.0
 40
1.0
 10
20.01056648600255
 20
0.0000000000000075
 30
0.0
 10
19.98390516356064
 20
0.0000000000000074
 30
0.0
 10
20.00810027697975
 20
0.2358409403969081
 30
0.0
 10
20.08171008039238
 20
0.6150757595082577
 30
0.0
  0
LINE
  5
124F3
330
124C2
100
AcDbEntity
  8
0
100
AcDbLine
 10
20.01056648600255
 20
0.1805170265381034
 30
0.0
 11
20.01056648600255
 21
0.0
 31
0.0
  0
LINE
  5
124F4
330
124C2
100
AcDbEntity
  8
0
100
AcDbLine
 10
24.98943351399742
 20
0.1805170265380654
 30
0.0
 11
24.98943351399742
 21
0.0
 31
0.0
  0
SPLINE
  5
124F5
330
124C2
100
AcDbEntity
  8
0
100
AcDbSpline
210
0.0
220
0.0
230
1.0
 70
     8
 71
     3
 72
     8
 73
     4
 74
     0
 42
0.000000001
 43
0.0000000001
 40
0.0
 40
0.0
 40
0.0
 40
0.0
 40
1.0
 40
1.0
 40
1.0
 40
1.0
 10
24.9182899196076
 20
0.6150757595082565
 30
0.0
 10
24.99189972302016
 20
0.2358409403967126
 30
0.0
 10
25.0160948364393
 20
0.000000000000006
 30
0.0
 10
24.98943351399742
 20
0.0000000000000064
 30
0.0
  0
LINE
  5
124F6
330
124C2
100
AcDbEntity
  8
0
100
AcDbLine
 10
20.85828134922297
 20
1.49999999999999
 30
0.0
 11
24.141718650777
 21
1.499999999999988
 31
0.0
  0
LINE
  5
124F7
330
124C2
100
AcDbEntity
  8
0
100
AcDbLine
 10
4.989433513812945
 20
0.0
 30
0.0
 11
2.499999999999995
 21
0.0
 31
0.0
  0
LINE
  5
124F8
330
124C2
100
AcDbEntity
  8
0
100
AcDbLine
 10
2.499999999999994
 20
0.0
 30
0.0
 11
-2.500000000000014
 21
0.0
 31
0.0
  0
LINE
  5
124F9
330
124C2
100
AcDbEntity
  8
0
100
AcDbLine
 10
-2.500000000000013
 20
0.0
 30
0.0
 11
-4.989433513812962
 21
0.0
 31
0.0
  0
SPLINE
  5
124FA
330
124C2
100
AcDbEntity
  8
0
100
AcDbSpline
210
0.0
220
0.0
230
1.0
 70
     8
 71
     3
 72
     8
 73
     4
 74
     0
 42
0.000000001
 43
0.0000000001
 40
0.0
 40
0.0
 40
0.0
 40
0.0
 40
1.0
 40
1.0
 40
1.0
 40
1.0
 10
-4.989433513812963
 20
0.000000000000013
 30
0.0
 10
-5.01609483648541
 20
0.000000000000013
 30
0.0
 10
-4.991899723307195
 20
0.2358409403404492
 30
0.0
 10
-4.918289920131945
 20
0.6150757595082633
 30
0.0
  0
SPLINE
  5
124FB
330
124C2
100
AcDbEntity
  8
0
100
AcDbSpline
210
0.0
220
0.0
230
1.0
 70
     8
 71
     3
 72
     8
 73
     4
 74
     0
 42
0.000000001
 43
0.0000000001
 40
0.0
 40
0.0
 40
0.0
 40
0.0
 40
1.0
 40
1.0
 40
1.0
 40
1.0
 10
4.918289920131907
 20
0.615075759508261
 30
0.0
 10
4.991899723307191
 20
0.2358409403404309
 30
0.0
 10
5.016094836485295
 20
0.0000000000000106
 30
0.0
 10
4.989433513812949
 20
0.0000000000000108
 30
0.0
  0
ELLIPSE
  5
124FC
330
124C2
100
AcDbEntity
  8
0
100
AcDbEllipse
 10
-2.500000000000008
 20
0.166815867153261
 30
0.0
 11
-2.5
 21
0.0000000000000004
 31
0.0
210
0.0
220
0.0
230
1.0
 40
0.7071067811865475
 41
4.712388980384689
 42
6.026811980988197
  0
LINE
  5
124FD
330
124C2
100
AcDbEntity
  8
0
100
AcDbLine
 10
-2.500000000000008
 20
1.934582820119596
 30
0.0
 11
2.499999999999987
 21
1.934582820119594
 31
0.0
  0
ELLIPSE
  5
124FE
330
124C2
100
AcDbEntity
  8
0
100
AcDbEllipse
 10
2.499999999999986
 20
0.1668158671532056
 30
0.0
 11
2.5
 21
-0.0000000000000006
 31
0.0
210
0.0
220
0.0
230
1.0
 40
0.7071067811865472
 41
0.2563733261914187
 42
1.570796326794896
  0
LINE
  5
124FF
330
124C2
100
AcDbEntity
  8
0
100
AcDbLine
 10
-4.989433513812962
 20
0.1805170296372793
 30
0.0
 11
-4.989433513812962
 21
0.0
 31
0.0
  0
LINE
  5
12500
330
124C2
100
AcDbEntity
  8
0
100
AcDbLine
 10
4.989433513812945
 20
0.1805170296371858
 30
0.0
 11
4.989433513812945
 21
0.0
 31
0.0
  0
LINE
  5
12501
330
124C2
100
AcDbEntity
  8
0
100
AcDbLine
 10
2.499999999999996
 20
1.499999999999993
 30
0.0
 11
4.14171865307399
 21
1.499999999999992
 31
0.0
  0
LINE
  5
12502
330
124C2
100
AcDbEntity
  8
0
100
AcDbLine
 10
-2.500000000000012
 20
1.499999999999995
 30
0.0
 11
2.499999999999996
 21
1.499999999999993
 31
0.0
  0
LINE
  5
12503
330
124C2
100
AcDbEntity
  8
0
100
AcDbLine
 10
-4.141718653074095
 20
1.499999999999996
 30
0.0
 11
-2.500000000000013
 21
1.499999999999996
 31
0.0
  0
LINE
  5
12504
330
124C2
100
AcDbEntity
  8
0
100
AcDbLine
 10
41.5
 20
2.099999999999963
 30
0.0
 11
41.50000000000001
 21
4.362741700911009
 31
0.0
  0
LINE
  5
12505
330
124C2
100
AcDbEntity
  8
0
100
AcDbLine
 10
-41.50000000000001
 20
4.362741700911035
 30
0.0
 11
-41.50000000000001
 21
2.1
 31
0.0
  0
LINE
  5
12506
330
124C2
100
AcDbEntity
  8
0
100
AcDbLine
 10
39.99999999999999
 20
82.00306627385996
 30
0.0
 11
41.49999999999995
 21
82.00306627385996
 31
0.0
  0
LINE
  5
12507
330
124C2
100
AcDbEntity
  8
0
100
AcDbLine
 10
-41.49999999999994
 20
82.00306627386
 30
0.0
 11
-39.99999999999997
 21
82.00306627385996
 31
0.0
  0
LINE
  5
12508
330
124C2
100
AcDbEntity
  8
0
100
AcDbLine
 10
41.49999999999997
 20
56.26437943888952
 30
0.0
 11
41.50000000000006
 21
4.362741700911012
 31
0.0
  0
ELLIPSE
  5
12509
330
124C2
100
AcDbEntity
  8
0
100
AcDbEllipse
 10
39.4
 20
56.26437943888956
 30
0.0
 11
0.6000000000001095
 21
0.0000000000000092
 31
0.0
210
0.0
220
0.0
230
1.0
 40
0.7071067811865476
 41
4.712388980384671
 42
6.28318530717946
  0
ELLIPSE
  5
1250A
330
124C2
100
AcDbEntity
  8
0
100
AcDbEllipse
 10
39.4
 20
56.26437943888956
 30
0.0
 11
2.100000000000081
 21
-0.0000000000000271
 31
0.0
210
0.0
220
0.0
230
1.0
 40
0.7071067811865487
 41
4.712388980384758
 42
6.283185307179706
  0
LINE
  5
1250B
330
124C2
100
AcDbEntity
  8
0
100
AcDbLine
 10
-41.50000000000008
 20
4.362741700911032
 30
0.0
 11
-41.49999999999997
 21
56.26437943888952
 31
0.0
  0
ELLIPSE
  5
1250C
330
124C2
100
AcDbEntity
  8
0
100
AcDbEllipse
 10
-39.39999999999999
 20
56.26437943888966
 30
0.0
 11
-2.100000000000181
 21
-0.0000000000000009
 31
0.0
210
0.0
220
0.0
230
1.0
 40
0.7071067811865476
 41
0.0
 42
1.570796326794896
  0
ELLIPSE
  5
1250D
330
124C2
100
AcDbEntity
  8
0
100
AcDbEllipse
 10
-39.39999999999999
 20
56.26437943888959
 30
0.0
 11
-0.6000000000001095
 21
-0.0000000000000176
 31
0.0
210
0.0
220
0.0
230
1.0
 40
0.7071067811865188
 41
0.0
 42
1.570796326794861
  0
ARC
  5
1250E
330
124C2
100
AcDbEntity
  8
0
100
AcDbCircle
 10
39.40000000000001
 20
2.099999999999972
 30
0.0
 40
0.6000000000000006
100
AcDbArc
 50
270.0
 51
343.4444348564503
  0
ARC
  5
1250F
330
124C2
100
AcDbEntity
  8
0
100
AcDbCircle
 10
39.40000000000001
 20
2.099999999999972
 30
0.0
 40
2.100000000000004
100
AcDbArc
 50
343.3984504009796
 51
0.0
  0
ARC
  5
12510
330
124C2
100
AcDbEntity
  8
0
100
AcDbCircle
 10
-39.40000000000001
 20
2.100000000000008
 30
0.0
 40
0.6000000000000007
100
AcDbArc
 50
196.5555651435536
 51
270.0
  0
ARC
  5
12511
330
124C2
100
AcDbEntity
  8
0
100
AcDbCircle
 10
-39.40000000000001
 20
2.100000000000008
 30
0.0
 40
2.100000000000004
100
AcDbArc
 50
180.0
 51
196.60154959902
  0
ENDBLK
  5
124C4
330
124C2
100
AcDbEntity
  8
0
100
AcDbBlockEnd
  0
BLOCK
  5
12513
330
12512
100
AcDbEntity
  8
0
100
AcDbBlockBegin
  2
SPR80_400-ISO
 70
     0
 10
0.0
 20
0.0
 30
0.0
  3
SPR80_400-ISO
  1

  0
LINE
  5
12515
330
12512
100
AcDbEntity
  8
0
100
AcDbLine
 10
86.28487587005796
 20
-153.3010076589497
 30
0.0
 11
82.74934196412521
 21
-155.342249111269
 31
0.0
  0
LINE
  5
12516
330
12512
100
AcDbEntity
  8
0
100
AcDbLine
 10
87.34553604183778
 20
-152.6886352232539
 30
0.0
 11
86.28487587005796
 21
-153.3010076589497
 31
0.0
  0
LINE
  5
12517
330
12512
100
AcDbEntity
  8
0
100
AcDbLine
 10
86.28487587005793
 20
-99.41223331771979
 30
0.0
 11
87.34553604183776
 21
-98.799860882024
 31
0.0
  0
LINE
  5
12518
330
12512
100
AcDbEntity
  8
0
100
AcDbLine
 10
87.34553604183776
 20
-98.799860882024
 30
0.0
 11
83.81000213590501
 21
-92.67613652506604
 31
0.0
  0
LINE
  5
12519
330
12512
100
AcDbEntity
  8
0
100
AcDbLine
 10
-26.89052095856822
 20
-92.04164473893834
 30
0.0
 11
-30.42605486450096
 21
-85.9179203819804
 31
0.0
  0
LINE
  5
1251A
330
12512
100
AcDbEntity
  8
0
100
AcDbLine
 10
82.7493419641252
 20
-93.28850896076183
 30
0.0
 11
86.28487587005793
 21
-99.41223331771979
 31
0.0
  0
LINE
  5
1251B
330
12512
100
AcDbEntity
  8
0
100
AcDbLine
 10
83.81000213590501
 20
-92.67613652506604
 30
0.0
 11
82.7493419641252
 21
-93.28850896076183
 31
0.0
  0
LINE
  5
1251C
330
12512
100
AcDbEntity
  8
0
100
AcDbLine
 10
87.34553604183776
 20
-98.799860882024
 30
0.0
 11
87.34553604183778
 21
-152.6886352232539
 31
0.0
  0
LINE
  5
1251D
330
12512
100
AcDbEntity
  8
0
100
AcDbLine
 10
86.28487587005793
 20
-99.41223331771979
 30
0.0
 11
86.28487587005796
 21
-153.3010076589497
 31
0.0
  0
LINE
  5
1251E
330
12512
100
AcDbEntity
  8
0
100
AcDbLine
 10
-1.415520916463242
 20
-43.47115784895461
 30
0.0
 11
3.180673161249321
 21
-46.12477173696972
 31
0.0
  0
LINE
  5
1251F
330
12512
100
AcDbEntity
  8
0
100
AcDbLine
 10
56.21368175024042
 20
-76.74339352175943
 30
0.0
 11
83.81000213590501
 21
-92.67613652506604
 31
0.0
  0
LINE
  5
12520
330
12512
100
AcDbEntity
  8
0
100
AcDbLine
 10
-30.42605486450096
 20
-85.9179203819804
 30
0.0
 11
-30.42605486450096
 21
-55.70754688765453
 31
0.0
  0
LINE
  5
12521
330
12512
100
AcDbEntity
  8
0
100
AcDbLine
 10
55.15302157846061
 20
-77.35576595745524
 30
0.0
 11
82.7493419641252
 21
-93.28850896076183
 31
0.0
  0
LINE
  5
12522
330
12512
100
AcDbEntity
  8
0
100
AcDbLine
 10
2.120012989469501
 20
-108.7908843231726
 30
0.0
 11
-26.89052095856822
 21
-92.04164473893834
 31
0.0
  0
LINE
  5
12523
330
12512
100
AcDbEntity
  8
0
100
AcDbLine
 10
82.74934196412521
 20
-155.342249111269
 30
0.0
 11
53.73880801608749
 21
-138.5930095270346
 31
0.0
  0
LINE
  5
12524
330
12512
100
AcDbEntity
  8
0
100
AcDbLine
 10
-2.476181088243061
 20
-44.0835302846504
 30
0.0
 11
2.120012989469497
 21
-46.73714417266551
 31
0.0
  0
LINE
  5
12525
330
12512
100
AcDbEntity
  8
0
100
AcDbLine
 10
3.180673161249321
 20
-46.12477173696972
 30
0.0
 11
2.120012989469497
 21
-46.73714417266551
 31
0.0
  0
ELLIPSE
  5
12526
330
12512
100
AcDbEntity
  8
0
100
AcDbEllipse
 10
2.120012989469497
 20
-45.51239930127391
 30
0.0
 11
0.750000000000001
 21
-1.299038105676658
 31
0.0
210
0.0
220
0.0
230
1.0
 40
0.5773502691896259
 41
5.497787143782137
 42
8.63937979737193
  0
ELLIPSE
  5
12527
330
12512
100
AcDbEntity
  8
0
100
AcDbEllipse
 10
50.20327411015475
 20
181.8818984870978
 30
0.0
 11
1.250000000000129
 21
-2.165063509461022
 31
0.0
210
0.0
220
0.0
230
1.0
 40
0.577350269189626
 41
3.579741684173537
 42
4.454997905016222
  0
ELLIPSE
  5
12528
330
12512
100
AcDbEntity
  8
0
100
AcDbEllipse
 10
50.20327411015475
 20
-79.39700740977449
 30
0.0
 11
1.250000000000001
 21
-2.165063509461096
 31
0.0
210
0.0
220
0.0
230
1.0
 40
0.577350269189626
 41
4.999145532596273
 42
5.845036276595418
  0
ELLIPSE
  5
12529
330
12512
100
AcDbEntity
  8
0
100
AcDbEllipse
 10
49.14261393837493
 20
181.269526051402
 30
0.0
 11
-1.250000000000001
 21
2.165063509461097
 31
0.0
210
0.0
220
0.0
230
1.0
 40
0.5773502691896258
 41
4.969780055752924
 42
7.596590558606238
  0
ELLIPSE
  5
1252A
330
12512
100
AcDbEntity
  8
0
100
AcDbEllipse
 10
49.14261393837492
 20
-80.00937984547029
 30
0.0
 11
1.250000000000001
 21
-2.165063509461097
 31
0.0
210
0.0
220
0.0
230
1.0
 40
0.5773502691896258
 41
4.999145532596278
 42
7.567225081762895
  0
ELLIPSE
  5
1252B
330
12512
100
AcDbEntity
  8
0
100
AcDbEllipse
 10
50.20327411015475
 20
-112.0568706468835
 30
0.0
 11
1.250000000000129
 21
-2.165063509461022
 31
0.0
210
0.0
220
0.0
230
1.0
 40
0.577350269189626
 41
3.579741684173546
 42
5.845036276594999
  0
ELLIPSE
  5
1252C
330
12512
100
AcDbEntity
  8
0
100
AcDbEllipse
 10
49.14261393837492
 20
-112.6692430825793
 30
0.0
 11
1.25
 21
-2.165063509461096
 31
0.0
210
0.0
220
0.0
230
1.0
 40
0.5773502691896259
 41
0.0
 42
6.283185307179586
  0
ELLIPSE
  5
1252D
330
12512
100
AcDbEntity
  8
0
100
AcDbEllipse
 10
43.13220629828927
 20
-91.64445612369039
 30
0.0
 11
1.250000000000129
 21
-2.165063509461022
 31
0.0
210
0.0
220
0.0
230
1.0
 40
0.577350269189626
 41
3.579741684173546
 42
5.845036276594999
  0
ELLIPSE
  5
1252E
330
12512
100
AcDbEntity
  8
0
100
AcDbEllipse
 10
42.07154612650945
 20
-92.25682855938618
 30
0.0
 11
1.25
 21
-2.165063509461096
 31
0.0
210
0.0
220
0.0
230
1.0
 40
0.5773502691896259
 41
0.0
 42
6.283185307179586
  0
ELLIPSE
  5
1252F
330
12512
100
AcDbEntity
  8
0
100
AcDbEllipse
 10
43.13220629828927
 20
-124.3043193607994
 30
0.0
 11
1.250000000000129
 21
-2.165063509461022
 31
0.0
210
0.0
220
0.0
230
1.0
 40
0.577350269189626
 41
3.579741684173546
 42
5.845036276594999
  0
ELLIPSE
  5
12530
330
12512
100
AcDbEntity
  8
0
100
AcDbEllipse
 10
42.07154612650945
 20
-124.9166917964952
 30
0.0
 11
1.25
 21
-2.165063509461096
 31
0.0
210
0.0
220
0.0
230
1.0
 40
0.5773502691896259
 41
0.0
 42
6.283185307179586
  0
ELLIPSE
  5
12531
330
12512
100
AcDbEntity
  8
0
100
AcDbEllipse
 10
14.84793505082738
 20
202.2943130102909
 30
0.0
 11
1.250000000000129
 21
-2.165063509461022
 31
0.0
210
0.0
220
0.0
230
1.0
 40
0.577350269189626
 41
3.579741684173535
 42
5.845036276594983
  0
ELLIPSE
  5
12532
330
12512
100
AcDbEntity
  8
0
100
AcDbEllipse
 10
14.84793505082738
 20
169.6344497731819
 30
0.0
 11
1.250000000000129
 21
-2.165063509461022
 31
0.0
210
0.0
220
0.0
230
1.0
 40
0.577350269189626
 41
3.579741684173535
 42
5.845036276594983
  0
ELLIPSE
  5
12533
330
12512
100
AcDbEntity
  8
0
100
AcDbEllipse
 10
14.84793505082738
 20
136.9745865360729
 30
0.0
 11
1.250000000000129
 21
-2.165063509461022
 31
0.0
210
0.0
220
0.0
230
1.0
 40
0.577350269189626
 41
3.579741684173546
 42
5.845036276595005
  0
ELLIPSE
  5
12534
330
12512
100
AcDbEntity
  8
0
100
AcDbEllipse
 10
14.84793505082737
 20
104.3147232989638
 30
0.0
 11
1.250000000000129
 21
-2.165063509461022
 31
0.0
210
0.0
220
0.0
230
1.0
 40
0.577350269189626
 41
3.579741684173546
 42
5.845036276595005
  0
ELLIPSE
  5
12535
330
12512
100
AcDbEntity
  8
0
100
AcDbEllipse
 10
14.84793505082737
 20
71.65486006185478
 30
0.0
 11
1.250000000000129
 21
-2.165063509461022
 31
0.0
210
0.0
220
0.0
230
1.0
 40
0.577350269189626
 41
3.579741684173546
 42
5.845036276595005
  0
ELLIPSE
  5
12536
330
12512
100
AcDbEntity
  8
0
100
AcDbEllipse
 10
14.84793505082737
 20
38.99499682474577
 30
0.0
 11
1.250000000000129
 21
-2.165063509461022
 31
0.0
210
0.0
220
0.0
230
1.0
 40
0.577350269189626
 41
3.579741684173546
 42
5.845036276595004
  0
ELLIPSE
  5
12537
330
12512
100
AcDbEntity
  8
0
100
AcDbEllipse
 10
14.84793505082737
 20
6.335133587636718
 30
0.0
 11
1.250000000000129
 21
-2.165063509461022
 31
0.0
210
0.0
220
0.0
230
1.0
 40
0.577350269189626
 41
3.579741684173548
 42
5.845036276594999
  0
ELLIPSE
  5
12538
330
12512
100
AcDbEntity
  8
0
100
AcDbEllipse
 10
14.84793505082737
 20
-26.32472964947233
 30
0.0
 11
1.250000000000129
 21
-2.165063509461022
 31
0.0
210
0.0
220
0.0
230
1.0
 40
0.577350269189626
 41
3.579741684173548
 42
5.845036276595
  0
ELLIPSE
  5
12539
330
12512
100
AcDbEntity
  8
0
100
AcDbEllipse
 10
14.84793505082737
 20
-58.98459288658138
 30
0.0
 11
1.250000000000129
 21
-2.165063509461022
 31
0.0
210
0.0
220
0.0
230
1.0
 40
0.577350269189626
 41
3.579741684173546
 42
5.845036276594999
  0
ELLIPSE
  5
1253A
330
12512
100
AcDbEntity
  8
0
100
AcDbEllipse
 10
13.78727487904755
 20
201.6819405745951
 30
0.0
 11
1.25
 21
-2.165063509461096
 31
0.0
210
0.0
220
0.0
230
1.0
 40
0.5773502691896259
 41
0.0
 42
6.283185307179586
  0
ELLIPSE
  5
1253B
330
12512
100
AcDbEntity
  8
0
100
AcDbEllipse
 10
13.78727487904755
 20
169.0220773374861
 30
0.0
 11
1.25
 21
-2.165063509461096
 31
0.0
210
0.0
220
0.0
230
1.0
 40
0.5773502691896259
 41
0.0
 42
6.283185307179586
  0
ELLIPSE
  5
1253C
330
12512
100
AcDbEntity
  8
0
100
AcDbEllipse
 10
13.78727487904755
 20
136.3622141003771
 30
0.0
 11
1.25
 21
-2.165063509461096
 31
0.0
210
0.0
220
0.0
230
1.0
 40
0.5773502691896259
 41
0.0
 42
6.283185307179586
  0
ELLIPSE
  5
1253D
330
12512
100
AcDbEntity
  8
0
100
AcDbEllipse
 10
13.78727487904755
 20
103.702350863268
 30
0.0
 11
1.25
 21
-2.165063509461096
 31
0.0
210
0.0
220
0.0
230
1.0
 40
0.5773502691896259
 41
0.0
 42
6.283185307179586
  0
ELLIPSE
  5
1253E
330
12512
100
AcDbEntity
  8
0
100
AcDbEllipse
 10
13.78727487904755
 20
71.04248762615899
 30
0.0
 11
1.25
 21
-2.165063509461096
 31
0.0
210
0.0
220
0.0
230
1.0
 40
0.5773502691896259
 41
0.0
 42
6.283185307179586
  0
ELLIPSE
  5
1253F
330
12512
100
AcDbEntity
  8
0
100
AcDbEllipse
 10
13.78727487904755
 20
38.38262438904994
 30
0.0
 11
1.25
 21
-2.165063509461096
 31
0.0
210
0.0
220
0.0
230
1.0
 40
0.5773502691896259
 41
0.0
 42
6.283185307179586
  0
ELLIPSE
  5
12540
330
12512
100
AcDbEntity
  8
0
100
AcDbEllipse
 10
13.78727487904755
 20
5.722761151940929
 30
0.0
 11
1.25
 21
-2.165063509461096
 31
0.0
210
0.0
220
0.0
230
1.0
 40
0.5773502691896259
 41
0.0
 42
6.283185307179586
  0
ELLIPSE
  5
12541
330
12512
100
AcDbEntity
  8
0
100
AcDbEllipse
 10
13.78727487904754
 20
-26.93710208516812
 30
0.0
 11
1.25
 21
-2.165063509461096
 31
0.0
210
0.0
220
0.0
230
1.0
 40
0.5773502691896259
 41
0.0
 42
6.283185307179586
  0
ELLIPSE
  5
12542
330
12512
100
AcDbEntity
  8
0
100
AcDbEllipse
 10
13.78727487904754
 20
-59.59696532227717
 30
0.0
 11
1.25
 21
-2.165063509461096
 31
0.0
210
0.0
220
0.0
230
1.0
 40
0.5773502691896259
 41
0.0
 42
6.283185307179586
  0
ELLIPSE
  5
12543
330
12512
100
AcDbEntity
  8
0
100
AcDbEllipse
 10
14.84793505082737
 20
-91.64445612369041
 30
0.0
 11
1.250000000000129
 21
-2.165063509461021
 31
0.0
210
0.0
220
0.0
230
1.0
 40
0.577350269189626
 41
3.579741684173544
 42
5.845036276594995
  0
ELLIPSE
  5
12544
330
12512
100
AcDbEntity
  8
0
100
AcDbEllipse
 10
13.78727487904754
 20
-92.2568285593862
 30
0.0
 11
1.25
 21
-2.165063509461096
 31
0.0
210
0.0
220
0.0
230
1.0
 40
0.5773502691896259
 41
0.0
 42
6.283185307179586
  0
ELLIPSE
  5
12545
330
12512
100
AcDbEntity
  8
0
100
AcDbEllipse
 10
7.776867238961893
 20
190.046864296375
 30
0.0
 11
1.250000000000129
 21
-2.165063509461022
 31
0.0
210
0.0
220
0.0
230
1.0
 40
0.577350269189626
 41
3.579741684173535
 42
5.845036276594983
  0
ELLIPSE
  5
12546
330
12512
100
AcDbEntity
  8
0
100
AcDbEllipse
 10
7.776867238961893
 20
157.387001059266
 30
0.0
 11
1.250000000000129
 21
-2.165063509461022
 31
0.0
210
0.0
220
0.0
230
1.0
 40
0.577350269189626
 41
3.579741684173546
 42
5.845036276594994
  0
ELLIPSE
  5
12547
330
12512
100
AcDbEntity
  8
0
100
AcDbEllipse
 10
7.776867238961893
 20
124.727137822157
 30
0.0
 11
1.250000000000129
 21
-2.165063509461022
 31
0.0
210
0.0
220
0.0
230
1.0
 40
0.577350269189626
 41
3.579741684173546
 42
5.845036276595003
  0
ELLIPSE
  5
12548
330
12512
100
AcDbEntity
  8
0
100
AcDbEllipse
 10
7.776867238961893
 20
92.06727458504794
 30
0.0
 11
1.250000000000129
 21
-2.165063509461022
 31
0.0
210
0.0
220
0.0
230
1.0
 40
0.577350269189626
 41
3.579741684173546
 42
5.845036276595003
  0
ELLIPSE
  5
12549
330
12512
100
AcDbEntity
  8
0
100
AcDbEllipse
 10
7.776867238961888
 20
59.40741134793888
 30
0.0
 11
1.250000000000129
 21
-2.165063509461022
 31
0.0
210
0.0
220
0.0
230
1.0
 40
0.577350269189626
 41
3.579741684173546
 42
5.845036276595003
  0
ELLIPSE
  5
1254A
330
12512
100
AcDbEntity
  8
0
100
AcDbEllipse
 10
7.776867238961888
 20
26.74754811082986
 30
0.0
 11
1.250000000000129
 21
-2.165063509461022
 31
0.0
210
0.0
220
0.0
230
1.0
 40
0.577350269189626
 41
3.579741684173546
 42
5.845036276595003
  0
ELLIPSE
  5
1254B
330
12512
100
AcDbEntity
  8
0
100
AcDbEllipse
 10
7.776867238961888
 20
-5.912315126279192
 30
0.0
 11
1.250000000000128
 21
-2.165063509461022
 31
0.0
210
0.0
220
0.0
230
0.9999999999999998
 40
0.5773502691896261
 41
3.579741684173555
 42
5.845036276594999
  0
ELLIPSE
  5
1254C
330
12512
100
AcDbEntity
  8
0
100
AcDbEllipse
 10
7.776867238961888
 20
-38.57217836338822
 30
0.0
 11
1.250000000000128
 21
-2.165063509461022
 31
0.0
210
0.0
220
0.0
230
0.9999999999999998
 40
0.5773502691896261
 41
3.579741684173555
 42
5.845036276594999
  0
ELLIPSE
  5
1254D
330
12512
100
AcDbEntity
  8
0
100
AcDbEllipse
 10
7.776867238961884
 20
-71.23204160049727
 30
0.0
 11
1.250000000000129
 21
-2.165063509461022
 31
0.0
210
0.0
220
0.0
230
1.0
 40
0.577350269189626
 41
3.579741684173546
 42
5.845036276594999
  0
ELLIPSE
  5
1254E
330
12512
100
AcDbEntity
  8
0
100
AcDbEllipse
 10
6.716207067182069
 20
189.4344918606792
 30
0.0
 11
1.25
 21
-2.165063509461096
 31
0.0
210
0.0
220
0.0
230
1.0
 40
0.5773502691896259
 41
0.0
 42
6.283185307179586
  0
ELLIPSE
  5
1254F
330
12512
100
AcDbEntity
  8
0
100
AcDbEllipse
 10
6.716207067182069
 20
156.7746286235703
 30
0.0
 11
1.25
 21
-2.165063509461096
 31
0.0
210
0.0
220
0.0
230
1.0
 40
0.5773502691896259
 41
0.0
 42
6.283185307179586
  0
ELLIPSE
  5
12550
330
12512
100
AcDbEntity
  8
0
100
AcDbEllipse
 10
6.716207067182069
 20
124.1147653864612
 30
0.0
 11
1.25
 21
-2.165063509461096
 31
0.0
210
0.0
220
0.0
230
1.0
 40
0.5773502691896259
 41
0.0
 42
6.283185307179586
  0
ELLIPSE
  5
12551
330
12512
100
AcDbEntity
  8
0
100
AcDbEllipse
 10
6.716207067182069
 20
91.45490214935215
 30
0.0
 11
1.25
 21
-2.165063509461096
 31
0.0
210
0.0
220
0.0
230
1.0
 40
0.5773502691896259
 41
0.0
 42
6.283185307179586
  0
ELLIPSE
  5
12552
330
12512
100
AcDbEntity
  8
0
100
AcDbEllipse
 10
6.716207067182065
 20
58.7950389122431
 30
0.0
 11
1.25
 21
-2.165063509461096
 31
0.0
210
0.0
220
0.0
230
1.0
 40
0.5773502691896259
 41
0.0
 42
6.283185307179586
  0
ELLIPSE
  5
12553
330
12512
100
AcDbEntity
  8
0
100
AcDbEllipse
 10
6.716207067182065
 20
26.13517567513407
 30
0.0
 11
1.25
 21
-2.165063509461096
 31
0.0
210
0.0
220
0.0
230
1.0
 40
0.5773502691896259
 41
0.0
 42
6.283185307179586
  0
ELLIPSE
  5
12554
330
12512
100
AcDbEntity
  8
0
100
AcDbEllipse
 10
6.716207067182065
 20
-6.524687561974982
 30
0.0
 11
1.25
 21
-2.165063509461096
 31
0.0
210
0.0
220
0.0
230
1.0
 40
0.5773502691896259
 41
0.0
 42
6.283185307179586
  0
ELLIPSE
  5
12555
330
12512
100
AcDbEntity
  8
0
100
AcDbEllipse
 10
6.716207067182065
 20
-39.18455079908404
 30
0.0
 11
1.25
 21
-2.165063509461096
 31
0.0
210
0.0
220
0.0
230
1.0
 40
0.5773502691896259
 41
0.0
 42
6.283185307179586
  0
ELLIPSE
  5
12556
330
12512
100
AcDbEntity
  8
0
100
AcDbEllipse
 10
6.71620706718206
 20
-71.84441403619306
 30
0.0
 11
1.25
 21
-2.165063509461096
 31
0.0
210
0.0
220
0.0
230
1.0
 40
0.5773502691896259
 41
0.0
 42
6.283185307179586
  0
ELLIPSE
  5
12557
330
12512
100
AcDbEntity
  8
0
100
AcDbEllipse
 10
7.776867238961884
 20
-103.8919048376063
 30
0.0
 11
1.250000000000129
 21
-2.165063509461021
 31
0.0
210
0.0
220
0.0
230
1.0
 40
0.5773502691896261
 41
3.579741684173544
 42
5.845036276594998
  0
ELLIPSE
  5
12558
330
12512
100
AcDbEntity
  8
0
100
AcDbEllipse
 10
6.71620706718206
 20
-104.5042772733021
 30
0.0
 11
1.25
 21
-2.165063509461096
 31
0.0
210
0.0
220
0.0
230
1.0
 40
0.5773502691896259
 41
0.0
 42
6.283185307179586
  0
ELLIPSE
  5
12559
330
12512
100
AcDbEntity
  8
0
100
AcDbEllipse
 10
-8.505744647717975
 20
-45.50133962605793
 30
0.0
 11
1.25
 21
-2.165063509461096
 31
0.0
210
0.0
220
0.0
230
0.9999999999999998
 40
0.5773502691896262
 41
5.508682942396017
 42
5.845036276595416
  0
ELLIPSE
  5
1255A
330
12512
100
AcDbEntity
  8
0
100
AcDbEllipse
 10
62.24324530971529
 20
-86.34828802287616
 30
0.0
 11
1.250000000000129
 21
-2.165063509461021
 31
0.0
210
0.0
220
0.0
230
1.0
 40
0.5773502691896259
 41
3.579741684173544
 42
5.845036276594997
  0
ELLIPSE
  5
1255B
330
12512
100
AcDbEntity
  8
0
100
AcDbEllipse
 10
-9.566404819497797
 20
-46.11371206175373
 30
0.0
 11
1.25
 21
-2.165063509461096
 31
0.0
210
0.0
220
0.0
230
1.0
 40
0.5773502691896259
 41
5.508682942396017
 42
7.057687671963151
  0
ELLIPSE
  5
1255C
330
12512
100
AcDbEntity
  8
0
100
AcDbEllipse
 10
61.18258513793548
 20
-86.96066045857197
 30
0.0
 11
1.25
 21
-2.165063509461096
 31
0.0
210
0.0
220
0.0
230
1.0
 40
0.5773502691896259
 41
0.0
 42
6.283185307179586
  0
ELLIPSE
  5
1255D
330
12512
100
AcDbEntity
  8
0
100
AcDbEllipse
 10
-4.263103960598679
 20
-80.61069260595017
 30
0.0
 11
1.250000000000129
 21
-2.165063509461021
 31
0.0
210
0.0
220
0.0
230
1.0
 40
0.5773502691896259
 41
3.579741684173544
 42
5.845036276594998
  0
ELLIPSE
  5
1255E
330
12512
100
AcDbEntity
  8
0
100
AcDbEllipse
 10
66.48588599683458
 20
-121.4576410027683
 30
0.0
 11
1.250000000000129
 21
-2.165063509461021
 31
0.0
210
0.0
220
0.0
230
1.0
 40
0.577350269189626
 41
3.579741684173544
 42
5.845036276594997
  0
ELLIPSE
  5
1255F
330
12512
100
AcDbEntity
  8
0
100
AcDbEllipse
 10
-5.323764132378503
 20
-81.22306504164596
 30
0.0
 11
1.25
 21
-2.165063509461096
 31
0.0
210
0.0
220
0.0
230
1.0
 40
0.5773502691896259
 41
0.0
 42
6.283185307179586
  0
ELLIPSE
  5
12560
330
12512
100
AcDbEntity
  8
0
100
AcDbEllipse
 10
65.42522582505476
 20
-122.0700134384641
 30
0.0
 11
1.25
 21
-2.165063509461096
 31
0.0
210
0.0
220
0.0
230
1.0
 40
0.5773502691896259
 41
0.0
 42
6.283185307179586
  0
ELLIPSE
  5
12561
330
12512
100
AcDbEntity
  8
0
100
AcDbEllipse
 10
44.89997325125564
 20
-133.4899058962363
 30
0.0
 11
1.250000000000129
 21
-2.165063509461022
 31
0.0
210
0.0
220
0.0
230
0.9999999999999998
 40
0.5773502691896259
 41
3.579741684173546
 42
3.835017178248646
  0
ELLIPSE
  5
12562
330
12512
100
AcDbEntity
  8
0
100
AcDbEllipse
 10
13.080168097861
 20
-115.1187328253625
 30
0.0
 11
1.250000000000129
 21
-2.165063509461022
 31
0.0
210
0.0
220
0.0
230
1.0
 40
0.5773502691896259
 41
3.579741684173546
 42
3.835017178248645
  0
ELLIPSE
  5
12563
330
12512
100
AcDbEntity
  8
0
100
AcDbEllipse
 10
12.9622114679875
 20
-115.8457921835789
 30
0.0
 11
-1.249999999999998
 21
-2.165063509461097
 31
0.0
210
0.0
220
0.0
230
0.9999999999999998
 40
0.8164965809277262
 41
4.968762307403181
 42
6.069429174707156
  0
LINE
  5
12564
330
12512
100
AcDbEntity
  8
0
100
AcDbLine
 10
10.93525465633963
 20
-115.4075334639977
 30
0.0
 11
10.43500465643985
 21
-115.1187139918935
 31
0.0
  0
LINE
  5
12565
330
12512
100
AcDbEntity
  8
0
100
AcDbLine
 10
10.43500465643985
 20
-115.1187139918935
 30
0.0
 11
10.18525465633962
 21
-114.9745207621055
 31
0.0
  0
ELLIPSE
  5
12566
330
12512
100
AcDbEntity
  8
0
100
AcDbEllipse
 10
12.21221146798751
 20
-115.4127794816867
 30
0.0
 11
-1.249999999999997
 21
-2.165063509461097
 31
0.0
210
0.0
220
0.0
230
0.9999999999999998
 40
0.816496580927726
 41
4.968762307403189
 42
7.59760830695599
  0
LINE
  5
12567
330
12512
100
AcDbEntity
  8
0
100
AcDbLine
 10
10.25921260702053
 20
-114.5273224562832
 30
0.0
 11
10.61241244460337
 21
-114.323402434977
 31
0.0
  0
SPLINE
  5
12568
330
12512
100
AcDbEntity
  8
0
100
AcDbSpline
210
0.0
220
0.0
230
1.0
 70
     8
 71
     3
 72
     8
 73
     4
 74
     0
 42
0.000000001
 43
0.0000000001
 40
-1.0
 40
-1.0
 40
-1.0
 40
-1.0
 40
0.0
 40
0.0
 40
0.0
 40
0.0
 10
10.18525465633962
 20
-114.9745207621055
 30
0.0
 10
10.20982166868647
 20
-114.8117651429124
 30
0.0
 10
10.24036020512644
 20
-114.6452338152488
 30
0.0
 10
10.25921260702052
 20
-114.5273224562832
 30
0.0
  0
SPLINE
  5
12569
330
12512
100
AcDbEntity
  8
0
100
AcDbSpline
210
0.0
220
0.0
230
1.0
 70
     8
 71
     3
 72
     8
 73
     4
 74
     0
 42
0.000000001
 43
0.0000000001
 40
0.0
 40
0.0
 40
0.0
 40
0.0
 40
1.0
 40
1.0
 40
1.0
 40
1.0
 10
11.31987277880034
 20
-113.9149500205874
 30
0.0
 10
11.30102037690627
 20
-114.3548508752381
 30
0.0
 10
11.15136417744055
 20
-114.9130164878334
 30
0.0
 10
10.93525465633962
 20
-115.4075334639977
 30
0.0
  0
LINE
  5
1256A
330
12512
100
AcDbEntity
  8
0
100
AcDbLine
 10
10.61241244460337
 20
-114.323402434977
 30
0.0
 11
11.31987277880035
 21
-113.9149500205874
 31
0.0
  0
SPLINE
  5
1256B
330
12512
100
AcDbEntity
  8
0
100
AcDbSpline
210
0.0
220
0.0
230
1.0
 70
     8
 71
     3
 72
     8
 73
     4
 74
     0
 42
0.000000001
 43
0.0000000001
 40
-1.0
 40
-1.0
 40
-1.0
 40
-1.0
 40
0.0
 40
0.0
 40
0.0
 40
0.0
 10
13.77980324514181
 20
-116.559936408909
 30
0.0
 10
13.79865564703588
 20
-116.6996166464914
 30
0.0
 10
13.73390005305546
 20
-116.8463927467732
 30
0.0
 10
13.60523305839884
 20
-116.9490462131571
 30
0.0
  0
ELLIPSE
  5
1256C
330
12512
100
AcDbEntity
  8
0
100
AcDbEllipse
 10
12.01950792608118
 20
-115.7311052610582
 30
0.0
 11
-1.25
 21
2.165063509461095
 31
0.0
210
0.0
220
0.0
230
1.0
 40
0.577350269189626
 41
4.018964455725479
 42
6.97660983183879
  0
ELLIPSE
  5
1256D
330
12512
100
AcDbEntity
  8
0
100
AcDbEllipse
 10
44.78201662138213
 20
-134.2169652544528
 30
0.0
 11
-1.249999999999998
 21
-2.165063509461097
 31
0.0
210
0.0
220
0.0
230
0.9999999999999998
 40
0.8164965809277262
 41
4.968762307403182
 42
6.069429174707156
  0
LINE
  5
1256E
330
12512
100
AcDbEntity
  8
0
100
AcDbLine
 10
42.75505980973426
 20
-133.7787065348715
 30
0.0
 11
42.25480980983554
 21
-133.4898870627679
 31
0.0
  0
LINE
  5
1256F
330
12512
100
AcDbEntity
  8
0
100
AcDbLine
 10
42.25480980983554
 20
-133.4898870627679
 30
0.0
 11
42.00505980973426
 21
-133.3456938329793
 31
0.0
  0
ELLIPSE
  5
12570
330
12512
100
AcDbEntity
  8
0
100
AcDbEllipse
 10
44.03201662138215
 20
-133.7839525525605
 30
0.0
 11
-1.249999999999997
 21
-2.165063509461098
 31
0.0
210
0.0
220
0.0
230
1.0
 40
0.8164965809277262
 41
4.968762307403181
 42
7.597608306955987
  0
LINE
  5
12571
330
12512
100
AcDbEntity
  8
0
100
AcDbLine
 10
42.07901776041517
 20
-132.898495527157
 30
0.0
 11
42.43221759799799
 21
-132.6945755058508
 31
0.0
  0
SPLINE
  5
12572
330
12512
100
AcDbEntity
  8
0
100
AcDbSpline
210
0.0
220
0.0
230
1.0
 70
     8
 71
     3
 72
     8
 73
     4
 74
     0
 42
0.000000001
 43
0.0000000001
 40
-1.0
 40
-1.0
 40
-1.0
 40
-1.0
 40
0.0
 40
0.0
 40
0.0
 40
0.0
 10
42.00505980973426
 20
-133.3456938329793
 30
0.0
 10
42.02962682208101
 20
-133.1829382137862
 30
0.0
 10
42.06016535852109
 20
-133.0164068861226
 30
0.0
 10
42.07901776041516
 20
-132.898495527157
 30
0.0
  0
SPLINE
  5
12573
330
12512
100
AcDbEntity
  8
0
100
AcDbSpline
210
0.0
220
0.0
230
1.0
 70
     8
 71
     3
 72
     8
 73
     4
 74
     0
 42
0.000000001
 43
0.0000000001
 40
0.0
 40
0.0
 40
0.0
 40
0.0
 40
1.0
 40
1.0
 40
1.0
 40
1.0
 10
43.13967793219498
 20
-132.2861230914612
 30
0.0
 10
43.12082553030091
 20
-132.726023946112
 30
0.0
 10
42.97116933083508
 20
-133.2841895587072
 30
0.0
 10
42.75505980973426
 20
-133.7787065348715
 30
0.0
  0
LINE
  5
12574
330
12512
100
AcDbEntity
  8
0
100
AcDbLine
 10
42.43221759799799
 20
-132.6945755058508
 30
0.0
 11
43.139677932195
 21
-132.2861230914612
 31
0.0
  0
SPLINE
  5
12575
330
12512
100
AcDbEntity
  8
0
100
AcDbSpline
210
0.0
220
0.0
230
1.0
 70
     8
 71
     3
 72
     8
 73
     4
 74
     0
 42
0.000000001
 43
0.0000000001
 40
-1.0
 40
-1.0
 40
-1.0
 40
-1.0
 40
0.0
 40
0.0
 40
0.0
 40
0.0
 10
45.59960839853644
 20
-134.9311094797828
 30
0.0
 10
45.6184608004305
 20
-135.0707897173653
 30
0.0
 10
45.55370520644999
 20
-135.2175658176469
 30
0.0
 10
45.42503821179349
 20
-135.3202192840309
 30
0.0
  0
ELLIPSE
  5
12576
330
12512
100
AcDbEntity
  8
0
100
AcDbEllipse
 10
43.83931307947581
 20
-134.1022783319321
 30
0.0
 11
-1.25
 21
2.165063509461096
 31
0.0
210
0.0
220
0.0
230
0.9999999999999998
 40
0.577350269189626
 41
4.018964455725479
 42
6.976609831838792
  0
ELLIPSE
  5
12577
330
12512
100
AcDbEntity
  8
0
100
AcDbEllipse
 10
27.22230372159196
 20
-123.2836986362729
 30
0.0
 11
1.25000000000013
 21
-2.165063509461021
 31
0.0
210
0.0
220
0.0
230
1.0
 40
0.5773502691896261
 41
3.579741684173544
 42
3.835017177445183
  0
SPLINE
  5
12578
330
12512
100
AcDbEntity
  8
0
100
AcDbSpline
210
0.0
220
0.0
230
1.0
 70
     8
 71
     3
 72
     8
 73
     4
 74
     0
 42
0.000000001
 43
0.0000000001
 40
-1.0
 40
-1.0
 40
-1.0
 40
-1.0
 40
0.0
 40
0.0
 40
0.0
 40
0.0
 10
24.32739027969982
 20
-123.1394865711687
 30
0.0
 10
24.35195729222583
 20
-122.9767309520527
 30
0.0
 10
24.38249582882483
 20
-122.810199624489
 30
0.0
 10
24.40134823088192
 20
-122.6922882656358
 30
0.0
  0
SPLINE
  5
12579
330
12512
100
AcDbEntity
  8
0
100
AcDbSpline
210
0.0
220
0.0
230
1.0
 70
     8
 71
     3
 72
     8
 73
     4
 74
     0
 42
0.000000001
 43
0.0000000001
 40
0.0
 40
0.0
 40
0.0
 40
0.0
 40
1.0
 40
1.0
 40
1.0
 40
1.0
 10
25.46200840266174
 20
-122.07991582994
 30
0.0
 10
25.44315600060465
 20
-122.5198166844326
 30
0.0
 10
25.29349980100841
 20
-123.0779822969243
 30
0.0
 10
25.07739027969983
 20
-123.5724992730609
 30
0.0
  0
SPLINE
  5
1257A
330
12512
100
AcDbEntity
  8
0
100
AcDbSpline
210
0.0
220
0.0
230
1.0
 70
     8
 71
     3
 72
     8
 73
     4
 74
     0
 42
0.000000001
 43
0.0000000001
 40
-1.0
 40
-1.0
 40
-1.0
 40
-1.0
 40
0.0
 40
0.0
 40
0.0
 40
0.0
 10
31.45747277467505
 20
-126.7661436704302
 30
0.0
 10
31.47632517673207
 20
-126.9058239080885
 30
0.0
 10
31.41156958293337
 20
-127.0526000084671
 30
0.0
 10
31.28290258843328
 20
-127.1552534749677
 30
0.0
  0
ELLIPSE
  5
1257B
330
12512
100
AcDbEntity
  8
0
100
AcDbEllipse
 10
27.10434709071837
 20
-124.0107579945884
 30
0.0
 11
-1.249999999999998
 21
-2.165063509461097
 31
0.0
210
0.0
220
0.0
230
0.9999999999999998
 40
0.8164965809277262
 41
4.968762306576076
 42
6.283185307179585
  0
LINE
  5
1257C
330
12512
100
AcDbEntity
  8
0
100
AcDbLine
 10
25.07739027969983
 20
-123.5724992730609
 30
0.0
 11
24.57714027980015
 21
-123.2836798009567
 31
0.0
  0
LINE
  5
1257D
330
12512
100
AcDbEntity
  8
0
100
AcDbLine
 10
24.57714027980015
 20
-123.2836798009567
 30
0.0
 11
24.32739027969982
 21
-123.1394865711687
 31
0.0
  0
ELLIPSE
  5
1257E
330
12512
100
AcDbEntity
  8
0
100
AcDbEllipse
 10
26.35434709071838
 20
-123.5777452926962
 30
0.0
 11
-1.249999999999999
 21
-2.165063509461097
 31
0.0
210
0.0
220
0.0
230
0.9999999999999998
 40
0.8164965809277262
 41
4.968762306576078
 42
6.283185307179589
  0
LINE
  5
1257F
330
12512
100
AcDbEntity
  8
0
100
AcDbLine
 10
28.63988099665112
 20
-127.7840502544766
 30
0.0
 11
25.10434709071839
 21
-125.7428088021573
 31
0.0
  0
ELLIPSE
  5
12580
330
12512
100
AcDbEntity
  8
0
100
AcDbEllipse
 10
29.88988099665115
 20
-125.6189867450154
 30
0.0
 11
-1.249999999999998
 21
-2.165063509461098
 31
0.0
210
0.0
220
0.0
230
0.9999999999999998
 40
0.8164965809277259
 41
0.0
 42
1.314423000603477
  0
LINE
  5
12581
330
12512
100
AcDbEntity
  8
0
100
AcDbLine
 10
24.40134823088194
 20
-122.6922882656357
 30
0.0
 11
24.75454806846754
 21
-122.488368244328
 31
0.0
  0
LINE
  5
12582
330
12512
100
AcDbEntity
  8
0
100
AcDbLine
 10
24.75454806846754
 20
-122.488368244328
 30
0.0
 11
25.46200840266175
 21
-122.07991582994
 31
0.0
  0
ELLIPSE
  5
12583
330
12512
100
AcDbEntity
  8
0
100
AcDbEllipse
 10
29.69717745574487
 20
-125.9373125242879
 30
0.0
 11
1.249999999999871
 21
-2.165063509461171
 31
0.0
210
0.0
220
0.0
230
0.9999999999999998
 40
0.577350269189626
 41
0.877371802939348
 42
2.35619449019258
  0
LINE
  5
12584
330
12512
100
AcDbEntity
  8
0
100
AcDbLine
 10
26.16164354981213
 20
-121.8548296196494
 30
0.0
 11
29.69717745574487
 21
-123.8960710719687
 31
0.0
  0
ELLIPSE
  5
12585
330
12512
100
AcDbEntity
  8
0
100
AcDbEllipse
 10
26.16164354981213
 20
-123.8960710719686
 30
0.0
 11
-1.250000000000001
 21
2.165063509461097
 31
0.0
210
0.0
220
0.0
230
1.0
 40
0.577350269189626
 41
5.49778714378214
 42
6.976609831035328
  0
LINE
  5
12586
330
12512
100
AcDbEntity
  8
0
100
AcDbLine
 10
56.85007785330833
 20
186.9441772888497
 30
0.0
 11
1.130063495808357
 21
219.114142577402
 31
0.0
  0
LINE
  5
12587
330
12512
100
AcDbEntity
  8
0
100
AcDbLine
 10
27.57585711218543
 20
-89.19496638090736
 30
0.0
 11
27.57585711218544
 21
164.2455723390589
 31
0.0
  0
LINE
  5
12588
330
12512
100
AcDbEntity
  8
0
100
AcDbLine
 10
26.51519694040562
 20
164.8579447747546
 30
0.0
 11
26.51519694040561
 21
-88.58259394521155
 31
0.0
  0
LINE
  5
12589
330
12512
100
AcDbEntity
  8
0
100
AcDbLine
 10
56.85007785330832
 20
-76.37597006034195
 30
0.0
 11
31.11139101811815
 21
-91.23620783322664
 31
0.0
  0
LINE
  5
1258A
330
12512
100
AcDbEntity
  8
0
100
AcDbLine
 10
31.11139101811816
 20
170.3692966960167
 30
0.0
 11
56.85007785330835
 21
185.2295344689014
 31
0.0
  0
LINE
  5
1258B
330
12512
100
AcDbEntity
  8
0
100
AcDbLine
 10
-31.11400572629822
 20
198.1301804475595
 30
0.0
 11
-31.11400572629823
 21
-55.31035827240664
 31
0.0
  0
LINE
  5
1258C
330
12512
100
AcDbEntity
  8
0
100
AcDbLine
 10
-1.83978498517515
 20
219.1141425774021
 30
0.0
 11
-27.57847182036548
 21
204.2539048045175
 31
0.0
  0
LINE
  5
1258D
330
12512
100
AcDbEntity
  8
0
100
AcDbLine
 10
-30.0533455545184
 20
197.5178080118638
 30
0.0
 11
-30.05334555451841
 21
-55.92273070810243
 31
0.0
  0
LINE
  5
1258E
330
12512
100
AcDbEntity
  8
0
100
AcDbLine
 10
56.85007785330835
 20
185.2295344689014
 30
0.0
 11
55.78941768152851
 21
185.8419069045973
 31
0.0
  0
LINE
  5
1258F
330
12512
100
AcDbEntity
  8
0
100
AcDbLine
 10
55.78941768152851
 20
185.8419069045973
 30
0.0
 11
30.05073084633833
 21
170.9816691317125
 31
0.0
  0
LINE
  5
12590
330
12512
100
AcDbEntity
  8
0
100
AcDbLine
 10
0.0694033240285208
 20
-43.10373438753713
 30
0.0
 11
2.120012989469501
 21
-44.28765442988233
 31
0.0
  0
LINE
  5
12591
330
12512
100
AcDbEntity
  8
0
100
AcDbLine
 10
56.85007785330833
 20
186.9441772888497
 30
0.0
 11
55.78941768152851
 21
186.3318048531539
 31
0.0
  0
LINE
  5
12592
330
12512
100
AcDbEntity
  8
0
100
AcDbLine
 10
1.130063495808353
 20
219.114142577402
 30
0.0
 11
0.0694033240285297
 21
218.5017701417063
 31
0.0
  0
LINE
  5
12593
330
12512
100
AcDbEntity
  8
0
100
AcDbLine
 10
-1.83978498517515
 20
219.1141425774021
 30
0.0
 11
-0.7791248133953266
 21
218.5017701417063
 31
0.0
  0
LINE
  5
12594
330
12512
100
AcDbEntity
  8
0
100
AcDbLine
 10
0.0694033240285297
 20
218.5017701417063
 30
0.0
 11
55.78941768152851
 21
186.3318048531539
 31
0.0
  0
LINE
  5
12595
330
12512
100
AcDbEntity
  8
0
100
AcDbLine
 10
-26.51781164858566
 20
-57.96397216042174
 30
0.0
 11
-0.7791248133953355
 21
-43.10373438753713
 31
0.0
  0
LINE
  5
12596
330
12512
100
AcDbEntity
  8
0
100
AcDbLine
 10
-26.51781164858566
 20
203.6415323688217
 30
0.0
 11
-0.7791248133953266
 21
218.5017701417063
 31
0.0
  0
LINE
  5
12597
330
12512
100
AcDbEntity
  8
0
100
AcDbLine
 10
31.11139101811815
 20
-91.23620783322664
 30
0.0
 11
27.57585711218543
 21
-89.19496638090736
 31
0.0
  0
LINE
  5
12598
330
12512
100
AcDbEntity
  8
0
100
AcDbLine
 10
27.57585711218543
 20
-89.19496638090736
 30
0.0
 11
26.51519694040561
 21
-88.58259394521155
 31
0.0
  0
LINE
  5
12599
330
12512
100
AcDbEntity
  8
0
100
AcDbLine
 10
26.51519694040562
 20
164.8579447747546
 30
0.0
 11
27.57585711218544
 21
164.2455723390588
 31
0.0
  0
LINE
  5
1259A
330
12512
100
AcDbEntity
  8
0
100
AcDbLine
 10
27.57585711218544
 20
164.2455723390588
 30
0.0
 11
31.11139101811816
 21
170.3692966960167
 31
0.0
  0
LINE
  5
1259B
330
12512
100
AcDbEntity
  8
0
100
AcDbLine
 10
-26.51781164858566
 20
-57.96397216042174
 30
0.0
 11
-30.05334555451841
 21
-55.92273070810243
 31
0.0
  0
LINE
  5
1259C
330
12512
100
AcDbEntity
  8
0
100
AcDbLine
 10
-30.05334555451841
 20
-55.92273070810243
 30
0.0
 11
-31.11400572629823
 21
-55.31035827240664
 31
0.0
  0
LINE
  5
1259D
330
12512
100
AcDbEntity
  8
0
100
AcDbLine
 10
-27.57847182036548
 20
204.2539048045175
 30
0.0
 11
-31.11400572629822
 21
198.1301804475595
 31
0.0
  0
LINE
  5
1259E
330
12512
100
AcDbEntity
  8
0
100
AcDbLine
 10
-31.11400572629822
 20
198.1301804475595
 30
0.0
 11
-30.0533455545184
 21
197.5178080118638
 31
0.0
  0
LINE
  5
1259F
330
12512
100
AcDbEntity
  8
0
100
AcDbLine
 10
31.11139101811816
 20
170.3692966960167
 30
0.0
 11
30.05073084633833
 21
170.9816691317125
 31
0.0
  0
LINE
  5
125A0
330
12512
100
AcDbEntity
  8
0
100
AcDbLine
 10
30.05073084633833
 20
170.9816691317125
 30
0.0
 11
26.51519694040562
 21
164.8579447747546
 31
0.0
  0
LINE
  5
125A1
330
12512
100
AcDbEntity
  8
0
100
AcDbLine
 10
-30.0533455545184
 20
197.5178080118638
 30
0.0
 11
-26.51781164858566
 21
203.6415323688217
 31
0.0
  0
LINE
  5
125A2
330
12512
100
AcDbEntity
  8
0
100
AcDbLine
 10
-26.51781164858566
 20
203.6415323688217
 30
0.0
 11
-27.57847182036548
 21
204.2539048045175
 31
0.0
  0
LINE
  5
125A3
330
12512
100
AcDbEntity
  8
0
100
AcDbLine
 10
0.350077853463775
 20
-197.7462400272882
 30
0.0
 11
0.3500778534637572
 21
-191.972737335392
 31
0.0
  0
LINE
  5
125A4
330
12512
100
AcDbEntity
  8
0
100
AcDbLine
 10
0.3500778534637572
 20
-191.972737335392
 30
0.0
 11
-0.7105823183160532
 21
-191.3603648996962
 31
0.0
  0
LINE
  5
125A5
330
12512
100
AcDbEntity
  8
0
100
AcDbLine
 10
-0.7105823183160532
 20
-191.3603648996962
 30
0.0
 11
-0.710582318316031
 21
-197.1338675915924
 31
0.0
  0
LINE
  5
125A6
330
12512
100
AcDbEntity
  8
0
100
AcDbLine
 10
-0.710582318316031
 20
-197.1338675915924
 30
0.0
 11
0.350077853463775
 21
-197.7462400272882
 31
0.0
  0
LINE
  5
125A7
330
12512
100
AcDbEntity
  8
0
100
AcDbLine
 10
-58.33978498501963
 20
-158.0881292268914
 30
0.0
 11
-58.33978498501963
 21
-163.8616319187876
 31
0.0
  0
LINE
  5
125A8
330
12512
100
AcDbEntity
  8
0
100
AcDbLine
 10
-58.33978498501963
 20
-163.8616319187876
 30
0.0
 11
-57.27912481323982
 21
-164.4740043544834
 31
0.0
  0
LINE
  5
125A9
330
12512
100
AcDbEntity
  8
0
100
AcDbLine
 10
-57.27912481323982
 20
-164.4740043544834
 30
0.0
 11
-57.27912481323982
 21
-158.7005016625872
 31
0.0
  0
LINE
  5
125AA
330
12512
100
AcDbEntity
  8
0
100
AcDbLine
 10
-57.27912481323982
 20
-158.7005016625872
 30
0.0
 11
-58.33978498501963
 21
-158.0881292268914
 31
0.0
  0
ELLIPSE
  5
125AB
330
12512
100
AcDbEntity
  8
0
100
AcDbEllipse
 10
33.23271136167747
 20
165.1437185780795
 30
0.0
 11
1.250000000000128
 21
2.165063509461022
 31
0.0
210
0.0
220
0.0
230
1.0
 40
0.5773502691896255
 41
0.0
 42
6.283185307179586
  0
ELLIPSE
  5
125AC
330
12512
100
AcDbEntity
  8
0
100
AcDbEllipse
 10
33.23271136167747
 20
148.813786959525
 30
0.0
 11
1.250000000000128
 21
2.165063509461022
 31
0.0
210
0.0
220
0.0
230
1.0
 40
0.5773502691896255
 41
0.0
 42
6.283185307179586
  0
ELLIPSE
  5
125AD
330
12512
100
AcDbEntity
  8
0
100
AcDbEllipse
 10
33.23271136167747
 20
132.4838553409705
 30
0.0
 11
1.250000000000128
 21
2.165063509461022
 31
0.0
210
0.0
220
0.0
230
1.0
 40
0.5773502691896255
 41
0.0
 42
6.283185307179586
  0
ELLIPSE
  5
125AE
330
12512
100
AcDbEntity
  8
0
100
AcDbEllipse
 10
33.23271136167747
 20
116.1539237224159
 30
0.0
 11
1.250000000000128
 21
2.165063509461022
 31
0.0
210
0.0
220
0.0
230
1.0
 40
0.5773502691896255
 41
0.0
 42
6.283185307179586
  0
ELLIPSE
  5
125AF
330
12512
100
AcDbEntity
  8
0
100
AcDbEllipse
 10
33.23271136167747
 20
99.82399210386146
 30
0.0
 11
1.250000000000128
 21
2.165063509461022
 31
0.0
210
0.0
220
0.0
230
1.0
 40
0.5773502691896255
 41
0.0
 42
6.283185307179586
  0
ELLIPSE
  5
125B0
330
12512
100
AcDbEntity
  8
0
100
AcDbEllipse
 10
33.23271136167747
 20
83.49406048530694
 30
0.0
 11
1.250000000000128
 21
2.165063509461022
 31
0.0
210
0.0
220
0.0
230
1.0
 40
0.5773502691896255
 41
0.0
 42
6.283185307179586
  0
ELLIPSE
  5
125B1
330
12512
100
AcDbEntity
  8
0
100
AcDbEllipse
 10
33.23271136167747
 20
67.1641288667524
 30
0.0
 11
1.250000000000128
 21
2.165063509461022
 31
0.0
210
0.0
220
0.0
230
1.0
 40
0.5773502691896255
 41
0.0
 42
6.283185307179586
  0
ELLIPSE
  5
125B2
330
12512
100
AcDbEntity
  8
0
100
AcDbEllipse
 10
33.23271136167747
 20
50.83419724819787
 30
0.0
 11
1.250000000000128
 21
2.165063509461022
 31
0.0
210
0.0
220
0.0
230
1.0
 40
0.5773502691896255
 41
0.0
 42
6.283185307179586
  0
ELLIPSE
  5
125B3
330
12512
100
AcDbEntity
  8
0
100
AcDbEllipse
 10
33.23271136167747
 20
34.50426562964335
 30
0.0
 11
1.250000000000128
 21
2.165063509461022
 31
0.0
210
0.0
220
0.0
230
1.0
 40
0.5773502691896255
 41
0.0
 42
6.283185307179586
  0
ELLIPSE
  5
125B4
330
12512
100
AcDbEntity
  8
0
100
AcDbEllipse
 10
33.23271136167746
 20
18.17433401108882
 30
0.0
 11
1.250000000000128
 21
2.165063509461022
 31
0.0
210
0.0
220
0.0
230
1.0
 40
0.5773502691896255
 41
0.0
 42
6.283185307179586
  0
ELLIPSE
  5
125B5
330
12512
100
AcDbEntity
  8
0
100
AcDbEllipse
 10
33.23271136167746
 20
1.844402392534298
 30
0.0
 11
1.250000000000128
 21
2.165063509461022
 31
0.0
210
0.0
220
0.0
230
1.0
 40
0.5773502691896255
 41
0.0
 42
6.283185307179586
  0
ELLIPSE
  5
125B6
330
12512
100
AcDbEntity
  8
0
100
AcDbEllipse
 10
33.23271136167746
 20
-14.48552922602022
 30
0.0
 11
1.250000000000128
 21
2.165063509461022
 31
0.0
210
0.0
220
0.0
230
1.0
 40
0.5773502691896255
 41
0.0
 42
6.283185307179586
  0
ELLIPSE
  5
125B7
330
12512
100
AcDbEntity
  8
0
100
AcDbEllipse
 10
33.23271136167746
 20
-30.81546084457475
 30
0.0
 11
1.250000000000128
 21
2.165063509461022
 31
0.0
210
0.0
220
0.0
230
1.0
 40
0.5773502691896255
 41
0.0
 42
6.283185307179586
  0
ELLIPSE
  5
125B8
330
12512
100
AcDbEntity
  8
0
100
AcDbEllipse
 10
33.23271136167746
 20
-47.14539246312926
 30
0.0
 11
1.250000000000128
 21
2.165063509461022
 31
0.0
210
0.0
220
0.0
230
1.0
 40
0.5773502691896255
 41
0.0
 42
6.283185307179586
  0
ELLIPSE
  5
125B9
330
12512
100
AcDbEntity
  8
0
100
AcDbEllipse
 10
33.23271136167746
 20
-63.47532408168377
 30
0.0
 11
1.250000000000128
 21
2.165063509461022
 31
0.0
210
0.0
220
0.0
230
1.0
 40
0.5773502691896255
 41
0.0
 42
6.283185307179586
  0
ELLIPSE
  5
125BA
330
12512
100
AcDbEntity
  8
0
100
AcDbEllipse
 10
32.17205118989765
 20
165.7560910137753
 30
0.0
 11
1.249999999999864
 21
2.165063509461175
 31
0.0
210
0.0
220
0.0
230
0.9999999999999998
 40
0.5773502691896218
 41
3.579741684173551
 42
5.845036276594997
  0
ELLIPSE
  5
125BB
330
12512
100
AcDbEntity
  8
0
100
AcDbEllipse
 10
32.17205118989765
 20
149.4261593952208
 30
0.0
 11
1.249999999999864
 21
2.165063509461175
 31
0.0
210
0.0
220
0.0
230
0.9999999999999998
 40
0.5773502691896218
 41
3.579741684173548
 42
5.845036276594991
  0
ELLIPSE
  5
125BC
330
12512
100
AcDbEntity
  8
0
100
AcDbEllipse
 10
32.17205118989765
 20
133.0962277766663
 30
0.0
 11
1.249999999999864
 21
2.165063509461175
 31
0.0
210
0.0
220
0.0
230
0.9999999999999998
 40
0.5773502691896218
 41
3.579741684173548
 42
5.845036276594991
  0
ELLIPSE
  5
125BD
330
12512
100
AcDbEntity
  8
0
100
AcDbEllipse
 10
32.17205118989765
 20
116.7662961581118
 30
0.0
 11
1.249999999999864
 21
2.165063509461175
 31
0.0
210
0.0
220
0.0
230
0.9999999999999998
 40
0.5773502691896218
 41
3.579741684173548
 42
5.845036276594991
  0
ELLIPSE
  5
125BE
330
12512
100
AcDbEntity
  8
0
100
AcDbEllipse
 10
32.17205118989765
 20
100.4363645395572
 30
0.0
 11
1.249999999999864
 21
2.165063509461174
 31
0.0
210
0.0
220
0.0
230
1.0
 40
0.5773502691896218
 41
3.579741684173544
 42
5.845036276595001
  0
ELLIPSE
  5
125BF
330
12512
100
AcDbEntity
  8
0
100
AcDbEllipse
 10
32.17205118989765
 20
84.10643292100273
 30
0.0
 11
1.249999999999864
 21
2.165063509461174
 31
0.0
210
0.0
220
0.0
230
1.0
 40
0.5773502691896218
 41
3.579741684173544
 42
5.845036276595001
  0
ELLIPSE
  5
125C0
330
12512
100
AcDbEntity
  8
0
100
AcDbEllipse
 10
32.17205118989765
 20
67.77650130244819
 30
0.0
 11
1.249999999999864
 21
2.165063509461174
 31
0.0
210
0.0
220
0.0
230
1.0
 40
0.5773502691896218
 41
3.579741684173544
 42
5.845036276594997
  0
ELLIPSE
  5
125C1
330
12512
100
AcDbEntity
  8
0
100
AcDbEllipse
 10
32.17205118989765
 20
51.44656968389366
 30
0.0
 11
1.249999999999864
 21
2.165063509461174
 31
0.0
210
0.0
220
0.0
230
1.0
 40
0.5773502691896218
 41
3.579741684173544
 42
5.845036276594997
  0
ELLIPSE
  5
125C2
330
12512
100
AcDbEntity
  8
0
100
AcDbEllipse
 10
32.17205118989764
 20
35.11663806533914
 30
0.0
 11
1.249999999999864
 21
2.165063509461174
 31
0.0
210
0.0
220
0.0
230
1.0
 40
0.5773502691896218
 41
3.579741684173542
 42
5.845036276594997
  0
ELLIPSE
  5
125C3
330
12512
100
AcDbEntity
  8
0
100
AcDbEllipse
 10
32.17205118989764
 20
18.78670644678461
 30
0.0
 11
1.249999999999864
 21
2.165063509461174
 31
0.0
210
0.0
220
0.0
230
1.0
 40
0.5773502691896218
 41
3.579741684173542
 42
5.845036276594997
  0
ELLIPSE
  5
125C4
330
12512
100
AcDbEntity
  8
0
100
AcDbEllipse
 10
32.17205118989764
 20
2.456774828230106
 30
0.0
 11
1.249999999999864
 21
2.165063509461174
 31
0.0
210
0.0
220
0.0
230
1.0
 40
0.5773502691896218
 41
3.579741684173542
 42
5.845036276594996
  0
ELLIPSE
  5
125C5
330
12512
100
AcDbEntity
  8
0
100
AcDbEllipse
 10
32.17205118989764
 20
-13.87315679032442
 30
0.0
 11
1.249999999999864
 21
2.165063509461174
 31
0.0
210
0.0
220
0.0
230
1.0
 40
0.5773502691896218
 41
3.579741684173542
 42
5.845036276594996
  0
ELLIPSE
  5
125C6
330
12512
100
AcDbEntity
  8
0
100
AcDbEllipse
 10
32.17205118989764
 20
-30.20308840887894
 30
0.0
 11
1.249999999999864
 21
2.165063509461176
 31
0.0
210
0.0
220
0.0
230
1.0
 40
0.5773502691896216
 41
3.579741684173548
 42
5.845036276594988
  0
ELLIPSE
  5
125C7
330
12512
100
AcDbEntity
  8
0
100
AcDbEllipse
 10
32.17205118989764
 20
-46.53302002743346
 30
0.0
 11
1.249999999999864
 21
2.165063509461176
 31
0.0
210
0.0
220
0.0
230
1.0
 40
0.5773502691896216
 41
3.579741684173546
 42
5.845036276594989
  0
ELLIPSE
  5
125C8
330
12512
100
AcDbEntity
  8
0
100
AcDbEllipse
 10
32.17205118989764
 20
-62.86295164598797
 30
0.0
 11
1.249999999999864
 21
2.165063509461176
 31
0.0
210
0.0
220
0.0
230
1.0
 40
0.5773502691896216
 41
3.579741684173546
 42
5.845036276594989
  0
ELLIPSE
  5
125C9
330
12512
100
AcDbEntity
  8
0
100
AcDbEllipse
 10
33.23271136167746
 20
-79.8052557002383
 30
0.0
 11
1.250000000000128
 21
2.165063509461022
 31
0.0
210
0.0
220
0.0
230
1.0
 40
0.5773502691896255
 41
0.0
 42
6.283185307179586
  0
ELLIPSE
  5
125CA
330
12512
100
AcDbEntity
  8
0
100
AcDbEllipse
 10
32.17205118989764
 20
-79.1928832645425
 30
0.0
 11
1.249999999999864
 21
2.165063509461176
 31
0.0
210
0.0
220
0.0
230
1.0
 40
0.5773502691896216
 41
3.579741684173548
 42
5.845036276594989
  0
LINE
  5
125CB
330
12512
100
AcDbEntity
  8
0
100
AcDbLine
 10
56.85007785330832
 20
-76.37597006034195
 30
0.0
 11
56.85007785330835
 21
185.2295344689014
 31
0.0
  0
ELLIPSE
  5
125CC
330
12512
100
AcDbEntity
  8
0
100
AcDbEllipse
 10
55.36515361281658
 20
186.0868558788755
 30
0.0
 11
0.6000000000000006
 21
0.0
 31
0.0
210
0.0
220
0.0
230
1.0
 40
0.577350269189626
 41
5.497787143782228
 42
7.068583470577047
  0
LINE
  5
125CD
330
12512
100
AcDbEntity
  8
0
100
AcDbLine
 10
55.78941768152851
 20
186.3318048531539
 30
0.0
 11
55.78941768152851
 21
185.8419069045973
 31
0.0
  0
ELLIPSE
  5
125CE
330
12512
100
AcDbEntity
  8
0
100
AcDbEllipse
 10
55.36515361281658
 20
186.0868558788755
 30
0.0
 11
2.100000000000008
 21
-0.0000000000000002
 31
0.0
210
0.0
220
0.0
230
1.0
 40
0.577350269189626
 41
5.497787143782145
 42
7.06858347057703
  0
ELLIPSE
  5
125CF
330
12512
100
AcDbEntity
  8
0
100
AcDbEllipse
 10
55.36515361281657
 20
-75.51864865036785
 30
0.0
 11
2.100000000000004
 21
-0.0000000000000006
 31
0.0
210
0.0
220
0.0
230
1.0
 40
0.577350269189626
 41
5.497787143782144
 42
6.283185307179587
  0
LINE
  5
125D0
330
12512
100
AcDbEntity
  8
0
100
AcDbLine
 10
0.0694033240285297
 20
218.5017701417063
 30
0.0
 11
0.0694033240285208
 21
-43.10373438753714
 31
0.0
  0
ELLIPSE
  5
125D1
330
12512
100
AcDbEntity
  8
0
100
AcDbEllipse
 10
-0.3548607446833962
 20
218.256821167428
 30
0.0
 11
0.6000000000000006
 21
-0.0000000000000358
 31
0.0
210
0.0
220
0.0
230
1.0
 40
0.577350269189626
 41
0.7853981633976597
 42
2.356194490192535
  0
LINE
  5
125D2
330
12512
100
AcDbEntity
  8
0
100
AcDbLine
 10
-0.7791248133953266
 20
218.5017701417063
 30
0.0
 11
-0.7791248133953355
 21
-43.10373438753714
 31
0.0
  0
ELLIPSE
  5
125D3
330
12512
100
AcDbEntity
  8
0
100
AcDbEllipse
 10
-0.3548607446834051
 20
-43.34868336181543
 30
0.0
 11
0.6000000000000006
 21
-0.0000000000000358
 31
0.0
210
0.0
220
0.0
230
1.0
 40
0.577350269189626
 41
0.7853981633976863
 42
2.356194490192599
  0
ELLIPSE
  5
125D4
330
12512
100
AcDbEntity
  8
0
100
AcDbEllipse
 10
-0.3548607446833962
 20
218.256821167428
 30
0.0
 11
-2.100000000000004
 21
-0.000000000000125
 31
0.0
210
0.0
220
0.0
230
1.0
 40
0.5773502691896259
 41
3.926990816986991
 42
5.49778714378189
  0
LINE
  5
125D5
330
12512
100
AcDbEntity
  8
0
100
AcDbLine
 10
57.46515361281659
 20
186.0868558788755
 30
0.0
 11
57.46515361281658
 21
-75.5186486503679
 31
0.0
  0
ELLIPSE
  5
125D6
330
12512
100
AcDbEntity
  8
0
100
AcDbEllipse
 10
-25.45715147680584
 20
194.9458437819414
 30
0.0
 11
1.24999999999987
 21
2.165063509461172
 31
0.0
210
0.0
220
0.0
230
0.9999999999999998
 40
0.5773502691896255
 41
3.57974168417355
 42
5.845036276595003
  0
ELLIPSE
  5
125D7
330
12512
100
AcDbEntity
  8
0
100
AcDbEllipse
 10
-25.45715147680584
 20
178.6159121633869
 30
0.0
 11
1.24999999999987
 21
2.165063509461172
 31
0.0
210
0.0
220
0.0
230
0.9999999999999998
 40
0.5773502691896255
 41
3.57974168417355
 42
5.845036276595003
  0
ELLIPSE
  5
125D8
330
12512
100
AcDbEntity
  8
0
100
AcDbEllipse
 10
-25.45715147680584
 20
162.2859805448324
 30
0.0
 11
1.24999999999987
 21
2.165063509461172
 31
0.0
210
0.0
220
0.0
230
0.9999999999999998
 40
0.5773502691896255
 41
3.57974168417355
 42
5.845036276595003
  0
ELLIPSE
  5
125D9
330
12512
100
AcDbEntity
  8
0
100
AcDbEllipse
 10
-25.45715147680584
 20
145.9560489262778
 30
0.0
 11
1.24999999999987
 21
2.165063509461172
 31
0.0
210
0.0
220
0.0
230
0.9999999999999998
 40
0.5773502691896255
 41
3.579741684173544
 42
5.845036276594984
  0
ELLIPSE
  5
125DA
330
12512
100
AcDbEntity
  8
0
100
AcDbEllipse
 10
-25.45715147680584
 20
129.6261173077233
 30
0.0
 11
1.24999999999987
 21
2.165063509461171
 31
0.0
210
0.0
220
0.0
230
1.0
 40
0.5773502691896257
 41
3.579741684173542
 42
5.845036276594988
  0
ELLIPSE
  5
125DB
330
12512
100
AcDbEntity
  8
0
100
AcDbEllipse
 10
-25.45715147680584
 20
113.2961856891688
 30
0.0
 11
1.24999999999987
 21
2.165063509461171
 31
0.0
210
0.0
220
0.0
230
1.0
 40
0.5773502691896257
 41
3.579741684173542
 42
5.845036276594988
  0
ELLIPSE
  5
125DC
330
12512
100
AcDbEntity
  8
0
100
AcDbEllipse
 10
-25.45715147680584
 20
96.9662540706143
 30
0.0
 11
1.24999999999987
 21
2.165063509461171
 31
0.0
210
0.0
220
0.0
230
1.0
 40
0.5773502691896257
 41
3.579741684173542
 42
5.845036276594988
  0
ELLIPSE
  5
125DD
330
12512
100
AcDbEntity
  8
0
100
AcDbEllipse
 10
-25.45715147680584
 20
80.63632245205978
 30
0.0
 11
1.24999999999987
 21
2.165063509461171
 31
0.0
210
0.0
220
0.0
230
1.0
 40
0.5773502691896257
 41
3.579741684173541
 42
5.845036276595005
  0
ELLIPSE
  5
125DE
330
12512
100
AcDbEntity
  8
0
100
AcDbEllipse
 10
-25.45715147680584
 20
64.30639083350524
 30
0.0
 11
1.24999999999987
 21
2.165063509461171
 31
0.0
210
0.0
220
0.0
230
1.0
 40
0.5773502691896257
 41
3.579741684173541
 42
5.845036276594997
  0
ELLIPSE
  5
125DF
330
12512
100
AcDbEntity
  8
0
100
AcDbEllipse
 10
-25.45715147680584
 20
47.97645921495071
 30
0.0
 11
1.24999999999987
 21
2.165063509461171
 31
0.0
210
0.0
220
0.0
230
1.0
 40
0.5773502691896257
 41
3.579741684173541
 42
5.845036276594997
  0
ELLIPSE
  5
125E0
330
12512
100
AcDbEntity
  8
0
100
AcDbEllipse
 10
-25.45715147680584
 20
31.64652759639623
 30
0.0
 11
1.24999999999987
 21
2.165063509461171
 31
0.0
210
0.0
220
0.0
230
1.0
 40
0.5773502691896257
 41
3.579741684173541
 42
5.845036276594997
  0
ELLIPSE
  5
125E1
330
12512
100
AcDbEntity
  8
0
100
AcDbEllipse
 10
-25.45715147680584
 20
15.3165959778417
 30
0.0
 11
1.24999999999987
 21
2.165063509461171
 31
0.0
210
0.0
220
0.0
230
1.0
 40
0.5773502691896257
 41
3.579741684173542
 42
5.845036276594997
  0
ELLIPSE
  5
125E2
330
12512
100
AcDbEntity
  8
0
100
AcDbEllipse
 10
-25.45715147680585
 20
-1.013335640712824
 30
0.0
 11
1.24999999999987
 21
2.165063509461171
 31
0.0
210
0.0
220
0.0
230
0.9999999999999998
 40
0.5773502691896257
 41
3.579741684173546
 42
5.84503627659499
  0
ELLIPSE
  5
125E3
330
12512
100
AcDbEntity
  8
0
100
AcDbEllipse
 10
-25.45715147680585
 20
-17.34326725926735
 30
0.0
 11
1.24999999999987
 21
2.165063509461171
 31
0.0
210
0.0
220
0.0
230
0.9999999999999998
 40
0.5773502691896257
 41
3.579741684173546
 42
5.84503627659499
  0
ELLIPSE
  5
125E4
330
12512
100
AcDbEntity
  8
0
100
AcDbEllipse
 10
-25.45715147680585
 20
-33.67319887782186
 30
0.0
 11
1.24999999999987
 21
2.165063509461171
 31
0.0
210
0.0
220
0.0
230
0.9999999999999998
 40
0.5773502691896257
 41
3.579741684173548
 42
5.845036276594989
  0
ELLIPSE
  5
125E5
330
12512
100
AcDbEntity
  8
0
100
AcDbEllipse
 10
-24.39649130502602
 20
194.3334713462456
 30
0.0
 11
1.250000000000128
 21
2.165063509461022
 31
0.0
210
0.0
220
0.0
230
1.0
 40
0.5773502691896255
 41
0.0
 42
6.283185307179586
  0
ELLIPSE
  5
125E6
330
12512
100
AcDbEntity
  8
0
100
AcDbEllipse
 10
-24.39649130502602
 20
178.0035397276911
 30
0.0
 11
1.250000000000128
 21
2.165063509461022
 31
0.0
210
0.0
220
0.0
230
1.0
 40
0.5773502691896255
 41
0.0
 42
6.283185307179586
  0
ELLIPSE
  5
125E7
330
12512
100
AcDbEntity
  8
0
100
AcDbEllipse
 10
-24.39649130502602
 20
161.6736081091366
 30
0.0
 11
1.250000000000128
 21
2.165063509461022
 31
0.0
210
0.0
220
0.0
230
1.0
 40
0.5773502691896255
 41
0.0
 42
6.283185307179586
  0
ELLIPSE
  5
125E8
330
12512
100
AcDbEntity
  8
0
100
AcDbEllipse
 10
-24.39649130502602
 20
145.3436764905821
 30
0.0
 11
1.250000000000128
 21
2.165063509461022
 31
0.0
210
0.0
220
0.0
230
1.0
 40
0.5773502691896255
 41
0.0
 42
6.283185307179586
  0
ELLIPSE
  5
125E9
330
12512
100
AcDbEntity
  8
0
100
AcDbEllipse
 10
-24.39649130502602
 20
129.0137448720275
 30
0.0
 11
1.250000000000128
 21
2.165063509461022
 31
0.0
210
0.0
220
0.0
230
1.0
 40
0.5773502691896255
 41
0.0
 42
6.283185307179586
  0
ELLIPSE
  5
125EA
330
12512
100
AcDbEntity
  8
0
100
AcDbEllipse
 10
-24.39649130502602
 20
112.683813253473
 30
0.0
 11
1.250000000000128
 21
2.165063509461022
 31
0.0
210
0.0
220
0.0
230
1.0
 40
0.5773502691896255
 41
0.0
 42
6.283185307179586
  0
ELLIPSE
  5
125EB
330
12512
100
AcDbEntity
  8
0
100
AcDbEllipse
 10
-24.39649130502602
 20
96.35388163491851
 30
0.0
 11
1.250000000000128
 21
2.165063509461022
 31
0.0
210
0.0
220
0.0
230
1.0
 40
0.5773502691896255
 41
0.0
 42
6.283185307179586
  0
ELLIPSE
  5
125EC
330
12512
100
AcDbEntity
  8
0
100
AcDbEllipse
 10
-24.39649130502602
 20
80.02395001636399
 30
0.0
 11
1.250000000000128
 21
2.165063509461022
 31
0.0
210
0.0
220
0.0
230
1.0
 40
0.5773502691896255
 41
0.0
 42
6.283185307179586
  0
ELLIPSE
  5
125ED
330
12512
100
AcDbEntity
  8
0
100
AcDbEllipse
 10
-24.39649130502602
 20
63.69401839780945
 30
0.0
 11
1.250000000000128
 21
2.165063509461022
 31
0.0
210
0.0
220
0.0
230
1.0
 40
0.5773502691896255
 41
0.0
 42
6.283185307179586
  0
ELLIPSE
  5
125EE
330
12512
100
AcDbEntity
  8
0
100
AcDbEllipse
 10
-24.39649130502602
 20
47.36408677925492
 30
0.0
 11
1.250000000000128
 21
2.165063509461022
 31
0.0
210
0.0
220
0.0
230
1.0
 40
0.5773502691896255
 41
0.0
 42
6.283185307179586
  0
ELLIPSE
  5
125EF
330
12512
100
AcDbEntity
  8
0
100
AcDbEllipse
 10
-24.39649130502602
 20
31.03415516070042
 30
0.0
 11
1.250000000000128
 21
2.165063509461022
 31
0.0
210
0.0
220
0.0
230
1.0
 40
0.5773502691896255
 41
0.0
 42
6.283185307179586
  0
ELLIPSE
  5
125F0
330
12512
100
AcDbEntity
  8
0
100
AcDbEllipse
 10
-24.39649130502602
 20
14.70422354214589
 30
0.0
 11
1.250000000000128
 21
2.165063509461022
 31
0.0
210
0.0
220
0.0
230
1.0
 40
0.5773502691896255
 41
0.0
 42
6.283185307179586
  0
ELLIPSE
  5
125F1
330
12512
100
AcDbEntity
  8
0
100
AcDbEllipse
 10
-24.39649130502602
 20
-1.625708076408631
 30
0.0
 11
1.250000000000128
 21
2.165063509461022
 31
0.0
210
0.0
220
0.0
230
1.0
 40
0.5773502691896255
 41
0.0
 42
6.283185307179586
  0
ELLIPSE
  5
125F2
330
12512
100
AcDbEntity
  8
0
100
AcDbEllipse
 10
-24.39649130502602
 20
-17.95563969496315
 30
0.0
 11
1.250000000000128
 21
2.165063509461022
 31
0.0
210
0.0
220
0.0
230
1.0
 40
0.5773502691896255
 41
0.0
 42
6.283185307179586
  0
ELLIPSE
  5
125F3
330
12512
100
AcDbEntity
  8
0
100
AcDbEllipse
 10
-24.39649130502602
 20
-34.28557131351766
 30
0.0
 11
1.250000000000128
 21
2.165063509461022
 31
0.0
210
0.0
220
0.0
230
1.0
 40
0.5773502691896255
 41
0.0
 42
6.283185307179586
  0
ELLIPSE
  5
125F4
330
12512
100
AcDbEntity
  8
0
100
AcDbEllipse
 10
-25.45715147680585
 20
-50.00313049637639
 30
0.0
 11
1.24999999999987
 21
2.165063509461171
 31
0.0
210
0.0
220
0.0
230
0.9999999999999998
 40
0.5773502691896257
 41
3.57974168417355
 42
5.845036276594989
  0
ELLIPSE
  5
125F5
330
12512
100
AcDbEntity
  8
0
100
AcDbEllipse
 10
-24.39649130502602
 20
-50.61550293207218
 30
0.0
 11
1.250000000000128
 21
2.165063509461022
 31
0.0
210
0.0
220
0.0
230
1.0
 40
0.5773502691896255
 41
0.0
 42
6.283185307179586
  0
LINE
  5
125F6
330
12512
100
AcDbEntity
  8
0
100
AcDbLine
 10
13.85007785287802
 20
-168.5900514349104
 30
0.0
 11
0.3500778534637572
 21
-191.972737335392
 31
0.0
  0
LINE
  5
125F7
330
12512
100
AcDbEntity
  8
0
100
AcDbLine
 10
12.78941768109748
 20
-167.9776789992142
 30
0.0
 11
-0.7105823183160532
 21
-191.3603648996962
 31
0.0
  0
LINE
  5
125F8
330
12512
100
AcDbEntity
  8
0
100
AcDbLine
 10
18.55007785330829
 20
-208.2540149264497
 30
0.0
 11
55.25007785252057
 21
-144.6877502900365
 31
0.0
  0
LINE
  5
125F9
330
12512
100
AcDbEntity
  8
0
100
AcDbLine
 10
53.94088954331341
 20
-144.2188656413893
 30
0.0
 11
54.92869889270672
 21
-142.5079296600485
 31
0.0
  0
LINE
  5
125FA
330
12512
100
AcDbEntity
  8
0
100
AcDbLine
 10
18.8838069607639
 20
-208.4466935164756
 30
0.0
 11
18.55007785330835
 21
-208.2540149264497
 31
0.0
  0
LINE
  5
125FB
330
12512
100
AcDbEntity
  8
0
100
AcDbLine
 10
55.92216692982638
 20
-144.2943722210341
 30
0.0
 11
18.88380696076391
 21
-208.4466935164756
 31
0.0
  0
LINE
  5
125FC
330
12512
100
AcDbEntity
  8
0
100
AcDbLine
 10
13.85007785287802
 20
-168.5900514349104
 30
0.0
 11
12.78941768109748
 21
-167.9776789992142
 31
0.0
  0
LINE
  5
125FD
330
12512
100
AcDbEntity
  8
0
100
AcDbLine
 10
55.25007785252058
 20
-144.6877502900365
 30
0.0
 11
13.85007785287802
 21
-168.5900514349104
 31
0.0
  0
LINE
  5
125FE
330
12512
100
AcDbEntity
  8
0
100
AcDbLine
 10
-44.83978498561535
 20
-134.705443326404
 30
0.0
 11
-3.439784985962983
 21
-110.8031421815359
 31
0.0
  0
SPLINE
  5
125FF
330
12512
100
AcDbEntity
  8
0
100
AcDbSpline
210
0.0
220
0.0
230
1.0
 70
     8
 71
     3
 72
     8
 73
     4
 74
     0
 42
0.000000001
 43
0.0000000001
 40
-1.0
 40
-1.0
 40
-1.0
 40
-1.0
 40
0.0
 40
0.0
 40
0.0
 40
0.0
 10
3.168173096660584
 20
-110.4333088861426
 30
0.0
 10
3.200104511641663
 20
-110.5816403424842
 30
0.0
 10
3.118142499031257
 20
-110.7258474419541
 30
0.0
 10
2.957030912494578
 20
-110.8013038378337
 30
0.0
  0
SPLINE
  5
12600
330
12512
100
AcDbEntity
  8
0
100
AcDbSpline
210
0.0
220
0.0
230
1.0
 70
     8
 71
     3
 72
     8
 73
     4
 74
     0
 42
0.000000001
 43
0.0000000001
 40
-1.0
 40
-1.0
 40
-1.0
 40
-1.0
 40
0.0
 40
0.0
 40
0.0
 40
0.0
 10
52.65326195563854
 20
-139.4934362083027
 30
0.0
 10
52.63805331807983
 20
-139.316181283578
 30
0.0
 10
52.65871649391528
 20
-139.1365832841952
 30
0.0
 10
52.69064790889641
 20
-139.0251230499234
 30
0.0
  0
SPLINE
  5
12601
330
12512
100
AcDbEntity
  8
0
100
AcDbSpline
210
0.0
220
0.0
230
1.0
 70
     8
 71
     3
 72
     8
 73
     4
 74
     0
 42
0.000000001
 43
0.0000000001
 40
0.1302463606542057
 40
0.1302463606542057
 40
0.1302463606542057
 40
0.1302463606542057
 40
1.0
 40
1.0
 40
1.0
 40
1.0
 10
53.73309442375774
 20
-138.5902019932211
 30
0.0
 10
53.68026848796877
 20
-138.9996232206575
 30
0.0
 10
53.54865871385364
 20
-139.4975350558243
 30
0.0
 10
53.40326195563854
 20
-139.9264489101949
 30
0.0
  0
ELLIPSE
  5
12602
330
12512
100
AcDbEntity
  8
0
100
AcDbEllipse
 10
2.312716531375844
 20
-109.6973034151926
 30
0.0
 11
-0.7499999999999999
 21
-1.299038105676659
 31
0.0
210
0.0
220
0.0
230
1.0
 40
0.816496580927726
 41
0.0
 42
1.134458255166911
  0
LINE
  5
12603
330
12512
100
AcDbEntity
  8
0
100
AcDbLine
 10
1.562716531375856
 20
-110.9963415208693
 30
0.0
 11
-0.0587891588337986
 21
-110.0601647741342
 31
0.0
  0
LINE
  5
12604
330
12512
100
AcDbEntity
  8
0
100
AcDbLine
 10
-0.0587891588337986
 20
-110.0601647741342
 30
0.0
 11
-0.7913154647932342
 21
-110.3379643714961
 31
0.0
  0
LINE
  5
12605
330
12512
100
AcDbEntity
  8
0
100
AcDbLine
 10
54.92869889270672
 20
-142.5079296600485
 30
0.0
 11
54.8030172482035
 21
-141.7346434714664
 31
0.0
  0
LINE
  5
12606
330
12512
100
AcDbEntity
  8
0
100
AcDbLine
 10
54.8030172482035
 20
-141.7346434714664
 30
0.0
 11
53.18151155799384
 21
-140.7984667247313
 31
0.0
  0
ELLIPSE
  5
12607
330
12512
100
AcDbEntity
  8
0
100
AcDbEllipse
 10
53.93151155799383
 20
-139.4994286190546
 30
0.0
 11
-0.7499999999999996
 21
-1.299038105676658
 31
0.0
210
0.0
220
0.0
230
1.0
 40
0.816496580927726
 41
5.148727052012677
 42
6.283185307179575
  0
LINE
  5
12608
330
12512
100
AcDbEntity
  8
0
100
AcDbLine
 10
-43.77912481383479
 20
-135.3178157621003
 30
0.0
 11
-44.83978498561535
 21
-134.705443326404
 31
0.0
  0
LINE
  5
12609
330
12512
100
AcDbEntity
  8
0
100
AcDbLine
 10
-2.379124814183257
 20
-111.4155146172316
 30
0.0
 11
-43.77912481383479
 21
-135.3178157621003
 31
0.0
  0
LINE
  5
1260A
330
12512
100
AcDbEntity
  8
0
100
AcDbLine
 10
-2.379124814183257
 20
-111.4155146172316
 30
0.0
 11
-2.732324651386308
 21
-111.2115945961447
 31
0.0
  0
LINE
  5
1260B
330
12512
100
AcDbEntity
  8
0
100
AcDbLine
 10
-2.732324651386308
 20
-111.2115945961447
 30
0.0
 11
-3.439784985962979
 21
-110.8031421815359
 31
0.0
  0
SPLINE
  5
1260C
330
12512
100
AcDbEntity
  8
0
100
AcDbSpline
210
0.0
220
0.0
230
1.0
 70
     8
 71
     3
 72
     8
 73
     4
 74
     0
 42
0.000000001
 43
0.0000000001
 40
-1.0
 40
-1.0
 40
-1.0
 40
-1.0
 40
0.0
 40
0.0
 40
0.0
 40
0.0
 10
-0.7913154647932253
 20
-110.3379643714961
 30
0.0
 10
-1.301308038593957
 20
-110.708277488737
 30
0.0
 10
-1.934196754610919
 20
-111.0076364851862
 30
0.0
 10
-2.379124814183262
 20
-111.4155146172316
 30
0.0
  0
SPLINE
  5
1260D
330
12512
100
AcDbEntity
  8
0
100
AcDbSpline
210
0.0
220
0.0
230
1.0
 70
     8
 71
     3
 72
     8
 73
     4
 74
     0
 42
0.000000001
 43
0.0000000001
 40
0.0
 40
0.0
 40
0.0
 40
0.0
 40
0.6081734479693555
 40
0.6081734479693555
 40
0.6081734479693555
 40
0.6081734479693555
 10
-3.439784985962983
 20
-110.8031421815359
 30
0.0
 10
-2.930362399343429
 20
-110.6929696082774
 30
0.0
 10
-2.177613033034839
 20
-110.7232818167737
 30
0.0
 10
-1.426280169832234
 20
-110.7527762068205
 30
0.0
  0
ELLIPSE
  5
1260E
330
12512
100
AcDbEntity
  8
0
100
AcDbEllipse
 10
2.120012989469506
 20
-110.0156291945642
 30
0.0
 11
0.7499999999999233
 21
-1.299038105676702
 31
0.0
210
0.0
220
0.0
230
1.0
 40
0.5773502691896261
 41
0.9390757175652568
 42
2.356194490192585
  0
LINE
  5
1260F
330
12512
100
AcDbEntity
  8
0
100
AcDbLine
 10
55.25007785252058
 20
-144.6877502900365
 30
0.0
 11
54.54261751794302
 21
-144.2792978754272
 31
0.0
  0
LINE
  5
12610
330
12512
100
AcDbEntity
  8
0
100
AcDbLine
 10
54.54261751794302
 20
-144.2792978754272
 30
0.0
 11
54.18941768074066
 21
-144.0753778543407
 31
0.0
  0
LINE
  5
12611
330
12512
100
AcDbEntity
  8
0
100
AcDbLine
 10
12.78941768109748
 20
-167.9776789992142
 30
0.0
 11
54.18941768074066
 21
-144.0753778543407
 31
0.0
  0
LINE
  5
12612
330
12512
100
AcDbEntity
  8
0
100
AcDbLine
 10
54.92869889270672
 20
-142.5079296600485
 30
0.0
 11
55.1784488927077
 21
-142.6521228897792
 31
0.0
  0
SPLINE
  5
12613
330
12512
100
AcDbEntity
  8
0
100
AcDbSpline
210
0.0
220
0.0
230
1.0
 70
     8
 71
     3
 72
     8
 73
     4
 74
     0
 42
0.000000001
 43
0.0000000001
 40
-1.0
 40
-1.0
 40
-1.0
 40
-1.0
 40
0.0
 40
0.0
 40
0.0
 40
0.0
 10
54.18941768074066
 20
-144.0753778543407
 30
0.0
 10
54.63434574031269
 20
-143.6674997222957
 30
0.0
 10
54.86299461272148
 20
-143.1347527433224
 30
0.0
 10
54.92869889270673
 20
-142.5079296600485
 30
0.0
  0
SPLINE
  5
12614
330
12512
100
AcDbEntity
  8
0
100
AcDbSpline
210
0.0
220
0.0
230
1.0
 70
     8
 71
     3
 72
     8
 73
     4
 74
     0
 42
0.000000001
 43
0.0000000001
 40
0.0
 40
0.0
 40
0.0
 40
0.0
 40
1.0
 40
1.0
 40
1.0
 40
1.0
 10
55.67869889270673
 20
-142.9409423619407
 30
0.0
 10
56.16835497999121
 20
-143.8884029027551
 30
0.0
 10
56.08770499379126
 20
-144.5065970785208
 30
0.0
 10
55.25007785252058
 20
-144.6877502900365
 30
0.0
  0
LINE
  5
12615
330
12512
100
AcDbEntity
  8
0
100
AcDbLine
 10
55.1784488927077
 20
-142.6521228897792
 30
0.0
 11
55.67869889270673
 21
-142.9409423619408
 31
0.0
  0
ELLIPSE
  5
12616
330
12512
100
AcDbEntity
  8
0
100
AcDbEllipse
 10
54.68151155799382
 20
-139.9324413209469
 30
0.0
 11
-0.749999999999999
 21
-1.299038105676658
 31
0.0
210
0.0
220
0.0
230
0.9999999999999998
 40
0.8164965809277259
 41
5.148727052012676
 42
6.283185307179581
  0
LINE
  5
12617
330
12512
100
AcDbEntity
  8
0
100
AcDbLine
 10
53.40326195563853
 20
-139.9264489101949
 30
0.0
 11
52.90301195654087
 21
-139.6376294385538
 31
0.0
  0
LINE
  5
12618
330
12512
100
AcDbEntity
  8
0
100
AcDbLine
 10
52.90301195654087
 20
-139.6376294385538
 30
0.0
 11
52.65326195563853
 21
-139.4934362083027
 31
0.0
  0
LINE
  5
12619
330
12512
100
AcDbEntity
  8
0
100
AcDbLine
 10
54.8030172482035
 20
-141.7346434714664
 30
0.0
 11
55.55301724820349
 21
-142.1676561733586
 31
0.0
  0
LINE
  5
1261A
330
12512
100
AcDbEntity
  8
0
100
AcDbLine
 10
55.55301724820349
 20
-142.1676561733586
 30
0.0
 11
55.67869889270673
 21
-142.9409423619408
 31
0.0
  0
LINE
  5
1261B
330
12512
100
AcDbEntity
  8
0
100
AcDbLine
 10
52.69064790889642
 20
-139.0251230499234
 30
0.0
 11
53.04384774932699
 21
-138.821203026973
 31
0.0
  0
LINE
  5
1261C
330
12512
100
AcDbEntity
  8
0
100
AcDbLine
 10
53.04384774932699
 20
-138.821203026973
 30
0.0
 11
53.57644918604371
 21
-138.5137054441139
 31
0.0
  0
ELLIPSE
  5
1261D
330
12512
100
AcDbEntity
  8
0
100
AcDbEllipse
 10
53.73880801608748
 20
-139.8177543984262
 30
0.0
 11
-0.7500000000000014
 21
1.299038105676658
 31
0.0
210
0.0
220
0.0
230
1.0
 40
0.5773502691896262
 41
5.497787143782137
 42
6.914905916409418
  0
LINE
  5
1261E
330
12512
100
AcDbEntity
  8
0
100
AcDbLine
 10
18.55007785330829
 20
-208.2540149264497
 30
0.0
 11
0.350077853463775
 21
-197.7462400272882
 31
0.0
  0
LINE
  5
1261F
330
12512
100
AcDbEntity
  8
0
100
AcDbLine
 10
-57.27912481323982
 20
-164.4740043544834
 30
0.0
 11
-39.07912481339531
 21
-174.9817792536449
 31
0.0
  0
LINE
  5
12620
330
12512
100
AcDbEntity
  8
0
100
AcDbLine
 10
3.168173096660584
 20
-110.4333088861426
 30
0.0
 11
10.25921260702053
 21
-114.5273224562832
 31
0.0
  0
LINE
  5
12621
330
12512
100
AcDbEntity
  8
0
100
AcDbLine
 10
10.18525465633962
 20
-114.9745207621055
 30
0.0
 11
2.957030912494595
 21
-110.8013038378337
 31
0.0
  0
LINE
  5
12622
330
12512
100
AcDbEntity
  8
0
100
AcDbLine
 10
24.32739027969982
 20
-123.1394865711687
 30
0.0
 11
13.60523305839884
 21
-116.9490462131571
 31
0.0
  0
LINE
  5
12623
330
12512
100
AcDbEntity
  8
0
100
AcDbLine
 10
13.77980324514181
 20
-116.559936408909
 30
0.0
 11
24.40134823088194
 21
-122.6922882656357
 31
0.0
  0
LINE
  5
12624
330
12512
100
AcDbEntity
  8
0
100
AcDbLine
 10
31.45747277467507
 20
-126.7661436704302
 30
0.0
 11
42.07901776041517
 21
-132.898495527157
 31
0.0
  0
LINE
  5
12625
330
12512
100
AcDbEntity
  8
0
100
AcDbLine
 10
42.00505980973426
 20
-133.3456938329793
 30
0.0
 11
31.28290258843328
 21
-127.1552534749677
 31
0.0
  0
LINE
  5
12626
330
12512
100
AcDbEntity
  8
0
100
AcDbLine
 10
52.65326195563853
 20
-139.4934362083027
 30
0.0
 11
45.42503821179348
 21
-135.3202192840309
 31
0.0
  0
LINE
  5
12627
330
12512
100
AcDbEntity
  8
0
100
AcDbLine
 10
45.59960839853646
 20
-134.9311094797828
 30
0.0
 11
52.69064790889642
 21
-139.0251230499234
 31
0.0
  0
LINE
  5
12628
330
12512
100
AcDbEntity
  8
0
100
AcDbLine
 10
-38.35486074468339
 20
-175.39993330868
 30
0.0
 11
-0.7105823183160221
 21
-197.1338675915924
 31
0.0
  0
ELLIPSE
  5
12629
330
12512
100
AcDbEntity
  8
0
100
AcDbEllipse
 10
8.100077853577474
 20
-187.7869478838329
 30
0.0
 11
1.250000000000129
 21
2.165063509461022
 31
0.0
210
0.0
220
0.0
230
1.0
 40
0.5773502691896254
 41
0.0
 42
6.283185307179586
  0
ELLIPSE
  5
1262A
330
12512
100
AcDbEntity
  8
0
100
AcDbEllipse
 10
21.85007785378219
 20
-169.7447519717752
 30
0.0
 11
-0.4000000000000423
 21
-0.6928203230275285
 31
0.0
210
0.0
220
0.0
230
1.0
 40
0.5773502691896255
 41
2.094395102375209
 42
2.276828566511596
  0
LINE
  5
1262B
330
12512
100
AcDbEntity
  8
0
100
AcDbLine
 10
22.39648801529329
 20
-169.5983418102745
 30
0.0
 11
21.60401976997004
 21
-173.4709370744805
 31
0.0
  0
ELLIPSE
  5
1262C
330
12512
100
AcDbEntity
  8
0
100
AcDbEllipse
 10
21.05760960845893
 20
-173.6173472359813
 30
0.0
 11
-0.4000000000000415
 21
-0.6928203230275272
 31
0.0
210
0.0
220
0.0
230
1.0
 40
0.5773502691896255
 41
0.0
 42
2.094395102375107
  0
LINE
  5
1262D
330
12512
100
AcDbEntity
  8
0
100
AcDbLine
 10
20.65760960845165
 20
-174.3101675590046
 30
0.0
 11
18.49254609902994
 21
-173.0601675589364
 31
0.0
  0
ELLIPSE
  5
1262E
330
12512
100
AcDbEntity
  8
0
100
AcDbEllipse
 10
18.89254609903721
 20
-172.3673472359131
 30
0.0
 11
-0.4000000000072804
 21
-0.6928203230233493
 31
0.0
210
0.0
220
0.0
230
1.0
 40
0.5773502691896255
 41
4.188790204822814
 42
6.283185307252419
  0
LINE
  5
1262F
330
12512
100
AcDbEntity
  8
0
100
AcDbLine
 10
18.74613593753338
 20
-171.8209370743904
 30
0.0
 11
21.70366769227835
 21
-169.1983418102526
 31
0.0
  0
ELLIPSE
  5
12630
330
12512
100
AcDbEntity
  8
0
100
AcDbEllipse
 10
21.85007785378219
 20
-169.7447519717752
 30
0.0
 11
0.4000000000000011
 21
0.6928203230275523
 31
0.0
210
0.0
220
0.0
230
1.0
 40
0.5773502691896258
 41
0.0802385882704746
 42
1.047197551178405
  0
LINE
  5
12631
330
12512
100
AcDbEntity
  8
0
100
AcDbLine
 10
22.21672989151642
 20
-169.0356502901989
 30
0.0
 11
22.41398260166654
 21
-169.4709686105765
 31
0.0
  0
ELLIPSE
  5
12632
330
12512
100
AcDbEntity
  8
0
100
AcDbEllipse
 10
19.99694943667913
 20
-173.0049748002855
 30
0.0
 11
-0.4000000000072798
 21
-0.6928203230233483
 31
0.0
210
0.0
220
0.0
230
1.0
 40
0.5773502691896255
 41
0.0000000000728415
 42
2.094395102429601
  0
LINE
  5
12633
330
12512
100
AcDbEntity
  8
0
100
AcDbLine
 10
20.54335959819022
 20
-172.8585646387847
 30
0.0
 11
21.60401976997004
 21
-173.4709370744805
 31
0.0
  0
LINE
  5
12634
330
12512
100
AcDbEntity
  8
0
100
AcDbLine
 10
20.54335959819022
 20
-172.8585646387847
 30
0.0
 11
21.20118911434087
 21
-169.6439153655375
 31
0.0
  0
LINE
  5
12635
330
12512
100
AcDbEntity
  8
0
100
AcDbLine
 10
21.70366769226574
 20
-169.1983418102745
 30
0.0
 11
22.39648801529329
 21
-169.5983418102745
 31
0.0
  0
LINE
  5
12636
330
12512
100
AcDbEntity
  8
0
100
AcDbLine
 10
21.80522882577157
 20
-169.1195044541934
 30
0.0
 11
22.41398260166654
 21
-169.4709686105765
 31
0.0
  0
ELLIPSE
  5
12637
330
12512
100
AcDbEntity
  8
0
100
AcDbEllipse
 10
7.039417681797677
 20
-187.1745754481371
 30
0.0
 11
1.24999999999987
 21
2.165063509461171
 31
0.0
210
0.0
220
0.0
230
1.0
 40
0.5773502691896255
 41
3.579741684173535
 42
5.845036276595007
  0
LINE
  5
12638
330
12512
100
AcDbEntity
  8
0
100
AcDbLine
 10
-44.83978498561535
 20
-134.705443326404
 30
0.0
 11
-58.33978498501963
 21
-158.0881292268914
 31
0.0
  0
LINE
  5
12639
330
12512
100
AcDbEntity
  8
0
100
AcDbLine
 10
-43.77912481383479
 20
-135.3178157621003
 30
0.0
 11
-57.27912481323982
 21
-158.7005016625872
 31
0.0
  0
ELLIPSE
  5
1263A
330
12512
100
AcDbEntity
  8
0
100
AcDbEllipse
 10
-53.08978498495142
 20
-158.2324667942282
 30
0.0
 11
1.24999999999987
 21
2.165063509461171
 31
0.0
210
0.0
220
0.0
230
1.0
 40
0.5773502691896255
 41
3.579741684173537
 42
5.845036276595009
  0
ELLIPSE
  5
1263B
330
12512
100
AcDbEntity
  8
0
100
AcDbEllipse
 10
-40.13225323006995
 20
-144.0628661463766
 30
0.0
 11
-0.4000000000072798
 21
-0.6928203230233483
 31
0.0
210
0.0
220
0.0
230
1.0
 40
0.5773502691896255
 41
0.0000000000727781
 42
2.094395102429603
  0
LINE
  5
1263C
330
12512
100
AcDbEntity
  8
0
100
AcDbLine
 10
-39.58584306855885
 20
-143.9164559848759
 30
0.0
 11
-38.92801355240821
 21
-140.7018067116286
 31
0.0
  0
LINE
  5
1263D
330
12512
100
AcDbEntity
  8
0
100
AcDbLine
 10
-38.52518289677905
 20
-144.5288284205716
 30
0.0
 11
-39.58584306855885
 21
-143.9164559848759
 31
0.0
  0
LINE
  5
1263E
330
12512
100
AcDbEntity
  8
0
100
AcDbLine
 10
-37.73271465145579
 20
-140.6562331563656
 30
0.0
 11
-38.52518289677905
 21
-144.5288284205716
 31
0.0
  0
LINE
  5
1263F
330
12512
100
AcDbEntity
  8
0
100
AcDbLine
 10
-37.73271465145579
 20
-140.6562331563656
 30
0.0
 11
-38.42553497449061
 21
-140.2562331563614
 31
0.0
  0
ELLIPSE
  5
12640
330
12512
100
AcDbEntity
  8
0
100
AcDbEllipse
 10
-38.2791248129669
 20
-140.8026433178664
 30
0.0
 11
0.4000000000000005
 21
0.6928203230275525
 31
0.0
210
0.0
220
0.0
230
1.0
 40
0.5773502691896255
 41
5.235987755964771
 42
7.330382858357999
  0
LINE
  5
12641
330
12512
100
AcDbEntity
  8
0
100
AcDbLine
 10
-41.38306672921569
 20
-142.8788284204816
 30
0.0
 11
-38.42553497447073
 21
-140.2562331563437
 31
0.0
  0
ELLIPSE
  5
12642
330
12512
100
AcDbEntity
  8
0
100
AcDbEllipse
 10
-41.23665656771187
 20
-143.4252385820042
 30
0.0
 11
-0.4000000000072796
 21
-0.6928203230233497
 31
0.0
210
0.0
220
0.0
230
0.9999999999999998
 40
0.5773502691896255
 41
4.188790204822786
 42
6.283185307252342
  0
LINE
  5
12643
330
12512
100
AcDbEntity
  8
0
100
AcDbLine
 10
-39.47159305829742
 20
-145.3680589050958
 30
0.0
 11
-41.63665656771913
 21
-144.1180589050276
 31
0.0
  0
ELLIPSE
  5
12644
330
12512
100
AcDbEntity
  8
0
100
AcDbEllipse
 10
-39.07159305829016
 20
-144.6752385820724
 30
0.0
 11
-0.4000000000000412
 21
-0.6928203230275272
 31
0.0
210
0.0
220
0.0
230
1.0
 40
0.5773502691896257
 41
0.0
 42
2.094395102375107
  0
ELLIPSE
  5
12645
330
12512
100
AcDbEntity
  8
0
100
AcDbEllipse
 10
-52.02912481317162
 20
-158.844839229924
 30
0.0
 11
1.250000000000128
 21
2.165063509461022
 31
0.0
210
0.0
220
0.0
230
1.0
 40
0.5773502691896257
 41
0.0
 42
6.283185307179586
  0
LINE
  5
12646
330
12512
100
AcDbEntity
  8
0
100
AcDbLine
 10
-0.7913154647932342
 20
-110.3379643714961
 30
0.0
 11
-38.35486074468339
 21
-175.39993330868
 31
0.0
  0
LINE
  5
12647
330
12512
100
AcDbEntity
  8
0
100
AcDbLine
 10
-39.07912481339541
 20
-174.9817792536447
 30
0.0
 11
-38.35486074468337
 21
-175.3999333086801
 31
0.0
  0
LINE
  5
12648
330
12512
100
AcDbEntity
  8
0
100
AcDbLine
 10
-39.07912481339531
 20
-174.9817792536449
 30
0.0
 11
-2.379124814183262
 21
-111.4155146172316
 31
0.0
  0
ENDBLK
  5
12514
330
12512
100
AcDbEntity
  8
0
100
AcDbBlockEnd
  0
ENDSEC
  0
SECTION
  2
ENTITIES
  0
INSERT
  5
12649
330
1F
100
AcDbEntity
  8
0
100
AcDbBlockReference
  2
SPR80_400-Front
 10
0.0
 20
0.0
 30
0.0
  0
INSERT
  5
1264A
330
1F
100
AcDbEntity
  8
0
100
AcDbBlockReference
  2
SPR80_400-Left
 10
219.4229986469887
 20
0.0
 30
0.0
  0
INSERT
  5
1264B
330
1F
100
AcDbEntity
  8
0
100
AcDbBlockReference
  2
SPR80_400-Right
 10
-219.4229986469887
 20
0.0
 30
0.0
  0
INSERT
  5
1264C
330
1F
100
AcDbEntity
  8
0
100
AcDbBlockReference
  2
SPR80_400-Top
 10
0.0
 20
-192.545601705951
 30
0.0
  0
INSERT
  5
1264D
330
1F
100
AcDbEntity
  8
0
100
AcDbBlockReference
  2
SPR80_400-Bottom
 10
0.0
 20
537.5659080859886
 30
0.0
  0
INSERT
  5
1264E
330
1F
100
AcDbEntity
  8
0
100
AcDbBlockReference
  2
SPR80_400-ISO
 10
277.7627836320083
 20
-412.0148584386771
 30
0.0
  0
MTEXT
  5
1264F
330
1F
100
AcDbEntity
  8
0
100
AcDbMText
 10
0.0
 20
-411.4445760657996
 30
0.0
 40
33.75738440722904
 41
0.0
 71
     5
 72
     5
  1
SPR80/400
 73
     1
 44
1.0
1001
ACAD
1000
MTEXTBEGIN
1070
    73
1070
     1
1070
    44
1040
1.0
1070
    74
1070
     0
1000
MTEXTEND
  0
ENDSEC
  0
SECTION
  2
OBJECTS
  0
DICTIONARY
  5
C
330
0
100
AcDbDictionary
281
     1
  3
ACAD_CIP_PREVIOUS_PRODUCT_INFO
350
216
  3
ACAD_COLOR
350
6B
  3
ACAD_DETAILVIEWSTYLE
350
21B
  3
ACAD_GROUP
350
D
  3
ACAD_LAYOUT
350
1A
  3
ACAD_MATERIAL
350
6A
  3
ACAD_MLEADERSTYLE
350
12D
  3
ACAD_MLINESTYLE
350
17
  3
ACAD_PLOTSETTINGS
350
19
  3
ACAD_PLOTSTYLENAME
350
E
  3
ACAD_SCALELIST
350
10C
  3
ACAD_SECTIONVIEWSTYLE
350
219
  3
ACAD_TABLESTYLE
350
7E
  3
ACAD_VISUALSTYLE
350
EF
  3
ACDB_RECOMPOSE_DATA
350
12750
  3
AcDbVariableDictionary
350
5E
  3
DWGPROPS
350
12751
  0
DICTIONARY
  5
126A0
330
8
100
AcDbDictionary
280
     1
281
     1
  0
DICTIONARY
  5
1FF
330
2
100
AcDbDictionary
280
     1
281
     1
  3
ACAD_LAYERSTATES
360
200
  0
DICTIONARY
  5
13C
330
10
100
AcDbDictionary
280
     1
281
     1
  0
DICTIONARY
  5
1CE
330
1F
100
AcDbDictionary
280
     1
281
     1
  3
ACAD_LAYOUTSELFREF
360
126A8
  0
DICTIONARY
  5
12653
330
D2
100
AcDbDictionary
280
     1
281
     1
  3
ACAD_LAYOUTSELFREF
360
126B1
  0
DICTIONARY
  5
12655
330
D6
100
AcDbDictionary
280
     1
281
     1
  3
ACAD_LAYOUTSELFREF
360
126B4
  0
XRECORD
  5
216
102
{ACAD_REACTORS
330
C
102
}
330
C
100
AcDbXrecord
280
     1
300
ACD
300
2021
300
87393ACD_2021_0F
  0
DICTIONARY
  5
6B
102
{ACAD_REACTORS
330
C
102
}
330
C
100
AcDbDictionary
281
     1
  0
DICTIONARY
  5
21B
102
{ACAD_REACTORS
330
C
102
}
330
C
100
AcDbDictionary
281
     1
  3
Metric50
350
21C
  0
DICTIONARY
  5
D
102
{ACAD_REACTORS
330
C
102
}
330
C
100
AcDbDictionary
281
     1
  0
DICTIONARY
  5
1A
102
{ACAD_REACTORS
330
C
102
}
330
C
100
AcDbDictionary
281
     1
  3
Layout1
350
D3
  3
Layout2
350
D7
  3
Model
350
22
  0
DICTIONARY
  5
6A
102
{ACAD_REACTORS
330
C
102
}
330
C
100
AcDbDictionary
281
     1
  3
ByBlock
350
ED
  3
ByLayer
350
EC
  3
Global
350
EE
  0
DICTIONARY
  5
12D
102
{ACAD_REACTORS
330
C
102
}
330
C
100
AcDbDictionary
281
     1
  3
Standard
350
12E
  0
DICTIONARY
  5
17
102
{ACAD_REACTORS
330
C
102
}
330
C
100
AcDbDictionary
281
     1
  3
Standard
350
18
  0
DICTIONARY
  5
19
102
{ACAD_REACTORS
330
C
102
}
330
C
100
AcDbDictionary
281
     1
  0
ACDBDICTIONARYWDFLT
  5
E
102
{ACAD_REACTORS
330
C
102
}
330
C
100
AcDbDictionary
281
     1
  3
Normal
350
F
100
AcDbDictionaryWithDefault
340
F
  0
DICTIONARY
  5
10C
102
{ACAD_REACTORS
330
C
102
}
330
C
100
AcDbDictionary
281
     1
  3
A0
350
10D
  3
A1
350
1BE
  3
A2
350
1BF
  3
A3
350
1C0
  3
A4
350
1C1
  3
A5
350
1C2
  3
A6
350
1C3
  3
A7
350
1C4
  3
A8
350
1C5
  3
A9
350
1C6
  3
B0
350
1C7
  3
B1
350
1C8
  3
B2
350
1C9
  3
B3
350
1CA
  3
B4
350
1CB
  3
B5
350
1CC
  3
B6
350
1CD
  0
DICTIONARY
  5
219
102
{ACAD_REACTORS
330
C
102
}
330
C
100
AcDbDictionary
281
     1
  3
Metric50
350
21A
  0
DICTIONARY
  5
7E
102
{ACAD_REACTORS
330
C
102
}
330
C
100
AcDbDictionary
281
     1
  3
Standard
350
7F
  0
DICTIONARY
  5
EF
102
{ACAD_REACTORS
330
C
102
}
330
C
100
AcDbDictionary
281
     1
  3
2dWireframe
350
F5
  3
Basic
350
F4
  3
Brighten
350
FB
  3
ColorChange
350
FF
  3
Conceptual
350
F8
  3
Dim
350
FA
  3
EdgeColorOff
350
1E6
  3
Facepattern
350
FE
  3
Flat
350
F0
  3
FlatWithEdges
350
F1
  3
Gouraud
350
F2
  3
GouraudWithEdges
350
F3
  3
Hidden
350
F7
  3
JitterOff
350
1E4
  3
Linepattern
350
FD
  3
OverhangOff
350
1E5
  3
Realistic
350
F9
  3
Shaded
350
1F3
  3
Shaded with edges
350
1F2
  3
Shades of Gray
350
1EF
  3
Sketchy
350
1F0
  3
Thicken
350
FC
  3
Wireframe
350
F6
  3
X-Ray
350
1F1
  0
XRECORD
  5
12750
102
{ACAD_REACTORS
330
C
102
}
330
C
100
AcDbXrecord
280
     1
 90
        1
330
7F
  0
DICTIONARY
  5
5E
102
{ACAD_REACTORS
330
C
102
}
330
C
100
AcDbDictionary
281
     1
  3
CANNOSCALE
350
146
  3
CENTEREXE
350
259
  3
CENTERLTYPEFILE
350
25A
  3
CMLEADERSTYLE
350
145
  3
CTABLESTYLE
350
84
  3
CVIEWDETAILSTYLE
350
227
  3
CVIEWSECTIONSTYLE
350
228
  3
DIMASSOC
350
5F
  3
HIDETEXT
350
63
  3
INDEXCTL
350
126FD
  3
LAYEREVAL
350
1AE
  3
LAYERNOTIFY
350
1AF
  3
LIGHTINGUNITS
350
126FB
  3
MSLTSCALE
350
126FA
  3
PSOLHEIGHT
350
1274D
  3
PSOLWIDTH
350
1274C
  3
SORTENTS
350
126FC
  3
XCLIPFRAME
350
1274E
  0
XRECORD
  5
12751
102
{ACAD_REACTORS
330
C
102
}
330
C
100
AcDbXrecord
280
     1
  1
DWGPROPS COOKIE
  2

  3

  4

  6

  7

  8
truole
  9

300
=
301
=
302
=
303
=
304
=
305
=
306
=
307
=
308
=
309
=
 40
0.0027430555555556
 41
2460719.40650463
 42
2460719.416157407
  1

 90
        0
  0
DICTIONARY
  5
200
102
{ACAD_REACTORS
330
1FF
102
}
330
1FF
100
AcDbDictionary
281
     1
  0
XRECORD
  5
126A8
102
{ACAD_REACTORS
330
1CE
102
}
330
1CE
100
AcDbXrecord
280
     1
340
1F
  0
XRECORD
  5
126B1
102
{ACAD_REACTORS
330
12653
102
}
330
12653
100
AcDbXrecord
280
     1
340
D2
  0
XRECORD
  5
126B4
102
{ACAD_REACTORS
330
12655
102
}
330
12655
100
AcDbXrecord
280
     1
340
D6
  0
ACDBDETAILVIEWSTYLE
  5
21C
102
{ACAD_XDICTIONARY
360
12790
102
}
102
{ACAD_REACTORS
330
21B
102
}
330
21B
100
AcDbModelDocViewStyle
 70
     0
  3
Metric50
290
     0
100
AcDbDetailViewStyle
 70
     0
 71
     0
 90
        3
 71
     1
340
11
 40
5.0
340
0
 40
5.0
300

 40
0.0
280
     1
 71
     2
340
16
 90
       25
 71
     3
340
11
 40
5.0
 90
        0
 40
15.0
 90
        1
300
%<\AcVar ViewDetailId>% (%<\AcVar ViewScale \f "%sn">%)
 71
     4
340
16
 90
       25
340
16
 90
       25
280
     0
  0
LAYOUT
  5
D3
102
{ACAD_XDICTIONARY
360
12755
102
}
102
{ACAD_REACTORS
330
1A
102
}
330
1A
100
AcDbPlotSettings
  1

  2
C:\Documents and Settings\basas\Application Data\Autodesk\AutoCAD 2005\R16.1\enu\plotters\Default Windows System Printer.pc3
  4

  6

 40
0.0
 41
0.0
 42
0.0
 43
0.0
 44
0.0
 45
0.0
 46
0.0
 47
0.0
 48
0.0
 49
0.0
140
0.0
141
0.0
142
1.0
143
1.0
 70
   688
 72
     0
 73
     0
 74
     5
  7

 75
    16
147
1.0
148
0.0
149
0.0
100
AcDbLayout
  1
Layout1
 70
     1
 71
     1
 10
0.0
 20
0.0
 11
12.0
 21
9.0
 12
0.0
 22
0.0
 32
0.0
 14
0.0
 24
0.0
 34
0.0
 15
0.0
 25
0.0
 35
0.0
146
0.0
 13
0.0
 23
0.0
 33
0.0
 16
1.0
 26
0.0
 36
0.0
 17
0.0
 27
1.0
 37
0.0
 76
     0
330
D2
  0
LAYOUT
  5
D7
102
{ACAD_XDICTIONARY
360
12757
102
}
102
{ACAD_REACTORS
330
1A
102
}
330
1A
100
AcDbPlotSettings
  1

  2
C:\Documents and Settings\basas\Application Data\Autodesk\AutoCAD 2005\R16.1\enu\plotters\Default Windows System Printer.pc3
  4

  6

 40
0.0
 41
0.0
 42
0.0
 43
0.0
 44
0.0
 45
0.0
 46
0.0
 47
0.0
 48
0.0
 49
0.0
140
0.0
141
0.0
142
1.0
143
1.0
 70
   688
 72
     0
 73
     0
 74
     5
  7

 75
    16
147
1.0
148
0.0
149
0.0
100
AcDbLayout
  1
Layout2
 70
     1
 71
     2
 10
0.0
 20
0.0
 11
12.0
 21
9.0
 12
0.0
 22
0.0
 32
0.0
 14
0.0
 24
0.0
 34
0.0
 15
0.0
 25
0.0
 35
0.0
146
0.0
 13
0.0
 23
0.0
 33
0.0
 16
1.0
 26
0.0
 36
0.0
 17
0.0
 27
1.0
 37
0.0
 76
     0
330
D6
  0
LAYOUT
  5
22
102
{ACAD_XDICTIONARY
360
12752
102
}
102
{ACAD_REACTORS
330
1A
102
}
330
1A
100
AcDbPlotSettings
  1

  2
none_device
  4
ISO_A4_(210.00_x_297.00_MM)
  6

 40
7.5
 41
20.0
 42
7.5
 43
20.0
 44
210.0
 45
297.0
 46
11.54999923706054
 47
-13.65000009536743
 48
0.0
 49
0.0
140
0.0
141
0.0
142
1.0
143
8.704084754739808
 70
 11952
 72
     1
 73
     0
 74
     0
  7

 75
     0
147
0.1148885871608098
148
0.0
149
0.0
100
AcDbLayout
  1
Model
 70
     1
 71
     0
 10
0.0
 20
0.0
 11
12.0
 21
9.0
 12
0.0
 22
0.0
 32
0.0
 14
0.0
 24
0.0
 34
0.0
 15
0.0
 25
0.0
 35
0.0
146
0.0
 13
0.0
 23
0.0
 33
0.0
 16
1.0
 26
0.0
 36
0.0
 17
0.0
 27
1.0
 37
0.0
 76
     0
330
1F
331
EA
1001
ACAD_PSEXT
1000
None
1000
None
1000
Not applicable
1000
The layout will not be plotted unless a new plotter configuration name is selected.
1070
     0
  0
MATERIAL
  5
ED
102
{ACAD_XDICTIONARY
360
1F9
102
}
102
{ACAD_REACTORS
330
6A
102
}
330
6A
100
AcDbMaterial
  1
ByBlock
  0
MATERIAL
  5
EC
102
{ACAD_XDICTIONARY
360
1F7
102
}
102
{ACAD_REACTORS
330
6A
102
}
330
6A
100
AcDbMaterial
  1
ByLayer
  0
MATERIAL
  5
EE
102
{ACAD_XDICTIONARY
360
173
102
}
102
{ACAD_REACTORS
330
6A
102
}
330
6A
100
AcDbMaterial
  1
Global
 43
0.0007999999797903
 43
0.0
 43
0.0
 43
0.0
 43
0.0
 43
0.0007999999797903
 43
0.0
 43
0.0
 43
0.0
 43
0.0
 43
1.0
 43
0.0
 43
0.0
 43
0.0
 43
0.0
 43
1.0
 49
0.0007999999797903
 49
0.0
 49
0.0
 49
0.0
 49
0.0
 49
0.0007999999797903
 49
0.0
 49
0.0
 49
0.0
 49
0.0
 49
1.0
 49
0.0
 49
0.0
 49
0.0
 49
0.0
 49
1.0
142
0.0007999999797903
142
0.0
142
0.0
142
0.0
142
0.0
142
0.0007999999797903
142
0.0
142
0.0
142
0.0
142
0.0
142
1.0
142
0.0
142
0.0
142
0.0
142
0.0
142
1.0
144
0.0007999999797903
144
0.0
144
0.0
144
0.0
144
0.0
144
0.0007999999797903
144
0.0
144
0.0
144
0.0
144
0.0
144
1.0
144
0.0
144
0.0
144
0.0
144
0.0
144
1.0
1001
ACAD
1070
    -1
1070
     3
1070
     0
1000

1071
        0
1070
     0
  0
MLEADERSTYLE
  5
12E
102
{ACAD_XDICTIONARY
360
1277C
102
}
102
{ACAD_REACTORS
330
12D
102
}
330
12D
100
AcDbMLeaderStyle
170
     2
171
     1
172
     0
 90
        2
 40
0.0
 41
0.0
173
     1
 91
-1056964608
340
14
 92
       -2
290
     1
 42
2.0
291
     1
 43
8.0
  3
Standard
 44
4.0
300

342
11
174
     1
178
     1
175
     1
176
     0
 93
-1056964608
 45
4.0
292
     0
297
     0
 46
4.0
 94
-1056964608
 47
1.0
 49
1.0
140
1.0
293
     1
141
0.0
294
     1
177
     0
142
1.0
295
     0
296
     0
143
3.75
1001
ACAD_MLEADERVER
1070
     2
  0
MLINESTYLE
  5
18
102
{ACAD_REACTORS
330
17
102
}
330
17
100
AcDbMlineStyle
  2
STANDARD
 70
     0
  3

 62
   256
 51
90.0
 52
90.0
 71
     2
 49
0.5
 62
   256
  6
BYLAYER
 49
-0.5
 62
   256
  6
BYLAYER
  0
ACDBPLACEHOLDER
  5
F
102
{ACAD_REACTORS
330
E
102
}
330
E
  0
SCALE
  5
10D
102
{ACAD_REACTORS
330
10C
102
}
330
10C
100
AcDbScale
 70
     0
300
1:1
140
1.0
141
1.0
290
     1
  0
SCALE
  5
1BE
102
{ACAD_REACTORS
330
10C
102
}
330
10C
100
AcDbScale
 70
     0
300
1:2
140
1.0
141
2.0
290
     0
  0
SCALE
  5
1BF
102
{ACAD_REACTORS
330
10C
102
}
330
10C
100
AcDbScale
 70
     0
300
1:4
140
1.0
141
4.0
290
     0
  0
SCALE
  5
1C0
102
{ACAD_REACTORS
330
10C
102
}
330
10C
100
AcDbScale
 70
     0
300
1:5
140
1.0
141
5.0
290
     0
  0
SCALE
  5
1C1
102
{ACAD_REACTORS
330
10C
102
}
330
10C
100
AcDbScale
 70
     0
300
1:8
140
1.0
141
8.0
290
     0
  0
SCALE
  5
1C2
102
{ACAD_REACTORS
330
10C
102
}
330
10C
100
AcDbScale
 70
     0
300
1:10
140
1.0
141
10.0
290
     0
  0
SCALE
  5
1C3
102
{ACAD_REACTORS
330
10C
102
}
330
10C
100
AcDbScale
 70
     0
300
1:16
140
1.0
141
16.0
290
     0
  0
SCALE
  5
1C4
102
{ACAD_REACTORS
330
10C
102
}
330
10C
100
AcDbScale
 70
     0
300
1:20
140
1.0
141
20.0
290
     0
  0
SCALE
  5
1C5
102
{ACAD_REACTORS
330
10C
102
}
330
10C
100
AcDbScale
 70
     0
300
1:30
140
1.0
141
30.0
290
     0
  0
SCALE
  5
1C6
102
{ACAD_REACTORS
330
10C
102
}
330
10C
100
AcDbScale
 70
     0
300
1:40
140
1.0
141
40.0
290
     0
  0
SCALE
  5
1C7
102
{ACAD_REACTORS
330
10C
102
}
330
10C
100
AcDbScale
 70
     0
300
1:50
140
1.0
141
50.0
290
     0
  0
SCALE
  5
1C8
102
{ACAD_REACTORS
330
10C
102
}
330
10C
100
AcDbScale
 70
     0
300
1:100
140
1.0
141
100.0
290
     0
  0
SCALE
  5
1C9
102
{ACAD_REACTORS
330
10C
102
}
330
10C
100
AcDbScale
 70
     0
300
2:1
140
2.0
141
1.0
290
     0
  0
SCALE
  5
1CA
102
{ACAD_REACTORS
330
10C
102
}
330
10C
100
AcDbScale
 70
     0
300
4:1
140
4.0
141
1.0
290
     0
  0
SCALE
  5
1CB
102
{ACAD_REACTORS
330
10C
102
}
330
10C
100
AcDbScale
 70
     0
300
8:1
140
8.0
141
1.0
290
     0
  0
SCALE
  5
1CC
102
{ACAD_REACTORS
330
10C
102
}
330
10C
100
AcDbScale
 70
     0
300
10:1
140
10.0
141
1.0
290
     0
  0
SCALE
  5
1CD
102
{ACAD_REACTORS
330
10C
102
}
330
10C
100
AcDbScale
 70
     0
300
100:1
140
100.0
141
1.0
290
     0
  0
ACDBSECTIONVIEWSTYLE
  5
21A
102
{ACAD_XDICTIONARY
360
1278E
102
}
102
{ACAD_REACTORS
330
219
102
}
330
219
100
AcDbModelDocViewStyle
 70
     0
  3
Metric50
290
     0
100
AcDbSectionViewStyle
 70
     0
 71
     0
 90
      102
 71
     1
340
11
 40
5.0
340
0
340
0
 40
5.0
300
I, O, Q, S, X, Z
 40
10.0
 90
        0
 40
2.5
 90
        0
 71
     2
340
16
 90
       25
340
16
 90
       50
 40
5.0
 40
2.5
 40
5.0
 71
     3
340
11
 40
5.0
 90
        0
 40
15.0
 90
        1
300
%<\AcVar ViewSectionStartId>%-%<\AcVar ViewSectionEndId>% (%<\AcVar ViewScale \f "%sn">%)
 71
     4
300
ANSI31
 40
1.0
 90
        0
290
     0
290
     0
 90
        6
 40
0.0
 40
1.570796326794896
 40
0.2617993877991494
 40
1.308996938995747
 40
-0.2617993877991494
 40
1.832595714594046
  0
TABLESTYLE
  5
7F
102
{ACAD_XDICTIONARY
360
162
102
}
102
{ACAD_REACTORS
330
7E
102
}
330
7E
100
AcDbTableStyle
  3
Standard
 70
     0
 71
     0
 40
1.5
 41
1.5
280
     0
281
     0
  7
Standard
140
4.5
170
     2
 62
     0
 63
     7
283
     0
274
    -2
284
     1
 64
     0
275
    -2
285
     1
 65
     0
276
    -2
286
     1
 66
     0
277
    -2
287
     1
 67
     0
278
    -2
288
     1
 68
     0
279
    -2
289
     1
 69
     0
  7
Standard
140
6.0
170
     5
 62
     0
 63
     7
283
     0
274
    -2
284
     1
 64
     0
275
    -2
285
     1
 65
     0
276
    -2
286
     1
 66
     0
277
    -2
287
     1
 67
     0
278
    -2
288
     1
 68
     0
279
    -2
289
     1
 69
     0
  7
Standard
140
4.5
170
     5
 62
     0
 63
     7
283
     0
274
    -2
284
     1
 64
     0
275
    -2
285
     1
 65
     0
276
    -2
286
     1
 66
     0
277
    -2
287
     1
 67
     0
278
    -2
288
     1
 68
     0
279
    -2
289
     1
 69
     0
  0
VISUALSTYLE
  5
F5
102
{ACAD_XDICTIONARY
360
12766
102
}
102
{ACAD_REACTORS
330
EF
102
}
330
EF
100
AcDbVisualStyle
  2
2dWireframe
 70
     4
 71
     0
 72
     2
 73
     1
 90
        0
 40
-0.6
 41
-30.0
 62
     5
 63
     7
 74
     1
 91
        4
 64
     7
 65
   257
 75
     1
175
     1
 42
1.0
 92
        0
 66
   257
 43
1.0
 76
     1
 77
     6
 78
     2
 67
     7
 79
     5
170
     0
171
     0
290
     0
174
     0
 93
        1
 44
0.0
173
     0
291
     0
 45
0.0
1001
ACAD
1000
AcDbSavedByObjectVersion
1070
     0
  0
VISUALSTYLE
  5
F4
102
{ACAD_XDICTIONARY
360
12764
102
}
102
{ACAD_REACTORS
330
EF
102
}
330
EF
100
AcDbVisualStyle
  2
Basic
 70
     7
 71
     1
 72
     0
 73
     1
 90
        0
 40
-0.6
 41
-30.0
 62
     5
 63
     7
 74
     0
 91
        4
 64
     7
 65
   257
 75
     1
175
     1
 42
1.0
 92
        8
 66
     7
 43
1.0
 76
     1
 77
     6
 78
     2
 67
     7
 79
     5
170
     0
171
     0
290
     0
174
     0
 93
        1
 44
0.0
173
     0
291
     1
 45
0.0
1001
ACAD
1000
AcDbSavedByObjectVersion
1070
     0
  0
VISUALSTYLE
  5
FB
102
{ACAD_XDICTIONARY
360
12772
102
}
102
{ACAD_REACTORS
330
EF
102
}
330
EF
100
AcDbVisualStyle
  2
Brighten
 70
    12
 71
     2
 72
     2
 73
     1
 90
        0
 40
-0.6
 41
-30.0
 62
     5
 63
     7
 74
     1
 91
        4
 64
     7
 65
   257
 75
     1
175
     1
 42
1.0
 92
        8
 66
     7
 43
1.0
 76
     1
 77
     6
 78
     2
 67
     7
 79
     5
170
     0
171
     0
290
     0
174
     0
 93
        1
 44
50.0
173
     0
291
     1
 45
0.0
1001
ACAD
1000
AcDbSavedByObjectVersion
1070
     0
  0
VISUALSTYLE
  5
FF
102
{ACAD_XDICTIONARY
360
1277A
102
}
102
{ACAD_REACTORS
330
EF
102
}
330
EF
100
AcDbVisualStyle
  2
ColorChange
 70
    16
 71
     2
 72
     2
 73
     3
 90
        0
 40
-0.6
 41
-30.0
 62
     5
 63
     8
 74
     1
 91
        4
 64
     7
 65
   257
 75
     1
175
     1
 42
1.0
 92
        8
 66
     8
 43
1.0
 76
     1
 77
     6
 78
     2
 67
     7
 79
     5
170
     0
171
     0
290
     0
174
     0
 93
        1
 44
0.0
173
     0
291
     1
 45
0.0
1001
ACAD
1000
AcDbSavedByObjectVersion
1070
     0
  0
VISUALSTYLE
  5
F8
102
{ACAD_XDICTIONARY
360
1276C
102
}
102
{ACAD_REACTORS
330
EF
102
}
330
EF
100
AcDbVisualStyle
  2
Conceptual
 70
     9
 71
     3
 72
     2
 73
     1
 90
        0
 40
-0.6
 41
-30.0
 62
     5
 63
     7
 74
     2
 91
        2
 64
     7
 65
   257
 75
     1
175
     1
 42
40.0
 92
        8
 66
     7
 43
1.0
 76
     1
 77
     6
 78
     2
 67
     7
 79
     3
170
     0
171
     0
290
     0
174
     0
 93
        1
 44
0.0
173
     0
291
     0
 45
0.0
1001
ACAD
1000
AcDbSavedByObjectVersion
1070
     0
  0
VISUALSTYLE
  5
FA
102
{ACAD_XDICTIONARY
360
12770
102
}
102
{ACAD_REACTORS
330
EF
102
}
330
EF
100
AcDbVisualStyle
  2
Dim
 70
    11
 71
     2
 72
     2
 73
     1
 90
        0
 40
-0.6
 41
-30.0
 62
     5
 63
     7
 74
     1
 91
        4
 64
     7
 65
   257
 75
     1
175
     1
 42
1.0
 92
        8
 66
     7
 43
1.0
 76
     1
 77
     6
 78
     2
 67
     7
 79
     5
170
     0
171
     0
290
     0
174
     0
 93
        1
 44
-50.0
173
     0
291
     1
 45
0.0
1001
ACAD
1000
AcDbSavedByObjectVersion
1070
     0
  0
VISUALSTYLE
  5
1E6
102
{ACAD_XDICTIONARY
360
12782
102
}
102
{ACAD_REACTORS
330
EF
102
}
330
EF
100
AcDbVisualStyle
  2
EdgeColorOff
 70
    22
 71
     2
 72
     2
 73
     0
 90
        0
 40
-0.6
 41
-30.0
 62
     5
 63
     7
 74
     1
 91
        4
 64
     7
 65
   257
 75
     1
175
     1
 42
1.0
 92
        8
 66
     7
 43
1.0
 76
     1
 77
     6
 78
     2
 67
     7
 79
     5
170
     0
171
     0
290
     0
174
     0
 93
        1
 44
0.0
173
     0
291
     1
 45
0.0
1001
ACAD
1000
AcDbSavedByObjectVersion
1070
     0
  0
VISUALSTYLE
  5
FE
102
{ACAD_XDICTIONARY
360
12778
102
}
102
{ACAD_REACTORS
330
EF
102
}
330
EF
100
AcDbVisualStyle
  2
Facepattern
 70
    15
 71
     2
 72
     2
 73
     1
 90
        0
 40
-0.6
 41
-30.0
 62
     5
 63
     7
 74
     1
 91
        4
 64
     7
 65
   257
 75
     1
175
     1
 42
1.0
 92
        8
 66
     7
 43
1.0
 76
     1
 77
     6
 78
     2
 67
     7
 79
     5
170
     0
171
     0
290
     0
174
     0
 93
        1
 44
0.0
173
     0
291
     1
 45
0.0
1001
ACAD
1000
AcDbSavedByObjectVersion
1070
     0
  0
VISUALSTYLE
  5
F0
102
{ACAD_XDICTIONARY
360
1275C
102
}
102
{ACAD_REACTORS
330
EF
102
}
330
EF
100
AcDbVisualStyle
  2
Flat
 70
     0
 71
     2
 72
     1
 73
     1
 90
        2
 40
-0.6
 41
30.0
 62
     5
 63
     7
 74
     0
 91
        0
 64
     7
 65
   257
 75
     1
175
     1
 42
1.0
 92
        8
 66
     7
 43
1.0
 76
     1
 77
     6
 78
     2
 67
     7
 79
     5
170
     0
171
     0
290
     0
174
     0
 93
       13
 44
0.0
173
     0
291
     1
 45
0.0
1001
ACAD
1000
AcDbSavedByObjectVersion
1070
     0
  0
VISUALSTYLE
  5
F1
102
{ACAD_XDICTIONARY
360
1275E
102
}
102
{ACAD_REACTORS
330
EF
102
}
330
EF
100
AcDbVisualStyle
  2
FlatWithEdges
 70
     1
 71
     2
 72
     1
 73
     1
 90
        2
 40
-0.6
 41
30.0
 62
     5
 63
     7
 74
     1
 91
        0
 64
     7
 65
   257
 75
     1
175
     1
 42
1.0
 92
        0
 66
   257
 43
1.0
 76
     1
 77
     6
 78
     2
 67
     7
 79
     5
170
     0
171
     0
290
     0
174
     0
 93
       13
 44
0.0
173
     0
291
     1
 45
0.0
1001
ACAD
1000
AcDbSavedByObjectVersion
1070
     0
  0
VISUALSTYLE
  5
F2
102
{ACAD_XDICTIONARY
360
12760
102
}
102
{ACAD_REACTORS
330
EF
102
}
330
EF
100
AcDbVisualStyle
  2
Gouraud
 70
     2
 71
     2
 72
     2
 73
     1
 90
        2
 40
-0.6
 41
30.0
 62
     5
 63
     7
 74
     0
 91
        0
 64
     7
 65
   257
 75
     1
175
     1
 42
1.0
 92
        0
 66
     7
 43
1.0
 76
     1
 77
     6
 78
     2
 67
     7
 79
     5
170
     0
171
     0
290
     0
174
     0
 93
       13
 44
0.0
173
     0
291
     1
 45
0.0
1001
ACAD
1000
AcDbSavedByObjectVersion
1070
     0
  0
VISUALSTYLE
  5
F3
102
{ACAD_XDICTIONARY
360
12762
102
}
102
{ACAD_REACTORS
330
EF
102
}
330
EF
100
AcDbVisualStyle
  2
GouraudWithEdges
 70
     3
 71
     2
 72
     2
 73
     1
 90
        2
 40
-0.6
 41
30.0
 62
     5
 63
     7
 74
     1
 91
        0
 64
     7
 65
   257
 75
     1
175
     1
 42
1.0
 92
        0
 66
   257
 43
1.0
 76
     1
 77
     6
 78
     2
 67
     7
 79
     5
170
     0
171
     0
290
     0
174
     0
 93
       13
 44
0.0
173
     0
291
     1
 45
0.0
1001
ACAD
1000
AcDbSavedByObjectVersion
1070
     0
  0
VISUALSTYLE
  5
F7
102
{ACAD_XDICTIONARY
360
1276A
102
}
102
{ACAD_REACTORS
330
EF
102
}
330
EF
100
AcDbVisualStyle
  2
Hidden
 70
     6
 71
     1
 72
     2
 73
     2
 90
        0
 40
-0.6
 41
-30.0
 62
     5
 63
     7
 74
     2
 91
        2
 64
     7
 65
   257
 75
     2
175
     1
 42
40.0
 92
        0
 66
   257
 43
1.0
 76
     1
 77
     6
 78
     2
 67
     7
 79
     3
170
     0
171
     0
290
     0
174
     0
 93
        1
 44
0.0
173
     0
291
     0
 45
0.0
1001
ACAD
1000
AcDbSavedByObjectVersion
1070
     0
  0
VISUALSTYLE
  5
1E4
102
{ACAD_XDICTIONARY
360
1277E
102
}
102
{ACAD_REACTORS
330
EF
102
}
330
EF
100
AcDbVisualStyle
  2
JitterOff
 70
    20
 71
     2
 72
     2
 73
     0
 90
        0
 40
-0.6
 41
-30.0
 62
     5
 63
     7
 74
     1
 91
        4
 64
     7
 65
   257
 75
     1
175
     1
 42
1.0
 92
       10
 66
     7
 43
1.0
 76
     1
 77
     6
 78
     2
 67
     7
 79
     5
170
     0
171
     0
290
     0
174
     0
 93
        1
 44
0.0
173
     0
291
     1
 45
0.0
1001
ACAD
1000
AcDbSavedByObjectVersion
1070
     0
  0
VISUALSTYLE
  5
FD
102
{ACAD_XDICTIONARY
360
12776
102
}
102
{ACAD_REACTORS
330
EF
102
}
330
EF
100
AcDbVisualStyle
  2
Linepattern
 70
    14
 71
     2
 72
     2
 73
     1
 90
        0
 40
-0.6
 41
-30.0
 62
     5
 63
     7
 74
     1
 91
        4
 64
     7
 65
   257
 75
     7
175
     7
 42
1.0
 92
        8
 66
     7
 43
1.0
 76
     1
 77
     6
 78
     2
 67
     7
 79
     5
170
     0
171
     0
290
     0
174
     0
 93
        1
 44
0.0
173
     0
291
     1
 45
0.0
1001
ACAD
1000
AcDbSavedByObjectVersion
1070
     0
  0
VISUALSTYLE
  5
1E5
102
{ACAD_XDICTIONARY
360
12780
102
}
102
{ACAD_REACTORS
330
EF
102
}
330
EF
100
AcDbVisualStyle
  2
OverhangOff
 70
    21
 71
     2
 72
     2
 73
     0
 90
        0
 40
-0.6
 41
-30.0
 62
     5
 63
     7
 74
     1
 91
        4
 64
     7
 65
   257
 75
     1
175
     1
 42
1.0
 92
        9
 66
     7
 43
1.0
 76
     1
 77
     6
 78
     2
 67
     7
 79
     5
170
     0
171
     0
290
     0
174
     0
 93
        1
 44
0.0
173
     0
291
     1
 45
0.0
1001
ACAD
1000
AcDbSavedByObjectVersion
1070
     0
  0
VISUALSTYLE
  5
F9
102
{ACAD_XDICTIONARY
360
1276E
102
}
102
{ACAD_REACTORS
330
EF
102
}
330
EF
100
AcDbVisualStyle
  2
Realistic
 70
     8
 71
     2
 72
     2
 73
     0
 90
        2
 40
-0.6
 41
30.0
 62
     5
 63
     7
 74
     0
 91
        0
 64
     7
 65
   257
 75
     1
175
     1
 42
1.0
 92
        8
 66
   257
 43
1.0
 76
     1
 77
     6
 78
     2
 67
     7
 79
     3
170
     0
171
     0
290
     0
174
     0
 93
       13
 44
0.0
173
     0
291
     0
 45
0.0
1001
ACAD
1000
AcDbSavedByObjectVersion
1070
     0
  0
VISUALSTYLE
  5
1F3
102
{ACAD_XDICTIONARY
360
1278C
102
}
102
{ACAD_REACTORS
330
EF
102
}
330
EF
100
AcDbVisualStyle
  2
Shaded
 70
    27
 71
     2
 72
     2
 73
     1
 90
        2
 40
-0.6
 41
30.0
 62
     5
 63
     7
 74
     0
 91
        4
 64
     7
 65
   257
 75
     1
175
     1
 42
1.0
 92
        8
 66
   257
 43
1.0
 76
     1
 77
     6
 78
     2
 67
     8
 79
     3
170
     0
171
     0
290
     0
174
     0
 93
        5
 44
0.0
173
     0
291
     0
 45
0.0
1001
ACAD
1000
AcDbSavedByObjectVersion
1070
     0
  0
VISUALSTYLE
  5
1F2
102
{ACAD_XDICTIONARY
360
1278A
102
}
102
{ACAD_REACTORS
330
EF
102
}
330
EF
100
AcDbVisualStyle
  2
Shaded with edges
 70
    26
 71
     2
 72
     2
 73
     1
 90
        2
 40
-0.6
 41
30.0
 62
     5
 63
     7
 74
     1
 91
        2
 64
     7
 65
   257
 75
     2
175
     1
 42
1.0
 92
        8
 66
   257
 43
1.0
 76
     1
 77
     6
 78
     2
 67
     7
 79
     3
170
     0
171
     0
290
     0
174
     0
 93
        5
 44
0.0
173
     0
291
     0
 45
0.0
1001
ACAD
1000
AcDbSavedByObjectVersion
1070
     0
  0
VISUALSTYLE
  5
1EF
102
{ACAD_XDICTIONARY
360
12784
102
}
102
{ACAD_REACTORS
330
EF
102
}
330
EF
100
AcDbVisualStyle
  2
Shades of Gray
 70
    23
 71
     2
 72
     2
 73
     3
 90
        0
 40
-0.6
 41
-30.0
 62
     5
 63
     7
 74
     2
 91
        2
 64
     7
 65
     7
 75
     1
175
     1
 42
40.0
 92
        8
 66
     7
 43
1.0
 76
     1
 77
     6
 78
     2
 67
     7
 79
     3
170
     0
171
     0
290
     0
174
     0
 93
        1
 44
0.0
173
     0
291
     0
 45
0.0
1001
ACAD
1000
AcDbSavedByObjectVersion
1070
     0
  0
VISUALSTYLE
  5
1F0
102
{ACAD_XDICTIONARY
360
12786
102
}
102
{ACAD_REACTORS
330
EF
102
}
330
EF
100
AcDbVisualStyle
  2
Sketchy
 70
    24
 71
     1
 72
     2
 73
     2
 90
        0
 40
-0.6
 41
-30.0
 62
     5
 63
     7
 74
     2
 91
        2
 64
     7
 65
     7
 75
     1
175
     1
 42
40.0
 92
       11
 66
     7
 43
1.0
 76
     1
 77
     6
 78
     2
 67
     7
 79
     6
170
     0
171
     0
290
     0
174
     0
 93
        1
 44
0.0
173
     0
291
     0
 45
0.0
1001
ACAD
1000
AcDbSavedByObjectVersion
1070
     0
  0
VISUALSTYLE
  5
FC
102
{ACAD_XDICTIONARY
360
12774
102
}
102
{ACAD_REACTORS
330
EF
102
}
330
EF
100
AcDbVisualStyle
  2
Thicken
 70
    13
 71
     2
 72
     2
 73
     1
 90
        0
 40
-0.6
 41
-30.0
 62
     5
 63
     7
 74
     1
 91
        4
 64
     7
 65
   257
 75
     1
175
     1
 42
1.0
 92
       12
 66
     7
 43
1.0
 76
     1
 77
     6
 78
     2
 67
     7
 79
     5
170
     0
171
     0
290
     0
174
     0
 93
        1
 44
0.0
173
     0
291
     1
 45
0.0
1001
ACAD
1000
AcDbSavedByObjectVersion
1070
     0
  0
VISUALSTYLE
  5
F6
102
{ACAD_XDICTIONARY
360
12768
102
}
102
{ACAD_REACTORS
330
EF
102
}
330
EF
100
AcDbVisualStyle
  2
Wireframe
 70
     5
 71
     0
 72
     2
 73
     0
 90
        0
 40
-0.6
 41
-30.0
 62
     5
 63
     7
 74
     1
 91
        4
 64
     7
 65
   257
 75
     1
175
     1
 42
1.0
 92
        0
 66
   257
 43
1.0
 76
     1
 77
     6
 78
     2
 67
     7
 79
     3
170
     0
171
     0
290
     0
174
     0
 93
        1
 44
0.0
173
     0
291
     0
 45
0.0
1001
ACAD
1000
AcDbSavedByObjectVersion
1070
     0
  0
VISUALSTYLE
  5
1F1
102
{ACAD_XDICTIONARY
360
12788
102
}
102
{ACAD_REACTORS
330
EF
102
}
330
EF
100
AcDbVisualStyle
  2
X-Ray
 70
    25
 71
     2
 72
     2
 73
     1
 90
        1
 40
0.5
 41
-30.0
 62
     5
 63
     7
 74
     1
 91
        0
 64
     7
 65
   257
 75
     1
175
     1
 42
1.0
 92
        8
 66
     7
 43
1.0
 76
     1
 77
     6
 78
     2
 67
     7
 79
     3
170
     0
171
     0
290
     0
174
     0
 93
       13
 44
0.0
173
     0
291
     0
 45
0.0
1001
ACAD
1000
AcDbSavedByObjectVersion
1070
     0
  0
DICTIONARYVAR
  5
146
102
{ACAD_REACTORS
330
5E
102
}
330
5E
100
DictionaryVariables
280
     0
  1
1:1
  0
DICTIONARYVAR
  5
259
102
{ACAD_REACTORS
330
5E
102
}
330
5E
100
DictionaryVariables
280
     0
  1
3.500000
  0
DICTIONARYVAR
  5
25A
102
{ACAD_REACTORS
330
5E
102
}
330
5E
100
DictionaryVariables
280
     0
  1
acadiso.lin
  0
DICTIONARYVAR
  5
145
102
{ACAD_REACTORS
330
5E
102
}
330
5E
100
DictionaryVariables
280
     0
  1
STANDARD
  0
DICTIONARYVAR
  5
84
102
{ACAD_REACTORS
330
5E
102
}
330
5E
100
DictionaryVariables
280
     0
  1
STANDARD
  0
DICTIONARYVAR
  5
227
102
{ACAD_REACTORS
330
5E
102
}
330
5E
100
DictionaryVariables
280
     0
  1
Metric50
  0
DICTIONARYVAR
  5
228
102
{ACAD_REACTORS
330
5E
102
}
330
5E
100
DictionaryVariables
280
     0
  1
Metric50
  0
DICTIONARYVAR
  5
5F
102
{ACAD_REACTORS
330
5E
102
}
330
5E
100
DictionaryVariables
280
     0
  1
2
  0
DICTIONARYVAR
  5
63
102
{ACAD_REACTORS
330
5E
102
}
330
5E
100
DictionaryVariables
280
     0
  1
1
  0
DICTIONARYVAR
  5
126FD
102
{ACAD_REACTORS
330
5E
102
}
330
5E
100
DictionaryVariables
280
     0
  1
0
  0
DICTIONARYVAR
  5
1AE
102
{ACAD_REACTORS
330
5E
102
}
330
5E
100
DictionaryVariables
280
     0
  1
0
  0
DICTIONARYVAR
  5
1AF
102
{ACAD_REACTORS
330
5E
102
}
330
5E
100
DictionaryVariables
280
     0
  1
0
  0
DICTIONARYVAR
  5
126FB
102
{ACAD_REACTORS
330
5E
102
}
330
5E
100
DictionaryVariables
280
     0
  1
2
  0
DICTIONARYVAR
  5
126FA
102
{ACAD_REACTORS
330
5E
102
}
330
5E
100
DictionaryVariables
280
     0
  1
1
  0
DICTIONARYVAR
  5
1274D
102
{ACAD_REACTORS
330
5E
102
}
330
5E
100
DictionaryVariables
280
     0
  1
80.000000
  0
DICTIONARYVAR
  5
1274C
102
{ACAD_REACTORS
330
5E
102
}
330
5E
100
DictionaryVariables
280
     0
  1
5.000000
  0
DICTIONARYVAR
  5
126FC
102
{ACAD_REACTORS
330
5E
102
}
330
5E
100
DictionaryVariables
280
     0
  1
127
  0
DICTIONARYVAR
  5
1274E
102
{ACAD_REACTORS
330
5E
102
}
330
5E
100
DictionaryVariables
280
     0
  1
2
  0
DICTIONARY
  5
12790
330
21C
100
AcDbDictionary
280
     1
281
     1
  3
ACAD_XREC_ROUNDTRIP
360
12791
  0
DICTIONARY
  5
12755
330
D3
100
AcDbDictionary
280
     1
281
     1
  3
ACAD_XREC_ROUNDTRIP
360
12756
  0
DICTIONARY
  5
12757
330
D7
100
AcDbDictionary
280
     1
281
     1
  3
ACAD_XREC_ROUNDTRIP
360
12758
  0
DICTIONARY
  5
12752
330
22
100
AcDbDictionary
280
     1
281
     1
  3
ACAD_XREC_ROUNDTRIP
360
12753
  0
DICTIONARY
  5
1F9
330
ED
100
AcDbDictionary
280
     1
281
     1
  3
ACAD_XREC_ROUNDTRIP
360
1275A
  3
FBXASSET
360
1FA
  0
DICTIONARY
  5
1F7
330
EC
100
AcDbDictionary
280
     1
281
     1
  3
ACAD_XREC_ROUNDTRIP
360
12759
  3
FBXASSET
360
1F8
  0
DICTIONARY
  5
173
330
EE
100
AcDbDictionary
280
     1
281
     1
  3
ACAD_XREC_ROUNDTRIP
360
1275B
  3
BUMPTILE
360
175
  3
DIFFUSETILE
360
174
  3
FBXASSET
360
1FB
  3
OPACITYTILE
360
176
  3
REFLECTIONTILE
360
177
  0
DICTIONARY
  5
1277C
330
12E
100
AcDbDictionary
280
     1
281
     1
  3
ACAD_XREC_ROUNDTRIP
360
1277D
  0
DICTIONARY
  5
1278E
330
21A
100
AcDbDictionary
280
     1
281
     1
  3
ACAD_XREC_ROUNDTRIP
360
1278F
  0
DICTIONARY
  5
162
330
7F
100
AcDbDictionary
280
     1
281
     1
  3
ACAD_ROUNDTRIP_2008_TABLESTYLE_CELLSTYLEMAP
360
1274F
  3
ACAD_XREC_ROUNDTRIP
360
12754
  0
DICTIONARY
  5
12766
330
F5
100
AcDbDictionary
280
     1
281
     1
  3
ACAD_XREC_ROUNDTRIP
360
12767
  0
DICTIONARY
  5
12764
330
F4
100
AcDbDictionary
280
     1
281
     1
  3
ACAD_XREC_ROUNDTRIP
360
12765
  0
DICTIONARY
  5
12772
330
FB
100
AcDbDictionary
280
     1
281
     1
  3
ACAD_XREC_ROUNDTRIP
360
12773
  0
DICTIONARY
  5
1277A
330
FF
100
AcDbDictionary
280
     1
281
     1
  3
ACAD_XREC_ROUNDTRIP
360
1277B
  0
DICTIONARY
  5
1276C
330
F8
100
AcDbDictionary
280
     1
281
     1
  3
ACAD_XREC_ROUNDTRIP
360
1276D
  0
DICTIONARY
  5
12770
330
FA
100
AcDbDictionary
280
     1
281
     1
  3
ACAD_XREC_ROUNDTRIP
360
12771
  0
DICTIONARY
  5
12782
330
1E6
100
AcDbDictionary
280
     1
281
     1
  3
ACAD_XREC_ROUNDTRIP
360
12783
  0
DICTIONARY
  5
12778
330
FE
100
AcDbDictionary
280
     1
281
     1
  3
ACAD_XREC_ROUNDTRIP
360
12779
  0
DICTIONARY
  5
1275C
330
F0
100
AcDbDictionary
280
     1
281
     1
  3
ACAD_XREC_ROUNDTRIP
360
1275D
  0
DICTIONARY
  5
1275E
330
F1
100
AcDbDictionary
280
     1
281
     1
  3
ACAD_XREC_ROUNDTRIP
360
1275F
  0
DICTIONARY
  5
12760
330
F2
100
AcDbDictionary
280
     1
281
     1
  3
ACAD_XREC_ROUNDTRIP
360
12761
  0
DICTIONARY
  5
12762
330
F3
100
AcDbDictionary
280
     1
281
     1
  3
ACAD_XREC_ROUNDTRIP
360
12763
  0
DICTIONARY
  5
1276A
330
F7
100
AcDbDictionary
280
     1
281
     1
  3
ACAD_XREC_ROUNDTRIP
360
1276B
  0
DICTIONARY
  5
1277E
330
1E4
100
AcDbDictionary
280
     1
281
     1
  3
ACAD_XREC_ROUNDTRIP
360
1277F
  0
DICTIONARY
  5
12776
330
FD
100
AcDbDictionary
280
     1
281
     1
  3
ACAD_XREC_ROUNDTRIP
360
12777
  0
DICTIONARY
  5
12780
330
1E5
100
AcDbDictionary
280
     1
281
     1
  3
ACAD_XREC_ROUNDTRIP
360
12781
  0
DICTIONARY
  5
1276E
330
F9
100
AcDbDictionary
280
     1
281
     1
  3
ACAD_XREC_ROUNDTRIP
360
1276F
  0
DICTIONARY
  5
1278C
330
1F3
100
AcDbDictionary
280
     1
281
     1
  3
ACAD_XREC_ROUNDTRIP
360
1278D
  0
DICTIONARY
  5
1278A
330
1F2
100
AcDbDictionary
280
     1
281
     1
  3
ACAD_XREC_ROUNDTRIP
360
1278B
  0
DICTIONARY
  5
12784
330
1EF
100
AcDbDictionary
280
     1
281
     1
  3
ACAD_XREC_ROUNDTRIP
360
12785
  0
DICTIONARY
  5
12786
330
1F0
100
AcDbDictionary
280
     1
281
     1
  3
ACAD_XREC_ROUNDTRIP
360
12787
  0
DICTIONARY
  5
12774
330
FC
100
AcDbDictionary
280
     1
281
     1
  3
ACAD_XREC_ROUNDTRIP
360
12775
  0
DICTIONARY
  5
12768
330
F6
100
AcDbDictionary
280
     1
281
     1
  3
ACAD_XREC_ROUNDTRIP
360
12769
  0
DICTIONARY
  5
12788
330
1F1
100
AcDbDictionary
280
     1
281
     1
  3
ACAD_XREC_ROUNDTRIP
360
12789
  0
XRECORD
  5
12791
102
{ACAD_REACTORS
330
12790
102
}
330
12790
100
AcDbXrecord
280
     1
102
DISPLAYNAME
  1
Metric50
102
FLAGS
 90
        0
  0
XRECORD
  5
12756
102
{ACAD_REACTORS
330
12755
102
}
330
12755
100
AcDbXrecord
280
     1
102
SHADEPLOT
 70
     0
102
SHADEPLOTRESLEVEL
 70
     2
102
SHADEPLOTCUSTOMDPI
 70
   300
  0
XRECORD
  5
12758
102
{ACAD_REACTORS
330
12757
102
}
330
12757
100
AcDbXrecord
280
     1
102
SHADEPLOT
 70
     0
102
SHADEPLOTRESLEVEL
 70
     2
102
SHADEPLOTCUSTOMDPI
 70
   300
  0
XRECORD
  5
12753
102
{ACAD_REACTORS
330
12752
102
}
330
12752
100
AcDbXrecord
280
     1
102
SHADEPLOT
 70
     0
102
SHADEPLOTRESLEVEL
 70
     2
102
SHADEPLOTCUSTOMDPI
 70
   300
  0
XRECORD
  5
1275A
102
{ACAD_REACTORS
330
1F9
102
}
330
1F9
100
AcDbXrecord
280
     1
102
MATERIAL
148
0.0
149
0.0
149
0.0
 93
        0
 94
       63
282
     0
 72
     1
 77
     1
171
     1
175
     1
179
     1
273
     0
  0
XRECORD
  5
1FA
102
{ACAD_REACTORS
330
1F9
102
}
330
1F9
100
AcDbXrecord
280
     1
 70
     1
 90
429727718
  1
D62C5603-E3A1-4AEA-B7FB-FE5D8D0755AF
310
504B03040A0000080000CC70623B3DEE336E79000000790000001B0000006175746F6465736B2D64657369676E2D7061636B6167652E786D6C3C3F786D6C2076657273696F6E3D22312E302220656E636F64696E673D227574662D3822203F3E3C666F726D6174733E3C666F726D61743E687474703A2F2F736368656D612E
310
6175746F6465736B2E636F6D2F64657369676E2D7061636B6167652F323030393C2F666F726D61743E3C2F666F726D6174733E504B0304140006080800CC70623BD486FD9CA0000000F4000000130000005B436F6E74656E745F54797065735D2E786D6C7D8EC10E82300C865F65E91D8A1E8C310C0EEA1BF002731658846E
310
D98AC1B77784ABF1D8FE5FBFBF75BBCE937A534CCEB38643598122B6FEE978D0B0485F9C41B54DDD7D022595594E1A469170414C76A4D9A4D207E29CF43ECE46F218070CC6BECC4078ACAA135ACF422C856C0E68EA1BF5669944DDD7BCDE7B1F8E415D77AECB980613C2E4AC91FC167A2B244592486606FC29C8FD7F045B9A
310
EF7053A7E60B504B0304140006080800CC70623B853B8169EB0000007C01000008000000636F72652E786D6C8D90416EC3201045AF62CDB6C206821CC7C244919D9CA01740401C94182C03558F5F9C3852BBEB6A467FFE9B197D7EFC9E1EC5975982F5AE035262288C535E5B377690E21535501C055FBC8FBF6C503839990E
310
5619041F179FE64D52DE45E362569DD7661365082642A11EB9E920A89B99642953CC8E702F67A9EE7234257977194EC9EAE275C4EABCCF5EAD5940D4AC6F0E35A568B8F43562CD7046CD199FD07E60174276A7BE677B5EADB0E0D14EEFFB6A31321A0D82627C4084204C3F096B71DD52F6819B16635EADF63F509AF53FA164
310
5DDCD1EDDD17164090FCC8732078B56691CB33A85CD7DCC40F504B0304140006080800CC70623B55019EA25F0000007C00000007000000636E782E786D6C4DCB3B0E80201045D1AD90E915ED2CF8AC45050C11660C8261F98AB1B07AC9C97D42D718D865D3E909258CFD00CCE24AC6E326A164D74DC0B4128928FF32603847
310
2BA13128B1252AC747C6BAB984FC68F0B87FE8960A5C09FE86CFB69FBA01504B0304140006080800CC70623BDBABAAF470010000D40300000C0000006662782F636F72652E786D6CC553D16E823014FD95A6AF4B694182CC941A83FA05FB810A9511A125A5257EFE2E82712ECEB8A7F100CD39F7F69E734AF9FADC366850B6
310
AF8DCE7018308C942E4C59EB2AC3DE1D498AD15A706B8CFB56869196ADCAF00863C12B6B7C374385D14E6907A836A59A41D9F7CA615434B0C8705F7CAA5606D23BA8E84F41278B93AC54100640439DE0BDB320004D43C63716C7C399D30917DCFBBA9CD9BA8469F5B156168B24CED3F7248AC8769F27244EB73B92EED8862C
310
B7F13E0C179B3C8F979C8ECD82BBBABDAA2BAC924E9558448CBD9330242CFA08E3154B5651FCC6D215639C8EE5774DBE2B5F6CF2B5768B68963BB5F5588420E442FC700B1139D4CB01F450C1E918227C2E09DF070D8140C84E1E9AAB8F1340832A9CB13130A5F1376A908D57309505ECF2A0DF179C4E9D30F5B239B87E3823
310
7A79C6F31DE1A8A5AEC08474B03C7837EAE4938639B44E5932B833D2C6B6B279CDC613877FA26EE21F4A2A4C63EC7F29A2F301D1F9F7A0E37D145F504B0304140006080800CC70623B9C113CC27E0000009D0000000B0000006662782F636E782E786D6C4DCCDF0A83201C86E15B91DFB94BFB330DD428C8FB886521330DA7
310
6397BF1A1DECE883878F57749FCDA1B7892F1BBC047A23808C7F84D9FA55424E0BE6803A256208E9EF06C84F9B91703228B1C690F78B66B34CD9A5439DF5CF0BFBF65E35BCA1B8D6A5C6F540381E886698B5741C695F9503EBA150A2F8958E3DC3EA0B504B0304140006080800CC70623B7DF2F77C2A010000120200003100
310
00006662782F41393633353835312D344632462D344230382D423046372D3739314545314133324237412F636F72652E786D6C8D51DB8EC22014FC15C2939B0D2DB4B45643319AE817EC0F6041255A68B86CFCFC856D4D76DF7CE190393373060EDB3DC707F856CE6B6B7A480A0C81328395DA5C7B18C3057510EC3873D686
310
3F34088C18550F330C39BB3A1BA7051AAC09CA84841A2BD5020AEF55806078A44B0FFD7053A328440C89E1EFC52486BBB8AA8214A99D789CF9E05200300FC927E4FB4D5B375D43103D5527440FB843077C5AA3F5861C8F645F5787F59E95B390B318B55CE45AA638FAA2957BD7248B390B7A7CC51F9C124149C82B8C378810
310
84AB2F42B7B8DD56F413775B8C5999E9FF4471926F8AA236A1AE96B8B3CC434E5839373893369E1FAF30EA395917409EB7F26AF8801C171837A4A6AC9C89E9F9C9B1A58BA30FD6A5EF5DDDCF894B9AD9B6A59C957943A9FCAE2FD5BC4DFE03504B0304140006080800CC70623BAD7543B64E01000033030000300000006662
310
782F41393633353835312D344632462D344230382D423046372D3739314545314133324237412F636E782E786D6CD593CD6EC32010845F0571AD6CE3D48AD20813A9873E410FBD12D82434182C7EAAE6EDBB2424CD25871E7B41D6EC30B3FA84F9E67BB2E40B4234DE8DB46F1925E094D7C6ED479AD3AE5951B2113C789FEE
310
6C943839C1488B4C05DF079FE72A69D8C96C13AAD6B8631503449F83828872B949AC57D26200B826A308D316B4064D6E46FCDA41C05550DC9E483A00797BFD207EFB092A45DE9514C1BBD22178396BD39D891265658C238DEA00936C654E5E433CB65A26D9F6EDB5EBC14EBF49A45CB856E66048291F6939A9A81BB5C89177
310
38143CA680F4AA299D66A042CEB3354A2684DC9D8D178FE0D9B8B41CAAD720F880EE7EF93C0C18769E099ECC04D5A102C8049A8A05632F4DDF376CF1DE0F6BB65C2F8627B65A33C6BB62177CEBBDAD973006829F89F22E814B54F4BC2BE347F8AA8F681390B50FA73F804400B5F542E796F19FF974E7F78DB802FE05E20750
310
4B0304140006080800CC70623BE75B7789680500003C100000340000006662782F41393633353835312D344632462D344230382D423046372D3739314545314133324237412F6F626A656374732E786D6CAD575B8F9B3818FD2B887D06C22499CB8AA1CA655245D5B455A356FB305264C061D8018C6C3393D95FBFC7600890
310
A4CD5EF210B0B1BFEBF98E3F7B1FF6596ABC522E1296DF9BAE3D320D9A872C4AF2F8DE2CE5CEBA358D0FBEC719939D65A691938CDE9B6ADAF4BD98B3B2D05311DD91329583D9D5FC0F438434A7A611A644887B5384CF34233629258BA878B12322891DEFF6B66BD70BFB62634E8AE781D082709A4B588AF91C528CDA28B73F
310
1C998EEF39EABBEFA97FBD6A7C7E9553F9D3D79FE442923C3C523610337627CB87ABE99D359D4CC6D6E4FACAB5E6ABF9D2726FC6A3C5F56271377BB88362213924694B38DD99FE47C48627A1E7D49F5A8BB5E1A74C0A599ED3B0F21F1E56366B89112D681E218F0915D0D6F17AD41FBA2A369DCF6335D62ABBD39779D5DDD1
310
11D4D8DE3CBB96B2E04FB8202E41051754A1AA8E8F76B4C6DFE810B580B1547F4B84911149794252234D024EF8BBE963A95AE27B3D310A9D5C215C7960FAEE415ED75694C6AFB17BCACA5D99A60A9AA65F217B0BFC53292ACB92BF283FAD0D3621576592CB5BED907C2FA8E9DF794E35E97BEA31BED21FEB401ABB94C44839
310
DCACBF0E1C5DA8DA5B2F4DFFD32AD86F543D9E565E7056502E157C00AD2671CD534549AB752FCA9CDA00677A313F04E51B22FF19E57B300579E3C97EB29F682D92935CEC18CF901B7B54FD8C51F362B56FC72FE0B3C1EAE335EDCCBF5AEC39ADB17DC238973F804BA5E6F6BFE7AF1FB32E523BE9F3BD571418E3631DCA4D48
310
5250CF639223210A9446CA30052EDF057BD35F8329C1ECD84552BF0DC8D18BE7BCE23BFE6BD960AB4A7DE79923A103BEBD80F911CBAA2C60DB19B01CF164A5583B772EE6D3FFA56666CBCDA74DC97724A48F9A58967497E489C4D979006FD7A05E227A1EBDD0F737C623387A9C844D3709995625106D157315F8B8392CD4E0
310
A0B9A720C4BE9829CEF37EA1E13111214D53925356365ADA634861B52519DD27A00AEB808EAF0628E6F435519D446F45CF2C9CF5214F0A15B2F6D06B79DA3EE3CBF7F56780D2F4E7EF73A0F5E5B02A38D07DC852C6B7C1FBB6664213E0C39E3EBA7FF4E1AD23EA2829407C85E586727488B751B2DB9502BC7B228A3FD68B6E
310
A65A22397E690AA8D158D7E404EC8CDA235CC3B7D1898680131CEC2CDF2638C65196279577750F15884AEE19F94199155B92B13297978469D4F8D358DF0AEF7631E28DC8F0D9F437D5D39A83B2231A1D52D543813A824EF8D44BCFF2FA6A31BD1E8DAD87F1CCB526B3879935BF59CDADD5C37479BB1CDD4CA7B3556B516589
310
EF352754B706114D9C885EC9131DE6EFEB43D99AFE2391C2F958179413D7CFEF6B1B6DB1E7600F00DE6E5C67454A339A4BA2E0FBA85ED26F045D454F463DBFCE484C2F90F2E5E3666003662ED8F755951A7D1BECD5B30B550B2785C8E7320B7292A4838DDA71BBC863ED7613CAF659337A3354231D4FF4A182A54904C2898C
310
98B28C4AD0CE056CCF332A80986E571EE9DBC305BB5FEB7E509220A58D25CF042D712A806AC0AD0C657FDEF80D2D9CEAA2EE4D1C76F60BFE74219A06527D6F82DF6412526107381E55E353090704D085B52408A8913C4ED159D79BDA71BB4BC506F4831350EB6F975CD22D69BF7AC49B91A2C0A9DDA3D5CA36AD20FC478E37
310
E61844E2352865EBCB61A275A65283CAAA9DD27703B4102F5AF51EF5F573B75CBB5AD38BC845F7A49F82A0966A49C2E3EA5EA0ECD326CD965F1DB402C6FA8B51A4658C5C5E2EC9E214602E55810345408596591009A82E7E7FFACA19EEA299B14A0081A705CB3296EBC14CDF658DCD336EA6D1136881AAEB87B81AB9EE53D5
310
F5EB8BC8362082DA24122F98680A4E7930C01A0079749CEA14382A0783E5EBA5A10F8C098456A03D6A4AEB6BB881E2513747552A5DB22C7EDAF83BD5528081A365F7FF06504B0304140006080000CC70623B000000000000000000000000350000006662782F41393633353835312D344632462D344230382D423046372D37
310
39314545314133324237412F76657274696365732E62696E504B0304140006080800CC70623BF270F1330600000004000000360000006662782F41393633353835312D344632462D344230382D423046372D3739314545314133324237412F747269616E676C65732E62696E636660600000504B0304140006080000CC7062
310
3B000000000000000000000000370000006662782F41393633353835312D344632462D344230382D423046372D3739314545314133324237412F617474726962757465732E62696E504B0304140006080800CC70623B08DA0BD19000000041010000360000006662782F41393633353835312D344632462D344230382D4230
310
46372D3739314545314133324237412F6469726563746F72792E786D6C858F410AC3201045AF22B36F53E9A60B35CBEEBAE80D244E44489C6234F4F835464A48035D0DF398FF9F8AF63D0E6CC63039F212F8F9020C7D47C6792B21C5FE7403D62A1188E2E60C98D7234A5830286103A55745067B9D86B8A3CF9C7F90C11DE6
310
07FB144396D7B6A82D282E9A152AD114D5EF2CB866EEE831B8EEA07A7BB5A8D7D61A2BAAEB7FD5F70921FF497D00504B0304140006080800CC70623BEDD1DC58FD000000A00100003B0000006662782F41393633353835312D344632462D344230382D423046372D3739314545314133324237412F7265736F75726365732F
310
636F72652E786D6C8D504B6E833010BD0A9A6D65B00922041947112427E8052C33A156828DFCA97AFC9A40A576D7CDCCE87D344F8F9FBFE667F689CE6B6B3A6039850C8DB2A336530731DC4903D95970676DF82583CCC8193B5861107C72362E3BA4AC096842428D1D7107A5F7182053CF7474E0D507CE32973124857FE48B
310
540F3961CEF244279DE03EB81420DB9EAC1384436FA353E879B1B182C7A8C75DA3C7F453DF353A1075D537A7BA6464B8F535A99AE14A9A2BBD90E350DD183B5CFABE3AF262350B1EF4FC9351399401471025A527C218A1E53BAB5A5AB765F5469B96525EACF23FA6B88CFF34456DC2A1DCE36E360F82A5202F42F062ED2BAD
310
579969AFDD8A6F504B010214000A0000080000CC70623B3DEE336E79000000790000001B00000000000000000000000000000000006175746F6465736B2D64657369676E2D7061636B6167652E786D6C504B01021400140006080800CC70623BD486FD9CA0000000F40000001300000000000000000000000000B20000005B
310
436F6E74656E745F54797065735D2E786D6C504B01021400140006080800CC70623B853B8169EB0000007C010000080000000000000000000000000083010000636F72652E786D6C504B01021400140006080800CC70623B55019EA25F0000007C000000070000000000000000000000000094020000636E782E786D6C504B
310
01021400140006080800CC70623BDBABAAF470010000D40300000C00000000000000000000000000180300006662782F636F72652E786D6C504B01021400140006080800CC70623B9C113CC27E0000009D0000000B00000000000000000000000000B20400006662782F636E782E786D6C504B01021400140006080800CC70
310
623B7DF2F77C2A010000120200003100000000000000000000000000590500006662782F41393633353835312D344632462D344230382D423046372D3739314545314133324237412F636F72652E786D6C504B01021400140006080800CC70623BAD7543B64E010000330300003000000000000000000000000000D2060000
310
6662782F41393633353835312D344632462D344230382D423046372D3739314545314133324237412F636E782E786D6C504B01021400140006080800CC70623BE75B7789680500003C10000034000000000000000000000000006E0800006662782F41393633353835312D344632462D344230382D423046372D3739314545
310
314133324237412F6F626A656374732E786D6C504B01021400140006080000CC70623B0000000000000000000000003500000000000000000000000000280E00006662782F41393633353835312D344632462D344230382D423046372D3739314545314133324237412F76657274696365732E62696E504B01021400140006
310
080800CC70623BF270F133060000000400000036000000000000000000000000007B0E00006662782F41393633353835312D344632462D344230382D423046372D3739314545314133324237412F747269616E676C65732E62696E504B01021400140006080000CC70623B0000000000000000000000003700000000000000
310
000000000000D50E00006662782F41393633353835312D344632462D344230382D423046372D3739314545314133324237412F617474726962757465732E62696E504B01021400140006080800CC70623B08DA0BD1900000004101000036000000000000000000000000002A0F00006662782F41393633353835312D344632
310
462D344230382D423046372D3739314545314133324237412F6469726563746F72792E786D6C504B01021400140006080800CC70623BEDD1DC58FD000000A00100003B000000000000000000000000000E1000006662782F41393633353835312D344632462D344230382D423046372D3739314545314133324237412F7265
310
736F75726365732F636F72652E786D6C504B0506000000000E000E0080040000641100000000
  0
XRECORD
  5
12759
102
{ACAD_REACTORS
330
1F7
102
}
330
1F7
100
AcDbXrecord
280
     1
102
MATERIAL
148
0.0
149
0.0
149
0.0
 93
        0
 94
       63
282
     0
 72
     1
 77
     1
171
     1
175
     1
179
     1
273
     0
  0
XRECORD
  5
1F8
102
{ACAD_REACTORS
330
1F7
102
}
330
1F7
100
AcDbXrecord
280
     1
 70
     1
 90
429727718
  1
30362254-06B7-45E0-A893-8CFA70E3D6BC
310
504B03040A0000080000CC70623B3DEE336E79000000790000001B0000006175746F6465736B2D64657369676E2D7061636B6167652E786D6C3C3F786D6C2076657273696F6E3D22312E302220656E636F64696E673D227574662D3822203F3E3C666F726D6174733E3C666F726D61743E687474703A2F2F736368656D612E
310
6175746F6465736B2E636F6D2F64657369676E2D7061636B6167652F323030393C2F666F726D61743E3C2F666F726D6174733E504B0304140006080800CC70623BD486FD9CA0000000F4000000130000005B436F6E74656E745F54797065735D2E786D6C7D8EC10E82300C865F65E91D8A1E8C310C0EEA1BF002731658846E
310
D98AC1B77784ABF1D8FE5FBFBF75BBCE937A534CCEB38643598122B6FEE978D0B0485F9C41B54DDD7D022595594E1A469170414C76A4D9A4D207E29CF43ECE46F218070CC6BECC4078ACAA135ACF422C856C0E68EA1BF5669944DDD7BCDE7B1F8E415D77AECB980613C2E4AC91FC167A2B244592486606FC29C8FD7F045B9A
310
EF7053A7E60B504B0304140006080800CC70623B1EC5D7A3EB0000007C01000008000000636F72652E786D6C8D90416EC3201045AF82665B6103C6756C6122AB4D4ED00B204C5C94182C03558F5F9C3852BBEB6A467FFE9B197D71FC9E6FE8CBACC17AD7032D0820E3B41FAD9B7A48F1820F808E52ACDEC75F36404ECDA687
310
4D0629A6D5A76597B477D1B89855E747B38B2A041301E95B6E7A08FAD3CCAA50296647B8168BD2573599823EBB0CA76447F43862C7BCCF5EAC59410E4DDD9C7973C2755553CCCFA4C603E3040F1565ED3B1FDE4E432BCA0D9622DAF9795FAF464533826484B498524CD807E51D79ED187F21878E10516EF63F505AC67F42C9
310
BA58B1FDDD071640D2FCC87D2045B96591CB3DA85CB7DCE40F504B0304140006080800CC70623B55019EA25F0000007C00000007000000636E782E786D6C4DCB3B0E80201045D1AD90E915ED2CF8AC45050C11660C8261F98AB1B07AC9C97D42D718D865D3E909258CFD00CCE24AC6E326A164D74DC0B4128928FF32603847
310
2BA13128B1252AC747C6BAB984FC68F0B87FE8960A5C09FE86CFB69FBA01504B0304140006080800CC70623B8C9102E971010000D40300000C0000006662782F636F72652E786D6CC5535B6E833010BC8AE5DF0A6C08340F1947A84D4ED00B38C6A128602363A31CBFCB234A53A551FA553EC09AD9F5CE8C31DB9E9B1AF5CA
310
7695D1198E428A91D2D214952E33ECDD315861B4E5CC1AE3BE9561A445A3323CC098B3D21ADFCE9034DA29ED00D5A6503328BA4E398C640D8B0C77F253352214DE4145770A5B214FA2546114020D759C75CE8200340D19DE981F0F6746269C33EFAB6266AB02A655C74A59CCF365BADC27CB5D902ED22848F6340DF238A141
310
BE88E2F57B92BFEDF23523433367AE6A2EEAA455C2A902F398D2751045018D3FA264435F3771F242571B4A1919CA6F9A7C5B3CD9E42BED16F12C776AEB308F40C848FC700B1139D4891EF410CEC810227CC6846F8386402064270EF5C5C709A05E49676C024C61FC95EA45ED154CA5211D1FF4FB8291A913A68E9B83EBBB33
310
E2A7673CDE118E5AE8124C0807CB8377834E366998436B950D7A7746DAD846D4CFD978E0F04FD455FC5D49D2D4C6FE9722321F10997F0F32DC47FE05504B0304140006080800CC70623BFFEA85907E0000009D0000000B0000006662782F636E782E786D6C4DCCD10A83201886E15B91FFDC95D95A811AB6F23E625948A6C3
310
E9D8E5AF46073BFAE0E1E365ED67B3E8ADC3CB78C7815C7240DA3DFC64DCC221C519D7805AC182F7F1EF06C88D9BE6703008B6049F9E274D7A1E938DBB5AE3D6131B2589BA0D3D965551E0B2EA732C9B9A624AAEB41E3A557677029960D9AFB4EF11165F504B0304140006080800CC70623B4FEEA4082C0100001202000031
310
0000006662782F39464131463745442D413632322D343644302D413938332D3331353338454246344243312F636F72652E786D6C8D515B6EC32010BC0AE2AB55850DD871ED0813254D72825EC00192A2C460F1A872FC42ED48ED5F7E00CDCECCCEB26C731F6FE05B39AFADE921293004CA082BB5B9F43086336A21D870E6AC
310
0D7F68109861543DCC30E4ECE26C9C164858139409093556AA051CBC570102714B8F1E7AF1A5C6A11862480C7F2DA6415C878B2A4891CA89C7990F2E050073937C42DE1DB7E4F87ED8A36D4329AA9B3D46DBAEAD504556557BD81DEBDD0761E52CE42C462D17B996298E3E6BE59E35C962CE821E1FF18553435012728A7187
310
0841987E927A8D9B35ADDF70BBC6989599FE4F1427F9A4286A132ABAC49D651EF234CD5CE04CDA78BA3DC2A8FB645D00B9DF8B57E215725C60BCA2A463E54C4CE327C7A65E1C7DB02E7DEFCBF594B864C5CA6CDBD49C957943E9FA5D5FBAF336F90F504B0304140006080800CC70623BAD7543B64E01000033030000300000
310
006662782F39464131463745442D413632322D343644302D413938332D3331353338454246344243312F636E782E786D6CD593CD6EC32010845F0571AD6CE3D48AD20813A9873E410FBD12D82434182C7EAAE6EDBB2424CD25871E7B41D6EC30B3FA84F9E67BB2E40B4234DE8DB46F1925E094D7C6ED479AD3AE5951B2113C
310
789FEE6C943839C1488B4C05DF079FE72A69D8C96C13AAD6B8631503449F83828872B949AC57D26200B826A308D316B4064D6E46FCDA41C05550DC9E483A00797BFD207EFB092A45DE9514C1BBD22178396BD39D891265658C238DEA00936C654E5E433CB65A26D9F6EDB5EBC14EBF49A45CB856E66048291F6939A9A81BB5
310
C8917738143CA680F4AA299D66A042CEB3354A2684DC9D8D178FE0D9B8B41CAAD720F880EE7EF93C0C18769E099ECC04D5A102C8049A8A05632F4DDF376CF1DE0F6BB65C2F8627B65A33C6BB62177CEBBDAD973006829F89F22E814B54F4BC2BE347F8AA8F681390B50FA73F804400B5F542E796F19FF974E7F78DB802FE05
310
E207504B0304140006080800CC70623B16AB87BA640500003C100000340000006662782F39464131463745442D413632322D343644302D413938332D3331353338454246344243312F6F626A656374732E786D6CAD575B6FA33818FD2B887DE6924B3BED8A326A92B68A663B534DD4D13E548A0C38942D60649B369D5FBFC7
310
600890A493BDE42160637FD7F31D7FF63E6FB3D478A55C242CBF3247B66B1A340F5994E4F19559CA8D75611A9F7D8F33263BCB4C232719BD32D5B4E97B316765A1A722BA21652A07B3B7B33F0D11D29C9A46981221AE4C113ED38CD8A4942CA2E2C58E882476BCD9DA23BB5ED8171B73523C0F841684D35CC252CCE79062D4
310
468DFA43D7747CCF51DF7D4FFDEB5593E3AB9CCA9FBEFE241792E4E19EB28198C968BAB8199F5D5A67D3E9C49A9E8F47D6EC76B6B0469F26EEFC7C3EBFBCBEB98462213924694B38DD98FE1D62C393D073EA4FADC5DAF04326852CCF6958F90F0F2B9BB5C48816348F90C7840A68EB78EDF68723159BCEE7891A6B95DDE9D3
310
BCEAEEE8086A6C6F9E5D4B59F0175C10A7A0820BAA5055C7473B5AE3CFDD452D602CD5DF12616444529E90D448938013FE6EFA58AA96F85E4F8C42275708571E98FE6827AF6B2B4AE3D7D83D64E5A64C53054DD3AF90BD06FEA9149565C94FCA0F6B834DC85599E4F2423B24DF0B6AFA979E534DFA9E7A4CC6FA631D486393
310
921829879BF5D781A373557BCB85E97FB90DB62B558F8795179C15944B051F40AB495CF35451D26A4727654E6D8033BD98EF82F21D91FF8AF2DD9982BCF1643BDD4EB516C9492E368C67C88DED563FC36D5EACF66DFF057C3658BDBFA69DF9578B3DA735B64F18C7F20770A9D45CFCF7FCF563D6456A277DBEF78A02637CA2
310
43B90A490AEAB94F72244481D24819A6C0E59B606BFA4B3025981DBB48EAB701D97BF19C577CC77F2D1B6C55A9EF3C732474C0B727303F625995056C3B02963D9EAC146BE78EC5FCEC7FA999EBC5EACBAAE41B12D27B4D2C0BBA49F244E2ECDC81B76B502F113D8F5EE8FB1BE3111CDD4FC2AA9B844CAB1288B68AB90A7CDC
310
1C166AB0D3DC5310625FCC14E779BFD0709F8890A629C9292B1B2DED31A4B0DA928CEE135085754027E3018A397D4D5427D15BD1330B677DC8934285AC3DF45A9EB68FF8F2B8FC0A509AFEECFD0FF2DE25CC6047F7214B195F07EFEB9A094D800F7BFAE8FED187B78EA8A3A400F115961BCAD1215E47C966530AF0EE8128FE
310
58CEBB996A8964FFA529A046635D9353B0336A8F700DDF46271A024E70B0B37C9DE01847591E54DED53D54202AB947E4076556AC49C6CA5C9E1226B7F1A7B1BE15DEED62C41B91E1B3E9AFAAA735036547343A925075041DF0A9979E893B391F8FCFA6967B3EFB644DCF6E5CEBFAE272625DCC6FAF3FB93793C5F90CE1EF57
310
407342756B10D1C489E8953CD1617E5CEECAD6F4EF8914CE5D5D504E5C3F1F9736DA62CFC11E00BCDDB8CC8A9466349744C1F75EBDA4DF09BA8A9E8C7A7E9991989E20E5DBDD6A6003664ED8F7A04A8DBE0DF6EAD9B9AA858342E47399053949D2C146EDB85DE4B176BB0965FBAC19BD19AA918E27FA50C1D22402E144464C
310
59462568E704B6E71915404CB72B8FF4EDE184DDAF753F284990D2C6926782963815403548A70C657FDEF80D2D9CEAA2AE4C1C76F60BFE74219A06527D6582DF6412526107381E55E353090704D085B52408D0933C4ED159D79BDA71BB4BC506F4831350EB6F979CD22D69BF7AC49B91A2C0A9DDA3D5CA36AD20FC478E37E6
310
1844E2352865EBCB6EA275A652E3836BE04EFB400BF1A2556F515F1FBB35B2AB35BD889C744FFA1004B5544B121E57F70215746DD2F5E2C1412B602CBF19455AC6C8E5E9922C4E01E65215385004546899059180EAFCF7A707CE7017CD8CDB0410789AB32C63B91E5CEBBBACB17AC6CD347A022D5075FD106377347AAABA7E
310
7D11590744509B44E205134DC1290F06580320F78E537D3D73540E06CB970B431F185308AD40BBD794D6D77003C5A36E8EAA54BA64597CD8F83BD552A080A365F7FF06504B0304140006080000CC70623B000000000000000000000000350000006662782F39464131463745442D413632322D343644302D413938332D3331
310
353338454246344243312F76657274696365732E62696E504B0304140006080800CC70623BF270F1330600000004000000360000006662782F39464131463745442D413632322D343644302D413938332D3331353338454246344243312F747269616E676C65732E62696E636660600000504B0304140006080000CC70623B
310
000000000000000000000000370000006662782F39464131463745442D413632322D343644302D413938332D3331353338454246344243312F617474726962757465732E62696E504B0304140006080800CC70623B08DA0BD19000000041010000360000006662782F39464131463745442D413632322D343644302D413938
310
332D3331353338454246344243312F6469726563746F72792E786D6C858F410AC3201045AF22B36F53E9A60B35CBEEBAE80D244E44489C6234F4F835464A48035D0DF398FF9F8AF63D0E6CC63039F212F8F9020C7D47C6792B21C5FE7403D62A1188E2E60C98D7234A5830286103A55745067B9D86B8A3CF9C7F90C11DE607
310
FB144396D7B6A82D282E9A152AD114D5EF2CB866EEE831B8EEA07A7BB5A8D7D61A2BAAEB7FD5F70921FF497D00504B0304140006080800CC70623B0D6EF93BFE000000A00100003B0000006662782F39464131463745442D413632322D343644302D413938332D3331353338454246344243312F7265736F75726365732F63
310
6F72652E786D6C8D50596E833010BD0A9ADFCA60B334011947A8694ED00B586642AC041B79A97AFC9A40A5F6AF3F33A3B7689E1E3F7DCD8FEC139DD7D6F4C0720A191A65476DA61E62B892236427C19DB5E1970C322367EC618541F0C9D9B8EC90B226A009093576C41D94DE63804C3DD2D18357379C652E63480A7FCF17A9
310
EE72C29CE5894E3AC17D702940B63D59270887DE46A7D0F36263058F518FBB468FE9A7BE6A7420864373B8D4873369AA8691FA421B3294352543C5CAF65C0F6FEF43CB8BD52C78D0F34F46E550061C419494B6843142CB0F5677F4B52BEB177AEC28E5C52AFF638ACBF84F53D42654E51E77B379102C05791282176B5F693D
310
CB4C7BED567C03504B010214000A0000080000CC70623B3DEE336E79000000790000001B00000000000000000000000000000000006175746F6465736B2D64657369676E2D7061636B6167652E786D6C504B01021400140006080800CC70623BD486FD9CA0000000F40000001300000000000000000000000000B20000005B
310
436F6E74656E745F54797065735D2E786D6C504B01021400140006080800CC70623B1EC5D7A3EB0000007C010000080000000000000000000000000083010000636F72652E786D6C504B01021400140006080800CC70623B55019EA25F0000007C000000070000000000000000000000000094020000636E782E786D6C504B
310
01021400140006080800CC70623B8C9102E971010000D40300000C00000000000000000000000000180300006662782F636F72652E786D6C504B01021400140006080800CC70623BFFEA85907E0000009D0000000B00000000000000000000000000B30400006662782F636E782E786D6C504B01021400140006080800CC70
310
623B4FEEA4082C0100001202000031000000000000000000000000005A0500006662782F39464131463745442D413632322D343644302D413938332D3331353338454246344243312F636F72652E786D6C504B01021400140006080800CC70623BAD7543B64E010000330300003000000000000000000000000000D5060000
310
6662782F39464131463745442D413632322D343644302D413938332D3331353338454246344243312F636E782E786D6C504B01021400140006080800CC70623B16AB87BA640500003C1000003400000000000000000000000000710800006662782F39464131463745442D413632322D343644302D413938332D3331353338
310
454246344243312F6F626A656374732E786D6C504B01021400140006080000CC70623B0000000000000000000000003500000000000000000000000000270E00006662782F39464131463745442D413632322D343644302D413938332D3331353338454246344243312F76657274696365732E62696E504B01021400140006
310
080800CC70623BF270F133060000000400000036000000000000000000000000007A0E00006662782F39464131463745442D413632322D343644302D413938332D3331353338454246344243312F747269616E676C65732E62696E504B01021400140006080000CC70623B0000000000000000000000003700000000000000
310
000000000000D40E00006662782F39464131463745442D413632322D343644302D413938332D3331353338454246344243312F617474726962757465732E62696E504B01021400140006080800CC70623B08DA0BD190000000410100003600000000000000000000000000290F00006662782F39464131463745442D413632
310
322D343644302D413938332D3331353338454246344243312F6469726563746F72792E786D6C504B01021400140006080800CC70623B0D6EF93BFE000000A00100003B000000000000000000000000000D1000006662782F39464131463745442D413632322D343644302D413938332D3331353338454246344243312F7265
310
736F75726365732F636F72652E786D6C504B0506000000000E000E0080040000641100000000
  0
XRECORD
  5
1275B
102
{ACAD_REACTORS
330
173
102
}
330
173
100
AcDbXrecord
280
     1
102
MATERIAL
148
0.0
149
0.0
149
0.0
 93
        0
 94
       63
282
     0
 72
     1
 77
     1
171
     1
175
     1
179
     1
273
     0
  0
XRECORD
  5
175
102
{ACAD_REACTORS
330
173
102
}
330
173
100
AcDbXrecord
280
     1
270
     1
271
     1
  0
XRECORD
  5
174
102
{ACAD_REACTORS
330
173
102
}
330
173
100
AcDbXrecord
280
     1
270
     1
271
     1
  0
XRECORD
  5
1FB
102
{ACAD_REACTORS
330
173
102
}
330
173
100
AcDbXrecord
280
     1
 70
     0
 90
1673772943
  1
ECE7A1D2-D628-4531-984C-D00F80459256
310
504B03040A0000080000CC70623B3DEE336E79000000790000001B0000006175746F6465736B2D64657369676E2D7061636B6167652E786D6C3C3F786D6C2076657273696F6E3D22312E302220656E636F64696E673D227574662D3822203F3E3C666F726D6174733E3C666F726D61743E687474703A2F2F736368656D612E
310
6175746F6465736B2E636F6D2F64657369676E2D7061636B6167652F323030393C2F666F726D61743E3C2F666F726D6174733E504B0304140006080800CC70623BD486FD9CA0000000F4000000130000005B436F6E74656E745F54797065735D2E786D6C7D8EC10E82300C865F65E91D8A1E8C310C0EEA1BF002731658846E
310
D98AC1B77784ABF1D8FE5FBFBF75BBCE937A534CCEB38643598122B6FEE978D0B0485F9C41B54DDD7D022595594E1A469170414C76A4D9A4D207E29CF43ECE46F218070CC6BECC4078ACAA135ACF422C856C0E68EA1BF5669944DDD7BCDE7B1F8E415D77AECB980613C2E4AC91FC167A2B244592486606FC29C8FD7F045B9A
310
EF7053A7E60B504B0304140006080800CC70623BD9DDAED0EC0000007C01000008000000636F72652E786D6C8D90416EC3201045AF82665B61836D9CD8C2444DD39CA01740405C94182C03558F5F9C3852BBEB6A467FFE9B197D7EF89E6EE8CB2CC17A37002D0820E394D7D68D03A478C17B4007C117EFE32F1B20272733C0
310
2A83E0E3E2D3BC49CABB685CCCAAF3DA6CA20CC14440EA969B0182FA34932C648AD911AEC52CD5558EA6A0CF2EC329598D1E47ACCEFBECC59A050463A7EA5833865FEBDD0E37353BE3EE8DBDE3F6786A48D375FBF6CC78B9C282473B3DEFABC5C86834888A900E538A49F5419B9EB47DD5BC907D4F082F57FB1F28CDFA9F50
310
B22ED6D5F6EE030B20687EE43E10BC5CB3C8E51E54AE6B6EE207504B0304140006080800CC70623B55019EA25F0000007C00000007000000636E782E786D6C4DCB3B0E80201045D1AD90E915ED2CF8AC45050C11660C8261F98AB1B07AC9C97D42D718D865D3E909258CFD00CCE24AC6E326A164D74DC0B4128928FF326038
310
472BA13128B1252AC747C6BAB984FC68F0B87FE8960A5C09FE86CFB69FBA01504B0304140006080800CC70623BA24EB22D72010000D40300000C0000006662782F636F72652E786D6CC5535B6E833010BC8AE5DF0A6C5E49888CA3A6694ED00B38E05014B091B1518EDFE511A5A9D228FD2A1F60CDEC7A67C6986DCE4D8D7A
310
69BA4AAB0C073EC548AA5C17952A33ECECD15B61B4E1CC686DBF9561A44423333CC098B3D268D7CE50AE9595CA02AA74216750749DB418E5352C32DCE59FB211BE70162ABA93DF8AFC244AE9073ED050C759670D0840D390E18DF9F1706664C23973AE2A66B62A605A75ACA4C13C4976E1364A12EF355A2EBD384AF65EFA96
310
BC7B8BED2EA6719AAE16FB8491A199335B351775B991C2CA02F390D2D40B028F861F41BCA68B7518BFD0D59A524686F29B26D7164F36B94AD9289CE54E6D1DE6010819891F6E21228B3AD1831EC219194284CF98F06DD01008846CC5A1BEF83801D4CBDC6A1303536877A57A513B0953A94FC707FDBE6064EA84A9E3E6E0FA
310
EE8CF0E9198F7784A316AA0413C2C2F2E0ECA0934D1AE6D05A69BCDE9E91D2A611F573361E38FC1375157F5752AE6B6DFE4B11990F88CCBF0719EE23FF02504B0304140006080800CC70623B408A7D3B7C0000009D0000000B0000006662782F636E782E786D6C4DCCD10A83201886E15B91FFDC552A92A0064DBC8F581632
310
D3703A76F9ABD1C18E3E78F878E5F0D9027ABBFCF2292AE86E2D20171F69F6715550CB827B40839639A5F2770314A7CD293819B45C73AAFB45B35BA61ACAA1C1C7E7855C58C15BC331339661262CC762340413D68D77DA5B42298546CBE6573AF60CEB2F504B0304140006080800CC70623B449FB9BD290100001202000031
310
0000006662782F36394639363044362D344446342D343946362D394244322D3234314243333846323333332F636F72652E786D6C8D515B6EC32010BC0AE22B55850D98B871848994463E412FE002495162B07854397EA176A4F62F3F2C9A9D991D587EB84F37F0AD7D30CEF6905418026DA553C65E7A98E219ED203808EE9D
310
8B7F6810D871D23D2C3014FCE25D9A57483A1BB58D19B54EE9151C43D0110279CB971E06F9A5A7B11A53CC8C70ADE6515EC78BAE4895DB992778883E0700CB907242D17643D7E2538BD869608875438BBAE38922CAC8F1BDD90DB4691A5E2F42C153326A951B95E398B3D1FE599322163C9AE9115F7A3D46ADA0A018778810
310
84E907617BDCEE297BC5BB3DC6BC2EF47FA234AB2745C9D8D8D035EE220B50105E2F0DC1954B9FB747187D9F9D8FA0CCDB042D5FA0C015C65B42DF78BD10F3F3B363CB56C7109DCFDFBBB97E662ED92EB62D13BC2E1BCAE5777DB9966D8A1F504B0304140006080800CC70623BAD7543B64E01000033030000300000006662
310
782F36394639363044362D344446342D343946362D394244322D3234314243333846323333332F636E782E786D6CD593CD6EC32010845F0571AD6CE3D48AD20813A9873E410FBD12D82434182C7EAAE6EDBB2424CD25871E7B41D6EC30B3FA84F9E67BB2E40B4234DE8DB46F1925E094D7C6ED479AD3AE5951B2113C789FEE
310
6C943839C1488B4C05DF079FE72A69D8C96C13AAD6B8631503449F83828872B949AC57D26200B826A308D316B4064D6E46FCDA41C05550DC9E483A00797BFD207EFB092A45DE9514C1BBD22178396BD39D891265658C238DEA00936C654E5E433CB65A26D9F6EDB5EBC14EBF49A45CB856E66048291F6939A9A81BB5C89177
310
38143CA680F4AA299D66A042CEB3354A2684DC9D8D178FE0D9B8B41CAAD720F880EE7EF93C0C18769E099ECC04D5A102C8049A8A05632F4DDF376CF1DE0F6BB65C2F8627B65A33C6BB62177CEBBDAD973006829F89F22E814B54F4BC2BE347F8AA8F681390B50FA73F804400B5F542E796F19FF974E7F78DB802FE05E20750
310
4B0304140006080800CC70623B8D05915C650500003B100000340000006662782F36394639363044362D344446342D343946362D394244322D3234314243333846323333332F6F626A656374732E786D6CAD575B6FA33814FE2B887D06429276DA1565D4266D158D3A339A6846FB502932E050B66023DB74D2FDF5FB190C01
310
9276B2973C046C8ECFF53B17071F77456EBD502133CEAE6CDF9DD81665314F32965ED995DA3A17B6F5310C04E7AA47665B8C14F4CAD6DB7618A48257A5D94AE89654B91AEDDEDDFC61C998326A5B714EA4BCB265FC440BE2924AF184CA6737218AB8E976E7FA6E4338649B0A523E8D98964450A6A029F619B8588D52FE7039
310
B1BD30F0F4F730D0FF866AF6369557DB33949F31A9088B0F848DD8CCFCF9F2767A76E99CCDE733677E3EF59D9BBB9BA5E37F984D16E78BC5E5F5ED25044B25C0C96822E8D60EEFE11B91C581D77CEA34368A1F5329E68CD1B8B61F16D63A1B8E092D294B10C78C4A48EB593D192E7DED9BDEE7995E1B91FDEDD3ACEA9FE831
310
6A756F9F7D4D79F4274C90A7A04248AA51D5F8C718DAE06FB2F75AC4796EBE65D22A88A22223B995679120E2D50E41AA49C260C046A35368846B0BECD0DFF3EBEB8AD4F835768F69B9ADF25C43D30E6B646F807FAA64AD59F61715C7A54127C4AACA98BA3006A9D792DAE165E0D59B61A01FB3A9F9D838D2DAE62445C86166
310
F37564E842E7DE6A69879FEEA2DD5AE7E371E1A5E025154AC307D06A03D73EB5978C58FFA4C8E9033066E0F3BD53BEC1F39F91BE7B55103791EDE6BBB991A2046172CB4581D8B893FA674DDA17A77B3B7C413D1B511FD2743BFF8A38F03A658705E3ADF8015C3A3417FF3D7E439FF591DA0B5F18BC20C1B8981957AE6392A3
310
F43C640C01D1A0B4728E2DD4F26DB4B3C3152A252A3B4E913CEC1C72F012782FF88EFF8637AA552DBEF76408E8A8DE9E50F9E1CB3A2DA0DB1B6039A893B56063DC5B3E3FFB5F72E67AB9FEB4AEC496C4F4C1149625DD662C53E89D7BF0F6151A046260D1337DFDC94502430F83B0EE07A130A224BCAD7DAE1D9FB6CD422FF6
310
920702629C4BB9AE79C12F243C6432A6794E18E5552BA56B431AAB5D91317302B2B071E86C3A42B1A02F999E24061403B5D0EB639195DA655DD3EBEAB4FB862DDF579F014AD0E73C22F99E28DA57FB98E75C6CA2D74D53086D600F4786E0FE3144B771A8A7B900F03594DB8A633CBC49B2EDB69228BB479CF863B5E807AAAB
310
23872F6DFEB4129B949CA33823F58830E86D65621E10047D9DB34D862E8EAC3C2ABC2F7B2C40D67CDFE01F5545B92105AF983AC54D93D69E56FB8E797F88913F898A9FEC705D3F9D1B54EC8426FB500D40A03BD0119B06E1B95DDC7EB8F6975367793EBD70E66733DFB9BC982F9CE564727731999F5D4ECFCE3B8D6A4DC2A0
310
6D50FD148437D110834A64C6CDDF57FBACB5C307A2A477DFE4939736CFEF2B175371E0E10CF0DD1D5C15654E0BCA14D1E87DD02FF93782A162C0A3D95F1524A52770F972BF1EE9809D13CE7DD599467F8ECE9ADD85CE85A34CD45355448C64F9E8A031DC2D596ACC6E5DD93D9B82DE2EF5CAF81363A8E47996A0DE24564A79
310
4115AACE09C55E14540231FDA13C319787134EBF34E3A022514E5B4D9E0826E25C02D5805B15ABE1BEF51B26383D445DD9E875EE33FE4C22DA16427D65A3BCA92CA6D28DD01DF5DC53330704308475351050232CCD31583787BA75774AFB06E5070DD0C8EF484E19968C5D83BA5B90B244D31E54D55A372320FE4786B7EA58
310
44E135AA5467CB7EA333A61683CC6A8C3257034C10CF46F40EF9F5BE59BE5BD30C3C72D235E95D10345C1D45445A5F0BB47E46A5EBE5570F9380B5FA629579952296A773720405982B9DE04011506178964401AA8BDF1FBF0A8EAB6861DD6580C0E38217056766716DAEB2D6FA0917D3E4116581EADB879C4E7CFFB11EFACD
310
3D641311495D92C8676CB409A72D18610D803CE8A626049E8EC1887CB5B44CC39883690DDA8399B4B9855B481E7D71D4A9D22F96E5BB73BF5793020C02137BF837504B0304140006080000CC70623B000000000000000000000000350000006662782F36394639363044362D344446342D343946362D394244322D32343142
310
43333846323333332F76657274696365732E62696E504B0304140006080800CC70623BF270F1330600000004000000360000006662782F36394639363044362D344446342D343946362D394244322D3234314243333846323333332F747269616E676C65732E62696E636660600000504B0304140006080000CC70623B0000
310
00000000000000000000370000006662782F36394639363044362D344446342D343946362D394244322D3234314243333846323333332F617474726962757465732E62696E504B0304140006080800CC70623B08DA0BD19000000041010000360000006662782F36394639363044362D344446342D343946362D394244322D
310
3234314243333846323333332F6469726563746F72792E786D6C858F410AC3201045AF22B36F53E9A60B35CBEEBAE80D244E44489C6234F4F835464A48035D0DF398FF9F8AF63D0E6CC63039F212F8F9020C7D47C6792B21C5FE7403D62A1188E2E60C98D7234A5830286103A55745067B9D86B8A3CF9C7F90C11DE607FB14
310
4396D7B6A82D282E9A152AD114D5EF2CB866EEE831B8EEA07A7BB5A8D7D61A2BAAEB7FD5F70921FF497D00504B0304140006080800CC70623BCA768048FE000000A00100003B0000006662782F36394639363044362D344446342D343946362D394244322D3234314243333846323333332F7265736F75726365732F636F72
310
652E786D6C8D50596E833010BD0A9ADFCA60D600328E9AA639412F609909B1126CE4A5EAF16B0295DABFFECC8CDEA2797AECF8353F924FB44E193D409E5248504B332A3D0D10FC95B4901C39B3C6F85F3248B49871801506CE266BC2B243D2688FDA47549B11775038871E12F988C7004EDE7016A9083E2ADC3D5D84BC8B09
310
D33C8D74D471E6BC8D0192EDC93A815B742658898E651BCB59086ADC356A8C3FD555A1055ED7E7E254D615792D0F075295F585746FF53B694EE78A565DD736979A65AB9933AFE69F8CD2A2F038022F28ED489E135A7CE4554F9BBEA85E68DB53CAB255FEC71496F19FA6A0B42F8B3DEE6673C0F318E4497096AD7DC5F52C33
310
EEB55BFE0D504B010214000A0000080000CC70623B3DEE336E79000000790000001B00000000000000000000000000000000006175746F6465736B2D64657369676E2D7061636B6167652E786D6C504B01021400140006080800CC70623BD486FD9CA0000000F40000001300000000000000000000000000B20000005B436F
310
6E74656E745F54797065735D2E786D6C504B01021400140006080800CC70623BD9DDAED0EC0000007C010000080000000000000000000000000083010000636F72652E786D6C504B01021400140006080800CC70623B55019EA25F0000007C000000070000000000000000000000000095020000636E782E786D6C504B0102
310
1400140006080800CC70623BA24EB22D72010000D40300000C00000000000000000000000000190300006662782F636F72652E786D6C504B01021400140006080800CC70623B408A7D3B7C0000009D0000000B00000000000000000000000000B50400006662782F636E782E786D6C504B01021400140006080800CC70623B
310
449FB9BD290100001202000031000000000000000000000000005A0500006662782F36394639363044362D344446342D343946362D394244322D3234314243333846323333332F636F72652E786D6C504B01021400140006080800CC70623BAD7543B64E010000330300003000000000000000000000000000D20600006662
310
782F36394639363044362D344446342D343946362D394244322D3234314243333846323333332F636E782E786D6C504B01021400140006080800CC70623B8D05915C650500003B10000034000000000000000000000000006E0800006662782F36394639363044362D344446342D343946362D394244322D32343142433338
310
46323333332F6F626A656374732E786D6C504B01021400140006080000CC70623B0000000000000000000000003500000000000000000000000000250E00006662782F36394639363044362D344446342D343946362D394244322D3234314243333846323333332F76657274696365732E62696E504B010214001400060808
310
00CC70623BF270F13306000000040000003600000000000000000000000000780E00006662782F36394639363044362D344446342D343946362D394244322D3234314243333846323333332F747269616E676C65732E62696E504B01021400140006080000CC70623B00000000000000000000000037000000000000000000
310
00000000D20E00006662782F36394639363044362D344446342D343946362D394244322D3234314243333846323333332F617474726962757465732E62696E504B01021400140006080800CC70623B08DA0BD190000000410100003600000000000000000000000000270F00006662782F36394639363044362D344446342D
310
343946362D394244322D3234314243333846323333332F6469726563746F72792E786D6C504B01021400140006080800CC70623BCA768048FE000000A00100003B000000000000000000000000000B1000006662782F36394639363044362D344446342D343946362D394244322D3234314243333846323333332F7265736F
310
75726365732F636F72652E786D6C504B0506000000000E000E0080040000621100000000
  0
XRECORD
  5
176
102
{ACAD_REACTORS
330
173
102
}
330
173
100
AcDbXrecord
280
     1
270
     1
271
     1
  0
XRECORD
  5
177
102
{ACAD_REACTORS
330
173
102
}
330
173
100
AcDbXrecord
280
     1
270
     1
271
     1
  0
XRECORD
  5
1277D
102
{ACAD_REACTORS
330
1277C
102
}
330
1277C
100
AcDbXrecord
280
     1
102
ACAD_ROUNDTRIP_2012_MLEADER_STYLE
298
     1
  0
XRECORD
  5
1278F
102
{ACAD_REACTORS
330
1278E
102
}
330
1278E
100
AcDbXrecord
280
     1
102
DISPLAYNAME
  1
Metric50
102
FLAGS
 90
        0
  0
CELLSTYLEMAP
  5
1274F
102
{ACAD_REACTORS
330
162
102
}
330
162
100
AcDbCellStyleMap
 90
        3
300
CELLSTYLE
  1
TABLEFORMAT_BEGIN
 90
        5
170
     1
 91
        0
 92
    32768
 62
   257
 93
        1
300
CONTENTFORMAT
  1
CONTENTFORMAT_BEGIN
 90
        0
 91
        0
 92
      512
 93
        0
300

 40
0.0
140
1.0
 94
        5
 62
     0
340
11
144
6.0
309
CONTENTFORMAT_END
171
     1
301
MARGIN
  1
CELLMARGIN_BEGIN
 40
1.5
 40
1.5
 40
1.5
 40
1.5
 40
4.5
 40
4.5
309
CELLMARGIN_END
 94
        6
 95
        1
302
GRIDFORMAT
  1
GRIDFORMAT_BEGIN
 90
        0
 91
        1
 62
     0
 92
       -2
340
14
 93
        0
 40
1.125
309
GRIDFORMAT_END
 95
        2
302
GRIDFORMAT
  1
GRIDFORMAT_BEGIN
 90
        0
 91
        1
 62
     0
 92
       -2
340
14
 93
        0
 40
1.125
309
GRIDFORMAT_END
 95
        4
302
GRIDFORMAT
  1
GRIDFORMAT_BEGIN
 90
        0
 91
        1
 62
     0
 92
       -2
340
14
 93
        0
 40
1.125
309
GRIDFORMAT_END
 95
        8
302
GRIDFORMAT
  1
GRIDFORMAT_BEGIN
 90
        0
 91
        1
 62
     0
 92
       -2
340
14
 93
        0
 40
1.125
309
GRIDFORMAT_END
 95
       16
302
GRIDFORMAT
  1
GRIDFORMAT_BEGIN
 90
        0
 91
        1
 62
     0
 92
       -2
340
14
 93
        0
 40
1.125
309
GRIDFORMAT_END
 95
       32
302
GRIDFORMAT
  1
GRIDFORMAT_BEGIN
 90
        0
 91
        1
 62
     0
 92
       -2
340
14
 93
        0
 40
1.125
309
GRIDFORMAT_END
309
TABLEFORMAT_END
  1
CELLSTYLE_BEGIN
 90
        1
 91
        1
300
_TITLE
309
CELLSTYLE_END
300
CELLSTYLE
  1
TABLEFORMAT_BEGIN
 90
        5
170
     1
 91
        0
 92
        0
 62
   257
 93
        1
300
CONTENTFORMAT
  1
CONTENTFORMAT_BEGIN
 90
        0
 91
        0
 92
      512
 93
        0
300

 40
0.0
140
1.0
 94
        5
 62
     0
340
11
144
4.5
309
CONTENTFORMAT_END
171
     1
301
MARGIN
  1
CELLMARGIN_BEGIN
 40
1.5
 40
1.5
 40
1.5
 40
1.5
 40
4.5
 40
4.5
309
CELLMARGIN_END
 94
        6
 95
        1
302
GRIDFORMAT
  1
GRIDFORMAT_BEGIN
 90
        0
 91
        1
 62
     0
 92
       -2
340
14
 93
        0
 40
1.125
309
GRIDFORMAT_END
 95
        2
302
GRIDFORMAT
  1
GRIDFORMAT_BEGIN
 90
        0
 91
        1
 62
     0
 92
       -2
340
14
 93
        0
 40
1.125
309
GRIDFORMAT_END
 95
        4
302
GRIDFORMAT
  1
GRIDFORMAT_BEGIN
 90
        0
 91
        1
 62
     0
 92
       -2
340
14
 93
        0
 40
1.125
309
GRIDFORMAT_END
 95
        8
302
GRIDFORMAT
  1
GRIDFORMAT_BEGIN
 90
        0
 91
        1
 62
     0
 92
       -2
340
14
 93
        0
 40
1.125
309
GRIDFORMAT_END
 95
       16
302
GRIDFORMAT
  1
GRIDFORMAT_BEGIN
 90
        0
 91
        1
 62
     0
 92
       -2
340
14
 93
        0
 40
1.125
309
GRIDFORMAT_END
 95
       32
302
GRIDFORMAT
  1
GRIDFORMAT_BEGIN
 90
        0
 91
        1
 62
     0
 92
       -2
340
14
 93
        0
 40
1.125
309
GRIDFORMAT_END
309
TABLEFORMAT_END
  1
CELLSTYLE_BEGIN
 90
        2
 91
        1
300
_HEADER
309
CELLSTYLE_END
300
CELLSTYLE
  1
TABLEFORMAT_BEGIN
 90
        5
170
     1
 91
        0
 92
        0
 62
   257
 93
        1
300
CONTENTFORMAT
  1
CONTENTFORMAT_BEGIN
 90
        0
 91
        0
 92
      512
 93
        0
300

 40
0.0
140
1.0
 94
        2
 62
     0
340
11
144
4.5
309
CONTENTFORMAT_END
171
     1
301
MARGIN
  1
CELLMARGIN_BEGIN
 40
1.5
 40
1.5
 40
1.5
 40
1.5
 40
4.5
 40
4.5
309
CELLMARGIN_END
 94
        6
 95
        1
302
GRIDFORMAT
  1
GRIDFORMAT_BEGIN
 90
        0
 91
        1
 62
     0
 92
       -2
340
14
 93
        0
 40
1.125
309
GRIDFORMAT_END
 95
        2
302
GRIDFORMAT
  1
GRIDFORMAT_BEGIN
 90
        0
 91
        1
 62
     0
 92
       -2
340
14
 93
        0
 40
1.125
309
GRIDFORMAT_END
 95
        4
302
GRIDFORMAT
  1
GRIDFORMAT_BEGIN
 90
        0
 91
        1
 62
     0
 92
       -2
340
14
 93
        0
 40
1.125
309
GRIDFORMAT_END
 95
        8
302
GRIDFORMAT
  1
GRIDFORMAT_BEGIN
 90
        0
 91
        1
 62
     0
 92
       -2
340
14
 93
        0
 40
1.125
309
GRIDFORMAT_END
 95
       16
302
GRIDFORMAT
  1
GRIDFORMAT_BEGIN
 90
        0
 91
        1
 62
     0
 92
       -2
340
14
 93
        0
 40
1.125
309
GRIDFORMAT_END
 95
       32
302
GRIDFORMAT
  1
GRIDFORMAT_BEGIN
 90
        0
 91
        1
 62
     0
 92
       -2
340
14
 93
        0
 40
1.125
309
GRIDFORMAT_END
309
TABLEFORMAT_END
  1
CELLSTYLE_BEGIN
 90
        3
 91
        2
300
_DATA
309
CELLSTYLE_END
  0
XRECORD
  5
12754
102
{ACAD_REACTORS
330
162
102
}
330
162
100
AcDbXrecord
280
     1
102
ACAD_ROUNDTRIP_PRE2007_TABLESTYLE
 90
      512
 91
        0
  1

 92
      512
 93
        0
  2

 94
      512
 95
        0
  3

  0
XRECORD
  5
12767
102
{ACAD_REACTORS
330
12766
102
}
330
12766
100
AcDbXrecord
280
     1
102
RTVSPost2010Prop28
280
     1
102
RTVSPost2010PropOp28
 70
     1
102
RTVSPost2010Prop29
280
     1
102
RTVSPost2010PropOp29
 70
     1
102
RTVSPost2010Prop30
280
     0
102
RTVSPost2010PropOp30
 70
     1
102
RTVSPost2010Prop31
280
     0
102
RTVSPost2010PropOp31
 70
     1
102
RTVSPost2010Prop32
280
     0
102
RTVSPost2010PropOp32
 70
     1
102
RTVSPost2010Prop33
280
     0
102
RTVSPost2010PropOp33
 70
     1
102
RTVSPost2010Prop34
280
     0
102
RTVSPost2010PropOp34
 70
     1
102
RTVSPost2010Prop35
280
     0
102
RTVSPost2010PropOp35
 70
     1
102
RTVSPost2010Prop36
280
     0
102
RTVSPost2010PropOp36
 70
     1
102
RTVSPost2010Prop37
 90
       50
102
RTVSPost2010PropOp37
 70
     1
102
RTVSPost2010Prop38
140
0.0
102
RTVSPost2010PropOp38
 70
     1
102
RTVSPost2010Prop39
140
1.0
102
RTVSPost2010PropOp39
 70
     1
102
RTVSPost2010Prop40
 90
        0
102
RTVSPost2010PropOp40
 70
     1
102
RTVSPost2010Prop41ColorIndex
 90
       18
102
RTVSPost2010Prop41ColorRGB
 90
        0
102
RTVSPost2010PropOp41
 70
     1
102
RTVSPost2010Prop42
 90
       50
102
RTVSPost2010PropOp42
 70
     1
102
RTVSPost2010Prop43
 90
        3
102
RTVSPost2010PropOp43
 70
     1
102
RTVSPost2010Prop44ColorIndex
 90
        5
102
RTVSPost2010Prop44ColorRGB
 90
      255
102
RTVSPost2010PropOp44
 70
     1
102
RTVSPost2010Prop45
280
     0
102
RTVSPost2010PropOp45
 70
     1
102
RTVSPost2010Prop46
 90
       50
102
RTVSPost2010PropOp46
 70
     1
102
RTVSPost2010Prop47
 90
       50
102
RTVSPost2010PropOp47
 70
     1
102
RTVSPost2010Prop48
 90
       50
102
RTVSPost2010PropOp48
 70
     1
102
RTVSPost2010Prop49
280
     0
102
RTVSPost2010PropOp49
 70
     1
102
RTVSPost2010Prop50
 90
       50
102
RTVSPost2010PropOp50
 70
     1
102
RTVSPost2010Prop51ColorIndex
 90
      256
102
RTVSPost2010Prop51ColorRGB
 90
-16777216
102
RTVSPost2010PropOp51
 70
     0
102
RTVSPost2010Prop52
140
1.0
102
RTVSPost2010PropOp52
 70
     0
102
RTVSPost2010Prop53
 90
        2
102
RTVSPost2010PropOp53
 70
     1
102
RTVSPost2010Prop54
  1
strokes_ogs.tif
102
RTVSPost2010PropOp54
 70
     1
102
RTVSPost2010Prop55
280
     0
102
RTVSPost2010PropOp55
 70
     1
102
RTVSPost2010Prop56
140
1.0
102
RTVSPost2010PropOp56
 70
     1
102
RTVSPost2010Prop57
140
1.0
102
RTVSPost2010PropOp57
 70
     1
102
RTVSPropertyOp0
 70
     1
102
RTVSPropertyOp1
 70
     1
102
RTVSPropertyOp2
 70
     1
102
RTVSPropertyOp3
 70
     1
102
RTVSPropertyOp4
 70
     1
102
RTVSPropertyOp5
 70
     1
102
RTVSPropertyOp6
 70
     1
102
RTVSPropertyOp7
 70
     1
102
RTVSPropertyOp8
 70
     1
102
RTVSPropertyOp9
 70
     1
102
RTVSPropertyOp10
 70
     1
102
RTVSPropertyOp11
 70
     1
102
RTVSPropertyOp12
 70
     1
102
RTVSPropertyOp13
 70
     1
102
RTVSPropertyOp14
 70
     1
102
RTVSPropertyOp15
 70
     1
102
RTVSPropertyOp16
 70
     1
102
RTVSPropertyOp17
 70
     1
102
RTVSPropertyOp18
 70
     1
102
RTVSPropertyOp19
 70
     1
102
RTVSPropertyOp20
 70
     1
102
RTVSPropertyOp21
 70
     1
102
RTVSPropertyOp22
 70
     1
102
RTVSPropertyOp23
 70
     1
102
RTVSPropertyOp24
 70
     1
102
RTVSPropertyOp25
 70
     1
102
RTVSPropertyOp26
 70
     1
102
RTVSPropertyOp27
 70
     1
102
RTVSPropertyOp28
 70
     1
102
RTVSPropertyOp29
 70
     1
102
RTVSPropertyOp30
 70
     1
102
RTVSPropertyOp31
 70
     1
102
RTVSPropertyOp32
 70
     1
102
RTVSPropertyOp33
 70
     1
102
RTVSPropertyOp34
 70
     1
102
RTVSPropertyOp35
 70
     1
102
RTVSPropertyOp36
 70
     1
102
RTVSPropertyOp37
 70
     1
102
RTVSPropertyOp38
 70
     1
102
RTVSPropertyOp39
 70
     1
102
RTVSPropertyOp40
 70
     1
102
RTVSPropertyOp41
 70
     1
102
RTVSPropertyOp42
 70
     1
102
RTVSPropertyOp43
 70
     1
102
RTVSPropertyOp44
 70
     1
102
RTVSPropertyOp45
 70
     1
102
RTVSPropertyOp46
 70
     1
102
RTVSPropertyOp47
 70
     1
102
RTVSPropertyOp48
 70
     1
102
RTVSPropertyOp49
 70
     1
102
RTVSPropertyOp50
 70
     1
102
RTVSPropertyOp51
 70
     0
102
RTVSPropertyOp52
 70
     0
102
RTVSPropertyOp53
 70
     1
102
RTVSPropertyOp54
 70
     1
102
RTVSPropertyOp55
 70
     1
102
RTVSPropertyOp56
 70
     1
102
RTVSPropertyOp57
 70
     1
102
RTVSPropertyOp58
 70
     1
102
RTVSPropertyOp59
 70
     1
102
RTVSPropertyOp60
 70
     1
102
RTVSPropertyOp61
 70
     1
102
RTVSPropertyOp62
 70
     1
  0
XRECORD
  5
12765
102
{ACAD_REACTORS
330
12764
102
}
330
12764
100
AcDbXrecord
280
     1
102
RTVSPost2010Prop28
280
     0
102
RTVSPost2010PropOp28
 70
     1
102
RTVSPost2010Prop29
280
     1
102
RTVSPost2010PropOp29
 70
     1
102
RTVSPost2010Prop30
280
     1
102
RTVSPost2010PropOp30
 70
     1
102
RTVSPost2010Prop31
280
     0
102
RTVSPost2010PropOp31
 70
     1
102
RTVSPost2010Prop32
280
     0
102
RTVSPost2010PropOp32
 70
     1
102
RTVSPost2010Prop33
280
     0
102
RTVSPost2010PropOp33
 70
     1
102
RTVSPost2010Prop34
280
     0
102
RTVSPost2010PropOp34
 70
     1
102
RTVSPost2010Prop35
280
     0
102
RTVSPost2010PropOp35
 70
     1
102
RTVSPost2010Prop36
280
     0
102
RTVSPost2010PropOp36
 70
     1
102
RTVSPost2010Prop37
 90
       50
102
RTVSPost2010PropOp37
 70
     1
102
RTVSPost2010Prop38
140
0.0
102
RTVSPost2010PropOp38
 70
     1
102
RTVSPost2010Prop39
140
1.0
102
RTVSPost2010PropOp39
 70
     1
102
RTVSPost2010Prop40
 90
        0
102
RTVSPost2010PropOp40
 70
     1
102
RTVSPost2010Prop41ColorIndex
 90
       18
102
RTVSPost2010Prop41ColorRGB
 90
        0
102
RTVSPost2010PropOp41
 70
     1
102
RTVSPost2010Prop42
 90
       50
102
RTVSPost2010PropOp42
 70
     1
102
RTVSPost2010Prop43
 90
        3
102
RTVSPost2010PropOp43
 70
     1
102
RTVSPost2010Prop44ColorIndex
 90
        5
102
RTVSPost2010Prop44ColorRGB
 90
      255
102
RTVSPost2010PropOp44
 70
     1
102
RTVSPost2010Prop45
280
     0
102
RTVSPost2010PropOp45
 70
     1
102
RTVSPost2010Prop46
 90
       50
102
RTVSPost2010PropOp46
 70
     1
102
RTVSPost2010Prop47
 90
       50
102
RTVSPost2010PropOp47
 70
     1
102
RTVSPost2010Prop48
 90
       50
102
RTVSPost2010PropOp48
 70
     1
102
RTVSPost2010Prop49
280
     0
102
RTVSPost2010PropOp49
 70
     1
102
RTVSPost2010Prop50
 90
       50
102
RTVSPost2010PropOp50
 70
     1
102
RTVSPost2010Prop51ColorIndex
 90
      256
102
RTVSPost2010Prop51ColorRGB
 90
-16777216
102
RTVSPost2010PropOp51
 70
     0
102
RTVSPost2010Prop52
140
1.0
102
RTVSPost2010PropOp52
 70
     0
102
RTVSPost2010Prop53
 90
        2
102
RTVSPost2010PropOp53
 70
     1
102
RTVSPost2010Prop54
  1
strokes_ogs.tif
102
RTVSPost2010PropOp54
 70
     1
102
RTVSPost2010Prop55
280
     0
102
RTVSPost2010PropOp55
 70
     1
102
RTVSPost2010Prop56
140
1.0
102
RTVSPost2010PropOp56
 70
     1
102
RTVSPost2010Prop57
140
1.0
102
RTVSPost2010PropOp57
 70
     1
102
RTVSPropertyOp0
 70
     1
102
RTVSPropertyOp1
 70
     1
102
RTVSPropertyOp2
 70
     1
102
RTVSPropertyOp3
 70
     1
102
RTVSPropertyOp4
 70
     1
102
RTVSPropertyOp5
 70
     1
102
RTVSPropertyOp6
 70
     1
102
RTVSPropertyOp7
 70
     1
102
RTVSPropertyOp8
 70
     1
102
RTVSPropertyOp9
 70
     1
102
RTVSPropertyOp10
 70
     1
102
RTVSPropertyOp11
 70
     1
102
RTVSPropertyOp12
 70
     1
102
RTVSPropertyOp13
 70
     1
102
RTVSPropertyOp14
 70
     1
102
RTVSPropertyOp15
 70
     1
102
RTVSPropertyOp16
 70
     1
102
RTVSPropertyOp17
 70
     1
102
RTVSPropertyOp18
 70
     1
102
RTVSPropertyOp19
 70
     1
102
RTVSPropertyOp20
 70
     1
102
RTVSPropertyOp21
 70
     1
102
RTVSPropertyOp22
 70
     1
102
RTVSPropertyOp23
 70
     1
102
RTVSPropertyOp24
 70
     1
102
RTVSPropertyOp25
 70
     1
102
RTVSPropertyOp26
 70
     1
102
RTVSPropertyOp27
 70
     1
102
RTVSPropertyOp28
 70
     1
102
RTVSPropertyOp29
 70
     1
102
RTVSPropertyOp30
 70
     1
102
RTVSPropertyOp31
 70
     1
102
RTVSPropertyOp32
 70
     1
102
RTVSPropertyOp33
 70
     1
102
RTVSPropertyOp34
 70
     1
102
RTVSPropertyOp35
 70
     1
102
RTVSPropertyOp36
 70
     1
102
RTVSPropertyOp37
 70
     1
102
RTVSPropertyOp38
 70
     1
102
RTVSPropertyOp39
 70
     1
102
RTVSPropertyOp40
 70
     1
102
RTVSPropertyOp41
 70
     1
102
RTVSPropertyOp42
 70
     1
102
RTVSPropertyOp43
 70
     1
102
RTVSPropertyOp44
 70
     1
102
RTVSPropertyOp45
 70
     1
102
RTVSPropertyOp46
 70
     1
102
RTVSPropertyOp47
 70
     1
102
RTVSPropertyOp48
 70
     1
102
RTVSPropertyOp49
 70
     1
102
RTVSPropertyOp50
 70
     1
102
RTVSPropertyOp51
 70
     0
102
RTVSPropertyOp52
 70
     0
102
RTVSPropertyOp53
 70
     1
102
RTVSPropertyOp54
 70
     1
102
RTVSPropertyOp55
 70
     1
102
RTVSPropertyOp56
 70
     1
102
RTVSPropertyOp57
 70
     1
102
RTVSPropertyOp58
 70
     1
102
RTVSPropertyOp59
 70
     1
102
RTVSPropertyOp60
 70
     1
102
RTVSPropertyOp61
 70
     1
102
RTVSPropertyOp62
 70
     1
  0
XRECORD
  5
12773
102
{ACAD_REACTORS
330
12772
102
}
330
12772
100
AcDbXrecord
280
     1
102
RTVSPost2010Prop28
280
     0
102
RTVSPost2010PropOp28
 70
     1
102
RTVSPost2010Prop29
280
     1
102
RTVSPost2010PropOp29
 70
     1
102
RTVSPost2010Prop30
280
     1
102
RTVSPost2010PropOp30
 70
     1
102
RTVSPost2010Prop31
280
     0
102
RTVSPost2010PropOp31
 70
     1
102
RTVSPost2010Prop32
280
     0
102
RTVSPost2010PropOp32
 70
     1
102
RTVSPost2010Prop33
280
     0
102
RTVSPost2010PropOp33
 70
     1
102
RTVSPost2010Prop34
280
     0
102
RTVSPost2010PropOp34
 70
     1
102
RTVSPost2010Prop35
280
     0
102
RTVSPost2010PropOp35
 70
     1
102
RTVSPost2010Prop36
280
     0
102
RTVSPost2010PropOp36
 70
     1
102
RTVSPost2010Prop37
 90
       50
102
RTVSPost2010PropOp37
 70
     1
102
RTVSPost2010Prop38
140
0.0
102
RTVSPost2010PropOp38
 70
     1
102
RTVSPost2010Prop39
140
1.0
102
RTVSPost2010PropOp39
 70
     1
102
RTVSPost2010Prop40
 90
        0
102
RTVSPost2010PropOp40
 70
     1
102
RTVSPost2010Prop41ColorIndex
 90
       18
102
RTVSPost2010Prop41ColorRGB
 90
        0
102
RTVSPost2010PropOp41
 70
     1
102
RTVSPost2010Prop42
 90
       50
102
RTVSPost2010PropOp42
 70
     1
102
RTVSPost2010Prop43
 90
        3
102
RTVSPost2010PropOp43
 70
     1
102
RTVSPost2010Prop44ColorIndex
 90
        5
102
RTVSPost2010Prop44ColorRGB
 90
      255
102
RTVSPost2010PropOp44
 70
     1
102
RTVSPost2010Prop45
280
     0
102
RTVSPost2010PropOp45
 70
     1
102
RTVSPost2010Prop46
 90
       50
102
RTVSPost2010PropOp46
 70
     1
102
RTVSPost2010Prop47
 90
       50
102
RTVSPost2010PropOp47
 70
     1
102
RTVSPost2010Prop48
 90
       50
102
RTVSPost2010PropOp48
 70
     1
102
RTVSPost2010Prop49
280
     0
102
RTVSPost2010PropOp49
 70
     1
102
RTVSPost2010Prop50
 90
       50
102
RTVSPost2010PropOp50
 70
     1
102
RTVSPost2010Prop51ColorIndex
 90
      256
102
RTVSPost2010Prop51ColorRGB
 90
-16777216
102
RTVSPost2010PropOp51
 70
     0
102
RTVSPost2010Prop52
140
1.0
102
RTVSPost2010PropOp52
 70
     0
102
RTVSPost2010Prop53
 90
        2
102
RTVSPost2010PropOp53
 70
     1
102
RTVSPost2010Prop54
  1
strokes_ogs.tif
102
RTVSPost2010PropOp54
 70
     1
102
RTVSPost2010Prop55
280
     0
102
RTVSPost2010PropOp55
 70
     1
102
RTVSPost2010Prop56
140
1.0
102
RTVSPost2010PropOp56
 70
     1
102
RTVSPost2010Prop57
140
1.0
102
RTVSPost2010PropOp57
 70
     1
102
RTVSPropertyOp0
 70
     1
102
RTVSPropertyOp1
 70
     1
102
RTVSPropertyOp2
 70
     1
102
RTVSPropertyOp3
 70
     1
102
RTVSPropertyOp4
 70
     1
102
RTVSPropertyOp5
 70
     1
102
RTVSPropertyOp6
 70
     1
102
RTVSPropertyOp7
 70
     1
102
RTVSPropertyOp8
 70
     1
102
RTVSPropertyOp9
 70
     1
102
RTVSPropertyOp10
 70
     1
102
RTVSPropertyOp11
 70
     1
102
RTVSPropertyOp12
 70
     1
102
RTVSPropertyOp13
 70
     1
102
RTVSPropertyOp14
 70
     1
102
RTVSPropertyOp15
 70
     1
102
RTVSPropertyOp16
 70
     1
102
RTVSPropertyOp17
 70
     1
102
RTVSPropertyOp18
 70
     1
102
RTVSPropertyOp19
 70
     1
102
RTVSPropertyOp20
 70
     1
102
RTVSPropertyOp21
 70
     1
102
RTVSPropertyOp22
 70
     1
102
RTVSPropertyOp23
 70
     1
102
RTVSPropertyOp24
 70
     1
102
RTVSPropertyOp25
 70
     1
102
RTVSPropertyOp26
 70
     1
102
RTVSPropertyOp27
 70
     1
102
RTVSPropertyOp28
 70
     1
102
RTVSPropertyOp29
 70
     1
102
RTVSPropertyOp30
 70
     1
102
RTVSPropertyOp31
 70
     1
102
RTVSPropertyOp32
 70
     1
102
RTVSPropertyOp33
 70
     1
102
RTVSPropertyOp34
 70
     1
102
RTVSPropertyOp35
 70
     1
102
RTVSPropertyOp36
 70
     1
102
RTVSPropertyOp37
 70
     1
102
RTVSPropertyOp38
 70
     1
102
RTVSPropertyOp39
 70
     1
102
RTVSPropertyOp40
 70
     1
102
RTVSPropertyOp41
 70
     1
102
RTVSPropertyOp42
 70
     1
102
RTVSPropertyOp43
 70
     1
102
RTVSPropertyOp44
 70
     1
102
RTVSPropertyOp45
 70
     1
102
RTVSPropertyOp46
 70
     1
102
RTVSPropertyOp47
 70
     1
102
RTVSPropertyOp48
 70
     1
102
RTVSPropertyOp49
 70
     1
102
RTVSPropertyOp50
 70
     1
102
RTVSPropertyOp51
 70
     0
102
RTVSPropertyOp52
 70
     0
102
RTVSPropertyOp53
 70
     1
102
RTVSPropertyOp54
 70
     1
102
RTVSPropertyOp55
 70
     1
102
RTVSPropertyOp56
 70
     1
102
RTVSPropertyOp57
 70
     1
102
RTVSPropertyOp58
 70
     1
102
RTVSPropertyOp59
 70
     1
102
RTVSPropertyOp60
 70
     1
102
RTVSPropertyOp61
 70
     1
102
RTVSPropertyOp62
 70
     1
  0
XRECORD
  5
1277B
102
{ACAD_REACTORS
330
1277A
102
}
330
1277A
100
AcDbXrecord
280
     1
102
RTVSPost2010Prop28
280
     0
102
RTVSPost2010PropOp28
 70
     1
102
RTVSPost2010Prop29
280
     1
102
RTVSPost2010PropOp29
 70
     1
102
RTVSPost2010Prop30
280
     1
102
RTVSPost2010PropOp30
 70
     1
102
RTVSPost2010Prop31
280
     0
102
RTVSPost2010PropOp31
 70
     1
102
RTVSPost2010Prop32
280
     0
102
RTVSPost2010PropOp32
 70
     1
102
RTVSPost2010Prop33
280
     0
102
RTVSPost2010PropOp33
 70
     1
102
RTVSPost2010Prop34
280
     0
102
RTVSPost2010PropOp34
 70
     1
102
RTVSPost2010Prop35
280
     0
102
RTVSPost2010PropOp35
 70
     1
102
RTVSPost2010Prop36
280
     0
102
RTVSPost2010PropOp36
 70
     1
102
RTVSPost2010Prop37
 90
       50
102
RTVSPost2010PropOp37
 70
     1
102
RTVSPost2010Prop38
140
0.0
102
RTVSPost2010PropOp38
 70
     1
102
RTVSPost2010Prop39
140
1.0
102
RTVSPost2010PropOp39
 70
     1
102
RTVSPost2010Prop40
 90
        0
102
RTVSPost2010PropOp40
 70
     1
102
RTVSPost2010Prop41ColorIndex
 90
       18
102
RTVSPost2010Prop41ColorRGB
 90
        0
102
RTVSPost2010PropOp41
 70
     1
102
RTVSPost2010Prop42
 90
       50
102
RTVSPost2010PropOp42
 70
     1
102
RTVSPost2010Prop43
 90
        3
102
RTVSPost2010PropOp43
 70
     1
102
RTVSPost2010Prop44ColorIndex
 90
        5
102
RTVSPost2010Prop44ColorRGB
 90
      255
102
RTVSPost2010PropOp44
 70
     1
102
RTVSPost2010Prop45
280
     0
102
RTVSPost2010PropOp45
 70
     1
102
RTVSPost2010Prop46
 90
       50
102
RTVSPost2010PropOp46
 70
     1
102
RTVSPost2010Prop47
 90
       50
102
RTVSPost2010PropOp47
 70
     1
102
RTVSPost2010Prop48
 90
       50
102
RTVSPost2010PropOp48
 70
     1
102
RTVSPost2010Prop49
280
     0
102
RTVSPost2010PropOp49
 70
     1
102
RTVSPost2010Prop50
 90
       50
102
RTVSPost2010PropOp50
 70
     1
102
RTVSPost2010Prop51ColorIndex
 90
      256
102
RTVSPost2010Prop51ColorRGB
 90
-16777216
102
RTVSPost2010PropOp51
 70
     0
102
RTVSPost2010Prop52
140
1.0
102
RTVSPost2010PropOp52
 70
     0
102
RTVSPost2010Prop53
 90
        2
102
RTVSPost2010PropOp53
 70
     1
102
RTVSPost2010Prop54
  1
strokes_ogs.tif
102
RTVSPost2010PropOp54
 70
     1
102
RTVSPost2010Prop55
280
     0
102
RTVSPost2010PropOp55
 70
     1
102
RTVSPost2010Prop56
140
1.0
102
RTVSPost2010PropOp56
 70
     1
102
RTVSPost2010Prop57
140
1.0
102
RTVSPost2010PropOp57
 70
     1
102
RTVSPropertyOp0
 70
     1
102
RTVSPropertyOp1
 70
     1
102
RTVSPropertyOp2
 70
     1
102
RTVSPropertyOp3
 70
     1
102
RTVSPropertyOp4
 70
     1
102
RTVSPropertyOp5
 70
     1
102
RTVSPropertyOp6
 70
     1
102
RTVSPropertyOp7
 70
     1
102
RTVSPropertyOp8
 70
     1
102
RTVSPropertyOp9
 70
     1
102
RTVSPropertyOp10
 70
     1
102
RTVSPropertyOp11
 70
     1
102
RTVSPropertyOp12
 70
     1
102
RTVSPropertyOp13
 70
     1
102
RTVSPropertyOp14
 70
     1
102
RTVSPropertyOp15
 70
     1
102
RTVSPropertyOp16
 70
     1
102
RTVSPropertyOp17
 70
     1
102
RTVSPropertyOp18
 70
     1
102
RTVSPropertyOp19
 70
     1
102
RTVSPropertyOp20
 70
     1
102
RTVSPropertyOp21
 70
     1
102
RTVSPropertyOp22
 70
     1
102
RTVSPropertyOp23
 70
     1
102
RTVSPropertyOp24
 70
     1
102
RTVSPropertyOp25
 70
     1
102
RTVSPropertyOp26
 70
     1
102
RTVSPropertyOp27
 70
     1
102
RTVSPropertyOp28
 70
     1
102
RTVSPropertyOp29
 70
     1
102
RTVSPropertyOp30
 70
     1
102
RTVSPropertyOp31
 70
     1
102
RTVSPropertyOp32
 70
     1
102
RTVSPropertyOp33
 70
     1
102
RTVSPropertyOp34
 70
     1
102
RTVSPropertyOp35
 70
     1
102
RTVSPropertyOp36
 70
     1
102
RTVSPropertyOp37
 70
     1
102
RTVSPropertyOp38
 70
     1
102
RTVSPropertyOp39
 70
     1
102
RTVSPropertyOp40
 70
     1
102
RTVSPropertyOp41
 70
     1
102
RTVSPropertyOp42
 70
     1
102
RTVSPropertyOp43
 70
     1
102
RTVSPropertyOp44
 70
     1
102
RTVSPropertyOp45
 70
     1
102
RTVSPropertyOp46
 70
     1
102
RTVSPropertyOp47
 70
     1
102
RTVSPropertyOp48
 70
     1
102
RTVSPropertyOp49
 70
     1
102
RTVSPropertyOp50
 70
     1
102
RTVSPropertyOp51
 70
     0
102
RTVSPropertyOp52
 70
     0
102
RTVSPropertyOp53
 70
     1
102
RTVSPropertyOp54
 70
     1
102
RTVSPropertyOp55
 70
     1
102
RTVSPropertyOp56
 70
     1
102
RTVSPropertyOp57
 70
     1
102
RTVSPropertyOp58
 70
     1
102
RTVSPropertyOp59
 70
     1
102
RTVSPropertyOp60
 70
     1
102
RTVSPropertyOp61
 70
     1
102
RTVSPropertyOp62
 70
     1
  0
XRECORD
  5
1276D
102
{ACAD_REACTORS
330
1276C
102
}
330
1276C
100
AcDbXrecord
280
     1
102
RTVSPost2010Prop28
280
     0
102
RTVSPost2010PropOp28
 70
     1
102
RTVSPost2010Prop29
280
     1
102
RTVSPost2010PropOp29
 70
     1
102
RTVSPost2010Prop30
280
     1
102
RTVSPost2010PropOp30
 70
     1
102
RTVSPost2010Prop31
280
     0
102
RTVSPost2010PropOp31
 70
     1
102
RTVSPost2010Prop32
280
     0
102
RTVSPost2010PropOp32
 70
     1
102
RTVSPost2010Prop33
280
     0
102
RTVSPost2010PropOp33
 70
     1
102
RTVSPost2010Prop34
280
     0
102
RTVSPost2010PropOp34
 70
     1
102
RTVSPost2010Prop35
280
     0
102
RTVSPost2010PropOp35
 70
     1
102
RTVSPost2010Prop36
280
     0
102
RTVSPost2010PropOp36
 70
     1
102
RTVSPost2010Prop37
 90
       50
102
RTVSPost2010PropOp37
 70
     1
102
RTVSPost2010Prop38
140
0.0
102
RTVSPost2010PropOp38
 70
     1
102
RTVSPost2010Prop39
140
1.0
102
RTVSPost2010PropOp39
 70
     1
102
RTVSPost2010Prop40
 90
        0
102
RTVSPost2010PropOp40
 70
     1
102
RTVSPost2010Prop41ColorIndex
 90
       18
102
RTVSPost2010Prop41ColorRGB
 90
        0
102
RTVSPost2010PropOp41
 70
     1
102
RTVSPost2010Prop42
 90
       50
102
RTVSPost2010PropOp42
 70
     1
102
RTVSPost2010Prop43
 90
        3
102
RTVSPost2010PropOp43
 70
     1
102
RTVSPost2010Prop44ColorIndex
 90
        5
102
RTVSPost2010Prop44ColorRGB
 90
      255
102
RTVSPost2010PropOp44
 70
     1
102
RTVSPost2010Prop45
280
     0
102
RTVSPost2010PropOp45
 70
     1
102
RTVSPost2010Prop46
 90
       50
102
RTVSPost2010PropOp46
 70
     1
102
RTVSPost2010Prop47
 90
       50
102
RTVSPost2010PropOp47
 70
     1
102
RTVSPost2010Prop48
 90
       50
102
RTVSPost2010PropOp48
 70
     1
102
RTVSPost2010Prop49
280
     0
102
RTVSPost2010PropOp49
 70
     1
102
RTVSPost2010Prop50
 90
       50
102
RTVSPost2010PropOp50
 70
     1
102
RTVSPost2010Prop51ColorIndex
 90
      256
102
RTVSPost2010Prop51ColorRGB
 90
-16777216
102
RTVSPost2010PropOp51
 70
     0
102
RTVSPost2010Prop52
140
1.0
102
RTVSPost2010PropOp52
 70
     0
102
RTVSPost2010Prop53
 90
        2
102
RTVSPost2010PropOp53
 70
     1
102
RTVSPost2010Prop54
  1
strokes_ogs.tif
102
RTVSPost2010PropOp54
 70
     1
102
RTVSPost2010Prop55
280
     0
102
RTVSPost2010PropOp55
 70
     1
102
RTVSPost2010Prop56
140
1.0
102
RTVSPost2010PropOp56
 70
     1
102
RTVSPost2010Prop57
140
1.0
102
RTVSPost2010PropOp57
 70
     1
102
RTVSPropertyOp0
 70
     1
102
RTVSPropertyOp1
 70
     1
102
RTVSPropertyOp2
 70
     1
102
RTVSPropertyOp3
 70
     1
102
RTVSPropertyOp4
 70
     1
102
RTVSPropertyOp5
 70
     1
102
RTVSPropertyOp6
 70
     1
102
RTVSPropertyOp7
 70
     1
102
RTVSPropertyOp8
 70
     1
102
RTVSPropertyOp9
 70
     1
102
RTVSPropertyOp10
 70
     1
102
RTVSPropertyOp11
 70
     1
102
RTVSPropertyOp12
 70
     1
102
RTVSPropertyOp13
 70
     1
102
RTVSPropertyOp14
 70
     1
102
RTVSPropertyOp15
 70
     1
102
RTVSPropertyOp16
 70
     1
102
RTVSPropertyOp17
 70
     1
102
RTVSPropertyOp18
 70
     1
102
RTVSPropertyOp19
 70
     1
102
RTVSPropertyOp20
 70
     1
102
RTVSPropertyOp21
 70
     1
102
RTVSPropertyOp22
 70
     1
102
RTVSPropertyOp23
 70
     1
102
RTVSPropertyOp24
 70
     1
102
RTVSPropertyOp25
 70
     1
102
RTVSPropertyOp26
 70
     1
102
RTVSPropertyOp27
 70
     1
102
RTVSPropertyOp28
 70
     1
102
RTVSPropertyOp29
 70
     1
102
RTVSPropertyOp30
 70
     1
102
RTVSPropertyOp31
 70
     1
102
RTVSPropertyOp32
 70
     1
102
RTVSPropertyOp33
 70
     1
102
RTVSPropertyOp34
 70
     1
102
RTVSPropertyOp35
 70
     1
102
RTVSPropertyOp36
 70
     1
102
RTVSPropertyOp37
 70
     1
102
RTVSPropertyOp38
 70
     1
102
RTVSPropertyOp39
 70
     1
102
RTVSPropertyOp40
 70
     1
102
RTVSPropertyOp41
 70
     1
102
RTVSPropertyOp42
 70
     1
102
RTVSPropertyOp43
 70
     1
102
RTVSPropertyOp44
 70
     1
102
RTVSPropertyOp45
 70
     1
102
RTVSPropertyOp46
 70
     1
102
RTVSPropertyOp47
 70
     1
102
RTVSPropertyOp48
 70
     1
102
RTVSPropertyOp49
 70
     1
102
RTVSPropertyOp50
 70
     1
102
RTVSPropertyOp51
 70
     0
102
RTVSPropertyOp52
 70
     0
102
RTVSPropertyOp53
 70
     1
102
RTVSPropertyOp54
 70
     1
102
RTVSPropertyOp55
 70
     1
102
RTVSPropertyOp56
 70
     1
102
RTVSPropertyOp57
 70
     1
102
RTVSPropertyOp58
 70
     1
102
RTVSPropertyOp59
 70
     1
102
RTVSPropertyOp60
 70
     1
102
RTVSPropertyOp61
 70
     1
102
RTVSPropertyOp62
 70
     1
  0
XRECORD
  5
12771
102
{ACAD_REACTORS
330
12770
102
}
330
12770
100
AcDbXrecord
280
     1
102
RTVSPost2010Prop28
280
     0
102
RTVSPost2010PropOp28
 70
     1
102
RTVSPost2010Prop29
280
     1
102
RTVSPost2010PropOp29
 70
     1
102
RTVSPost2010Prop30
280
     1
102
RTVSPost2010PropOp30
 70
     1
102
RTVSPost2010Prop31
280
     0
102
RTVSPost2010PropOp31
 70
     1
102
RTVSPost2010Prop32
280
     0
102
RTVSPost2010PropOp32
 70
     1
102
RTVSPost2010Prop33
280
     0
102
RTVSPost2010PropOp33
 70
     1
102
RTVSPost2010Prop34
280
     0
102
RTVSPost2010PropOp34
 70
     1
102
RTVSPost2010Prop35
280
     0
102
RTVSPost2010PropOp35
 70
     1
102
RTVSPost2010Prop36
280
     0
102
RTVSPost2010PropOp36
 70
     1
102
RTVSPost2010Prop37
 90
       50
102
RTVSPost2010PropOp37
 70
     1
102
RTVSPost2010Prop38
140
0.0
102
RTVSPost2010PropOp38
 70
     1
102
RTVSPost2010Prop39
140
1.0
102
RTVSPost2010PropOp39
 70
     1
102
RTVSPost2010Prop40
 90
        0
102
RTVSPost2010PropOp40
 70
     1
102
RTVSPost2010Prop41ColorIndex
 90
       18
102
RTVSPost2010Prop41ColorRGB
 90
        0
102
RTVSPost2010PropOp41
 70
     1
102
RTVSPost2010Prop42
 90
       50
102
RTVSPost2010PropOp42
 70
     1
102
RTVSPost2010Prop43
 90
        3
102
RTVSPost2010PropOp43
 70
     1
102
RTVSPost2010Prop44ColorIndex
 90
        5
102
RTVSPost2010Prop44ColorRGB
 90
      255
102
RTVSPost2010PropOp44
 70
     1
102
RTVSPost2010Prop45
280
     0
102
RTVSPost2010PropOp45
 70
     1
102
RTVSPost2010Prop46
 90
       50
102
RTVSPost2010PropOp46
 70
     1
102
RTVSPost2010Prop47
 90
       50
102
RTVSPost2010PropOp47
 70
     1
102
RTVSPost2010Prop48
 90
       50
102
RTVSPost2010PropOp48
 70
     1
102
RTVSPost2010Prop49
280
     0
102
RTVSPost2010PropOp49
 70
     1
102
RTVSPost2010Prop50
 90
       50
102
RTVSPost2010PropOp50
 70
     1
102
RTVSPost2010Prop51ColorIndex
 90
      256
102
RTVSPost2010Prop51ColorRGB
 90
-16777216
102
RTVSPost2010PropOp51
 70
     0
102
RTVSPost2010Prop52
140
1.0
102
RTVSPost2010PropOp52
 70
     0
102
RTVSPost2010Prop53
 90
        2
102
RTVSPost2010PropOp53
 70
     1
102
RTVSPost2010Prop54
  1
strokes_ogs.tif
102
RTVSPost2010PropOp54
 70
     1
102
RTVSPost2010Prop55
280
     0
102
RTVSPost2010PropOp55
 70
     1
102
RTVSPost2010Prop56
140
1.0
102
RTVSPost2010PropOp56
 70
     1
102
RTVSPost2010Prop57
140
1.0
102
RTVSPost2010PropOp57
 70
     1
102
RTVSPropertyOp0
 70
     1
102
RTVSPropertyOp1
 70
     1
102
RTVSPropertyOp2
 70
     1
102
RTVSPropertyOp3
 70
     1
102
RTVSPropertyOp4
 70
     1
102
RTVSPropertyOp5
 70
     1
102
RTVSPropertyOp6
 70
     1
102
RTVSPropertyOp7
 70
     1
102
RTVSPropertyOp8
 70
     1
102
RTVSPropertyOp9
 70
     1
102
RTVSPropertyOp10
 70
     1
102
RTVSPropertyOp11
 70
     1
102
RTVSPropertyOp12
 70
     1
102
RTVSPropertyOp13
 70
     1
102
RTVSPropertyOp14
 70
     1
102
RTVSPropertyOp15
 70
     1
102
RTVSPropertyOp16
 70
     1
102
RTVSPropertyOp17
 70
     1
102
RTVSPropertyOp18
 70
     1
102
RTVSPropertyOp19
 70
     1
102
RTVSPropertyOp20
 70
     1
102
RTVSPropertyOp21
 70
     1
102
RTVSPropertyOp22
 70
     1
102
RTVSPropertyOp23
 70
     1
102
RTVSPropertyOp24
 70
     1
102
RTVSPropertyOp25
 70
     1
102
RTVSPropertyOp26
 70
     1
102
RTVSPropertyOp27
 70
     1
102
RTVSPropertyOp28
 70
     1
102
RTVSPropertyOp29
 70
     1
102
RTVSPropertyOp30
 70
     1
102
RTVSPropertyOp31
 70
     1
102
RTVSPropertyOp32
 70
     1
102
RTVSPropertyOp33
 70
     1
102
RTVSPropertyOp34
 70
     1
102
RTVSPropertyOp35
 70
     1
102
RTVSPropertyOp36
 70
     1
102
RTVSPropertyOp37
 70
     1
102
RTVSPropertyOp38
 70
     1
102
RTVSPropertyOp39
 70
     1
102
RTVSPropertyOp40
 70
     1
102
RTVSPropertyOp41
 70
     1
102
RTVSPropertyOp42
 70
     1
102
RTVSPropertyOp43
 70
     1
102
RTVSPropertyOp44
 70
     1
102
RTVSPropertyOp45
 70
     1
102
RTVSPropertyOp46
 70
     1
102
RTVSPropertyOp47
 70
     1
102
RTVSPropertyOp48
 70
     1
102
RTVSPropertyOp49
 70
     1
102
RTVSPropertyOp50
 70
     1
102
RTVSPropertyOp51
 70
     0
102
RTVSPropertyOp52
 70
     0
102
RTVSPropertyOp53
 70
     1
102
RTVSPropertyOp54
 70
     1
102
RTVSPropertyOp55
 70
     1
102
RTVSPropertyOp56
 70
     1
102
RTVSPropertyOp57
 70
     1
102
RTVSPropertyOp58
 70
     1
102
RTVSPropertyOp59
 70
     1
102
RTVSPropertyOp60
 70
     1
102
RTVSPropertyOp61
 70
     1
102
RTVSPropertyOp62
 70
     1
  0
XRECORD
  5
12783
102
{ACAD_REACTORS
330
12782
102
}
330
12782
100
AcDbXrecord
280
     1
102
RTVSPost2010Prop28
280
     0
102
RTVSPost2010PropOp28
 70
     1
102
RTVSPost2010Prop29
280
     1
102
RTVSPost2010PropOp29
 70
     1
102
RTVSPost2010Prop30
280
     1
102
RTVSPost2010PropOp30
 70
     1
102
RTVSPost2010Prop31
280
     0
102
RTVSPost2010PropOp31
 70
     1
102
RTVSPost2010Prop32
280
     0
102
RTVSPost2010PropOp32
 70
     1
102
RTVSPost2010Prop33
280
     0
102
RTVSPost2010PropOp33
 70
     1
102
RTVSPost2010Prop34
280
     0
102
RTVSPost2010PropOp34
 70
     1
102
RTVSPost2010Prop35
280
     0
102
RTVSPost2010PropOp35
 70
     1
102
RTVSPost2010Prop36
280
     0
102
RTVSPost2010PropOp36
 70
     1
102
RTVSPost2010Prop37
 90
       50
102
RTVSPost2010PropOp37
 70
     1
102
RTVSPost2010Prop38
140
0.0
102
RTVSPost2010PropOp38
 70
     1
102
RTVSPost2010Prop39
140
1.0
102
RTVSPost2010PropOp39
 70
     1
102
RTVSPost2010Prop40
 90
        0
102
RTVSPost2010PropOp40
 70
     1
102
RTVSPost2010Prop41ColorIndex
 90
       18
102
RTVSPost2010Prop41ColorRGB
 90
        0
102
RTVSPost2010PropOp41
 70
     1
102
RTVSPost2010Prop42
 90
       50
102
RTVSPost2010PropOp42
 70
     1
102
RTVSPost2010Prop43
 90
        3
102
RTVSPost2010PropOp43
 70
     1
102
RTVSPost2010Prop44ColorIndex
 90
        5
102
RTVSPost2010Prop44ColorRGB
 90
      255
102
RTVSPost2010PropOp44
 70
     1
102
RTVSPost2010Prop45
280
     0
102
RTVSPost2010PropOp45
 70
     1
102
RTVSPost2010Prop46
 90
       50
102
RTVSPost2010PropOp46
 70
     1
102
RTVSPost2010Prop47
 90
       50
102
RTVSPost2010PropOp47
 70
     1
102
RTVSPost2010Prop48
 90
       50
102
RTVSPost2010PropOp48
 70
     1
102
RTVSPost2010Prop49
280
     0
102
RTVSPost2010PropOp49
 70
     1
102
RTVSPost2010Prop50
 90
       50
102
RTVSPost2010PropOp50
 70
     1
102
RTVSPost2010Prop51ColorIndex
 90
      256
102
RTVSPost2010Prop51ColorRGB
 90
-16777216
102
RTVSPost2010PropOp51
 70
     0
102
RTVSPost2010Prop52
140
1.0
102
RTVSPost2010PropOp52
 70
     0
102
RTVSPost2010Prop53
 90
        2
102
RTVSPost2010PropOp53
 70
     1
102
RTVSPost2010Prop54
  1
strokes_ogs.tif
102
RTVSPost2010PropOp54
 70
     1
102
RTVSPost2010Prop55
280
     0
102
RTVSPost2010PropOp55
 70
     1
102
RTVSPost2010Prop56
140
1.0
102
RTVSPost2010PropOp56
 70
     1
102
RTVSPost2010Prop57
140
1.0
102
RTVSPost2010PropOp57
 70
     1
102
RTVSPropertyOp0
 70
     0
102
RTVSPropertyOp1
 70
     0
102
RTVSPropertyOp2
 70
     0
102
RTVSPropertyOp3
 70
     0
102
RTVSPropertyOp4
 70
     0
102
RTVSPropertyOp5
 70
     0
102
RTVSPropertyOp6
 70
     0
102
RTVSPropertyOp7
 70
     0
102
RTVSPropertyOp8
 70
     0
102
RTVSPropertyOp9
 70
     0
102
RTVSPropertyOp10
 70
     0
102
RTVSPropertyOp11
 70
     0
102
RTVSPropertyOp12
 70
     0
102
RTVSPropertyOp13
 70
     0
102
RTVSPropertyOp14
 70
     2
102
RTVSPropertyOp15
 70
     0
102
RTVSPropertyOp16
 70
     0
102
RTVSPropertyOp17
 70
     0
102
RTVSPropertyOp18
 70
     0
102
RTVSPropertyOp19
 70
     0
102
RTVSPropertyOp20
 70
     0
102
RTVSPropertyOp21
 70
     0
102
RTVSPropertyOp22
 70
     0
102
RTVSPropertyOp23
 70
     0
102
RTVSPropertyOp24
 70
     0
102
RTVSPropertyOp25
 70
     0
102
RTVSPropertyOp26
 70
     0
102
RTVSPropertyOp27
 70
     0
102
RTVSPropertyOp28
 70
     1
102
RTVSPropertyOp29
 70
     1
102
RTVSPropertyOp30
 70
     1
102
RTVSPropertyOp31
 70
     1
102
RTVSPropertyOp32
 70
     1
102
RTVSPropertyOp33
 70
     1
102
RTVSPropertyOp34
 70
     1
102
RTVSPropertyOp35
 70
     1
102
RTVSPropertyOp36
 70
     1
102
RTVSPropertyOp37
 70
     1
102
RTVSPropertyOp38
 70
     1
102
RTVSPropertyOp39
 70
     1
102
RTVSPropertyOp40
 70
     1
102
RTVSPropertyOp41
 70
     1
102
RTVSPropertyOp42
 70
     1
102
RTVSPropertyOp43
 70
     1
102
RTVSPropertyOp44
 70
     1
102
RTVSPropertyOp45
 70
     1
102
RTVSPropertyOp46
 70
     1
102
RTVSPropertyOp47
 70
     1
102
RTVSPropertyOp48
 70
     1
102
RTVSPropertyOp49
 70
     1
102
RTVSPropertyOp50
 70
     1
102
RTVSPropertyOp51
 70
     0
102
RTVSPropertyOp52
 70
     0
102
RTVSPropertyOp53
 70
     1
102
RTVSPropertyOp54
 70
     1
102
RTVSPropertyOp55
 70
     1
102
RTVSPropertyOp56
 70
     1
102
RTVSPropertyOp57
 70
     1
102
RTVSPropertyOp58
 70
     1
102
RTVSPropertyOp59
 70
     1
102
RTVSPropertyOp60
 70
     1
102
RTVSPropertyOp61
 70
     1
102
RTVSPropertyOp62
 70
     1
  0
XRECORD
  5
12779
102
{ACAD_REACTORS
330
12778
102
}
330
12778
100
AcDbXrecord
280
     1
102
RTVSPost2010Prop28
280
     0
102
RTVSPost2010PropOp28
 70
     1
102
RTVSPost2010Prop29
280
     1
102
RTVSPost2010PropOp29
 70
     1
102
RTVSPost2010Prop30
280
     1
102
RTVSPost2010PropOp30
 70
     1
102
RTVSPost2010Prop31
280
     0
102
RTVSPost2010PropOp31
 70
     1
102
RTVSPost2010Prop32
280
     0
102
RTVSPost2010PropOp32
 70
     1
102
RTVSPost2010Prop33
280
     0
102
RTVSPost2010PropOp33
 70
     1
102
RTVSPost2010Prop34
280
     0
102
RTVSPost2010PropOp34
 70
     1
102
RTVSPost2010Prop35
280
     0
102
RTVSPost2010PropOp35
 70
     1
102
RTVSPost2010Prop36
280
     0
102
RTVSPost2010PropOp36
 70
     1
102
RTVSPost2010Prop37
 90
       50
102
RTVSPost2010PropOp37
 70
     1
102
RTVSPost2010Prop38
140
0.0
102
RTVSPost2010PropOp38
 70
     1
102
RTVSPost2010Prop39
140
1.0
102
RTVSPost2010PropOp39
 70
     1
102
RTVSPost2010Prop40
 90
        0
102
RTVSPost2010PropOp40
 70
     1
102
RTVSPost2010Prop41ColorIndex
 90
       18
102
RTVSPost2010Prop41ColorRGB
 90
        0
102
RTVSPost2010PropOp41
 70
     1
102
RTVSPost2010Prop42
 90
       50
102
RTVSPost2010PropOp42
 70
     1
102
RTVSPost2010Prop43
 90
        3
102
RTVSPost2010PropOp43
 70
     1
102
RTVSPost2010Prop44ColorIndex
 90
        5
102
RTVSPost2010Prop44ColorRGB
 90
      255
102
RTVSPost2010PropOp44
 70
     1
102
RTVSPost2010Prop45
280
     0
102
RTVSPost2010PropOp45
 70
     1
102
RTVSPost2010Prop46
 90
       50
102
RTVSPost2010PropOp46
 70
     1
102
RTVSPost2010Prop47
 90
       50
102
RTVSPost2010PropOp47
 70
     1
102
RTVSPost2010Prop48
 90
       50
102
RTVSPost2010PropOp48
 70
     1
102
RTVSPost2010Prop49
280
     0
102
RTVSPost2010PropOp49
 70
     1
102
RTVSPost2010Prop50
 90
       50
102
RTVSPost2010PropOp50
 70
     1
102
RTVSPost2010Prop51ColorIndex
 90
      256
102
RTVSPost2010Prop51ColorRGB
 90
-16777216
102
RTVSPost2010PropOp51
 70
     0
102
RTVSPost2010Prop52
140
1.0
102
RTVSPost2010PropOp52
 70
     0
102
RTVSPost2010Prop53
 90
        2
102
RTVSPost2010PropOp53
 70
     1
102
RTVSPost2010Prop54
  1
strokes_ogs.tif
102
RTVSPost2010PropOp54
 70
     1
102
RTVSPost2010Prop55
280
     0
102
RTVSPost2010PropOp55
 70
     1
102
RTVSPost2010Prop56
140
1.0
102
RTVSPost2010PropOp56
 70
     1
102
RTVSPost2010Prop57
140
1.0
102
RTVSPost2010PropOp57
 70
     1
102
RTVSPropertyOp0
 70
     1
102
RTVSPropertyOp1
 70
     1
102
RTVSPropertyOp2
 70
     1
102
RTVSPropertyOp3
 70
     1
102
RTVSPropertyOp4
 70
     1
102
RTVSPropertyOp5
 70
     1
102
RTVSPropertyOp6
 70
     1
102
RTVSPropertyOp7
 70
     1
102
RTVSPropertyOp8
 70
     1
102
RTVSPropertyOp9
 70
     1
102
RTVSPropertyOp10
 70
     1
102
RTVSPropertyOp11
 70
     1
102
RTVSPropertyOp12
 70
     1
102
RTVSPropertyOp13
 70
     1
102
RTVSPropertyOp14
 70
     1
102
RTVSPropertyOp15
 70
     1
102
RTVSPropertyOp16
 70
     1
102
RTVSPropertyOp17
 70
     1
102
RTVSPropertyOp18
 70
     1
102
RTVSPropertyOp19
 70
     1
102
RTVSPropertyOp20
 70
     1
102
RTVSPropertyOp21
 70
     1
102
RTVSPropertyOp22
 70
     1
102
RTVSPropertyOp23
 70
     1
102
RTVSPropertyOp24
 70
     1
102
RTVSPropertyOp25
 70
     1
102
RTVSPropertyOp26
 70
     1
102
RTVSPropertyOp27
 70
     1
102
RTVSPropertyOp28
 70
     1
102
RTVSPropertyOp29
 70
     1
102
RTVSPropertyOp30
 70
     1
102
RTVSPropertyOp31
 70
     1
102
RTVSPropertyOp32
 70
     1
102
RTVSPropertyOp33
 70
     1
102
RTVSPropertyOp34
 70
     1
102
RTVSPropertyOp35
 70
     1
102
RTVSPropertyOp36
 70
     1
102
RTVSPropertyOp37
 70
     1
102
RTVSPropertyOp38
 70
     1
102
RTVSPropertyOp39
 70
     1
102
RTVSPropertyOp40
 70
     1
102
RTVSPropertyOp41
 70
     1
102
RTVSPropertyOp42
 70
     1
102
RTVSPropertyOp43
 70
     1
102
RTVSPropertyOp44
 70
     1
102
RTVSPropertyOp45
 70
     1
102
RTVSPropertyOp46
 70
     1
102
RTVSPropertyOp47
 70
     1
102
RTVSPropertyOp48
 70
     1
102
RTVSPropertyOp49
 70
     1
102
RTVSPropertyOp50
 70
     1
102
RTVSPropertyOp51
 70
     0
102
RTVSPropertyOp52
 70
     0
102
RTVSPropertyOp53
 70
     1
102
RTVSPropertyOp54
 70
     1
102
RTVSPropertyOp55
 70
     1
102
RTVSPropertyOp56
 70
     1
102
RTVSPropertyOp57
 70
     1
102
RTVSPropertyOp58
 70
     1
102
RTVSPropertyOp59
 70
     1
102
RTVSPropertyOp60
 70
     1
102
RTVSPropertyOp61
 70
     1
102
RTVSPropertyOp62
 70
     1
  0
XRECORD
  5
1275D
102
{ACAD_REACTORS
330
1275C
102
}
330
1275C
100
AcDbXrecord
280
     1
102
RTVSPost2010Prop28
280
     0
102
RTVSPost2010PropOp28
 70
     1
102
RTVSPost2010Prop29
280
     1
102
RTVSPost2010PropOp29
 70
     1
102
RTVSPost2010Prop30
280
     1
102
RTVSPost2010PropOp30
 70
     1
102
RTVSPost2010Prop31
280
     0
102
RTVSPost2010PropOp31
 70
     1
102
RTVSPost2010Prop32
280
     0
102
RTVSPost2010PropOp32
 70
     1
102
RTVSPost2010Prop33
280
     0
102
RTVSPost2010PropOp33
 70
     1
102
RTVSPost2010Prop34
280
     0
102
RTVSPost2010PropOp34
 70
     1
102
RTVSPost2010Prop35
280
     0
102
RTVSPost2010PropOp35
 70
     1
102
RTVSPost2010Prop36
280
     0
102
RTVSPost2010PropOp36
 70
     1
102
RTVSPost2010Prop37
 90
       50
102
RTVSPost2010PropOp37
 70
     1
102
RTVSPost2010Prop38
140
0.0
102
RTVSPost2010PropOp38
 70
     1
102
RTVSPost2010Prop39
140
1.0
102
RTVSPost2010PropOp39
 70
     1
102
RTVSPost2010Prop40
 90
        0
102
RTVSPost2010PropOp40
 70
     1
102
RTVSPost2010Prop41ColorIndex
 90
       18
102
RTVSPost2010Prop41ColorRGB
 90
        0
102
RTVSPost2010PropOp41
 70
     1
102
RTVSPost2010Prop42
 90
       50
102
RTVSPost2010PropOp42
 70
     1
102
RTVSPost2010Prop43
 90
        3
102
RTVSPost2010PropOp43
 70
     1
102
RTVSPost2010Prop44ColorIndex
 90
        5
102
RTVSPost2010Prop44ColorRGB
 90
      255
102
RTVSPost2010PropOp44
 70
     1
102
RTVSPost2010Prop45
280
     0
102
RTVSPost2010PropOp45
 70
     1
102
RTVSPost2010Prop46
 90
       50
102
RTVSPost2010PropOp46
 70
     1
102
RTVSPost2010Prop47
 90
       50
102
RTVSPost2010PropOp47
 70
     1
102
RTVSPost2010Prop48
 90
       50
102
RTVSPost2010PropOp48
 70
     1
102
RTVSPost2010Prop49
280
     0
102
RTVSPost2010PropOp49
 70
     1
102
RTVSPost2010Prop50
 90
       50
102
RTVSPost2010PropOp50
 70
     1
102
RTVSPost2010Prop51ColorIndex
 90
      256
102
RTVSPost2010Prop51ColorRGB
 90
-16777216
102
RTVSPost2010PropOp51
 70
     0
102
RTVSPost2010Prop52
140
1.0
102
RTVSPost2010PropOp52
 70
     0
102
RTVSPost2010Prop53
 90
        2
102
RTVSPost2010PropOp53
 70
     1
102
RTVSPost2010Prop54
  1
strokes_ogs.tif
102
RTVSPost2010PropOp54
 70
     1
102
RTVSPost2010Prop55
280
     0
102
RTVSPost2010PropOp55
 70
     1
102
RTVSPost2010Prop56
140
1.0
102
RTVSPost2010PropOp56
 70
     1
102
RTVSPost2010Prop57
140
1.0
102
RTVSPost2010PropOp57
 70
     1
102
RTVSPropertyOp0
 70
     1
102
RTVSPropertyOp1
 70
     1
102
RTVSPropertyOp2
 70
     1
102
RTVSPropertyOp3
 70
     1
102
RTVSPropertyOp4
 70
     1
102
RTVSPropertyOp5
 70
     1
102
RTVSPropertyOp6
 70
     1
102
RTVSPropertyOp7
 70
     1
102
RTVSPropertyOp8
 70
     1
102
RTVSPropertyOp9
 70
     1
102
RTVSPropertyOp10
 70
     1
102
RTVSPropertyOp11
 70
     1
102
RTVSPropertyOp12
 70
     1
102
RTVSPropertyOp13
 70
     1
102
RTVSPropertyOp14
 70
     1
102
RTVSPropertyOp15
 70
     1
102
RTVSPropertyOp16
 70
     1
102
RTVSPropertyOp17
 70
     1
102
RTVSPropertyOp18
 70
     1
102
RTVSPropertyOp19
 70
     1
102
RTVSPropertyOp20
 70
     1
102
RTVSPropertyOp21
 70
     1
102
RTVSPropertyOp22
 70
     1
102
RTVSPropertyOp23
 70
     1
102
RTVSPropertyOp24
 70
     1
102
RTVSPropertyOp25
 70
     1
102
RTVSPropertyOp26
 70
     1
102
RTVSPropertyOp27
 70
     1
102
RTVSPropertyOp28
 70
     1
102
RTVSPropertyOp29
 70
     1
102
RTVSPropertyOp30
 70
     1
102
RTVSPropertyOp31
 70
     1
102
RTVSPropertyOp32
 70
     1
102
RTVSPropertyOp33
 70
     1
102
RTVSPropertyOp34
 70
     1
102
RTVSPropertyOp35
 70
     1
102
RTVSPropertyOp36
 70
     1
102
RTVSPropertyOp37
 70
     1
102
RTVSPropertyOp38
 70
     1
102
RTVSPropertyOp39
 70
     1
102
RTVSPropertyOp40
 70
     1
102
RTVSPropertyOp41
 70
     1
102
RTVSPropertyOp42
 70
     1
102
RTVSPropertyOp43
 70
     1
102
RTVSPropertyOp44
 70
     1
102
RTVSPropertyOp45
 70
     1
102
RTVSPropertyOp46
 70
     1
102
RTVSPropertyOp47
 70
     1
102
RTVSPropertyOp48
 70
     1
102
RTVSPropertyOp49
 70
     1
102
RTVSPropertyOp50
 70
     1
102
RTVSPropertyOp51
 70
     0
102
RTVSPropertyOp52
 70
     0
102
RTVSPropertyOp53
 70
     1
102
RTVSPropertyOp54
 70
     1
102
RTVSPropertyOp55
 70
     1
102
RTVSPropertyOp56
 70
     1
102
RTVSPropertyOp57
 70
     1
102
RTVSPropertyOp58
 70
     1
102
RTVSPropertyOp59
 70
     1
102
RTVSPropertyOp60
 70
     1
102
RTVSPropertyOp61
 70
     1
102
RTVSPropertyOp62
 70
     1
  0
XRECORD
  5
1275F
102
{ACAD_REACTORS
330
1275E
102
}
330
1275E
100
AcDbXrecord
280
     1
102
RTVSPost2010Prop28
280
     0
102
RTVSPost2010PropOp28
 70
     1
102
RTVSPost2010Prop29
280
     1
102
RTVSPost2010PropOp29
 70
     1
102
RTVSPost2010Prop30
280
     1
102
RTVSPost2010PropOp30
 70
     1
102
RTVSPost2010Prop31
280
     0
102
RTVSPost2010PropOp31
 70
     1
102
RTVSPost2010Prop32
280
     0
102
RTVSPost2010PropOp32
 70
     1
102
RTVSPost2010Prop33
280
     0
102
RTVSPost2010PropOp33
 70
     1
102
RTVSPost2010Prop34
280
     0
102
RTVSPost2010PropOp34
 70
     1
102
RTVSPost2010Prop35
280
     0
102
RTVSPost2010PropOp35
 70
     1
102
RTVSPost2010Prop36
280
     0
102
RTVSPost2010PropOp36
 70
     1
102
RTVSPost2010Prop37
 90
       50
102
RTVSPost2010PropOp37
 70
     1
102
RTVSPost2010Prop38
140
0.0
102
RTVSPost2010PropOp38
 70
     1
102
RTVSPost2010Prop39
140
1.0
102
RTVSPost2010PropOp39
 70
     1
102
RTVSPost2010Prop40
 90
        0
102
RTVSPost2010PropOp40
 70
     1
102
RTVSPost2010Prop41ColorIndex
 90
       18
102
RTVSPost2010Prop41ColorRGB
 90
        0
102
RTVSPost2010PropOp41
 70
     1
102
RTVSPost2010Prop42
 90
       50
102
RTVSPost2010PropOp42
 70
     1
102
RTVSPost2010Prop43
 90
        3
102
RTVSPost2010PropOp43
 70
     1
102
RTVSPost2010Prop44ColorIndex
 90
        5
102
RTVSPost2010Prop44ColorRGB
 90
      255
102
RTVSPost2010PropOp44
 70
     1
102
RTVSPost2010Prop45
280
     0
102
RTVSPost2010PropOp45
 70
     1
102
RTVSPost2010Prop46
 90
       50
102
RTVSPost2010PropOp46
 70
     1
102
RTVSPost2010Prop47
 90
       50
102
RTVSPost2010PropOp47
 70
     1
102
RTVSPost2010Prop48
 90
       50
102
RTVSPost2010PropOp48
 70
     1
102
RTVSPost2010Prop49
280
     0
102
RTVSPost2010PropOp49
 70
     1
102
RTVSPost2010Prop50
 90
       50
102
RTVSPost2010PropOp50
 70
     1
102
RTVSPost2010Prop51ColorIndex
 90
      256
102
RTVSPost2010Prop51ColorRGB
 90
-16777216
102
RTVSPost2010PropOp51
 70
     0
102
RTVSPost2010Prop52
140
1.0
102
RTVSPost2010PropOp52
 70
     0
102
RTVSPost2010Prop53
 90
        2
102
RTVSPost2010PropOp53
 70
     1
102
RTVSPost2010Prop54
  1
strokes_ogs.tif
102
RTVSPost2010PropOp54
 70
     1
102
RTVSPost2010Prop55
280
     0
102
RTVSPost2010PropOp55
 70
     1
102
RTVSPost2010Prop56
140
1.0
102
RTVSPost2010PropOp56
 70
     1
102
RTVSPost2010Prop57
140
1.0
102
RTVSPost2010PropOp57
 70
     1
102
RTVSPropertyOp0
 70
     1
102
RTVSPropertyOp1
 70
     1
102
RTVSPropertyOp2
 70
     1
102
RTVSPropertyOp3
 70
     1
102
RTVSPropertyOp4
 70
     1
102
RTVSPropertyOp5
 70
     1
102
RTVSPropertyOp6
 70
     1
102
RTVSPropertyOp7
 70
     1
102
RTVSPropertyOp8
 70
     1
102
RTVSPropertyOp9
 70
     1
102
RTVSPropertyOp10
 70
     1
102
RTVSPropertyOp11
 70
     1
102
RTVSPropertyOp12
 70
     1
102
RTVSPropertyOp13
 70
     1
102
RTVSPropertyOp14
 70
     1
102
RTVSPropertyOp15
 70
     1
102
RTVSPropertyOp16
 70
     1
102
RTVSPropertyOp17
 70
     1
102
RTVSPropertyOp18
 70
     1
102
RTVSPropertyOp19
 70
     1
102
RTVSPropertyOp20
 70
     1
102
RTVSPropertyOp21
 70
     1
102
RTVSPropertyOp22
 70
     1
102
RTVSPropertyOp23
 70
     1
102
RTVSPropertyOp24
 70
     1
102
RTVSPropertyOp25
 70
     1
102
RTVSPropertyOp26
 70
     1
102
RTVSPropertyOp27
 70
     1
102
RTVSPropertyOp28
 70
     1
102
RTVSPropertyOp29
 70
     1
102
RTVSPropertyOp30
 70
     1
102
RTVSPropertyOp31
 70
     1
102
RTVSPropertyOp32
 70
     1
102
RTVSPropertyOp33
 70
     1
102
RTVSPropertyOp34
 70
     1
102
RTVSPropertyOp35
 70
     1
102
RTVSPropertyOp36
 70
     1
102
RTVSPropertyOp37
 70
     1
102
RTVSPropertyOp38
 70
     1
102
RTVSPropertyOp39
 70
     1
102
RTVSPropertyOp40
 70
     1
102
RTVSPropertyOp41
 70
     1
102
RTVSPropertyOp42
 70
     1
102
RTVSPropertyOp43
 70
     1
102
RTVSPropertyOp44
 70
     1
102
RTVSPropertyOp45
 70
     1
102
RTVSPropertyOp46
 70
     1
102
RTVSPropertyOp47
 70
     1
102
RTVSPropertyOp48
 70
     1
102
RTVSPropertyOp49
 70
     1
102
RTVSPropertyOp50
 70
     1
102
RTVSPropertyOp51
 70
     0
102
RTVSPropertyOp52
 70
     0
102
RTVSPropertyOp53
 70
     1
102
RTVSPropertyOp54
 70
     1
102
RTVSPropertyOp55
 70
     1
102
RTVSPropertyOp56
 70
     1
102
RTVSPropertyOp57
 70
     1
102
RTVSPropertyOp58
 70
     1
102
RTVSPropertyOp59
 70
     1
102
RTVSPropertyOp60
 70
     1
102
RTVSPropertyOp61
 70
     1
102
RTVSPropertyOp62
 70
     1
  0
XRECORD
  5
12761
102
{ACAD_REACTORS
330
12760
102
}
330
12760
100
AcDbXrecord
280
     1
102
RTVSPost2010Prop28
280
     0
102
RTVSPost2010PropOp28
 70
     1
102
RTVSPost2010Prop29
280
     1
102
RTVSPost2010PropOp29
 70
     1
102
RTVSPost2010Prop30
280
     1
102
RTVSPost2010PropOp30
 70
     1
102
RTVSPost2010Prop31
280
     0
102
RTVSPost2010PropOp31
 70
     1
102
RTVSPost2010Prop32
280
     0
102
RTVSPost2010PropOp32
 70
     1
102
RTVSPost2010Prop33
280
     0
102
RTVSPost2010PropOp33
 70
     1
102
RTVSPost2010Prop34
280
     0
102
RTVSPost2010PropOp34
 70
     1
102
RTVSPost2010Prop35
280
     0
102
RTVSPost2010PropOp35
 70
     1
102
RTVSPost2010Prop36
280
     0
102
RTVSPost2010PropOp36
 70
     1
102
RTVSPost2010Prop37
 90
       50
102
RTVSPost2010PropOp37
 70
     1
102
RTVSPost2010Prop38
140
0.0
102
RTVSPost2010PropOp38
 70
     1
102
RTVSPost2010Prop39
140
1.0
102
RTVSPost2010PropOp39
 70
     1
102
RTVSPost2010Prop40
 90
        0
102
RTVSPost2010PropOp40
 70
     1
102
RTVSPost2010Prop41ColorIndex
 90
       18
102
RTVSPost2010Prop41ColorRGB
 90
        0
102
RTVSPost2010PropOp41
 70
     1
102
RTVSPost2010Prop42
 90
       50
102
RTVSPost2010PropOp42
 70
     1
102
RTVSPost2010Prop43
 90
        3
102
RTVSPost2010PropOp43
 70
     1
102
RTVSPost2010Prop44ColorIndex
 90
        5
102
RTVSPost2010Prop44ColorRGB
 90
      255
102
RTVSPost2010PropOp44
 70
     1
102
RTVSPost2010Prop45
280
     0
102
RTVSPost2010PropOp45
 70
     1
102
RTVSPost2010Prop46
 90
       50
102
RTVSPost2010PropOp46
 70
     1
102
RTVSPost2010Prop47
 90
       50
102
RTVSPost2010PropOp47
 70
     1
102
RTVSPost2010Prop48
 90
       50
102
RTVSPost2010PropOp48
 70
     1
102
RTVSPost2010Prop49
280
     0
102
RTVSPost2010PropOp49
 70
     1
102
RTVSPost2010Prop50
 90
       50
102
RTVSPost2010PropOp50
 70
     1
102
RTVSPost2010Prop51ColorIndex
 90
      256
102
RTVSPost2010Prop51ColorRGB
 90
-16777216
102
RTVSPost2010PropOp51
 70
     0
102
RTVSPost2010Prop52
140
1.0
102
RTVSPost2010PropOp52
 70
     0
102
RTVSPost2010Prop53
 90
        2
102
RTVSPost2010PropOp53
 70
     1
102
RTVSPost2010Prop54
  1
strokes_ogs.tif
102
RTVSPost2010PropOp54
 70
     1
102
RTVSPost2010Prop55
280
     0
102
RTVSPost2010PropOp55
 70
     1
102
RTVSPost2010Prop56
140
1.0
102
RTVSPost2010PropOp56
 70
     1
102
RTVSPost2010Prop57
140
1.0
102
RTVSPost2010PropOp57
 70
     1
102
RTVSPropertyOp0
 70
     1
102
RTVSPropertyOp1
 70
     1
102
RTVSPropertyOp2
 70
     1
102
RTVSPropertyOp3
 70
     1
102
RTVSPropertyOp4
 70
     1
102
RTVSPropertyOp5
 70
     1
102
RTVSPropertyOp6
 70
     1
102
RTVSPropertyOp7
 70
     1
102
RTVSPropertyOp8
 70
     1
102
RTVSPropertyOp9
 70
     1
102
RTVSPropertyOp10
 70
     1
102
RTVSPropertyOp11
 70
     1
102
RTVSPropertyOp12
 70
     1
102
RTVSPropertyOp13
 70
     1
102
RTVSPropertyOp14
 70
     1
102
RTVSPropertyOp15
 70
     1
102
RTVSPropertyOp16
 70
     1
102
RTVSPropertyOp17
 70
     1
102
RTVSPropertyOp18
 70
     1
102
RTVSPropertyOp19
 70
     1
102
RTVSPropertyOp20
 70
     1
102
RTVSPropertyOp21
 70
     1
102
RTVSPropertyOp22
 70
     1
102
RTVSPropertyOp23
 70
     1
102
RTVSPropertyOp24
 70
     1
102
RTVSPropertyOp25
 70
     1
102
RTVSPropertyOp26
 70
     1
102
RTVSPropertyOp27
 70
     1
102
RTVSPropertyOp28
 70
     1
102
RTVSPropertyOp29
 70
     1
102
RTVSPropertyOp30
 70
     1
102
RTVSPropertyOp31
 70
     1
102
RTVSPropertyOp32
 70
     1
102
RTVSPropertyOp33
 70
     1
102
RTVSPropertyOp34
 70
     1
102
RTVSPropertyOp35
 70
     1
102
RTVSPropertyOp36
 70
     1
102
RTVSPropertyOp37
 70
     1
102
RTVSPropertyOp38
 70
     1
102
RTVSPropertyOp39
 70
     1
102
RTVSPropertyOp40
 70
     1
102
RTVSPropertyOp41
 70
     1
102
RTVSPropertyOp42
 70
     1
102
RTVSPropertyOp43
 70
     1
102
RTVSPropertyOp44
 70
     1
102
RTVSPropertyOp45
 70
     1
102
RTVSPropertyOp46
 70
     1
102
RTVSPropertyOp47
 70
     1
102
RTVSPropertyOp48
 70
     1
102
RTVSPropertyOp49
 70
     1
102
RTVSPropertyOp50
 70
     1
102
RTVSPropertyOp51
 70
     0
102
RTVSPropertyOp52
 70
     0
102
RTVSPropertyOp53
 70
     1
102
RTVSPropertyOp54
 70
     1
102
RTVSPropertyOp55
 70
     1
102
RTVSPropertyOp56
 70
     1
102
RTVSPropertyOp57
 70
     1
102
RTVSPropertyOp58
 70
     1
102
RTVSPropertyOp59
 70
     1
102
RTVSPropertyOp60
 70
     1
102
RTVSPropertyOp61
 70
     1
102
RTVSPropertyOp62
 70
     1
  0
XRECORD
  5
12763
102
{ACAD_REACTORS
330
12762
102
}
330
12762
100
AcDbXrecord
280
     1
102
RTVSPost2010Prop28
280
     0
102
RTVSPost2010PropOp28
 70
     1
102
RTVSPost2010Prop29
280
     1
102
RTVSPost2010PropOp29
 70
     1
102
RTVSPost2010Prop30
280
     1
102
RTVSPost2010PropOp30
 70
     1
102
RTVSPost2010Prop31
280
     0
102
RTVSPost2010PropOp31
 70
     1
102
RTVSPost2010Prop32
280
     0
102
RTVSPost2010PropOp32
 70
     1
102
RTVSPost2010Prop33
280
     0
102
RTVSPost2010PropOp33
 70
     1
102
RTVSPost2010Prop34
280
     0
102
RTVSPost2010PropOp34
 70
     1
102
RTVSPost2010Prop35
280
     0
102
RTVSPost2010PropOp35
 70
     1
102
RTVSPost2010Prop36
280
     0
102
RTVSPost2010PropOp36
 70
     1
102
RTVSPost2010Prop37
 90
       50
102
RTVSPost2010PropOp37
 70
     1
102
RTVSPost2010Prop38
140
0.0
102
RTVSPost2010PropOp38
 70
     1
102
RTVSPost2010Prop39
140
1.0
102
RTVSPost2010PropOp39
 70
     1
102
RTVSPost2010Prop40
 90
        0
102
RTVSPost2010PropOp40
 70
     1
102
RTVSPost2010Prop41ColorIndex
 90
       18
102
RTVSPost2010Prop41ColorRGB
 90
        0
102
RTVSPost2010PropOp41
 70
     1
102
RTVSPost2010Prop42
 90
       50
102
RTVSPost2010PropOp42
 70
     1
102
RTVSPost2010Prop43
 90
        3
102
RTVSPost2010PropOp43
 70
     1
102
RTVSPost2010Prop44ColorIndex
 90
        5
102
RTVSPost2010Prop44ColorRGB
 90
      255
102
RTVSPost2010PropOp44
 70
     1
102
RTVSPost2010Prop45
280
     0
102
RTVSPost2010PropOp45
 70
     1
102
RTVSPost2010Prop46
 90
       50
102
RTVSPost2010PropOp46
 70
     1
102
RTVSPost2010Prop47
 90
       50
102
RTVSPost2010PropOp47
 70
     1
102
RTVSPost2010Prop48
 90
       50
102
RTVSPost2010PropOp48
 70
     1
102
RTVSPost2010Prop49
280
     0
102
RTVSPost2010PropOp49
 70
     1
102
RTVSPost2010Prop50
 90
       50
102
RTVSPost2010PropOp50
 70
     1
102
RTVSPost2010Prop51ColorIndex
 90
      256
102
RTVSPost2010Prop51ColorRGB
 90
-16777216
102
RTVSPost2010PropOp51
 70
     0
102
RTVSPost2010Prop52
140
1.0
102
RTVSPost2010PropOp52
 70
     0
102
RTVSPost2010Prop53
 90
        2
102
RTVSPost2010PropOp53
 70
     1
102
RTVSPost2010Prop54
  1
strokes_ogs.tif
102
RTVSPost2010PropOp54
 70
     1
102
RTVSPost2010Prop55
280
     0
102
RTVSPost2010PropOp55
 70
     1
102
RTVSPost2010Prop56
140
1.0
102
RTVSPost2010PropOp56
 70
     1
102
RTVSPost2010Prop57
140
1.0
102
RTVSPost2010PropOp57
 70
     1
102
RTVSPropertyOp0
 70
     1
102
RTVSPropertyOp1
 70
     1
102
RTVSPropertyOp2
 70
     1
102
RTVSPropertyOp3
 70
     1
102
RTVSPropertyOp4
 70
     1
102
RTVSPropertyOp5
 70
     1
102
RTVSPropertyOp6
 70
     1
102
RTVSPropertyOp7
 70
     1
102
RTVSPropertyOp8
 70
     1
102
RTVSPropertyOp9
 70
     1
102
RTVSPropertyOp10
 70
     1
102
RTVSPropertyOp11
 70
     1
102
RTVSPropertyOp12
 70
     1
102
RTVSPropertyOp13
 70
     1
102
RTVSPropertyOp14
 70
     1
102
RTVSPropertyOp15
 70
     1
102
RTVSPropertyOp16
 70
     1
102
RTVSPropertyOp17
 70
     1
102
RTVSPropertyOp18
 70
     1
102
RTVSPropertyOp19
 70
     1
102
RTVSPropertyOp20
 70
     1
102
RTVSPropertyOp21
 70
     1
102
RTVSPropertyOp22
 70
     1
102
RTVSPropertyOp23
 70
     1
102
RTVSPropertyOp24
 70
     1
102
RTVSPropertyOp25
 70
     1
102
RTVSPropertyOp26
 70
     1
102
RTVSPropertyOp27
 70
     1
102
RTVSPropertyOp28
 70
     1
102
RTVSPropertyOp29
 70
     1
102
RTVSPropertyOp30
 70
     1
102
RTVSPropertyOp31
 70
     1
102
RTVSPropertyOp32
 70
     1
102
RTVSPropertyOp33
 70
     1
102
RTVSPropertyOp34
 70
     1
102
RTVSPropertyOp35
 70
     1
102
RTVSPropertyOp36
 70
     1
102
RTVSPropertyOp37
 70
     1
102
RTVSPropertyOp38
 70
     1
102
RTVSPropertyOp39
 70
     1
102
RTVSPropertyOp40
 70
     1
102
RTVSPropertyOp41
 70
     1
102
RTVSPropertyOp42
 70
     1
102
RTVSPropertyOp43
 70
     1
102
RTVSPropertyOp44
 70
     1
102
RTVSPropertyOp45
 70
     1
102
RTVSPropertyOp46
 70
     1
102
RTVSPropertyOp47
 70
     1
102
RTVSPropertyOp48
 70
     1
102
RTVSPropertyOp49
 70
     1
102
RTVSPropertyOp50
 70
     1
102
RTVSPropertyOp51
 70
     0
102
RTVSPropertyOp52
 70
     0
102
RTVSPropertyOp53
 70
     1
102
RTVSPropertyOp54
 70
     1
102
RTVSPropertyOp55
 70
     1
102
RTVSPropertyOp56
 70
     1
102
RTVSPropertyOp57
 70
     1
102
RTVSPropertyOp58
 70
     1
102
RTVSPropertyOp59
 70
     1
102
RTVSPropertyOp60
 70
     1
102
RTVSPropertyOp61
 70
     1
102
RTVSPropertyOp62
 70
     1
  0
XRECORD
  5
1276B
102
{ACAD_REACTORS
330
1276A
102
}
330
1276A
100
AcDbXrecord
280
     1
102
RTVSPost2010Prop28
280
     0
102
RTVSPost2010PropOp28
 70
     1
102
RTVSPost2010Prop29
280
     1
102
RTVSPost2010PropOp29
 70
     1
102
RTVSPost2010Prop30
280
     1
102
RTVSPost2010PropOp30
 70
     1
102
RTVSPost2010Prop31
280
     0
102
RTVSPost2010PropOp31
 70
     1
102
RTVSPost2010Prop32
280
     0
102
RTVSPost2010PropOp32
 70
     1
102
RTVSPost2010Prop33
280
     0
102
RTVSPost2010PropOp33
 70
     1
102
RTVSPost2010Prop34
280
     0
102
RTVSPost2010PropOp34
 70
     1
102
RTVSPost2010Prop35
280
     0
102
RTVSPost2010PropOp35
 70
     1
102
RTVSPost2010Prop36
280
     0
102
RTVSPost2010PropOp36
 70
     1
102
RTVSPost2010Prop37
 90
       50
102
RTVSPost2010PropOp37
 70
     1
102
RTVSPost2010Prop38
140
0.0
102
RTVSPost2010PropOp38
 70
     1
102
RTVSPost2010Prop39
140
1.0
102
RTVSPost2010PropOp39
 70
     1
102
RTVSPost2010Prop40
 90
        0
102
RTVSPost2010PropOp40
 70
     1
102
RTVSPost2010Prop41ColorIndex
 90
       18
102
RTVSPost2010Prop41ColorRGB
 90
        0
102
RTVSPost2010PropOp41
 70
     1
102
RTVSPost2010Prop42
 90
       50
102
RTVSPost2010PropOp42
 70
     1
102
RTVSPost2010Prop43
 90
        3
102
RTVSPost2010PropOp43
 70
     1
102
RTVSPost2010Prop44ColorIndex
 90
        5
102
RTVSPost2010Prop44ColorRGB
 90
      255
102
RTVSPost2010PropOp44
 70
     1
102
RTVSPost2010Prop45
280
     0
102
RTVSPost2010PropOp45
 70
     1
102
RTVSPost2010Prop46
 90
       50
102
RTVSPost2010PropOp46
 70
     1
102
RTVSPost2010Prop47
 90
       50
102
RTVSPost2010PropOp47
 70
     1
102
RTVSPost2010Prop48
 90
       50
102
RTVSPost2010PropOp48
 70
     1
102
RTVSPost2010Prop49
280
     0
102
RTVSPost2010PropOp49
 70
     1
102
RTVSPost2010Prop50
 90
       50
102
RTVSPost2010PropOp50
 70
     1
102
RTVSPost2010Prop51ColorIndex
 90
      256
102
RTVSPost2010Prop51ColorRGB
 90
-16777216
102
RTVSPost2010PropOp51
 70
     0
102
RTVSPost2010Prop52
140
1.0
102
RTVSPost2010PropOp52
 70
     0
102
RTVSPost2010Prop53
 90
        2
102
RTVSPost2010PropOp53
 70
     1
102
RTVSPost2010Prop54
  1
strokes_ogs.tif
102
RTVSPost2010PropOp54
 70
     1
102
RTVSPost2010Prop55
280
     0
102
RTVSPost2010PropOp55
 70
     1
102
RTVSPost2010Prop56
140
1.0
102
RTVSPost2010PropOp56
 70
     1
102
RTVSPost2010Prop57
140
1.0
102
RTVSPost2010PropOp57
 70
     1
102
RTVSPropertyOp0
 70
     1
102
RTVSPropertyOp1
 70
     1
102
RTVSPropertyOp2
 70
     1
102
RTVSPropertyOp3
 70
     1
102
RTVSPropertyOp4
 70
     1
102
RTVSPropertyOp5
 70
     1
102
RTVSPropertyOp6
 70
     1
102
RTVSPropertyOp7
 70
     1
102
RTVSPropertyOp8
 70
     1
102
RTVSPropertyOp9
 70
     1
102
RTVSPropertyOp10
 70
     1
102
RTVSPropertyOp11
 70
     1
102
RTVSPropertyOp12
 70
     1
102
RTVSPropertyOp13
 70
     1
102
RTVSPropertyOp14
 70
     1
102
RTVSPropertyOp15
 70
     1
102
RTVSPropertyOp16
 70
     1
102
RTVSPropertyOp17
 70
     1
102
RTVSPropertyOp18
 70
     1
102
RTVSPropertyOp19
 70
     1
102
RTVSPropertyOp20
 70
     1
102
RTVSPropertyOp21
 70
     1
102
RTVSPropertyOp22
 70
     1
102
RTVSPropertyOp23
 70
     1
102
RTVSPropertyOp24
 70
     1
102
RTVSPropertyOp25
 70
     1
102
RTVSPropertyOp26
 70
     1
102
RTVSPropertyOp27
 70
     1
102
RTVSPropertyOp28
 70
     1
102
RTVSPropertyOp29
 70
     1
102
RTVSPropertyOp30
 70
     1
102
RTVSPropertyOp31
 70
     1
102
RTVSPropertyOp32
 70
     1
102
RTVSPropertyOp33
 70
     1
102
RTVSPropertyOp34
 70
     1
102
RTVSPropertyOp35
 70
     1
102
RTVSPropertyOp36
 70
     1
102
RTVSPropertyOp37
 70
     1
102
RTVSPropertyOp38
 70
     1
102
RTVSPropertyOp39
 70
     1
102
RTVSPropertyOp40
 70
     1
102
RTVSPropertyOp41
 70
     1
102
RTVSPropertyOp42
 70
     1
102
RTVSPropertyOp43
 70
     1
102
RTVSPropertyOp44
 70
     1
102
RTVSPropertyOp45
 70
     1
102
RTVSPropertyOp46
 70
     1
102
RTVSPropertyOp47
 70
     1
102
RTVSPropertyOp48
 70
     1
102
RTVSPropertyOp49
 70
     1
102
RTVSPropertyOp50
 70
     1
102
RTVSPropertyOp51
 70
     0
102
RTVSPropertyOp52
 70
     0
102
RTVSPropertyOp53
 70
     1
102
RTVSPropertyOp54
 70
     1
102
RTVSPropertyOp55
 70
     1
102
RTVSPropertyOp56
 70
     1
102
RTVSPropertyOp57
 70
     1
102
RTVSPropertyOp58
 70
     1
102
RTVSPropertyOp59
 70
     1
102
RTVSPropertyOp60
 70
     1
102
RTVSPropertyOp61
 70
     1
102
RTVSPropertyOp62
 70
     1
  0
XRECORD
  5
1277F
102
{ACAD_REACTORS
330
1277E
102
}
330
1277E
100
AcDbXrecord
280
     1
102
RTVSPost2010Prop28
280
     0
102
RTVSPost2010PropOp28
 70
     1
102
RTVSPost2010Prop29
280
     1
102
RTVSPost2010PropOp29
 70
     1
102
RTVSPost2010Prop30
280
     1
102
RTVSPost2010PropOp30
 70
     1
102
RTVSPost2010Prop31
280
     0
102
RTVSPost2010PropOp31
 70
     1
102
RTVSPost2010Prop32
280
     0
102
RTVSPost2010PropOp32
 70
     1
102
RTVSPost2010Prop33
280
     0
102
RTVSPost2010PropOp33
 70
     1
102
RTVSPost2010Prop34
280
     0
102
RTVSPost2010PropOp34
 70
     1
102
RTVSPost2010Prop35
280
     0
102
RTVSPost2010PropOp35
 70
     1
102
RTVSPost2010Prop36
280
     0
102
RTVSPost2010PropOp36
 70
     1
102
RTVSPost2010Prop37
 90
       50
102
RTVSPost2010PropOp37
 70
     1
102
RTVSPost2010Prop38
140
0.0
102
RTVSPost2010PropOp38
 70
     1
102
RTVSPost2010Prop39
140
1.0
102
RTVSPost2010PropOp39
 70
     1
102
RTVSPost2010Prop40
 90
        0
102
RTVSPost2010PropOp40
 70
     1
102
RTVSPost2010Prop41ColorIndex
 90
       18
102
RTVSPost2010Prop41ColorRGB
 90
        0
102
RTVSPost2010PropOp41
 70
     1
102
RTVSPost2010Prop42
 90
       50
102
RTVSPost2010PropOp42
 70
     1
102
RTVSPost2010Prop43
 90
        3
102
RTVSPost2010PropOp43
 70
     1
102
RTVSPost2010Prop44ColorIndex
 90
        5
102
RTVSPost2010Prop44ColorRGB
 90
      255
102
RTVSPost2010PropOp44
 70
     1
102
RTVSPost2010Prop45
280
     0
102
RTVSPost2010PropOp45
 70
     1
102
RTVSPost2010Prop46
 90
       50
102
RTVSPost2010PropOp46
 70
     1
102
RTVSPost2010Prop47
 90
       50
102
RTVSPost2010PropOp47
 70
     1
102
RTVSPost2010Prop48
 90
       50
102
RTVSPost2010PropOp48
 70
     1
102
RTVSPost2010Prop49
280
     0
102
RTVSPost2010PropOp49
 70
     1
102
RTVSPost2010Prop50
 90
       50
102
RTVSPost2010PropOp50
 70
     1
102
RTVSPost2010Prop51ColorIndex
 90
      256
102
RTVSPost2010Prop51ColorRGB
 90
-16777216
102
RTVSPost2010PropOp51
 70
     0
102
RTVSPost2010Prop52
140
1.0
102
RTVSPost2010PropOp52
 70
     0
102
RTVSPost2010Prop53
 90
        2
102
RTVSPost2010PropOp53
 70
     1
102
RTVSPost2010Prop54
  1
strokes_ogs.tif
102
RTVSPost2010PropOp54
 70
     1
102
RTVSPost2010Prop55
280
     0
102
RTVSPost2010PropOp55
 70
     1
102
RTVSPost2010Prop56
140
1.0
102
RTVSPost2010PropOp56
 70
     1
102
RTVSPost2010Prop57
140
1.0
102
RTVSPost2010PropOp57
 70
     1
102
RTVSPropertyOp0
 70
     0
102
RTVSPropertyOp1
 70
     0
102
RTVSPropertyOp2
 70
     0
102
RTVSPropertyOp3
 70
     0
102
RTVSPropertyOp4
 70
     0
102
RTVSPropertyOp5
 70
     0
102
RTVSPropertyOp6
 70
     0
102
RTVSPropertyOp7
 70
     0
102
RTVSPropertyOp8
 70
     0
102
RTVSPropertyOp9
 70
     0
102
RTVSPropertyOp10
 70
     0
102
RTVSPropertyOp11
 70
     0
102
RTVSPropertyOp12
 70
     0
102
RTVSPropertyOp13
 70
     0
102
RTVSPropertyOp14
 70
     2
102
RTVSPropertyOp15
 70
     0
102
RTVSPropertyOp16
 70
     0
102
RTVSPropertyOp17
 70
     0
102
RTVSPropertyOp18
 70
     0
102
RTVSPropertyOp19
 70
     0
102
RTVSPropertyOp20
 70
     0
102
RTVSPropertyOp21
 70
     0
102
RTVSPropertyOp22
 70
     0
102
RTVSPropertyOp23
 70
     0
102
RTVSPropertyOp24
 70
     0
102
RTVSPropertyOp25
 70
     0
102
RTVSPropertyOp26
 70
     0
102
RTVSPropertyOp27
 70
     0
102
RTVSPropertyOp28
 70
     1
102
RTVSPropertyOp29
 70
     1
102
RTVSPropertyOp30
 70
     1
102
RTVSPropertyOp31
 70
     1
102
RTVSPropertyOp32
 70
     1
102
RTVSPropertyOp33
 70
     1
102
RTVSPropertyOp34
 70
     1
102
RTVSPropertyOp35
 70
     1
102
RTVSPropertyOp36
 70
     1
102
RTVSPropertyOp37
 70
     1
102
RTVSPropertyOp38
 70
     1
102
RTVSPropertyOp39
 70
     1
102
RTVSPropertyOp40
 70
     1
102
RTVSPropertyOp41
 70
     1
102
RTVSPropertyOp42
 70
     1
102
RTVSPropertyOp43
 70
     1
102
RTVSPropertyOp44
 70
     1
102
RTVSPropertyOp45
 70
     1
102
RTVSPropertyOp46
 70
     1
102
RTVSPropertyOp47
 70
     1
102
RTVSPropertyOp48
 70
     1
102
RTVSPropertyOp49
 70
     1
102
RTVSPropertyOp50
 70
     1
102
RTVSPropertyOp51
 70
     0
102
RTVSPropertyOp52
 70
     0
102
RTVSPropertyOp53
 70
     1
102
RTVSPropertyOp54
 70
     1
102
RTVSPropertyOp55
 70
     1
102
RTVSPropertyOp56
 70
     1
102
RTVSPropertyOp57
 70
     1
102
RTVSPropertyOp58
 70
     1
102
RTVSPropertyOp59
 70
     1
102
RTVSPropertyOp60
 70
     1
102
RTVSPropertyOp61
 70
     1
102
RTVSPropertyOp62
 70
     1
  0
XRECORD
  5
12777
102
{ACAD_REACTORS
330
12776
102
}
330
12776
100
AcDbXrecord
280
     1
102
RTVSPost2010Prop28
280
     0
102
RTVSPost2010PropOp28
 70
     1
102
RTVSPost2010Prop29
280
     1
102
RTVSPost2010PropOp29
 70
     1
102
RTVSPost2010Prop30
280
     1
102
RTVSPost2010PropOp30
 70
     1
102
RTVSPost2010Prop31
280
     0
102
RTVSPost2010PropOp31
 70
     1
102
RTVSPost2010Prop32
280
     0
102
RTVSPost2010PropOp32
 70
     1
102
RTVSPost2010Prop33
280
     0
102
RTVSPost2010PropOp33
 70
     1
102
RTVSPost2010Prop34
280
     0
102
RTVSPost2010PropOp34
 70
     1
102
RTVSPost2010Prop35
280
     0
102
RTVSPost2010PropOp35
 70
     1
102
RTVSPost2010Prop36
280
     0
102
RTVSPost2010PropOp36
 70
     1
102
RTVSPost2010Prop37
 90
       50
102
RTVSPost2010PropOp37
 70
     1
102
RTVSPost2010Prop38
140
0.0
102
RTVSPost2010PropOp38
 70
     1
102
RTVSPost2010Prop39
140
1.0
102
RTVSPost2010PropOp39
 70
     1
102
RTVSPost2010Prop40
 90
        0
102
RTVSPost2010PropOp40
 70
     1
102
RTVSPost2010Prop41ColorIndex
 90
       18
102
RTVSPost2010Prop41ColorRGB
 90
        0
102
RTVSPost2010PropOp41
 70
     1
102
RTVSPost2010Prop42
 90
       50
102
RTVSPost2010PropOp42
 70
     1
102
RTVSPost2010Prop43
 90
        3
102
RTVSPost2010PropOp43
 70
     1
102
RTVSPost2010Prop44ColorIndex
 90
        5
102
RTVSPost2010Prop44ColorRGB
 90
      255
102
RTVSPost2010PropOp44
 70
     1
102
RTVSPost2010Prop45
280
     0
102
RTVSPost2010PropOp45
 70
     1
102
RTVSPost2010Prop46
 90
       50
102
RTVSPost2010PropOp46
 70
     1
102
RTVSPost2010Prop47
 90
       50
102
RTVSPost2010PropOp47
 70
     1
102
RTVSPost2010Prop48
 90
       50
102
RTVSPost2010PropOp48
 70
     1
102
RTVSPost2010Prop49
280
     0
102
RTVSPost2010PropOp49
 70
     1
102
RTVSPost2010Prop50
 90
       50
102
RTVSPost2010PropOp50
 70
     1
102
RTVSPost2010Prop51ColorIndex
 90
      256
102
RTVSPost2010Prop51ColorRGB
 90
-16777216
102
RTVSPost2010PropOp51
 70
     0
102
RTVSPost2010Prop52
140
1.0
102
RTVSPost2010PropOp52
 70
     0
102
RTVSPost2010Prop53
 90
        2
102
RTVSPost2010PropOp53
 70
     1
102
RTVSPost2010Prop54
  1
strokes_ogs.tif
102
RTVSPost2010PropOp54
 70
     1
102
RTVSPost2010Prop55
280
     0
102
RTVSPost2010PropOp55
 70
     1
102
RTVSPost2010Prop56
140
1.0
102
RTVSPost2010PropOp56
 70
     1
102
RTVSPost2010Prop57
140
1.0
102
RTVSPost2010PropOp57
 70
     1
102
RTVSPropertyOp0
 70
     1
102
RTVSPropertyOp1
 70
     1
102
RTVSPropertyOp2
 70
     1
102
RTVSPropertyOp3
 70
     1
102
RTVSPropertyOp4
 70
     1
102
RTVSPropertyOp5
 70
     1
102
RTVSPropertyOp6
 70
     1
102
RTVSPropertyOp7
 70
     1
102
RTVSPropertyOp8
 70
     1
102
RTVSPropertyOp9
 70
     1
102
RTVSPropertyOp10
 70
     1
102
RTVSPropertyOp11
 70
     1
102
RTVSPropertyOp12
 70
     1
102
RTVSPropertyOp13
 70
     1
102
RTVSPropertyOp14
 70
     1
102
RTVSPropertyOp15
 70
     1
102
RTVSPropertyOp16
 70
     1
102
RTVSPropertyOp17
 70
     1
102
RTVSPropertyOp18
 70
     1
102
RTVSPropertyOp19
 70
     1
102
RTVSPropertyOp20
 70
     1
102
RTVSPropertyOp21
 70
     1
102
RTVSPropertyOp22
 70
     1
102
RTVSPropertyOp23
 70
     1
102
RTVSPropertyOp24
 70
     1
102
RTVSPropertyOp25
 70
     1
102
RTVSPropertyOp26
 70
     1
102
RTVSPropertyOp27
 70
     1
102
RTVSPropertyOp28
 70
     1
102
RTVSPropertyOp29
 70
     1
102
RTVSPropertyOp30
 70
     1
102
RTVSPropertyOp31
 70
     1
102
RTVSPropertyOp32
 70
     1
102
RTVSPropertyOp33
 70
     1
102
RTVSPropertyOp34
 70
     1
102
RTVSPropertyOp35
 70
     1
102
RTVSPropertyOp36
 70
     1
102
RTVSPropertyOp37
 70
     1
102
RTVSPropertyOp38
 70
     1
102
RTVSPropertyOp39
 70
     1
102
RTVSPropertyOp40
 70
     1
102
RTVSPropertyOp41
 70
     1
102
RTVSPropertyOp42
 70
     1
102
RTVSPropertyOp43
 70
     1
102
RTVSPropertyOp44
 70
     1
102
RTVSPropertyOp45
 70
     1
102
RTVSPropertyOp46
 70
     1
102
RTVSPropertyOp47
 70
     1
102
RTVSPropertyOp48
 70
     1
102
RTVSPropertyOp49
 70
     1
102
RTVSPropertyOp50
 70
     1
102
RTVSPropertyOp51
 70
     0
102
RTVSPropertyOp52
 70
     0
102
RTVSPropertyOp53
 70
     1
102
RTVSPropertyOp54
 70
     1
102
RTVSPropertyOp55
 70
     1
102
RTVSPropertyOp56
 70
     1
102
RTVSPropertyOp57
 70
     1
102
RTVSPropertyOp58
 70
     1
102
RTVSPropertyOp59
 70
     1
102
RTVSPropertyOp60
 70
     1
102
RTVSPropertyOp61
 70
     1
102
RTVSPropertyOp62
 70
     1
  0
XRECORD
  5
12781
102
{ACAD_REACTORS
330
12780
102
}
330
12780
100
AcDbXrecord
280
     1
102
RTVSPost2010Prop28
280
     0
102
RTVSPost2010PropOp28
 70
     1
102
RTVSPost2010Prop29
280
     1
102
RTVSPost2010PropOp29
 70
     1
102
RTVSPost2010Prop30
280
     1
102
RTVSPost2010PropOp30
 70
     1
102
RTVSPost2010Prop31
280
     0
102
RTVSPost2010PropOp31
 70
     1
102
RTVSPost2010Prop32
280
     0
102
RTVSPost2010PropOp32
 70
     1
102
RTVSPost2010Prop33
280
     0
102
RTVSPost2010PropOp33
 70
     1
102
RTVSPost2010Prop34
280
     0
102
RTVSPost2010PropOp34
 70
     1
102
RTVSPost2010Prop35
280
     0
102
RTVSPost2010PropOp35
 70
     1
102
RTVSPost2010Prop36
280
     0
102
RTVSPost2010PropOp36
 70
     1
102
RTVSPost2010Prop37
 90
       50
102
RTVSPost2010PropOp37
 70
     1
102
RTVSPost2010Prop38
140
0.0
102
RTVSPost2010PropOp38
 70
     1
102
RTVSPost2010Prop39
140
1.0
102
RTVSPost2010PropOp39
 70
     1
102
RTVSPost2010Prop40
 90
        0
102
RTVSPost2010PropOp40
 70
     1
102
RTVSPost2010Prop41ColorIndex
 90
       18
102
RTVSPost2010Prop41ColorRGB
 90
        0
102
RTVSPost2010PropOp41
 70
     1
102
RTVSPost2010Prop42
 90
       50
102
RTVSPost2010PropOp42
 70
     1
102
RTVSPost2010Prop43
 90
        3
102
RTVSPost2010PropOp43
 70
     1
102
RTVSPost2010Prop44ColorIndex
 90
        5
102
RTVSPost2010Prop44ColorRGB
 90
      255
102
RTVSPost2010PropOp44
 70
     1
102
RTVSPost2010Prop45
280
     0
102
RTVSPost2010PropOp45
 70
     1
102
RTVSPost2010Prop46
 90
       50
102
RTVSPost2010PropOp46
 70
     1
102
RTVSPost2010Prop47
 90
       50
102
RTVSPost2010PropOp47
 70
     1
102
RTVSPost2010Prop48
 90
       50
102
RTVSPost2010PropOp48
 70
     1
102
RTVSPost2010Prop49
280
     0
102
RTVSPost2010PropOp49
 70
     1
102
RTVSPost2010Prop50
 90
       50
102
RTVSPost2010PropOp50
 70
     1
102
RTVSPost2010Prop51ColorIndex
 90
      256
102
RTVSPost2010Prop51ColorRGB
 90
-16777216
102
RTVSPost2010PropOp51
 70
     0
102
RTVSPost2010Prop52
140
1.0
102
RTVSPost2010PropOp52
 70
     0
102
RTVSPost2010Prop53
 90
        2
102
RTVSPost2010PropOp53
 70
     1
102
RTVSPost2010Prop54
  1
strokes_ogs.tif
102
RTVSPost2010PropOp54
 70
     1
102
RTVSPost2010Prop55
280
     0
102
RTVSPost2010PropOp55
 70
     1
102
RTVSPost2010Prop56
140
1.0
102
RTVSPost2010PropOp56
 70
     1
102
RTVSPost2010Prop57
140
1.0
102
RTVSPost2010PropOp57
 70
     1
102
RTVSPropertyOp0
 70
     0
102
RTVSPropertyOp1
 70
     0
102
RTVSPropertyOp2
 70
     0
102
RTVSPropertyOp3
 70
     0
102
RTVSPropertyOp4
 70
     0
102
RTVSPropertyOp5
 70
     0
102
RTVSPropertyOp6
 70
     0
102
RTVSPropertyOp7
 70
     0
102
RTVSPropertyOp8
 70
     0
102
RTVSPropertyOp9
 70
     0
102
RTVSPropertyOp10
 70
     0
102
RTVSPropertyOp11
 70
     0
102
RTVSPropertyOp12
 70
     0
102
RTVSPropertyOp13
 70
     0
102
RTVSPropertyOp14
 70
     2
102
RTVSPropertyOp15
 70
     0
102
RTVSPropertyOp16
 70
     0
102
RTVSPropertyOp17
 70
     0
102
RTVSPropertyOp18
 70
     0
102
RTVSPropertyOp19
 70
     0
102
RTVSPropertyOp20
 70
     0
102
RTVSPropertyOp21
 70
     0
102
RTVSPropertyOp22
 70
     0
102
RTVSPropertyOp23
 70
     0
102
RTVSPropertyOp24
 70
     0
102
RTVSPropertyOp25
 70
     0
102
RTVSPropertyOp26
 70
     0
102
RTVSPropertyOp27
 70
     0
102
RTVSPropertyOp28
 70
     1
102
RTVSPropertyOp29
 70
     1
102
RTVSPropertyOp30
 70
     1
102
RTVSPropertyOp31
 70
     1
102
RTVSPropertyOp32
 70
     1
102
RTVSPropertyOp33
 70
     1
102
RTVSPropertyOp34
 70
     1
102
RTVSPropertyOp35
 70
     1
102
RTVSPropertyOp36
 70
     1
102
RTVSPropertyOp37
 70
     1
102
RTVSPropertyOp38
 70
     1
102
RTVSPropertyOp39
 70
     1
102
RTVSPropertyOp40
 70
     1
102
RTVSPropertyOp41
 70
     1
102
RTVSPropertyOp42
 70
     1
102
RTVSPropertyOp43
 70
     1
102
RTVSPropertyOp44
 70
     1
102
RTVSPropertyOp45
 70
     1
102
RTVSPropertyOp46
 70
     1
102
RTVSPropertyOp47
 70
     1
102
RTVSPropertyOp48
 70
     1
102
RTVSPropertyOp49
 70
     1
102
RTVSPropertyOp50
 70
     1
102
RTVSPropertyOp51
 70
     0
102
RTVSPropertyOp52
 70
     0
102
RTVSPropertyOp53
 70
     1
102
RTVSPropertyOp54
 70
     1
102
RTVSPropertyOp55
 70
     1
102
RTVSPropertyOp56
 70
     1
102
RTVSPropertyOp57
 70
     1
102
RTVSPropertyOp58
 70
     1
102
RTVSPropertyOp59
 70
     1
102
RTVSPropertyOp60
 70
     1
102
RTVSPropertyOp61
 70
     1
102
RTVSPropertyOp62
 70
     1
  0
XRECORD
  5
1276F
102
{ACAD_REACTORS
330
1276E
102
}
330
1276E
100
AcDbXrecord
280
     1
102
RTVSPost2010Prop28
280
     0
102
RTVSPost2010PropOp28
 70
     1
102
RTVSPost2010Prop29
280
     1
102
RTVSPost2010PropOp29
 70
     1
102
RTVSPost2010Prop30
280
     1
102
RTVSPost2010PropOp30
 70
     1
102
RTVSPost2010Prop31
280
     0
102
RTVSPost2010PropOp31
 70
     1
102
RTVSPost2010Prop32
280
     0
102
RTVSPost2010PropOp32
 70
     1
102
RTVSPost2010Prop33
280
     0
102
RTVSPost2010PropOp33
 70
     1
102
RTVSPost2010Prop34
280
     0
102
RTVSPost2010PropOp34
 70
     1
102
RTVSPost2010Prop35
280
     0
102
RTVSPost2010PropOp35
 70
     1
102
RTVSPost2010Prop36
280
     0
102
RTVSPost2010PropOp36
 70
     1
102
RTVSPost2010Prop37
 90
       50
102
RTVSPost2010PropOp37
 70
     1
102
RTVSPost2010Prop38
140
0.0
102
RTVSPost2010PropOp38
 70
     1
102
RTVSPost2010Prop39
140
1.0
102
RTVSPost2010PropOp39
 70
     1
102
RTVSPost2010Prop40
 90
        0
102
RTVSPost2010PropOp40
 70
     1
102
RTVSPost2010Prop41ColorIndex
 90
       18
102
RTVSPost2010Prop41ColorRGB
 90
        0
102
RTVSPost2010PropOp41
 70
     1
102
RTVSPost2010Prop42
 90
       50
102
RTVSPost2010PropOp42
 70
     1
102
RTVSPost2010Prop43
 90
        3
102
RTVSPost2010PropOp43
 70
     1
102
RTVSPost2010Prop44ColorIndex
 90
        5
102
RTVSPost2010Prop44ColorRGB
 90
      255
102
RTVSPost2010PropOp44
 70
     1
102
RTVSPost2010Prop45
280
     0
102
RTVSPost2010PropOp45
 70
     1
102
RTVSPost2010Prop46
 90
       50
102
RTVSPost2010PropOp46
 70
     1
102
RTVSPost2010Prop47
 90
       50
102
RTVSPost2010PropOp47
 70
     1
102
RTVSPost2010Prop48
 90
       50
102
RTVSPost2010PropOp48
 70
     1
102
RTVSPost2010Prop49
280
     0
102
RTVSPost2010PropOp49
 70
     1
102
RTVSPost2010Prop50
 90
       50
102
RTVSPost2010PropOp50
 70
     1
102
RTVSPost2010Prop51ColorIndex
 90
      256
102
RTVSPost2010Prop51ColorRGB
 90
-16777216
102
RTVSPost2010PropOp51
 70
     0
102
RTVSPost2010Prop52
140
1.0
102
RTVSPost2010PropOp52
 70
     0
102
RTVSPost2010Prop53
 90
        2
102
RTVSPost2010PropOp53
 70
     1
102
RTVSPost2010Prop54
  1
strokes_ogs.tif
102
RTVSPost2010PropOp54
 70
     1
102
RTVSPost2010Prop55
280
     0
102
RTVSPost2010PropOp55
 70
     1
102
RTVSPost2010Prop56
140
1.0
102
RTVSPost2010PropOp56
 70
     1
102
RTVSPost2010Prop57
140
1.0
102
RTVSPost2010PropOp57
 70
     1
102
RTVSPropertyOp0
 70
     1
102
RTVSPropertyOp1
 70
     1
102
RTVSPropertyOp2
 70
     1
102
RTVSPropertyOp3
 70
     1
102
RTVSPropertyOp4
 70
     1
102
RTVSPropertyOp5
 70
     1
102
RTVSPropertyOp6
 70
     1
102
RTVSPropertyOp7
 70
     1
102
RTVSPropertyOp8
 70
     1
102
RTVSPropertyOp9
 70
     1
102
RTVSPropertyOp10
 70
     1
102
RTVSPropertyOp11
 70
     1
102
RTVSPropertyOp12
 70
     1
102
RTVSPropertyOp13
 70
     1
102
RTVSPropertyOp14
 70
     1
102
RTVSPropertyOp15
 70
     1
102
RTVSPropertyOp16
 70
     1
102
RTVSPropertyOp17
 70
     1
102
RTVSPropertyOp18
 70
     1
102
RTVSPropertyOp19
 70
     1
102
RTVSPropertyOp20
 70
     1
102
RTVSPropertyOp21
 70
     1
102
RTVSPropertyOp22
 70
     1
102
RTVSPropertyOp23
 70
     1
102
RTVSPropertyOp24
 70
     1
102
RTVSPropertyOp25
 70
     1
102
RTVSPropertyOp26
 70
     1
102
RTVSPropertyOp27
 70
     1
102
RTVSPropertyOp28
 70
     1
102
RTVSPropertyOp29
 70
     1
102
RTVSPropertyOp30
 70
     1
102
RTVSPropertyOp31
 70
     1
102
RTVSPropertyOp32
 70
     1
102
RTVSPropertyOp33
 70
     1
102
RTVSPropertyOp34
 70
     1
102
RTVSPropertyOp35
 70
     1
102
RTVSPropertyOp36
 70
     1
102
RTVSPropertyOp37
 70
     1
102
RTVSPropertyOp38
 70
     1
102
RTVSPropertyOp39
 70
     1
102
RTVSPropertyOp40
 70
     1
102
RTVSPropertyOp41
 70
     1
102
RTVSPropertyOp42
 70
     1
102
RTVSPropertyOp43
 70
     1
102
RTVSPropertyOp44
 70
     1
102
RTVSPropertyOp45
 70
     1
102
RTVSPropertyOp46
 70
     1
102
RTVSPropertyOp47
 70
     1
102
RTVSPropertyOp48
 70
     1
102
RTVSPropertyOp49
 70
     1
102
RTVSPropertyOp50
 70
     1
102
RTVSPropertyOp51
 70
     0
102
RTVSPropertyOp52
 70
     0
102
RTVSPropertyOp53
 70
     1
102
RTVSPropertyOp54
 70
     1
102
RTVSPropertyOp55
 70
     1
102
RTVSPropertyOp56
 70
     1
102
RTVSPropertyOp57
 70
     1
102
RTVSPropertyOp58
 70
     1
102
RTVSPropertyOp59
 70
     1
102
RTVSPropertyOp60
 70
     1
102
RTVSPropertyOp61
 70
     1
102
RTVSPropertyOp62
 70
     1
  0
XRECORD
  5
1278D
102
{ACAD_REACTORS
330
1278C
102
}
330
1278C
100
AcDbXrecord
280
     1
102
RTVSPost2010Prop28
280
     0
102
RTVSPost2010PropOp28
 70
     1
102
RTVSPost2010Prop29
280
     1
102
RTVSPost2010PropOp29
 70
     1
102
RTVSPost2010Prop30
280
     1
102
RTVSPost2010PropOp30
 70
     1
102
RTVSPost2010Prop31
280
     0
102
RTVSPost2010PropOp31
 70
     1
102
RTVSPost2010Prop32
280
     0
102
RTVSPost2010PropOp32
 70
     1
102
RTVSPost2010Prop33
280
     0
102
RTVSPost2010PropOp33
 70
     1
102
RTVSPost2010Prop34
280
     0
102
RTVSPost2010PropOp34
 70
     1
102
RTVSPost2010Prop35
280
     0
102
RTVSPost2010PropOp35
 70
     1
102
RTVSPost2010Prop36
280
     0
102
RTVSPost2010PropOp36
 70
     1
102
RTVSPost2010Prop37
 90
       50
102
RTVSPost2010PropOp37
 70
     1
102
RTVSPost2010Prop38
140
0.0
102
RTVSPost2010PropOp38
 70
     1
102
RTVSPost2010Prop39
140
1.0
102
RTVSPost2010PropOp39
 70
     1
102
RTVSPost2010Prop40
 90
        0
102
RTVSPost2010PropOp40
 70
     1
102
RTVSPost2010Prop41ColorIndex
 90
       18
102
RTVSPost2010Prop41ColorRGB
 90
        0
102
RTVSPost2010PropOp41
 70
     1
102
RTVSPost2010Prop42
 90
       50
102
RTVSPost2010PropOp42
 70
     1
102
RTVSPost2010Prop43
 90
        3
102
RTVSPost2010PropOp43
 70
     1
102
RTVSPost2010Prop44ColorIndex
 90
        5
102
RTVSPost2010Prop44ColorRGB
 90
      255
102
RTVSPost2010PropOp44
 70
     1
102
RTVSPost2010Prop45
280
     0
102
RTVSPost2010PropOp45
 70
     1
102
RTVSPost2010Prop46
 90
       50
102
RTVSPost2010PropOp46
 70
     1
102
RTVSPost2010Prop47
 90
       50
102
RTVSPost2010PropOp47
 70
     1
102
RTVSPost2010Prop48
 90
       50
102
RTVSPost2010PropOp48
 70
     1
102
RTVSPost2010Prop49
280
     0
102
RTVSPost2010PropOp49
 70
     1
102
RTVSPost2010Prop50
 90
       50
102
RTVSPost2010PropOp50
 70
     1
102
RTVSPost2010Prop51ColorIndex
 90
      256
102
RTVSPost2010Prop51ColorRGB
 90
-16777216
102
RTVSPost2010PropOp51
 70
     0
102
RTVSPost2010Prop52
140
1.0
102
RTVSPost2010PropOp52
 70
     0
102
RTVSPost2010Prop53
 90
        2
102
RTVSPost2010PropOp53
 70
     1
102
RTVSPost2010Prop54
  1
strokes_ogs.tif
102
RTVSPost2010PropOp54
 70
     1
102
RTVSPost2010Prop55
280
     0
102
RTVSPost2010PropOp55
 70
     1
102
RTVSPost2010Prop56
140
1.0
102
RTVSPost2010PropOp56
 70
     1
102
RTVSPost2010Prop57
140
1.0
102
RTVSPost2010PropOp57
 70
     1
102
RTVSPropertyOp0
 70
     1
102
RTVSPropertyOp1
 70
     1
102
RTVSPropertyOp2
 70
     1
102
RTVSPropertyOp3
 70
     1
102
RTVSPropertyOp4
 70
     1
102
RTVSPropertyOp5
 70
     1
102
RTVSPropertyOp6
 70
     1
102
RTVSPropertyOp7
 70
     1
102
RTVSPropertyOp8
 70
     1
102
RTVSPropertyOp9
 70
     1
102
RTVSPropertyOp10
 70
     1
102
RTVSPropertyOp11
 70
     1
102
RTVSPropertyOp12
 70
     1
102
RTVSPropertyOp13
 70
     1
102
RTVSPropertyOp14
 70
     1
102
RTVSPropertyOp15
 70
     1
102
RTVSPropertyOp16
 70
     1
102
RTVSPropertyOp17
 70
     1
102
RTVSPropertyOp18
 70
     1
102
RTVSPropertyOp19
 70
     1
102
RTVSPropertyOp20
 70
     1
102
RTVSPropertyOp21
 70
     1
102
RTVSPropertyOp22
 70
     1
102
RTVSPropertyOp23
 70
     1
102
RTVSPropertyOp24
 70
     1
102
RTVSPropertyOp25
 70
     1
102
RTVSPropertyOp26
 70
     1
102
RTVSPropertyOp27
 70
     1
102
RTVSPropertyOp28
 70
     1
102
RTVSPropertyOp29
 70
     1
102
RTVSPropertyOp30
 70
     1
102
RTVSPropertyOp31
 70
     1
102
RTVSPropertyOp32
 70
     1
102
RTVSPropertyOp33
 70
     1
102
RTVSPropertyOp34
 70
     1
102
RTVSPropertyOp35
 70
     1
102
RTVSPropertyOp36
 70
     1
102
RTVSPropertyOp37
 70
     1
102
RTVSPropertyOp38
 70
     1
102
RTVSPropertyOp39
 70
     1
102
RTVSPropertyOp40
 70
     1
102
RTVSPropertyOp41
 70
     1
102
RTVSPropertyOp42
 70
     1
102
RTVSPropertyOp43
 70
     1
102
RTVSPropertyOp44
 70
     1
102
RTVSPropertyOp45
 70
     1
102
RTVSPropertyOp46
 70
     1
102
RTVSPropertyOp47
 70
     1
102
RTVSPropertyOp48
 70
     1
102
RTVSPropertyOp49
 70
     1
102
RTVSPropertyOp50
 70
     1
102
RTVSPropertyOp51
 70
     0
102
RTVSPropertyOp52
 70
     0
102
RTVSPropertyOp53
 70
     1
102
RTVSPropertyOp54
 70
     1
102
RTVSPropertyOp55
 70
     1
102
RTVSPropertyOp56
 70
     1
102
RTVSPropertyOp57
 70
     1
102
RTVSPropertyOp58
 70
     1
102
RTVSPropertyOp59
 70
     1
102
RTVSPropertyOp60
 70
     1
102
RTVSPropertyOp61
 70
     1
102
RTVSPropertyOp62
 70
     1
  0
XRECORD
  5
1278B
102
{ACAD_REACTORS
330
1278A
102
}
330
1278A
100
AcDbXrecord
280
     1
102
RTVSPost2010Prop28
280
     0
102
RTVSPost2010PropOp28
 70
     1
102
RTVSPost2010Prop29
280
     1
102
RTVSPost2010PropOp29
 70
     1
102
RTVSPost2010Prop30
280
     1
102
RTVSPost2010PropOp30
 70
     1
102
RTVSPost2010Prop31
280
     0
102
RTVSPost2010PropOp31
 70
     1
102
RTVSPost2010Prop32
280
     0
102
RTVSPost2010PropOp32
 70
     1
102
RTVSPost2010Prop33
280
     0
102
RTVSPost2010PropOp33
 70
     1
102
RTVSPost2010Prop34
280
     0
102
RTVSPost2010PropOp34
 70
     1
102
RTVSPost2010Prop35
280
     0
102
RTVSPost2010PropOp35
 70
     1
102
RTVSPost2010Prop36
280
     0
102
RTVSPost2010PropOp36
 70
     1
102
RTVSPost2010Prop37
 90
       50
102
RTVSPost2010PropOp37
 70
     1
102
RTVSPost2010Prop38
140
0.0
102
RTVSPost2010PropOp38
 70
     1
102
RTVSPost2010Prop39
140
1.0
102
RTVSPost2010PropOp39
 70
     1
102
RTVSPost2010Prop40
 90
        0
102
RTVSPost2010PropOp40
 70
     1
102
RTVSPost2010Prop41ColorIndex
 90
       18
102
RTVSPost2010Prop41ColorRGB
 90
        0
102
RTVSPost2010PropOp41
 70
     1
102
RTVSPost2010Prop42
 90
       50
102
RTVSPost2010PropOp42
 70
     1
102
RTVSPost2010Prop43
 90
        3
102
RTVSPost2010PropOp43
 70
     1
102
RTVSPost2010Prop44ColorIndex
 90
        5
102
RTVSPost2010Prop44ColorRGB
 90
      255
102
RTVSPost2010PropOp44
 70
     1
102
RTVSPost2010Prop45
280
     0
102
RTVSPost2010PropOp45
 70
     1
102
RTVSPost2010Prop46
 90
       50
102
RTVSPost2010PropOp46
 70
     1
102
RTVSPost2010Prop47
 90
       50
102
RTVSPost2010PropOp47
 70
     1
102
RTVSPost2010Prop48
 90
       50
102
RTVSPost2010PropOp48
 70
     1
102
RTVSPost2010Prop49
280
     0
102
RTVSPost2010PropOp49
 70
     1
102
RTVSPost2010Prop50
 90
       50
102
RTVSPost2010PropOp50
 70
     1
102
RTVSPost2010Prop51ColorIndex
 90
      256
102
RTVSPost2010Prop51ColorRGB
 90
-16777216
102
RTVSPost2010PropOp51
 70
     0
102
RTVSPost2010Prop52
140
1.0
102
RTVSPost2010PropOp52
 70
     0
102
RTVSPost2010Prop53
 90
        2
102
RTVSPost2010PropOp53
 70
     1
102
RTVSPost2010Prop54
  1
strokes_ogs.tif
102
RTVSPost2010PropOp54
 70
     1
102
RTVSPost2010Prop55
280
     0
102
RTVSPost2010PropOp55
 70
     1
102
RTVSPost2010Prop56
140
1.0
102
RTVSPost2010PropOp56
 70
     1
102
RTVSPost2010Prop57
140
1.0
102
RTVSPost2010PropOp57
 70
     1
102
RTVSPropertyOp0
 70
     1
102
RTVSPropertyOp1
 70
     1
102
RTVSPropertyOp2
 70
     1
102
RTVSPropertyOp3
 70
     1
102
RTVSPropertyOp4
 70
     1
102
RTVSPropertyOp5
 70
     1
102
RTVSPropertyOp6
 70
     1
102
RTVSPropertyOp7
 70
     1
102
RTVSPropertyOp8
 70
     1
102
RTVSPropertyOp9
 70
     1
102
RTVSPropertyOp10
 70
     1
102
RTVSPropertyOp11
 70
     1
102
RTVSPropertyOp12
 70
     1
102
RTVSPropertyOp13
 70
     1
102
RTVSPropertyOp14
 70
     1
102
RTVSPropertyOp15
 70
     1
102
RTVSPropertyOp16
 70
     1
102
RTVSPropertyOp17
 70
     1
102
RTVSPropertyOp18
 70
     1
102
RTVSPropertyOp19
 70
     1
102
RTVSPropertyOp20
 70
     1
102
RTVSPropertyOp21
 70
     1
102
RTVSPropertyOp22
 70
     1
102
RTVSPropertyOp23
 70
     1
102
RTVSPropertyOp24
 70
     1
102
RTVSPropertyOp25
 70
     1
102
RTVSPropertyOp26
 70
     1
102
RTVSPropertyOp27
 70
     1
102
RTVSPropertyOp28
 70
     1
102
RTVSPropertyOp29
 70
     1
102
RTVSPropertyOp30
 70
     1
102
RTVSPropertyOp31
 70
     1
102
RTVSPropertyOp32
 70
     1
102
RTVSPropertyOp33
 70
     1
102
RTVSPropertyOp34
 70
     1
102
RTVSPropertyOp35
 70
     1
102
RTVSPropertyOp36
 70
     1
102
RTVSPropertyOp37
 70
     1
102
RTVSPropertyOp38
 70
     1
102
RTVSPropertyOp39
 70
     1
102
RTVSPropertyOp40
 70
     1
102
RTVSPropertyOp41
 70
     1
102
RTVSPropertyOp42
 70
     1
102
RTVSPropertyOp43
 70
     1
102
RTVSPropertyOp44
 70
     1
102
RTVSPropertyOp45
 70
     1
102
RTVSPropertyOp46
 70
     1
102
RTVSPropertyOp47
 70
     1
102
RTVSPropertyOp48
 70
     1
102
RTVSPropertyOp49
 70
     1
102
RTVSPropertyOp50
 70
     1
102
RTVSPropertyOp51
 70
     0
102
RTVSPropertyOp52
 70
     0
102
RTVSPropertyOp53
 70
     1
102
RTVSPropertyOp54
 70
     1
102
RTVSPropertyOp55
 70
     1
102
RTVSPropertyOp56
 70
     1
102
RTVSPropertyOp57
 70
     1
102
RTVSPropertyOp58
 70
     1
102
RTVSPropertyOp59
 70
     1
102
RTVSPropertyOp60
 70
     1
102
RTVSPropertyOp61
 70
     1
102
RTVSPropertyOp62
 70
     1
  0
XRECORD
  5
12785
102
{ACAD_REACTORS
330
12784
102
}
330
12784
100
AcDbXrecord
280
     1
102
RTVSPost2010Prop28
280
     0
102
RTVSPost2010PropOp28
 70
     1
102
RTVSPost2010Prop29
280
     1
102
RTVSPost2010PropOp29
 70
     1
102
RTVSPost2010Prop30
280
     1
102
RTVSPost2010PropOp30
 70
     1
102
RTVSPost2010Prop31
280
     0
102
RTVSPost2010PropOp31
 70
     1
102
RTVSPost2010Prop32
280
     0
102
RTVSPost2010PropOp32
 70
     1
102
RTVSPost2010Prop33
280
     0
102
RTVSPost2010PropOp33
 70
     1
102
RTVSPost2010Prop34
280
     0
102
RTVSPost2010PropOp34
 70
     1
102
RTVSPost2010Prop35
280
     0
102
RTVSPost2010PropOp35
 70
     1
102
RTVSPost2010Prop36
280
     0
102
RTVSPost2010PropOp36
 70
     1
102
RTVSPost2010Prop37
 90
       50
102
RTVSPost2010PropOp37
 70
     1
102
RTVSPost2010Prop38
140
0.0
102
RTVSPost2010PropOp38
 70
     1
102
RTVSPost2010Prop39
140
1.0
102
RTVSPost2010PropOp39
 70
     1
102
RTVSPost2010Prop40
 90
        0
102
RTVSPost2010PropOp40
 70
     1
102
RTVSPost2010Prop41ColorIndex
 90
       18
102
RTVSPost2010Prop41ColorRGB
 90
        0
102
RTVSPost2010PropOp41
 70
     1
102
RTVSPost2010Prop42
 90
       50
102
RTVSPost2010PropOp42
 70
     1
102
RTVSPost2010Prop43
 90
        3
102
RTVSPost2010PropOp43
 70
     1
102
RTVSPost2010Prop44ColorIndex
 90
        5
102
RTVSPost2010Prop44ColorRGB
 90
      255
102
RTVSPost2010PropOp44
 70
     1
102
RTVSPost2010Prop45
280
     0
102
RTVSPost2010PropOp45
 70
     1
102
RTVSPost2010Prop46
 90
       50
102
RTVSPost2010PropOp46
 70
     1
102
RTVSPost2010Prop47
 90
       50
102
RTVSPost2010PropOp47
 70
     1
102
RTVSPost2010Prop48
 90
       50
102
RTVSPost2010PropOp48
 70
     1
102
RTVSPost2010Prop49
280
     0
102
RTVSPost2010PropOp49
 70
     1
102
RTVSPost2010Prop50
 90
       50
102
RTVSPost2010PropOp50
 70
     1
102
RTVSPost2010Prop51ColorIndex
 90
      256
102
RTVSPost2010Prop51ColorRGB
 90
-16777216
102
RTVSPost2010PropOp51
 70
     0
102
RTVSPost2010Prop52
140
1.0
102
RTVSPost2010PropOp52
 70
     0
102
RTVSPost2010Prop53
 90
        2
102
RTVSPost2010PropOp53
 70
     1
102
RTVSPost2010Prop54
  1
strokes_ogs.tif
102
RTVSPost2010PropOp54
 70
     1
102
RTVSPost2010Prop55
280
     0
102
RTVSPost2010PropOp55
 70
     1
102
RTVSPost2010Prop56
140
1.0
102
RTVSPost2010PropOp56
 70
     1
102
RTVSPost2010Prop57
140
1.0
102
RTVSPost2010PropOp57
 70
     1
102
RTVSPropertyOp0
 70
     1
102
RTVSPropertyOp1
 70
     1
102
RTVSPropertyOp2
 70
     1
102
RTVSPropertyOp3
 70
     1
102
RTVSPropertyOp4
 70
     1
102
RTVSPropertyOp5
 70
     1
102
RTVSPropertyOp6
 70
     1
102
RTVSPropertyOp7
 70
     1
102
RTVSPropertyOp8
 70
     1
102
RTVSPropertyOp9
 70
     1
102
RTVSPropertyOp10
 70
     1
102
RTVSPropertyOp11
 70
     1
102
RTVSPropertyOp12
 70
     1
102
RTVSPropertyOp13
 70
     1
102
RTVSPropertyOp14
 70
     1
102
RTVSPropertyOp15
 70
     1
102
RTVSPropertyOp16
 70
     1
102
RTVSPropertyOp17
 70
     1
102
RTVSPropertyOp18
 70
     1
102
RTVSPropertyOp19
 70
     1
102
RTVSPropertyOp20
 70
     1
102
RTVSPropertyOp21
 70
     1
102
RTVSPropertyOp22
 70
     1
102
RTVSPropertyOp23
 70
     1
102
RTVSPropertyOp24
 70
     1
102
RTVSPropertyOp25
 70
     1
102
RTVSPropertyOp26
 70
     1
102
RTVSPropertyOp27
 70
     1
102
RTVSPropertyOp28
 70
     1
102
RTVSPropertyOp29
 70
     1
102
RTVSPropertyOp30
 70
     1
102
RTVSPropertyOp31
 70
     1
102
RTVSPropertyOp32
 70
     1
102
RTVSPropertyOp33
 70
     1
102
RTVSPropertyOp34
 70
     1
102
RTVSPropertyOp35
 70
     1
102
RTVSPropertyOp36
 70
     1
102
RTVSPropertyOp37
 70
     1
102
RTVSPropertyOp38
 70
     1
102
RTVSPropertyOp39
 70
     1
102
RTVSPropertyOp40
 70
     1
102
RTVSPropertyOp41
 70
     1
102
RTVSPropertyOp42
 70
     1
102
RTVSPropertyOp43
 70
     1
102
RTVSPropertyOp44
 70
     1
102
RTVSPropertyOp45
 70
     1
102
RTVSPropertyOp46
 70
     1
102
RTVSPropertyOp47
 70
     1
102
RTVSPropertyOp48
 70
     1
102
RTVSPropertyOp49
 70
     1
102
RTVSPropertyOp50
 70
     1
102
RTVSPropertyOp51
 70
     0
102
RTVSPropertyOp52
 70
     0
102
RTVSPropertyOp53
 70
     1
102
RTVSPropertyOp54
 70
     1
102
RTVSPropertyOp55
 70
     1
102
RTVSPropertyOp56
 70
     1
102
RTVSPropertyOp57
 70
     1
102
RTVSPropertyOp58
 70
     1
102
RTVSPropertyOp59
 70
     1
102
RTVSPropertyOp60
 70
     1
102
RTVSPropertyOp61
 70
     1
102
RTVSPropertyOp62
 70
     1
  0
XRECORD
  5
12787
102
{ACAD_REACTORS
330
12786
102
}
330
12786
100
AcDbXrecord
280
     1
102
RTVSPost2010Prop28
280
     0
102
RTVSPost2010PropOp28
 70
     1
102
RTVSPost2010Prop29
280
     1
102
RTVSPost2010PropOp29
 70
     1
102
RTVSPost2010Prop30
280
     1
102
RTVSPost2010PropOp30
 70
     1
102
RTVSPost2010Prop31
280
     0
102
RTVSPost2010PropOp31
 70
     1
102
RTVSPost2010Prop32
280
     0
102
RTVSPost2010PropOp32
 70
     1
102
RTVSPost2010Prop33
280
     0
102
RTVSPost2010PropOp33
 70
     1
102
RTVSPost2010Prop34
280
     0
102
RTVSPost2010PropOp34
 70
     1
102
RTVSPost2010Prop35
280
     0
102
RTVSPost2010PropOp35
 70
     1
102
RTVSPost2010Prop36
280
     0
102
RTVSPost2010PropOp36
 70
     1
102
RTVSPost2010Prop37
 90
       50
102
RTVSPost2010PropOp37
 70
     1
102
RTVSPost2010Prop38
140
0.0
102
RTVSPost2010PropOp38
 70
     1
102
RTVSPost2010Prop39
140
1.0
102
RTVSPost2010PropOp39
 70
     1
102
RTVSPost2010Prop40
 90
        0
102
RTVSPost2010PropOp40
 70
     1
102
RTVSPost2010Prop41ColorIndex
 90
       18
102
RTVSPost2010Prop41ColorRGB
 90
        0
102
RTVSPost2010PropOp41
 70
     1
102
RTVSPost2010Prop42
 90
       50
102
RTVSPost2010PropOp42
 70
     1
102
RTVSPost2010Prop43
 90
        3
102
RTVSPost2010PropOp43
 70
     1
102
RTVSPost2010Prop44ColorIndex
 90
        5
102
RTVSPost2010Prop44ColorRGB
 90
      255
102
RTVSPost2010PropOp44
 70
     1
102
RTVSPost2010Prop45
280
     0
102
RTVSPost2010PropOp45
 70
     1
102
RTVSPost2010Prop46
 90
       50
102
RTVSPost2010PropOp46
 70
     1
102
RTVSPost2010Prop47
 90
       50
102
RTVSPost2010PropOp47
 70
     1
102
RTVSPost2010Prop48
 90
       50
102
RTVSPost2010PropOp48
 70
     1
102
RTVSPost2010Prop49
280
     0
102
RTVSPost2010PropOp49
 70
     1
102
RTVSPost2010Prop50
 90
       50
102
RTVSPost2010PropOp50
 70
     1
102
RTVSPost2010Prop51ColorIndex
 90
      256
102
RTVSPost2010Prop51ColorRGB
 90
-16777216
102
RTVSPost2010PropOp51
 70
     0
102
RTVSPost2010Prop52
140
1.0
102
RTVSPost2010PropOp52
 70
     0
102
RTVSPost2010Prop53
 90
        2
102
RTVSPost2010PropOp53
 70
     1
102
RTVSPost2010Prop54
  1
strokes_ogs.tif
102
RTVSPost2010PropOp54
 70
     1
102
RTVSPost2010Prop55
280
     0
102
RTVSPost2010PropOp55
 70
     1
102
RTVSPost2010Prop56
140
1.0
102
RTVSPost2010PropOp56
 70
     1
102
RTVSPost2010Prop57
140
1.0
102
RTVSPost2010PropOp57
 70
     1
102
RTVSPropertyOp0
 70
     1
102
RTVSPropertyOp1
 70
     1
102
RTVSPropertyOp2
 70
     1
102
RTVSPropertyOp3
 70
     1
102
RTVSPropertyOp4
 70
     1
102
RTVSPropertyOp5
 70
     1
102
RTVSPropertyOp6
 70
     1
102
RTVSPropertyOp7
 70
     1
102
RTVSPropertyOp8
 70
     1
102
RTVSPropertyOp9
 70
     1
102
RTVSPropertyOp10
 70
     1
102
RTVSPropertyOp11
 70
     1
102
RTVSPropertyOp12
 70
     1
102
RTVSPropertyOp13
 70
     1
102
RTVSPropertyOp14
 70
     1
102
RTVSPropertyOp15
 70
     1
102
RTVSPropertyOp16
 70
     1
102
RTVSPropertyOp17
 70
     1
102
RTVSPropertyOp18
 70
     1
102
RTVSPropertyOp19
 70
     1
102
RTVSPropertyOp20
 70
     1
102
RTVSPropertyOp21
 70
     1
102
RTVSPropertyOp22
 70
     1
102
RTVSPropertyOp23
 70
     1
102
RTVSPropertyOp24
 70
     1
102
RTVSPropertyOp25
 70
     1
102
RTVSPropertyOp26
 70
     1
102
RTVSPropertyOp27
 70
     1
102
RTVSPropertyOp28
 70
     1
102
RTVSPropertyOp29
 70
     1
102
RTVSPropertyOp30
 70
     1
102
RTVSPropertyOp31
 70
     1
102
RTVSPropertyOp32
 70
     1
102
RTVSPropertyOp33
 70
     1
102
RTVSPropertyOp34
 70
     1
102
RTVSPropertyOp35
 70
     1
102
RTVSPropertyOp36
 70
     1
102
RTVSPropertyOp37
 70
     1
102
RTVSPropertyOp38
 70
     1
102
RTVSPropertyOp39
 70
     1
102
RTVSPropertyOp40
 70
     1
102
RTVSPropertyOp41
 70
     1
102
RTVSPropertyOp42
 70
     1
102
RTVSPropertyOp43
 70
     1
102
RTVSPropertyOp44
 70
     1
102
RTVSPropertyOp45
 70
     1
102
RTVSPropertyOp46
 70
     1
102
RTVSPropertyOp47
 70
     1
102
RTVSPropertyOp48
 70
     1
102
RTVSPropertyOp49
 70
     1
102
RTVSPropertyOp50
 70
     1
102
RTVSPropertyOp51
 70
     0
102
RTVSPropertyOp52
 70
     0
102
RTVSPropertyOp53
 70
     1
102
RTVSPropertyOp54
 70
     1
102
RTVSPropertyOp55
 70
     1
102
RTVSPropertyOp56
 70
     1
102
RTVSPropertyOp57
 70
     1
102
RTVSPropertyOp58
 70
     1
102
RTVSPropertyOp59
 70
     1
102
RTVSPropertyOp60
 70
     1
102
RTVSPropertyOp61
 70
     1
102
RTVSPropertyOp62
 70
     1
  0
XRECORD
  5
12775
102
{ACAD_REACTORS
330
12774
102
}
330
12774
100
AcDbXrecord
280
     1
102
RTVSPost2010Prop28
280
     0
102
RTVSPost2010PropOp28
 70
     1
102
RTVSPost2010Prop29
280
     1
102
RTVSPost2010PropOp29
 70
     1
102
RTVSPost2010Prop30
280
     1
102
RTVSPost2010PropOp30
 70
     1
102
RTVSPost2010Prop31
280
     0
102
RTVSPost2010PropOp31
 70
     1
102
RTVSPost2010Prop32
280
     0
102
RTVSPost2010PropOp32
 70
     1
102
RTVSPost2010Prop33
280
     0
102
RTVSPost2010PropOp33
 70
     1
102
RTVSPost2010Prop34
280
     0
102
RTVSPost2010PropOp34
 70
     1
102
RTVSPost2010Prop35
280
     0
102
RTVSPost2010PropOp35
 70
     1
102
RTVSPost2010Prop36
280
     0
102
RTVSPost2010PropOp36
 70
     1
102
RTVSPost2010Prop37
 90
       50
102
RTVSPost2010PropOp37
 70
     1
102
RTVSPost2010Prop38
140
0.0
102
RTVSPost2010PropOp38
 70
     1
102
RTVSPost2010Prop39
140
1.0
102
RTVSPost2010PropOp39
 70
     1
102
RTVSPost2010Prop40
 90
        0
102
RTVSPost2010PropOp40
 70
     1
102
RTVSPost2010Prop41ColorIndex
 90
       18
102
RTVSPost2010Prop41ColorRGB
 90
        0
102
RTVSPost2010PropOp41
 70
     1
102
RTVSPost2010Prop42
 90
       50
102
RTVSPost2010PropOp42
 70
     1
102
RTVSPost2010Prop43
 90
        3
102
RTVSPost2010PropOp43
 70
     1
102
RTVSPost2010Prop44ColorIndex
 90
        5
102
RTVSPost2010Prop44ColorRGB
 90
      255
102
RTVSPost2010PropOp44
 70
     1
102
RTVSPost2010Prop45
280
     0
102
RTVSPost2010PropOp45
 70
     1
102
RTVSPost2010Prop46
 90
       50
102
RTVSPost2010PropOp46
 70
     1
102
RTVSPost2010Prop47
 90
       50
102
RTVSPost2010PropOp47
 70
     1
102
RTVSPost2010Prop48
 90
       50
102
RTVSPost2010PropOp48
 70
     1
102
RTVSPost2010Prop49
280
     0
102
RTVSPost2010PropOp49
 70
     1
102
RTVSPost2010Prop50
 90
       50
102
RTVSPost2010PropOp50
 70
     1
102
RTVSPost2010Prop51ColorIndex
 90
      256
102
RTVSPost2010Prop51ColorRGB
 90
-16777216
102
RTVSPost2010PropOp51
 70
     0
102
RTVSPost2010Prop52
140
1.0
102
RTVSPost2010PropOp52
 70
     0
102
RTVSPost2010Prop53
 90
        2
102
RTVSPost2010PropOp53
 70
     1
102
RTVSPost2010Prop54
  1
strokes_ogs.tif
102
RTVSPost2010PropOp54
 70
     1
102
RTVSPost2010Prop55
280
     0
102
RTVSPost2010PropOp55
 70
     1
102
RTVSPost2010Prop56
140
1.0
102
RTVSPost2010PropOp56
 70
     1
102
RTVSPost2010Prop57
140
1.0
102
RTVSPost2010PropOp57
 70
     1
102
RTVSPropertyOp0
 70
     1
102
RTVSPropertyOp1
 70
     1
102
RTVSPropertyOp2
 70
     1
102
RTVSPropertyOp3
 70
     1
102
RTVSPropertyOp4
 70
     1
102
RTVSPropertyOp5
 70
     1
102
RTVSPropertyOp6
 70
     1
102
RTVSPropertyOp7
 70
     1
102
RTVSPropertyOp8
 70
     1
102
RTVSPropertyOp9
 70
     1
102
RTVSPropertyOp10
 70
     1
102
RTVSPropertyOp11
 70
     1
102
RTVSPropertyOp12
 70
     1
102
RTVSPropertyOp13
 70
     1
102
RTVSPropertyOp14
 70
     1
102
RTVSPropertyOp15
 70
     1
102
RTVSPropertyOp16
 70
     1
102
RTVSPropertyOp17
 70
     1
102
RTVSPropertyOp18
 70
     1
102
RTVSPropertyOp19
 70
     1
102
RTVSPropertyOp20
 70
     1
102
RTVSPropertyOp21
 70
     1
102
RTVSPropertyOp22
 70
     1
102
RTVSPropertyOp23
 70
     1
102
RTVSPropertyOp24
 70
     1
102
RTVSPropertyOp25
 70
     1
102
RTVSPropertyOp26
 70
     1
102
RTVSPropertyOp27
 70
     1
102
RTVSPropertyOp28
 70
     1
102
RTVSPropertyOp29
 70
     1
102
RTVSPropertyOp30
 70
     1
102
RTVSPropertyOp31
 70
     1
102
RTVSPropertyOp32
 70
     1
102
RTVSPropertyOp33
 70
     1
102
RTVSPropertyOp34
 70
     1
102
RTVSPropertyOp35
 70
     1
102
RTVSPropertyOp36
 70
     1
102
RTVSPropertyOp37
 70
     1
102
RTVSPropertyOp38
 70
     1
102
RTVSPropertyOp39
 70
     1
102
RTVSPropertyOp40
 70
     1
102
RTVSPropertyOp41
 70
     1
102
RTVSPropertyOp42
 70
     1
102
RTVSPropertyOp43
 70
     1
102
RTVSPropertyOp44
 70
     1
102
RTVSPropertyOp45
 70
     1
102
RTVSPropertyOp46
 70
     1
102
RTVSPropertyOp47
 70
     1
102
RTVSPropertyOp48
 70
     1
102
RTVSPropertyOp49
 70
     1
102
RTVSPropertyOp50
 70
     1
102
RTVSPropertyOp51
 70
     0
102
RTVSPropertyOp52
 70
     0
102
RTVSPropertyOp53
 70
     1
102
RTVSPropertyOp54
 70
     1
102
RTVSPropertyOp55
 70
     1
102
RTVSPropertyOp56
 70
     1
102
RTVSPropertyOp57
 70
     1
102
RTVSPropertyOp58
 70
     1
102
RTVSPropertyOp59
 70
     1
102
RTVSPropertyOp60
 70
     1
102
RTVSPropertyOp61
 70
     1
102
RTVSPropertyOp62
 70
     1
  0
XRECORD
  5
12769
102
{ACAD_REACTORS
330
12768
102
}
330
12768
100
AcDbXrecord
280
     1
102
RTVSPost2010Prop28
280
     0
102
RTVSPost2010PropOp28
 70
     1
102
RTVSPost2010Prop29
280
     1
102
RTVSPost2010PropOp29
 70
     1
102
RTVSPost2010Prop30
280
     1
102
RTVSPost2010PropOp30
 70
     1
102
RTVSPost2010Prop31
280
     0
102
RTVSPost2010PropOp31
 70
     1
102
RTVSPost2010Prop32
280
     0
102
RTVSPost2010PropOp32
 70
     1
102
RTVSPost2010Prop33
280
     0
102
RTVSPost2010PropOp33
 70
     1
102
RTVSPost2010Prop34
280
     0
102
RTVSPost2010PropOp34
 70
     1
102
RTVSPost2010Prop35
280
     0
102
RTVSPost2010PropOp35
 70
     1
102
RTVSPost2010Prop36
280
     0
102
RTVSPost2010PropOp36
 70
     1
102
RTVSPost2010Prop37
 90
       50
102
RTVSPost2010PropOp37
 70
     1
102
RTVSPost2010Prop38
140
0.0
102
RTVSPost2010PropOp38
 70
     1
102
RTVSPost2010Prop39
140
1.0
102
RTVSPost2010PropOp39
 70
     1
102
RTVSPost2010Prop40
 90
        0
102
RTVSPost2010PropOp40
 70
     1
102
RTVSPost2010Prop41ColorIndex
 90
       18
102
RTVSPost2010Prop41ColorRGB
 90
        0
102
RTVSPost2010PropOp41
 70
     1
102
RTVSPost2010Prop42
 90
       50
102
RTVSPost2010PropOp42
 70
     1
102
RTVSPost2010Prop43
 90
        3
102
RTVSPost2010PropOp43
 70
     1
102
RTVSPost2010Prop44ColorIndex
 90
        5
102
RTVSPost2010Prop44ColorRGB
 90
      255
102
RTVSPost2010PropOp44
 70
     1
102
RTVSPost2010Prop45
280
     0
102
RTVSPost2010PropOp45
 70
     1
102
RTVSPost2010Prop46
 90
       50
102
RTVSPost2010PropOp46
 70
     1
102
RTVSPost2010Prop47
 90
       50
102
RTVSPost2010PropOp47
 70
     1
102
RTVSPost2010Prop48
 90
       50
102
RTVSPost2010PropOp48
 70
     1
102
RTVSPost2010Prop49
280
     0
102
RTVSPost2010PropOp49
 70
     1
102
RTVSPost2010Prop50
 90
       50
102
RTVSPost2010PropOp50
 70
     1
102
RTVSPost2010Prop51ColorIndex
 90
      256
102
RTVSPost2010Prop51ColorRGB
 90
-16777216
102
RTVSPost2010PropOp51
 70
     0
102
RTVSPost2010Prop52
140
1.0
102
RTVSPost2010PropOp52
 70
     0
102
RTVSPost2010Prop53
 90
        2
102
RTVSPost2010PropOp53
 70
     1
102
RTVSPost2010Prop54
  1
strokes_ogs.tif
102
RTVSPost2010PropOp54
 70
     1
102
RTVSPost2010Prop55
280
     0
102
RTVSPost2010PropOp55
 70
     1
102
RTVSPost2010Prop56
140
1.0
102
RTVSPost2010PropOp56
 70
     1
102
RTVSPost2010Prop57
140
1.0
102
RTVSPost2010PropOp57
 70
     1
102
RTVSPropertyOp0
 70
     1
102
RTVSPropertyOp1
 70
     1
102
RTVSPropertyOp2
 70
     1
102
RTVSPropertyOp3
 70
     1
102
RTVSPropertyOp4
 70
     1
102
RTVSPropertyOp5
 70
     1
102
RTVSPropertyOp6
 70
     1
102
RTVSPropertyOp7
 70
     1
102
RTVSPropertyOp8
 70
     1
102
RTVSPropertyOp9
 70
     1
102
RTVSPropertyOp10
 70
     1
102
RTVSPropertyOp11
 70
     1
102
RTVSPropertyOp12
 70
     1
102
RTVSPropertyOp13
 70
     1
102
RTVSPropertyOp14
 70
     1
102
RTVSPropertyOp15
 70
     1
102
RTVSPropertyOp16
 70
     1
102
RTVSPropertyOp17
 70
     1
102
RTVSPropertyOp18
 70
     1
102
RTVSPropertyOp19
 70
     1
102
RTVSPropertyOp20
 70
     1
102
RTVSPropertyOp21
 70
     1
102
RTVSPropertyOp22
 70
     1
102
RTVSPropertyOp23
 70
     1
102
RTVSPropertyOp24
 70
     1
102
RTVSPropertyOp25
 70
     1
102
RTVSPropertyOp26
 70
     1
102
RTVSPropertyOp27
 70
     1
102
RTVSPropertyOp28
 70
     1
102
RTVSPropertyOp29
 70
     1
102
RTVSPropertyOp30
 70
     1
102
RTVSPropertyOp31
 70
     1
102
RTVSPropertyOp32
 70
     1
102
RTVSPropertyOp33
 70
     1
102
RTVSPropertyOp34
 70
     1
102
RTVSPropertyOp35
 70
     1
102
RTVSPropertyOp36
 70
     1
102
RTVSPropertyOp37
 70
     1
102
RTVSPropertyOp38
 70
     1
102
RTVSPropertyOp39
 70
     1
102
RTVSPropertyOp40
 70
     1
102
RTVSPropertyOp41
 70
     1
102
RTVSPropertyOp42
 70
     1
102
RTVSPropertyOp43
 70
     1
102
RTVSPropertyOp44
 70
     1
102
RTVSPropertyOp45
 70
     1
102
RTVSPropertyOp46
 70
     1
102
RTVSPropertyOp47
 70
     1
102
RTVSPropertyOp48
 70
     1
102
RTVSPropertyOp49
 70
     1
102
RTVSPropertyOp50
 70
     1
102
RTVSPropertyOp51
 70
     0
102
RTVSPropertyOp52
 70
     0
102
RTVSPropertyOp53
 70
     1
102
RTVSPropertyOp54
 70
     1
102
RTVSPropertyOp55
 70
     1
102
RTVSPropertyOp56
 70
     1
102
RTVSPropertyOp57
 70
     1
102
RTVSPropertyOp58
 70
     1
102
RTVSPropertyOp59
 70
     1
102
RTVSPropertyOp60
 70
     1
102
RTVSPropertyOp61
 70
     1
102
RTVSPropertyOp62
 70
     1
  0
XRECORD
  5
12789
102
{ACAD_REACTORS
330
12788
102
}
330
12788
100
AcDbXrecord
280
     1
102
RTVSPost2010Prop28
280
     0
102
RTVSPost2010PropOp28
 70
     1
102
RTVSPost2010Prop29
280
     1
102
RTVSPost2010PropOp29
 70
     1
102
RTVSPost2010Prop30
280
     1
102
RTVSPost2010PropOp30
 70
     1
102
RTVSPost2010Prop31
280
     0
102
RTVSPost2010PropOp31
 70
     1
102
RTVSPost2010Prop32
280
     0
102
RTVSPost2010PropOp32
 70
     1
102
RTVSPost2010Prop33
280
     0
102
RTVSPost2010PropOp33
 70
     1
102
RTVSPost2010Prop34
280
     0
102
RTVSPost2010PropOp34
 70
     1
102
RTVSPost2010Prop35
280
     0
102
RTVSPost2010PropOp35
 70
     1
102
RTVSPost2010Prop36
280
     0
102
RTVSPost2010PropOp36
 70
     1
102
RTVSPost2010Prop37
 90
       50
102
RTVSPost2010PropOp37
 70
     1
102
RTVSPost2010Prop38
140
0.0
102
RTVSPost2010PropOp38
 70
     1
102
RTVSPost2010Prop39
140
1.0
102
RTVSPost2010PropOp39
 70
     1
102
RTVSPost2010Prop40
 90
        0
102
RTVSPost2010PropOp40
 70
     1
102
RTVSPost2010Prop41ColorIndex
 90
       18
102
RTVSPost2010Prop41ColorRGB
 90
        0
102
RTVSPost2010PropOp41
 70
     1
102
RTVSPost2010Prop42
 90
       50
102
RTVSPost2010PropOp42
 70
     1
102
RTVSPost2010Prop43
 90
        3
102
RTVSPost2010PropOp43
 70
     1
102
RTVSPost2010Prop44ColorIndex
 90
        5
102
RTVSPost2010Prop44ColorRGB
 90
      255
102
RTVSPost2010PropOp44
 70
     1
102
RTVSPost2010Prop45
280
     0
102
RTVSPost2010PropOp45
 70
     1
102
RTVSPost2010Prop46
 90
       50
102
RTVSPost2010PropOp46
 70
     1
102
RTVSPost2010Prop47
 90
       50
102
RTVSPost2010PropOp47
 70
     1
102
RTVSPost2010Prop48
 90
       50
102
RTVSPost2010PropOp48
 70
     1
102
RTVSPost2010Prop49
280
     0
102
RTVSPost2010PropOp49
 70
     1
102
RTVSPost2010Prop50
 90
       50
102
RTVSPost2010PropOp50
 70
     1
102
RTVSPost2010Prop51ColorIndex
 90
      256
102
RTVSPost2010Prop51ColorRGB
 90
-16777216
102
RTVSPost2010PropOp51
 70
     0
102
RTVSPost2010Prop52
140
1.0
102
RTVSPost2010PropOp52
 70
     0
102
RTVSPost2010Prop53
 90
        2
102
RTVSPost2010PropOp53
 70
     1
102
RTVSPost2010Prop54
  1
strokes_ogs.tif
102
RTVSPost2010PropOp54
 70
     1
102
RTVSPost2010Prop55
280
     0
102
RTVSPost2010PropOp55
 70
     1
102
RTVSPost2010Prop56
140
1.0
102
RTVSPost2010PropOp56
 70
     1
102
RTVSPost2010Prop57
140
1.0
102
RTVSPost2010PropOp57
 70
     1
102
RTVSPropertyOp0
 70
     1
102
RTVSPropertyOp1
 70
     1
102
RTVSPropertyOp2
 70
     1
102
RTVSPropertyOp3
 70
     1
102
RTVSPropertyOp4
 70
     1
102
RTVSPropertyOp5
 70
     1
102
RTVSPropertyOp6
 70
     1
102
RTVSPropertyOp7
 70
     1
102
RTVSPropertyOp8
 70
     1
102
RTVSPropertyOp9
 70
     1
102
RTVSPropertyOp10
 70
     1
102
RTVSPropertyOp11
 70
     1
102
RTVSPropertyOp12
 70
     1
102
RTVSPropertyOp13
 70
     1
102
RTVSPropertyOp14
 70
     1
102
RTVSPropertyOp15
 70
     1
102
RTVSPropertyOp16
 70
     1
102
RTVSPropertyOp17
 70
     1
102
RTVSPropertyOp18
 70
     1
102
RTVSPropertyOp19
 70
     1
102
RTVSPropertyOp20
 70
     1
102
RTVSPropertyOp21
 70
     1
102
RTVSPropertyOp22
 70
     1
102
RTVSPropertyOp23
 70
     1
102
RTVSPropertyOp24
 70
     1
102
RTVSPropertyOp25
 70
     1
102
RTVSPropertyOp26
 70
     1
102
RTVSPropertyOp27
 70
     1
102
RTVSPropertyOp28
 70
     1
102
RTVSPropertyOp29
 70
     1
102
RTVSPropertyOp30
 70
     1
102
RTVSPropertyOp31
 70
     1
102
RTVSPropertyOp32
 70
     1
102
RTVSPropertyOp33
 70
     1
102
RTVSPropertyOp34
 70
     1
102
RTVSPropertyOp35
 70
     1
102
RTVSPropertyOp36
 70
     1
102
RTVSPropertyOp37
 70
     1
102
RTVSPropertyOp38
 70
     1
102
RTVSPropertyOp39
 70
     1
102
RTVSPropertyOp40
 70
     1
102
RTVSPropertyOp41
 70
     1
102
RTVSPropertyOp42
 70
     1
102
RTVSPropertyOp43
 70
     1
102
RTVSPropertyOp44
 70
     1
102
RTVSPropertyOp45
 70
     1
102
RTVSPropertyOp46
 70
     1
102
RTVSPropertyOp47
 70
     1
102
RTVSPropertyOp48
 70
     1
102
RTVSPropertyOp49
 70
     1
102
RTVSPropertyOp50
 70
     1
102
RTVSPropertyOp51
 70
     0
102
RTVSPropertyOp52
 70
     0
102
RTVSPropertyOp53
 70
     1
102
RTVSPropertyOp54
 70
     1
102
RTVSPropertyOp55
 70
     1
102
RTVSPropertyOp56
 70
     1
102
RTVSPropertyOp57
 70
     1
102
RTVSPropertyOp58
 70
     1
102
RTVSPropertyOp59
 70
     1
102
RTVSPropertyOp60
 70
     1
102
RTVSPropertyOp61
 70
     1
102
RTVSPropertyOp62
 70
     1
  0
ENDSEC
  0
EOF
