  0
SECTION
  2
HEADER
  9
$ACADVER
  1
AC1015
  9
$ACADMAINTVER
 70
    18
  9
$DWGCODEPAGE
  3
ANSI_1252
  9
$INSBASE
 10
0.0
 20
0.0
 30
0.0
  9
$EXTMIN
 10
-289.4293206481139
 20
-575.8045806672943
 30
-0.0015258207003583
  9
$EXTMAX
 10
353.1381234586449
 20
567.5837870172501
 30
0.0000000349246037
  9
$LIMMIN
 10
0.0
 20
0.0
  9
$LIMMAX
 10
420.0
 20
297.0
  9
$ORTHOMODE
 70
     0
  9
$REGENMODE
 70
     1
  9
$FILLMODE
 70
     1
  9
$QTEXTMODE
 70
     0
  9
$MIRRTEXT
 70
     0
  9
$LTSCALE
 40
1.0
  9
$ATTMODE
 70
     1
  9
$TEXTSIZE
 40
2.5
  9
$TRACEWID
 40
1.0
  9
$TEXTSTYLE
  7
Standard
  9
$CLAYER
  8
0
  9
$CELTYPE
  6
ByLayer
  9
$CECOLOR
 62
   256
  9
$CELTSCALE
 40
1.0
  9
$DISPSILH
 70
     0
  9
$DIMSCALE
 40
1.0
  9
$DIMASZ
 40
2.5
  9
$DIMEXO
 40
0.625
  9
$DIMDLI
 40
3.75
  9
$DIMRND
 40
0.0
  9
$DIMDLE
 40
0.0
  9
$DIMEXE
 40
1.25
  9
$DIMTP
 40
0.0
  9
$DIMTM
 40
0.0
  9
$DIMTXT
 40
2.5
  9
$DIMCEN
 40
2.5
  9
$DIMTSZ
 40
0.0
  9
$DIMTOL
 70
     0
  9
$DIMLIM
 70
     0
  9
$DIMTIH
 70
     0
  9
$DIMTOH
 70
     0
  9
$DIMSE1
 70
     0
  9
$DIMSE2
 70
     0
  9
$DIMTAD
 70
     1
  9
$DIMZIN
 70
     8
  9
$DIMBLK
  1

  9
$DIMASO
 70
     1
  9
$DIMSHO
 70
     1
  9
$DIMPOST
  1

  9
$DIMAPOST
  1

  9
$DIMALT
 70
     0
  9
$DIMALTD
 70
     3
  9
$DIMALTF
 40
0.03937007874016
  9
$DIMLFAC
 40
1.0
  9
$DIMTOFL
 70
     1
  9
$DIMTVP
 40
0.0
  9
$DIMTIX
 70
     0
  9
$DIMSOXD
 70
     0
  9
$DIMSAH
 70
     0
  9
$DIMBLK1
  1

  9
$DIMBLK2
  1

  9
$DIMSTYLE
  2
ISO-25
  9
$DIMCLRD
 70
     0
  9
$DIMCLRE
 70
     0
  9
$DIMCLRT
 70
     0
  9
$DIMTFAC
 40
1.0
  9
$DIMGAP
 40
0.625
  9
$DIMJUST
 70
     0
  9
$DIMSD1
 70
     0
  9
$DIMSD2
 70
     0
  9
$DIMTOLJ
 70
     0
  9
$DIMTZIN
 70
     8
  9
$DIMALTZ
 70
     0
  9
$DIMALTTZ
 70
     0
  9
$DIMUPT
 70
     0
  9
$DIMDEC
 70
     2
  9
$DIMTDEC
 70
     2
  9
$DIMALTU
 70
     2
  9
$DIMALTTD
 70
     3
  9
$DIMTXSTY
  7
Standard
  9
$DIMAUNIT
 70
     0
  9
$DIMADEC
 70
     0
  9
$DIMALTRND
 40
0.0
  9
$DIMAZIN
 70
     0
  9
$DIMDSEP
 70
    44
  9
$DIMATFIT
 70
     3
  9
$DIMFRAC
 70
     0
  9
$DIMLDRBLK
  1

  9
$DIMLUNIT
 70
     2
  9
$DIMLWD
 70
    -2
  9
$DIMLWE
 70
    -2
  9
$DIMTMOVE
 70
     0
  9
$LUNITS
 70
     2
  9
$LUPREC
 70
     4
  9
$SKETCHINC
 40
1.0
  9
$FILLETRAD
 40
0.0
  9
$AUNITS
 70
     0
  9
$AUPREC
 70
     0
  9
$MENU
  1
.
  9
$ELEVATION
 40
0.0
  9
$PELEVATION
 40
0.0
  9
$THICKNESS
 40
0.0
  9
$LIMCHECK
 70
     0
  9
$CHAMFERA
 40
0.0
  9
$CHAMFERB
 40
0.0
  9
$CHAMFERC
 40
0.0
  9
$CHAMFERD
 40
0.0
  9
$SKPOLY
 70
     0
  9
$TDCREATE
 40
2460719.406504630
  9
$TDUCREATE
 40
2460719.114837963
  9
$TDUPDATE
 40
2460719.416006944
  9
$TDUUPDATE
 40
2460719.124340278
  9
$TDINDWG
 40
0.0027199074
  9
$TDUSRTIMER
 40
0.0027199074
  9
$USRTIMER
 70
     1
  9
$ANGBASE
 50
0.0
  9
$ANGDIR
 70
     0
  9
$PDMODE
 70
     0
  9
$PDSIZE
 40
0.0
  9
$PLINEWID
 40
0.0
  9
$SPLFRAME
 70
     0
  9
$SPLINETYPE
 70
     6
  9
$SPLINESEGS
 70
     8
  9
$HANDSEED
  5
12032
  9
$SURFTAB1
 70
     6
  9
$SURFTAB2
 70
     6
  9
$SURFTYPE
 70
     6
  9
$SURFU
 70
     6
  9
$SURFV
 70
     6
  9
$UCSBASE
  2

  9
$UCSNAME
  2

  9
$UCSORG
 10
0.0
 20
0.0
 30
0.0
  9
$UCSXDIR
 10
1.0
 20
0.0
 30
0.0
  9
$UCSYDIR
 10
0.0
 20
1.0
 30
0.0
  9
$UCSORTHOREF
  2

  9
$UCSORTHOVIEW
 70
     0
  9
$UCSORGTOP
 10
0.0
 20
0.0
 30
0.0
  9
$UCSORGBOTTOM
 10
0.0
 20
0.0
 30
0.0
  9
$UCSORGLEFT
 10
0.0
 20
0.0
 30
0.0
  9
$UCSORGRIGHT
 10
0.0
 20
0.0
 30
0.0
  9
$UCSORGFRONT
 10
0.0
 20
0.0
 30
0.0
  9
$UCSORGBACK
 10
0.0
 20
0.0
 30
0.0
  9
$PUCSBASE
  2

  9
$PUCSNAME
  2

  9
$PUCSORG
 10
0.0
 20
0.0
 30
0.0
  9
$PUCSXDIR
 10
1.0
 20
0.0
 30
0.0
  9
$PUCSYDIR
 10
0.0
 20
1.0
 30
0.0
  9
$PUCSORTHOREF
  2

  9
$PUCSORTHOVIEW
 70
     0
  9
$PUCSORGTOP
 10
0.0
 20
0.0
 30
0.0
  9
$PUCSORGBOTTOM
 10
0.0
 20
0.0
 30
0.0
  9
$PUCSORGLEFT
 10
0.0
 20
0.0
 30
0.0
  9
$PUCSORGRIGHT
 10
0.0
 20
0.0
 30
0.0
  9
$PUCSORGFRONT
 10
0.0
 20
0.0
 30
0.0
  9
$PUCSORGBACK
 10
0.0
 20
0.0
 30
0.0
  9
$USERI1
 70
     0
  9
$USERI2
 70
     0
  9
$USERI3
 70
     0
  9
$USERI4
 70
     0
  9
$USERI5
 70
     0
  9
$USERR1
 40
0.0
  9
$USERR2
 40
0.0
  9
$USERR3
 40
0.0
  9
$USERR4
 40
0.0
  9
$USERR5
 40
0.0
  9
$WORLDVIEW
 70
     1
  9
$SHADEDGE
 70
     3
  9
$SHADEDIF
 70
    70
  9
$TILEMODE
 70
     1
  9
$MAXACTVP
 70
    48
  9
$PINSBASE
 10
0.0
 20
0.0
 30
0.0
  9
$PLIMCHECK
 70
     0
  9
$PEXTMIN
 10
0.0
 20
0.0
 30
0.0
  9
$PEXTMAX
 10
0.0
 20
0.0
 30
0.0
  9
$PLIMMIN
 10
0.0
 20
0.0
  9
$PLIMMAX
 10
12.0
 20
9.0
  9
$UNITMODE
 70
     0
  9
$VISRETAIN
 70
     1
  9
$PLINEGEN
 70
     0
  9
$PSLTSCALE
 70
     1
  9
$TREEDEPTH
 70
  3020
  9
$CMLSTYLE
  2
Standard
  9
$CMLJUST
 70
     0
  9
$CMLSCALE
 40
20.0
  9
$PROXYGRAPHICS
 70
     1
  9
$MEASUREMENT
 70
     1
  9
$CELWEIGHT
370
    -1
  9
$ENDCAPS
280
     0
  9
$JOINSTYLE
280
     0
  9
$LWDISPLAY
290
     0
  9
$INSUNITS
 70
     4
  9
$HYPERLINKBASE
  1

  9
$STYLESHEET
  1

  9
$XEDIT
290
     1
  9
$CEPSNTYPE
380
     0
  9
$PSTYLEMODE
290
     1
  9
$FINGERPRINTGUID
  2
{375C693C-302E-BC42-B92A-19F6C371B7B0}
  9
$VERSIONGUID
  2
{DD7AB12B-3267-2C43-AFD1-2C10913DDD87}
  9
$EXTNAMES
290
     1
  9
$PSVPSCALE
 40
0.0
  9
$OLESTARTUP
290
     0
  0
ENDSEC
  0
SECTION
  2
CLASSES
  0
CLASS
  1
ACDBDICTIONARYWDFLT
  2
AcDbDictionaryWithDefault
  3
ObjectDBX Classes
 90
        0
280
     0
281
     0
  0
CLASS
  1
ACDBPLACEHOLDER
  2
AcDbPlaceHolder
  3
ObjectDBX Classes
 90
        0
280
     0
281
     0
  0
CLASS
  1
LAYOUT
  2
AcDbLayout
  3
ObjectDBX Classes
 90
        0
280
     0
281
     0
  0
CLASS
  1
DICTIONARYVAR
  2
AcDbDictionaryVar
  3
ObjectDBX Classes
 90
        0
280
     0
281
     0
  0
CLASS
  1
TABLESTYLE
  2
AcDbTableStyle
  3
ObjectDBX Classes
 90
     4095
280
     0
281
     0
  0
CLASS
  1
MATERIAL
  2
AcDbMaterial
  3
ObjectDBX Classes
 90
     1153
280
     0
281
     0
  0
CLASS
  1
VISUALSTYLE
  2
AcDbVisualStyle
  3
ObjectDBX Classes
 90
     4095
280
     0
281
     0
  0
CLASS
  1
SCALE
  2
AcDbScale
  3
ObjectDBX Classes
 90
     1153
280
     0
281
     0
  0
CLASS
  1
MLEADERSTYLE
  2
AcDbMLeaderStyle
  3
ACDB_MLEADERSTYLE_CLASS
 90
     4095
280
     0
281
     0
  0
CLASS
  1
CELLSTYLEMAP
  2
AcDbCellStyleMap
  3
ObjectDBX Classes
 90
     1152
280
     0
281
     0
  0
CLASS
  1
EXACXREFPANELOBJECT
  2
ExAcXREFPanelObject
  3
EXAC_ESW
 90
    33793
280
     0
281
     0
  0
CLASS
  1
NPOCOLLECTION
  2
AcDbImpNonPersistentObjectsCollection
  3
ObjectDBX Classes
 90
    33921
280
     0
281
     0
  0
CLASS
  1
LAYER_INDEX
  2
AcDbLayerIndex
  3
ObjectDBX Classes
 90
    32768
280
     0
281
     0
  0
CLASS
  1
SPATIAL_INDEX
  2
AcDbSpatialIndex
  3
ObjectDBX Classes
 90
    32768
280
     0
281
     0
  0
CLASS
  1
IDBUFFER
  2
AcDbIdBuffer
  3
ObjectDBX Classes
 90
    32768
280
     0
281
     0
  0
CLASS
  1
ACDBSECTIONVIEWSTYLE
  2
AcDbSectionViewStyle
  3
ObjectDBX Classes
 90
     1025
280
     0
281
     0
  0
CLASS
  1
ACDBDETAILVIEWSTYLE
  2
AcDbDetailViewStyle
  3
ObjectDBX Classes
 90
     1025
280
     0
281
     0
  0
CLASS
  1
XRECORD
  2
AcDbXrecord
  3
ObjectDBX Classes
 90
        0
280
     0
281
     0
  0
ENDSEC
  0
SECTION
  2
TABLES
  0
TABLE
  2
VPORT
  5
8
102
{ACAD_XDICTIONARY
360
11F40
102
}
330
0
100
AcDbSymbolTable
 70
     1
  0
VPORT
  5
EA
330
8
100
AcDbSymbolTableRecord
100
AcDbViewportTableRecord
  2
*Active
 70
     0
 10
0.0
 20
0.0
 11
1.0
 21
1.0
 12
31.85440140526561
 22
-4.110396825022121
 13
0.0
 23
0.0
 14
10.0
 24
10.0
 15
10.0
 25
10.0
 16
0.0
 26
0.0
 36
1.0
 17
0.0
 27
0.0
 37
0.0
 40
1215.889911387193
 41
0.9846153846153846
 42
50.0
 43
0.0
 44
0.0
 50
0.0
 51
0.0
 71
     0
 72
  1000
 73
     1
 74
     3
 75
     0
 76
     1
 77
     0
 78
     0
281
     0
 65
     1
110
0.0
120
0.0
130
0.0
111
1.0
121
0.0
131
0.0
112
0.0
122
1.0
132
0.0
 79
     0
146
0.0
1001
ACAD_NAV_VCDISPLAY
1070
     3
  0
ENDTAB
  0
TABLE
  2
LTYPE
  5
5
330
0
100
AcDbSymbolTable
 70
     1
  0
LTYPE
  5
14
330
5
100
AcDbSymbolTableRecord
100
AcDbLinetypeTableRecord
  2
ByBlock
 70
     0
  3

 72
    65
 73
     0
 40
0.0
  0
LTYPE
  5
15
330
5
100
AcDbSymbolTableRecord
100
AcDbLinetypeTableRecord
  2
ByLayer
 70
     0
  3

 72
    65
 73
     0
 40
0.0
  0
LTYPE
  5
16
330
5
100
AcDbSymbolTableRecord
100
AcDbLinetypeTableRecord
  2
Continuous
 70
     0
  3
Solid line
 72
    65
 73
     0
 40
0.0
  0
ENDTAB
  0
TABLE
  2
LAYER
  5
2
102
{ACAD_XDICTIONARY
360
1FF
102
}
330
0
100
AcDbSymbolTable
 70
     1
  0
LAYER
  5
10
102
{ACAD_XDICTIONARY
360
13C
102
}
330
2
100
AcDbSymbolTableRecord
100
AcDbLayerTableRecord
  2
0
 70
     0
 62
     7
  6
Continuous
370
    -3
390
F
  0
ENDTAB
  0
TABLE
  2
STYLE
  5
3
330
0
100
AcDbSymbolTable
 70
     1
  0
STYLE
  5
11
330
3
100
AcDbSymbolTableRecord
100
AcDbTextStyleTableRecord
  2
Standard
 70
     0
 40
0.0
 41
1.0
 50
0.0
 71
     0
 42
2.5
  3
arial.ttf
  4

1001
ACAD
1000
Arial
1071
       34
  0
ENDTAB
  0
TABLE
  2
VIEW
  5
6
330
0
100
AcDbSymbolTable
 70
     0
  0
ENDTAB
  0
TABLE
  2
UCS
  5
7
330
0
100
AcDbSymbolTable
 70
     0
  0
ENDTAB
  0
TABLE
  2
APPID
  5
9
330
0
100
AcDbSymbolTable
 70
     8
  0
APPID
  5
12
330
9
100
AcDbSymbolTableRecord
100
AcDbRegAppTableRecord
  2
ACAD
 70
     0
  0
APPID
  5
9E
330
9
100
AcDbSymbolTableRecord
100
AcDbRegAppTableRecord
  2
ACAD_PSEXT
 70
     0
  0
APPID
  5
133
330
9
100
AcDbSymbolTableRecord
100
AcDbRegAppTableRecord
  2
AcadAnnoPO
 70
     0
  0
APPID
  5
134
330
9
100
AcDbSymbolTableRecord
100
AcDbRegAppTableRecord
  2
AcadAnnotative
 70
     0
  0
APPID
  5
135
330
9
100
AcDbSymbolTableRecord
100
AcDbRegAppTableRecord
  2
ACAD_DSTYLE_DIMJAG
 70
     0
  0
APPID
  5
136
330
9
100
AcDbSymbolTableRecord
100
AcDbRegAppTableRecord
  2
ACAD_DSTYLE_DIMTALN
 70
     0
  0
APPID
  5
165
330
9
100
AcDbSymbolTableRecord
100
AcDbRegAppTableRecord
  2
ACAD_MLEADERVER
 70
     0
  0
APPID
  5
217
330
9
100
AcDbSymbolTableRecord
100
AcDbRegAppTableRecord
  2
ACAD_NAV_VCDISPLAY
 70
     0
  0
ENDTAB
  0
TABLE
  2
DIMSTYLE
  5
A
330
0
100
AcDbSymbolTable
 70
     1
100
AcDbDimStyleTable
 71
     0
  0
DIMSTYLE
105
27
330
A
100
AcDbSymbolTableRecord
100
AcDbDimStyleTableRecord
  2
ISO-25
 70
     0
 41
2.5
 42
0.625
 43
3.75
 44
1.25
 73
     0
 74
     0
 77
     1
 78
     8
140
2.5
141
2.5
143
0.03937007874016
147
0.625
171
     3
172
     1
271
     2
272
     2
274
     3
278
    44
283
     0
284
     8
340
11
  0
ENDTAB
  0
TABLE
  2
BLOCK_RECORD
  5
1
330
0
100
AcDbSymbolTable
 70
     7
  0
BLOCK_RECORD
  5
1F
102
{ACAD_XDICTIONARY
360
1CE
102
}
330
1
100
AcDbSymbolTableRecord
100
AcDbBlockTableRecord
  2
*Model_Space
340
22
  0
BLOCK_RECORD
  5
D2
102
{ACAD_XDICTIONARY
360
11EF3
102
}
330
1
100
AcDbSymbolTableRecord
100
AcDbBlockTableRecord
  2
*Paper_Space
340
D3
  0
BLOCK_RECORD
  5
D6
102
{ACAD_XDICTIONARY
360
11EF5
102
}
330
1
100
AcDbSymbolTableRecord
100
AcDbBlockTableRecord
  2
*Paper_Space0
340
D7
  0
BLOCK_RECORD
  5
11C00
330
1
100
AcDbSymbolTableRecord
100
AcDbBlockTableRecord
  2
SPR80_360-Front
340
0
102
{BLKREFS
331
11EE9
102
}
  0
BLOCK_RECORD
  5
11C88
330
1
100
AcDbSymbolTableRecord
100
AcDbBlockTableRecord
  2
SPR80_360-Left
340
0
102
{BLKREFS
331
11EEA
102
}
  0
BLOCK_RECORD
  5
11CCC
330
1
100
AcDbSymbolTableRecord
100
AcDbBlockTableRecord
  2
SPR80_360-Right
340
0
102
{BLKREFS
331
11EEB
102
}
  0
BLOCK_RECORD
  5
11D12
330
1
100
AcDbSymbolTableRecord
100
AcDbBlockTableRecord
  2
SPR80_360-Top
340
0
102
{BLKREFS
331
11EEC
102
}
  0
BLOCK_RECORD
  5
11D6E
330
1
100
AcDbSymbolTableRecord
100
AcDbBlockTableRecord
  2
SPR80_360-Bottom
340
0
102
{BLKREFS
331
11EED
102
}
  0
BLOCK_RECORD
  5
11DBE
330
1
100
AcDbSymbolTableRecord
100
AcDbBlockTableRecord
  2
SPR80_360-ISO
340
0
102
{BLKREFS
331
11EEE
102
}
  0
ENDTAB
  0
ENDSEC
  0
SECTION
  2
BLOCKS
  0
BLOCK
  5
20
330
1F
100
AcDbEntity
  8
0
100
AcDbBlockBegin
  2
*Model_Space
 70
     0
 10
0.0
 20
0.0
 30
0.0
  3
*Model_Space
  1

  0
ENDBLK
  5
21
330
1F
100
AcDbEntity
  8
0
100
AcDbBlockEnd
  0
BLOCK
  5
D4
330
D2
100
AcDbEntity
 67
     1
  8
0
100
AcDbBlockBegin
  2
*Paper_Space
 70
     0
 10
0.0
 20
0.0
 30
0.0
  3
*Paper_Space
  1

  0
ENDBLK
  5
D5
330
D2
100
AcDbEntity
 67
     1
  8
0
100
AcDbBlockEnd
  0
BLOCK
  5
D8
330
D6
100
AcDbEntity
 67
     1
  8
0
100
AcDbBlockBegin
  2
*Paper_Space0
 70
     0
 10
0.0
 20
0.0
 30
0.0
  3
*Paper_Space0
  1

  0
ENDBLK
  5
D9
330
D6
100
AcDbEntity
 67
     1
  8
0
100
AcDbBlockEnd
  0
BLOCK
  5
11C01
330
11C00
100
AcDbEntity
  8
0
100
AcDbBlockBegin
  2
SPR80_360-Front
 70
     0
 10
0.0
 20
0.0
 30
0.0
  3
SPR80_360-Front
  1

  0
LINE
  5
11C03
330
11C00
100
AcDbEntity
  8
0
100
AcDbLine
 10
82.527090561
 20
6.269999999999996
 30
0.0
 11
77.52709056100001
 21
1.269999999999996
 31
0.0
  0
LINE
  5
11C04
330
11C00
100
AcDbEntity
  8
0
100
AcDbLine
 10
-77.52709056100004
 20
1.269999999999996
 30
0.0
 11
-82.52709056100004
 21
6.269999999999997
 31
0.0
  0
LINE
  5
11C05
330
11C00
100
AcDbEntity
  8
0
100
AcDbLine
 10
-82.52709056100004
 20
72.27
 30
0.0
 11
-77.52709056100001
 21
77.27
 31
0.0
  0
LINE
  5
11C06
330
11C00
100
AcDbEntity
  8
0
100
AcDbLine
 10
77.52709056099996
 20
77.27000000000001
 30
0.0
 11
82.52709056099996
 21
72.27000000000001
 31
0.0
  0
LINE
  5
11C07
330
11C00
100
AcDbEntity
  8
0
100
AcDbLine
 10
82.52709056099996
 20
72.27000000000001
 30
0.0
 11
82.527090561
 21
6.269999999999997
 31
0.0
  0
LINE
  5
11C08
330
11C00
100
AcDbEntity
  8
0
100
AcDbLine
 10
-82.52709056100004
 20
6.269999999999997
 30
0.0
 11
-82.52709056100004
 21
72.27
 31
0.0
  0
LINE
  5
11C09
330
11C00
100
AcDbEntity
  8
0
100
AcDbLine
 10
36.49999999999999
 20
77.27000000000001
 30
0.0
 11
77.52709056099996
 21
77.27000000000001
 31
0.0
  0
LINE
  5
11C0A
330
11C00
100
AcDbEntity
  8
0
100
AcDbLine
 10
-36.50000000000002
 20
1.270000000000022
 30
0.0
 11
-77.52709056100004
 21
1.269999999999996
 31
0.0
  0
LINE
  5
11C0B
330
11C00
100
AcDbEntity
  8
0
100
AcDbLine
 10
77.52709056100001
 20
1.269999999999996
 30
0.0
 11
36.49999999999999
 21
1.270000000000022
 31
0.0
  0
ARC
  5
11C0C
330
11C00
100
AcDbEntity
  8
0
100
AcDbCircle
 10
36.49999999999997
 20
78.77000000000001
 30
0.0
 40
1.5
100
AcDbArc
 50
90.00000000000067
 51
270.0000000000007
  0
LINE
  5
11C0D
330
11C00
100
AcDbEntity
  8
0
100
AcDbLine
 10
-77.52709056100001
 20
77.27
 30
0.0
 11
-36.50000000000003
 21
77.27
 31
0.0
  0
ARC
  5
11C0E
330
11C00
100
AcDbEntity
  8
0
100
AcDbCircle
 10
-36.50000000000003
 20
78.76999999999999
 30
0.0
 40
1.5
100
AcDbArc
 50
270.0
 51
90.0
  0
LINE
  5
11C0F
330
11C00
100
AcDbEntity
  8
0
100
AcDbLine
 10
41.5000000000002
 20
80.27000000000001
 30
0.0
 11
41.50000000000024
 21
85.27000000000001
 31
0.0
  0
LINE
  5
11C10
330
11C00
100
AcDbEntity
  8
0
100
AcDbLine
 10
41.50000000000024
 20
85.27000000000001
 30
0.0
 11
40.00000000000023
 21
85.27000000000001
 31
0.0
  0
LINE
  5
11C11
330
11C00
100
AcDbEntity
  8
0
100
AcDbLine
 10
40.00000000000023
 20
85.27000000000001
 30
0.0
 11
40.0000000000002
 21
80.27000000000001
 31
0.0
  0
LINE
  5
11C12
330
11C00
100
AcDbEntity
  8
0
100
AcDbLine
 10
40.0000000000002
 20
80.27000000000001
 30
0.0
 11
41.5000000000002
 21
80.27000000000001
 31
0.0
  0
LINE
  5
11C13
330
11C00
100
AcDbEntity
  8
0
100
AcDbLine
 10
40.00000000000023
 20
355.67
 30
0.0
 11
41.50000000000024
 21
355.67
 31
0.0
  0
LINE
  5
11C14
330
11C00
100
AcDbEntity
  8
0
100
AcDbLine
 10
41.50000000000024
 20
355.67
 30
0.0
 11
41.5000000000002
 21
360.67
 31
0.0
  0
LINE
  5
11C15
330
11C00
100
AcDbEntity
  8
0
100
AcDbLine
 10
-41.50000000000001
 20
85.27000000000001
 30
0.0
 11
-41.50000000000001
 21
80.27000000000001
 31
0.0
  0
LINE
  5
11C16
330
11C00
100
AcDbEntity
  8
0
100
AcDbLine
 10
-41.50000000000001
 20
80.27000000000001
 30
0.0
 11
-40.0
 21
80.27000000000001
 31
0.0
  0
LINE
  5
11C17
330
11C00
100
AcDbEntity
  8
0
100
AcDbLine
 10
-40.0
 20
80.27000000000001
 30
0.0
 11
-40.0
 21
85.27000000000001
 31
0.0
  0
LINE
  5
11C18
330
11C00
100
AcDbEntity
  8
0
100
AcDbLine
 10
-40.0
 20
85.27000000000001
 30
0.0
 11
-41.50000000000001
 21
85.27000000000001
 31
0.0
  0
LINE
  5
11C19
330
11C00
100
AcDbEntity
  8
0
100
AcDbLine
 10
-41.50000000000001
 20
360.67
 30
0.0
 11
-41.50000000000001
 21
355.67
 31
0.0
  0
LINE
  5
11C1A
330
11C00
100
AcDbEntity
  8
0
100
AcDbLine
 10
-41.50000000000001
 20
355.67
 30
0.0
 11
-40.0
 21
355.67
 31
0.0
  0
LINE
  5
11C1B
330
11C00
100
AcDbEntity
  8
0
100
AcDbLine
 10
41.5000000000002
 20
360.67
 30
0.0
 11
40.0000000000002
 21
360.67
 31
0.0
  0
LINE
  5
11C1C
330
11C00
100
AcDbEntity
  8
0
100
AcDbLine
 10
40.0000000000002
 20
360.67
 30
0.0
 11
40.00000000000023
 21
355.67
 31
0.0
  0
LINE
  5
11C1D
330
11C00
100
AcDbEntity
  8
0
100
AcDbLine
 10
-40.0
 20
355.67
 30
0.0
 11
-40.0
 21
360.67
 31
0.0
  0
LINE
  5
11C1E
330
11C00
100
AcDbEntity
  8
0
100
AcDbLine
 10
-40.0
 20
360.67
 30
0.0
 11
-41.50000000000001
 21
360.67
 31
0.0
  0
LINE
  5
11C1F
330
11C00
100
AcDbEntity
  8
0
100
AcDbLine
 10
41.49999999999995
 20
-28.42608254450009
 30
0.0
 11
41.49999999999997
 21
-21.35501473263464
 31
0.0
  0
LINE
  5
11C20
330
11C00
100
AcDbEntity
  8
0
100
AcDbLine
 10
41.49999999999997
 20
-21.35501473263464
 30
0.0
 11
39.99999999999997
 21
-21.35501473263464
 31
0.0
  0
LINE
  5
11C21
330
11C00
100
AcDbEntity
  8
0
100
AcDbLine
 10
39.99999999999997
 20
-21.35501473263464
 30
0.0
 11
39.99999999999998
 21
-28.42608254450009
 31
0.0
  0
LINE
  5
11C22
330
11C00
100
AcDbEntity
  8
0
100
AcDbLine
 10
39.99999999999998
 20
-28.42608254450009
 30
0.0
 11
41.49999999999995
 21
-28.42608254450009
 31
0.0
  0
LINE
  5
11C23
330
11C00
100
AcDbEntity
  8
0
100
AcDbLine
 10
-41.49999999999997
 20
-21.35501473263463
 30
0.0
 11
-41.49999999999995
 21
-28.42608254450008
 31
0.0
  0
LINE
  5
11C24
330
11C00
100
AcDbEntity
  8
0
100
AcDbLine
 10
-41.49999999999995
 20
-28.42608254450008
 30
0.0
 11
-39.99999999999998
 21
-28.42608254450008
 31
0.0
  0
LINE
  5
11C25
330
11C00
100
AcDbEntity
  8
0
100
AcDbLine
 10
-39.99999999999998
 20
-28.42608254450008
 30
0.0
 11
-39.99999999999997
 21
-21.35501473263464
 31
0.0
  0
LINE
  5
11C26
330
11C00
100
AcDbEntity
  8
0
100
AcDbLine
 10
-39.99999999999997
 20
-21.35501473263464
 30
0.0
 11
-41.49999999999997
 21
-21.35501473263463
 31
0.0
  0
LINE
  5
11C27
330
11C00
100
AcDbEntity
  8
0
100
AcDbLine
 10
41.50000000000024
 20
85.27000000000001
 30
0.0
 11
41.50000000000024
 21
355.67
 31
0.0
  0
LINE
  5
11C28
330
11C00
100
AcDbEntity
  8
0
100
AcDbLine
 10
40.00000000000023
 20
355.67
 30
0.0
 11
40.00000000000023
 21
85.27000000000001
 31
0.0
  0
LINE
  5
11C29
330
11C00
100
AcDbEntity
  8
0
100
AcDbLine
 10
-41.50000000000001
 20
355.67
 30
0.0
 11
-41.50000000000001
 21
85.27000000000001
 31
0.0
  0
LINE
  5
11C2A
330
11C00
100
AcDbEntity
  8
0
100
AcDbLine
 10
-40.0
 20
355.67
 30
0.0
 11
-40.0
 21
85.27000000000001
 31
0.0
  0
LINE
  5
11C2B
330
11C00
100
AcDbEntity
  8
0
100
AcDbLine
 10
36.49999999999999
 20
80.27000000000001
 30
0.0
 11
39.39999999999999
 21
80.27000000000001
 31
0.0
  0
LINE
  5
11C2C
330
11C00
100
AcDbEntity
  8
0
100
AcDbLine
 10
-39.40000000000002
 20
80.27000000000001
 30
0.0
 11
-36.50000000000003
 21
80.26999999999999
 31
0.0
  0
LINE
  5
11C2D
330
11C00
100
AcDbEntity
  8
0
100
AcDbLine
 10
-39.40000000000002
 20
360.67
 30
0.0
 11
39.39999999999999
 21
360.67
 31
0.0
  0
LINE
  5
11C2E
330
11C00
100
AcDbEntity
  8
0
100
AcDbLine
 10
41.50000000000692
 20
-2.263131642256641
 30
0.0
 11
41.49999999999997
 21
-21.35501473263464
 31
0.0
  0
LINE
  5
11C2F
330
11C00
100
AcDbEntity
  8
0
100
AcDbLine
 10
40.00000000000589
 20
-2.263131642256641
 30
0.0
 11
39.99999999999997
 21
-21.35501473263464
 31
0.0
  0
ELLIPSE
  5
11C30
330
11C00
100
AcDbEntity
  8
0
100
AcDbEllipse
 10
39.39999999999999
 20
-54.16476937947045
 30
0.0
 11
0.6000000000000844
 21
-0.0000000000000093
 31
0.0
210
0.0
220
0.0
230
1.0
 40
0.7071067811865476
 41
4.712388980384708
 42
6.283185307179439
  0
ELLIPSE
  5
11C31
330
11C00
100
AcDbEntity
  8
0
100
AcDbEllipse
 10
39.39999999999999
 20
-54.16476937947045
 30
0.0
 11
2.100000000000081
 21
-0.0000000000000888
 31
0.0
210
0.0
220
0.0
230
1.0
 40
0.707106781186547
 41
4.712388980384737
 42
6.283185307179622
  0
LINE
  5
11C32
330
11C00
100
AcDbEntity
  8
0
100
AcDbLine
 10
41.50000000000692
 20
-2.263131642256641
 30
0.0
 11
40.00000000000589
 21
-2.263131642256641
 31
0.0
  0
SPLINE
  5
11C33
330
11C00
100
AcDbEntity
  8
0
100
AcDbSpline
210
0.0
220
0.0
230
1.0
 70
     8
 71
     3
 72
     8
 73
     4
 74
     0
 42
0.000000001
 43
0.0000000001
 40
-1.0
 40
-1.0
 40
-1.0
 40
-1.0
 40
0.0
 40
0.0
 40
0.0
 40
0.0
 10
-35.01767776087195
 20
-0.0003899405809504
 30
0.0
 10
-34.97251992073994
 20
-0.1594792109354416
 30
0.0
 10
-35.01586474390246
 20
-0.321485044675321
 30
0.0
 10
-35.14054197002052
 20
-0.4246540092928796
 30
0.0
  0
SPLINE
  5
11C34
330
11C00
100
AcDbEntity
  8
0
100
AcDbSpline
210
0.0
220
0.0
230
1.0
 70
     8
 71
     3
 72
     8
 73
     4
 74
     0
 42
0.000000001
 43
0.0000000001
 40
-1.0
 40
-1.0
 40
-1.0
 40
-1.0
 40
0.0
 40
0.0
 40
0.0
 40
0.0
 10
35.1405419700205
 20
-0.4246540092928794
 30
0.0
 10
35.01586474390216
 20
-0.3214850446753142
 30
0.0
 10
34.97251992073987
 20
-0.1594792109354447
 30
0.0
 10
35.01767776087194
 20
-0.0003899405809504
 30
0.0
  0
ELLIPSE
  5
11C35
330
11C00
100
AcDbEntity
  8
0
100
AcDbEllipse
 10
-36.50000000000002
 20
0.0236058844764815
 30
0.0
 11
-1.5
 21
0.0000000000001102
 31
0.0
210
0.0
220
0.0
230
1.0
 40
0.7071067811865479
 41
1.570796326795026
 42
2.70525458196206
  0
LINE
  5
11C36
330
11C00
100
AcDbEntity
  8
0
100
AcDbLine
 10
-36.50000000000002
 20
-1.037054287303335
 30
0.0
 11
-38.79315533855966
 21
-1.037054287303334
 31
0.0
  0
LINE
  5
11C37
330
11C00
100
AcDbEntity
  8
0
100
AcDbLine
 10
-38.79315533855966
 20
-1.037054287303334
 30
0.0
 11
-39.40000000000002
 21
-1.466158262545871
 31
0.0
  0
LINE
  5
11C38
330
11C00
100
AcDbEntity
  8
0
100
AcDbLine
 10
39.39999999999999
 20
-1.46615826254589
 30
0.0
 11
38.79315533855962
 21
-1.037054287303349
 31
0.0
  0
LINE
  5
11C39
330
11C00
100
AcDbEntity
  8
0
100
AcDbLine
 10
38.79315533855962
 20
-1.037054287303349
 30
0.0
 11
36.49999999999998
 21
-1.037054287303349
 31
0.0
  0
ELLIPSE
  5
11C3A
330
11C00
100
AcDbEntity
  8
0
100
AcDbEllipse
 10
36.49999999999998
 20
0.0236058844764817
 30
0.0
 11
-1.5
 21
0.0
 31
0.0
210
0.0
220
0.0
230
1.0
 40
0.7071067811865479
 41
0.4363380716279881
 42
1.570796326794896
  0
LINE
  5
11C3B
330
11C00
100
AcDbEntity
  8
0
100
AcDbLine
 10
-40.00000000000255
 20
-2.263131642256636
 30
0.0
 11
-41.50000000000304
 21
-2.263131642256636
 31
0.0
  0
SPLINE
  5
11C3C
330
11C00
100
AcDbEntity
  8
0
100
AcDbSpline
210
0.0
220
0.0
230
1.0
 70
     8
 71
     3
 72
     8
 73
     4
 74
     0
 42
0.000000001
 43
0.0000000001
 40
-1.0
 40
-1.0
 40
-1.0
 40
-1.0
 40
0.0
 40
0.0
 40
0.0
 40
0.0
 10
-39.40000000000001
 20
-1.466158262545859
 30
0.0
 10
-39.714159265359
 20
-1.873237411765094
 30
0.0
 10
-40.00000000000001
 20
-2.078196639181149
 30
0.0
 10
-40.00000000000003
 20
-2.263131641492097
 30
0.0
  0
ARC
  5
11C3D
330
11C00
100
AcDbEntity
  8
0
100
AcDbCircle
 10
-36.50000000000002
 20
-0.229999999999892
 30
0.0
 40
1.5
100
AcDbArc
 50
8.80507525969728
 51
90.0
  0
SPLINE
  5
11C3E
330
11C00
100
AcDbEntity
  8
0
100
AcDbSpline
210
0.0
220
0.0
230
1.0
 70
     8
 71
     3
 72
     8
 73
     4
 74
     0
 42
0.000000001
 43
0.0000000001
 40
-1.0
 40
-1.0
 40
-1.0
 40
-1.0
 40
0.0
 40
0.0
 40
0.0
 40
0.0
 10
40.00000000000006
 20
-2.263131641492123
 30
0.0
 10
40.0
 20
-2.078196639180831
 30
0.0
 10
39.71415926535897
 20
-1.873237411765378
 30
0.0
 10
39.39999999999998
 20
-1.466158262545859
 30
0.0
  0
ARC
  5
11C3F
330
11C00
100
AcDbEntity
  8
0
100
AcDbCircle
 10
36.49999999999998
 20
-0.229999999999892
 30
0.0
 40
1.5
100
AcDbArc
 50
90.0
 51
171.1949247403028
  0
SPLINE
  5
11C40
330
11C00
100
AcDbEntity
  8
0
100
AcDbSpline
210
0.0
220
0.0
230
1.0
 70
     8
 71
     3
 72
    16
 73
    12
 74
     0
 42
0.000000001
 43
0.0000000001
 40
0.0
 40
0.0
 40
0.0
 40
0.0
 40
0.0356537247227442
 40
0.0356537247227442
 40
0.0703704956414312
 40
0.0703704956414312
 40
0.105134564007731
 40
0.105134564007731
 40
0.1398962718657273
 40
0.1398962718657273
 40
0.1538885733138569
 40
0.1538885733138569
 40
0.1538885733138569
 40
0.1538885733138569
 10
-40.4994999999986
 20
-2.263131641492113
 30
0.0
 10
-40.49950000000072
 20
-2.263131641490561
 30
0.0
 10
-40.47955867540367
 20
-2.263059951014983
 30
0.0
 10
-40.40583172170485
 20
-2.250836451213992
 30
0.0
 10
-40.35213458029075
 20
-2.238741830466209
 30
0.0
 10
-40.2229373043151
 20
-2.194102190393169
 30
0.0
 10
-40.14591985436247
 20
-2.160888677235971
 30
0.0
 10
-39.98574064092904
 20
-2.069479202593814
 30
0.0
 10
-39.90073655260032
 20
-2.010107098259435
 30
0.0
 10
-39.78901418349142
 20
-1.909831885152249
 30
0.0
 10
-39.75758437992328
 20
-1.878943669874535
 30
0.0
 10
-39.72742155524379
 20
-1.846191951394095
 30
0.0
  0
SPLINE
  5
11C41
330
11C00
100
AcDbEntity
  8
0
100
AcDbSpline
210
0.0
220
0.0
230
1.0
 70
     8
 71
     3
 72
    16
 73
    12
 74
     0
 42
0.000000001
 43
0.0000000001
 40
0.0
 40
0.0
 40
0.0
 40
0.0
 40
0.0356266149340832
 40
0.0356266149340832
 40
0.0703447701813377
 40
0.0703447701813377
 40
0.1051087695000583
 40
0.1051087695000583
 40
0.1398704808050979
 40
0.1398704808050979
 40
0.1538888647030301
 40
0.1538888647030301
 40
0.1538888647030301
 40
0.1538888647030301
 10
39.72742155524375
 20
-1.846191951394073
 30
0.0
 10
39.8042208826569
 20
-1.929583012332475
 30
0.0
 10
39.88999615130596
 20
-2.001172959736549
 30
0.0
 10
40.05564046642883
 20
-2.113266523269013
 30
0.0
 10
40.13750261650184
 20
-2.155953002281758
 30
0.0
 10
40.28182181891567
 20
-2.217016702992812
 30
0.0
 10
40.34591305089755
 20
-2.23618949181243
 30
0.0
 10
40.44238223265536
 20
-2.258395304187045
 30
0.0
 10
40.47587215057197
 20
-2.261811174867284
 30
0.0
 10
40.49650501536369
 20
-2.263130971916373
 30
0.0
 10
40.49949999999994
 20
-2.263131641491565
 30
0.0
 10
40.49949999999959
 20
-2.263131641492176
 30
0.0
  0
LINE
  5
11C42
330
11C00
100
AcDbEntity
  8
0
100
AcDbLine
 10
41.49999999999995
 20
-54.16476937947052
 30
0.0
 11
41.49999999999995
 21
-28.42608254450009
 31
0.0
  0
LINE
  5
11C43
330
11C00
100
AcDbEntity
  8
0
100
AcDbLine
 10
-41.49999999999995
 20
-28.42608254450008
 30
0.0
 11
-41.49999999999997
 21
-54.16476937947052
 31
0.0
  0
LINE
  5
11C44
330
11C00
100
AcDbEntity
  8
0
100
AcDbLine
 10
-39.99999999999998
 20
-28.42608254450008
 30
0.0
 11
-39.99999999999999
 21
-54.16476937947052
 31
0.0
  0
LINE
  5
11C45
330
11C00
100
AcDbEntity
  8
0
100
AcDbLine
 10
-39.4
 20
-54.58903344818243
 30
0.0
 11
39.39999999999999
 21
-54.58903344818243
 31
0.0
  0
LINE
  5
11C46
330
11C00
100
AcDbEntity
  8
0
100
AcDbLine
 10
39.99999999999997
 20
-54.16476937947052
 30
0.0
 11
39.99999999999998
 21
-28.42608254450009
 31
0.0
  0
LINE
  5
11C47
330
11C00
100
AcDbEntity
  8
0
100
AcDbLine
 10
-39.4
 20
-55.64969361996226
 30
0.0
 11
39.39999999999999
 21
-55.64969361996226
 31
0.0
  0
LINE
  5
11C48
330
11C00
100
AcDbEntity
  8
0
100
AcDbLine
 10
-41.50000000000304
 20
-2.263131642256636
 30
0.0
 11
-41.49999999999997
 21
-21.35501473263463
 31
0.0
  0
LINE
  5
11C49
330
11C00
100
AcDbEntity
  8
0
100
AcDbLine
 10
-40.00000000000255
 20
-2.263131642256636
 30
0.0
 11
-39.99999999999997
 21
-21.35501473263464
 31
0.0
  0
CIRCLE
  5
11C4A
330
11C00
100
AcDbEntity
  8
0
100
AcDbCircle
 10
29.99999999999998
 20
349.7700000000001
 30
0.0
 40
2.5
  0
CIRCLE
  5
11C4B
330
11C00
100
AcDbEntity
  8
0
100
AcDbCircle
 10
29.99999999999998
 20
309.7700000000001
 30
0.0
 40
2.5
  0
CIRCLE
  5
11C4C
330
11C00
100
AcDbEntity
  8
0
100
AcDbCircle
 10
29.99999999999998
 20
269.7700000000001
 30
0.0
 40
2.5
  0
CIRCLE
  5
11C4D
330
11C00
100
AcDbEntity
  8
0
100
AcDbCircle
 10
29.99999999999998
 20
229.7700000000001
 30
0.0
 40
2.5
  0
CIRCLE
  5
11C4E
330
11C00
100
AcDbEntity
  8
0
100
AcDbCircle
 10
29.99999999999998
 20
189.77
 30
0.0
 40
2.5
  0
CIRCLE
  5
11C4F
330
11C00
100
AcDbEntity
  8
0
100
AcDbCircle
 10
29.99999999999998
 20
149.77
 30
0.0
 40
2.5
  0
CIRCLE
  5
11C50
330
11C00
100
AcDbEntity
  8
0
100
AcDbCircle
 10
29.99999999999998
 20
109.7700000000001
 30
0.0
 40
2.5
  0
CIRCLE
  5
11C51
330
11C00
100
AcDbEntity
  8
0
100
AcDbCircle
 10
29.99999999999998
 20
69.77000000000007
 30
0.0
 40
2.5
  0
CIRCLE
  5
11C52
330
11C00
100
AcDbEntity
  8
0
100
AcDbCircle
 10
29.99999999999998
 20
29.77000000000007
 30
0.0
 40
2.5
  0
CIRCLE
  5
11C53
330
11C00
100
AcDbEntity
  8
0
100
AcDbCircle
 10
19.99999999999997
 20
329.77
 30
0.0
 40
2.5
  0
CIRCLE
  5
11C54
330
11C00
100
AcDbEntity
  8
0
100
AcDbCircle
 10
19.99999999999997
 20
289.77
 30
0.0
 40
2.5
  0
CIRCLE
  5
11C55
330
11C00
100
AcDbEntity
  8
0
100
AcDbCircle
 10
19.99999999999997
 20
249.77
 30
0.0
 40
2.5
  0
CIRCLE
  5
11C56
330
11C00
100
AcDbEntity
  8
0
100
AcDbCircle
 10
19.99999999999997
 20
209.7700000000001
 30
0.0
 40
2.5
  0
CIRCLE
  5
11C57
330
11C00
100
AcDbEntity
  8
0
100
AcDbCircle
 10
19.99999999999997
 20
169.77
 30
0.0
 40
2.5
  0
CIRCLE
  5
11C58
330
11C00
100
AcDbEntity
  8
0
100
AcDbCircle
 10
19.99999999999997
 20
129.77
 30
0.0
 40
2.5
  0
CIRCLE
  5
11C59
330
11C00
100
AcDbEntity
  8
0
100
AcDbCircle
 10
19.99999999999997
 20
89.77000000000005
 30
0.0
 40
2.5
  0
CIRCLE
  5
11C5A
330
11C00
100
AcDbEntity
  8
0
100
AcDbCircle
 10
19.99999999999997
 20
49.77000000000005
 30
0.0
 40
2.5
  0
CIRCLE
  5
11C5B
330
11C00
100
AcDbEntity
  8
0
100
AcDbCircle
 10
19.99999999999997
 20
9.770000000000054
 30
0.0
 40
2.5
  0
CIRCLE
  5
11C5C
330
11C00
100
AcDbEntity
  8
0
100
AcDbCircle
 10
-20.00000000000002
 20
349.77
 30
0.0
 40
2.5
  0
CIRCLE
  5
11C5D
330
11C00
100
AcDbEntity
  8
0
100
AcDbCircle
 10
-20.00000000000002
 20
309.7700000000001
 30
0.0
 40
2.5
  0
CIRCLE
  5
11C5E
330
11C00
100
AcDbEntity
  8
0
100
AcDbCircle
 10
-20.00000000000002
 20
269.7700000000001
 30
0.0
 40
2.5
  0
CIRCLE
  5
11C5F
330
11C00
100
AcDbEntity
  8
0
100
AcDbCircle
 10
-20.00000000000002
 20
229.77
 30
0.0
 40
2.5
  0
CIRCLE
  5
11C60
330
11C00
100
AcDbEntity
  8
0
100
AcDbCircle
 10
-20.00000000000002
 20
189.77
 30
0.0
 40
2.5
  0
CIRCLE
  5
11C61
330
11C00
100
AcDbEntity
  8
0
100
AcDbCircle
 10
-20.00000000000002
 20
149.77
 30
0.0
 40
2.5
  0
CIRCLE
  5
11C62
330
11C00
100
AcDbEntity
  8
0
100
AcDbCircle
 10
-20.00000000000002
 20
109.77
 30
0.0
 40
2.5
  0
CIRCLE
  5
11C63
330
11C00
100
AcDbEntity
  8
0
100
AcDbCircle
 10
-20.00000000000002
 20
69.77000000000003
 30
0.0
 40
2.5
  0
CIRCLE
  5
11C64
330
11C00
100
AcDbEntity
  8
0
100
AcDbCircle
 10
-20.00000000000002
 20
29.77000000000004
 30
0.0
 40
2.5
  0
CIRCLE
  5
11C65
330
11C00
100
AcDbEntity
  8
0
100
AcDbCircle
 10
-30.00000000000003
 20
329.77
 30
0.0
 40
2.5
  0
CIRCLE
  5
11C66
330
11C00
100
AcDbEntity
  8
0
100
AcDbCircle
 10
-30.00000000000003
 20
289.77
 30
0.0
 40
2.5
  0
CIRCLE
  5
11C67
330
11C00
100
AcDbEntity
  8
0
100
AcDbCircle
 10
-30.00000000000003
 20
249.77
 30
0.0
 40
2.5
  0
CIRCLE
  5
11C68
330
11C00
100
AcDbEntity
  8
0
100
AcDbCircle
 10
-30.00000000000003
 20
209.7700000000001
 30
0.0
 40
2.5
  0
CIRCLE
  5
11C69
330
11C00
100
AcDbEntity
  8
0
100
AcDbCircle
 10
-30.00000000000003
 20
169.77
 30
0.0
 40
2.5
  0
CIRCLE
  5
11C6A
330
11C00
100
AcDbEntity
  8
0
100
AcDbCircle
 10
-30.00000000000003
 20
129.77
 30
0.0
 40
2.5
  0
CIRCLE
  5
11C6B
330
11C00
100
AcDbEntity
  8
0
100
AcDbCircle
 10
-30.00000000000003
 20
89.77000000000002
 30
0.0
 40
2.5
  0
CIRCLE
  5
11C6C
330
11C00
100
AcDbEntity
  8
0
100
AcDbCircle
 10
-30.00000000000003
 20
49.77000000000002
 30
0.0
 40
2.5
  0
CIRCLE
  5
11C6D
330
11C00
100
AcDbEntity
  8
0
100
AcDbCircle
 10
-30.00000000000003
 20
9.770000000000019
 30
0.0
 40
2.5
  0
CIRCLE
  5
11C6E
330
11C00
100
AcDbEntity
  8
0
100
AcDbCircle
 10
-53.02709056100005
 20
69.77000000000001
 30
0.0
 40
2.5
  0
CIRCLE
  5
11C6F
330
11C00
100
AcDbEntity
  8
0
100
AcDbCircle
 10
47.02709056099995
 20
69.77000000000001
 30
0.0
 40
2.5
  0
CIRCLE
  5
11C70
330
11C00
100
AcDbEntity
  8
0
100
AcDbCircle
 10
-47.02709056100004
 20
29.77000000000002
 30
0.0
 40
2.5
  0
CIRCLE
  5
11C71
330
11C00
100
AcDbEntity
  8
0
100
AcDbCircle
 10
53.02709056099996
 20
29.77000000000002
 30
0.0
 40
2.5
  0
ELLIPSE
  5
11C72
330
11C00
100
AcDbEntity
  8
0
100
AcDbEllipse
 10
-22.50000000000002
 20
0.0236058844764815
 30
0.0
 11
2.499999999999999
 21
-0.0000000000000006
 31
0.0
210
0.0
220
0.0
230
1.0
 40
0.7071067811865479
 41
3.397965980608285
 42
6.026811980161093
  0
SPLINE
  5
11C73
330
11C00
100
AcDbEntity
  8
0
100
AcDbSpline
210
0.0
220
0.0
230
1.0
 70
     8
 71
     3
 72
     8
 73
     4
 74
     0
 42
0.000000001
 43
0.0000000001
 40
-1.0
 40
-1.0
 40
-1.0
 40
-1.0
 40
0.0
 40
0.0
 40
0.0
 40
0.0
 10
-24.91828991960763
 20
-0.4246540092928796
 30
0.0
 10
-24.99189972302013
 20
-0.3163012038324831
 30
0.0
 10
-25.01609483643936
 20
-0.1581319339738785
 30
0.0
 10
-24.98943351399745
 20
-0.0003899405809506
 30
0.0
  0
SPLINE
  5
11C74
330
11C00
100
AcDbEntity
  8
0
100
AcDbSpline
210
0.0
220
0.0
230
1.0
 70
     8
 71
     3
 72
     8
 73
     4
 74
     0
 42
0.000000001
 43
0.0000000001
 40
-1.0
 40
-1.0
 40
-1.0
 40
-1.0
 40
0.0
 40
0.0
 40
0.0
 40
0.0
 10
-20.01056648600258
 20
-0.0003899405809503
 30
0.0
 10
-19.98390516356067
 20
-0.15813193397387
 30
0.0
 10
-20.00810027697966
 20
-0.3163012038324567
 30
0.0
 10
-20.08171008039241
 20
-0.4246540092928792
 30
0.0
  0
ARC
  5
11C75
330
11C00
100
AcDbEntity
  8
0
100
AcDbCircle
 10
-22.50000000000002
 20
-0.229999999999892
 30
0.0
 40
2.499999999999999
100
AcDbArc
 50
5.269701326162068
 51
174.7302986738379
  0
ELLIPSE
  5
11C76
330
11C00
100
AcDbEntity
  8
0
100
AcDbEllipse
 10
22.49999999999998
 20
0.0236058844764817
 30
0.0
 11
2.5
 21
-0.0000000000000006
 31
0.0
210
0.0
220
0.0
230
1.0
 40
0.7071067811865479
 41
3.397965980608285
 42
6.026811980161093
  0
SPLINE
  5
11C77
330
11C00
100
AcDbEntity
  8
0
100
AcDbSpline
210
0.0
220
0.0
230
1.0
 70
     8
 71
     3
 72
     8
 73
     4
 74
     0
 42
0.000000001
 43
0.0000000001
 40
-1.0
 40
-1.0
 40
-1.0
 40
-1.0
 40
0.0
 40
0.0
 40
0.0
 40
0.0
 10
20.08171008039237
 20
-0.4246540092928796
 30
0.0
 10
20.00810027697974
 20
-0.3163012038324939
 30
0.0
 10
19.98390516356063
 20
-0.1581319339738735
 30
0.0
 10
20.01056648600254
 20
-0.0003899405809504
 30
0.0
  0
SPLINE
  5
11C78
330
11C00
100
AcDbEntity
  8
0
100
AcDbSpline
210
0.0
220
0.0
230
1.0
 70
     8
 71
     3
 72
     8
 73
     4
 74
     0
 42
0.000000001
 43
0.0000000001
 40
-1.0
 40
-1.0
 40
-1.0
 40
-1.0
 40
0.0
 40
0.0
 40
0.0
 40
0.0
 10
24.98943351399742
 20
-0.0003899405809502
 30
0.0
 10
25.01609483643929
 20
-0.1581319339738713
 30
0.0
 10
24.99189972302015
 20
-0.3163012038324384
 30
0.0
 10
24.91828991960759
 20
-0.4246540092928796
 30
0.0
  0
ARC
  5
11C79
330
11C00
100
AcDbEntity
  8
0
100
AcDbCircle
 10
22.49999999999998
 20
-0.229999999999892
 30
0.0
 40
2.5
100
AcDbArc
 50
5.269701326162068
 51
174.7302986738379
  0
SPLINE
  5
11C7A
330
11C00
100
AcDbEntity
  8
0
100
AcDbSpline
210
0.0
220
0.0
230
1.0
 70
     8
 71
     3
 72
     8
 73
     4
 74
     0
 42
0.000000001
 43
0.0000000001
 40
-1.0
 40
-1.0
 40
-1.0
 40
-1.0
 40
0.0
 40
0.0
 40
0.0
 40
0.0
 10
-4.918289920131953
 20
-0.4246540092928794
 30
0.0
 10
-4.991899723307204
 20
-0.3163012038163609
 30
0.0
 10
-5.016094836485419
 20
-0.158131933951481
 30
0.0
 10
-4.989433513812972
 20
-0.0003899405809506
 30
0.0
  0
SPLINE
  5
11C7B
330
11C00
100
AcDbEntity
  8
0
100
AcDbSpline
210
0.0
220
0.0
230
1.0
 70
     8
 71
     3
 72
     8
 73
     4
 74
     0
 42
0.000000001
 43
0.0000000001
 40
-1.0
 40
-1.0
 40
-1.0
 40
-1.0
 40
0.0
 40
0.0
 40
0.0
 40
0.0
 10
4.98943351381294
 20
-0.0003899405809503
 30
0.0
 10
5.016094836485287
 20
-0.1581319339514889
 30
0.0
 10
4.991899723307183
 20
-0.3163012038163565
 30
0.0
 10
4.918289920131898
 20
-0.4246540092928796
 30
0.0
  0
ELLIPSE
  5
11C7C
330
11C00
100
AcDbEntity
  8
0
100
AcDbEllipse
 10
-2.500000000000017
 20
0.0236058830621423
 30
0.0
 11
-2.5
 21
0.0000000000000004
 31
0.0
210
0.0
220
0.0
230
1.0
 40
0.7071067811865479
 41
0.2563733261913885
 42
1.570796326794896
  0
LINE
  5
11C7D
330
11C00
100
AcDbEntity
  8
0
100
AcDbLine
 10
2.499999999999978
 20
-1.744161069904239
 30
0.0
 11
-2.500000000000017
 21
-1.744161069904238
 31
0.0
  0
ELLIPSE
  5
11C7E
330
11C00
100
AcDbEntity
  8
0
100
AcDbEllipse
 10
2.499999999999977
 20
0.0236058830621926
 30
0.0
 11
2.5
 21
-0.0000000000000005
 31
0.0
210
0.0
220
0.0
230
1.0
 40
0.7071067811865479
 41
4.712388980384689
 42
6.026811980988168
  0
ARC
  5
11C7F
330
11C00
100
AcDbEntity
  8
0
100
AcDbCircle
 10
2.499999999999977
 20
-0.2300000019999987
 30
0.0
 40
2.5
100
AcDbArc
 50
5.269701372195669
 51
89.9999999999998
  0
LINE
  5
11C80
330
11C00
100
AcDbEntity
  8
0
100
AcDbLine
 10
-2.500000000000021
 20
2.269999997999859
 30
0.0
 11
2.499999999999987
 21
2.269999997999859
 31
0.0
  0
ARC
  5
11C81
330
11C00
100
AcDbEntity
  8
0
100
AcDbCircle
 10
-2.500000000000017
 20
-0.2300000020000698
 30
0.0
 40
2.5
100
AcDbArc
 50
90.0000000000001
 51
174.7302986278027
  0
ELLIPSE
  5
11C82
330
11C00
100
AcDbEntity
  8
0
100
AcDbEllipse
 10
-39.39999999999999
 20
-54.16476937947049
 30
0.0
 11
-2.100000000000006
 21
0.0000000000000045
 31
0.0
210
0.0
220
0.0
230
1.0
 40
0.7071067811865475
 41
0.0
 42
1.570796326794896
  0
ELLIPSE
  5
11C83
330
11C00
100
AcDbEntity
  8
0
100
AcDbEllipse
 10
-39.39999999999999
 20
-54.16476937947049
 30
0.0
 11
-0.6000000000000089
 21
0.0000000000000355
 31
0.0
210
0.0
220
0.0
230
1.0
 40
0.7071067811865763
 41
0.0000000000001259
 42
1.57079632679499
  0
LINE
  5
11C84
330
11C00
100
AcDbEntity
  8
0
100
AcDbLine
 10
39.39999999999999
 20
360.67
 30
0.0
 11
40.0
 21
360.67
 31
0.0
  0
LINE
  5
11C85
330
11C00
100
AcDbEntity
  8
0
100
AcDbLine
 10
39.39999999999999
 20
80.27000000000001
 30
0.0
 11
40.0
 21
80.27000000000001
 31
0.0
  0
LINE
  5
11C86
330
11C00
100
AcDbEntity
  8
0
100
AcDbLine
 10
-40.00000000000001
 20
360.67
 30
0.0
 11
-39.40000000000002
 21
360.67
 31
0.0
  0
LINE
  5
11C87
330
11C00
100
AcDbEntity
  8
0
100
AcDbLine
 10
-40.00000000000001
 20
80.27000000000001
 30
0.0
 11
-39.40000000000002
 21
80.27000000000001
 31
0.0
  0
ENDBLK
  5
11C02
330
11C00
100
AcDbEntity
  8
0
100
AcDbBlockEnd
  0
BLOCK
  5
11C89
330
11C88
100
AcDbEntity
  8
0
100
AcDbBlockBegin
  2
SPR80_360-Left
 70
     0
 10
0.0
 20
0.0
 30
0.0
  3
SPR80_360-Left
  1

  0
LINE
  5
11C8B
330
11C88
100
AcDbEntity
  8
0
100
AcDbLine
 10
0.0
 20
-0.0003899405809505
 30
0.0
 11
0.0
 21
1.270000000000108
 31
0.0
  0
LINE
  5
11C8C
330
11C88
100
AcDbEntity
  8
0
100
AcDbLine
 10
62.91118318265853
 20
-2.263131642256636
 30
0.0
 11
4.362741700911119
 21
-2.263131641492179
 31
0.0
  0
SPLINE
  5
11C8D
330
11C88
100
AcDbEntity
  8
0
100
AcDbSpline
210
0.0
220
0.0
230
1.0
 70
     8
 71
     3
 72
     8
 73
     4
 74
     0
 42
0.000000001
 43
0.0000000001
 40
-1.0
 40
-1.0
 40
-1.0
 40
-1.0
 40
0.0
 40
0.0
 40
0.0
 40
0.0
 10
1.500000000000019
 20
-0.0003899405809504
 30
0.0
 10
1.500000000000019
 20
-0.1594792109354416
 30
0.0
 10
1.572566966670533
 20
-0.321485044675321
 30
0.0
 10
1.675735931288091
 20
-0.4246540092928796
 30
0.0
  0
SPLINE
  5
11C8E
330
11C88
100
AcDbEntity
  8
0
100
AcDbSpline
210
0.0
220
0.0
230
1.0
 70
     8
 71
     3
 72
     8
 73
     4
 74
     0
 42
0.000000001
 43
0.0000000001
 40
0.0
 40
0.0
 40
0.0
 40
0.0
 40
1.0
 40
1.0
 40
1.0
 40
1.0
 10
0.61507575950827
 20
-1.485314181072701
 30
0.0
 10
0.2539843833468153
 20
-1.124222804911246
 30
0.0
 10
0.0000000000000196
 20
-0.5572023868216692
 30
0.0
 10
0.0000000000000198
 20
-0.0003899405809502
 30
0.0
  0
LINE
  5
11C8F
330
11C88
100
AcDbEntity
  8
0
100
AcDbLine
 10
1.675735931288086
 20
-0.4246540092928742
 30
0.0
 11
2.288136209298552
 21
-1.03705428730334
 31
0.0
  0
LINE
  5
11C90
330
11C88
100
AcDbEntity
  8
0
100
AcDbLine
 10
2.288136209298538
 20
-1.037054287303334
 30
0.0
 11
2.717240184541075
 21
-1.466158262545871
 31
0.0
  0
SPLINE
  5
11C91
330
11C88
100
AcDbEntity
  8
0
100
AcDbSpline
210
0.0
220
0.0
230
1.0
 70
     8
 71
     3
 72
     8
 73
     4
 74
     0
 42
0.000000001
 43
0.0000000001
 40
-1.0
 40
-1.0
 40
-1.0
 40
-1.0
 40
0.0
 40
0.0
 40
0.0
 40
0.0
 10
2.717240184541074
 20
-1.466158262545859
 30
0.0
 10
3.124319333760308
 20
-1.873237411765094
 30
0.0
 10
3.733518404784347
 20
-2.078196639181149
 30
0.0
 10
4.36274170091115
 20
-2.263131641492097
 30
0.0
  0
LINE
  5
11C92
330
11C88
100
AcDbEntity
  8
0
100
AcDbLine
 10
2.717240184541075
 20
-1.466158262545871
 30
0.0
 11
2.364040347338709
 21
-1.819358099748237
 31
0.0
  0
LINE
  5
11C93
330
11C88
100
AcDbEntity
  8
0
100
AcDbLine
 10
2.364040347338709
 20
-1.819358099748237
 30
0.0
 11
1.656580012761253
 21
-2.526818434325692
 31
0.0
  0
SPLINE
  5
11C94
330
11C88
100
AcDbEntity
  8
0
100
AcDbSpline
210
0.0
220
0.0
230
1.0
 70
     8
 71
     3
 72
     8
 73
     4
 74
     0
 42
0.000000001
 43
0.0000000001
 40
0.0
 40
0.0
 40
0.0
 40
0.0
 40
1.0
 40
1.0
 40
1.0
 40
1.0
 10
4.362741700911096
 20
-2.263131641492152
 30
0.0
 10
3.178158037514493
 20
-2.633557006451003
 30
0.0
 10
2.063659161980485
 20
-2.933897583544917
 30
0.0
 10
1.656580012761252
 20
-2.52681843432568
 30
0.0
  0
LINE
  5
11C95
330
11C88
100
AcDbEntity
  8
0
100
AcDbLine
 10
1.656580012761253
 20
-2.526818434325692
 30
0.0
 11
1.227476037518718
 21
-2.097714459083153
 31
0.0
  0
LINE
  5
11C96
330
11C88
100
AcDbEntity
  8
0
100
AcDbLine
 10
2.288136209298538
 20
-1.037054287303334
 30
0.0
 11
1.227476037518718
 21
-2.097714459083153
 31
0.0
  0
LINE
  5
11C97
330
11C88
100
AcDbEntity
  8
0
100
AcDbLine
 10
1.227476037518744
 20
-2.097714459083146
 30
0.0
 11
0.6150757595082796
 21
-1.485314181072681
 31
0.0
  0
LINE
  5
11C98
330
11C88
100
AcDbEntity
  8
0
100
AcDbLine
 10
1.675735931288091
 20
-0.4246540092928796
 30
0.0
 11
1.32253609281094
 21
-0.7778538477700304
 31
0.0
  0
LINE
  5
11C99
330
11C88
100
AcDbEntity
  8
0
100
AcDbLine
 10
1.32253609281094
 20
-0.7778538477700304
 30
0.0
 11
0.6150757595082701
 21
-1.485314181072701
 31
0.0
  0
LINE
  5
11C9A
330
11C88
100
AcDbEntity
  8
0
100
AcDbLine
 10
1.500000000000012
 20
-0.0003899405809504
 30
0.0
 11
1.000499995436689
 21
-0.0003899405809504
 31
0.0
  0
LINE
  5
11C9B
330
11C88
100
AcDbEntity
  8
0
100
AcDbLine
 10
1.000499995436689
 20
-0.0003899405809504
 30
0.0
 11
0.0
 21
-0.0003899405809504
 31
0.0
  0
LINE
  5
11C9C
330
11C88
100
AcDbEntity
  8
0
100
AcDbLine
 10
1.500000000000003
 20
1.270000000000108
 30
0.0
 11
1.500000000000002
 21
-0.0003899405809504
 31
0.0
  0
LINE
  5
11C9D
330
11C88
100
AcDbEntity
  8
0
100
AcDbLine
 10
0.0
 20
6.269999999999997
 30
0.0
 11
0.0
 21
1.269999999999995
 31
0.0
  0
LINE
  5
11C9E
330
11C88
100
AcDbEntity
  8
0
100
AcDbLine
 10
0.0
 20
77.27
 30
0.0
 11
0.0
 21
72.27
 31
0.0
  0
LINE
  5
11C9F
330
11C88
100
AcDbEntity
  8
0
100
AcDbLine
 10
1.50000000000003
 20
1.269999999999996
 30
0.0
 11
1.500000000000033
 21
6.269999999999997
 31
0.0
  0
LINE
  5
11CA0
330
11C88
100
AcDbEntity
  8
0
100
AcDbLine
 10
1.500000000000033
 20
6.269999999999997
 30
0.0
 11
0.0
 21
6.269999999999997
 31
0.0
  0
LINE
  5
11CA1
330
11C88
100
AcDbEntity
  8
0
100
AcDbLine
 10
0.0
 20
1.269999999999996
 30
0.0
 11
1.50000000000003
 21
1.269999999999996
 31
0.0
  0
LINE
  5
11CA2
330
11C88
100
AcDbEntity
  8
0
100
AcDbLine
 10
0.0
 20
72.27
 30
0.0
 11
1.500000000000033
 21
72.27
 31
0.0
  0
LINE
  5
11CA3
330
11C88
100
AcDbEntity
  8
0
100
AcDbLine
 10
1.500000000000033
 20
72.27
 30
0.0
 11
1.50000000000003
 21
77.27
 31
0.0
  0
LINE
  5
11CA4
330
11C88
100
AcDbEntity
  8
0
100
AcDbLine
 10
1.50000000000003
 20
77.27
 30
0.0
 11
0.0
 21
77.27
 31
0.0
  0
LINE
  5
11CA5
330
11C88
100
AcDbEntity
  8
0
100
AcDbLine
 10
0.0
 20
6.269999999999997
 30
0.0
 11
0.0
 21
72.27
 31
0.0
  0
LINE
  5
11CA6
330
11C88
100
AcDbEntity
  8
0
100
AcDbLine
 10
0.0
 20
77.27
 30
0.0
 11
0.0
 21
80.26999999999999
 31
0.0
  0
LINE
  5
11CA7
330
11C88
100
AcDbEntity
  8
0
100
AcDbLine
 10
1.500000000000033
 20
6.269999999999997
 30
0.0
 11
1.500000000000033
 21
72.27
 31
0.0
  0
LINE
  5
11CA8
330
11C88
100
AcDbEntity
  8
0
100
AcDbLine
 10
1.500000000000009
 20
77.27
 30
0.0
 11
1.500000000000009
 21
80.26999999999999
 31
0.0
  0
LINE
  5
11CA9
330
11C88
100
AcDbEntity
  8
0
100
AcDbLine
 10
0.0
 20
80.27000000000001
 30
0.0
 11
0.0
 21
360.67
 31
0.0
  0
LINE
  5
11CAA
330
11C88
100
AcDbEntity
  8
0
100
AcDbLine
 10
2.100000000000008
 20
360.67
 30
0.0
 11
0.0
 21
360.67
 31
0.0
  0
LINE
  5
11CAB
330
11C88
100
AcDbEntity
  8
0
100
AcDbLine
 10
0.0
 20
80.27000000000001
 30
0.0
 11
2.1
 21
80.27000000000001
 31
0.0
  0
LINE
  5
11CAC
330
11C88
100
AcDbEntity
  8
0
100
AcDbLine
 10
43.50000000000001
 20
85.27000000000001
 30
0.0
 11
38.50000000000001
 21
80.27000000000001
 31
0.0
  0
LINE
  5
11CAD
330
11C88
100
AcDbEntity
  8
0
100
AcDbLine
 10
38.50000000000001
 20
360.67
 30
0.0
 11
43.50000000000001
 21
355.67
 31
0.0
  0
LINE
  5
11CAE
330
11C88
100
AcDbEntity
  8
0
100
AcDbLine
 10
82.00306627386
 20
-21.35501473263463
 30
0.0
 11
82.00306627386
 21
-28.42608254450008
 31
0.0
  0
CIRCLE
  5
11CAF
330
11C88
100
AcDbEntity
  8
0
100
AcDbCircle
 10
35.50000000000002
 20
347.7699999999999
 30
0.0
 40
2.5
  0
CIRCLE
  5
11CB0
330
11C88
100
AcDbEntity
  8
0
100
AcDbCircle
 10
35.50000000000002
 20
327.7699999999999
 30
0.0
 40
2.5
  0
CIRCLE
  5
11CB1
330
11C88
100
AcDbEntity
  8
0
100
AcDbCircle
 10
35.50000000000002
 20
307.77
 30
0.0
 40
2.5
  0
CIRCLE
  5
11CB2
330
11C88
100
AcDbEntity
  8
0
100
AcDbCircle
 10
35.50000000000002
 20
287.77
 30
0.0
 40
2.5
  0
CIRCLE
  5
11CB3
330
11C88
100
AcDbEntity
  8
0
100
AcDbCircle
 10
35.50000000000002
 20
267.77
 30
0.0
 40
2.5
  0
CIRCLE
  5
11CB4
330
11C88
100
AcDbEntity
  8
0
100
AcDbCircle
 10
35.50000000000002
 20
247.77
 30
0.0
 40
2.5
  0
CIRCLE
  5
11CB5
330
11C88
100
AcDbEntity
  8
0
100
AcDbCircle
 10
35.50000000000002
 20
227.77
 30
0.0
 40
2.5
  0
CIRCLE
  5
11CB6
330
11C88
100
AcDbEntity
  8
0
100
AcDbCircle
 10
35.50000000000002
 20
207.77
 30
0.0
 40
2.5
  0
CIRCLE
  5
11CB7
330
11C88
100
AcDbEntity
  8
0
100
AcDbCircle
 10
35.50000000000002
 20
187.77
 30
0.0
 40
2.5
  0
CIRCLE
  5
11CB8
330
11C88
100
AcDbEntity
  8
0
100
AcDbCircle
 10
35.50000000000002
 20
167.7699999999999
 30
0.0
 40
2.5
  0
CIRCLE
  5
11CB9
330
11C88
100
AcDbEntity
  8
0
100
AcDbCircle
 10
35.50000000000002
 20
147.77
 30
0.0
 40
2.5
  0
CIRCLE
  5
11CBA
330
11C88
100
AcDbEntity
  8
0
100
AcDbCircle
 10
35.50000000000002
 20
127.77
 30
0.0
 40
2.5
  0
CIRCLE
  5
11CBB
330
11C88
100
AcDbEntity
  8
0
100
AcDbCircle
 10
35.50000000000002
 20
107.77
 30
0.0
 40
2.5
  0
CIRCLE
  5
11CBC
330
11C88
100
AcDbEntity
  8
0
100
AcDbCircle
 10
35.50000000000002
 20
87.76999999999999
 30
0.0
 40
2.5
  0
LINE
  5
11CBD
330
11C88
100
AcDbEntity
  8
0
100
AcDbLine
 10
43.50000000000001
 20
355.67
 30
0.0
 11
43.50000000000001
 21
85.27000000000001
 31
0.0
  0
LINE
  5
11CBE
330
11C88
100
AcDbEntity
  8
0
100
AcDbLine
 10
2.100000000000008
 20
360.67
 30
0.0
 11
38.50000000000001
 21
360.67
 31
0.0
  0
LINE
  5
11CBF
330
11C88
100
AcDbEntity
  8
0
100
AcDbLine
 10
38.50000000000001
 20
80.27000000000001
 30
0.0
 11
2.099999999999999
 21
80.27000000000001
 31
0.0
  0
LINE
  5
11CC0
330
11C88
100
AcDbEntity
  8
0
100
AcDbLine
 10
82.00306627386
 20
-28.42608254450008
 30
0.0
 11
56.26437943888952
 21
-54.16476937947052
 31
0.0
  0
LINE
  5
11CC1
330
11C88
100
AcDbEntity
  8
0
100
AcDbLine
 10
62.91118318265853
 20
-2.263131642256636
 30
0.0
 11
82.00306627386
 21
-21.35501473263463
 31
0.0
  0
CIRCLE
  5
11CC2
330
11C88
100
AcDbEntity
  8
0
100
AcDbCircle
 10
74.57844507130477
 20
-25.24410202925711
 30
0.0
 40
2.5
  0
ARC
  5
11CC3
330
11C88
100
AcDbEntity
  8
0
100
AcDbCircle
 10
59.31559010709463
 20
-13.990452698916
 30
0.0
 40
0.8000000000000012
100
AcDbArc
 50
315.000000001042
 51
75.00000000104186
  0
LINE
  5
11CC4
330
11C88
100
AcDbEntity
  8
0
100
AcDbLine
 10
59.88127553205416
 20
-14.55613812385494
 30
0.0
 11
56.81941335363088
 21
-17.61800030238964
 31
0.0
  0
ARC
  5
11CC5
330
11C88
100
AcDbEntity
  8
0
100
AcDbCircle
 10
56.25372792867135
 20
-17.0523148774507
 30
0.0
 40
0.8
100
AcDbArc
 50
195.0000000010428
 51
315.0000000010428
  0
LINE
  5
11CC6
330
11C88
100
AcDbEntity
  8
0
100
AcDbLine
 10
55.48098726764387
 20
-17.25937011354677
 30
0.0
 11
54.36026792735771
 21
-13.07678859487811
 31
0.0
  0
ARC
  5
11CC7
330
11C88
100
AcDbEntity
  8
0
100
AcDbCircle
 10
55.13300858838519
 20
-12.86973335878203
 30
0.0
 40
0.8000000000000014
100
AcDbArc
 50
75.00000000104188
 51
195.0000000010427
  0
LINE
  5
11CC8
330
11C88
100
AcDbEntity
  8
0
100
AcDbLine
 10
55.34006382445316
 20
-12.096992697747
 30
0.0
 11
59.5226453431626
 21
-13.21771203788096
 31
0.0
  0
LINE
  5
11CC9
330
11C88
100
AcDbEntity
  8
0
100
AcDbLine
 10
55.28251771018368
 20
-12.08382813389861
 30
0.0
 11
54.3471033635072
 21
-13.01924248060914
 31
0.0
  0
LINE
  5
11CCA
330
11C88
100
AcDbEntity
  8
0
100
AcDbLine
 10
54.77945519839778
 20
-55.64969361996226
 30
0.0
 11
1.656580012761255
 21
-2.52681843432569
 31
0.0
  0
LINE
  5
11CCB
330
11C88
100
AcDbEntity
  8
0
100
AcDbLine
 10
56.26437943888959
 20
-54.16476937947045
 30
0.0
 11
54.77945519839779
 21
-55.64969361996225
 31
0.0
  0
ENDBLK
  5
11C8A
330
11C88
100
AcDbEntity
  8
0
100
AcDbBlockEnd
  0
BLOCK
  5
11CCD
330
11CCC
100
AcDbEntity
  8
0
100
AcDbBlockBegin
  2
SPR80_360-Right
 70
     0
 10
0.0
 20
0.0
 30
0.0
  3
SPR80_360-Right
  1

  0
LINE
  5
11CCF
330
11CCC
100
AcDbEntity
  8
0
100
AcDbLine
 10
-1.499999999999949
 20
6.269999999999996
 30
0.0
 11
-1.499999999999952
 21
1.269999999999996
 31
0.0
  0
LINE
  5
11CD0
330
11CCC
100
AcDbEntity
  8
0
100
AcDbLine
 10
-1.499999999999952
 20
1.269999999999996
 30
0.0
 11
0.0
 21
1.269999999999987
 31
0.0
  0
LINE
  5
11CD1
330
11CCC
100
AcDbEntity
  8
0
100
AcDbLine
 10
0.0
 20
1.269999999999987
 30
0.0
 11
0.0
 21
6.269999999999996
 31
0.0
  0
LINE
  5
11CD2
330
11CCC
100
AcDbEntity
  8
0
100
AcDbLine
 10
0.0
 20
6.269999999999996
 30
0.0
 11
-1.499999999999949
 21
6.269999999999996
 31
0.0
  0
LINE
  5
11CD3
330
11CCC
100
AcDbEntity
  8
0
100
AcDbLine
 10
-1.499999999999949
 20
72.27000000000001
 30
0.0
 11
0.0
 21
72.27000000000001
 31
0.0
  0
LINE
  5
11CD4
330
11CCC
100
AcDbEntity
  8
0
100
AcDbLine
 10
0.0
 20
72.27000000000001
 30
0.0
 11
0.0
 21
77.27000000000001
 31
0.0
  0
LINE
  5
11CD5
330
11CCC
100
AcDbEntity
  8
0
100
AcDbLine
 10
-1.499999999999952
 20
77.27000000000001
 30
0.0
 11
-1.499999999999949
 21
72.27000000000001
 31
0.0
  0
LINE
  5
11CD6
330
11CCC
100
AcDbEntity
  8
0
100
AcDbLine
 10
0.0
 20
77.27000000000001
 30
0.0
 11
-1.499999999999952
 21
77.27000000000001
 31
0.0
  0
LINE
  5
11CD7
330
11CCC
100
AcDbEntity
  8
0
100
AcDbLine
 10
0.0
 20
72.27000000000001
 30
0.0
 11
0.0
 21
6.269999999999997
 31
0.0
  0
LINE
  5
11CD8
330
11CCC
100
AcDbEntity
  8
0
100
AcDbLine
 10
-1.499999999999949
 20
72.27000000000001
 30
0.0
 11
-1.499999999999949
 21
6.269999999999997
 31
0.0
  0
LINE
  5
11CD9
330
11CCC
100
AcDbEntity
  8
0
100
AcDbLine
 10
0.0
 20
80.27000000000001
 30
0.0
 11
0.0
 21
77.27000000000001
 31
0.0
  0
LINE
  5
11CDA
330
11CCC
100
AcDbEntity
  8
0
100
AcDbLine
 10
-1.499999999999972
 20
80.27000000000001
 30
0.0
 11
-1.499999999999972
 21
77.27000000000001
 31
0.0
  0
LINE
  5
11CDB
330
11CCC
100
AcDbEntity
  8
0
100
AcDbLine
 10
0.0
 20
1.270000000000108
 30
0.0
 11
0.0
 21
-0.0003899405809504
 31
0.0
  0
LINE
  5
11CDC
330
11CCC
100
AcDbEntity
  8
0
100
AcDbLine
 10
-4.362741700911018
 20
-2.263131641492283
 30
0.0
 11
-62.91118318265851
 21
-2.263131642256641
 31
0.0
  0
SPLINE
  5
11CDD
330
11CCC
100
AcDbEntity
  8
0
100
AcDbSpline
210
0.0
220
0.0
230
1.0
 70
     8
 71
     3
 72
     8
 73
     4
 74
     0
 42
0.000000001
 43
0.0000000001
 40
-1.0
 40
-1.0
 40
-1.0
 40
-1.0
 40
0.0
 40
0.0
 40
0.0
 40
0.0
 10
-1.675735931288075
 20
-0.4246540092928794
 30
0.0
 10
-1.57256696667051
 20
-0.3214850446753142
 30
0.0
 10
-1.500000000000004
 20
-0.1594792109354447
 30
0.0
 10
-1.500000000000004
 20
-0.0003899405809504
 30
0.0
  0
SPLINE
  5
11CDE
330
11CCC
100
AcDbEntity
  8
0
100
AcDbSpline
210
0.0
220
0.0
230
1.0
 70
     8
 71
     3
 72
     8
 73
     4
 74
     0
 42
0.000000001
 43
0.0000000001
 40
0.0
 40
0.0
 40
0.0
 40
0.0
 40
1.0
 40
1.0
 40
1.0
 40
1.0
 10
-0.0000000000000041
 20
-0.0003899405809502
 30
0.0
 10
-0.000000000000004
 20
-0.5572023868216798
 30
0.0
 10
-0.2539843833467763
 20
-1.124222804911223
 30
0.0
 10
-0.6150757595082541
 20
-1.4853141810727
 30
0.0
  0
LINE
  5
11CDF
330
11CCC
100
AcDbEntity
  8
0
100
AcDbLine
 10
-2.717240184541045
 20
-1.46615826254589
 30
0.0
 11
-2.288136209298505
 21
-1.037054287303349
 31
0.0
  0
LINE
  5
11CE0
330
11CCC
100
AcDbEntity
  8
0
100
AcDbLine
 10
-2.288136209298535
 20
-1.03705428730334
 30
0.0
 11
-1.675735931288072
 21
-0.4246540092928758
 31
0.0
  0
LINE
  5
11CE1
330
11CCC
100
AcDbEntity
  8
0
100
AcDbLine
 10
-2.717240184541045
 20
-1.46615826254589
 30
0.0
 11
-2.364040347338129
 21
-1.819358099748805
 31
0.0
  0
SPLINE
  5
11CE2
330
11CCC
100
AcDbEntity
  8
0
100
AcDbSpline
210
0.0
220
0.0
230
1.0
 70
     8
 71
     3
 72
     8
 73
     4
 74
     0
 42
0.000000001
 43
0.0000000001
 40
-1.0
 40
-1.0
 40
-1.0
 40
-1.0
 40
0.0
 40
0.0
 40
0.0
 40
0.0
 10
-4.362741700911163
 20
-2.263131641492123
 30
0.0
 10
-3.733518404784005
 20
-2.078196639180831
 30
0.0
 10
-3.124319333760565
 20
-1.873237411765378
 30
0.0
 10
-2.717240184541047
 20
-1.466158262545859
 30
0.0
  0
SPLINE
  5
11CE3
330
11CCC
100
AcDbEntity
  8
0
100
AcDbSpline
210
0.0
220
0.0
230
1.0
 70
     8
 71
     3
 72
     8
 73
     4
 74
     0
 42
0.000000001
 43
0.0000000001
 40
0.0
 40
0.0
 40
0.0
 40
0.0
 40
1.0
 40
1.0
 40
1.0
 40
1.0
 10
-1.656580012761225
 20
-2.52681843432568
 30
0.0
 10
-2.06365916198074
 20
-2.933897583545202
 30
0.0
 10
-3.178158037514101
 20
-2.633557006450735
 30
0.0
 10
-4.362741700911022
 20
-2.263131641492264
 30
0.0
  0
LINE
  5
11CE4
330
11CCC
100
AcDbEntity
  8
0
100
AcDbLine
 10
-2.364040347338129
 20
-1.819358099748805
 30
0.0
 11
-1.656580012761225
 21
-2.52681843432571
 31
0.0
  0
LINE
  5
11CE5
330
11CCC
100
AcDbEntity
  8
0
100
AcDbLine
 10
-0.6150757595082662
 20
-1.485314181072681
 30
0.0
 11
-1.227476037518729
 21
-2.097714459083146
 31
0.0
  0
LINE
  5
11CE6
330
11CCC
100
AcDbEntity
  8
0
100
AcDbLine
 10
-0.6150757595082541
 20
-1.4853141810727
 30
0.0
 11
-1.322536092809332
 21
-0.7778538477716226
 31
0.0
  0
LINE
  5
11CE7
330
11CCC
100
AcDbEntity
  8
0
100
AcDbLine
 10
-1.322536092809332
 20
-0.7778538477716226
 30
0.0
 11
-1.675735931288075
 21
-0.4246540092928793
 31
0.0
  0
LINE
  5
11CE8
330
11CCC
100
AcDbEntity
  8
0
100
AcDbLine
 10
-2.288136209298505
 20
-1.037054287303349
 30
0.0
 11
-1.227476037518692
 21
-2.097714459083162
 31
0.0
  0
LINE
  5
11CE9
330
11CCC
100
AcDbEntity
  8
0
100
AcDbLine
 10
-1.227476037518692
 20
-2.097714459083162
 30
0.0
 11
-1.656580012761225
 21
-2.52681843432571
 31
0.0
  0
LINE
  5
11CEA
330
11CCC
100
AcDbEntity
  8
0
100
AcDbLine
 10
-1.499999999999977
 20
-0.0003899405809504
 30
0.0
 11
-1.000499995435046
 21
-0.0003899405809504
 31
0.0
  0
LINE
  5
11CEB
330
11CCC
100
AcDbEntity
  8
0
100
AcDbLine
 10
-1.000499995435046
 20
-0.0003899405809504
 30
0.0
 11
0.0
 21
-0.0003899405809504
 31
0.0
  0
LINE
  5
11CEC
330
11CCC
100
AcDbEntity
  8
0
100
AcDbLine
 10
-1.499999999999987
 20
-0.0003899405809505
 30
0.0
 11
-1.499999999999986
 21
1.270000000000108
 31
0.0
  0
LINE
  5
11CED
330
11CCC
100
AcDbEntity
  8
0
100
AcDbLine
 10
0.0
 20
80.27000000000001
 30
0.0
 11
0.0
 21
360.67
 31
0.0
  0
LINE
  5
11CEE
330
11CCC
100
AcDbEntity
  8
0
100
AcDbLine
 10
0.0
 20
360.67
 30
0.0
 11
-2.099999999999945
 21
360.67
 31
0.0
  0
LINE
  5
11CEF
330
11CCC
100
AcDbEntity
  8
0
100
AcDbLine
 10
-2.099999999999963
 20
80.27000000000001
 30
0.0
 11
0.0
 21
80.27000000000001
 31
0.0
  0
LINE
  5
11CF0
330
11CCC
100
AcDbEntity
  8
0
100
AcDbLine
 10
-38.49999999999996
 20
80.27000000000001
 30
0.0
 11
-43.49999999999996
 21
85.27000000000001
 31
0.0
  0
LINE
  5
11CF1
330
11CCC
100
AcDbEntity
  8
0
100
AcDbLine
 10
-43.49999999999996
 20
355.67
 30
0.0
 11
-38.49999999999995
 21
360.67
 31
0.0
  0
LINE
  5
11CF2
330
11CCC
100
AcDbEntity
  8
0
100
AcDbLine
 10
-82.00306627385996
 20
-28.42608254450009
 30
0.0
 11
-82.00306627385998
 21
-21.35501473263464
 31
0.0
  0
LINE
  5
11CF3
330
11CCC
100
AcDbEntity
  8
0
100
AcDbLine
 10
-43.49999999999996
 20
85.27000000000001
 30
0.0
 11
-43.49999999999996
 21
355.67
 31
0.0
  0
LINE
  5
11CF4
330
11CCC
100
AcDbEntity
  8
0
100
AcDbLine
 10
-2.099999999999963
 20
80.27000000000001
 30
0.0
 11
-38.49999999999996
 21
80.27000000000001
 31
0.0
  0
LINE
  5
11CF5
330
11CCC
100
AcDbEntity
  8
0
100
AcDbLine
 10
-38.49999999999995
 20
360.67
 30
0.0
 11
-2.099999999999946
 21
360.67
 31
0.0
  0
CIRCLE
  5
11CF6
330
11CCC
100
AcDbEntity
  8
0
100
AcDbCircle
 10
-35.5
 20
352.7699999999999
 30
0.0
 40
2.5
  0
CIRCLE
  5
11CF7
330
11CCC
100
AcDbEntity
  8
0
100
AcDbCircle
 10
-35.5
 20
332.7699999999999
 30
0.0
 40
2.5
  0
CIRCLE
  5
11CF8
330
11CCC
100
AcDbEntity
  8
0
100
AcDbCircle
 10
-35.5
 20
312.77
 30
0.0
 40
2.5
  0
CIRCLE
  5
11CF9
330
11CCC
100
AcDbEntity
  8
0
100
AcDbCircle
 10
-35.5
 20
292.77
 30
0.0
 40
2.5
  0
CIRCLE
  5
11CFA
330
11CCC
100
AcDbEntity
  8
0
100
AcDbCircle
 10
-35.5
 20
272.77
 30
0.0
 40
2.5
  0
CIRCLE
  5
11CFB
330
11CCC
100
AcDbEntity
  8
0
100
AcDbCircle
 10
-35.5
 20
252.77
 30
0.0
 40
2.5
  0
CIRCLE
  5
11CFC
330
11CCC
100
AcDbEntity
  8
0
100
AcDbCircle
 10
-35.5
 20
232.77
 30
0.0
 40
2.5
  0
CIRCLE
  5
11CFD
330
11CCC
100
AcDbEntity
  8
0
100
AcDbCircle
 10
-35.5
 20
212.77
 30
0.0
 40
2.5
  0
CIRCLE
  5
11CFE
330
11CCC
100
AcDbEntity
  8
0
100
AcDbCircle
 10
-35.5
 20
192.77
 30
0.0
 40
2.5
  0
CIRCLE
  5
11CFF
330
11CCC
100
AcDbEntity
  8
0
100
AcDbCircle
 10
-35.5
 20
172.77
 30
0.0
 40
2.5
  0
CIRCLE
  5
11D00
330
11CCC
100
AcDbEntity
  8
0
100
AcDbCircle
 10
-35.5
 20
152.77
 30
0.0
 40
2.5
  0
CIRCLE
  5
11D01
330
11CCC
100
AcDbEntity
  8
0
100
AcDbCircle
 10
-35.5
 20
132.77
 30
0.0
 40
2.5
  0
CIRCLE
  5
11D02
330
11CCC
100
AcDbEntity
  8
0
100
AcDbCircle
 10
-35.5
 20
112.77
 30
0.0
 40
2.5
  0
CIRCLE
  5
11D03
330
11CCC
100
AcDbEntity
  8
0
100
AcDbCircle
 10
-35.5
 20
92.76999999999999
 30
0.0
 40
2.5
  0
LINE
  5
11D04
330
11CCC
100
AcDbEntity
  8
0
100
AcDbLine
 10
-62.91118318265851
 20
-2.263131642256641
 30
0.0
 11
-82.00306627385998
 21
-21.35501473263464
 31
0.0
  0
LINE
  5
11D05
330
11CCC
100
AcDbEntity
  8
0
100
AcDbLine
 10
-1.656580012761225
 20
-2.52681843432571
 30
0.0
 11
-54.77945519839777
 21
-55.64969361996226
 31
0.0
  0
LINE
  5
11D06
330
11CCC
100
AcDbEntity
  8
0
100
AcDbLine
 10
-54.77945519839775
 20
-55.64969361996226
 30
0.0
 11
-56.26437943888953
 21
-54.16476937947054
 31
0.0
  0
LINE
  5
11D07
330
11CCC
100
AcDbEntity
  8
0
100
AcDbLine
 10
-56.26437943888952
 20
-54.16476937947052
 30
0.0
 11
-82.00306627385996
 21
-28.42608254450009
 31
0.0
  0
CIRCLE
  5
11D08
330
11CCC
100
AcDbEntity
  8
0
100
AcDbCircle
 10
-71.04291116530767
 20
-21.70856812338872
 30
0.0
 40
2.5
  0
ARC
  5
11D09
330
11CCC
100
AcDbEntity
  8
0
100
AcDbCircle
 10
-51.59747468238809
 20
-9.33419945291363
 30
0.0
 40
0.8000000000000015
100
AcDbArc
 50
344.9999999989572
 51
355.4526675359234
  0
LINE
  5
11D0A
330
11CCC
100
AcDbEntity
  8
0
100
AcDbLine
 10
-50.82473402136063
 20
-9.541254689009706
 30
0.0
 11
-51.94545336164679
 21
-13.72383620767836
 31
0.0
  0
ARC
  5
11D0B
330
11CCC
100
AcDbEntity
  8
0
100
AcDbCircle
 10
-52.71819402267426
 20
-13.51678097158229
 30
0.0
 40
0.8
100
AcDbArc
 50
224.9999999989572
 51
344.9999999989576
  0
LINE
  5
11D0C
330
11CCC
100
AcDbEntity
  8
0
100
AcDbLine
 10
-53.28387944763379
 20
-14.08246639652124
 30
0.0
 11
-56.34574162605708
 21
-11.02060421798654
 31
0.0
  0
ARC
  5
11D0D
330
11CCC
100
AcDbEntity
  8
0
100
AcDbCircle
 10
-55.78005620109753
 20
-10.45491879304759
 30
0.0
 40
0.8000000000000014
100
AcDbArc
 50
104.9999999989575
 51
224.9999999989572
  0
LINE
  5
11D0E
330
11CCC
100
AcDbEntity
  8
0
100
AcDbLine
 10
-55.9871114371655
 20
-9.682178132012559
 30
0.0
 11
-51.80452991845606
 21
-8.561458791878598
 31
0.0
  0
ARC
  5
11D0F
330
11CCC
100
AcDbEntity
  8
0
100
AcDbCircle
 10
-51.59747468238809
 20
-9.33419945291363
 30
0.0
 40
0.8000000000000014
100
AcDbArc
 50
49.59733246198601
 51
104.9999999989581
  0
LINE
  5
11D10
330
11CCC
100
AcDbEntity
  8
0
100
AcDbLine
 10
-51.07895039795263
 20
-8.724992947325674
 30
0.0
 11
-50.79999294004348
 21
-9.397625556585486
 31
0.0
  0
ARC
  5
11D11
330
11CCC
100
AcDbEntity
  8
0
100
AcDbCircle
 10
-55.13300858838519
 20
-12.86973335878203
 30
0.0
 40
0.8000000000000015
100
AcDbArc
 50
349.2288663267692
 51
100.7711336711455
  0
ENDBLK
  5
11CCE
330
11CCC
100
AcDbEntity
  8
0
100
AcDbBlockEnd
  0
BLOCK
  5
11D13
330
11D12
100
AcDbEntity
  8
0
100
AcDbBlockBegin
  2
SPR80_360-Top
 70
     0
 10
0.0
 20
0.0
 30
0.0
  3
SPR80_360-Top
  1

  0
LINE
  5
11D15
330
11D12
100
AcDbEntity
  8
0
100
AcDbLine
 10
82.52709056099996
 20
-1.499999999999949
 30
0.0
 11
82.52709056099996
 21
0.0
 31
0.0
  0
LINE
  5
11D16
330
11D12
100
AcDbEntity
  8
0
100
AcDbLine
 10
-77.52709056100001
 20
0.0
 30
0.0
 11
-82.52709056100004
 21
0.0
 31
0.0
  0
LINE
  5
11D17
330
11D12
100
AcDbEntity
  8
0
100
AcDbLine
 10
82.52709056099996
 20
0.0
 30
0.0
 11
77.52709056099996
 21
0.0
 31
0.0
  0
LINE
  5
11D18
330
11D12
100
AcDbEntity
  8
0
100
AcDbLine
 10
-82.52709056100004
 20
0.0
 30
0.0
 11
-82.52709056100004
 21
-1.500000000000032
 31
0.0
  0
LINE
  5
11D19
330
11D12
100
AcDbEntity
  8
0
100
AcDbLine
 10
-82.52709056100004
 20
-1.500000000000032
 30
0.0
 11
-77.52709056100001
 21
-1.50000000000003
 31
0.0
  0
LINE
  5
11D1A
330
11D12
100
AcDbEntity
  8
0
100
AcDbLine
 10
-77.52709056100001
 20
-1.50000000000003
 30
0.0
 11
-77.52709056100001
 21
0.0
 31
0.0
  0
LINE
  5
11D1B
330
11D12
100
AcDbEntity
  8
0
100
AcDbLine
 10
77.52709056099996
 20
-1.499999999999952
 30
0.0
 11
82.52709056099996
 21
-1.499999999999949
 31
0.0
  0
LINE
  5
11D1C
330
11D12
100
AcDbEntity
  8
0
100
AcDbLine
 10
77.52709056099996
 20
0.0
 30
0.0
 11
77.52709056099996
 21
-1.499999999999952
 31
0.0
  0
LINE
  5
11D1D
330
11D12
100
AcDbEntity
  8
0
100
AcDbLine
 10
-77.52709056100001
 20
0.0
 30
0.0
 11
-39.40000000000003
 21
0.0
 31
0.0
  0
LINE
  5
11D1E
330
11D12
100
AcDbEntity
  8
0
100
AcDbLine
 10
39.39999999999999
 20
0.0
 30
0.0
 11
77.52709056099996
 21
0.0
 31
0.0
  0
LINE
  5
11D1F
330
11D12
100
AcDbEntity
  8
0
100
AcDbLine
 10
41.41246117974981
 20
-1.49999999999997
 30
0.0
 11
77.52709056099996
 21
-1.499999999999952
 31
0.0
  0
LINE
  5
11D20
330
11D12
100
AcDbEntity
  8
0
100
AcDbLine
 10
-77.52709056100001
 20
-1.50000000000003
 30
0.0
 11
-41.41246117974983
 21
-1.500000000000012
 31
0.0
  0
LINE
  5
11D21
330
11D12
100
AcDbEntity
  8
0
100
AcDbLine
 10
39.39999999999999
 20
0.0
 30
0.0
 11
-39.40000000000001
 21
0.0
 31
0.0
  0
LINE
  5
11D22
330
11D12
100
AcDbEntity
  8
0
100
AcDbLine
 10
41.5000000000002
 20
-38.49999999999995
 30
0.0
 11
41.49999999999999
 21
-2.099999999999946
 31
0.0
  0
LINE
  5
11D23
330
11D12
100
AcDbEntity
  8
0
100
AcDbLine
 10
-41.50000000000002
 20
-2.100000000000008
 30
0.0
 11
-41.50000000000001
 21
-38.50000000000001
 31
0.0
  0
LINE
  5
11D24
330
11D12
100
AcDbEntity
  8
0
100
AcDbLine
 10
40.0
 20
-2.099999999999946
 30
0.0
 11
40.0000000000002
 21
-38.49999999999997
 31
0.0
  0
LINE
  5
11D25
330
11D12
100
AcDbEntity
  8
0
100
AcDbLine
 10
-39.40000000000002
 20
-1.500000000000012
 30
0.0
 11
39.39999999999999
 21
-1.499999999999968
 31
0.0
  0
LINE
  5
11D26
330
11D12
100
AcDbEntity
  8
0
100
AcDbLine
 10
-40.0
 20
-38.50000000000001
 30
0.0
 11
-40.00000000000001
 21
-2.100000000000008
 31
0.0
  0
LINE
  5
11D27
330
11D12
100
AcDbEntity
  8
0
100
AcDbLine
 10
40.00000000000023
 20
-43.49999999999996
 30
0.0
 11
41.50000000000024
 21
-43.49999999999996
 31
0.0
  0
LINE
  5
11D28
330
11D12
100
AcDbEntity
  8
0
100
AcDbLine
 10
41.50000000000024
 20
-43.49999999999996
 30
0.0
 11
41.5000000000002
 21
-38.49999999999995
 31
0.0
  0
LINE
  5
11D29
330
11D12
100
AcDbEntity
  8
0
100
AcDbLine
 10
-41.50000000000001
 20
-38.50000000000001
 30
0.0
 11
-41.50000000000001
 21
-43.50000000000001
 31
0.0
  0
LINE
  5
11D2A
330
11D12
100
AcDbEntity
  8
0
100
AcDbLine
 10
-41.50000000000001
 20
-43.50000000000001
 30
0.0
 11
-40.0
 21
-43.50000000000001
 31
0.0
  0
LINE
  5
11D2B
330
11D12
100
AcDbEntity
  8
0
100
AcDbLine
 10
41.5000000000002
 20
-38.49999999999995
 30
0.0
 11
40.0000000000002
 21
-38.49999999999997
 31
0.0
  0
LINE
  5
11D2C
330
11D12
100
AcDbEntity
  8
0
100
AcDbLine
 10
40.0000000000002
 20
-38.49999999999997
 30
0.0
 11
40.00000000000023
 21
-43.49999999999996
 31
0.0
  0
LINE
  5
11D2D
330
11D12
100
AcDbEntity
  8
0
100
AcDbLine
 10
-40.0
 20
-43.50000000000001
 30
0.0
 11
-40.0
 21
-38.50000000000001
 31
0.0
  0
LINE
  5
11D2E
330
11D12
100
AcDbEntity
  8
0
100
AcDbLine
 10
-40.0
 20
-38.50000000000001
 30
0.0
 11
-41.50000000000001
 21
-38.50000000000001
 31
0.0
  0
LINE
  5
11D2F
330
11D12
100
AcDbEntity
  8
0
100
AcDbLine
 10
41.49999999999997
 20
-82.00306627385998
 30
0.0
 11
39.99999999999997
 21
-82.00306627385998
 31
0.0
  0
LINE
  5
11D30
330
11D12
100
AcDbEntity
  8
0
100
AcDbLine
 10
-39.99999999999997
 20
-82.00306627385998
 30
0.0
 11
-41.49999999999997
 21
-82.00306627386
 31
0.0
  0
LINE
  5
11D31
330
11D12
100
AcDbEntity
  8
0
100
AcDbLine
 10
41.50000000000692
 20
-62.91118318265851
 30
0.0
 11
41.49999999999997
 21
-82.00306627385998
 31
0.0
  0
LINE
  5
11D32
330
11D12
100
AcDbEntity
  8
0
100
AcDbLine
 10
40.00000000000589
 20
-62.91118318265851
 30
0.0
 11
39.99999999999997
 21
-82.00306627385998
 31
0.0
  0
ELLIPSE
  5
11D33
330
11D12
100
AcDbEntity
  8
0
100
AcDbEllipse
 10
39.39999999999999
 20
-56.26437943888956
 30
0.0
 11
0.6000000000000844
 21
-0.0000000000000092
 31
0.0
210
0.0
220
0.0
230
1.0
 40
0.7071067811865476
 41
0.0
 42
1.570796326794914
  0
LINE
  5
11D34
330
11D12
100
AcDbEntity
  8
0
100
AcDbLine
 10
41.50000000000692
 20
-62.91118318265851
 30
0.0
 11
40.00000000000589
 21
-62.91118318265851
 31
0.0
  0
LINE
  5
11D35
330
11D12
100
AcDbEntity
  8
0
100
AcDbLine
 10
41.50000000000005
 20
-43.49999999999996
 30
0.0
 11
41.50000000000692
 21
-62.91118318265851
 31
0.0
  0
LINE
  5
11D36
330
11D12
100
AcDbEntity
  8
0
100
AcDbLine
 10
-41.50000000000304
 20
-62.91118318265853
 30
0.0
 11
-41.50000000000305
 21
-43.50000000000001
 31
0.0
  0
SPLINE
  5
11D37
330
11D12
100
AcDbEntity
  8
0
100
AcDbSpline
210
0.0
220
0.0
230
1.0
 70
     8
 71
     3
 72
     8
 73
     4
 74
     0
 42
0.000000001
 43
0.0000000001
 40
-1.0
 40
-1.0
 40
-1.0
 40
-1.0
 40
0.0
 40
0.0
 40
0.0
 40
0.0
 10
-35.01767776087195
 20
-1.500000000000019
 30
0.0
 10
-34.97251992073994
 20
-1.500000000000019
 30
0.0
 10
-35.01586474390246
 20
-1.572566966670533
 30
0.0
 10
-35.14054197002052
 20
-1.675735931288091
 30
0.0
  0
SPLINE
  5
11D38
330
11D12
100
AcDbEntity
  8
0
100
AcDbSpline
210
0.0
220
0.0
230
1.0
 70
     8
 71
     3
 72
     8
 73
     4
 74
     0
 42
0.000000001
 43
0.0000000001
 40
-1.0
 40
-1.0
 40
-1.0
 40
-1.0
 40
0.0
 40
0.0
 40
0.0
 40
0.0
 10
35.1405419700205
 20
-1.675735931288075
 30
0.0
 10
35.01586474390216
 20
-1.57256696667051
 30
0.0
 10
34.97251992073987
 20
-1.500000000000004
 30
0.0
 10
35.01767776087194
 20
-1.500000000000004
 30
0.0
  0
ELLIPSE
  5
11D39
330
11D12
100
AcDbEntity
  8
0
100
AcDbEllipse
 10
-36.50000000000002
 20
-1.227476037518731
 30
0.0
 11
-1.5
 21
0.0000000000001091
 31
0.0
210
0.0
220
0.0
230
1.0
 40
0.7071067811865474
 41
1.570796326795026
 42
2.70525458196206
  0
LINE
  5
11D3A
330
11D12
100
AcDbEntity
  8
0
100
AcDbLine
 10
-36.50000000000002
 20
-2.288136209298537
 30
0.0
 11
-38.79315533855966
 21
-2.288136209298538
 31
0.0
  0
LINE
  5
11D3B
330
11D12
100
AcDbEntity
  8
0
100
AcDbLine
 10
-38.79315533855966
 20
-2.288136209298538
 30
0.0
 11
-39.40000000000002
 21
-2.717240184541075
 31
0.0
  0
LINE
  5
11D3C
330
11D12
100
AcDbEntity
  8
0
100
AcDbLine
 10
39.39999999999999
 20
-2.717240184541045
 30
0.0
 11
38.79315533855962
 21
-2.288136209298505
 31
0.0
  0
LINE
  5
11D3D
330
11D12
100
AcDbEntity
  8
0
100
AcDbLine
 10
38.79315533855962
 20
-2.288136209298505
 30
0.0
 11
36.49999999999998
 21
-2.288136209298506
 31
0.0
  0
ELLIPSE
  5
11D3E
330
11D12
100
AcDbEntity
  8
0
100
AcDbEllipse
 10
36.49999999999998
 20
-1.227476037518715
 30
0.0
 11
-1.5
 21
-0.0000000000000003
 31
0.0
210
0.0
220
0.0
230
1.0
 40
0.7071067811865474
 41
0.436338071627989
 42
1.570796326794896
  0
LINE
  5
11D3F
330
11D12
100
AcDbEntity
  8
0
100
AcDbLine
 10
-40.00000000000255
 20
-62.91118318265853
 30
0.0
 11
-41.50000000000304
 21
-62.91118318265853
 31
0.0
  0
LINE
  5
11D40
330
11D12
100
AcDbEntity
  8
0
100
AcDbLine
 10
-40.00000000000002
 20
-43.50000000000001
 30
0.0
 11
-40.00000000000255
 21
-62.91118318265853
 31
0.0
  0
SPLINE
  5
11D41
330
11D12
100
AcDbEntity
  8
0
100
AcDbSpline
210
0.0
220
0.0
230
1.0
 70
     8
 71
     3
 72
     8
 73
     4
 74
     0
 42
0.000000001
 43
0.0000000001
 40
-1.0
 40
-1.0
 40
-1.0
 40
-1.0
 40
0.0
 40
0.0
 40
0.0
 40
0.0
 10
-39.40000000000001
 20
-2.717240184541074
 30
0.0
 10
-39.714159265359
 20
-3.124319333760308
 30
0.0
 10
-40.00000000000001
 20
-3.733518404784347
 30
0.0
 10
-40.00000000000003
 20
-4.36274170091115
 30
0.0
  0
LINE
  5
11D42
330
11D12
100
AcDbEntity
  8
0
100
AcDbLine
 10
-39.40000000000002
 20
-2.717240184541075
 30
0.0
 11
-39.40000000000002
 21
-2.364040347338709
 31
0.0
  0
LINE
  5
11D43
330
11D12
100
AcDbEntity
  8
0
100
AcDbLine
 10
-39.40000000000002
 20
-2.364040347338709
 30
0.0
 11
-39.40000000000002
 21
-1.656580012761253
 31
0.0
  0
SPLINE
  5
11D44
330
11D12
100
AcDbEntity
  8
0
100
AcDbSpline
210
0.0
220
0.0
230
1.0
 70
     8
 71
     3
 72
     8
 73
     4
 74
     0
 42
0.000000001
 43
0.0000000001
 40
0.823392608386173
 40
0.823392608386173
 40
0.823392608386173
 40
0.823392608386173
 40
1.0
 40
1.0
 40
1.0
 40
1.0
 10
-39.96833079343949
 20
-1.934942494001846
 30
0.0
 10
-39.78528852951264
 20
-1.822430928280913
 30
0.0
 10
-39.59418996942229
 20
-1.728473199485236
 30
0.0
 10
-39.40000000000001
 20
-1.656580012761252
 30
0.0
  0
LINE
  5
11D45
330
11D12
100
AcDbEntity
  8
0
100
AcDbLine
 10
-39.40000000000002
 20
-1.656580012761253
 30
0.0
 11
-39.17856242236229
 21
-1.500000000000007
 31
0.0
  0
LINE
  5
11D46
330
11D12
100
AcDbEntity
  8
0
100
AcDbLine
 10
-38.79315533855966
 20
-2.288136209298538
 30
0.0
 11
-38.79315533855966
 21
-1.500000000000012
 31
0.0
  0
LINE
  5
11D47
330
11D12
100
AcDbEntity
  8
0
100
AcDbLine
 10
-35.1405419700205
 20
-1.675735931288091
 30
0.0
 11
-35.1405419700205
 21
-1.500000000000009
 31
0.0
  0
LINE
  5
11D48
330
11D12
100
AcDbEntity
  8
0
100
AcDbLine
 10
40.00000000000589
 20
-62.91118318265851
 30
0.0
 11
40.00000000000588
 21
-43.49999999999996
 31
0.0
  0
LINE
  5
11D49
330
11D12
100
AcDbEntity
  8
0
100
AcDbLine
 10
39.39999999999999
 20
-2.717240184541045
 30
0.0
 11
39.39999999999999
 21
-2.364040347338129
 31
0.0
  0
SPLINE
  5
11D4A
330
11D12
100
AcDbEntity
  8
0
100
AcDbSpline
210
0.0
220
0.0
230
1.0
 70
     8
 71
     3
 72
     8
 73
     4
 74
     0
 42
0.000000001
 43
0.0000000001
 40
-1.0
 40
-1.0
 40
-1.0
 40
-1.0
 40
0.0
 40
0.0
 40
0.0
 40
0.0
 10
40.00000000000006
 20
-4.362741700911163
 30
0.0
 10
40.0
 20
-3.733518404784005
 30
0.0
 10
39.71415926535897
 20
-3.124319333760565
 30
0.0
 10
39.39999999999998
 20
-2.717240184541047
 30
0.0
  0
SPLINE
  5
11D4B
330
11D12
100
AcDbEntity
  8
0
100
AcDbSpline
210
0.0
220
0.0
230
1.0
 70
     8
 71
     3
 72
     8
 73
     4
 74
     0
 42
0.000000001
 43
0.0000000001
 40
0.0
 40
0.0
 40
0.0
 40
0.0
 40
0.1766073916138415
 40
0.1766073916138415
 40
0.1766073916138415
 40
0.1766073916138415
 10
39.39999999999997
 20
-1.656580012761225
 30
0.0
 10
39.59418996942225
 20
-1.728473199485265
 30
0.0
 10
39.78528852951261
 20
-1.822430928280972
 30
0.0
 10
39.96833079343947
 20
-1.934942494001919
 30
0.0
  0
LINE
  5
11D4C
330
11D12
100
AcDbEntity
  8
0
100
AcDbLine
 10
39.39999999999999
 20
-2.364040347338129
 30
0.0
 11
39.39999999999999
 21
-1.656580012761225
 31
0.0
  0
LINE
  5
11D4D
330
11D12
100
AcDbEntity
  8
0
100
AcDbLine
 10
35.1405419700205
 20
-1.499999999999973
 30
0.0
 11
35.14054197002046
 21
-1.675735931288075
 31
0.0
  0
LINE
  5
11D4E
330
11D12
100
AcDbEntity
  8
0
100
AcDbLine
 10
38.79315533855962
 20
-2.288136209298505
 30
0.0
 11
38.79315533855962
 21
-1.499999999999971
 31
0.0
  0
LINE
  5
11D4F
330
11D12
100
AcDbEntity
  8
0
100
AcDbLine
 10
39.17856242236222
 20
-1.49999999999996
 30
0.0
 11
39.39999999999999
 21
-1.656580012761225
 31
0.0
  0
LINE
  5
11D50
330
11D12
100
AcDbEntity
  8
0
100
AcDbLine
 10
-41.50000000000304
 20
-62.91118318265853
 30
0.0
 11
-41.49999999999997
 21
-82.00306627386
 31
0.0
  0
LINE
  5
11D51
330
11D12
100
AcDbEntity
  8
0
100
AcDbLine
 10
-40.00000000000255
 20
-62.91118318265853
 30
0.0
 11
-39.99999999999997
 21
-82.00306627385998
 31
0.0
  0
ELLIPSE
  5
11D52
330
11D12
100
AcDbEntity
  8
0
100
AcDbEllipse
 10
-22.50000000000002
 20
-0.1668158657389272
 30
0.0
 11
2.499999999999999
 21
0.0000000000001836
 31
0.0
210
0.0
220
0.0
230
1.0
 40
0.7071067811865474
 41
3.995971005725007
 42
5.428806955044096
  0
LINE
  5
11D53
330
11D12
100
AcDbEntity
  8
0
100
AcDbLine
 10
-24.91828991960763
 20
-1.500000000000003
 30
0.0
 11
-24.91828991960762
 21
-1.675735931288089
 31
0.0
  0
ELLIPSE
  5
11D54
330
11D12
100
AcDbEntity
  8
0
100
AcDbEllipse
 10
-22.50000000000002
 20
-1.227476037518728
 30
0.0
 11
2.499999999999999
 21
0.0000000000000003
 31
0.0
210
0.0
220
0.0
230
1.0
 40
0.7071067811865475
 41
3.397965980608286
 42
6.026811980161093
  0
LINE
  5
11D55
330
11D12
100
AcDbEntity
  8
0
100
AcDbLine
 10
-20.08171008039241
 20
-1.675735931288088
 30
0.0
 11
-20.08171008039241
 21
-1.500000000000001
 31
0.0
  0
SPLINE
  5
11D56
330
11D12
100
AcDbEntity
  8
0
100
AcDbSpline
210
0.0
220
0.0
230
1.0
 70
     8
 71
     3
 72
     8
 73
     4
 74
     0
 42
0.000000001
 43
0.0000000001
 40
-1.0
 40
-1.0
 40
-1.0
 40
-1.0
 40
0.0
 40
0.0
 40
0.0
 40
0.0
 10
-24.91828991960763
 20
-1.675735931288089
 30
0.0
 10
-24.99189972302013
 20
-1.567383125827692
 30
0.0
 10
-25.01609483643936
 20
-1.500000000000017
 30
0.0
 10
-24.98943351399745
 20
-1.500000000000017
 30
0.0
  0
SPLINE
  5
11D57
330
11D12
100
AcDbEntity
  8
0
100
AcDbSpline
210
0.0
220
0.0
230
1.0
 70
     8
 71
     3
 72
     8
 73
     4
 74
     0
 42
0.000000001
 43
0.0000000001
 40
-1.0
 40
-1.0
 40
-1.0
 40
-1.0
 40
0.0
 40
0.0
 40
0.0
 40
0.0
 10
-20.01056648600258
 20
-1.500000000000016
 30
0.0
 10
-19.98390516356067
 20
-1.500000000000016
 30
0.0
 10
-20.00810027697966
 20
-1.567383125827665
 30
0.0
 10
-20.08171008039241
 20
-1.675735931288087
 30
0.0
  0
ELLIPSE
  5
11D58
330
11D12
100
AcDbEntity
  8
0
100
AcDbEllipse
 10
22.49999999999998
 20
-0.1668158657389175
 30
0.0
 11
2.5
 21
0.0000000000001826
 31
0.0
210
0.0
220
0.0
230
1.0
 40
0.7071067811865475
 41
3.995971005725005
 42
5.428806955044115
  0
LINE
  5
11D59
330
11D12
100
AcDbEntity
  8
0
100
AcDbLine
 10
20.08171008039237
 20
-1.49999999999999
 30
0.0
 11
20.08171008039237
 21
-1.675735931288079
 31
0.0
  0
ELLIPSE
  5
11D5A
330
11D12
100
AcDbEntity
  8
0
100
AcDbEllipse
 10
22.49999999999998
 20
-1.227476037518718
 30
0.0
 11
2.5
 21
0.0000000000000003
 31
0.0
210
0.0
220
0.0
230
1.0
 40
0.7071067811865475
 41
3.397965980608286
 42
6.026811980161093
  0
LINE
  5
11D5B
330
11D12
100
AcDbEntity
  8
0
100
AcDbLine
 10
24.91828991960759
 20
-1.675735931288078
 30
0.0
 11
24.91828991960759
 21
-1.499999999999976
 31
0.0
  0
SPLINE
  5
11D5C
330
11D12
100
AcDbEntity
  8
0
100
AcDbSpline
210
0.0
220
0.0
230
1.0
 70
     8
 71
     3
 72
     8
 73
     4
 74
     0
 42
0.000000001
 43
0.0000000001
 40
-1.0
 40
-1.0
 40
-1.0
 40
-1.0
 40
0.0
 40
0.0
 40
0.0
 40
0.0
 10
20.08171008039237
 20
-1.675735931288079
 30
0.0
 10
20.00810027697974
 20
-1.567383125827693
 30
0.0
 10
19.98390516356063
 20
-1.500000000000007
 30
0.0
 10
20.01056648600254
 20
-1.500000000000007
 30
0.0
  0
SPLINE
  5
11D5D
330
11D12
100
AcDbEntity
  8
0
100
AcDbSpline
210
0.0
220
0.0
230
1.0
 70
     8
 71
     3
 72
     8
 73
     4
 74
     0
 42
0.000000001
 43
0.0000000001
 40
-1.0
 40
-1.0
 40
-1.0
 40
-1.0
 40
0.0
 40
0.0
 40
0.0
 40
0.0
 10
24.98943351399742
 20
-1.500000000000006
 30
0.0
 10
25.01609483643929
 20
-1.500000000000006
 30
0.0
 10
24.99189972302015
 20
-1.567383125827636
 30
0.0
 10
24.91828991960759
 20
-1.675735931288078
 30
0.0
  0
SPLINE
  5
11D5E
330
11D12
100
AcDbEntity
  8
0
100
AcDbSpline
210
0.0
220
0.0
230
1.0
 70
     8
 71
     3
 72
     8
 73
     4
 74
     0
 42
0.000000001
 43
0.0000000001
 40
-1.0
 40
-1.0
 40
-1.0
 40
-1.0
 40
0.0
 40
0.0
 40
0.0
 40
0.0
 10
-4.918289920131953
 20
-1.675735931288084
 30
0.0
 10
-4.991899723307204
 20
-1.567383125811566
 30
0.0
 10
-5.016094836485419
 20
-1.500000000000013
 30
0.0
 10
-4.989433513812972
 20
-1.500000000000013
 30
0.0
  0
SPLINE
  5
11D5F
330
11D12
100
AcDbEntity
  8
0
100
AcDbSpline
210
0.0
220
0.0
230
1.0
 70
     8
 71
     3
 72
     8
 73
     4
 74
     0
 42
0.000000001
 43
0.0000000001
 40
-1.0
 40
-1.0
 40
-1.0
 40
-1.0
 40
0.0
 40
0.0
 40
0.0
 40
0.0
 10
4.98943351381294
 20
-1.500000000000011
 30
0.0
 10
5.016094836485287
 20
-1.500000000000011
 30
0.0
 10
4.991899723307183
 20
-1.567383125811559
 30
0.0
 10
4.918289920131898
 20
-1.675735931288082
 30
0.0
  0
ELLIPSE
  5
11D60
330
11D12
100
AcDbEntity
  8
0
100
AcDbEllipse
 10
-2.500000000000017
 20
-0.166815867153261
 30
0.0
 11
2.5
 21
0.000000000000183
 31
0.0
210
0.0
220
0.0
230
1.0
 40
0.7071067811865474
 41
3.99597100450666
 42
4.712388980384622
  0
LINE
  5
11D61
330
11D12
100
AcDbEntity
  8
0
100
AcDbLine
 10
-4.918289920131953
 20
-1.499999999999992
 30
0.0
 11
-4.918289920131954
 21
-1.675735931288084
 31
0.0
  0
ELLIPSE
  5
11D62
330
11D12
100
AcDbEntity
  8
0
100
AcDbEllipse
 10
-2.500000000000017
 20
-1.227476038933062
 30
0.0
 11
-2.5
 21
-0.0000000000000002
 31
0.0
210
0.0
220
0.0
230
1.0
 40
0.7071067811865474
 41
0.2563733261913885
 42
1.570796326794896
  0
LINE
  5
11D63
330
11D12
100
AcDbEntity
  8
0
100
AcDbLine
 10
-2.500000000000017
 20
-1.934582820119596
 30
0.0
 11
2.499999999999978
 21
-1.934582820119594
 31
0.0
  0
LINE
  5
11D64
330
11D12
100
AcDbEntity
  8
0
100
AcDbLine
 10
2.499999999999978
 20
-2.995242991899417
 30
0.0
 11
-2.500000000000017
 21
-2.995242991899419
 31
0.0
  0
ELLIPSE
  5
11D65
330
11D12
100
AcDbEntity
  8
0
100
AcDbEllipse
 10
2.499999999999977
 20
-0.1668158671532056
 30
0.0
 11
2.5
 21
0.0000000000000006
 31
0.0
210
0.0
220
0.0
230
1.0
 40
0.7071067811865472
 41
4.712388980384689
 42
5.42880695626254
  0
ELLIPSE
  5
11D66
330
11D12
100
AcDbEntity
  8
0
100
AcDbEllipse
 10
2.499999999999977
 20
-1.227476038933011
 30
0.0
 11
2.499999999999999
 21
0.0000000000000006
 31
0.0
210
0.0
220
0.0
230
1.0
 40
0.7071067811865475
 41
4.712388980384689
 42
6.026811980988168
  0
LINE
  5
11D67
330
11D12
100
AcDbEntity
  8
0
100
AcDbLine
 10
4.918289920131895
 20
-1.675735931288082
 30
0.0
 11
4.918289920131895
 21
-1.499999999999987
 31
0.0
  0
LINE
  5
11D68
330
11D12
100
AcDbEntity
  8
0
100
AcDbLine
 10
-39.4
 20
-55.8401153701776
 30
0.0
 11
39.39999999999999
 21
-55.84011537017758
 31
0.0
  0
ELLIPSE
  5
11D69
330
11D12
100
AcDbEntity
  8
0
100
AcDbEllipse
 10
-39.39999999999999
 20
-56.26437943888955
 30
0.0
 11
-0.6000000000000089
 21
-0.0000000000000268
 31
0.0
210
0.0
220
0.0
230
1.0
 40
0.7071067811865187
 41
4.712388980384583
 42
6.283185307179418
  0
ARC
  5
11D6A
330
11D12
100
AcDbEntity
  8
0
100
AcDbCircle
 10
39.39999999999999
 20
-2.099999999999972
 30
0.0
 40
0.6000000000000006
100
AcDbArc
 50
0.0
 51
90.0
  0
ARC
  5
11D6B
330
11D12
100
AcDbEntity
  8
0
100
AcDbCircle
 10
39.39999999999999
 20
-2.099999999999972
 30
0.0
 40
2.100000000000008
100
AcDbArc
 50
0.0
 51
90.0
  0
ARC
  5
11D6C
330
11D12
100
AcDbEntity
  8
0
100
AcDbCircle
 10
-39.40000000000002
 20
-2.100000000000008
 30
0.0
 40
0.6000000000000006
100
AcDbArc
 50
90.0
 51
180.0
  0
ARC
  5
11D6D
330
11D12
100
AcDbEntity
  8
0
100
AcDbCircle
 10
-39.40000000000002
 20
-2.100000000000008
 30
0.0
 40
2.100000000000004
100
AcDbArc
 50
90.0
 51
180.0
  0
ENDBLK
  5
11D14
330
11D12
100
AcDbEntity
  8
0
100
AcDbBlockEnd
  0
BLOCK
  5
11D6F
330
11D6E
100
AcDbEntity
  8
0
100
AcDbBlockBegin
  2
SPR80_360-Bottom
 70
     0
 10
0.0
 20
0.0
 30
0.0
  3
SPR80_360-Bottom
  1

  0
LINE
  5
11D71
330
11D6E
100
AcDbEntity
  8
0
100
AcDbLine
 10
82.527090561
 20
1.499999999999949
 30
0.0
 11
77.52709056100001
 21
1.499999999999952
 31
0.0
  0
LINE
  5
11D72
330
11D6E
100
AcDbEntity
  8
0
100
AcDbLine
 10
77.52709056100001
 20
1.499999999999952
 30
0.0
 11
77.52709056100001
 21
0.0
 31
0.0
  0
LINE
  5
11D73
330
11D6E
100
AcDbEntity
  8
0
100
AcDbLine
 10
77.52709056100001
 20
0.0
 30
0.0
 11
82.527090561
 21
0.0
 31
0.0
  0
LINE
  5
11D74
330
11D6E
100
AcDbEntity
  8
0
100
AcDbLine
 10
82.527090561
 20
0.0
 30
0.0
 11
82.527090561
 21
1.499999999999949
 31
0.0
  0
LINE
  5
11D75
330
11D6E
100
AcDbEntity
  8
0
100
AcDbLine
 10
-82.52709056100004
 20
0.0
 30
0.0
 11
-77.52709056100004
 21
0.0
 31
0.0
  0
LINE
  5
11D76
330
11D6E
100
AcDbEntity
  8
0
100
AcDbLine
 10
-77.52709056100004
 20
1.50000000000003
 30
0.0
 11
-82.52709056100004
 21
1.500000000000032
 31
0.0
  0
LINE
  5
11D77
330
11D6E
100
AcDbEntity
  8
0
100
AcDbLine
 10
-82.52709056100004
 20
1.500000000000032
 30
0.0
 11
-82.52709056100004
 21
0.0
 31
0.0
  0
LINE
  5
11D78
330
11D6E
100
AcDbEntity
  8
0
100
AcDbLine
 10
-77.52709056100004
 20
0.0
 30
0.0
 11
-77.52709056100004
 21
1.50000000000003
 31
0.0
  0
LINE
  5
11D79
330
11D6E
100
AcDbEntity
  8
0
100
AcDbLine
 10
77.52709056100001
 20
0.0
 30
0.0
 11
36.49999999999999
 21
0.0
 31
0.0
  0
LINE
  5
11D7A
330
11D6E
100
AcDbEntity
  8
0
100
AcDbLine
 10
-36.50000000000002
 20
0.0
 30
0.0
 11
-77.52709056100004
 21
0.0
 31
0.0
  0
LINE
  5
11D7B
330
11D6E
100
AcDbEntity
  8
0
100
AcDbLine
 10
-39.1785624223623
 20
1.500000000000014
 30
0.0
 11
-77.52709056100004
 21
1.50000000000003
 31
0.0
  0
LINE
  5
11D7C
330
11D6E
100
AcDbEntity
  8
0
100
AcDbLine
 10
77.52709056100001
 20
1.499999999999952
 30
0.0
 11
39.17856242236225
 21
1.499999999999971
 31
0.0
  0
LINE
  5
11D7D
330
11D6E
100
AcDbEntity
  8
0
100
AcDbLine
 10
36.49999999999998
 20
0.0
 30
0.0
 11
35.01767776087192
 21
0.0
 31
0.0
  0
LINE
  5
11D7E
330
11D6E
100
AcDbEntity
  8
0
100
AcDbLine
 10
-35.01767776087195
 20
0.0
 30
0.0
 11
-36.50000000000002
 21
0.0
 31
0.0
  0
SPLINE
  5
11D7F
330
11D6E
100
AcDbEntity
  8
0
100
AcDbSpline
210
0.0
220
0.0
230
1.0
 70
     8
 71
     3
 72
     8
 73
     4
 74
     0
 42
0.000000001
 43
0.0000000001
 40
0.0
 40
0.0
 40
0.0
 40
0.0
 40
1.0
 40
1.0
 40
1.0
 40
1.0
 10
-35.14054197002052
 20
0.6150757595082699
 30
0.0
 10
-35.01586474390246
 20
0.2539843833468153
 30
0.0
 10
-34.97251992073994
 20
0.0000000000000196
 30
0.0
 10
-35.01767776087195
 20
0.0000000000000197
 30
0.0
  0
SPLINE
  5
11D80
330
11D6E
100
AcDbEntity
  8
0
100
AcDbSpline
210
0.0
220
0.0
230
1.0
 70
     8
 71
     3
 72
     8
 73
     4
 74
     0
 42
0.000000001
 43
0.0000000001
 40
0.0
 40
0.0
 40
0.0
 40
0.0
 40
1.0
 40
1.0
 40
1.0
 40
1.0
 10
35.01767776087194
 20
0.0000000000000042
 30
0.0
 10
34.97251992073987
 20
0.000000000000004
 30
0.0
 10
35.01586474390216
 20
0.2539843833467764
 30
0.0
 10
35.1405419700205
 20
0.6150757595082544
 30
0.0
  0
SPLINE
  5
11D81
330
11D6E
100
AcDbEntity
  8
0
100
AcDbSpline
210
0.0
220
0.0
230
1.0
 70
     8
 71
     3
 72
     8
 73
     4
 74
     0
 42
0.000000001
 43
0.0000000001
 40
0.0
 40
0.0
 40
0.0
 40
0.0
 40
1.0
 40
1.0
 40
1.0
 40
1.0
 10
-41.50000000000004
 20
4.362741700911096
 30
0.0
 10
-41.49999999999998
 20
3.178158037514493
 30
0.0
 10
-40.49955742875645
 20
2.063659161980484
 30
0.0
 10
-39.40000000000001
 20
1.656580012761252
 30
0.0
  0
LINE
  5
11D82
330
11D6E
100
AcDbEntity
  8
0
100
AcDbLine
 10
-39.40000000000002
 20
1.656580012761253
 30
0.0
 11
-38.79315533855966
 21
1.227476037518718
 31
0.0
  0
LINE
  5
11D83
330
11D6E
100
AcDbEntity
  8
0
100
AcDbLine
 10
-38.79315533855966
 20
1.227476037518718
 30
0.0
 11
-36.50000000000002
 21
1.227476037518715
 31
0.0
  0
ELLIPSE
  5
11D84
330
11D6E
100
AcDbEntity
  8
0
100
AcDbEllipse
 10
-36.50000000000002
 20
0.1668158657389237
 30
0.0
 11
1.5
 21
-0.0000000000000003
 31
0.0
210
0.0
220
0.0
230
1.0
 40
0.7071067811865474
 41
0.4363380716279864
 42
1.570796326794896
  0
LINE
  5
11D85
330
11D6E
100
AcDbEntity
  8
0
100
AcDbLine
 10
-35.01767776087195
 20
0.1805170265381398
 30
0.0
 11
-35.01767776087195
 21
0.0
 31
0.0
  0
SPLINE
  5
11D86
330
11D6E
100
AcDbEntity
  8
0
100
AcDbSpline
210
0.0
220
0.0
230
1.0
 70
     8
 71
     3
 72
     8
 73
     4
 74
     0
 42
0.000000001
 43
0.0000000001
 40
0.0
 40
0.0
 40
0.0
 40
0.0
 40
1.0
 40
1.0
 40
1.0
 40
1.0
 10
39.39999999999997
 20
1.656580012761225
 30
0.0
 10
40.49955742875635
 20
2.063659161980741
 30
0.0
 10
41.4999999999999
 20
3.178158037514101
 30
0.0
 10
41.50000000000005
 20
4.362741700911022
 30
0.0
  0
ELLIPSE
  5
11D87
330
11D6E
100
AcDbEntity
  8
0
100
AcDbEllipse
 10
36.49999999999998
 20
0.1668158657389084
 30
0.0
 11
1.5
 21
-0.00000000000011
 31
0.0
210
0.0
220
0.0
230
1.0
 40
0.7071067811865475
 41
1.570796326795022
 42
2.705254581962059
  0
LINE
  5
11D88
330
11D6E
100
AcDbEntity
  8
0
100
AcDbLine
 10
36.49999999999998
 20
1.227476037518684
 30
0.0
 11
38.79315533855962
 21
1.227476037518692
 31
0.0
  0
LINE
  5
11D89
330
11D6E
100
AcDbEntity
  8
0
100
AcDbLine
 10
38.79315533855962
 20
1.227476037518692
 30
0.0
 11
39.39999999999999
 21
1.656580012761225
 31
0.0
  0
LINE
  5
11D8A
330
11D6E
100
AcDbEntity
  8
0
100
AcDbLine
 10
35.01767776087192
 20
0.1805170265380515
 30
0.0
 11
35.01767776087192
 21
0.0
 31
0.0
  0
LINE
  5
11D8B
330
11D6E
100
AcDbEntity
  8
0
100
AcDbLine
 10
24.98943351399742
 20
0.0
 30
0.0
 11
35.01767776087192
 21
0.0
 31
0.0
  0
LINE
  5
11D8C
330
11D6E
100
AcDbEntity
  8
0
100
AcDbLine
 10
4.989433513812937
 20
0.0
 30
0.0
 11
20.01056648600254
 21
0.0
 31
0.0
  0
LINE
  5
11D8D
330
11D6E
100
AcDbEntity
  8
0
100
AcDbLine
 10
-20.01056648600258
 20
0.0
 30
0.0
 11
-4.98943351381297
 21
0.0
 31
0.0
  0
LINE
  5
11D8E
330
11D6E
100
AcDbEntity
  8
0
100
AcDbLine
 10
-35.01767776087195
 20
0.0
 30
0.0
 11
-24.98943351399745
 21
0.0
 31
0.0
  0
LINE
  5
11D8F
330
11D6E
100
AcDbEntity
  8
0
100
AcDbLine
 10
41.49999999999995
 20
56.26437943888952
 30
0.0
 11
41.49999999999995
 21
82.00306627385996
 31
0.0
  0
LINE
  5
11D90
330
11D6E
100
AcDbEntity
  8
0
100
AcDbLine
 10
-41.49999999999995
 20
82.00306627386
 30
0.0
 11
-41.49999999999997
 21
56.26437943888952
 31
0.0
  0
LINE
  5
11D91
330
11D6E
100
AcDbEntity
  8
0
100
AcDbLine
 10
-39.99999999999998
 20
82.00306627385996
 30
0.0
 11
-39.99999999999999
 21
56.26437943888952
 31
0.0
  0
LINE
  5
11D92
330
11D6E
100
AcDbEntity
  8
0
100
AcDbLine
 10
-39.4
 20
55.8401153701776
 30
0.0
 11
39.39999999999999
 21
55.84011537017758
 31
0.0
  0
LINE
  5
11D93
330
11D6E
100
AcDbEntity
  8
0
100
AcDbLine
 10
39.99999999999997
 20
56.26437943888952
 30
0.0
 11
39.99999999999998
 21
82.00306627385996
 31
0.0
  0
LINE
  5
11D94
330
11D6E
100
AcDbEntity
  8
0
100
AcDbLine
 10
-39.4
 20
54.77945519839778
 30
0.0
 11
39.39999999999999
 21
54.77945519839777
 31
0.0
  0
LINE
  5
11D95
330
11D6E
100
AcDbEntity
  8
0
100
AcDbLine
 10
24.98943351399742
 20
0.0
 30
0.0
 11
20.01056648600254
 21
0.0
 31
0.0
  0
LINE
  5
11D96
330
11D6E
100
AcDbEntity
  8
0
100
AcDbLine
 10
-20.01056648600258
 20
0.0
 30
0.0
 11
-24.98943351399745
 21
0.0
 31
0.0
  0
ELLIPSE
  5
11D97
330
11D6E
100
AcDbEntity
  8
0
100
AcDbEllipse
 10
-22.50000000000002
 20
0.1668158657389272
 30
0.0
 11
-2.5
 21
0.0000000000000008
 31
0.0
210
0.0
220
0.0
230
1.0
 40
0.7071067811865475
 41
3.397965980608286
 42
6.026811980161093
  0
SPLINE
  5
11D98
330
11D6E
100
AcDbEntity
  8
0
100
AcDbSpline
210
0.0
220
0.0
230
1.0
 70
     8
 71
     3
 72
     8
 73
     4
 74
     0
 42
0.000000001
 43
0.0000000001
 40
0.0
 40
0.0
 40
0.0
 40
0.0
 40
1.0
 40
1.0
 40
1.0
 40
1.0
 10
-24.98943351399745
 20
0.0000000000000175
 30
0.0
 10
-25.01609483643936
 20
0.0000000000000175
 30
0.0
 10
-24.99189972302013
 20
0.2358409403968805
 30
0.0
 10
-24.91828991960763
 20
0.6150757595082677
 30
0.0
  0
LINE
  5
11D99
330
11D6E
100
AcDbEntity
  8
0
100
AcDbLine
 10
-24.98943351399745
 20
0.1805170265381093
 30
0.0
 11
-24.98943351399745
 21
0.0
 31
0.0
  0
LINE
  5
11D9A
330
11D6E
100
AcDbEntity
  8
0
100
AcDbLine
 10
-20.01056648600258
 20
0.1805170265380809
 30
0.0
 11
-20.01056648600258
 21
0.0
 31
0.0
  0
SPLINE
  5
11D9B
330
11D6E
100
AcDbEntity
  8
0
100
AcDbSpline
210
0.0
220
0.0
230
1.0
 70
     8
 71
     3
 72
     8
 73
     4
 74
     0
 42
0.000000001
 43
0.0000000001
 40
0.0
 40
0.0
 40
0.0
 40
0.0
 40
1.0
 40
1.0
 40
1.0
 40
1.0
 10
-20.08171008039241
 20
0.6150757595082656
 30
0.0
 10
-20.00810027697966
 20
0.235840940396788
 30
0.0
 10
-19.98390516356067
 20
0.0000000000000161
 30
0.0
 10
-20.01056648600258
 20
0.0000000000000164
 30
0.0
  0
LINE
  5
11D9C
330
11D6E
100
AcDbEntity
  8
0
100
AcDbLine
 10
-24.14171865077703
 20
1.5
 30
0.0
 11
-20.858281349223
 21
1.499999999999998
 31
0.0
  0
ELLIPSE
  5
11D9D
330
11D6E
100
AcDbEntity
  8
0
100
AcDbEllipse
 10
22.49999999999998
 20
0.1668158657389175
 30
0.0
 11
-2.5
 21
0.0000000000000006
 31
0.0
210
0.0
220
0.0
230
1.0
 40
0.7071067811865475
 41
3.397965980608285
 42
6.026811980161093
  0
SPLINE
  5
11D9E
330
11D6E
100
AcDbEntity
  8
0
100
AcDbSpline
210
0.0
220
0.0
230
1.0
 70
     8
 71
     3
 72
     8
 73
     4
 74
     0
 42
0.000000001
 43
0.0000000001
 40
0.0
 40
0.0
 40
0.0
 40
0.0
 40
1.0
 40
1.0
 40
1.0
 40
1.0
 10
20.01056648600254
 20
0.0000000000000075
 30
0.0
 10
19.98390516356063
 20
0.0000000000000074
 30
0.0
 10
20.00810027697974
 20
0.2358409403969081
 30
0.0
 10
20.08171008039237
 20
0.6150757595082577
 30
0.0
  0
LINE
  5
11D9F
330
11D6E
100
AcDbEntity
  8
0
100
AcDbLine
 10
20.01056648600254
 20
0.1805170265381034
 30
0.0
 11
20.01056648600254
 21
0.0
 31
0.0
  0
LINE
  5
11DA0
330
11D6E
100
AcDbEntity
  8
0
100
AcDbLine
 10
24.98943351399742
 20
0.1805170265380654
 30
0.0
 11
24.98943351399742
 21
0.0
 31
0.0
  0
SPLINE
  5
11DA1
330
11D6E
100
AcDbEntity
  8
0
100
AcDbSpline
210
0.0
220
0.0
230
1.0
 70
     8
 71
     3
 72
     8
 73
     4
 74
     0
 42
0.000000001
 43
0.0000000001
 40
0.0
 40
0.0
 40
0.0
 40
0.0
 40
1.0
 40
1.0
 40
1.0
 40
1.0
 10
24.91828991960759
 20
0.6150757595082565
 30
0.0
 10
24.99189972302015
 20
0.2358409403967126
 30
0.0
 10
25.01609483643929
 20
0.000000000000006
 30
0.0
 10
24.98943351399742
 20
0.0000000000000064
 30
0.0
  0
LINE
  5
11DA2
330
11D6E
100
AcDbEntity
  8
0
100
AcDbLine
 10
20.85828134922296
 20
1.49999999999999
 30
0.0
 11
24.141718650777
 21
1.499999999999988
 31
0.0
  0
LINE
  5
11DA3
330
11D6E
100
AcDbEntity
  8
0
100
AcDbLine
 10
4.989433513812937
 20
0.0
 30
0.0
 11
2.499999999999986
 21
0.0
 31
0.0
  0
LINE
  5
11DA4
330
11D6E
100
AcDbEntity
  8
0
100
AcDbLine
 10
2.499999999999985
 20
0.0
 30
0.0
 11
-2.500000000000023
 21
0.0
 31
0.0
  0
LINE
  5
11DA5
330
11D6E
100
AcDbEntity
  8
0
100
AcDbLine
 10
-2.500000000000022
 20
0.0
 30
0.0
 11
-4.989433513812971
 21
0.0
 31
0.0
  0
SPLINE
  5
11DA6
330
11D6E
100
AcDbEntity
  8
0
100
AcDbSpline
210
0.0
220
0.0
230
1.0
 70
     8
 71
     3
 72
     8
 73
     4
 74
     0
 42
0.000000001
 43
0.0000000001
 40
0.0
 40
0.0
 40
0.0
 40
0.0
 40
1.0
 40
1.0
 40
1.0
 40
1.0
 10
-4.989433513812972
 20
0.000000000000013
 30
0.0
 10
-5.016094836485419
 20
0.000000000000013
 30
0.0
 10
-4.991899723307204
 20
0.2358409403404492
 30
0.0
 10
-4.918289920131954
 20
0.6150757595082633
 30
0.0
  0
SPLINE
  5
11DA7
330
11D6E
100
AcDbEntity
  8
0
100
AcDbSpline
210
0.0
220
0.0
230
1.0
 70
     8
 71
     3
 72
     8
 73
     4
 74
     0
 42
0.000000001
 43
0.0000000001
 40
0.0
 40
0.0
 40
0.0
 40
0.0
 40
1.0
 40
1.0
 40
1.0
 40
1.0
 10
4.918289920131898
 20
0.615075759508261
 30
0.0
 10
4.991899723307182
 20
0.2358409403404309
 30
0.0
 10
5.016094836485287
 20
0.0000000000000106
 30
0.0
 10
4.98943351381294
 20
0.0000000000000108
 30
0.0
  0
ELLIPSE
  5
11DA8
330
11D6E
100
AcDbEntity
  8
0
100
AcDbEllipse
 10
-2.500000000000017
 20
0.166815867153261
 30
0.0
 11
-2.5
 21
0.0000000000000004
 31
0.0
210
0.0
220
0.0
230
1.0
 40
0.7071067811865475
 41
4.712388980384689
 42
6.026811980988197
  0
LINE
  5
11DA9
330
11D6E
100
AcDbEntity
  8
0
100
AcDbLine
 10
-2.500000000000017
 20
1.934582820119596
 30
0.0
 11
2.499999999999978
 21
1.934582820119594
 31
0.0
  0
ELLIPSE
  5
11DAA
330
11D6E
100
AcDbEntity
  8
0
100
AcDbEllipse
 10
2.499999999999977
 20
0.1668158671532056
 30
0.0
 11
2.5
 21
-0.0000000000000006
 31
0.0
210
0.0
220
0.0
230
1.0
 40
0.7071067811865472
 41
0.2563733261914187
 42
1.570796326794896
  0
LINE
  5
11DAB
330
11D6E
100
AcDbEntity
  8
0
100
AcDbLine
 10
-4.989433513812971
 20
0.1805170296372793
 30
0.0
 11
-4.989433513812971
 21
0.0
 31
0.0
  0
LINE
  5
11DAC
330
11D6E
100
AcDbEntity
  8
0
100
AcDbLine
 10
4.989433513812937
 20
0.1805170296371858
 30
0.0
 11
4.989433513812937
 21
0.0
 31
0.0
  0
LINE
  5
11DAD
330
11D6E
100
AcDbEntity
  8
0
100
AcDbLine
 10
2.499999999999987
 20
1.499999999999993
 30
0.0
 11
4.141718653073981
 21
1.499999999999992
 31
0.0
  0
LINE
  5
11DAE
330
11D6E
100
AcDbEntity
  8
0
100
AcDbLine
 10
-2.500000000000021
 20
1.499999999999995
 30
0.0
 11
2.499999999999987
 21
1.499999999999993
 31
0.0
  0
LINE
  5
11DAF
330
11D6E
100
AcDbEntity
  8
0
100
AcDbLine
 10
-4.141718653074104
 20
1.499999999999996
 30
0.0
 11
-2.500000000000022
 21
1.499999999999996
 31
0.0
  0
LINE
  5
11DB0
330
11D6E
100
AcDbEntity
  8
0
100
AcDbLine
 10
41.49999999999999
 20
2.099999999999963
 30
0.0
 11
41.5
 21
4.362741700911018
 31
0.0
  0
LINE
  5
11DB1
330
11D6E
100
AcDbEntity
  8
0
100
AcDbLine
 10
-41.50000000000002
 20
4.362741700911124
 30
0.0
 11
-41.50000000000002
 21
2.1
 31
0.0
  0
LINE
  5
11DB2
330
11D6E
100
AcDbEntity
  8
0
100
AcDbLine
 10
39.99999999999998
 20
82.00306627385996
 30
0.0
 11
41.49999999999995
 21
82.00306627385996
 31
0.0
  0
LINE
  5
11DB3
330
11D6E
100
AcDbEntity
  8
0
100
AcDbLine
 10
-41.49999999999995
 20
82.00306627386
 30
0.0
 11
-39.99999999999998
 21
82.00306627385996
 31
0.0
  0
LINE
  5
11DB4
330
11D6E
100
AcDbEntity
  8
0
100
AcDbLine
 10
41.49999999999995
 20
56.26437943888952
 30
0.0
 11
41.50000000000005
 21
4.362741700911021
 31
0.0
  0
ELLIPSE
  5
11DB5
330
11D6E
100
AcDbEntity
  8
0
100
AcDbEllipse
 10
39.39999999999999
 20
56.26437943888956
 30
0.0
 11
0.6000000000000844
 21
0.0000000000000092
 31
0.0
210
0.0
220
0.0
230
1.0
 40
0.7071067811865476
 41
4.712388980384671
 42
6.28318530717946
  0
ELLIPSE
  5
11DB6
330
11D6E
100
AcDbEntity
  8
0
100
AcDbEllipse
 10
39.39999999999999
 20
56.26437943888956
 30
0.0
 11
2.100000000000081
 21
-0.0000000000000271
 31
0.0
210
0.0
220
0.0
230
1.0
 40
0.7071067811865487
 41
4.712388980384758
 42
6.283185307179706
  0
LINE
  5
11DB7
330
11D6E
100
AcDbEntity
  8
0
100
AcDbLine
 10
-41.50000000000004
 20
4.362741700911121
 30
0.0
 11
-41.49999999999997
 21
56.26437943888952
 31
0.0
  0
ELLIPSE
  5
11DB8
330
11D6E
100
AcDbEntity
  8
0
100
AcDbEllipse
 10
-39.39999999999999
 20
56.26437943888955
 30
0.0
 11
-2.100000000000006
 21
0.0000000000000022
 31
0.0
210
0.0
220
0.0
230
1.0
 40
0.7071067811865475
 41
0.0
 42
1.570796326794893
  0
ELLIPSE
  5
11DB9
330
11D6E
100
AcDbEntity
  8
0
100
AcDbEllipse
 10
-39.39999999999999
 20
56.26437943888955
 30
0.0
 11
-0.6000000000000089
 21
0.0000000000000268
 31
0.0
210
0.0
220
0.0
230
1.0
 40
0.7071067811865187
 41
0.0000000000001678
 42
1.570796326795002
  0
ARC
  5
11DBA
330
11D6E
100
AcDbEntity
  8
0
100
AcDbCircle
 10
39.39999999999999
 20
2.099999999999972
 30
0.0
 40
0.6000000000000006
100
AcDbArc
 50
270.0
 51
343.4444348564483
  0
ARC
  5
11DBB
330
11D6E
100
AcDbEntity
  8
0
100
AcDbCircle
 10
39.39999999999999
 20
2.099999999999972
 30
0.0
 40
2.100000000000004
100
AcDbArc
 50
343.3984504009796
 51
0.0
  0
ARC
  5
11DBC
330
11D6E
100
AcDbEntity
  8
0
100
AcDbCircle
 10
-39.40000000000002
 20
2.100000000000008
 30
0.0
 40
0.6000000000000007
100
AcDbArc
 50
196.5555651435549
 51
270.0
  0
ARC
  5
11DBD
330
11D6E
100
AcDbEntity
  8
0
100
AcDbCircle
 10
-39.40000000000002
 20
2.100000000000008
 30
0.0
 40
2.100000000000004
100
AcDbArc
 50
180.0
 51
196.60154959902
  0
ENDBLK
  5
11D70
330
11D6E
100
AcDbEntity
  8
0
100
AcDbBlockEnd
  0
BLOCK
  5
11DBF
330
11DBE
100
AcDbEntity
  8
0
100
AcDbBlockBegin
  2
SPR80_360-ISO
 70
     0
 10
0.0
 20
0.0
 30
0.0
  3
SPR80_360-ISO
  1

  0
LINE
  5
11DC1
330
11DBE
100
AcDbEntity
  8
0
100
AcDbLine
 10
86.28487587005807
 20
-136.9710760403951
 30
0.0
 11
82.74934196412532
 21
-139.0123174927144
 31
0.0
  0
LINE
  5
11DC2
330
11DBE
100
AcDbEntity
  8
0
100
AcDbLine
 10
87.34553604183789
 20
-136.3587036046993
 30
0.0
 11
86.28487587005807
 21
-136.9710760403951
 31
0.0
  0
LINE
  5
11DC3
330
11DBE
100
AcDbEntity
  8
0
100
AcDbLine
 10
86.28487587005805
 20
-83.08230169916519
 30
0.0
 11
87.34553604183787
 21
-82.46992926346941
 31
0.0
  0
LINE
  5
11DC4
330
11DBE
100
AcDbEntity
  8
0
100
AcDbLine
 10
87.34553604183787
 20
-82.46992926346941
 30
0.0
 11
83.81000213590512
 21
-76.34620490651146
 31
0.0
  0
LINE
  5
11DC5
330
11DBE
100
AcDbEntity
  8
0
100
AcDbLine
 10
-26.89052095856813
 20
-75.71171312038377
 30
0.0
 11
-30.42605486450087
 21
-69.58798876342583
 31
0.0
  0
LINE
  5
11DC6
330
11DBE
100
AcDbEntity
  8
0
100
AcDbLine
 10
82.7493419641253
 20
-76.95857734220725
 30
0.0
 11
86.28487587005805
 21
-83.08230169916519
 31
0.0
  0
LINE
  5
11DC7
330
11DBE
100
AcDbEntity
  8
0
100
AcDbLine
 10
83.81000213590512
 20
-76.34620490651146
 30
0.0
 11
82.7493419641253
 21
-76.95857734220725
 31
0.0
  0
LINE
  5
11DC8
330
11DBE
100
AcDbEntity
  8
0
100
AcDbLine
 10
87.34553604183787
 20
-82.46992926346941
 30
0.0
 11
87.34553604183789
 21
-136.3587036046993
 31
0.0
  0
LINE
  5
11DC9
330
11DBE
100
AcDbEntity
  8
0
100
AcDbLine
 10
86.28487587005805
 20
-83.08230169916519
 30
0.0
 11
86.28487587005807
 21
-136.9710760403951
 31
0.0
  0
LINE
  5
11DCA
330
11DBE
100
AcDbEntity
  8
0
100
AcDbLine
 10
-1.415520916463166
 20
-27.14122623040003
 30
0.0
 11
3.180673161249414
 21
-29.79484011841515
 31
0.0
  0
LINE
  5
11DCB
330
11DBE
100
AcDbEntity
  8
0
100
AcDbLine
 10
56.21368175024052
 20
-60.41346190320485
 30
0.0
 11
83.81000213590512
 21
-76.34620490651146
 31
0.0
  0
LINE
  5
11DCC
330
11DBE
100
AcDbEntity
  8
0
100
AcDbLine
 10
-30.42605486450087
 20
-69.58798876342583
 30
0.0
 11
-30.42605486450087
 21
-39.37761526909996
 31
0.0
  0
LINE
  5
11DCD
330
11DBE
100
AcDbEntity
  8
0
100
AcDbLine
 10
55.15302157846072
 20
-61.02583433890067
 30
0.0
 11
82.7493419641253
 21
-76.95857734220725
 31
0.0
  0
LINE
  5
11DCE
330
11DBE
100
AcDbEntity
  8
0
100
AcDbLine
 10
2.120012989469595
 20
-92.46095270461809
 30
0.0
 11
-26.89052095856813
 21
-75.71171312038377
 31
0.0
  0
LINE
  5
11DCF
330
11DBE
100
AcDbEntity
  8
0
100
AcDbLine
 10
82.74934196412532
 20
-139.0123174927144
 30
0.0
 11
53.73880801608759
 21
-122.2630779084801
 31
0.0
  0
LINE
  5
11DD0
330
11DBE
100
AcDbEntity
  8
0
100
AcDbLine
 10
-2.476181088242985
 20
-27.75359866609582
 30
0.0
 11
2.12001298946959
 21
-30.40721255411094
 31
0.0
  0
LINE
  5
11DD1
330
11DBE
100
AcDbEntity
  8
0
100
AcDbLine
 10
3.180673161249414
 20
-29.79484011841515
 30
0.0
 11
2.12001298946959
 21
-30.40721255411094
 31
0.0
  0
ELLIPSE
  5
11DD2
330
11DBE
100
AcDbEntity
  8
0
100
AcDbEllipse
 10
2.12001298946959
 20
-29.18246768271935
 30
0.0
 11
0.7500000000000014
 21
-1.299038105676658
 31
0.0
210
0.0
220
0.0
230
1.0
 40
0.577350269189626
 41
5.497787143782137
 42
8.63937979737193
  0
ELLIPSE
  5
11DD3
330
11DBE
100
AcDbEntity
  8
0
100
AcDbEllipse
 10
50.20327411015485
 20
165.5519668685434
 30
0.0
 11
1.25000000000013
 21
-2.165063509461022
 31
0.0
210
0.0
220
0.0
230
1.0
 40
0.5773502691896261
 41
3.579741684173537
 42
4.454997905016252
  0
ELLIPSE
  5
11DD4
330
11DBE
100
AcDbEntity
  8
0
100
AcDbEllipse
 10
50.20327411015485
 20
-63.06707579121991
 30
0.0
 11
1.250000000000002
 21
-2.165063509461095
 31
0.0
210
0.0
220
0.0
230
1.0
 40
0.5773502691896259
 41
4.999145532596275
 42
5.845036276595411
  0
ELLIPSE
  5
11DD5
330
11DBE
100
AcDbEntity
  8
0
100
AcDbEllipse
 10
49.14261393837502
 20
164.9395944328476
 30
0.0
 11
-1.250000000000001
 21
2.165063509461095
 31
0.0
210
0.0
220
0.0
230
1.0
 40
0.577350269189626
 41
4.969780055752915
 42
7.5965905586063
  0
ELLIPSE
  5
11DD6
330
11DBE
100
AcDbEntity
  8
0
100
AcDbEllipse
 10
49.14261393837502
 20
-63.67944822691571
 30
0.0
 11
1.250000000000001
 21
-2.165063509461096
 31
0.0
210
0.0
220
0.0
230
0.9999999999999998
 40
0.5773502691896259
 41
4.999145532596283
 42
7.567225081762895
  0
ELLIPSE
  5
11DD7
330
11DBE
100
AcDbEntity
  8
0
100
AcDbEllipse
 10
50.20327411015485
 20
-95.72693902832895
 30
0.0
 11
1.25000000000013
 21
-2.165063509461022
 31
0.0
210
0.0
220
0.0
230
1.0
 40
0.5773502691896261
 41
3.579741684173544
 42
5.845036276594998
  0
ELLIPSE
  5
11DD8
330
11DBE
100
AcDbEntity
  8
0
100
AcDbEllipse
 10
49.14261393837502
 20
-96.33931146402474
 30
0.0
 11
1.25
 21
-2.165063509461096
 31
0.0
210
0.0
220
0.0
230
0.9999999999999998
 40
0.577350269189626
 41
0.0
 42
6.283185307179586
  0
ELLIPSE
  5
11DD9
330
11DBE
100
AcDbEntity
  8
0
100
AcDbEllipse
 10
43.13220629828936
 20
-75.31452450513582
 30
0.0
 11
1.25000000000013
 21
-2.165063509461022
 31
0.0
210
0.0
220
0.0
230
1.0
 40
0.5773502691896261
 41
3.579741684173544
 42
5.845036276594998
  0
ELLIPSE
  5
11DDA
330
11DBE
100
AcDbEntity
  8
0
100
AcDbEllipse
 10
42.07154612650954
 20
-75.92689694083161
 30
0.0
 11
1.25
 21
-2.165063509461096
 31
0.0
210
0.0
220
0.0
230
0.9999999999999998
 40
0.577350269189626
 41
0.0
 42
6.283185307179586
  0
ELLIPSE
  5
11DDB
330
11DBE
100
AcDbEntity
  8
0
100
AcDbEllipse
 10
43.13220629828936
 20
-107.9743877422448
 30
0.0
 11
1.25000000000013
 21
-2.165063509461022
 31
0.0
210
0.0
220
0.0
230
1.0
 40
0.5773502691896261
 41
3.579741684173544
 42
5.845036276594998
  0
ELLIPSE
  5
11DDC
330
11DBE
100
AcDbEntity
  8
0
100
AcDbEllipse
 10
42.07154612650954
 20
-108.5867601779406
 30
0.0
 11
1.25
 21
-2.165063509461096
 31
0.0
210
0.0
220
0.0
230
0.9999999999999998
 40
0.577350269189626
 41
0.0
 42
6.283185307179586
  0
ELLIPSE
  5
11DDD
330
11DBE
100
AcDbEntity
  8
0
100
AcDbEllipse
 10
14.84793505082746
 20
185.9643813917364
 30
0.0
 11
1.25000000000013
 21
-2.165063509461022
 31
0.0
210
0.0
220
0.0
230
1.0
 40
0.5773502691896261
 41
3.579741684173535
 42
5.845036276594981
  0
ELLIPSE
  5
11DDE
330
11DBE
100
AcDbEntity
  8
0
100
AcDbEllipse
 10
14.84793505082746
 20
153.3045181546274
 30
0.0
 11
1.25000000000013
 21
-2.165063509461022
 31
0.0
210
0.0
220
0.0
230
1.0
 40
0.5773502691896261
 41
3.579741684173546
 42
5.845036276595003
  0
ELLIPSE
  5
11DDF
330
11DBE
100
AcDbEntity
  8
0
100
AcDbEllipse
 10
14.84793505082746
 20
120.6446549175184
 30
0.0
 11
1.25000000000013
 21
-2.165063509461022
 31
0.0
210
0.0
220
0.0
230
1.0
 40
0.5773502691896261
 41
3.579741684173546
 42
5.845036276595003
  0
ELLIPSE
  5
11DE0
330
11DBE
100
AcDbEntity
  8
0
100
AcDbEllipse
 10
14.84793505082746
 20
87.98479168040936
 30
0.0
 11
1.25000000000013
 21
-2.165063509461022
 31
0.0
210
0.0
220
0.0
230
1.0
 40
0.5773502691896261
 41
3.579741684173546
 42
5.845036276595003
  0
ELLIPSE
  5
11DE1
330
11DBE
100
AcDbEntity
  8
0
100
AcDbEllipse
 10
14.84793505082746
 20
55.32492844330035
 30
0.0
 11
1.25000000000013
 21
-2.165063509461022
 31
0.0
210
0.0
220
0.0
230
1.0
 40
0.5773502691896261
 41
3.579741684173546
 42
5.845036276595003
  0
ELLIPSE
  5
11DE2
330
11DBE
100
AcDbEntity
  8
0
100
AcDbEllipse
 10
14.84793505082746
 20
22.6650652061913
 30
0.0
 11
1.25000000000013
 21
-2.165063509461022
 31
0.0
210
0.0
220
0.0
230
1.0
 40
0.5773502691896261
 41
3.579741684173546
 42
5.845036276594998
  0
ELLIPSE
  5
11DE3
330
11DBE
100
AcDbEntity
  8
0
100
AcDbEllipse
 10
14.84793505082746
 20
-9.994798030917753
 30
0.0
 11
1.25000000000013
 21
-2.165063509461022
 31
0.0
210
0.0
220
0.0
230
1.0
 40
0.5773502691896261
 41
3.579741684173544
 42
5.845036276594997
  0
ELLIPSE
  5
11DE4
330
11DBE
100
AcDbEntity
  8
0
100
AcDbEllipse
 10
14.84793505082746
 20
-42.65466126802679
 30
0.0
 11
1.25000000000013
 21
-2.165063509461022
 31
0.0
210
0.0
220
0.0
230
1.0
 40
0.5773502691896261
 41
3.579741684173546
 42
5.845036276594997
  0
ELLIPSE
  5
11DE5
330
11DBE
100
AcDbEntity
  8
0
100
AcDbEllipse
 10
13.78727487904764
 20
185.3520089560407
 30
0.0
 11
1.25
 21
-2.165063509461096
 31
0.0
210
0.0
220
0.0
230
0.9999999999999998
 40
0.577350269189626
 41
0.0
 42
6.283185307179586
  0
ELLIPSE
  5
11DE6
330
11DBE
100
AcDbEntity
  8
0
100
AcDbEllipse
 10
13.78727487904764
 20
152.6921457189317
 30
0.0
 11
1.25
 21
-2.165063509461096
 31
0.0
210
0.0
220
0.0
230
0.9999999999999998
 40
0.577350269189626
 41
0.0
 42
6.283185307179586
  0
ELLIPSE
  5
11DE7
330
11DBE
100
AcDbEntity
  8
0
100
AcDbEllipse
 10
13.78727487904764
 20
120.0322824818226
 30
0.0
 11
1.25
 21
-2.165063509461096
 31
0.0
210
0.0
220
0.0
230
0.9999999999999998
 40
0.577350269189626
 41
0.0
 42
6.283185307179586
  0
ELLIPSE
  5
11DE8
330
11DBE
100
AcDbEntity
  8
0
100
AcDbEllipse
 10
13.78727487904764
 20
87.37241924471357
 30
0.0
 11
1.25
 21
-2.165063509461096
 31
0.0
210
0.0
220
0.0
230
0.9999999999999998
 40
0.577350269189626
 41
0.0
 42
6.283185307179586
  0
ELLIPSE
  5
11DE9
330
11DBE
100
AcDbEntity
  8
0
100
AcDbEllipse
 10
13.78727487904764
 20
54.71255600760452
 30
0.0
 11
1.25
 21
-2.165063509461096
 31
0.0
210
0.0
220
0.0
230
0.9999999999999998
 40
0.577350269189626
 41
0.0
 42
6.283185307179586
  0
ELLIPSE
  5
11DEA
330
11DBE
100
AcDbEntity
  8
0
100
AcDbEllipse
 10
13.78727487904764
 20
22.05269277049551
 30
0.0
 11
1.25
 21
-2.165063509461096
 31
0.0
210
0.0
220
0.0
230
0.9999999999999998
 40
0.577350269189626
 41
0.0
 42
6.283185307179586
  0
ELLIPSE
  5
11DEB
330
11DBE
100
AcDbEntity
  8
0
100
AcDbEllipse
 10
13.78727487904764
 20
-10.60717046661354
 30
0.0
 11
1.25
 21
-2.165063509461096
 31
0.0
210
0.0
220
0.0
230
0.9999999999999998
 40
0.577350269189626
 41
0.0
 42
6.283185307179586
  0
ELLIPSE
  5
11DEC
330
11DBE
100
AcDbEntity
  8
0
100
AcDbEllipse
 10
13.78727487904764
 20
-43.26703370372259
 30
0.0
 11
1.25
 21
-2.165063509461096
 31
0.0
210
0.0
220
0.0
230
0.9999999999999998
 40
0.577350269189626
 41
0.0
 42
6.283185307179586
  0
ELLIPSE
  5
11DED
330
11DBE
100
AcDbEntity
  8
0
100
AcDbEllipse
 10
14.84793505082746
 20
-75.31452450513583
 30
0.0
 11
1.25000000000013
 21
-2.165063509461021
 31
0.0
210
0.0
220
0.0
230
1.0
 40
0.5773502691896261
 41
3.579741684173544
 42
5.845036276594997
  0
ELLIPSE
  5
11DEE
330
11DBE
100
AcDbEntity
  8
0
100
AcDbEllipse
 10
13.78727487904764
 20
-75.92689694083162
 30
0.0
 11
1.25
 21
-2.165063509461096
 31
0.0
210
0.0
220
0.0
230
0.9999999999999998
 40
0.577350269189626
 41
0.0
 42
6.283185307179586
  0
ELLIPSE
  5
11DEF
330
11DBE
100
AcDbEntity
  8
0
100
AcDbEllipse
 10
7.776867238961977
 20
173.7169326778206
 30
0.0
 11
1.25000000000013
 21
-2.165063509461022
 31
0.0
210
0.0
220
0.0
230
1.0
 40
0.5773502691896261
 41
3.579741684173535
 42
5.845036276594982
  0
ELLIPSE
  5
11DF0
330
11DBE
100
AcDbEntity
  8
0
100
AcDbEllipse
 10
7.776867238961977
 20
141.0570694407115
 30
0.0
 11
1.25000000000013
 21
-2.165063509461022
 31
0.0
210
0.0
220
0.0
230
1.0
 40
0.5773502691896261
 41
3.579741684173546
 42
5.845036276595003
  0
ELLIPSE
  5
11DF1
330
11DBE
100
AcDbEntity
  8
0
100
AcDbEllipse
 10
7.776867238961977
 20
108.3972062036025
 30
0.0
 11
1.25000000000013
 21
-2.165063509461022
 31
0.0
210
0.0
220
0.0
230
1.0
 40
0.5773502691896261
 41
3.579741684173546
 42
5.845036276595003
  0
ELLIPSE
  5
11DF2
330
11DBE
100
AcDbEntity
  8
0
100
AcDbEllipse
 10
7.776867238961977
 20
75.73734296649347
 30
0.0
 11
1.25000000000013
 21
-2.165063509461022
 31
0.0
210
0.0
220
0.0
230
1.0
 40
0.5773502691896261
 41
3.579741684173546
 42
5.845036276595003
  0
ELLIPSE
  5
11DF3
330
11DBE
100
AcDbEntity
  8
0
100
AcDbEllipse
 10
7.776867238961977
 20
43.07747972938443
 30
0.0
 11
1.25000000000013
 21
-2.165063509461022
 31
0.0
210
0.0
220
0.0
230
1.0
 40
0.5773502691896261
 41
3.579741684173546
 42
5.845036276595003
  0
ELLIPSE
  5
11DF4
330
11DBE
100
AcDbEntity
  8
0
100
AcDbEllipse
 10
7.776867238961977
 20
10.41761649227538
 30
0.0
 11
1.25000000000013
 21
-2.165063509461022
 31
0.0
210
0.0
220
0.0
230
1.0
 40
0.5773502691896261
 41
3.579741684173544
 42
5.845036276594998
  0
ELLIPSE
  5
11DF5
330
11DBE
100
AcDbEntity
  8
0
100
AcDbEllipse
 10
7.776867238961977
 20
-22.24224674483365
 30
0.0
 11
1.25000000000013
 21
-2.165063509461022
 31
0.0
210
0.0
220
0.0
230
1.0
 40
0.5773502691896261
 41
3.579741684173546
 42
5.845036276595001
  0
ELLIPSE
  5
11DF6
330
11DBE
100
AcDbEntity
  8
0
100
AcDbEllipse
 10
7.776867238961977
 20
-54.9021099819427
 30
0.0
 11
1.25000000000013
 21
-2.165063509461022
 31
0.0
210
0.0
220
0.0
230
1.0
 40
0.5773502691896261
 41
3.579741684173546
 42
5.845036276594999
  0
ELLIPSE
  5
11DF7
330
11DBE
100
AcDbEntity
  8
0
100
AcDbEllipse
 10
6.716207067182153
 20
173.1045602421248
 30
0.0
 11
1.25
 21
-2.165063509461096
 31
0.0
210
0.0
220
0.0
230
0.9999999999999998
 40
0.577350269189626
 41
0.0
 42
6.283185307179586
  0
ELLIPSE
  5
11DF8
330
11DBE
100
AcDbEntity
  8
0
100
AcDbEllipse
 10
6.716207067182153
 20
140.4446970050157
 30
0.0
 11
1.25
 21
-2.165063509461096
 31
0.0
210
0.0
220
0.0
230
0.9999999999999998
 40
0.577350269189626
 41
0.0
 42
6.283185307179586
  0
ELLIPSE
  5
11DF9
330
11DBE
100
AcDbEntity
  8
0
100
AcDbEllipse
 10
6.716207067182153
 20
107.7848337679067
 30
0.0
 11
1.25
 21
-2.165063509461096
 31
0.0
210
0.0
220
0.0
230
0.9999999999999998
 40
0.577350269189626
 41
0.0
 42
6.283185307179586
  0
ELLIPSE
  5
11DFA
330
11DBE
100
AcDbEntity
  8
0
100
AcDbEllipse
 10
6.716207067182153
 20
75.12497053079768
 30
0.0
 11
1.25
 21
-2.165063509461096
 31
0.0
210
0.0
220
0.0
230
0.9999999999999998
 40
0.577350269189626
 41
0.0
 42
6.283185307179586
  0
ELLIPSE
  5
11DFB
330
11DBE
100
AcDbEntity
  8
0
100
AcDbEllipse
 10
6.716207067182153
 20
42.46510729368864
 30
0.0
 11
1.25
 21
-2.165063509461096
 31
0.0
210
0.0
220
0.0
230
0.9999999999999998
 40
0.577350269189626
 41
0.0
 42
6.283185307179586
  0
ELLIPSE
  5
11DFC
330
11DBE
100
AcDbEntity
  8
0
100
AcDbEllipse
 10
6.716207067182153
 20
9.805244056579596
 30
0.0
 11
1.25
 21
-2.165063509461096
 31
0.0
210
0.0
220
0.0
230
0.9999999999999998
 40
0.577350269189626
 41
0.0
 42
6.283185307179586
  0
ELLIPSE
  5
11DFD
330
11DBE
100
AcDbEntity
  8
0
100
AcDbEllipse
 10
6.716207067182153
 20
-22.85461918052945
 30
0.0
 11
1.25
 21
-2.165063509461096
 31
0.0
210
0.0
220
0.0
230
0.9999999999999998
 40
0.577350269189626
 41
0.0
 42
6.283185307179586
  0
ELLIPSE
  5
11DFE
330
11DBE
100
AcDbEntity
  8
0
100
AcDbEllipse
 10
6.716207067182153
 20
-55.51448241763849
 30
0.0
 11
1.25
 21
-2.165063509461096
 31
0.0
210
0.0
220
0.0
230
0.9999999999999998
 40
0.577350269189626
 41
0.0
 42
6.283185307179586
  0
ELLIPSE
  5
11DFF
330
11DBE
100
AcDbEntity
  8
0
100
AcDbEllipse
 10
7.776867238961977
 20
-87.56197321905174
 30
0.0
 11
1.250000000000129
 21
-2.165063509461021
 31
0.0
210
0.0
220
0.0
230
1.0
 40
0.5773502691896261
 41
3.579741684173546
 42
5.845036276594998
  0
ELLIPSE
  5
11E00
330
11DBE
100
AcDbEntity
  8
0
100
AcDbEllipse
 10
6.716207067182153
 20
-88.17434565474753
 30
0.0
 11
1.25
 21
-2.165063509461096
 31
0.0
210
0.0
220
0.0
230
0.9999999999999998
 40
0.577350269189626
 41
0.0
 42
6.283185307179586
  0
ELLIPSE
  5
11E01
330
11DBE
100
AcDbEntity
  8
0
100
AcDbEllipse
 10
-8.505744647717881
 20
-29.17140800750337
 30
0.0
 11
1.250000000000001
 21
-2.165063509461095
 31
0.0
210
0.0
220
0.0
230
1.0
 40
0.5773502691896261
 41
5.508682942396019
 42
5.845036276595415
  0
ELLIPSE
  5
11E02
330
11DBE
100
AcDbEntity
  8
0
100
AcDbEllipse
 10
62.24324530971539
 20
-70.01835640432159
 30
0.0
 11
1.250000000000129
 21
-2.165063509461021
 31
0.0
210
0.0
220
0.0
230
1.0
 40
0.577350269189626
 41
3.579741684173544
 42
5.845036276594997
  0
ELLIPSE
  5
11E03
330
11DBE
100
AcDbEntity
  8
0
100
AcDbEllipse
 10
-9.566404819497705
 20
-29.78378044319916
 30
0.0
 11
1.25
 21
-2.165063509461096
 31
0.0
210
0.0
220
0.0
230
1.0
 40
0.577350269189626
 41
5.508682942396019
 42
7.057687671963153
  0
ELLIPSE
  5
11E04
330
11DBE
100
AcDbEntity
  8
0
100
AcDbEllipse
 10
61.18258513793557
 20
-70.63072884001738
 30
0.0
 11
1.25
 21
-2.165063509461096
 31
0.0
210
0.0
220
0.0
230
0.9999999999999998
 40
0.577350269189626
 41
0.0
 42
6.283185307179586
  0
ELLIPSE
  5
11E05
330
11DBE
100
AcDbEntity
  8
0
100
AcDbEllipse
 10
-4.263103960598586
 20
-64.28076098739558
 30
0.0
 11
1.250000000000129
 21
-2.165063509461021
 31
0.0
210
0.0
220
0.0
230
1.0
 40
0.577350269189626
 41
3.579741684173544
 42
5.845036276594997
  0
ELLIPSE
  5
11E06
330
11DBE
100
AcDbEntity
  8
0
100
AcDbEllipse
 10
66.4858859968347
 20
-105.1277093842138
 30
0.0
 11
1.250000000000129
 21
-2.165063509461021
 31
0.0
210
0.0
220
0.0
230
1.0
 40
0.577350269189626
 41
3.579741684173544
 42
5.845036276594997
  0
ELLIPSE
  5
11E07
330
11DBE
100
AcDbEntity
  8
0
100
AcDbEllipse
 10
-5.32376413237841
 20
-64.89313342309138
 30
0.0
 11
1.25
 21
-2.165063509461096
 31
0.0
210
0.0
220
0.0
230
0.9999999999999998
 40
0.577350269189626
 41
0.0
 42
6.283185307179586
  0
ELLIPSE
  5
11E08
330
11DBE
100
AcDbEntity
  8
0
100
AcDbEllipse
 10
65.42522582505487
 20
-105.7400818199096
 30
0.0
 11
1.25
 21
-2.165063509461096
 31
0.0
210
0.0
220
0.0
230
0.9999999999999998
 40
0.577350269189626
 41
0.0
 42
6.283185307179586
  0
ELLIPSE
  5
11E09
330
11DBE
100
AcDbEntity
  8
0
100
AcDbEllipse
 10
44.89997325125574
 20
-117.1599742776817
 30
0.0
 11
1.25000000000013
 21
-2.165063509461022
 31
0.0
210
0.0
220
0.0
230
1.0
 40
0.5773502691896259
 41
3.579741684173544
 42
3.835017178248645
  0
ELLIPSE
  5
11E0A
330
11DBE
100
AcDbEntity
  8
0
100
AcDbEllipse
 10
13.08016809786109
 20
-98.7888012068079
 30
0.0
 11
1.25000000000013
 21
-2.165063509461021
 31
0.0
210
0.0
220
0.0
230
1.0
 40
0.577350269189626
 41
3.579741684173544
 42
3.835017178248643
  0
ELLIPSE
  5
11E0B
330
11DBE
100
AcDbEntity
  8
0
100
AcDbEllipse
 10
12.96221146798759
 20
-99.51586056502437
 30
0.0
 11
-1.25
 21
-2.165063509461096
 31
0.0
210
0.0
220
0.0
230
1.0
 40
0.8164965809277262
 41
4.968762307403182
 42
6.069429174707152
  0
LINE
  5
11E0C
330
11DBE
100
AcDbEntity
  8
0
100
AcDbLine
 10
10.93525465633972
 20
-99.07760184544315
 30
0.0
 11
10.43500465643995
 21
-98.78878237333893
 31
0.0
  0
LINE
  5
11E0D
330
11DBE
100
AcDbEntity
  8
0
100
AcDbLine
 10
10.43500465643995
 20
-98.78878237333893
 30
0.0
 11
10.18525465633972
 21
-98.64458914355095
 31
0.0
  0
ELLIPSE
  5
11E0E
330
11DBE
100
AcDbEntity
  8
0
100
AcDbEllipse
 10
12.2122114679876
 20
-99.08284786313217
 30
0.0
 11
-1.249999999999999
 21
-2.165063509461097
 31
0.0
210
0.0
220
0.0
230
0.9999999999999998
 40
0.8164965809277262
 41
4.968762307403181
 42
7.59760830695599
  0
LINE
  5
11E0F
330
11DBE
100
AcDbEntity
  8
0
100
AcDbLine
 10
10.25921260702062
 20
-98.19739083772862
 30
0.0
 11
10.61241244460346
 21
-97.99347081642245
 31
0.0
  0
SPLINE
  5
11E10
330
11DBE
100
AcDbEntity
  8
0
100
AcDbSpline
210
0.0
220
0.0
230
1.0
 70
     8
 71
     3
 72
     8
 73
     4
 74
     0
 42
0.000000001
 43
0.0000000001
 40
-1.0
 40
-1.0
 40
-1.0
 40
-1.0
 40
0.0
 40
0.0
 40
0.0
 40
0.0
 10
10.18525465633972
 20
-98.64458914355095
 30
0.0
 10
10.20982166868656
 20
-98.48183352435789
 30
0.0
 10
10.24036020512654
 20
-98.31530219669426
 30
0.0
 10
10.25921260702061
 20
-98.19739083772862
 30
0.0
  0
SPLINE
  5
11E11
330
11DBE
100
AcDbEntity
  8
0
100
AcDbSpline
210
0.0
220
0.0
230
1.0
 70
     8
 71
     3
 72
     8
 73
     4
 74
     0
 42
0.000000001
 43
0.0000000001
 40
0.0
 40
0.0
 40
0.0
 40
0.0
 40
1.0
 40
1.0
 40
1.0
 40
1.0
 10
11.31987277880043
 20
-97.58501840203283
 30
0.0
 10
11.30102037690636
 20
-98.02491925668361
 30
0.0
 10
11.15136417744065
 20
-98.58308486927882
 30
0.0
 10
10.93525465633972
 20
-99.07760184544315
 30
0.0
  0
LINE
  5
11E12
330
11DBE
100
AcDbEntity
  8
0
100
AcDbLine
 10
10.61241244460346
 20
-97.99347081642245
 30
0.0
 11
11.31987277880044
 21
-97.58501840203281
 31
0.0
  0
SPLINE
  5
11E13
330
11DBE
100
AcDbEntity
  8
0
100
AcDbSpline
210
0.0
220
0.0
230
1.0
 70
     8
 71
     3
 72
     8
 73
     4
 74
     0
 42
0.000000001
 43
0.0000000001
 40
-1.0
 40
-1.0
 40
-1.0
 40
-1.0
 40
0.0
 40
0.0
 40
0.0
 40
0.0
 10
13.7798032451419
 20
-100.2300047903544
 30
0.0
 10
13.79865564703598
 20
-100.3696850279368
 30
0.0
 10
13.73390005305555
 20
-100.5164611282186
 30
0.0
 10
13.60523305839894
 20
-100.6191145946025
 30
0.0
  0
ELLIPSE
  5
11E14
330
11DBE
100
AcDbEntity
  8
0
100
AcDbEllipse
 10
12.01950792608127
 20
-99.40117364250369
 30
0.0
 11
-1.25
 21
2.165063509461095
 31
0.0
210
0.0
220
0.0
230
1.0
 40
0.5773502691896261
 41
4.018964455725479
 42
6.97660983183879
  0
ELLIPSE
  5
11E15
330
11DBE
100
AcDbEntity
  8
0
100
AcDbEllipse
 10
44.78201662138224
 20
-117.8870336358982
 30
0.0
 11
-1.25
 21
-2.165063509461097
 31
0.0
210
0.0
220
0.0
230
1.0
 40
0.816496580927726
 41
4.968762307403182
 42
6.069429174707157
  0
LINE
  5
11E16
330
11DBE
100
AcDbEntity
  8
0
100
AcDbLine
 10
42.75505980973436
 20
-117.448774916317
 30
0.0
 11
42.25480980983563
 21
-117.1599554442133
 31
0.0
  0
LINE
  5
11E17
330
11DBE
100
AcDbEntity
  8
0
100
AcDbLine
 10
42.25480980983563
 20
-117.1599554442133
 30
0.0
 11
42.00505980973438
 21
-117.0157622144248
 31
0.0
  0
ELLIPSE
  5
11E18
330
11DBE
100
AcDbEntity
  8
0
100
AcDbEllipse
 10
44.03201662138225
 20
-117.454020934006
 30
0.0
 11
-1.249999999999999
 21
-2.165063509461097
 31
0.0
210
0.0
220
0.0
230
0.9999999999999998
 40
0.8164965809277262
 41
4.968762307403174
 42
7.597608306955984
  0
LINE
  5
11E19
330
11DBE
100
AcDbEntity
  8
0
100
AcDbLine
 10
42.07901776041527
 20
-116.5685639086024
 30
0.0
 11
42.43221759799808
 21
-116.3646438872963
 31
0.0
  0
SPLINE
  5
11E1A
330
11DBE
100
AcDbEntity
  8
0
100
AcDbSpline
210
0.0
220
0.0
230
1.0
 70
     8
 71
     3
 72
     8
 73
     4
 74
     0
 42
0.000000001
 43
0.0000000001
 40
-1.0
 40
-1.0
 40
-1.0
 40
-1.0
 40
0.0
 40
0.0
 40
0.0
 40
0.0
 10
42.00505980973438
 20
-117.0157622144248
 30
0.0
 10
42.02962682208111
 20
-116.8530065952317
 30
0.0
 10
42.06016535852119
 20
-116.6864752675681
 30
0.0
 10
42.07901776041525
 20
-116.5685639086024
 30
0.0
  0
SPLINE
  5
11E1B
330
11DBE
100
AcDbEntity
  8
0
100
AcDbSpline
210
0.0
220
0.0
230
1.0
 70
     8
 71
     3
 72
     8
 73
     4
 74
     0
 42
0.000000001
 43
0.0000000001
 40
0.0
 40
0.0
 40
0.0
 40
0.0
 40
1.0
 40
1.0
 40
1.0
 40
1.0
 10
43.13967793219508
 20
-115.9561914729066
 30
0.0
 10
43.12082553030101
 20
-116.3960923275574
 30
0.0
 10
42.97116933083517
 20
-116.9542579401526
 30
0.0
 10
42.75505980973436
 20
-117.448774916317
 30
0.0
  0
LINE
  5
11E1C
330
11DBE
100
AcDbEntity
  8
0
100
AcDbLine
 10
42.43221759799808
 20
-116.3646438872963
 30
0.0
 11
43.1396779321951
 21
-115.9561914729066
 31
0.0
  0
SPLINE
  5
11E1D
330
11DBE
100
AcDbEntity
  8
0
100
AcDbSpline
210
0.0
220
0.0
230
1.0
 70
     8
 71
     3
 72
     8
 73
     4
 74
     0
 42
0.000000001
 43
0.0000000001
 40
-1.0
 40
-1.0
 40
-1.0
 40
-1.0
 40
0.0
 40
0.0
 40
0.0
 40
0.0
 10
45.59960839853655
 20
-118.6011778612282
 30
0.0
 10
45.6184608004306
 20
-118.7408580988107
 30
0.0
 10
45.55370520645008
 20
-118.8876341990923
 30
0.0
 10
45.42503821179359
 20
-118.9902876654763
 30
0.0
  0
ELLIPSE
  5
11E1E
330
11DBE
100
AcDbEntity
  8
0
100
AcDbEllipse
 10
43.83931307947591
 20
-117.7723467133775
 30
0.0
 11
-1.25
 21
2.165063509461096
 31
0.0
210
0.0
220
0.0
230
0.9999999999999998
 40
0.577350269189626
 41
4.018964455725479
 42
6.976609831838792
  0
ELLIPSE
  5
11E1F
330
11DBE
100
AcDbEntity
  8
0
100
AcDbEllipse
 10
27.22230372159205
 20
-106.9537670177183
 30
0.0
 11
1.250000000000131
 21
-2.165063509461021
 31
0.0
210
0.0
220
0.0
230
1.0
 40
0.577350269189626
 41
3.579741684173546
 42
3.835017177445182
  0
SPLINE
  5
11E20
330
11DBE
100
AcDbEntity
  8
0
100
AcDbSpline
210
0.0
220
0.0
230
1.0
 70
     8
 71
     3
 72
     8
 73
     4
 74
     0
 42
0.000000001
 43
0.0000000001
 40
-1.0
 40
-1.0
 40
-1.0
 40
-1.0
 40
0.0
 40
0.0
 40
0.0
 40
0.0
 10
24.32739027969992
 20
-106.8095549526141
 30
0.0
 10
24.35195729222593
 20
-106.6467993334982
 30
0.0
 10
24.38249582882493
 20
-106.4802680059344
 30
0.0
 10
24.40134823088202
 20
-106.3623566470812
 30
0.0
  0
SPLINE
  5
11E21
330
11DBE
100
AcDbEntity
  8
0
100
AcDbSpline
210
0.0
220
0.0
230
1.0
 70
     8
 71
     3
 72
     8
 73
     4
 74
     0
 42
0.000000001
 43
0.0000000001
 40
0.0
 40
0.0
 40
0.0
 40
0.0
 40
1.0
 40
1.0
 40
1.0
 40
1.0
 10
25.46200840266184
 20
-105.7499842113854
 30
0.0
 10
25.44315600060475
 20
-106.189885065878
 30
0.0
 10
25.29349980100851
 20
-106.7480506783698
 30
0.0
 10
25.07739027969992
 20
-107.2425676545063
 30
0.0
  0
SPLINE
  5
11E22
330
11DBE
100
AcDbEntity
  8
0
100
AcDbSpline
210
0.0
220
0.0
230
1.0
 70
     8
 71
     3
 72
     8
 73
     4
 74
     0
 42
0.000000001
 43
0.0000000001
 40
-1.0
 40
-1.0
 40
-1.0
 40
-1.0
 40
0.0
 40
0.0
 40
0.0
 40
0.0
 10
31.45747277467516
 20
-110.4362120518757
 30
0.0
 10
31.47632517673218
 20
-110.5758922895339
 30
0.0
 10
31.41156958293347
 20
-110.7226683899126
 30
0.0
 10
31.28290258843338
 20
-110.8253218564131
 30
0.0
  0
ELLIPSE
  5
11E23
330
11DBE
100
AcDbEntity
  8
0
100
AcDbEllipse
 10
27.10434709071846
 20
-107.6808263760338
 30
0.0
 11
-1.25
 21
-2.165063509461097
 31
0.0
210
0.0
220
0.0
230
1.0
 40
0.816496580927726
 41
4.968762306576077
 42
6.283185307179585
  0
LINE
  5
11E24
330
11DBE
100
AcDbEntity
  8
0
100
AcDbLine
 10
25.07739027969992
 20
-107.2425676545063
 30
0.0
 11
24.57714027980025
 21
-106.9537481824021
 31
0.0
  0
LINE
  5
11E25
330
11DBE
100
AcDbEntity
  8
0
100
AcDbLine
 10
24.57714027980025
 20
-106.9537481824021
 30
0.0
 11
24.32739027969992
 21
-106.8095549526141
 31
0.0
  0
ELLIPSE
  5
11E26
330
11DBE
100
AcDbEntity
  8
0
100
AcDbEllipse
 10
26.35434709071848
 20
-107.2478136741416
 30
0.0
 11
-1.25
 21
-2.165063509461097
 31
0.0
210
0.0
220
0.0
230
1.0
 40
0.8164965809277262
 41
4.968762306576078
 42
6.283185307179589
  0
LINE
  5
11E27
330
11DBE
100
AcDbEntity
  8
0
100
AcDbLine
 10
28.63988099665122
 20
-111.454118635922
 30
0.0
 11
25.10434709071848
 21
-109.4128771836027
 31
0.0
  0
ELLIPSE
  5
11E28
330
11DBE
100
AcDbEntity
  8
0
100
AcDbEllipse
 10
29.88988099665125
 20
-109.2890551264608
 30
0.0
 11
-1.249999999999999
 21
-2.165063509461097
 31
0.0
210
0.0
220
0.0
230
1.0
 40
0.8164965809277262
 41
0.0
 42
1.314423000603477
  0
LINE
  5
11E29
330
11DBE
100
AcDbEntity
  8
0
100
AcDbLine
 10
24.40134823088204
 20
-106.3623566470812
 30
0.0
 11
24.75454806846763
 21
-106.1584366257734
 31
0.0
  0
LINE
  5
11E2A
330
11DBE
100
AcDbEntity
  8
0
100
AcDbLine
 10
24.75454806846763
 20
-106.1584366257734
 30
0.0
 11
25.46200840266185
 21
-105.7499842113854
 31
0.0
  0
ELLIPSE
  5
11E2B
330
11DBE
100
AcDbEntity
  8
0
100
AcDbEllipse
 10
29.69717745574497
 20
-109.6073809057333
 30
0.0
 11
1.249999999999871
 21
-2.16506350946117
 31
0.0
210
0.0
220
0.0
230
1.0
 40
0.5773502691896262
 41
0.877371802939348
 42
2.35619449019258
  0
LINE
  5
11E2C
330
11DBE
100
AcDbEntity
  8
0
100
AcDbLine
 10
26.16164354981223
 20
-105.5248980010948
 30
0.0
 11
29.69717745574497
 21
-107.5661394534141
 31
0.0
  0
ELLIPSE
  5
11E2D
330
11DBE
100
AcDbEntity
  8
0
100
AcDbEllipse
 10
26.16164354981223
 20
-107.5661394534141
 30
0.0
 11
-1.250000000000001
 21
2.165063509461095
 31
0.0
210
0.0
220
0.0
230
0.9999999999999998
 40
0.5773502691896263
 41
5.497787143782142
 42
6.976609831035327
  0
LINE
  5
11E2E
330
11DBE
100
AcDbEntity
  8
0
100
AcDbLine
 10
56.85007785330842
 20
170.6142456702952
 30
0.0
 11
1.130063495808428
 21
202.7842109588476
 31
0.0
  0
LINE
  5
11E2F
330
11DBE
100
AcDbEntity
  8
0
100
AcDbLine
 10
27.57585711218553
 20
-72.86503476235278
 30
0.0
 11
27.57585711218553
 21
147.9156407205043
 31
0.0
  0
LINE
  5
11E30
330
11DBE
100
AcDbEntity
  8
0
100
AcDbLine
 10
26.5151969404057
 20
148.5280131562001
 30
0.0
 11
26.5151969404057
 21
-72.25266232665697
 31
0.0
  0
LINE
  5
11E31
330
11DBE
100
AcDbEntity
  8
0
100
AcDbLine
 10
56.85007785330842
 20
-60.04603844178737
 30
0.0
 11
31.11139101811824
 21
-74.90627621467208
 31
0.0
  0
LINE
  5
11E32
330
11DBE
100
AcDbEntity
  8
0
100
AcDbLine
 10
31.11139101811826
 20
154.0393650774623
 30
0.0
 11
56.85007785330845
 21
168.899602850347
 31
0.0
  0
LINE
  5
11E33
330
11DBE
100
AcDbEntity
  8
0
100
AcDbLine
 10
-31.11400572629814
 20
181.800248829005
 30
0.0
 11
-31.11400572629814
 21
-38.98042665385205
 31
0.0
  0
LINE
  5
11E34
330
11DBE
100
AcDbEntity
  8
0
100
AcDbLine
 10
-1.83978498517507
 20
202.7842109588476
 30
0.0
 11
-27.5784718203654
 21
187.923973185963
 31
0.0
  0
LINE
  5
11E35
330
11DBE
100
AcDbEntity
  8
0
100
AcDbLine
 10
-30.05334555451832
 20
181.1878763933092
 30
0.0
 11
-30.05334555451832
 21
-39.59279908954784
 31
0.0
  0
LINE
  5
11E36
330
11DBE
100
AcDbEntity
  8
0
100
AcDbLine
 10
56.85007785330845
 20
168.899602850347
 30
0.0
 11
55.7894176815286
 21
169.5119752860428
 31
0.0
  0
LINE
  5
11E37
330
11DBE
100
AcDbEntity
  8
0
100
AcDbLine
 10
55.7894176815286
 20
169.5119752860428
 30
0.0
 11
30.05073084633842
 21
154.6517375131581
 31
0.0
  0
LINE
  5
11E38
330
11DBE
100
AcDbEntity
  8
0
100
AcDbLine
 10
0.0694033240286096
 20
-26.77380276898255
 30
0.0
 11
2.12001298946959
 21
-27.95772281132777
 31
0.0
  0
LINE
  5
11E39
330
11DBE
100
AcDbEntity
  8
0
100
AcDbLine
 10
56.85007785330842
 20
170.6142456702952
 30
0.0
 11
55.78941768152859
 21
170.0018732345994
 31
0.0
  0
LINE
  5
11E3A
330
11DBE
100
AcDbEntity
  8
0
100
AcDbLine
 10
1.130063495808433
 20
202.7842109588476
 30
0.0
 11
0.0694033240286096
 21
202.1718385231518
 31
0.0
  0
LINE
  5
11E3B
330
11DBE
100
AcDbEntity
  8
0
100
AcDbLine
 10
-1.83978498517507
 20
202.7842109588476
 30
0.0
 11
-0.7791248133952467
 21
202.1718385231518
 31
0.0
  0
LINE
  5
11E3C
330
11DBE
100
AcDbEntity
  8
0
100
AcDbLine
 10
0.0694033240286096
 20
202.1718385231518
 30
0.0
 11
55.78941768152859
 21
170.0018732345994
 31
0.0
  0
LINE
  5
11E3D
330
11DBE
100
AcDbEntity
  8
0
100
AcDbLine
 10
-26.51781164858558
 20
-41.63404054186716
 30
0.0
 11
-0.7791248133952467
 21
-26.77380276898255
 31
0.0
  0
LINE
  5
11E3E
330
11DBE
100
AcDbEntity
  8
0
100
AcDbLine
 10
-26.51781164858558
 20
187.3116007502672
 30
0.0
 11
-0.7791248133952467
 21
202.1718385231518
 31
0.0
  0
LINE
  5
11E3F
330
11DBE
100
AcDbEntity
  8
0
100
AcDbLine
 10
31.11139101811824
 20
-74.90627621467208
 30
0.0
 11
27.57585711218553
 21
-72.86503476235278
 31
0.0
  0
LINE
  5
11E40
330
11DBE
100
AcDbEntity
  8
0
100
AcDbLine
 10
27.57585711218553
 20
-72.86503476235278
 30
0.0
 11
26.5151969404057
 21
-72.25266232665697
 31
0.0
  0
LINE
  5
11E41
330
11DBE
100
AcDbEntity
  8
0
100
AcDbLine
 10
26.5151969404057
 20
148.5280131562001
 30
0.0
 11
27.57585711218553
 21
147.9156407205043
 31
0.0
  0
LINE
  5
11E42
330
11DBE
100
AcDbEntity
  8
0
100
AcDbLine
 10
27.57585711218553
 20
147.9156407205043
 30
0.0
 11
31.11139101811826
 21
154.0393650774623
 31
0.0
  0
LINE
  5
11E43
330
11DBE
100
AcDbEntity
  8
0
100
AcDbLine
 10
-26.51781164858558
 20
-41.63404054186716
 30
0.0
 11
-30.05334555451832
 21
-39.59279908954786
 31
0.0
  0
LINE
  5
11E44
330
11DBE
100
AcDbEntity
  8
0
100
AcDbLine
 10
-30.05334555451832
 20
-39.59279908954786
 30
0.0
 11
-31.11400572629814
 21
-38.98042665385206
 31
0.0
  0
LINE
  5
11E45
330
11DBE
100
AcDbEntity
  8
0
100
AcDbLine
 10
-27.5784718203654
 20
187.923973185963
 30
0.0
 11
-31.11400572629814
 21
181.800248829005
 31
0.0
  0
LINE
  5
11E46
330
11DBE
100
AcDbEntity
  8
0
100
AcDbLine
 10
-31.11400572629814
 20
181.800248829005
 30
0.0
 11
-30.05334555451832
 21
181.1878763933092
 31
0.0
  0
LINE
  5
11E47
330
11DBE
100
AcDbEntity
  8
0
100
AcDbLine
 10
31.11139101811826
 20
154.0393650774623
 30
0.0
 11
30.05073084633842
 21
154.6517375131581
 31
0.0
  0
LINE
  5
11E48
330
11DBE
100
AcDbEntity
  8
0
100
AcDbLine
 10
30.05073084633842
 20
154.6517375131581
 30
0.0
 11
26.5151969404057
 21
148.5280131562001
 31
0.0
  0
LINE
  5
11E49
330
11DBE
100
AcDbEntity
  8
0
100
AcDbLine
 10
-30.05334555451832
 20
181.1878763933092
 30
0.0
 11
-26.51781164858558
 21
187.3116007502672
 31
0.0
  0
LINE
  5
11E4A
330
11DBE
100
AcDbEntity
  8
0
100
AcDbLine
 10
-26.51781164858558
 20
187.3116007502672
 30
0.0
 11
-27.5784718203654
 21
187.923973185963
 31
0.0
  0
LINE
  5
11E4B
330
11DBE
100
AcDbEntity
  8
0
100
AcDbLine
 10
0.3500778534638682
 20
-181.4163084087337
 30
0.0
 11
0.3500778534638504
 21
-175.6428057168375
 31
0.0
  0
LINE
  5
11E4C
330
11DBE
100
AcDbEntity
  8
0
100
AcDbLine
 10
0.3500778534638504
 20
-175.6428057168375
 30
0.0
 11
-0.7105823183159599
 21
-175.0304332811416
 31
0.0
  0
LINE
  5
11E4D
330
11DBE
100
AcDbEntity
  8
0
100
AcDbLine
 10
-0.7105823183159599
 20
-175.0304332811416
 30
0.0
 11
-0.7105823183159377
 21
-180.8039359730378
 31
0.0
  0
LINE
  5
11E4E
330
11DBE
100
AcDbEntity
  8
0
100
AcDbLine
 10
-0.7105823183159377
 20
-180.8039359730378
 30
0.0
 11
0.3500778534638682
 21
-181.4163084087337
 31
0.0
  0
LINE
  5
11E4F
330
11DBE
100
AcDbEntity
  8
0
100
AcDbLine
 10
-58.33978498501956
 20
-141.7581976083368
 30
0.0
 11
-58.33978498501956
 21
-147.5317003002331
 31
0.0
  0
LINE
  5
11E50
330
11DBE
100
AcDbEntity
  8
0
100
AcDbLine
 10
-58.33978498501956
 20
-147.5317003002331
 30
0.0
 11
-57.27912481323972
 21
-148.1440727359288
 31
0.0
  0
LINE
  5
11E51
330
11DBE
100
AcDbEntity
  8
0
100
AcDbLine
 10
-57.27912481323972
 20
-148.1440727359288
 30
0.0
 11
-57.27912481323975
 21
-142.3705700440326
 31
0.0
  0
LINE
  5
11E52
330
11DBE
100
AcDbEntity
  8
0
100
AcDbLine
 10
-57.27912481323975
 20
-142.3705700440326
 30
0.0
 11
-58.33978498501956
 21
-141.7581976083368
 31
0.0
  0
ELLIPSE
  5
11E53
330
11DBE
100
AcDbEntity
  8
0
100
AcDbEllipse
 10
33.23271136167755
 20
148.813786959525
 30
0.0
 11
1.250000000000129
 21
2.165063509461022
 31
0.0
210
0.0
220
0.0
230
1.0
 40
0.5773502691896258
 41
0.0
 42
6.283185307179586
  0
ELLIPSE
  5
11E54
330
11DBE
100
AcDbEntity
  8
0
100
AcDbEllipse
 10
33.23271136167755
 20
132.4838553409704
 30
0.0
 11
1.250000000000129
 21
2.165063509461022
 31
0.0
210
0.0
220
0.0
230
1.0
 40
0.5773502691896258
 41
0.0
 42
6.283185307179586
  0
ELLIPSE
  5
11E55
330
11DBE
100
AcDbEntity
  8
0
100
AcDbEllipse
 10
33.23271136167755
 20
116.1539237224159
 30
0.0
 11
1.250000000000129
 21
2.165063509461022
 31
0.0
210
0.0
220
0.0
230
1.0
 40
0.5773502691896258
 41
0.0
 42
6.283185307179586
  0
ELLIPSE
  5
11E56
330
11DBE
100
AcDbEntity
  8
0
100
AcDbEllipse
 10
33.23271136167755
 20
99.82399210386143
 30
0.0
 11
1.250000000000129
 21
2.165063509461022
 31
0.0
210
0.0
220
0.0
230
1.0
 40
0.5773502691896258
 41
0.0
 42
6.283185307179586
  0
ELLIPSE
  5
11E57
330
11DBE
100
AcDbEntity
  8
0
100
AcDbEllipse
 10
33.23271136167755
 20
83.4940604853069
 30
0.0
 11
1.250000000000129
 21
2.165063509461022
 31
0.0
210
0.0
220
0.0
230
1.0
 40
0.5773502691896258
 41
0.0
 42
6.283185307179586
  0
ELLIPSE
  5
11E58
330
11DBE
100
AcDbEntity
  8
0
100
AcDbEllipse
 10
33.23271136167755
 20
67.16412886675238
 30
0.0
 11
1.250000000000129
 21
2.165063509461022
 31
0.0
210
0.0
220
0.0
230
1.0
 40
0.5773502691896258
 41
0.0
 42
6.283185307179586
  0
ELLIPSE
  5
11E59
330
11DBE
100
AcDbEntity
  8
0
100
AcDbEllipse
 10
33.23271136167755
 20
50.83419724819785
 30
0.0
 11
1.250000000000129
 21
2.165063509461022
 31
0.0
210
0.0
220
0.0
230
1.0
 40
0.5773502691896258
 41
0.0
 42
6.283185307179586
  0
ELLIPSE
  5
11E5A
330
11DBE
100
AcDbEntity
  8
0
100
AcDbEllipse
 10
33.23271136167755
 20
34.50426562964337
 30
0.0
 11
1.250000000000129
 21
2.165063509461022
 31
0.0
210
0.0
220
0.0
230
1.0
 40
0.5773502691896258
 41
0.0
 42
6.283185307179586
  0
ELLIPSE
  5
11E5B
330
11DBE
100
AcDbEntity
  8
0
100
AcDbEllipse
 10
33.23271136167755
 20
18.17433401108882
 30
0.0
 11
1.250000000000129
 21
2.165063509461022
 31
0.0
210
0.0
220
0.0
230
1.0
 40
0.5773502691896258
 41
0.0
 42
6.283185307179586
  0
ELLIPSE
  5
11E5C
330
11DBE
100
AcDbEntity
  8
0
100
AcDbEllipse
 10
33.23271136167755
 20
1.844402392534316
 30
0.0
 11
1.250000000000129
 21
2.165063509461022
 31
0.0
210
0.0
220
0.0
230
1.0
 40
0.5773502691896258
 41
0.0
 42
6.283185307179586
  0
ELLIPSE
  5
11E5D
330
11DBE
100
AcDbEntity
  8
0
100
AcDbEllipse
 10
33.23271136167755
 20
-14.48552922602021
 30
0.0
 11
1.250000000000129
 21
2.165063509461022
 31
0.0
210
0.0
220
0.0
230
1.0
 40
0.5773502691896258
 41
0.0
 42
6.283185307179586
  0
ELLIPSE
  5
11E5E
330
11DBE
100
AcDbEntity
  8
0
100
AcDbEllipse
 10
33.23271136167755
 20
-30.81546084457473
 30
0.0
 11
1.250000000000129
 21
2.165063509461022
 31
0.0
210
0.0
220
0.0
230
1.0
 40
0.5773502691896258
 41
0.0
 42
6.283185307179586
  0
ELLIPSE
  5
11E5F
330
11DBE
100
AcDbEntity
  8
0
100
AcDbEllipse
 10
33.23271136167755
 20
-47.14539246312925
 30
0.0
 11
1.250000000000129
 21
2.165063509461022
 31
0.0
210
0.0
220
0.0
230
1.0
 40
0.5773502691896258
 41
0.0
 42
6.283185307179586
  0
ELLIPSE
  5
11E60
330
11DBE
100
AcDbEntity
  8
0
100
AcDbEllipse
 10
32.17205118989773
 20
149.4261593952207
 30
0.0
 11
1.249999999999864
 21
2.165063509461174
 31
0.0
210
0.0
220
0.0
230
1.0
 40
0.5773502691896218
 41
3.579741684173548
 42
5.845036276594991
  0
ELLIPSE
  5
11E61
330
11DBE
100
AcDbEntity
  8
0
100
AcDbEllipse
 10
32.17205118989773
 20
133.0962277766662
 30
0.0
 11
1.249999999999864
 21
2.165063509461174
 31
0.0
210
0.0
220
0.0
230
1.0
 40
0.5773502691896218
 41
3.579741684173548
 42
5.845036276594991
  0
ELLIPSE
  5
11E62
330
11DBE
100
AcDbEntity
  8
0
100
AcDbEllipse
 10
32.17205118989773
 20
116.7662961581117
 30
0.0
 11
1.249999999999864
 21
2.165063509461174
 31
0.0
210
0.0
220
0.0
230
1.0
 40
0.5773502691896218
 41
3.579741684173544
 42
5.845036276595001
  0
ELLIPSE
  5
11E63
330
11DBE
100
AcDbEntity
  8
0
100
AcDbEllipse
 10
32.17205118989773
 20
100.4363645395572
 30
0.0
 11
1.249999999999864
 21
2.165063509461174
 31
0.0
210
0.0
220
0.0
230
1.0
 40
0.5773502691896218
 41
3.579741684173544
 42
5.845036276595001
  0
ELLIPSE
  5
11E64
330
11DBE
100
AcDbEntity
  8
0
100
AcDbEllipse
 10
32.17205118989773
 20
84.10643292100269
 30
0.0
 11
1.249999999999864
 21
2.165063509461174
 31
0.0
210
0.0
220
0.0
230
1.0
 40
0.5773502691896218
 41
3.579741684173544
 42
5.845036276595001
  0
ELLIPSE
  5
11E65
330
11DBE
100
AcDbEntity
  8
0
100
AcDbEllipse
 10
32.17205118989773
 20
67.77650130244817
 30
0.0
 11
1.249999999999864
 21
2.165063509461174
 31
0.0
210
0.0
220
0.0
230
1.0
 40
0.5773502691896218
 41
3.579741684173544
 42
5.845036276594997
  0
ELLIPSE
  5
11E66
330
11DBE
100
AcDbEntity
  8
0
100
AcDbEllipse
 10
32.17205118989773
 20
51.44656968389364
 30
0.0
 11
1.249999999999864
 21
2.165063509461174
 31
0.0
210
0.0
220
0.0
230
1.0
 40
0.5773502691896218
 41
3.579741684173544
 42
5.845036276594997
  0
ELLIPSE
  5
11E67
330
11DBE
100
AcDbEntity
  8
0
100
AcDbEllipse
 10
32.17205118989773
 20
35.11663806533916
 30
0.0
 11
1.249999999999864
 21
2.165063509461174
 31
0.0
210
0.0
220
0.0
230
1.0
 40
0.5773502691896218
 41
3.579741684173542
 42
5.845036276594997
  0
ELLIPSE
  5
11E68
330
11DBE
100
AcDbEntity
  8
0
100
AcDbEllipse
 10
32.17205118989773
 20
18.78670644678461
 30
0.0
 11
1.249999999999864
 21
2.165063509461174
 31
0.0
210
0.0
220
0.0
230
1.0
 40
0.5773502691896218
 41
3.579741684173542
 42
5.845036276594995
  0
ELLIPSE
  5
11E69
330
11DBE
100
AcDbEntity
  8
0
100
AcDbEllipse
 10
32.17205118989773
 20
2.456774828230106
 30
0.0
 11
1.249999999999864
 21
2.165063509461174
 31
0.0
210
0.0
220
0.0
230
1.0
 40
0.5773502691896218
 41
3.579741684173542
 42
5.845036276594996
  0
ELLIPSE
  5
11E6A
330
11DBE
100
AcDbEntity
  8
0
100
AcDbEllipse
 10
32.17205118989773
 20
-13.87315679032442
 30
0.0
 11
1.249999999999864
 21
2.165063509461175
 31
0.0
210
0.0
220
0.0
230
0.9999999999999998
 40
0.5773502691896218
 41
3.579741684173548
 42
5.845036276594988
  0
ELLIPSE
  5
11E6B
330
11DBE
100
AcDbEntity
  8
0
100
AcDbEllipse
 10
32.17205118989773
 20
-30.20308840887894
 30
0.0
 11
1.249999999999864
 21
2.165063509461175
 31
0.0
210
0.0
220
0.0
230
0.9999999999999998
 40
0.5773502691896218
 41
3.579741684173548
 42
5.845036276594988
  0
ELLIPSE
  5
11E6C
330
11DBE
100
AcDbEntity
  8
0
100
AcDbEllipse
 10
32.17205118989773
 20
-46.53302002743346
 30
0.0
 11
1.249999999999864
 21
2.165063509461175
 31
0.0
210
0.0
220
0.0
230
0.9999999999999998
 40
0.5773502691896218
 41
3.579741684173546
 42
5.845036276594989
  0
ELLIPSE
  5
11E6D
330
11DBE
100
AcDbEntity
  8
0
100
AcDbEllipse
 10
33.23271136167755
 20
-63.47532408168377
 30
0.0
 11
1.250000000000129
 21
2.165063509461022
 31
0.0
210
0.0
220
0.0
230
1.0
 40
0.5773502691896258
 41
0.0
 42
6.283185307179586
  0
ELLIPSE
  5
11E6E
330
11DBE
100
AcDbEntity
  8
0
100
AcDbEllipse
 10
32.17205118989773
 20
-62.86295164598797
 30
0.0
 11
1.249999999999864
 21
2.165063509461175
 31
0.0
210
0.0
220
0.0
230
0.9999999999999998
 40
0.5773502691896218
 41
3.579741684173546
 42
5.845036276594989
  0
LINE
  5
11E6F
330
11DBE
100
AcDbEntity
  8
0
100
AcDbLine
 10
56.85007785330842
 20
-60.04603844178737
 30
0.0
 11
56.85007785330845
 21
168.899602850347
 31
0.0
  0
ELLIPSE
  5
11E70
330
11DBE
100
AcDbEntity
  8
0
100
AcDbEllipse
 10
55.36515361281667
 20
169.7569242603211
 30
0.0
 11
0.6000000000000006
 21
0.0
 31
0.0
210
0.0
220
0.0
230
1.0
 40
0.5773502691896257
 41
5.497787143782228
 42
7.068583470577047
  0
LINE
  5
11E71
330
11DBE
100
AcDbEntity
  8
0
100
AcDbLine
 10
55.78941768152859
 20
170.0018732345994
 30
0.0
 11
55.78941768152859
 21
169.5119752860427
 31
0.0
  0
ELLIPSE
  5
11E72
330
11DBE
100
AcDbEntity
  8
0
100
AcDbEllipse
 10
55.36515361281667
 20
169.7569242603211
 30
0.0
 11
2.100000000000008
 21
-0.0000000000000001
 31
0.0
210
0.0
220
0.0
230
1.0
 40
0.5773502691896257
 41
5.497787143782142
 42
7.06858347057703
  0
ELLIPSE
  5
11E73
330
11DBE
100
AcDbEntity
  8
0
100
AcDbEllipse
 10
55.36515361281667
 20
-59.18871703181327
 30
0.0
 11
2.100000000000004
 21
-0.0000000000000006
 31
0.0
210
0.0
220
0.0
230
1.0
 40
0.5773502691896257
 41
5.497787143782144
 42
6.283185307179588
  0
LINE
  5
11E74
330
11DBE
100
AcDbEntity
  8
0
100
AcDbLine
 10
0.0694033240286096
 20
202.1718385231518
 30
0.0
 11
0.0694033240286096
 21
-26.77380276898255
 31
0.0
  0
ELLIPSE
  5
11E75
330
11DBE
100
AcDbEntity
  8
0
100
AcDbEllipse
 10
-0.3548607446833163
 20
201.9268895488735
 30
0.0
 11
0.6000000000000006
 21
-0.0000000000000359
 31
0.0
210
0.0
220
0.0
230
1.0
 40
0.5773502691896257
 41
0.7853981633976606
 42
2.356194490192537
  0
LINE
  5
11E76
330
11DBE
100
AcDbEntity
  8
0
100
AcDbLine
 10
-0.7791248133952467
 20
202.1718385231518
 30
0.0
 11
-0.7791248133952467
 21
-26.77380276898255
 31
0.0
  0
ELLIPSE
  5
11E77
330
11DBE
100
AcDbEntity
  8
0
100
AcDbEllipse
 10
-0.3548607446833163
 20
-27.01875174326087
 30
0.0
 11
0.6000000000000006
 21
-0.0000000000000359
 31
0.0
210
0.0
220
0.0
230
1.0
 40
0.5773502691896257
 41
0.7853981633976828
 42
2.356194490192587
  0
ELLIPSE
  5
11E78
330
11DBE
100
AcDbEntity
  8
0
100
AcDbEllipse
 10
-0.3548607446833163
 20
201.9268895488735
 30
0.0
 11
-2.100000000000004
 21
-0.0000000000001251
 31
0.0
210
0.0
220
0.0
230
1.0
 40
0.5773502691896258
 41
3.926990816986991
 42
5.49778714378189
  0
LINE
  5
11E79
330
11DBE
100
AcDbEntity
  8
0
100
AcDbLine
 10
57.46515361281667
 20
169.7569242603211
 30
0.0
 11
57.46515361281667
 21
-59.18871703181327
 31
0.0
  0
ELLIPSE
  5
11E7A
330
11DBE
100
AcDbEntity
  8
0
100
AcDbEllipse
 10
-25.45715147680577
 20
178.6159121633869
 30
0.0
 11
1.24999999999987
 21
2.165063509461172
 31
0.0
210
0.0
220
0.0
230
0.9999999999999998
 40
0.5773502691896257
 41
3.57974168417355
 42
5.845036276595003
  0
ELLIPSE
  5
11E7B
330
11DBE
100
AcDbEntity
  8
0
100
AcDbEllipse
 10
-25.45715147680577
 20
162.2859805448323
 30
0.0
 11
1.24999999999987
 21
2.165063509461172
 31
0.0
210
0.0
220
0.0
230
0.9999999999999998
 40
0.5773502691896257
 41
3.57974168417355
 42
5.845036276595003
  0
ELLIPSE
  5
11E7C
330
11DBE
100
AcDbEntity
  8
0
100
AcDbEllipse
 10
-25.45715147680577
 20
145.9560489262778
 30
0.0
 11
1.24999999999987
 21
2.165063509461171
 31
0.0
210
0.0
220
0.0
230
1.0
 40
0.5773502691896259
 41
3.579741684173542
 42
5.845036276594988
  0
ELLIPSE
  5
11E7D
330
11DBE
100
AcDbEntity
  8
0
100
AcDbEllipse
 10
-25.45715147680577
 20
129.6261173077233
 30
0.0
 11
1.24999999999987
 21
2.165063509461171
 31
0.0
210
0.0
220
0.0
230
1.0
 40
0.5773502691896259
 41
3.579741684173542
 42
5.845036276594988
  0
ELLIPSE
  5
11E7E
330
11DBE
100
AcDbEntity
  8
0
100
AcDbEllipse
 10
-25.45715147680577
 20
113.2961856891688
 30
0.0
 11
1.24999999999987
 21
2.165063509461171
 31
0.0
210
0.0
220
0.0
230
1.0
 40
0.5773502691896259
 41
3.579741684173542
 42
5.845036276594988
  0
ELLIPSE
  5
11E7F
330
11DBE
100
AcDbEntity
  8
0
100
AcDbEllipse
 10
-25.45715147680577
 20
96.96625407061427
 30
0.0
 11
1.24999999999987
 21
2.165063509461171
 31
0.0
210
0.0
220
0.0
230
1.0
 40
0.5773502691896259
 41
3.579741684173542
 42
5.845036276594988
  0
ELLIPSE
  5
11E80
330
11DBE
100
AcDbEntity
  8
0
100
AcDbEllipse
 10
-25.45715147680577
 20
80.63632245205974
 30
0.0
 11
1.24999999999987
 21
2.165063509461171
 31
0.0
210
0.0
220
0.0
230
1.0
 40
0.5773502691896259
 41
3.579741684173541
 42
5.845036276595006
  0
ELLIPSE
  5
11E81
330
11DBE
100
AcDbEntity
  8
0
100
AcDbEllipse
 10
-25.45715147680577
 20
64.30639083350526
 30
0.0
 11
1.24999999999987
 21
2.165063509461171
 31
0.0
210
0.0
220
0.0
230
1.0
 40
0.5773502691896259
 41
3.579741684173541
 42
5.845036276594997
  0
ELLIPSE
  5
11E82
330
11DBE
100
AcDbEntity
  8
0
100
AcDbEllipse
 10
-25.45715147680577
 20
47.97645921495074
 30
0.0
 11
1.24999999999987
 21
2.165063509461171
 31
0.0
210
0.0
220
0.0
230
1.0
 40
0.5773502691896259
 41
3.579741684173541
 42
5.845036276594997
  0
ELLIPSE
  5
11E83
330
11DBE
100
AcDbEntity
  8
0
100
AcDbEllipse
 10
-25.45715147680577
 20
31.64652759639623
 30
0.0
 11
1.24999999999987
 21
2.165063509461171
 31
0.0
210
0.0
220
0.0
230
1.0
 40
0.5773502691896259
 41
3.579741684173541
 42
5.845036276594997
  0
ELLIPSE
  5
11E84
330
11DBE
100
AcDbEntity
  8
0
100
AcDbEllipse
 10
-25.45715147680577
 20
15.3165959778417
 30
0.0
 11
1.24999999999987
 21
2.165063509461171
 31
0.0
210
0.0
220
0.0
230
0.9999999999999998
 40
0.5773502691896259
 41
3.579741684173542
 42
5.84503627659499
  0
ELLIPSE
  5
11E85
330
11DBE
100
AcDbEntity
  8
0
100
AcDbEllipse
 10
-25.45715147680577
 20
-1.013335640712824
 30
0.0
 11
1.24999999999987
 21
2.165063509461171
 31
0.0
210
0.0
220
0.0
230
0.9999999999999998
 40
0.5773502691896259
 41
3.579741684173542
 42
5.84503627659499
  0
ELLIPSE
  5
11E86
330
11DBE
100
AcDbEntity
  8
0
100
AcDbEllipse
 10
-25.45715147680577
 20
-17.34326725926735
 30
0.0
 11
1.24999999999987
 21
2.165063509461171
 31
0.0
210
0.0
220
0.0
230
0.9999999999999998
 40
0.5773502691896259
 41
3.579741684173542
 42
5.84503627659499
  0
ELLIPSE
  5
11E87
330
11DBE
100
AcDbEntity
  8
0
100
AcDbEllipse
 10
-24.39649130502595
 20
178.003539727691
 30
0.0
 11
1.250000000000129
 21
2.165063509461022
 31
0.0
210
0.0
220
0.0
230
1.0
 40
0.5773502691896258
 41
0.0
 42
6.283185307179586
  0
ELLIPSE
  5
11E88
330
11DBE
100
AcDbEntity
  8
0
100
AcDbEllipse
 10
-24.39649130502595
 20
161.6736081091366
 30
0.0
 11
1.250000000000129
 21
2.165063509461022
 31
0.0
210
0.0
220
0.0
230
1.0
 40
0.5773502691896258
 41
0.0
 42
6.283185307179586
  0
ELLIPSE
  5
11E89
330
11DBE
100
AcDbEntity
  8
0
100
AcDbEllipse
 10
-24.39649130502595
 20
145.343676490582
 30
0.0
 11
1.250000000000129
 21
2.165063509461022
 31
0.0
210
0.0
220
0.0
230
1.0
 40
0.5773502691896258
 41
0.0
 42
6.283185307179586
  0
ELLIPSE
  5
11E8A
330
11DBE
100
AcDbEntity
  8
0
100
AcDbEllipse
 10
-24.39649130502595
 20
129.0137448720275
 30
0.0
 11
1.250000000000129
 21
2.165063509461022
 31
0.0
210
0.0
220
0.0
230
1.0
 40
0.5773502691896258
 41
0.0
 42
6.283185307179586
  0
ELLIPSE
  5
11E8B
330
11DBE
100
AcDbEntity
  8
0
100
AcDbEllipse
 10
-24.39649130502595
 20
112.683813253473
 30
0.0
 11
1.250000000000129
 21
2.165063509461022
 31
0.0
210
0.0
220
0.0
230
1.0
 40
0.5773502691896258
 41
0.0
 42
6.283185307179586
  0
ELLIPSE
  5
11E8C
330
11DBE
100
AcDbEntity
  8
0
100
AcDbEllipse
 10
-24.39649130502595
 20
96.35388163491848
 30
0.0
 11
1.250000000000129
 21
2.165063509461022
 31
0.0
210
0.0
220
0.0
230
1.0
 40
0.5773502691896258
 41
0.0
 42
6.283185307179586
  0
ELLIPSE
  5
11E8D
330
11DBE
100
AcDbEntity
  8
0
100
AcDbEllipse
 10
-24.39649130502595
 20
80.02395001636395
 30
0.0
 11
1.250000000000129
 21
2.165063509461022
 31
0.0
210
0.0
220
0.0
230
1.0
 40
0.5773502691896258
 41
0.0
 42
6.283185307179586
  0
ELLIPSE
  5
11E8E
330
11DBE
100
AcDbEntity
  8
0
100
AcDbEllipse
 10
-24.39649130502595
 20
63.69401839780947
 30
0.0
 11
1.250000000000129
 21
2.165063509461022
 31
0.0
210
0.0
220
0.0
230
1.0
 40
0.5773502691896258
 41
0.0
 42
6.283185307179586
  0
ELLIPSE
  5
11E8F
330
11DBE
100
AcDbEntity
  8
0
100
AcDbEllipse
 10
-24.39649130502595
 20
47.36408677925492
 30
0.0
 11
1.250000000000129
 21
2.165063509461022
 31
0.0
210
0.0
220
0.0
230
1.0
 40
0.5773502691896258
 41
0.0
 42
6.283185307179586
  0
ELLIPSE
  5
11E90
330
11DBE
100
AcDbEntity
  8
0
100
AcDbEllipse
 10
-24.39649130502595
 20
31.03415516070042
 30
0.0
 11
1.250000000000129
 21
2.165063509461022
 31
0.0
210
0.0
220
0.0
230
1.0
 40
0.5773502691896258
 41
0.0
 42
6.283185307179586
  0
ELLIPSE
  5
11E91
330
11DBE
100
AcDbEntity
  8
0
100
AcDbEllipse
 10
-24.39649130502595
 20
14.70422354214589
 30
0.0
 11
1.250000000000129
 21
2.165063509461022
 31
0.0
210
0.0
220
0.0
230
1.0
 40
0.5773502691896258
 41
0.0
 42
6.283185307179586
  0
ELLIPSE
  5
11E92
330
11DBE
100
AcDbEntity
  8
0
100
AcDbEllipse
 10
-24.39649130502595
 20
-1.625708076408631
 30
0.0
 11
1.250000000000129
 21
2.165063509461022
 31
0.0
210
0.0
220
0.0
230
1.0
 40
0.5773502691896258
 41
0.0
 42
6.283185307179586
  0
ELLIPSE
  5
11E93
330
11DBE
100
AcDbEntity
  8
0
100
AcDbEllipse
 10
-24.39649130502595
 20
-17.95563969496315
 30
0.0
 11
1.250000000000129
 21
2.165063509461022
 31
0.0
210
0.0
220
0.0
230
1.0
 40
0.5773502691896258
 41
0.0
 42
6.283185307179586
  0
ELLIPSE
  5
11E94
330
11DBE
100
AcDbEntity
  8
0
100
AcDbEllipse
 10
-25.45715147680577
 20
-33.67319887782187
 30
0.0
 11
1.24999999999987
 21
2.165063509461171
 31
0.0
210
0.0
220
0.0
230
0.9999999999999998
 40
0.5773502691896259
 41
3.579741684173548
 42
5.84503627659499
  0
ELLIPSE
  5
11E95
330
11DBE
100
AcDbEntity
  8
0
100
AcDbEllipse
 10
-24.39649130502595
 20
-34.28557131351766
 30
0.0
 11
1.250000000000129
 21
2.165063509461022
 31
0.0
210
0.0
220
0.0
230
1.0
 40
0.5773502691896258
 41
0.0
 42
6.283185307179586
  0
LINE
  5
11E96
330
11DBE
100
AcDbEntity
  8
0
100
AcDbLine
 10
13.85007785287812
 20
-152.2601198163558
 30
0.0
 11
0.3500778534638504
 21
-175.6428057168375
 31
0.0
  0
LINE
  5
11E97
330
11DBE
100
AcDbEntity
  8
0
100
AcDbLine
 10
12.78941768109757
 20
-151.6477473806596
 30
0.0
 11
-0.7105823183159599
 21
-175.0304332811416
 31
0.0
  0
LINE
  5
11E98
330
11DBE
100
AcDbEntity
  8
0
100
AcDbLine
 10
18.55007785330839
 20
-191.924083307895
 30
0.0
 11
55.25007785252068
 21
-128.357818671482
 31
0.0
  0
LINE
  5
11E99
330
11DBE
100
AcDbEntity
  8
0
100
AcDbLine
 10
53.94088954331351
 20
-127.8889340228347
 30
0.0
 11
54.92869889270682
 21
-126.177998041494
 31
0.0
  0
LINE
  5
11E9A
330
11DBE
100
AcDbEntity
  8
0
100
AcDbLine
 10
18.883806960764
 20
-192.116761897921
 30
0.0
 11
18.55007785330845
 21
-191.9240833078952
 31
0.0
  0
LINE
  5
11E9B
330
11DBE
100
AcDbEntity
  8
0
100
AcDbLine
 10
55.92216692982646
 20
-127.9644406024795
 30
0.0
 11
18.88380696076401
 21
-192.116761897921
 31
0.0
  0
LINE
  5
11E9C
330
11DBE
100
AcDbEntity
  8
0
100
AcDbLine
 10
13.85007785287812
 20
-152.2601198163558
 30
0.0
 11
12.78941768109757
 21
-151.6477473806596
 31
0.0
  0
LINE
  5
11E9D
330
11DBE
100
AcDbEntity
  8
0
100
AcDbLine
 10
55.25007785252068
 20
-128.357818671482
 30
0.0
 11
13.85007785287811
 21
-152.2601198163558
 31
0.0
  0
LINE
  5
11E9E
330
11DBE
100
AcDbEntity
  8
0
100
AcDbLine
 10
-44.83978498561238
 20
-118.3755117078511
 30
0.0
 11
-3.439784985962912
 21
-94.47321056298129
 31
0.0
  0
SPLINE
  5
11E9F
330
11DBE
100
AcDbEntity
  8
0
100
AcDbSpline
210
0.0
220
0.0
230
1.0
 70
     8
 71
     3
 72
     8
 73
     4
 74
     0
 42
0.000000001
 43
0.0000000001
 40
-1.0
 40
-1.0
 40
-1.0
 40
-1.0
 40
0.0
 40
0.0
 40
0.0
 40
0.0
 10
3.168173096660678
 20
-94.10337726758804
 30
0.0
 10
3.200104511641757
 20
-94.25170872392969
 30
0.0
 10
3.118142499031351
 20
-94.39591582339948
 30
0.0
 10
2.957030912494666
 20
-94.47137221927915
 30
0.0
  0
SPLINE
  5
11EA0
330
11DBE
100
AcDbEntity
  8
0
100
AcDbSpline
210
0.0
220
0.0
230
1.0
 70
     8
 71
     3
 72
     8
 73
     4
 74
     0
 42
0.000000001
 43
0.0000000001
 40
-1.0
 40
-1.0
 40
-1.0
 40
-1.0
 40
0.0
 40
0.0
 40
0.0
 40
0.0
 10
52.65326195563865
 20
-123.1635045897481
 30
0.0
 10
52.63805331807993
 20
-122.9862496650234
 30
0.0
 10
52.65871649391538
 20
-122.8066516656406
 30
0.0
 10
52.6906479088965
 20
-122.6951914313688
 30
0.0
  0
SPLINE
  5
11EA1
330
11DBE
100
AcDbEntity
  8
0
100
AcDbSpline
210
0.0
220
0.0
230
1.0
 70
     8
 71
     3
 72
     8
 73
     4
 74
     0
 42
0.000000001
 43
0.0000000001
 40
0.1302463606542056
 40
0.1302463606542056
 40
0.1302463606542056
 40
0.1302463606542056
 40
1.0
 40
1.0
 40
1.0
 40
1.0
 10
53.73309442375783
 20
-122.2602703746665
 30
0.0
 10
53.68026848796887
 20
-122.669691602103
 30
0.0
 10
53.54865871385374
 20
-123.1676034372697
 30
0.0
 10
53.40326195563864
 20
-123.5965172916403
 30
0.0
  0
ELLIPSE
  5
11EA2
330
11DBE
100
AcDbEntity
  8
0
100
AcDbEllipse
 10
2.312716531375937
 20
-93.36737179663808
 30
0.0
 11
-0.7500000000000002
 21
-1.299038105676658
 31
0.0
210
0.0
220
0.0
230
1.0
 40
0.8164965809277259
 41
0.0
 42
1.134458255166912
  0
LINE
  5
11EA3
330
11DBE
100
AcDbEntity
  8
0
100
AcDbLine
 10
1.562716531375945
 20
-94.66640990231473
 30
0.0
 11
-0.0587891588337053
 21
-93.7302331555797
 31
0.0
  0
LINE
  5
11EA4
330
11DBE
100
AcDbEntity
  8
0
100
AcDbLine
 10
-0.0587891588337053
 20
-93.7302331555797
 30
0.0
 11
-0.7913154647931409
 21
-94.00803275294157
 31
0.0
  0
LINE
  5
11EA5
330
11DBE
100
AcDbEntity
  8
0
100
AcDbLine
 10
54.92869889270682
 20
-126.177998041494
 30
0.0
 11
54.8030172482036
 21
-125.4047118529118
 31
0.0
  0
LINE
  5
11EA6
330
11DBE
100
AcDbEntity
  8
0
100
AcDbLine
 10
54.8030172482036
 20
-125.4047118529118
 30
0.0
 11
53.18151155799395
 21
-124.4685351061767
 31
0.0
  0
ELLIPSE
  5
11EA7
330
11DBE
100
AcDbEntity
  8
0
100
AcDbEllipse
 10
53.93151155799393
 20
-123.1694970005001
 30
0.0
 11
-0.7499999999999996
 21
-1.299038105676658
 31
0.0
210
0.0
220
0.0
230
1.0
 40
0.8164965809277262
 41
5.148727052012677
 42
6.283185307179575
  0
LINE
  5
11EA8
330
11DBE
100
AcDbEntity
  8
0
100
AcDbLine
 10
-43.77912481383223
 20
-118.9878841435471
 30
0.0
 11
-44.83978498561238
 21
-118.3755117078511
 31
0.0
  0
LINE
  5
11EA9
330
11DBE
100
AcDbEntity
  8
0
100
AcDbLine
 10
-2.379124814183128
 20
-95.08558299867706
 30
0.0
 11
-43.77912481383223
 21
-118.9878841435471
 31
0.0
  0
LINE
  5
11EAA
330
11DBE
100
AcDbEntity
  8
0
100
AcDbLine
 10
-2.379124814183128
 20
-95.08558299867706
 30
0.0
 11
-2.732324651384767
 21
-94.88166297759093
 31
0.0
  0
LINE
  5
11EAB
330
11DBE
100
AcDbEntity
  8
0
100
AcDbLine
 10
-2.732324651384767
 20
-94.88166297759093
 30
0.0
 11
-3.439784985962912
 21
-94.47321056298129
 31
0.0
  0
SPLINE
  5
11EAC
330
11DBE
100
AcDbEntity
  8
0
100
AcDbSpline
210
0.0
220
0.0
230
1.0
 70
     8
 71
     3
 72
     8
 73
     4
 74
     0
 42
0.000000001
 43
0.0000000001
 40
-1.0
 40
-1.0
 40
-1.0
 40
-1.0
 40
0.0
 40
0.0
 40
0.0
 40
0.0
 10
-0.7913154647931409
 20
-94.00803275294157
 30
0.0
 10
-1.301308038593633
 20
-94.37834587018208
 30
0.0
 10
-1.934196754611283
 20
-94.67770486663248
 30
0.0
 10
-2.379124814183111
 20
-95.08558299867702
 30
0.0
  0
SPLINE
  5
11EAD
330
11DBE
100
AcDbEntity
  8
0
100
AcDbSpline
210
0.0
220
0.0
230
1.0
 70
     8
 71
     3
 72
     8
 73
     4
 74
     0
 42
0.000000001
 43
0.0000000001
 40
0.0
 40
0.0
 40
0.0
 40
0.0
 40
0.6081734479693788
 40
0.6081734479693788
 40
0.6081734479693788
 40
0.6081734479693788
 10
-3.439784985962894
 20
-94.47321056298125
 30
0.0
 10
-2.930362399343633
 20
-94.3630379897233
 30
0.0
 10
-2.17761303303487
 20
-94.39335019821941
 30
0.0
 10
-1.426280169832119
 20
-94.42284458826598
 30
0.0
  0
ELLIPSE
  5
11EAE
330
11DBE
100
AcDbEntity
  8
0
100
AcDbEllipse
 10
2.120012989469599
 20
-93.68569757600964
 30
0.0
 11
0.7499999999999237
 21
-1.299038105676702
 31
0.0
210
0.0
220
0.0
230
1.0
 40
0.5773502691896262
 41
0.9390757175652568
 42
2.356194490192585
  0
LINE
  5
11EAF
330
11DBE
100
AcDbEntity
  8
0
100
AcDbLine
 10
55.25007785252068
 20
-128.357818671482
 30
0.0
 11
54.54261751794314
 21
-127.9493662568726
 31
0.0
  0
LINE
  5
11EB0
330
11DBE
100
AcDbEntity
  8
0
100
AcDbLine
 10
54.54261751794314
 20
-127.9493662568726
 30
0.0
 11
54.18941768074076
 21
-127.7454462357861
 31
0.0
  0
LINE
  5
11EB1
330
11DBE
100
AcDbEntity
  8
0
100
AcDbLine
 10
12.78941768109757
 20
-151.6477473806596
 30
0.0
 11
54.18941768074076
 21
-127.7454462357861
 31
0.0
  0
LINE
  5
11EB2
330
11DBE
100
AcDbEntity
  8
0
100
AcDbLine
 10
54.92869889270682
 20
-126.177998041494
 30
0.0
 11
55.17844889270699
 21
-126.3221912712242
 31
0.0
  0
SPLINE
  5
11EB3
330
11DBE
100
AcDbEntity
  8
0
100
AcDbSpline
210
0.0
220
0.0
230
1.0
 70
     8
 71
     3
 72
     8
 73
     4
 74
     0
 42
0.000000001
 43
0.0000000001
 40
-1.0
 40
-1.0
 40
-1.0
 40
-1.0
 40
0.0
 40
0.0
 40
0.0
 40
0.0
 10
54.18941768074076
 20
-127.7454462357861
 30
0.0
 10
54.63434574031278
 20
-127.3375681037411
 30
0.0
 10
54.86299461272198
 20
-126.8048211247672
 30
0.0
 10
54.92869889270682
 20
-126.1779980414939
 30
0.0
  0
SPLINE
  5
11EB4
330
11DBE
100
AcDbEntity
  8
0
100
AcDbSpline
210
0.0
220
0.0
230
1.0
 70
     8
 71
     3
 72
     8
 73
     4
 74
     0
 42
0.000000001
 43
0.0000000001
 40
0.0
 40
0.0
 40
0.0
 40
0.0
 40
1.0
 40
1.0
 40
1.0
 40
1.0
 10
55.67869889270681
 20
-126.6110107433862
 30
0.0
 10
56.16835497999173
 20
-127.5584712841999
 30
0.0
 10
56.08770499379133
 20
-128.1766654599662
 30
0.0
 10
55.25007785252068
 20
-128.357818671482
 30
0.0
  0
LINE
  5
11EB5
330
11DBE
100
AcDbEntity
  8
0
100
AcDbLine
 10
55.17844889270699
 20
-126.3221912712242
 30
0.0
 11
55.67869889270682
 21
-126.6110107433862
 31
0.0
  0
ELLIPSE
  5
11EB6
330
11DBE
100
AcDbEntity
  8
0
100
AcDbEllipse
 10
54.68151155799391
 20
-123.6025097023923
 30
0.0
 11
-0.7500000000000002
 21
-1.299038105676658
 31
0.0
210
0.0
220
0.0
230
1.0
 40
0.816496580927726
 41
5.148727052012677
 42
6.283185307179581
  0
LINE
  5
11EB7
330
11DBE
100
AcDbEntity
  8
0
100
AcDbLine
 10
53.40326195563863
 20
-123.5965172916403
 30
0.0
 11
52.90301195654095
 21
-123.3076978199992
 31
0.0
  0
LINE
  5
11EB8
330
11DBE
100
AcDbEntity
  8
0
100
AcDbLine
 10
52.90301195654095
 20
-123.3076978199992
 30
0.0
 11
52.65326195563861
 21
-123.1635045897481
 31
0.0
  0
LINE
  5
11EB9
330
11DBE
100
AcDbEntity
  8
0
100
AcDbLine
 10
54.8030172482036
 20
-125.4047118529118
 30
0.0
 11
55.5530172482036
 21
-125.837724554804
 31
0.0
  0
LINE
  5
11EBA
330
11DBE
100
AcDbEntity
  8
0
100
AcDbLine
 10
55.5530172482036
 20
-125.837724554804
 30
0.0
 11
55.67869889270682
 21
-126.6110107433862
 31
0.0
  0
LINE
  5
11EBB
330
11DBE
100
AcDbEntity
  8
0
100
AcDbLine
 10
52.69064790889651
 20
-122.6951914313688
 30
0.0
 11
53.04384774932708
 21
-122.4912714084185
 31
0.0
  0
LINE
  5
11EBC
330
11DBE
100
AcDbEntity
  8
0
100
AcDbLine
 10
53.04384774932708
 20
-122.4912714084185
 30
0.0
 11
53.5764491860438
 21
-122.1837738255593
 31
0.0
  0
ELLIPSE
  5
11EBD
330
11DBE
100
AcDbEntity
  8
0
100
AcDbEllipse
 10
53.73880801608759
 20
-123.4878227798716
 30
0.0
 11
-0.7500000000000014
 21
1.299038105676658
 31
0.0
210
0.0
220
0.0
230
1.0
 40
0.5773502691896262
 41
5.497787143782137
 42
6.914905916409418
  0
LINE
  5
11EBE
330
11DBE
100
AcDbEntity
  8
0
100
AcDbLine
 10
18.55007785330839
 20
-191.924083307895
 30
0.0
 11
0.3500778534638682
 21
-181.4163084087337
 31
0.0
  0
LINE
  5
11EBF
330
11DBE
100
AcDbEntity
  8
0
100
AcDbLine
 10
-57.27912481323972
 20
-148.1440727359288
 30
0.0
 11
-39.07912481339521
 21
-158.6518476350903
 31
0.0
  0
LINE
  5
11EC0
330
11DBE
100
AcDbEntity
  8
0
100
AcDbLine
 10
3.168173096660678
 20
-94.10337726758804
 30
0.0
 11
10.25921260702062
 21
-98.19739083772862
 31
0.0
  0
LINE
  5
11EC1
330
11DBE
100
AcDbEntity
  8
0
100
AcDbLine
 10
10.18525465633972
 20
-98.64458914355095
 30
0.0
 11
2.957030912494689
 21
-94.47137221927915
 31
0.0
  0
LINE
  5
11EC2
330
11DBE
100
AcDbEntity
  8
0
100
AcDbLine
 10
24.32739027969992
 20
-106.8095549526141
 30
0.0
 11
13.60523305839894
 21
-100.6191145946025
 31
0.0
  0
LINE
  5
11EC3
330
11DBE
100
AcDbEntity
  8
0
100
AcDbLine
 10
13.77980324514191
 20
-100.2300047903544
 30
0.0
 11
24.40134823088204
 21
-106.3623566470812
 31
0.0
  0
LINE
  5
11EC4
330
11DBE
100
AcDbEntity
  8
0
100
AcDbLine
 10
31.45747277467517
 20
-110.4362120518757
 30
0.0
 11
42.07901776041527
 21
-116.5685639086024
 31
0.0
  0
LINE
  5
11EC5
330
11DBE
100
AcDbEntity
  8
0
100
AcDbLine
 10
42.00505980973438
 20
-117.0157622144248
 30
0.0
 11
31.28290258843338
 21
-110.8253218564131
 31
0.0
  0
LINE
  5
11EC6
330
11DBE
100
AcDbEntity
  8
0
100
AcDbLine
 10
52.65326195563861
 20
-123.1635045897481
 30
0.0
 11
45.42503821179359
 21
-118.9902876654763
 31
0.0
  0
LINE
  5
11EC7
330
11DBE
100
AcDbEntity
  8
0
100
AcDbLine
 10
45.59960839853657
 20
-118.6011778612282
 30
0.0
 11
52.69064790889651
 21
-122.6951914313688
 31
0.0
  0
LINE
  5
11EC8
330
11DBE
100
AcDbEntity
  8
0
100
AcDbLine
 10
-38.3548607446833
 20
-159.0700016901254
 30
0.0
 11
-0.7105823183159466
 21
-180.8039359730378
 31
0.0
  0
ELLIPSE
  5
11EC9
330
11DBE
100
AcDbEntity
  8
0
100
AcDbEllipse
 10
8.100077853577566
 20
-171.4570162652782
 30
0.0
 11
1.250000000000129
 21
2.165063509461022
 31
0.0
210
0.0
220
0.0
230
1.0
 40
0.5773502691896255
 41
0.0
 42
6.283185307179586
  0
ELLIPSE
  5
11ECA
330
11DBE
100
AcDbEntity
  8
0
100
AcDbEllipse
 10
21.85007785378228
 20
-153.4148203532206
 30
0.0
 11
-0.4000000000000425
 21
-0.6928203230275284
 31
0.0
210
0.0
220
0.0
230
1.0
 40
0.5773502691896255
 41
2.094395102375157
 42
2.276828566511568
  0
LINE
  5
11ECB
330
11DBE
100
AcDbEntity
  8
0
100
AcDbLine
 10
22.39648801529339
 20
-153.2684101917199
 30
0.0
 11
21.60401976997013
 21
-157.1410054559259
 31
0.0
  0
ELLIPSE
  5
11ECC
330
11DBE
100
AcDbEntity
  8
0
100
AcDbEllipse
 10
21.05760960845902
 20
-157.2874156174267
 30
0.0
 11
-0.4000000000000419
 21
-0.6928203230275269
 31
0.0
210
0.0
220
0.0
230
1.0
 40
0.5773502691896257
 41
0.0
 42
2.094395102375107
  0
LINE
  5
11ECD
330
11DBE
100
AcDbEntity
  8
0
100
AcDbLine
 10
20.65760960845175
 20
-157.9802359404501
 30
0.0
 11
18.49254609903003
 21
-156.7302359403818
 31
0.0
  0
ELLIPSE
  5
11ECE
330
11DBE
100
AcDbEntity
  8
0
100
AcDbEllipse
 10
18.89254609903731
 20
-156.0374156173585
 30
0.0
 11
-0.4000000000072804
 21
-0.6928203230233495
 31
0.0
210
0.0
220
0.0
230
1.0
 40
0.5773502691896255
 41
4.18879020482279
 42
6.283185307252368
  0
LINE
  5
11ECF
330
11DBE
100
AcDbEntity
  8
0
100
AcDbLine
 10
18.74613593753347
 20
-155.4910054558359
 30
0.0
 11
21.70366769227845
 21
-152.868410191698
 31
0.0
  0
ELLIPSE
  5
11ED0
330
11DBE
100
AcDbEntity
  8
0
100
AcDbEllipse
 10
21.85007785378228
 20
-153.4148203532206
 30
0.0
 11
0.4000000000000012
 21
0.6928203230275522
 31
0.0
210
0.0
220
0.0
230
1.0
 40
0.5773502691896259
 41
0.0802385882704826
 42
1.047197551178412
  0
LINE
  5
11ED1
330
11DBE
100
AcDbEntity
  8
0
100
AcDbLine
 10
22.21672989151651
 20
-152.7057186716444
 30
0.0
 11
22.41398260166663
 21
-153.1410369920219
 31
0.0
  0
ELLIPSE
  5
11ED2
330
11DBE
100
AcDbEntity
  8
0
100
AcDbEllipse
 10
19.99694943667923
 20
-156.6750431817309
 30
0.0
 11
-0.4000000000072798
 21
-0.6928203230233483
 31
0.0
210
0.0
220
0.0
230
1.0
 40
0.5773502691896258
 41
0.0000000000727906
 42
2.094395102429601
  0
LINE
  5
11ED3
330
11DBE
100
AcDbEntity
  8
0
100
AcDbLine
 10
20.54335959819032
 20
-156.5286330202302
 30
0.0
 11
21.60401976997013
 21
-157.1410054559259
 31
0.0
  0
LINE
  5
11ED4
330
11DBE
100
AcDbEntity
  8
0
100
AcDbLine
 10
20.54335959819032
 20
-156.5286330202302
 30
0.0
 11
21.20118911434097
 21
-153.3139837469829
 31
0.0
  0
LINE
  5
11ED5
330
11DBE
100
AcDbEntity
  8
0
100
AcDbLine
 10
21.70366769226583
 20
-152.8684101917199
 30
0.0
 11
22.39648801529339
 21
-153.2684101917199
 31
0.0
  0
LINE
  5
11ED6
330
11DBE
100
AcDbEntity
  8
0
100
AcDbLine
 10
21.80522882577165
 20
-152.7895728356388
 30
0.0
 11
22.41398260166663
 21
-153.1410369920219
 31
0.0
  0
ELLIPSE
  5
11ED7
330
11DBE
100
AcDbEntity
  8
0
100
AcDbEllipse
 10
7.03941768179777
 20
-170.8446438295825
 30
0.0
 11
1.24999999999987
 21
2.165063509461171
 31
0.0
210
0.0
220
0.0
230
1.0
 40
0.5773502691896258
 41
3.579741684173535
 42
5.845036276595007
  0
LINE
  5
11ED8
330
11DBE
100
AcDbEntity
  8
0
100
AcDbLine
 10
-44.83978498561238
 20
-118.3755117078511
 30
0.0
 11
-58.33978498501956
 21
-141.7581976083368
 31
0.0
  0
LINE
  5
11ED9
330
11DBE
100
AcDbEntity
  8
0
100
AcDbLine
 10
-43.77912481383223
 20
-118.9878841435471
 30
0.0
 11
-57.27912481323975
 21
-142.3705700440326
 31
0.0
  0
ELLIPSE
  5
11EDA
330
11DBE
100
AcDbEntity
  8
0
100
AcDbEllipse
 10
-53.08978498495132
 20
-141.9025351756736
 30
0.0
 11
1.24999999999987
 21
2.165063509461171
 31
0.0
210
0.0
220
0.0
230
1.0
 40
0.5773502691896257
 41
3.579741684173539
 42
5.845036276595005
  0
ELLIPSE
  5
11EDB
330
11DBE
100
AcDbEntity
  8
0
100
AcDbEllipse
 10
-40.13225323006986
 20
-127.732934527822
 30
0.0
 11
-0.4000000000072798
 21
-0.6928203230233483
 31
0.0
210
0.0
220
0.0
230
1.0
 40
0.5773502691896258
 41
0.0000000000727781
 42
2.094395102429603
  0
LINE
  5
11EDC
330
11DBE
100
AcDbEntity
  8
0
100
AcDbLine
 10
-39.58584306855878
 20
-127.5865243663213
 30
0.0
 11
-38.92801355240813
 21
-124.371875093074
 31
0.0
  0
LINE
  5
11EDD
330
11DBE
100
AcDbEntity
  8
0
100
AcDbLine
 10
-38.52518289677895
 20
-128.1988968020171
 30
0.0
 11
-39.58584306855878
 21
-127.5865243663213
 31
0.0
  0
LINE
  5
11EDE
330
11DBE
100
AcDbEntity
  8
0
100
AcDbLine
 10
-37.7327146514557
 20
-124.326301537811
 30
0.0
 11
-38.52518289677895
 21
-128.1988968020171
 31
0.0
  0
LINE
  5
11EDF
330
11DBE
100
AcDbEntity
  8
0
100
AcDbLine
 10
-37.7327146514557
 20
-124.326301537811
 30
0.0
 11
-38.42553497449053
 21
-123.9263015378068
 31
0.0
  0
ELLIPSE
  5
11EE0
330
11DBE
100
AcDbEntity
  8
0
100
AcDbEllipse
 10
-38.27912481296681
 20
-124.4727116993117
 30
0.0
 11
0.4000000000000006
 21
0.6928203230275525
 31
0.0
210
0.0
220
0.0
230
1.0
 40
0.5773502691896255
 41
5.235987755964771
 42
7.330382858357999
  0
LINE
  5
11EE1
330
11DBE
100
AcDbEntity
  8
0
100
AcDbLine
 10
-41.38306672921562
 20
-126.548896801927
 30
0.0
 11
-38.42553497447065
 21
-123.9263015377892
 31
0.0
  0
ELLIPSE
  5
11EE2
330
11DBE
100
AcDbEntity
  8
0
100
AcDbEllipse
 10
-41.23665656771179
 20
-127.0953069634496
 30
0.0
 11
-0.4000000000072796
 21
-0.6928203230233496
 31
0.0
210
0.0
220
0.0
230
1.0
 40
0.5773502691896258
 41
4.188790204822792
 42
6.283185307252342
  0
LINE
  5
11EE3
330
11DBE
100
AcDbEntity
  8
0
100
AcDbLine
 10
-39.47159305829734
 20
-129.0381272865412
 30
0.0
 11
-41.63665656771906
 21
-127.7881272864729
 31
0.0
  0
ELLIPSE
  5
11EE4
330
11DBE
100
AcDbEntity
  8
0
100
AcDbEllipse
 10
-39.07159305829007
 20
-128.3453069635178
 30
0.0
 11
-0.4000000000000412
 21
-0.6928203230275269
 31
0.0
210
0.0
220
0.0
230
0.9999999999999998
 40
0.5773502691896258
 41
0.0
 42
2.094395102375107
  0
ELLIPSE
  5
11EE5
330
11DBE
100
AcDbEntity
  8
0
100
AcDbEllipse
 10
-52.02912481317152
 20
-142.5149076113694
 30
0.0
 11
1.250000000000129
 21
2.165063509461022
 31
0.0
210
0.0
220
0.0
230
1.0
 40
0.5773502691896258
 41
0.0
 42
6.283185307179586
  0
LINE
  5
11EE6
330
11DBE
100
AcDbEntity
  8
0
100
AcDbLine
 10
-0.7913154647931409
 20
-94.00803275294157
 30
0.0
 11
-38.3548607446833
 21
-159.0700016901254
 31
0.0
  0
LINE
  5
11EE7
330
11DBE
100
AcDbEntity
  8
0
100
AcDbLine
 10
-39.07912481339526
 20
-158.6518476350902
 30
0.0
 11
-38.35486074468331
 21
-159.0700016901255
 31
0.0
  0
LINE
  5
11EE8
330
11DBE
100
AcDbEntity
  8
0
100
AcDbLine
 10
-39.07912481339521
 20
-158.6518476350903
 30
0.0
 11
-2.379124814183133
 21
-95.08558299867706
 31
0.0
  0
ENDBLK
  5
11DC0
330
11DBE
100
AcDbEntity
  8
0
100
AcDbBlockEnd
  0
ENDSEC
  0
SECTION
  2
ENTITIES
  0
INSERT
  5
11EE9
330
1F
100
AcDbEntity
  8
0
100
AcDbBlockReference
  2
SPR80_360-Front
 10
0.0
 20
0.0
 30
0.0
  0
INSERT
  5
11EEA
330
1F
100
AcDbEntity
  8
0
100
AcDbBlockReference
  2
SPR80_360-Left
 10
207.4229986469887
 20
0.0
 30
0.0
  0
INSERT
  5
11EEB
330
1F
100
AcDbEntity
  8
0
100
AcDbBlockReference
  2
SPR80_360-Right
 10
-207.4229986469887
 20
0.0
 30
0.0
  0
INSERT
  5
11EEC
330
1F
100
AcDbEntity
  8
0
100
AcDbBlockReference
  2
SPR80_360-Top
 10
0.0
 20
-180.545601705951
 30
0.0
  0
INSERT
  5
11EED
330
1F
100
AcDbEntity
  8
0
100
AcDbBlockReference
  2
SPR80_360-Bottom
 10
0.0
 20
485.5659080859886
 30
0.0
  0
INSERT
  5
11EEE
330
1F
100
AcDbEntity
  8
0
100
AcDbBlockReference
  2
SPR80_360-ISO
 10
265.7627836320083
 20
-383.6849268201227
 30
0.0
  0
MTEXT
  5
11EEF
330
1F
100
AcDbEntity
  8
0
100
AcDbMText
 10
0.0
 20
-387.4445760657997
 30
0.0
 40
31.91123056107519
 41
0.0
 71
     5
 72
     5
  1
SPR80/360
 73
     1
 44
1.0
1001
ACAD
1000
MTEXTBEGIN
1070
    73
1070
     1
1070
    44
1040
1.0
1070
    74
1070
     0
1000
MTEXTEND
  0
ENDSEC
  0
SECTION
  2
OBJECTS
  0
DICTIONARY
  5
C
330
0
100
AcDbDictionary
281
     1
  3
ACAD_CIP_PREVIOUS_PRODUCT_INFO
350
216
  3
ACAD_COLOR
350
6B
  3
ACAD_DETAILVIEWSTYLE
350
21B
  3
ACAD_GROUP
350
D
  3
ACAD_LAYOUT
350
1A
  3
ACAD_MATERIAL
350
6A
  3
ACAD_MLEADERSTYLE
350
12D
  3
ACAD_MLINESTYLE
350
17
  3
ACAD_PLOTSETTINGS
350
19
  3
ACAD_PLOTSTYLENAME
350
E
  3
ACAD_SCALELIST
350
10C
  3
ACAD_SECTIONVIEWSTYLE
350
219
  3
ACAD_TABLESTYLE
350
7E
  3
ACAD_VISUALSTYLE
350
EF
  3
ACDB_RECOMPOSE_DATA
350
11FF0
  3
AcDbVariableDictionary
350
5E
  3
DWGPROPS
350
11FF1
  0
DICTIONARY
  5
11F40
330
8
100
AcDbDictionary
280
     1
281
     1
  0
DICTIONARY
  5
1FF
330
2
100
AcDbDictionary
280
     1
281
     1
  3
ACAD_LAYERSTATES
360
200
  0
DICTIONARY
  5
13C
330
10
100
AcDbDictionary
280
     1
281
     1
  0
DICTIONARY
  5
1CE
330
1F
100
AcDbDictionary
280
     1
281
     1
  3
ACAD_LAYOUTSELFREF
360
11F48
  0
DICTIONARY
  5
11EF3
330
D2
100
AcDbDictionary
280
     1
281
     1
  3
ACAD_LAYOUTSELFREF
360
11F51
  0
DICTIONARY
  5
11EF5
330
D6
100
AcDbDictionary
280
     1
281
     1
  3
ACAD_LAYOUTSELFREF
360
11F54
  0
XRECORD
  5
216
102
{ACAD_REACTORS
330
C
102
}
330
C
100
AcDbXrecord
280
     1
300
ACD
300
2021
300
87393ACD_2021_0F
  0
DICTIONARY
  5
6B
102
{ACAD_REACTORS
330
C
102
}
330
C
100
AcDbDictionary
281
     1
  0
DICTIONARY
  5
21B
102
{ACAD_REACTORS
330
C
102
}
330
C
100
AcDbDictionary
281
     1
  3
Metric50
350
21C
  0
DICTIONARY
  5
D
102
{ACAD_REACTORS
330
C
102
}
330
C
100
AcDbDictionary
281
     1
  0
DICTIONARY
  5
1A
102
{ACAD_REACTORS
330
C
102
}
330
C
100
AcDbDictionary
281
     1
  3
Layout1
350
D3
  3
Layout2
350
D7
  3
Model
350
22
  0
DICTIONARY
  5
6A
102
{ACAD_REACTORS
330
C
102
}
330
C
100
AcDbDictionary
281
     1
  3
ByBlock
350
ED
  3
ByLayer
350
EC
  3
Global
350
EE
  0
DICTIONARY
  5
12D
102
{ACAD_REACTORS
330
C
102
}
330
C
100
AcDbDictionary
281
     1
  3
Standard
350
12E
  0
DICTIONARY
  5
17
102
{ACAD_REACTORS
330
C
102
}
330
C
100
AcDbDictionary
281
     1
  3
Standard
350
18
  0
DICTIONARY
  5
19
102
{ACAD_REACTORS
330
C
102
}
330
C
100
AcDbDictionary
281
     1
  0
ACDBDICTIONARYWDFLT
  5
E
102
{ACAD_REACTORS
330
C
102
}
330
C
100
AcDbDictionary
281
     1
  3
Normal
350
F
100
AcDbDictionaryWithDefault
340
F
  0
DICTIONARY
  5
10C
102
{ACAD_REACTORS
330
C
102
}
330
C
100
AcDbDictionary
281
     1
  3
A0
350
10D
  3
A1
350
1BE
  3
A2
350
1BF
  3
A3
350
1C0
  3
A4
350
1C1
  3
A5
350
1C2
  3
A6
350
1C3
  3
A7
350
1C4
  3
A8
350
1C5
  3
A9
350
1C6
  3
B0
350
1C7
  3
B1
350
1C8
  3
B2
350
1C9
  3
B3
350
1CA
  3
B4
350
1CB
  3
B5
350
1CC
  3
B6
350
1CD
  0
DICTIONARY
  5
219
102
{ACAD_REACTORS
330
C
102
}
330
C
100
AcDbDictionary
281
     1
  3
Metric50
350
21A
  0
DICTIONARY
  5
7E
102
{ACAD_REACTORS
330
C
102
}
330
C
100
AcDbDictionary
281
     1
  3
Standard
350
7F
  0
DICTIONARY
  5
EF
102
{ACAD_REACTORS
330
C
102
}
330
C
100
AcDbDictionary
281
     1
  3
2dWireframe
350
F5
  3
Basic
350
F4
  3
Brighten
350
FB
  3
ColorChange
350
FF
  3
Conceptual
350
F8
  3
Dim
350
FA
  3
EdgeColorOff
350
1E6
  3
Facepattern
350
FE
  3
Flat
350
F0
  3
FlatWithEdges
350
F1
  3
Gouraud
350
F2
  3
GouraudWithEdges
350
F3
  3
Hidden
350
F7
  3
JitterOff
350
1E4
  3
Linepattern
350
FD
  3
OverhangOff
350
1E5
  3
Realistic
350
F9
  3
Shaded
350
1F3
  3
Shaded with edges
350
1F2
  3
Shades of Gray
350
1EF
  3
Sketchy
350
1F0
  3
Thicken
350
FC
  3
Wireframe
350
F6
  3
X-Ray
350
1F1
  0
XRECORD
  5
11FF0
102
{ACAD_REACTORS
330
C
102
}
330
C
100
AcDbXrecord
280
     1
 90
        1
330
7F
  0
DICTIONARY
  5
5E
102
{ACAD_REACTORS
330
C
102
}
330
C
100
AcDbDictionary
281
     1
  3
CANNOSCALE
350
146
  3
CENTEREXE
350
259
  3
CENTERLTYPEFILE
350
25A
  3
CMLEADERSTYLE
350
145
  3
CTABLESTYLE
350
84
  3
CVIEWDETAILSTYLE
350
227
  3
CVIEWSECTIONSTYLE
350
228
  3
DIMASSOC
350
5F
  3
HIDETEXT
350
63
  3
INDEXCTL
350
11F9D
  3
LAYEREVAL
350
1AE
  3
LAYERNOTIFY
350
1AF
  3
LIGHTINGUNITS
350
11F9B
  3
MSLTSCALE
350
11F9A
  3
PSOLHEIGHT
350
11FED
  3
PSOLWIDTH
350
11FEC
  3
SORTENTS
350
11F9C
  3
XCLIPFRAME
350
11FEE
  0
XRECORD
  5
11FF1
102
{ACAD_REACTORS
330
C
102
}
330
C
100
AcDbXrecord
280
     1
  1
DWGPROPS COOKIE
  2

  3

  4

  6

  7

  8
truole
  9

300
=
301
=
302
=
303
=
304
=
305
=
306
=
307
=
308
=
309
=
 40
0.0027199074074074
 41
2460719.40650463
 42
2460719.416006944
  1

 90
        0
  0
DICTIONARY
  5
200
102
{ACAD_REACTORS
330
1FF
102
}
330
1FF
100
AcDbDictionary
281
     1
  0
XRECORD
  5
11F48
102
{ACAD_REACTORS
330
1CE
102
}
330
1CE
100
AcDbXrecord
280
     1
340
1F
  0
XRECORD
  5
11F51
102
{ACAD_REACTORS
330
11EF3
102
}
330
11EF3
100
AcDbXrecord
280
     1
340
D2
  0
XRECORD
  5
11F54
102
{ACAD_REACTORS
330
11EF5
102
}
330
11EF5
100
AcDbXrecord
280
     1
340
D6
  0
ACDBDETAILVIEWSTYLE
  5
21C
102
{ACAD_XDICTIONARY
360
12030
102
}
102
{ACAD_REACTORS
330
21B
102
}
330
21B
100
AcDbModelDocViewStyle
 70
     0
  3
Metric50
290
     0
100
AcDbDetailViewStyle
 70
     0
 71
     0
 90
        3
 71
     1
340
11
 40
5.0
340
0
 40
5.0
300

 40
0.0
280
     1
 71
     2
340
16
 90
       25
 71
     3
340
11
 40
5.0
 90
        0
 40
15.0
 90
        1
300
%<\AcVar ViewDetailId>% (%<\AcVar ViewScale \f "%sn">%)
 71
     4
340
16
 90
       25
340
16
 90
       25
280
     0
  0
LAYOUT
  5
D3
102
{ACAD_XDICTIONARY
360
11FF5
102
}
102
{ACAD_REACTORS
330
1A
102
}
330
1A
100
AcDbPlotSettings
  1

  2
C:\Documents and Settings\basas\Application Data\Autodesk\AutoCAD 2005\R16.1\enu\plotters\Default Windows System Printer.pc3
  4

  6

 40
0.0
 41
0.0
 42
0.0
 43
0.0
 44
0.0
 45
0.0
 46
0.0
 47
0.0
 48
0.0
 49
0.0
140
0.0
141
0.0
142
1.0
143
1.0
 70
   688
 72
     0
 73
     0
 74
     5
  7

 75
    16
147
1.0
148
0.0
149
0.0
100
AcDbLayout
  1
Layout1
 70
     1
 71
     1
 10
0.0
 20
0.0
 11
12.0
 21
9.0
 12
0.0
 22
0.0
 32
0.0
 14
0.0
 24
0.0
 34
0.0
 15
0.0
 25
0.0
 35
0.0
146
0.0
 13
0.0
 23
0.0
 33
0.0
 16
1.0
 26
0.0
 36
0.0
 17
0.0
 27
1.0
 37
0.0
 76
     0
330
D2
  0
LAYOUT
  5
D7
102
{ACAD_XDICTIONARY
360
11FF7
102
}
102
{ACAD_REACTORS
330
1A
102
}
330
1A
100
AcDbPlotSettings
  1

  2
C:\Documents and Settings\basas\Application Data\Autodesk\AutoCAD 2005\R16.1\enu\plotters\Default Windows System Printer.pc3
  4

  6

 40
0.0
 41
0.0
 42
0.0
 43
0.0
 44
0.0
 45
0.0
 46
0.0
 47
0.0
 48
0.0
 49
0.0
140
0.0
141
0.0
142
1.0
143
1.0
 70
   688
 72
     0
 73
     0
 74
     5
  7

 75
    16
147
1.0
148
0.0
149
0.0
100
AcDbLayout
  1
Layout2
 70
     1
 71
     2
 10
0.0
 20
0.0
 11
12.0
 21
9.0
 12
0.0
 22
0.0
 32
0.0
 14
0.0
 24
0.0
 34
0.0
 15
0.0
 25
0.0
 35
0.0
146
0.0
 13
0.0
 23
0.0
 33
0.0
 16
1.0
 26
0.0
 36
0.0
 17
0.0
 27
1.0
 37
0.0
 76
     0
330
D6
  0
LAYOUT
  5
22
102
{ACAD_XDICTIONARY
360
11FF2
102
}
102
{ACAD_REACTORS
330
1A
102
}
330
1A
100
AcDbPlotSettings
  1

  2
none_device
  4
ISO_A4_(210.00_x_297.00_MM)
  6

 40
7.5
 41
20.0
 42
7.5
 43
20.0
 44
210.0
 45
297.0
 46
11.54999923706054
 47
-13.65000009536743
 48
0.0
 49
0.0
140
0.0
141
0.0
142
1.0
143
8.704084754739808
 70
 11952
 72
     1
 73
     0
 74
     0
  7

 75
     0
147
0.1148885871608098
148
0.0
149
0.0
100
AcDbLayout
  1
Model
 70
     1
 71
     0
 10
0.0
 20
0.0
 11
12.0
 21
9.0
 12
0.0
 22
0.0
 32
0.0
 14
0.0
 24
0.0
 34
0.0
 15
0.0
 25
0.0
 35
0.0
146
0.0
 13
0.0
 23
0.0
 33
0.0
 16
1.0
 26
0.0
 36
0.0
 17
0.0
 27
1.0
 37
0.0
 76
     0
330
1F
331
EA
1001
ACAD_PSEXT
1000
None
1000
None
1000
Not applicable
1000
The layout will not be plotted unless a new plotter configuration name is selected.
1070
     0
  0
MATERIAL
  5
ED
102
{ACAD_XDICTIONARY
360
1F9
102
}
102
{ACAD_REACTORS
330
6A
102
}
330
6A
100
AcDbMaterial
  1
ByBlock
  0
MATERIAL
  5
EC
102
{ACAD_XDICTIONARY
360
1F7
102
}
102
{ACAD_REACTORS
330
6A
102
}
330
6A
100
AcDbMaterial
  1
ByLayer
  0
MATERIAL
  5
EE
102
{ACAD_XDICTIONARY
360
173
102
}
102
{ACAD_REACTORS
330
6A
102
}
330
6A
100
AcDbMaterial
  1
Global
 43
0.0007999999797903
 43
0.0
 43
0.0
 43
0.0
 43
0.0
 43
0.0007999999797903
 43
0.0
 43
0.0
 43
0.0
 43
0.0
 43
1.0
 43
0.0
 43
0.0
 43
0.0
 43
0.0
 43
1.0
 49
0.0007999999797903
 49
0.0
 49
0.0
 49
0.0
 49
0.0
 49
0.0007999999797903
 49
0.0
 49
0.0
 49
0.0
 49
0.0
 49
1.0
 49
0.0
 49
0.0
 49
0.0
 49
0.0
 49
1.0
142
0.0007999999797903
142
0.0
142
0.0
142
0.0
142
0.0
142
0.0007999999797903
142
0.0
142
0.0
142
0.0
142
0.0
142
1.0
142
0.0
142
0.0
142
0.0
142
0.0
142
1.0
144
0.0007999999797903
144
0.0
144
0.0
144
0.0
144
0.0
144
0.0007999999797903
144
0.0
144
0.0
144
0.0
144
0.0
144
1.0
144
0.0
144
0.0
144
0.0
144
0.0
144
1.0
1001
ACAD
1070
    -1
1070
     3
1070
     0
1000

1071
        0
1070
     0
  0
MLEADERSTYLE
  5
12E
102
{ACAD_XDICTIONARY
360
1201C
102
}
102
{ACAD_REACTORS
330
12D
102
}
330
12D
100
AcDbMLeaderStyle
170
     2
171
     1
172
     0
 90
        2
 40
0.0
 41
0.0
173
     1
 91
-1056964608
340
14
 92
       -2
290
     1
 42
2.0
291
     1
 43
8.0
  3
Standard
 44
4.0
300

342
11
174
     1
178
     1
175
     1
176
     0
 93
-1056964608
 45
4.0
292
     0
297
     0
 46
4.0
 94
-1056964608
 47
1.0
 49
1.0
140
1.0
293
     1
141
0.0
294
     1
177
     0
142
1.0
295
     0
296
     0
143
3.75
1001
ACAD_MLEADERVER
1070
     2
  0
MLINESTYLE
  5
18
102
{ACAD_REACTORS
330
17
102
}
330
17
100
AcDbMlineStyle
  2
STANDARD
 70
     0
  3

 62
   256
 51
90.0
 52
90.0
 71
     2
 49
0.5
 62
   256
  6
BYLAYER
 49
-0.5
 62
   256
  6
BYLAYER
  0
ACDBPLACEHOLDER
  5
F
102
{ACAD_REACTORS
330
E
102
}
330
E
  0
SCALE
  5
10D
102
{ACAD_REACTORS
330
10C
102
}
330
10C
100
AcDbScale
 70
     0
300
1:1
140
1.0
141
1.0
290
     1
  0
SCALE
  5
1BE
102
{ACAD_REACTORS
330
10C
102
}
330
10C
100
AcDbScale
 70
     0
300
1:2
140
1.0
141
2.0
290
     0
  0
SCALE
  5
1BF
102
{ACAD_REACTORS
330
10C
102
}
330
10C
100
AcDbScale
 70
     0
300
1:4
140
1.0
141
4.0
290
     0
  0
SCALE
  5
1C0
102
{ACAD_REACTORS
330
10C
102
}
330
10C
100
AcDbScale
 70
     0
300
1:5
140
1.0
141
5.0
290
     0
  0
SCALE
  5
1C1
102
{ACAD_REACTORS
330
10C
102
}
330
10C
100
AcDbScale
 70
     0
300
1:8
140
1.0
141
8.0
290
     0
  0
SCALE
  5
1C2
102
{ACAD_REACTORS
330
10C
102
}
330
10C
100
AcDbScale
 70
     0
300
1:10
140
1.0
141
10.0
290
     0
  0
SCALE
  5
1C3
102
{ACAD_REACTORS
330
10C
102
}
330
10C
100
AcDbScale
 70
     0
300
1:16
140
1.0
141
16.0
290
     0
  0
SCALE
  5
1C4
102
{ACAD_REACTORS
330
10C
102
}
330
10C
100
AcDbScale
 70
     0
300
1:20
140
1.0
141
20.0
290
     0
  0
SCALE
  5
1C5
102
{ACAD_REACTORS
330
10C
102
}
330
10C
100
AcDbScale
 70
     0
300
1:30
140
1.0
141
30.0
290
     0
  0
SCALE
  5
1C6
102
{ACAD_REACTORS
330
10C
102
}
330
10C
100
AcDbScale
 70
     0
300
1:40
140
1.0
141
40.0
290
     0
  0
SCALE
  5
1C7
102
{ACAD_REACTORS
330
10C
102
}
330
10C
100
AcDbScale
 70
     0
300
1:50
140
1.0
141
50.0
290
     0
  0
SCALE
  5
1C8
102
{ACAD_REACTORS
330
10C
102
}
330
10C
100
AcDbScale
 70
     0
300
1:100
140
1.0
141
100.0
290
     0
  0
SCALE
  5
1C9
102
{ACAD_REACTORS
330
10C
102
}
330
10C
100
AcDbScale
 70
     0
300
2:1
140
2.0
141
1.0
290
     0
  0
SCALE
  5
1CA
102
{ACAD_REACTORS
330
10C
102
}
330
10C
100
AcDbScale
 70
     0
300
4:1
140
4.0
141
1.0
290
     0
  0
SCALE
  5
1CB
102
{ACAD_REACTORS
330
10C
102
}
330
10C
100
AcDbScale
 70
     0
300
8:1
140
8.0
141
1.0
290
     0
  0
SCALE
  5
1CC
102
{ACAD_REACTORS
330
10C
102
}
330
10C
100
AcDbScale
 70
     0
300
10:1
140
10.0
141
1.0
290
     0
  0
SCALE
  5
1CD
102
{ACAD_REACTORS
330
10C
102
}
330
10C
100
AcDbScale
 70
     0
300
100:1
140
100.0
141
1.0
290
     0
  0
ACDBSECTIONVIEWSTYLE
  5
21A
102
{ACAD_XDICTIONARY
360
1202E
102
}
102
{ACAD_REACTORS
330
219
102
}
330
219
100
AcDbModelDocViewStyle
 70
     0
  3
Metric50
290
     0
100
AcDbSectionViewStyle
 70
     0
 71
     0
 90
      102
 71
     1
340
11
 40
5.0
340
0
340
0
 40
5.0
300
I, O, Q, S, X, Z
 40
10.0
 90
        0
 40
2.5
 90
        0
 71
     2
340
16
 90
       25
340
16
 90
       50
 40
5.0
 40
2.5
 40
5.0
 71
     3
340
11
 40
5.0
 90
        0
 40
15.0
 90
        1
300
%<\AcVar ViewSectionStartId>%-%<\AcVar ViewSectionEndId>% (%<\AcVar ViewScale \f "%sn">%)
 71
     4
300
ANSI31
 40
1.0
 90
        0
290
     0
290
     0
 90
        6
 40
0.0
 40
1.570796326794896
 40
0.2617993877991494
 40
1.308996938995747
 40
-0.2617993877991494
 40
1.832595714594046
  0
TABLESTYLE
  5
7F
102
{ACAD_XDICTIONARY
360
162
102
}
102
{ACAD_REACTORS
330
7E
102
}
330
7E
100
AcDbTableStyle
  3
Standard
 70
     0
 71
     0
 40
1.5
 41
1.5
280
     0
281
     0
  7
Standard
140
4.5
170
     2
 62
     0
 63
     7
283
     0
274
    -2
284
     1
 64
     0
275
    -2
285
     1
 65
     0
276
    -2
286
     1
 66
     0
277
    -2
287
     1
 67
     0
278
    -2
288
     1
 68
     0
279
    -2
289
     1
 69
     0
  7
Standard
140
6.0
170
     5
 62
     0
 63
     7
283
     0
274
    -2
284
     1
 64
     0
275
    -2
285
     1
 65
     0
276
    -2
286
     1
 66
     0
277
    -2
287
     1
 67
     0
278
    -2
288
     1
 68
     0
279
    -2
289
     1
 69
     0
  7
Standard
140
4.5
170
     5
 62
     0
 63
     7
283
     0
274
    -2
284
     1
 64
     0
275
    -2
285
     1
 65
     0
276
    -2
286
     1
 66
     0
277
    -2
287
     1
 67
     0
278
    -2
288
     1
 68
     0
279
    -2
289
     1
 69
     0
  0
VISUALSTYLE
  5
F5
102
{ACAD_XDICTIONARY
360
12006
102
}
102
{ACAD_REACTORS
330
EF
102
}
330
EF
100
AcDbVisualStyle
  2
2dWireframe
 70
     4
 71
     0
 72
     2
 73
     1
 90
        0
 40
-0.6
 41
-30.0
 62
     5
 63
     7
 74
     1
 91
        4
 64
     7
 65
   257
 75
     1
175
     1
 42
1.0
 92
        0
 66
   257
 43
1.0
 76
     1
 77
     6
 78
     2
 67
     7
 79
     5
170
     0
171
     0
290
     0
174
     0
 93
        1
 44
0.0
173
     0
291
     0
 45
0.0
1001
ACAD
1000
AcDbSavedByObjectVersion
1070
     0
  0
VISUALSTYLE
  5
F4
102
{ACAD_XDICTIONARY
360
12004
102
}
102
{ACAD_REACTORS
330
EF
102
}
330
EF
100
AcDbVisualStyle
  2
Basic
 70
     7
 71
     1
 72
     0
 73
     1
 90
        0
 40
-0.6
 41
-30.0
 62
     5
 63
     7
 74
     0
 91
        4
 64
     7
 65
   257
 75
     1
175
     1
 42
1.0
 92
        8
 66
     7
 43
1.0
 76
     1
 77
     6
 78
     2
 67
     7
 79
     5
170
     0
171
     0
290
     0
174
     0
 93
        1
 44
0.0
173
     0
291
     1
 45
0.0
1001
ACAD
1000
AcDbSavedByObjectVersion
1070
     0
  0
VISUALSTYLE
  5
FB
102
{ACAD_XDICTIONARY
360
12012
102
}
102
{ACAD_REACTORS
330
EF
102
}
330
EF
100
AcDbVisualStyle
  2
Brighten
 70
    12
 71
     2
 72
     2
 73
     1
 90
        0
 40
-0.6
 41
-30.0
 62
     5
 63
     7
 74
     1
 91
        4
 64
     7
 65
   257
 75
     1
175
     1
 42
1.0
 92
        8
 66
     7
 43
1.0
 76
     1
 77
     6
 78
     2
 67
     7
 79
     5
170
     0
171
     0
290
     0
174
     0
 93
        1
 44
50.0
173
     0
291
     1
 45
0.0
1001
ACAD
1000
AcDbSavedByObjectVersion
1070
     0
  0
VISUALSTYLE
  5
FF
102
{ACAD_XDICTIONARY
360
1201A
102
}
102
{ACAD_REACTORS
330
EF
102
}
330
EF
100
AcDbVisualStyle
  2
ColorChange
 70
    16
 71
     2
 72
     2
 73
     3
 90
        0
 40
-0.6
 41
-30.0
 62
     5
 63
     8
 74
     1
 91
        4
 64
     7
 65
   257
 75
     1
175
     1
 42
1.0
 92
        8
 66
     8
 43
1.0
 76
     1
 77
     6
 78
     2
 67
     7
 79
     5
170
     0
171
     0
290
     0
174
     0
 93
        1
 44
0.0
173
     0
291
     1
 45
0.0
1001
ACAD
1000
AcDbSavedByObjectVersion
1070
     0
  0
VISUALSTYLE
  5
F8
102
{ACAD_XDICTIONARY
360
1200C
102
}
102
{ACAD_REACTORS
330
EF
102
}
330
EF
100
AcDbVisualStyle
  2
Conceptual
 70
     9
 71
     3
 72
     2
 73
     1
 90
        0
 40
-0.6
 41
-30.0
 62
     5
 63
     7
 74
     2
 91
        2
 64
     7
 65
   257
 75
     1
175
     1
 42
40.0
 92
        8
 66
     7
 43
1.0
 76
     1
 77
     6
 78
     2
 67
     7
 79
     3
170
     0
171
     0
290
     0
174
     0
 93
        1
 44
0.0
173
     0
291
     0
 45
0.0
1001
ACAD
1000
AcDbSavedByObjectVersion
1070
     0
  0
VISUALSTYLE
  5
FA
102
{ACAD_XDICTIONARY
360
12010
102
}
102
{ACAD_REACTORS
330
EF
102
}
330
EF
100
AcDbVisualStyle
  2
Dim
 70
    11
 71
     2
 72
     2
 73
     1
 90
        0
 40
-0.6
 41
-30.0
 62
     5
 63
     7
 74
     1
 91
        4
 64
     7
 65
   257
 75
     1
175
     1
 42
1.0
 92
        8
 66
     7
 43
1.0
 76
     1
 77
     6
 78
     2
 67
     7
 79
     5
170
     0
171
     0
290
     0
174
     0
 93
        1
 44
-50.0
173
     0
291
     1
 45
0.0
1001
ACAD
1000
AcDbSavedByObjectVersion
1070
     0
  0
VISUALSTYLE
  5
1E6
102
{ACAD_XDICTIONARY
360
12022
102
}
102
{ACAD_REACTORS
330
EF
102
}
330
EF
100
AcDbVisualStyle
  2
EdgeColorOff
 70
    22
 71
     2
 72
     2
 73
     0
 90
        0
 40
-0.6
 41
-30.0
 62
     5
 63
     7
 74
     1
 91
        4
 64
     7
 65
   257
 75
     1
175
     1
 42
1.0
 92
        8
 66
     7
 43
1.0
 76
     1
 77
     6
 78
     2
 67
     7
 79
     5
170
     0
171
     0
290
     0
174
     0
 93
        1
 44
0.0
173
     0
291
     1
 45
0.0
1001
ACAD
1000
AcDbSavedByObjectVersion
1070
     0
  0
VISUALSTYLE
  5
FE
102
{ACAD_XDICTIONARY
360
12018
102
}
102
{ACAD_REACTORS
330
EF
102
}
330
EF
100
AcDbVisualStyle
  2
Facepattern
 70
    15
 71
     2
 72
     2
 73
     1
 90
        0
 40
-0.6
 41
-30.0
 62
     5
 63
     7
 74
     1
 91
        4
 64
     7
 65
   257
 75
     1
175
     1
 42
1.0
 92
        8
 66
     7
 43
1.0
 76
     1
 77
     6
 78
     2
 67
     7
 79
     5
170
     0
171
     0
290
     0
174
     0
 93
        1
 44
0.0
173
     0
291
     1
 45
0.0
1001
ACAD
1000
AcDbSavedByObjectVersion
1070
     0
  0
VISUALSTYLE
  5
F0
102
{ACAD_XDICTIONARY
360
11FFC
102
}
102
{ACAD_REACTORS
330
EF
102
}
330
EF
100
AcDbVisualStyle
  2
Flat
 70
     0
 71
     2
 72
     1
 73
     1
 90
        2
 40
-0.6
 41
30.0
 62
     5
 63
     7
 74
     0
 91
        0
 64
     7
 65
   257
 75
     1
175
     1
 42
1.0
 92
        8
 66
     7
 43
1.0
 76
     1
 77
     6
 78
     2
 67
     7
 79
     5
170
     0
171
     0
290
     0
174
     0
 93
       13
 44
0.0
173
     0
291
     1
 45
0.0
1001
ACAD
1000
AcDbSavedByObjectVersion
1070
     0
  0
VISUALSTYLE
  5
F1
102
{ACAD_XDICTIONARY
360
11FFE
102
}
102
{ACAD_REACTORS
330
EF
102
}
330
EF
100
AcDbVisualStyle
  2
FlatWithEdges
 70
     1
 71
     2
 72
     1
 73
     1
 90
        2
 40
-0.6
 41
30.0
 62
     5
 63
     7
 74
     1
 91
        0
 64
     7
 65
   257
 75
     1
175
     1
 42
1.0
 92
        0
 66
   257
 43
1.0
 76
     1
 77
     6
 78
     2
 67
     7
 79
     5
170
     0
171
     0
290
     0
174
     0
 93
       13
 44
0.0
173
     0
291
     1
 45
0.0
1001
ACAD
1000
AcDbSavedByObjectVersion
1070
     0
  0
VISUALSTYLE
  5
F2
102
{ACAD_XDICTIONARY
360
12000
102
}
102
{ACAD_REACTORS
330
EF
102
}
330
EF
100
AcDbVisualStyle
  2
Gouraud
 70
     2
 71
     2
 72
     2
 73
     1
 90
        2
 40
-0.6
 41
30.0
 62
     5
 63
     7
 74
     0
 91
        0
 64
     7
 65
   257
 75
     1
175
     1
 42
1.0
 92
        0
 66
     7
 43
1.0
 76
     1
 77
     6
 78
     2
 67
     7
 79
     5
170
     0
171
     0
290
     0
174
     0
 93
       13
 44
0.0
173
     0
291
     1
 45
0.0
1001
ACAD
1000
AcDbSavedByObjectVersion
1070
     0
  0
VISUALSTYLE
  5
F3
102
{ACAD_XDICTIONARY
360
12002
102
}
102
{ACAD_REACTORS
330
EF
102
}
330
EF
100
AcDbVisualStyle
  2
GouraudWithEdges
 70
     3
 71
     2
 72
     2
 73
     1
 90
        2
 40
-0.6
 41
30.0
 62
     5
 63
     7
 74
     1
 91
        0
 64
     7
 65
   257
 75
     1
175
     1
 42
1.0
 92
        0
 66
   257
 43
1.0
 76
     1
 77
     6
 78
     2
 67
     7
 79
     5
170
     0
171
     0
290
     0
174
     0
 93
       13
 44
0.0
173
     0
291
     1
 45
0.0
1001
ACAD
1000
AcDbSavedByObjectVersion
1070
     0
  0
VISUALSTYLE
  5
F7
102
{ACAD_XDICTIONARY
360
1200A
102
}
102
{ACAD_REACTORS
330
EF
102
}
330
EF
100
AcDbVisualStyle
  2
Hidden
 70
     6
 71
     1
 72
     2
 73
     2
 90
        0
 40
-0.6
 41
-30.0
 62
     5
 63
     7
 74
     2
 91
        2
 64
     7
 65
   257
 75
     2
175
     1
 42
40.0
 92
        0
 66
   257
 43
1.0
 76
     1
 77
     6
 78
     2
 67
     7
 79
     3
170
     0
171
     0
290
     0
174
     0
 93
        1
 44
0.0
173
     0
291
     0
 45
0.0
1001
ACAD
1000
AcDbSavedByObjectVersion
1070
     0
  0
VISUALSTYLE
  5
1E4
102
{ACAD_XDICTIONARY
360
1201E
102
}
102
{ACAD_REACTORS
330
EF
102
}
330
EF
100
AcDbVisualStyle
  2
JitterOff
 70
    20
 71
     2
 72
     2
 73
     0
 90
        0
 40
-0.6
 41
-30.0
 62
     5
 63
     7
 74
     1
 91
        4
 64
     7
 65
   257
 75
     1
175
     1
 42
1.0
 92
       10
 66
     7
 43
1.0
 76
     1
 77
     6
 78
     2
 67
     7
 79
     5
170
     0
171
     0
290
     0
174
     0
 93
        1
 44
0.0
173
     0
291
     1
 45
0.0
1001
ACAD
1000
AcDbSavedByObjectVersion
1070
     0
  0
VISUALSTYLE
  5
FD
102
{ACAD_XDICTIONARY
360
12016
102
}
102
{ACAD_REACTORS
330
EF
102
}
330
EF
100
AcDbVisualStyle
  2
Linepattern
 70
    14
 71
     2
 72
     2
 73
     1
 90
        0
 40
-0.6
 41
-30.0
 62
     5
 63
     7
 74
     1
 91
        4
 64
     7
 65
   257
 75
     7
175
     7
 42
1.0
 92
        8
 66
     7
 43
1.0
 76
     1
 77
     6
 78
     2
 67
     7
 79
     5
170
     0
171
     0
290
     0
174
     0
 93
        1
 44
0.0
173
     0
291
     1
 45
0.0
1001
ACAD
1000
AcDbSavedByObjectVersion
1070
     0
  0
VISUALSTYLE
  5
1E5
102
{ACAD_XDICTIONARY
360
12020
102
}
102
{ACAD_REACTORS
330
EF
102
}
330
EF
100
AcDbVisualStyle
  2
OverhangOff
 70
    21
 71
     2
 72
     2
 73
     0
 90
        0
 40
-0.6
 41
-30.0
 62
     5
 63
     7
 74
     1
 91
        4
 64
     7
 65
   257
 75
     1
175
     1
 42
1.0
 92
        9
 66
     7
 43
1.0
 76
     1
 77
     6
 78
     2
 67
     7
 79
     5
170
     0
171
     0
290
     0
174
     0
 93
        1
 44
0.0
173
     0
291
     1
 45
0.0
1001
ACAD
1000
AcDbSavedByObjectVersion
1070
     0
  0
VISUALSTYLE
  5
F9
102
{ACAD_XDICTIONARY
360
1200E
102
}
102
{ACAD_REACTORS
330
EF
102
}
330
EF
100
AcDbVisualStyle
  2
Realistic
 70
     8
 71
     2
 72
     2
 73
     0
 90
        2
 40
-0.6
 41
30.0
 62
     5
 63
     7
 74
     0
 91
        0
 64
     7
 65
   257
 75
     1
175
     1
 42
1.0
 92
        8
 66
   257
 43
1.0
 76
     1
 77
     6
 78
     2
 67
     7
 79
     3
170
     0
171
     0
290
     0
174
     0
 93
       13
 44
0.0
173
     0
291
     0
 45
0.0
1001
ACAD
1000
AcDbSavedByObjectVersion
1070
     0
  0
VISUALSTYLE
  5
1F3
102
{ACAD_XDICTIONARY
360
1202C
102
}
102
{ACAD_REACTORS
330
EF
102
}
330
EF
100
AcDbVisualStyle
  2
Shaded
 70
    27
 71
     2
 72
     2
 73
     1
 90
        2
 40
-0.6
 41
30.0
 62
     5
 63
     7
 74
     0
 91
        4
 64
     7
 65
   257
 75
     1
175
     1
 42
1.0
 92
        8
 66
   257
 43
1.0
 76
     1
 77
     6
 78
     2
 67
     8
 79
     3
170
     0
171
     0
290
     0
174
     0
 93
        5
 44
0.0
173
     0
291
     0
 45
0.0
1001
ACAD
1000
AcDbSavedByObjectVersion
1070
     0
  0
VISUALSTYLE
  5
1F2
102
{ACAD_XDICTIONARY
360
1202A
102
}
102
{ACAD_REACTORS
330
EF
102
}
330
EF
100
AcDbVisualStyle
  2
Shaded with edges
 70
    26
 71
     2
 72
     2
 73
     1
 90
        2
 40
-0.6
 41
30.0
 62
     5
 63
     7
 74
     1
 91
        2
 64
     7
 65
   257
 75
     2
175
     1
 42
1.0
 92
        8
 66
   257
 43
1.0
 76
     1
 77
     6
 78
     2
 67
     7
 79
     3
170
     0
171
     0
290
     0
174
     0
 93
        5
 44
0.0
173
     0
291
     0
 45
0.0
1001
ACAD
1000
AcDbSavedByObjectVersion
1070
     0
  0
VISUALSTYLE
  5
1EF
102
{ACAD_XDICTIONARY
360
12024
102
}
102
{ACAD_REACTORS
330
EF
102
}
330
EF
100
AcDbVisualStyle
  2
Shades of Gray
 70
    23
 71
     2
 72
     2
 73
     3
 90
        0
 40
-0.6
 41
-30.0
 62
     5
 63
     7
 74
     2
 91
        2
 64
     7
 65
     7
 75
     1
175
     1
 42
40.0
 92
        8
 66
     7
 43
1.0
 76
     1
 77
     6
 78
     2
 67
     7
 79
     3
170
     0
171
     0
290
     0
174
     0
 93
        1
 44
0.0
173
     0
291
     0
 45
0.0
1001
ACAD
1000
AcDbSavedByObjectVersion
1070
     0
  0
VISUALSTYLE
  5
1F0
102
{ACAD_XDICTIONARY
360
12026
102
}
102
{ACAD_REACTORS
330
EF
102
}
330
EF
100
AcDbVisualStyle
  2
Sketchy
 70
    24
 71
     1
 72
     2
 73
     2
 90
        0
 40
-0.6
 41
-30.0
 62
     5
 63
     7
 74
     2
 91
        2
 64
     7
 65
     7
 75
     1
175
     1
 42
40.0
 92
       11
 66
     7
 43
1.0
 76
     1
 77
     6
 78
     2
 67
     7
 79
     6
170
     0
171
     0
290
     0
174
     0
 93
        1
 44
0.0
173
     0
291
     0
 45
0.0
1001
ACAD
1000
AcDbSavedByObjectVersion
1070
     0
  0
VISUALSTYLE
  5
FC
102
{ACAD_XDICTIONARY
360
12014
102
}
102
{ACAD_REACTORS
330
EF
102
}
330
EF
100
AcDbVisualStyle
  2
Thicken
 70
    13
 71
     2
 72
     2
 73
     1
 90
        0
 40
-0.6
 41
-30.0
 62
     5
 63
     7
 74
     1
 91
        4
 64
     7
 65
   257
 75
     1
175
     1
 42
1.0
 92
       12
 66
     7
 43
1.0
 76
     1
 77
     6
 78
     2
 67
     7
 79
     5
170
     0
171
     0
290
     0
174
     0
 93
        1
 44
0.0
173
     0
291
     1
 45
0.0
1001
ACAD
1000
AcDbSavedByObjectVersion
1070
     0
  0
VISUALSTYLE
  5
F6
102
{ACAD_XDICTIONARY
360
12008
102
}
102
{ACAD_REACTORS
330
EF
102
}
330
EF
100
AcDbVisualStyle
  2
Wireframe
 70
     5
 71
     0
 72
     2
 73
     0
 90
        0
 40
-0.6
 41
-30.0
 62
     5
 63
     7
 74
     1
 91
        4
 64
     7
 65
   257
 75
     1
175
     1
 42
1.0
 92
        0
 66
   257
 43
1.0
 76
     1
 77
     6
 78
     2
 67
     7
 79
     3
170
     0
171
     0
290
     0
174
     0
 93
        1
 44
0.0
173
     0
291
     0
 45
0.0
1001
ACAD
1000
AcDbSavedByObjectVersion
1070
     0
  0
VISUALSTYLE
  5
1F1
102
{ACAD_XDICTIONARY
360
12028
102
}
102
{ACAD_REACTORS
330
EF
102
}
330
EF
100
AcDbVisualStyle
  2
X-Ray
 70
    25
 71
     2
 72
     2
 73
     1
 90
        1
 40
0.5
 41
-30.0
 62
     5
 63
     7
 74
     1
 91
        0
 64
     7
 65
   257
 75
     1
175
     1
 42
1.0
 92
        8
 66
     7
 43
1.0
 76
     1
 77
     6
 78
     2
 67
     7
 79
     3
170
     0
171
     0
290
     0
174
     0
 93
       13
 44
0.0
173
     0
291
     0
 45
0.0
1001
ACAD
1000
AcDbSavedByObjectVersion
1070
     0
  0
DICTIONARYVAR
  5
146
102
{ACAD_REACTORS
330
5E
102
}
330
5E
100
DictionaryVariables
280
     0
  1
1:1
  0
DICTIONARYVAR
  5
259
102
{ACAD_REACTORS
330
5E
102
}
330
5E
100
DictionaryVariables
280
     0
  1
3.500000
  0
DICTIONARYVAR
  5
25A
102
{ACAD_REACTORS
330
5E
102
}
330
5E
100
DictionaryVariables
280
     0
  1
acadiso.lin
  0
DICTIONARYVAR
  5
145
102
{ACAD_REACTORS
330
5E
102
}
330
5E
100
DictionaryVariables
280
     0
  1
STANDARD
  0
DICTIONARYVAR
  5
84
102
{ACAD_REACTORS
330
5E
102
}
330
5E
100
DictionaryVariables
280
     0
  1
STANDARD
  0
DICTIONARYVAR
  5
227
102
{ACAD_REACTORS
330
5E
102
}
330
5E
100
DictionaryVariables
280
     0
  1
Metric50
  0
DICTIONARYVAR
  5
228
102
{ACAD_REACTORS
330
5E
102
}
330
5E
100
DictionaryVariables
280
     0
  1
Metric50
  0
DICTIONARYVAR
  5
5F
102
{ACAD_REACTORS
330
5E
102
}
330
5E
100
DictionaryVariables
280
     0
  1
2
  0
DICTIONARYVAR
  5
63
102
{ACAD_REACTORS
330
5E
102
}
330
5E
100
DictionaryVariables
280
     0
  1
1
  0
DICTIONARYVAR
  5
11F9D
102
{ACAD_REACTORS
330
5E
102
}
330
5E
100
DictionaryVariables
280
     0
  1
0
  0
DICTIONARYVAR
  5
1AE
102
{ACAD_REACTORS
330
5E
102
}
330
5E
100
DictionaryVariables
280
     0
  1
0
  0
DICTIONARYVAR
  5
1AF
102
{ACAD_REACTORS
330
5E
102
}
330
5E
100
DictionaryVariables
280
     0
  1
0
  0
DICTIONARYVAR
  5
11F9B
102
{ACAD_REACTORS
330
5E
102
}
330
5E
100
DictionaryVariables
280
     0
  1
2
  0
DICTIONARYVAR
  5
11F9A
102
{ACAD_REACTORS
330
5E
102
}
330
5E
100
DictionaryVariables
280
     0
  1
1
  0
DICTIONARYVAR
  5
11FED
102
{ACAD_REACTORS
330
5E
102
}
330
5E
100
DictionaryVariables
280
     0
  1
80.000000
  0
DICTIONARYVAR
  5
11FEC
102
{ACAD_REACTORS
330
5E
102
}
330
5E
100
DictionaryVariables
280
     0
  1
5.000000
  0
DICTIONARYVAR
  5
11F9C
102
{ACAD_REACTORS
330
5E
102
}
330
5E
100
DictionaryVariables
280
     0
  1
127
  0
DICTIONARYVAR
  5
11FEE
102
{ACAD_REACTORS
330
5E
102
}
330
5E
100
DictionaryVariables
280
     0
  1
2
  0
DICTIONARY
  5
12030
330
21C
100
AcDbDictionary
280
     1
281
     1
  3
ACAD_XREC_ROUNDTRIP
360
12031
  0
DICTIONARY
  5
11FF5
330
D3
100
AcDbDictionary
280
     1
281
     1
  3
ACAD_XREC_ROUNDTRIP
360
11FF6
  0
DICTIONARY
  5
11FF7
330
D7
100
AcDbDictionary
280
     1
281
     1
  3
ACAD_XREC_ROUNDTRIP
360
11FF8
  0
DICTIONARY
  5
11FF2
330
22
100
AcDbDictionary
280
     1
281
     1
  3
ACAD_XREC_ROUNDTRIP
360
11FF3
  0
DICTIONARY
  5
1F9
330
ED
100
AcDbDictionary
280
     1
281
     1
  3
ACAD_XREC_ROUNDTRIP
360
11FFA
  3
FBXASSET
360
1FA
  0
DICTIONARY
  5
1F7
330
EC
100
AcDbDictionary
280
     1
281
     1
  3
ACAD_XREC_ROUNDTRIP
360
11FF9
  3
FBXASSET
360
1F8
  0
DICTIONARY
  5
173
330
EE
100
AcDbDictionary
280
     1
281
     1
  3
ACAD_XREC_ROUNDTRIP
360
11FFB
  3
BUMPTILE
360
175
  3
DIFFUSETILE
360
174
  3
FBXASSET
360
1FB
  3
OPACITYTILE
360
176
  3
REFLECTIONTILE
360
177
  0
DICTIONARY
  5
1201C
330
12E
100
AcDbDictionary
280
     1
281
     1
  3
ACAD_XREC_ROUNDTRIP
360
1201D
  0
DICTIONARY
  5
1202E
330
21A
100
AcDbDictionary
280
     1
281
     1
  3
ACAD_XREC_ROUNDTRIP
360
1202F
  0
DICTIONARY
  5
162
330
7F
100
AcDbDictionary
280
     1
281
     1
  3
ACAD_ROUNDTRIP_2008_TABLESTYLE_CELLSTYLEMAP
360
11FEF
  3
ACAD_XREC_ROUNDTRIP
360
11FF4
  0
DICTIONARY
  5
12006
330
F5
100
AcDbDictionary
280
     1
281
     1
  3
ACAD_XREC_ROUNDTRIP
360
12007
  0
DICTIONARY
  5
12004
330
F4
100
AcDbDictionary
280
     1
281
     1
  3
ACAD_XREC_ROUNDTRIP
360
12005
  0
DICTIONARY
  5
12012
330
FB
100
AcDbDictionary
280
     1
281
     1
  3
ACAD_XREC_ROUNDTRIP
360
12013
  0
DICTIONARY
  5
1201A
330
FF
100
AcDbDictionary
280
     1
281
     1
  3
ACAD_XREC_ROUNDTRIP
360
1201B
  0
DICTIONARY
  5
1200C
330
F8
100
AcDbDictionary
280
     1
281
     1
  3
ACAD_XREC_ROUNDTRIP
360
1200D
  0
DICTIONARY
  5
12010
330
FA
100
AcDbDictionary
280
     1
281
     1
  3
ACAD_XREC_ROUNDTRIP
360
12011
  0
DICTIONARY
  5
12022
330
1E6
100
AcDbDictionary
280
     1
281
     1
  3
ACAD_XREC_ROUNDTRIP
360
12023
  0
DICTIONARY
  5
12018
330
FE
100
AcDbDictionary
280
     1
281
     1
  3
ACAD_XREC_ROUNDTRIP
360
12019
  0
DICTIONARY
  5
11FFC
330
F0
100
AcDbDictionary
280
     1
281
     1
  3
ACAD_XREC_ROUNDTRIP
360
11FFD
  0
DICTIONARY
  5
11FFE
330
F1
100
AcDbDictionary
280
     1
281
     1
  3
ACAD_XREC_ROUNDTRIP
360
11FFF
  0
DICTIONARY
  5
12000
330
F2
100
AcDbDictionary
280
     1
281
     1
  3
ACAD_XREC_ROUNDTRIP
360
12001
  0
DICTIONARY
  5
12002
330
F3
100
AcDbDictionary
280
     1
281
     1
  3
ACAD_XREC_ROUNDTRIP
360
12003
  0
DICTIONARY
  5
1200A
330
F7
100
AcDbDictionary
280
     1
281
     1
  3
ACAD_XREC_ROUNDTRIP
360
1200B
  0
DICTIONARY
  5
1201E
330
1E4
100
AcDbDictionary
280
     1
281
     1
  3
ACAD_XREC_ROUNDTRIP
360
1201F
  0
DICTIONARY
  5
12016
330
FD
100
AcDbDictionary
280
     1
281
     1
  3
ACAD_XREC_ROUNDTRIP
360
12017
  0
DICTIONARY
  5
12020
330
1E5
100
AcDbDictionary
280
     1
281
     1
  3
ACAD_XREC_ROUNDTRIP
360
12021
  0
DICTIONARY
  5
1200E
330
F9
100
AcDbDictionary
280
     1
281
     1
  3
ACAD_XREC_ROUNDTRIP
360
1200F
  0
DICTIONARY
  5
1202C
330
1F3
100
AcDbDictionary
280
     1
281
     1
  3
ACAD_XREC_ROUNDTRIP
360
1202D
  0
DICTIONARY
  5
1202A
330
1F2
100
AcDbDictionary
280
     1
281
     1
  3
ACAD_XREC_ROUNDTRIP
360
1202B
  0
DICTIONARY
  5
12024
330
1EF
100
AcDbDictionary
280
     1
281
     1
  3
ACAD_XREC_ROUNDTRIP
360
12025
  0
DICTIONARY
  5
12026
330
1F0
100
AcDbDictionary
280
     1
281
     1
  3
ACAD_XREC_ROUNDTRIP
360
12027
  0
DICTIONARY
  5
12014
330
FC
100
AcDbDictionary
280
     1
281
     1
  3
ACAD_XREC_ROUNDTRIP
360
12015
  0
DICTIONARY
  5
12008
330
F6
100
AcDbDictionary
280
     1
281
     1
  3
ACAD_XREC_ROUNDTRIP
360
12009
  0
DICTIONARY
  5
12028
330
1F1
100
AcDbDictionary
280
     1
281
     1
  3
ACAD_XREC_ROUNDTRIP
360
12029
  0
XRECORD
  5
12031
102
{ACAD_REACTORS
330
12030
102
}
330
12030
100
AcDbXrecord
280
     1
102
DISPLAYNAME
  1
Metric50
102
FLAGS
 90
        0
  0
XRECORD
  5
11FF6
102
{ACAD_REACTORS
330
11FF5
102
}
330
11FF5
100
AcDbXrecord
280
     1
102
SHADEPLOT
 70
     0
102
SHADEPLOTRESLEVEL
 70
     2
102
SHADEPLOTCUSTOMDPI
 70
   300
  0
XRECORD
  5
11FF8
102
{ACAD_REACTORS
330
11FF7
102
}
330
11FF7
100
AcDbXrecord
280
     1
102
SHADEPLOT
 70
     0
102
SHADEPLOTRESLEVEL
 70
     2
102
SHADEPLOTCUSTOMDPI
 70
   300
  0
XRECORD
  5
11FF3
102
{ACAD_REACTORS
330
11FF2
102
}
330
11FF2
100
AcDbXrecord
280
     1
102
SHADEPLOT
 70
     0
102
SHADEPLOTRESLEVEL
 70
     2
102
SHADEPLOTCUSTOMDPI
 70
   300
  0
XRECORD
  5
11FFA
102
{ACAD_REACTORS
330
1F9
102
}
330
1F9
100
AcDbXrecord
280
     1
102
MATERIAL
148
0.0
149
0.0
149
0.0
 93
        0
 94
       63
282
     0
 72
     1
 77
     1
171
     1
175
     1
179
     1
273
     0
  0
XRECORD
  5
1FA
102
{ACAD_REACTORS
330
1F9
102
}
330
1F9
100
AcDbXrecord
280
     1
 70
     1
 90
429727718
  1
D62C5603-E3A1-4AEA-B7FB-FE5D8D0755AF
310
504B03040A0000080000CC70623B3DEE336E79000000790000001B0000006175746F6465736B2D64657369676E2D7061636B6167652E786D6C3C3F786D6C2076657273696F6E3D22312E302220656E636F64696E673D227574662D3822203F3E3C666F726D6174733E3C666F726D61743E687474703A2F2F736368656D612E
310
6175746F6465736B2E636F6D2F64657369676E2D7061636B6167652F323030393C2F666F726D61743E3C2F666F726D6174733E504B0304140006080800CC70623BD486FD9CA0000000F4000000130000005B436F6E74656E745F54797065735D2E786D6C7D8EC10E82300C865F65E91D8A1E8C310C0EEA1BF002731658846E
310
D98AC1B77784ABF1D8FE5FBFBF75BBCE937A534CCEB38643598122B6FEE978D0B0485F9C41B54DDD7D022595594E1A469170414C76A4D9A4D207E29CF43ECE46F218070CC6BECC4078ACAA135ACF422C856C0E68EA1BF5669944DDD7BCDE7B1F8E415D77AECB980613C2E4AC91FC167A2B244592486606FC29C8FD7F045B9A
310
EF7053A7E60B504B0304140006080800CC70623B853B8169EB0000007C01000008000000636F72652E786D6C8D90416EC3201045AF62CDB6C206821CC7C244919D9CA01740401C94182C03558F5F9C3852BBEB6A467FFE9B197D7EFC9E1EC5975982F5AE035262288C535E5B377690E21535501C055FBC8FBF6C503839990E
310
5619041F179FE64D52DE45E362569DD7661365082642A11EB9E920A89B99642953CC8E702F67A9EE7234257977194EC9EAE275C4EABCCF5EAD5940D4AC6F0E35A568B8F43562CD7046CD199FD07E60174276A7BE677B5EADB0E0D14EEFFB6A31321A0D82627C4084204C3F096B71DD52F6819B16635EADF63F509AF53FA164
310
5DDCD1EDDD17164090FCC8732078B56691CB33A85CD7DCC40F504B0304140006080800CC70623B55019EA25F0000007C00000007000000636E782E786D6C4DCB3B0E80201045D1AD90E915ED2CF8AC45050C11660C8261F98AB1B07AC9C97D42D718D865D3E909258CFD00CCE24AC6E326A164D74DC0B4128928FF32603847
310
2BA13128B1252AC747C6BAB984FC68F0B87FE8960A5C09FE86CFB69FBA01504B0304140006080800CC70623BDBABAAF470010000D40300000C0000006662782F636F72652E786D6CC553D16E823014FD95A6AF4B694182CC941A83FA05FB810A9511A125A5257EFE2E82712ECEB8A7F100CD39F7F69E734AF9FADC366850B6
310
AF8DCE7018308C942E4C59EB2AC3DE1D498AD15A706B8CFB56869196ADCAF00863C12B6B7C374385D14E6907A836A59A41D9F7CA615434B0C8705F7CAA5606D23BA8E84F41278B93AC54100640439DE0BDB320004D43C63716C7C399D30917DCFBBA9CD9BA8469F5B156168B24CED3F7248AC8769F27244EB73B92EED8862C
310
B7F13E0C179B3C8F979C8ECD82BBBABDAA2BAC924E9558448CBD9330242CFA08E3154B5651FCC6D215639C8EE5774DBE2B5F6CF2B5768B68963BB5F5588420E442FC700B1139D4CB01F450C1E918227C2E09DF070D8140C84E1E9AAB8F1340832A9CB13130A5F1376A908D57309505ECF2A0DF179C4E9D30F5B239B87E3823
310
7A79C6F31DE1A8A5AEC08474B03C7837EAE4938639B44E5932B833D2C6B6B279CDC613877FA26EE21F4A2A4C63EC7F29A2F301D1F9F7A0E37D145F504B0304140006080800CC70623B9C113CC27E0000009D0000000B0000006662782F636E782E786D6C4DCCDF0A83201C86E15B91DFB94BFB330DD428C8FB886521330DA7
310
6397BF1A1DECE883878F57749FCDA1B7892F1BBC047A23808C7F84D9FA55424E0BE6803A256208E9EF06C84F9B91703228B1C690F78B66B34CD9A5439DF5CF0BFBF65E35BCA1B8D6A5C6F540381E886698B5741C695F9503EBA150A2F8958E3DC3EA0B504B0304140006080800CC70623B7DF2F77C2A010000120200003100
310
00006662782F41393633353835312D344632462D344230382D423046372D3739314545314133324237412F636F72652E786D6C8D51DB8EC22014FC15C2939B0D2DB4B45643319AE817EC0F6041255A68B86CFCFC856D4D76DF7CE190393373060EDB3DC707F856CE6B6B7A480A0C81328395DA5C7B18C3057510EC3873D686
310
3F34088C18550F330C39BB3A1BA7051AAC09CA84841A2BD5020AEF55806078A44B0FFD7053A328440C89E1EFC52486BBB8AA8214A99D789CF9E05200300FC927E4FB4D5B375D43103D5527440FB843077C5AA3F5861C8F645F5787F59E95B390B318B55CE45AA638FAA2957BD7248B390B7A7CC51F9C124149C82B8C378810
310
84AB2F42B7B8DD56F413775B8C5999E9FF4471926F8AA236A1AE96B8B3CC434E5839373893369E1FAF30EA395917409EB7F26AF8801C171837A4A6AC9C89E9F9C9B1A58BA30FD6A5EF5DDDCF894B9AD9B6A59C957943A9FCAE2FD5BC4DFE03504B0304140006080800CC70623BAD7543B64E01000033030000300000006662
310
782F41393633353835312D344632462D344230382D423046372D3739314545314133324237412F636E782E786D6CD593CD6EC32010845F0571AD6CE3D48AD20813A9873E410FBD12D82434182C7EAAE6EDBB2424CD25871E7B41D6EC30B3FA84F9E67BB2E40B4234DE8DB46F1925E094D7C6ED479AD3AE5951B2113C789FEE
310
6C943839C1488B4C05DF079FE72A69D8C96C13AAD6B8631503449F83828872B949AC57D26200B826A308D316B4064D6E46FCDA41C05550DC9E483A00797BFD207EFB092A45DE9514C1BBD22178396BD39D891265658C238DEA00936C654E5E433CB65A26D9F6EDB5EBC14EBF49A45CB856E66048291F6939A9A81BB5C89177
310
38143CA680F4AA299D66A042CEB3354A2684DC9D8D178FE0D9B8B41CAAD720F880EE7EF93C0C18769E099ECC04D5A102C8049A8A05632F4DDF376CF1DE0F6BB65C2F8627B65A33C6BB62177CEBBDAD973006829F89F22E814B54F4BC2BE347F8AA8F681390B50FA73F804400B5F542E796F19FF974E7F78DB802FE05E20750
310
4B0304140006080800CC70623BE75B7789680500003C100000340000006662782F41393633353835312D344632462D344230382D423046372D3739314545314133324237412F6F626A656374732E786D6CAD575B8F9B3818FD2B887D06C22499CB8AA1CA655245D5B455A356FB305264C061D8018C6C3393D95FBFC7600890
310
A4CD5EF210B0B1BFEBF98E3F7B1FF6596ABC522E1296DF9BAE3D320D9A872C4AF2F8DE2CE5CEBA358D0FBEC719939D65A691938CDE9B6ADAF4BD98B3B2D05311DD91329583D9D5FC0F438434A7A611A644887B5384CF34233629258BA878B12322891DEFF6B66BD70BFB62634E8AE781D082709A4B588AF91C528CDA28B73F
310
1C998EEF39EABBEFA97FBD6A7C7E9553F9D3D79FE442923C3C523610337627CB87ABE99D359D4CC6D6E4FACAB5E6ABF9D2726FC6A3C5F56271377BB88362213924694B38DD99FE47C48627A1E7D49F5A8BB5E1A74C0A599ED3B0F21F1E56366B89112D681E218F0915D0D6F17AD41FBA2A369DCF6335D62ABBD39779D5DDD1
310
11D4D8DE3CBB96B2E04FB8202E41051754A1AA8E8F76B4C6DFE810B580B1547F4B84911149794252234D024EF8BBE963A95AE27B3D310A9D5C215C7960FAEE415ED75694C6AFB17BCACA5D99A60A9AA65F217B0BFC53292ACB92BF283FAD0D3621576592CB5BED907C2FA8E9DF794E35E97BEA31BED21FEB401ABB94C44839
310
DCACBF0E1C5DA8DA5B2F4DFFD32AD86F543D9E565E7056502E157C00AD2671CD534549AB752FCA9CDA00677A313F04E51B22FF19E57B300579E3C97EB29F682D92935CEC18CF901B7B54FD8C51F362B56FC72FE0B3C1EAE335EDCCBF5AEC39ADB17DC238973F804BA5E6F6BFE7AF1FB32E523BE9F3BD571418E3631DCA4D48
310
5250CF639223210A9446CA30052EDF057BD35F8329C1ECD84552BF0DC8D18BE7BCE23BFE6BD960AB4A7DE79923A103BEBD80F911CBAA2C60DB19B01CF164A5583B772EE6D3FFA56666CBCDA74DC97724A48F9A58967497E489C4D979006FD7A05E227A1EBDD0F737C623387A9C844D3709995625106D157315F8B8392CD4E0
310
A0B9A720C4BE9829CEF37EA1E13111214D53925356365ADA634861B52519DD27A00AEB808EAF0628E6F435519D446F45CF2C9CF5214F0A15B2F6D06B79DA3EE3CBF7F56780D2F4E7EF73A0F5E5B02A38D07DC852C6B7C1FBB6664213E0C39E3EBA7FF4E1AD23EA2829407C85E586727488B751B2DB9502BC7B228A3FD68B6E
310
A65A22397E690AA8D158D7E404EC8CDA235CC3B7D1898680131CEC2CDF2638C65196279577750F15884AEE19F94199155B92B13297978469D4F8D358DF0AEF7631E28DC8F0D9F437D5D39A83B2231A1D52D543813A824EF8D44BCFF2FA6A31BD1E8DAD87F1CCB526B3879935BF59CDADD5C37479BB1CDD4CA7B3556B516589
310
EF352754B706114D9C885EC9131DE6EFEB43D99AFE2391C2F958179413D7CFEF6B1B6DB1E7600F00DE6E5C67454A339A4BA2E0FBA85ED26F045D454F463DBFCE484C2F90F2E5E3666003662ED8F755951A7D1BECD5B30B550B2785C8E7320B7292A4838DDA71BBC863ED7613CAF659337A3354231D4FF4A182A54904C2898C
310
98B28C4AD0CE056CCF332A80986E571EE9DBC305BB5FEB7E509220A58D25CF042D712A806AC0AD0C657FDEF80D2D9CEAA2EE4D1C76F60BFE74219A06527D6F82DF6412526107381E55E353090704D085B52408A8913C4ED159D79BDA71BB4BC506F4831350EB6F975CD22D69BF7AC49B91A2C0A9DDA3D5CA36AD20FC478E37
310
E61844E2352865EBCB61A275A65283CAAA9DD27703B4102F5AF51EF5F573B75CBB5AD38BC845F7A49F82A0966A49C2E3EA5EA0ECD326CD965F1DB402C6FA8B51A4658C5C5E2EC9E214602E55810345408596591009A82E7E7FFACA19EEA299B14A0081A705CB3296EBC14CDF658DCD336EA6D1136881AAEB87B81AB9EE53D5
310
F5EB8BC8362082DA24122F98680A4E7930C01A0079749CEA14382A0783E5EBA5A10F8C098456A03D6A4AEB6BB881E2513747552A5DB22C7EDAF83BD5528081A365F7FF06504B0304140006080000CC70623B000000000000000000000000350000006662782F41393633353835312D344632462D344230382D423046372D37
310
39314545314133324237412F76657274696365732E62696E504B0304140006080800CC70623BF270F1330600000004000000360000006662782F41393633353835312D344632462D344230382D423046372D3739314545314133324237412F747269616E676C65732E62696E636660600000504B0304140006080000CC7062
310
3B000000000000000000000000370000006662782F41393633353835312D344632462D344230382D423046372D3739314545314133324237412F617474726962757465732E62696E504B0304140006080800CC70623B08DA0BD19000000041010000360000006662782F41393633353835312D344632462D344230382D4230
310
46372D3739314545314133324237412F6469726563746F72792E786D6C858F410AC3201045AF22B36F53E9A60B35CBEEBAE80D244E44489C6234F4F835464A48035D0DF398FF9F8AF63D0E6CC63039F212F8F9020C7D47C6792B21C5FE7403D62A1188E2E60C98D7234A5830286103A55745067B9D86B8A3CF9C7F90C11DE6
310
07FB144396D7B6A82D282E9A152AD114D5EF2CB866EEE831B8EEA07A7BB5A8D7D61A2BAAEB7FD5F70921FF497D00504B0304140006080800CC70623BEDD1DC58FD000000A00100003B0000006662782F41393633353835312D344632462D344230382D423046372D3739314545314133324237412F7265736F75726365732F
310
636F72652E786D6C8D504B6E833010BD0A9A6D65B00922041947112427E8052C33A156828DFCA97AFC9A40A576D7CDCCE87D344F8F9FBFE667F689CE6B6B3A6039850C8DB2A336530731DC4903D95970676DF82583CCC8193B5861107C72362E3BA4AC096842428D1D7107A5F7182053CF7474E0D507CE32973124857FE48B
310
540F3961CEF244279DE03EB81420DB9EAC1384436FA353E879B1B182C7A8C75DA3C7F453DF353A1075D537A7BA6464B8F535A99AE14A9A2BBD90E350DD183B5CFABE3AF262350B1EF4FC9351399401471025A527C218A1E53BAB5A5AB765F5469B96525EACF23FA6B88CFF34456DC2A1DCE36E360F82A5202F42F062ED2BAD
310
579969AFDD8A6F504B010214000A0000080000CC70623B3DEE336E79000000790000001B00000000000000000000000000000000006175746F6465736B2D64657369676E2D7061636B6167652E786D6C504B01021400140006080800CC70623BD486FD9CA0000000F40000001300000000000000000000000000B20000005B
310
436F6E74656E745F54797065735D2E786D6C504B01021400140006080800CC70623B853B8169EB0000007C010000080000000000000000000000000083010000636F72652E786D6C504B01021400140006080800CC70623B55019EA25F0000007C000000070000000000000000000000000094020000636E782E786D6C504B
310
01021400140006080800CC70623BDBABAAF470010000D40300000C00000000000000000000000000180300006662782F636F72652E786D6C504B01021400140006080800CC70623B9C113CC27E0000009D0000000B00000000000000000000000000B20400006662782F636E782E786D6C504B01021400140006080800CC70
310
623B7DF2F77C2A010000120200003100000000000000000000000000590500006662782F41393633353835312D344632462D344230382D423046372D3739314545314133324237412F636F72652E786D6C504B01021400140006080800CC70623BAD7543B64E010000330300003000000000000000000000000000D2060000
310
6662782F41393633353835312D344632462D344230382D423046372D3739314545314133324237412F636E782E786D6C504B01021400140006080800CC70623BE75B7789680500003C10000034000000000000000000000000006E0800006662782F41393633353835312D344632462D344230382D423046372D3739314545
310
314133324237412F6F626A656374732E786D6C504B01021400140006080000CC70623B0000000000000000000000003500000000000000000000000000280E00006662782F41393633353835312D344632462D344230382D423046372D3739314545314133324237412F76657274696365732E62696E504B01021400140006
310
080800CC70623BF270F133060000000400000036000000000000000000000000007B0E00006662782F41393633353835312D344632462D344230382D423046372D3739314545314133324237412F747269616E676C65732E62696E504B01021400140006080000CC70623B0000000000000000000000003700000000000000
310
000000000000D50E00006662782F41393633353835312D344632462D344230382D423046372D3739314545314133324237412F617474726962757465732E62696E504B01021400140006080800CC70623B08DA0BD1900000004101000036000000000000000000000000002A0F00006662782F41393633353835312D344632
310
462D344230382D423046372D3739314545314133324237412F6469726563746F72792E786D6C504B01021400140006080800CC70623BEDD1DC58FD000000A00100003B000000000000000000000000000E1000006662782F41393633353835312D344632462D344230382D423046372D3739314545314133324237412F7265
310
736F75726365732F636F72652E786D6C504B0506000000000E000E0080040000641100000000
  0
XRECORD
  5
11FF9
102
{ACAD_REACTORS
330
1F7
102
}
330
1F7
100
AcDbXrecord
280
     1
102
MATERIAL
148
0.0
149
0.0
149
0.0
 93
        0
 94
       63
282
     0
 72
     1
 77
     1
171
     1
175
     1
179
     1
273
     0
  0
XRECORD
  5
1F8
102
{ACAD_REACTORS
330
1F7
102
}
330
1F7
100
AcDbXrecord
280
     1
 70
     1
 90
429727718
  1
30362254-06B7-45E0-A893-8CFA70E3D6BC
310
504B03040A0000080000CC70623B3DEE336E79000000790000001B0000006175746F6465736B2D64657369676E2D7061636B6167652E786D6C3C3F786D6C2076657273696F6E3D22312E302220656E636F64696E673D227574662D3822203F3E3C666F726D6174733E3C666F726D61743E687474703A2F2F736368656D612E
310
6175746F6465736B2E636F6D2F64657369676E2D7061636B6167652F323030393C2F666F726D61743E3C2F666F726D6174733E504B0304140006080800CC70623BD486FD9CA0000000F4000000130000005B436F6E74656E745F54797065735D2E786D6C7D8EC10E82300C865F65E91D8A1E8C310C0EEA1BF002731658846E
310
D98AC1B77784ABF1D8FE5FBFBF75BBCE937A534CCEB38643598122B6FEE978D0B0485F9C41B54DDD7D022595594E1A469170414C76A4D9A4D207E29CF43ECE46F218070CC6BECC4078ACAA135ACF422C856C0E68EA1BF5669944DDD7BCDE7B1F8E415D77AECB980613C2E4AC91FC167A2B244592486606FC29C8FD7F045B9A
310
EF7053A7E60B504B0304140006080800CC70623B1EC5D7A3EB0000007C01000008000000636F72652E786D6C8D90416EC3201045AF82665B6103C6756C6122AB4D4ED00B204C5C94182C03558F5F9C3852BBEB6A467FFE9B197D71FC9E6FE8CBACC17AD7032D0820E3B41FAD9B7A48F1820F808E52ACDEC75F36404ECDA687
310
4D0629A6D5A76597B477D1B89855E747B38B2A041301E95B6E7A08FAD3CCAA50296647B8168BD2573599823EBB0CA76447F43862C7BCCF5EAC59410E4DDD9C7973C2755553CCCFA4C603E3040F1565ED3B1FDE4E432BCA0D9622DAF9795FAF464533826484B498524CD807E51D79ED187F21878E10516EF63F505AC67F42C9
310
BA58B1FDDD071640D2FCC87D2045B96591CB3DA85CB7DCE40F504B0304140006080800CC70623B55019EA25F0000007C00000007000000636E782E786D6C4DCB3B0E80201045D1AD90E915ED2CF8AC45050C11660C8261F98AB1B07AC9C97D42D718D865D3E909258CFD00CCE24AC6E326A164D74DC0B4128928FF32603847
310
2BA13128B1252AC747C6BAB984FC68F0B87FE8960A5C09FE86CFB69FBA01504B0304140006080800CC70623B8C9102E971010000D40300000C0000006662782F636F72652E786D6CC5535B6E833010BC8AE5DF0A6C08340F1947A84D4ED00B38C6A128602363A31CBFCB234A53A551FA553EC09AD9F5CE8C31DB9E9B1AF5CA
310
7695D1198E428A91D2D214952E33ECDD315861B4E5CC1AE3BE9561A445A3323CC098B3D21ADFCE9034DA29ED00D5A6503328BA4E398C640D8B0C77F253352214DE4145770A5B214FA2546114020D759C75CE8200340D19DE981F0F6746269C33EFAB6266AB02A655C74A59CCF365BADC27CB5D902ED22848F6340DF238A141
310
BE88E2F57B92BFEDF23523433367AE6A2EEAA455C2A902F398D2751045018D3FA264435F3771F242571B4A1919CA6F9A7C5B3CD9E42BED16F12C776AEB308F40C848FC700B1139D4891EF410CEC810227CC6846F8386402064270EF5C5C709A05E49676C024C61FC95EA45ED154CA5211D1FF4FB8291A913A68E9B83EBBB33
310
E2A7673CDE118E5AE8124C0807CB8377834E366998436B950D7A7746DAD846D4CFD978E0F04FD455FC5D49D2D4C6FE9722321F10997F0F32DC47FE05504B0304140006080800CC70623BFFEA85907E0000009D0000000B0000006662782F636E782E786D6C4DCCD10A83201886E15B91FFDC95D95A811AB6F23E625948A6C3
310
E9D8E5AF46073BFAE0E1E365ED67B3E8ADC3CB78C7815C7240DA3DFC64DCC221C519D7805AC182F7F1EF06C88D9BE6703008B6049F9E274D7A1E938DBB5AE3D6131B2589BA0D3D965551E0B2EA732C9B9A624AAEB41E3A557677029960D9AFB4EF11165F504B0304140006080800CC70623B4FEEA4082C0100001202000031
310
0000006662782F39464131463745442D413632322D343644302D413938332D3331353338454246344243312F636F72652E786D6C8D515B6EC32010BC0AE2AB55850DD871ED0813254D72825EC00192A2C460F1A872FC42ED48ED5F7E00CDCECCCEB26C731F6FE05B39AFADE921293004CA082BB5B9F43086336A21D870E6AC
310
0D7F68109861543DCC30E4ECE26C9C164858139409093556AA051CBC570102714B8F1E7AF1A5C6A11862480C7F2DA6415C878B2A4891CA89C7990F2E050073937C42DE1DB7E4F87ED8A36D4329AA9B3D46DBAEAD504556557BD81DEBDD0761E52CE42C462D17B996298E3E6BE59E35C962CE821E1FF18553435012728A7187
310
0841987E927A8D9B35ADDF70BBC6989599FE4F1427F9A4286A132ABAC49D651EF234CD5CE04CDA78BA3DC2A8FB645D00B9DF8B57E215725C60BCA2A463E54C4CE327C7A65E1C7DB02E7DEFCBF594B864C5CA6CDBD49C957943E9FA5D5FBAF336F90F504B0304140006080800CC70623BAD7543B64E01000033030000300000
310
006662782F39464131463745442D413632322D343644302D413938332D3331353338454246344243312F636E782E786D6CD593CD6EC32010845F0571AD6CE3D48AD20813A9873E410FBD12D82434182C7EAAE6EDBB2424CD25871E7B41D6EC30B3FA84F9E67BB2E40B4234DE8DB46F1925E094D7C6ED479AD3AE5951B2113C
310
789FEE6C943839C1488B4C05DF079FE72A69D8C96C13AAD6B8631503449F83828872B949AC57D26200B826A308D316B4064D6E46FCDA41C05550DC9E483A00797BFD207EFB092A45DE9514C1BBD22178396BD39D891265658C238DEA00936C654E5E433CB65A26D9F6EDB5EBC14EBF49A45CB856E66048291F6939A9A81BB5
310
C8917738143CA680F4AA299D66A042CEB3354A2684DC9D8D178FE0D9B8B41CAAD720F880EE7EF93C0C18769E099ECC04D5A102C8049A8A05632F4DDF376CF1DE0F6BB65C2F8627B65A33C6BB62177CEBBDAD973006829F89F22E814B54F4BC2BE347F8AA8F681390B50FA73F804400B5F542E796F19FF974E7F78DB802FE05
310
E207504B0304140006080800CC70623B16AB87BA640500003C100000340000006662782F39464131463745442D413632322D343644302D413938332D3331353338454246344243312F6F626A656374732E786D6CAD575B6FA33818FD2B887DE6924B3BED8A326A92B68A663B534DD4D13E548A0C38942D60649B369D5FBFC7
310
600890A493BDE42160637FD7F31D7FF63E6FB3D478A55C242CBF3247B66B1A340F5994E4F19559CA8D75611A9F7D8F33263BCB4C232719BD32D5B4E97B316765A1A722BA21652A07B3B7B33F0D11D29C9A46981221AE4C113ED38CD8A4942CA2E2C58E882476BCD9DA23BB5ED8171B73523C0F841684D35CC252CCE79062D4
310
468DFA43D7747CCF51DF7D4FFDEB5593E3AB9CCA9FBEFE241792E4E19EB28198C968BAB8199F5D5A67D3E9C49A9E8F47D6EC76B6B0469F26EEFC7C3EBFBCBEB98462213924694B38DD98FE1D62C393D073EA4FADC5DAF04326852CCF6958F90F0F2B9BB5C48816348F90C7840A68EB78EDF68723159BCEE7891A6B95DDE9D3
310
BCEAEEE8086A6C6F9E5D4B59F0175C10A7A0820BAA5055C7473B5AE3CFDD452D602CD5DF12616444529E90D448938013FE6EFA58AA96F85E4F8C42275708571E98FE6827AF6B2B4AE3D7D83D64E5A64C53054DD3AF90BD06FEA9149565C94FCA0F6B834DC85599E4F2423B24DF0B6AFA979E534DFA9E7A4CC6FA631D486393
310
921829879BF5D781A373557BCB85E97FB90DB62B558F8795179C15944B051F40AB495CF35451D26A4727654E6D8033BD98EF82F21D91FF8AF2DD9982BCF1643BDD4EB516C9492E368C67C88DED563FC36D5EACF66DFF057C3658BDBFA69DF9578B3DA735B64F18C7F20770A9D45CFCF7FCF563D6456A277DBEF78A02637CA2
310
43B90A490AEAB94F72244481D24819A6C0E59B606BFA4B3025981DBB48EAB701D97BF19C577CC77F2D1B6C55A9EF3C732474C0B727303F625995056C3B02963D9EAC146BE78EC5FCEC7FA999EBC5EACBAAE41B12D27B4D2C0BBA49F244E2ECDC81B76B502F113D8F5EE8FB1BE3111CDD4FC2AA9B844CAB1288B68AB90A7CDC
310
1C166AB0D3DC5310625FCC14E779BFD0709F8890A629C9292B1B2DED31A4B0DA928CEE135085754027E3018A397D4D5427D15BD1330B677DC8934285AC3DF45A9EB68FF8F2B8FC0A509AFEECFD0FF2DE25CC6047F7214B195F07EFEB9A094D800F7BFAE8FED187B78EA8A3A400F115961BCAD1215E47C966530AF0EE8128FE
310
58CEBB996A8964FFA529A046635D9353B0336A8F700DDF46271A024E70B0B37C9DE01847591E54DED53D54202AB947E4076556AC49C6CA5C9E1226B7F1A7B1BE15DEED62C41B91E1B3E9AFAAA735036547343A925075041DF0A9979E893B391F8FCFA6967B3EFB644DCF6E5CEBFAE272625DCC6FAF3FB93793C5F90CE1EF57
310
407342756B10D1C489E8953CD1617E5CEECAD6F4EF8914CE5D5D504E5C3F1F9736DA62CFC11E00BCDDB8CC8A9466349744C1F75EBDA4DF09BA8A9E8C7A7E9991989E20E5DBDD6A6003664ED8F7A04A8DBE0DF6EAD9B9AA858342E47399053949D2C146EDB85DE4B176BB0965FBAC19BD19AA918E27FA50C1D22402E144464C
310
59462568E704B6E71915404CB72B8FF4EDE184DDAF753F284990D2C6926782963815403548A70C657FDEF80D2D9CEAA2AE4C1C76F60BFE74219A06527D6582DF6412526107381E55E353090704D085B52408D0933C4ED159D79BDA71BB4BC506F4831350EB6F979CD22D69BF7AC49B91A2C0A9DDA3D5CA36AD20FC478E37E6
310
1844E2352865EBCB6EA275A652E3836BE04EFB400BF1A2556F515F1FBB35B2AB35BD889C744FFA1004B5544B121E57F70215746DD2F5E2C1412B602CBF19455AC6C8E5E9922C4E01E65215385004546899059180EAFCF7A707CE7017CD8CDB0410789AB32C63B91E5CEBBBACB17AC6CD347A022D5075FD106377347AAABA7E
310
7D11590744509B44E205134DC1290F06580320F78E537D3D73540E06CB970B431F185308AD40BBD794D6D77003C5A36E8EAA54BA64597CD8F83BD552A080A365F7FF06504B0304140006080000CC70623B000000000000000000000000350000006662782F39464131463745442D413632322D343644302D413938332D3331
310
353338454246344243312F76657274696365732E62696E504B0304140006080800CC70623BF270F1330600000004000000360000006662782F39464131463745442D413632322D343644302D413938332D3331353338454246344243312F747269616E676C65732E62696E636660600000504B0304140006080000CC70623B
310
000000000000000000000000370000006662782F39464131463745442D413632322D343644302D413938332D3331353338454246344243312F617474726962757465732E62696E504B0304140006080800CC70623B08DA0BD19000000041010000360000006662782F39464131463745442D413632322D343644302D413938
310
332D3331353338454246344243312F6469726563746F72792E786D6C858F410AC3201045AF22B36F53E9A60B35CBEEBAE80D244E44489C6234F4F835464A48035D0DF398FF9F8AF63D0E6CC63039F212F8F9020C7D47C6792B21C5FE7403D62A1188E2E60C98D7234A5830286103A55745067B9D86B8A3CF9C7F90C11DE607
310
FB144396D7B6A82D282E9A152AD114D5EF2CB866EEE831B8EEA07A7BB5A8D7D61A2BAAEB7FD5F70921FF497D00504B0304140006080800CC70623B0D6EF93BFE000000A00100003B0000006662782F39464131463745442D413632322D343644302D413938332D3331353338454246344243312F7265736F75726365732F63
310
6F72652E786D6C8D50596E833010BD0A9ADFCA60B334011947A8694ED00B586642AC041B79A97AFC9A40A5F6AF3F33A3B7689E1E3F7DCD8FEC139DD7D6F4C0720A191A65476DA61E62B892236427C19DB5E1970C322367EC618541F0C9D9B8EC90B226A009093576C41D94DE63804C3DD2D18357379C652E63480A7FCF17A9
310
EE72C29CE5894E3AC17D702940B63D59270887DE46A7D0F36263058F518FBB468FE9A7BE6A7420864373B8D4873369AA8691FA421B3294352543C5CAF65C0F6FEF43CB8BD52C78D0F34F46E550061C419494B6843142CB0F5677F4B52BEB177AEC28E5C52AFF638ACBF84F53D42654E51E77B379102C05791282176B5F693D
310
CB4C7BED567C03504B010214000A0000080000CC70623B3DEE336E79000000790000001B00000000000000000000000000000000006175746F6465736B2D64657369676E2D7061636B6167652E786D6C504B01021400140006080800CC70623BD486FD9CA0000000F40000001300000000000000000000000000B20000005B
310
436F6E74656E745F54797065735D2E786D6C504B01021400140006080800CC70623B1EC5D7A3EB0000007C010000080000000000000000000000000083010000636F72652E786D6C504B01021400140006080800CC70623B55019EA25F0000007C000000070000000000000000000000000094020000636E782E786D6C504B
310
01021400140006080800CC70623B8C9102E971010000D40300000C00000000000000000000000000180300006662782F636F72652E786D6C504B01021400140006080800CC70623BFFEA85907E0000009D0000000B00000000000000000000000000B30400006662782F636E782E786D6C504B01021400140006080800CC70
310
623B4FEEA4082C0100001202000031000000000000000000000000005A0500006662782F39464131463745442D413632322D343644302D413938332D3331353338454246344243312F636F72652E786D6C504B01021400140006080800CC70623BAD7543B64E010000330300003000000000000000000000000000D5060000
310
6662782F39464131463745442D413632322D343644302D413938332D3331353338454246344243312F636E782E786D6C504B01021400140006080800CC70623B16AB87BA640500003C1000003400000000000000000000000000710800006662782F39464131463745442D413632322D343644302D413938332D3331353338
310
454246344243312F6F626A656374732E786D6C504B01021400140006080000CC70623B0000000000000000000000003500000000000000000000000000270E00006662782F39464131463745442D413632322D343644302D413938332D3331353338454246344243312F76657274696365732E62696E504B01021400140006
310
080800CC70623BF270F133060000000400000036000000000000000000000000007A0E00006662782F39464131463745442D413632322D343644302D413938332D3331353338454246344243312F747269616E676C65732E62696E504B01021400140006080000CC70623B0000000000000000000000003700000000000000
310
000000000000D40E00006662782F39464131463745442D413632322D343644302D413938332D3331353338454246344243312F617474726962757465732E62696E504B01021400140006080800CC70623B08DA0BD190000000410100003600000000000000000000000000290F00006662782F39464131463745442D413632
310
322D343644302D413938332D3331353338454246344243312F6469726563746F72792E786D6C504B01021400140006080800CC70623B0D6EF93BFE000000A00100003B000000000000000000000000000D1000006662782F39464131463745442D413632322D343644302D413938332D3331353338454246344243312F7265
310
736F75726365732F636F72652E786D6C504B0506000000000E000E0080040000641100000000
  0
XRECORD
  5
11FFB
102
{ACAD_REACTORS
330
173
102
}
330
173
100
AcDbXrecord
280
     1
102
MATERIAL
148
0.0
149
0.0
149
0.0
 93
        0
 94
       63
282
     0
 72
     1
 77
     1
171
     1
175
     1
179
     1
273
     0
  0
XRECORD
  5
175
102
{ACAD_REACTORS
330
173
102
}
330
173
100
AcDbXrecord
280
     1
270
     1
271
     1
  0
XRECORD
  5
174
102
{ACAD_REACTORS
330
173
102
}
330
173
100
AcDbXrecord
280
     1
270
     1
271
     1
  0
XRECORD
  5
1FB
102
{ACAD_REACTORS
330
173
102
}
330
173
100
AcDbXrecord
280
     1
 70
     0
 90
1673772943
  1
ECE7A1D2-D628-4531-984C-D00F80459256
310
504B03040A0000080000CC70623B3DEE336E79000000790000001B0000006175746F6465736B2D64657369676E2D7061636B6167652E786D6C3C3F786D6C2076657273696F6E3D22312E302220656E636F64696E673D227574662D3822203F3E3C666F726D6174733E3C666F726D61743E687474703A2F2F736368656D612E
310
6175746F6465736B2E636F6D2F64657369676E2D7061636B6167652F323030393C2F666F726D61743E3C2F666F726D6174733E504B0304140006080800CC70623BD486FD9CA0000000F4000000130000005B436F6E74656E745F54797065735D2E786D6C7D8EC10E82300C865F65E91D8A1E8C310C0EEA1BF002731658846E
310
D98AC1B77784ABF1D8FE5FBFBF75BBCE937A534CCEB38643598122B6FEE978D0B0485F9C41B54DDD7D022595594E1A469170414C76A4D9A4D207E29CF43ECE46F218070CC6BECC4078ACAA135ACF422C856C0E68EA1BF5669944DDD7BCDE7B1F8E415D77AECB980613C2E4AC91FC167A2B244592486606FC29C8FD7F045B9A
310
EF7053A7E60B504B0304140006080800CC70623BD9DDAED0EC0000007C01000008000000636F72652E786D6C8D90416EC3201045AF82665B61836D9CD8C2444DD39CA01740405C94182C03558F5F9C3852BBEB6A467FFE9B197D7EF89E6EE8CB2CC17A37002D0820E394D7D68D03A478C17B4007C117EFE32F1B20272733C0
310
2A83E0E3E2D3BC49CABB685CCCAAF3DA6CA20CC14440EA969B0182FA34932C648AD911AEC52CD5558EA6A0CF2EC329598D1E47ACCEFBECC59A050463A7EA5833865FEBDD0E37353BE3EE8DBDE3F6786A48D375FBF6CC78B9C282473B3DEFABC5C86834888A900E538A49F5419B9EB47DD5BC907D4F082F57FB1F28CDFA9F50
310
B22ED6D5F6EE030B20687EE43E10BC5CB3C8E51E54AE6B6EE207504B0304140006080800CC70623B55019EA25F0000007C00000007000000636E782E786D6C4DCB3B0E80201045D1AD90E915ED2CF8AC45050C11660C8261F98AB1B07AC9C97D42D718D865D3E909258CFD00CCE24AC6E326A164D74DC0B4128928FF326038
310
472BA13128B1252AC747C6BAB984FC68F0B87FE8960A5C09FE86CFB69FBA01504B0304140006080800CC70623BA24EB22D72010000D40300000C0000006662782F636F72652E786D6CC5535B6E833010BC8AE5DF0A6C5E49888CA3A6694ED00B38E05014B091B1518EDFE511A5A9D228FD2A1F60CDEC7A67C6986DCE4D8D7A
310
69BA4AAB0C073EC548AA5C17952A33ECECD15B61B4E1CC686DBF9561A44423333CC098B3D268D7CE50AE9595CA02AA74216750749DB418E5352C32DCE59FB211BE70162ABA93DF8AFC244AE9073ED050C759670D0840D390E18DF9F1706664C23973AE2A66B62A605A75ACA4C13C4976E1364A12EF355A2EBD384AF65EFA96
310
BC7B8BED2EA6719AAE16FB8491A199335B351775B991C2CA02F390D2D40B028F861F41BCA68B7518BFD0D59A524686F29B26D7164F36B94AD9289CE54E6D1DE6010819891F6E21228B3AD1831EC219194284CF98F06DD01008846CC5A1BEF83801D4CBDC6A1303536877A57A513B0953A94FC707FDBE6064EA84A9E3E6E0FA
310
EE8CF0E9198F7784A316AA0413C2C2F2E0ECA0934D1AE6D05A69BCDE9E91D2A611F573361E38FC1375157F5752AE6B6DFE4B11990F88CCBF0719EE23FF02504B0304140006080800CC70623B408A7D3B7C0000009D0000000B0000006662782F636E782E786D6C4DCCD10A83201886E15B91FFDC552A92A0064DBC8F581632
310
D3703A76F9ABD1C18E3E78F878E5F0D9027ABBFCF2292AE86E2D20171F69F6715550CB827B40839639A5F2770314A7CD293819B45C73AAFB45B35BA61ACAA1C1C7E7855C58C15BC331339661262CC762340413D68D77DA5B42298546CBE6573AF60CEB2F504B0304140006080800CC70623B449FB9BD290100001202000031
310
0000006662782F36394639363044362D344446342D343946362D394244322D3234314243333846323333332F636F72652E786D6C8D515B6EC32010BC0AE22B55850D98B871848994463E412FE002495162B07854397EA176A4F62F3F2C9A9D991D587EB84F37F0AD7D30CEF6905418026DA553C65E7A98E219ED203808EE9D
310
8B7F6810D871D23D2C3014FCE25D9A57483A1BB58D19B54EE9151C43D0110279CB971E06F9A5A7B11A53CC8C70ADE6515EC78BAE4895DB992778883E0700CB907242D17643D7E2538BD869608875438BBAE38922CAC8F1BDD90DB4691A5E2F42C153326A951B95E398B3D1FE599322163C9AE9115F7A3D46ADA0A018778810
310
84E907617BDCEE297BC5BB3DC6BC2EF47FA234AB2745C9D8D8D035EE220B50105E2F0DC1954B9FB747187D9F9D8FA0CCDB042D5FA0C015C65B42DF78BD10F3F3B363CB56C7109DCFDFBBB97E662ED92EB62D13BC2E1BCAE5777DB9966D8A1F504B0304140006080800CC70623BAD7543B64E01000033030000300000006662
310
782F36394639363044362D344446342D343946362D394244322D3234314243333846323333332F636E782E786D6CD593CD6EC32010845F0571AD6CE3D48AD20813A9873E410FBD12D82434182C7EAAE6EDBB2424CD25871E7B41D6EC30B3FA84F9E67BB2E40B4234DE8DB46F1925E094D7C6ED479AD3AE5951B2113C789FEE
310
6C943839C1488B4C05DF079FE72A69D8C96C13AAD6B8631503449F83828872B949AC57D26200B826A308D316B4064D6E46FCDA41C05550DC9E483A00797BFD207EFB092A45DE9514C1BBD22178396BD39D891265658C238DEA00936C654E5E433CB65A26D9F6EDB5EBC14EBF49A45CB856E66048291F6939A9A81BB5C89177
310
38143CA680F4AA299D66A042CEB3354A2684DC9D8D178FE0D9B8B41CAAD720F880EE7EF93C0C18769E099ECC04D5A102C8049A8A05632F4DDF376CF1DE0F6BB65C2F8627B65A33C6BB62177CEBBDAD973006829F89F22E814B54F4BC2BE347F8AA8F681390B50FA73F804400B5F542E796F19FF974E7F78DB802FE05E20750
310
4B0304140006080800CC70623B8D05915C650500003B100000340000006662782F36394639363044362D344446342D343946362D394244322D3234314243333846323333332F6F626A656374732E786D6CAD575B6FA33814FE2B887D06429276DA1565D4266D158D3A339A6846FB502932E050B66023DB74D2FDF5FB190C01
310
9276B2973C046C8ECFF53B17071F77456EBD502133CEAE6CDF9DD81665314F32965ED995DA3A17B6F5310C04E7AA47665B8C14F4CAD6DB7618A48257A5D94AE89654B91AEDDEDDFC61C998326A5B714EA4BCB265FC440BE2924AF184CA6737218AB8E976E7FA6E4338649B0A523E8D98964450A6A029F619B8588D52FE7039
310
B1BD30F0F4F730D0FF866AF6369557DB33949F31A9088B0F848DD8CCFCF9F2767A76E99CCDE733677E3EF59D9BBB9BA5E37F984D16E78BC5E5F5ED25044B25C0C96822E8D60EEFE11B91C581D77CEA34368A1F5329E68CD1B8B61F16D63A1B8E092D294B10C78C4A48EB593D192E7DED9BDEE7995E1B91FDEDD3ACEA9FE831
310
6A756F9F7D4D79F4274C90A7A04248AA51D5F8C718DAE06FB2F75AC4796EBE65D22A88A22223B995679120E2D50E41AA49C260C046A35368846B0BECD0DFF3EBEB8AD4F835768F69B9ADF25C43D30E6B646F807FAA64AD59F61715C7A54127C4AACA98BA3006A9D792DAE165E0D59B61A01FB3A9F9D838D2DAE62445C86166
310
F37564E842E7DE6A69879FEEA2DD5AE7E371E1A5E025154AC307D06A03D73EB5978C58FFA4C8E9033066E0F3BD53BEC1F39F91BE7B55103791EDE6BBB991A2046172CB4581D8B893FA674DDA17A77B3B7C413D1B511FD2743BFF8A38F03A658705E3ADF8015C3A3417FF3D7E439FF591DA0B5F18BC20C1B8981957AE6392A3
310
F43C640C01D1A0B4728E2DD4F26DB4B3C3152A252A3B4E913CEC1C72F012782FF88EFF8637AA552DBEF76408E8A8DE9E50F9E1CB3A2DA0DB1B6039A893B56063DC5B3E3FFB5F72E67AB9FEB4AEC496C4F4C1149625DD662C53E89D7BF0F6151A046260D1337DFDC94502430F83B0EE07A130A224BCAD7DAE1D9FB6CD422FF6
310
920702629C4BB9AE79C12F243C6432A6794E18E5552BA56B431AAB5D91317302B2B071E86C3A42B1A02F999E24061403B5D0EB639195DA655DD3EBEAB4FB862DDF579F014AD0E73C22F99E28DA57FB98E75C6CA2D74D53086D600F4786E0FE3144B771A8A7B900F03594DB8A633CBC49B2EDB69228BB479CF863B5E807AAAB
310
23872F6DFEB4129B949CA33823F58830E86D65621E10047D9DB34D862E8EAC3C2ABC2F7B2C40D67CDFE01F5545B92105AF983AC54D93D69E56FB8E797F88913F898A9FEC705D3F9D1B54EC8426FB500D40A03BD0119B06E1B95DDC7EB8F6975367793EBD70E66733DFB9BC982F9CE564727731999F5D4ECFCE3B8D6A4DC2A0
310
6D50FD148437D110834A64C6CDDF57FBACB5C307A2A477DFE4939736CFEF2B175371E0E10CF0DD1D5C15654E0BCA14D1E87DD02FF93782A162C0A3D95F1524A52770F972BF1EE9809D13CE7DD599467F8ECE9ADD85CE85A34CD45355448C64F9E8A031DC2D596ACC6E5DD93D9B82DE2EF5CAF81363A8E47996A0DE24564A79
310
4115AACE09C55E14540231FDA13C319787134EBF34E3A022514E5B4D9E0826E25C02D5805B15ABE1BEF51B26383D445DD9E875EE33FE4C22DA16427D65A3BCA92CA6D28DD01DF5DC53330704308475351050232CCD31583787BA75774AFB06E5070DD0C8EF484E19968C5D83BA5B90B244D31E54D55A372320FE4786B7EA58
310
44E135AA5467CB7EA333A61683CC6A8C3257034C10CF46F40EF9F5BE59BE5BD30C3C72D235E95D10345C1D45445A5F0BB47E46A5EBE5570F9380B5FA629579952296A773720405982B9DE04011506178964401AA8BDF1FBF0A8EAB6861DD6580C0E38217056766716DAEB2D6FA0917D3E4116581EADB879C4E7CFFB11EFACD
310
3D641311495D92C8676CB409A72D18610D803CE8A626049E8EC1887CB5B44CC39883690DDA8399B4B9855B481E7D71D4A9D22F96E5BB73BF5793020C02137BF837504B0304140006080000CC70623B000000000000000000000000350000006662782F36394639363044362D344446342D343946362D394244322D32343142
310
43333846323333332F76657274696365732E62696E504B0304140006080800CC70623BF270F1330600000004000000360000006662782F36394639363044362D344446342D343946362D394244322D3234314243333846323333332F747269616E676C65732E62696E636660600000504B0304140006080000CC70623B0000
310
00000000000000000000370000006662782F36394639363044362D344446342D343946362D394244322D3234314243333846323333332F617474726962757465732E62696E504B0304140006080800CC70623B08DA0BD19000000041010000360000006662782F36394639363044362D344446342D343946362D394244322D
310
3234314243333846323333332F6469726563746F72792E786D6C858F410AC3201045AF22B36F53E9A60B35CBEEBAE80D244E44489C6234F4F835464A48035D0DF398FF9F8AF63D0E6CC63039F212F8F9020C7D47C6792B21C5FE7403D62A1188E2E60C98D7234A5830286103A55745067B9D86B8A3CF9C7F90C11DE607FB14
310
4396D7B6A82D282E9A152AD114D5EF2CB866EEE831B8EEA07A7BB5A8D7D61A2BAAEB7FD5F70921FF497D00504B0304140006080800CC70623BCA768048FE000000A00100003B0000006662782F36394639363044362D344446342D343946362D394244322D3234314243333846323333332F7265736F75726365732F636F72
310
652E786D6C8D50596E833010BD0A9ADFCA60D600328E9AA639412F609909B1126CE4A5EAF16B0295DABFFECC8CDEA2797AECF8353F924FB44E193D409E5248504B332A3D0D10FC95B4901C39B3C6F85F3248B49871801506CE266BC2B243D2688FDA47549B11775038871E12F988C7004EDE7016A9083E2ADC3D5D84BC8B09
310
D33C8D74D471E6BC8D0192EDC93A815B742658898E651BCB59086ADC356A8C3FD555A1055ED7E7E254D615792D0F075295F585746FF53B694EE78A565DD736979A65AB9933AFE69F8CD2A2F038022F28ED489E135A7CE4554F9BBEA85E68DB53CAB255FEC71496F19FA6A0B42F8B3DEE6673C0F318E4497096AD7DC5F52C33
310
EEB55BFE0D504B010214000A0000080000CC70623B3DEE336E79000000790000001B00000000000000000000000000000000006175746F6465736B2D64657369676E2D7061636B6167652E786D6C504B01021400140006080800CC70623BD486FD9CA0000000F40000001300000000000000000000000000B20000005B436F
310
6E74656E745F54797065735D2E786D6C504B01021400140006080800CC70623BD9DDAED0EC0000007C010000080000000000000000000000000083010000636F72652E786D6C504B01021400140006080800CC70623B55019EA25F0000007C000000070000000000000000000000000095020000636E782E786D6C504B0102
310
1400140006080800CC70623BA24EB22D72010000D40300000C00000000000000000000000000190300006662782F636F72652E786D6C504B01021400140006080800CC70623B408A7D3B7C0000009D0000000B00000000000000000000000000B50400006662782F636E782E786D6C504B01021400140006080800CC70623B
310
449FB9BD290100001202000031000000000000000000000000005A0500006662782F36394639363044362D344446342D343946362D394244322D3234314243333846323333332F636F72652E786D6C504B01021400140006080800CC70623BAD7543B64E010000330300003000000000000000000000000000D20600006662
310
782F36394639363044362D344446342D343946362D394244322D3234314243333846323333332F636E782E786D6C504B01021400140006080800CC70623B8D05915C650500003B10000034000000000000000000000000006E0800006662782F36394639363044362D344446342D343946362D394244322D32343142433338
310
46323333332F6F626A656374732E786D6C504B01021400140006080000CC70623B0000000000000000000000003500000000000000000000000000250E00006662782F36394639363044362D344446342D343946362D394244322D3234314243333846323333332F76657274696365732E62696E504B010214001400060808
310
00CC70623BF270F13306000000040000003600000000000000000000000000780E00006662782F36394639363044362D344446342D343946362D394244322D3234314243333846323333332F747269616E676C65732E62696E504B01021400140006080000CC70623B00000000000000000000000037000000000000000000
310
00000000D20E00006662782F36394639363044362D344446342D343946362D394244322D3234314243333846323333332F617474726962757465732E62696E504B01021400140006080800CC70623B08DA0BD190000000410100003600000000000000000000000000270F00006662782F36394639363044362D344446342D
310
343946362D394244322D3234314243333846323333332F6469726563746F72792E786D6C504B01021400140006080800CC70623BCA768048FE000000A00100003B000000000000000000000000000B1000006662782F36394639363044362D344446342D343946362D394244322D3234314243333846323333332F7265736F
310
75726365732F636F72652E786D6C504B0506000000000E000E0080040000621100000000
  0
XRECORD
  5
176
102
{ACAD_REACTORS
330
173
102
}
330
173
100
AcDbXrecord
280
     1
270
     1
271
     1
  0
XRECORD
  5
177
102
{ACAD_REACTORS
330
173
102
}
330
173
100
AcDbXrecord
280
     1
270
     1
271
     1
  0
XRECORD
  5
1201D
102
{ACAD_REACTORS
330
1201C
102
}
330
1201C
100
AcDbXrecord
280
     1
102
ACAD_ROUNDTRIP_2012_MLEADER_STYLE
298
     1
  0
XRECORD
  5
1202F
102
{ACAD_REACTORS
330
1202E
102
}
330
1202E
100
AcDbXrecord
280
     1
102
DISPLAYNAME
  1
Metric50
102
FLAGS
 90
        0
  0
CELLSTYLEMAP
  5
11FEF
102
{ACAD_REACTORS
330
162
102
}
330
162
100
AcDbCellStyleMap
 90
        3
300
CELLSTYLE
  1
TABLEFORMAT_BEGIN
 90
        5
170
     1
 91
        0
 92
    32768
 62
   257
 93
        1
300
CONTENTFORMAT
  1
CONTENTFORMAT_BEGIN
 90
        0
 91
        0
 92
      512
 93
        0
300

 40
0.0
140
1.0
 94
        5
 62
     0
340
11
144
6.0
309
CONTENTFORMAT_END
171
     1
301
MARGIN
  1
CELLMARGIN_BEGIN
 40
1.5
 40
1.5
 40
1.5
 40
1.5
 40
4.5
 40
4.5
309
CELLMARGIN_END
 94
        6
 95
        1
302
GRIDFORMAT
  1
GRIDFORMAT_BEGIN
 90
        0
 91
        1
 62
     0
 92
       -2
340
14
 93
        0
 40
1.125
309
GRIDFORMAT_END
 95
        2
302
GRIDFORMAT
  1
GRIDFORMAT_BEGIN
 90
        0
 91
        1
 62
     0
 92
       -2
340
14
 93
        0
 40
1.125
309
GRIDFORMAT_END
 95
        4
302
GRIDFORMAT
  1
GRIDFORMAT_BEGIN
 90
        0
 91
        1
 62
     0
 92
       -2
340
14
 93
        0
 40
1.125
309
GRIDFORMAT_END
 95
        8
302
GRIDFORMAT
  1
GRIDFORMAT_BEGIN
 90
        0
 91
        1
 62
     0
 92
       -2
340
14
 93
        0
 40
1.125
309
GRIDFORMAT_END
 95
       16
302
GRIDFORMAT
  1
GRIDFORMAT_BEGIN
 90
        0
 91
        1
 62
     0
 92
       -2
340
14
 93
        0
 40
1.125
309
GRIDFORMAT_END
 95
       32
302
GRIDFORMAT
  1
GRIDFORMAT_BEGIN
 90
        0
 91
        1
 62
     0
 92
       -2
340
14
 93
        0
 40
1.125
309
GRIDFORMAT_END
309
TABLEFORMAT_END
  1
CELLSTYLE_BEGIN
 90
        1
 91
        1
300
_TITLE
309
CELLSTYLE_END
300
CELLSTYLE
  1
TABLEFORMAT_BEGIN
 90
        5
170
     1
 91
        0
 92
        0
 62
   257
 93
        1
300
CONTENTFORMAT
  1
CONTENTFORMAT_BEGIN
 90
        0
 91
        0
 92
      512
 93
        0
300

 40
0.0
140
1.0
 94
        5
 62
     0
340
11
144
4.5
309
CONTENTFORMAT_END
171
     1
301
MARGIN
  1
CELLMARGIN_BEGIN
 40
1.5
 40
1.5
 40
1.5
 40
1.5
 40
4.5
 40
4.5
309
CELLMARGIN_END
 94
        6
 95
        1
302
GRIDFORMAT
  1
GRIDFORMAT_BEGIN
 90
        0
 91
        1
 62
     0
 92
       -2
340
14
 93
        0
 40
1.125
309
GRIDFORMAT_END
 95
        2
302
GRIDFORMAT
  1
GRIDFORMAT_BEGIN
 90
        0
 91
        1
 62
     0
 92
       -2
340
14
 93
        0
 40
1.125
309
GRIDFORMAT_END
 95
        4
302
GRIDFORMAT
  1
GRIDFORMAT_BEGIN
 90
        0
 91
        1
 62
     0
 92
       -2
340
14
 93
        0
 40
1.125
309
GRIDFORMAT_END
 95
        8
302
GRIDFORMAT
  1
GRIDFORMAT_BEGIN
 90
        0
 91
        1
 62
     0
 92
       -2
340
14
 93
        0
 40
1.125
309
GRIDFORMAT_END
 95
       16
302
GRIDFORMAT
  1
GRIDFORMAT_BEGIN
 90
        0
 91
        1
 62
     0
 92
       -2
340
14
 93
        0
 40
1.125
309
GRIDFORMAT_END
 95
       32
302
GRIDFORMAT
  1
GRIDFORMAT_BEGIN
 90
        0
 91
        1
 62
     0
 92
       -2
340
14
 93
        0
 40
1.125
309
GRIDFORMAT_END
309
TABLEFORMAT_END
  1
CELLSTYLE_BEGIN
 90
        2
 91
        1
300
_HEADER
309
CELLSTYLE_END
300
CELLSTYLE
  1
TABLEFORMAT_BEGIN
 90
        5
170
     1
 91
        0
 92
        0
 62
   257
 93
        1
300
CONTENTFORMAT
  1
CONTENTFORMAT_BEGIN
 90
        0
 91
        0
 92
      512
 93
        0
300

 40
0.0
140
1.0
 94
        2
 62
     0
340
11
144
4.5
309
CONTENTFORMAT_END
171
     1
301
MARGIN
  1
CELLMARGIN_BEGIN
 40
1.5
 40
1.5
 40
1.5
 40
1.5
 40
4.5
 40
4.5
309
CELLMARGIN_END
 94
        6
 95
        1
302
GRIDFORMAT
  1
GRIDFORMAT_BEGIN
 90
        0
 91
        1
 62
     0
 92
       -2
340
14
 93
        0
 40
1.125
309
GRIDFORMAT_END
 95
        2
302
GRIDFORMAT
  1
GRIDFORMAT_BEGIN
 90
        0
 91
        1
 62
     0
 92
       -2
340
14
 93
        0
 40
1.125
309
GRIDFORMAT_END
 95
        4
302
GRIDFORMAT
  1
GRIDFORMAT_BEGIN
 90
        0
 91
        1
 62
     0
 92
       -2
340
14
 93
        0
 40
1.125
309
GRIDFORMAT_END
 95
        8
302
GRIDFORMAT
  1
GRIDFORMAT_BEGIN
 90
        0
 91
        1
 62
     0
 92
       -2
340
14
 93
        0
 40
1.125
309
GRIDFORMAT_END
 95
       16
302
GRIDFORMAT
  1
GRIDFORMAT_BEGIN
 90
        0
 91
        1
 62
     0
 92
       -2
340
14
 93
        0
 40
1.125
309
GRIDFORMAT_END
 95
       32
302
GRIDFORMAT
  1
GRIDFORMAT_BEGIN
 90
        0
 91
        1
 62
     0
 92
       -2
340
14
 93
        0
 40
1.125
309
GRIDFORMAT_END
309
TABLEFORMAT_END
  1
CELLSTYLE_BEGIN
 90
        3
 91
        2
300
_DATA
309
CELLSTYLE_END
  0
XRECORD
  5
11FF4
102
{ACAD_REACTORS
330
162
102
}
330
162
100
AcDbXrecord
280
     1
102
ACAD_ROUNDTRIP_PRE2007_TABLESTYLE
 90
      512
 91
        0
  1

 92
      512
 93
        0
  2

 94
      512
 95
        0
  3

  0
XRECORD
  5
12007
102
{ACAD_REACTORS
330
12006
102
}
330
12006
100
AcDbXrecord
280
     1
102
RTVSPost2010Prop28
280
     1
102
RTVSPost2010PropOp28
 70
     1
102
RTVSPost2010Prop29
280
     1
102
RTVSPost2010PropOp29
 70
     1
102
RTVSPost2010Prop30
280
     0
102
RTVSPost2010PropOp30
 70
     1
102
RTVSPost2010Prop31
280
     0
102
RTVSPost2010PropOp31
 70
     1
102
RTVSPost2010Prop32
280
     0
102
RTVSPost2010PropOp32
 70
     1
102
RTVSPost2010Prop33
280
     0
102
RTVSPost2010PropOp33
 70
     1
102
RTVSPost2010Prop34
280
     0
102
RTVSPost2010PropOp34
 70
     1
102
RTVSPost2010Prop35
280
     0
102
RTVSPost2010PropOp35
 70
     1
102
RTVSPost2010Prop36
280
     0
102
RTVSPost2010PropOp36
 70
     1
102
RTVSPost2010Prop37
 90
       50
102
RTVSPost2010PropOp37
 70
     1
102
RTVSPost2010Prop38
140
0.0
102
RTVSPost2010PropOp38
 70
     1
102
RTVSPost2010Prop39
140
1.0
102
RTVSPost2010PropOp39
 70
     1
102
RTVSPost2010Prop40
 90
        0
102
RTVSPost2010PropOp40
 70
     1
102
RTVSPost2010Prop41ColorIndex
 90
       18
102
RTVSPost2010Prop41ColorRGB
 90
        0
102
RTVSPost2010PropOp41
 70
     1
102
RTVSPost2010Prop42
 90
       50
102
RTVSPost2010PropOp42
 70
     1
102
RTVSPost2010Prop43
 90
        3
102
RTVSPost2010PropOp43
 70
     1
102
RTVSPost2010Prop44ColorIndex
 90
        5
102
RTVSPost2010Prop44ColorRGB
 90
      255
102
RTVSPost2010PropOp44
 70
     1
102
RTVSPost2010Prop45
280
     0
102
RTVSPost2010PropOp45
 70
     1
102
RTVSPost2010Prop46
 90
       50
102
RTVSPost2010PropOp46
 70
     1
102
RTVSPost2010Prop47
 90
       50
102
RTVSPost2010PropOp47
 70
     1
102
RTVSPost2010Prop48
 90
       50
102
RTVSPost2010PropOp48
 70
     1
102
RTVSPost2010Prop49
280
     0
102
RTVSPost2010PropOp49
 70
     1
102
RTVSPost2010Prop50
 90
       50
102
RTVSPost2010PropOp50
 70
     1
102
RTVSPost2010Prop51ColorIndex
 90
      256
102
RTVSPost2010Prop51ColorRGB
 90
-16777216
102
RTVSPost2010PropOp51
 70
     0
102
RTVSPost2010Prop52
140
1.0
102
RTVSPost2010PropOp52
 70
     0
102
RTVSPost2010Prop53
 90
        2
102
RTVSPost2010PropOp53
 70
     1
102
RTVSPost2010Prop54
  1
strokes_ogs.tif
102
RTVSPost2010PropOp54
 70
     1
102
RTVSPost2010Prop55
280
     0
102
RTVSPost2010PropOp55
 70
     1
102
RTVSPost2010Prop56
140
1.0
102
RTVSPost2010PropOp56
 70
     1
102
RTVSPost2010Prop57
140
1.0
102
RTVSPost2010PropOp57
 70
     1
102
RTVSPropertyOp0
 70
     1
102
RTVSPropertyOp1
 70
     1
102
RTVSPropertyOp2
 70
     1
102
RTVSPropertyOp3
 70
     1
102
RTVSPropertyOp4
 70
     1
102
RTVSPropertyOp5
 70
     1
102
RTVSPropertyOp6
 70
     1
102
RTVSPropertyOp7
 70
     1
102
RTVSPropertyOp8
 70
     1
102
RTVSPropertyOp9
 70
     1
102
RTVSPropertyOp10
 70
     1
102
RTVSPropertyOp11
 70
     1
102
RTVSPropertyOp12
 70
     1
102
RTVSPropertyOp13
 70
     1
102
RTVSPropertyOp14
 70
     1
102
RTVSPropertyOp15
 70
     1
102
RTVSPropertyOp16
 70
     1
102
RTVSPropertyOp17
 70
     1
102
RTVSPropertyOp18
 70
     1
102
RTVSPropertyOp19
 70
     1
102
RTVSPropertyOp20
 70
     1
102
RTVSPropertyOp21
 70
     1
102
RTVSPropertyOp22
 70
     1
102
RTVSPropertyOp23
 70
     1
102
RTVSPropertyOp24
 70
     1
102
RTVSPropertyOp25
 70
     1
102
RTVSPropertyOp26
 70
     1
102
RTVSPropertyOp27
 70
     1
102
RTVSPropertyOp28
 70
     1
102
RTVSPropertyOp29
 70
     1
102
RTVSPropertyOp30
 70
     1
102
RTVSPropertyOp31
 70
     1
102
RTVSPropertyOp32
 70
     1
102
RTVSPropertyOp33
 70
     1
102
RTVSPropertyOp34
 70
     1
102
RTVSPropertyOp35
 70
     1
102
RTVSPropertyOp36
 70
     1
102
RTVSPropertyOp37
 70
     1
102
RTVSPropertyOp38
 70
     1
102
RTVSPropertyOp39
 70
     1
102
RTVSPropertyOp40
 70
     1
102
RTVSPropertyOp41
 70
     1
102
RTVSPropertyOp42
 70
     1
102
RTVSPropertyOp43
 70
     1
102
RTVSPropertyOp44
 70
     1
102
RTVSPropertyOp45
 70
     1
102
RTVSPropertyOp46
 70
     1
102
RTVSPropertyOp47
 70
     1
102
RTVSPropertyOp48
 70
     1
102
RTVSPropertyOp49
 70
     1
102
RTVSPropertyOp50
 70
     1
102
RTVSPropertyOp51
 70
     0
102
RTVSPropertyOp52
 70
     0
102
RTVSPropertyOp53
 70
     1
102
RTVSPropertyOp54
 70
     1
102
RTVSPropertyOp55
 70
     1
102
RTVSPropertyOp56
 70
     1
102
RTVSPropertyOp57
 70
     1
102
RTVSPropertyOp58
 70
     1
102
RTVSPropertyOp59
 70
     1
102
RTVSPropertyOp60
 70
     1
102
RTVSPropertyOp61
 70
     1
102
RTVSPropertyOp62
 70
     1
  0
XRECORD
  5
12005
102
{ACAD_REACTORS
330
12004
102
}
330
12004
100
AcDbXrecord
280
     1
102
RTVSPost2010Prop28
280
     0
102
RTVSPost2010PropOp28
 70
     1
102
RTVSPost2010Prop29
280
     1
102
RTVSPost2010PropOp29
 70
     1
102
RTVSPost2010Prop30
280
     1
102
RTVSPost2010PropOp30
 70
     1
102
RTVSPost2010Prop31
280
     0
102
RTVSPost2010PropOp31
 70
     1
102
RTVSPost2010Prop32
280
     0
102
RTVSPost2010PropOp32
 70
     1
102
RTVSPost2010Prop33
280
     0
102
RTVSPost2010PropOp33
 70
     1
102
RTVSPost2010Prop34
280
     0
102
RTVSPost2010PropOp34
 70
     1
102
RTVSPost2010Prop35
280
     0
102
RTVSPost2010PropOp35
 70
     1
102
RTVSPost2010Prop36
280
     0
102
RTVSPost2010PropOp36
 70
     1
102
RTVSPost2010Prop37
 90
       50
102
RTVSPost2010PropOp37
 70
     1
102
RTVSPost2010Prop38
140
0.0
102
RTVSPost2010PropOp38
 70
     1
102
RTVSPost2010Prop39
140
1.0
102
RTVSPost2010PropOp39
 70
     1
102
RTVSPost2010Prop40
 90
        0
102
RTVSPost2010PropOp40
 70
     1
102
RTVSPost2010Prop41ColorIndex
 90
       18
102
RTVSPost2010Prop41ColorRGB
 90
        0
102
RTVSPost2010PropOp41
 70
     1
102
RTVSPost2010Prop42
 90
       50
102
RTVSPost2010PropOp42
 70
     1
102
RTVSPost2010Prop43
 90
        3
102
RTVSPost2010PropOp43
 70
     1
102
RTVSPost2010Prop44ColorIndex
 90
        5
102
RTVSPost2010Prop44ColorRGB
 90
      255
102
RTVSPost2010PropOp44
 70
     1
102
RTVSPost2010Prop45
280
     0
102
RTVSPost2010PropOp45
 70
     1
102
RTVSPost2010Prop46
 90
       50
102
RTVSPost2010PropOp46
 70
     1
102
RTVSPost2010Prop47
 90
       50
102
RTVSPost2010PropOp47
 70
     1
102
RTVSPost2010Prop48
 90
       50
102
RTVSPost2010PropOp48
 70
     1
102
RTVSPost2010Prop49
280
     0
102
RTVSPost2010PropOp49
 70
     1
102
RTVSPost2010Prop50
 90
       50
102
RTVSPost2010PropOp50
 70
     1
102
RTVSPost2010Prop51ColorIndex
 90
      256
102
RTVSPost2010Prop51ColorRGB
 90
-16777216
102
RTVSPost2010PropOp51
 70
     0
102
RTVSPost2010Prop52
140
1.0
102
RTVSPost2010PropOp52
 70
     0
102
RTVSPost2010Prop53
 90
        2
102
RTVSPost2010PropOp53
 70
     1
102
RTVSPost2010Prop54
  1
strokes_ogs.tif
102
RTVSPost2010PropOp54
 70
     1
102
RTVSPost2010Prop55
280
     0
102
RTVSPost2010PropOp55
 70
     1
102
RTVSPost2010Prop56
140
1.0
102
RTVSPost2010PropOp56
 70
     1
102
RTVSPost2010Prop57
140
1.0
102
RTVSPost2010PropOp57
 70
     1
102
RTVSPropertyOp0
 70
     1
102
RTVSPropertyOp1
 70
     1
102
RTVSPropertyOp2
 70
     1
102
RTVSPropertyOp3
 70
     1
102
RTVSPropertyOp4
 70
     1
102
RTVSPropertyOp5
 70
     1
102
RTVSPropertyOp6
 70
     1
102
RTVSPropertyOp7
 70
     1
102
RTVSPropertyOp8
 70
     1
102
RTVSPropertyOp9
 70
     1
102
RTVSPropertyOp10
 70
     1
102
RTVSPropertyOp11
 70
     1
102
RTVSPropertyOp12
 70
     1
102
RTVSPropertyOp13
 70
     1
102
RTVSPropertyOp14
 70
     1
102
RTVSPropertyOp15
 70
     1
102
RTVSPropertyOp16
 70
     1
102
RTVSPropertyOp17
 70
     1
102
RTVSPropertyOp18
 70
     1
102
RTVSPropertyOp19
 70
     1
102
RTVSPropertyOp20
 70
     1
102
RTVSPropertyOp21
 70
     1
102
RTVSPropertyOp22
 70
     1
102
RTVSPropertyOp23
 70
     1
102
RTVSPropertyOp24
 70
     1
102
RTVSPropertyOp25
 70
     1
102
RTVSPropertyOp26
 70
     1
102
RTVSPropertyOp27
 70
     1
102
RTVSPropertyOp28
 70
     1
102
RTVSPropertyOp29
 70
     1
102
RTVSPropertyOp30
 70
     1
102
RTVSPropertyOp31
 70
     1
102
RTVSPropertyOp32
 70
     1
102
RTVSPropertyOp33
 70
     1
102
RTVSPropertyOp34
 70
     1
102
RTVSPropertyOp35
 70
     1
102
RTVSPropertyOp36
 70
     1
102
RTVSPropertyOp37
 70
     1
102
RTVSPropertyOp38
 70
     1
102
RTVSPropertyOp39
 70
     1
102
RTVSPropertyOp40
 70
     1
102
RTVSPropertyOp41
 70
     1
102
RTVSPropertyOp42
 70
     1
102
RTVSPropertyOp43
 70
     1
102
RTVSPropertyOp44
 70
     1
102
RTVSPropertyOp45
 70
     1
102
RTVSPropertyOp46
 70
     1
102
RTVSPropertyOp47
 70
     1
102
RTVSPropertyOp48
 70
     1
102
RTVSPropertyOp49
 70
     1
102
RTVSPropertyOp50
 70
     1
102
RTVSPropertyOp51
 70
     0
102
RTVSPropertyOp52
 70
     0
102
RTVSPropertyOp53
 70
     1
102
RTVSPropertyOp54
 70
     1
102
RTVSPropertyOp55
 70
     1
102
RTVSPropertyOp56
 70
     1
102
RTVSPropertyOp57
 70
     1
102
RTVSPropertyOp58
 70
     1
102
RTVSPropertyOp59
 70
     1
102
RTVSPropertyOp60
 70
     1
102
RTVSPropertyOp61
 70
     1
102
RTVSPropertyOp62
 70
     1
  0
XRECORD
  5
12013
102
{ACAD_REACTORS
330
12012
102
}
330
12012
100
AcDbXrecord
280
     1
102
RTVSPost2010Prop28
280
     0
102
RTVSPost2010PropOp28
 70
     1
102
RTVSPost2010Prop29
280
     1
102
RTVSPost2010PropOp29
 70
     1
102
RTVSPost2010Prop30
280
     1
102
RTVSPost2010PropOp30
 70
     1
102
RTVSPost2010Prop31
280
     0
102
RTVSPost2010PropOp31
 70
     1
102
RTVSPost2010Prop32
280
     0
102
RTVSPost2010PropOp32
 70
     1
102
RTVSPost2010Prop33
280
     0
102
RTVSPost2010PropOp33
 70
     1
102
RTVSPost2010Prop34
280
     0
102
RTVSPost2010PropOp34
 70
     1
102
RTVSPost2010Prop35
280
     0
102
RTVSPost2010PropOp35
 70
     1
102
RTVSPost2010Prop36
280
     0
102
RTVSPost2010PropOp36
 70
     1
102
RTVSPost2010Prop37
 90
       50
102
RTVSPost2010PropOp37
 70
     1
102
RTVSPost2010Prop38
140
0.0
102
RTVSPost2010PropOp38
 70
     1
102
RTVSPost2010Prop39
140
1.0
102
RTVSPost2010PropOp39
 70
     1
102
RTVSPost2010Prop40
 90
        0
102
RTVSPost2010PropOp40
 70
     1
102
RTVSPost2010Prop41ColorIndex
 90
       18
102
RTVSPost2010Prop41ColorRGB
 90
        0
102
RTVSPost2010PropOp41
 70
     1
102
RTVSPost2010Prop42
 90
       50
102
RTVSPost2010PropOp42
 70
     1
102
RTVSPost2010Prop43
 90
        3
102
RTVSPost2010PropOp43
 70
     1
102
RTVSPost2010Prop44ColorIndex
 90
        5
102
RTVSPost2010Prop44ColorRGB
 90
      255
102
RTVSPost2010PropOp44
 70
     1
102
RTVSPost2010Prop45
280
     0
102
RTVSPost2010PropOp45
 70
     1
102
RTVSPost2010Prop46
 90
       50
102
RTVSPost2010PropOp46
 70
     1
102
RTVSPost2010Prop47
 90
       50
102
RTVSPost2010PropOp47
 70
     1
102
RTVSPost2010Prop48
 90
       50
102
RTVSPost2010PropOp48
 70
     1
102
RTVSPost2010Prop49
280
     0
102
RTVSPost2010PropOp49
 70
     1
102
RTVSPost2010Prop50
 90
       50
102
RTVSPost2010PropOp50
 70
     1
102
RTVSPost2010Prop51ColorIndex
 90
      256
102
RTVSPost2010Prop51ColorRGB
 90
-16777216
102
RTVSPost2010PropOp51
 70
     0
102
RTVSPost2010Prop52
140
1.0
102
RTVSPost2010PropOp52
 70
     0
102
RTVSPost2010Prop53
 90
        2
102
RTVSPost2010PropOp53
 70
     1
102
RTVSPost2010Prop54
  1
strokes_ogs.tif
102
RTVSPost2010PropOp54
 70
     1
102
RTVSPost2010Prop55
280
     0
102
RTVSPost2010PropOp55
 70
     1
102
RTVSPost2010Prop56
140
1.0
102
RTVSPost2010PropOp56
 70
     1
102
RTVSPost2010Prop57
140
1.0
102
RTVSPost2010PropOp57
 70
     1
102
RTVSPropertyOp0
 70
     1
102
RTVSPropertyOp1
 70
     1
102
RTVSPropertyOp2
 70
     1
102
RTVSPropertyOp3
 70
     1
102
RTVSPropertyOp4
 70
     1
102
RTVSPropertyOp5
 70
     1
102
RTVSPropertyOp6
 70
     1
102
RTVSPropertyOp7
 70
     1
102
RTVSPropertyOp8
 70
     1
102
RTVSPropertyOp9
 70
     1
102
RTVSPropertyOp10
 70
     1
102
RTVSPropertyOp11
 70
     1
102
RTVSPropertyOp12
 70
     1
102
RTVSPropertyOp13
 70
     1
102
RTVSPropertyOp14
 70
     1
102
RTVSPropertyOp15
 70
     1
102
RTVSPropertyOp16
 70
     1
102
RTVSPropertyOp17
 70
     1
102
RTVSPropertyOp18
 70
     1
102
RTVSPropertyOp19
 70
     1
102
RTVSPropertyOp20
 70
     1
102
RTVSPropertyOp21
 70
     1
102
RTVSPropertyOp22
 70
     1
102
RTVSPropertyOp23
 70
     1
102
RTVSPropertyOp24
 70
     1
102
RTVSPropertyOp25
 70
     1
102
RTVSPropertyOp26
 70
     1
102
RTVSPropertyOp27
 70
     1
102
RTVSPropertyOp28
 70
     1
102
RTVSPropertyOp29
 70
     1
102
RTVSPropertyOp30
 70
     1
102
RTVSPropertyOp31
 70
     1
102
RTVSPropertyOp32
 70
     1
102
RTVSPropertyOp33
 70
     1
102
RTVSPropertyOp34
 70
     1
102
RTVSPropertyOp35
 70
     1
102
RTVSPropertyOp36
 70
     1
102
RTVSPropertyOp37
 70
     1
102
RTVSPropertyOp38
 70
     1
102
RTVSPropertyOp39
 70
     1
102
RTVSPropertyOp40
 70
     1
102
RTVSPropertyOp41
 70
     1
102
RTVSPropertyOp42
 70
     1
102
RTVSPropertyOp43
 70
     1
102
RTVSPropertyOp44
 70
     1
102
RTVSPropertyOp45
 70
     1
102
RTVSPropertyOp46
 70
     1
102
RTVSPropertyOp47
 70
     1
102
RTVSPropertyOp48
 70
     1
102
RTVSPropertyOp49
 70
     1
102
RTVSPropertyOp50
 70
     1
102
RTVSPropertyOp51
 70
     0
102
RTVSPropertyOp52
 70
     0
102
RTVSPropertyOp53
 70
     1
102
RTVSPropertyOp54
 70
     1
102
RTVSPropertyOp55
 70
     1
102
RTVSPropertyOp56
 70
     1
102
RTVSPropertyOp57
 70
     1
102
RTVSPropertyOp58
 70
     1
102
RTVSPropertyOp59
 70
     1
102
RTVSPropertyOp60
 70
     1
102
RTVSPropertyOp61
 70
     1
102
RTVSPropertyOp62
 70
     1
  0
XRECORD
  5
1201B
102
{ACAD_REACTORS
330
1201A
102
}
330
1201A
100
AcDbXrecord
280
     1
102
RTVSPost2010Prop28
280
     0
102
RTVSPost2010PropOp28
 70
     1
102
RTVSPost2010Prop29
280
     1
102
RTVSPost2010PropOp29
 70
     1
102
RTVSPost2010Prop30
280
     1
102
RTVSPost2010PropOp30
 70
     1
102
RTVSPost2010Prop31
280
     0
102
RTVSPost2010PropOp31
 70
     1
102
RTVSPost2010Prop32
280
     0
102
RTVSPost2010PropOp32
 70
     1
102
RTVSPost2010Prop33
280
     0
102
RTVSPost2010PropOp33
 70
     1
102
RTVSPost2010Prop34
280
     0
102
RTVSPost2010PropOp34
 70
     1
102
RTVSPost2010Prop35
280
     0
102
RTVSPost2010PropOp35
 70
     1
102
RTVSPost2010Prop36
280
     0
102
RTVSPost2010PropOp36
 70
     1
102
RTVSPost2010Prop37
 90
       50
102
RTVSPost2010PropOp37
 70
     1
102
RTVSPost2010Prop38
140
0.0
102
RTVSPost2010PropOp38
 70
     1
102
RTVSPost2010Prop39
140
1.0
102
RTVSPost2010PropOp39
 70
     1
102
RTVSPost2010Prop40
 90
        0
102
RTVSPost2010PropOp40
 70
     1
102
RTVSPost2010Prop41ColorIndex
 90
       18
102
RTVSPost2010Prop41ColorRGB
 90
        0
102
RTVSPost2010PropOp41
 70
     1
102
RTVSPost2010Prop42
 90
       50
102
RTVSPost2010PropOp42
 70
     1
102
RTVSPost2010Prop43
 90
        3
102
RTVSPost2010PropOp43
 70
     1
102
RTVSPost2010Prop44ColorIndex
 90
        5
102
RTVSPost2010Prop44ColorRGB
 90
      255
102
RTVSPost2010PropOp44
 70
     1
102
RTVSPost2010Prop45
280
     0
102
RTVSPost2010PropOp45
 70
     1
102
RTVSPost2010Prop46
 90
       50
102
RTVSPost2010PropOp46
 70
     1
102
RTVSPost2010Prop47
 90
       50
102
RTVSPost2010PropOp47
 70
     1
102
RTVSPost2010Prop48
 90
       50
102
RTVSPost2010PropOp48
 70
     1
102
RTVSPost2010Prop49
280
     0
102
RTVSPost2010PropOp49
 70
     1
102
RTVSPost2010Prop50
 90
       50
102
RTVSPost2010PropOp50
 70
     1
102
RTVSPost2010Prop51ColorIndex
 90
      256
102
RTVSPost2010Prop51ColorRGB
 90
-16777216
102
RTVSPost2010PropOp51
 70
     0
102
RTVSPost2010Prop52
140
1.0
102
RTVSPost2010PropOp52
 70
     0
102
RTVSPost2010Prop53
 90
        2
102
RTVSPost2010PropOp53
 70
     1
102
RTVSPost2010Prop54
  1
strokes_ogs.tif
102
RTVSPost2010PropOp54
 70
     1
102
RTVSPost2010Prop55
280
     0
102
RTVSPost2010PropOp55
 70
     1
102
RTVSPost2010Prop56
140
1.0
102
RTVSPost2010PropOp56
 70
     1
102
RTVSPost2010Prop57
140
1.0
102
RTVSPost2010PropOp57
 70
     1
102
RTVSPropertyOp0
 70
     1
102
RTVSPropertyOp1
 70
     1
102
RTVSPropertyOp2
 70
     1
102
RTVSPropertyOp3
 70
     1
102
RTVSPropertyOp4
 70
     1
102
RTVSPropertyOp5
 70
     1
102
RTVSPropertyOp6
 70
     1
102
RTVSPropertyOp7
 70
     1
102
RTVSPropertyOp8
 70
     1
102
RTVSPropertyOp9
 70
     1
102
RTVSPropertyOp10
 70
     1
102
RTVSPropertyOp11
 70
     1
102
RTVSPropertyOp12
 70
     1
102
RTVSPropertyOp13
 70
     1
102
RTVSPropertyOp14
 70
     1
102
RTVSPropertyOp15
 70
     1
102
RTVSPropertyOp16
 70
     1
102
RTVSPropertyOp17
 70
     1
102
RTVSPropertyOp18
 70
     1
102
RTVSPropertyOp19
 70
     1
102
RTVSPropertyOp20
 70
     1
102
RTVSPropertyOp21
 70
     1
102
RTVSPropertyOp22
 70
     1
102
RTVSPropertyOp23
 70
     1
102
RTVSPropertyOp24
 70
     1
102
RTVSPropertyOp25
 70
     1
102
RTVSPropertyOp26
 70
     1
102
RTVSPropertyOp27
 70
     1
102
RTVSPropertyOp28
 70
     1
102
RTVSPropertyOp29
 70
     1
102
RTVSPropertyOp30
 70
     1
102
RTVSPropertyOp31
 70
     1
102
RTVSPropertyOp32
 70
     1
102
RTVSPropertyOp33
 70
     1
102
RTVSPropertyOp34
 70
     1
102
RTVSPropertyOp35
 70
     1
102
RTVSPropertyOp36
 70
     1
102
RTVSPropertyOp37
 70
     1
102
RTVSPropertyOp38
 70
     1
102
RTVSPropertyOp39
 70
     1
102
RTVSPropertyOp40
 70
     1
102
RTVSPropertyOp41
 70
     1
102
RTVSPropertyOp42
 70
     1
102
RTVSPropertyOp43
 70
     1
102
RTVSPropertyOp44
 70
     1
102
RTVSPropertyOp45
 70
     1
102
RTVSPropertyOp46
 70
     1
102
RTVSPropertyOp47
 70
     1
102
RTVSPropertyOp48
 70
     1
102
RTVSPropertyOp49
 70
     1
102
RTVSPropertyOp50
 70
     1
102
RTVSPropertyOp51
 70
     0
102
RTVSPropertyOp52
 70
     0
102
RTVSPropertyOp53
 70
     1
102
RTVSPropertyOp54
 70
     1
102
RTVSPropertyOp55
 70
     1
102
RTVSPropertyOp56
 70
     1
102
RTVSPropertyOp57
 70
     1
102
RTVSPropertyOp58
 70
     1
102
RTVSPropertyOp59
 70
     1
102
RTVSPropertyOp60
 70
     1
102
RTVSPropertyOp61
 70
     1
102
RTVSPropertyOp62
 70
     1
  0
XRECORD
  5
1200D
102
{ACAD_REACTORS
330
1200C
102
}
330
1200C
100
AcDbXrecord
280
     1
102
RTVSPost2010Prop28
280
     0
102
RTVSPost2010PropOp28
 70
     1
102
RTVSPost2010Prop29
280
     1
102
RTVSPost2010PropOp29
 70
     1
102
RTVSPost2010Prop30
280
     1
102
RTVSPost2010PropOp30
 70
     1
102
RTVSPost2010Prop31
280
     0
102
RTVSPost2010PropOp31
 70
     1
102
RTVSPost2010Prop32
280
     0
102
RTVSPost2010PropOp32
 70
     1
102
RTVSPost2010Prop33
280
     0
102
RTVSPost2010PropOp33
 70
     1
102
RTVSPost2010Prop34
280
     0
102
RTVSPost2010PropOp34
 70
     1
102
RTVSPost2010Prop35
280
     0
102
RTVSPost2010PropOp35
 70
     1
102
RTVSPost2010Prop36
280
     0
102
RTVSPost2010PropOp36
 70
     1
102
RTVSPost2010Prop37
 90
       50
102
RTVSPost2010PropOp37
 70
     1
102
RTVSPost2010Prop38
140
0.0
102
RTVSPost2010PropOp38
 70
     1
102
RTVSPost2010Prop39
140
1.0
102
RTVSPost2010PropOp39
 70
     1
102
RTVSPost2010Prop40
 90
        0
102
RTVSPost2010PropOp40
 70
     1
102
RTVSPost2010Prop41ColorIndex
 90
       18
102
RTVSPost2010Prop41ColorRGB
 90
        0
102
RTVSPost2010PropOp41
 70
     1
102
RTVSPost2010Prop42
 90
       50
102
RTVSPost2010PropOp42
 70
     1
102
RTVSPost2010Prop43
 90
        3
102
RTVSPost2010PropOp43
 70
     1
102
RTVSPost2010Prop44ColorIndex
 90
        5
102
RTVSPost2010Prop44ColorRGB
 90
      255
102
RTVSPost2010PropOp44
 70
     1
102
RTVSPost2010Prop45
280
     0
102
RTVSPost2010PropOp45
 70
     1
102
RTVSPost2010Prop46
 90
       50
102
RTVSPost2010PropOp46
 70
     1
102
RTVSPost2010Prop47
 90
       50
102
RTVSPost2010PropOp47
 70
     1
102
RTVSPost2010Prop48
 90
       50
102
RTVSPost2010PropOp48
 70
     1
102
RTVSPost2010Prop49
280
     0
102
RTVSPost2010PropOp49
 70
     1
102
RTVSPost2010Prop50
 90
       50
102
RTVSPost2010PropOp50
 70
     1
102
RTVSPost2010Prop51ColorIndex
 90
      256
102
RTVSPost2010Prop51ColorRGB
 90
-16777216
102
RTVSPost2010PropOp51
 70
     0
102
RTVSPost2010Prop52
140
1.0
102
RTVSPost2010PropOp52
 70
     0
102
RTVSPost2010Prop53
 90
        2
102
RTVSPost2010PropOp53
 70
     1
102
RTVSPost2010Prop54
  1
strokes_ogs.tif
102
RTVSPost2010PropOp54
 70
     1
102
RTVSPost2010Prop55
280
     0
102
RTVSPost2010PropOp55
 70
     1
102
RTVSPost2010Prop56
140
1.0
102
RTVSPost2010PropOp56
 70
     1
102
RTVSPost2010Prop57
140
1.0
102
RTVSPost2010PropOp57
 70
     1
102
RTVSPropertyOp0
 70
     1
102
RTVSPropertyOp1
 70
     1
102
RTVSPropertyOp2
 70
     1
102
RTVSPropertyOp3
 70
     1
102
RTVSPropertyOp4
 70
     1
102
RTVSPropertyOp5
 70
     1
102
RTVSPropertyOp6
 70
     1
102
RTVSPropertyOp7
 70
     1
102
RTVSPropertyOp8
 70
     1
102
RTVSPropertyOp9
 70
     1
102
RTVSPropertyOp10
 70
     1
102
RTVSPropertyOp11
 70
     1
102
RTVSPropertyOp12
 70
     1
102
RTVSPropertyOp13
 70
     1
102
RTVSPropertyOp14
 70
     1
102
RTVSPropertyOp15
 70
     1
102
RTVSPropertyOp16
 70
     1
102
RTVSPropertyOp17
 70
     1
102
RTVSPropertyOp18
 70
     1
102
RTVSPropertyOp19
 70
     1
102
RTVSPropertyOp20
 70
     1
102
RTVSPropertyOp21
 70
     1
102
RTVSPropertyOp22
 70
     1
102
RTVSPropertyOp23
 70
     1
102
RTVSPropertyOp24
 70
     1
102
RTVSPropertyOp25
 70
     1
102
RTVSPropertyOp26
 70
     1
102
RTVSPropertyOp27
 70
     1
102
RTVSPropertyOp28
 70
     1
102
RTVSPropertyOp29
 70
     1
102
RTVSPropertyOp30
 70
     1
102
RTVSPropertyOp31
 70
     1
102
RTVSPropertyOp32
 70
     1
102
RTVSPropertyOp33
 70
     1
102
RTVSPropertyOp34
 70
     1
102
RTVSPropertyOp35
 70
     1
102
RTVSPropertyOp36
 70
     1
102
RTVSPropertyOp37
 70
     1
102
RTVSPropertyOp38
 70
     1
102
RTVSPropertyOp39
 70
     1
102
RTVSPropertyOp40
 70
     1
102
RTVSPropertyOp41
 70
     1
102
RTVSPropertyOp42
 70
     1
102
RTVSPropertyOp43
 70
     1
102
RTVSPropertyOp44
 70
     1
102
RTVSPropertyOp45
 70
     1
102
RTVSPropertyOp46
 70
     1
102
RTVSPropertyOp47
 70
     1
102
RTVSPropertyOp48
 70
     1
102
RTVSPropertyOp49
 70
     1
102
RTVSPropertyOp50
 70
     1
102
RTVSPropertyOp51
 70
     0
102
RTVSPropertyOp52
 70
     0
102
RTVSPropertyOp53
 70
     1
102
RTVSPropertyOp54
 70
     1
102
RTVSPropertyOp55
 70
     1
102
RTVSPropertyOp56
 70
     1
102
RTVSPropertyOp57
 70
     1
102
RTVSPropertyOp58
 70
     1
102
RTVSPropertyOp59
 70
     1
102
RTVSPropertyOp60
 70
     1
102
RTVSPropertyOp61
 70
     1
102
RTVSPropertyOp62
 70
     1
  0
XRECORD
  5
12011
102
{ACAD_REACTORS
330
12010
102
}
330
12010
100
AcDbXrecord
280
     1
102
RTVSPost2010Prop28
280
     0
102
RTVSPost2010PropOp28
 70
     1
102
RTVSPost2010Prop29
280
     1
102
RTVSPost2010PropOp29
 70
     1
102
RTVSPost2010Prop30
280
     1
102
RTVSPost2010PropOp30
 70
     1
102
RTVSPost2010Prop31
280
     0
102
RTVSPost2010PropOp31
 70
     1
102
RTVSPost2010Prop32
280
     0
102
RTVSPost2010PropOp32
 70
     1
102
RTVSPost2010Prop33
280
     0
102
RTVSPost2010PropOp33
 70
     1
102
RTVSPost2010Prop34
280
     0
102
RTVSPost2010PropOp34
 70
     1
102
RTVSPost2010Prop35
280
     0
102
RTVSPost2010PropOp35
 70
     1
102
RTVSPost2010Prop36
280
     0
102
RTVSPost2010PropOp36
 70
     1
102
RTVSPost2010Prop37
 90
       50
102
RTVSPost2010PropOp37
 70
     1
102
RTVSPost2010Prop38
140
0.0
102
RTVSPost2010PropOp38
 70
     1
102
RTVSPost2010Prop39
140
1.0
102
RTVSPost2010PropOp39
 70
     1
102
RTVSPost2010Prop40
 90
        0
102
RTVSPost2010PropOp40
 70
     1
102
RTVSPost2010Prop41ColorIndex
 90
       18
102
RTVSPost2010Prop41ColorRGB
 90
        0
102
RTVSPost2010PropOp41
 70
     1
102
RTVSPost2010Prop42
 90
       50
102
RTVSPost2010PropOp42
 70
     1
102
RTVSPost2010Prop43
 90
        3
102
RTVSPost2010PropOp43
 70
     1
102
RTVSPost2010Prop44ColorIndex
 90
        5
102
RTVSPost2010Prop44ColorRGB
 90
      255
102
RTVSPost2010PropOp44
 70
     1
102
RTVSPost2010Prop45
280
     0
102
RTVSPost2010PropOp45
 70
     1
102
RTVSPost2010Prop46
 90
       50
102
RTVSPost2010PropOp46
 70
     1
102
RTVSPost2010Prop47
 90
       50
102
RTVSPost2010PropOp47
 70
     1
102
RTVSPost2010Prop48
 90
       50
102
RTVSPost2010PropOp48
 70
     1
102
RTVSPost2010Prop49
280
     0
102
RTVSPost2010PropOp49
 70
     1
102
RTVSPost2010Prop50
 90
       50
102
RTVSPost2010PropOp50
 70
     1
102
RTVSPost2010Prop51ColorIndex
 90
      256
102
RTVSPost2010Prop51ColorRGB
 90
-16777216
102
RTVSPost2010PropOp51
 70
     0
102
RTVSPost2010Prop52
140
1.0
102
RTVSPost2010PropOp52
 70
     0
102
RTVSPost2010Prop53
 90
        2
102
RTVSPost2010PropOp53
 70
     1
102
RTVSPost2010Prop54
  1
strokes_ogs.tif
102
RTVSPost2010PropOp54
 70
     1
102
RTVSPost2010Prop55
280
     0
102
RTVSPost2010PropOp55
 70
     1
102
RTVSPost2010Prop56
140
1.0
102
RTVSPost2010PropOp56
 70
     1
102
RTVSPost2010Prop57
140
1.0
102
RTVSPost2010PropOp57
 70
     1
102
RTVSPropertyOp0
 70
     1
102
RTVSPropertyOp1
 70
     1
102
RTVSPropertyOp2
 70
     1
102
RTVSPropertyOp3
 70
     1
102
RTVSPropertyOp4
 70
     1
102
RTVSPropertyOp5
 70
     1
102
RTVSPropertyOp6
 70
     1
102
RTVSPropertyOp7
 70
     1
102
RTVSPropertyOp8
 70
     1
102
RTVSPropertyOp9
 70
     1
102
RTVSPropertyOp10
 70
     1
102
RTVSPropertyOp11
 70
     1
102
RTVSPropertyOp12
 70
     1
102
RTVSPropertyOp13
 70
     1
102
RTVSPropertyOp14
 70
     1
102
RTVSPropertyOp15
 70
     1
102
RTVSPropertyOp16
 70
     1
102
RTVSPropertyOp17
 70
     1
102
RTVSPropertyOp18
 70
     1
102
RTVSPropertyOp19
 70
     1
102
RTVSPropertyOp20
 70
     1
102
RTVSPropertyOp21
 70
     1
102
RTVSPropertyOp22
 70
     1
102
RTVSPropertyOp23
 70
     1
102
RTVSPropertyOp24
 70
     1
102
RTVSPropertyOp25
 70
     1
102
RTVSPropertyOp26
 70
     1
102
RTVSPropertyOp27
 70
     1
102
RTVSPropertyOp28
 70
     1
102
RTVSPropertyOp29
 70
     1
102
RTVSPropertyOp30
 70
     1
102
RTVSPropertyOp31
 70
     1
102
RTVSPropertyOp32
 70
     1
102
RTVSPropertyOp33
 70
     1
102
RTVSPropertyOp34
 70
     1
102
RTVSPropertyOp35
 70
     1
102
RTVSPropertyOp36
 70
     1
102
RTVSPropertyOp37
 70
     1
102
RTVSPropertyOp38
 70
     1
102
RTVSPropertyOp39
 70
     1
102
RTVSPropertyOp40
 70
     1
102
RTVSPropertyOp41
 70
     1
102
RTVSPropertyOp42
 70
     1
102
RTVSPropertyOp43
 70
     1
102
RTVSPropertyOp44
 70
     1
102
RTVSPropertyOp45
 70
     1
102
RTVSPropertyOp46
 70
     1
102
RTVSPropertyOp47
 70
     1
102
RTVSPropertyOp48
 70
     1
102
RTVSPropertyOp49
 70
     1
102
RTVSPropertyOp50
 70
     1
102
RTVSPropertyOp51
 70
     0
102
RTVSPropertyOp52
 70
     0
102
RTVSPropertyOp53
 70
     1
102
RTVSPropertyOp54
 70
     1
102
RTVSPropertyOp55
 70
     1
102
RTVSPropertyOp56
 70
     1
102
RTVSPropertyOp57
 70
     1
102
RTVSPropertyOp58
 70
     1
102
RTVSPropertyOp59
 70
     1
102
RTVSPropertyOp60
 70
     1
102
RTVSPropertyOp61
 70
     1
102
RTVSPropertyOp62
 70
     1
  0
XRECORD
  5
12023
102
{ACAD_REACTORS
330
12022
102
}
330
12022
100
AcDbXrecord
280
     1
102
RTVSPost2010Prop28
280
     0
102
RTVSPost2010PropOp28
 70
     1
102
RTVSPost2010Prop29
280
     1
102
RTVSPost2010PropOp29
 70
     1
102
RTVSPost2010Prop30
280
     1
102
RTVSPost2010PropOp30
 70
     1
102
RTVSPost2010Prop31
280
     0
102
RTVSPost2010PropOp31
 70
     1
102
RTVSPost2010Prop32
280
     0
102
RTVSPost2010PropOp32
 70
     1
102
RTVSPost2010Prop33
280
     0
102
RTVSPost2010PropOp33
 70
     1
102
RTVSPost2010Prop34
280
     0
102
RTVSPost2010PropOp34
 70
     1
102
RTVSPost2010Prop35
280
     0
102
RTVSPost2010PropOp35
 70
     1
102
RTVSPost2010Prop36
280
     0
102
RTVSPost2010PropOp36
 70
     1
102
RTVSPost2010Prop37
 90
       50
102
RTVSPost2010PropOp37
 70
     1
102
RTVSPost2010Prop38
140
0.0
102
RTVSPost2010PropOp38
 70
     1
102
RTVSPost2010Prop39
140
1.0
102
RTVSPost2010PropOp39
 70
     1
102
RTVSPost2010Prop40
 90
        0
102
RTVSPost2010PropOp40
 70
     1
102
RTVSPost2010Prop41ColorIndex
 90
       18
102
RTVSPost2010Prop41ColorRGB
 90
        0
102
RTVSPost2010PropOp41
 70
     1
102
RTVSPost2010Prop42
 90
       50
102
RTVSPost2010PropOp42
 70
     1
102
RTVSPost2010Prop43
 90
        3
102
RTVSPost2010PropOp43
 70
     1
102
RTVSPost2010Prop44ColorIndex
 90
        5
102
RTVSPost2010Prop44ColorRGB
 90
      255
102
RTVSPost2010PropOp44
 70
     1
102
RTVSPost2010Prop45
280
     0
102
RTVSPost2010PropOp45
 70
     1
102
RTVSPost2010Prop46
 90
       50
102
RTVSPost2010PropOp46
 70
     1
102
RTVSPost2010Prop47
 90
       50
102
RTVSPost2010PropOp47
 70
     1
102
RTVSPost2010Prop48
 90
       50
102
RTVSPost2010PropOp48
 70
     1
102
RTVSPost2010Prop49
280
     0
102
RTVSPost2010PropOp49
 70
     1
102
RTVSPost2010Prop50
 90
       50
102
RTVSPost2010PropOp50
 70
     1
102
RTVSPost2010Prop51ColorIndex
 90
      256
102
RTVSPost2010Prop51ColorRGB
 90
-16777216
102
RTVSPost2010PropOp51
 70
     0
102
RTVSPost2010Prop52
140
1.0
102
RTVSPost2010PropOp52
 70
     0
102
RTVSPost2010Prop53
 90
        2
102
RTVSPost2010PropOp53
 70
     1
102
RTVSPost2010Prop54
  1
strokes_ogs.tif
102
RTVSPost2010PropOp54
 70
     1
102
RTVSPost2010Prop55
280
     0
102
RTVSPost2010PropOp55
 70
     1
102
RTVSPost2010Prop56
140
1.0
102
RTVSPost2010PropOp56
 70
     1
102
RTVSPost2010Prop57
140
1.0
102
RTVSPost2010PropOp57
 70
     1
102
RTVSPropertyOp0
 70
     0
102
RTVSPropertyOp1
 70
     0
102
RTVSPropertyOp2
 70
     0
102
RTVSPropertyOp3
 70
     0
102
RTVSPropertyOp4
 70
     0
102
RTVSPropertyOp5
 70
     0
102
RTVSPropertyOp6
 70
     0
102
RTVSPropertyOp7
 70
     0
102
RTVSPropertyOp8
 70
     0
102
RTVSPropertyOp9
 70
     0
102
RTVSPropertyOp10
 70
     0
102
RTVSPropertyOp11
 70
     0
102
RTVSPropertyOp12
 70
     0
102
RTVSPropertyOp13
 70
     0
102
RTVSPropertyOp14
 70
     2
102
RTVSPropertyOp15
 70
     0
102
RTVSPropertyOp16
 70
     0
102
RTVSPropertyOp17
 70
     0
102
RTVSPropertyOp18
 70
     0
102
RTVSPropertyOp19
 70
     0
102
RTVSPropertyOp20
 70
     0
102
RTVSPropertyOp21
 70
     0
102
RTVSPropertyOp22
 70
     0
102
RTVSPropertyOp23
 70
     0
102
RTVSPropertyOp24
 70
     0
102
RTVSPropertyOp25
 70
     0
102
RTVSPropertyOp26
 70
     0
102
RTVSPropertyOp27
 70
     0
102
RTVSPropertyOp28
 70
     1
102
RTVSPropertyOp29
 70
     1
102
RTVSPropertyOp30
 70
     1
102
RTVSPropertyOp31
 70
     1
102
RTVSPropertyOp32
 70
     1
102
RTVSPropertyOp33
 70
     1
102
RTVSPropertyOp34
 70
     1
102
RTVSPropertyOp35
 70
     1
102
RTVSPropertyOp36
 70
     1
102
RTVSPropertyOp37
 70
     1
102
RTVSPropertyOp38
 70
     1
102
RTVSPropertyOp39
 70
     1
102
RTVSPropertyOp40
 70
     1
102
RTVSPropertyOp41
 70
     1
102
RTVSPropertyOp42
 70
     1
102
RTVSPropertyOp43
 70
     1
102
RTVSPropertyOp44
 70
     1
102
RTVSPropertyOp45
 70
     1
102
RTVSPropertyOp46
 70
     1
102
RTVSPropertyOp47
 70
     1
102
RTVSPropertyOp48
 70
     1
102
RTVSPropertyOp49
 70
     1
102
RTVSPropertyOp50
 70
     1
102
RTVSPropertyOp51
 70
     0
102
RTVSPropertyOp52
 70
     0
102
RTVSPropertyOp53
 70
     1
102
RTVSPropertyOp54
 70
     1
102
RTVSPropertyOp55
 70
     1
102
RTVSPropertyOp56
 70
     1
102
RTVSPropertyOp57
 70
     1
102
RTVSPropertyOp58
 70
     1
102
RTVSPropertyOp59
 70
     1
102
RTVSPropertyOp60
 70
     1
102
RTVSPropertyOp61
 70
     1
102
RTVSPropertyOp62
 70
     1
  0
XRECORD
  5
12019
102
{ACAD_REACTORS
330
12018
102
}
330
12018
100
AcDbXrecord
280
     1
102
RTVSPost2010Prop28
280
     0
102
RTVSPost2010PropOp28
 70
     1
102
RTVSPost2010Prop29
280
     1
102
RTVSPost2010PropOp29
 70
     1
102
RTVSPost2010Prop30
280
     1
102
RTVSPost2010PropOp30
 70
     1
102
RTVSPost2010Prop31
280
     0
102
RTVSPost2010PropOp31
 70
     1
102
RTVSPost2010Prop32
280
     0
102
RTVSPost2010PropOp32
 70
     1
102
RTVSPost2010Prop33
280
     0
102
RTVSPost2010PropOp33
 70
     1
102
RTVSPost2010Prop34
280
     0
102
RTVSPost2010PropOp34
 70
     1
102
RTVSPost2010Prop35
280
     0
102
RTVSPost2010PropOp35
 70
     1
102
RTVSPost2010Prop36
280
     0
102
RTVSPost2010PropOp36
 70
     1
102
RTVSPost2010Prop37
 90
       50
102
RTVSPost2010PropOp37
 70
     1
102
RTVSPost2010Prop38
140
0.0
102
RTVSPost2010PropOp38
 70
     1
102
RTVSPost2010Prop39
140
1.0
102
RTVSPost2010PropOp39
 70
     1
102
RTVSPost2010Prop40
 90
        0
102
RTVSPost2010PropOp40
 70
     1
102
RTVSPost2010Prop41ColorIndex
 90
       18
102
RTVSPost2010Prop41ColorRGB
 90
        0
102
RTVSPost2010PropOp41
 70
     1
102
RTVSPost2010Prop42
 90
       50
102
RTVSPost2010PropOp42
 70
     1
102
RTVSPost2010Prop43
 90
        3
102
RTVSPost2010PropOp43
 70
     1
102
RTVSPost2010Prop44ColorIndex
 90
        5
102
RTVSPost2010Prop44ColorRGB
 90
      255
102
RTVSPost2010PropOp44
 70
     1
102
RTVSPost2010Prop45
280
     0
102
RTVSPost2010PropOp45
 70
     1
102
RTVSPost2010Prop46
 90
       50
102
RTVSPost2010PropOp46
 70
     1
102
RTVSPost2010Prop47
 90
       50
102
RTVSPost2010PropOp47
 70
     1
102
RTVSPost2010Prop48
 90
       50
102
RTVSPost2010PropOp48
 70
     1
102
RTVSPost2010Prop49
280
     0
102
RTVSPost2010PropOp49
 70
     1
102
RTVSPost2010Prop50
 90
       50
102
RTVSPost2010PropOp50
 70
     1
102
RTVSPost2010Prop51ColorIndex
 90
      256
102
RTVSPost2010Prop51ColorRGB
 90
-16777216
102
RTVSPost2010PropOp51
 70
     0
102
RTVSPost2010Prop52
140
1.0
102
RTVSPost2010PropOp52
 70
     0
102
RTVSPost2010Prop53
 90
        2
102
RTVSPost2010PropOp53
 70
     1
102
RTVSPost2010Prop54
  1
strokes_ogs.tif
102
RTVSPost2010PropOp54
 70
     1
102
RTVSPost2010Prop55
280
     0
102
RTVSPost2010PropOp55
 70
     1
102
RTVSPost2010Prop56
140
1.0
102
RTVSPost2010PropOp56
 70
     1
102
RTVSPost2010Prop57
140
1.0
102
RTVSPost2010PropOp57
 70
     1
102
RTVSPropertyOp0
 70
     1
102
RTVSPropertyOp1
 70
     1
102
RTVSPropertyOp2
 70
     1
102
RTVSPropertyOp3
 70
     1
102
RTVSPropertyOp4
 70
     1
102
RTVSPropertyOp5
 70
     1
102
RTVSPropertyOp6
 70
     1
102
RTVSPropertyOp7
 70
     1
102
RTVSPropertyOp8
 70
     1
102
RTVSPropertyOp9
 70
     1
102
RTVSPropertyOp10
 70
     1
102
RTVSPropertyOp11
 70
     1
102
RTVSPropertyOp12
 70
     1
102
RTVSPropertyOp13
 70
     1
102
RTVSPropertyOp14
 70
     1
102
RTVSPropertyOp15
 70
     1
102
RTVSPropertyOp16
 70
     1
102
RTVSPropertyOp17
 70
     1
102
RTVSPropertyOp18
 70
     1
102
RTVSPropertyOp19
 70
     1
102
RTVSPropertyOp20
 70
     1
102
RTVSPropertyOp21
 70
     1
102
RTVSPropertyOp22
 70
     1
102
RTVSPropertyOp23
 70
     1
102
RTVSPropertyOp24
 70
     1
102
RTVSPropertyOp25
 70
     1
102
RTVSPropertyOp26
 70
     1
102
RTVSPropertyOp27
 70
     1
102
RTVSPropertyOp28
 70
     1
102
RTVSPropertyOp29
 70
     1
102
RTVSPropertyOp30
 70
     1
102
RTVSPropertyOp31
 70
     1
102
RTVSPropertyOp32
 70
     1
102
RTVSPropertyOp33
 70
     1
102
RTVSPropertyOp34
 70
     1
102
RTVSPropertyOp35
 70
     1
102
RTVSPropertyOp36
 70
     1
102
RTVSPropertyOp37
 70
     1
102
RTVSPropertyOp38
 70
     1
102
RTVSPropertyOp39
 70
     1
102
RTVSPropertyOp40
 70
     1
102
RTVSPropertyOp41
 70
     1
102
RTVSPropertyOp42
 70
     1
102
RTVSPropertyOp43
 70
     1
102
RTVSPropertyOp44
 70
     1
102
RTVSPropertyOp45
 70
     1
102
RTVSPropertyOp46
 70
     1
102
RTVSPropertyOp47
 70
     1
102
RTVSPropertyOp48
 70
     1
102
RTVSPropertyOp49
 70
     1
102
RTVSPropertyOp50
 70
     1
102
RTVSPropertyOp51
 70
     0
102
RTVSPropertyOp52
 70
     0
102
RTVSPropertyOp53
 70
     1
102
RTVSPropertyOp54
 70
     1
102
RTVSPropertyOp55
 70
     1
102
RTVSPropertyOp56
 70
     1
102
RTVSPropertyOp57
 70
     1
102
RTVSPropertyOp58
 70
     1
102
RTVSPropertyOp59
 70
     1
102
RTVSPropertyOp60
 70
     1
102
RTVSPropertyOp61
 70
     1
102
RTVSPropertyOp62
 70
     1
  0
XRECORD
  5
11FFD
102
{ACAD_REACTORS
330
11FFC
102
}
330
11FFC
100
AcDbXrecord
280
     1
102
RTVSPost2010Prop28
280
     0
102
RTVSPost2010PropOp28
 70
     1
102
RTVSPost2010Prop29
280
     1
102
RTVSPost2010PropOp29
 70
     1
102
RTVSPost2010Prop30
280
     1
102
RTVSPost2010PropOp30
 70
     1
102
RTVSPost2010Prop31
280
     0
102
RTVSPost2010PropOp31
 70
     1
102
RTVSPost2010Prop32
280
     0
102
RTVSPost2010PropOp32
 70
     1
102
RTVSPost2010Prop33
280
     0
102
RTVSPost2010PropOp33
 70
     1
102
RTVSPost2010Prop34
280
     0
102
RTVSPost2010PropOp34
 70
     1
102
RTVSPost2010Prop35
280
     0
102
RTVSPost2010PropOp35
 70
     1
102
RTVSPost2010Prop36
280
     0
102
RTVSPost2010PropOp36
 70
     1
102
RTVSPost2010Prop37
 90
       50
102
RTVSPost2010PropOp37
 70
     1
102
RTVSPost2010Prop38
140
0.0
102
RTVSPost2010PropOp38
 70
     1
102
RTVSPost2010Prop39
140
1.0
102
RTVSPost2010PropOp39
 70
     1
102
RTVSPost2010Prop40
 90
        0
102
RTVSPost2010PropOp40
 70
     1
102
RTVSPost2010Prop41ColorIndex
 90
       18
102
RTVSPost2010Prop41ColorRGB
 90
        0
102
RTVSPost2010PropOp41
 70
     1
102
RTVSPost2010Prop42
 90
       50
102
RTVSPost2010PropOp42
 70
     1
102
RTVSPost2010Prop43
 90
        3
102
RTVSPost2010PropOp43
 70
     1
102
RTVSPost2010Prop44ColorIndex
 90
        5
102
RTVSPost2010Prop44ColorRGB
 90
      255
102
RTVSPost2010PropOp44
 70
     1
102
RTVSPost2010Prop45
280
     0
102
RTVSPost2010PropOp45
 70
     1
102
RTVSPost2010Prop46
 90
       50
102
RTVSPost2010PropOp46
 70
     1
102
RTVSPost2010Prop47
 90
       50
102
RTVSPost2010PropOp47
 70
     1
102
RTVSPost2010Prop48
 90
       50
102
RTVSPost2010PropOp48
 70
     1
102
RTVSPost2010Prop49
280
     0
102
RTVSPost2010PropOp49
 70
     1
102
RTVSPost2010Prop50
 90
       50
102
RTVSPost2010PropOp50
 70
     1
102
RTVSPost2010Prop51ColorIndex
 90
      256
102
RTVSPost2010Prop51ColorRGB
 90
-16777216
102
RTVSPost2010PropOp51
 70
     0
102
RTVSPost2010Prop52
140
1.0
102
RTVSPost2010PropOp52
 70
     0
102
RTVSPost2010Prop53
 90
        2
102
RTVSPost2010PropOp53
 70
     1
102
RTVSPost2010Prop54
  1
strokes_ogs.tif
102
RTVSPost2010PropOp54
 70
     1
102
RTVSPost2010Prop55
280
     0
102
RTVSPost2010PropOp55
 70
     1
102
RTVSPost2010Prop56
140
1.0
102
RTVSPost2010PropOp56
 70
     1
102
RTVSPost2010Prop57
140
1.0
102
RTVSPost2010PropOp57
 70
     1
102
RTVSPropertyOp0
 70
     1
102
RTVSPropertyOp1
 70
     1
102
RTVSPropertyOp2
 70
     1
102
RTVSPropertyOp3
 70
     1
102
RTVSPropertyOp4
 70
     1
102
RTVSPropertyOp5
 70
     1
102
RTVSPropertyOp6
 70
     1
102
RTVSPropertyOp7
 70
     1
102
RTVSPropertyOp8
 70
     1
102
RTVSPropertyOp9
 70
     1
102
RTVSPropertyOp10
 70
     1
102
RTVSPropertyOp11
 70
     1
102
RTVSPropertyOp12
 70
     1
102
RTVSPropertyOp13
 70
     1
102
RTVSPropertyOp14
 70
     1
102
RTVSPropertyOp15
 70
     1
102
RTVSPropertyOp16
 70
     1
102
RTVSPropertyOp17
 70
     1
102
RTVSPropertyOp18
 70
     1
102
RTVSPropertyOp19
 70
     1
102
RTVSPropertyOp20
 70
     1
102
RTVSPropertyOp21
 70
     1
102
RTVSPropertyOp22
 70
     1
102
RTVSPropertyOp23
 70
     1
102
RTVSPropertyOp24
 70
     1
102
RTVSPropertyOp25
 70
     1
102
RTVSPropertyOp26
 70
     1
102
RTVSPropertyOp27
 70
     1
102
RTVSPropertyOp28
 70
     1
102
RTVSPropertyOp29
 70
     1
102
RTVSPropertyOp30
 70
     1
102
RTVSPropertyOp31
 70
     1
102
RTVSPropertyOp32
 70
     1
102
RTVSPropertyOp33
 70
     1
102
RTVSPropertyOp34
 70
     1
102
RTVSPropertyOp35
 70
     1
102
RTVSPropertyOp36
 70
     1
102
RTVSPropertyOp37
 70
     1
102
RTVSPropertyOp38
 70
     1
102
RTVSPropertyOp39
 70
     1
102
RTVSPropertyOp40
 70
     1
102
RTVSPropertyOp41
 70
     1
102
RTVSPropertyOp42
 70
     1
102
RTVSPropertyOp43
 70
     1
102
RTVSPropertyOp44
 70
     1
102
RTVSPropertyOp45
 70
     1
102
RTVSPropertyOp46
 70
     1
102
RTVSPropertyOp47
 70
     1
102
RTVSPropertyOp48
 70
     1
102
RTVSPropertyOp49
 70
     1
102
RTVSPropertyOp50
 70
     1
102
RTVSPropertyOp51
 70
     0
102
RTVSPropertyOp52
 70
     0
102
RTVSPropertyOp53
 70
     1
102
RTVSPropertyOp54
 70
     1
102
RTVSPropertyOp55
 70
     1
102
RTVSPropertyOp56
 70
     1
102
RTVSPropertyOp57
 70
     1
102
RTVSPropertyOp58
 70
     1
102
RTVSPropertyOp59
 70
     1
102
RTVSPropertyOp60
 70
     1
102
RTVSPropertyOp61
 70
     1
102
RTVSPropertyOp62
 70
     1
  0
XRECORD
  5
11FFF
102
{ACAD_REACTORS
330
11FFE
102
}
330
11FFE
100
AcDbXrecord
280
     1
102
RTVSPost2010Prop28
280
     0
102
RTVSPost2010PropOp28
 70
     1
102
RTVSPost2010Prop29
280
     1
102
RTVSPost2010PropOp29
 70
     1
102
RTVSPost2010Prop30
280
     1
102
RTVSPost2010PropOp30
 70
     1
102
RTVSPost2010Prop31
280
     0
102
RTVSPost2010PropOp31
 70
     1
102
RTVSPost2010Prop32
280
     0
102
RTVSPost2010PropOp32
 70
     1
102
RTVSPost2010Prop33
280
     0
102
RTVSPost2010PropOp33
 70
     1
102
RTVSPost2010Prop34
280
     0
102
RTVSPost2010PropOp34
 70
     1
102
RTVSPost2010Prop35
280
     0
102
RTVSPost2010PropOp35
 70
     1
102
RTVSPost2010Prop36
280
     0
102
RTVSPost2010PropOp36
 70
     1
102
RTVSPost2010Prop37
 90
       50
102
RTVSPost2010PropOp37
 70
     1
102
RTVSPost2010Prop38
140
0.0
102
RTVSPost2010PropOp38
 70
     1
102
RTVSPost2010Prop39
140
1.0
102
RTVSPost2010PropOp39
 70
     1
102
RTVSPost2010Prop40
 90
        0
102
RTVSPost2010PropOp40
 70
     1
102
RTVSPost2010Prop41ColorIndex
 90
       18
102
RTVSPost2010Prop41ColorRGB
 90
        0
102
RTVSPost2010PropOp41
 70
     1
102
RTVSPost2010Prop42
 90
       50
102
RTVSPost2010PropOp42
 70
     1
102
RTVSPost2010Prop43
 90
        3
102
RTVSPost2010PropOp43
 70
     1
102
RTVSPost2010Prop44ColorIndex
 90
        5
102
RTVSPost2010Prop44ColorRGB
 90
      255
102
RTVSPost2010PropOp44
 70
     1
102
RTVSPost2010Prop45
280
     0
102
RTVSPost2010PropOp45
 70
     1
102
RTVSPost2010Prop46
 90
       50
102
RTVSPost2010PropOp46
 70
     1
102
RTVSPost2010Prop47
 90
       50
102
RTVSPost2010PropOp47
 70
     1
102
RTVSPost2010Prop48
 90
       50
102
RTVSPost2010PropOp48
 70
     1
102
RTVSPost2010Prop49
280
     0
102
RTVSPost2010PropOp49
 70
     1
102
RTVSPost2010Prop50
 90
       50
102
RTVSPost2010PropOp50
 70
     1
102
RTVSPost2010Prop51ColorIndex
 90
      256
102
RTVSPost2010Prop51ColorRGB
 90
-16777216
102
RTVSPost2010PropOp51
 70
     0
102
RTVSPost2010Prop52
140
1.0
102
RTVSPost2010PropOp52
 70
     0
102
RTVSPost2010Prop53
 90
        2
102
RTVSPost2010PropOp53
 70
     1
102
RTVSPost2010Prop54
  1
strokes_ogs.tif
102
RTVSPost2010PropOp54
 70
     1
102
RTVSPost2010Prop55
280
     0
102
RTVSPost2010PropOp55
 70
     1
102
RTVSPost2010Prop56
140
1.0
102
RTVSPost2010PropOp56
 70
     1
102
RTVSPost2010Prop57
140
1.0
102
RTVSPost2010PropOp57
 70
     1
102
RTVSPropertyOp0
 70
     1
102
RTVSPropertyOp1
 70
     1
102
RTVSPropertyOp2
 70
     1
102
RTVSPropertyOp3
 70
     1
102
RTVSPropertyOp4
 70
     1
102
RTVSPropertyOp5
 70
     1
102
RTVSPropertyOp6
 70
     1
102
RTVSPropertyOp7
 70
     1
102
RTVSPropertyOp8
 70
     1
102
RTVSPropertyOp9
 70
     1
102
RTVSPropertyOp10
 70
     1
102
RTVSPropertyOp11
 70
     1
102
RTVSPropertyOp12
 70
     1
102
RTVSPropertyOp13
 70
     1
102
RTVSPropertyOp14
 70
     1
102
RTVSPropertyOp15
 70
     1
102
RTVSPropertyOp16
 70
     1
102
RTVSPropertyOp17
 70
     1
102
RTVSPropertyOp18
 70
     1
102
RTVSPropertyOp19
 70
     1
102
RTVSPropertyOp20
 70
     1
102
RTVSPropertyOp21
 70
     1
102
RTVSPropertyOp22
 70
     1
102
RTVSPropertyOp23
 70
     1
102
RTVSPropertyOp24
 70
     1
102
RTVSPropertyOp25
 70
     1
102
RTVSPropertyOp26
 70
     1
102
RTVSPropertyOp27
 70
     1
102
RTVSPropertyOp28
 70
     1
102
RTVSPropertyOp29
 70
     1
102
RTVSPropertyOp30
 70
     1
102
RTVSPropertyOp31
 70
     1
102
RTVSPropertyOp32
 70
     1
102
RTVSPropertyOp33
 70
     1
102
RTVSPropertyOp34
 70
     1
102
RTVSPropertyOp35
 70
     1
102
RTVSPropertyOp36
 70
     1
102
RTVSPropertyOp37
 70
     1
102
RTVSPropertyOp38
 70
     1
102
RTVSPropertyOp39
 70
     1
102
RTVSPropertyOp40
 70
     1
102
RTVSPropertyOp41
 70
     1
102
RTVSPropertyOp42
 70
     1
102
RTVSPropertyOp43
 70
     1
102
RTVSPropertyOp44
 70
     1
102
RTVSPropertyOp45
 70
     1
102
RTVSPropertyOp46
 70
     1
102
RTVSPropertyOp47
 70
     1
102
RTVSPropertyOp48
 70
     1
102
RTVSPropertyOp49
 70
     1
102
RTVSPropertyOp50
 70
     1
102
RTVSPropertyOp51
 70
     0
102
RTVSPropertyOp52
 70
     0
102
RTVSPropertyOp53
 70
     1
102
RTVSPropertyOp54
 70
     1
102
RTVSPropertyOp55
 70
     1
102
RTVSPropertyOp56
 70
     1
102
RTVSPropertyOp57
 70
     1
102
RTVSPropertyOp58
 70
     1
102
RTVSPropertyOp59
 70
     1
102
RTVSPropertyOp60
 70
     1
102
RTVSPropertyOp61
 70
     1
102
RTVSPropertyOp62
 70
     1
  0
XRECORD
  5
12001
102
{ACAD_REACTORS
330
12000
102
}
330
12000
100
AcDbXrecord
280
     1
102
RTVSPost2010Prop28
280
     0
102
RTVSPost2010PropOp28
 70
     1
102
RTVSPost2010Prop29
280
     1
102
RTVSPost2010PropOp29
 70
     1
102
RTVSPost2010Prop30
280
     1
102
RTVSPost2010PropOp30
 70
     1
102
RTVSPost2010Prop31
280
     0
102
RTVSPost2010PropOp31
 70
     1
102
RTVSPost2010Prop32
280
     0
102
RTVSPost2010PropOp32
 70
     1
102
RTVSPost2010Prop33
280
     0
102
RTVSPost2010PropOp33
 70
     1
102
RTVSPost2010Prop34
280
     0
102
RTVSPost2010PropOp34
 70
     1
102
RTVSPost2010Prop35
280
     0
102
RTVSPost2010PropOp35
 70
     1
102
RTVSPost2010Prop36
280
     0
102
RTVSPost2010PropOp36
 70
     1
102
RTVSPost2010Prop37
 90
       50
102
RTVSPost2010PropOp37
 70
     1
102
RTVSPost2010Prop38
140
0.0
102
RTVSPost2010PropOp38
 70
     1
102
RTVSPost2010Prop39
140
1.0
102
RTVSPost2010PropOp39
 70
     1
102
RTVSPost2010Prop40
 90
        0
102
RTVSPost2010PropOp40
 70
     1
102
RTVSPost2010Prop41ColorIndex
 90
       18
102
RTVSPost2010Prop41ColorRGB
 90
        0
102
RTVSPost2010PropOp41
 70
     1
102
RTVSPost2010Prop42
 90
       50
102
RTVSPost2010PropOp42
 70
     1
102
RTVSPost2010Prop43
 90
        3
102
RTVSPost2010PropOp43
 70
     1
102
RTVSPost2010Prop44ColorIndex
 90
        5
102
RTVSPost2010Prop44ColorRGB
 90
      255
102
RTVSPost2010PropOp44
 70
     1
102
RTVSPost2010Prop45
280
     0
102
RTVSPost2010PropOp45
 70
     1
102
RTVSPost2010Prop46
 90
       50
102
RTVSPost2010PropOp46
 70
     1
102
RTVSPost2010Prop47
 90
       50
102
RTVSPost2010PropOp47
 70
     1
102
RTVSPost2010Prop48
 90
       50
102
RTVSPost2010PropOp48
 70
     1
102
RTVSPost2010Prop49
280
     0
102
RTVSPost2010PropOp49
 70
     1
102
RTVSPost2010Prop50
 90
       50
102
RTVSPost2010PropOp50
 70
     1
102
RTVSPost2010Prop51ColorIndex
 90
      256
102
RTVSPost2010Prop51ColorRGB
 90
-16777216
102
RTVSPost2010PropOp51
 70
     0
102
RTVSPost2010Prop52
140
1.0
102
RTVSPost2010PropOp52
 70
     0
102
RTVSPost2010Prop53
 90
        2
102
RTVSPost2010PropOp53
 70
     1
102
RTVSPost2010Prop54
  1
strokes_ogs.tif
102
RTVSPost2010PropOp54
 70
     1
102
RTVSPost2010Prop55
280
     0
102
RTVSPost2010PropOp55
 70
     1
102
RTVSPost2010Prop56
140
1.0
102
RTVSPost2010PropOp56
 70
     1
102
RTVSPost2010Prop57
140
1.0
102
RTVSPost2010PropOp57
 70
     1
102
RTVSPropertyOp0
 70
     1
102
RTVSPropertyOp1
 70
     1
102
RTVSPropertyOp2
 70
     1
102
RTVSPropertyOp3
 70
     1
102
RTVSPropertyOp4
 70
     1
102
RTVSPropertyOp5
 70
     1
102
RTVSPropertyOp6
 70
     1
102
RTVSPropertyOp7
 70
     1
102
RTVSPropertyOp8
 70
     1
102
RTVSPropertyOp9
 70
     1
102
RTVSPropertyOp10
 70
     1
102
RTVSPropertyOp11
 70
     1
102
RTVSPropertyOp12
 70
     1
102
RTVSPropertyOp13
 70
     1
102
RTVSPropertyOp14
 70
     1
102
RTVSPropertyOp15
 70
     1
102
RTVSPropertyOp16
 70
     1
102
RTVSPropertyOp17
 70
     1
102
RTVSPropertyOp18
 70
     1
102
RTVSPropertyOp19
 70
     1
102
RTVSPropertyOp20
 70
     1
102
RTVSPropertyOp21
 70
     1
102
RTVSPropertyOp22
 70
     1
102
RTVSPropertyOp23
 70
     1
102
RTVSPropertyOp24
 70
     1
102
RTVSPropertyOp25
 70
     1
102
RTVSPropertyOp26
 70
     1
102
RTVSPropertyOp27
 70
     1
102
RTVSPropertyOp28
 70
     1
102
RTVSPropertyOp29
 70
     1
102
RTVSPropertyOp30
 70
     1
102
RTVSPropertyOp31
 70
     1
102
RTVSPropertyOp32
 70
     1
102
RTVSPropertyOp33
 70
     1
102
RTVSPropertyOp34
 70
     1
102
RTVSPropertyOp35
 70
     1
102
RTVSPropertyOp36
 70
     1
102
RTVSPropertyOp37
 70
     1
102
RTVSPropertyOp38
 70
     1
102
RTVSPropertyOp39
 70
     1
102
RTVSPropertyOp40
 70
     1
102
RTVSPropertyOp41
 70
     1
102
RTVSPropertyOp42
 70
     1
102
RTVSPropertyOp43
 70
     1
102
RTVSPropertyOp44
 70
     1
102
RTVSPropertyOp45
 70
     1
102
RTVSPropertyOp46
 70
     1
102
RTVSPropertyOp47
 70
     1
102
RTVSPropertyOp48
 70
     1
102
RTVSPropertyOp49
 70
     1
102
RTVSPropertyOp50
 70
     1
102
RTVSPropertyOp51
 70
     0
102
RTVSPropertyOp52
 70
     0
102
RTVSPropertyOp53
 70
     1
102
RTVSPropertyOp54
 70
     1
102
RTVSPropertyOp55
 70
     1
102
RTVSPropertyOp56
 70
     1
102
RTVSPropertyOp57
 70
     1
102
RTVSPropertyOp58
 70
     1
102
RTVSPropertyOp59
 70
     1
102
RTVSPropertyOp60
 70
     1
102
RTVSPropertyOp61
 70
     1
102
RTVSPropertyOp62
 70
     1
  0
XRECORD
  5
12003
102
{ACAD_REACTORS
330
12002
102
}
330
12002
100
AcDbXrecord
280
     1
102
RTVSPost2010Prop28
280
     0
102
RTVSPost2010PropOp28
 70
     1
102
RTVSPost2010Prop29
280
     1
102
RTVSPost2010PropOp29
 70
     1
102
RTVSPost2010Prop30
280
     1
102
RTVSPost2010PropOp30
 70
     1
102
RTVSPost2010Prop31
280
     0
102
RTVSPost2010PropOp31
 70
     1
102
RTVSPost2010Prop32
280
     0
102
RTVSPost2010PropOp32
 70
     1
102
RTVSPost2010Prop33
280
     0
102
RTVSPost2010PropOp33
 70
     1
102
RTVSPost2010Prop34
280
     0
102
RTVSPost2010PropOp34
 70
     1
102
RTVSPost2010Prop35
280
     0
102
RTVSPost2010PropOp35
 70
     1
102
RTVSPost2010Prop36
280
     0
102
RTVSPost2010PropOp36
 70
     1
102
RTVSPost2010Prop37
 90
       50
102
RTVSPost2010PropOp37
 70
     1
102
RTVSPost2010Prop38
140
0.0
102
RTVSPost2010PropOp38
 70
     1
102
RTVSPost2010Prop39
140
1.0
102
RTVSPost2010PropOp39
 70
     1
102
RTVSPost2010Prop40
 90
        0
102
RTVSPost2010PropOp40
 70
     1
102
RTVSPost2010Prop41ColorIndex
 90
       18
102
RTVSPost2010Prop41ColorRGB
 90
        0
102
RTVSPost2010PropOp41
 70
     1
102
RTVSPost2010Prop42
 90
       50
102
RTVSPost2010PropOp42
 70
     1
102
RTVSPost2010Prop43
 90
        3
102
RTVSPost2010PropOp43
 70
     1
102
RTVSPost2010Prop44ColorIndex
 90
        5
102
RTVSPost2010Prop44ColorRGB
 90
      255
102
RTVSPost2010PropOp44
 70
     1
102
RTVSPost2010Prop45
280
     0
102
RTVSPost2010PropOp45
 70
     1
102
RTVSPost2010Prop46
 90
       50
102
RTVSPost2010PropOp46
 70
     1
102
RTVSPost2010Prop47
 90
       50
102
RTVSPost2010PropOp47
 70
     1
102
RTVSPost2010Prop48
 90
       50
102
RTVSPost2010PropOp48
 70
     1
102
RTVSPost2010Prop49
280
     0
102
RTVSPost2010PropOp49
 70
     1
102
RTVSPost2010Prop50
 90
       50
102
RTVSPost2010PropOp50
 70
     1
102
RTVSPost2010Prop51ColorIndex
 90
      256
102
RTVSPost2010Prop51ColorRGB
 90
-16777216
102
RTVSPost2010PropOp51
 70
     0
102
RTVSPost2010Prop52
140
1.0
102
RTVSPost2010PropOp52
 70
     0
102
RTVSPost2010Prop53
 90
        2
102
RTVSPost2010PropOp53
 70
     1
102
RTVSPost2010Prop54
  1
strokes_ogs.tif
102
RTVSPost2010PropOp54
 70
     1
102
RTVSPost2010Prop55
280
     0
102
RTVSPost2010PropOp55
 70
     1
102
RTVSPost2010Prop56
140
1.0
102
RTVSPost2010PropOp56
 70
     1
102
RTVSPost2010Prop57
140
1.0
102
RTVSPost2010PropOp57
 70
     1
102
RTVSPropertyOp0
 70
     1
102
RTVSPropertyOp1
 70
     1
102
RTVSPropertyOp2
 70
     1
102
RTVSPropertyOp3
 70
     1
102
RTVSPropertyOp4
 70
     1
102
RTVSPropertyOp5
 70
     1
102
RTVSPropertyOp6
 70
     1
102
RTVSPropertyOp7
 70
     1
102
RTVSPropertyOp8
 70
     1
102
RTVSPropertyOp9
 70
     1
102
RTVSPropertyOp10
 70
     1
102
RTVSPropertyOp11
 70
     1
102
RTVSPropertyOp12
 70
     1
102
RTVSPropertyOp13
 70
     1
102
RTVSPropertyOp14
 70
     1
102
RTVSPropertyOp15
 70
     1
102
RTVSPropertyOp16
 70
     1
102
RTVSPropertyOp17
 70
     1
102
RTVSPropertyOp18
 70
     1
102
RTVSPropertyOp19
 70
     1
102
RTVSPropertyOp20
 70
     1
102
RTVSPropertyOp21
 70
     1
102
RTVSPropertyOp22
 70
     1
102
RTVSPropertyOp23
 70
     1
102
RTVSPropertyOp24
 70
     1
102
RTVSPropertyOp25
 70
     1
102
RTVSPropertyOp26
 70
     1
102
RTVSPropertyOp27
 70
     1
102
RTVSPropertyOp28
 70
     1
102
RTVSPropertyOp29
 70
     1
102
RTVSPropertyOp30
 70
     1
102
RTVSPropertyOp31
 70
     1
102
RTVSPropertyOp32
 70
     1
102
RTVSPropertyOp33
 70
     1
102
RTVSPropertyOp34
 70
     1
102
RTVSPropertyOp35
 70
     1
102
RTVSPropertyOp36
 70
     1
102
RTVSPropertyOp37
 70
     1
102
RTVSPropertyOp38
 70
     1
102
RTVSPropertyOp39
 70
     1
102
RTVSPropertyOp40
 70
     1
102
RTVSPropertyOp41
 70
     1
102
RTVSPropertyOp42
 70
     1
102
RTVSPropertyOp43
 70
     1
102
RTVSPropertyOp44
 70
     1
102
RTVSPropertyOp45
 70
     1
102
RTVSPropertyOp46
 70
     1
102
RTVSPropertyOp47
 70
     1
102
RTVSPropertyOp48
 70
     1
102
RTVSPropertyOp49
 70
     1
102
RTVSPropertyOp50
 70
     1
102
RTVSPropertyOp51
 70
     0
102
RTVSPropertyOp52
 70
     0
102
RTVSPropertyOp53
 70
     1
102
RTVSPropertyOp54
 70
     1
102
RTVSPropertyOp55
 70
     1
102
RTVSPropertyOp56
 70
     1
102
RTVSPropertyOp57
 70
     1
102
RTVSPropertyOp58
 70
     1
102
RTVSPropertyOp59
 70
     1
102
RTVSPropertyOp60
 70
     1
102
RTVSPropertyOp61
 70
     1
102
RTVSPropertyOp62
 70
     1
  0
XRECORD
  5
1200B
102
{ACAD_REACTORS
330
1200A
102
}
330
1200A
100
AcDbXrecord
280
     1
102
RTVSPost2010Prop28
280
     0
102
RTVSPost2010PropOp28
 70
     1
102
RTVSPost2010Prop29
280
     1
102
RTVSPost2010PropOp29
 70
     1
102
RTVSPost2010Prop30
280
     1
102
RTVSPost2010PropOp30
 70
     1
102
RTVSPost2010Prop31
280
     0
102
RTVSPost2010PropOp31
 70
     1
102
RTVSPost2010Prop32
280
     0
102
RTVSPost2010PropOp32
 70
     1
102
RTVSPost2010Prop33
280
     0
102
RTVSPost2010PropOp33
 70
     1
102
RTVSPost2010Prop34
280
     0
102
RTVSPost2010PropOp34
 70
     1
102
RTVSPost2010Prop35
280
     0
102
RTVSPost2010PropOp35
 70
     1
102
RTVSPost2010Prop36
280
     0
102
RTVSPost2010PropOp36
 70
     1
102
RTVSPost2010Prop37
 90
       50
102
RTVSPost2010PropOp37
 70
     1
102
RTVSPost2010Prop38
140
0.0
102
RTVSPost2010PropOp38
 70
     1
102
RTVSPost2010Prop39
140
1.0
102
RTVSPost2010PropOp39
 70
     1
102
RTVSPost2010Prop40
 90
        0
102
RTVSPost2010PropOp40
 70
     1
102
RTVSPost2010Prop41ColorIndex
 90
       18
102
RTVSPost2010Prop41ColorRGB
 90
        0
102
RTVSPost2010PropOp41
 70
     1
102
RTVSPost2010Prop42
 90
       50
102
RTVSPost2010PropOp42
 70
     1
102
RTVSPost2010Prop43
 90
        3
102
RTVSPost2010PropOp43
 70
     1
102
RTVSPost2010Prop44ColorIndex
 90
        5
102
RTVSPost2010Prop44ColorRGB
 90
      255
102
RTVSPost2010PropOp44
 70
     1
102
RTVSPost2010Prop45
280
     0
102
RTVSPost2010PropOp45
 70
     1
102
RTVSPost2010Prop46
 90
       50
102
RTVSPost2010PropOp46
 70
     1
102
RTVSPost2010Prop47
 90
       50
102
RTVSPost2010PropOp47
 70
     1
102
RTVSPost2010Prop48
 90
       50
102
RTVSPost2010PropOp48
 70
     1
102
RTVSPost2010Prop49
280
     0
102
RTVSPost2010PropOp49
 70
     1
102
RTVSPost2010Prop50
 90
       50
102
RTVSPost2010PropOp50
 70
     1
102
RTVSPost2010Prop51ColorIndex
 90
      256
102
RTVSPost2010Prop51ColorRGB
 90
-16777216
102
RTVSPost2010PropOp51
 70
     0
102
RTVSPost2010Prop52
140
1.0
102
RTVSPost2010PropOp52
 70
     0
102
RTVSPost2010Prop53
 90
        2
102
RTVSPost2010PropOp53
 70
     1
102
RTVSPost2010Prop54
  1
strokes_ogs.tif
102
RTVSPost2010PropOp54
 70
     1
102
RTVSPost2010Prop55
280
     0
102
RTVSPost2010PropOp55
 70
     1
102
RTVSPost2010Prop56
140
1.0
102
RTVSPost2010PropOp56
 70
     1
102
RTVSPost2010Prop57
140
1.0
102
RTVSPost2010PropOp57
 70
     1
102
RTVSPropertyOp0
 70
     1
102
RTVSPropertyOp1
 70
     1
102
RTVSPropertyOp2
 70
     1
102
RTVSPropertyOp3
 70
     1
102
RTVSPropertyOp4
 70
     1
102
RTVSPropertyOp5
 70
     1
102
RTVSPropertyOp6
 70
     1
102
RTVSPropertyOp7
 70
     1
102
RTVSPropertyOp8
 70
     1
102
RTVSPropertyOp9
 70
     1
102
RTVSPropertyOp10
 70
     1
102
RTVSPropertyOp11
 70
     1
102
RTVSPropertyOp12
 70
     1
102
RTVSPropertyOp13
 70
     1
102
RTVSPropertyOp14
 70
     1
102
RTVSPropertyOp15
 70
     1
102
RTVSPropertyOp16
 70
     1
102
RTVSPropertyOp17
 70
     1
102
RTVSPropertyOp18
 70
     1
102
RTVSPropertyOp19
 70
     1
102
RTVSPropertyOp20
 70
     1
102
RTVSPropertyOp21
 70
     1
102
RTVSPropertyOp22
 70
     1
102
RTVSPropertyOp23
 70
     1
102
RTVSPropertyOp24
 70
     1
102
RTVSPropertyOp25
 70
     1
102
RTVSPropertyOp26
 70
     1
102
RTVSPropertyOp27
 70
     1
102
RTVSPropertyOp28
 70
     1
102
RTVSPropertyOp29
 70
     1
102
RTVSPropertyOp30
 70
     1
102
RTVSPropertyOp31
 70
     1
102
RTVSPropertyOp32
 70
     1
102
RTVSPropertyOp33
 70
     1
102
RTVSPropertyOp34
 70
     1
102
RTVSPropertyOp35
 70
     1
102
RTVSPropertyOp36
 70
     1
102
RTVSPropertyOp37
 70
     1
102
RTVSPropertyOp38
 70
     1
102
RTVSPropertyOp39
 70
     1
102
RTVSPropertyOp40
 70
     1
102
RTVSPropertyOp41
 70
     1
102
RTVSPropertyOp42
 70
     1
102
RTVSPropertyOp43
 70
     1
102
RTVSPropertyOp44
 70
     1
102
RTVSPropertyOp45
 70
     1
102
RTVSPropertyOp46
 70
     1
102
RTVSPropertyOp47
 70
     1
102
RTVSPropertyOp48
 70
     1
102
RTVSPropertyOp49
 70
     1
102
RTVSPropertyOp50
 70
     1
102
RTVSPropertyOp51
 70
     0
102
RTVSPropertyOp52
 70
     0
102
RTVSPropertyOp53
 70
     1
102
RTVSPropertyOp54
 70
     1
102
RTVSPropertyOp55
 70
     1
102
RTVSPropertyOp56
 70
     1
102
RTVSPropertyOp57
 70
     1
102
RTVSPropertyOp58
 70
     1
102
RTVSPropertyOp59
 70
     1
102
RTVSPropertyOp60
 70
     1
102
RTVSPropertyOp61
 70
     1
102
RTVSPropertyOp62
 70
     1
  0
XRECORD
  5
1201F
102
{ACAD_REACTORS
330
1201E
102
}
330
1201E
100
AcDbXrecord
280
     1
102
RTVSPost2010Prop28
280
     0
102
RTVSPost2010PropOp28
 70
     1
102
RTVSPost2010Prop29
280
     1
102
RTVSPost2010PropOp29
 70
     1
102
RTVSPost2010Prop30
280
     1
102
RTVSPost2010PropOp30
 70
     1
102
RTVSPost2010Prop31
280
     0
102
RTVSPost2010PropOp31
 70
     1
102
RTVSPost2010Prop32
280
     0
102
RTVSPost2010PropOp32
 70
     1
102
RTVSPost2010Prop33
280
     0
102
RTVSPost2010PropOp33
 70
     1
102
RTVSPost2010Prop34
280
     0
102
RTVSPost2010PropOp34
 70
     1
102
RTVSPost2010Prop35
280
     0
102
RTVSPost2010PropOp35
 70
     1
102
RTVSPost2010Prop36
280
     0
102
RTVSPost2010PropOp36
 70
     1
102
RTVSPost2010Prop37
 90
       50
102
RTVSPost2010PropOp37
 70
     1
102
RTVSPost2010Prop38
140
0.0
102
RTVSPost2010PropOp38
 70
     1
102
RTVSPost2010Prop39
140
1.0
102
RTVSPost2010PropOp39
 70
     1
102
RTVSPost2010Prop40
 90
        0
102
RTVSPost2010PropOp40
 70
     1
102
RTVSPost2010Prop41ColorIndex
 90
       18
102
RTVSPost2010Prop41ColorRGB
 90
        0
102
RTVSPost2010PropOp41
 70
     1
102
RTVSPost2010Prop42
 90
       50
102
RTVSPost2010PropOp42
 70
     1
102
RTVSPost2010Prop43
 90
        3
102
RTVSPost2010PropOp43
 70
     1
102
RTVSPost2010Prop44ColorIndex
 90
        5
102
RTVSPost2010Prop44ColorRGB
 90
      255
102
RTVSPost2010PropOp44
 70
     1
102
RTVSPost2010Prop45
280
     0
102
RTVSPost2010PropOp45
 70
     1
102
RTVSPost2010Prop46
 90
       50
102
RTVSPost2010PropOp46
 70
     1
102
RTVSPost2010Prop47
 90
       50
102
RTVSPost2010PropOp47
 70
     1
102
RTVSPost2010Prop48
 90
       50
102
RTVSPost2010PropOp48
 70
     1
102
RTVSPost2010Prop49
280
     0
102
RTVSPost2010PropOp49
 70
     1
102
RTVSPost2010Prop50
 90
       50
102
RTVSPost2010PropOp50
 70
     1
102
RTVSPost2010Prop51ColorIndex
 90
      256
102
RTVSPost2010Prop51ColorRGB
 90
-16777216
102
RTVSPost2010PropOp51
 70
     0
102
RTVSPost2010Prop52
140
1.0
102
RTVSPost2010PropOp52
 70
     0
102
RTVSPost2010Prop53
 90
        2
102
RTVSPost2010PropOp53
 70
     1
102
RTVSPost2010Prop54
  1
strokes_ogs.tif
102
RTVSPost2010PropOp54
 70
     1
102
RTVSPost2010Prop55
280
     0
102
RTVSPost2010PropOp55
 70
     1
102
RTVSPost2010Prop56
140
1.0
102
RTVSPost2010PropOp56
 70
     1
102
RTVSPost2010Prop57
140
1.0
102
RTVSPost2010PropOp57
 70
     1
102
RTVSPropertyOp0
 70
     0
102
RTVSPropertyOp1
 70
     0
102
RTVSPropertyOp2
 70
     0
102
RTVSPropertyOp3
 70
     0
102
RTVSPropertyOp4
 70
     0
102
RTVSPropertyOp5
 70
     0
102
RTVSPropertyOp6
 70
     0
102
RTVSPropertyOp7
 70
     0
102
RTVSPropertyOp8
 70
     0
102
RTVSPropertyOp9
 70
     0
102
RTVSPropertyOp10
 70
     0
102
RTVSPropertyOp11
 70
     0
102
RTVSPropertyOp12
 70
     0
102
RTVSPropertyOp13
 70
     0
102
RTVSPropertyOp14
 70
     2
102
RTVSPropertyOp15
 70
     0
102
RTVSPropertyOp16
 70
     0
102
RTVSPropertyOp17
 70
     0
102
RTVSPropertyOp18
 70
     0
102
RTVSPropertyOp19
 70
     0
102
RTVSPropertyOp20
 70
     0
102
RTVSPropertyOp21
 70
     0
102
RTVSPropertyOp22
 70
     0
102
RTVSPropertyOp23
 70
     0
102
RTVSPropertyOp24
 70
     0
102
RTVSPropertyOp25
 70
     0
102
RTVSPropertyOp26
 70
     0
102
RTVSPropertyOp27
 70
     0
102
RTVSPropertyOp28
 70
     1
102
RTVSPropertyOp29
 70
     1
102
RTVSPropertyOp30
 70
     1
102
RTVSPropertyOp31
 70
     1
102
RTVSPropertyOp32
 70
     1
102
RTVSPropertyOp33
 70
     1
102
RTVSPropertyOp34
 70
     1
102
RTVSPropertyOp35
 70
     1
102
RTVSPropertyOp36
 70
     1
102
RTVSPropertyOp37
 70
     1
102
RTVSPropertyOp38
 70
     1
102
RTVSPropertyOp39
 70
     1
102
RTVSPropertyOp40
 70
     1
102
RTVSPropertyOp41
 70
     1
102
RTVSPropertyOp42
 70
     1
102
RTVSPropertyOp43
 70
     1
102
RTVSPropertyOp44
 70
     1
102
RTVSPropertyOp45
 70
     1
102
RTVSPropertyOp46
 70
     1
102
RTVSPropertyOp47
 70
     1
102
RTVSPropertyOp48
 70
     1
102
RTVSPropertyOp49
 70
     1
102
RTVSPropertyOp50
 70
     1
102
RTVSPropertyOp51
 70
     0
102
RTVSPropertyOp52
 70
     0
102
RTVSPropertyOp53
 70
     1
102
RTVSPropertyOp54
 70
     1
102
RTVSPropertyOp55
 70
     1
102
RTVSPropertyOp56
 70
     1
102
RTVSPropertyOp57
 70
     1
102
RTVSPropertyOp58
 70
     1
102
RTVSPropertyOp59
 70
     1
102
RTVSPropertyOp60
 70
     1
102
RTVSPropertyOp61
 70
     1
102
RTVSPropertyOp62
 70
     1
  0
XRECORD
  5
12017
102
{ACAD_REACTORS
330
12016
102
}
330
12016
100
AcDbXrecord
280
     1
102
RTVSPost2010Prop28
280
     0
102
RTVSPost2010PropOp28
 70
     1
102
RTVSPost2010Prop29
280
     1
102
RTVSPost2010PropOp29
 70
     1
102
RTVSPost2010Prop30
280
     1
102
RTVSPost2010PropOp30
 70
     1
102
RTVSPost2010Prop31
280
     0
102
RTVSPost2010PropOp31
 70
     1
102
RTVSPost2010Prop32
280
     0
102
RTVSPost2010PropOp32
 70
     1
102
RTVSPost2010Prop33
280
     0
102
RTVSPost2010PropOp33
 70
     1
102
RTVSPost2010Prop34
280
     0
102
RTVSPost2010PropOp34
 70
     1
102
RTVSPost2010Prop35
280
     0
102
RTVSPost2010PropOp35
 70
     1
102
RTVSPost2010Prop36
280
     0
102
RTVSPost2010PropOp36
 70
     1
102
RTVSPost2010Prop37
 90
       50
102
RTVSPost2010PropOp37
 70
     1
102
RTVSPost2010Prop38
140
0.0
102
RTVSPost2010PropOp38
 70
     1
102
RTVSPost2010Prop39
140
1.0
102
RTVSPost2010PropOp39
 70
     1
102
RTVSPost2010Prop40
 90
        0
102
RTVSPost2010PropOp40
 70
     1
102
RTVSPost2010Prop41ColorIndex
 90
       18
102
RTVSPost2010Prop41ColorRGB
 90
        0
102
RTVSPost2010PropOp41
 70
     1
102
RTVSPost2010Prop42
 90
       50
102
RTVSPost2010PropOp42
 70
     1
102
RTVSPost2010Prop43
 90
        3
102
RTVSPost2010PropOp43
 70
     1
102
RTVSPost2010Prop44ColorIndex
 90
        5
102
RTVSPost2010Prop44ColorRGB
 90
      255
102
RTVSPost2010PropOp44
 70
     1
102
RTVSPost2010Prop45
280
     0
102
RTVSPost2010PropOp45
 70
     1
102
RTVSPost2010Prop46
 90
       50
102
RTVSPost2010PropOp46
 70
     1
102
RTVSPost2010Prop47
 90
       50
102
RTVSPost2010PropOp47
 70
     1
102
RTVSPost2010Prop48
 90
       50
102
RTVSPost2010PropOp48
 70
     1
102
RTVSPost2010Prop49
280
     0
102
RTVSPost2010PropOp49
 70
     1
102
RTVSPost2010Prop50
 90
       50
102
RTVSPost2010PropOp50
 70
     1
102
RTVSPost2010Prop51ColorIndex
 90
      256
102
RTVSPost2010Prop51ColorRGB
 90
-16777216
102
RTVSPost2010PropOp51
 70
     0
102
RTVSPost2010Prop52
140
1.0
102
RTVSPost2010PropOp52
 70
     0
102
RTVSPost2010Prop53
 90
        2
102
RTVSPost2010PropOp53
 70
     1
102
RTVSPost2010Prop54
  1
strokes_ogs.tif
102
RTVSPost2010PropOp54
 70
     1
102
RTVSPost2010Prop55
280
     0
102
RTVSPost2010PropOp55
 70
     1
102
RTVSPost2010Prop56
140
1.0
102
RTVSPost2010PropOp56
 70
     1
102
RTVSPost2010Prop57
140
1.0
102
RTVSPost2010PropOp57
 70
     1
102
RTVSPropertyOp0
 70
     1
102
RTVSPropertyOp1
 70
     1
102
RTVSPropertyOp2
 70
     1
102
RTVSPropertyOp3
 70
     1
102
RTVSPropertyOp4
 70
     1
102
RTVSPropertyOp5
 70
     1
102
RTVSPropertyOp6
 70
     1
102
RTVSPropertyOp7
 70
     1
102
RTVSPropertyOp8
 70
     1
102
RTVSPropertyOp9
 70
     1
102
RTVSPropertyOp10
 70
     1
102
RTVSPropertyOp11
 70
     1
102
RTVSPropertyOp12
 70
     1
102
RTVSPropertyOp13
 70
     1
102
RTVSPropertyOp14
 70
     1
102
RTVSPropertyOp15
 70
     1
102
RTVSPropertyOp16
 70
     1
102
RTVSPropertyOp17
 70
     1
102
RTVSPropertyOp18
 70
     1
102
RTVSPropertyOp19
 70
     1
102
RTVSPropertyOp20
 70
     1
102
RTVSPropertyOp21
 70
     1
102
RTVSPropertyOp22
 70
     1
102
RTVSPropertyOp23
 70
     1
102
RTVSPropertyOp24
 70
     1
102
RTVSPropertyOp25
 70
     1
102
RTVSPropertyOp26
 70
     1
102
RTVSPropertyOp27
 70
     1
102
RTVSPropertyOp28
 70
     1
102
RTVSPropertyOp29
 70
     1
102
RTVSPropertyOp30
 70
     1
102
RTVSPropertyOp31
 70
     1
102
RTVSPropertyOp32
 70
     1
102
RTVSPropertyOp33
 70
     1
102
RTVSPropertyOp34
 70
     1
102
RTVSPropertyOp35
 70
     1
102
RTVSPropertyOp36
 70
     1
102
RTVSPropertyOp37
 70
     1
102
RTVSPropertyOp38
 70
     1
102
RTVSPropertyOp39
 70
     1
102
RTVSPropertyOp40
 70
     1
102
RTVSPropertyOp41
 70
     1
102
RTVSPropertyOp42
 70
     1
102
RTVSPropertyOp43
 70
     1
102
RTVSPropertyOp44
 70
     1
102
RTVSPropertyOp45
 70
     1
102
RTVSPropertyOp46
 70
     1
102
RTVSPropertyOp47
 70
     1
102
RTVSPropertyOp48
 70
     1
102
RTVSPropertyOp49
 70
     1
102
RTVSPropertyOp50
 70
     1
102
RTVSPropertyOp51
 70
     0
102
RTVSPropertyOp52
 70
     0
102
RTVSPropertyOp53
 70
     1
102
RTVSPropertyOp54
 70
     1
102
RTVSPropertyOp55
 70
     1
102
RTVSPropertyOp56
 70
     1
102
RTVSPropertyOp57
 70
     1
102
RTVSPropertyOp58
 70
     1
102
RTVSPropertyOp59
 70
     1
102
RTVSPropertyOp60
 70
     1
102
RTVSPropertyOp61
 70
     1
102
RTVSPropertyOp62
 70
     1
  0
XRECORD
  5
12021
102
{ACAD_REACTORS
330
12020
102
}
330
12020
100
AcDbXrecord
280
     1
102
RTVSPost2010Prop28
280
     0
102
RTVSPost2010PropOp28
 70
     1
102
RTVSPost2010Prop29
280
     1
102
RTVSPost2010PropOp29
 70
     1
102
RTVSPost2010Prop30
280
     1
102
RTVSPost2010PropOp30
 70
     1
102
RTVSPost2010Prop31
280
     0
102
RTVSPost2010PropOp31
 70
     1
102
RTVSPost2010Prop32
280
     0
102
RTVSPost2010PropOp32
 70
     1
102
RTVSPost2010Prop33
280
     0
102
RTVSPost2010PropOp33
 70
     1
102
RTVSPost2010Prop34
280
     0
102
RTVSPost2010PropOp34
 70
     1
102
RTVSPost2010Prop35
280
     0
102
RTVSPost2010PropOp35
 70
     1
102
RTVSPost2010Prop36
280
     0
102
RTVSPost2010PropOp36
 70
     1
102
RTVSPost2010Prop37
 90
       50
102
RTVSPost2010PropOp37
 70
     1
102
RTVSPost2010Prop38
140
0.0
102
RTVSPost2010PropOp38
 70
     1
102
RTVSPost2010Prop39
140
1.0
102
RTVSPost2010PropOp39
 70
     1
102
RTVSPost2010Prop40
 90
        0
102
RTVSPost2010PropOp40
 70
     1
102
RTVSPost2010Prop41ColorIndex
 90
       18
102
RTVSPost2010Prop41ColorRGB
 90
        0
102
RTVSPost2010PropOp41
 70
     1
102
RTVSPost2010Prop42
 90
       50
102
RTVSPost2010PropOp42
 70
     1
102
RTVSPost2010Prop43
 90
        3
102
RTVSPost2010PropOp43
 70
     1
102
RTVSPost2010Prop44ColorIndex
 90
        5
102
RTVSPost2010Prop44ColorRGB
 90
      255
102
RTVSPost2010PropOp44
 70
     1
102
RTVSPost2010Prop45
280
     0
102
RTVSPost2010PropOp45
 70
     1
102
RTVSPost2010Prop46
 90
       50
102
RTVSPost2010PropOp46
 70
     1
102
RTVSPost2010Prop47
 90
       50
102
RTVSPost2010PropOp47
 70
     1
102
RTVSPost2010Prop48
 90
       50
102
RTVSPost2010PropOp48
 70
     1
102
RTVSPost2010Prop49
280
     0
102
RTVSPost2010PropOp49
 70
     1
102
RTVSPost2010Prop50
 90
       50
102
RTVSPost2010PropOp50
 70
     1
102
RTVSPost2010Prop51ColorIndex
 90
      256
102
RTVSPost2010Prop51ColorRGB
 90
-16777216
102
RTVSPost2010PropOp51
 70
     0
102
RTVSPost2010Prop52
140
1.0
102
RTVSPost2010PropOp52
 70
     0
102
RTVSPost2010Prop53
 90
        2
102
RTVSPost2010PropOp53
 70
     1
102
RTVSPost2010Prop54
  1
strokes_ogs.tif
102
RTVSPost2010PropOp54
 70
     1
102
RTVSPost2010Prop55
280
     0
102
RTVSPost2010PropOp55
 70
     1
102
RTVSPost2010Prop56
140
1.0
102
RTVSPost2010PropOp56
 70
     1
102
RTVSPost2010Prop57
140
1.0
102
RTVSPost2010PropOp57
 70
     1
102
RTVSPropertyOp0
 70
     0
102
RTVSPropertyOp1
 70
     0
102
RTVSPropertyOp2
 70
     0
102
RTVSPropertyOp3
 70
     0
102
RTVSPropertyOp4
 70
     0
102
RTVSPropertyOp5
 70
     0
102
RTVSPropertyOp6
 70
     0
102
RTVSPropertyOp7
 70
     0
102
RTVSPropertyOp8
 70
     0
102
RTVSPropertyOp9
 70
     0
102
RTVSPropertyOp10
 70
     0
102
RTVSPropertyOp11
 70
     0
102
RTVSPropertyOp12
 70
     0
102
RTVSPropertyOp13
 70
     0
102
RTVSPropertyOp14
 70
     2
102
RTVSPropertyOp15
 70
     0
102
RTVSPropertyOp16
 70
     0
102
RTVSPropertyOp17
 70
     0
102
RTVSPropertyOp18
 70
     0
102
RTVSPropertyOp19
 70
     0
102
RTVSPropertyOp20
 70
     0
102
RTVSPropertyOp21
 70
     0
102
RTVSPropertyOp22
 70
     0
102
RTVSPropertyOp23
 70
     0
102
RTVSPropertyOp24
 70
     0
102
RTVSPropertyOp25
 70
     0
102
RTVSPropertyOp26
 70
     0
102
RTVSPropertyOp27
 70
     0
102
RTVSPropertyOp28
 70
     1
102
RTVSPropertyOp29
 70
     1
102
RTVSPropertyOp30
 70
     1
102
RTVSPropertyOp31
 70
     1
102
RTVSPropertyOp32
 70
     1
102
RTVSPropertyOp33
 70
     1
102
RTVSPropertyOp34
 70
     1
102
RTVSPropertyOp35
 70
     1
102
RTVSPropertyOp36
 70
     1
102
RTVSPropertyOp37
 70
     1
102
RTVSPropertyOp38
 70
     1
102
RTVSPropertyOp39
 70
     1
102
RTVSPropertyOp40
 70
     1
102
RTVSPropertyOp41
 70
     1
102
RTVSPropertyOp42
 70
     1
102
RTVSPropertyOp43
 70
     1
102
RTVSPropertyOp44
 70
     1
102
RTVSPropertyOp45
 70
     1
102
RTVSPropertyOp46
 70
     1
102
RTVSPropertyOp47
 70
     1
102
RTVSPropertyOp48
 70
     1
102
RTVSPropertyOp49
 70
     1
102
RTVSPropertyOp50
 70
     1
102
RTVSPropertyOp51
 70
     0
102
RTVSPropertyOp52
 70
     0
102
RTVSPropertyOp53
 70
     1
102
RTVSPropertyOp54
 70
     1
102
RTVSPropertyOp55
 70
     1
102
RTVSPropertyOp56
 70
     1
102
RTVSPropertyOp57
 70
     1
102
RTVSPropertyOp58
 70
     1
102
RTVSPropertyOp59
 70
     1
102
RTVSPropertyOp60
 70
     1
102
RTVSPropertyOp61
 70
     1
102
RTVSPropertyOp62
 70
     1
  0
XRECORD
  5
1200F
102
{ACAD_REACTORS
330
1200E
102
}
330
1200E
100
AcDbXrecord
280
     1
102
RTVSPost2010Prop28
280
     0
102
RTVSPost2010PropOp28
 70
     1
102
RTVSPost2010Prop29
280
     1
102
RTVSPost2010PropOp29
 70
     1
102
RTVSPost2010Prop30
280
     1
102
RTVSPost2010PropOp30
 70
     1
102
RTVSPost2010Prop31
280
     0
102
RTVSPost2010PropOp31
 70
     1
102
RTVSPost2010Prop32
280
     0
102
RTVSPost2010PropOp32
 70
     1
102
RTVSPost2010Prop33
280
     0
102
RTVSPost2010PropOp33
 70
     1
102
RTVSPost2010Prop34
280
     0
102
RTVSPost2010PropOp34
 70
     1
102
RTVSPost2010Prop35
280
     0
102
RTVSPost2010PropOp35
 70
     1
102
RTVSPost2010Prop36
280
     0
102
RTVSPost2010PropOp36
 70
     1
102
RTVSPost2010Prop37
 90
       50
102
RTVSPost2010PropOp37
 70
     1
102
RTVSPost2010Prop38
140
0.0
102
RTVSPost2010PropOp38
 70
     1
102
RTVSPost2010Prop39
140
1.0
102
RTVSPost2010PropOp39
 70
     1
102
RTVSPost2010Prop40
 90
        0
102
RTVSPost2010PropOp40
 70
     1
102
RTVSPost2010Prop41ColorIndex
 90
       18
102
RTVSPost2010Prop41ColorRGB
 90
        0
102
RTVSPost2010PropOp41
 70
     1
102
RTVSPost2010Prop42
 90
       50
102
RTVSPost2010PropOp42
 70
     1
102
RTVSPost2010Prop43
 90
        3
102
RTVSPost2010PropOp43
 70
     1
102
RTVSPost2010Prop44ColorIndex
 90
        5
102
RTVSPost2010Prop44ColorRGB
 90
      255
102
RTVSPost2010PropOp44
 70
     1
102
RTVSPost2010Prop45
280
     0
102
RTVSPost2010PropOp45
 70
     1
102
RTVSPost2010Prop46
 90
       50
102
RTVSPost2010PropOp46
 70
     1
102
RTVSPost2010Prop47
 90
       50
102
RTVSPost2010PropOp47
 70
     1
102
RTVSPost2010Prop48
 90
       50
102
RTVSPost2010PropOp48
 70
     1
102
RTVSPost2010Prop49
280
     0
102
RTVSPost2010PropOp49
 70
     1
102
RTVSPost2010Prop50
 90
       50
102
RTVSPost2010PropOp50
 70
     1
102
RTVSPost2010Prop51ColorIndex
 90
      256
102
RTVSPost2010Prop51ColorRGB
 90
-16777216
102
RTVSPost2010PropOp51
 70
     0
102
RTVSPost2010Prop52
140
1.0
102
RTVSPost2010PropOp52
 70
     0
102
RTVSPost2010Prop53
 90
        2
102
RTVSPost2010PropOp53
 70
     1
102
RTVSPost2010Prop54
  1
strokes_ogs.tif
102
RTVSPost2010PropOp54
 70
     1
102
RTVSPost2010Prop55
280
     0
102
RTVSPost2010PropOp55
 70
     1
102
RTVSPost2010Prop56
140
1.0
102
RTVSPost2010PropOp56
 70
     1
102
RTVSPost2010Prop57
140
1.0
102
RTVSPost2010PropOp57
 70
     1
102
RTVSPropertyOp0
 70
     1
102
RTVSPropertyOp1
 70
     1
102
RTVSPropertyOp2
 70
     1
102
RTVSPropertyOp3
 70
     1
102
RTVSPropertyOp4
 70
     1
102
RTVSPropertyOp5
 70
     1
102
RTVSPropertyOp6
 70
     1
102
RTVSPropertyOp7
 70
     1
102
RTVSPropertyOp8
 70
     1
102
RTVSPropertyOp9
 70
     1
102
RTVSPropertyOp10
 70
     1
102
RTVSPropertyOp11
 70
     1
102
RTVSPropertyOp12
 70
     1
102
RTVSPropertyOp13
 70
     1
102
RTVSPropertyOp14
 70
     1
102
RTVSPropertyOp15
 70
     1
102
RTVSPropertyOp16
 70
     1
102
RTVSPropertyOp17
 70
     1
102
RTVSPropertyOp18
 70
     1
102
RTVSPropertyOp19
 70
     1
102
RTVSPropertyOp20
 70
     1
102
RTVSPropertyOp21
 70
     1
102
RTVSPropertyOp22
 70
     1
102
RTVSPropertyOp23
 70
     1
102
RTVSPropertyOp24
 70
     1
102
RTVSPropertyOp25
 70
     1
102
RTVSPropertyOp26
 70
     1
102
RTVSPropertyOp27
 70
     1
102
RTVSPropertyOp28
 70
     1
102
RTVSPropertyOp29
 70
     1
102
RTVSPropertyOp30
 70
     1
102
RTVSPropertyOp31
 70
     1
102
RTVSPropertyOp32
 70
     1
102
RTVSPropertyOp33
 70
     1
102
RTVSPropertyOp34
 70
     1
102
RTVSPropertyOp35
 70
     1
102
RTVSPropertyOp36
 70
     1
102
RTVSPropertyOp37
 70
     1
102
RTVSPropertyOp38
 70
     1
102
RTVSPropertyOp39
 70
     1
102
RTVSPropertyOp40
 70
     1
102
RTVSPropertyOp41
 70
     1
102
RTVSPropertyOp42
 70
     1
102
RTVSPropertyOp43
 70
     1
102
RTVSPropertyOp44
 70
     1
102
RTVSPropertyOp45
 70
     1
102
RTVSPropertyOp46
 70
     1
102
RTVSPropertyOp47
 70
     1
102
RTVSPropertyOp48
 70
     1
102
RTVSPropertyOp49
 70
     1
102
RTVSPropertyOp50
 70
     1
102
RTVSPropertyOp51
 70
     0
102
RTVSPropertyOp52
 70
     0
102
RTVSPropertyOp53
 70
     1
102
RTVSPropertyOp54
 70
     1
102
RTVSPropertyOp55
 70
     1
102
RTVSPropertyOp56
 70
     1
102
RTVSPropertyOp57
 70
     1
102
RTVSPropertyOp58
 70
     1
102
RTVSPropertyOp59
 70
     1
102
RTVSPropertyOp60
 70
     1
102
RTVSPropertyOp61
 70
     1
102
RTVSPropertyOp62
 70
     1
  0
XRECORD
  5
1202D
102
{ACAD_REACTORS
330
1202C
102
}
330
1202C
100
AcDbXrecord
280
     1
102
RTVSPost2010Prop28
280
     0
102
RTVSPost2010PropOp28
 70
     1
102
RTVSPost2010Prop29
280
     1
102
RTVSPost2010PropOp29
 70
     1
102
RTVSPost2010Prop30
280
     1
102
RTVSPost2010PropOp30
 70
     1
102
RTVSPost2010Prop31
280
     0
102
RTVSPost2010PropOp31
 70
     1
102
RTVSPost2010Prop32
280
     0
102
RTVSPost2010PropOp32
 70
     1
102
RTVSPost2010Prop33
280
     0
102
RTVSPost2010PropOp33
 70
     1
102
RTVSPost2010Prop34
280
     0
102
RTVSPost2010PropOp34
 70
     1
102
RTVSPost2010Prop35
280
     0
102
RTVSPost2010PropOp35
 70
     1
102
RTVSPost2010Prop36
280
     0
102
RTVSPost2010PropOp36
 70
     1
102
RTVSPost2010Prop37
 90
       50
102
RTVSPost2010PropOp37
 70
     1
102
RTVSPost2010Prop38
140
0.0
102
RTVSPost2010PropOp38
 70
     1
102
RTVSPost2010Prop39
140
1.0
102
RTVSPost2010PropOp39
 70
     1
102
RTVSPost2010Prop40
 90
        0
102
RTVSPost2010PropOp40
 70
     1
102
RTVSPost2010Prop41ColorIndex
 90
       18
102
RTVSPost2010Prop41ColorRGB
 90
        0
102
RTVSPost2010PropOp41
 70
     1
102
RTVSPost2010Prop42
 90
       50
102
RTVSPost2010PropOp42
 70
     1
102
RTVSPost2010Prop43
 90
        3
102
RTVSPost2010PropOp43
 70
     1
102
RTVSPost2010Prop44ColorIndex
 90
        5
102
RTVSPost2010Prop44ColorRGB
 90
      255
102
RTVSPost2010PropOp44
 70
     1
102
RTVSPost2010Prop45
280
     0
102
RTVSPost2010PropOp45
 70
     1
102
RTVSPost2010Prop46
 90
       50
102
RTVSPost2010PropOp46
 70
     1
102
RTVSPost2010Prop47
 90
       50
102
RTVSPost2010PropOp47
 70
     1
102
RTVSPost2010Prop48
 90
       50
102
RTVSPost2010PropOp48
 70
     1
102
RTVSPost2010Prop49
280
     0
102
RTVSPost2010PropOp49
 70
     1
102
RTVSPost2010Prop50
 90
       50
102
RTVSPost2010PropOp50
 70
     1
102
RTVSPost2010Prop51ColorIndex
 90
      256
102
RTVSPost2010Prop51ColorRGB
 90
-16777216
102
RTVSPost2010PropOp51
 70
     0
102
RTVSPost2010Prop52
140
1.0
102
RTVSPost2010PropOp52
 70
     0
102
RTVSPost2010Prop53
 90
        2
102
RTVSPost2010PropOp53
 70
     1
102
RTVSPost2010Prop54
  1
strokes_ogs.tif
102
RTVSPost2010PropOp54
 70
     1
102
RTVSPost2010Prop55
280
     0
102
RTVSPost2010PropOp55
 70
     1
102
RTVSPost2010Prop56
140
1.0
102
RTVSPost2010PropOp56
 70
     1
102
RTVSPost2010Prop57
140
1.0
102
RTVSPost2010PropOp57
 70
     1
102
RTVSPropertyOp0
 70
     1
102
RTVSPropertyOp1
 70
     1
102
RTVSPropertyOp2
 70
     1
102
RTVSPropertyOp3
 70
     1
102
RTVSPropertyOp4
 70
     1
102
RTVSPropertyOp5
 70
     1
102
RTVSPropertyOp6
 70
     1
102
RTVSPropertyOp7
 70
     1
102
RTVSPropertyOp8
 70
     1
102
RTVSPropertyOp9
 70
     1
102
RTVSPropertyOp10
 70
     1
102
RTVSPropertyOp11
 70
     1
102
RTVSPropertyOp12
 70
     1
102
RTVSPropertyOp13
 70
     1
102
RTVSPropertyOp14
 70
     1
102
RTVSPropertyOp15
 70
     1
102
RTVSPropertyOp16
 70
     1
102
RTVSPropertyOp17
 70
     1
102
RTVSPropertyOp18
 70
     1
102
RTVSPropertyOp19
 70
     1
102
RTVSPropertyOp20
 70
     1
102
RTVSPropertyOp21
 70
     1
102
RTVSPropertyOp22
 70
     1
102
RTVSPropertyOp23
 70
     1
102
RTVSPropertyOp24
 70
     1
102
RTVSPropertyOp25
 70
     1
102
RTVSPropertyOp26
 70
     1
102
RTVSPropertyOp27
 70
     1
102
RTVSPropertyOp28
 70
     1
102
RTVSPropertyOp29
 70
     1
102
RTVSPropertyOp30
 70
     1
102
RTVSPropertyOp31
 70
     1
102
RTVSPropertyOp32
 70
     1
102
RTVSPropertyOp33
 70
     1
102
RTVSPropertyOp34
 70
     1
102
RTVSPropertyOp35
 70
     1
102
RTVSPropertyOp36
 70
     1
102
RTVSPropertyOp37
 70
     1
102
RTVSPropertyOp38
 70
     1
102
RTVSPropertyOp39
 70
     1
102
RTVSPropertyOp40
 70
     1
102
RTVSPropertyOp41
 70
     1
102
RTVSPropertyOp42
 70
     1
102
RTVSPropertyOp43
 70
     1
102
RTVSPropertyOp44
 70
     1
102
RTVSPropertyOp45
 70
     1
102
RTVSPropertyOp46
 70
     1
102
RTVSPropertyOp47
 70
     1
102
RTVSPropertyOp48
 70
     1
102
RTVSPropertyOp49
 70
     1
102
RTVSPropertyOp50
 70
     1
102
RTVSPropertyOp51
 70
     0
102
RTVSPropertyOp52
 70
     0
102
RTVSPropertyOp53
 70
     1
102
RTVSPropertyOp54
 70
     1
102
RTVSPropertyOp55
 70
     1
102
RTVSPropertyOp56
 70
     1
102
RTVSPropertyOp57
 70
     1
102
RTVSPropertyOp58
 70
     1
102
RTVSPropertyOp59
 70
     1
102
RTVSPropertyOp60
 70
     1
102
RTVSPropertyOp61
 70
     1
102
RTVSPropertyOp62
 70
     1
  0
XRECORD
  5
1202B
102
{ACAD_REACTORS
330
1202A
102
}
330
1202A
100
AcDbXrecord
280
     1
102
RTVSPost2010Prop28
280
     0
102
RTVSPost2010PropOp28
 70
     1
102
RTVSPost2010Prop29
280
     1
102
RTVSPost2010PropOp29
 70
     1
102
RTVSPost2010Prop30
280
     1
102
RTVSPost2010PropOp30
 70
     1
102
RTVSPost2010Prop31
280
     0
102
RTVSPost2010PropOp31
 70
     1
102
RTVSPost2010Prop32
280
     0
102
RTVSPost2010PropOp32
 70
     1
102
RTVSPost2010Prop33
280
     0
102
RTVSPost2010PropOp33
 70
     1
102
RTVSPost2010Prop34
280
     0
102
RTVSPost2010PropOp34
 70
     1
102
RTVSPost2010Prop35
280
     0
102
RTVSPost2010PropOp35
 70
     1
102
RTVSPost2010Prop36
280
     0
102
RTVSPost2010PropOp36
 70
     1
102
RTVSPost2010Prop37
 90
       50
102
RTVSPost2010PropOp37
 70
     1
102
RTVSPost2010Prop38
140
0.0
102
RTVSPost2010PropOp38
 70
     1
102
RTVSPost2010Prop39
140
1.0
102
RTVSPost2010PropOp39
 70
     1
102
RTVSPost2010Prop40
 90
        0
102
RTVSPost2010PropOp40
 70
     1
102
RTVSPost2010Prop41ColorIndex
 90
       18
102
RTVSPost2010Prop41ColorRGB
 90
        0
102
RTVSPost2010PropOp41
 70
     1
102
RTVSPost2010Prop42
 90
       50
102
RTVSPost2010PropOp42
 70
     1
102
RTVSPost2010Prop43
 90
        3
102
RTVSPost2010PropOp43
 70
     1
102
RTVSPost2010Prop44ColorIndex
 90
        5
102
RTVSPost2010Prop44ColorRGB
 90
      255
102
RTVSPost2010PropOp44
 70
     1
102
RTVSPost2010Prop45
280
     0
102
RTVSPost2010PropOp45
 70
     1
102
RTVSPost2010Prop46
 90
       50
102
RTVSPost2010PropOp46
 70
     1
102
RTVSPost2010Prop47
 90
       50
102
RTVSPost2010PropOp47
 70
     1
102
RTVSPost2010Prop48
 90
       50
102
RTVSPost2010PropOp48
 70
     1
102
RTVSPost2010Prop49
280
     0
102
RTVSPost2010PropOp49
 70
     1
102
RTVSPost2010Prop50
 90
       50
102
RTVSPost2010PropOp50
 70
     1
102
RTVSPost2010Prop51ColorIndex
 90
      256
102
RTVSPost2010Prop51ColorRGB
 90
-16777216
102
RTVSPost2010PropOp51
 70
     0
102
RTVSPost2010Prop52
140
1.0
102
RTVSPost2010PropOp52
 70
     0
102
RTVSPost2010Prop53
 90
        2
102
RTVSPost2010PropOp53
 70
     1
102
RTVSPost2010Prop54
  1
strokes_ogs.tif
102
RTVSPost2010PropOp54
 70
     1
102
RTVSPost2010Prop55
280
     0
102
RTVSPost2010PropOp55
 70
     1
102
RTVSPost2010Prop56
140
1.0
102
RTVSPost2010PropOp56
 70
     1
102
RTVSPost2010Prop57
140
1.0
102
RTVSPost2010PropOp57
 70
     1
102
RTVSPropertyOp0
 70
     1
102
RTVSPropertyOp1
 70
     1
102
RTVSPropertyOp2
 70
     1
102
RTVSPropertyOp3
 70
     1
102
RTVSPropertyOp4
 70
     1
102
RTVSPropertyOp5
 70
     1
102
RTVSPropertyOp6
 70
     1
102
RTVSPropertyOp7
 70
     1
102
RTVSPropertyOp8
 70
     1
102
RTVSPropertyOp9
 70
     1
102
RTVSPropertyOp10
 70
     1
102
RTVSPropertyOp11
 70
     1
102
RTVSPropertyOp12
 70
     1
102
RTVSPropertyOp13
 70
     1
102
RTVSPropertyOp14
 70
     1
102
RTVSPropertyOp15
 70
     1
102
RTVSPropertyOp16
 70
     1
102
RTVSPropertyOp17
 70
     1
102
RTVSPropertyOp18
 70
     1
102
RTVSPropertyOp19
 70
     1
102
RTVSPropertyOp20
 70
     1
102
RTVSPropertyOp21
 70
     1
102
RTVSPropertyOp22
 70
     1
102
RTVSPropertyOp23
 70
     1
102
RTVSPropertyOp24
 70
     1
102
RTVSPropertyOp25
 70
     1
102
RTVSPropertyOp26
 70
     1
102
RTVSPropertyOp27
 70
     1
102
RTVSPropertyOp28
 70
     1
102
RTVSPropertyOp29
 70
     1
102
RTVSPropertyOp30
 70
     1
102
RTVSPropertyOp31
 70
     1
102
RTVSPropertyOp32
 70
     1
102
RTVSPropertyOp33
 70
     1
102
RTVSPropertyOp34
 70
     1
102
RTVSPropertyOp35
 70
     1
102
RTVSPropertyOp36
 70
     1
102
RTVSPropertyOp37
 70
     1
102
RTVSPropertyOp38
 70
     1
102
RTVSPropertyOp39
 70
     1
102
RTVSPropertyOp40
 70
     1
102
RTVSPropertyOp41
 70
     1
102
RTVSPropertyOp42
 70
     1
102
RTVSPropertyOp43
 70
     1
102
RTVSPropertyOp44
 70
     1
102
RTVSPropertyOp45
 70
     1
102
RTVSPropertyOp46
 70
     1
102
RTVSPropertyOp47
 70
     1
102
RTVSPropertyOp48
 70
     1
102
RTVSPropertyOp49
 70
     1
102
RTVSPropertyOp50
 70
     1
102
RTVSPropertyOp51
 70
     0
102
RTVSPropertyOp52
 70
     0
102
RTVSPropertyOp53
 70
     1
102
RTVSPropertyOp54
 70
     1
102
RTVSPropertyOp55
 70
     1
102
RTVSPropertyOp56
 70
     1
102
RTVSPropertyOp57
 70
     1
102
RTVSPropertyOp58
 70
     1
102
RTVSPropertyOp59
 70
     1
102
RTVSPropertyOp60
 70
     1
102
RTVSPropertyOp61
 70
     1
102
RTVSPropertyOp62
 70
     1
  0
XRECORD
  5
12025
102
{ACAD_REACTORS
330
12024
102
}
330
12024
100
AcDbXrecord
280
     1
102
RTVSPost2010Prop28
280
     0
102
RTVSPost2010PropOp28
 70
     1
102
RTVSPost2010Prop29
280
     1
102
RTVSPost2010PropOp29
 70
     1
102
RTVSPost2010Prop30
280
     1
102
RTVSPost2010PropOp30
 70
     1
102
RTVSPost2010Prop31
280
     0
102
RTVSPost2010PropOp31
 70
     1
102
RTVSPost2010Prop32
280
     0
102
RTVSPost2010PropOp32
 70
     1
102
RTVSPost2010Prop33
280
     0
102
RTVSPost2010PropOp33
 70
     1
102
RTVSPost2010Prop34
280
     0
102
RTVSPost2010PropOp34
 70
     1
102
RTVSPost2010Prop35
280
     0
102
RTVSPost2010PropOp35
 70
     1
102
RTVSPost2010Prop36
280
     0
102
RTVSPost2010PropOp36
 70
     1
102
RTVSPost2010Prop37
 90
       50
102
RTVSPost2010PropOp37
 70
     1
102
RTVSPost2010Prop38
140
0.0
102
RTVSPost2010PropOp38
 70
     1
102
RTVSPost2010Prop39
140
1.0
102
RTVSPost2010PropOp39
 70
     1
102
RTVSPost2010Prop40
 90
        0
102
RTVSPost2010PropOp40
 70
     1
102
RTVSPost2010Prop41ColorIndex
 90
       18
102
RTVSPost2010Prop41ColorRGB
 90
        0
102
RTVSPost2010PropOp41
 70
     1
102
RTVSPost2010Prop42
 90
       50
102
RTVSPost2010PropOp42
 70
     1
102
RTVSPost2010Prop43
 90
        3
102
RTVSPost2010PropOp43
 70
     1
102
RTVSPost2010Prop44ColorIndex
 90
        5
102
RTVSPost2010Prop44ColorRGB
 90
      255
102
RTVSPost2010PropOp44
 70
     1
102
RTVSPost2010Prop45
280
     0
102
RTVSPost2010PropOp45
 70
     1
102
RTVSPost2010Prop46
 90
       50
102
RTVSPost2010PropOp46
 70
     1
102
RTVSPost2010Prop47
 90
       50
102
RTVSPost2010PropOp47
 70
     1
102
RTVSPost2010Prop48
 90
       50
102
RTVSPost2010PropOp48
 70
     1
102
RTVSPost2010Prop49
280
     0
102
RTVSPost2010PropOp49
 70
     1
102
RTVSPost2010Prop50
 90
       50
102
RTVSPost2010PropOp50
 70
     1
102
RTVSPost2010Prop51ColorIndex
 90
      256
102
RTVSPost2010Prop51ColorRGB
 90
-16777216
102
RTVSPost2010PropOp51
 70
     0
102
RTVSPost2010Prop52
140
1.0
102
RTVSPost2010PropOp52
 70
     0
102
RTVSPost2010Prop53
 90
        2
102
RTVSPost2010PropOp53
 70
     1
102
RTVSPost2010Prop54
  1
strokes_ogs.tif
102
RTVSPost2010PropOp54
 70
     1
102
RTVSPost2010Prop55
280
     0
102
RTVSPost2010PropOp55
 70
     1
102
RTVSPost2010Prop56
140
1.0
102
RTVSPost2010PropOp56
 70
     1
102
RTVSPost2010Prop57
140
1.0
102
RTVSPost2010PropOp57
 70
     1
102
RTVSPropertyOp0
 70
     1
102
RTVSPropertyOp1
 70
     1
102
RTVSPropertyOp2
 70
     1
102
RTVSPropertyOp3
 70
     1
102
RTVSPropertyOp4
 70
     1
102
RTVSPropertyOp5
 70
     1
102
RTVSPropertyOp6
 70
     1
102
RTVSPropertyOp7
 70
     1
102
RTVSPropertyOp8
 70
     1
102
RTVSPropertyOp9
 70
     1
102
RTVSPropertyOp10
 70
     1
102
RTVSPropertyOp11
 70
     1
102
RTVSPropertyOp12
 70
     1
102
RTVSPropertyOp13
 70
     1
102
RTVSPropertyOp14
 70
     1
102
RTVSPropertyOp15
 70
     1
102
RTVSPropertyOp16
 70
     1
102
RTVSPropertyOp17
 70
     1
102
RTVSPropertyOp18
 70
     1
102
RTVSPropertyOp19
 70
     1
102
RTVSPropertyOp20
 70
     1
102
RTVSPropertyOp21
 70
     1
102
RTVSPropertyOp22
 70
     1
102
RTVSPropertyOp23
 70
     1
102
RTVSPropertyOp24
 70
     1
102
RTVSPropertyOp25
 70
     1
102
RTVSPropertyOp26
 70
     1
102
RTVSPropertyOp27
 70
     1
102
RTVSPropertyOp28
 70
     1
102
RTVSPropertyOp29
 70
     1
102
RTVSPropertyOp30
 70
     1
102
RTVSPropertyOp31
 70
     1
102
RTVSPropertyOp32
 70
     1
102
RTVSPropertyOp33
 70
     1
102
RTVSPropertyOp34
 70
     1
102
RTVSPropertyOp35
 70
     1
102
RTVSPropertyOp36
 70
     1
102
RTVSPropertyOp37
 70
     1
102
RTVSPropertyOp38
 70
     1
102
RTVSPropertyOp39
 70
     1
102
RTVSPropertyOp40
 70
     1
102
RTVSPropertyOp41
 70
     1
102
RTVSPropertyOp42
 70
     1
102
RTVSPropertyOp43
 70
     1
102
RTVSPropertyOp44
 70
     1
102
RTVSPropertyOp45
 70
     1
102
RTVSPropertyOp46
 70
     1
102
RTVSPropertyOp47
 70
     1
102
RTVSPropertyOp48
 70
     1
102
RTVSPropertyOp49
 70
     1
102
RTVSPropertyOp50
 70
     1
102
RTVSPropertyOp51
 70
     0
102
RTVSPropertyOp52
 70
     0
102
RTVSPropertyOp53
 70
     1
102
RTVSPropertyOp54
 70
     1
102
RTVSPropertyOp55
 70
     1
102
RTVSPropertyOp56
 70
     1
102
RTVSPropertyOp57
 70
     1
102
RTVSPropertyOp58
 70
     1
102
RTVSPropertyOp59
 70
     1
102
RTVSPropertyOp60
 70
     1
102
RTVSPropertyOp61
 70
     1
102
RTVSPropertyOp62
 70
     1
  0
XRECORD
  5
12027
102
{ACAD_REACTORS
330
12026
102
}
330
12026
100
AcDbXrecord
280
     1
102
RTVSPost2010Prop28
280
     0
102
RTVSPost2010PropOp28
 70
     1
102
RTVSPost2010Prop29
280
     1
102
RTVSPost2010PropOp29
 70
     1
102
RTVSPost2010Prop30
280
     1
102
RTVSPost2010PropOp30
 70
     1
102
RTVSPost2010Prop31
280
     0
102
RTVSPost2010PropOp31
 70
     1
102
RTVSPost2010Prop32
280
     0
102
RTVSPost2010PropOp32
 70
     1
102
RTVSPost2010Prop33
280
     0
102
RTVSPost2010PropOp33
 70
     1
102
RTVSPost2010Prop34
280
     0
102
RTVSPost2010PropOp34
 70
     1
102
RTVSPost2010Prop35
280
     0
102
RTVSPost2010PropOp35
 70
     1
102
RTVSPost2010Prop36
280
     0
102
RTVSPost2010PropOp36
 70
     1
102
RTVSPost2010Prop37
 90
       50
102
RTVSPost2010PropOp37
 70
     1
102
RTVSPost2010Prop38
140
0.0
102
RTVSPost2010PropOp38
 70
     1
102
RTVSPost2010Prop39
140
1.0
102
RTVSPost2010PropOp39
 70
     1
102
RTVSPost2010Prop40
 90
        0
102
RTVSPost2010PropOp40
 70
     1
102
RTVSPost2010Prop41ColorIndex
 90
       18
102
RTVSPost2010Prop41ColorRGB
 90
        0
102
RTVSPost2010PropOp41
 70
     1
102
RTVSPost2010Prop42
 90
       50
102
RTVSPost2010PropOp42
 70
     1
102
RTVSPost2010Prop43
 90
        3
102
RTVSPost2010PropOp43
 70
     1
102
RTVSPost2010Prop44ColorIndex
 90
        5
102
RTVSPost2010Prop44ColorRGB
 90
      255
102
RTVSPost2010PropOp44
 70
     1
102
RTVSPost2010Prop45
280
     0
102
RTVSPost2010PropOp45
 70
     1
102
RTVSPost2010Prop46
 90
       50
102
RTVSPost2010PropOp46
 70
     1
102
RTVSPost2010Prop47
 90
       50
102
RTVSPost2010PropOp47
 70
     1
102
RTVSPost2010Prop48
 90
       50
102
RTVSPost2010PropOp48
 70
     1
102
RTVSPost2010Prop49
280
     0
102
RTVSPost2010PropOp49
 70
     1
102
RTVSPost2010Prop50
 90
       50
102
RTVSPost2010PropOp50
 70
     1
102
RTVSPost2010Prop51ColorIndex
 90
      256
102
RTVSPost2010Prop51ColorRGB
 90
-16777216
102
RTVSPost2010PropOp51
 70
     0
102
RTVSPost2010Prop52
140
1.0
102
RTVSPost2010PropOp52
 70
     0
102
RTVSPost2010Prop53
 90
        2
102
RTVSPost2010PropOp53
 70
     1
102
RTVSPost2010Prop54
  1
strokes_ogs.tif
102
RTVSPost2010PropOp54
 70
     1
102
RTVSPost2010Prop55
280
     0
102
RTVSPost2010PropOp55
 70
     1
102
RTVSPost2010Prop56
140
1.0
102
RTVSPost2010PropOp56
 70
     1
102
RTVSPost2010Prop57
140
1.0
102
RTVSPost2010PropOp57
 70
     1
102
RTVSPropertyOp0
 70
     1
102
RTVSPropertyOp1
 70
     1
102
RTVSPropertyOp2
 70
     1
102
RTVSPropertyOp3
 70
     1
102
RTVSPropertyOp4
 70
     1
102
RTVSPropertyOp5
 70
     1
102
RTVSPropertyOp6
 70
     1
102
RTVSPropertyOp7
 70
     1
102
RTVSPropertyOp8
 70
     1
102
RTVSPropertyOp9
 70
     1
102
RTVSPropertyOp10
 70
     1
102
RTVSPropertyOp11
 70
     1
102
RTVSPropertyOp12
 70
     1
102
RTVSPropertyOp13
 70
     1
102
RTVSPropertyOp14
 70
     1
102
RTVSPropertyOp15
 70
     1
102
RTVSPropertyOp16
 70
     1
102
RTVSPropertyOp17
 70
     1
102
RTVSPropertyOp18
 70
     1
102
RTVSPropertyOp19
 70
     1
102
RTVSPropertyOp20
 70
     1
102
RTVSPropertyOp21
 70
     1
102
RTVSPropertyOp22
 70
     1
102
RTVSPropertyOp23
 70
     1
102
RTVSPropertyOp24
 70
     1
102
RTVSPropertyOp25
 70
     1
102
RTVSPropertyOp26
 70
     1
102
RTVSPropertyOp27
 70
     1
102
RTVSPropertyOp28
 70
     1
102
RTVSPropertyOp29
 70
     1
102
RTVSPropertyOp30
 70
     1
102
RTVSPropertyOp31
 70
     1
102
RTVSPropertyOp32
 70
     1
102
RTVSPropertyOp33
 70
     1
102
RTVSPropertyOp34
 70
     1
102
RTVSPropertyOp35
 70
     1
102
RTVSPropertyOp36
 70
     1
102
RTVSPropertyOp37
 70
     1
102
RTVSPropertyOp38
 70
     1
102
RTVSPropertyOp39
 70
     1
102
RTVSPropertyOp40
 70
     1
102
RTVSPropertyOp41
 70
     1
102
RTVSPropertyOp42
 70
     1
102
RTVSPropertyOp43
 70
     1
102
RTVSPropertyOp44
 70
     1
102
RTVSPropertyOp45
 70
     1
102
RTVSPropertyOp46
 70
     1
102
RTVSPropertyOp47
 70
     1
102
RTVSPropertyOp48
 70
     1
102
RTVSPropertyOp49
 70
     1
102
RTVSPropertyOp50
 70
     1
102
RTVSPropertyOp51
 70
     0
102
RTVSPropertyOp52
 70
     0
102
RTVSPropertyOp53
 70
     1
102
RTVSPropertyOp54
 70
     1
102
RTVSPropertyOp55
 70
     1
102
RTVSPropertyOp56
 70
     1
102
RTVSPropertyOp57
 70
     1
102
RTVSPropertyOp58
 70
     1
102
RTVSPropertyOp59
 70
     1
102
RTVSPropertyOp60
 70
     1
102
RTVSPropertyOp61
 70
     1
102
RTVSPropertyOp62
 70
     1
  0
XRECORD
  5
12015
102
{ACAD_REACTORS
330
12014
102
}
330
12014
100
AcDbXrecord
280
     1
102
RTVSPost2010Prop28
280
     0
102
RTVSPost2010PropOp28
 70
     1
102
RTVSPost2010Prop29
280
     1
102
RTVSPost2010PropOp29
 70
     1
102
RTVSPost2010Prop30
280
     1
102
RTVSPost2010PropOp30
 70
     1
102
RTVSPost2010Prop31
280
     0
102
RTVSPost2010PropOp31
 70
     1
102
RTVSPost2010Prop32
280
     0
102
RTVSPost2010PropOp32
 70
     1
102
RTVSPost2010Prop33
280
     0
102
RTVSPost2010PropOp33
 70
     1
102
RTVSPost2010Prop34
280
     0
102
RTVSPost2010PropOp34
 70
     1
102
RTVSPost2010Prop35
280
     0
102
RTVSPost2010PropOp35
 70
     1
102
RTVSPost2010Prop36
280
     0
102
RTVSPost2010PropOp36
 70
     1
102
RTVSPost2010Prop37
 90
       50
102
RTVSPost2010PropOp37
 70
     1
102
RTVSPost2010Prop38
140
0.0
102
RTVSPost2010PropOp38
 70
     1
102
RTVSPost2010Prop39
140
1.0
102
RTVSPost2010PropOp39
 70
     1
102
RTVSPost2010Prop40
 90
        0
102
RTVSPost2010PropOp40
 70
     1
102
RTVSPost2010Prop41ColorIndex
 90
       18
102
RTVSPost2010Prop41ColorRGB
 90
        0
102
RTVSPost2010PropOp41
 70
     1
102
RTVSPost2010Prop42
 90
       50
102
RTVSPost2010PropOp42
 70
     1
102
RTVSPost2010Prop43
 90
        3
102
RTVSPost2010PropOp43
 70
     1
102
RTVSPost2010Prop44ColorIndex
 90
        5
102
RTVSPost2010Prop44ColorRGB
 90
      255
102
RTVSPost2010PropOp44
 70
     1
102
RTVSPost2010Prop45
280
     0
102
RTVSPost2010PropOp45
 70
     1
102
RTVSPost2010Prop46
 90
       50
102
RTVSPost2010PropOp46
 70
     1
102
RTVSPost2010Prop47
 90
       50
102
RTVSPost2010PropOp47
 70
     1
102
RTVSPost2010Prop48
 90
       50
102
RTVSPost2010PropOp48
 70
     1
102
RTVSPost2010Prop49
280
     0
102
RTVSPost2010PropOp49
 70
     1
102
RTVSPost2010Prop50
 90
       50
102
RTVSPost2010PropOp50
 70
     1
102
RTVSPost2010Prop51ColorIndex
 90
      256
102
RTVSPost2010Prop51ColorRGB
 90
-16777216
102
RTVSPost2010PropOp51
 70
     0
102
RTVSPost2010Prop52
140
1.0
102
RTVSPost2010PropOp52
 70
     0
102
RTVSPost2010Prop53
 90
        2
102
RTVSPost2010PropOp53
 70
     1
102
RTVSPost2010Prop54
  1
strokes_ogs.tif
102
RTVSPost2010PropOp54
 70
     1
102
RTVSPost2010Prop55
280
     0
102
RTVSPost2010PropOp55
 70
     1
102
RTVSPost2010Prop56
140
1.0
102
RTVSPost2010PropOp56
 70
     1
102
RTVSPost2010Prop57
140
1.0
102
RTVSPost2010PropOp57
 70
     1
102
RTVSPropertyOp0
 70
     1
102
RTVSPropertyOp1
 70
     1
102
RTVSPropertyOp2
 70
     1
102
RTVSPropertyOp3
 70
     1
102
RTVSPropertyOp4
 70
     1
102
RTVSPropertyOp5
 70
     1
102
RTVSPropertyOp6
 70
     1
102
RTVSPropertyOp7
 70
     1
102
RTVSPropertyOp8
 70
     1
102
RTVSPropertyOp9
 70
     1
102
RTVSPropertyOp10
 70
     1
102
RTVSPropertyOp11
 70
     1
102
RTVSPropertyOp12
 70
     1
102
RTVSPropertyOp13
 70
     1
102
RTVSPropertyOp14
 70
     1
102
RTVSPropertyOp15
 70
     1
102
RTVSPropertyOp16
 70
     1
102
RTVSPropertyOp17
 70
     1
102
RTVSPropertyOp18
 70
     1
102
RTVSPropertyOp19
 70
     1
102
RTVSPropertyOp20
 70
     1
102
RTVSPropertyOp21
 70
     1
102
RTVSPropertyOp22
 70
     1
102
RTVSPropertyOp23
 70
     1
102
RTVSPropertyOp24
 70
     1
102
RTVSPropertyOp25
 70
     1
102
RTVSPropertyOp26
 70
     1
102
RTVSPropertyOp27
 70
     1
102
RTVSPropertyOp28
 70
     1
102
RTVSPropertyOp29
 70
     1
102
RTVSPropertyOp30
 70
     1
102
RTVSPropertyOp31
 70
     1
102
RTVSPropertyOp32
 70
     1
102
RTVSPropertyOp33
 70
     1
102
RTVSPropertyOp34
 70
     1
102
RTVSPropertyOp35
 70
     1
102
RTVSPropertyOp36
 70
     1
102
RTVSPropertyOp37
 70
     1
102
RTVSPropertyOp38
 70
     1
102
RTVSPropertyOp39
 70
     1
102
RTVSPropertyOp40
 70
     1
102
RTVSPropertyOp41
 70
     1
102
RTVSPropertyOp42
 70
     1
102
RTVSPropertyOp43
 70
     1
102
RTVSPropertyOp44
 70
     1
102
RTVSPropertyOp45
 70
     1
102
RTVSPropertyOp46
 70
     1
102
RTVSPropertyOp47
 70
     1
102
RTVSPropertyOp48
 70
     1
102
RTVSPropertyOp49
 70
     1
102
RTVSPropertyOp50
 70
     1
102
RTVSPropertyOp51
 70
     0
102
RTVSPropertyOp52
 70
     0
102
RTVSPropertyOp53
 70
     1
102
RTVSPropertyOp54
 70
     1
102
RTVSPropertyOp55
 70
     1
102
RTVSPropertyOp56
 70
     1
102
RTVSPropertyOp57
 70
     1
102
RTVSPropertyOp58
 70
     1
102
RTVSPropertyOp59
 70
     1
102
RTVSPropertyOp60
 70
     1
102
RTVSPropertyOp61
 70
     1
102
RTVSPropertyOp62
 70
     1
  0
XRECORD
  5
12009
102
{ACAD_REACTORS
330
12008
102
}
330
12008
100
AcDbXrecord
280
     1
102
RTVSPost2010Prop28
280
     0
102
RTVSPost2010PropOp28
 70
     1
102
RTVSPost2010Prop29
280
     1
102
RTVSPost2010PropOp29
 70
     1
102
RTVSPost2010Prop30
280
     1
102
RTVSPost2010PropOp30
 70
     1
102
RTVSPost2010Prop31
280
     0
102
RTVSPost2010PropOp31
 70
     1
102
RTVSPost2010Prop32
280
     0
102
RTVSPost2010PropOp32
 70
     1
102
RTVSPost2010Prop33
280
     0
102
RTVSPost2010PropOp33
 70
     1
102
RTVSPost2010Prop34
280
     0
102
RTVSPost2010PropOp34
 70
     1
102
RTVSPost2010Prop35
280
     0
102
RTVSPost2010PropOp35
 70
     1
102
RTVSPost2010Prop36
280
     0
102
RTVSPost2010PropOp36
 70
     1
102
RTVSPost2010Prop37
 90
       50
102
RTVSPost2010PropOp37
 70
     1
102
RTVSPost2010Prop38
140
0.0
102
RTVSPost2010PropOp38
 70
     1
102
RTVSPost2010Prop39
140
1.0
102
RTVSPost2010PropOp39
 70
     1
102
RTVSPost2010Prop40
 90
        0
102
RTVSPost2010PropOp40
 70
     1
102
RTVSPost2010Prop41ColorIndex
 90
       18
102
RTVSPost2010Prop41ColorRGB
 90
        0
102
RTVSPost2010PropOp41
 70
     1
102
RTVSPost2010Prop42
 90
       50
102
RTVSPost2010PropOp42
 70
     1
102
RTVSPost2010Prop43
 90
        3
102
RTVSPost2010PropOp43
 70
     1
102
RTVSPost2010Prop44ColorIndex
 90
        5
102
RTVSPost2010Prop44ColorRGB
 90
      255
102
RTVSPost2010PropOp44
 70
     1
102
RTVSPost2010Prop45
280
     0
102
RTVSPost2010PropOp45
 70
     1
102
RTVSPost2010Prop46
 90
       50
102
RTVSPost2010PropOp46
 70
     1
102
RTVSPost2010Prop47
 90
       50
102
RTVSPost2010PropOp47
 70
     1
102
RTVSPost2010Prop48
 90
       50
102
RTVSPost2010PropOp48
 70
     1
102
RTVSPost2010Prop49
280
     0
102
RTVSPost2010PropOp49
 70
     1
102
RTVSPost2010Prop50
 90
       50
102
RTVSPost2010PropOp50
 70
     1
102
RTVSPost2010Prop51ColorIndex
 90
      256
102
RTVSPost2010Prop51ColorRGB
 90
-16777216
102
RTVSPost2010PropOp51
 70
     0
102
RTVSPost2010Prop52
140
1.0
102
RTVSPost2010PropOp52
 70
     0
102
RTVSPost2010Prop53
 90
        2
102
RTVSPost2010PropOp53
 70
     1
102
RTVSPost2010Prop54
  1
strokes_ogs.tif
102
RTVSPost2010PropOp54
 70
     1
102
RTVSPost2010Prop55
280
     0
102
RTVSPost2010PropOp55
 70
     1
102
RTVSPost2010Prop56
140
1.0
102
RTVSPost2010PropOp56
 70
     1
102
RTVSPost2010Prop57
140
1.0
102
RTVSPost2010PropOp57
 70
     1
102
RTVSPropertyOp0
 70
     1
102
RTVSPropertyOp1
 70
     1
102
RTVSPropertyOp2
 70
     1
102
RTVSPropertyOp3
 70
     1
102
RTVSPropertyOp4
 70
     1
102
RTVSPropertyOp5
 70
     1
102
RTVSPropertyOp6
 70
     1
102
RTVSPropertyOp7
 70
     1
102
RTVSPropertyOp8
 70
     1
102
RTVSPropertyOp9
 70
     1
102
RTVSPropertyOp10
 70
     1
102
RTVSPropertyOp11
 70
     1
102
RTVSPropertyOp12
 70
     1
102
RTVSPropertyOp13
 70
     1
102
RTVSPropertyOp14
 70
     1
102
RTVSPropertyOp15
 70
     1
102
RTVSPropertyOp16
 70
     1
102
RTVSPropertyOp17
 70
     1
102
RTVSPropertyOp18
 70
     1
102
RTVSPropertyOp19
 70
     1
102
RTVSPropertyOp20
 70
     1
102
RTVSPropertyOp21
 70
     1
102
RTVSPropertyOp22
 70
     1
102
RTVSPropertyOp23
 70
     1
102
RTVSPropertyOp24
 70
     1
102
RTVSPropertyOp25
 70
     1
102
RTVSPropertyOp26
 70
     1
102
RTVSPropertyOp27
 70
     1
102
RTVSPropertyOp28
 70
     1
102
RTVSPropertyOp29
 70
     1
102
RTVSPropertyOp30
 70
     1
102
RTVSPropertyOp31
 70
     1
102
RTVSPropertyOp32
 70
     1
102
RTVSPropertyOp33
 70
     1
102
RTVSPropertyOp34
 70
     1
102
RTVSPropertyOp35
 70
     1
102
RTVSPropertyOp36
 70
     1
102
RTVSPropertyOp37
 70
     1
102
RTVSPropertyOp38
 70
     1
102
RTVSPropertyOp39
 70
     1
102
RTVSPropertyOp40
 70
     1
102
RTVSPropertyOp41
 70
     1
102
RTVSPropertyOp42
 70
     1
102
RTVSPropertyOp43
 70
     1
102
RTVSPropertyOp44
 70
     1
102
RTVSPropertyOp45
 70
     1
102
RTVSPropertyOp46
 70
     1
102
RTVSPropertyOp47
 70
     1
102
RTVSPropertyOp48
 70
     1
102
RTVSPropertyOp49
 70
     1
102
RTVSPropertyOp50
 70
     1
102
RTVSPropertyOp51
 70
     0
102
RTVSPropertyOp52
 70
     0
102
RTVSPropertyOp53
 70
     1
102
RTVSPropertyOp54
 70
     1
102
RTVSPropertyOp55
 70
     1
102
RTVSPropertyOp56
 70
     1
102
RTVSPropertyOp57
 70
     1
102
RTVSPropertyOp58
 70
     1
102
RTVSPropertyOp59
 70
     1
102
RTVSPropertyOp60
 70
     1
102
RTVSPropertyOp61
 70
     1
102
RTVSPropertyOp62
 70
     1
  0
XRECORD
  5
12029
102
{ACAD_REACTORS
330
12028
102
}
330
12028
100
AcDbXrecord
280
     1
102
RTVSPost2010Prop28
280
     0
102
RTVSPost2010PropOp28
 70
     1
102
RTVSPost2010Prop29
280
     1
102
RTVSPost2010PropOp29
 70
     1
102
RTVSPost2010Prop30
280
     1
102
RTVSPost2010PropOp30
 70
     1
102
RTVSPost2010Prop31
280
     0
102
RTVSPost2010PropOp31
 70
     1
102
RTVSPost2010Prop32
280
     0
102
RTVSPost2010PropOp32
 70
     1
102
RTVSPost2010Prop33
280
     0
102
RTVSPost2010PropOp33
 70
     1
102
RTVSPost2010Prop34
280
     0
102
RTVSPost2010PropOp34
 70
     1
102
RTVSPost2010Prop35
280
     0
102
RTVSPost2010PropOp35
 70
     1
102
RTVSPost2010Prop36
280
     0
102
RTVSPost2010PropOp36
 70
     1
102
RTVSPost2010Prop37
 90
       50
102
RTVSPost2010PropOp37
 70
     1
102
RTVSPost2010Prop38
140
0.0
102
RTVSPost2010PropOp38
 70
     1
102
RTVSPost2010Prop39
140
1.0
102
RTVSPost2010PropOp39
 70
     1
102
RTVSPost2010Prop40
 90
        0
102
RTVSPost2010PropOp40
 70
     1
102
RTVSPost2010Prop41ColorIndex
 90
       18
102
RTVSPost2010Prop41ColorRGB
 90
        0
102
RTVSPost2010PropOp41
 70
     1
102
RTVSPost2010Prop42
 90
       50
102
RTVSPost2010PropOp42
 70
     1
102
RTVSPost2010Prop43
 90
        3
102
RTVSPost2010PropOp43
 70
     1
102
RTVSPost2010Prop44ColorIndex
 90
        5
102
RTVSPost2010Prop44ColorRGB
 90
      255
102
RTVSPost2010PropOp44
 70
     1
102
RTVSPost2010Prop45
280
     0
102
RTVSPost2010PropOp45
 70
     1
102
RTVSPost2010Prop46
 90
       50
102
RTVSPost2010PropOp46
 70
     1
102
RTVSPost2010Prop47
 90
       50
102
RTVSPost2010PropOp47
 70
     1
102
RTVSPost2010Prop48
 90
       50
102
RTVSPost2010PropOp48
 70
     1
102
RTVSPost2010Prop49
280
     0
102
RTVSPost2010PropOp49
 70
     1
102
RTVSPost2010Prop50
 90
       50
102
RTVSPost2010PropOp50
 70
     1
102
RTVSPost2010Prop51ColorIndex
 90
      256
102
RTVSPost2010Prop51ColorRGB
 90
-16777216
102
RTVSPost2010PropOp51
 70
     0
102
RTVSPost2010Prop52
140
1.0
102
RTVSPost2010PropOp52
 70
     0
102
RTVSPost2010Prop53
 90
        2
102
RTVSPost2010PropOp53
 70
     1
102
RTVSPost2010Prop54
  1
strokes_ogs.tif
102
RTVSPost2010PropOp54
 70
     1
102
RTVSPost2010Prop55
280
     0
102
RTVSPost2010PropOp55
 70
     1
102
RTVSPost2010Prop56
140
1.0
102
RTVSPost2010PropOp56
 70
     1
102
RTVSPost2010Prop57
140
1.0
102
RTVSPost2010PropOp57
 70
     1
102
RTVSPropertyOp0
 70
     1
102
RTVSPropertyOp1
 70
     1
102
RTVSPropertyOp2
 70
     1
102
RTVSPropertyOp3
 70
     1
102
RTVSPropertyOp4
 70
     1
102
RTVSPropertyOp5
 70
     1
102
RTVSPropertyOp6
 70
     1
102
RTVSPropertyOp7
 70
     1
102
RTVSPropertyOp8
 70
     1
102
RTVSPropertyOp9
 70
     1
102
RTVSPropertyOp10
 70
     1
102
RTVSPropertyOp11
 70
     1
102
RTVSPropertyOp12
 70
     1
102
RTVSPropertyOp13
 70
     1
102
RTVSPropertyOp14
 70
     1
102
RTVSPropertyOp15
 70
     1
102
RTVSPropertyOp16
 70
     1
102
RTVSPropertyOp17
 70
     1
102
RTVSPropertyOp18
 70
     1
102
RTVSPropertyOp19
 70
     1
102
RTVSPropertyOp20
 70
     1
102
RTVSPropertyOp21
 70
     1
102
RTVSPropertyOp22
 70
     1
102
RTVSPropertyOp23
 70
     1
102
RTVSPropertyOp24
 70
     1
102
RTVSPropertyOp25
 70
     1
102
RTVSPropertyOp26
 70
     1
102
RTVSPropertyOp27
 70
     1
102
RTVSPropertyOp28
 70
     1
102
RTVSPropertyOp29
 70
     1
102
RTVSPropertyOp30
 70
     1
102
RTVSPropertyOp31
 70
     1
102
RTVSPropertyOp32
 70
     1
102
RTVSPropertyOp33
 70
     1
102
RTVSPropertyOp34
 70
     1
102
RTVSPropertyOp35
 70
     1
102
RTVSPropertyOp36
 70
     1
102
RTVSPropertyOp37
 70
     1
102
RTVSPropertyOp38
 70
     1
102
RTVSPropertyOp39
 70
     1
102
RTVSPropertyOp40
 70
     1
102
RTVSPropertyOp41
 70
     1
102
RTVSPropertyOp42
 70
     1
102
RTVSPropertyOp43
 70
     1
102
RTVSPropertyOp44
 70
     1
102
RTVSPropertyOp45
 70
     1
102
RTVSPropertyOp46
 70
     1
102
RTVSPropertyOp47
 70
     1
102
RTVSPropertyOp48
 70
     1
102
RTVSPropertyOp49
 70
     1
102
RTVSPropertyOp50
 70
     1
102
RTVSPropertyOp51
 70
     0
102
RTVSPropertyOp52
 70
     0
102
RTVSPropertyOp53
 70
     1
102
RTVSPropertyOp54
 70
     1
102
RTVSPropertyOp55
 70
     1
102
RTVSPropertyOp56
 70
     1
102
RTVSPropertyOp57
 70
     1
102
RTVSPropertyOp58
 70
     1
102
RTVSPropertyOp59
 70
     1
102
RTVSPropertyOp60
 70
     1
102
RTVSPropertyOp61
 70
     1
102
RTVSPropertyOp62
 70
     1
  0
ENDSEC
  0
EOF
