  0
SECTION
  2
HEADER
  9
$ACADVER
  1
AC1015
  9
$ACADMAINTVER
 70
    18
  9
$DWGCODEPAGE
  3
ANSI_1252
  9
$INSBASE
 10
0.0
 20
0.0
 30
0.0
  9
$EXTMIN
 10
-283.4371941762944
 20
-553.4851684098657
 30
-0.0015258207003583
  9
$EXTMAX
 10
347.1139535297571
 20
541.5709085689984
 30
0.0000000349246037
  9
$LIMMIN
 10
0.0
 20
0.0
  9
$LIMMAX
 10
420.0
 20
297.0
  9
$ORTHOMODE
 70
     0
  9
$REGENMODE
 70
     1
  9
$FILLMODE
 70
     1
  9
$QTEXTMODE
 70
     0
  9
$MIRRTEXT
 70
     0
  9
$LTSCALE
 40
1.0
  9
$ATTMODE
 70
     1
  9
$TEXTSIZE
 40
2.5
  9
$TRACEWID
 40
1.0
  9
$TEXTSTYLE
  7
Standard
  9
$CLAYER
  8
0
  9
$CELTYPE
  6
ByLayer
  9
$CECOLOR
 62
   256
  9
$CELTSCALE
 40
1.0
  9
$DISPSILH
 70
     0
  9
$DIMSCALE
 40
1.0
  9
$DIMASZ
 40
2.5
  9
$DIMEXO
 40
0.625
  9
$DIMDLI
 40
3.75
  9
$DIMRND
 40
0.0
  9
$DIMDLE
 40
0.0
  9
$DIMEXE
 40
1.25
  9
$DIMTP
 40
0.0
  9
$DIMTM
 40
0.0
  9
$DIMTXT
 40
2.5
  9
$DIMCEN
 40
2.5
  9
$DIMTSZ
 40
0.0
  9
$DIMTOL
 70
     0
  9
$DIMLIM
 70
     0
  9
$DIMTIH
 70
     0
  9
$DIMTOH
 70
     0
  9
$DIMSE1
 70
     0
  9
$DIMSE2
 70
     0
  9
$DIMTAD
 70
     1
  9
$DIMZIN
 70
     8
  9
$DIMBLK
  1

  9
$DIMASO
 70
     1
  9
$DIMSHO
 70
     1
  9
$DIMPOST
  1

  9
$DIMAPOST
  1

  9
$DIMALT
 70
     0
  9
$DIMALTD
 70
     3
  9
$DIMALTF
 40
0.03937007874016
  9
$DIMLFAC
 40
1.0
  9
$DIMTOFL
 70
     1
  9
$DIMTVP
 40
0.0
  9
$DIMTIX
 70
     0
  9
$DIMSOXD
 70
     0
  9
$DIMSAH
 70
     0
  9
$DIMBLK1
  1

  9
$DIMBLK2
  1

  9
$DIMSTYLE
  2
ISO-25
  9
$DIMCLRD
 70
     0
  9
$DIMCLRE
 70
     0
  9
$DIMCLRT
 70
     0
  9
$DIMTFAC
 40
1.0
  9
$DIMGAP
 40
0.625
  9
$DIMJUST
 70
     0
  9
$DIMSD1
 70
     0
  9
$DIMSD2
 70
     0
  9
$DIMTOLJ
 70
     0
  9
$DIMTZIN
 70
     8
  9
$DIMALTZ
 70
     0
  9
$DIMALTTZ
 70
     0
  9
$DIMUPT
 70
     0
  9
$DIMDEC
 70
     2
  9
$DIMTDEC
 70
     2
  9
$DIMALTU
 70
     2
  9
$DIMALTTD
 70
     3
  9
$DIMTXSTY
  7
Standard
  9
$DIMAUNIT
 70
     0
  9
$DIMADEC
 70
     0
  9
$DIMALTRND
 40
0.0
  9
$DIMAZIN
 70
     0
  9
$DIMDSEP
 70
    44
  9
$DIMATFIT
 70
     3
  9
$DIMFRAC
 70
     0
  9
$DIMLDRBLK
  1

  9
$DIMLUNIT
 70
     2
  9
$DIMLWD
 70
    -2
  9
$DIMLWE
 70
    -2
  9
$DIMTMOVE
 70
     0
  9
$LUNITS
 70
     2
  9
$LUPREC
 70
     4
  9
$SKETCHINC
 40
1.0
  9
$FILLETRAD
 40
0.0
  9
$AUNITS
 70
     0
  9
$AUPREC
 70
     0
  9
$MENU
  1
.
  9
$ELEVATION
 40
0.0
  9
$PELEVATION
 40
0.0
  9
$THICKNESS
 40
0.0
  9
$LIMCHECK
 70
     0
  9
$CHAMFERA
 40
0.0
  9
$CHAMFERB
 40
0.0
  9
$CHAMFERC
 40
0.0
  9
$CHAMFERD
 40
0.0
  9
$SKPOLY
 70
     0
  9
$TDCREATE
 40
2460719.406504630
  9
$TDUCREATE
 40
2460719.114837963
  9
$TDUPDATE
 40
2460719.415937500
  9
$TDUUPDATE
 40
2460719.124270834
  9
$TDINDWG
 40
0.0027199074
  9
$TDUSRTIMER
 40
0.0027199074
  9
$USRTIMER
 70
     1
  9
$ANGBASE
 50
0.0
  9
$ANGDIR
 70
     0
  9
$PDMODE
 70
     0
  9
$PDSIZE
 40
0.0
  9
$PLINEWID
 40
0.0
  9
$SPLFRAME
 70
     0
  9
$SPLINETYPE
 70
     6
  9
$SPLINESEGS
 70
     8
  9
$HANDSEED
  5
11C91
  9
$SURFTAB1
 70
     6
  9
$SURFTAB2
 70
     6
  9
$SURFTYPE
 70
     6
  9
$SURFU
 70
     6
  9
$SURFV
 70
     6
  9
$UCSBASE
  2

  9
$UCSNAME
  2

  9
$UCSORG
 10
0.0
 20
0.0
 30
0.0
  9
$UCSXDIR
 10
1.0
 20
0.0
 30
0.0
  9
$UCSYDIR
 10
0.0
 20
1.0
 30
0.0
  9
$UCSORTHOREF
  2

  9
$UCSORTHOVIEW
 70
     0
  9
$UCSORGTOP
 10
0.0
 20
0.0
 30
0.0
  9
$UCSORGBOTTOM
 10
0.0
 20
0.0
 30
0.0
  9
$UCSORGLEFT
 10
0.0
 20
0.0
 30
0.0
  9
$UCSORGRIGHT
 10
0.0
 20
0.0
 30
0.0
  9
$UCSORGFRONT
 10
0.0
 20
0.0
 30
0.0
  9
$UCSORGBACK
 10
0.0
 20
0.0
 30
0.0
  9
$PUCSBASE
  2

  9
$PUCSNAME
  2

  9
$PUCSORG
 10
0.0
 20
0.0
 30
0.0
  9
$PUCSXDIR
 10
1.0
 20
0.0
 30
0.0
  9
$PUCSYDIR
 10
0.0
 20
1.0
 30
0.0
  9
$PUCSORTHOREF
  2

  9
$PUCSORTHOVIEW
 70
     0
  9
$PUCSORGTOP
 10
0.0
 20
0.0
 30
0.0
  9
$PUCSORGBOTTOM
 10
0.0
 20
0.0
 30
0.0
  9
$PUCSORGLEFT
 10
0.0
 20
0.0
 30
0.0
  9
$PUCSORGRIGHT
 10
0.0
 20
0.0
 30
0.0
  9
$PUCSORGFRONT
 10
0.0
 20
0.0
 30
0.0
  9
$PUCSORGBACK
 10
0.0
 20
0.0
 30
0.0
  9
$USERI1
 70
     0
  9
$USERI2
 70
     0
  9
$USERI3
 70
     0
  9
$USERI4
 70
     0
  9
$USERI5
 70
     0
  9
$USERR1
 40
0.0
  9
$USERR2
 40
0.0
  9
$USERR3
 40
0.0
  9
$USERR4
 40
0.0
  9
$USERR5
 40
0.0
  9
$WORLDVIEW
 70
     1
  9
$SHADEDGE
 70
     3
  9
$SHADEDIF
 70
    70
  9
$TILEMODE
 70
     1
  9
$MAXACTVP
 70
    48
  9
$PINSBASE
 10
0.0
 20
0.0
 30
0.0
  9
$PLIMCHECK
 70
     0
  9
$PEXTMIN
 10
0.0
 20
0.0
 30
0.0
  9
$PEXTMAX
 10
0.0
 20
0.0
 30
0.0
  9
$PLIMMIN
 10
0.0
 20
0.0
  9
$PLIMMAX
 10
12.0
 20
9.0
  9
$UNITMODE
 70
     0
  9
$VISRETAIN
 70
     1
  9
$PLINEGEN
 70
     0
  9
$PSLTSCALE
 70
     1
  9
$TREEDEPTH
 70
  3020
  9
$CMLSTYLE
  2
Standard
  9
$CMLJUST
 70
     0
  9
$CMLSCALE
 40
20.0
  9
$PROXYGRAPHICS
 70
     1
  9
$MEASUREMENT
 70
     1
  9
$CELWEIGHT
370
    -1
  9
$ENDCAPS
280
     0
  9
$JOINSTYLE
280
     0
  9
$LWDISPLAY
290
     0
  9
$INSUNITS
 70
     4
  9
$HYPERLINKBASE
  1

  9
$STYLESHEET
  1

  9
$XEDIT
290
     1
  9
$CEPSNTYPE
380
     0
  9
$PSTYLEMODE
290
     1
  9
$FINGERPRINTGUID
  2
{375C693C-302E-BC42-B92A-19F6C371B7B0}
  9
$VERSIONGUID
  2
{D06AA295-8E98-1D4A-9F0C-018A0D57BE63}
  9
$EXTNAMES
290
     1
  9
$PSVPSCALE
 40
0.0
  9
$OLESTARTUP
290
     0
  0
ENDSEC
  0
SECTION
  2
CLASSES
  0
CLASS
  1
ACDBDICTIONARYWDFLT
  2
AcDbDictionaryWithDefault
  3
ObjectDBX Classes
 90
        0
280
     0
281
     0
  0
CLASS
  1
ACDBPLACEHOLDER
  2
AcDbPlaceHolder
  3
ObjectDBX Classes
 90
        0
280
     0
281
     0
  0
CLASS
  1
LAYOUT
  2
AcDbLayout
  3
ObjectDBX Classes
 90
        0
280
     0
281
     0
  0
CLASS
  1
DICTIONARYVAR
  2
AcDbDictionaryVar
  3
ObjectDBX Classes
 90
        0
280
     0
281
     0
  0
CLASS
  1
TABLESTYLE
  2
AcDbTableStyle
  3
ObjectDBX Classes
 90
     4095
280
     0
281
     0
  0
CLASS
  1
MATERIAL
  2
AcDbMaterial
  3
ObjectDBX Classes
 90
     1153
280
     0
281
     0
  0
CLASS
  1
VISUALSTYLE
  2
AcDbVisualStyle
  3
ObjectDBX Classes
 90
     4095
280
     0
281
     0
  0
CLASS
  1
SCALE
  2
AcDbScale
  3
ObjectDBX Classes
 90
     1153
280
     0
281
     0
  0
CLASS
  1
MLEADERSTYLE
  2
AcDbMLeaderStyle
  3
ACDB_MLEADERSTYLE_CLASS
 90
     4095
280
     0
281
     0
  0
CLASS
  1
CELLSTYLEMAP
  2
AcDbCellStyleMap
  3
ObjectDBX Classes
 90
     1152
280
     0
281
     0
  0
CLASS
  1
EXACXREFPANELOBJECT
  2
ExAcXREFPanelObject
  3
EXAC_ESW
 90
    33793
280
     0
281
     0
  0
CLASS
  1
NPOCOLLECTION
  2
AcDbImpNonPersistentObjectsCollection
  3
ObjectDBX Classes
 90
    33921
280
     0
281
     0
  0
CLASS
  1
LAYER_INDEX
  2
AcDbLayerIndex
  3
ObjectDBX Classes
 90
    32768
280
     0
281
     0
  0
CLASS
  1
SPATIAL_INDEX
  2
AcDbSpatialIndex
  3
ObjectDBX Classes
 90
    32768
280
     0
281
     0
  0
CLASS
  1
IDBUFFER
  2
AcDbIdBuffer
  3
ObjectDBX Classes
 90
    32768
280
     0
281
     0
  0
CLASS
  1
ACDBSECTIONVIEWSTYLE
  2
AcDbSectionViewStyle
  3
ObjectDBX Classes
 90
     1025
280
     0
281
     0
  0
CLASS
  1
ACDBDETAILVIEWSTYLE
  2
AcDbDetailViewStyle
  3
ObjectDBX Classes
 90
     1025
280
     0
281
     0
  0
CLASS
  1
XRECORD
  2
AcDbXrecord
  3
ObjectDBX Classes
 90
        0
280
     0
281
     0
  0
ENDSEC
  0
SECTION
  2
TABLES
  0
TABLE
  2
VPORT
  5
8
102
{ACAD_XDICTIONARY
360
11B9F
102
}
330
0
100
AcDbSymbolTable
 70
     1
  0
VPORT
  5
EA
330
8
100
AcDbSymbolTableRecord
100
AcDbViewportTableRecord
  2
*Active
 70
     0
 10
0.0
 20
0.0
 11
1.0
 21
1.0
 12
31.83837967673134
 22
-5.957129920433658
 13
0.0
 23
0.0
 14
10.0
 24
10.0
 15
10.0
 25
10.0
 16
0.0
 26
0.0
 36
1.0
 17
0.0
 27
0.0
 37
0.0
 40
1164.492900254154
 41
0.9846153846153848
 42
50.0
 43
0.0
 44
0.0
 50
0.0
 51
0.0
 71
     0
 72
  1000
 73
     1
 74
     3
 75
     0
 76
     1
 77
     0
 78
     0
281
     0
 65
     1
110
0.0
120
0.0
130
0.0
111
1.0
121
0.0
131
0.0
112
0.0
122
1.0
132
0.0
 79
     0
146
0.0
1001
ACAD_NAV_VCDISPLAY
1070
     3
  0
ENDTAB
  0
TABLE
  2
LTYPE
  5
5
330
0
100
AcDbSymbolTable
 70
     1
  0
LTYPE
  5
14
330
5
100
AcDbSymbolTableRecord
100
AcDbLinetypeTableRecord
  2
ByBlock
 70
     0
  3

 72
    65
 73
     0
 40
0.0
  0
LTYPE
  5
15
330
5
100
AcDbSymbolTableRecord
100
AcDbLinetypeTableRecord
  2
ByLayer
 70
     0
  3

 72
    65
 73
     0
 40
0.0
  0
LTYPE
  5
16
330
5
100
AcDbSymbolTableRecord
100
AcDbLinetypeTableRecord
  2
Continuous
 70
     0
  3
Solid line
 72
    65
 73
     0
 40
0.0
  0
ENDTAB
  0
TABLE
  2
LAYER
  5
2
102
{ACAD_XDICTIONARY
360
1FF
102
}
330
0
100
AcDbSymbolTable
 70
     1
  0
LAYER
  5
10
102
{ACAD_XDICTIONARY
360
13C
102
}
330
2
100
AcDbSymbolTableRecord
100
AcDbLayerTableRecord
  2
0
 70
     0
 62
     7
  6
Continuous
370
    -3
390
F
  0
ENDTAB
  0
TABLE
  2
STYLE
  5
3
330
0
100
AcDbSymbolTable
 70
     1
  0
STYLE
  5
11
330
3
100
AcDbSymbolTableRecord
100
AcDbTextStyleTableRecord
  2
Standard
 70
     0
 40
0.0
 41
1.0
 50
0.0
 71
     0
 42
2.5
  3
arial.ttf
  4

1001
ACAD
1000
Arial
1071
       34
  0
ENDTAB
  0
TABLE
  2
VIEW
  5
6
330
0
100
AcDbSymbolTable
 70
     0
  0
ENDTAB
  0
TABLE
  2
UCS
  5
7
330
0
100
AcDbSymbolTable
 70
     0
  0
ENDTAB
  0
TABLE
  2
APPID
  5
9
330
0
100
AcDbSymbolTable
 70
     8
  0
APPID
  5
12
330
9
100
AcDbSymbolTableRecord
100
AcDbRegAppTableRecord
  2
ACAD
 70
     0
  0
APPID
  5
9E
330
9
100
AcDbSymbolTableRecord
100
AcDbRegAppTableRecord
  2
ACAD_PSEXT
 70
     0
  0
APPID
  5
133
330
9
100
AcDbSymbolTableRecord
100
AcDbRegAppTableRecord
  2
AcadAnnoPO
 70
     0
  0
APPID
  5
134
330
9
100
AcDbSymbolTableRecord
100
AcDbRegAppTableRecord
  2
AcadAnnotative
 70
     0
  0
APPID
  5
135
330
9
100
AcDbSymbolTableRecord
100
AcDbRegAppTableRecord
  2
ACAD_DSTYLE_DIMJAG
 70
     0
  0
APPID
  5
136
330
9
100
AcDbSymbolTableRecord
100
AcDbRegAppTableRecord
  2
ACAD_DSTYLE_DIMTALN
 70
     0
  0
APPID
  5
165
330
9
100
AcDbSymbolTableRecord
100
AcDbRegAppTableRecord
  2
ACAD_MLEADERVER
 70
     0
  0
APPID
  5
217
330
9
100
AcDbSymbolTableRecord
100
AcDbRegAppTableRecord
  2
ACAD_NAV_VCDISPLAY
 70
     0
  0
ENDTAB
  0
TABLE
  2
DIMSTYLE
  5
A
330
0
100
AcDbSymbolTable
 70
     1
100
AcDbDimStyleTable
 71
     0
  0
DIMSTYLE
105
27
330
A
100
AcDbSymbolTableRecord
100
AcDbDimStyleTableRecord
  2
ISO-25
 70
     0
 41
2.5
 42
0.625
 43
3.75
 44
1.25
 73
     0
 74
     0
 77
     1
 78
     8
140
2.5
141
2.5
143
0.03937007874016
147
0.625
171
     3
172
     1
271
     2
272
     2
274
     3
278
    44
283
     0
284
     8
340
11
  0
ENDTAB
  0
TABLE
  2
BLOCK_RECORD
  5
1
330
0
100
AcDbSymbolTable
 70
     7
  0
BLOCK_RECORD
  5
1F
102
{ACAD_XDICTIONARY
360
1CE
102
}
330
1
100
AcDbSymbolTableRecord
100
AcDbBlockTableRecord
  2
*Model_Space
340
22
  0
BLOCK_RECORD
  5
D2
102
{ACAD_XDICTIONARY
360
11B52
102
}
330
1
100
AcDbSymbolTableRecord
100
AcDbBlockTableRecord
  2
*Paper_Space
340
D3
  0
BLOCK_RECORD
  5
D6
102
{ACAD_XDICTIONARY
360
11B54
102
}
330
1
100
AcDbSymbolTableRecord
100
AcDbBlockTableRecord
  2
*Paper_Space0
340
D7
  0
BLOCK_RECORD
  5
11869
330
1
100
AcDbSymbolTableRecord
100
AcDbBlockTableRecord
  2
SPR80_340-Front
340
0
102
{BLKREFS
331
11B48
102
}
  0
BLOCK_RECORD
  5
118EF
330
1
100
AcDbSymbolTableRecord
100
AcDbBlockTableRecord
  2
SPR80_340-Left
340
0
102
{BLKREFS
331
11B49
102
}
  0
BLOCK_RECORD
  5
11932
330
1
100
AcDbSymbolTableRecord
100
AcDbBlockTableRecord
  2
SPR80_340-Right
340
0
102
{BLKREFS
331
11B4A
102
}
  0
BLOCK_RECORD
  5
11977
330
1
100
AcDbSymbolTableRecord
100
AcDbBlockTableRecord
  2
SPR80_340-Top
340
0
102
{BLKREFS
331
11B4B
102
}
  0
BLOCK_RECORD
  5
119D3
330
1
100
AcDbSymbolTableRecord
100
AcDbBlockTableRecord
  2
SPR80_340-Bottom
340
0
102
{BLKREFS
331
11B4C
102
}
  0
BLOCK_RECORD
  5
11A23
330
1
100
AcDbSymbolTableRecord
100
AcDbBlockTableRecord
  2
SPR80_340-ISO
340
0
102
{BLKREFS
331
11B4D
102
}
  0
ENDTAB
  0
ENDSEC
  0
SECTION
  2
BLOCKS
  0
BLOCK
  5
20
330
1F
100
AcDbEntity
  8
0
100
AcDbBlockBegin
  2
*Model_Space
 70
     0
 10
0.0
 20
0.0
 30
0.0
  3
*Model_Space
  1

  0
ENDBLK
  5
21
330
1F
100
AcDbEntity
  8
0
100
AcDbBlockEnd
  0
BLOCK
  5
D4
330
D2
100
AcDbEntity
 67
     1
  8
0
100
AcDbBlockBegin
  2
*Paper_Space
 70
     0
 10
0.0
 20
0.0
 30
0.0
  3
*Paper_Space
  1

  0
ENDBLK
  5
D5
330
D2
100
AcDbEntity
 67
     1
  8
0
100
AcDbBlockEnd
  0
BLOCK
  5
D8
330
D6
100
AcDbEntity
 67
     1
  8
0
100
AcDbBlockBegin
  2
*Paper_Space0
 70
     0
 10
0.0
 20
0.0
 30
0.0
  3
*Paper_Space0
  1

  0
ENDBLK
  5
D9
330
D6
100
AcDbEntity
 67
     1
  8
0
100
AcDbBlockEnd
  0
BLOCK
  5
1186A
330
11869
100
AcDbEntity
  8
0
100
AcDbBlockBegin
  2
SPR80_340-Front
 70
     0
 10
0.0
 20
0.0
 30
0.0
  3
SPR80_340-Front
  1

  0
LINE
  5
1186C
330
11869
100
AcDbEntity
  8
0
100
AcDbLine
 10
82.527090561
 20
6.269999999999996
 30
0.0
 11
77.52709056100001
 21
1.269999999999996
 31
0.0
  0
LINE
  5
1186D
330
11869
100
AcDbEntity
  8
0
100
AcDbLine
 10
-77.52709056100004
 20
1.269999999999996
 30
0.0
 11
-82.52709056100004
 21
6.269999999999997
 31
0.0
  0
LINE
  5
1186E
330
11869
100
AcDbEntity
  8
0
100
AcDbLine
 10
-82.52709056100004
 20
72.27
 30
0.0
 11
-77.52709056100001
 21
77.27
 31
0.0
  0
LINE
  5
1186F
330
11869
100
AcDbEntity
  8
0
100
AcDbLine
 10
77.52709056099998
 20
77.27000000000001
 30
0.0
 11
82.52709056099996
 21
72.27000000000001
 31
0.0
  0
LINE
  5
11870
330
11869
100
AcDbEntity
  8
0
100
AcDbLine
 10
82.52709056099996
 20
72.27000000000001
 30
0.0
 11
82.527090561
 21
6.269999999999997
 31
0.0
  0
LINE
  5
11871
330
11869
100
AcDbEntity
  8
0
100
AcDbLine
 10
-82.52709056100004
 20
6.269999999999997
 30
0.0
 11
-82.52709056100004
 21
72.27
 31
0.0
  0
LINE
  5
11872
330
11869
100
AcDbEntity
  8
0
100
AcDbLine
 10
36.5
 20
77.27000000000001
 30
0.0
 11
77.52709056099999
 21
77.27000000000001
 31
0.0
  0
LINE
  5
11873
330
11869
100
AcDbEntity
  8
0
100
AcDbLine
 10
-36.50000000000001
 20
1.270000000000022
 30
0.0
 11
-77.52709056100002
 21
1.269999999999996
 31
0.0
  0
LINE
  5
11874
330
11869
100
AcDbEntity
  8
0
100
AcDbLine
 10
77.52709056100001
 20
1.269999999999996
 30
0.0
 11
36.49999999999999
 21
1.270000000000022
 31
0.0
  0
ARC
  5
11875
330
11869
100
AcDbEntity
  8
0
100
AcDbCircle
 10
36.49999999999998
 20
78.77000000000001
 30
0.0
 40
1.5
100
AcDbArc
 50
90.00000000000067
 51
270.0000000000007
  0
LINE
  5
11876
330
11869
100
AcDbEntity
  8
0
100
AcDbLine
 10
-77.52709056100001
 20
77.27
 30
0.0
 11
-36.50000000000002
 21
77.27
 31
0.0
  0
ARC
  5
11877
330
11869
100
AcDbEntity
  8
0
100
AcDbCircle
 10
-36.50000000000002
 20
78.76999999999999
 30
0.0
 40
1.5
100
AcDbArc
 50
270.0
 51
90.0
  0
LINE
  5
11878
330
11869
100
AcDbEntity
  8
0
100
AcDbLine
 10
41.50000000000021
 20
80.27000000000001
 30
0.0
 11
41.50000000000026
 21
85.27000000000001
 31
0.0
  0
LINE
  5
11879
330
11869
100
AcDbEntity
  8
0
100
AcDbLine
 10
41.50000000000026
 20
85.27000000000001
 30
0.0
 11
40.00000000000024
 21
85.27000000000001
 31
0.0
  0
LINE
  5
1187A
330
11869
100
AcDbEntity
  8
0
100
AcDbLine
 10
40.00000000000024
 20
85.27000000000001
 30
0.0
 11
40.00000000000021
 21
80.27000000000001
 31
0.0
  0
LINE
  5
1187B
330
11869
100
AcDbEntity
  8
0
100
AcDbLine
 10
40.00000000000021
 20
80.27000000000001
 30
0.0
 11
41.50000000000021
 21
80.27000000000001
 31
0.0
  0
LINE
  5
1187C
330
11869
100
AcDbEntity
  8
0
100
AcDbLine
 10
40.00000000000024
 20
335.67
 30
0.0
 11
41.50000000000026
 21
335.67
 31
0.0
  0
LINE
  5
1187D
330
11869
100
AcDbEntity
  8
0
100
AcDbLine
 10
41.50000000000026
 20
335.67
 30
0.0
 11
41.50000000000021
 21
340.67
 31
0.0
  0
LINE
  5
1187E
330
11869
100
AcDbEntity
  8
0
100
AcDbLine
 10
-41.5
 20
85.27000000000001
 30
0.0
 11
-41.5
 21
80.27000000000001
 31
0.0
  0
LINE
  5
1187F
330
11869
100
AcDbEntity
  8
0
100
AcDbLine
 10
-41.5
 20
80.27000000000001
 30
0.0
 11
-40.0
 21
80.27000000000001
 31
0.0
  0
LINE
  5
11880
330
11869
100
AcDbEntity
  8
0
100
AcDbLine
 10
-40.0
 20
80.27000000000001
 30
0.0
 11
-40.0
 21
85.27000000000001
 31
0.0
  0
LINE
  5
11881
330
11869
100
AcDbEntity
  8
0
100
AcDbLine
 10
-40.0
 20
85.27000000000001
 30
0.0
 11
-41.5
 21
85.27000000000001
 31
0.0
  0
LINE
  5
11882
330
11869
100
AcDbEntity
  8
0
100
AcDbLine
 10
-41.5
 20
340.67
 30
0.0
 11
-41.5
 21
335.67
 31
0.0
  0
LINE
  5
11883
330
11869
100
AcDbEntity
  8
0
100
AcDbLine
 10
-41.5
 20
335.67
 30
0.0
 11
-40.0
 21
335.67
 31
0.0
  0
LINE
  5
11884
330
11869
100
AcDbEntity
  8
0
100
AcDbLine
 10
41.50000000000021
 20
340.67
 30
0.0
 11
40.00000000000021
 21
340.67
 31
0.0
  0
LINE
  5
11885
330
11869
100
AcDbEntity
  8
0
100
AcDbLine
 10
40.00000000000021
 20
340.67
 30
0.0
 11
40.00000000000024
 21
335.67
 31
0.0
  0
LINE
  5
11886
330
11869
100
AcDbEntity
  8
0
100
AcDbLine
 10
-40.0
 20
335.67
 30
0.0
 11
-40.0
 21
340.67
 31
0.0
  0
LINE
  5
11887
330
11869
100
AcDbEntity
  8
0
100
AcDbLine
 10
-40.0
 20
340.67
 30
0.0
 11
-41.5
 21
340.67
 31
0.0
  0
LINE
  5
11888
330
11869
100
AcDbEntity
  8
0
100
AcDbLine
 10
41.49999999999995
 20
-28.42608254450009
 30
0.0
 11
41.49999999999997
 21
-21.35501473263464
 31
0.0
  0
LINE
  5
11889
330
11869
100
AcDbEntity
  8
0
100
AcDbLine
 10
41.49999999999997
 20
-21.35501473263464
 30
0.0
 11
39.99999999999998
 21
-21.35501473263464
 31
0.0
  0
LINE
  5
1188A
330
11869
100
AcDbEntity
  8
0
100
AcDbLine
 10
39.99999999999998
 20
-21.35501473263464
 30
0.0
 11
39.99999999999999
 21
-28.42608254450009
 31
0.0
  0
LINE
  5
1188B
330
11869
100
AcDbEntity
  8
0
100
AcDbLine
 10
39.99999999999999
 20
-28.42608254450009
 30
0.0
 11
41.49999999999995
 21
-28.42608254450009
 31
0.0
  0
LINE
  5
1188C
330
11869
100
AcDbEntity
  8
0
100
AcDbLine
 10
-41.49999999999995
 20
-21.35501473263463
 30
0.0
 11
-41.49999999999994
 21
-28.42608254450008
 31
0.0
  0
LINE
  5
1188D
330
11869
100
AcDbEntity
  8
0
100
AcDbLine
 10
-41.49999999999994
 20
-28.42608254450008
 30
0.0
 11
-39.99999999999997
 21
-28.42608254450008
 31
0.0
  0
LINE
  5
1188E
330
11869
100
AcDbEntity
  8
0
100
AcDbLine
 10
-39.99999999999997
 20
-28.42608254450008
 30
0.0
 11
-39.99999999999996
 21
-21.35501473263464
 31
0.0
  0
LINE
  5
1188F
330
11869
100
AcDbEntity
  8
0
100
AcDbLine
 10
-39.99999999999996
 20
-21.35501473263464
 30
0.0
 11
-41.49999999999995
 21
-21.35501473263463
 31
0.0
  0
LINE
  5
11890
330
11869
100
AcDbEntity
  8
0
100
AcDbLine
 10
41.50000000000026
 20
85.27000000000001
 30
0.0
 11
41.50000000000026
 21
335.67
 31
0.0
  0
LINE
  5
11891
330
11869
100
AcDbEntity
  8
0
100
AcDbLine
 10
40.00000000000024
 20
335.67
 30
0.0
 11
40.00000000000024
 21
85.27000000000001
 31
0.0
  0
LINE
  5
11892
330
11869
100
AcDbEntity
  8
0
100
AcDbLine
 10
-41.5
 20
335.67
 30
0.0
 11
-41.5
 21
85.27000000000001
 31
0.0
  0
LINE
  5
11893
330
11869
100
AcDbEntity
  8
0
100
AcDbLine
 10
-40.0
 20
335.67
 30
0.0
 11
-40.0
 21
85.27000000000001
 31
0.0
  0
LINE
  5
11894
330
11869
100
AcDbEntity
  8
0
100
AcDbLine
 10
36.5
 20
80.27000000000001
 30
0.0
 11
39.40000000000001
 21
80.27000000000001
 31
0.0
  0
LINE
  5
11895
330
11869
100
AcDbEntity
  8
0
100
AcDbLine
 10
-39.40000000000001
 20
80.27000000000001
 30
0.0
 11
-36.50000000000002
 21
80.26999999999999
 31
0.0
  0
LINE
  5
11896
330
11869
100
AcDbEntity
  8
0
100
AcDbLine
 10
-39.40000000000001
 20
340.67
 30
0.0
 11
39.4
 21
340.67
 31
0.0
  0
LINE
  5
11897
330
11869
100
AcDbEntity
  8
0
100
AcDbLine
 10
41.49999999999881
 20
-2.263131642256645
 30
0.0
 11
41.49999999999997
 21
-21.35501473263464
 31
0.0
  0
LINE
  5
11898
330
11869
100
AcDbEntity
  8
0
100
AcDbLine
 10
39.99999999999888
 20
-2.263131642256645
 30
0.0
 11
39.99999999999998
 21
-21.35501473263464
 31
0.0
  0
ELLIPSE
  5
11899
330
11869
100
AcDbEntity
  8
0
100
AcDbEllipse
 10
39.4
 20
-54.16476937947052
 30
0.0
 11
0.5999999999999586
 21
-0.0000000000000093
 31
0.0
210
0.0
220
0.0
230
1.0
 40
0.7071067811864884
 41
4.712388980384708
 42
6.283185307179607
  0
ELLIPSE
  5
1189A
330
11869
100
AcDbEntity
  8
0
100
AcDbEllipse
 10
39.4
 20
-54.16476937947052
 30
0.0
 11
2.099999999999955
 21
-0.0000000000000266
 31
0.0
210
0.0
220
0.0
230
1.0
 40
0.7071067811865467
 41
4.712388980384669
 42
6.283185307179526
  0
LINE
  5
1189B
330
11869
100
AcDbEntity
  8
0
100
AcDbLine
 10
41.49999999999881
 20
-2.263131642256645
 30
0.0
 11
39.99999999999888
 21
-2.263131642256645
 31
0.0
  0
SPLINE
  5
1189C
330
11869
100
AcDbEntity
  8
0
100
AcDbSpline
210
0.0
220
0.0
230
1.0
 70
     8
 71
     3
 72
     8
 73
     4
 74
     0
 42
0.000000001
 43
0.0000000001
 40
-1.0
 40
-1.0
 40
-1.0
 40
-1.0
 40
0.0
 40
0.0
 40
0.0
 40
0.0
 10
-35.01767776087194
 20
-0.0003899405809504
 30
0.0
 10
-34.97251992073993
 20
-0.1594792109354416
 30
0.0
 10
-35.01586474390245
 20
-0.321485044675321
 30
0.0
 10
-35.14054197002052
 20
-0.4246540092928796
 30
0.0
  0
SPLINE
  5
1189D
330
11869
100
AcDbEntity
  8
0
100
AcDbSpline
210
0.0
220
0.0
230
1.0
 70
     8
 71
     3
 72
     8
 73
     4
 74
     0
 42
0.000000001
 43
0.0000000001
 40
-1.0
 40
-1.0
 40
-1.0
 40
-1.0
 40
0.0
 40
0.0
 40
0.0
 40
0.0
 10
35.1405419700205
 20
-0.4246540092928794
 30
0.0
 10
35.01586474390217
 20
-0.3214850446753142
 30
0.0
 10
34.97251992073988
 20
-0.1594792109354447
 30
0.0
 10
35.01767776087195
 20
-0.0003899405809504
 30
0.0
  0
ELLIPSE
  5
1189E
330
11869
100
AcDbEntity
  8
0
100
AcDbEllipse
 10
-36.50000000000001
 20
0.0236058844764815
 30
0.0
 11
-1.5
 21
0.0000000000001102
 31
0.0
210
0.0
220
0.0
230
1.0
 40
0.7071067811865479
 41
1.570796326795026
 42
2.70525458196206
  0
LINE
  5
1189F
330
11869
100
AcDbEntity
  8
0
100
AcDbLine
 10
-36.50000000000001
 20
-1.037054287303335
 30
0.0
 11
-38.79315533855965
 21
-1.037054287303334
 31
0.0
  0
LINE
  5
118A0
330
11869
100
AcDbEntity
  8
0
100
AcDbLine
 10
-38.79315533855965
 20
-1.037054287303334
 30
0.0
 11
-39.40000000000001
 21
-1.466158262545871
 31
0.0
  0
LINE
  5
118A1
330
11869
100
AcDbEntity
  8
0
100
AcDbLine
 10
39.39999999999999
 20
-1.46615826254589
 30
0.0
 11
38.79315533855963
 21
-1.037054287303349
 31
0.0
  0
LINE
  5
118A2
330
11869
100
AcDbEntity
  8
0
100
AcDbLine
 10
38.79315533855963
 20
-1.037054287303349
 30
0.0
 11
36.49999999999999
 21
-1.037054287303349
 31
0.0
  0
ELLIPSE
  5
118A3
330
11869
100
AcDbEntity
  8
0
100
AcDbEllipse
 10
36.49999999999999
 20
0.0236058844764817
 30
0.0
 11
-1.5
 21
0.0
 31
0.0
210
0.0
220
0.0
230
1.0
 40
0.7071067811865479
 41
0.4363380716279881
 42
1.570796326794896
  0
LINE
  5
118A4
330
11869
100
AcDbEntity
  8
0
100
AcDbLine
 10
-40.00000000000254
 20
-2.263131642256636
 30
0.0
 11
-41.50000000000303
 21
-2.263131642256636
 31
0.0
  0
SPLINE
  5
118A5
330
11869
100
AcDbEntity
  8
0
100
AcDbSpline
210
0.0
220
0.0
230
1.0
 70
     8
 71
     3
 72
     8
 73
     4
 74
     0
 42
0.000000001
 43
0.0000000001
 40
-1.0
 40
-1.0
 40
-1.0
 40
-1.0
 40
0.0
 40
0.0
 40
0.0
 40
0.0
 10
-39.40000000000001
 20
-1.466158262545859
 30
0.0
 10
-39.71415926535899
 20
-1.873237411765094
 30
0.0
 10
-40.0
 20
-2.078196639181149
 30
0.0
 10
-40.00000000000002
 20
-2.263131641492097
 30
0.0
  0
ARC
  5
118A6
330
11869
100
AcDbEntity
  8
0
100
AcDbCircle
 10
-36.50000000000001
 20
-0.229999999999892
 30
0.0
 40
1.5
100
AcDbArc
 50
8.80507525969728
 51
90.0
  0
SPLINE
  5
118A7
330
11869
100
AcDbEntity
  8
0
100
AcDbSpline
210
0.0
220
0.0
230
1.0
 70
     8
 71
     3
 72
     8
 73
     4
 74
     0
 42
0.000000001
 43
0.0000000001
 40
-1.0
 40
-1.0
 40
-1.0
 40
-1.0
 40
0.0
 40
0.0
 40
0.0
 40
0.0
 10
39.99999999999996
 20
-2.263131641492119
 30
0.0
 10
39.99999999999996
 20
-2.078196639180824
 30
0.0
 10
39.71415926535895
 20
-1.873237411765936
 30
0.0
 10
39.39999999999999
 20
-1.466158262545837
 30
0.0
  0
ARC
  5
118A8
330
11869
100
AcDbEntity
  8
0
100
AcDbCircle
 10
36.49999999999999
 20
-0.229999999999892
 30
0.0
 40
1.5
100
AcDbArc
 50
90.0
 51
171.1949247403028
  0
SPLINE
  5
118A9
330
11869
100
AcDbEntity
  8
0
100
AcDbSpline
210
0.0
220
0.0
230
1.0
 70
     8
 71
     3
 72
    16
 73
    12
 74
     0
 42
0.000000001
 43
0.0000000001
 40
0.0
 40
0.0
 40
0.0
 40
0.0
 40
0.0356537247227442
 40
0.0356537247227442
 40
0.0703704956414312
 40
0.0703704956414312
 40
0.105134564007731
 40
0.105134564007731
 40
0.1398962718657273
 40
0.1398962718657273
 40
0.1538885733138569
 40
0.1538885733138569
 40
0.1538885733138569
 40
0.1538885733138569
 10
-40.49949999999859
 20
-2.263131641492113
 30
0.0
 10
-40.49950000000072
 20
-2.263131641490561
 30
0.0
 10
-40.47955867540366
 20
-2.263059951014983
 30
0.0
 10
-40.40583172170484
 20
-2.250836451213992
 30
0.0
 10
-40.35213458029073
 20
-2.238741830466209
 30
0.0
 10
-40.22293730431509
 20
-2.194102190393169
 30
0.0
 10
-40.14591985436246
 20
-2.160888677235971
 30
0.0
 10
-39.98574064092903
 20
-2.069479202593814
 30
0.0
 10
-39.90073655260031
 20
-2.010107098259435
 30
0.0
 10
-39.78901418349141
 20
-1.909831885152249
 30
0.0
 10
-39.75758437992327
 20
-1.878943669874535
 30
0.0
 10
-39.72742155524379
 20
-1.846191951394095
 30
0.0
  0
SPLINE
  5
118AA
330
11869
100
AcDbEntity
  8
0
100
AcDbSpline
210
0.0
220
0.0
230
1.0
 70
     8
 71
     3
 72
    16
 73
    12
 74
     0
 42
0.000000001
 43
0.0000000001
 40
0.0
 40
0.0
 40
0.0
 40
0.0
 40
0.0356266149348307
 40
0.0356266149348307
 40
0.0703447701819811
 40
0.0703447701819811
 40
0.105108769500339
 40
0.105108769500339
 40
0.1398704808055243
 40
0.1398704808055243
 40
0.1538888647030331
 40
0.1538888647030331
 40
0.1538888647030331
 40
0.1538888647030331
 10
39.72742155524373
 20
-1.846191951394065
 30
0.0
 10
39.80422088265844
 20
-1.92958301233419
 30
0.0
 10
39.88999615130966
 20
-2.001172959739613
 30
0.0
 10
40.05564046643387
 20
-2.113266523271898
 30
0.0
 10
40.13750261650663
 20
-2.155953002284055
 30
0.0
 10
40.28182181891829
 20
-2.217016702993571
 30
0.0
 10
40.3459130508996
 20
-2.236189491812925
 30
0.0
 10
40.44238223265623
 20
-2.258395304187112
 30
0.0
 10
40.47587215057283
 20
-2.261811174867319
 30
0.0
 10
40.49650501536416
 20
-2.263130971916348
 30
0.0
 10
40.49949999999987
 20
-2.263131641491496
 30
0.0
 10
40.49949999999942
 20
-2.263131641492106
 30
0.0
  0
LINE
  5
118AB
330
11869
100
AcDbEntity
  8
0
100
AcDbLine
 10
41.49999999999997
 20
-54.16476937947052
 30
0.0
 11
41.49999999999995
 21
-28.42608254450009
 31
0.0
  0
LINE
  5
118AC
330
11869
100
AcDbEntity
  8
0
100
AcDbLine
 10
-41.49999999999994
 20
-28.42608254450008
 30
0.0
 11
-41.49999999999997
 21
-54.16476937947052
 31
0.0
  0
LINE
  5
118AD
330
11869
100
AcDbEntity
  8
0
100
AcDbLine
 10
-39.99999999999997
 20
-28.42608254450008
 30
0.0
 11
-39.99999999999997
 21
-54.16476937947052
 31
0.0
  0
LINE
  5
118AE
330
11869
100
AcDbEntity
  8
0
100
AcDbLine
 10
-39.39999999999999
 20
-54.58903344818243
 30
0.0
 11
39.4
 21
-54.58903344818243
 31
0.0
  0
LINE
  5
118AF
330
11869
100
AcDbEntity
  8
0
100
AcDbLine
 10
39.99999999999999
 20
-54.16476937947052
 30
0.0
 11
39.99999999999999
 21
-28.42608254450009
 31
0.0
  0
LINE
  5
118B0
330
11869
100
AcDbEntity
  8
0
100
AcDbLine
 10
-39.39999999999999
 20
-55.64969361996226
 30
0.0
 11
39.4
 21
-55.64969361996226
 31
0.0
  0
LINE
  5
118B1
330
11869
100
AcDbEntity
  8
0
100
AcDbLine
 10
-41.50000000000303
 20
-2.263131642256636
 30
0.0
 11
-41.49999999999995
 21
-21.35501473263463
 31
0.0
  0
LINE
  5
118B2
330
11869
100
AcDbEntity
  8
0
100
AcDbLine
 10
-40.00000000000254
 20
-2.263131642256636
 30
0.0
 11
-39.99999999999996
 21
-21.35501473263464
 31
0.0
  0
CIRCLE
  5
118B3
330
11869
100
AcDbEntity
  8
0
100
AcDbCircle
 10
29.99999999999999
 20
309.7700000000001
 30
0.0
 40
2.5
  0
CIRCLE
  5
118B4
330
11869
100
AcDbEntity
  8
0
100
AcDbCircle
 10
29.99999999999999
 20
269.7700000000001
 30
0.0
 40
2.5
  0
CIRCLE
  5
118B5
330
11869
100
AcDbEntity
  8
0
100
AcDbCircle
 10
29.99999999999999
 20
229.7700000000001
 30
0.0
 40
2.5
  0
CIRCLE
  5
118B6
330
11869
100
AcDbEntity
  8
0
100
AcDbCircle
 10
29.99999999999999
 20
189.77
 30
0.0
 40
2.5
  0
CIRCLE
  5
118B7
330
11869
100
AcDbEntity
  8
0
100
AcDbCircle
 10
29.99999999999999
 20
149.77
 30
0.0
 40
2.5
  0
CIRCLE
  5
118B8
330
11869
100
AcDbEntity
  8
0
100
AcDbCircle
 10
29.99999999999999
 20
109.7700000000001
 30
0.0
 40
2.5
  0
CIRCLE
  5
118B9
330
11869
100
AcDbEntity
  8
0
100
AcDbCircle
 10
29.99999999999999
 20
69.77000000000007
 30
0.0
 40
2.5
  0
CIRCLE
  5
118BA
330
11869
100
AcDbEntity
  8
0
100
AcDbCircle
 10
29.99999999999999
 20
29.77000000000007
 30
0.0
 40
2.5
  0
CIRCLE
  5
118BB
330
11869
100
AcDbEntity
  8
0
100
AcDbCircle
 10
19.99999999999998
 20
329.77
 30
0.0
 40
2.5
  0
CIRCLE
  5
118BC
330
11869
100
AcDbEntity
  8
0
100
AcDbCircle
 10
19.99999999999998
 20
289.77
 30
0.0
 40
2.5
  0
CIRCLE
  5
118BD
330
11869
100
AcDbEntity
  8
0
100
AcDbCircle
 10
19.99999999999998
 20
249.77
 30
0.0
 40
2.5
  0
CIRCLE
  5
118BE
330
11869
100
AcDbEntity
  8
0
100
AcDbCircle
 10
19.99999999999998
 20
209.7700000000001
 30
0.0
 40
2.5
  0
CIRCLE
  5
118BF
330
11869
100
AcDbEntity
  8
0
100
AcDbCircle
 10
19.99999999999998
 20
169.77
 30
0.0
 40
2.5
  0
CIRCLE
  5
118C0
330
11869
100
AcDbEntity
  8
0
100
AcDbCircle
 10
19.99999999999998
 20
129.77
 30
0.0
 40
2.5
  0
CIRCLE
  5
118C1
330
11869
100
AcDbEntity
  8
0
100
AcDbCircle
 10
19.99999999999998
 20
89.77000000000005
 30
0.0
 40
2.5
  0
CIRCLE
  5
118C2
330
11869
100
AcDbEntity
  8
0
100
AcDbCircle
 10
19.99999999999998
 20
49.77000000000005
 30
0.0
 40
2.5
  0
CIRCLE
  5
118C3
330
11869
100
AcDbEntity
  8
0
100
AcDbCircle
 10
19.99999999999998
 20
9.770000000000054
 30
0.0
 40
2.5
  0
CIRCLE
  5
118C4
330
11869
100
AcDbEntity
  8
0
100
AcDbCircle
 10
-20.00000000000001
 20
309.7700000000001
 30
0.0
 40
2.5
  0
CIRCLE
  5
118C5
330
11869
100
AcDbEntity
  8
0
100
AcDbCircle
 10
-20.00000000000001
 20
269.7700000000001
 30
0.0
 40
2.5
  0
CIRCLE
  5
118C6
330
11869
100
AcDbEntity
  8
0
100
AcDbCircle
 10
-20.00000000000001
 20
229.77
 30
0.0
 40
2.5
  0
CIRCLE
  5
118C7
330
11869
100
AcDbEntity
  8
0
100
AcDbCircle
 10
-20.00000000000001
 20
189.77
 30
0.0
 40
2.5
  0
CIRCLE
  5
118C8
330
11869
100
AcDbEntity
  8
0
100
AcDbCircle
 10
-20.00000000000001
 20
149.77
 30
0.0
 40
2.5
  0
CIRCLE
  5
118C9
330
11869
100
AcDbEntity
  8
0
100
AcDbCircle
 10
-20.00000000000001
 20
109.77
 30
0.0
 40
2.5
  0
CIRCLE
  5
118CA
330
11869
100
AcDbEntity
  8
0
100
AcDbCircle
 10
-20.00000000000001
 20
69.77000000000003
 30
0.0
 40
2.5
  0
CIRCLE
  5
118CB
330
11869
100
AcDbEntity
  8
0
100
AcDbCircle
 10
-20.00000000000001
 20
29.77000000000004
 30
0.0
 40
2.5
  0
CIRCLE
  5
118CC
330
11869
100
AcDbEntity
  8
0
100
AcDbCircle
 10
-30.00000000000002
 20
329.77
 30
0.0
 40
2.5
  0
CIRCLE
  5
118CD
330
11869
100
AcDbEntity
  8
0
100
AcDbCircle
 10
-30.00000000000002
 20
289.77
 30
0.0
 40
2.5
  0
CIRCLE
  5
118CE
330
11869
100
AcDbEntity
  8
0
100
AcDbCircle
 10
-30.00000000000002
 20
249.77
 30
0.0
 40
2.5
  0
CIRCLE
  5
118CF
330
11869
100
AcDbEntity
  8
0
100
AcDbCircle
 10
-30.00000000000002
 20
209.7700000000001
 30
0.0
 40
2.5
  0
CIRCLE
  5
118D0
330
11869
100
AcDbEntity
  8
0
100
AcDbCircle
 10
-30.00000000000002
 20
169.77
 30
0.0
 40
2.5
  0
CIRCLE
  5
118D1
330
11869
100
AcDbEntity
  8
0
100
AcDbCircle
 10
-30.00000000000002
 20
129.77
 30
0.0
 40
2.5
  0
CIRCLE
  5
118D2
330
11869
100
AcDbEntity
  8
0
100
AcDbCircle
 10
-30.00000000000002
 20
89.77000000000002
 30
0.0
 40
2.5
  0
CIRCLE
  5
118D3
330
11869
100
AcDbEntity
  8
0
100
AcDbCircle
 10
-30.00000000000002
 20
49.77000000000002
 30
0.0
 40
2.5
  0
CIRCLE
  5
118D4
330
11869
100
AcDbEntity
  8
0
100
AcDbCircle
 10
-30.00000000000002
 20
9.770000000000019
 30
0.0
 40
2.5
  0
CIRCLE
  5
118D5
330
11869
100
AcDbEntity
  8
0
100
AcDbCircle
 10
-53.02709056100003
 20
69.77000000000001
 30
0.0
 40
2.5
  0
CIRCLE
  5
118D6
330
11869
100
AcDbEntity
  8
0
100
AcDbCircle
 10
47.02709056099997
 20
69.77000000000001
 30
0.0
 40
2.5
  0
CIRCLE
  5
118D7
330
11869
100
AcDbEntity
  8
0
100
AcDbCircle
 10
-47.02709056100002
 20
29.77000000000002
 30
0.0
 40
2.5
  0
CIRCLE
  5
118D8
330
11869
100
AcDbEntity
  8
0
100
AcDbCircle
 10
53.02709056099998
 20
29.77000000000002
 30
0.0
 40
2.5
  0
ELLIPSE
  5
118D9
330
11869
100
AcDbEntity
  8
0
100
AcDbEllipse
 10
-22.50000000000001
 20
0.0236058844764815
 30
0.0
 11
2.499999999999999
 21
-0.0000000000000006
 31
0.0
210
0.0
220
0.0
230
1.0
 40
0.7071067811865479
 41
3.397965980608285
 42
6.026811980161093
  0
SPLINE
  5
118DA
330
11869
100
AcDbEntity
  8
0
100
AcDbSpline
210
0.0
220
0.0
230
1.0
 70
     8
 71
     3
 72
     8
 73
     4
 74
     0
 42
0.000000001
 43
0.0000000001
 40
-1.0
 40
-1.0
 40
-1.0
 40
-1.0
 40
0.0
 40
0.0
 40
0.0
 40
0.0
 10
-24.91828991960762
 20
-0.4246540092928796
 30
0.0
 10
-24.99189972302012
 20
-0.3163012038324831
 30
0.0
 10
-25.01609483643936
 20
-0.1581319339738785
 30
0.0
 10
-24.98943351399745
 20
-0.0003899405809506
 30
0.0
  0
SPLINE
  5
118DB
330
11869
100
AcDbEntity
  8
0
100
AcDbSpline
210
0.0
220
0.0
230
1.0
 70
     8
 71
     3
 72
     8
 73
     4
 74
     0
 42
0.000000001
 43
0.0000000001
 40
-1.0
 40
-1.0
 40
-1.0
 40
-1.0
 40
0.0
 40
0.0
 40
0.0
 40
0.0
 10
-20.01056648600258
 20
-0.0003899405809503
 30
0.0
 10
-19.98390516356066
 20
-0.15813193397387
 30
0.0
 10
-20.00810027697966
 20
-0.3163012038324567
 30
0.0
 10
-20.08171008039241
 20
-0.4246540092928792
 30
0.0
  0
ARC
  5
118DC
330
11869
100
AcDbEntity
  8
0
100
AcDbCircle
 10
-22.50000000000001
 20
-0.229999999999892
 30
0.0
 40
2.499999999999999
100
AcDbArc
 50
5.269701326162068
 51
174.7302986738379
  0
ELLIPSE
  5
118DD
330
11869
100
AcDbEntity
  8
0
100
AcDbEllipse
 10
22.49999999999999
 20
0.0236058844764817
 30
0.0
 11
2.5
 21
-0.0000000000000006
 31
0.0
210
0.0
220
0.0
230
1.0
 40
0.7071067811865479
 41
3.397965980608285
 42
6.026811980161093
  0
SPLINE
  5
118DE
330
11869
100
AcDbEntity
  8
0
100
AcDbSpline
210
0.0
220
0.0
230
1.0
 70
     8
 71
     3
 72
     8
 73
     4
 74
     0
 42
0.000000001
 43
0.0000000001
 40
-1.0
 40
-1.0
 40
-1.0
 40
-1.0
 40
0.0
 40
0.0
 40
0.0
 40
0.0
 10
20.08171008039238
 20
-0.4246540092928796
 30
0.0
 10
20.00810027697975
 20
-0.3163012038324939
 30
0.0
 10
19.98390516356064
 20
-0.1581319339738735
 30
0.0
 10
20.01056648600255
 20
-0.0003899405809504
 30
0.0
  0
SPLINE
  5
118DF
330
11869
100
AcDbEntity
  8
0
100
AcDbSpline
210
0.0
220
0.0
230
1.0
 70
     8
 71
     3
 72
     8
 73
     4
 74
     0
 42
0.000000001
 43
0.0000000001
 40
-1.0
 40
-1.0
 40
-1.0
 40
-1.0
 40
0.0
 40
0.0
 40
0.0
 40
0.0
 10
24.98943351399742
 20
-0.0003899405809502
 30
0.0
 10
25.0160948364393
 20
-0.1581319339738713
 30
0.0
 10
24.99189972302016
 20
-0.3163012038324384
 30
0.0
 10
24.9182899196076
 20
-0.4246540092928796
 30
0.0
  0
ARC
  5
118E0
330
11869
100
AcDbEntity
  8
0
100
AcDbCircle
 10
22.49999999999999
 20
-0.229999999999892
 30
0.0
 40
2.5
100
AcDbArc
 50
5.269701326162068
 51
174.7302986738379
  0
SPLINE
  5
118E1
330
11869
100
AcDbEntity
  8
0
100
AcDbSpline
210
0.0
220
0.0
230
1.0
 70
     8
 71
     3
 72
     8
 73
     4
 74
     0
 42
0.000000001
 43
0.0000000001
 40
-1.0
 40
-1.0
 40
-1.0
 40
-1.0
 40
0.0
 40
0.0
 40
0.0
 40
0.0
 10
-4.918289920131944
 20
-0.4246540092928794
 30
0.0
 10
-4.991899723307195
 20
-0.3163012038163609
 30
0.0
 10
-5.01609483648541
 20
-0.158131933951481
 30
0.0
 10
-4.989433513812963
 20
-0.0003899405809506
 30
0.0
  0
SPLINE
  5
118E2
330
11869
100
AcDbEntity
  8
0
100
AcDbSpline
210
0.0
220
0.0
230
1.0
 70
     8
 71
     3
 72
     8
 73
     4
 74
     0
 42
0.000000001
 43
0.0000000001
 40
-1.0
 40
-1.0
 40
-1.0
 40
-1.0
 40
0.0
 40
0.0
 40
0.0
 40
0.0
 10
4.989433513812949
 20
-0.0003899405809503
 30
0.0
 10
5.016094836485295
 20
-0.1581319339514889
 30
0.0
 10
4.991899723307192
 20
-0.3163012038163565
 30
0.0
 10
4.918289920131907
 20
-0.4246540092928796
 30
0.0
  0
ELLIPSE
  5
118E3
330
11869
100
AcDbEntity
  8
0
100
AcDbEllipse
 10
-2.500000000000008
 20
0.0236058830621423
 30
0.0
 11
-2.5
 21
0.0000000000000004
 31
0.0
210
0.0
220
0.0
230
1.0
 40
0.7071067811865479
 41
0.2563733261913885
 42
1.570796326794896
  0
LINE
  5
118E4
330
11869
100
AcDbEntity
  8
0
100
AcDbLine
 10
2.499999999999987
 20
-1.744161069904239
 30
0.0
 11
-2.500000000000008
 21
-1.744161069904238
 31
0.0
  0
ELLIPSE
  5
118E5
330
11869
100
AcDbEntity
  8
0
100
AcDbEllipse
 10
2.499999999999986
 20
0.0236058830621926
 30
0.0
 11
2.5
 21
-0.0000000000000005
 31
0.0
210
0.0
220
0.0
230
1.0
 40
0.7071067811865479
 41
4.712388980384689
 42
6.026811980988168
  0
ARC
  5
118E6
330
11869
100
AcDbEntity
  8
0
100
AcDbCircle
 10
2.499999999999986
 20
-0.2300000019999987
 30
0.0
 40
2.5
100
AcDbArc
 50
5.269701372195669
 51
89.9999999999998
  0
LINE
  5
118E7
330
11869
100
AcDbEntity
  8
0
100
AcDbLine
 10
-2.500000000000012
 20
2.269999997999859
 30
0.0
 11
2.499999999999996
 21
2.269999997999859
 31
0.0
  0
ARC
  5
118E8
330
11869
100
AcDbEntity
  8
0
100
AcDbCircle
 10
-2.500000000000008
 20
-0.2300000020000698
 30
0.0
 40
2.5
100
AcDbArc
 50
90.0000000000001
 51
174.7302986278027
  0
ELLIPSE
  5
118E9
330
11869
100
AcDbEntity
  8
0
100
AcDbEllipse
 10
-39.39999999999999
 20
-54.16476937947049
 30
0.0
 11
-2.100000000000031
 21
0.0000000000000045
 31
0.0
210
0.0
220
0.0
230
1.0
 40
0.7071067811865476
 41
0.0
 42
1.570796326794896
  0
ELLIPSE
  5
118EA
330
11869
100
AcDbEntity
  8
0
100
AcDbEllipse
 10
-39.39999999999999
 20
-54.16476937947049
 30
0.0
 11
-0.6000000000000089
 21
0.0000000000000355
 31
0.0
210
0.0
220
0.0
230
1.0
 40
0.7071067811865763
 41
0.0000000000001259
 42
1.57079632679499
  0
LINE
  5
118EB
330
11869
100
AcDbEntity
  8
0
100
AcDbLine
 10
39.40000000000001
 20
340.67
 30
0.0
 11
40.0
 21
340.67
 31
0.0
  0
LINE
  5
118EC
330
11869
100
AcDbEntity
  8
0
100
AcDbLine
 10
39.40000000000001
 20
80.27000000000001
 30
0.0
 11
40.0
 21
80.27000000000001
 31
0.0
  0
LINE
  5
118ED
330
11869
100
AcDbEntity
  8
0
100
AcDbLine
 10
-40.0
 20
340.67
 30
0.0
 11
-39.40000000000001
 21
340.67
 31
0.0
  0
LINE
  5
118EE
330
11869
100
AcDbEntity
  8
0
100
AcDbLine
 10
-40.0
 20
80.27000000000001
 30
0.0
 11
-39.40000000000001
 21
80.27000000000001
 31
0.0
  0
ENDBLK
  5
1186B
330
11869
100
AcDbEntity
  8
0
100
AcDbBlockEnd
  0
BLOCK
  5
118F0
330
118EF
100
AcDbEntity
  8
0
100
AcDbBlockBegin
  2
SPR80_340-Left
 70
     0
 10
0.0
 20
0.0
 30
0.0
  3
SPR80_340-Left
  1

  0
LINE
  5
118F2
330
118EF
100
AcDbEntity
  8
0
100
AcDbLine
 10
0.0
 20
-0.0003899405809505
 30
0.0
 11
0.0
 21
1.270000000000108
 31
0.0
  0
LINE
  5
118F3
330
118EF
100
AcDbEntity
  8
0
100
AcDbLine
 10
62.91118318265853
 20
-2.263131642256636
 30
0.0
 11
4.362741700911119
 21
-2.263131641492179
 31
0.0
  0
SPLINE
  5
118F4
330
118EF
100
AcDbEntity
  8
0
100
AcDbSpline
210
0.0
220
0.0
230
1.0
 70
     8
 71
     3
 72
     8
 73
     4
 74
     0
 42
0.000000001
 43
0.0000000001
 40
-1.0
 40
-1.0
 40
-1.0
 40
-1.0
 40
0.0
 40
0.0
 40
0.0
 40
0.0
 10
1.500000000000019
 20
-0.0003899405809504
 30
0.0
 10
1.500000000000019
 20
-0.1594792109354416
 30
0.0
 10
1.572566966670533
 20
-0.321485044675321
 30
0.0
 10
1.675735931288091
 20
-0.4246540092928796
 30
0.0
  0
SPLINE
  5
118F5
330
118EF
100
AcDbEntity
  8
0
100
AcDbSpline
210
0.0
220
0.0
230
1.0
 70
     8
 71
     3
 72
     8
 73
     4
 74
     0
 42
0.000000001
 43
0.0000000001
 40
0.0
 40
0.0
 40
0.0
 40
0.0
 40
1.0
 40
1.0
 40
1.0
 40
1.0
 10
0.6150757595082699
 20
-1.485314181072701
 30
0.0
 10
0.2539843833468153
 20
-1.124222804911246
 30
0.0
 10
0.0000000000000196
 20
-0.5572023868216692
 30
0.0
 10
0.0000000000000198
 20
-0.0003899405809502
 30
0.0
  0
LINE
  5
118F6
330
118EF
100
AcDbEntity
  8
0
100
AcDbLine
 10
1.675735931288086
 20
-0.4246540092928742
 30
0.0
 11
2.288136209298552
 21
-1.03705428730334
 31
0.0
  0
LINE
  5
118F7
330
118EF
100
AcDbEntity
  8
0
100
AcDbLine
 10
2.288136209298538
 20
-1.037054287303334
 30
0.0
 11
2.717240184541075
 21
-1.466158262545871
 31
0.0
  0
SPLINE
  5
118F8
330
118EF
100
AcDbEntity
  8
0
100
AcDbSpline
210
0.0
220
0.0
230
1.0
 70
     8
 71
     3
 72
     8
 73
     4
 74
     0
 42
0.000000001
 43
0.0000000001
 40
-1.0
 40
-1.0
 40
-1.0
 40
-1.0
 40
0.0
 40
0.0
 40
0.0
 40
0.0
 10
2.717240184541074
 20
-1.466158262545859
 30
0.0
 10
3.124319333760308
 20
-1.873237411765094
 30
0.0
 10
3.733518404784347
 20
-2.078196639181149
 30
0.0
 10
4.36274170091115
 20
-2.263131641492097
 30
0.0
  0
LINE
  5
118F9
330
118EF
100
AcDbEntity
  8
0
100
AcDbLine
 10
2.717240184541075
 20
-1.466158262545871
 30
0.0
 11
2.364040347338709
 21
-1.819358099748237
 31
0.0
  0
LINE
  5
118FA
330
118EF
100
AcDbEntity
  8
0
100
AcDbLine
 10
2.364040347338709
 20
-1.819358099748237
 30
0.0
 11
1.656580012761253
 21
-2.526818434325692
 31
0.0
  0
SPLINE
  5
118FB
330
118EF
100
AcDbEntity
  8
0
100
AcDbSpline
210
0.0
220
0.0
230
1.0
 70
     8
 71
     3
 72
     8
 73
     4
 74
     0
 42
0.000000001
 43
0.0000000001
 40
0.0
 40
0.0
 40
0.0
 40
0.0
 40
1.0
 40
1.0
 40
1.0
 40
1.0
 10
4.362741700911096
 20
-2.263131641492152
 30
0.0
 10
3.178158037514493
 20
-2.633557006451003
 30
0.0
 10
2.063659161980485
 20
-2.933897583544917
 30
0.0
 10
1.656580012761252
 20
-2.52681843432568
 30
0.0
  0
LINE
  5
118FC
330
118EF
100
AcDbEntity
  8
0
100
AcDbLine
 10
1.656580012761253
 20
-2.526818434325692
 30
0.0
 11
1.227476037518718
 21
-2.097714459083153
 31
0.0
  0
LINE
  5
118FD
330
118EF
100
AcDbEntity
  8
0
100
AcDbLine
 10
2.288136209298538
 20
-1.037054287303334
 30
0.0
 11
1.227476037518718
 21
-2.097714459083153
 31
0.0
  0
LINE
  5
118FE
330
118EF
100
AcDbEntity
  8
0
100
AcDbLine
 10
1.227476037518744
 20
-2.097714459083146
 30
0.0
 11
0.6150757595082796
 21
-1.485314181072681
 31
0.0
  0
LINE
  5
118FF
330
118EF
100
AcDbEntity
  8
0
100
AcDbLine
 10
1.675735931288091
 20
-0.4246540092928796
 30
0.0
 11
1.32253609281094
 21
-0.7778538477700304
 31
0.0
  0
LINE
  5
11900
330
118EF
100
AcDbEntity
  8
0
100
AcDbLine
 10
1.32253609281094
 20
-0.7778538477700304
 30
0.0
 11
0.6150757595082701
 21
-1.485314181072701
 31
0.0
  0
LINE
  5
11901
330
118EF
100
AcDbEntity
  8
0
100
AcDbLine
 10
1.500000000000012
 20
-0.0003899405809504
 30
0.0
 11
1.000499995436688
 21
-0.0003899405809504
 31
0.0
  0
LINE
  5
11902
330
118EF
100
AcDbEntity
  8
0
100
AcDbLine
 10
1.000499995436688
 20
-0.0003899405809504
 30
0.0
 11
0.0
 21
-0.0003899405809504
 31
0.0
  0
LINE
  5
11903
330
118EF
100
AcDbEntity
  8
0
100
AcDbLine
 10
1.500000000000002
 20
1.270000000000108
 30
0.0
 11
1.500000000000001
 21
-0.0003899405809504
 31
0.0
  0
LINE
  5
11904
330
118EF
100
AcDbEntity
  8
0
100
AcDbLine
 10
0.0
 20
6.269999999999997
 30
0.0
 11
0.0
 21
1.269999999999995
 31
0.0
  0
LINE
  5
11905
330
118EF
100
AcDbEntity
  8
0
100
AcDbLine
 10
0.0
 20
77.27
 30
0.0
 11
0.0
 21
72.27
 31
0.0
  0
LINE
  5
11906
330
118EF
100
AcDbEntity
  8
0
100
AcDbLine
 10
1.50000000000003
 20
1.269999999999996
 30
0.0
 11
1.500000000000032
 21
6.269999999999997
 31
0.0
  0
LINE
  5
11907
330
118EF
100
AcDbEntity
  8
0
100
AcDbLine
 10
1.500000000000032
 20
6.269999999999997
 30
0.0
 11
0.0
 21
6.269999999999997
 31
0.0
  0
LINE
  5
11908
330
118EF
100
AcDbEntity
  8
0
100
AcDbLine
 10
0.0
 20
1.269999999999996
 30
0.0
 11
1.50000000000003
 21
1.269999999999996
 31
0.0
  0
LINE
  5
11909
330
118EF
100
AcDbEntity
  8
0
100
AcDbLine
 10
0.0
 20
72.27
 30
0.0
 11
1.500000000000032
 21
72.27
 31
0.0
  0
LINE
  5
1190A
330
118EF
100
AcDbEntity
  8
0
100
AcDbLine
 10
1.500000000000032
 20
72.27
 30
0.0
 11
1.50000000000003
 21
77.27
 31
0.0
  0
LINE
  5
1190B
330
118EF
100
AcDbEntity
  8
0
100
AcDbLine
 10
1.50000000000003
 20
77.27
 30
0.0
 11
0.0
 21
77.27
 31
0.0
  0
LINE
  5
1190C
330
118EF
100
AcDbEntity
  8
0
100
AcDbLine
 10
0.0
 20
6.269999999999997
 30
0.0
 11
0.0
 21
72.27
 31
0.0
  0
LINE
  5
1190D
330
118EF
100
AcDbEntity
  8
0
100
AcDbLine
 10
0.0
 20
77.27
 30
0.0
 11
0.0
 21
80.26999999999999
 31
0.0
  0
LINE
  5
1190E
330
118EF
100
AcDbEntity
  8
0
100
AcDbLine
 10
1.500000000000032
 20
6.269999999999997
 30
0.0
 11
1.500000000000032
 21
72.27
 31
0.0
  0
LINE
  5
1190F
330
118EF
100
AcDbEntity
  8
0
100
AcDbLine
 10
1.500000000000009
 20
77.27
 30
0.0
 11
1.500000000000009
 21
80.26999999999999
 31
0.0
  0
LINE
  5
11910
330
118EF
100
AcDbEntity
  8
0
100
AcDbLine
 10
0.0
 20
80.27000000000001
 30
0.0
 11
0.0
 21
340.67
 31
0.0
  0
LINE
  5
11911
330
118EF
100
AcDbEntity
  8
0
100
AcDbLine
 10
2.100000000000008
 20
340.67
 30
0.0
 11
0.0
 21
340.67
 31
0.0
  0
LINE
  5
11912
330
118EF
100
AcDbEntity
  8
0
100
AcDbLine
 10
0.0
 20
80.27000000000001
 30
0.0
 11
2.1
 21
80.27000000000001
 31
0.0
  0
LINE
  5
11913
330
118EF
100
AcDbEntity
  8
0
100
AcDbLine
 10
43.50000000000001
 20
85.27000000000001
 30
0.0
 11
38.50000000000001
 21
80.27000000000001
 31
0.0
  0
LINE
  5
11914
330
118EF
100
AcDbEntity
  8
0
100
AcDbLine
 10
38.50000000000001
 20
340.67
 30
0.0
 11
43.50000000000001
 21
335.67
 31
0.0
  0
LINE
  5
11915
330
118EF
100
AcDbEntity
  8
0
100
AcDbLine
 10
82.00306627386
 20
-21.35501473263463
 30
0.0
 11
82.00306627386
 21
-28.42608254450008
 31
0.0
  0
CIRCLE
  5
11916
330
118EF
100
AcDbEntity
  8
0
100
AcDbCircle
 10
35.50000000000002
 20
327.7699999999999
 30
0.0
 40
2.5
  0
CIRCLE
  5
11917
330
118EF
100
AcDbEntity
  8
0
100
AcDbCircle
 10
35.50000000000002
 20
307.77
 30
0.0
 40
2.5
  0
CIRCLE
  5
11918
330
118EF
100
AcDbEntity
  8
0
100
AcDbCircle
 10
35.50000000000002
 20
287.77
 30
0.0
 40
2.5
  0
CIRCLE
  5
11919
330
118EF
100
AcDbEntity
  8
0
100
AcDbCircle
 10
35.50000000000002
 20
267.77
 30
0.0
 40
2.5
  0
CIRCLE
  5
1191A
330
118EF
100
AcDbEntity
  8
0
100
AcDbCircle
 10
35.50000000000002
 20
247.77
 30
0.0
 40
2.5
  0
CIRCLE
  5
1191B
330
118EF
100
AcDbEntity
  8
0
100
AcDbCircle
 10
35.50000000000002
 20
227.77
 30
0.0
 40
2.5
  0
CIRCLE
  5
1191C
330
118EF
100
AcDbEntity
  8
0
100
AcDbCircle
 10
35.50000000000002
 20
207.77
 30
0.0
 40
2.5
  0
CIRCLE
  5
1191D
330
118EF
100
AcDbEntity
  8
0
100
AcDbCircle
 10
35.50000000000002
 20
187.77
 30
0.0
 40
2.5
  0
CIRCLE
  5
1191E
330
118EF
100
AcDbEntity
  8
0
100
AcDbCircle
 10
35.50000000000002
 20
167.7699999999999
 30
0.0
 40
2.5
  0
CIRCLE
  5
1191F
330
118EF
100
AcDbEntity
  8
0
100
AcDbCircle
 10
35.50000000000002
 20
147.77
 30
0.0
 40
2.5
  0
CIRCLE
  5
11920
330
118EF
100
AcDbEntity
  8
0
100
AcDbCircle
 10
35.50000000000002
 20
127.77
 30
0.0
 40
2.5
  0
CIRCLE
  5
11921
330
118EF
100
AcDbEntity
  8
0
100
AcDbCircle
 10
35.50000000000002
 20
107.77
 30
0.0
 40
2.5
  0
CIRCLE
  5
11922
330
118EF
100
AcDbEntity
  8
0
100
AcDbCircle
 10
35.50000000000002
 20
87.76999999999999
 30
0.0
 40
2.5
  0
LINE
  5
11923
330
118EF
100
AcDbEntity
  8
0
100
AcDbLine
 10
43.50000000000001
 20
335.67
 30
0.0
 11
43.50000000000001
 21
85.27000000000001
 31
0.0
  0
LINE
  5
11924
330
118EF
100
AcDbEntity
  8
0
100
AcDbLine
 10
2.100000000000008
 20
340.67
 30
0.0
 11
38.50000000000001
 21
340.67
 31
0.0
  0
LINE
  5
11925
330
118EF
100
AcDbEntity
  8
0
100
AcDbLine
 10
38.50000000000001
 20
80.27000000000001
 30
0.0
 11
2.099999999999999
 21
80.27000000000001
 31
0.0
  0
LINE
  5
11926
330
118EF
100
AcDbEntity
  8
0
100
AcDbLine
 10
82.00306627386
 20
-28.42608254450008
 30
0.0
 11
56.26437943888952
 21
-54.16476937947052
 31
0.0
  0
LINE
  5
11927
330
118EF
100
AcDbEntity
  8
0
100
AcDbLine
 10
62.91118318265853
 20
-2.263131642256636
 30
0.0
 11
82.00306627386
 21
-21.35501473263463
 31
0.0
  0
CIRCLE
  5
11928
330
118EF
100
AcDbEntity
  8
0
100
AcDbCircle
 10
74.57844507130477
 20
-25.24410202925711
 30
0.0
 40
2.5
  0
ARC
  5
11929
330
118EF
100
AcDbEntity
  8
0
100
AcDbCircle
 10
59.31559010709463
 20
-13.990452698916
 30
0.0
 40
0.8000000000000012
100
AcDbArc
 50
315.000000001042
 51
75.00000000104186
  0
LINE
  5
1192A
330
118EF
100
AcDbEntity
  8
0
100
AcDbLine
 10
59.88127553205416
 20
-14.55613812385494
 30
0.0
 11
56.81941335363088
 21
-17.61800030238964
 31
0.0
  0
ARC
  5
1192B
330
118EF
100
AcDbEntity
  8
0
100
AcDbCircle
 10
56.25372792867135
 20
-17.0523148774507
 30
0.0
 40
0.8
100
AcDbArc
 50
195.0000000010428
 51
315.0000000010428
  0
LINE
  5
1192C
330
118EF
100
AcDbEntity
  8
0
100
AcDbLine
 10
55.48098726764387
 20
-17.25937011354677
 30
0.0
 11
54.36026792735771
 21
-13.07678859487811
 31
0.0
  0
ARC
  5
1192D
330
118EF
100
AcDbEntity
  8
0
100
AcDbCircle
 10
55.13300858838519
 20
-12.86973335878203
 30
0.0
 40
0.8000000000000014
100
AcDbArc
 50
75.00000000104188
 51
195.0000000010427
  0
LINE
  5
1192E
330
118EF
100
AcDbEntity
  8
0
100
AcDbLine
 10
55.34006382445316
 20
-12.096992697747
 30
0.0
 11
59.5226453431626
 21
-13.21771203788096
 31
0.0
  0
LINE
  5
1192F
330
118EF
100
AcDbEntity
  8
0
100
AcDbLine
 10
55.28251771018368
 20
-12.08382813389861
 30
0.0
 11
54.3471033635072
 21
-13.01924248060914
 31
0.0
  0
LINE
  5
11930
330
118EF
100
AcDbEntity
  8
0
100
AcDbLine
 10
54.77945519839778
 20
-55.64969361996226
 30
0.0
 11
1.656580012761255
 21
-2.52681843432569
 31
0.0
  0
LINE
  5
11931
330
118EF
100
AcDbEntity
  8
0
100
AcDbLine
 10
56.26437943888956
 20
-54.16476937947046
 30
0.0
 11
54.77945519839778
 21
-55.64969361996226
 31
0.0
  0
ENDBLK
  5
118F1
330
118EF
100
AcDbEntity
  8
0
100
AcDbBlockEnd
  0
BLOCK
  5
11933
330
11932
100
AcDbEntity
  8
0
100
AcDbBlockBegin
  2
SPR80_340-Right
 70
     0
 10
0.0
 20
0.0
 30
0.0
  3
SPR80_340-Right
  1

  0
LINE
  5
11935
330
11932
100
AcDbEntity
  8
0
100
AcDbLine
 10
-1.499999999999949
 20
6.269999999999996
 30
0.0
 11
-1.499999999999952
 21
1.269999999999996
 31
0.0
  0
LINE
  5
11936
330
11932
100
AcDbEntity
  8
0
100
AcDbLine
 10
-1.499999999999952
 20
1.269999999999996
 30
0.0
 11
0.0
 21
1.269999999999987
 31
0.0
  0
LINE
  5
11937
330
11932
100
AcDbEntity
  8
0
100
AcDbLine
 10
0.0
 20
1.269999999999987
 30
0.0
 11
0.0
 21
6.269999999999996
 31
0.0
  0
LINE
  5
11938
330
11932
100
AcDbEntity
  8
0
100
AcDbLine
 10
0.0
 20
6.269999999999996
 30
0.0
 11
-1.499999999999949
 21
6.269999999999996
 31
0.0
  0
LINE
  5
11939
330
11932
100
AcDbEntity
  8
0
100
AcDbLine
 10
-1.499999999999949
 20
72.27000000000001
 30
0.0
 11
0.0
 21
72.27000000000001
 31
0.0
  0
LINE
  5
1193A
330
11932
100
AcDbEntity
  8
0
100
AcDbLine
 10
0.0
 20
72.27000000000001
 30
0.0
 11
0.0
 21
77.27000000000001
 31
0.0
  0
LINE
  5
1193B
330
11932
100
AcDbEntity
  8
0
100
AcDbLine
 10
-1.499999999999952
 20
77.27000000000001
 30
0.0
 11
-1.499999999999949
 21
72.27000000000001
 31
0.0
  0
LINE
  5
1193C
330
11932
100
AcDbEntity
  8
0
100
AcDbLine
 10
0.0
 20
77.27000000000001
 30
0.0
 11
-1.499999999999952
 21
77.27000000000001
 31
0.0
  0
LINE
  5
1193D
330
11932
100
AcDbEntity
  8
0
100
AcDbLine
 10
0.0
 20
72.27000000000001
 30
0.0
 11
0.0
 21
6.269999999999997
 31
0.0
  0
LINE
  5
1193E
330
11932
100
AcDbEntity
  8
0
100
AcDbLine
 10
-1.499999999999949
 20
72.27000000000001
 30
0.0
 11
-1.499999999999949
 21
6.269999999999997
 31
0.0
  0
LINE
  5
1193F
330
11932
100
AcDbEntity
  8
0
100
AcDbLine
 10
0.0
 20
80.27000000000001
 30
0.0
 11
0.0
 21
77.27000000000001
 31
0.0
  0
LINE
  5
11940
330
11932
100
AcDbEntity
  8
0
100
AcDbLine
 10
-1.499999999999972
 20
80.27000000000001
 30
0.0
 11
-1.499999999999972
 21
77.27000000000001
 31
0.0
  0
LINE
  5
11941
330
11932
100
AcDbEntity
  8
0
100
AcDbLine
 10
0.0
 20
1.270000000000108
 30
0.0
 11
0.0
 21
-0.0003899405809504
 31
0.0
  0
LINE
  5
11942
330
11932
100
AcDbEntity
  8
0
100
AcDbLine
 10
-4.362741700911187
 20
-2.263131641492086
 30
0.0
 11
-62.91118318265851
 21
-2.263131642256645
 31
0.0
  0
SPLINE
  5
11943
330
11932
100
AcDbEntity
  8
0
100
AcDbSpline
210
0.0
220
0.0
230
1.0
 70
     8
 71
     3
 72
     8
 73
     4
 74
     0
 42
0.000000001
 43
0.0000000001
 40
-1.0
 40
-1.0
 40
-1.0
 40
-1.0
 40
0.0
 40
0.0
 40
0.0
 40
0.0
 10
-1.675735931288075
 20
-0.4246540092928794
 30
0.0
 10
-1.57256696667051
 20
-0.3214850446753142
 30
0.0
 10
-1.500000000000004
 20
-0.1594792109354447
 30
0.0
 10
-1.500000000000004
 20
-0.0003899405809504
 30
0.0
  0
SPLINE
  5
11944
330
11932
100
AcDbEntity
  8
0
100
AcDbSpline
210
0.0
220
0.0
230
1.0
 70
     8
 71
     3
 72
     8
 73
     4
 74
     0
 42
0.000000001
 43
0.0000000001
 40
0.0
 40
0.0
 40
0.0
 40
0.0
 40
1.0
 40
1.0
 40
1.0
 40
1.0
 10
-0.0000000000000041
 20
-0.0003899405809502
 30
0.0
 10
-0.000000000000004
 20
-0.5572023868216798
 30
0.0
 10
-0.2539843833467763
 20
-1.124222804911223
 30
0.0
 10
-0.6150757595082542
 20
-1.4853141810727
 30
0.0
  0
LINE
  5
11945
330
11932
100
AcDbEntity
  8
0
100
AcDbLine
 10
-2.717240184541045
 20
-1.46615826254589
 30
0.0
 11
-2.288136209298505
 21
-1.037054287303349
 31
0.0
  0
LINE
  5
11946
330
11932
100
AcDbEntity
  8
0
100
AcDbLine
 10
-2.288136209298535
 20
-1.03705428730334
 30
0.0
 11
-1.675735931288072
 21
-0.4246540092928758
 31
0.0
  0
LINE
  5
11947
330
11932
100
AcDbEntity
  8
0
100
AcDbLine
 10
-2.717240184541045
 20
-1.46615826254589
 30
0.0
 11
-2.364040347337011
 21
-1.819358099749924
 31
0.0
  0
SPLINE
  5
11948
330
11932
100
AcDbEntity
  8
0
100
AcDbSpline
210
0.0
220
0.0
230
1.0
 70
     8
 71
     3
 72
     8
 73
     4
 74
     0
 42
0.000000001
 43
0.0000000001
 40
-1.0
 40
-1.0
 40
-1.0
 40
-1.0
 40
0.0
 40
0.0
 40
0.0
 40
0.0
 10
-4.362741700911154
 20
-2.263131641492119
 30
0.0
 10
-3.733518404784008
 20
-2.078196639180824
 30
0.0
 10
-3.124319333761131
 20
-1.873237411765936
 30
0.0
 10
-2.717240184541034
 20
-1.466158262545837
 30
0.0
  0
SPLINE
  5
11949
330
11932
100
AcDbEntity
  8
0
100
AcDbSpline
210
0.0
220
0.0
230
1.0
 70
     8
 71
     3
 72
     8
 73
     4
 74
     0
 42
0.000000001
 43
0.0000000001
 40
0.0
 40
0.0
 40
0.0
 40
0.0
 40
1.0
 40
1.0
 40
1.0
 40
1.0
 10
-1.656580012761212
 20
-2.526818434325658
 30
0.0
 10
-2.063659161981306
 20
-2.93389758354576
 30
0.0
 10
-3.178158037514195
 20
-2.633557006450636
 30
0.0
 10
-4.362741700911185
 20
-2.263131641492087
 30
0.0
  0
LINE
  5
1194A
330
11932
100
AcDbEntity
  8
0
100
AcDbLine
 10
-2.364040347337011
 20
-1.819358099749924
 30
0.0
 11
-1.656580012761225
 21
-2.52681843432571
 31
0.0
  0
LINE
  5
1194B
330
11932
100
AcDbEntity
  8
0
100
AcDbLine
 10
-0.6150757595082662
 20
-1.485314181072681
 30
0.0
 11
-1.227476037518729
 21
-2.097714459083146
 31
0.0
  0
LINE
  5
1194C
330
11932
100
AcDbEntity
  8
0
100
AcDbLine
 10
-0.6150757595082541
 20
-1.4853141810727
 30
0.0
 11
-1.322536092809332
 21
-0.7778538477716226
 31
0.0
  0
LINE
  5
1194D
330
11932
100
AcDbEntity
  8
0
100
AcDbLine
 10
-1.322536092809332
 20
-0.7778538477716226
 30
0.0
 11
-1.675735931288075
 21
-0.4246540092928793
 31
0.0
  0
LINE
  5
1194E
330
11932
100
AcDbEntity
  8
0
100
AcDbLine
 10
-2.288136209298505
 20
-1.037054287303349
 30
0.0
 11
-1.227476037518692
 21
-2.097714459083162
 31
0.0
  0
LINE
  5
1194F
330
11932
100
AcDbEntity
  8
0
100
AcDbLine
 10
-1.227476037518692
 20
-2.097714459083162
 30
0.0
 11
-1.656580012761225
 21
-2.52681843432571
 31
0.0
  0
LINE
  5
11950
330
11932
100
AcDbEntity
  8
0
100
AcDbLine
 10
-1.499999999999977
 20
-0.0003899405809504
 30
0.0
 11
-1.000499995435046
 21
-0.0003899405809504
 31
0.0
  0
LINE
  5
11951
330
11932
100
AcDbEntity
  8
0
100
AcDbLine
 10
-1.000499995435046
 20
-0.0003899405809504
 30
0.0
 11
0.0
 21
-0.0003899405809504
 31
0.0
  0
LINE
  5
11952
330
11932
100
AcDbEntity
  8
0
100
AcDbLine
 10
-1.499999999999987
 20
-0.0003899405809505
 30
0.0
 11
-1.499999999999986
 21
1.270000000000108
 31
0.0
  0
LINE
  5
11953
330
11932
100
AcDbEntity
  8
0
100
AcDbLine
 10
0.0
 20
80.27000000000001
 30
0.0
 11
0.0
 21
340.67
 31
0.0
  0
LINE
  5
11954
330
11932
100
AcDbEntity
  8
0
100
AcDbLine
 10
0.0
 20
340.67
 30
0.0
 11
-2.099999999999945
 21
340.67
 31
0.0
  0
LINE
  5
11955
330
11932
100
AcDbEntity
  8
0
100
AcDbLine
 10
-2.099999999999963
 20
80.27000000000001
 30
0.0
 11
0.0
 21
80.27000000000001
 31
0.0
  0
LINE
  5
11956
330
11932
100
AcDbEntity
  8
0
100
AcDbLine
 10
-38.49999999999996
 20
80.27000000000001
 30
0.0
 11
-43.49999999999996
 21
85.27000000000001
 31
0.0
  0
LINE
  5
11957
330
11932
100
AcDbEntity
  8
0
100
AcDbLine
 10
-43.49999999999996
 20
335.67
 30
0.0
 11
-38.49999999999995
 21
340.67
 31
0.0
  0
LINE
  5
11958
330
11932
100
AcDbEntity
  8
0
100
AcDbLine
 10
-82.00306627385996
 20
-28.42608254450009
 30
0.0
 11
-82.00306627385998
 21
-21.35501473263464
 31
0.0
  0
LINE
  5
11959
330
11932
100
AcDbEntity
  8
0
100
AcDbLine
 10
-43.49999999999996
 20
85.27000000000001
 30
0.0
 11
-43.49999999999996
 21
335.67
 31
0.0
  0
LINE
  5
1195A
330
11932
100
AcDbEntity
  8
0
100
AcDbLine
 10
-2.099999999999963
 20
80.27000000000001
 30
0.0
 11
-38.49999999999996
 21
80.27000000000001
 31
0.0
  0
LINE
  5
1195B
330
11932
100
AcDbEntity
  8
0
100
AcDbLine
 10
-38.49999999999995
 20
340.67
 30
0.0
 11
-2.099999999999946
 21
340.67
 31
0.0
  0
CIRCLE
  5
1195C
330
11932
100
AcDbEntity
  8
0
100
AcDbCircle
 10
-35.5
 20
332.7699999999999
 30
0.0
 40
2.5
  0
CIRCLE
  5
1195D
330
11932
100
AcDbEntity
  8
0
100
AcDbCircle
 10
-35.5
 20
312.77
 30
0.0
 40
2.5
  0
CIRCLE
  5
1195E
330
11932
100
AcDbEntity
  8
0
100
AcDbCircle
 10
-35.5
 20
292.77
 30
0.0
 40
2.5
  0
CIRCLE
  5
1195F
330
11932
100
AcDbEntity
  8
0
100
AcDbCircle
 10
-35.5
 20
272.77
 30
0.0
 40
2.5
  0
CIRCLE
  5
11960
330
11932
100
AcDbEntity
  8
0
100
AcDbCircle
 10
-35.5
 20
252.77
 30
0.0
 40
2.5
  0
CIRCLE
  5
11961
330
11932
100
AcDbEntity
  8
0
100
AcDbCircle
 10
-35.5
 20
232.77
 30
0.0
 40
2.5
  0
CIRCLE
  5
11962
330
11932
100
AcDbEntity
  8
0
100
AcDbCircle
 10
-35.5
 20
212.77
 30
0.0
 40
2.5
  0
CIRCLE
  5
11963
330
11932
100
AcDbEntity
  8
0
100
AcDbCircle
 10
-35.5
 20
192.77
 30
0.0
 40
2.5
  0
CIRCLE
  5
11964
330
11932
100
AcDbEntity
  8
0
100
AcDbCircle
 10
-35.5
 20
172.77
 30
0.0
 40
2.5
  0
CIRCLE
  5
11965
330
11932
100
AcDbEntity
  8
0
100
AcDbCircle
 10
-35.5
 20
152.77
 30
0.0
 40
2.5
  0
CIRCLE
  5
11966
330
11932
100
AcDbEntity
  8
0
100
AcDbCircle
 10
-35.5
 20
132.77
 30
0.0
 40
2.5
  0
CIRCLE
  5
11967
330
11932
100
AcDbEntity
  8
0
100
AcDbCircle
 10
-35.5
 20
112.77
 30
0.0
 40
2.5
  0
CIRCLE
  5
11968
330
11932
100
AcDbEntity
  8
0
100
AcDbCircle
 10
-35.5
 20
92.76999999999999
 30
0.0
 40
2.5
  0
LINE
  5
11969
330
11932
100
AcDbEntity
  8
0
100
AcDbLine
 10
-62.91118318265851
 20
-2.263131642256645
 30
0.0
 11
-82.00306627385998
 21
-21.35501473263464
 31
0.0
  0
LINE
  5
1196A
330
11932
100
AcDbEntity
  8
0
100
AcDbLine
 10
-1.656580012761225
 20
-2.52681843432571
 30
0.0
 11
-54.77945519839777
 21
-55.64969361996226
 31
0.0
  0
LINE
  5
1196B
330
11932
100
AcDbEntity
  8
0
100
AcDbLine
 10
-54.77945519839778
 20
-55.64969361996225
 30
0.0
 11
-56.26437943888953
 21
-54.16476937947056
 31
0.0
  0
LINE
  5
1196C
330
11932
100
AcDbEntity
  8
0
100
AcDbLine
 10
-56.26437943888952
 20
-54.16476937947052
 30
0.0
 11
-82.00306627385996
 21
-28.42608254450009
 31
0.0
  0
CIRCLE
  5
1196D
330
11932
100
AcDbEntity
  8
0
100
AcDbCircle
 10
-71.04291116530767
 20
-21.70856812338872
 30
0.0
 40
2.5
  0
ARC
  5
1196E
330
11932
100
AcDbEntity
  8
0
100
AcDbCircle
 10
-51.59747468238809
 20
-9.33419945291363
 30
0.0
 40
0.8000000000000015
100
AcDbArc
 50
344.9999999989572
 51
355.4526675359234
  0
LINE
  5
1196F
330
11932
100
AcDbEntity
  8
0
100
AcDbLine
 10
-50.82473402136063
 20
-9.541254689009706
 30
0.0
 11
-51.94545336164679
 21
-13.72383620767836
 31
0.0
  0
ARC
  5
11970
330
11932
100
AcDbEntity
  8
0
100
AcDbCircle
 10
-52.71819402267426
 20
-13.51678097158229
 30
0.0
 40
0.8
100
AcDbArc
 50
224.9999999989572
 51
344.9999999989576
  0
LINE
  5
11971
330
11932
100
AcDbEntity
  8
0
100
AcDbLine
 10
-53.28387944763379
 20
-14.08246639652124
 30
0.0
 11
-56.34574162605708
 21
-11.02060421798654
 31
0.0
  0
ARC
  5
11972
330
11932
100
AcDbEntity
  8
0
100
AcDbCircle
 10
-55.78005620109753
 20
-10.45491879304759
 30
0.0
 40
0.8000000000000014
100
AcDbArc
 50
104.9999999989575
 51
224.9999999989572
  0
LINE
  5
11973
330
11932
100
AcDbEntity
  8
0
100
AcDbLine
 10
-55.9871114371655
 20
-9.682178132012559
 30
0.0
 11
-51.80452991845606
 21
-8.561458791878598
 31
0.0
  0
ARC
  5
11974
330
11932
100
AcDbEntity
  8
0
100
AcDbCircle
 10
-51.59747468238809
 20
-9.33419945291363
 30
0.0
 40
0.8000000000000014
100
AcDbArc
 50
49.59733246198601
 51
104.9999999989581
  0
LINE
  5
11975
330
11932
100
AcDbEntity
  8
0
100
AcDbLine
 10
-51.07895039795263
 20
-8.724992947325674
 30
0.0
 11
-50.79999294004348
 21
-9.397625556585486
 31
0.0
  0
ARC
  5
11976
330
11932
100
AcDbEntity
  8
0
100
AcDbCircle
 10
-55.13300858838519
 20
-12.86973335878203
 30
0.0
 40
0.8000000000000015
100
AcDbArc
 50
349.2288663267692
 51
100.7711336711455
  0
ENDBLK
  5
11934
330
11932
100
AcDbEntity
  8
0
100
AcDbBlockEnd
  0
BLOCK
  5
11978
330
11977
100
AcDbEntity
  8
0
100
AcDbBlockBegin
  2
SPR80_340-Top
 70
     0
 10
0.0
 20
0.0
 30
0.0
  3
SPR80_340-Top
  1

  0
LINE
  5
1197A
330
11977
100
AcDbEntity
  8
0
100
AcDbLine
 10
82.52709056099996
 20
-1.499999999999949
 30
0.0
 11
82.52709056099996
 21
0.0
 31
0.0
  0
LINE
  5
1197B
330
11977
100
AcDbEntity
  8
0
100
AcDbLine
 10
-77.52709056100001
 20
0.0
 30
0.0
 11
-82.52709056100004
 21
0.0
 31
0.0
  0
LINE
  5
1197C
330
11977
100
AcDbEntity
  8
0
100
AcDbLine
 10
82.52709056099996
 20
0.0
 30
0.0
 11
77.52709056099998
 21
0.0
 31
0.0
  0
LINE
  5
1197D
330
11977
100
AcDbEntity
  8
0
100
AcDbLine
 10
-82.52709056100004
 20
0.0
 30
0.0
 11
-82.52709056100004
 21
-1.500000000000032
 31
0.0
  0
LINE
  5
1197E
330
11977
100
AcDbEntity
  8
0
100
AcDbLine
 10
-82.52709056100004
 20
-1.500000000000032
 30
0.0
 11
-77.52709056100001
 21
-1.50000000000003
 31
0.0
  0
LINE
  5
1197F
330
11977
100
AcDbEntity
  8
0
100
AcDbLine
 10
-77.52709056100001
 20
-1.50000000000003
 30
0.0
 11
-77.52709056100001
 21
0.0
 31
0.0
  0
LINE
  5
11980
330
11977
100
AcDbEntity
  8
0
100
AcDbLine
 10
77.52709056099998
 20
-1.499999999999952
 30
0.0
 11
82.52709056099996
 21
-1.499999999999949
 31
0.0
  0
LINE
  5
11981
330
11977
100
AcDbEntity
  8
0
100
AcDbLine
 10
77.52709056099998
 20
0.0
 30
0.0
 11
77.52709056099998
 21
-1.499999999999952
 31
0.0
  0
LINE
  5
11982
330
11977
100
AcDbEntity
  8
0
100
AcDbLine
 10
-77.52709056100001
 20
0.0
 30
0.0
 11
-39.40000000000002
 21
0.0
 31
0.0
  0
LINE
  5
11983
330
11977
100
AcDbEntity
  8
0
100
AcDbLine
 10
39.40000000000001
 20
0.0
 30
0.0
 11
77.52709056099998
 21
0.0
 31
0.0
  0
LINE
  5
11984
330
11977
100
AcDbEntity
  8
0
100
AcDbLine
 10
41.41246117974982
 20
-1.49999999999997
 30
0.0
 11
77.52709056099998
 21
-1.499999999999952
 31
0.0
  0
LINE
  5
11985
330
11977
100
AcDbEntity
  8
0
100
AcDbLine
 10
-77.52709056100001
 20
-1.50000000000003
 30
0.0
 11
-41.41246117974982
 21
-1.500000000000012
 31
0.0
  0
LINE
  5
11986
330
11977
100
AcDbEntity
  8
0
100
AcDbLine
 10
39.40000000000001
 20
0.0
 30
0.0
 11
-39.40000000000001
 21
0.0
 31
0.0
  0
LINE
  5
11987
330
11977
100
AcDbEntity
  8
0
100
AcDbLine
 10
41.50000000000021
 20
-38.49999999999995
 30
0.0
 11
41.5
 21
-2.099999999999946
 31
0.0
  0
LINE
  5
11988
330
11977
100
AcDbEntity
  8
0
100
AcDbLine
 10
-41.50000000000001
 20
-2.100000000000008
 30
0.0
 11
-41.5
 21
-38.50000000000001
 31
0.0
  0
LINE
  5
11989
330
11977
100
AcDbEntity
  8
0
100
AcDbLine
 10
40.0
 20
-2.099999999999946
 30
0.0
 11
40.00000000000021
 21
-38.49999999999997
 31
0.0
  0
LINE
  5
1198A
330
11977
100
AcDbEntity
  8
0
100
AcDbLine
 10
-39.40000000000001
 20
-1.500000000000012
 30
0.0
 11
39.4
 21
-1.499999999999968
 31
0.0
  0
LINE
  5
1198B
330
11977
100
AcDbEntity
  8
0
100
AcDbLine
 10
-40.0
 20
-38.50000000000001
 30
0.0
 11
-40.0
 21
-2.100000000000008
 31
0.0
  0
LINE
  5
1198C
330
11977
100
AcDbEntity
  8
0
100
AcDbLine
 10
40.00000000000024
 20
-43.49999999999996
 30
0.0
 11
41.50000000000026
 21
-43.49999999999996
 31
0.0
  0
LINE
  5
1198D
330
11977
100
AcDbEntity
  8
0
100
AcDbLine
 10
41.50000000000026
 20
-43.49999999999996
 30
0.0
 11
41.50000000000021
 21
-38.49999999999995
 31
0.0
  0
LINE
  5
1198E
330
11977
100
AcDbEntity
  8
0
100
AcDbLine
 10
-41.5
 20
-38.50000000000001
 30
0.0
 11
-41.5
 21
-43.50000000000001
 31
0.0
  0
LINE
  5
1198F
330
11977
100
AcDbEntity
  8
0
100
AcDbLine
 10
-41.5
 20
-43.50000000000001
 30
0.0
 11
-40.0
 21
-43.50000000000001
 31
0.0
  0
LINE
  5
11990
330
11977
100
AcDbEntity
  8
0
100
AcDbLine
 10
41.50000000000021
 20
-38.49999999999995
 30
0.0
 11
40.00000000000021
 21
-38.49999999999997
 31
0.0
  0
LINE
  5
11991
330
11977
100
AcDbEntity
  8
0
100
AcDbLine
 10
40.00000000000021
 20
-38.49999999999997
 30
0.0
 11
40.00000000000024
 21
-43.49999999999996
 31
0.0
  0
LINE
  5
11992
330
11977
100
AcDbEntity
  8
0
100
AcDbLine
 10
-40.0
 20
-43.50000000000001
 30
0.0
 11
-40.0
 21
-38.50000000000001
 31
0.0
  0
LINE
  5
11993
330
11977
100
AcDbEntity
  8
0
100
AcDbLine
 10
-40.0
 20
-38.50000000000001
 30
0.0
 11
-41.5
 21
-38.50000000000001
 31
0.0
  0
LINE
  5
11994
330
11977
100
AcDbEntity
  8
0
100
AcDbLine
 10
41.49999999999997
 20
-82.00306627385998
 30
0.0
 11
39.99999999999998
 21
-82.00306627385998
 31
0.0
  0
LINE
  5
11995
330
11977
100
AcDbEntity
  8
0
100
AcDbLine
 10
-39.99999999999996
 20
-82.00306627385998
 30
0.0
 11
-41.49999999999995
 21
-82.00306627386
 31
0.0
  0
LINE
  5
11996
330
11977
100
AcDbEntity
  8
0
100
AcDbLine
 10
41.49999999999881
 20
-62.91118318265851
 30
0.0
 11
41.49999999999997
 21
-82.00306627385998
 31
0.0
  0
LINE
  5
11997
330
11977
100
AcDbEntity
  8
0
100
AcDbLine
 10
39.99999999999888
 20
-62.91118318265851
 30
0.0
 11
39.99999999999998
 21
-82.00306627385998
 31
0.0
  0
ELLIPSE
  5
11998
330
11977
100
AcDbEntity
  8
0
100
AcDbEllipse
 10
39.4
 20
-56.26437943888949
 30
0.0
 11
0.5999999999999586
 21
-0.0000000000000092
 31
0.0
210
0.0
220
0.0
230
1.0
 40
0.7071067811866067
 41
0.0
 42
1.570796326794914
  0
LINE
  5
11999
330
11977
100
AcDbEntity
  8
0
100
AcDbLine
 10
41.49999999999881
 20
-62.91118318265851
 30
0.0
 11
39.99999999999888
 21
-62.91118318265851
 31
0.0
  0
LINE
  5
1199A
330
11977
100
AcDbEntity
  8
0
100
AcDbLine
 10
41.49999999999995
 20
-43.49999999999996
 30
0.0
 11
41.49999999999881
 21
-62.91118318265851
 31
0.0
  0
LINE
  5
1199B
330
11977
100
AcDbEntity
  8
0
100
AcDbLine
 10
-41.50000000000303
 20
-62.91118318265853
 30
0.0
 11
-41.50000000000305
 21
-43.50000000000001
 31
0.0
  0
SPLINE
  5
1199C
330
11977
100
AcDbEntity
  8
0
100
AcDbSpline
210
0.0
220
0.0
230
1.0
 70
     8
 71
     3
 72
     8
 73
     4
 74
     0
 42
0.000000001
 43
0.0000000001
 40
-1.0
 40
-1.0
 40
-1.0
 40
-1.0
 40
0.0
 40
0.0
 40
0.0
 40
0.0
 10
-35.01767776087194
 20
-1.500000000000019
 30
0.0
 10
-34.97251992073993
 20
-1.500000000000019
 30
0.0
 10
-35.01586474390245
 20
-1.572566966670533
 30
0.0
 10
-35.14054197002052
 20
-1.675735931288091
 30
0.0
  0
SPLINE
  5
1199D
330
11977
100
AcDbEntity
  8
0
100
AcDbSpline
210
0.0
220
0.0
230
1.0
 70
     8
 71
     3
 72
     8
 73
     4
 74
     0
 42
0.000000001
 43
0.0000000001
 40
-1.0
 40
-1.0
 40
-1.0
 40
-1.0
 40
0.0
 40
0.0
 40
0.0
 40
0.0
 10
35.1405419700205
 20
-1.675735931288075
 30
0.0
 10
35.01586474390217
 20
-1.57256696667051
 30
0.0
 10
34.97251992073988
 20
-1.500000000000004
 30
0.0
 10
35.01767776087195
 20
-1.500000000000004
 30
0.0
  0
ELLIPSE
  5
1199E
330
11977
100
AcDbEntity
  8
0
100
AcDbEllipse
 10
-36.50000000000001
 20
-1.227476037518731
 30
0.0
 11
-1.5
 21
0.0000000000001091
 31
0.0
210
0.0
220
0.0
230
1.0
 40
0.7071067811865474
 41
1.570796326795026
 42
2.70525458196206
  0
LINE
  5
1199F
330
11977
100
AcDbEntity
  8
0
100
AcDbLine
 10
-36.50000000000001
 20
-2.288136209298537
 30
0.0
 11
-38.79315533855965
 21
-2.288136209298538
 31
0.0
  0
LINE
  5
119A0
330
11977
100
AcDbEntity
  8
0
100
AcDbLine
 10
-38.79315533855965
 20
-2.288136209298538
 30
0.0
 11
-39.40000000000001
 21
-2.717240184541075
 31
0.0
  0
LINE
  5
119A1
330
11977
100
AcDbEntity
  8
0
100
AcDbLine
 10
39.39999999999999
 20
-2.717240184541045
 30
0.0
 11
38.79315533855963
 21
-2.288136209298505
 31
0.0
  0
LINE
  5
119A2
330
11977
100
AcDbEntity
  8
0
100
AcDbLine
 10
38.79315533855963
 20
-2.288136209298505
 30
0.0
 11
36.49999999999999
 21
-2.288136209298506
 31
0.0
  0
ELLIPSE
  5
119A3
330
11977
100
AcDbEntity
  8
0
100
AcDbEllipse
 10
36.49999999999999
 20
-1.227476037518715
 30
0.0
 11
-1.5
 21
-0.0000000000000003
 31
0.0
210
0.0
220
0.0
230
1.0
 40
0.7071067811865474
 41
0.436338071627989
 42
1.570796326794896
  0
LINE
  5
119A4
330
11977
100
AcDbEntity
  8
0
100
AcDbLine
 10
-40.00000000000254
 20
-62.91118318265853
 30
0.0
 11
-41.50000000000303
 21
-62.91118318265853
 31
0.0
  0
LINE
  5
119A5
330
11977
100
AcDbEntity
  8
0
100
AcDbLine
 10
-40.00000000000001
 20
-43.50000000000001
 30
0.0
 11
-40.00000000000254
 21
-62.91118318265853
 31
0.0
  0
SPLINE
  5
119A6
330
11977
100
AcDbEntity
  8
0
100
AcDbSpline
210
0.0
220
0.0
230
1.0
 70
     8
 71
     3
 72
     8
 73
     4
 74
     0
 42
0.000000001
 43
0.0000000001
 40
-1.0
 40
-1.0
 40
-1.0
 40
-1.0
 40
0.0
 40
0.0
 40
0.0
 40
0.0
 10
-39.40000000000001
 20
-2.717240184541074
 30
0.0
 10
-39.71415926535899
 20
-3.124319333760308
 30
0.0
 10
-40.0
 20
-3.733518404784347
 30
0.0
 10
-40.00000000000002
 20
-4.36274170091115
 30
0.0
  0
LINE
  5
119A7
330
11977
100
AcDbEntity
  8
0
100
AcDbLine
 10
-39.40000000000001
 20
-2.717240184541075
 30
0.0
 11
-39.40000000000001
 21
-2.364040347338709
 31
0.0
  0
LINE
  5
119A8
330
11977
100
AcDbEntity
  8
0
100
AcDbLine
 10
-39.40000000000001
 20
-2.364040347338709
 30
0.0
 11
-39.40000000000001
 21
-1.656580012761253
 31
0.0
  0
SPLINE
  5
119A9
330
11977
100
AcDbEntity
  8
0
100
AcDbSpline
210
0.0
220
0.0
230
1.0
 70
     8
 71
     3
 72
     8
 73
     4
 74
     0
 42
0.000000001
 43
0.0000000001
 40
0.823392608386173
 40
0.823392608386173
 40
0.823392608386173
 40
0.823392608386173
 40
1.0
 40
1.0
 40
1.0
 40
1.0
 10
-39.96833079343948
 20
-1.934942494001846
 30
0.0
 10
-39.78528852951264
 20
-1.822430928280913
 30
0.0
 10
-39.59418996942228
 20
-1.728473199485236
 30
0.0
 10
-39.4
 20
-1.656580012761252
 30
0.0
  0
LINE
  5
119AA
330
11977
100
AcDbEntity
  8
0
100
AcDbLine
 10
-39.40000000000001
 20
-1.656580012761253
 30
0.0
 11
-39.17856242236228
 21
-1.500000000000007
 31
0.0
  0
LINE
  5
119AB
330
11977
100
AcDbEntity
  8
0
100
AcDbLine
 10
-38.79315533855965
 20
-2.288136209298538
 30
0.0
 11
-38.79315533855965
 21
-1.500000000000012
 31
0.0
  0
LINE
  5
119AC
330
11977
100
AcDbEntity
  8
0
100
AcDbLine
 10
-35.14054197002048
 20
-1.675735931288091
 30
0.0
 11
-35.14054197002048
 21
-1.500000000000009
 31
0.0
  0
LINE
  5
119AD
330
11977
100
AcDbEntity
  8
0
100
AcDbLine
 10
39.99999999999888
 20
-62.91118318265851
 30
0.0
 11
39.99999999999887
 21
-43.49999999999996
 31
0.0
  0
LINE
  5
119AE
330
11977
100
AcDbEntity
  8
0
100
AcDbLine
 10
39.39999999999999
 20
-2.717240184541045
 30
0.0
 11
39.39999999999999
 21
-2.364040347337011
 31
0.0
  0
SPLINE
  5
119AF
330
11977
100
AcDbEntity
  8
0
100
AcDbSpline
210
0.0
220
0.0
230
1.0
 70
     8
 71
     3
 72
     8
 73
     4
 74
     0
 42
0.000000001
 43
0.0000000001
 40
-1.0
 40
-1.0
 40
-1.0
 40
-1.0
 40
0.0
 40
0.0
 40
0.0
 40
0.0
 10
39.99999999999996
 20
-4.362741700911154
 30
0.0
 10
39.99999999999996
 20
-3.733518404784008
 30
0.0
 10
39.71415926535895
 20
-3.124319333761131
 30
0.0
 10
39.39999999999999
 20
-2.717240184541034
 30
0.0
  0
SPLINE
  5
119B0
330
11977
100
AcDbEntity
  8
0
100
AcDbSpline
210
0.0
220
0.0
230
1.0
 70
     8
 71
     3
 72
     8
 73
     4
 74
     0
 42
0.000000001
 43
0.0000000001
 40
0.0
 40
0.0
 40
0.0
 40
0.0
 40
0.176607391613834
 40
0.176607391613834
 40
0.176607391613834
 40
0.176607391613834
 10
39.39999999999998
 20
-1.656580012761212
 30
0.0
 10
39.59418996942227
 20
-1.728473199485351
 30
0.0
 10
39.78528852951261
 20
-1.822430928281123
 30
0.0
 10
39.96833079343947
 20
-1.934942494002109
 30
0.0
  0
LINE
  5
119B1
330
11977
100
AcDbEntity
  8
0
100
AcDbLine
 10
39.39999999999999
 20
-2.364040347337011
 30
0.0
 11
39.39999999999999
 21
-1.656580012761225
 31
0.0
  0
LINE
  5
119B2
330
11977
100
AcDbEntity
  8
0
100
AcDbLine
 10
35.1405419700205
 20
-1.499999999999973
 30
0.0
 11
35.14054197002047
 21
-1.675735931288075
 31
0.0
  0
LINE
  5
119B3
330
11977
100
AcDbEntity
  8
0
100
AcDbLine
 10
38.79315533855963
 20
-2.288136209298505
 30
0.0
 11
38.79315533855963
 21
-1.499999999999971
 31
0.0
  0
LINE
  5
119B4
330
11977
100
AcDbEntity
  8
0
100
AcDbLine
 10
39.17856242236222
 20
-1.49999999999996
 30
0.0
 11
39.39999999999999
 21
-1.656580012761225
 31
0.0
  0
LINE
  5
119B5
330
11977
100
AcDbEntity
  8
0
100
AcDbLine
 10
-41.50000000000303
 20
-62.91118318265853
 30
0.0
 11
-41.49999999999995
 21
-82.00306627386
 31
0.0
  0
LINE
  5
119B6
330
11977
100
AcDbEntity
  8
0
100
AcDbLine
 10
-40.00000000000254
 20
-62.91118318265853
 30
0.0
 11
-39.99999999999996
 21
-82.00306627385998
 31
0.0
  0
ELLIPSE
  5
119B7
330
11977
100
AcDbEntity
  8
0
100
AcDbEllipse
 10
-22.50000000000001
 20
-0.1668158657389272
 30
0.0
 11
2.499999999999999
 21
0.0000000000001836
 31
0.0
210
0.0
220
0.0
230
1.0
 40
0.7071067811865474
 41
3.995971005725007
 42
5.428806955044096
  0
LINE
  5
119B8
330
11977
100
AcDbEntity
  8
0
100
AcDbLine
 10
-24.91828991960762
 20
-1.500000000000003
 30
0.0
 11
-24.91828991960762
 21
-1.675735931288089
 31
0.0
  0
ELLIPSE
  5
119B9
330
11977
100
AcDbEntity
  8
0
100
AcDbEllipse
 10
-22.50000000000001
 20
-1.227476037518728
 30
0.0
 11
2.499999999999999
 21
0.0000000000000003
 31
0.0
210
0.0
220
0.0
230
1.0
 40
0.7071067811865475
 41
3.397965980608286
 42
6.026811980161093
  0
LINE
  5
119BA
330
11977
100
AcDbEntity
  8
0
100
AcDbLine
 10
-20.08171008039241
 20
-1.675735931288088
 30
0.0
 11
-20.08171008039241
 21
-1.500000000000001
 31
0.0
  0
SPLINE
  5
119BB
330
11977
100
AcDbEntity
  8
0
100
AcDbSpline
210
0.0
220
0.0
230
1.0
 70
     8
 71
     3
 72
     8
 73
     4
 74
     0
 42
0.000000001
 43
0.0000000001
 40
-1.0
 40
-1.0
 40
-1.0
 40
-1.0
 40
0.0
 40
0.0
 40
0.0
 40
0.0
 10
-24.91828991960762
 20
-1.675735931288089
 30
0.0
 10
-24.99189972302012
 20
-1.567383125827692
 30
0.0
 10
-25.01609483643936
 20
-1.500000000000017
 30
0.0
 10
-24.98943351399745
 20
-1.500000000000017
 30
0.0
  0
SPLINE
  5
119BC
330
11977
100
AcDbEntity
  8
0
100
AcDbSpline
210
0.0
220
0.0
230
1.0
 70
     8
 71
     3
 72
     8
 73
     4
 74
     0
 42
0.000000001
 43
0.0000000001
 40
-1.0
 40
-1.0
 40
-1.0
 40
-1.0
 40
0.0
 40
0.0
 40
0.0
 40
0.0
 10
-20.01056648600258
 20
-1.500000000000016
 30
0.0
 10
-19.98390516356066
 20
-1.500000000000016
 30
0.0
 10
-20.00810027697966
 20
-1.567383125827665
 30
0.0
 10
-20.08171008039241
 20
-1.675735931288087
 30
0.0
  0
ELLIPSE
  5
119BD
330
11977
100
AcDbEntity
  8
0
100
AcDbEllipse
 10
22.49999999999999
 20
-0.1668158657389175
 30
0.0
 11
2.5
 21
0.0000000000001826
 31
0.0
210
0.0
220
0.0
230
1.0
 40
0.7071067811865475
 41
3.995971005725005
 42
5.428806955044115
  0
LINE
  5
119BE
330
11977
100
AcDbEntity
  8
0
100
AcDbLine
 10
20.08171008039238
 20
-1.49999999999999
 30
0.0
 11
20.08171008039238
 21
-1.675735931288079
 31
0.0
  0
ELLIPSE
  5
119BF
330
11977
100
AcDbEntity
  8
0
100
AcDbEllipse
 10
22.49999999999999
 20
-1.227476037518718
 30
0.0
 11
2.5
 21
0.0000000000000003
 31
0.0
210
0.0
220
0.0
230
1.0
 40
0.7071067811865475
 41
3.397965980608286
 42
6.026811980161093
  0
LINE
  5
119C0
330
11977
100
AcDbEntity
  8
0
100
AcDbLine
 10
24.91828991960759
 20
-1.675735931288078
 30
0.0
 11
24.91828991960759
 21
-1.499999999999976
 31
0.0
  0
SPLINE
  5
119C1
330
11977
100
AcDbEntity
  8
0
100
AcDbSpline
210
0.0
220
0.0
230
1.0
 70
     8
 71
     3
 72
     8
 73
     4
 74
     0
 42
0.000000001
 43
0.0000000001
 40
-1.0
 40
-1.0
 40
-1.0
 40
-1.0
 40
0.0
 40
0.0
 40
0.0
 40
0.0
 10
20.08171008039238
 20
-1.675735931288079
 30
0.0
 10
20.00810027697975
 20
-1.567383125827693
 30
0.0
 10
19.98390516356064
 20
-1.500000000000007
 30
0.0
 10
20.01056648600255
 20
-1.500000000000007
 30
0.0
  0
SPLINE
  5
119C2
330
11977
100
AcDbEntity
  8
0
100
AcDbSpline
210
0.0
220
0.0
230
1.0
 70
     8
 71
     3
 72
     8
 73
     4
 74
     0
 42
0.000000001
 43
0.0000000001
 40
-1.0
 40
-1.0
 40
-1.0
 40
-1.0
 40
0.0
 40
0.0
 40
0.0
 40
0.0
 10
24.98943351399742
 20
-1.500000000000006
 30
0.0
 10
25.0160948364393
 20
-1.500000000000006
 30
0.0
 10
24.99189972302016
 20
-1.567383125827636
 30
0.0
 10
24.9182899196076
 20
-1.675735931288078
 30
0.0
  0
SPLINE
  5
119C3
330
11977
100
AcDbEntity
  8
0
100
AcDbSpline
210
0.0
220
0.0
230
1.0
 70
     8
 71
     3
 72
     8
 73
     4
 74
     0
 42
0.000000001
 43
0.0000000001
 40
-1.0
 40
-1.0
 40
-1.0
 40
-1.0
 40
0.0
 40
0.0
 40
0.0
 40
0.0
 10
-4.918289920131944
 20
-1.675735931288084
 30
0.0
 10
-4.991899723307195
 20
-1.567383125811566
 30
0.0
 10
-5.01609483648541
 20
-1.500000000000013
 30
0.0
 10
-4.989433513812963
 20
-1.500000000000013
 30
0.0
  0
SPLINE
  5
119C4
330
11977
100
AcDbEntity
  8
0
100
AcDbSpline
210
0.0
220
0.0
230
1.0
 70
     8
 71
     3
 72
     8
 73
     4
 74
     0
 42
0.000000001
 43
0.0000000001
 40
-1.0
 40
-1.0
 40
-1.0
 40
-1.0
 40
0.0
 40
0.0
 40
0.0
 40
0.0
 10
4.989433513812949
 20
-1.500000000000011
 30
0.0
 10
5.016094836485295
 20
-1.500000000000011
 30
0.0
 10
4.991899723307192
 20
-1.567383125811559
 30
0.0
 10
4.918289920131907
 20
-1.675735931288082
 30
0.0
  0
ELLIPSE
  5
119C5
330
11977
100
AcDbEntity
  8
0
100
AcDbEllipse
 10
-2.500000000000008
 20
-0.166815867153261
 30
0.0
 11
2.5
 21
0.000000000000183
 31
0.0
210
0.0
220
0.0
230
1.0
 40
0.7071067811865474
 41
3.99597100450666
 42
4.712388980384622
  0
LINE
  5
119C6
330
11977
100
AcDbEntity
  8
0
100
AcDbLine
 10
-4.918289920131944
 20
-1.499999999999992
 30
0.0
 11
-4.918289920131945
 21
-1.675735931288084
 31
0.0
  0
ELLIPSE
  5
119C7
330
11977
100
AcDbEntity
  8
0
100
AcDbEllipse
 10
-2.500000000000008
 20
-1.227476038933062
 30
0.0
 11
-2.5
 21
-0.0000000000000002
 31
0.0
210
0.0
220
0.0
230
1.0
 40
0.7071067811865474
 41
0.2563733261913885
 42
1.570796326794896
  0
LINE
  5
119C8
330
11977
100
AcDbEntity
  8
0
100
AcDbLine
 10
-2.500000000000008
 20
-1.934582820119596
 30
0.0
 11
2.499999999999987
 21
-1.934582820119594
 31
0.0
  0
LINE
  5
119C9
330
11977
100
AcDbEntity
  8
0
100
AcDbLine
 10
2.499999999999987
 20
-2.995242991899417
 30
0.0
 11
-2.500000000000008
 21
-2.995242991899419
 31
0.0
  0
ELLIPSE
  5
119CA
330
11977
100
AcDbEntity
  8
0
100
AcDbEllipse
 10
2.499999999999986
 20
-0.1668158671532056
 30
0.0
 11
2.5
 21
0.0000000000000006
 31
0.0
210
0.0
220
0.0
230
1.0
 40
0.7071067811865472
 41
4.712388980384689
 42
5.42880695626254
  0
ELLIPSE
  5
119CB
330
11977
100
AcDbEntity
  8
0
100
AcDbEllipse
 10
2.499999999999986
 20
-1.227476038933011
 30
0.0
 11
2.499999999999999
 21
0.0000000000000006
 31
0.0
210
0.0
220
0.0
230
1.0
 40
0.7071067811865475
 41
4.712388980384689
 42
6.026811980988168
  0
LINE
  5
119CC
330
11977
100
AcDbEntity
  8
0
100
AcDbLine
 10
4.918289920131904
 20
-1.675735931288082
 30
0.0
 11
4.918289920131904
 21
-1.499999999999987
 31
0.0
  0
LINE
  5
119CD
330
11977
100
AcDbEntity
  8
0
100
AcDbLine
 10
-39.39999999999999
 20
-55.8401153701776
 30
0.0
 11
39.4
 21
-55.84011537017758
 31
0.0
  0
ELLIPSE
  5
119CE
330
11977
100
AcDbEntity
  8
0
100
AcDbEllipse
 10
-39.39999999999999
 20
-56.26437943888955
 30
0.0
 11
-0.6000000000000089
 21
-0.0000000000000268
 31
0.0
210
0.0
220
0.0
230
1.0
 40
0.7071067811865187
 41
4.712388980384583
 42
6.283185307179418
  0
ARC
  5
119CF
330
11977
100
AcDbEntity
  8
0
100
AcDbCircle
 10
39.40000000000001
 20
-2.099999999999972
 30
0.0
 40
0.6000000000000006
100
AcDbArc
 50
0.0
 51
90.0
  0
ARC
  5
119D0
330
11977
100
AcDbEntity
  8
0
100
AcDbCircle
 10
39.40000000000001
 20
-2.099999999999972
 30
0.0
 40
2.100000000000008
100
AcDbArc
 50
0.0
 51
90.0
  0
ARC
  5
119D1
330
11977
100
AcDbEntity
  8
0
100
AcDbCircle
 10
-39.40000000000001
 20
-2.100000000000008
 30
0.0
 40
0.6000000000000006
100
AcDbArc
 50
90.0
 51
180.0
  0
ARC
  5
119D2
330
11977
100
AcDbEntity
  8
0
100
AcDbCircle
 10
-39.40000000000001
 20
-2.100000000000008
 30
0.0
 40
2.100000000000004
100
AcDbArc
 50
90.0
 51
180.0
  0
ENDBLK
  5
11979
330
11977
100
AcDbEntity
  8
0
100
AcDbBlockEnd
  0
BLOCK
  5
119D4
330
119D3
100
AcDbEntity
  8
0
100
AcDbBlockBegin
  2
SPR80_340-Bottom
 70
     0
 10
0.0
 20
0.0
 30
0.0
  3
SPR80_340-Bottom
  1

  0
LINE
  5
119D6
330
119D3
100
AcDbEntity
  8
0
100
AcDbLine
 10
82.527090561
 20
1.499999999999949
 30
0.0
 11
77.52709056100001
 21
1.499999999999952
 31
0.0
  0
LINE
  5
119D7
330
119D3
100
AcDbEntity
  8
0
100
AcDbLine
 10
77.52709056100001
 20
1.499999999999952
 30
0.0
 11
77.52709056100001
 21
0.0
 31
0.0
  0
LINE
  5
119D8
330
119D3
100
AcDbEntity
  8
0
100
AcDbLine
 10
77.52709056100001
 20
0.0
 30
0.0
 11
82.527090561
 21
0.0
 31
0.0
  0
LINE
  5
119D9
330
119D3
100
AcDbEntity
  8
0
100
AcDbLine
 10
82.527090561
 20
0.0
 30
0.0
 11
82.527090561
 21
1.499999999999949
 31
0.0
  0
LINE
  5
119DA
330
119D3
100
AcDbEntity
  8
0
100
AcDbLine
 10
-82.52709056100004
 20
0.0
 30
0.0
 11
-77.52709056100004
 21
0.0
 31
0.0
  0
LINE
  5
119DB
330
119D3
100
AcDbEntity
  8
0
100
AcDbLine
 10
-77.52709056100004
 20
1.50000000000003
 30
0.0
 11
-82.52709056100004
 21
1.500000000000032
 31
0.0
  0
LINE
  5
119DC
330
119D3
100
AcDbEntity
  8
0
100
AcDbLine
 10
-82.52709056100004
 20
1.500000000000032
 30
0.0
 11
-82.52709056100004
 21
0.0
 31
0.0
  0
LINE
  5
119DD
330
119D3
100
AcDbEntity
  8
0
100
AcDbLine
 10
-77.52709056100004
 20
0.0
 30
0.0
 11
-77.52709056100004
 21
1.50000000000003
 31
0.0
  0
LINE
  5
119DE
330
119D3
100
AcDbEntity
  8
0
100
AcDbLine
 10
77.52709056100001
 20
0.0
 30
0.0
 11
36.49999999999999
 21
0.0
 31
0.0
  0
LINE
  5
119DF
330
119D3
100
AcDbEntity
  8
0
100
AcDbLine
 10
-36.50000000000001
 20
0.0
 30
0.0
 11
-77.52709056100002
 21
0.0
 31
0.0
  0
LINE
  5
119E0
330
119D3
100
AcDbEntity
  8
0
100
AcDbLine
 10
-39.17856242236229
 20
1.500000000000014
 30
0.0
 11
-77.52709056100004
 21
1.50000000000003
 31
0.0
  0
LINE
  5
119E1
330
119D3
100
AcDbEntity
  8
0
100
AcDbLine
 10
77.52709056100001
 20
1.499999999999952
 30
0.0
 11
39.17856242236226
 21
1.499999999999971
 31
0.0
  0
LINE
  5
119E2
330
119D3
100
AcDbEntity
  8
0
100
AcDbLine
 10
36.49999999999999
 20
0.0
 30
0.0
 11
35.01767776087193
 21
0.0
 31
0.0
  0
LINE
  5
119E3
330
119D3
100
AcDbEntity
  8
0
100
AcDbLine
 10
-35.01767776087195
 20
0.0
 30
0.0
 11
-36.50000000000001
 21
0.0
 31
0.0
  0
SPLINE
  5
119E4
330
119D3
100
AcDbEntity
  8
0
100
AcDbSpline
210
0.0
220
0.0
230
1.0
 70
     8
 71
     3
 72
     8
 73
     4
 74
     0
 42
0.000000001
 43
0.0000000001
 40
0.0
 40
0.0
 40
0.0
 40
0.0
 40
1.0
 40
1.0
 40
1.0
 40
1.0
 10
-35.14054197002052
 20
0.6150757595082699
 30
0.0
 10
-35.01586474390245
 20
0.2539843833468153
 30
0.0
 10
-34.97251992073993
 20
0.0000000000000196
 30
0.0
 10
-35.01767776087194
 20
0.0000000000000197
 30
0.0
  0
SPLINE
  5
119E5
330
119D3
100
AcDbEntity
  8
0
100
AcDbSpline
210
0.0
220
0.0
230
1.0
 70
     8
 71
     3
 72
     8
 73
     4
 74
     0
 42
0.000000001
 43
0.0000000001
 40
0.0
 40
0.0
 40
0.0
 40
0.0
 40
1.0
 40
1.0
 40
1.0
 40
1.0
 10
35.01767776087195
 20
0.0000000000000042
 30
0.0
 10
34.97251992073988
 20
0.000000000000004
 30
0.0
 10
35.01586474390217
 20
0.2539843833467764
 30
0.0
 10
35.1405419700205
 20
0.6150757595082544
 30
0.0
  0
SPLINE
  5
119E6
330
119D3
100
AcDbEntity
  8
0
100
AcDbSpline
210
0.0
220
0.0
230
1.0
 70
     8
 71
     3
 72
     8
 73
     4
 74
     0
 42
0.000000001
 43
0.0000000001
 40
0.0
 40
0.0
 40
0.0
 40
0.0
 40
1.0
 40
1.0
 40
1.0
 40
1.0
 10
-41.50000000000003
 20
4.362741700911096
 30
0.0
 10
-41.49999999999997
 20
3.178158037514493
 30
0.0
 10
-40.49955742875643
 20
2.063659161980484
 30
0.0
 10
-39.4
 20
1.656580012761252
 30
0.0
  0
LINE
  5
119E7
330
119D3
100
AcDbEntity
  8
0
100
AcDbLine
 10
-39.40000000000001
 20
1.656580012761253
 30
0.0
 11
-38.79315533855965
 21
1.227476037518718
 31
0.0
  0
LINE
  5
119E8
330
119D3
100
AcDbEntity
  8
0
100
AcDbLine
 10
-38.79315533855965
 20
1.227476037518718
 30
0.0
 11
-36.50000000000001
 21
1.227476037518715
 31
0.0
  0
ELLIPSE
  5
119E9
330
119D3
100
AcDbEntity
  8
0
100
AcDbEllipse
 10
-36.50000000000001
 20
0.1668158657389237
 30
0.0
 11
1.5
 21
-0.0000000000000003
 31
0.0
210
0.0
220
0.0
230
1.0
 40
0.7071067811865474
 41
0.4363380716279864
 42
1.570796326794896
  0
LINE
  5
119EA
330
119D3
100
AcDbEntity
  8
0
100
AcDbLine
 10
-35.01767776087195
 20
0.1805170265381398
 30
0.0
 11
-35.01767776087195
 21
0.0
 31
0.0
  0
SPLINE
  5
119EB
330
119D3
100
AcDbEntity
  8
0
100
AcDbSpline
210
0.0
220
0.0
230
1.0
 70
     8
 71
     3
 72
     8
 73
     4
 74
     0
 42
0.000000001
 43
0.0000000001
 40
0.0
 40
0.0
 40
0.0
 40
0.0
 40
1.0
 40
1.0
 40
1.0
 40
1.0
 10
39.39999999999998
 20
1.656580012761212
 30
0.0
 10
40.49955742875638
 20
2.063659161981306
 30
0.0
 10
41.49999999999999
 20
3.178158037514195
 30
0.0
 10
41.49999999999995
 20
4.362741700911185
 30
0.0
  0
ELLIPSE
  5
119EC
330
119D3
100
AcDbEntity
  8
0
100
AcDbEllipse
 10
36.49999999999999
 20
0.1668158657389084
 30
0.0
 11
1.5
 21
-0.00000000000011
 31
0.0
210
0.0
220
0.0
230
1.0
 40
0.7071067811865475
 41
1.570796326795022
 42
2.705254581962059
  0
LINE
  5
119ED
330
119D3
100
AcDbEntity
  8
0
100
AcDbLine
 10
36.49999999999999
 20
1.227476037518684
 30
0.0
 11
38.79315533855963
 21
1.227476037518692
 31
0.0
  0
LINE
  5
119EE
330
119D3
100
AcDbEntity
  8
0
100
AcDbLine
 10
38.79315533855963
 20
1.227476037518692
 30
0.0
 11
39.39999999999999
 21
1.656580012761225
 31
0.0
  0
LINE
  5
119EF
330
119D3
100
AcDbEntity
  8
0
100
AcDbLine
 10
35.01767776087193
 20
0.1805170265380515
 30
0.0
 11
35.01767776087193
 21
0.0
 31
0.0
  0
LINE
  5
119F0
330
119D3
100
AcDbEntity
  8
0
100
AcDbLine
 10
24.98943351399742
 20
0.0
 30
0.0
 11
35.01767776087193
 21
0.0
 31
0.0
  0
LINE
  5
119F1
330
119D3
100
AcDbEntity
  8
0
100
AcDbLine
 10
4.989433513812945
 20
0.0
 30
0.0
 11
20.01056648600255
 21
0.0
 31
0.0
  0
LINE
  5
119F2
330
119D3
100
AcDbEntity
  8
0
100
AcDbLine
 10
-20.01056648600258
 20
0.0
 30
0.0
 11
-4.989433513812961
 21
0.0
 31
0.0
  0
LINE
  5
119F3
330
119D3
100
AcDbEntity
  8
0
100
AcDbLine
 10
-35.01767776087195
 20
0.0
 30
0.0
 11
-24.98943351399745
 21
0.0
 31
0.0
  0
LINE
  5
119F4
330
119D3
100
AcDbEntity
  8
0
100
AcDbLine
 10
41.49999999999997
 20
56.26437943888952
 30
0.0
 11
41.49999999999995
 21
82.00306627385996
 31
0.0
  0
LINE
  5
119F5
330
119D3
100
AcDbEntity
  8
0
100
AcDbLine
 10
-41.49999999999994
 20
82.00306627386
 30
0.0
 11
-41.49999999999997
 21
56.26437943888952
 31
0.0
  0
LINE
  5
119F6
330
119D3
100
AcDbEntity
  8
0
100
AcDbLine
 10
-39.99999999999997
 20
82.00306627385996
 30
0.0
 11
-39.99999999999997
 21
56.26437943888952
 31
0.0
  0
LINE
  5
119F7
330
119D3
100
AcDbEntity
  8
0
100
AcDbLine
 10
-39.39999999999999
 20
55.8401153701776
 30
0.0
 11
39.4
 21
55.84011537017758
 31
0.0
  0
LINE
  5
119F8
330
119D3
100
AcDbEntity
  8
0
100
AcDbLine
 10
39.99999999999999
 20
56.26437943888952
 30
0.0
 11
39.99999999999999
 21
82.00306627385996
 31
0.0
  0
LINE
  5
119F9
330
119D3
100
AcDbEntity
  8
0
100
AcDbLine
 10
-39.39999999999999
 20
54.77945519839778
 30
0.0
 11
39.4
 21
54.77945519839777
 31
0.0
  0
LINE
  5
119FA
330
119D3
100
AcDbEntity
  8
0
100
AcDbLine
 10
24.98943351399742
 20
0.0
 30
0.0
 11
20.01056648600255
 21
0.0
 31
0.0
  0
LINE
  5
119FB
330
119D3
100
AcDbEntity
  8
0
100
AcDbLine
 10
-20.01056648600258
 20
0.0
 30
0.0
 11
-24.98943351399745
 21
0.0
 31
0.0
  0
ELLIPSE
  5
119FC
330
119D3
100
AcDbEntity
  8
0
100
AcDbEllipse
 10
-22.50000000000001
 20
0.1668158657389272
 30
0.0
 11
-2.5
 21
0.0000000000000008
 31
0.0
210
0.0
220
0.0
230
1.0
 40
0.7071067811865475
 41
3.397965980608286
 42
6.026811980161093
  0
SPLINE
  5
119FD
330
119D3
100
AcDbEntity
  8
0
100
AcDbSpline
210
0.0
220
0.0
230
1.0
 70
     8
 71
     3
 72
     8
 73
     4
 74
     0
 42
0.000000001
 43
0.0000000001
 40
0.0
 40
0.0
 40
0.0
 40
0.0
 40
1.0
 40
1.0
 40
1.0
 40
1.0
 10
-24.98943351399745
 20
0.0000000000000175
 30
0.0
 10
-25.01609483643936
 20
0.0000000000000175
 30
0.0
 10
-24.99189972302012
 20
0.2358409403968805
 30
0.0
 10
-24.91828991960762
 20
0.6150757595082677
 30
0.0
  0
LINE
  5
119FE
330
119D3
100
AcDbEntity
  8
0
100
AcDbLine
 10
-24.98943351399745
 20
0.1805170265381093
 30
0.0
 11
-24.98943351399745
 21
0.0
 31
0.0
  0
LINE
  5
119FF
330
119D3
100
AcDbEntity
  8
0
100
AcDbLine
 10
-20.01056648600258
 20
0.1805170265380809
 30
0.0
 11
-20.01056648600258
 21
0.0
 31
0.0
  0
SPLINE
  5
11A00
330
119D3
100
AcDbEntity
  8
0
100
AcDbSpline
210
0.0
220
0.0
230
1.0
 70
     8
 71
     3
 72
     8
 73
     4
 74
     0
 42
0.000000001
 43
0.0000000001
 40
0.0
 40
0.0
 40
0.0
 40
0.0
 40
1.0
 40
1.0
 40
1.0
 40
1.0
 10
-20.08171008039241
 20
0.6150757595082656
 30
0.0
 10
-20.00810027697966
 20
0.235840940396788
 30
0.0
 10
-19.98390516356066
 20
0.0000000000000161
 30
0.0
 10
-20.01056648600258
 20
0.0000000000000164
 30
0.0
  0
LINE
  5
11A01
330
119D3
100
AcDbEntity
  8
0
100
AcDbLine
 10
-24.14171865077702
 20
1.5
 30
0.0
 11
-20.85828134922299
 21
1.499999999999998
 31
0.0
  0
ELLIPSE
  5
11A02
330
119D3
100
AcDbEntity
  8
0
100
AcDbEllipse
 10
22.49999999999999
 20
0.1668158657389175
 30
0.0
 11
-2.5
 21
0.0000000000000006
 31
0.0
210
0.0
220
0.0
230
1.0
 40
0.7071067811865475
 41
3.397965980608285
 42
6.026811980161093
  0
SPLINE
  5
11A03
330
119D3
100
AcDbEntity
  8
0
100
AcDbSpline
210
0.0
220
0.0
230
1.0
 70
     8
 71
     3
 72
     8
 73
     4
 74
     0
 42
0.000000001
 43
0.0000000001
 40
0.0
 40
0.0
 40
0.0
 40
0.0
 40
1.0
 40
1.0
 40
1.0
 40
1.0
 10
20.01056648600255
 20
0.0000000000000075
 30
0.0
 10
19.98390516356064
 20
0.0000000000000074
 30
0.0
 10
20.00810027697975
 20
0.2358409403969081
 30
0.0
 10
20.08171008039238
 20
0.6150757595082577
 30
0.0
  0
LINE
  5
11A04
330
119D3
100
AcDbEntity
  8
0
100
AcDbLine
 10
20.01056648600255
 20
0.1805170265381034
 30
0.0
 11
20.01056648600255
 21
0.0
 31
0.0
  0
LINE
  5
11A05
330
119D3
100
AcDbEntity
  8
0
100
AcDbLine
 10
24.98943351399742
 20
0.1805170265380654
 30
0.0
 11
24.98943351399742
 21
0.0
 31
0.0
  0
SPLINE
  5
11A06
330
119D3
100
AcDbEntity
  8
0
100
AcDbSpline
210
0.0
220
0.0
230
1.0
 70
     8
 71
     3
 72
     8
 73
     4
 74
     0
 42
0.000000001
 43
0.0000000001
 40
0.0
 40
0.0
 40
0.0
 40
0.0
 40
1.0
 40
1.0
 40
1.0
 40
1.0
 10
24.9182899196076
 20
0.6150757595082565
 30
0.0
 10
24.99189972302016
 20
0.2358409403967126
 30
0.0
 10
25.0160948364393
 20
0.000000000000006
 30
0.0
 10
24.98943351399742
 20
0.0000000000000064
 30
0.0
  0
LINE
  5
11A07
330
119D3
100
AcDbEntity
  8
0
100
AcDbLine
 10
20.85828134922297
 20
1.49999999999999
 30
0.0
 11
24.141718650777
 21
1.499999999999988
 31
0.0
  0
LINE
  5
11A08
330
119D3
100
AcDbEntity
  8
0
100
AcDbLine
 10
4.989433513812945
 20
0.0
 30
0.0
 11
2.499999999999995
 21
0.0
 31
0.0
  0
LINE
  5
11A09
330
119D3
100
AcDbEntity
  8
0
100
AcDbLine
 10
2.499999999999994
 20
0.0
 30
0.0
 11
-2.500000000000014
 21
0.0
 31
0.0
  0
LINE
  5
11A0A
330
119D3
100
AcDbEntity
  8
0
100
AcDbLine
 10
-2.500000000000013
 20
0.0
 30
0.0
 11
-4.989433513812962
 21
0.0
 31
0.0
  0
SPLINE
  5
11A0B
330
119D3
100
AcDbEntity
  8
0
100
AcDbSpline
210
0.0
220
0.0
230
1.0
 70
     8
 71
     3
 72
     8
 73
     4
 74
     0
 42
0.000000001
 43
0.0000000001
 40
0.0
 40
0.0
 40
0.0
 40
0.0
 40
1.0
 40
1.0
 40
1.0
 40
1.0
 10
-4.989433513812963
 20
0.000000000000013
 30
0.0
 10
-5.01609483648541
 20
0.000000000000013
 30
0.0
 10
-4.991899723307195
 20
0.2358409403404492
 30
0.0
 10
-4.918289920131945
 20
0.6150757595082633
 30
0.0
  0
SPLINE
  5
11A0C
330
119D3
100
AcDbEntity
  8
0
100
AcDbSpline
210
0.0
220
0.0
230
1.0
 70
     8
 71
     3
 72
     8
 73
     4
 74
     0
 42
0.000000001
 43
0.0000000001
 40
0.0
 40
0.0
 40
0.0
 40
0.0
 40
1.0
 40
1.0
 40
1.0
 40
1.0
 10
4.918289920131907
 20
0.615075759508261
 30
0.0
 10
4.991899723307191
 20
0.2358409403404309
 30
0.0
 10
5.016094836485295
 20
0.0000000000000106
 30
0.0
 10
4.989433513812949
 20
0.0000000000000108
 30
0.0
  0
ELLIPSE
  5
11A0D
330
119D3
100
AcDbEntity
  8
0
100
AcDbEllipse
 10
-2.500000000000008
 20
0.166815867153261
 30
0.0
 11
-2.5
 21
0.0000000000000004
 31
0.0
210
0.0
220
0.0
230
1.0
 40
0.7071067811865475
 41
4.712388980384689
 42
6.026811980988197
  0
LINE
  5
11A0E
330
119D3
100
AcDbEntity
  8
0
100
AcDbLine
 10
-2.500000000000008
 20
1.934582820119596
 30
0.0
 11
2.499999999999987
 21
1.934582820119594
 31
0.0
  0
ELLIPSE
  5
11A0F
330
119D3
100
AcDbEntity
  8
0
100
AcDbEllipse
 10
2.499999999999986
 20
0.1668158671532056
 30
0.0
 11
2.5
 21
-0.0000000000000006
 31
0.0
210
0.0
220
0.0
230
1.0
 40
0.7071067811865472
 41
0.2563733261914187
 42
1.570796326794896
  0
LINE
  5
11A10
330
119D3
100
AcDbEntity
  8
0
100
AcDbLine
 10
-4.989433513812962
 20
0.1805170296372793
 30
0.0
 11
-4.989433513812962
 21
0.0
 31
0.0
  0
LINE
  5
11A11
330
119D3
100
AcDbEntity
  8
0
100
AcDbLine
 10
4.989433513812945
 20
0.1805170296371858
 30
0.0
 11
4.989433513812945
 21
0.0
 31
0.0
  0
LINE
  5
11A12
330
119D3
100
AcDbEntity
  8
0
100
AcDbLine
 10
2.499999999999996
 20
1.499999999999993
 30
0.0
 11
4.14171865307399
 21
1.499999999999992
 31
0.0
  0
LINE
  5
11A13
330
119D3
100
AcDbEntity
  8
0
100
AcDbLine
 10
-2.500000000000012
 20
1.499999999999995
 30
0.0
 11
2.499999999999996
 21
1.499999999999993
 31
0.0
  0
LINE
  5
11A14
330
119D3
100
AcDbEntity
  8
0
100
AcDbLine
 10
-4.141718653074095
 20
1.499999999999996
 30
0.0
 11
-2.500000000000013
 21
1.499999999999996
 31
0.0
  0
LINE
  5
11A15
330
119D3
100
AcDbEntity
  8
0
100
AcDbLine
 10
41.5
 20
2.099999999999963
 30
0.0
 11
41.50000000000001
 21
4.362741700911187
 31
0.0
  0
LINE
  5
11A16
330
119D3
100
AcDbEntity
  8
0
100
AcDbLine
 10
-41.50000000000001
 20
4.362741700911124
 30
0.0
 11
-41.50000000000001
 21
2.1
 31
0.0
  0
LINE
  5
11A17
330
119D3
100
AcDbEntity
  8
0
100
AcDbLine
 10
39.99999999999999
 20
82.00306627385996
 30
0.0
 11
41.49999999999995
 21
82.00306627385996
 31
0.0
  0
LINE
  5
11A18
330
119D3
100
AcDbEntity
  8
0
100
AcDbLine
 10
-41.49999999999994
 20
82.00306627386
 30
0.0
 11
-39.99999999999997
 21
82.00306627385996
 31
0.0
  0
LINE
  5
11A19
330
119D3
100
AcDbEntity
  8
0
100
AcDbLine
 10
41.49999999999997
 20
56.26437943888952
 30
0.0
 11
41.49999999999995
 21
4.36274170091119
 31
0.0
  0
ELLIPSE
  5
11A1A
330
119D3
100
AcDbEntity
  8
0
100
AcDbEllipse
 10
39.4
 20
56.26437943888949
 30
0.0
 11
0.5999999999999586
 21
0.0000000000000092
 31
0.0
210
0.0
220
0.0
230
1.0
 40
0.7071067811866067
 41
4.712388980384671
 42
6.283185307179627
  0
ELLIPSE
  5
11A1B
330
119D3
100
AcDbEntity
  8
0
100
AcDbEllipse
 10
39.4
 20
56.26437943888949
 30
0.0
 11
2.099999999999955
 21
0.0000000000000439
 31
0.0
210
0.0
220
0.0
230
1.0
 40
0.7071067811865485
 41
4.712388980384695
 42
6.283185307179622
  0
LINE
  5
11A1C
330
119D3
100
AcDbEntity
  8
0
100
AcDbLine
 10
-41.50000000000003
 20
4.362741700911121
 30
0.0
 11
-41.49999999999997
 21
56.26437943888952
 31
0.0
  0
ELLIPSE
  5
11A1D
330
119D3
100
AcDbEntity
  8
0
100
AcDbEllipse
 10
-39.39999999999999
 20
56.26437943888955
 30
0.0
 11
-2.100000000000031
 21
0.0000000000000022
 31
0.0
210
0.0
220
0.0
230
1.0
 40
0.7071067811865476
 41
0.0
 42
1.570796326794893
  0
ELLIPSE
  5
11A1E
330
119D3
100
AcDbEntity
  8
0
100
AcDbEllipse
 10
-39.39999999999999
 20
56.26437943888955
 30
0.0
 11
-0.6000000000000089
 21
0.0000000000000268
 31
0.0
210
0.0
220
0.0
230
1.0
 40
0.7071067811865187
 41
0.0000000000001678
 42
1.570796326795002
  0
ARC
  5
11A1F
330
119D3
100
AcDbEntity
  8
0
100
AcDbCircle
 10
39.40000000000001
 20
2.099999999999972
 30
0.0
 40
0.6000000000000006
100
AcDbArc
 50
270.0
 51
343.4444348564493
  0
ARC
  5
11A20
330
119D3
100
AcDbEntity
  8
0
100
AcDbCircle
 10
39.40000000000001
 20
2.099999999999972
 30
0.0
 40
2.100000000000004
100
AcDbArc
 50
343.3984504009796
 51
0.0
  0
ARC
  5
11A21
330
119D3
100
AcDbEntity
  8
0
100
AcDbCircle
 10
-39.40000000000001
 20
2.100000000000008
 30
0.0
 40
0.6000000000000007
100
AcDbArc
 50
196.5555651435549
 51
270.0
  0
ARC
  5
11A22
330
119D3
100
AcDbEntity
  8
0
100
AcDbCircle
 10
-39.40000000000001
 20
2.100000000000008
 30
0.0
 40
2.100000000000004
100
AcDbArc
 50
180.0
 51
196.60154959902
  0
ENDBLK
  5
119D5
330
119D3
100
AcDbEntity
  8
0
100
AcDbBlockEnd
  0
BLOCK
  5
11A24
330
11A23
100
AcDbEntity
  8
0
100
AcDbBlockBegin
  2
SPR80_340-ISO
 70
     0
 10
0.0
 20
0.0
 30
0.0
  3
SPR80_340-ISO
  1

  0
LINE
  5
11A26
330
11A23
100
AcDbEntity
  8
0
100
AcDbLine
 10
86.28487587005805
 20
-128.806110231118
 30
0.0
 11
82.74934196412532
 21
-130.8473516834373
 31
0.0
  0
LINE
  5
11A27
330
11A23
100
AcDbEntity
  8
0
100
AcDbLine
 10
87.34553604183789
 20
-128.1937377954222
 30
0.0
 11
86.28487587005805
 21
-128.806110231118
 31
0.0
  0
LINE
  5
11A28
330
11A23
100
AcDbEntity
  8
0
100
AcDbLine
 10
86.28487587005805
 20
-74.91733588988807
 30
0.0
 11
87.34553604183785
 21
-74.30496345419228
 31
0.0
  0
LINE
  5
11A29
330
11A23
100
AcDbEntity
  8
0
100
AcDbLine
 10
87.34553604183785
 20
-74.30496345419228
 30
0.0
 11
83.8100021359051
 21
-68.18123909723432
 31
0.0
  0
LINE
  5
11A2A
330
11A23
100
AcDbEntity
  8
0
100
AcDbLine
 10
-26.89052095856812
 20
-67.54674731110665
 30
0.0
 11
-30.42605486450086
 21
-61.42302295414871
 31
0.0
  0
LINE
  5
11A2B
330
11A23
100
AcDbEntity
  8
0
100
AcDbLine
 10
82.74934196412528
 20
-68.79361153293011
 30
0.0
 11
86.28487587005805
 21
-74.91733588988807
 31
0.0
  0
LINE
  5
11A2C
330
11A23
100
AcDbEntity
  8
0
100
AcDbLine
 10
83.8100021359051
 20
-68.18123909723432
 30
0.0
 11
82.74934196412528
 21
-68.79361153293011
 31
0.0
  0
LINE
  5
11A2D
330
11A23
100
AcDbEntity
  8
0
100
AcDbLine
 10
87.34553604183785
 20
-74.30496345419228
 30
0.0
 11
87.34553604183789
 21
-128.1937377954222
 31
0.0
  0
LINE
  5
11A2E
330
11A23
100
AcDbEntity
  8
0
100
AcDbLine
 10
86.28487587005805
 20
-74.91733588988807
 30
0.0
 11
86.28487587005805
 21
-128.806110231118
 31
0.0
  0
LINE
  5
11A2F
330
11A23
100
AcDbEntity
  8
0
100
AcDbLine
 10
-1.415520916463162
 20
-18.97626042112287
 30
0.0
 11
3.180673161249418
 21
-21.629874309138
 31
0.0
  0
LINE
  5
11A30
330
11A23
100
AcDbEntity
  8
0
100
AcDbLine
 10
56.21368175024052
 20
-52.24849609392771
 30
0.0
 11
83.8100021359051
 21
-68.18123909723432
 31
0.0
  0
LINE
  5
11A31
330
11A23
100
AcDbEntity
  8
0
100
AcDbLine
 10
-30.42605486450086
 20
-61.42302295414871
 30
0.0
 11
-30.42605486450086
 21
-31.21264945982283
 31
0.0
  0
LINE
  5
11A32
330
11A23
100
AcDbEntity
  8
0
100
AcDbLine
 10
55.15302157846071
 20
-52.86086852962352
 30
0.0
 11
82.74934196412528
 21
-68.79361153293011
 31
0.0
  0
LINE
  5
11A33
330
11A23
100
AcDbEntity
  8
0
100
AcDbLine
 10
2.120012989469599
 20
-84.29598689534097
 30
0.0
 11
-26.89052095856812
 21
-67.54674731110665
 31
0.0
  0
LINE
  5
11A34
330
11A23
100
AcDbEntity
  8
0
100
AcDbLine
 10
82.74934196412532
 20
-130.8473516834373
 30
0.0
 11
53.73880801608759
 21
-114.0981120992029
 31
0.0
  0
LINE
  5
11A35
330
11A23
100
AcDbEntity
  8
0
100
AcDbLine
 10
-2.476181088242981
 20
-19.58863285681868
 30
0.0
 11
2.120012989469595
 21
-22.2422467448338
 31
0.0
  0
LINE
  5
11A36
330
11A23
100
AcDbEntity
  8
0
100
AcDbLine
 10
3.180673161249418
 20
-21.629874309138
 30
0.0
 11
2.120012989469595
 21
-22.2422467448338
 31
0.0
  0
ELLIPSE
  5
11A37
330
11A23
100
AcDbEntity
  8
0
100
AcDbEllipse
 10
2.120012989469595
 20
-21.01750187344221
 30
0.0
 11
0.7500000000000007
 21
-1.299038105676658
 31
0.0
210
0.0
220
0.0
230
0.9999999999999998
 40
0.5773502691896261
 41
5.497787143782137
 42
8.63937979737193
  0
ELLIPSE
  5
11A38
330
11A23
100
AcDbEntity
  8
0
100
AcDbEllipse
 10
50.20327411015485
 20
-54.90210998194278
 30
0.0
 11
1.250000000000001
 21
-2.165063509461098
 31
0.0
210
0.0
220
0.0
230
0.9999999999999998
 40
0.5773502691896258
 41
4.999145532596275
 42
5.845036276595412
  0
ELLIPSE
  5
11A39
330
11A23
100
AcDbEntity
  8
0
100
AcDbEllipse
 10
49.14261393837502
 20
-55.51448241763858
 30
0.0
 11
1.25
 21
-2.165063509461097
 31
0.0
210
0.0
220
0.0
230
0.9999999999999998
 40
0.5773502691896259
 41
4.99914553259628
 42
7.567225081762895
  0
ELLIPSE
  5
11A3A
330
11A23
100
AcDbEntity
  8
0
100
AcDbEllipse
 10
50.20327411015485
 20
-87.56197321905183
 30
0.0
 11
1.250000000000129
 21
-2.165063509461022
 31
0.0
210
0.0
220
0.0
230
1.0
 40
0.577350269189626
 41
3.579741684173544
 42
5.845036276594998
  0
ELLIPSE
  5
11A3B
330
11A23
100
AcDbEntity
  8
0
100
AcDbEllipse
 10
49.14261393837502
 20
-88.17434565474762
 30
0.0
 11
1.25
 21
-2.165063509461097
 31
0.0
210
0.0
220
0.0
230
1.0
 40
0.5773502691896259
 41
0.0
 42
6.283185307179586
  0
ELLIPSE
  5
11A3C
330
11A23
100
AcDbEntity
  8
0
100
AcDbEllipse
 10
43.13220629828936
 20
161.4694839639046
 30
0.0
 11
1.250000000000129
 21
-2.165063509461022
 31
0.0
210
0.0
220
0.0
230
1.0
 40
0.577350269189626
 41
3.579741684173537
 42
5.845036276594981
  0
ELLIPSE
  5
11A3D
330
11A23
100
AcDbEntity
  8
0
100
AcDbEllipse
 10
43.13220629828936
 20
-67.14955869585867
 30
0.0
 11
1.250000000000129
 21
-2.165063509461022
 31
0.0
210
0.0
220
0.0
230
1.0
 40
0.577350269189626
 41
3.579741684173544
 42
5.845036276594998
  0
ELLIPSE
  5
11A3E
330
11A23
100
AcDbEntity
  8
0
100
AcDbEllipse
 10
42.07154612650954
 20
160.8571115282089
 30
0.0
 11
1.25
 21
-2.165063509461097
 31
0.0
210
0.0
220
0.0
230
1.0
 40
0.5773502691896259
 41
0.0
 42
6.283185307179586
  0
ELLIPSE
  5
11A3F
330
11A23
100
AcDbEntity
  8
0
100
AcDbEllipse
 10
42.07154612650954
 20
-67.76193113155447
 30
0.0
 11
1.25
 21
-2.165063509461097
 31
0.0
210
0.0
220
0.0
230
1.0
 40
0.5773502691896259
 41
0.0
 42
6.283185307179586
  0
ELLIPSE
  5
11A40
330
11A23
100
AcDbEntity
  8
0
100
AcDbEllipse
 10
43.13220629828936
 20
-99.80942193296773
 30
0.0
 11
1.250000000000129
 21
-2.165063509461022
 31
0.0
210
0.0
220
0.0
230
1.0
 40
0.577350269189626
 41
3.579741684173544
 42
5.845036276594998
  0
ELLIPSE
  5
11A41
330
11A23
100
AcDbEntity
  8
0
100
AcDbEllipse
 10
42.07154612650954
 20
-100.4217943686635
 30
0.0
 11
1.25
 21
-2.165063509461097
 31
0.0
210
0.0
220
0.0
230
1.0
 40
0.5773502691896259
 41
0.0
 42
6.283185307179586
  0
ELLIPSE
  5
11A42
330
11A23
100
AcDbEntity
  8
0
100
AcDbEllipse
 10
14.84793505082746
 20
161.4694839639046
 30
0.0
 11
1.250000000000129
 21
-2.165063509461022
 31
0.0
210
0.0
220
0.0
230
1.0
 40
0.577350269189626
 41
3.579741684173537
 42
5.845036276594994
  0
ELLIPSE
  5
11A43
330
11A23
100
AcDbEntity
  8
0
100
AcDbEllipse
 10
14.84793505082746
 20
128.8096207267956
 30
0.0
 11
1.250000000000129
 21
-2.165063509461022
 31
0.0
210
0.0
220
0.0
230
1.0
 40
0.577350269189626
 41
3.579741684173546
 42
5.845036276595001
  0
ELLIPSE
  5
11A44
330
11A23
100
AcDbEntity
  8
0
100
AcDbEllipse
 10
14.84793505082746
 20
96.14975748968655
 30
0.0
 11
1.250000000000129
 21
-2.165063509461022
 31
0.0
210
0.0
220
0.0
230
1.0
 40
0.577350269189626
 41
3.579741684173546
 42
5.845036276595001
  0
ELLIPSE
  5
11A45
330
11A23
100
AcDbEntity
  8
0
100
AcDbEllipse
 10
14.84793505082746
 20
63.4898942525775
 30
0.0
 11
1.250000000000129
 21
-2.165063509461022
 31
0.0
210
0.0
220
0.0
230
1.0
 40
0.577350269189626
 41
3.579741684173546
 42
5.845036276595001
  0
ELLIPSE
  5
11A46
330
11A23
100
AcDbEntity
  8
0
100
AcDbEllipse
 10
14.84793505082746
 20
30.83003101546845
 30
0.0
 11
1.250000000000129
 21
-2.165063509461022
 31
0.0
210
0.0
220
0.0
230
1.0
 40
0.577350269189626
 41
3.579741684173546
 42
5.845036276595
  0
ELLIPSE
  5
11A47
330
11A23
100
AcDbEntity
  8
0
100
AcDbEllipse
 10
14.84793505082746
 20
-1.829832221640597
 30
0.0
 11
1.250000000000129
 21
-2.165063509461022
 31
0.0
210
0.0
220
0.0
230
1.0
 40
0.577350269189626
 41
3.579741684173544
 42
5.845036276594998
  0
ELLIPSE
  5
11A48
330
11A23
100
AcDbEntity
  8
0
100
AcDbEllipse
 10
14.84793505082746
 20
-34.48969545874966
 30
0.0
 11
1.250000000000129
 21
-2.165063509461022
 31
0.0
210
0.0
220
0.0
230
1.0
 40
0.577350269189626
 41
3.579741684173546
 42
5.845036276594997
  0
ELLIPSE
  5
11A49
330
11A23
100
AcDbEntity
  8
0
100
AcDbEllipse
 10
13.78727487904764
 20
160.8571115282089
 30
0.0
 11
1.25
 21
-2.165063509461097
 31
0.0
210
0.0
220
0.0
230
1.0
 40
0.5773502691896259
 41
0.0
 42
6.283185307179586
  0
ELLIPSE
  5
11A4A
330
11A23
100
AcDbEntity
  8
0
100
AcDbEllipse
 10
13.78727487904764
 20
128.1972482910998
 30
0.0
 11
1.25
 21
-2.165063509461097
 31
0.0
210
0.0
220
0.0
230
1.0
 40
0.5773502691896259
 41
0.0
 42
6.283185307179586
  0
ELLIPSE
  5
11A4B
330
11A23
100
AcDbEntity
  8
0
100
AcDbEllipse
 10
13.78727487904764
 20
95.53738505399076
 30
0.0
 11
1.25
 21
-2.165063509461097
 31
0.0
210
0.0
220
0.0
230
1.0
 40
0.5773502691896259
 41
0.0
 42
6.283185307179586
  0
ELLIPSE
  5
11A4C
330
11A23
100
AcDbEntity
  8
0
100
AcDbEllipse
 10
13.78727487904764
 20
62.87752181688171
 30
0.0
 11
1.25
 21
-2.165063509461097
 31
0.0
210
0.0
220
0.0
230
1.0
 40
0.5773502691896259
 41
0.0
 42
6.283185307179586
  0
ELLIPSE
  5
11A4D
330
11A23
100
AcDbEntity
  8
0
100
AcDbEllipse
 10
13.78727487904764
 20
30.21765857977266
 30
0.0
 11
1.25
 21
-2.165063509461097
 31
0.0
210
0.0
220
0.0
230
1.0
 40
0.5773502691896259
 41
0.0
 42
6.283185307179586
  0
ELLIPSE
  5
11A4E
330
11A23
100
AcDbEntity
  8
0
100
AcDbEllipse
 10
13.78727487904764
 20
-2.442204657336386
 30
0.0
 11
1.25
 21
-2.165063509461097
 31
0.0
210
0.0
220
0.0
230
1.0
 40
0.5773502691896259
 41
0.0
 42
6.283185307179586
  0
ELLIPSE
  5
11A4F
330
11A23
100
AcDbEntity
  8
0
100
AcDbEllipse
 10
13.78727487904764
 20
-35.10206789444545
 30
0.0
 11
1.25
 21
-2.165063509461097
 31
0.0
210
0.0
220
0.0
230
1.0
 40
0.5773502691896259
 41
0.0
 42
6.283185307179586
  0
ELLIPSE
  5
11A50
330
11A23
100
AcDbEntity
  8
0
100
AcDbEllipse
 10
14.84793505082746
 20
-67.1495586958587
 30
0.0
 11
1.250000000000129
 21
-2.165063509461022
 31
0.0
210
0.0
220
0.0
230
1.0
 40
0.577350269189626
 41
3.579741684173546
 42
5.845036276594999
  0
ELLIPSE
  5
11A51
330
11A23
100
AcDbEntity
  8
0
100
AcDbEllipse
 10
13.78727487904764
 20
-67.7619311315545
 30
0.0
 11
1.25
 21
-2.165063509461097
 31
0.0
210
0.0
220
0.0
230
1.0
 40
0.5773502691896259
 41
0.0
 42
6.283185307179586
  0
ELLIPSE
  5
11A52
330
11A23
100
AcDbEntity
  8
0
100
AcDbEllipse
 10
7.776867238961981
 20
181.8818984870978
 30
0.0
 11
1.250000000000129
 21
-2.165063509461022
 31
0.0
210
0.0
220
0.0
230
1.0
 40
0.577350269189626
 41
3.579741684173535
 42
5.845036276594982
  0
ELLIPSE
  5
11A53
330
11A23
100
AcDbEntity
  8
0
100
AcDbEllipse
 10
7.776867238961981
 20
149.2220352499887
 30
0.0
 11
1.250000000000129
 21
-2.165063509461022
 31
0.0
210
0.0
220
0.0
230
1.0
 40
0.577350269189626
 41
3.579741684173546
 42
5.845036276595003
  0
ELLIPSE
  5
11A54
330
11A23
100
AcDbEntity
  8
0
100
AcDbEllipse
 10
7.776867238961981
 20
116.5621720128797
 30
0.0
 11
1.250000000000129
 21
-2.165063509461022
 31
0.0
210
0.0
220
0.0
230
1.0
 40
0.577350269189626
 41
3.579741684173546
 42
5.845036276595003
  0
ELLIPSE
  5
11A55
330
11A23
100
AcDbEntity
  8
0
100
AcDbEllipse
 10
7.776867238961981
 20
83.90230877577065
 30
0.0
 11
1.250000000000129
 21
-2.165063509461022
 31
0.0
210
0.0
220
0.0
230
1.0
 40
0.577350269189626
 41
3.579741684173546
 42
5.845036276595003
  0
ELLIPSE
  5
11A56
330
11A23
100
AcDbEntity
  8
0
100
AcDbEllipse
 10
7.776867238961981
 20
51.24244553866161
 30
0.0
 11
1.250000000000129
 21
-2.165063509461022
 31
0.0
210
0.0
220
0.0
230
1.0
 40
0.577350269189626
 41
3.579741684173546
 42
5.845036276595003
  0
ELLIPSE
  5
11A57
330
11A23
100
AcDbEntity
  8
0
100
AcDbEllipse
 10
7.776867238961981
 20
18.58258230155254
 30
0.0
 11
1.250000000000129
 21
-2.165063509461022
 31
0.0
210
0.0
220
0.0
230
1.0
 40
0.577350269189626
 41
3.579741684173546
 42
5.845036276595
  0
ELLIPSE
  5
11A58
330
11A23
100
AcDbEntity
  8
0
100
AcDbEllipse
 10
7.776867238961981
 20
-14.07728093555651
 30
0.0
 11
1.250000000000129
 21
-2.165063509461022
 31
0.0
210
0.0
220
0.0
230
1.0
 40
0.577350269189626
 41
3.579741684173544
 42
5.845036276594998
  0
ELLIPSE
  5
11A59
330
11A23
100
AcDbEntity
  8
0
100
AcDbEllipse
 10
7.776867238961981
 20
-46.73714417266555
 30
0.0
 11
1.250000000000129
 21
-2.165063509461022
 31
0.0
210
0.0
220
0.0
230
1.0
 40
0.577350269189626
 41
3.579741684173546
 42
5.845036276594998
  0
ELLIPSE
  5
11A5A
330
11A23
100
AcDbEntity
  8
0
100
AcDbEllipse
 10
6.716207067182158
 20
181.269526051402
 30
0.0
 11
1.25
 21
-2.165063509461097
 31
0.0
210
0.0
220
0.0
230
1.0
 40
0.5773502691896259
 41
0.0
 42
6.283185307179586
  0
ELLIPSE
  5
11A5B
330
11A23
100
AcDbEntity
  8
0
100
AcDbEllipse
 10
6.716207067182158
 20
148.6096628142929
 30
0.0
 11
1.25
 21
-2.165063509461097
 31
0.0
210
0.0
220
0.0
230
1.0
 40
0.5773502691896259
 41
0.0
 42
6.283185307179586
  0
ELLIPSE
  5
11A5C
330
11A23
100
AcDbEntity
  8
0
100
AcDbEllipse
 10
6.716207067182158
 20
115.9497995771839
 30
0.0
 11
1.25
 21
-2.165063509461097
 31
0.0
210
0.0
220
0.0
230
1.0
 40
0.5773502691896259
 41
0.0
 42
6.283185307179586
  0
ELLIPSE
  5
11A5D
330
11A23
100
AcDbEntity
  8
0
100
AcDbEllipse
 10
6.716207067182158
 20
83.28993634007487
 30
0.0
 11
1.25
 21
-2.165063509461097
 31
0.0
210
0.0
220
0.0
230
1.0
 40
0.5773502691896259
 41
0.0
 42
6.283185307179586
  0
ELLIPSE
  5
11A5E
330
11A23
100
AcDbEntity
  8
0
100
AcDbEllipse
 10
6.716207067182158
 20
50.63007310296582
 30
0.0
 11
1.25
 21
-2.165063509461097
 31
0.0
210
0.0
220
0.0
230
1.0
 40
0.5773502691896259
 41
0.0
 42
6.283185307179586
  0
ELLIPSE
  5
11A5F
330
11A23
100
AcDbEntity
  8
0
100
AcDbEllipse
 10
6.716207067182158
 20
17.97020986585675
 30
0.0
 11
1.25
 21
-2.165063509461097
 31
0.0
210
0.0
220
0.0
230
1.0
 40
0.5773502691896259
 41
0.0
 42
6.283185307179586
  0
ELLIPSE
  5
11A60
330
11A23
100
AcDbEntity
  8
0
100
AcDbEllipse
 10
6.716207067182158
 20
-14.68965337125231
 30
0.0
 11
1.25
 21
-2.165063509461097
 31
0.0
210
0.0
220
0.0
230
1.0
 40
0.5773502691896259
 41
0.0
 42
6.283185307179586
  0
ELLIPSE
  5
11A61
330
11A23
100
AcDbEntity
  8
0
100
AcDbEllipse
 10
6.716207067182158
 20
-47.34951660836135
 30
0.0
 11
1.25
 21
-2.165063509461097
 31
0.0
210
0.0
220
0.0
230
1.0
 40
0.5773502691896259
 41
0.0
 42
6.283185307179586
  0
ELLIPSE
  5
11A62
330
11A23
100
AcDbEntity
  8
0
100
AcDbEllipse
 10
7.776867238961981
 20
-79.3970074097746
 30
0.0
 11
1.250000000000129
 21
-2.165063509461022
 31
0.0
210
0.0
220
0.0
230
1.0
 40
0.5773502691896259
 41
3.579741684173546
 42
5.845036276594999
  0
ELLIPSE
  5
11A63
330
11A23
100
AcDbEntity
  8
0
100
AcDbEllipse
 10
6.716207067182158
 20
-80.00937984547039
 30
0.0
 11
1.25
 21
-2.165063509461097
 31
0.0
210
0.0
220
0.0
230
1.0
 40
0.5773502691896259
 41
0.0
 42
6.283185307179586
  0
ELLIPSE
  5
11A64
330
11A23
100
AcDbEntity
  8
0
100
AcDbEllipse
 10
-8.505744647717875
 20
-21.00644219822623
 30
0.0
 11
1.25
 21
-2.165063509461096
 31
0.0
210
0.0
220
0.0
230
1.0
 40
0.577350269189626
 41
5.508682942396017
 42
5.845036276595414
  0
ELLIPSE
  5
11A65
330
11A23
100
AcDbEntity
  8
0
100
AcDbEllipse
 10
62.24324530971539
 20
-61.85339059504444
 30
0.0
 11
1.250000000000129
 21
-2.165063509461022
 31
0.0
210
0.0
220
0.0
230
0.9999999999999998
 40
0.5773502691896259
 41
3.579741684173544
 42
5.845036276594998
  0
ELLIPSE
  5
11A66
330
11A23
100
AcDbEntity
  8
0
100
AcDbEllipse
 10
-9.5664048194977
 20
-21.61881463392202
 30
0.0
 11
1.25
 21
-2.165063509461097
 31
0.0
210
0.0
220
0.0
230
1.0
 40
0.5773502691896259
 41
5.508682942396019
 42
7.057687671963153
  0
ELLIPSE
  5
11A67
330
11A23
100
AcDbEntity
  8
0
100
AcDbEllipse
 10
61.18258513793556
 20
-62.46576303074025
 30
0.0
 11
1.25
 21
-2.165063509461097
 31
0.0
210
0.0
220
0.0
230
1.0
 40
0.5773502691896259
 41
0.0
 42
6.283185307179586
  0
ELLIPSE
  5
11A68
330
11A23
100
AcDbEntity
  8
0
100
AcDbEllipse
 10
-4.263103960598582
 20
-56.11579517811846
 30
0.0
 11
1.250000000000129
 21
-2.165063509461022
 31
0.0
210
0.0
220
0.0
230
0.9999999999999998
 40
0.5773502691896259
 41
3.579741684173546
 42
5.845036276594998
  0
ELLIPSE
  5
11A69
330
11A23
100
AcDbEntity
  8
0
100
AcDbEllipse
 10
66.48588599683468
 20
-96.96274357493667
 30
0.0
 11
1.250000000000129
 21
-2.165063509461022
 31
0.0
210
0.0
220
0.0
230
0.9999999999999998
 40
0.577350269189626
 41
3.579741684173546
 42
5.845036276594998
  0
ELLIPSE
  5
11A6A
330
11A23
100
AcDbEntity
  8
0
100
AcDbEllipse
 10
-5.323764132378405
 20
-56.72816761381425
 30
0.0
 11
1.25
 21
-2.165063509461097
 31
0.0
210
0.0
220
0.0
230
1.0
 40
0.5773502691896259
 41
0.0
 42
6.283185307179586
  0
ELLIPSE
  5
11A6B
330
11A23
100
AcDbEntity
  8
0
100
AcDbEllipse
 10
65.42522582505485
 20
-97.57511601063246
 30
0.0
 11
1.25
 21
-2.165063509461097
 31
0.0
210
0.0
220
0.0
230
1.0
 40
0.5773502691896259
 41
0.0
 42
6.283185307179586
  0
ELLIPSE
  5
11A6C
330
11A23
100
AcDbEntity
  8
0
100
AcDbEllipse
 10
44.89997325125574
 20
-108.9950084684046
 30
0.0
 11
1.250000000000129
 21
-2.165063509461022
 31
0.0
210
0.0
220
0.0
230
0.9999999999999998
 40
0.5773502691896259
 41
3.579741684173544
 42
3.835017178248645
  0
ELLIPSE
  5
11A6D
330
11A23
100
AcDbEntity
  8
0
100
AcDbEllipse
 10
13.0801680978611
 20
-90.62383539753078
 30
0.0
 11
1.250000000000129
 21
-2.165063509461022
 31
0.0
210
0.0
220
0.0
230
1.0
 40
0.5773502691896259
 41
3.579741684173546
 42
3.835017178248645
  0
ELLIPSE
  5
11A6E
330
11A23
100
AcDbEntity
  8
0
100
AcDbEllipse
 10
12.96221146798759
 20
-91.35089475574725
 30
0.0
 11
-1.249999999999998
 21
-2.165063509461097
 31
0.0
210
0.0
220
0.0
230
0.9999999999999998
 40
0.816496580927726
 41
4.968762307403174
 42
6.069429174707156
  0
LINE
  5
11A6F
330
11A23
100
AcDbEntity
  8
0
100
AcDbLine
 10
10.93525465633972
 20
-90.91263603616603
 30
0.0
 11
10.43500465643995
 21
-90.62381656406179
 31
0.0
  0
LINE
  5
11A70
330
11A23
100
AcDbEntity
  8
0
100
AcDbLine
 10
10.43500465643995
 20
-90.62381656406179
 30
0.0
 11
10.18525465633972
 21
-90.47962333427381
 31
0.0
  0
ELLIPSE
  5
11A71
330
11A23
100
AcDbEntity
  8
0
100
AcDbEllipse
 10
12.21221146798761
 20
-90.91788205385505
 30
0.0
 11
-1.249999999999998
 21
-2.165063509461098
 31
0.0
210
0.0
220
0.0
230
0.9999999999999998
 40
0.8164965809277259
 41
4.968762307403189
 42
7.59760830695599
  0
LINE
  5
11A72
330
11A23
100
AcDbEntity
  8
0
100
AcDbLine
 10
10.25921260702062
 20
-90.03242502845152
 30
0.0
 11
10.61241244460346
 21
-89.82850500714532
 31
0.0
  0
SPLINE
  5
11A73
330
11A23
100
AcDbEntity
  8
0
100
AcDbSpline
210
0.0
220
0.0
230
1.0
 70
     8
 71
     3
 72
     8
 73
     4
 74
     0
 42
0.000000001
 43
0.0000000001
 40
-1.0
 40
-1.0
 40
-1.0
 40
-1.0
 40
0.0
 40
0.0
 40
0.0
 40
0.0
 10
10.18525465633972
 20
-90.47962333427381
 30
0.0
 10
10.20982166868657
 20
-90.31686771508075
 30
0.0
 10
10.24036020512654
 20
-90.15033638741714
 30
0.0
 10
10.25921260702062
 20
-90.03242502845152
 30
0.0
  0
SPLINE
  5
11A74
330
11A23
100
AcDbEntity
  8
0
100
AcDbSpline
210
0.0
220
0.0
230
1.0
 70
     8
 71
     3
 72
     8
 73
     4
 74
     0
 42
0.000000001
 43
0.0000000001
 40
0.0
 40
0.0
 40
0.0
 40
0.0
 40
1.0
 40
1.0
 40
1.0
 40
1.0
 10
11.31987277880044
 20
-89.42005259275573
 30
0.0
 10
11.30102037690636
 20
-89.85995344740647
 30
0.0
 10
11.15136417744065
 20
-90.4181190600017
 30
0.0
 10
10.93525465633972
 20
-90.91263603616603
 30
0.0
  0
LINE
  5
11A75
330
11A23
100
AcDbEntity
  8
0
100
AcDbLine
 10
10.61241244460346
 20
-89.82850500714532
 30
0.0
 11
11.31987277880045
 21
-89.42005259275569
 31
0.0
  0
SPLINE
  5
11A76
330
11A23
100
AcDbEntity
  8
0
100
AcDbSpline
210
0.0
220
0.0
230
1.0
 70
     8
 71
     3
 72
     8
 73
     4
 74
     0
 42
0.000000001
 43
0.0000000001
 40
-1.0
 40
-1.0
 40
-1.0
 40
-1.0
 40
0.0
 40
0.0
 40
0.0
 40
0.0
 10
13.7798032451419
 20
-92.0650389810773
 30
0.0
 10
13.79865564703598
 20
-92.20471921865977
 30
0.0
 10
13.73390005305556
 20
-92.35149531894149
 30
0.0
 10
13.60523305839894
 20
-92.45414878532541
 30
0.0
  0
ELLIPSE
  5
11A77
330
11A23
100
AcDbEntity
  8
0
100
AcDbEllipse
 10
12.01950792608127
 20
-91.23620783322657
 30
0.0
 11
-1.25
 21
2.165063509461096
 31
0.0
210
0.0
220
0.0
230
1.0
 40
0.5773502691896259
 41
4.018964455725479
 42
6.97660983183879
  0
ELLIPSE
  5
11A78
330
11A23
100
AcDbEntity
  8
0
100
AcDbEllipse
 10
44.78201662138224
 20
-109.7220678266211
 30
0.0
 11
-1.249999999999999
 21
-2.165063509461097
 31
0.0
210
0.0
220
0.0
230
1.0
 40
0.816496580927726
 41
4.968762307403182
 42
6.069429174707156
  0
LINE
  5
11A79
330
11A23
100
AcDbEntity
  8
0
100
AcDbLine
 10
42.75505980973436
 20
-109.2838091070398
 30
0.0
 11
42.25480980983563
 21
-108.9949896349362
 31
0.0
  0
LINE
  5
11A7A
330
11A23
100
AcDbEntity
  8
0
100
AcDbLine
 10
42.25480980983563
 20
-108.9949896349362
 30
0.0
 11
42.00505980973436
 21
-108.8507964051476
 31
0.0
  0
ELLIPSE
  5
11A7B
330
11A23
100
AcDbEntity
  8
0
100
AcDbEllipse
 10
44.03201662138225
 20
-109.2890551247289
 30
0.0
 11
-1.249999999999998
 21
-2.165063509461098
 31
0.0
210
0.0
220
0.0
230
1.0
 40
0.816496580927726
 41
4.968762307403181
 42
7.597608306955988
  0
LINE
  5
11A7C
330
11A23
100
AcDbEntity
  8
0
100
AcDbLine
 10
42.07901776041527
 20
-108.4035980993253
 30
0.0
 11
42.43221759799808
 21
-108.1996780780191
 31
0.0
  0
SPLINE
  5
11A7D
330
11A23
100
AcDbEntity
  8
0
100
AcDbSpline
210
0.0
220
0.0
230
1.0
 70
     8
 71
     3
 72
     8
 73
     4
 74
     0
 42
0.000000001
 43
0.0000000001
 40
-1.0
 40
-1.0
 40
-1.0
 40
-1.0
 40
0.0
 40
0.0
 40
0.0
 40
0.0
 10
42.00505980973436
 20
-108.8507964051476
 30
0.0
 10
42.02962682208111
 20
-108.6880407859545
 30
0.0
 10
42.06016535852118
 20
-108.5215094582909
 30
0.0
 10
42.07901776041525
 20
-108.4035980993253
 30
0.0
  0
SPLINE
  5
11A7E
330
11A23
100
AcDbEntity
  8
0
100
AcDbSpline
210
0.0
220
0.0
230
1.0
 70
     8
 71
     3
 72
     8
 73
     4
 74
     0
 42
0.000000001
 43
0.0000000001
 40
0.0
 40
0.0
 40
0.0
 40
0.0
 40
1.0
 40
1.0
 40
1.0
 40
1.0
 10
43.13967793219507
 20
-107.7912256636295
 30
0.0
 10
43.12082553030101
 20
-108.2311265182803
 30
0.0
 10
42.97116933083517
 20
-108.7892921308755
 30
0.0
 10
42.75505980973436
 20
-109.2838091070398
 30
0.0
  0
LINE
  5
11A7F
330
11A23
100
AcDbEntity
  8
0
100
AcDbLine
 10
42.43221759799808
 20
-108.1996780780191
 30
0.0
 11
43.1396779321951
 21
-107.7912256636295
 31
0.0
  0
SPLINE
  5
11A80
330
11A23
100
AcDbEntity
  8
0
100
AcDbSpline
210
0.0
220
0.0
230
1.0
 70
     8
 71
     3
 72
     8
 73
     4
 74
     0
 42
0.000000001
 43
0.0000000001
 40
-1.0
 40
-1.0
 40
-1.0
 40
-1.0
 40
0.0
 40
0.0
 40
0.0
 40
0.0
 10
45.59960839853655
 20
-110.4362120519511
 30
0.0
 10
45.6184608004306
 20
-110.5758922895336
 30
0.0
 10
45.55370520645007
 20
-110.7226683898152
 30
0.0
 10
45.42503821179359
 20
-110.8253218561992
 30
0.0
  0
ELLIPSE
  5
11A81
330
11A23
100
AcDbEntity
  8
0
100
AcDbEllipse
 10
43.83931307947591
 20
-109.6073809041004
 30
0.0
 11
-1.25
 21
2.165063509461096
 31
0.0
210
0.0
220
0.0
230
1.0
 40
0.5773502691896259
 41
4.01896445572548
 42
6.976609831838792
  0
ELLIPSE
  5
11A82
330
11A23
100
AcDbEntity
  8
0
100
AcDbEllipse
 10
27.22230372159205
 20
-98.78880120844117
 30
0.0
 11
1.250000000000129
 21
-2.165063509461022
 31
0.0
210
0.0
220
0.0
230
0.9999999999999998
 40
0.5773502691896261
 41
3.579741684173546
 42
3.835017177445183
  0
SPLINE
  5
11A83
330
11A23
100
AcDbEntity
  8
0
100
AcDbSpline
210
0.0
220
0.0
230
1.0
 70
     8
 71
     3
 72
     8
 73
     4
 74
     0
 42
0.000000001
 43
0.0000000001
 40
-1.0
 40
-1.0
 40
-1.0
 40
-1.0
 40
0.0
 40
0.0
 40
0.0
 40
0.0
 10
24.32739027969992
 20
-98.64458914333702
 30
0.0
 10
24.35195729222593
 20
-98.48183352422109
 30
0.0
 10
24.38249582882493
 20
-98.31530219665729
 30
0.0
 10
24.40134823088202
 20
-98.19739083780408
 30
0.0
  0
SPLINE
  5
11A84
330
11A23
100
AcDbEntity
  8
0
100
AcDbSpline
210
0.0
220
0.0
230
1.0
 70
     8
 71
     3
 72
     8
 73
     4
 74
     0
 42
0.000000001
 43
0.0000000001
 40
0.0
 40
0.0
 40
0.0
 40
0.0
 40
1.0
 40
1.0
 40
1.0
 40
1.0
 10
25.46200840266184
 20
-97.58501840210827
 30
0.0
 10
25.44315600060475
 20
-98.02491925660092
 30
0.0
 10
25.29349980100851
 20
-98.58308486909265
 30
0.0
 10
25.07739027969992
 20
-99.07760184522922
 30
0.0
  0
SPLINE
  5
11A85
330
11A23
100
AcDbEntity
  8
0
100
AcDbSpline
210
0.0
220
0.0
230
1.0
 70
     8
 71
     3
 72
     8
 73
     4
 74
     0
 42
0.000000001
 43
0.0000000001
 40
-1.0
 40
-1.0
 40
-1.0
 40
-1.0
 40
0.0
 40
0.0
 40
0.0
 40
0.0
 10
31.45747277467516
 20
-102.2712462425985
 30
0.0
 10
31.47632517673217
 20
-102.4109264802568
 30
0.0
 10
31.41156958293347
 20
-102.5577025806354
 30
0.0
 10
31.28290258843338
 20
-102.660356047136
 30
0.0
  0
ELLIPSE
  5
11A86
330
11A23
100
AcDbEntity
  8
0
100
AcDbEllipse
 10
27.10434709071846
 20
-99.51586056675672
 30
0.0
 11
-1.249999999999998
 21
-2.165063509461098
 31
0.0
210
0.0
220
0.0
230
0.9999999999999998
 40
0.8164965809277259
 41
4.968762306576076
 42
6.283185307179584
  0
LINE
  5
11A87
330
11A23
100
AcDbEntity
  8
0
100
AcDbLine
 10
25.07739027969992
 20
-99.07760184522922
 30
0.0
 11
24.57714027980025
 21
-98.78878237312505
 31
0.0
  0
LINE
  5
11A88
330
11A23
100
AcDbEntity
  8
0
100
AcDbLine
 10
24.57714027980025
 20
-98.78878237312505
 30
0.0
 11
24.32739027969992
 21
-98.64458914333702
 31
0.0
  0
ELLIPSE
  5
11A89
330
11A23
100
AcDbEntity
  8
0
100
AcDbEllipse
 10
26.35434709071848
 20
-99.08284786486451
 30
0.0
 11
-1.25
 21
-2.165063509461097
 31
0.0
210
0.0
220
0.0
230
1.0
 40
0.816496580927726
 41
4.968762306576078
 42
6.283185307179589
  0
LINE
  5
11A8A
330
11A23
100
AcDbEntity
  8
0
100
AcDbLine
 10
28.63988099665122
 20
-103.2891528266449
 30
0.0
 11
25.10434709071848
 21
-101.2479113743256
 31
0.0
  0
ELLIPSE
  5
11A8B
330
11A23
100
AcDbEntity
  8
0
100
AcDbEllipse
 10
29.88988099665125
 20
-101.1240893171837
 30
0.0
 11
-1.249999999999998
 21
-2.165063509461098
 31
0.0
210
0.0
220
0.0
230
0.9999999999999998
 40
0.8164965809277259
 41
0.0
 42
1.314423000603477
  0
LINE
  5
11A8C
330
11A23
100
AcDbEntity
  8
0
100
AcDbLine
 10
24.40134823088204
 20
-98.19739083780406
 30
0.0
 11
24.75454806846763
 21
-97.9934708164963
 31
0.0
  0
LINE
  5
11A8D
330
11A23
100
AcDbEntity
  8
0
100
AcDbLine
 10
24.75454806846763
 20
-97.9934708164963
 30
0.0
 11
25.46200840266185
 21
-97.58501840210827
 31
0.0
  0
ELLIPSE
  5
11A8E
330
11A23
100
AcDbEntity
  8
0
100
AcDbEllipse
 10
29.69717745574497
 20
-101.4424150964562
 30
0.0
 11
1.249999999999871
 21
-2.165063509461171
 31
0.0
210
0.0
220
0.0
230
0.9999999999999998
 40
0.577350269189626
 41
0.877371802939348
 42
2.35619449019258
  0
LINE
  5
11A8F
330
11A23
100
AcDbEntity
  8
0
100
AcDbLine
 10
26.16164354981223
 20
-97.35993219181771
 30
0.0
 11
29.69717745574497
 21
-99.40117364413703
 31
0.0
  0
ELLIPSE
  5
11A90
330
11A23
100
AcDbEntity
  8
0
100
AcDbEllipse
 10
26.16164354981223
 20
-99.40117364413698
 30
0.0
 11
-1.250000000000001
 21
2.165063509461096
 31
0.0
210
0.0
220
0.0
230
0.9999999999999998
 40
0.5773502691896261
 41
5.49778714378214
 42
6.976609831035328
  0
LINE
  5
11A91
330
11A23
100
AcDbEntity
  8
0
100
AcDbLine
 10
56.85007785330842
 20
162.4492798610178
 30
0.0
 11
1.130063495808437
 21
194.6192451495702
 31
0.0
  0
LINE
  5
11A92
330
11A23
100
AcDbEntity
  8
0
100
AcDbLine
 10
27.57585711218553
 20
-64.70006895307564
 30
0.0
 11
27.57585711218553
 21
139.750674911227
 31
0.0
  0
LINE
  5
11A93
330
11A23
100
AcDbEntity
  8
0
100
AcDbLine
 10
26.5151969404057
 20
140.3630473469227
 30
0.0
 11
26.5151969404057
 21
-64.08769651737985
 31
0.0
  0
LINE
  5
11A94
330
11A23
100
AcDbEntity
  8
0
100
AcDbLine
 10
56.85007785330842
 20
-51.88107263251023
 30
0.0
 11
31.11139101811824
 21
-66.74131040539494
 31
0.0
  0
LINE
  5
11A95
330
11A23
100
AcDbEntity
  8
0
100
AcDbLine
 10
31.11139101811825
 20
145.8743992681849
 30
0.0
 11
56.85007785330843
 21
160.7346370410696
 31
0.0
  0
LINE
  5
11A96
330
11A23
100
AcDbEntity
  8
0
100
AcDbLine
 10
-31.11400572629813
 20
173.6352830197277
 30
0.0
 11
-31.11400572629813
 21
-30.81546084457493
 31
0.0
  0
LINE
  5
11A97
330
11A23
100
AcDbEntity
  8
0
100
AcDbLine
 10
-1.839784985175065
 20
194.6192451495702
 30
0.0
 11
-27.5784718203654
 21
179.7590073766857
 31
0.0
  0
LINE
  5
11A98
330
11A23
100
AcDbEntity
  8
0
100
AcDbLine
 10
-30.05334555451832
 20
173.0229105840319
 30
0.0
 11
-30.05334555451832
 21
-31.42783328027072
 31
0.0
  0
LINE
  5
11A99
330
11A23
100
AcDbEntity
  8
0
100
AcDbLine
 10
56.85007785330843
 20
160.7346370410696
 30
0.0
 11
55.7894176815286
 21
161.3470094767655
 31
0.0
  0
LINE
  5
11A9A
330
11A23
100
AcDbEntity
  8
0
100
AcDbLine
 10
55.7894176815286
 20
161.3470094767655
 30
0.0
 11
30.05073084633841
 21
146.4867717038807
 31
0.0
  0
LINE
  5
11A9B
330
11A23
100
AcDbEntity
  8
0
100
AcDbLine
 10
0.0694033240286141
 20
-18.60883695970541
 30
0.0
 11
2.120012989469595
 21
-19.79275700205062
 31
0.0
  0
LINE
  5
11A9C
330
11A23
100
AcDbEntity
  8
0
100
AcDbLine
 10
56.85007785330842
 20
162.4492798610178
 30
0.0
 11
55.78941768152859
 21
161.836907425322
 31
0.0
  0
LINE
  5
11A9D
330
11A23
100
AcDbEntity
  8
0
100
AcDbLine
 10
1.130063495808437
 20
194.6192451495702
 30
0.0
 11
0.0694033240286141
 21
194.0068727138745
 31
0.0
  0
LINE
  5
11A9E
330
11A23
100
AcDbEntity
  8
0
100
AcDbLine
 10
-1.839784985175065
 20
194.6192451495702
 30
0.0
 11
-0.7791248133952422
 21
194.0068727138745
 31
0.0
  0
LINE
  5
11A9F
330
11A23
100
AcDbEntity
  8
0
100
AcDbLine
 10
0.0694033240286141
 20
194.0068727138745
 30
0.0
 11
55.78941768152859
 21
161.836907425322
 31
0.0
  0
LINE
  5
11AA0
330
11A23
100
AcDbEntity
  8
0
100
AcDbLine
 10
-26.51781164858557
 20
-33.46907473259002
 30
0.0
 11
-0.7791248133952422
 21
-18.60883695970541
 31
0.0
  0
LINE
  5
11AA1
330
11A23
100
AcDbEntity
  8
0
100
AcDbLine
 10
-26.51781164858557
 20
179.1466349409899
 30
0.0
 11
-0.7791248133952422
 21
194.0068727138745
 31
0.0
  0
LINE
  5
11AA2
330
11A23
100
AcDbEntity
  8
0
100
AcDbLine
 10
31.11139101811824
 20
-66.74131040539494
 30
0.0
 11
27.57585711218553
 21
-64.70006895307564
 31
0.0
  0
LINE
  5
11AA3
330
11A23
100
AcDbEntity
  8
0
100
AcDbLine
 10
27.57585711218553
 20
-64.70006895307564
 30
0.0
 11
26.5151969404057
 21
-64.08769651737985
 31
0.0
  0
LINE
  5
11AA4
330
11A23
100
AcDbEntity
  8
0
100
AcDbLine
 10
26.5151969404057
 20
140.3630473469227
 30
0.0
 11
27.57585711218553
 21
139.750674911227
 31
0.0
  0
LINE
  5
11AA5
330
11A23
100
AcDbEntity
  8
0
100
AcDbLine
 10
27.57585711218553
 20
139.750674911227
 30
0.0
 11
31.11139101811825
 21
145.8743992681849
 31
0.0
  0
LINE
  5
11AA6
330
11A23
100
AcDbEntity
  8
0
100
AcDbLine
 10
-26.51781164858557
 20
-33.46907473259002
 30
0.0
 11
-30.05334555451832
 21
-31.42783328027072
 31
0.0
  0
LINE
  5
11AA7
330
11A23
100
AcDbEntity
  8
0
100
AcDbLine
 10
-30.05334555451832
 20
-31.42783328027072
 30
0.0
 11
-31.11400572629813
 21
-30.81546084457492
 31
0.0
  0
LINE
  5
11AA8
330
11A23
100
AcDbEntity
  8
0
100
AcDbLine
 10
-27.5784718203654
 20
179.7590073766857
 30
0.0
 11
-31.11400572629813
 21
173.6352830197277
 31
0.0
  0
LINE
  5
11AA9
330
11A23
100
AcDbEntity
  8
0
100
AcDbLine
 10
-31.11400572629813
 20
173.6352830197277
 30
0.0
 11
-30.05334555451832
 21
173.0229105840319
 31
0.0
  0
LINE
  5
11AAA
330
11A23
100
AcDbEntity
  8
0
100
AcDbLine
 10
31.11139101811825
 20
145.8743992681849
 30
0.0
 11
30.05073084633841
 21
146.4867717038807
 31
0.0
  0
LINE
  5
11AAB
330
11A23
100
AcDbEntity
  8
0
100
AcDbLine
 10
30.05073084633841
 20
146.4867717038807
 30
0.0
 11
26.5151969404057
 21
140.3630473469227
 31
0.0
  0
LINE
  5
11AAC
330
11A23
100
AcDbEntity
  8
0
100
AcDbLine
 10
-30.05334555451832
 20
173.0229105840319
 30
0.0
 11
-26.51781164858557
 21
179.1466349409899
 31
0.0
  0
LINE
  5
11AAD
330
11A23
100
AcDbEntity
  8
0
100
AcDbLine
 10
-26.51781164858557
 20
179.1466349409899
 30
0.0
 11
-27.5784718203654
 21
179.7590073766857
 31
0.0
  0
LINE
  5
11AAE
330
11A23
100
AcDbEntity
  8
0
100
AcDbLine
 10
0.3500778534638638
 20
-173.2513425994565
 30
0.0
 11
0.350077853463846
 21
-167.4778399075603
 31
0.0
  0
LINE
  5
11AAF
330
11A23
100
AcDbEntity
  8
0
100
AcDbLine
 10
0.350077853463846
 20
-167.4778399075603
 30
0.0
 11
-0.7105823183159643
 21
-166.8654674718645
 31
0.0
  0
LINE
  5
11AB0
330
11A23
100
AcDbEntity
  8
0
100
AcDbLine
 10
-0.7105823183159643
 20
-166.8654674718645
 30
0.0
 11
-0.7105823183159421
 21
-172.6389701637607
 31
0.0
  0
LINE
  5
11AB1
330
11A23
100
AcDbEntity
  8
0
100
AcDbLine
 10
-0.7105823183159421
 20
-172.6389701637607
 30
0.0
 11
0.3500778534638638
 21
-173.2513425994565
 31
0.0
  0
LINE
  5
11AB2
330
11A23
100
AcDbEntity
  8
0
100
AcDbLine
 10
-58.33978498501956
 20
-133.5932317990597
 30
0.0
 11
-58.33978498501955
 21
-139.3667344909559
 31
0.0
  0
LINE
  5
11AB3
330
11A23
100
AcDbEntity
  8
0
100
AcDbLine
 10
-58.33978498501955
 20
-139.3667344909559
 30
0.0
 11
-57.27912481323972
 21
-139.9791069266517
 31
0.0
  0
LINE
  5
11AB4
330
11A23
100
AcDbEntity
  8
0
100
AcDbLine
 10
-57.27912481323972
 20
-139.9791069266517
 30
0.0
 11
-57.27912481323975
 21
-134.2056042347555
 31
0.0
  0
LINE
  5
11AB5
330
11A23
100
AcDbEntity
  8
0
100
AcDbLine
 10
-57.27912481323975
 20
-134.2056042347555
 30
0.0
 11
-58.33978498501956
 21
-133.5932317990597
 31
0.0
  0
ELLIPSE
  5
11AB6
330
11A23
100
AcDbEntity
  8
0
100
AcDbEllipse
 10
33.23271136167755
 20
140.6488211502476
 30
0.0
 11
1.250000000000128
 21
2.165063509461023
 31
0.0
210
0.0
220
0.0
230
1.0
 40
0.5773502691896257
 41
0.0
 42
6.283185307179586
  0
ELLIPSE
  5
11AB7
330
11A23
100
AcDbEntity
  8
0
100
AcDbEllipse
 10
33.23271136167755
 20
124.3188895316931
 30
0.0
 11
1.250000000000128
 21
2.165063509461023
 31
0.0
210
0.0
220
0.0
230
1.0
 40
0.5773502691896257
 41
0.0
 42
6.283185307179586
  0
ELLIPSE
  5
11AB8
330
11A23
100
AcDbEntity
  8
0
100
AcDbEllipse
 10
33.23271136167755
 20
107.9889579131386
 30
0.0
 11
1.250000000000128
 21
2.165063509461023
 31
0.0
210
0.0
220
0.0
230
1.0
 40
0.5773502691896257
 41
0.0
 42
6.283185307179586
  0
ELLIPSE
  5
11AB9
330
11A23
100
AcDbEntity
  8
0
100
AcDbEllipse
 10
33.23271136167755
 20
91.65902629458409
 30
0.0
 11
1.250000000000128
 21
2.165063509461023
 31
0.0
210
0.0
220
0.0
230
1.0
 40
0.5773502691896257
 41
0.0
 42
6.283185307179586
  0
ELLIPSE
  5
11ABA
330
11A23
100
AcDbEntity
  8
0
100
AcDbEllipse
 10
33.23271136167755
 20
75.32909467602957
 30
0.0
 11
1.250000000000128
 21
2.165063509461023
 31
0.0
210
0.0
220
0.0
230
1.0
 40
0.5773502691896257
 41
0.0
 42
6.283185307179586
  0
ELLIPSE
  5
11ABB
330
11A23
100
AcDbEntity
  8
0
100
AcDbEllipse
 10
33.23271136167755
 20
58.99916305747504
 30
0.0
 11
1.250000000000128
 21
2.165063509461023
 31
0.0
210
0.0
220
0.0
230
1.0
 40
0.5773502691896257
 41
0.0
 42
6.283185307179586
  0
ELLIPSE
  5
11ABC
330
11A23
100
AcDbEntity
  8
0
100
AcDbEllipse
 10
33.23271136167755
 20
42.66923143892052
 30
0.0
 11
1.250000000000128
 21
2.165063509461023
 31
0.0
210
0.0
220
0.0
230
1.0
 40
0.5773502691896257
 41
0.0
 42
6.283185307179586
  0
ELLIPSE
  5
11ABD
330
11A23
100
AcDbEntity
  8
0
100
AcDbEllipse
 10
33.23271136167755
 20
26.339299820366
 30
0.0
 11
1.250000000000128
 21
2.165063509461023
 31
0.0
210
0.0
220
0.0
230
1.0
 40
0.5773502691896257
 41
0.0
 42
6.283185307179586
  0
ELLIPSE
  5
11ABE
330
11A23
100
AcDbEntity
  8
0
100
AcDbEllipse
 10
33.23271136167755
 20
10.00936820181147
 30
0.0
 11
1.250000000000128
 21
2.165063509461023
 31
0.0
210
0.0
220
0.0
230
1.0
 40
0.5773502691896257
 41
0.0
 42
6.283185307179586
  0
ELLIPSE
  5
11ABF
330
11A23
100
AcDbEntity
  8
0
100
AcDbEllipse
 10
33.23271136167755
 20
-6.320563416743052
 30
0.0
 11
1.250000000000128
 21
2.165063509461023
 31
0.0
210
0.0
220
0.0
230
1.0
 40
0.5773502691896257
 41
0.0
 42
6.283185307179586
  0
ELLIPSE
  5
11AC0
330
11A23
100
AcDbEntity
  8
0
100
AcDbEllipse
 10
33.23271136167755
 20
-22.65049503529759
 30
0.0
 11
1.250000000000128
 21
2.165063509461023
 31
0.0
210
0.0
220
0.0
230
1.0
 40
0.5773502691896257
 41
0.0
 42
6.283185307179586
  0
ELLIPSE
  5
11AC1
330
11A23
100
AcDbEntity
  8
0
100
AcDbEllipse
 10
33.23271136167755
 20
-38.98042665385212
 30
0.0
 11
1.250000000000128
 21
2.165063509461023
 31
0.0
210
0.0
220
0.0
230
1.0
 40
0.5773502691896257
 41
0.0
 42
6.283185307179586
  0
ELLIPSE
  5
11AC2
330
11A23
100
AcDbEntity
  8
0
100
AcDbEllipse
 10
32.17205118989772
 20
141.2611935859434
 30
0.0
 11
1.249999999999864
 21
2.165063509461175
 31
0.0
210
0.0
220
0.0
230
1.0
 40
0.5773502691896217
 41
3.579741684173551
 42
5.84503627659499
  0
ELLIPSE
  5
11AC3
330
11A23
100
AcDbEntity
  8
0
100
AcDbEllipse
 10
32.17205118989772
 20
124.9312619673889
 30
0.0
 11
1.249999999999864
 21
2.165063509461175
 31
0.0
210
0.0
220
0.0
230
0.9999999999999998
 40
0.5773502691896219
 41
3.579741684173548
 42
5.845036276595
  0
ELLIPSE
  5
11AC4
330
11A23
100
AcDbEntity
  8
0
100
AcDbEllipse
 10
32.17205118989772
 20
108.6013303488344
 30
0.0
 11
1.249999999999864
 21
2.165063509461175
 31
0.0
210
0.0
220
0.0
230
0.9999999999999998
 40
0.5773502691896219
 41
3.579741684173548
 42
5.845036276595
  0
ELLIPSE
  5
11AC5
330
11A23
100
AcDbEntity
  8
0
100
AcDbEllipse
 10
32.17205118989772
 20
92.27139873027988
 30
0.0
 11
1.249999999999864
 21
2.165063509461175
 31
0.0
210
0.0
220
0.0
230
0.9999999999999998
 40
0.5773502691896219
 41
3.579741684173548
 42
5.845036276595
  0
ELLIPSE
  5
11AC6
330
11A23
100
AcDbEntity
  8
0
100
AcDbEllipse
 10
32.17205118989772
 20
75.94146711172536
 30
0.0
 11
1.249999999999864
 21
2.165063509461175
 31
0.0
210
0.0
220
0.0
230
0.9999999999999998
 40
0.5773502691896219
 41
3.579741684173557
 42
5.845036276595002
  0
ELLIPSE
  5
11AC7
330
11A23
100
AcDbEntity
  8
0
100
AcDbEllipse
 10
32.17205118989772
 20
59.61153549317083
 30
0.0
 11
1.249999999999864
 21
2.165063509461175
 31
0.0
210
0.0
220
0.0
230
0.9999999999999998
 40
0.5773502691896219
 41
3.579741684173557
 42
5.845036276595002
  0
ELLIPSE
  5
11AC8
330
11A23
100
AcDbEntity
  8
0
100
AcDbEllipse
 10
32.17205118989772
 20
43.28160387461631
 30
0.0
 11
1.249999999999864
 21
2.165063509461175
 31
0.0
210
0.0
220
0.0
230
0.9999999999999998
 40
0.5773502691896219
 41
3.579741684173557
 42
5.845036276595002
  0
ELLIPSE
  5
11AC9
330
11A23
100
AcDbEntity
  8
0
100
AcDbEllipse
 10
32.17205118989772
 20
26.95167225606179
 30
0.0
 11
1.249999999999864
 21
2.165063509461175
 31
0.0
210
0.0
220
0.0
230
0.9999999999999998
 40
0.5773502691896219
 41
3.579741684173553
 42
5.845036276594996
  0
ELLIPSE
  5
11ACA
330
11A23
100
AcDbEntity
  8
0
100
AcDbEllipse
 10
32.17205118989772
 20
10.62174063750726
 30
0.0
 11
1.249999999999864
 21
2.165063509461175
 31
0.0
210
0.0
220
0.0
230
0.9999999999999998
 40
0.5773502691896219
 41
3.579741684173553
 42
5.845036276594996
  0
ELLIPSE
  5
11ACB
330
11A23
100
AcDbEntity
  8
0
100
AcDbEllipse
 10
32.17205118989772
 20
-5.708190981047263
 30
0.0
 11
1.249999999999864
 21
2.165063509461175
 31
0.0
210
0.0
220
0.0
230
1.0
 40
0.5773502691896218
 41
3.579741684173551
 42
5.845036276594989
  0
ELLIPSE
  5
11ACC
330
11A23
100
AcDbEntity
  8
0
100
AcDbEllipse
 10
32.17205118989772
 20
-22.03812259960179
 30
0.0
 11
1.249999999999864
 21
2.165063509461175
 31
0.0
210
0.0
220
0.0
230
1.0
 40
0.5773502691896218
 41
3.579741684173551
 42
5.845036276594989
  0
ELLIPSE
  5
11ACD
330
11A23
100
AcDbEntity
  8
0
100
AcDbEllipse
 10
32.17205118989772
 20
-38.36805421815632
 30
0.0
 11
1.249999999999864
 21
2.165063509461175
 31
0.0
210
0.0
220
0.0
230
1.0
 40
0.5773502691896218
 41
3.57974168417355
 42
5.84503627659499
  0
ELLIPSE
  5
11ACE
330
11A23
100
AcDbEntity
  8
0
100
AcDbEllipse
 10
33.23271136167755
 20
-55.31035827240664
 30
0.0
 11
1.250000000000128
 21
2.165063509461023
 31
0.0
210
0.0
220
0.0
230
1.0
 40
0.5773502691896257
 41
0.0
 42
6.283185307179586
  0
ELLIPSE
  5
11ACF
330
11A23
100
AcDbEntity
  8
0
100
AcDbEllipse
 10
32.17205118989772
 20
-54.69798583671084
 30
0.0
 11
1.249999999999864
 21
2.165063509461175
 31
0.0
210
0.0
220
0.0
230
1.0
 40
0.5773502691896218
 41
3.57974168417355
 42
5.84503627659499
  0
LINE
  5
11AD0
330
11A23
100
AcDbEntity
  8
0
100
AcDbLine
 10
56.85007785330842
 20
-51.88107263251023
 30
0.0
 11
56.85007785330843
 21
160.7346370410696
 31
0.0
  0
ELLIPSE
  5
11AD1
330
11A23
100
AcDbEntity
  8
0
100
AcDbEllipse
 10
55.36515361281666
 20
161.5919584510438
 30
0.0
 11
0.6000000000000007
 21
0.0000000000000001
 31
0.0
210
0.0
220
0.0
230
1.0
 40
0.5773502691896259
 41
5.497787143782228
 42
7.068583470577047
  0
LINE
  5
11AD2
330
11A23
100
AcDbEntity
  8
0
100
AcDbLine
 10
55.78941768152859
 20
161.836907425322
 30
0.0
 11
55.78941768152859
 21
161.3470094767654
 31
0.0
  0
ELLIPSE
  5
11AD3
330
11A23
100
AcDbEntity
  8
0
100
AcDbEllipse
 10
55.36515361281666
 20
161.5919584510438
 30
0.0
 11
2.100000000000008
 21
-0.0000000000000001
 31
0.0
210
0.0
220
0.0
230
1.0
 40
0.577350269189626
 41
5.497787143782142
 42
7.06858347057703
  0
ELLIPSE
  5
11AD4
330
11A23
100
AcDbEntity
  8
0
100
AcDbEllipse
 10
55.36515361281666
 20
-51.02375122253612
 30
0.0
 11
2.100000000000004
 21
-0.0000000000000006
 31
0.0
210
0.0
220
0.0
230
1.0
 40
0.577350269189626
 41
5.497787143782144
 42
6.283185307179588
  0
LINE
  5
11AD5
330
11A23
100
AcDbEntity
  8
0
100
AcDbLine
 10
0.0694033240286141
 20
194.0068727138745
 30
0.0
 11
0.0694033240286141
 21
-18.60883695970542
 31
0.0
  0
ELLIPSE
  5
11AD6
330
11A23
100
AcDbEntity
  8
0
100
AcDbEllipse
 10
-0.3548607446833119
 20
193.7619237395962
 30
0.0
 11
0.6000000000000006
 21
-0.0000000000000358
 31
0.0
210
0.0
220
0.0
230
1.0
 40
0.577350269189626
 41
0.7853981633976597
 42
2.356194490192537
  0
LINE
  5
11AD7
330
11A23
100
AcDbEntity
  8
0
100
AcDbLine
 10
-0.7791248133952422
 20
194.0068727138745
 30
0.0
 11
-0.7791248133952422
 21
-18.60883695970542
 31
0.0
  0
ELLIPSE
  5
11AD8
330
11A23
100
AcDbEntity
  8
0
100
AcDbEllipse
 10
-0.3548607446833119
 20
-18.85378593398373
 30
0.0
 11
0.6000000000000006
 21
-0.0000000000000358
 31
0.0
210
0.0
220
0.0
230
1.0
 40
0.577350269189626
 41
0.7853981633976917
 42
2.356194490192587
  0
ELLIPSE
  5
11AD9
330
11A23
100
AcDbEntity
  8
0
100
AcDbEllipse
 10
-0.3548607446833119
 20
193.7619237395962
 30
0.0
 11
-2.100000000000004
 21
-0.000000000000125
 31
0.0
210
0.0
220
0.0
230
1.0
 40
0.5773502691896258
 41
3.926990816986991
 42
5.49778714378189
  0
LINE
  5
11ADA
330
11A23
100
AcDbEntity
  8
0
100
AcDbLine
 10
57.46515361281666
 20
161.5919584510438
 30
0.0
 11
57.46515361281666
 21
-51.02375122253612
 31
0.0
  0
ELLIPSE
  5
11ADB
330
11A23
100
AcDbEntity
  8
0
100
AcDbEllipse
 10
-25.45715147680577
 20
170.4509463541095
 30
0.0
 11
1.24999999999987
 21
2.165063509461172
 31
0.0
210
0.0
220
0.0
230
1.0
 40
0.5773502691896255
 41
3.579741684173553
 42
5.845036276595003
  0
ELLIPSE
  5
11ADC
330
11A23
100
AcDbEntity
  8
0
100
AcDbEllipse
 10
-25.45715147680577
 20
154.121014735555
 30
0.0
 11
1.24999999999987
 21
2.165063509461172
 31
0.0
210
0.0
220
0.0
230
1.0
 40
0.5773502691896254
 41
3.579741684173544
 42
5.845036276595005
  0
ELLIPSE
  5
11ADD
330
11A23
100
AcDbEntity
  8
0
100
AcDbEllipse
 10
-25.45715147680577
 20
137.7910831170005
 30
0.0
 11
1.24999999999987
 21
2.165063509461172
 31
0.0
210
0.0
220
0.0
230
1.0
 40
0.5773502691896254
 41
3.579741684173544
 42
5.845036276595005
  0
ELLIPSE
  5
11ADE
330
11A23
100
AcDbEntity
  8
0
100
AcDbEllipse
 10
-25.45715147680577
 20
121.461151498446
 30
0.0
 11
1.24999999999987
 21
2.165063509461172
 31
0.0
210
0.0
220
0.0
230
1.0
 40
0.5773502691896254
 41
3.579741684173544
 42
5.845036276595005
  0
ELLIPSE
  5
11ADF
330
11A23
100
AcDbEntity
  8
0
100
AcDbEllipse
 10
-25.45715147680577
 20
105.1312198798914
 30
0.0
 11
1.24999999999987
 21
2.165063509461172
 31
0.0
210
0.0
220
0.0
230
1.0
 40
0.5773502691896254
 41
3.579741684173544
 42
5.845036276595005
  0
ELLIPSE
  5
11AE0
330
11A23
100
AcDbEntity
  8
0
100
AcDbEllipse
 10
-25.45715147680577
 20
88.80128826133693
 30
0.0
 11
1.24999999999987
 21
2.165063509461172
 31
0.0
210
0.0
220
0.0
230
1.0
 40
0.5773502691896254
 41
3.579741684173544
 42
5.845036276595005
  0
ELLIPSE
  5
11AE1
330
11A23
100
AcDbEntity
  8
0
100
AcDbEllipse
 10
-25.45715147680577
 20
72.47135664278241
 30
0.0
 11
1.24999999999987
 21
2.165063509461172
 31
0.0
210
0.0
220
0.0
230
1.0
 40
0.5773502691896254
 41
3.579741684173544
 42
5.845036276594997
  0
ELLIPSE
  5
11AE2
330
11A23
100
AcDbEntity
  8
0
100
AcDbEllipse
 10
-25.45715147680577
 20
56.1414250242279
 30
0.0
 11
1.24999999999987
 21
2.165063509461172
 31
0.0
210
0.0
220
0.0
230
1.0
 40
0.5773502691896254
 41
3.579741684173544
 42
5.845036276594997
  0
ELLIPSE
  5
11AE3
330
11A23
100
AcDbEntity
  8
0
100
AcDbEllipse
 10
-25.45715147680577
 20
39.81149340567338
 30
0.0
 11
1.24999999999987
 21
2.165063509461172
 31
0.0
210
0.0
220
0.0
230
1.0
 40
0.5773502691896254
 41
3.579741684173544
 42
5.845036276594997
  0
ELLIPSE
  5
11AE4
330
11A23
100
AcDbEntity
  8
0
100
AcDbEllipse
 10
-25.45715147680577
 20
23.48156178711886
 30
0.0
 11
1.24999999999987
 21
2.165063509461172
 31
0.0
210
0.0
220
0.0
230
0.9999999999999998
 40
0.5773502691896257
 41
3.57974168417355
 42
5.845036276594989
  0
ELLIPSE
  5
11AE5
330
11A23
100
AcDbEntity
  8
0
100
AcDbEllipse
 10
-25.45715147680577
 20
7.151630168564331
 30
0.0
 11
1.24999999999987
 21
2.165063509461172
 31
0.0
210
0.0
220
0.0
230
0.9999999999999998
 40
0.5773502691896257
 41
3.57974168417355
 42
5.845036276594989
  0
ELLIPSE
  5
11AE6
330
11A23
100
AcDbEntity
  8
0
100
AcDbEllipse
 10
-25.45715147680577
 20
-9.178301449990193
 30
0.0
 11
1.24999999999987
 21
2.165063509461172
 31
0.0
210
0.0
220
0.0
230
0.9999999999999998
 40
0.5773502691896257
 41
3.57974168417355
 42
5.845036276594989
  0
ELLIPSE
  5
11AE7
330
11A23
100
AcDbEntity
  8
0
100
AcDbEllipse
 10
-24.39649130502593
 20
169.8385739184137
 30
0.0
 11
1.250000000000128
 21
2.165063509461023
 31
0.0
210
0.0
220
0.0
230
1.0
 40
0.5773502691896257
 41
0.0
 42
6.283185307179586
  0
ELLIPSE
  5
11AE8
330
11A23
100
AcDbEntity
  8
0
100
AcDbEllipse
 10
-24.39649130502593
 20
153.5086422998592
 30
0.0
 11
1.250000000000128
 21
2.165063509461023
 31
0.0
210
0.0
220
0.0
230
1.0
 40
0.5773502691896257
 41
0.0
 42
6.283185307179586
  0
ELLIPSE
  5
11AE9
330
11A23
100
AcDbEntity
  8
0
100
AcDbEllipse
 10
-24.39649130502593
 20
137.1787106813047
 30
0.0
 11
1.250000000000128
 21
2.165063509461023
 31
0.0
210
0.0
220
0.0
230
1.0
 40
0.5773502691896257
 41
0.0
 42
6.283185307179586
  0
ELLIPSE
  5
11AEA
330
11A23
100
AcDbEntity
  8
0
100
AcDbEllipse
 10
-24.39649130502593
 20
120.8487790627502
 30
0.0
 11
1.250000000000128
 21
2.165063509461023
 31
0.0
210
0.0
220
0.0
230
1.0
 40
0.5773502691896257
 41
0.0
 42
6.283185307179586
  0
ELLIPSE
  5
11AEB
330
11A23
100
AcDbEntity
  8
0
100
AcDbEllipse
 10
-24.39649130502593
 20
104.5188474441957
 30
0.0
 11
1.250000000000128
 21
2.165063509461023
 31
0.0
210
0.0
220
0.0
230
1.0
 40
0.5773502691896257
 41
0.0
 42
6.283185307179586
  0
ELLIPSE
  5
11AEC
330
11A23
100
AcDbEntity
  8
0
100
AcDbEllipse
 10
-24.39649130502593
 20
88.18891582564114
 30
0.0
 11
1.250000000000128
 21
2.165063509461023
 31
0.0
210
0.0
220
0.0
230
1.0
 40
0.5773502691896257
 41
0.0
 42
6.283185307179586
  0
ELLIPSE
  5
11AED
330
11A23
100
AcDbEntity
  8
0
100
AcDbEllipse
 10
-24.39649130502593
 20
71.85898420708662
 30
0.0
 11
1.250000000000128
 21
2.165063509461023
 31
0.0
210
0.0
220
0.0
230
1.0
 40
0.5773502691896257
 41
0.0
 42
6.283185307179586
  0
ELLIPSE
  5
11AEE
330
11A23
100
AcDbEntity
  8
0
100
AcDbEllipse
 10
-24.39649130502593
 20
55.52905258853209
 30
0.0
 11
1.250000000000128
 21
2.165063509461023
 31
0.0
210
0.0
220
0.0
230
1.0
 40
0.5773502691896257
 41
0.0
 42
6.283185307179586
  0
ELLIPSE
  5
11AEF
330
11A23
100
AcDbEntity
  8
0
100
AcDbEllipse
 10
-24.39649130502593
 20
39.19912096997757
 30
0.0
 11
1.250000000000128
 21
2.165063509461023
 31
0.0
210
0.0
220
0.0
230
1.0
 40
0.5773502691896257
 41
0.0
 42
6.283185307179586
  0
ELLIPSE
  5
11AF0
330
11A23
100
AcDbEntity
  8
0
100
AcDbEllipse
 10
-24.39649130502593
 20
22.86918935142305
 30
0.0
 11
1.250000000000128
 21
2.165063509461023
 31
0.0
210
0.0
220
0.0
230
1.0
 40
0.5773502691896257
 41
0.0
 42
6.283185307179586
  0
ELLIPSE
  5
11AF1
330
11A23
100
AcDbEntity
  8
0
100
AcDbEllipse
 10
-24.39649130502593
 20
6.539257732868524
 30
0.0
 11
1.250000000000128
 21
2.165063509461023
 31
0.0
210
0.0
220
0.0
230
1.0
 40
0.5773502691896257
 41
0.0
 42
6.283185307179586
  0
ELLIPSE
  5
11AF2
330
11A23
100
AcDbEntity
  8
0
100
AcDbEllipse
 10
-24.39649130502593
 20
-9.790673885686
 30
0.0
 11
1.250000000000128
 21
2.165063509461023
 31
0.0
210
0.0
220
0.0
230
1.0
 40
0.5773502691896257
 41
0.0
 42
6.283185307179586
  0
ELLIPSE
  5
11AF3
330
11A23
100
AcDbEntity
  8
0
100
AcDbEllipse
 10
-25.45715147680577
 20
-25.50823306854472
 30
0.0
 11
1.24999999999987
 21
2.165063509461172
 31
0.0
210
0.0
220
0.0
230
0.9999999999999998
 40
0.5773502691896257
 41
3.57974168417355
 42
5.845036276594989
  0
ELLIPSE
  5
11AF4
330
11A23
100
AcDbEntity
  8
0
100
AcDbEllipse
 10
-24.39649130502593
 20
-26.12060550424053
 30
0.0
 11
1.250000000000128
 21
2.165063509461023
 31
0.0
210
0.0
220
0.0
230
1.0
 40
0.5773502691896257
 41
0.0
 42
6.283185307179586
  0
LINE
  5
11AF5
330
11A23
100
AcDbEntity
  8
0
100
AcDbLine
 10
13.85007785287237
 20
-144.0951540070754
 30
0.0
 11
0.350077853463846
 21
-167.4778399075603
 31
0.0
  0
LINE
  5
11AF6
330
11A23
100
AcDbEntity
  8
0
100
AcDbLine
 10
12.7894176810926
 20
-143.4827815713796
 30
0.0
 11
-0.7105823183159643
 21
-166.8654674718645
 31
0.0
  0
LINE
  5
11AF7
330
11A23
100
AcDbEntity
  8
0
100
AcDbLine
 10
18.55007785330839
 20
-183.759117498618
 30
0.0
 11
55.25007785252047
 21
-120.1928528622047
 31
0.0
  0
LINE
  5
11AF8
330
11A23
100
AcDbEntity
  8
0
100
AcDbLine
 10
53.94088954331362
 20
-119.7239682135574
 30
0.0
 11
54.92869889270682
 21
-118.0130322322169
 31
0.0
  0
LINE
  5
11AF9
330
11A23
100
AcDbEntity
  8
0
100
AcDbLine
 10
18.88380696076393
 20
-183.9517960886438
 30
0.0
 11
18.55007785330836
 21
-183.759117498618
 31
0.0
  0
LINE
  5
11AFA
330
11A23
100
AcDbEntity
  8
0
100
AcDbLine
 10
55.92216692982646
 20
-119.7994747932023
 30
0.0
 11
18.88380696076394
 21
-183.9517960886439
 31
0.0
  0
LINE
  5
11AFB
330
11A23
100
AcDbEntity
  8
0
100
AcDbLine
 10
13.85007785287237
 20
-144.0951540070754
 30
0.0
 11
12.7894176810926
 21
-143.4827815713796
 31
0.0
  0
LINE
  5
11AFC
330
11A23
100
AcDbEntity
  8
0
100
AcDbLine
 10
55.25007785252047
 20
-120.1928528622048
 30
0.0
 11
13.85007785287237
 21
-144.0951540070754
 31
0.0
  0
LINE
  5
11AFD
330
11A23
100
AcDbEntity
  8
0
100
AcDbLine
 10
-44.83978498561238
 20
-110.210545898574
 30
0.0
 11
-3.439784985962912
 21
-86.30824475370417
 31
0.0
  0
SPLINE
  5
11AFE
330
11A23
100
AcDbEntity
  8
0
100
AcDbSpline
210
0.0
220
0.0
230
1.0
 70
     8
 71
     3
 72
     8
 73
     4
 74
     0
 42
0.000000001
 43
0.0000000001
 40
-1.0
 40
-1.0
 40
-1.0
 40
-1.0
 40
0.0
 40
0.0
 40
0.0
 40
0.0
 10
3.168173096660682
 20
-85.93841145831092
 30
0.0
 10
3.200104511641761
 20
-86.08674291465257
 30
0.0
 10
3.118142499031355
 20
-86.23095001412236
 30
0.0
 10
2.957030912494671
 20
-86.30640641000201
 30
0.0
  0
SPLINE
  5
11AFF
330
11A23
100
AcDbEntity
  8
0
100
AcDbSpline
210
0.0
220
0.0
230
1.0
 70
     8
 71
     3
 72
     8
 73
     4
 74
     0
 42
0.000000001
 43
0.0000000001
 40
-1.0
 40
-1.0
 40
-1.0
 40
-1.0
 40
0.0
 40
0.0
 40
0.0
 40
0.0
 10
52.65326195563864
 20
-114.998538780471
 30
0.0
 10
52.63805331807993
 20
-114.8212838557463
 30
0.0
 10
52.65871649391538
 20
-114.6416858563635
 30
0.0
 10
52.6906479088965
 20
-114.5302256220917
 30
0.0
  0
SPLINE
  5
11B00
330
11A23
100
AcDbEntity
  8
0
100
AcDbSpline
210
0.0
220
0.0
230
1.0
 70
     8
 71
     3
 72
     8
 73
     4
 74
     0
 42
0.000000001
 43
0.0000000001
 40
0.1302463606542056
 40
0.1302463606542056
 40
0.1302463606542056
 40
0.1302463606542056
 40
1.0
 40
1.0
 40
1.0
 40
1.0
 10
53.73309442375783
 20
-114.0953045653894
 30
0.0
 10
53.68026848796887
 20
-114.5047257928259
 30
0.0
 10
53.54865871385374
 20
-115.0026376279926
 30
0.0
 10
53.40326195563864
 20
-115.4315514823632
 30
0.0
  0
ELLIPSE
  5
11B01
330
11A23
100
AcDbEntity
  8
0
100
AcDbEllipse
 10
2.312716531375942
 20
-85.20240598736096
 30
0.0
 11
-0.75
 21
-1.299038105676659
 31
0.0
210
0.0
220
0.0
230
1.0
 40
0.8164965809277259
 41
0.0
 42
1.134458255166911
  0
LINE
  5
11B02
330
11A23
100
AcDbEntity
  8
0
100
AcDbLine
 10
1.562716531375953
 20
-86.50144409303761
 30
0.0
 11
-0.0587891588337053
 21
-85.56526734630255
 31
0.0
  0
LINE
  5
11B03
330
11A23
100
AcDbEntity
  8
0
100
AcDbLine
 10
-0.0587891588337053
 20
-85.56526734630255
 30
0.0
 11
-0.7913154647931365
 21
-85.84306694366445
 31
0.0
  0
LINE
  5
11B04
330
11A23
100
AcDbEntity
  8
0
100
AcDbLine
 10
54.92869889270682
 20
-118.0130322322169
 30
0.0
 11
54.80301724820359
 21
-117.2397460436346
 31
0.0
  0
LINE
  5
11B05
330
11A23
100
AcDbEntity
  8
0
100
AcDbLine
 10
54.80301724820359
 20
-117.2397460436346
 30
0.0
 11
53.18151155799395
 21
-116.3035692968996
 31
0.0
  0
ELLIPSE
  5
11B06
330
11A23
100
AcDbEntity
  8
0
100
AcDbEllipse
 10
53.93151155799393
 20
-115.0045311912229
 30
0.0
 11
-0.7499999999999997
 21
-1.299038105676658
 31
0.0
210
0.0
220
0.0
230
1.0
 40
0.816496580927726
 41
5.148727052012677
 42
6.283185307179575
  0
LINE
  5
11B07
330
11A23
100
AcDbEntity
  8
0
100
AcDbLine
 10
-43.77912481383223
 20
-110.82291833427
 30
0.0
 11
-44.83978498561238
 21
-110.210545898574
 31
0.0
  0
LINE
  5
11B08
330
11A23
100
AcDbEntity
  8
0
100
AcDbLine
 10
-2.379124814183124
 20
-86.92061718939994
 30
0.0
 11
-43.77912481383223
 21
-110.82291833427
 31
0.0
  0
LINE
  5
11B09
330
11A23
100
AcDbEntity
  8
0
100
AcDbLine
 10
-2.379124814183124
 20
-86.92061718939994
 30
0.0
 11
-2.732324651384763
 21
-86.71669716831379
 31
0.0
  0
LINE
  5
11B0A
330
11A23
100
AcDbEntity
  8
0
100
AcDbLine
 10
-2.732324651384763
 20
-86.71669716831379
 30
0.0
 11
-3.439784985962908
 21
-86.30824475370417
 31
0.0
  0
SPLINE
  5
11B0B
330
11A23
100
AcDbEntity
  8
0
100
AcDbSpline
210
0.0
220
0.0
230
1.0
 70
     8
 71
     3
 72
     8
 73
     4
 74
     0
 42
0.000000001
 43
0.0000000001
 40
-1.0
 40
-1.0
 40
-1.0
 40
-1.0
 40
0.0
 40
0.0
 40
0.0
 40
0.0
 10
-0.7913154647931365
 20
-85.84306694366445
 30
0.0
 10
-1.301308038593629
 20
-86.21338006090496
 30
0.0
 10
-1.934196754611279
 20
-86.51273905735536
 30
0.0
 10
-2.379124814183106
 20
-86.9206171893999
 30
0.0
  0
SPLINE
  5
11B0C
330
11A23
100
AcDbEntity
  8
0
100
AcDbSpline
210
0.0
220
0.0
230
1.0
 70
     8
 71
     3
 72
     8
 73
     4
 74
     0
 42
0.000000001
 43
0.0000000001
 40
0.0
 40
0.0
 40
0.0
 40
0.0
 40
0.6081734479693788
 40
0.6081734479693788
 40
0.6081734479693788
 40
0.6081734479693788
 10
-3.43978498596289
 20
-86.30824475370415
 30
0.0
 10
-2.930362399343624
 20
-86.19807218044618
 30
0.0
 10
-2.177613033034866
 20
-86.22838438894229
 30
0.0
 10
-1.426280169832119
 20
-86.25787877898886
 30
0.0
  0
ELLIPSE
  5
11B0D
330
11A23
100
AcDbEntity
  8
0
100
AcDbEllipse
 10
2.120012989469604
 20
-85.52073176673248
 30
0.0
 11
0.7499999999999229
 21
-1.299038105676702
 31
0.0
210
0.0
220
0.0
230
0.9999999999999998
 40
0.5773502691896261
 41
0.9390757175652568
 42
2.356194490192585
  0
LINE
  5
11B0E
330
11A23
100
AcDbEntity
  8
0
100
AcDbLine
 10
55.25007785252047
 20
-120.1928528622048
 30
0.0
 11
54.54261751794298
 21
-119.7844004475954
 31
0.0
  0
LINE
  5
11B0F
330
11A23
100
AcDbEntity
  8
0
100
AcDbLine
 10
54.54261751794298
 20
-119.7844004475954
 30
0.0
 11
54.18941768074069
 21
-119.580480426509
 31
0.0
  0
LINE
  5
11B10
330
11A23
100
AcDbEntity
  8
0
100
AcDbLine
 10
12.7894176810926
 20
-143.4827815713796
 30
0.0
 11
54.18941768074069
 21
-119.580480426509
 31
0.0
  0
LINE
  5
11B11
330
11A23
100
AcDbEntity
  8
0
100
AcDbLine
 10
54.92869889270682
 20
-118.0130322322169
 30
0.0
 11
55.17844889270778
 21
-118.1572254619475
 31
0.0
  0
SPLINE
  5
11B12
330
11A23
100
AcDbEntity
  8
0
100
AcDbSpline
210
0.0
220
0.0
230
1.0
 70
     8
 71
     3
 72
     8
 73
     4
 74
     0
 42
0.000000001
 43
0.0000000001
 40
-1.0
 40
-1.0
 40
-1.0
 40
-1.0
 40
0.0
 40
0.0
 40
0.0
 40
0.0
 10
54.18941768074069
 20
-119.580480426509
 30
0.0
 10
54.63434574031275
 20
-119.172602294464
 30
0.0
 10
54.86299461272155
 20
-118.6398553154907
 30
0.0
 10
54.92869889270683
 20
-118.0130322322168
 30
0.0
  0
SPLINE
  5
11B13
330
11A23
100
AcDbEntity
  8
0
100
AcDbSpline
210
0.0
220
0.0
230
1.0
 70
     8
 71
     3
 72
     8
 73
     4
 74
     0
 42
0.000000001
 43
0.0000000001
 40
0.0
 40
0.0
 40
0.0
 40
0.0
 40
1.0
 40
1.0
 40
1.0
 40
1.0
 10
55.67869889270681
 20
-118.446044934109
 30
0.0
 10
56.16835497999135
 20
-119.3935054749234
 30
0.0
 10
56.08770499379132
 20
-120.0116996506891
 30
0.0
 10
55.25007785252049
 20
-120.1928528622048
 30
0.0
  0
LINE
  5
11B14
330
11A23
100
AcDbEntity
  8
0
100
AcDbLine
 10
55.17844889270778
 20
-118.1572254619475
 30
0.0
 11
55.67869889270681
 21
-118.4460449341091
 31
0.0
  0
ELLIPSE
  5
11B15
330
11A23
100
AcDbEntity
  8
0
100
AcDbEllipse
 10
54.68151155799391
 20
-115.4375438931152
 30
0.0
 11
-0.7499999999999993
 21
-1.299038105676659
 31
0.0
210
0.0
220
0.0
230
1.0
 40
0.8164965809277259
 41
5.148727052012676
 42
6.28318530717958
  0
LINE
  5
11B16
330
11A23
100
AcDbEntity
  8
0
100
AcDbLine
 10
53.40326195563862
 20
-115.4315514823632
 30
0.0
 11
52.90301195654095
 21
-115.1427320107221
 31
0.0
  0
LINE
  5
11B17
330
11A23
100
AcDbEntity
  8
0
100
AcDbLine
 10
52.90301195654095
 20
-115.1427320107221
 30
0.0
 11
52.65326195563861
 21
-114.998538780471
 31
0.0
  0
LINE
  5
11B18
330
11A23
100
AcDbEntity
  8
0
100
AcDbLine
 10
54.80301724820359
 20
-117.2397460436346
 30
0.0
 11
55.55301724820359
 21
-117.6727587455268
 31
0.0
  0
LINE
  5
11B19
330
11A23
100
AcDbEntity
  8
0
100
AcDbLine
 10
55.55301724820359
 20
-117.6727587455268
 30
0.0
 11
55.67869889270681
 21
-118.4460449341091
 31
0.0
  0
LINE
  5
11B1A
330
11A23
100
AcDbEntity
  8
0
100
AcDbLine
 10
52.6906479088965
 20
-114.5302256220917
 30
0.0
 11
53.04384774932708
 21
-114.3263055991414
 31
0.0
  0
LINE
  5
11B1B
330
11A23
100
AcDbEntity
  8
0
100
AcDbLine
 10
53.04384774932708
 20
-114.3263055991414
 30
0.0
 11
53.5764491860438
 21
-114.0188080162822
 31
0.0
  0
ELLIPSE
  5
11B1C
330
11A23
100
AcDbEntity
  8
0
100
AcDbEllipse
 10
53.73880801608759
 20
-115.3228569705945
 30
0.0
 11
-0.7500000000000009
 21
1.299038105676658
 31
0.0
210
0.0
220
0.0
230
1.0
 40
0.5773502691896259
 41
5.497787143782137
 42
6.914905916409418
  0
LINE
  5
11B1D
330
11A23
100
AcDbEntity
  8
0
100
AcDbLine
 10
18.55007785330839
 20
-183.759117498618
 30
0.0
 11
0.3500778534638638
 21
-173.2513425994565
 31
0.0
  0
LINE
  5
11B1E
330
11A23
100
AcDbEntity
  8
0
100
AcDbLine
 10
-57.27912481323972
 20
-139.9791069266517
 30
0.0
 11
-39.07912481339521
 21
-150.4868818258131
 31
0.0
  0
LINE
  5
11B1F
330
11A23
100
AcDbEntity
  8
0
100
AcDbLine
 10
3.168173096660682
 20
-85.93841145831092
 30
0.0
 11
10.25921260702062
 21
-90.03242502845152
 31
0.0
  0
LINE
  5
11B20
330
11A23
100
AcDbEntity
  8
0
100
AcDbLine
 10
10.18525465633972
 20
-90.47962333427381
 30
0.0
 11
2.957030912494693
 21
-86.30640641000203
 31
0.0
  0
LINE
  5
11B21
330
11A23
100
AcDbEntity
  8
0
100
AcDbLine
 10
24.32739027969992
 20
-98.64458914333702
 30
0.0
 11
13.60523305839894
 21
-92.45414878532541
 31
0.0
  0
LINE
  5
11B22
330
11A23
100
AcDbEntity
  8
0
100
AcDbLine
 10
13.77980324514191
 20
-92.0650389810773
 30
0.0
 11
24.40134823088204
 21
-98.19739083780406
 31
0.0
  0
LINE
  5
11B23
330
11A23
100
AcDbEntity
  8
0
100
AcDbLine
 10
31.45747277467516
 20
-102.2712462425985
 30
0.0
 11
42.07901776041527
 21
-108.4035980993253
 31
0.0
  0
LINE
  5
11B24
330
11A23
100
AcDbEntity
  8
0
100
AcDbLine
 10
42.00505980973436
 20
-108.8507964051476
 30
0.0
 11
31.28290258843338
 21
-102.660356047136
 31
0.0
  0
LINE
  5
11B25
330
11A23
100
AcDbEntity
  8
0
100
AcDbLine
 10
52.65326195563861
 20
-114.998538780471
 30
0.0
 11
45.42503821179358
 21
-110.8253218561992
 31
0.0
  0
LINE
  5
11B26
330
11A23
100
AcDbEntity
  8
0
100
AcDbLine
 10
45.59960839853657
 20
-110.4362120519511
 30
0.0
 11
52.6906479088965
 21
-114.5302256220917
 31
0.0
  0
LINE
  5
11B27
330
11A23
100
AcDbEntity
  8
0
100
AcDbLine
 10
-38.3548607446833
 20
-150.9050358808483
 30
0.0
 11
-0.7105823183159466
 21
-172.6389701637607
 31
0.0
  0
ELLIPSE
  5
11B28
330
11A23
100
AcDbEntity
  8
0
100
AcDbEllipse
 10
8.100077853577563
 20
-163.2920504560012
 30
0.0
 11
1.250000000000129
 21
2.165063509461022
 31
0.0
210
0.0
220
0.0
230
0.9999999999999998
 40
0.5773502691896255
 41
0.0
 42
6.283185307179586
  0
ELLIPSE
  5
11B29
330
11A23
100
AcDbEntity
  8
0
100
AcDbEllipse
 10
21.85007785378228
 20
-145.2498545439435
 30
0.0
 11
-0.4000000000000423
 21
-0.6928203230275286
 31
0.0
210
0.0
220
0.0
230
1.0
 40
0.5773502691896255
 41
2.094395102375155
 42
2.276828566511568
  0
LINE
  5
11B2A
330
11A23
100
AcDbEntity
  8
0
100
AcDbLine
 10
22.39648801529339
 20
-145.1034443824428
 30
0.0
 11
21.60401976997012
 21
-148.9760396466488
 31
0.0
  0
ELLIPSE
  5
11B2B
330
11A23
100
AcDbEntity
  8
0
100
AcDbEllipse
 10
21.05760960845902
 20
-149.1224498081496
 30
0.0
 11
-0.4000000000000416
 21
-0.6928203230275272
 31
0.0
210
0.0
220
0.0
230
0.9999999999999998
 40
0.5773502691896255
 41
0.0
 42
2.094395102375107
  0
LINE
  5
11B2C
330
11A23
100
AcDbEntity
  8
0
100
AcDbLine
 10
20.65760960845175
 20
-149.8152701311729
 30
0.0
 11
18.49254609903003
 21
-148.5652701311047
 31
0.0
  0
ELLIPSE
  5
11B2D
330
11A23
100
AcDbEntity
  8
0
100
AcDbEllipse
 10
18.89254609903731
 20
-147.8724498080813
 30
0.0
 11
-0.4000000000072804
 21
-0.6928203230233495
 31
0.0
210
0.0
220
0.0
230
1.0
 40
0.5773502691896257
 41
4.18879020482279
 42
6.283185307252368
  0
LINE
  5
11B2E
330
11A23
100
AcDbEntity
  8
0
100
AcDbLine
 10
18.74613593753347
 20
-147.3260396465588
 30
0.0
 11
21.70366769227844
 21
-144.7034443824209
 31
0.0
  0
ELLIPSE
  5
11B2F
330
11A23
100
AcDbEntity
  8
0
100
AcDbEllipse
 10
21.85007785378228
 20
-145.2498545439435
 30
0.0
 11
0.4000000000000011
 21
0.6928203230275525
 31
0.0
210
0.0
220
0.0
230
1.0
 40
0.5773502691896259
 41
0.0802385882704737
 42
1.047197551178412
  0
LINE
  5
11B30
330
11A23
100
AcDbEntity
  8
0
100
AcDbLine
 10
22.21672989151651
 20
-144.5407528623672
 30
0.0
 11
22.41398260166663
 21
-144.9760711827448
 31
0.0
  0
ELLIPSE
  5
11B31
330
11A23
100
AcDbEntity
  8
0
100
AcDbEllipse
 10
19.99694943667922
 20
-148.5100773724538
 30
0.0
 11
-0.4000000000072798
 21
-0.6928203230233483
 31
0.0
210
0.0
220
0.0
230
1.0
 40
0.5773502691896258
 41
0.000000000072791
 42
2.094395102429601
  0
LINE
  5
11B32
330
11A23
100
AcDbEntity
  8
0
100
AcDbLine
 10
20.54335959819031
 20
-148.3636672109531
 30
0.0
 11
21.60401976997012
 21
-148.9760396466488
 31
0.0
  0
LINE
  5
11B33
330
11A23
100
AcDbEntity
  8
0
100
AcDbLine
 10
20.54335959819031
 20
-148.3636672109531
 30
0.0
 11
21.20118911434096
 21
-145.1490179377058
 31
0.0
  0
LINE
  5
11B34
330
11A23
100
AcDbEntity
  8
0
100
AcDbLine
 10
21.70366769226582
 20
-144.7034443824428
 30
0.0
 11
22.39648801529339
 21
-145.1034443824428
 31
0.0
  0
LINE
  5
11B35
330
11A23
100
AcDbEntity
  8
0
100
AcDbLine
 10
21.80522882577165
 20
-144.6246070263617
 30
0.0
 11
22.41398260166663
 21
-144.9760711827448
 31
0.0
  0
ELLIPSE
  5
11B36
330
11A23
100
AcDbEntity
  8
0
100
AcDbEllipse
 10
7.039417681797766
 20
-162.6796780203054
 30
0.0
 11
1.24999999999987
 21
2.165063509461172
 31
0.0
210
0.0
220
0.0
230
1.0
 40
0.5773502691896255
 41
3.579741684173535
 42
5.845036276595007
  0
LINE
  5
11B37
330
11A23
100
AcDbEntity
  8
0
100
AcDbLine
 10
-44.83978498561238
 20
-110.210545898574
 30
0.0
 11
-58.33978498501956
 21
-133.5932317990597
 31
0.0
  0
LINE
  5
11B38
330
11A23
100
AcDbEntity
  8
0
100
AcDbLine
 10
-43.77912481383223
 20
-110.82291833427
 30
0.0
 11
-57.27912481323975
 21
-134.2056042347555
 31
0.0
  0
ELLIPSE
  5
11B39
330
11A23
100
AcDbEntity
  8
0
100
AcDbEllipse
 10
-53.08978498495132
 20
-133.7375693663965
 30
0.0
 11
1.24999999999987
 21
2.165063509461172
 31
0.0
210
0.0
220
0.0
230
1.0
 40
0.5773502691896255
 41
3.579741684173539
 42
5.845036276595005
  0
ELLIPSE
  5
11B3A
330
11A23
100
AcDbEntity
  8
0
100
AcDbEllipse
 10
-40.13225323006986
 20
-119.5679687185449
 30
0.0
 11
-0.4000000000072798
 21
-0.6928203230233483
 31
0.0
210
0.0
220
0.0
230
1.0
 40
0.5773502691896258
 41
0.0000000000727784
 42
2.094395102429603
  0
LINE
  5
11B3B
330
11A23
100
AcDbEntity
  8
0
100
AcDbLine
 10
-39.58584306855877
 20
-119.4215585570442
 30
0.0
 11
-38.92801355240812
 21
-116.2069092837969
 31
0.0
  0
LINE
  5
11B3C
330
11A23
100
AcDbEntity
  8
0
100
AcDbLine
 10
-38.52518289677895
 20
-120.03393099274
 30
0.0
 11
-39.58584306855877
 21
-119.4215585570442
 31
0.0
  0
LINE
  5
11B3D
330
11A23
100
AcDbEntity
  8
0
100
AcDbLine
 10
-37.73271465145569
 20
-116.1613357285339
 30
0.0
 11
-38.52518289677895
 21
-120.03393099274
 31
0.0
  0
LINE
  5
11B3E
330
11A23
100
AcDbEntity
  8
0
100
AcDbLine
 10
-37.73271465145569
 20
-116.1613357285339
 30
0.0
 11
-38.42553497449052
 21
-115.7613357285297
 31
0.0
  0
ELLIPSE
  5
11B3F
330
11A23
100
AcDbEntity
  8
0
100
AcDbEllipse
 10
-38.2791248129668
 20
-116.3077458900346
 30
0.0
 11
0.4000000000000005
 21
0.6928203230275526
 31
0.0
210
0.0
220
0.0
230
1.0
 40
0.5773502691896257
 41
5.235987755964773
 42
7.330382858357998
  0
LINE
  5
11B40
330
11A23
100
AcDbEntity
  8
0
100
AcDbLine
 10
-41.3830667292156
 20
-118.3839309926499
 30
0.0
 11
-38.42553497447063
 21
-115.761335728512
 31
0.0
  0
ELLIPSE
  5
11B41
330
11A23
100
AcDbEntity
  8
0
100
AcDbEllipse
 10
-41.23665656771176
 20
-118.9303411541725
 30
0.0
 11
-0.4000000000072797
 21
-0.6928203230233497
 31
0.0
210
0.0
220
0.0
230
1.0
 40
0.5773502691896255
 41
4.188790204822786
 42
6.283185307252342
  0
LINE
  5
11B42
330
11A23
100
AcDbEntity
  8
0
100
AcDbLine
 10
-39.47159305829734
 20
-120.8731614772641
 30
0.0
 11
-41.63665656771904
 21
-119.6231614771958
 31
0.0
  0
ELLIPSE
  5
11B43
330
11A23
100
AcDbEntity
  8
0
100
AcDbEllipse
 10
-39.07159305829006
 20
-120.1803411542407
 30
0.0
 11
-0.4000000000000412
 21
-0.6928203230275275
 31
0.0
210
0.0
220
0.0
230
0.9999999999999998
 40
0.5773502691896258
 41
0.0
 42
2.094395102375107
  0
ELLIPSE
  5
11B44
330
11A23
100
AcDbEntity
  8
0
100
AcDbEllipse
 10
-52.02912481317152
 20
-134.3499418020923
 30
0.0
 11
1.250000000000128
 21
2.165063509461023
 31
0.0
210
0.0
220
0.0
230
1.0
 40
0.5773502691896259
 41
0.0
 42
6.283185307179586
  0
LINE
  5
11B45
330
11A23
100
AcDbEntity
  8
0
100
AcDbLine
 10
-0.7913154647931365
 20
-85.84306694366445
 30
0.0
 11
-38.3548607446833
 21
-150.9050358808483
 31
0.0
  0
LINE
  5
11B46
330
11A23
100
AcDbEntity
  8
0
100
AcDbLine
 10
-39.07912481339526
 20
-150.4868818258131
 30
0.0
 11
-38.35486074468331
 21
-150.9050358808484
 31
0.0
  0
LINE
  5
11B47
330
11A23
100
AcDbEntity
  8
0
100
AcDbLine
 10
-39.07912481339521
 20
-150.4868818258131
 30
0.0
 11
-2.379124814183128
 21
-86.92061718939994
 31
0.0
  0
ENDBLK
  5
11A25
330
11A23
100
AcDbEntity
  8
0
100
AcDbBlockEnd
  0
ENDSEC
  0
SECTION
  2
ENTITIES
  0
INSERT
  5
11B48
330
1F
100
AcDbEntity
  8
0
100
AcDbBlockReference
  2
SPR80_340-Front
 10
0.0
 20
0.0
 30
0.0
  0
INSERT
  5
11B49
330
1F
100
AcDbEntity
  8
0
100
AcDbBlockReference
  2
SPR80_340-Left
 10
201.4229986469887
 20
0.0
 30
0.0
  0
INSERT
  5
11B4A
330
1F
100
AcDbEntity
  8
0
100
AcDbBlockReference
  2
SPR80_340-Right
 10
-201.4229986469887
 20
0.0
 30
0.0
  0
INSERT
  5
11B4B
330
1F
100
AcDbEntity
  8
0
100
AcDbBlockReference
  2
SPR80_340-Top
 10
0.0
 20
-174.545601705951
 30
0.0
  0
INSERT
  5
11B4C
330
1F
100
AcDbEntity
  8
0
100
AcDbBlockReference
  2
SPR80_340-Bottom
 10
0.0
 20
459.5659080859887
 30
0.0
  0
INSERT
  5
11B4D
330
1F
100
AcDbEntity
  8
0
100
AcDbBlockReference
  2
SPR80_340-ISO
 10
259.7627836320083
 20
-369.5199610108454
 30
0.0
  0
MTEXT
  5
11B4E
330
1F
100
AcDbEntity
  8
0
100
AcDbMText
 10
0.0
 20
-375.4445760657997
 30
0.0
 40
30.98815363799827
 41
0.0
 71
     5
 72
     5
  1
SPR80/340
 73
     1
 44
1.0
1001
ACAD
1000
MTEXTBEGIN
1070
    73
1070
     1
1070
    44
1040
1.0
1070
    74
1070
     0
1000
MTEXTEND
  0
ENDSEC
  0
SECTION
  2
OBJECTS
  0
DICTIONARY
  5
C
330
0
100
AcDbDictionary
281
     1
  3
ACAD_CIP_PREVIOUS_PRODUCT_INFO
350
216
  3
ACAD_COLOR
350
6B
  3
ACAD_DETAILVIEWSTYLE
350
21B
  3
ACAD_GROUP
350
D
  3
ACAD_LAYOUT
350
1A
  3
ACAD_MATERIAL
350
6A
  3
ACAD_MLEADERSTYLE
350
12D
  3
ACAD_MLINESTYLE
350
17
  3
ACAD_PLOTSETTINGS
350
19
  3
ACAD_PLOTSTYLENAME
350
E
  3
ACAD_SCALELIST
350
10C
  3
ACAD_SECTIONVIEWSTYLE
350
219
  3
ACAD_TABLESTYLE
350
7E
  3
ACAD_VISUALSTYLE
350
EF
  3
ACDB_RECOMPOSE_DATA
350
11C4F
  3
AcDbVariableDictionary
350
5E
  3
DWGPROPS
350
11C50
  0
DICTIONARY
  5
11B9F
330
8
100
AcDbDictionary
280
     1
281
     1
  0
DICTIONARY
  5
1FF
330
2
100
AcDbDictionary
280
     1
281
     1
  3
ACAD_LAYERSTATES
360
200
  0
DICTIONARY
  5
13C
330
10
100
AcDbDictionary
280
     1
281
     1
  0
DICTIONARY
  5
1CE
330
1F
100
AcDbDictionary
280
     1
281
     1
  3
ACAD_LAYOUTSELFREF
360
11BA7
  0
DICTIONARY
  5
11B52
330
D2
100
AcDbDictionary
280
     1
281
     1
  3
ACAD_LAYOUTSELFREF
360
11BB0
  0
DICTIONARY
  5
11B54
330
D6
100
AcDbDictionary
280
     1
281
     1
  3
ACAD_LAYOUTSELFREF
360
11BB3
  0
XRECORD
  5
216
102
{ACAD_REACTORS
330
C
102
}
330
C
100
AcDbXrecord
280
     1
300
ACD
300
2021
300
87393ACD_2021_0F
  0
DICTIONARY
  5
6B
102
{ACAD_REACTORS
330
C
102
}
330
C
100
AcDbDictionary
281
     1
  0
DICTIONARY
  5
21B
102
{ACAD_REACTORS
330
C
102
}
330
C
100
AcDbDictionary
281
     1
  3
Metric50
350
21C
  0
DICTIONARY
  5
D
102
{ACAD_REACTORS
330
C
102
}
330
C
100
AcDbDictionary
281
     1
  0
DICTIONARY
  5
1A
102
{ACAD_REACTORS
330
C
102
}
330
C
100
AcDbDictionary
281
     1
  3
Layout1
350
D3
  3
Layout2
350
D7
  3
Model
350
22
  0
DICTIONARY
  5
6A
102
{ACAD_REACTORS
330
C
102
}
330
C
100
AcDbDictionary
281
     1
  3
ByBlock
350
ED
  3
ByLayer
350
EC
  3
Global
350
EE
  0
DICTIONARY
  5
12D
102
{ACAD_REACTORS
330
C
102
}
330
C
100
AcDbDictionary
281
     1
  3
Standard
350
12E
  0
DICTIONARY
  5
17
102
{ACAD_REACTORS
330
C
102
}
330
C
100
AcDbDictionary
281
     1
  3
Standard
350
18
  0
DICTIONARY
  5
19
102
{ACAD_REACTORS
330
C
102
}
330
C
100
AcDbDictionary
281
     1
  0
ACDBDICTIONARYWDFLT
  5
E
102
{ACAD_REACTORS
330
C
102
}
330
C
100
AcDbDictionary
281
     1
  3
Normal
350
F
100
AcDbDictionaryWithDefault
340
F
  0
DICTIONARY
  5
10C
102
{ACAD_REACTORS
330
C
102
}
330
C
100
AcDbDictionary
281
     1
  3
A0
350
10D
  3
A1
350
1BE
  3
A2
350
1BF
  3
A3
350
1C0
  3
A4
350
1C1
  3
A5
350
1C2
  3
A6
350
1C3
  3
A7
350
1C4
  3
A8
350
1C5
  3
A9
350
1C6
  3
B0
350
1C7
  3
B1
350
1C8
  3
B2
350
1C9
  3
B3
350
1CA
  3
B4
350
1CB
  3
B5
350
1CC
  3
B6
350
1CD
  0
DICTIONARY
  5
219
102
{ACAD_REACTORS
330
C
102
}
330
C
100
AcDbDictionary
281
     1
  3
Metric50
350
21A
  0
DICTIONARY
  5
7E
102
{ACAD_REACTORS
330
C
102
}
330
C
100
AcDbDictionary
281
     1
  3
Standard
350
7F
  0
DICTIONARY
  5
EF
102
{ACAD_REACTORS
330
C
102
}
330
C
100
AcDbDictionary
281
     1
  3
2dWireframe
350
F5
  3
Basic
350
F4
  3
Brighten
350
FB
  3
ColorChange
350
FF
  3
Conceptual
350
F8
  3
Dim
350
FA
  3
EdgeColorOff
350
1E6
  3
Facepattern
350
FE
  3
Flat
350
F0
  3
FlatWithEdges
350
F1
  3
Gouraud
350
F2
  3
GouraudWithEdges
350
F3
  3
Hidden
350
F7
  3
JitterOff
350
1E4
  3
Linepattern
350
FD
  3
OverhangOff
350
1E5
  3
Realistic
350
F9
  3
Shaded
350
1F3
  3
Shaded with edges
350
1F2
  3
Shades of Gray
350
1EF
  3
Sketchy
350
1F0
  3
Thicken
350
FC
  3
Wireframe
350
F6
  3
X-Ray
350
1F1
  0
XRECORD
  5
11C4F
102
{ACAD_REACTORS
330
C
102
}
330
C
100
AcDbXrecord
280
     1
 90
        1
330
7F
  0
DICTIONARY
  5
5E
102
{ACAD_REACTORS
330
C
102
}
330
C
100
AcDbDictionary
281
     1
  3
CANNOSCALE
350
146
  3
CENTEREXE
350
259
  3
CENTERLTYPEFILE
350
25A
  3
CMLEADERSTYLE
350
145
  3
CTABLESTYLE
350
84
  3
CVIEWDETAILSTYLE
350
227
  3
CVIEWSECTIONSTYLE
350
228
  3
DIMASSOC
350
5F
  3
HIDETEXT
350
63
  3
INDEXCTL
350
11BFC
  3
LAYEREVAL
350
1AE
  3
LAYERNOTIFY
350
1AF
  3
LIGHTINGUNITS
350
11BFA
  3
MSLTSCALE
350
11BF9
  3
PSOLHEIGHT
350
11C4C
  3
PSOLWIDTH
350
11C4B
  3
SORTENTS
350
11BFB
  3
XCLIPFRAME
350
11C4D
  0
XRECORD
  5
11C50
102
{ACAD_REACTORS
330
C
102
}
330
C
100
AcDbXrecord
280
     1
  1
DWGPROPS COOKIE
  2

  3

  4

  6

  7

  8
truole
  9

300
=
301
=
302
=
303
=
304
=
305
=
306
=
307
=
308
=
309
=
 40
0.0027199074074074
 41
2460719.40650463
 42
2460719.4159375
  1

 90
        0
  0
DICTIONARY
  5
200
102
{ACAD_REACTORS
330
1FF
102
}
330
1FF
100
AcDbDictionary
281
     1
  0
XRECORD
  5
11BA7
102
{ACAD_REACTORS
330
1CE
102
}
330
1CE
100
AcDbXrecord
280
     1
340
1F
  0
XRECORD
  5
11BB0
102
{ACAD_REACTORS
330
11B52
102
}
330
11B52
100
AcDbXrecord
280
     1
340
D2
  0
XRECORD
  5
11BB3
102
{ACAD_REACTORS
330
11B54
102
}
330
11B54
100
AcDbXrecord
280
     1
340
D6
  0
ACDBDETAILVIEWSTYLE
  5
21C
102
{ACAD_XDICTIONARY
360
11C8F
102
}
102
{ACAD_REACTORS
330
21B
102
}
330
21B
100
AcDbModelDocViewStyle
 70
     0
  3
Metric50
290
     0
100
AcDbDetailViewStyle
 70
     0
 71
     0
 90
        3
 71
     1
340
11
 40
5.0
340
0
 40
5.0
300

 40
0.0
280
     1
 71
     2
340
16
 90
       25
 71
     3
340
11
 40
5.0
 90
        0
 40
15.0
 90
        1
300
%<\AcVar ViewDetailId>% (%<\AcVar ViewScale \f "%sn">%)
 71
     4
340
16
 90
       25
340
16
 90
       25
280
     0
  0
LAYOUT
  5
D3
102
{ACAD_XDICTIONARY
360
11C54
102
}
102
{ACAD_REACTORS
330
1A
102
}
330
1A
100
AcDbPlotSettings
  1

  2
C:\Documents and Settings\basas\Application Data\Autodesk\AutoCAD 2005\R16.1\enu\plotters\Default Windows System Printer.pc3
  4

  6

 40
0.0
 41
0.0
 42
0.0
 43
0.0
 44
0.0
 45
0.0
 46
0.0
 47
0.0
 48
0.0
 49
0.0
140
0.0
141
0.0
142
1.0
143
1.0
 70
   688
 72
     0
 73
     0
 74
     5
  7

 75
    16
147
1.0
148
0.0
149
0.0
100
AcDbLayout
  1
Layout1
 70
     1
 71
     1
 10
0.0
 20
0.0
 11
12.0
 21
9.0
 12
0.0
 22
0.0
 32
0.0
 14
0.0
 24
0.0
 34
0.0
 15
0.0
 25
0.0
 35
0.0
146
0.0
 13
0.0
 23
0.0
 33
0.0
 16
1.0
 26
0.0
 36
0.0
 17
0.0
 27
1.0
 37
0.0
 76
     0
330
D2
  0
LAYOUT
  5
D7
102
{ACAD_XDICTIONARY
360
11C56
102
}
102
{ACAD_REACTORS
330
1A
102
}
330
1A
100
AcDbPlotSettings
  1

  2
C:\Documents and Settings\basas\Application Data\Autodesk\AutoCAD 2005\R16.1\enu\plotters\Default Windows System Printer.pc3
  4

  6

 40
0.0
 41
0.0
 42
0.0
 43
0.0
 44
0.0
 45
0.0
 46
0.0
 47
0.0
 48
0.0
 49
0.0
140
0.0
141
0.0
142
1.0
143
1.0
 70
   688
 72
     0
 73
     0
 74
     5
  7

 75
    16
147
1.0
148
0.0
149
0.0
100
AcDbLayout
  1
Layout2
 70
     1
 71
     2
 10
0.0
 20
0.0
 11
12.0
 21
9.0
 12
0.0
 22
0.0
 32
0.0
 14
0.0
 24
0.0
 34
0.0
 15
0.0
 25
0.0
 35
0.0
146
0.0
 13
0.0
 23
0.0
 33
0.0
 16
1.0
 26
0.0
 36
0.0
 17
0.0
 27
1.0
 37
0.0
 76
     0
330
D6
  0
LAYOUT
  5
22
102
{ACAD_XDICTIONARY
360
11C51
102
}
102
{ACAD_REACTORS
330
1A
102
}
330
1A
100
AcDbPlotSettings
  1

  2
none_device
  4
ISO_A4_(210.00_x_297.00_MM)
  6

 40
7.5
 41
20.0
 42
7.5
 43
20.0
 44
210.0
 45
297.0
 46
11.54999923706054
 47
-13.65000009536743
 48
0.0
 49
0.0
140
0.0
141
0.0
142
1.0
143
8.704084754739808
 70
 11952
 72
     1
 73
     0
 74
     0
  7

 75
     0
147
0.1148885871608098
148
0.0
149
0.0
100
AcDbLayout
  1
Model
 70
     1
 71
     0
 10
0.0
 20
0.0
 11
12.0
 21
9.0
 12
0.0
 22
0.0
 32
0.0
 14
0.0
 24
0.0
 34
0.0
 15
0.0
 25
0.0
 35
0.0
146
0.0
 13
0.0
 23
0.0
 33
0.0
 16
1.0
 26
0.0
 36
0.0
 17
0.0
 27
1.0
 37
0.0
 76
     0
330
1F
331
EA
1001
ACAD_PSEXT
1000
None
1000
None
1000
Not applicable
1000
The layout will not be plotted unless a new plotter configuration name is selected.
1070
     0
  0
MATERIAL
  5
ED
102
{ACAD_XDICTIONARY
360
1F9
102
}
102
{ACAD_REACTORS
330
6A
102
}
330
6A
100
AcDbMaterial
  1
ByBlock
  0
MATERIAL
  5
EC
102
{ACAD_XDICTIONARY
360
1F7
102
}
102
{ACAD_REACTORS
330
6A
102
}
330
6A
100
AcDbMaterial
  1
ByLayer
  0
MATERIAL
  5
EE
102
{ACAD_XDICTIONARY
360
173
102
}
102
{ACAD_REACTORS
330
6A
102
}
330
6A
100
AcDbMaterial
  1
Global
 43
0.0007999999797903
 43
0.0
 43
0.0
 43
0.0
 43
0.0
 43
0.0007999999797903
 43
0.0
 43
0.0
 43
0.0
 43
0.0
 43
1.0
 43
0.0
 43
0.0
 43
0.0
 43
0.0
 43
1.0
 49
0.0007999999797903
 49
0.0
 49
0.0
 49
0.0
 49
0.0
 49
0.0007999999797903
 49
0.0
 49
0.0
 49
0.0
 49
0.0
 49
1.0
 49
0.0
 49
0.0
 49
0.0
 49
0.0
 49
1.0
142
0.0007999999797903
142
0.0
142
0.0
142
0.0
142
0.0
142
0.0007999999797903
142
0.0
142
0.0
142
0.0
142
0.0
142
1.0
142
0.0
142
0.0
142
0.0
142
0.0
142
1.0
144
0.0007999999797903
144
0.0
144
0.0
144
0.0
144
0.0
144
0.0007999999797903
144
0.0
144
0.0
144
0.0
144
0.0
144
1.0
144
0.0
144
0.0
144
0.0
144
0.0
144
1.0
1001
ACAD
1070
    -1
1070
     3
1070
     0
1000

1071
        0
1070
     0
  0
MLEADERSTYLE
  5
12E
102
{ACAD_XDICTIONARY
360
11C7B
102
}
102
{ACAD_REACTORS
330
12D
102
}
330
12D
100
AcDbMLeaderStyle
170
     2
171
     1
172
     0
 90
        2
 40
0.0
 41
0.0
173
     1
 91
-1056964608
340
14
 92
       -2
290
     1
 42
2.0
291
     1
 43
8.0
  3
Standard
 44
4.0
300

342
11
174
     1
178
     1
175
     1
176
     0
 93
-1056964608
 45
4.0
292
     0
297
     0
 46
4.0
 94
-1056964608
 47
1.0
 49
1.0
140
1.0
293
     1
141
0.0
294
     1
177
     0
142
1.0
295
     0
296
     0
143
3.75
1001
ACAD_MLEADERVER
1070
     2
  0
MLINESTYLE
  5
18
102
{ACAD_REACTORS
330
17
102
}
330
17
100
AcDbMlineStyle
  2
STANDARD
 70
     0
  3

 62
   256
 51
90.0
 52
90.0
 71
     2
 49
0.5
 62
   256
  6
BYLAYER
 49
-0.5
 62
   256
  6
BYLAYER
  0
ACDBPLACEHOLDER
  5
F
102
{ACAD_REACTORS
330
E
102
}
330
E
  0
SCALE
  5
10D
102
{ACAD_REACTORS
330
10C
102
}
330
10C
100
AcDbScale
 70
     0
300
1:1
140
1.0
141
1.0
290
     1
  0
SCALE
  5
1BE
102
{ACAD_REACTORS
330
10C
102
}
330
10C
100
AcDbScale
 70
     0
300
1:2
140
1.0
141
2.0
290
     0
  0
SCALE
  5
1BF
102
{ACAD_REACTORS
330
10C
102
}
330
10C
100
AcDbScale
 70
     0
300
1:4
140
1.0
141
4.0
290
     0
  0
SCALE
  5
1C0
102
{ACAD_REACTORS
330
10C
102
}
330
10C
100
AcDbScale
 70
     0
300
1:5
140
1.0
141
5.0
290
     0
  0
SCALE
  5
1C1
102
{ACAD_REACTORS
330
10C
102
}
330
10C
100
AcDbScale
 70
     0
300
1:8
140
1.0
141
8.0
290
     0
  0
SCALE
  5
1C2
102
{ACAD_REACTORS
330
10C
102
}
330
10C
100
AcDbScale
 70
     0
300
1:10
140
1.0
141
10.0
290
     0
  0
SCALE
  5
1C3
102
{ACAD_REACTORS
330
10C
102
}
330
10C
100
AcDbScale
 70
     0
300
1:16
140
1.0
141
16.0
290
     0
  0
SCALE
  5
1C4
102
{ACAD_REACTORS
330
10C
102
}
330
10C
100
AcDbScale
 70
     0
300
1:20
140
1.0
141
20.0
290
     0
  0
SCALE
  5
1C5
102
{ACAD_REACTORS
330
10C
102
}
330
10C
100
AcDbScale
 70
     0
300
1:30
140
1.0
141
30.0
290
     0
  0
SCALE
  5
1C6
102
{ACAD_REACTORS
330
10C
102
}
330
10C
100
AcDbScale
 70
     0
300
1:40
140
1.0
141
40.0
290
     0
  0
SCALE
  5
1C7
102
{ACAD_REACTORS
330
10C
102
}
330
10C
100
AcDbScale
 70
     0
300
1:50
140
1.0
141
50.0
290
     0
  0
SCALE
  5
1C8
102
{ACAD_REACTORS
330
10C
102
}
330
10C
100
AcDbScale
 70
     0
300
1:100
140
1.0
141
100.0
290
     0
  0
SCALE
  5
1C9
102
{ACAD_REACTORS
330
10C
102
}
330
10C
100
AcDbScale
 70
     0
300
2:1
140
2.0
141
1.0
290
     0
  0
SCALE
  5
1CA
102
{ACAD_REACTORS
330
10C
102
}
330
10C
100
AcDbScale
 70
     0
300
4:1
140
4.0
141
1.0
290
     0
  0
SCALE
  5
1CB
102
{ACAD_REACTORS
330
10C
102
}
330
10C
100
AcDbScale
 70
     0
300
8:1
140
8.0
141
1.0
290
     0
  0
SCALE
  5
1CC
102
{ACAD_REACTORS
330
10C
102
}
330
10C
100
AcDbScale
 70
     0
300
10:1
140
10.0
141
1.0
290
     0
  0
SCALE
  5
1CD
102
{ACAD_REACTORS
330
10C
102
}
330
10C
100
AcDbScale
 70
     0
300
100:1
140
100.0
141
1.0
290
     0
  0
ACDBSECTIONVIEWSTYLE
  5
21A
102
{ACAD_XDICTIONARY
360
11C8D
102
}
102
{ACAD_REACTORS
330
219
102
}
330
219
100
AcDbModelDocViewStyle
 70
     0
  3
Metric50
290
     0
100
AcDbSectionViewStyle
 70
     0
 71
     0
 90
      102
 71
     1
340
11
 40
5.0
340
0
340
0
 40
5.0
300
I, O, Q, S, X, Z
 40
10.0
 90
        0
 40
2.5
 90
        0
 71
     2
340
16
 90
       25
340
16
 90
       50
 40
5.0
 40
2.5
 40
5.0
 71
     3
340
11
 40
5.0
 90
        0
 40
15.0
 90
        1
300
%<\AcVar ViewSectionStartId>%-%<\AcVar ViewSectionEndId>% (%<\AcVar ViewScale \f "%sn">%)
 71
     4
300
ANSI31
 40
1.0
 90
        0
290
     0
290
     0
 90
        6
 40
0.0
 40
1.570796326794896
 40
0.2617993877991494
 40
1.308996938995747
 40
-0.2617993877991494
 40
1.832595714594046
  0
TABLESTYLE
  5
7F
102
{ACAD_XDICTIONARY
360
162
102
}
102
{ACAD_REACTORS
330
7E
102
}
330
7E
100
AcDbTableStyle
  3
Standard
 70
     0
 71
     0
 40
1.5
 41
1.5
280
     0
281
     0
  7
Standard
140
4.5
170
     2
 62
     0
 63
     7
283
     0
274
    -2
284
     1
 64
     0
275
    -2
285
     1
 65
     0
276
    -2
286
     1
 66
     0
277
    -2
287
     1
 67
     0
278
    -2
288
     1
 68
     0
279
    -2
289
     1
 69
     0
  7
Standard
140
6.0
170
     5
 62
     0
 63
     7
283
     0
274
    -2
284
     1
 64
     0
275
    -2
285
     1
 65
     0
276
    -2
286
     1
 66
     0
277
    -2
287
     1
 67
     0
278
    -2
288
     1
 68
     0
279
    -2
289
     1
 69
     0
  7
Standard
140
4.5
170
     5
 62
     0
 63
     7
283
     0
274
    -2
284
     1
 64
     0
275
    -2
285
     1
 65
     0
276
    -2
286
     1
 66
     0
277
    -2
287
     1
 67
     0
278
    -2
288
     1
 68
     0
279
    -2
289
     1
 69
     0
  0
VISUALSTYLE
  5
F5
102
{ACAD_XDICTIONARY
360
11C65
102
}
102
{ACAD_REACTORS
330
EF
102
}
330
EF
100
AcDbVisualStyle
  2
2dWireframe
 70
     4
 71
     0
 72
     2
 73
     1
 90
        0
 40
-0.6
 41
-30.0
 62
     5
 63
     7
 74
     1
 91
        4
 64
     7
 65
   257
 75
     1
175
     1
 42
1.0
 92
        0
 66
   257
 43
1.0
 76
     1
 77
     6
 78
     2
 67
     7
 79
     5
170
     0
171
     0
290
     0
174
     0
 93
        1
 44
0.0
173
     0
291
     0
 45
0.0
1001
ACAD
1000
AcDbSavedByObjectVersion
1070
     0
  0
VISUALSTYLE
  5
F4
102
{ACAD_XDICTIONARY
360
11C63
102
}
102
{ACAD_REACTORS
330
EF
102
}
330
EF
100
AcDbVisualStyle
  2
Basic
 70
     7
 71
     1
 72
     0
 73
     1
 90
        0
 40
-0.6
 41
-30.0
 62
     5
 63
     7
 74
     0
 91
        4
 64
     7
 65
   257
 75
     1
175
     1
 42
1.0
 92
        8
 66
     7
 43
1.0
 76
     1
 77
     6
 78
     2
 67
     7
 79
     5
170
     0
171
     0
290
     0
174
     0
 93
        1
 44
0.0
173
     0
291
     1
 45
0.0
1001
ACAD
1000
AcDbSavedByObjectVersion
1070
     0
  0
VISUALSTYLE
  5
FB
102
{ACAD_XDICTIONARY
360
11C71
102
}
102
{ACAD_REACTORS
330
EF
102
}
330
EF
100
AcDbVisualStyle
  2
Brighten
 70
    12
 71
     2
 72
     2
 73
     1
 90
        0
 40
-0.6
 41
-30.0
 62
     5
 63
     7
 74
     1
 91
        4
 64
     7
 65
   257
 75
     1
175
     1
 42
1.0
 92
        8
 66
     7
 43
1.0
 76
     1
 77
     6
 78
     2
 67
     7
 79
     5
170
     0
171
     0
290
     0
174
     0
 93
        1
 44
50.0
173
     0
291
     1
 45
0.0
1001
ACAD
1000
AcDbSavedByObjectVersion
1070
     0
  0
VISUALSTYLE
  5
FF
102
{ACAD_XDICTIONARY
360
11C79
102
}
102
{ACAD_REACTORS
330
EF
102
}
330
EF
100
AcDbVisualStyle
  2
ColorChange
 70
    16
 71
     2
 72
     2
 73
     3
 90
        0
 40
-0.6
 41
-30.0
 62
     5
 63
     8
 74
     1
 91
        4
 64
     7
 65
   257
 75
     1
175
     1
 42
1.0
 92
        8
 66
     8
 43
1.0
 76
     1
 77
     6
 78
     2
 67
     7
 79
     5
170
     0
171
     0
290
     0
174
     0
 93
        1
 44
0.0
173
     0
291
     1
 45
0.0
1001
ACAD
1000
AcDbSavedByObjectVersion
1070
     0
  0
VISUALSTYLE
  5
F8
102
{ACAD_XDICTIONARY
360
11C6B
102
}
102
{ACAD_REACTORS
330
EF
102
}
330
EF
100
AcDbVisualStyle
  2
Conceptual
 70
     9
 71
     3
 72
     2
 73
     1
 90
        0
 40
-0.6
 41
-30.0
 62
     5
 63
     7
 74
     2
 91
        2
 64
     7
 65
   257
 75
     1
175
     1
 42
40.0
 92
        8
 66
     7
 43
1.0
 76
     1
 77
     6
 78
     2
 67
     7
 79
     3
170
     0
171
     0
290
     0
174
     0
 93
        1
 44
0.0
173
     0
291
     0
 45
0.0
1001
ACAD
1000
AcDbSavedByObjectVersion
1070
     0
  0
VISUALSTYLE
  5
FA
102
{ACAD_XDICTIONARY
360
11C6F
102
}
102
{ACAD_REACTORS
330
EF
102
}
330
EF
100
AcDbVisualStyle
  2
Dim
 70
    11
 71
     2
 72
     2
 73
     1
 90
        0
 40
-0.6
 41
-30.0
 62
     5
 63
     7
 74
     1
 91
        4
 64
     7
 65
   257
 75
     1
175
     1
 42
1.0
 92
        8
 66
     7
 43
1.0
 76
     1
 77
     6
 78
     2
 67
     7
 79
     5
170
     0
171
     0
290
     0
174
     0
 93
        1
 44
-50.0
173
     0
291
     1
 45
0.0
1001
ACAD
1000
AcDbSavedByObjectVersion
1070
     0
  0
VISUALSTYLE
  5
1E6
102
{ACAD_XDICTIONARY
360
11C81
102
}
102
{ACAD_REACTORS
330
EF
102
}
330
EF
100
AcDbVisualStyle
  2
EdgeColorOff
 70
    22
 71
     2
 72
     2
 73
     0
 90
        0
 40
-0.6
 41
-30.0
 62
     5
 63
     7
 74
     1
 91
        4
 64
     7
 65
   257
 75
     1
175
     1
 42
1.0
 92
        8
 66
     7
 43
1.0
 76
     1
 77
     6
 78
     2
 67
     7
 79
     5
170
     0
171
     0
290
     0
174
     0
 93
        1
 44
0.0
173
     0
291
     1
 45
0.0
1001
ACAD
1000
AcDbSavedByObjectVersion
1070
     0
  0
VISUALSTYLE
  5
FE
102
{ACAD_XDICTIONARY
360
11C77
102
}
102
{ACAD_REACTORS
330
EF
102
}
330
EF
100
AcDbVisualStyle
  2
Facepattern
 70
    15
 71
     2
 72
     2
 73
     1
 90
        0
 40
-0.6
 41
-30.0
 62
     5
 63
     7
 74
     1
 91
        4
 64
     7
 65
   257
 75
     1
175
     1
 42
1.0
 92
        8
 66
     7
 43
1.0
 76
     1
 77
     6
 78
     2
 67
     7
 79
     5
170
     0
171
     0
290
     0
174
     0
 93
        1
 44
0.0
173
     0
291
     1
 45
0.0
1001
ACAD
1000
AcDbSavedByObjectVersion
1070
     0
  0
VISUALSTYLE
  5
F0
102
{ACAD_XDICTIONARY
360
11C5B
102
}
102
{ACAD_REACTORS
330
EF
102
}
330
EF
100
AcDbVisualStyle
  2
Flat
 70
     0
 71
     2
 72
     1
 73
     1
 90
        2
 40
-0.6
 41
30.0
 62
     5
 63
     7
 74
     0
 91
        0
 64
     7
 65
   257
 75
     1
175
     1
 42
1.0
 92
        8
 66
     7
 43
1.0
 76
     1
 77
     6
 78
     2
 67
     7
 79
     5
170
     0
171
     0
290
     0
174
     0
 93
       13
 44
0.0
173
     0
291
     1
 45
0.0
1001
ACAD
1000
AcDbSavedByObjectVersion
1070
     0
  0
VISUALSTYLE
  5
F1
102
{ACAD_XDICTIONARY
360
11C5D
102
}
102
{ACAD_REACTORS
330
EF
102
}
330
EF
100
AcDbVisualStyle
  2
FlatWithEdges
 70
     1
 71
     2
 72
     1
 73
     1
 90
        2
 40
-0.6
 41
30.0
 62
     5
 63
     7
 74
     1
 91
        0
 64
     7
 65
   257
 75
     1
175
     1
 42
1.0
 92
        0
 66
   257
 43
1.0
 76
     1
 77
     6
 78
     2
 67
     7
 79
     5
170
     0
171
     0
290
     0
174
     0
 93
       13
 44
0.0
173
     0
291
     1
 45
0.0
1001
ACAD
1000
AcDbSavedByObjectVersion
1070
     0
  0
VISUALSTYLE
  5
F2
102
{ACAD_XDICTIONARY
360
11C5F
102
}
102
{ACAD_REACTORS
330
EF
102
}
330
EF
100
AcDbVisualStyle
  2
Gouraud
 70
     2
 71
     2
 72
     2
 73
     1
 90
        2
 40
-0.6
 41
30.0
 62
     5
 63
     7
 74
     0
 91
        0
 64
     7
 65
   257
 75
     1
175
     1
 42
1.0
 92
        0
 66
     7
 43
1.0
 76
     1
 77
     6
 78
     2
 67
     7
 79
     5
170
     0
171
     0
290
     0
174
     0
 93
       13
 44
0.0
173
     0
291
     1
 45
0.0
1001
ACAD
1000
AcDbSavedByObjectVersion
1070
     0
  0
VISUALSTYLE
  5
F3
102
{ACAD_XDICTIONARY
360
11C61
102
}
102
{ACAD_REACTORS
330
EF
102
}
330
EF
100
AcDbVisualStyle
  2
GouraudWithEdges
 70
     3
 71
     2
 72
     2
 73
     1
 90
        2
 40
-0.6
 41
30.0
 62
     5
 63
     7
 74
     1
 91
        0
 64
     7
 65
   257
 75
     1
175
     1
 42
1.0
 92
        0
 66
   257
 43
1.0
 76
     1
 77
     6
 78
     2
 67
     7
 79
     5
170
     0
171
     0
290
     0
174
     0
 93
       13
 44
0.0
173
     0
291
     1
 45
0.0
1001
ACAD
1000
AcDbSavedByObjectVersion
1070
     0
  0
VISUALSTYLE
  5
F7
102
{ACAD_XDICTIONARY
360
11C69
102
}
102
{ACAD_REACTORS
330
EF
102
}
330
EF
100
AcDbVisualStyle
  2
Hidden
 70
     6
 71
     1
 72
     2
 73
     2
 90
        0
 40
-0.6
 41
-30.0
 62
     5
 63
     7
 74
     2
 91
        2
 64
     7
 65
   257
 75
     2
175
     1
 42
40.0
 92
        0
 66
   257
 43
1.0
 76
     1
 77
     6
 78
     2
 67
     7
 79
     3
170
     0
171
     0
290
     0
174
     0
 93
        1
 44
0.0
173
     0
291
     0
 45
0.0
1001
ACAD
1000
AcDbSavedByObjectVersion
1070
     0
  0
VISUALSTYLE
  5
1E4
102
{ACAD_XDICTIONARY
360
11C7D
102
}
102
{ACAD_REACTORS
330
EF
102
}
330
EF
100
AcDbVisualStyle
  2
JitterOff
 70
    20
 71
     2
 72
     2
 73
     0
 90
        0
 40
-0.6
 41
-30.0
 62
     5
 63
     7
 74
     1
 91
        4
 64
     7
 65
   257
 75
     1
175
     1
 42
1.0
 92
       10
 66
     7
 43
1.0
 76
     1
 77
     6
 78
     2
 67
     7
 79
     5
170
     0
171
     0
290
     0
174
     0
 93
        1
 44
0.0
173
     0
291
     1
 45
0.0
1001
ACAD
1000
AcDbSavedByObjectVersion
1070
     0
  0
VISUALSTYLE
  5
FD
102
{ACAD_XDICTIONARY
360
11C75
102
}
102
{ACAD_REACTORS
330
EF
102
}
330
EF
100
AcDbVisualStyle
  2
Linepattern
 70
    14
 71
     2
 72
     2
 73
     1
 90
        0
 40
-0.6
 41
-30.0
 62
     5
 63
     7
 74
     1
 91
        4
 64
     7
 65
   257
 75
     7
175
     7
 42
1.0
 92
        8
 66
     7
 43
1.0
 76
     1
 77
     6
 78
     2
 67
     7
 79
     5
170
     0
171
     0
290
     0
174
     0
 93
        1
 44
0.0
173
     0
291
     1
 45
0.0
1001
ACAD
1000
AcDbSavedByObjectVersion
1070
     0
  0
VISUALSTYLE
  5
1E5
102
{ACAD_XDICTIONARY
360
11C7F
102
}
102
{ACAD_REACTORS
330
EF
102
}
330
EF
100
AcDbVisualStyle
  2
OverhangOff
 70
    21
 71
     2
 72
     2
 73
     0
 90
        0
 40
-0.6
 41
-30.0
 62
     5
 63
     7
 74
     1
 91
        4
 64
     7
 65
   257
 75
     1
175
     1
 42
1.0
 92
        9
 66
     7
 43
1.0
 76
     1
 77
     6
 78
     2
 67
     7
 79
     5
170
     0
171
     0
290
     0
174
     0
 93
        1
 44
0.0
173
     0
291
     1
 45
0.0
1001
ACAD
1000
AcDbSavedByObjectVersion
1070
     0
  0
VISUALSTYLE
  5
F9
102
{ACAD_XDICTIONARY
360
11C6D
102
}
102
{ACAD_REACTORS
330
EF
102
}
330
EF
100
AcDbVisualStyle
  2
Realistic
 70
     8
 71
     2
 72
     2
 73
     0
 90
        2
 40
-0.6
 41
30.0
 62
     5
 63
     7
 74
     0
 91
        0
 64
     7
 65
   257
 75
     1
175
     1
 42
1.0
 92
        8
 66
   257
 43
1.0
 76
     1
 77
     6
 78
     2
 67
     7
 79
     3
170
     0
171
     0
290
     0
174
     0
 93
       13
 44
0.0
173
     0
291
     0
 45
0.0
1001
ACAD
1000
AcDbSavedByObjectVersion
1070
     0
  0
VISUALSTYLE
  5
1F3
102
{ACAD_XDICTIONARY
360
11C8B
102
}
102
{ACAD_REACTORS
330
EF
102
}
330
EF
100
AcDbVisualStyle
  2
Shaded
 70
    27
 71
     2
 72
     2
 73
     1
 90
        2
 40
-0.6
 41
30.0
 62
     5
 63
     7
 74
     0
 91
        4
 64
     7
 65
   257
 75
     1
175
     1
 42
1.0
 92
        8
 66
   257
 43
1.0
 76
     1
 77
     6
 78
     2
 67
     8
 79
     3
170
     0
171
     0
290
     0
174
     0
 93
        5
 44
0.0
173
     0
291
     0
 45
0.0
1001
ACAD
1000
AcDbSavedByObjectVersion
1070
     0
  0
VISUALSTYLE
  5
1F2
102
{ACAD_XDICTIONARY
360
11C89
102
}
102
{ACAD_REACTORS
330
EF
102
}
330
EF
100
AcDbVisualStyle
  2
Shaded with edges
 70
    26
 71
     2
 72
     2
 73
     1
 90
        2
 40
-0.6
 41
30.0
 62
     5
 63
     7
 74
     1
 91
        2
 64
     7
 65
   257
 75
     2
175
     1
 42
1.0
 92
        8
 66
   257
 43
1.0
 76
     1
 77
     6
 78
     2
 67
     7
 79
     3
170
     0
171
     0
290
     0
174
     0
 93
        5
 44
0.0
173
     0
291
     0
 45
0.0
1001
ACAD
1000
AcDbSavedByObjectVersion
1070
     0
  0
VISUALSTYLE
  5
1EF
102
{ACAD_XDICTIONARY
360
11C83
102
}
102
{ACAD_REACTORS
330
EF
102
}
330
EF
100
AcDbVisualStyle
  2
Shades of Gray
 70
    23
 71
     2
 72
     2
 73
     3
 90
        0
 40
-0.6
 41
-30.0
 62
     5
 63
     7
 74
     2
 91
        2
 64
     7
 65
     7
 75
     1
175
     1
 42
40.0
 92
        8
 66
     7
 43
1.0
 76
     1
 77
     6
 78
     2
 67
     7
 79
     3
170
     0
171
     0
290
     0
174
     0
 93
        1
 44
0.0
173
     0
291
     0
 45
0.0
1001
ACAD
1000
AcDbSavedByObjectVersion
1070
     0
  0
VISUALSTYLE
  5
1F0
102
{ACAD_XDICTIONARY
360
11C85
102
}
102
{ACAD_REACTORS
330
EF
102
}
330
EF
100
AcDbVisualStyle
  2
Sketchy
 70
    24
 71
     1
 72
     2
 73
     2
 90
        0
 40
-0.6
 41
-30.0
 62
     5
 63
     7
 74
     2
 91
        2
 64
     7
 65
     7
 75
     1
175
     1
 42
40.0
 92
       11
 66
     7
 43
1.0
 76
     1
 77
     6
 78
     2
 67
     7
 79
     6
170
     0
171
     0
290
     0
174
     0
 93
        1
 44
0.0
173
     0
291
     0
 45
0.0
1001
ACAD
1000
AcDbSavedByObjectVersion
1070
     0
  0
VISUALSTYLE
  5
FC
102
{ACAD_XDICTIONARY
360
11C73
102
}
102
{ACAD_REACTORS
330
EF
102
}
330
EF
100
AcDbVisualStyle
  2
Thicken
 70
    13
 71
     2
 72
     2
 73
     1
 90
        0
 40
-0.6
 41
-30.0
 62
     5
 63
     7
 74
     1
 91
        4
 64
     7
 65
   257
 75
     1
175
     1
 42
1.0
 92
       12
 66
     7
 43
1.0
 76
     1
 77
     6
 78
     2
 67
     7
 79
     5
170
     0
171
     0
290
     0
174
     0
 93
        1
 44
0.0
173
     0
291
     1
 45
0.0
1001
ACAD
1000
AcDbSavedByObjectVersion
1070
     0
  0
VISUALSTYLE
  5
F6
102
{ACAD_XDICTIONARY
360
11C67
102
}
102
{ACAD_REACTORS
330
EF
102
}
330
EF
100
AcDbVisualStyle
  2
Wireframe
 70
     5
 71
     0
 72
     2
 73
     0
 90
        0
 40
-0.6
 41
-30.0
 62
     5
 63
     7
 74
     1
 91
        4
 64
     7
 65
   257
 75
     1
175
     1
 42
1.0
 92
        0
 66
   257
 43
1.0
 76
     1
 77
     6
 78
     2
 67
     7
 79
     3
170
     0
171
     0
290
     0
174
     0
 93
        1
 44
0.0
173
     0
291
     0
 45
0.0
1001
ACAD
1000
AcDbSavedByObjectVersion
1070
     0
  0
VISUALSTYLE
  5
1F1
102
{ACAD_XDICTIONARY
360
11C87
102
}
102
{ACAD_REACTORS
330
EF
102
}
330
EF
100
AcDbVisualStyle
  2
X-Ray
 70
    25
 71
     2
 72
     2
 73
     1
 90
        1
 40
0.5
 41
-30.0
 62
     5
 63
     7
 74
     1
 91
        0
 64
     7
 65
   257
 75
     1
175
     1
 42
1.0
 92
        8
 66
     7
 43
1.0
 76
     1
 77
     6
 78
     2
 67
     7
 79
     3
170
     0
171
     0
290
     0
174
     0
 93
       13
 44
0.0
173
     0
291
     0
 45
0.0
1001
ACAD
1000
AcDbSavedByObjectVersion
1070
     0
  0
DICTIONARYVAR
  5
146
102
{ACAD_REACTORS
330
5E
102
}
330
5E
100
DictionaryVariables
280
     0
  1
1:1
  0
DICTIONARYVAR
  5
259
102
{ACAD_REACTORS
330
5E
102
}
330
5E
100
DictionaryVariables
280
     0
  1
3.500000
  0
DICTIONARYVAR
  5
25A
102
{ACAD_REACTORS
330
5E
102
}
330
5E
100
DictionaryVariables
280
     0
  1
acadiso.lin
  0
DICTIONARYVAR
  5
145
102
{ACAD_REACTORS
330
5E
102
}
330
5E
100
DictionaryVariables
280
     0
  1
STANDARD
  0
DICTIONARYVAR
  5
84
102
{ACAD_REACTORS
330
5E
102
}
330
5E
100
DictionaryVariables
280
     0
  1
STANDARD
  0
DICTIONARYVAR
  5
227
102
{ACAD_REACTORS
330
5E
102
}
330
5E
100
DictionaryVariables
280
     0
  1
Metric50
  0
DICTIONARYVAR
  5
228
102
{ACAD_REACTORS
330
5E
102
}
330
5E
100
DictionaryVariables
280
     0
  1
Metric50
  0
DICTIONARYVAR
  5
5F
102
{ACAD_REACTORS
330
5E
102
}
330
5E
100
DictionaryVariables
280
     0
  1
2
  0
DICTIONARYVAR
  5
63
102
{ACAD_REACTORS
330
5E
102
}
330
5E
100
DictionaryVariables
280
     0
  1
1
  0
DICTIONARYVAR
  5
11BFC
102
{ACAD_REACTORS
330
5E
102
}
330
5E
100
DictionaryVariables
280
     0
  1
0
  0
DICTIONARYVAR
  5
1AE
102
{ACAD_REACTORS
330
5E
102
}
330
5E
100
DictionaryVariables
280
     0
  1
0
  0
DICTIONARYVAR
  5
1AF
102
{ACAD_REACTORS
330
5E
102
}
330
5E
100
DictionaryVariables
280
     0
  1
0
  0
DICTIONARYVAR
  5
11BFA
102
{ACAD_REACTORS
330
5E
102
}
330
5E
100
DictionaryVariables
280
     0
  1
2
  0
DICTIONARYVAR
  5
11BF9
102
{ACAD_REACTORS
330
5E
102
}
330
5E
100
DictionaryVariables
280
     0
  1
1
  0
DICTIONARYVAR
  5
11C4C
102
{ACAD_REACTORS
330
5E
102
}
330
5E
100
DictionaryVariables
280
     0
  1
80.000000
  0
DICTIONARYVAR
  5
11C4B
102
{ACAD_REACTORS
330
5E
102
}
330
5E
100
DictionaryVariables
280
     0
  1
5.000000
  0
DICTIONARYVAR
  5
11BFB
102
{ACAD_REACTORS
330
5E
102
}
330
5E
100
DictionaryVariables
280
     0
  1
127
  0
DICTIONARYVAR
  5
11C4D
102
{ACAD_REACTORS
330
5E
102
}
330
5E
100
DictionaryVariables
280
     0
  1
2
  0
DICTIONARY
  5
11C8F
330
21C
100
AcDbDictionary
280
     1
281
     1
  3
ACAD_XREC_ROUNDTRIP
360
11C90
  0
DICTIONARY
  5
11C54
330
D3
100
AcDbDictionary
280
     1
281
     1
  3
ACAD_XREC_ROUNDTRIP
360
11C55
  0
DICTIONARY
  5
11C56
330
D7
100
AcDbDictionary
280
     1
281
     1
  3
ACAD_XREC_ROUNDTRIP
360
11C57
  0
DICTIONARY
  5
11C51
330
22
100
AcDbDictionary
280
     1
281
     1
  3
ACAD_XREC_ROUNDTRIP
360
11C52
  0
DICTIONARY
  5
1F9
330
ED
100
AcDbDictionary
280
     1
281
     1
  3
ACAD_XREC_ROUNDTRIP
360
11C59
  3
FBXASSET
360
1FA
  0
DICTIONARY
  5
1F7
330
EC
100
AcDbDictionary
280
     1
281
     1
  3
ACAD_XREC_ROUNDTRIP
360
11C58
  3
FBXASSET
360
1F8
  0
DICTIONARY
  5
173
330
EE
100
AcDbDictionary
280
     1
281
     1
  3
ACAD_XREC_ROUNDTRIP
360
11C5A
  3
BUMPTILE
360
175
  3
DIFFUSETILE
360
174
  3
FBXASSET
360
1FB
  3
OPACITYTILE
360
176
  3
REFLECTIONTILE
360
177
  0
DICTIONARY
  5
11C7B
330
12E
100
AcDbDictionary
280
     1
281
     1
  3
ACAD_XREC_ROUNDTRIP
360
11C7C
  0
DICTIONARY
  5
11C8D
330
21A
100
AcDbDictionary
280
     1
281
     1
  3
ACAD_XREC_ROUNDTRIP
360
11C8E
  0
DICTIONARY
  5
162
330
7F
100
AcDbDictionary
280
     1
281
     1
  3
ACAD_ROUNDTRIP_2008_TABLESTYLE_CELLSTYLEMAP
360
11C4E
  3
ACAD_XREC_ROUNDTRIP
360
11C53
  0
DICTIONARY
  5
11C65
330
F5
100
AcDbDictionary
280
     1
281
     1
  3
ACAD_XREC_ROUNDTRIP
360
11C66
  0
DICTIONARY
  5
11C63
330
F4
100
AcDbDictionary
280
     1
281
     1
  3
ACAD_XREC_ROUNDTRIP
360
11C64
  0
DICTIONARY
  5
11C71
330
FB
100
AcDbDictionary
280
     1
281
     1
  3
ACAD_XREC_ROUNDTRIP
360
11C72
  0
DICTIONARY
  5
11C79
330
FF
100
AcDbDictionary
280
     1
281
     1
  3
ACAD_XREC_ROUNDTRIP
360
11C7A
  0
DICTIONARY
  5
11C6B
330
F8
100
AcDbDictionary
280
     1
281
     1
  3
ACAD_XREC_ROUNDTRIP
360
11C6C
  0
DICTIONARY
  5
11C6F
330
FA
100
AcDbDictionary
280
     1
281
     1
  3
ACAD_XREC_ROUNDTRIP
360
11C70
  0
DICTIONARY
  5
11C81
330
1E6
100
AcDbDictionary
280
     1
281
     1
  3
ACAD_XREC_ROUNDTRIP
360
11C82
  0
DICTIONARY
  5
11C77
330
FE
100
AcDbDictionary
280
     1
281
     1
  3
ACAD_XREC_ROUNDTRIP
360
11C78
  0
DICTIONARY
  5
11C5B
330
F0
100
AcDbDictionary
280
     1
281
     1
  3
ACAD_XREC_ROUNDTRIP
360
11C5C
  0
DICTIONARY
  5
11C5D
330
F1
100
AcDbDictionary
280
     1
281
     1
  3
ACAD_XREC_ROUNDTRIP
360
11C5E
  0
DICTIONARY
  5
11C5F
330
F2
100
AcDbDictionary
280
     1
281
     1
  3
ACAD_XREC_ROUNDTRIP
360
11C60
  0
DICTIONARY
  5
11C61
330
F3
100
AcDbDictionary
280
     1
281
     1
  3
ACAD_XREC_ROUNDTRIP
360
11C62
  0
DICTIONARY
  5
11C69
330
F7
100
AcDbDictionary
280
     1
281
     1
  3
ACAD_XREC_ROUNDTRIP
360
11C6A
  0
DICTIONARY
  5
11C7D
330
1E4
100
AcDbDictionary
280
     1
281
     1
  3
ACAD_XREC_ROUNDTRIP
360
11C7E
  0
DICTIONARY
  5
11C75
330
FD
100
AcDbDictionary
280
     1
281
     1
  3
ACAD_XREC_ROUNDTRIP
360
11C76
  0
DICTIONARY
  5
11C7F
330
1E5
100
AcDbDictionary
280
     1
281
     1
  3
ACAD_XREC_ROUNDTRIP
360
11C80
  0
DICTIONARY
  5
11C6D
330
F9
100
AcDbDictionary
280
     1
281
     1
  3
ACAD_XREC_ROUNDTRIP
360
11C6E
  0
DICTIONARY
  5
11C8B
330
1F3
100
AcDbDictionary
280
     1
281
     1
  3
ACAD_XREC_ROUNDTRIP
360
11C8C
  0
DICTIONARY
  5
11C89
330
1F2
100
AcDbDictionary
280
     1
281
     1
  3
ACAD_XREC_ROUNDTRIP
360
11C8A
  0
DICTIONARY
  5
11C83
330
1EF
100
AcDbDictionary
280
     1
281
     1
  3
ACAD_XREC_ROUNDTRIP
360
11C84
  0
DICTIONARY
  5
11C85
330
1F0
100
AcDbDictionary
280
     1
281
     1
  3
ACAD_XREC_ROUNDTRIP
360
11C86
  0
DICTIONARY
  5
11C73
330
FC
100
AcDbDictionary
280
     1
281
     1
  3
ACAD_XREC_ROUNDTRIP
360
11C74
  0
DICTIONARY
  5
11C67
330
F6
100
AcDbDictionary
280
     1
281
     1
  3
ACAD_XREC_ROUNDTRIP
360
11C68
  0
DICTIONARY
  5
11C87
330
1F1
100
AcDbDictionary
280
     1
281
     1
  3
ACAD_XREC_ROUNDTRIP
360
11C88
  0
XRECORD
  5
11C90
102
{ACAD_REACTORS
330
11C8F
102
}
330
11C8F
100
AcDbXrecord
280
     1
102
DISPLAYNAME
  1
Metric50
102
FLAGS
 90
        0
  0
XRECORD
  5
11C55
102
{ACAD_REACTORS
330
11C54
102
}
330
11C54
100
AcDbXrecord
280
     1
102
SHADEPLOT
 70
     0
102
SHADEPLOTRESLEVEL
 70
     2
102
SHADEPLOTCUSTOMDPI
 70
   300
  0
XRECORD
  5
11C57
102
{ACAD_REACTORS
330
11C56
102
}
330
11C56
100
AcDbXrecord
280
     1
102
SHADEPLOT
 70
     0
102
SHADEPLOTRESLEVEL
 70
     2
102
SHADEPLOTCUSTOMDPI
 70
   300
  0
XRECORD
  5
11C52
102
{ACAD_REACTORS
330
11C51
102
}
330
11C51
100
AcDbXrecord
280
     1
102
SHADEPLOT
 70
     0
102
SHADEPLOTRESLEVEL
 70
     2
102
SHADEPLOTCUSTOMDPI
 70
   300
  0
XRECORD
  5
11C59
102
{ACAD_REACTORS
330
1F9
102
}
330
1F9
100
AcDbXrecord
280
     1
102
MATERIAL
148
0.0
149
0.0
149
0.0
 93
        0
 94
       63
282
     0
 72
     1
 77
     1
171
     1
175
     1
179
     1
273
     0
  0
XRECORD
  5
1FA
102
{ACAD_REACTORS
330
1F9
102
}
330
1F9
100
AcDbXrecord
280
     1
 70
     1
 90
429727718
  1
D62C5603-E3A1-4AEA-B7FB-FE5D8D0755AF
310
504B03040A0000080000CC70623B3DEE336E79000000790000001B0000006175746F6465736B2D64657369676E2D7061636B6167652E786D6C3C3F786D6C2076657273696F6E3D22312E302220656E636F64696E673D227574662D3822203F3E3C666F726D6174733E3C666F726D61743E687474703A2F2F736368656D612E
310
6175746F6465736B2E636F6D2F64657369676E2D7061636B6167652F323030393C2F666F726D61743E3C2F666F726D6174733E504B0304140006080800CC70623BD486FD9CA0000000F4000000130000005B436F6E74656E745F54797065735D2E786D6C7D8EC10E82300C865F65E91D8A1E8C310C0EEA1BF002731658846E
310
D98AC1B77784ABF1D8FE5FBFBF75BBCE937A534CCEB38643598122B6FEE978D0B0485F9C41B54DDD7D022595594E1A469170414C76A4D9A4D207E29CF43ECE46F218070CC6BECC4078ACAA135ACF422C856C0E68EA1BF5669944DDD7BCDE7B1F8E415D77AECB980613C2E4AC91FC167A2B244592486606FC29C8FD7F045B9A
310
EF7053A7E60B504B0304140006080800CC70623B853B8169EB0000007C01000008000000636F72652E786D6C8D90416EC3201045AF62CDB6C206821CC7C244919D9CA01740401C94182C03558F5F9C3852BBEB6A467FFE9B197D7EFC9E1EC5975982F5AE035262288C535E5B377690E21535501C055FBC8FBF6C503839990E
310
5619041F179FE64D52DE45E362569DD7661365082642A11EB9E920A89B99642953CC8E702F67A9EE7234257977194EC9EAE275C4EABCCF5EAD5940D4AC6F0E35A568B8F43562CD7046CD199FD07E60174276A7BE677B5EADB0E0D14EEFFB6A31321A0D82627C4084204C3F096B71DD52F6819B16635EADF63F509AF53FA164
310
5DDCD1EDDD17164090FCC8732078B56691CB33A85CD7DCC40F504B0304140006080800CC70623B55019EA25F0000007C00000007000000636E782E786D6C4DCB3B0E80201045D1AD90E915ED2CF8AC45050C11660C8261F98AB1B07AC9C97D42D718D865D3E909258CFD00CCE24AC6E326A164D74DC0B4128928FF32603847
310
2BA13128B1252AC747C6BAB984FC68F0B87FE8960A5C09FE86CFB69FBA01504B0304140006080800CC70623BDBABAAF470010000D40300000C0000006662782F636F72652E786D6CC553D16E823014FD95A6AF4B694182CC941A83FA05FB810A9511A125A5257EFE2E82712ECEB8A7F100CD39F7F69E734AF9FADC366850B6
310
AF8DCE7018308C942E4C59EB2AC3DE1D498AD15A706B8CFB56869196ADCAF00863C12B6B7C374385D14E6907A836A59A41D9F7CA615434B0C8705F7CAA5606D23BA8E84F41278B93AC54100640439DE0BDB320004D43C63716C7C399D30917DCFBBA9CD9BA8469F5B156168B24CED3F7248AC8769F27244EB73B92EED8862C
310
B7F13E0C179B3C8F979C8ECD82BBBABDAA2BAC924E9558448CBD9330242CFA08E3154B5651FCC6D215639C8EE5774DBE2B5F6CF2B5768B68963BB5F5588420E442FC700B1139D4CB01F450C1E918227C2E09DF070D8140C84E1E9AAB8F1340832A9CB13130A5F1376A908D57309505ECF2A0DF179C4E9D30F5B239B87E3823
310
7A79C6F31DE1A8A5AEC08474B03C7837EAE4938639B44E5932B833D2C6B6B279CDC613877FA26EE21F4A2A4C63EC7F29A2F301D1F9F7A0E37D145F504B0304140006080800CC70623B9C113CC27E0000009D0000000B0000006662782F636E782E786D6C4DCCDF0A83201C86E15B91DFB94BFB330DD428C8FB886521330DA7
310
6397BF1A1DECE883878F57749FCDA1B7892F1BBC047A23808C7F84D9FA55424E0BE6803A256208E9EF06C84F9B91703228B1C690F78B66B34CD9A5439DF5CF0BFBF65E35BCA1B8D6A5C6F540381E886698B5741C695F9503EBA150A2F8958E3DC3EA0B504B0304140006080800CC70623B7DF2F77C2A010000120200003100
310
00006662782F41393633353835312D344632462D344230382D423046372D3739314545314133324237412F636F72652E786D6C8D51DB8EC22014FC15C2939B0D2DB4B45643319AE817EC0F6041255A68B86CFCFC856D4D76DF7CE190393373060EDB3DC707F856CE6B6B7A480A0C81328395DA5C7B18C3057510EC3873D686
310
3F34088C18550F330C39BB3A1BA7051AAC09CA84841A2BD5020AEF55806078A44B0FFD7053A328440C89E1EFC52486BBB8AA8214A99D789CF9E05200300FC927E4FB4D5B375D43103D5527440FB843077C5AA3F5861C8F645F5787F59E95B390B318B55CE45AA638FAA2957BD7248B390B7A7CC51F9C124149C82B8C378810
310
84AB2F42B7B8DD56F413775B8C5999E9FF4471926F8AA236A1AE96B8B3CC434E5839373893369E1FAF30EA395917409EB7F26AF8801C171837A4A6AC9C89E9F9C9B1A58BA30FD6A5EF5DDDCF894B9AD9B6A59C957943A9FCAE2FD5BC4DFE03504B0304140006080800CC70623BAD7543B64E01000033030000300000006662
310
782F41393633353835312D344632462D344230382D423046372D3739314545314133324237412F636E782E786D6CD593CD6EC32010845F0571AD6CE3D48AD20813A9873E410FBD12D82434182C7EAAE6EDBB2424CD25871E7B41D6EC30B3FA84F9E67BB2E40B4234DE8DB46F1925E094D7C6ED479AD3AE5951B2113C789FEE
310
6C943839C1488B4C05DF079FE72A69D8C96C13AAD6B8631503449F83828872B949AC57D26200B826A308D316B4064D6E46FCDA41C05550DC9E483A00797BFD207EFB092A45DE9514C1BBD22178396BD39D891265658C238DEA00936C654E5E433CB65A26D9F6EDB5EBC14EBF49A45CB856E66048291F6939A9A81BB5C89177
310
38143CA680F4AA299D66A042CEB3354A2684DC9D8D178FE0D9B8B41CAAD720F880EE7EF93C0C18769E099ECC04D5A102C8049A8A05632F4DDF376CF1DE0F6BB65C2F8627B65A33C6BB62177CEBBDAD973006829F89F22E814B54F4BC2BE347F8AA8F681390B50FA73F804400B5F542E796F19FF974E7F78DB802FE05E20750
310
4B0304140006080800CC70623BE75B7789680500003C100000340000006662782F41393633353835312D344632462D344230382D423046372D3739314545314133324237412F6F626A656374732E786D6CAD575B8F9B3818FD2B887D06C22499CB8AA1CA655245D5B455A356FB305264C061D8018C6C3393D95FBFC7600890
310
A4CD5EF210B0B1BFEBF98E3F7B1FF6596ABC522E1296DF9BAE3D320D9A872C4AF2F8DE2CE5CEBA358D0FBEC719939D65A691938CDE9B6ADAF4BD98B3B2D05311DD91329583D9D5FC0F438434A7A611A644887B5384CF34233629258BA878B12322891DEFF6B66BD70BFB62634E8AE781D082709A4B588AF91C528CDA28B73F
310
1C998EEF39EABBEFA97FBD6A7C7E9553F9D3D79FE442923C3C523610337627CB87ABE99D359D4CC6D6E4FACAB5E6ABF9D2726FC6A3C5F56271377BB88362213924694B38DD99FE47C48627A1E7D49F5A8BB5E1A74C0A599ED3B0F21F1E56366B89112D681E218F0915D0D6F17AD41FBA2A369DCF6335D62ABBD39779D5DDD1
310
11D4D8DE3CBB96B2E04FB8202E41051754A1AA8E8F76B4C6DFE810B580B1547F4B84911149794252234D024EF8BBE963A95AE27B3D310A9D5C215C7960FAEE415ED75694C6AFB17BCACA5D99A60A9AA65F217B0BFC53292ACB92BF283FAD0D3621576592CB5BED907C2FA8E9DF794E35E97BEA31BED21FEB401ABB94C44839
310
DCACBF0E1C5DA8DA5B2F4DFFD32AD86F543D9E565E7056502E157C00AD2671CD534549AB752FCA9CDA00677A313F04E51B22FF19E57B300579E3C97EB29F682D92935CEC18CF901B7B54FD8C51F362B56FC72FE0B3C1EAE335EDCCBF5AEC39ADB17DC238973F804BA5E6F6BFE7AF1FB32E523BE9F3BD571418E3631DCA4D48
310
5250CF639223210A9446CA30052EDF057BD35F8329C1ECD84552BF0DC8D18BE7BCE23BFE6BD960AB4A7DE79923A103BEBD80F911CBAA2C60DB19B01CF164A5583B772EE6D3FFA56666CBCDA74DC97724A48F9A58967497E489C4D979006FD7A05E227A1EBDD0F737C623387A9C844D3709995625106D157315F8B8392CD4E0
310
A0B9A720C4BE9829CEF37EA1E13111214D53925356365ADA634861B52519DD27A00AEB808EAF0628E6F435519D446F45CF2C9CF5214F0A15B2F6D06B79DA3EE3CBF7F56780D2F4E7EF73A0F5E5B02A38D07DC852C6B7C1FBB6664213E0C39E3EBA7FF4E1AD23EA2829407C85E586727488B751B2DB9502BC7B228A3FD68B6E
310
A65A22397E690AA8D158D7E404EC8CDA235CC3B7D1898680131CEC2CDF2638C65196279577750F15884AEE19F94199155B92B13297978469D4F8D358DF0AEF7631E28DC8F0D9F437D5D39A83B2231A1D52D543813A824EF8D44BCFF2FA6A31BD1E8DAD87F1CCB526B3879935BF59CDADD5C37479BB1CDD4CA7B3556B516589
310
EF352754B706114D9C885EC9131DE6EFEB43D99AFE2391C2F958179413D7CFEF6B1B6DB1E7600F00DE6E5C67454A339A4BA2E0FBA85ED26F045D454F463DBFCE484C2F90F2E5E3666003662ED8F755951A7D1BECD5B30B550B2785C8E7320B7292A4838DDA71BBC863ED7613CAF659337A3354231D4FF4A182A54904C2898C
310
98B28C4AD0CE056CCF332A80986E571EE9DBC305BB5FEB7E509220A58D25CF042D712A806AC0AD0C657FDEF80D2D9CEAA2EE4D1C76F60BFE74219A06527D6F82DF6412526107381E55E353090704D085B52408A8913C4ED159D79BDA71BB4BC506F4831350EB6F975CD22D69BF7AC49B91A2C0A9DDA3D5CA36AD20FC478E37
310
E61844E2352865EBCB61A275A65283CAAA9DD27703B4102F5AF51EF5F573B75CBB5AD38BC845F7A49F82A0966A49C2E3EA5EA0ECD326CD965F1DB402C6FA8B51A4658C5C5E2EC9E214602E55810345408596591009A82E7E7FFACA19EEA299B14A0081A705CB3296EBC14CDF658DCD336EA6D1136881AAEB87B81AB9EE53D5
310
F5EB8BC8362082DA24122F98680A4E7930C01A0079749CEA14382A0783E5EBA5A10F8C098456A03D6A4AEB6BB881E2513747552A5DB22C7EDAF83BD5528081A365F7FF06504B0304140006080000CC70623B000000000000000000000000350000006662782F41393633353835312D344632462D344230382D423046372D37
310
39314545314133324237412F76657274696365732E62696E504B0304140006080800CC70623BF270F1330600000004000000360000006662782F41393633353835312D344632462D344230382D423046372D3739314545314133324237412F747269616E676C65732E62696E636660600000504B0304140006080000CC7062
310
3B000000000000000000000000370000006662782F41393633353835312D344632462D344230382D423046372D3739314545314133324237412F617474726962757465732E62696E504B0304140006080800CC70623B08DA0BD19000000041010000360000006662782F41393633353835312D344632462D344230382D4230
310
46372D3739314545314133324237412F6469726563746F72792E786D6C858F410AC3201045AF22B36F53E9A60B35CBEEBAE80D244E44489C6234F4F835464A48035D0DF398FF9F8AF63D0E6CC63039F212F8F9020C7D47C6792B21C5FE7403D62A1188E2E60C98D7234A5830286103A55745067B9D86B8A3CF9C7F90C11DE6
310
07FB144396D7B6A82D282E9A152AD114D5EF2CB866EEE831B8EEA07A7BB5A8D7D61A2BAAEB7FD5F70921FF497D00504B0304140006080800CC70623BEDD1DC58FD000000A00100003B0000006662782F41393633353835312D344632462D344230382D423046372D3739314545314133324237412F7265736F75726365732F
310
636F72652E786D6C8D504B6E833010BD0A9A6D65B00922041947112427E8052C33A156828DFCA97AFC9A40A576D7CDCCE87D344F8F9FBFE667F689CE6B6B3A6039850C8DB2A336530731DC4903D95970676DF82583CCC8193B5861107C72362E3BA4AC096842428D1D7107A5F7182053CF7474E0D507CE32973124857FE48B
310
540F3961CEF244279DE03EB81420DB9EAC1384436FA353E879B1B182C7A8C75DA3C7F453DF353A1075D537A7BA6464B8F535A99AE14A9A2BBD90E350DD183B5CFABE3AF262350B1EF4FC9351399401471025A527C218A1E53BAB5A5AB765F5469B96525EACF23FA6B88CFF34456DC2A1DCE36E360F82A5202F42F062ED2BAD
310
579969AFDD8A6F504B010214000A0000080000CC70623B3DEE336E79000000790000001B00000000000000000000000000000000006175746F6465736B2D64657369676E2D7061636B6167652E786D6C504B01021400140006080800CC70623BD486FD9CA0000000F40000001300000000000000000000000000B20000005B
310
436F6E74656E745F54797065735D2E786D6C504B01021400140006080800CC70623B853B8169EB0000007C010000080000000000000000000000000083010000636F72652E786D6C504B01021400140006080800CC70623B55019EA25F0000007C000000070000000000000000000000000094020000636E782E786D6C504B
310
01021400140006080800CC70623BDBABAAF470010000D40300000C00000000000000000000000000180300006662782F636F72652E786D6C504B01021400140006080800CC70623B9C113CC27E0000009D0000000B00000000000000000000000000B20400006662782F636E782E786D6C504B01021400140006080800CC70
310
623B7DF2F77C2A010000120200003100000000000000000000000000590500006662782F41393633353835312D344632462D344230382D423046372D3739314545314133324237412F636F72652E786D6C504B01021400140006080800CC70623BAD7543B64E010000330300003000000000000000000000000000D2060000
310
6662782F41393633353835312D344632462D344230382D423046372D3739314545314133324237412F636E782E786D6C504B01021400140006080800CC70623BE75B7789680500003C10000034000000000000000000000000006E0800006662782F41393633353835312D344632462D344230382D423046372D3739314545
310
314133324237412F6F626A656374732E786D6C504B01021400140006080000CC70623B0000000000000000000000003500000000000000000000000000280E00006662782F41393633353835312D344632462D344230382D423046372D3739314545314133324237412F76657274696365732E62696E504B01021400140006
310
080800CC70623BF270F133060000000400000036000000000000000000000000007B0E00006662782F41393633353835312D344632462D344230382D423046372D3739314545314133324237412F747269616E676C65732E62696E504B01021400140006080000CC70623B0000000000000000000000003700000000000000
310
000000000000D50E00006662782F41393633353835312D344632462D344230382D423046372D3739314545314133324237412F617474726962757465732E62696E504B01021400140006080800CC70623B08DA0BD1900000004101000036000000000000000000000000002A0F00006662782F41393633353835312D344632
310
462D344230382D423046372D3739314545314133324237412F6469726563746F72792E786D6C504B01021400140006080800CC70623BEDD1DC58FD000000A00100003B000000000000000000000000000E1000006662782F41393633353835312D344632462D344230382D423046372D3739314545314133324237412F7265
310
736F75726365732F636F72652E786D6C504B0506000000000E000E0080040000641100000000
  0
XRECORD
  5
11C58
102
{ACAD_REACTORS
330
1F7
102
}
330
1F7
100
AcDbXrecord
280
     1
102
MATERIAL
148
0.0
149
0.0
149
0.0
 93
        0
 94
       63
282
     0
 72
     1
 77
     1
171
     1
175
     1
179
     1
273
     0
  0
XRECORD
  5
1F8
102
{ACAD_REACTORS
330
1F7
102
}
330
1F7
100
AcDbXrecord
280
     1
 70
     1
 90
429727718
  1
30362254-06B7-45E0-A893-8CFA70E3D6BC
310
504B03040A0000080000CC70623B3DEE336E79000000790000001B0000006175746F6465736B2D64657369676E2D7061636B6167652E786D6C3C3F786D6C2076657273696F6E3D22312E302220656E636F64696E673D227574662D3822203F3E3C666F726D6174733E3C666F726D61743E687474703A2F2F736368656D612E
310
6175746F6465736B2E636F6D2F64657369676E2D7061636B6167652F323030393C2F666F726D61743E3C2F666F726D6174733E504B0304140006080800CC70623BD486FD9CA0000000F4000000130000005B436F6E74656E745F54797065735D2E786D6C7D8EC10E82300C865F65E91D8A1E8C310C0EEA1BF002731658846E
310
D98AC1B77784ABF1D8FE5FBFBF75BBCE937A534CCEB38643598122B6FEE978D0B0485F9C41B54DDD7D022595594E1A469170414C76A4D9A4D207E29CF43ECE46F218070CC6BECC4078ACAA135ACF422C856C0E68EA1BF5669944DDD7BCDE7B1F8E415D77AECB980613C2E4AC91FC167A2B244592486606FC29C8FD7F045B9A
310
EF7053A7E60B504B0304140006080800CC70623B1EC5D7A3EB0000007C01000008000000636F72652E786D6C8D90416EC3201045AF82665B6103C6756C6122AB4D4ED00B204C5C94182C03558F5F9C3852BBEB6A467FFE9B197D71FC9E6FE8CBACC17AD7032D0820E3B41FAD9B7A48F1820F808E52ACDEC75F36404ECDA687
310
4D0629A6D5A76597B477D1B89855E747B38B2A041301E95B6E7A08FAD3CCAA50296647B8168BD2573599823EBB0CA76447F43862C7BCCF5EAC59410E4DDD9C7973C2755553CCCFA4C603E3040F1565ED3B1FDE4E432BCA0D9622DAF9795FAF464533826484B498524CD807E51D79ED187F21878E10516EF63F505AC67F42C9
310
BA58B1FDDD071640D2FCC87D2045B96591CB3DA85CB7DCE40F504B0304140006080800CC70623B55019EA25F0000007C00000007000000636E782E786D6C4DCB3B0E80201045D1AD90E915ED2CF8AC45050C11660C8261F98AB1B07AC9C97D42D718D865D3E909258CFD00CCE24AC6E326A164D74DC0B4128928FF32603847
310
2BA13128B1252AC747C6BAB984FC68F0B87FE8960A5C09FE86CFB69FBA01504B0304140006080800CC70623B8C9102E971010000D40300000C0000006662782F636F72652E786D6CC5535B6E833010BC8AE5DF0A6C08340F1947A84D4ED00B38C6A128602363A31CBFCB234A53A551FA553EC09AD9F5CE8C31DB9E9B1AF5CA
310
7695D1198E428A91D2D214952E33ECDD315861B4E5CC1AE3BE9561A445A3323CC098B3D21ADFCE9034DA29ED00D5A6503328BA4E398C640D8B0C77F253352214DE4145770A5B214FA2546114020D759C75CE8200340D19DE981F0F6746269C33EFAB6266AB02A655C74A59CCF365BADC27CB5D902ED22848F6340DF238A141
310
BE88E2F57B92BFEDF23523433367AE6A2EEAA455C2A902F398D2751045018D3FA264435F3771F242571B4A1919CA6F9A7C5B3CD9E42BED16F12C776AEB308F40C848FC700B1139D4891EF410CEC810227CC6846F8386402064270EF5C5C709A05E49676C024C61FC95EA45ED154CA5211D1FF4FB8291A913A68E9B83EBBB33
310
E2A7673CDE118E5AE8124C0807CB8377834E366998436B950D7A7746DAD846D4CFD978E0F04FD455FC5D49D2D4C6FE9722321F10997F0F32DC47FE05504B0304140006080800CC70623BFFEA85907E0000009D0000000B0000006662782F636E782E786D6C4DCCD10A83201886E15B91FFDC95D95A811AB6F23E625948A6C3
310
E9D8E5AF46073BFAE0E1E365ED67B3E8ADC3CB78C7815C7240DA3DFC64DCC221C519D7805AC182F7F1EF06C88D9BE6703008B6049F9E274D7A1E938DBB5AE3D6131B2589BA0D3D965551E0B2EA732C9B9A624AAEB41E3A557677029960D9AFB4EF11165F504B0304140006080800CC70623B4FEEA4082C0100001202000031
310
0000006662782F39464131463745442D413632322D343644302D413938332D3331353338454246344243312F636F72652E786D6C8D515B6EC32010BC0AE2AB55850DD871ED0813254D72825EC00192A2C460F1A872FC42ED48ED5F7E00CDCECCCEB26C731F6FE05B39AFADE921293004CA082BB5B9F43086336A21D870E6AC
310
0D7F68109861543DCC30E4ECE26C9C164858139409093556AA051CBC570102714B8F1E7AF1A5C6A11862480C7F2DA6415C878B2A4891CA89C7990F2E050073937C42DE1DB7E4F87ED8A36D4329AA9B3D46DBAEAD504556557BD81DEBDD0761E52CE42C462D17B996298E3E6BE59E35C962CE821E1FF18553435012728A7187
310
0841987E927A8D9B35ADDF70BBC6989599FE4F1427F9A4286A132ABAC49D651EF234CD5CE04CDA78BA3DC2A8FB645D00B9DF8B57E215725C60BCA2A463E54C4CE327C7A65E1C7DB02E7DEFCBF594B864C5CA6CDBD49C957943E9FA5D5FBAF336F90F504B0304140006080800CC70623BAD7543B64E01000033030000300000
310
006662782F39464131463745442D413632322D343644302D413938332D3331353338454246344243312F636E782E786D6CD593CD6EC32010845F0571AD6CE3D48AD20813A9873E410FBD12D82434182C7EAAE6EDBB2424CD25871E7B41D6EC30B3FA84F9E67BB2E40B4234DE8DB46F1925E094D7C6ED479AD3AE5951B2113C
310
789FEE6C943839C1488B4C05DF079FE72A69D8C96C13AAD6B8631503449F83828872B949AC57D26200B826A308D316B4064D6E46FCDA41C05550DC9E483A00797BFD207EFB092A45DE9514C1BBD22178396BD39D891265658C238DEA00936C654E5E433CB65A26D9F6EDB5EBC14EBF49A45CB856E66048291F6939A9A81BB5
310
C8917738143CA680F4AA299D66A042CEB3354A2684DC9D8D178FE0D9B8B41CAAD720F880EE7EF93C0C18769E099ECC04D5A102C8049A8A05632F4DDF376CF1DE0F6BB65C2F8627B65A33C6BB62177CEBBDAD973006829F89F22E814B54F4BC2BE347F8AA8F681390B50FA73F804400B5F542E796F19FF974E7F78DB802FE05
310
E207504B0304140006080800CC70623B16AB87BA640500003C100000340000006662782F39464131463745442D413632322D343644302D413938332D3331353338454246344243312F6F626A656374732E786D6CAD575B6FA33818FD2B887DE6924B3BED8A326A92B68A663B534DD4D13E548A0C38942D60649B369D5FBFC7
310
600890A493BDE42160637FD7F31D7FF63E6FB3D478A55C242CBF3247B66B1A340F5994E4F19559CA8D75611A9F7D8F33263BCB4C232719BD32D5B4E97B316765A1A722BA21652A07B3B7B33F0D11D29C9A46981221AE4C113ED38CD8A4942CA2E2C58E882476BCD9DA23BB5ED8171B73523C0F841684D35CC252CCE79062D4
310
468DFA43D7747CCF51DF7D4FFDEB5593E3AB9CCA9FBEFE241792E4E19EB28198C968BAB8199F5D5A67D3E9C49A9E8F47D6EC76B6B0469F26EEFC7C3EBFBCBEB98462213924694B38DD98FE1D62C393D073EA4FADC5DAF04326852CCF6958F90F0F2B9BB5C48816348F90C7840A68EB78EDF68723159BCEE7891A6B95DDE9D3
310
BCEAEEE8086A6C6F9E5D4B59F0175C10A7A0820BAA5055C7473B5AE3CFDD452D602CD5DF12616444529E90D448938013FE6EFA58AA96F85E4F8C42275708571E98FE6827AF6B2B4AE3D7D83D64E5A64C53054DD3AF90BD06FEA9149565C94FCA0F6B834DC85599E4F2423B24DF0B6AFA979E534DFA9E7A4CC6FA631D486393
310
921829879BF5D781A373557BCB85E97FB90DB62B558F8795179C15944B051F40AB495CF35451D26A4727654E6D8033BD98EF82F21D91FF8AF2DD9982BCF1643BDD4EB516C9492E368C67C88DED563FC36D5EACF66DFF057C3658BDBFA69DF9578B3DA735B64F18C7F20770A9D45CFCF7FCF563D6456A277DBEF78A02637CA2
310
43B90A490AEAB94F72244481D24819A6C0E59B606BFA4B3025981DBB48EAB701D97BF19C577CC77F2D1B6C55A9EF3C732474C0B727303F625995056C3B02963D9EAC146BE78EC5FCEC7FA999EBC5EACBAAE41B12D27B4D2C0BBA49F244E2ECDC81B76B502F113D8F5EE8FB1BE3111CDD4FC2AA9B844CAB1288B68AB90A7CDC
310
1C166AB0D3DC5310625FCC14E779BFD0709F8890A629C9292B1B2DED31A4B0DA928CEE135085754027E3018A397D4D5427D15BD1330B677DC8934285AC3DF45A9EB68FF8F2B8FC0A509AFEECFD0FF2DE25CC6047F7214B195F07EFEB9A094D800F7BFAE8FED187B78EA8A3A400F115961BCAD1215E47C966530AF0EE8128FE
310
58CEBB996A8964FFA529A046635D9353B0336A8F700DDF46271A024E70B0B37C9DE01847591E54DED53D54202AB947E4076556AC49C6CA5C9E1226B7F1A7B1BE15DEED62C41B91E1B3E9AFAAA735036547343A925075041DF0A9979E893B391F8FCFA6967B3EFB644DCF6E5CEBFAE272625DCC6FAF3FB93793C5F90CE1EF57
310
407342756B10D1C489E8953CD1617E5CEECAD6F4EF8914CE5D5D504E5C3F1F9736DA62CFC11E00BCDDB8CC8A9466349744C1F75EBDA4DF09BA8A9E8C7A7E9991989E20E5DBDD6A6003664ED8F7A04A8DBE0DF6EAD9B9AA858342E47399053949D2C146EDB85DE4B176BB0965FBAC19BD19AA918E27FA50C1D22402E144464C
310
59462568E704B6E71915404CB72B8FF4EDE184DDAF753F284990D2C6926782963815403548A70C657FDEF80D2D9CEAA2AE4C1C76F60BFE74219A06527D6582DF6412526107381E55E353090704D085B52408D0933C4ED159D79BDA71BB4BC506F4831350EB6F979CD22D69BF7AC49B91A2C0A9DDA3D5CA36AD20FC478E37E6
310
1844E2352865EBCB6EA275A652E3836BE04EFB400BF1A2556F515F1FBB35B2AB35BD889C744FFA1004B5544B121E57F70215746DD2F5E2C1412B602CBF19455AC6C8E5E9922C4E01E65215385004546899059180EAFCF7A707CE7017CD8CDB0410789AB32C63B91E5CEBBBACB17AC6CD347A022D5075FD106377347AAABA7E
310
7D11590744509B44E205134DC1290F06580320F78E537D3D73540E06CB970B431F185308AD40BBD794D6D77003C5A36E8EAA54BA64597CD8F83BD552A080A365F7FF06504B0304140006080000CC70623B000000000000000000000000350000006662782F39464131463745442D413632322D343644302D413938332D3331
310
353338454246344243312F76657274696365732E62696E504B0304140006080800CC70623BF270F1330600000004000000360000006662782F39464131463745442D413632322D343644302D413938332D3331353338454246344243312F747269616E676C65732E62696E636660600000504B0304140006080000CC70623B
310
000000000000000000000000370000006662782F39464131463745442D413632322D343644302D413938332D3331353338454246344243312F617474726962757465732E62696E504B0304140006080800CC70623B08DA0BD19000000041010000360000006662782F39464131463745442D413632322D343644302D413938
310
332D3331353338454246344243312F6469726563746F72792E786D6C858F410AC3201045AF22B36F53E9A60B35CBEEBAE80D244E44489C6234F4F835464A48035D0DF398FF9F8AF63D0E6CC63039F212F8F9020C7D47C6792B21C5FE7403D62A1188E2E60C98D7234A5830286103A55745067B9D86B8A3CF9C7F90C11DE607
310
FB144396D7B6A82D282E9A152AD114D5EF2CB866EEE831B8EEA07A7BB5A8D7D61A2BAAEB7FD5F70921FF497D00504B0304140006080800CC70623B0D6EF93BFE000000A00100003B0000006662782F39464131463745442D413632322D343644302D413938332D3331353338454246344243312F7265736F75726365732F63
310
6F72652E786D6C8D50596E833010BD0A9ADFCA60B334011947A8694ED00B586642AC041B79A97AFC9A40A5F6AF3F33A3B7689E1E3F7DCD8FEC139DD7D6F4C0720A191A65476DA61E62B892236427C19DB5E1970C322367EC618541F0C9D9B8EC90B226A009093576C41D94DE63804C3DD2D18357379C652E63480A7FCF17A9
310
EE72C29CE5894E3AC17D702940B63D59270887DE46A7D0F36263058F518FBB468FE9A7BE6A7420864373B8D4873369AA8691FA421B3294352543C5CAF65C0F6FEF43CB8BD52C78D0F34F46E550061C419494B6843142CB0F5677F4B52BEB177AEC28E5C52AFF638ACBF84F53D42654E51E77B379102C05791282176B5F693D
310
CB4C7BED567C03504B010214000A0000080000CC70623B3DEE336E79000000790000001B00000000000000000000000000000000006175746F6465736B2D64657369676E2D7061636B6167652E786D6C504B01021400140006080800CC70623BD486FD9CA0000000F40000001300000000000000000000000000B20000005B
310
436F6E74656E745F54797065735D2E786D6C504B01021400140006080800CC70623B1EC5D7A3EB0000007C010000080000000000000000000000000083010000636F72652E786D6C504B01021400140006080800CC70623B55019EA25F0000007C000000070000000000000000000000000094020000636E782E786D6C504B
310
01021400140006080800CC70623B8C9102E971010000D40300000C00000000000000000000000000180300006662782F636F72652E786D6C504B01021400140006080800CC70623BFFEA85907E0000009D0000000B00000000000000000000000000B30400006662782F636E782E786D6C504B01021400140006080800CC70
310
623B4FEEA4082C0100001202000031000000000000000000000000005A0500006662782F39464131463745442D413632322D343644302D413938332D3331353338454246344243312F636F72652E786D6C504B01021400140006080800CC70623BAD7543B64E010000330300003000000000000000000000000000D5060000
310
6662782F39464131463745442D413632322D343644302D413938332D3331353338454246344243312F636E782E786D6C504B01021400140006080800CC70623B16AB87BA640500003C1000003400000000000000000000000000710800006662782F39464131463745442D413632322D343644302D413938332D3331353338
310
454246344243312F6F626A656374732E786D6C504B01021400140006080000CC70623B0000000000000000000000003500000000000000000000000000270E00006662782F39464131463745442D413632322D343644302D413938332D3331353338454246344243312F76657274696365732E62696E504B01021400140006
310
080800CC70623BF270F133060000000400000036000000000000000000000000007A0E00006662782F39464131463745442D413632322D343644302D413938332D3331353338454246344243312F747269616E676C65732E62696E504B01021400140006080000CC70623B0000000000000000000000003700000000000000
310
000000000000D40E00006662782F39464131463745442D413632322D343644302D413938332D3331353338454246344243312F617474726962757465732E62696E504B01021400140006080800CC70623B08DA0BD190000000410100003600000000000000000000000000290F00006662782F39464131463745442D413632
310
322D343644302D413938332D3331353338454246344243312F6469726563746F72792E786D6C504B01021400140006080800CC70623B0D6EF93BFE000000A00100003B000000000000000000000000000D1000006662782F39464131463745442D413632322D343644302D413938332D3331353338454246344243312F7265
310
736F75726365732F636F72652E786D6C504B0506000000000E000E0080040000641100000000
  0
XRECORD
  5
11C5A
102
{ACAD_REACTORS
330
173
102
}
330
173
100
AcDbXrecord
280
     1
102
MATERIAL
148
0.0
149
0.0
149
0.0
 93
        0
 94
       63
282
     0
 72
     1
 77
     1
171
     1
175
     1
179
     1
273
     0
  0
XRECORD
  5
175
102
{ACAD_REACTORS
330
173
102
}
330
173
100
AcDbXrecord
280
     1
270
     1
271
     1
  0
XRECORD
  5
174
102
{ACAD_REACTORS
330
173
102
}
330
173
100
AcDbXrecord
280
     1
270
     1
271
     1
  0
XRECORD
  5
1FB
102
{ACAD_REACTORS
330
173
102
}
330
173
100
AcDbXrecord
280
     1
 70
     0
 90
1673772943
  1
ECE7A1D2-D628-4531-984C-D00F80459256
310
504B03040A0000080000CC70623B3DEE336E79000000790000001B0000006175746F6465736B2D64657369676E2D7061636B6167652E786D6C3C3F786D6C2076657273696F6E3D22312E302220656E636F64696E673D227574662D3822203F3E3C666F726D6174733E3C666F726D61743E687474703A2F2F736368656D612E
310
6175746F6465736B2E636F6D2F64657369676E2D7061636B6167652F323030393C2F666F726D61743E3C2F666F726D6174733E504B0304140006080800CC70623BD486FD9CA0000000F4000000130000005B436F6E74656E745F54797065735D2E786D6C7D8EC10E82300C865F65E91D8A1E8C310C0EEA1BF002731658846E
310
D98AC1B77784ABF1D8FE5FBFBF75BBCE937A534CCEB38643598122B6FEE978D0B0485F9C41B54DDD7D022595594E1A469170414C76A4D9A4D207E29CF43ECE46F218070CC6BECC4078ACAA135ACF422C856C0E68EA1BF5669944DDD7BCDE7B1F8E415D77AECB980613C2E4AC91FC167A2B244592486606FC29C8FD7F045B9A
310
EF7053A7E60B504B0304140006080800CC70623BD9DDAED0EC0000007C01000008000000636F72652E786D6C8D90416EC3201045AF82665B61836D9CD8C2444DD39CA01740405C94182C03558F5F9C3852BBEB6A467FFE9B197D7EF89E6EE8CB2CC17A37002D0820E394D7D68D03A478C17B4007C117EFE32F1B20272733C0
310
2A83E0E3E2D3BC49CABB685CCCAAF3DA6CA20CC14440EA969B0182FA34932C648AD911AEC52CD5558EA6A0CF2EC329598D1E47ACCEFBECC59A050463A7EA5833865FEBDD0E37353BE3EE8DBDE3F6786A48D375FBF6CC78B9C282473B3DEFABC5C86834888A900E538A49F5419B9EB47DD5BC907D4F082F57FB1F28CDFA9F50
310
B22ED6D5F6EE030B20687EE43E10BC5CB3C8E51E54AE6B6EE207504B0304140006080800CC70623B55019EA25F0000007C00000007000000636E782E786D6C4DCB3B0E80201045D1AD90E915ED2CF8AC45050C11660C8261F98AB1B07AC9C97D42D718D865D3E909258CFD00CCE24AC6E326A164D74DC0B4128928FF326038
310
472BA13128B1252AC747C6BAB984FC68F0B87FE8960A5C09FE86CFB69FBA01504B0304140006080800CC70623BA24EB22D72010000D40300000C0000006662782F636F72652E786D6CC5535B6E833010BC8AE5DF0A6C5E49888CA3A6694ED00B38E05014B091B1518EDFE511A5A9D228FD2A1F60CDEC7A67C6986DCE4D8D7A
310
69BA4AAB0C073EC548AA5C17952A33ECECD15B61B4E1CC686DBF9561A44423333CC098B3D268D7CE50AE9595CA02AA74216750749DB418E5352C32DCE59FB211BE70162ABA93DF8AFC244AE9073ED050C759670D0840D390E18DF9F1706664C23973AE2A66B62A605A75ACA4C13C4976E1364A12EF355A2EBD384AF65EFA96
310
BC7B8BED2EA6719AAE16FB8491A199335B351775B991C2CA02F390D2D40B028F861F41BCA68B7518BFD0D59A524686F29B26D7164F36B94AD9289CE54E6D1DE6010819891F6E21228B3AD1831EC219194284CF98F06DD01008846CC5A1BEF83801D4CBDC6A1303536877A57A513B0953A94FC707FDBE6064EA84A9E3E6E0FA
310
EE8CF0E9198F7784A316AA0413C2C2F2E0ECA0934D1AE6D05A69BCDE9E91D2A611F573361E38FC1375157F5752AE6B6DFE4B11990F88CCBF0719EE23FF02504B0304140006080800CC70623B408A7D3B7C0000009D0000000B0000006662782F636E782E786D6C4DCCD10A83201886E15B91FFDC552A92A0064DBC8F581632
310
D3703A76F9ABD1C18E3E78F878E5F0D9027ABBFCF2292AE86E2D20171F69F6715550CB827B40839639A5F2770314A7CD293819B45C73AAFB45B35BA61ACAA1C1C7E7855C58C15BC331339661262CC762340413D68D77DA5B42298546CBE6573AF60CEB2F504B0304140006080800CC70623B449FB9BD290100001202000031
310
0000006662782F36394639363044362D344446342D343946362D394244322D3234314243333846323333332F636F72652E786D6C8D515B6EC32010BC0AE22B55850D98B871848994463E412FE002495162B07854397EA176A4F62F3F2C9A9D991D587EB84F37F0AD7D30CEF6905418026DA553C65E7A98E219ED203808EE9D
310
8B7F6810D871D23D2C3014FCE25D9A57483A1BB58D19B54EE9151C43D0110279CB971E06F9A5A7B11A53CC8C70ADE6515EC78BAE4895DB992778883E0700CB907242D17643D7E2538BD869608875438BBAE38922CAC8F1BDD90DB4691A5E2F42C153326A951B95E398B3D1FE599322163C9AE9115F7A3D46ADA0A018778810
310
84E907617BDCEE297BC5BB3DC6BC2EF47FA234AB2745C9D8D8D035EE220B50105E2F0DC1954B9FB747187D9F9D8FA0CCDB042D5FA0C015C65B42DF78BD10F3F3B363CB56C7109DCFDFBBB97E662ED92EB62D13BC2E1BCAE5777DB9966D8A1F504B0304140006080800CC70623BAD7543B64E01000033030000300000006662
310
782F36394639363044362D344446342D343946362D394244322D3234314243333846323333332F636E782E786D6CD593CD6EC32010845F0571AD6CE3D48AD20813A9873E410FBD12D82434182C7EAAE6EDBB2424CD25871E7B41D6EC30B3FA84F9E67BB2E40B4234DE8DB46F1925E094D7C6ED479AD3AE5951B2113C789FEE
310
6C943839C1488B4C05DF079FE72A69D8C96C13AAD6B8631503449F83828872B949AC57D26200B826A308D316B4064D6E46FCDA41C05550DC9E483A00797BFD207EFB092A45DE9514C1BBD22178396BD39D891265658C238DEA00936C654E5E433CB65A26D9F6EDB5EBC14EBF49A45CB856E66048291F6939A9A81BB5C89177
310
38143CA680F4AA299D66A042CEB3354A2684DC9D8D178FE0D9B8B41CAAD720F880EE7EF93C0C18769E099ECC04D5A102C8049A8A05632F4DDF376CF1DE0F6BB65C2F8627B65A33C6BB62177CEBBDAD973006829F89F22E814B54F4BC2BE347F8AA8F681390B50FA73F804400B5F542E796F19FF974E7F78DB802FE05E20750
310
4B0304140006080800CC70623B8D05915C650500003B100000340000006662782F36394639363044362D344446342D343946362D394244322D3234314243333846323333332F6F626A656374732E786D6CAD575B6FA33814FE2B887D06429276DA1565D4266D158D3A339A6846FB502932E050B66023DB74D2FDF5FB190C01
310
9276B2973C046C8ECFF53B17071F77456EBD502133CEAE6CDF9DD81665314F32965ED995DA3A17B6F5310C04E7AA47665B8C14F4CAD6DB7618A48257A5D94AE89654B91AEDDEDDFC61C998326A5B714EA4BCB265FC440BE2924AF184CA6737218AB8E976E7FA6E4338649B0A523E8D98964450A6A029F619B8588D52FE7039
310
B1BD30F0F4F730D0FF866AF6369557DB33949F31A9088B0F848DD8CCFCF9F2767A76E99CCDE733677E3EF59D9BBB9BA5E37F984D16E78BC5E5F5ED25044B25C0C96822E8D60EEFE11B91C581D77CEA34368A1F5329E68CD1B8B61F16D63A1B8E092D294B10C78C4A48EB593D192E7DED9BDEE7995E1B91FDEDD3ACEA9FE831
310
6A756F9F7D4D79F4274C90A7A04248AA51D5F8C718DAE06FB2F75AC4796EBE65D22A88A22223B995679120E2D50E41AA49C260C046A35368846B0BECD0DFF3EBEB8AD4F835768F69B9ADF25C43D30E6B646F807FAA64AD59F61715C7A54127C4AACA98BA3006A9D792DAE165E0D59B61A01FB3A9F9D838D2DAE62445C86166
310
F37564E842E7DE6A69879FEEA2DD5AE7E371E1A5E025154AC307D06A03D73EB5978C58FFA4C8E9033066E0F3BD53BEC1F39F91BE7B55103791EDE6BBB991A2046172CB4581D8B893FA674DDA17A77B3B7C413D1B511FD2743BFF8A38F03A658705E3ADF8015C3A3417FF3D7E439FF591DA0B5F18BC20C1B8981957AE6392A3
310
F43C640C01D1A0B4728E2DD4F26DB4B3C3152A252A3B4E913CEC1C72F012782FF88EFF8637AA552DBEF76408E8A8DE9E50F9E1CB3A2DA0DB1B6039A893B56063DC5B3E3FFB5F72E67AB9FEB4AEC496C4F4C1149625DD662C53E89D7BF0F6151A046260D1337DFDC94502430F83B0EE07A130A224BCAD7DAE1D9FB6CD422FF6
310
920702629C4BB9AE79C12F243C6432A6794E18E5552BA56B431AAB5D91317302B2B071E86C3A42B1A02F999E24061403B5D0EB639195DA655DD3EBEAB4FB862DDF579F014AD0E73C22F99E28DA57FB98E75C6CA2D74D53086D600F4786E0FE3144B771A8A7B900F03594DB8A633CBC49B2EDB69228BB479CF863B5E807AAAB
310
23872F6DFEB4129B949CA33823F58830E86D65621E10047D9DB34D862E8EAC3C2ABC2F7B2C40D67CDFE01F5545B92105AF983AC54D93D69E56FB8E797F88913F898A9FEC705D3F9D1B54EC8426FB500D40A03BD0119B06E1B95DDC7EB8F6975367793EBD70E66733DFB9BC982F9CE564727731999F5D4ECFCE3B8D6A4DC2A0
310
6D50FD148437D110834A64C6CDDF57FBACB5C307A2A477DFE4939736CFEF2B175371E0E10CF0DD1D5C15654E0BCA14D1E87DD02FF93782A162C0A3D95F1524A52770F972BF1EE9809D13CE7DD599467F8ECE9ADD85CE85A34CD45355448C64F9E8A031DC2D596ACC6E5DD93D9B82DE2EF5CAF81363A8E47996A0DE24564A79
310
4115AACE09C55E14540231FDA13C319787134EBF34E3A022514E5B4D9E0826E25C02D5805B15ABE1BEF51B26383D445DD9E875EE33FE4C22DA16427D65A3BCA92CA6D28DD01DF5DC53330704308475351050232CCD31583787BA75774AFB06E5070DD0C8EF484E19968C5D83BA5B90B244D31E54D55A372320FE4786B7EA58
310
44E135AA5467CB7EA333A61683CC6A8C3257034C10CF46F40EF9F5BE59BE5BD30C3C72D235E95D10345C1D45445A5F0BB47E46A5EBE5570F9380B5FA629579952296A773720405982B9DE04011506178964401AA8BDF1FBF0A8EAB6861DD6580C0E38217056766716DAEB2D6FA0917D3E4116581EADB879C4E7CFFB11EFACD
310
3D641311495D92C8676CB409A72D18610D803CE8A626049E8EC1887CB5B44CC39883690DDA8399B4B9855B481E7D71D4A9D22F96E5BB73BF5793020C02137BF837504B0304140006080000CC70623B000000000000000000000000350000006662782F36394639363044362D344446342D343946362D394244322D32343142
310
43333846323333332F76657274696365732E62696E504B0304140006080800CC70623BF270F1330600000004000000360000006662782F36394639363044362D344446342D343946362D394244322D3234314243333846323333332F747269616E676C65732E62696E636660600000504B0304140006080000CC70623B0000
310
00000000000000000000370000006662782F36394639363044362D344446342D343946362D394244322D3234314243333846323333332F617474726962757465732E62696E504B0304140006080800CC70623B08DA0BD19000000041010000360000006662782F36394639363044362D344446342D343946362D394244322D
310
3234314243333846323333332F6469726563746F72792E786D6C858F410AC3201045AF22B36F53E9A60B35CBEEBAE80D244E44489C6234F4F835464A48035D0DF398FF9F8AF63D0E6CC63039F212F8F9020C7D47C6792B21C5FE7403D62A1188E2E60C98D7234A5830286103A55745067B9D86B8A3CF9C7F90C11DE607FB14
310
4396D7B6A82D282E9A152AD114D5EF2CB866EEE831B8EEA07A7BB5A8D7D61A2BAAEB7FD5F70921FF497D00504B0304140006080800CC70623BCA768048FE000000A00100003B0000006662782F36394639363044362D344446342D343946362D394244322D3234314243333846323333332F7265736F75726365732F636F72
310
652E786D6C8D50596E833010BD0A9ADFCA60D600328E9AA639412F609909B1126CE4A5EAF16B0295DABFFECC8CDEA2797AECF8353F924FB44E193D409E5248504B332A3D0D10FC95B4901C39B3C6F85F3248B49871801506CE266BC2B243D2688FDA47549B11775038871E12F988C7004EDE7016A9083E2ADC3D5D84BC8B09
310
D33C8D74D471E6BC8D0192EDC93A815B742658898E651BCB59086ADC356A8C3FD555A1055ED7E7E254D615792D0F075295F585746FF53B694EE78A565DD736979A65AB9933AFE69F8CD2A2F038022F28ED489E135A7CE4554F9BBEA85E68DB53CAB255FEC71496F19FA6A0B42F8B3DEE6673C0F318E4497096AD7DC5F52C33
310
EEB55BFE0D504B010214000A0000080000CC70623B3DEE336E79000000790000001B00000000000000000000000000000000006175746F6465736B2D64657369676E2D7061636B6167652E786D6C504B01021400140006080800CC70623BD486FD9CA0000000F40000001300000000000000000000000000B20000005B436F
310
6E74656E745F54797065735D2E786D6C504B01021400140006080800CC70623BD9DDAED0EC0000007C010000080000000000000000000000000083010000636F72652E786D6C504B01021400140006080800CC70623B55019EA25F0000007C000000070000000000000000000000000095020000636E782E786D6C504B0102
310
1400140006080800CC70623BA24EB22D72010000D40300000C00000000000000000000000000190300006662782F636F72652E786D6C504B01021400140006080800CC70623B408A7D3B7C0000009D0000000B00000000000000000000000000B50400006662782F636E782E786D6C504B01021400140006080800CC70623B
310
449FB9BD290100001202000031000000000000000000000000005A0500006662782F36394639363044362D344446342D343946362D394244322D3234314243333846323333332F636F72652E786D6C504B01021400140006080800CC70623BAD7543B64E010000330300003000000000000000000000000000D20600006662
310
782F36394639363044362D344446342D343946362D394244322D3234314243333846323333332F636E782E786D6C504B01021400140006080800CC70623B8D05915C650500003B10000034000000000000000000000000006E0800006662782F36394639363044362D344446342D343946362D394244322D32343142433338
310
46323333332F6F626A656374732E786D6C504B01021400140006080000CC70623B0000000000000000000000003500000000000000000000000000250E00006662782F36394639363044362D344446342D343946362D394244322D3234314243333846323333332F76657274696365732E62696E504B010214001400060808
310
00CC70623BF270F13306000000040000003600000000000000000000000000780E00006662782F36394639363044362D344446342D343946362D394244322D3234314243333846323333332F747269616E676C65732E62696E504B01021400140006080000CC70623B00000000000000000000000037000000000000000000
310
00000000D20E00006662782F36394639363044362D344446342D343946362D394244322D3234314243333846323333332F617474726962757465732E62696E504B01021400140006080800CC70623B08DA0BD190000000410100003600000000000000000000000000270F00006662782F36394639363044362D344446342D
310
343946362D394244322D3234314243333846323333332F6469726563746F72792E786D6C504B01021400140006080800CC70623BCA768048FE000000A00100003B000000000000000000000000000B1000006662782F36394639363044362D344446342D343946362D394244322D3234314243333846323333332F7265736F
310
75726365732F636F72652E786D6C504B0506000000000E000E0080040000621100000000
  0
XRECORD
  5
176
102
{ACAD_REACTORS
330
173
102
}
330
173
100
AcDbXrecord
280
     1
270
     1
271
     1
  0
XRECORD
  5
177
102
{ACAD_REACTORS
330
173
102
}
330
173
100
AcDbXrecord
280
     1
270
     1
271
     1
  0
XRECORD
  5
11C7C
102
{ACAD_REACTORS
330
11C7B
102
}
330
11C7B
100
AcDbXrecord
280
     1
102
ACAD_ROUNDTRIP_2012_MLEADER_STYLE
298
     1
  0
XRECORD
  5
11C8E
102
{ACAD_REACTORS
330
11C8D
102
}
330
11C8D
100
AcDbXrecord
280
     1
102
DISPLAYNAME
  1
Metric50
102
FLAGS
 90
        0
  0
CELLSTYLEMAP
  5
11C4E
102
{ACAD_REACTORS
330
162
102
}
330
162
100
AcDbCellStyleMap
 90
        3
300
CELLSTYLE
  1
TABLEFORMAT_BEGIN
 90
        5
170
     1
 91
        0
 92
    32768
 62
   257
 93
        1
300
CONTENTFORMAT
  1
CONTENTFORMAT_BEGIN
 90
        0
 91
        0
 92
      512
 93
        0
300

 40
0.0
140
1.0
 94
        5
 62
     0
340
11
144
6.0
309
CONTENTFORMAT_END
171
     1
301
MARGIN
  1
CELLMARGIN_BEGIN
 40
1.5
 40
1.5
 40
1.5
 40
1.5
 40
4.5
 40
4.5
309
CELLMARGIN_END
 94
        6
 95
        1
302
GRIDFORMAT
  1
GRIDFORMAT_BEGIN
 90
        0
 91
        1
 62
     0
 92
       -2
340
14
 93
        0
 40
1.125
309
GRIDFORMAT_END
 95
        2
302
GRIDFORMAT
  1
GRIDFORMAT_BEGIN
 90
        0
 91
        1
 62
     0
 92
       -2
340
14
 93
        0
 40
1.125
309
GRIDFORMAT_END
 95
        4
302
GRIDFORMAT
  1
GRIDFORMAT_BEGIN
 90
        0
 91
        1
 62
     0
 92
       -2
340
14
 93
        0
 40
1.125
309
GRIDFORMAT_END
 95
        8
302
GRIDFORMAT
  1
GRIDFORMAT_BEGIN
 90
        0
 91
        1
 62
     0
 92
       -2
340
14
 93
        0
 40
1.125
309
GRIDFORMAT_END
 95
       16
302
GRIDFORMAT
  1
GRIDFORMAT_BEGIN
 90
        0
 91
        1
 62
     0
 92
       -2
340
14
 93
        0
 40
1.125
309
GRIDFORMAT_END
 95
       32
302
GRIDFORMAT
  1
GRIDFORMAT_BEGIN
 90
        0
 91
        1
 62
     0
 92
       -2
340
14
 93
        0
 40
1.125
309
GRIDFORMAT_END
309
TABLEFORMAT_END
  1
CELLSTYLE_BEGIN
 90
        1
 91
        1
300
_TITLE
309
CELLSTYLE_END
300
CELLSTYLE
  1
TABLEFORMAT_BEGIN
 90
        5
170
     1
 91
        0
 92
        0
 62
   257
 93
        1
300
CONTENTFORMAT
  1
CONTENTFORMAT_BEGIN
 90
        0
 91
        0
 92
      512
 93
        0
300

 40
0.0
140
1.0
 94
        5
 62
     0
340
11
144
4.5
309
CONTENTFORMAT_END
171
     1
301
MARGIN
  1
CELLMARGIN_BEGIN
 40
1.5
 40
1.5
 40
1.5
 40
1.5
 40
4.5
 40
4.5
309
CELLMARGIN_END
 94
        6
 95
        1
302
GRIDFORMAT
  1
GRIDFORMAT_BEGIN
 90
        0
 91
        1
 62
     0
 92
       -2
340
14
 93
        0
 40
1.125
309
GRIDFORMAT_END
 95
        2
302
GRIDFORMAT
  1
GRIDFORMAT_BEGIN
 90
        0
 91
        1
 62
     0
 92
       -2
340
14
 93
        0
 40
1.125
309
GRIDFORMAT_END
 95
        4
302
GRIDFORMAT
  1
GRIDFORMAT_BEGIN
 90
        0
 91
        1
 62
     0
 92
       -2
340
14
 93
        0
 40
1.125
309
GRIDFORMAT_END
 95
        8
302
GRIDFORMAT
  1
GRIDFORMAT_BEGIN
 90
        0
 91
        1
 62
     0
 92
       -2
340
14
 93
        0
 40
1.125
309
GRIDFORMAT_END
 95
       16
302
GRIDFORMAT
  1
GRIDFORMAT_BEGIN
 90
        0
 91
        1
 62
     0
 92
       -2
340
14
 93
        0
 40
1.125
309
GRIDFORMAT_END
 95
       32
302
GRIDFORMAT
  1
GRIDFORMAT_BEGIN
 90
        0
 91
        1
 62
     0
 92
       -2
340
14
 93
        0
 40
1.125
309
GRIDFORMAT_END
309
TABLEFORMAT_END
  1
CELLSTYLE_BEGIN
 90
        2
 91
        1
300
_HEADER
309
CELLSTYLE_END
300
CELLSTYLE
  1
TABLEFORMAT_BEGIN
 90
        5
170
     1
 91
        0
 92
        0
 62
   257
 93
        1
300
CONTENTFORMAT
  1
CONTENTFORMAT_BEGIN
 90
        0
 91
        0
 92
      512
 93
        0
300

 40
0.0
140
1.0
 94
        2
 62
     0
340
11
144
4.5
309
CONTENTFORMAT_END
171
     1
301
MARGIN
  1
CELLMARGIN_BEGIN
 40
1.5
 40
1.5
 40
1.5
 40
1.5
 40
4.5
 40
4.5
309
CELLMARGIN_END
 94
        6
 95
        1
302
GRIDFORMAT
  1
GRIDFORMAT_BEGIN
 90
        0
 91
        1
 62
     0
 92
       -2
340
14
 93
        0
 40
1.125
309
GRIDFORMAT_END
 95
        2
302
GRIDFORMAT
  1
GRIDFORMAT_BEGIN
 90
        0
 91
        1
 62
     0
 92
       -2
340
14
 93
        0
 40
1.125
309
GRIDFORMAT_END
 95
        4
302
GRIDFORMAT
  1
GRIDFORMAT_BEGIN
 90
        0
 91
        1
 62
     0
 92
       -2
340
14
 93
        0
 40
1.125
309
GRIDFORMAT_END
 95
        8
302
GRIDFORMAT
  1
GRIDFORMAT_BEGIN
 90
        0
 91
        1
 62
     0
 92
       -2
340
14
 93
        0
 40
1.125
309
GRIDFORMAT_END
 95
       16
302
GRIDFORMAT
  1
GRIDFORMAT_BEGIN
 90
        0
 91
        1
 62
     0
 92
       -2
340
14
 93
        0
 40
1.125
309
GRIDFORMAT_END
 95
       32
302
GRIDFORMAT
  1
GRIDFORMAT_BEGIN
 90
        0
 91
        1
 62
     0
 92
       -2
340
14
 93
        0
 40
1.125
309
GRIDFORMAT_END
309
TABLEFORMAT_END
  1
CELLSTYLE_BEGIN
 90
        3
 91
        2
300
_DATA
309
CELLSTYLE_END
  0
XRECORD
  5
11C53
102
{ACAD_REACTORS
330
162
102
}
330
162
100
AcDbXrecord
280
     1
102
ACAD_ROUNDTRIP_PRE2007_TABLESTYLE
 90
      512
 91
        0
  1

 92
      512
 93
        0
  2

 94
      512
 95
        0
  3

  0
XRECORD
  5
11C66
102
{ACAD_REACTORS
330
11C65
102
}
330
11C65
100
AcDbXrecord
280
     1
102
RTVSPost2010Prop28
280
     1
102
RTVSPost2010PropOp28
 70
     1
102
RTVSPost2010Prop29
280
     1
102
RTVSPost2010PropOp29
 70
     1
102
RTVSPost2010Prop30
280
     0
102
RTVSPost2010PropOp30
 70
     1
102
RTVSPost2010Prop31
280
     0
102
RTVSPost2010PropOp31
 70
     1
102
RTVSPost2010Prop32
280
     0
102
RTVSPost2010PropOp32
 70
     1
102
RTVSPost2010Prop33
280
     0
102
RTVSPost2010PropOp33
 70
     1
102
RTVSPost2010Prop34
280
     0
102
RTVSPost2010PropOp34
 70
     1
102
RTVSPost2010Prop35
280
     0
102
RTVSPost2010PropOp35
 70
     1
102
RTVSPost2010Prop36
280
     0
102
RTVSPost2010PropOp36
 70
     1
102
RTVSPost2010Prop37
 90
       50
102
RTVSPost2010PropOp37
 70
     1
102
RTVSPost2010Prop38
140
0.0
102
RTVSPost2010PropOp38
 70
     1
102
RTVSPost2010Prop39
140
1.0
102
RTVSPost2010PropOp39
 70
     1
102
RTVSPost2010Prop40
 90
        0
102
RTVSPost2010PropOp40
 70
     1
102
RTVSPost2010Prop41ColorIndex
 90
       18
102
RTVSPost2010Prop41ColorRGB
 90
        0
102
RTVSPost2010PropOp41
 70
     1
102
RTVSPost2010Prop42
 90
       50
102
RTVSPost2010PropOp42
 70
     1
102
RTVSPost2010Prop43
 90
        3
102
RTVSPost2010PropOp43
 70
     1
102
RTVSPost2010Prop44ColorIndex
 90
        5
102
RTVSPost2010Prop44ColorRGB
 90
      255
102
RTVSPost2010PropOp44
 70
     1
102
RTVSPost2010Prop45
280
     0
102
RTVSPost2010PropOp45
 70
     1
102
RTVSPost2010Prop46
 90
       50
102
RTVSPost2010PropOp46
 70
     1
102
RTVSPost2010Prop47
 90
       50
102
RTVSPost2010PropOp47
 70
     1
102
RTVSPost2010Prop48
 90
       50
102
RTVSPost2010PropOp48
 70
     1
102
RTVSPost2010Prop49
280
     0
102
RTVSPost2010PropOp49
 70
     1
102
RTVSPost2010Prop50
 90
       50
102
RTVSPost2010PropOp50
 70
     1
102
RTVSPost2010Prop51ColorIndex
 90
      256
102
RTVSPost2010Prop51ColorRGB
 90
-16777216
102
RTVSPost2010PropOp51
 70
     0
102
RTVSPost2010Prop52
140
1.0
102
RTVSPost2010PropOp52
 70
     0
102
RTVSPost2010Prop53
 90
        2
102
RTVSPost2010PropOp53
 70
     1
102
RTVSPost2010Prop54
  1
strokes_ogs.tif
102
RTVSPost2010PropOp54
 70
     1
102
RTVSPost2010Prop55
280
     0
102
RTVSPost2010PropOp55
 70
     1
102
RTVSPost2010Prop56
140
1.0
102
RTVSPost2010PropOp56
 70
     1
102
RTVSPost2010Prop57
140
1.0
102
RTVSPost2010PropOp57
 70
     1
102
RTVSPropertyOp0
 70
     1
102
RTVSPropertyOp1
 70
     1
102
RTVSPropertyOp2
 70
     1
102
RTVSPropertyOp3
 70
     1
102
RTVSPropertyOp4
 70
     1
102
RTVSPropertyOp5
 70
     1
102
RTVSPropertyOp6
 70
     1
102
RTVSPropertyOp7
 70
     1
102
RTVSPropertyOp8
 70
     1
102
RTVSPropertyOp9
 70
     1
102
RTVSPropertyOp10
 70
     1
102
RTVSPropertyOp11
 70
     1
102
RTVSPropertyOp12
 70
     1
102
RTVSPropertyOp13
 70
     1
102
RTVSPropertyOp14
 70
     1
102
RTVSPropertyOp15
 70
     1
102
RTVSPropertyOp16
 70
     1
102
RTVSPropertyOp17
 70
     1
102
RTVSPropertyOp18
 70
     1
102
RTVSPropertyOp19
 70
     1
102
RTVSPropertyOp20
 70
     1
102
RTVSPropertyOp21
 70
     1
102
RTVSPropertyOp22
 70
     1
102
RTVSPropertyOp23
 70
     1
102
RTVSPropertyOp24
 70
     1
102
RTVSPropertyOp25
 70
     1
102
RTVSPropertyOp26
 70
     1
102
RTVSPropertyOp27
 70
     1
102
RTVSPropertyOp28
 70
     1
102
RTVSPropertyOp29
 70
     1
102
RTVSPropertyOp30
 70
     1
102
RTVSPropertyOp31
 70
     1
102
RTVSPropertyOp32
 70
     1
102
RTVSPropertyOp33
 70
     1
102
RTVSPropertyOp34
 70
     1
102
RTVSPropertyOp35
 70
     1
102
RTVSPropertyOp36
 70
     1
102
RTVSPropertyOp37
 70
     1
102
RTVSPropertyOp38
 70
     1
102
RTVSPropertyOp39
 70
     1
102
RTVSPropertyOp40
 70
     1
102
RTVSPropertyOp41
 70
     1
102
RTVSPropertyOp42
 70
     1
102
RTVSPropertyOp43
 70
     1
102
RTVSPropertyOp44
 70
     1
102
RTVSPropertyOp45
 70
     1
102
RTVSPropertyOp46
 70
     1
102
RTVSPropertyOp47
 70
     1
102
RTVSPropertyOp48
 70
     1
102
RTVSPropertyOp49
 70
     1
102
RTVSPropertyOp50
 70
     1
102
RTVSPropertyOp51
 70
     0
102
RTVSPropertyOp52
 70
     0
102
RTVSPropertyOp53
 70
     1
102
RTVSPropertyOp54
 70
     1
102
RTVSPropertyOp55
 70
     1
102
RTVSPropertyOp56
 70
     1
102
RTVSPropertyOp57
 70
     1
102
RTVSPropertyOp58
 70
     1
102
RTVSPropertyOp59
 70
     1
102
RTVSPropertyOp60
 70
     1
102
RTVSPropertyOp61
 70
     1
102
RTVSPropertyOp62
 70
     1
  0
XRECORD
  5
11C64
102
{ACAD_REACTORS
330
11C63
102
}
330
11C63
100
AcDbXrecord
280
     1
102
RTVSPost2010Prop28
280
     0
102
RTVSPost2010PropOp28
 70
     1
102
RTVSPost2010Prop29
280
     1
102
RTVSPost2010PropOp29
 70
     1
102
RTVSPost2010Prop30
280
     1
102
RTVSPost2010PropOp30
 70
     1
102
RTVSPost2010Prop31
280
     0
102
RTVSPost2010PropOp31
 70
     1
102
RTVSPost2010Prop32
280
     0
102
RTVSPost2010PropOp32
 70
     1
102
RTVSPost2010Prop33
280
     0
102
RTVSPost2010PropOp33
 70
     1
102
RTVSPost2010Prop34
280
     0
102
RTVSPost2010PropOp34
 70
     1
102
RTVSPost2010Prop35
280
     0
102
RTVSPost2010PropOp35
 70
     1
102
RTVSPost2010Prop36
280
     0
102
RTVSPost2010PropOp36
 70
     1
102
RTVSPost2010Prop37
 90
       50
102
RTVSPost2010PropOp37
 70
     1
102
RTVSPost2010Prop38
140
0.0
102
RTVSPost2010PropOp38
 70
     1
102
RTVSPost2010Prop39
140
1.0
102
RTVSPost2010PropOp39
 70
     1
102
RTVSPost2010Prop40
 90
        0
102
RTVSPost2010PropOp40
 70
     1
102
RTVSPost2010Prop41ColorIndex
 90
       18
102
RTVSPost2010Prop41ColorRGB
 90
        0
102
RTVSPost2010PropOp41
 70
     1
102
RTVSPost2010Prop42
 90
       50
102
RTVSPost2010PropOp42
 70
     1
102
RTVSPost2010Prop43
 90
        3
102
RTVSPost2010PropOp43
 70
     1
102
RTVSPost2010Prop44ColorIndex
 90
        5
102
RTVSPost2010Prop44ColorRGB
 90
      255
102
RTVSPost2010PropOp44
 70
     1
102
RTVSPost2010Prop45
280
     0
102
RTVSPost2010PropOp45
 70
     1
102
RTVSPost2010Prop46
 90
       50
102
RTVSPost2010PropOp46
 70
     1
102
RTVSPost2010Prop47
 90
       50
102
RTVSPost2010PropOp47
 70
     1
102
RTVSPost2010Prop48
 90
       50
102
RTVSPost2010PropOp48
 70
     1
102
RTVSPost2010Prop49
280
     0
102
RTVSPost2010PropOp49
 70
     1
102
RTVSPost2010Prop50
 90
       50
102
RTVSPost2010PropOp50
 70
     1
102
RTVSPost2010Prop51ColorIndex
 90
      256
102
RTVSPost2010Prop51ColorRGB
 90
-16777216
102
RTVSPost2010PropOp51
 70
     0
102
RTVSPost2010Prop52
140
1.0
102
RTVSPost2010PropOp52
 70
     0
102
RTVSPost2010Prop53
 90
        2
102
RTVSPost2010PropOp53
 70
     1
102
RTVSPost2010Prop54
  1
strokes_ogs.tif
102
RTVSPost2010PropOp54
 70
     1
102
RTVSPost2010Prop55
280
     0
102
RTVSPost2010PropOp55
 70
     1
102
RTVSPost2010Prop56
140
1.0
102
RTVSPost2010PropOp56
 70
     1
102
RTVSPost2010Prop57
140
1.0
102
RTVSPost2010PropOp57
 70
     1
102
RTVSPropertyOp0
 70
     1
102
RTVSPropertyOp1
 70
     1
102
RTVSPropertyOp2
 70
     1
102
RTVSPropertyOp3
 70
     1
102
RTVSPropertyOp4
 70
     1
102
RTVSPropertyOp5
 70
     1
102
RTVSPropertyOp6
 70
     1
102
RTVSPropertyOp7
 70
     1
102
RTVSPropertyOp8
 70
     1
102
RTVSPropertyOp9
 70
     1
102
RTVSPropertyOp10
 70
     1
102
RTVSPropertyOp11
 70
     1
102
RTVSPropertyOp12
 70
     1
102
RTVSPropertyOp13
 70
     1
102
RTVSPropertyOp14
 70
     1
102
RTVSPropertyOp15
 70
     1
102
RTVSPropertyOp16
 70
     1
102
RTVSPropertyOp17
 70
     1
102
RTVSPropertyOp18
 70
     1
102
RTVSPropertyOp19
 70
     1
102
RTVSPropertyOp20
 70
     1
102
RTVSPropertyOp21
 70
     1
102
RTVSPropertyOp22
 70
     1
102
RTVSPropertyOp23
 70
     1
102
RTVSPropertyOp24
 70
     1
102
RTVSPropertyOp25
 70
     1
102
RTVSPropertyOp26
 70
     1
102
RTVSPropertyOp27
 70
     1
102
RTVSPropertyOp28
 70
     1
102
RTVSPropertyOp29
 70
     1
102
RTVSPropertyOp30
 70
     1
102
RTVSPropertyOp31
 70
     1
102
RTVSPropertyOp32
 70
     1
102
RTVSPropertyOp33
 70
     1
102
RTVSPropertyOp34
 70
     1
102
RTVSPropertyOp35
 70
     1
102
RTVSPropertyOp36
 70
     1
102
RTVSPropertyOp37
 70
     1
102
RTVSPropertyOp38
 70
     1
102
RTVSPropertyOp39
 70
     1
102
RTVSPropertyOp40
 70
     1
102
RTVSPropertyOp41
 70
     1
102
RTVSPropertyOp42
 70
     1
102
RTVSPropertyOp43
 70
     1
102
RTVSPropertyOp44
 70
     1
102
RTVSPropertyOp45
 70
     1
102
RTVSPropertyOp46
 70
     1
102
RTVSPropertyOp47
 70
     1
102
RTVSPropertyOp48
 70
     1
102
RTVSPropertyOp49
 70
     1
102
RTVSPropertyOp50
 70
     1
102
RTVSPropertyOp51
 70
     0
102
RTVSPropertyOp52
 70
     0
102
RTVSPropertyOp53
 70
     1
102
RTVSPropertyOp54
 70
     1
102
RTVSPropertyOp55
 70
     1
102
RTVSPropertyOp56
 70
     1
102
RTVSPropertyOp57
 70
     1
102
RTVSPropertyOp58
 70
     1
102
RTVSPropertyOp59
 70
     1
102
RTVSPropertyOp60
 70
     1
102
RTVSPropertyOp61
 70
     1
102
RTVSPropertyOp62
 70
     1
  0
XRECORD
  5
11C72
102
{ACAD_REACTORS
330
11C71
102
}
330
11C71
100
AcDbXrecord
280
     1
102
RTVSPost2010Prop28
280
     0
102
RTVSPost2010PropOp28
 70
     1
102
RTVSPost2010Prop29
280
     1
102
RTVSPost2010PropOp29
 70
     1
102
RTVSPost2010Prop30
280
     1
102
RTVSPost2010PropOp30
 70
     1
102
RTVSPost2010Prop31
280
     0
102
RTVSPost2010PropOp31
 70
     1
102
RTVSPost2010Prop32
280
     0
102
RTVSPost2010PropOp32
 70
     1
102
RTVSPost2010Prop33
280
     0
102
RTVSPost2010PropOp33
 70
     1
102
RTVSPost2010Prop34
280
     0
102
RTVSPost2010PropOp34
 70
     1
102
RTVSPost2010Prop35
280
     0
102
RTVSPost2010PropOp35
 70
     1
102
RTVSPost2010Prop36
280
     0
102
RTVSPost2010PropOp36
 70
     1
102
RTVSPost2010Prop37
 90
       50
102
RTVSPost2010PropOp37
 70
     1
102
RTVSPost2010Prop38
140
0.0
102
RTVSPost2010PropOp38
 70
     1
102
RTVSPost2010Prop39
140
1.0
102
RTVSPost2010PropOp39
 70
     1
102
RTVSPost2010Prop40
 90
        0
102
RTVSPost2010PropOp40
 70
     1
102
RTVSPost2010Prop41ColorIndex
 90
       18
102
RTVSPost2010Prop41ColorRGB
 90
        0
102
RTVSPost2010PropOp41
 70
     1
102
RTVSPost2010Prop42
 90
       50
102
RTVSPost2010PropOp42
 70
     1
102
RTVSPost2010Prop43
 90
        3
102
RTVSPost2010PropOp43
 70
     1
102
RTVSPost2010Prop44ColorIndex
 90
        5
102
RTVSPost2010Prop44ColorRGB
 90
      255
102
RTVSPost2010PropOp44
 70
     1
102
RTVSPost2010Prop45
280
     0
102
RTVSPost2010PropOp45
 70
     1
102
RTVSPost2010Prop46
 90
       50
102
RTVSPost2010PropOp46
 70
     1
102
RTVSPost2010Prop47
 90
       50
102
RTVSPost2010PropOp47
 70
     1
102
RTVSPost2010Prop48
 90
       50
102
RTVSPost2010PropOp48
 70
     1
102
RTVSPost2010Prop49
280
     0
102
RTVSPost2010PropOp49
 70
     1
102
RTVSPost2010Prop50
 90
       50
102
RTVSPost2010PropOp50
 70
     1
102
RTVSPost2010Prop51ColorIndex
 90
      256
102
RTVSPost2010Prop51ColorRGB
 90
-16777216
102
RTVSPost2010PropOp51
 70
     0
102
RTVSPost2010Prop52
140
1.0
102
RTVSPost2010PropOp52
 70
     0
102
RTVSPost2010Prop53
 90
        2
102
RTVSPost2010PropOp53
 70
     1
102
RTVSPost2010Prop54
  1
strokes_ogs.tif
102
RTVSPost2010PropOp54
 70
     1
102
RTVSPost2010Prop55
280
     0
102
RTVSPost2010PropOp55
 70
     1
102
RTVSPost2010Prop56
140
1.0
102
RTVSPost2010PropOp56
 70
     1
102
RTVSPost2010Prop57
140
1.0
102
RTVSPost2010PropOp57
 70
     1
102
RTVSPropertyOp0
 70
     1
102
RTVSPropertyOp1
 70
     1
102
RTVSPropertyOp2
 70
     1
102
RTVSPropertyOp3
 70
     1
102
RTVSPropertyOp4
 70
     1
102
RTVSPropertyOp5
 70
     1
102
RTVSPropertyOp6
 70
     1
102
RTVSPropertyOp7
 70
     1
102
RTVSPropertyOp8
 70
     1
102
RTVSPropertyOp9
 70
     1
102
RTVSPropertyOp10
 70
     1
102
RTVSPropertyOp11
 70
     1
102
RTVSPropertyOp12
 70
     1
102
RTVSPropertyOp13
 70
     1
102
RTVSPropertyOp14
 70
     1
102
RTVSPropertyOp15
 70
     1
102
RTVSPropertyOp16
 70
     1
102
RTVSPropertyOp17
 70
     1
102
RTVSPropertyOp18
 70
     1
102
RTVSPropertyOp19
 70
     1
102
RTVSPropertyOp20
 70
     1
102
RTVSPropertyOp21
 70
     1
102
RTVSPropertyOp22
 70
     1
102
RTVSPropertyOp23
 70
     1
102
RTVSPropertyOp24
 70
     1
102
RTVSPropertyOp25
 70
     1
102
RTVSPropertyOp26
 70
     1
102
RTVSPropertyOp27
 70
     1
102
RTVSPropertyOp28
 70
     1
102
RTVSPropertyOp29
 70
     1
102
RTVSPropertyOp30
 70
     1
102
RTVSPropertyOp31
 70
     1
102
RTVSPropertyOp32
 70
     1
102
RTVSPropertyOp33
 70
     1
102
RTVSPropertyOp34
 70
     1
102
RTVSPropertyOp35
 70
     1
102
RTVSPropertyOp36
 70
     1
102
RTVSPropertyOp37
 70
     1
102
RTVSPropertyOp38
 70
     1
102
RTVSPropertyOp39
 70
     1
102
RTVSPropertyOp40
 70
     1
102
RTVSPropertyOp41
 70
     1
102
RTVSPropertyOp42
 70
     1
102
RTVSPropertyOp43
 70
     1
102
RTVSPropertyOp44
 70
     1
102
RTVSPropertyOp45
 70
     1
102
RTVSPropertyOp46
 70
     1
102
RTVSPropertyOp47
 70
     1
102
RTVSPropertyOp48
 70
     1
102
RTVSPropertyOp49
 70
     1
102
RTVSPropertyOp50
 70
     1
102
RTVSPropertyOp51
 70
     0
102
RTVSPropertyOp52
 70
     0
102
RTVSPropertyOp53
 70
     1
102
RTVSPropertyOp54
 70
     1
102
RTVSPropertyOp55
 70
     1
102
RTVSPropertyOp56
 70
     1
102
RTVSPropertyOp57
 70
     1
102
RTVSPropertyOp58
 70
     1
102
RTVSPropertyOp59
 70
     1
102
RTVSPropertyOp60
 70
     1
102
RTVSPropertyOp61
 70
     1
102
RTVSPropertyOp62
 70
     1
  0
XRECORD
  5
11C7A
102
{ACAD_REACTORS
330
11C79
102
}
330
11C79
100
AcDbXrecord
280
     1
102
RTVSPost2010Prop28
280
     0
102
RTVSPost2010PropOp28
 70
     1
102
RTVSPost2010Prop29
280
     1
102
RTVSPost2010PropOp29
 70
     1
102
RTVSPost2010Prop30
280
     1
102
RTVSPost2010PropOp30
 70
     1
102
RTVSPost2010Prop31
280
     0
102
RTVSPost2010PropOp31
 70
     1
102
RTVSPost2010Prop32
280
     0
102
RTVSPost2010PropOp32
 70
     1
102
RTVSPost2010Prop33
280
     0
102
RTVSPost2010PropOp33
 70
     1
102
RTVSPost2010Prop34
280
     0
102
RTVSPost2010PropOp34
 70
     1
102
RTVSPost2010Prop35
280
     0
102
RTVSPost2010PropOp35
 70
     1
102
RTVSPost2010Prop36
280
     0
102
RTVSPost2010PropOp36
 70
     1
102
RTVSPost2010Prop37
 90
       50
102
RTVSPost2010PropOp37
 70
     1
102
RTVSPost2010Prop38
140
0.0
102
RTVSPost2010PropOp38
 70
     1
102
RTVSPost2010Prop39
140
1.0
102
RTVSPost2010PropOp39
 70
     1
102
RTVSPost2010Prop40
 90
        0
102
RTVSPost2010PropOp40
 70
     1
102
RTVSPost2010Prop41ColorIndex
 90
       18
102
RTVSPost2010Prop41ColorRGB
 90
        0
102
RTVSPost2010PropOp41
 70
     1
102
RTVSPost2010Prop42
 90
       50
102
RTVSPost2010PropOp42
 70
     1
102
RTVSPost2010Prop43
 90
        3
102
RTVSPost2010PropOp43
 70
     1
102
RTVSPost2010Prop44ColorIndex
 90
        5
102
RTVSPost2010Prop44ColorRGB
 90
      255
102
RTVSPost2010PropOp44
 70
     1
102
RTVSPost2010Prop45
280
     0
102
RTVSPost2010PropOp45
 70
     1
102
RTVSPost2010Prop46
 90
       50
102
RTVSPost2010PropOp46
 70
     1
102
RTVSPost2010Prop47
 90
       50
102
RTVSPost2010PropOp47
 70
     1
102
RTVSPost2010Prop48
 90
       50
102
RTVSPost2010PropOp48
 70
     1
102
RTVSPost2010Prop49
280
     0
102
RTVSPost2010PropOp49
 70
     1
102
RTVSPost2010Prop50
 90
       50
102
RTVSPost2010PropOp50
 70
     1
102
RTVSPost2010Prop51ColorIndex
 90
      256
102
RTVSPost2010Prop51ColorRGB
 90
-16777216
102
RTVSPost2010PropOp51
 70
     0
102
RTVSPost2010Prop52
140
1.0
102
RTVSPost2010PropOp52
 70
     0
102
RTVSPost2010Prop53
 90
        2
102
RTVSPost2010PropOp53
 70
     1
102
RTVSPost2010Prop54
  1
strokes_ogs.tif
102
RTVSPost2010PropOp54
 70
     1
102
RTVSPost2010Prop55
280
     0
102
RTVSPost2010PropOp55
 70
     1
102
RTVSPost2010Prop56
140
1.0
102
RTVSPost2010PropOp56
 70
     1
102
RTVSPost2010Prop57
140
1.0
102
RTVSPost2010PropOp57
 70
     1
102
RTVSPropertyOp0
 70
     1
102
RTVSPropertyOp1
 70
     1
102
RTVSPropertyOp2
 70
     1
102
RTVSPropertyOp3
 70
     1
102
RTVSPropertyOp4
 70
     1
102
RTVSPropertyOp5
 70
     1
102
RTVSPropertyOp6
 70
     1
102
RTVSPropertyOp7
 70
     1
102
RTVSPropertyOp8
 70
     1
102
RTVSPropertyOp9
 70
     1
102
RTVSPropertyOp10
 70
     1
102
RTVSPropertyOp11
 70
     1
102
RTVSPropertyOp12
 70
     1
102
RTVSPropertyOp13
 70
     1
102
RTVSPropertyOp14
 70
     1
102
RTVSPropertyOp15
 70
     1
102
RTVSPropertyOp16
 70
     1
102
RTVSPropertyOp17
 70
     1
102
RTVSPropertyOp18
 70
     1
102
RTVSPropertyOp19
 70
     1
102
RTVSPropertyOp20
 70
     1
102
RTVSPropertyOp21
 70
     1
102
RTVSPropertyOp22
 70
     1
102
RTVSPropertyOp23
 70
     1
102
RTVSPropertyOp24
 70
     1
102
RTVSPropertyOp25
 70
     1
102
RTVSPropertyOp26
 70
     1
102
RTVSPropertyOp27
 70
     1
102
RTVSPropertyOp28
 70
     1
102
RTVSPropertyOp29
 70
     1
102
RTVSPropertyOp30
 70
     1
102
RTVSPropertyOp31
 70
     1
102
RTVSPropertyOp32
 70
     1
102
RTVSPropertyOp33
 70
     1
102
RTVSPropertyOp34
 70
     1
102
RTVSPropertyOp35
 70
     1
102
RTVSPropertyOp36
 70
     1
102
RTVSPropertyOp37
 70
     1
102
RTVSPropertyOp38
 70
     1
102
RTVSPropertyOp39
 70
     1
102
RTVSPropertyOp40
 70
     1
102
RTVSPropertyOp41
 70
     1
102
RTVSPropertyOp42
 70
     1
102
RTVSPropertyOp43
 70
     1
102
RTVSPropertyOp44
 70
     1
102
RTVSPropertyOp45
 70
     1
102
RTVSPropertyOp46
 70
     1
102
RTVSPropertyOp47
 70
     1
102
RTVSPropertyOp48
 70
     1
102
RTVSPropertyOp49
 70
     1
102
RTVSPropertyOp50
 70
     1
102
RTVSPropertyOp51
 70
     0
102
RTVSPropertyOp52
 70
     0
102
RTVSPropertyOp53
 70
     1
102
RTVSPropertyOp54
 70
     1
102
RTVSPropertyOp55
 70
     1
102
RTVSPropertyOp56
 70
     1
102
RTVSPropertyOp57
 70
     1
102
RTVSPropertyOp58
 70
     1
102
RTVSPropertyOp59
 70
     1
102
RTVSPropertyOp60
 70
     1
102
RTVSPropertyOp61
 70
     1
102
RTVSPropertyOp62
 70
     1
  0
XRECORD
  5
11C6C
102
{ACAD_REACTORS
330
11C6B
102
}
330
11C6B
100
AcDbXrecord
280
     1
102
RTVSPost2010Prop28
280
     0
102
RTVSPost2010PropOp28
 70
     1
102
RTVSPost2010Prop29
280
     1
102
RTVSPost2010PropOp29
 70
     1
102
RTVSPost2010Prop30
280
     1
102
RTVSPost2010PropOp30
 70
     1
102
RTVSPost2010Prop31
280
     0
102
RTVSPost2010PropOp31
 70
     1
102
RTVSPost2010Prop32
280
     0
102
RTVSPost2010PropOp32
 70
     1
102
RTVSPost2010Prop33
280
     0
102
RTVSPost2010PropOp33
 70
     1
102
RTVSPost2010Prop34
280
     0
102
RTVSPost2010PropOp34
 70
     1
102
RTVSPost2010Prop35
280
     0
102
RTVSPost2010PropOp35
 70
     1
102
RTVSPost2010Prop36
280
     0
102
RTVSPost2010PropOp36
 70
     1
102
RTVSPost2010Prop37
 90
       50
102
RTVSPost2010PropOp37
 70
     1
102
RTVSPost2010Prop38
140
0.0
102
RTVSPost2010PropOp38
 70
     1
102
RTVSPost2010Prop39
140
1.0
102
RTVSPost2010PropOp39
 70
     1
102
RTVSPost2010Prop40
 90
        0
102
RTVSPost2010PropOp40
 70
     1
102
RTVSPost2010Prop41ColorIndex
 90
       18
102
RTVSPost2010Prop41ColorRGB
 90
        0
102
RTVSPost2010PropOp41
 70
     1
102
RTVSPost2010Prop42
 90
       50
102
RTVSPost2010PropOp42
 70
     1
102
RTVSPost2010Prop43
 90
        3
102
RTVSPost2010PropOp43
 70
     1
102
RTVSPost2010Prop44ColorIndex
 90
        5
102
RTVSPost2010Prop44ColorRGB
 90
      255
102
RTVSPost2010PropOp44
 70
     1
102
RTVSPost2010Prop45
280
     0
102
RTVSPost2010PropOp45
 70
     1
102
RTVSPost2010Prop46
 90
       50
102
RTVSPost2010PropOp46
 70
     1
102
RTVSPost2010Prop47
 90
       50
102
RTVSPost2010PropOp47
 70
     1
102
RTVSPost2010Prop48
 90
       50
102
RTVSPost2010PropOp48
 70
     1
102
RTVSPost2010Prop49
280
     0
102
RTVSPost2010PropOp49
 70
     1
102
RTVSPost2010Prop50
 90
       50
102
RTVSPost2010PropOp50
 70
     1
102
RTVSPost2010Prop51ColorIndex
 90
      256
102
RTVSPost2010Prop51ColorRGB
 90
-16777216
102
RTVSPost2010PropOp51
 70
     0
102
RTVSPost2010Prop52
140
1.0
102
RTVSPost2010PropOp52
 70
     0
102
RTVSPost2010Prop53
 90
        2
102
RTVSPost2010PropOp53
 70
     1
102
RTVSPost2010Prop54
  1
strokes_ogs.tif
102
RTVSPost2010PropOp54
 70
     1
102
RTVSPost2010Prop55
280
     0
102
RTVSPost2010PropOp55
 70
     1
102
RTVSPost2010Prop56
140
1.0
102
RTVSPost2010PropOp56
 70
     1
102
RTVSPost2010Prop57
140
1.0
102
RTVSPost2010PropOp57
 70
     1
102
RTVSPropertyOp0
 70
     1
102
RTVSPropertyOp1
 70
     1
102
RTVSPropertyOp2
 70
     1
102
RTVSPropertyOp3
 70
     1
102
RTVSPropertyOp4
 70
     1
102
RTVSPropertyOp5
 70
     1
102
RTVSPropertyOp6
 70
     1
102
RTVSPropertyOp7
 70
     1
102
RTVSPropertyOp8
 70
     1
102
RTVSPropertyOp9
 70
     1
102
RTVSPropertyOp10
 70
     1
102
RTVSPropertyOp11
 70
     1
102
RTVSPropertyOp12
 70
     1
102
RTVSPropertyOp13
 70
     1
102
RTVSPropertyOp14
 70
     1
102
RTVSPropertyOp15
 70
     1
102
RTVSPropertyOp16
 70
     1
102
RTVSPropertyOp17
 70
     1
102
RTVSPropertyOp18
 70
     1
102
RTVSPropertyOp19
 70
     1
102
RTVSPropertyOp20
 70
     1
102
RTVSPropertyOp21
 70
     1
102
RTVSPropertyOp22
 70
     1
102
RTVSPropertyOp23
 70
     1
102
RTVSPropertyOp24
 70
     1
102
RTVSPropertyOp25
 70
     1
102
RTVSPropertyOp26
 70
     1
102
RTVSPropertyOp27
 70
     1
102
RTVSPropertyOp28
 70
     1
102
RTVSPropertyOp29
 70
     1
102
RTVSPropertyOp30
 70
     1
102
RTVSPropertyOp31
 70
     1
102
RTVSPropertyOp32
 70
     1
102
RTVSPropertyOp33
 70
     1
102
RTVSPropertyOp34
 70
     1
102
RTVSPropertyOp35
 70
     1
102
RTVSPropertyOp36
 70
     1
102
RTVSPropertyOp37
 70
     1
102
RTVSPropertyOp38
 70
     1
102
RTVSPropertyOp39
 70
     1
102
RTVSPropertyOp40
 70
     1
102
RTVSPropertyOp41
 70
     1
102
RTVSPropertyOp42
 70
     1
102
RTVSPropertyOp43
 70
     1
102
RTVSPropertyOp44
 70
     1
102
RTVSPropertyOp45
 70
     1
102
RTVSPropertyOp46
 70
     1
102
RTVSPropertyOp47
 70
     1
102
RTVSPropertyOp48
 70
     1
102
RTVSPropertyOp49
 70
     1
102
RTVSPropertyOp50
 70
     1
102
RTVSPropertyOp51
 70
     0
102
RTVSPropertyOp52
 70
     0
102
RTVSPropertyOp53
 70
     1
102
RTVSPropertyOp54
 70
     1
102
RTVSPropertyOp55
 70
     1
102
RTVSPropertyOp56
 70
     1
102
RTVSPropertyOp57
 70
     1
102
RTVSPropertyOp58
 70
     1
102
RTVSPropertyOp59
 70
     1
102
RTVSPropertyOp60
 70
     1
102
RTVSPropertyOp61
 70
     1
102
RTVSPropertyOp62
 70
     1
  0
XRECORD
  5
11C70
102
{ACAD_REACTORS
330
11C6F
102
}
330
11C6F
100
AcDbXrecord
280
     1
102
RTVSPost2010Prop28
280
     0
102
RTVSPost2010PropOp28
 70
     1
102
RTVSPost2010Prop29
280
     1
102
RTVSPost2010PropOp29
 70
     1
102
RTVSPost2010Prop30
280
     1
102
RTVSPost2010PropOp30
 70
     1
102
RTVSPost2010Prop31
280
     0
102
RTVSPost2010PropOp31
 70
     1
102
RTVSPost2010Prop32
280
     0
102
RTVSPost2010PropOp32
 70
     1
102
RTVSPost2010Prop33
280
     0
102
RTVSPost2010PropOp33
 70
     1
102
RTVSPost2010Prop34
280
     0
102
RTVSPost2010PropOp34
 70
     1
102
RTVSPost2010Prop35
280
     0
102
RTVSPost2010PropOp35
 70
     1
102
RTVSPost2010Prop36
280
     0
102
RTVSPost2010PropOp36
 70
     1
102
RTVSPost2010Prop37
 90
       50
102
RTVSPost2010PropOp37
 70
     1
102
RTVSPost2010Prop38
140
0.0
102
RTVSPost2010PropOp38
 70
     1
102
RTVSPost2010Prop39
140
1.0
102
RTVSPost2010PropOp39
 70
     1
102
RTVSPost2010Prop40
 90
        0
102
RTVSPost2010PropOp40
 70
     1
102
RTVSPost2010Prop41ColorIndex
 90
       18
102
RTVSPost2010Prop41ColorRGB
 90
        0
102
RTVSPost2010PropOp41
 70
     1
102
RTVSPost2010Prop42
 90
       50
102
RTVSPost2010PropOp42
 70
     1
102
RTVSPost2010Prop43
 90
        3
102
RTVSPost2010PropOp43
 70
     1
102
RTVSPost2010Prop44ColorIndex
 90
        5
102
RTVSPost2010Prop44ColorRGB
 90
      255
102
RTVSPost2010PropOp44
 70
     1
102
RTVSPost2010Prop45
280
     0
102
RTVSPost2010PropOp45
 70
     1
102
RTVSPost2010Prop46
 90
       50
102
RTVSPost2010PropOp46
 70
     1
102
RTVSPost2010Prop47
 90
       50
102
RTVSPost2010PropOp47
 70
     1
102
RTVSPost2010Prop48
 90
       50
102
RTVSPost2010PropOp48
 70
     1
102
RTVSPost2010Prop49
280
     0
102
RTVSPost2010PropOp49
 70
     1
102
RTVSPost2010Prop50
 90
       50
102
RTVSPost2010PropOp50
 70
     1
102
RTVSPost2010Prop51ColorIndex
 90
      256
102
RTVSPost2010Prop51ColorRGB
 90
-16777216
102
RTVSPost2010PropOp51
 70
     0
102
RTVSPost2010Prop52
140
1.0
102
RTVSPost2010PropOp52
 70
     0
102
RTVSPost2010Prop53
 90
        2
102
RTVSPost2010PropOp53
 70
     1
102
RTVSPost2010Prop54
  1
strokes_ogs.tif
102
RTVSPost2010PropOp54
 70
     1
102
RTVSPost2010Prop55
280
     0
102
RTVSPost2010PropOp55
 70
     1
102
RTVSPost2010Prop56
140
1.0
102
RTVSPost2010PropOp56
 70
     1
102
RTVSPost2010Prop57
140
1.0
102
RTVSPost2010PropOp57
 70
     1
102
RTVSPropertyOp0
 70
     1
102
RTVSPropertyOp1
 70
     1
102
RTVSPropertyOp2
 70
     1
102
RTVSPropertyOp3
 70
     1
102
RTVSPropertyOp4
 70
     1
102
RTVSPropertyOp5
 70
     1
102
RTVSPropertyOp6
 70
     1
102
RTVSPropertyOp7
 70
     1
102
RTVSPropertyOp8
 70
     1
102
RTVSPropertyOp9
 70
     1
102
RTVSPropertyOp10
 70
     1
102
RTVSPropertyOp11
 70
     1
102
RTVSPropertyOp12
 70
     1
102
RTVSPropertyOp13
 70
     1
102
RTVSPropertyOp14
 70
     1
102
RTVSPropertyOp15
 70
     1
102
RTVSPropertyOp16
 70
     1
102
RTVSPropertyOp17
 70
     1
102
RTVSPropertyOp18
 70
     1
102
RTVSPropertyOp19
 70
     1
102
RTVSPropertyOp20
 70
     1
102
RTVSPropertyOp21
 70
     1
102
RTVSPropertyOp22
 70
     1
102
RTVSPropertyOp23
 70
     1
102
RTVSPropertyOp24
 70
     1
102
RTVSPropertyOp25
 70
     1
102
RTVSPropertyOp26
 70
     1
102
RTVSPropertyOp27
 70
     1
102
RTVSPropertyOp28
 70
     1
102
RTVSPropertyOp29
 70
     1
102
RTVSPropertyOp30
 70
     1
102
RTVSPropertyOp31
 70
     1
102
RTVSPropertyOp32
 70
     1
102
RTVSPropertyOp33
 70
     1
102
RTVSPropertyOp34
 70
     1
102
RTVSPropertyOp35
 70
     1
102
RTVSPropertyOp36
 70
     1
102
RTVSPropertyOp37
 70
     1
102
RTVSPropertyOp38
 70
     1
102
RTVSPropertyOp39
 70
     1
102
RTVSPropertyOp40
 70
     1
102
RTVSPropertyOp41
 70
     1
102
RTVSPropertyOp42
 70
     1
102
RTVSPropertyOp43
 70
     1
102
RTVSPropertyOp44
 70
     1
102
RTVSPropertyOp45
 70
     1
102
RTVSPropertyOp46
 70
     1
102
RTVSPropertyOp47
 70
     1
102
RTVSPropertyOp48
 70
     1
102
RTVSPropertyOp49
 70
     1
102
RTVSPropertyOp50
 70
     1
102
RTVSPropertyOp51
 70
     0
102
RTVSPropertyOp52
 70
     0
102
RTVSPropertyOp53
 70
     1
102
RTVSPropertyOp54
 70
     1
102
RTVSPropertyOp55
 70
     1
102
RTVSPropertyOp56
 70
     1
102
RTVSPropertyOp57
 70
     1
102
RTVSPropertyOp58
 70
     1
102
RTVSPropertyOp59
 70
     1
102
RTVSPropertyOp60
 70
     1
102
RTVSPropertyOp61
 70
     1
102
RTVSPropertyOp62
 70
     1
  0
XRECORD
  5
11C82
102
{ACAD_REACTORS
330
11C81
102
}
330
11C81
100
AcDbXrecord
280
     1
102
RTVSPost2010Prop28
280
     0
102
RTVSPost2010PropOp28
 70
     1
102
RTVSPost2010Prop29
280
     1
102
RTVSPost2010PropOp29
 70
     1
102
RTVSPost2010Prop30
280
     1
102
RTVSPost2010PropOp30
 70
     1
102
RTVSPost2010Prop31
280
     0
102
RTVSPost2010PropOp31
 70
     1
102
RTVSPost2010Prop32
280
     0
102
RTVSPost2010PropOp32
 70
     1
102
RTVSPost2010Prop33
280
     0
102
RTVSPost2010PropOp33
 70
     1
102
RTVSPost2010Prop34
280
     0
102
RTVSPost2010PropOp34
 70
     1
102
RTVSPost2010Prop35
280
     0
102
RTVSPost2010PropOp35
 70
     1
102
RTVSPost2010Prop36
280
     0
102
RTVSPost2010PropOp36
 70
     1
102
RTVSPost2010Prop37
 90
       50
102
RTVSPost2010PropOp37
 70
     1
102
RTVSPost2010Prop38
140
0.0
102
RTVSPost2010PropOp38
 70
     1
102
RTVSPost2010Prop39
140
1.0
102
RTVSPost2010PropOp39
 70
     1
102
RTVSPost2010Prop40
 90
        0
102
RTVSPost2010PropOp40
 70
     1
102
RTVSPost2010Prop41ColorIndex
 90
       18
102
RTVSPost2010Prop41ColorRGB
 90
        0
102
RTVSPost2010PropOp41
 70
     1
102
RTVSPost2010Prop42
 90
       50
102
RTVSPost2010PropOp42
 70
     1
102
RTVSPost2010Prop43
 90
        3
102
RTVSPost2010PropOp43
 70
     1
102
RTVSPost2010Prop44ColorIndex
 90
        5
102
RTVSPost2010Prop44ColorRGB
 90
      255
102
RTVSPost2010PropOp44
 70
     1
102
RTVSPost2010Prop45
280
     0
102
RTVSPost2010PropOp45
 70
     1
102
RTVSPost2010Prop46
 90
       50
102
RTVSPost2010PropOp46
 70
     1
102
RTVSPost2010Prop47
 90
       50
102
RTVSPost2010PropOp47
 70
     1
102
RTVSPost2010Prop48
 90
       50
102
RTVSPost2010PropOp48
 70
     1
102
RTVSPost2010Prop49
280
     0
102
RTVSPost2010PropOp49
 70
     1
102
RTVSPost2010Prop50
 90
       50
102
RTVSPost2010PropOp50
 70
     1
102
RTVSPost2010Prop51ColorIndex
 90
      256
102
RTVSPost2010Prop51ColorRGB
 90
-16777216
102
RTVSPost2010PropOp51
 70
     0
102
RTVSPost2010Prop52
140
1.0
102
RTVSPost2010PropOp52
 70
     0
102
RTVSPost2010Prop53
 90
        2
102
RTVSPost2010PropOp53
 70
     1
102
RTVSPost2010Prop54
  1
strokes_ogs.tif
102
RTVSPost2010PropOp54
 70
     1
102
RTVSPost2010Prop55
280
     0
102
RTVSPost2010PropOp55
 70
     1
102
RTVSPost2010Prop56
140
1.0
102
RTVSPost2010PropOp56
 70
     1
102
RTVSPost2010Prop57
140
1.0
102
RTVSPost2010PropOp57
 70
     1
102
RTVSPropertyOp0
 70
     0
102
RTVSPropertyOp1
 70
     0
102
RTVSPropertyOp2
 70
     0
102
RTVSPropertyOp3
 70
     0
102
RTVSPropertyOp4
 70
     0
102
RTVSPropertyOp5
 70
     0
102
RTVSPropertyOp6
 70
     0
102
RTVSPropertyOp7
 70
     0
102
RTVSPropertyOp8
 70
     0
102
RTVSPropertyOp9
 70
     0
102
RTVSPropertyOp10
 70
     0
102
RTVSPropertyOp11
 70
     0
102
RTVSPropertyOp12
 70
     0
102
RTVSPropertyOp13
 70
     0
102
RTVSPropertyOp14
 70
     2
102
RTVSPropertyOp15
 70
     0
102
RTVSPropertyOp16
 70
     0
102
RTVSPropertyOp17
 70
     0
102
RTVSPropertyOp18
 70
     0
102
RTVSPropertyOp19
 70
     0
102
RTVSPropertyOp20
 70
     0
102
RTVSPropertyOp21
 70
     0
102
RTVSPropertyOp22
 70
     0
102
RTVSPropertyOp23
 70
     0
102
RTVSPropertyOp24
 70
     0
102
RTVSPropertyOp25
 70
     0
102
RTVSPropertyOp26
 70
     0
102
RTVSPropertyOp27
 70
     0
102
RTVSPropertyOp28
 70
     1
102
RTVSPropertyOp29
 70
     1
102
RTVSPropertyOp30
 70
     1
102
RTVSPropertyOp31
 70
     1
102
RTVSPropertyOp32
 70
     1
102
RTVSPropertyOp33
 70
     1
102
RTVSPropertyOp34
 70
     1
102
RTVSPropertyOp35
 70
     1
102
RTVSPropertyOp36
 70
     1
102
RTVSPropertyOp37
 70
     1
102
RTVSPropertyOp38
 70
     1
102
RTVSPropertyOp39
 70
     1
102
RTVSPropertyOp40
 70
     1
102
RTVSPropertyOp41
 70
     1
102
RTVSPropertyOp42
 70
     1
102
RTVSPropertyOp43
 70
     1
102
RTVSPropertyOp44
 70
     1
102
RTVSPropertyOp45
 70
     1
102
RTVSPropertyOp46
 70
     1
102
RTVSPropertyOp47
 70
     1
102
RTVSPropertyOp48
 70
     1
102
RTVSPropertyOp49
 70
     1
102
RTVSPropertyOp50
 70
     1
102
RTVSPropertyOp51
 70
     0
102
RTVSPropertyOp52
 70
     0
102
RTVSPropertyOp53
 70
     1
102
RTVSPropertyOp54
 70
     1
102
RTVSPropertyOp55
 70
     1
102
RTVSPropertyOp56
 70
     1
102
RTVSPropertyOp57
 70
     1
102
RTVSPropertyOp58
 70
     1
102
RTVSPropertyOp59
 70
     1
102
RTVSPropertyOp60
 70
     1
102
RTVSPropertyOp61
 70
     1
102
RTVSPropertyOp62
 70
     1
  0
XRECORD
  5
11C78
102
{ACAD_REACTORS
330
11C77
102
}
330
11C77
100
AcDbXrecord
280
     1
102
RTVSPost2010Prop28
280
     0
102
RTVSPost2010PropOp28
 70
     1
102
RTVSPost2010Prop29
280
     1
102
RTVSPost2010PropOp29
 70
     1
102
RTVSPost2010Prop30
280
     1
102
RTVSPost2010PropOp30
 70
     1
102
RTVSPost2010Prop31
280
     0
102
RTVSPost2010PropOp31
 70
     1
102
RTVSPost2010Prop32
280
     0
102
RTVSPost2010PropOp32
 70
     1
102
RTVSPost2010Prop33
280
     0
102
RTVSPost2010PropOp33
 70
     1
102
RTVSPost2010Prop34
280
     0
102
RTVSPost2010PropOp34
 70
     1
102
RTVSPost2010Prop35
280
     0
102
RTVSPost2010PropOp35
 70
     1
102
RTVSPost2010Prop36
280
     0
102
RTVSPost2010PropOp36
 70
     1
102
RTVSPost2010Prop37
 90
       50
102
RTVSPost2010PropOp37
 70
     1
102
RTVSPost2010Prop38
140
0.0
102
RTVSPost2010PropOp38
 70
     1
102
RTVSPost2010Prop39
140
1.0
102
RTVSPost2010PropOp39
 70
     1
102
RTVSPost2010Prop40
 90
        0
102
RTVSPost2010PropOp40
 70
     1
102
RTVSPost2010Prop41ColorIndex
 90
       18
102
RTVSPost2010Prop41ColorRGB
 90
        0
102
RTVSPost2010PropOp41
 70
     1
102
RTVSPost2010Prop42
 90
       50
102
RTVSPost2010PropOp42
 70
     1
102
RTVSPost2010Prop43
 90
        3
102
RTVSPost2010PropOp43
 70
     1
102
RTVSPost2010Prop44ColorIndex
 90
        5
102
RTVSPost2010Prop44ColorRGB
 90
      255
102
RTVSPost2010PropOp44
 70
     1
102
RTVSPost2010Prop45
280
     0
102
RTVSPost2010PropOp45
 70
     1
102
RTVSPost2010Prop46
 90
       50
102
RTVSPost2010PropOp46
 70
     1
102
RTVSPost2010Prop47
 90
       50
102
RTVSPost2010PropOp47
 70
     1
102
RTVSPost2010Prop48
 90
       50
102
RTVSPost2010PropOp48
 70
     1
102
RTVSPost2010Prop49
280
     0
102
RTVSPost2010PropOp49
 70
     1
102
RTVSPost2010Prop50
 90
       50
102
RTVSPost2010PropOp50
 70
     1
102
RTVSPost2010Prop51ColorIndex
 90
      256
102
RTVSPost2010Prop51ColorRGB
 90
-16777216
102
RTVSPost2010PropOp51
 70
     0
102
RTVSPost2010Prop52
140
1.0
102
RTVSPost2010PropOp52
 70
     0
102
RTVSPost2010Prop53
 90
        2
102
RTVSPost2010PropOp53
 70
     1
102
RTVSPost2010Prop54
  1
strokes_ogs.tif
102
RTVSPost2010PropOp54
 70
     1
102
RTVSPost2010Prop55
280
     0
102
RTVSPost2010PropOp55
 70
     1
102
RTVSPost2010Prop56
140
1.0
102
RTVSPost2010PropOp56
 70
     1
102
RTVSPost2010Prop57
140
1.0
102
RTVSPost2010PropOp57
 70
     1
102
RTVSPropertyOp0
 70
     1
102
RTVSPropertyOp1
 70
     1
102
RTVSPropertyOp2
 70
     1
102
RTVSPropertyOp3
 70
     1
102
RTVSPropertyOp4
 70
     1
102
RTVSPropertyOp5
 70
     1
102
RTVSPropertyOp6
 70
     1
102
RTVSPropertyOp7
 70
     1
102
RTVSPropertyOp8
 70
     1
102
RTVSPropertyOp9
 70
     1
102
RTVSPropertyOp10
 70
     1
102
RTVSPropertyOp11
 70
     1
102
RTVSPropertyOp12
 70
     1
102
RTVSPropertyOp13
 70
     1
102
RTVSPropertyOp14
 70
     1
102
RTVSPropertyOp15
 70
     1
102
RTVSPropertyOp16
 70
     1
102
RTVSPropertyOp17
 70
     1
102
RTVSPropertyOp18
 70
     1
102
RTVSPropertyOp19
 70
     1
102
RTVSPropertyOp20
 70
     1
102
RTVSPropertyOp21
 70
     1
102
RTVSPropertyOp22
 70
     1
102
RTVSPropertyOp23
 70
     1
102
RTVSPropertyOp24
 70
     1
102
RTVSPropertyOp25
 70
     1
102
RTVSPropertyOp26
 70
     1
102
RTVSPropertyOp27
 70
     1
102
RTVSPropertyOp28
 70
     1
102
RTVSPropertyOp29
 70
     1
102
RTVSPropertyOp30
 70
     1
102
RTVSPropertyOp31
 70
     1
102
RTVSPropertyOp32
 70
     1
102
RTVSPropertyOp33
 70
     1
102
RTVSPropertyOp34
 70
     1
102
RTVSPropertyOp35
 70
     1
102
RTVSPropertyOp36
 70
     1
102
RTVSPropertyOp37
 70
     1
102
RTVSPropertyOp38
 70
     1
102
RTVSPropertyOp39
 70
     1
102
RTVSPropertyOp40
 70
     1
102
RTVSPropertyOp41
 70
     1
102
RTVSPropertyOp42
 70
     1
102
RTVSPropertyOp43
 70
     1
102
RTVSPropertyOp44
 70
     1
102
RTVSPropertyOp45
 70
     1
102
RTVSPropertyOp46
 70
     1
102
RTVSPropertyOp47
 70
     1
102
RTVSPropertyOp48
 70
     1
102
RTVSPropertyOp49
 70
     1
102
RTVSPropertyOp50
 70
     1
102
RTVSPropertyOp51
 70
     0
102
RTVSPropertyOp52
 70
     0
102
RTVSPropertyOp53
 70
     1
102
RTVSPropertyOp54
 70
     1
102
RTVSPropertyOp55
 70
     1
102
RTVSPropertyOp56
 70
     1
102
RTVSPropertyOp57
 70
     1
102
RTVSPropertyOp58
 70
     1
102
RTVSPropertyOp59
 70
     1
102
RTVSPropertyOp60
 70
     1
102
RTVSPropertyOp61
 70
     1
102
RTVSPropertyOp62
 70
     1
  0
XRECORD
  5
11C5C
102
{ACAD_REACTORS
330
11C5B
102
}
330
11C5B
100
AcDbXrecord
280
     1
102
RTVSPost2010Prop28
280
     0
102
RTVSPost2010PropOp28
 70
     1
102
RTVSPost2010Prop29
280
     1
102
RTVSPost2010PropOp29
 70
     1
102
RTVSPost2010Prop30
280
     1
102
RTVSPost2010PropOp30
 70
     1
102
RTVSPost2010Prop31
280
     0
102
RTVSPost2010PropOp31
 70
     1
102
RTVSPost2010Prop32
280
     0
102
RTVSPost2010PropOp32
 70
     1
102
RTVSPost2010Prop33
280
     0
102
RTVSPost2010PropOp33
 70
     1
102
RTVSPost2010Prop34
280
     0
102
RTVSPost2010PropOp34
 70
     1
102
RTVSPost2010Prop35
280
     0
102
RTVSPost2010PropOp35
 70
     1
102
RTVSPost2010Prop36
280
     0
102
RTVSPost2010PropOp36
 70
     1
102
RTVSPost2010Prop37
 90
       50
102
RTVSPost2010PropOp37
 70
     1
102
RTVSPost2010Prop38
140
0.0
102
RTVSPost2010PropOp38
 70
     1
102
RTVSPost2010Prop39
140
1.0
102
RTVSPost2010PropOp39
 70
     1
102
RTVSPost2010Prop40
 90
        0
102
RTVSPost2010PropOp40
 70
     1
102
RTVSPost2010Prop41ColorIndex
 90
       18
102
RTVSPost2010Prop41ColorRGB
 90
        0
102
RTVSPost2010PropOp41
 70
     1
102
RTVSPost2010Prop42
 90
       50
102
RTVSPost2010PropOp42
 70
     1
102
RTVSPost2010Prop43
 90
        3
102
RTVSPost2010PropOp43
 70
     1
102
RTVSPost2010Prop44ColorIndex
 90
        5
102
RTVSPost2010Prop44ColorRGB
 90
      255
102
RTVSPost2010PropOp44
 70
     1
102
RTVSPost2010Prop45
280
     0
102
RTVSPost2010PropOp45
 70
     1
102
RTVSPost2010Prop46
 90
       50
102
RTVSPost2010PropOp46
 70
     1
102
RTVSPost2010Prop47
 90
       50
102
RTVSPost2010PropOp47
 70
     1
102
RTVSPost2010Prop48
 90
       50
102
RTVSPost2010PropOp48
 70
     1
102
RTVSPost2010Prop49
280
     0
102
RTVSPost2010PropOp49
 70
     1
102
RTVSPost2010Prop50
 90
       50
102
RTVSPost2010PropOp50
 70
     1
102
RTVSPost2010Prop51ColorIndex
 90
      256
102
RTVSPost2010Prop51ColorRGB
 90
-16777216
102
RTVSPost2010PropOp51
 70
     0
102
RTVSPost2010Prop52
140
1.0
102
RTVSPost2010PropOp52
 70
     0
102
RTVSPost2010Prop53
 90
        2
102
RTVSPost2010PropOp53
 70
     1
102
RTVSPost2010Prop54
  1
strokes_ogs.tif
102
RTVSPost2010PropOp54
 70
     1
102
RTVSPost2010Prop55
280
     0
102
RTVSPost2010PropOp55
 70
     1
102
RTVSPost2010Prop56
140
1.0
102
RTVSPost2010PropOp56
 70
     1
102
RTVSPost2010Prop57
140
1.0
102
RTVSPost2010PropOp57
 70
     1
102
RTVSPropertyOp0
 70
     1
102
RTVSPropertyOp1
 70
     1
102
RTVSPropertyOp2
 70
     1
102
RTVSPropertyOp3
 70
     1
102
RTVSPropertyOp4
 70
     1
102
RTVSPropertyOp5
 70
     1
102
RTVSPropertyOp6
 70
     1
102
RTVSPropertyOp7
 70
     1
102
RTVSPropertyOp8
 70
     1
102
RTVSPropertyOp9
 70
     1
102
RTVSPropertyOp10
 70
     1
102
RTVSPropertyOp11
 70
     1
102
RTVSPropertyOp12
 70
     1
102
RTVSPropertyOp13
 70
     1
102
RTVSPropertyOp14
 70
     1
102
RTVSPropertyOp15
 70
     1
102
RTVSPropertyOp16
 70
     1
102
RTVSPropertyOp17
 70
     1
102
RTVSPropertyOp18
 70
     1
102
RTVSPropertyOp19
 70
     1
102
RTVSPropertyOp20
 70
     1
102
RTVSPropertyOp21
 70
     1
102
RTVSPropertyOp22
 70
     1
102
RTVSPropertyOp23
 70
     1
102
RTVSPropertyOp24
 70
     1
102
RTVSPropertyOp25
 70
     1
102
RTVSPropertyOp26
 70
     1
102
RTVSPropertyOp27
 70
     1
102
RTVSPropertyOp28
 70
     1
102
RTVSPropertyOp29
 70
     1
102
RTVSPropertyOp30
 70
     1
102
RTVSPropertyOp31
 70
     1
102
RTVSPropertyOp32
 70
     1
102
RTVSPropertyOp33
 70
     1
102
RTVSPropertyOp34
 70
     1
102
RTVSPropertyOp35
 70
     1
102
RTVSPropertyOp36
 70
     1
102
RTVSPropertyOp37
 70
     1
102
RTVSPropertyOp38
 70
     1
102
RTVSPropertyOp39
 70
     1
102
RTVSPropertyOp40
 70
     1
102
RTVSPropertyOp41
 70
     1
102
RTVSPropertyOp42
 70
     1
102
RTVSPropertyOp43
 70
     1
102
RTVSPropertyOp44
 70
     1
102
RTVSPropertyOp45
 70
     1
102
RTVSPropertyOp46
 70
     1
102
RTVSPropertyOp47
 70
     1
102
RTVSPropertyOp48
 70
     1
102
RTVSPropertyOp49
 70
     1
102
RTVSPropertyOp50
 70
     1
102
RTVSPropertyOp51
 70
     0
102
RTVSPropertyOp52
 70
     0
102
RTVSPropertyOp53
 70
     1
102
RTVSPropertyOp54
 70
     1
102
RTVSPropertyOp55
 70
     1
102
RTVSPropertyOp56
 70
     1
102
RTVSPropertyOp57
 70
     1
102
RTVSPropertyOp58
 70
     1
102
RTVSPropertyOp59
 70
     1
102
RTVSPropertyOp60
 70
     1
102
RTVSPropertyOp61
 70
     1
102
RTVSPropertyOp62
 70
     1
  0
XRECORD
  5
11C5E
102
{ACAD_REACTORS
330
11C5D
102
}
330
11C5D
100
AcDbXrecord
280
     1
102
RTVSPost2010Prop28
280
     0
102
RTVSPost2010PropOp28
 70
     1
102
RTVSPost2010Prop29
280
     1
102
RTVSPost2010PropOp29
 70
     1
102
RTVSPost2010Prop30
280
     1
102
RTVSPost2010PropOp30
 70
     1
102
RTVSPost2010Prop31
280
     0
102
RTVSPost2010PropOp31
 70
     1
102
RTVSPost2010Prop32
280
     0
102
RTVSPost2010PropOp32
 70
     1
102
RTVSPost2010Prop33
280
     0
102
RTVSPost2010PropOp33
 70
     1
102
RTVSPost2010Prop34
280
     0
102
RTVSPost2010PropOp34
 70
     1
102
RTVSPost2010Prop35
280
     0
102
RTVSPost2010PropOp35
 70
     1
102
RTVSPost2010Prop36
280
     0
102
RTVSPost2010PropOp36
 70
     1
102
RTVSPost2010Prop37
 90
       50
102
RTVSPost2010PropOp37
 70
     1
102
RTVSPost2010Prop38
140
0.0
102
RTVSPost2010PropOp38
 70
     1
102
RTVSPost2010Prop39
140
1.0
102
RTVSPost2010PropOp39
 70
     1
102
RTVSPost2010Prop40
 90
        0
102
RTVSPost2010PropOp40
 70
     1
102
RTVSPost2010Prop41ColorIndex
 90
       18
102
RTVSPost2010Prop41ColorRGB
 90
        0
102
RTVSPost2010PropOp41
 70
     1
102
RTVSPost2010Prop42
 90
       50
102
RTVSPost2010PropOp42
 70
     1
102
RTVSPost2010Prop43
 90
        3
102
RTVSPost2010PropOp43
 70
     1
102
RTVSPost2010Prop44ColorIndex
 90
        5
102
RTVSPost2010Prop44ColorRGB
 90
      255
102
RTVSPost2010PropOp44
 70
     1
102
RTVSPost2010Prop45
280
     0
102
RTVSPost2010PropOp45
 70
     1
102
RTVSPost2010Prop46
 90
       50
102
RTVSPost2010PropOp46
 70
     1
102
RTVSPost2010Prop47
 90
       50
102
RTVSPost2010PropOp47
 70
     1
102
RTVSPost2010Prop48
 90
       50
102
RTVSPost2010PropOp48
 70
     1
102
RTVSPost2010Prop49
280
     0
102
RTVSPost2010PropOp49
 70
     1
102
RTVSPost2010Prop50
 90
       50
102
RTVSPost2010PropOp50
 70
     1
102
RTVSPost2010Prop51ColorIndex
 90
      256
102
RTVSPost2010Prop51ColorRGB
 90
-16777216
102
RTVSPost2010PropOp51
 70
     0
102
RTVSPost2010Prop52
140
1.0
102
RTVSPost2010PropOp52
 70
     0
102
RTVSPost2010Prop53
 90
        2
102
RTVSPost2010PropOp53
 70
     1
102
RTVSPost2010Prop54
  1
strokes_ogs.tif
102
RTVSPost2010PropOp54
 70
     1
102
RTVSPost2010Prop55
280
     0
102
RTVSPost2010PropOp55
 70
     1
102
RTVSPost2010Prop56
140
1.0
102
RTVSPost2010PropOp56
 70
     1
102
RTVSPost2010Prop57
140
1.0
102
RTVSPost2010PropOp57
 70
     1
102
RTVSPropertyOp0
 70
     1
102
RTVSPropertyOp1
 70
     1
102
RTVSPropertyOp2
 70
     1
102
RTVSPropertyOp3
 70
     1
102
RTVSPropertyOp4
 70
     1
102
RTVSPropertyOp5
 70
     1
102
RTVSPropertyOp6
 70
     1
102
RTVSPropertyOp7
 70
     1
102
RTVSPropertyOp8
 70
     1
102
RTVSPropertyOp9
 70
     1
102
RTVSPropertyOp10
 70
     1
102
RTVSPropertyOp11
 70
     1
102
RTVSPropertyOp12
 70
     1
102
RTVSPropertyOp13
 70
     1
102
RTVSPropertyOp14
 70
     1
102
RTVSPropertyOp15
 70
     1
102
RTVSPropertyOp16
 70
     1
102
RTVSPropertyOp17
 70
     1
102
RTVSPropertyOp18
 70
     1
102
RTVSPropertyOp19
 70
     1
102
RTVSPropertyOp20
 70
     1
102
RTVSPropertyOp21
 70
     1
102
RTVSPropertyOp22
 70
     1
102
RTVSPropertyOp23
 70
     1
102
RTVSPropertyOp24
 70
     1
102
RTVSPropertyOp25
 70
     1
102
RTVSPropertyOp26
 70
     1
102
RTVSPropertyOp27
 70
     1
102
RTVSPropertyOp28
 70
     1
102
RTVSPropertyOp29
 70
     1
102
RTVSPropertyOp30
 70
     1
102
RTVSPropertyOp31
 70
     1
102
RTVSPropertyOp32
 70
     1
102
RTVSPropertyOp33
 70
     1
102
RTVSPropertyOp34
 70
     1
102
RTVSPropertyOp35
 70
     1
102
RTVSPropertyOp36
 70
     1
102
RTVSPropertyOp37
 70
     1
102
RTVSPropertyOp38
 70
     1
102
RTVSPropertyOp39
 70
     1
102
RTVSPropertyOp40
 70
     1
102
RTVSPropertyOp41
 70
     1
102
RTVSPropertyOp42
 70
     1
102
RTVSPropertyOp43
 70
     1
102
RTVSPropertyOp44
 70
     1
102
RTVSPropertyOp45
 70
     1
102
RTVSPropertyOp46
 70
     1
102
RTVSPropertyOp47
 70
     1
102
RTVSPropertyOp48
 70
     1
102
RTVSPropertyOp49
 70
     1
102
RTVSPropertyOp50
 70
     1
102
RTVSPropertyOp51
 70
     0
102
RTVSPropertyOp52
 70
     0
102
RTVSPropertyOp53
 70
     1
102
RTVSPropertyOp54
 70
     1
102
RTVSPropertyOp55
 70
     1
102
RTVSPropertyOp56
 70
     1
102
RTVSPropertyOp57
 70
     1
102
RTVSPropertyOp58
 70
     1
102
RTVSPropertyOp59
 70
     1
102
RTVSPropertyOp60
 70
     1
102
RTVSPropertyOp61
 70
     1
102
RTVSPropertyOp62
 70
     1
  0
XRECORD
  5
11C60
102
{ACAD_REACTORS
330
11C5F
102
}
330
11C5F
100
AcDbXrecord
280
     1
102
RTVSPost2010Prop28
280
     0
102
RTVSPost2010PropOp28
 70
     1
102
RTVSPost2010Prop29
280
     1
102
RTVSPost2010PropOp29
 70
     1
102
RTVSPost2010Prop30
280
     1
102
RTVSPost2010PropOp30
 70
     1
102
RTVSPost2010Prop31
280
     0
102
RTVSPost2010PropOp31
 70
     1
102
RTVSPost2010Prop32
280
     0
102
RTVSPost2010PropOp32
 70
     1
102
RTVSPost2010Prop33
280
     0
102
RTVSPost2010PropOp33
 70
     1
102
RTVSPost2010Prop34
280
     0
102
RTVSPost2010PropOp34
 70
     1
102
RTVSPost2010Prop35
280
     0
102
RTVSPost2010PropOp35
 70
     1
102
RTVSPost2010Prop36
280
     0
102
RTVSPost2010PropOp36
 70
     1
102
RTVSPost2010Prop37
 90
       50
102
RTVSPost2010PropOp37
 70
     1
102
RTVSPost2010Prop38
140
0.0
102
RTVSPost2010PropOp38
 70
     1
102
RTVSPost2010Prop39
140
1.0
102
RTVSPost2010PropOp39
 70
     1
102
RTVSPost2010Prop40
 90
        0
102
RTVSPost2010PropOp40
 70
     1
102
RTVSPost2010Prop41ColorIndex
 90
       18
102
RTVSPost2010Prop41ColorRGB
 90
        0
102
RTVSPost2010PropOp41
 70
     1
102
RTVSPost2010Prop42
 90
       50
102
RTVSPost2010PropOp42
 70
     1
102
RTVSPost2010Prop43
 90
        3
102
RTVSPost2010PropOp43
 70
     1
102
RTVSPost2010Prop44ColorIndex
 90
        5
102
RTVSPost2010Prop44ColorRGB
 90
      255
102
RTVSPost2010PropOp44
 70
     1
102
RTVSPost2010Prop45
280
     0
102
RTVSPost2010PropOp45
 70
     1
102
RTVSPost2010Prop46
 90
       50
102
RTVSPost2010PropOp46
 70
     1
102
RTVSPost2010Prop47
 90
       50
102
RTVSPost2010PropOp47
 70
     1
102
RTVSPost2010Prop48
 90
       50
102
RTVSPost2010PropOp48
 70
     1
102
RTVSPost2010Prop49
280
     0
102
RTVSPost2010PropOp49
 70
     1
102
RTVSPost2010Prop50
 90
       50
102
RTVSPost2010PropOp50
 70
     1
102
RTVSPost2010Prop51ColorIndex
 90
      256
102
RTVSPost2010Prop51ColorRGB
 90
-16777216
102
RTVSPost2010PropOp51
 70
     0
102
RTVSPost2010Prop52
140
1.0
102
RTVSPost2010PropOp52
 70
     0
102
RTVSPost2010Prop53
 90
        2
102
RTVSPost2010PropOp53
 70
     1
102
RTVSPost2010Prop54
  1
strokes_ogs.tif
102
RTVSPost2010PropOp54
 70
     1
102
RTVSPost2010Prop55
280
     0
102
RTVSPost2010PropOp55
 70
     1
102
RTVSPost2010Prop56
140
1.0
102
RTVSPost2010PropOp56
 70
     1
102
RTVSPost2010Prop57
140
1.0
102
RTVSPost2010PropOp57
 70
     1
102
RTVSPropertyOp0
 70
     1
102
RTVSPropertyOp1
 70
     1
102
RTVSPropertyOp2
 70
     1
102
RTVSPropertyOp3
 70
     1
102
RTVSPropertyOp4
 70
     1
102
RTVSPropertyOp5
 70
     1
102
RTVSPropertyOp6
 70
     1
102
RTVSPropertyOp7
 70
     1
102
RTVSPropertyOp8
 70
     1
102
RTVSPropertyOp9
 70
     1
102
RTVSPropertyOp10
 70
     1
102
RTVSPropertyOp11
 70
     1
102
RTVSPropertyOp12
 70
     1
102
RTVSPropertyOp13
 70
     1
102
RTVSPropertyOp14
 70
     1
102
RTVSPropertyOp15
 70
     1
102
RTVSPropertyOp16
 70
     1
102
RTVSPropertyOp17
 70
     1
102
RTVSPropertyOp18
 70
     1
102
RTVSPropertyOp19
 70
     1
102
RTVSPropertyOp20
 70
     1
102
RTVSPropertyOp21
 70
     1
102
RTVSPropertyOp22
 70
     1
102
RTVSPropertyOp23
 70
     1
102
RTVSPropertyOp24
 70
     1
102
RTVSPropertyOp25
 70
     1
102
RTVSPropertyOp26
 70
     1
102
RTVSPropertyOp27
 70
     1
102
RTVSPropertyOp28
 70
     1
102
RTVSPropertyOp29
 70
     1
102
RTVSPropertyOp30
 70
     1
102
RTVSPropertyOp31
 70
     1
102
RTVSPropertyOp32
 70
     1
102
RTVSPropertyOp33
 70
     1
102
RTVSPropertyOp34
 70
     1
102
RTVSPropertyOp35
 70
     1
102
RTVSPropertyOp36
 70
     1
102
RTVSPropertyOp37
 70
     1
102
RTVSPropertyOp38
 70
     1
102
RTVSPropertyOp39
 70
     1
102
RTVSPropertyOp40
 70
     1
102
RTVSPropertyOp41
 70
     1
102
RTVSPropertyOp42
 70
     1
102
RTVSPropertyOp43
 70
     1
102
RTVSPropertyOp44
 70
     1
102
RTVSPropertyOp45
 70
     1
102
RTVSPropertyOp46
 70
     1
102
RTVSPropertyOp47
 70
     1
102
RTVSPropertyOp48
 70
     1
102
RTVSPropertyOp49
 70
     1
102
RTVSPropertyOp50
 70
     1
102
RTVSPropertyOp51
 70
     0
102
RTVSPropertyOp52
 70
     0
102
RTVSPropertyOp53
 70
     1
102
RTVSPropertyOp54
 70
     1
102
RTVSPropertyOp55
 70
     1
102
RTVSPropertyOp56
 70
     1
102
RTVSPropertyOp57
 70
     1
102
RTVSPropertyOp58
 70
     1
102
RTVSPropertyOp59
 70
     1
102
RTVSPropertyOp60
 70
     1
102
RTVSPropertyOp61
 70
     1
102
RTVSPropertyOp62
 70
     1
  0
XRECORD
  5
11C62
102
{ACAD_REACTORS
330
11C61
102
}
330
11C61
100
AcDbXrecord
280
     1
102
RTVSPost2010Prop28
280
     0
102
RTVSPost2010PropOp28
 70
     1
102
RTVSPost2010Prop29
280
     1
102
RTVSPost2010PropOp29
 70
     1
102
RTVSPost2010Prop30
280
     1
102
RTVSPost2010PropOp30
 70
     1
102
RTVSPost2010Prop31
280
     0
102
RTVSPost2010PropOp31
 70
     1
102
RTVSPost2010Prop32
280
     0
102
RTVSPost2010PropOp32
 70
     1
102
RTVSPost2010Prop33
280
     0
102
RTVSPost2010PropOp33
 70
     1
102
RTVSPost2010Prop34
280
     0
102
RTVSPost2010PropOp34
 70
     1
102
RTVSPost2010Prop35
280
     0
102
RTVSPost2010PropOp35
 70
     1
102
RTVSPost2010Prop36
280
     0
102
RTVSPost2010PropOp36
 70
     1
102
RTVSPost2010Prop37
 90
       50
102
RTVSPost2010PropOp37
 70
     1
102
RTVSPost2010Prop38
140
0.0
102
RTVSPost2010PropOp38
 70
     1
102
RTVSPost2010Prop39
140
1.0
102
RTVSPost2010PropOp39
 70
     1
102
RTVSPost2010Prop40
 90
        0
102
RTVSPost2010PropOp40
 70
     1
102
RTVSPost2010Prop41ColorIndex
 90
       18
102
RTVSPost2010Prop41ColorRGB
 90
        0
102
RTVSPost2010PropOp41
 70
     1
102
RTVSPost2010Prop42
 90
       50
102
RTVSPost2010PropOp42
 70
     1
102
RTVSPost2010Prop43
 90
        3
102
RTVSPost2010PropOp43
 70
     1
102
RTVSPost2010Prop44ColorIndex
 90
        5
102
RTVSPost2010Prop44ColorRGB
 90
      255
102
RTVSPost2010PropOp44
 70
     1
102
RTVSPost2010Prop45
280
     0
102
RTVSPost2010PropOp45
 70
     1
102
RTVSPost2010Prop46
 90
       50
102
RTVSPost2010PropOp46
 70
     1
102
RTVSPost2010Prop47
 90
       50
102
RTVSPost2010PropOp47
 70
     1
102
RTVSPost2010Prop48
 90
       50
102
RTVSPost2010PropOp48
 70
     1
102
RTVSPost2010Prop49
280
     0
102
RTVSPost2010PropOp49
 70
     1
102
RTVSPost2010Prop50
 90
       50
102
RTVSPost2010PropOp50
 70
     1
102
RTVSPost2010Prop51ColorIndex
 90
      256
102
RTVSPost2010Prop51ColorRGB
 90
-16777216
102
RTVSPost2010PropOp51
 70
     0
102
RTVSPost2010Prop52
140
1.0
102
RTVSPost2010PropOp52
 70
     0
102
RTVSPost2010Prop53
 90
        2
102
RTVSPost2010PropOp53
 70
     1
102
RTVSPost2010Prop54
  1
strokes_ogs.tif
102
RTVSPost2010PropOp54
 70
     1
102
RTVSPost2010Prop55
280
     0
102
RTVSPost2010PropOp55
 70
     1
102
RTVSPost2010Prop56
140
1.0
102
RTVSPost2010PropOp56
 70
     1
102
RTVSPost2010Prop57
140
1.0
102
RTVSPost2010PropOp57
 70
     1
102
RTVSPropertyOp0
 70
     1
102
RTVSPropertyOp1
 70
     1
102
RTVSPropertyOp2
 70
     1
102
RTVSPropertyOp3
 70
     1
102
RTVSPropertyOp4
 70
     1
102
RTVSPropertyOp5
 70
     1
102
RTVSPropertyOp6
 70
     1
102
RTVSPropertyOp7
 70
     1
102
RTVSPropertyOp8
 70
     1
102
RTVSPropertyOp9
 70
     1
102
RTVSPropertyOp10
 70
     1
102
RTVSPropertyOp11
 70
     1
102
RTVSPropertyOp12
 70
     1
102
RTVSPropertyOp13
 70
     1
102
RTVSPropertyOp14
 70
     1
102
RTVSPropertyOp15
 70
     1
102
RTVSPropertyOp16
 70
     1
102
RTVSPropertyOp17
 70
     1
102
RTVSPropertyOp18
 70
     1
102
RTVSPropertyOp19
 70
     1
102
RTVSPropertyOp20
 70
     1
102
RTVSPropertyOp21
 70
     1
102
RTVSPropertyOp22
 70
     1
102
RTVSPropertyOp23
 70
     1
102
RTVSPropertyOp24
 70
     1
102
RTVSPropertyOp25
 70
     1
102
RTVSPropertyOp26
 70
     1
102
RTVSPropertyOp27
 70
     1
102
RTVSPropertyOp28
 70
     1
102
RTVSPropertyOp29
 70
     1
102
RTVSPropertyOp30
 70
     1
102
RTVSPropertyOp31
 70
     1
102
RTVSPropertyOp32
 70
     1
102
RTVSPropertyOp33
 70
     1
102
RTVSPropertyOp34
 70
     1
102
RTVSPropertyOp35
 70
     1
102
RTVSPropertyOp36
 70
     1
102
RTVSPropertyOp37
 70
     1
102
RTVSPropertyOp38
 70
     1
102
RTVSPropertyOp39
 70
     1
102
RTVSPropertyOp40
 70
     1
102
RTVSPropertyOp41
 70
     1
102
RTVSPropertyOp42
 70
     1
102
RTVSPropertyOp43
 70
     1
102
RTVSPropertyOp44
 70
     1
102
RTVSPropertyOp45
 70
     1
102
RTVSPropertyOp46
 70
     1
102
RTVSPropertyOp47
 70
     1
102
RTVSPropertyOp48
 70
     1
102
RTVSPropertyOp49
 70
     1
102
RTVSPropertyOp50
 70
     1
102
RTVSPropertyOp51
 70
     0
102
RTVSPropertyOp52
 70
     0
102
RTVSPropertyOp53
 70
     1
102
RTVSPropertyOp54
 70
     1
102
RTVSPropertyOp55
 70
     1
102
RTVSPropertyOp56
 70
     1
102
RTVSPropertyOp57
 70
     1
102
RTVSPropertyOp58
 70
     1
102
RTVSPropertyOp59
 70
     1
102
RTVSPropertyOp60
 70
     1
102
RTVSPropertyOp61
 70
     1
102
RTVSPropertyOp62
 70
     1
  0
XRECORD
  5
11C6A
102
{ACAD_REACTORS
330
11C69
102
}
330
11C69
100
AcDbXrecord
280
     1
102
RTVSPost2010Prop28
280
     0
102
RTVSPost2010PropOp28
 70
     1
102
RTVSPost2010Prop29
280
     1
102
RTVSPost2010PropOp29
 70
     1
102
RTVSPost2010Prop30
280
     1
102
RTVSPost2010PropOp30
 70
     1
102
RTVSPost2010Prop31
280
     0
102
RTVSPost2010PropOp31
 70
     1
102
RTVSPost2010Prop32
280
     0
102
RTVSPost2010PropOp32
 70
     1
102
RTVSPost2010Prop33
280
     0
102
RTVSPost2010PropOp33
 70
     1
102
RTVSPost2010Prop34
280
     0
102
RTVSPost2010PropOp34
 70
     1
102
RTVSPost2010Prop35
280
     0
102
RTVSPost2010PropOp35
 70
     1
102
RTVSPost2010Prop36
280
     0
102
RTVSPost2010PropOp36
 70
     1
102
RTVSPost2010Prop37
 90
       50
102
RTVSPost2010PropOp37
 70
     1
102
RTVSPost2010Prop38
140
0.0
102
RTVSPost2010PropOp38
 70
     1
102
RTVSPost2010Prop39
140
1.0
102
RTVSPost2010PropOp39
 70
     1
102
RTVSPost2010Prop40
 90
        0
102
RTVSPost2010PropOp40
 70
     1
102
RTVSPost2010Prop41ColorIndex
 90
       18
102
RTVSPost2010Prop41ColorRGB
 90
        0
102
RTVSPost2010PropOp41
 70
     1
102
RTVSPost2010Prop42
 90
       50
102
RTVSPost2010PropOp42
 70
     1
102
RTVSPost2010Prop43
 90
        3
102
RTVSPost2010PropOp43
 70
     1
102
RTVSPost2010Prop44ColorIndex
 90
        5
102
RTVSPost2010Prop44ColorRGB
 90
      255
102
RTVSPost2010PropOp44
 70
     1
102
RTVSPost2010Prop45
280
     0
102
RTVSPost2010PropOp45
 70
     1
102
RTVSPost2010Prop46
 90
       50
102
RTVSPost2010PropOp46
 70
     1
102
RTVSPost2010Prop47
 90
       50
102
RTVSPost2010PropOp47
 70
     1
102
RTVSPost2010Prop48
 90
       50
102
RTVSPost2010PropOp48
 70
     1
102
RTVSPost2010Prop49
280
     0
102
RTVSPost2010PropOp49
 70
     1
102
RTVSPost2010Prop50
 90
       50
102
RTVSPost2010PropOp50
 70
     1
102
RTVSPost2010Prop51ColorIndex
 90
      256
102
RTVSPost2010Prop51ColorRGB
 90
-16777216
102
RTVSPost2010PropOp51
 70
     0
102
RTVSPost2010Prop52
140
1.0
102
RTVSPost2010PropOp52
 70
     0
102
RTVSPost2010Prop53
 90
        2
102
RTVSPost2010PropOp53
 70
     1
102
RTVSPost2010Prop54
  1
strokes_ogs.tif
102
RTVSPost2010PropOp54
 70
     1
102
RTVSPost2010Prop55
280
     0
102
RTVSPost2010PropOp55
 70
     1
102
RTVSPost2010Prop56
140
1.0
102
RTVSPost2010PropOp56
 70
     1
102
RTVSPost2010Prop57
140
1.0
102
RTVSPost2010PropOp57
 70
     1
102
RTVSPropertyOp0
 70
     1
102
RTVSPropertyOp1
 70
     1
102
RTVSPropertyOp2
 70
     1
102
RTVSPropertyOp3
 70
     1
102
RTVSPropertyOp4
 70
     1
102
RTVSPropertyOp5
 70
     1
102
RTVSPropertyOp6
 70
     1
102
RTVSPropertyOp7
 70
     1
102
RTVSPropertyOp8
 70
     1
102
RTVSPropertyOp9
 70
     1
102
RTVSPropertyOp10
 70
     1
102
RTVSPropertyOp11
 70
     1
102
RTVSPropertyOp12
 70
     1
102
RTVSPropertyOp13
 70
     1
102
RTVSPropertyOp14
 70
     1
102
RTVSPropertyOp15
 70
     1
102
RTVSPropertyOp16
 70
     1
102
RTVSPropertyOp17
 70
     1
102
RTVSPropertyOp18
 70
     1
102
RTVSPropertyOp19
 70
     1
102
RTVSPropertyOp20
 70
     1
102
RTVSPropertyOp21
 70
     1
102
RTVSPropertyOp22
 70
     1
102
RTVSPropertyOp23
 70
     1
102
RTVSPropertyOp24
 70
     1
102
RTVSPropertyOp25
 70
     1
102
RTVSPropertyOp26
 70
     1
102
RTVSPropertyOp27
 70
     1
102
RTVSPropertyOp28
 70
     1
102
RTVSPropertyOp29
 70
     1
102
RTVSPropertyOp30
 70
     1
102
RTVSPropertyOp31
 70
     1
102
RTVSPropertyOp32
 70
     1
102
RTVSPropertyOp33
 70
     1
102
RTVSPropertyOp34
 70
     1
102
RTVSPropertyOp35
 70
     1
102
RTVSPropertyOp36
 70
     1
102
RTVSPropertyOp37
 70
     1
102
RTVSPropertyOp38
 70
     1
102
RTVSPropertyOp39
 70
     1
102
RTVSPropertyOp40
 70
     1
102
RTVSPropertyOp41
 70
     1
102
RTVSPropertyOp42
 70
     1
102
RTVSPropertyOp43
 70
     1
102
RTVSPropertyOp44
 70
     1
102
RTVSPropertyOp45
 70
     1
102
RTVSPropertyOp46
 70
     1
102
RTVSPropertyOp47
 70
     1
102
RTVSPropertyOp48
 70
     1
102
RTVSPropertyOp49
 70
     1
102
RTVSPropertyOp50
 70
     1
102
RTVSPropertyOp51
 70
     0
102
RTVSPropertyOp52
 70
     0
102
RTVSPropertyOp53
 70
     1
102
RTVSPropertyOp54
 70
     1
102
RTVSPropertyOp55
 70
     1
102
RTVSPropertyOp56
 70
     1
102
RTVSPropertyOp57
 70
     1
102
RTVSPropertyOp58
 70
     1
102
RTVSPropertyOp59
 70
     1
102
RTVSPropertyOp60
 70
     1
102
RTVSPropertyOp61
 70
     1
102
RTVSPropertyOp62
 70
     1
  0
XRECORD
  5
11C7E
102
{ACAD_REACTORS
330
11C7D
102
}
330
11C7D
100
AcDbXrecord
280
     1
102
RTVSPost2010Prop28
280
     0
102
RTVSPost2010PropOp28
 70
     1
102
RTVSPost2010Prop29
280
     1
102
RTVSPost2010PropOp29
 70
     1
102
RTVSPost2010Prop30
280
     1
102
RTVSPost2010PropOp30
 70
     1
102
RTVSPost2010Prop31
280
     0
102
RTVSPost2010PropOp31
 70
     1
102
RTVSPost2010Prop32
280
     0
102
RTVSPost2010PropOp32
 70
     1
102
RTVSPost2010Prop33
280
     0
102
RTVSPost2010PropOp33
 70
     1
102
RTVSPost2010Prop34
280
     0
102
RTVSPost2010PropOp34
 70
     1
102
RTVSPost2010Prop35
280
     0
102
RTVSPost2010PropOp35
 70
     1
102
RTVSPost2010Prop36
280
     0
102
RTVSPost2010PropOp36
 70
     1
102
RTVSPost2010Prop37
 90
       50
102
RTVSPost2010PropOp37
 70
     1
102
RTVSPost2010Prop38
140
0.0
102
RTVSPost2010PropOp38
 70
     1
102
RTVSPost2010Prop39
140
1.0
102
RTVSPost2010PropOp39
 70
     1
102
RTVSPost2010Prop40
 90
        0
102
RTVSPost2010PropOp40
 70
     1
102
RTVSPost2010Prop41ColorIndex
 90
       18
102
RTVSPost2010Prop41ColorRGB
 90
        0
102
RTVSPost2010PropOp41
 70
     1
102
RTVSPost2010Prop42
 90
       50
102
RTVSPost2010PropOp42
 70
     1
102
RTVSPost2010Prop43
 90
        3
102
RTVSPost2010PropOp43
 70
     1
102
RTVSPost2010Prop44ColorIndex
 90
        5
102
RTVSPost2010Prop44ColorRGB
 90
      255
102
RTVSPost2010PropOp44
 70
     1
102
RTVSPost2010Prop45
280
     0
102
RTVSPost2010PropOp45
 70
     1
102
RTVSPost2010Prop46
 90
       50
102
RTVSPost2010PropOp46
 70
     1
102
RTVSPost2010Prop47
 90
       50
102
RTVSPost2010PropOp47
 70
     1
102
RTVSPost2010Prop48
 90
       50
102
RTVSPost2010PropOp48
 70
     1
102
RTVSPost2010Prop49
280
     0
102
RTVSPost2010PropOp49
 70
     1
102
RTVSPost2010Prop50
 90
       50
102
RTVSPost2010PropOp50
 70
     1
102
RTVSPost2010Prop51ColorIndex
 90
      256
102
RTVSPost2010Prop51ColorRGB
 90
-16777216
102
RTVSPost2010PropOp51
 70
     0
102
RTVSPost2010Prop52
140
1.0
102
RTVSPost2010PropOp52
 70
     0
102
RTVSPost2010Prop53
 90
        2
102
RTVSPost2010PropOp53
 70
     1
102
RTVSPost2010Prop54
  1
strokes_ogs.tif
102
RTVSPost2010PropOp54
 70
     1
102
RTVSPost2010Prop55
280
     0
102
RTVSPost2010PropOp55
 70
     1
102
RTVSPost2010Prop56
140
1.0
102
RTVSPost2010PropOp56
 70
     1
102
RTVSPost2010Prop57
140
1.0
102
RTVSPost2010PropOp57
 70
     1
102
RTVSPropertyOp0
 70
     0
102
RTVSPropertyOp1
 70
     0
102
RTVSPropertyOp2
 70
     0
102
RTVSPropertyOp3
 70
     0
102
RTVSPropertyOp4
 70
     0
102
RTVSPropertyOp5
 70
     0
102
RTVSPropertyOp6
 70
     0
102
RTVSPropertyOp7
 70
     0
102
RTVSPropertyOp8
 70
     0
102
RTVSPropertyOp9
 70
     0
102
RTVSPropertyOp10
 70
     0
102
RTVSPropertyOp11
 70
     0
102
RTVSPropertyOp12
 70
     0
102
RTVSPropertyOp13
 70
     0
102
RTVSPropertyOp14
 70
     2
102
RTVSPropertyOp15
 70
     0
102
RTVSPropertyOp16
 70
     0
102
RTVSPropertyOp17
 70
     0
102
RTVSPropertyOp18
 70
     0
102
RTVSPropertyOp19
 70
     0
102
RTVSPropertyOp20
 70
     0
102
RTVSPropertyOp21
 70
     0
102
RTVSPropertyOp22
 70
     0
102
RTVSPropertyOp23
 70
     0
102
RTVSPropertyOp24
 70
     0
102
RTVSPropertyOp25
 70
     0
102
RTVSPropertyOp26
 70
     0
102
RTVSPropertyOp27
 70
     0
102
RTVSPropertyOp28
 70
     1
102
RTVSPropertyOp29
 70
     1
102
RTVSPropertyOp30
 70
     1
102
RTVSPropertyOp31
 70
     1
102
RTVSPropertyOp32
 70
     1
102
RTVSPropertyOp33
 70
     1
102
RTVSPropertyOp34
 70
     1
102
RTVSPropertyOp35
 70
     1
102
RTVSPropertyOp36
 70
     1
102
RTVSPropertyOp37
 70
     1
102
RTVSPropertyOp38
 70
     1
102
RTVSPropertyOp39
 70
     1
102
RTVSPropertyOp40
 70
     1
102
RTVSPropertyOp41
 70
     1
102
RTVSPropertyOp42
 70
     1
102
RTVSPropertyOp43
 70
     1
102
RTVSPropertyOp44
 70
     1
102
RTVSPropertyOp45
 70
     1
102
RTVSPropertyOp46
 70
     1
102
RTVSPropertyOp47
 70
     1
102
RTVSPropertyOp48
 70
     1
102
RTVSPropertyOp49
 70
     1
102
RTVSPropertyOp50
 70
     1
102
RTVSPropertyOp51
 70
     0
102
RTVSPropertyOp52
 70
     0
102
RTVSPropertyOp53
 70
     1
102
RTVSPropertyOp54
 70
     1
102
RTVSPropertyOp55
 70
     1
102
RTVSPropertyOp56
 70
     1
102
RTVSPropertyOp57
 70
     1
102
RTVSPropertyOp58
 70
     1
102
RTVSPropertyOp59
 70
     1
102
RTVSPropertyOp60
 70
     1
102
RTVSPropertyOp61
 70
     1
102
RTVSPropertyOp62
 70
     1
  0
XRECORD
  5
11C76
102
{ACAD_REACTORS
330
11C75
102
}
330
11C75
100
AcDbXrecord
280
     1
102
RTVSPost2010Prop28
280
     0
102
RTVSPost2010PropOp28
 70
     1
102
RTVSPost2010Prop29
280
     1
102
RTVSPost2010PropOp29
 70
     1
102
RTVSPost2010Prop30
280
     1
102
RTVSPost2010PropOp30
 70
     1
102
RTVSPost2010Prop31
280
     0
102
RTVSPost2010PropOp31
 70
     1
102
RTVSPost2010Prop32
280
     0
102
RTVSPost2010PropOp32
 70
     1
102
RTVSPost2010Prop33
280
     0
102
RTVSPost2010PropOp33
 70
     1
102
RTVSPost2010Prop34
280
     0
102
RTVSPost2010PropOp34
 70
     1
102
RTVSPost2010Prop35
280
     0
102
RTVSPost2010PropOp35
 70
     1
102
RTVSPost2010Prop36
280
     0
102
RTVSPost2010PropOp36
 70
     1
102
RTVSPost2010Prop37
 90
       50
102
RTVSPost2010PropOp37
 70
     1
102
RTVSPost2010Prop38
140
0.0
102
RTVSPost2010PropOp38
 70
     1
102
RTVSPost2010Prop39
140
1.0
102
RTVSPost2010PropOp39
 70
     1
102
RTVSPost2010Prop40
 90
        0
102
RTVSPost2010PropOp40
 70
     1
102
RTVSPost2010Prop41ColorIndex
 90
       18
102
RTVSPost2010Prop41ColorRGB
 90
        0
102
RTVSPost2010PropOp41
 70
     1
102
RTVSPost2010Prop42
 90
       50
102
RTVSPost2010PropOp42
 70
     1
102
RTVSPost2010Prop43
 90
        3
102
RTVSPost2010PropOp43
 70
     1
102
RTVSPost2010Prop44ColorIndex
 90
        5
102
RTVSPost2010Prop44ColorRGB
 90
      255
102
RTVSPost2010PropOp44
 70
     1
102
RTVSPost2010Prop45
280
     0
102
RTVSPost2010PropOp45
 70
     1
102
RTVSPost2010Prop46
 90
       50
102
RTVSPost2010PropOp46
 70
     1
102
RTVSPost2010Prop47
 90
       50
102
RTVSPost2010PropOp47
 70
     1
102
RTVSPost2010Prop48
 90
       50
102
RTVSPost2010PropOp48
 70
     1
102
RTVSPost2010Prop49
280
     0
102
RTVSPost2010PropOp49
 70
     1
102
RTVSPost2010Prop50
 90
       50
102
RTVSPost2010PropOp50
 70
     1
102
RTVSPost2010Prop51ColorIndex
 90
      256
102
RTVSPost2010Prop51ColorRGB
 90
-16777216
102
RTVSPost2010PropOp51
 70
     0
102
RTVSPost2010Prop52
140
1.0
102
RTVSPost2010PropOp52
 70
     0
102
RTVSPost2010Prop53
 90
        2
102
RTVSPost2010PropOp53
 70
     1
102
RTVSPost2010Prop54
  1
strokes_ogs.tif
102
RTVSPost2010PropOp54
 70
     1
102
RTVSPost2010Prop55
280
     0
102
RTVSPost2010PropOp55
 70
     1
102
RTVSPost2010Prop56
140
1.0
102
RTVSPost2010PropOp56
 70
     1
102
RTVSPost2010Prop57
140
1.0
102
RTVSPost2010PropOp57
 70
     1
102
RTVSPropertyOp0
 70
     1
102
RTVSPropertyOp1
 70
     1
102
RTVSPropertyOp2
 70
     1
102
RTVSPropertyOp3
 70
     1
102
RTVSPropertyOp4
 70
     1
102
RTVSPropertyOp5
 70
     1
102
RTVSPropertyOp6
 70
     1
102
RTVSPropertyOp7
 70
     1
102
RTVSPropertyOp8
 70
     1
102
RTVSPropertyOp9
 70
     1
102
RTVSPropertyOp10
 70
     1
102
RTVSPropertyOp11
 70
     1
102
RTVSPropertyOp12
 70
     1
102
RTVSPropertyOp13
 70
     1
102
RTVSPropertyOp14
 70
     1
102
RTVSPropertyOp15
 70
     1
102
RTVSPropertyOp16
 70
     1
102
RTVSPropertyOp17
 70
     1
102
RTVSPropertyOp18
 70
     1
102
RTVSPropertyOp19
 70
     1
102
RTVSPropertyOp20
 70
     1
102
RTVSPropertyOp21
 70
     1
102
RTVSPropertyOp22
 70
     1
102
RTVSPropertyOp23
 70
     1
102
RTVSPropertyOp24
 70
     1
102
RTVSPropertyOp25
 70
     1
102
RTVSPropertyOp26
 70
     1
102
RTVSPropertyOp27
 70
     1
102
RTVSPropertyOp28
 70
     1
102
RTVSPropertyOp29
 70
     1
102
RTVSPropertyOp30
 70
     1
102
RTVSPropertyOp31
 70
     1
102
RTVSPropertyOp32
 70
     1
102
RTVSPropertyOp33
 70
     1
102
RTVSPropertyOp34
 70
     1
102
RTVSPropertyOp35
 70
     1
102
RTVSPropertyOp36
 70
     1
102
RTVSPropertyOp37
 70
     1
102
RTVSPropertyOp38
 70
     1
102
RTVSPropertyOp39
 70
     1
102
RTVSPropertyOp40
 70
     1
102
RTVSPropertyOp41
 70
     1
102
RTVSPropertyOp42
 70
     1
102
RTVSPropertyOp43
 70
     1
102
RTVSPropertyOp44
 70
     1
102
RTVSPropertyOp45
 70
     1
102
RTVSPropertyOp46
 70
     1
102
RTVSPropertyOp47
 70
     1
102
RTVSPropertyOp48
 70
     1
102
RTVSPropertyOp49
 70
     1
102
RTVSPropertyOp50
 70
     1
102
RTVSPropertyOp51
 70
     0
102
RTVSPropertyOp52
 70
     0
102
RTVSPropertyOp53
 70
     1
102
RTVSPropertyOp54
 70
     1
102
RTVSPropertyOp55
 70
     1
102
RTVSPropertyOp56
 70
     1
102
RTVSPropertyOp57
 70
     1
102
RTVSPropertyOp58
 70
     1
102
RTVSPropertyOp59
 70
     1
102
RTVSPropertyOp60
 70
     1
102
RTVSPropertyOp61
 70
     1
102
RTVSPropertyOp62
 70
     1
  0
XRECORD
  5
11C80
102
{ACAD_REACTORS
330
11C7F
102
}
330
11C7F
100
AcDbXrecord
280
     1
102
RTVSPost2010Prop28
280
     0
102
RTVSPost2010PropOp28
 70
     1
102
RTVSPost2010Prop29
280
     1
102
RTVSPost2010PropOp29
 70
     1
102
RTVSPost2010Prop30
280
     1
102
RTVSPost2010PropOp30
 70
     1
102
RTVSPost2010Prop31
280
     0
102
RTVSPost2010PropOp31
 70
     1
102
RTVSPost2010Prop32
280
     0
102
RTVSPost2010PropOp32
 70
     1
102
RTVSPost2010Prop33
280
     0
102
RTVSPost2010PropOp33
 70
     1
102
RTVSPost2010Prop34
280
     0
102
RTVSPost2010PropOp34
 70
     1
102
RTVSPost2010Prop35
280
     0
102
RTVSPost2010PropOp35
 70
     1
102
RTVSPost2010Prop36
280
     0
102
RTVSPost2010PropOp36
 70
     1
102
RTVSPost2010Prop37
 90
       50
102
RTVSPost2010PropOp37
 70
     1
102
RTVSPost2010Prop38
140
0.0
102
RTVSPost2010PropOp38
 70
     1
102
RTVSPost2010Prop39
140
1.0
102
RTVSPost2010PropOp39
 70
     1
102
RTVSPost2010Prop40
 90
        0
102
RTVSPost2010PropOp40
 70
     1
102
RTVSPost2010Prop41ColorIndex
 90
       18
102
RTVSPost2010Prop41ColorRGB
 90
        0
102
RTVSPost2010PropOp41
 70
     1
102
RTVSPost2010Prop42
 90
       50
102
RTVSPost2010PropOp42
 70
     1
102
RTVSPost2010Prop43
 90
        3
102
RTVSPost2010PropOp43
 70
     1
102
RTVSPost2010Prop44ColorIndex
 90
        5
102
RTVSPost2010Prop44ColorRGB
 90
      255
102
RTVSPost2010PropOp44
 70
     1
102
RTVSPost2010Prop45
280
     0
102
RTVSPost2010PropOp45
 70
     1
102
RTVSPost2010Prop46
 90
       50
102
RTVSPost2010PropOp46
 70
     1
102
RTVSPost2010Prop47
 90
       50
102
RTVSPost2010PropOp47
 70
     1
102
RTVSPost2010Prop48
 90
       50
102
RTVSPost2010PropOp48
 70
     1
102
RTVSPost2010Prop49
280
     0
102
RTVSPost2010PropOp49
 70
     1
102
RTVSPost2010Prop50
 90
       50
102
RTVSPost2010PropOp50
 70
     1
102
RTVSPost2010Prop51ColorIndex
 90
      256
102
RTVSPost2010Prop51ColorRGB
 90
-16777216
102
RTVSPost2010PropOp51
 70
     0
102
RTVSPost2010Prop52
140
1.0
102
RTVSPost2010PropOp52
 70
     0
102
RTVSPost2010Prop53
 90
        2
102
RTVSPost2010PropOp53
 70
     1
102
RTVSPost2010Prop54
  1
strokes_ogs.tif
102
RTVSPost2010PropOp54
 70
     1
102
RTVSPost2010Prop55
280
     0
102
RTVSPost2010PropOp55
 70
     1
102
RTVSPost2010Prop56
140
1.0
102
RTVSPost2010PropOp56
 70
     1
102
RTVSPost2010Prop57
140
1.0
102
RTVSPost2010PropOp57
 70
     1
102
RTVSPropertyOp0
 70
     0
102
RTVSPropertyOp1
 70
     0
102
RTVSPropertyOp2
 70
     0
102
RTVSPropertyOp3
 70
     0
102
RTVSPropertyOp4
 70
     0
102
RTVSPropertyOp5
 70
     0
102
RTVSPropertyOp6
 70
     0
102
RTVSPropertyOp7
 70
     0
102
RTVSPropertyOp8
 70
     0
102
RTVSPropertyOp9
 70
     0
102
RTVSPropertyOp10
 70
     0
102
RTVSPropertyOp11
 70
     0
102
RTVSPropertyOp12
 70
     0
102
RTVSPropertyOp13
 70
     0
102
RTVSPropertyOp14
 70
     2
102
RTVSPropertyOp15
 70
     0
102
RTVSPropertyOp16
 70
     0
102
RTVSPropertyOp17
 70
     0
102
RTVSPropertyOp18
 70
     0
102
RTVSPropertyOp19
 70
     0
102
RTVSPropertyOp20
 70
     0
102
RTVSPropertyOp21
 70
     0
102
RTVSPropertyOp22
 70
     0
102
RTVSPropertyOp23
 70
     0
102
RTVSPropertyOp24
 70
     0
102
RTVSPropertyOp25
 70
     0
102
RTVSPropertyOp26
 70
     0
102
RTVSPropertyOp27
 70
     0
102
RTVSPropertyOp28
 70
     1
102
RTVSPropertyOp29
 70
     1
102
RTVSPropertyOp30
 70
     1
102
RTVSPropertyOp31
 70
     1
102
RTVSPropertyOp32
 70
     1
102
RTVSPropertyOp33
 70
     1
102
RTVSPropertyOp34
 70
     1
102
RTVSPropertyOp35
 70
     1
102
RTVSPropertyOp36
 70
     1
102
RTVSPropertyOp37
 70
     1
102
RTVSPropertyOp38
 70
     1
102
RTVSPropertyOp39
 70
     1
102
RTVSPropertyOp40
 70
     1
102
RTVSPropertyOp41
 70
     1
102
RTVSPropertyOp42
 70
     1
102
RTVSPropertyOp43
 70
     1
102
RTVSPropertyOp44
 70
     1
102
RTVSPropertyOp45
 70
     1
102
RTVSPropertyOp46
 70
     1
102
RTVSPropertyOp47
 70
     1
102
RTVSPropertyOp48
 70
     1
102
RTVSPropertyOp49
 70
     1
102
RTVSPropertyOp50
 70
     1
102
RTVSPropertyOp51
 70
     0
102
RTVSPropertyOp52
 70
     0
102
RTVSPropertyOp53
 70
     1
102
RTVSPropertyOp54
 70
     1
102
RTVSPropertyOp55
 70
     1
102
RTVSPropertyOp56
 70
     1
102
RTVSPropertyOp57
 70
     1
102
RTVSPropertyOp58
 70
     1
102
RTVSPropertyOp59
 70
     1
102
RTVSPropertyOp60
 70
     1
102
RTVSPropertyOp61
 70
     1
102
RTVSPropertyOp62
 70
     1
  0
XRECORD
  5
11C6E
102
{ACAD_REACTORS
330
11C6D
102
}
330
11C6D
100
AcDbXrecord
280
     1
102
RTVSPost2010Prop28
280
     0
102
RTVSPost2010PropOp28
 70
     1
102
RTVSPost2010Prop29
280
     1
102
RTVSPost2010PropOp29
 70
     1
102
RTVSPost2010Prop30
280
     1
102
RTVSPost2010PropOp30
 70
     1
102
RTVSPost2010Prop31
280
     0
102
RTVSPost2010PropOp31
 70
     1
102
RTVSPost2010Prop32
280
     0
102
RTVSPost2010PropOp32
 70
     1
102
RTVSPost2010Prop33
280
     0
102
RTVSPost2010PropOp33
 70
     1
102
RTVSPost2010Prop34
280
     0
102
RTVSPost2010PropOp34
 70
     1
102
RTVSPost2010Prop35
280
     0
102
RTVSPost2010PropOp35
 70
     1
102
RTVSPost2010Prop36
280
     0
102
RTVSPost2010PropOp36
 70
     1
102
RTVSPost2010Prop37
 90
       50
102
RTVSPost2010PropOp37
 70
     1
102
RTVSPost2010Prop38
140
0.0
102
RTVSPost2010PropOp38
 70
     1
102
RTVSPost2010Prop39
140
1.0
102
RTVSPost2010PropOp39
 70
     1
102
RTVSPost2010Prop40
 90
        0
102
RTVSPost2010PropOp40
 70
     1
102
RTVSPost2010Prop41ColorIndex
 90
       18
102
RTVSPost2010Prop41ColorRGB
 90
        0
102
RTVSPost2010PropOp41
 70
     1
102
RTVSPost2010Prop42
 90
       50
102
RTVSPost2010PropOp42
 70
     1
102
RTVSPost2010Prop43
 90
        3
102
RTVSPost2010PropOp43
 70
     1
102
RTVSPost2010Prop44ColorIndex
 90
        5
102
RTVSPost2010Prop44ColorRGB
 90
      255
102
RTVSPost2010PropOp44
 70
     1
102
RTVSPost2010Prop45
280
     0
102
RTVSPost2010PropOp45
 70
     1
102
RTVSPost2010Prop46
 90
       50
102
RTVSPost2010PropOp46
 70
     1
102
RTVSPost2010Prop47
 90
       50
102
RTVSPost2010PropOp47
 70
     1
102
RTVSPost2010Prop48
 90
       50
102
RTVSPost2010PropOp48
 70
     1
102
RTVSPost2010Prop49
280
     0
102
RTVSPost2010PropOp49
 70
     1
102
RTVSPost2010Prop50
 90
       50
102
RTVSPost2010PropOp50
 70
     1
102
RTVSPost2010Prop51ColorIndex
 90
      256
102
RTVSPost2010Prop51ColorRGB
 90
-16777216
102
RTVSPost2010PropOp51
 70
     0
102
RTVSPost2010Prop52
140
1.0
102
RTVSPost2010PropOp52
 70
     0
102
RTVSPost2010Prop53
 90
        2
102
RTVSPost2010PropOp53
 70
     1
102
RTVSPost2010Prop54
  1
strokes_ogs.tif
102
RTVSPost2010PropOp54
 70
     1
102
RTVSPost2010Prop55
280
     0
102
RTVSPost2010PropOp55
 70
     1
102
RTVSPost2010Prop56
140
1.0
102
RTVSPost2010PropOp56
 70
     1
102
RTVSPost2010Prop57
140
1.0
102
RTVSPost2010PropOp57
 70
     1
102
RTVSPropertyOp0
 70
     1
102
RTVSPropertyOp1
 70
     1
102
RTVSPropertyOp2
 70
     1
102
RTVSPropertyOp3
 70
     1
102
RTVSPropertyOp4
 70
     1
102
RTVSPropertyOp5
 70
     1
102
RTVSPropertyOp6
 70
     1
102
RTVSPropertyOp7
 70
     1
102
RTVSPropertyOp8
 70
     1
102
RTVSPropertyOp9
 70
     1
102
RTVSPropertyOp10
 70
     1
102
RTVSPropertyOp11
 70
     1
102
RTVSPropertyOp12
 70
     1
102
RTVSPropertyOp13
 70
     1
102
RTVSPropertyOp14
 70
     1
102
RTVSPropertyOp15
 70
     1
102
RTVSPropertyOp16
 70
     1
102
RTVSPropertyOp17
 70
     1
102
RTVSPropertyOp18
 70
     1
102
RTVSPropertyOp19
 70
     1
102
RTVSPropertyOp20
 70
     1
102
RTVSPropertyOp21
 70
     1
102
RTVSPropertyOp22
 70
     1
102
RTVSPropertyOp23
 70
     1
102
RTVSPropertyOp24
 70
     1
102
RTVSPropertyOp25
 70
     1
102
RTVSPropertyOp26
 70
     1
102
RTVSPropertyOp27
 70
     1
102
RTVSPropertyOp28
 70
     1
102
RTVSPropertyOp29
 70
     1
102
RTVSPropertyOp30
 70
     1
102
RTVSPropertyOp31
 70
     1
102
RTVSPropertyOp32
 70
     1
102
RTVSPropertyOp33
 70
     1
102
RTVSPropertyOp34
 70
     1
102
RTVSPropertyOp35
 70
     1
102
RTVSPropertyOp36
 70
     1
102
RTVSPropertyOp37
 70
     1
102
RTVSPropertyOp38
 70
     1
102
RTVSPropertyOp39
 70
     1
102
RTVSPropertyOp40
 70
     1
102
RTVSPropertyOp41
 70
     1
102
RTVSPropertyOp42
 70
     1
102
RTVSPropertyOp43
 70
     1
102
RTVSPropertyOp44
 70
     1
102
RTVSPropertyOp45
 70
     1
102
RTVSPropertyOp46
 70
     1
102
RTVSPropertyOp47
 70
     1
102
RTVSPropertyOp48
 70
     1
102
RTVSPropertyOp49
 70
     1
102
RTVSPropertyOp50
 70
     1
102
RTVSPropertyOp51
 70
     0
102
RTVSPropertyOp52
 70
     0
102
RTVSPropertyOp53
 70
     1
102
RTVSPropertyOp54
 70
     1
102
RTVSPropertyOp55
 70
     1
102
RTVSPropertyOp56
 70
     1
102
RTVSPropertyOp57
 70
     1
102
RTVSPropertyOp58
 70
     1
102
RTVSPropertyOp59
 70
     1
102
RTVSPropertyOp60
 70
     1
102
RTVSPropertyOp61
 70
     1
102
RTVSPropertyOp62
 70
     1
  0
XRECORD
  5
11C8C
102
{ACAD_REACTORS
330
11C8B
102
}
330
11C8B
100
AcDbXrecord
280
     1
102
RTVSPost2010Prop28
280
     0
102
RTVSPost2010PropOp28
 70
     1
102
RTVSPost2010Prop29
280
     1
102
RTVSPost2010PropOp29
 70
     1
102
RTVSPost2010Prop30
280
     1
102
RTVSPost2010PropOp30
 70
     1
102
RTVSPost2010Prop31
280
     0
102
RTVSPost2010PropOp31
 70
     1
102
RTVSPost2010Prop32
280
     0
102
RTVSPost2010PropOp32
 70
     1
102
RTVSPost2010Prop33
280
     0
102
RTVSPost2010PropOp33
 70
     1
102
RTVSPost2010Prop34
280
     0
102
RTVSPost2010PropOp34
 70
     1
102
RTVSPost2010Prop35
280
     0
102
RTVSPost2010PropOp35
 70
     1
102
RTVSPost2010Prop36
280
     0
102
RTVSPost2010PropOp36
 70
     1
102
RTVSPost2010Prop37
 90
       50
102
RTVSPost2010PropOp37
 70
     1
102
RTVSPost2010Prop38
140
0.0
102
RTVSPost2010PropOp38
 70
     1
102
RTVSPost2010Prop39
140
1.0
102
RTVSPost2010PropOp39
 70
     1
102
RTVSPost2010Prop40
 90
        0
102
RTVSPost2010PropOp40
 70
     1
102
RTVSPost2010Prop41ColorIndex
 90
       18
102
RTVSPost2010Prop41ColorRGB
 90
        0
102
RTVSPost2010PropOp41
 70
     1
102
RTVSPost2010Prop42
 90
       50
102
RTVSPost2010PropOp42
 70
     1
102
RTVSPost2010Prop43
 90
        3
102
RTVSPost2010PropOp43
 70
     1
102
RTVSPost2010Prop44ColorIndex
 90
        5
102
RTVSPost2010Prop44ColorRGB
 90
      255
102
RTVSPost2010PropOp44
 70
     1
102
RTVSPost2010Prop45
280
     0
102
RTVSPost2010PropOp45
 70
     1
102
RTVSPost2010Prop46
 90
       50
102
RTVSPost2010PropOp46
 70
     1
102
RTVSPost2010Prop47
 90
       50
102
RTVSPost2010PropOp47
 70
     1
102
RTVSPost2010Prop48
 90
       50
102
RTVSPost2010PropOp48
 70
     1
102
RTVSPost2010Prop49
280
     0
102
RTVSPost2010PropOp49
 70
     1
102
RTVSPost2010Prop50
 90
       50
102
RTVSPost2010PropOp50
 70
     1
102
RTVSPost2010Prop51ColorIndex
 90
      256
102
RTVSPost2010Prop51ColorRGB
 90
-16777216
102
RTVSPost2010PropOp51
 70
     0
102
RTVSPost2010Prop52
140
1.0
102
RTVSPost2010PropOp52
 70
     0
102
RTVSPost2010Prop53
 90
        2
102
RTVSPost2010PropOp53
 70
     1
102
RTVSPost2010Prop54
  1
strokes_ogs.tif
102
RTVSPost2010PropOp54
 70
     1
102
RTVSPost2010Prop55
280
     0
102
RTVSPost2010PropOp55
 70
     1
102
RTVSPost2010Prop56
140
1.0
102
RTVSPost2010PropOp56
 70
     1
102
RTVSPost2010Prop57
140
1.0
102
RTVSPost2010PropOp57
 70
     1
102
RTVSPropertyOp0
 70
     1
102
RTVSPropertyOp1
 70
     1
102
RTVSPropertyOp2
 70
     1
102
RTVSPropertyOp3
 70
     1
102
RTVSPropertyOp4
 70
     1
102
RTVSPropertyOp5
 70
     1
102
RTVSPropertyOp6
 70
     1
102
RTVSPropertyOp7
 70
     1
102
RTVSPropertyOp8
 70
     1
102
RTVSPropertyOp9
 70
     1
102
RTVSPropertyOp10
 70
     1
102
RTVSPropertyOp11
 70
     1
102
RTVSPropertyOp12
 70
     1
102
RTVSPropertyOp13
 70
     1
102
RTVSPropertyOp14
 70
     1
102
RTVSPropertyOp15
 70
     1
102
RTVSPropertyOp16
 70
     1
102
RTVSPropertyOp17
 70
     1
102
RTVSPropertyOp18
 70
     1
102
RTVSPropertyOp19
 70
     1
102
RTVSPropertyOp20
 70
     1
102
RTVSPropertyOp21
 70
     1
102
RTVSPropertyOp22
 70
     1
102
RTVSPropertyOp23
 70
     1
102
RTVSPropertyOp24
 70
     1
102
RTVSPropertyOp25
 70
     1
102
RTVSPropertyOp26
 70
     1
102
RTVSPropertyOp27
 70
     1
102
RTVSPropertyOp28
 70
     1
102
RTVSPropertyOp29
 70
     1
102
RTVSPropertyOp30
 70
     1
102
RTVSPropertyOp31
 70
     1
102
RTVSPropertyOp32
 70
     1
102
RTVSPropertyOp33
 70
     1
102
RTVSPropertyOp34
 70
     1
102
RTVSPropertyOp35
 70
     1
102
RTVSPropertyOp36
 70
     1
102
RTVSPropertyOp37
 70
     1
102
RTVSPropertyOp38
 70
     1
102
RTVSPropertyOp39
 70
     1
102
RTVSPropertyOp40
 70
     1
102
RTVSPropertyOp41
 70
     1
102
RTVSPropertyOp42
 70
     1
102
RTVSPropertyOp43
 70
     1
102
RTVSPropertyOp44
 70
     1
102
RTVSPropertyOp45
 70
     1
102
RTVSPropertyOp46
 70
     1
102
RTVSPropertyOp47
 70
     1
102
RTVSPropertyOp48
 70
     1
102
RTVSPropertyOp49
 70
     1
102
RTVSPropertyOp50
 70
     1
102
RTVSPropertyOp51
 70
     0
102
RTVSPropertyOp52
 70
     0
102
RTVSPropertyOp53
 70
     1
102
RTVSPropertyOp54
 70
     1
102
RTVSPropertyOp55
 70
     1
102
RTVSPropertyOp56
 70
     1
102
RTVSPropertyOp57
 70
     1
102
RTVSPropertyOp58
 70
     1
102
RTVSPropertyOp59
 70
     1
102
RTVSPropertyOp60
 70
     1
102
RTVSPropertyOp61
 70
     1
102
RTVSPropertyOp62
 70
     1
  0
XRECORD
  5
11C8A
102
{ACAD_REACTORS
330
11C89
102
}
330
11C89
100
AcDbXrecord
280
     1
102
RTVSPost2010Prop28
280
     0
102
RTVSPost2010PropOp28
 70
     1
102
RTVSPost2010Prop29
280
     1
102
RTVSPost2010PropOp29
 70
     1
102
RTVSPost2010Prop30
280
     1
102
RTVSPost2010PropOp30
 70
     1
102
RTVSPost2010Prop31
280
     0
102
RTVSPost2010PropOp31
 70
     1
102
RTVSPost2010Prop32
280
     0
102
RTVSPost2010PropOp32
 70
     1
102
RTVSPost2010Prop33
280
     0
102
RTVSPost2010PropOp33
 70
     1
102
RTVSPost2010Prop34
280
     0
102
RTVSPost2010PropOp34
 70
     1
102
RTVSPost2010Prop35
280
     0
102
RTVSPost2010PropOp35
 70
     1
102
RTVSPost2010Prop36
280
     0
102
RTVSPost2010PropOp36
 70
     1
102
RTVSPost2010Prop37
 90
       50
102
RTVSPost2010PropOp37
 70
     1
102
RTVSPost2010Prop38
140
0.0
102
RTVSPost2010PropOp38
 70
     1
102
RTVSPost2010Prop39
140
1.0
102
RTVSPost2010PropOp39
 70
     1
102
RTVSPost2010Prop40
 90
        0
102
RTVSPost2010PropOp40
 70
     1
102
RTVSPost2010Prop41ColorIndex
 90
       18
102
RTVSPost2010Prop41ColorRGB
 90
        0
102
RTVSPost2010PropOp41
 70
     1
102
RTVSPost2010Prop42
 90
       50
102
RTVSPost2010PropOp42
 70
     1
102
RTVSPost2010Prop43
 90
        3
102
RTVSPost2010PropOp43
 70
     1
102
RTVSPost2010Prop44ColorIndex
 90
        5
102
RTVSPost2010Prop44ColorRGB
 90
      255
102
RTVSPost2010PropOp44
 70
     1
102
RTVSPost2010Prop45
280
     0
102
RTVSPost2010PropOp45
 70
     1
102
RTVSPost2010Prop46
 90
       50
102
RTVSPost2010PropOp46
 70
     1
102
RTVSPost2010Prop47
 90
       50
102
RTVSPost2010PropOp47
 70
     1
102
RTVSPost2010Prop48
 90
       50
102
RTVSPost2010PropOp48
 70
     1
102
RTVSPost2010Prop49
280
     0
102
RTVSPost2010PropOp49
 70
     1
102
RTVSPost2010Prop50
 90
       50
102
RTVSPost2010PropOp50
 70
     1
102
RTVSPost2010Prop51ColorIndex
 90
      256
102
RTVSPost2010Prop51ColorRGB
 90
-16777216
102
RTVSPost2010PropOp51
 70
     0
102
RTVSPost2010Prop52
140
1.0
102
RTVSPost2010PropOp52
 70
     0
102
RTVSPost2010Prop53
 90
        2
102
RTVSPost2010PropOp53
 70
     1
102
RTVSPost2010Prop54
  1
strokes_ogs.tif
102
RTVSPost2010PropOp54
 70
     1
102
RTVSPost2010Prop55
280
     0
102
RTVSPost2010PropOp55
 70
     1
102
RTVSPost2010Prop56
140
1.0
102
RTVSPost2010PropOp56
 70
     1
102
RTVSPost2010Prop57
140
1.0
102
RTVSPost2010PropOp57
 70
     1
102
RTVSPropertyOp0
 70
     1
102
RTVSPropertyOp1
 70
     1
102
RTVSPropertyOp2
 70
     1
102
RTVSPropertyOp3
 70
     1
102
RTVSPropertyOp4
 70
     1
102
RTVSPropertyOp5
 70
     1
102
RTVSPropertyOp6
 70
     1
102
RTVSPropertyOp7
 70
     1
102
RTVSPropertyOp8
 70
     1
102
RTVSPropertyOp9
 70
     1
102
RTVSPropertyOp10
 70
     1
102
RTVSPropertyOp11
 70
     1
102
RTVSPropertyOp12
 70
     1
102
RTVSPropertyOp13
 70
     1
102
RTVSPropertyOp14
 70
     1
102
RTVSPropertyOp15
 70
     1
102
RTVSPropertyOp16
 70
     1
102
RTVSPropertyOp17
 70
     1
102
RTVSPropertyOp18
 70
     1
102
RTVSPropertyOp19
 70
     1
102
RTVSPropertyOp20
 70
     1
102
RTVSPropertyOp21
 70
     1
102
RTVSPropertyOp22
 70
     1
102
RTVSPropertyOp23
 70
     1
102
RTVSPropertyOp24
 70
     1
102
RTVSPropertyOp25
 70
     1
102
RTVSPropertyOp26
 70
     1
102
RTVSPropertyOp27
 70
     1
102
RTVSPropertyOp28
 70
     1
102
RTVSPropertyOp29
 70
     1
102
RTVSPropertyOp30
 70
     1
102
RTVSPropertyOp31
 70
     1
102
RTVSPropertyOp32
 70
     1
102
RTVSPropertyOp33
 70
     1
102
RTVSPropertyOp34
 70
     1
102
RTVSPropertyOp35
 70
     1
102
RTVSPropertyOp36
 70
     1
102
RTVSPropertyOp37
 70
     1
102
RTVSPropertyOp38
 70
     1
102
RTVSPropertyOp39
 70
     1
102
RTVSPropertyOp40
 70
     1
102
RTVSPropertyOp41
 70
     1
102
RTVSPropertyOp42
 70
     1
102
RTVSPropertyOp43
 70
     1
102
RTVSPropertyOp44
 70
     1
102
RTVSPropertyOp45
 70
     1
102
RTVSPropertyOp46
 70
     1
102
RTVSPropertyOp47
 70
     1
102
RTVSPropertyOp48
 70
     1
102
RTVSPropertyOp49
 70
     1
102
RTVSPropertyOp50
 70
     1
102
RTVSPropertyOp51
 70
     0
102
RTVSPropertyOp52
 70
     0
102
RTVSPropertyOp53
 70
     1
102
RTVSPropertyOp54
 70
     1
102
RTVSPropertyOp55
 70
     1
102
RTVSPropertyOp56
 70
     1
102
RTVSPropertyOp57
 70
     1
102
RTVSPropertyOp58
 70
     1
102
RTVSPropertyOp59
 70
     1
102
RTVSPropertyOp60
 70
     1
102
RTVSPropertyOp61
 70
     1
102
RTVSPropertyOp62
 70
     1
  0
XRECORD
  5
11C84
102
{ACAD_REACTORS
330
11C83
102
}
330
11C83
100
AcDbXrecord
280
     1
102
RTVSPost2010Prop28
280
     0
102
RTVSPost2010PropOp28
 70
     1
102
RTVSPost2010Prop29
280
     1
102
RTVSPost2010PropOp29
 70
     1
102
RTVSPost2010Prop30
280
     1
102
RTVSPost2010PropOp30
 70
     1
102
RTVSPost2010Prop31
280
     0
102
RTVSPost2010PropOp31
 70
     1
102
RTVSPost2010Prop32
280
     0
102
RTVSPost2010PropOp32
 70
     1
102
RTVSPost2010Prop33
280
     0
102
RTVSPost2010PropOp33
 70
     1
102
RTVSPost2010Prop34
280
     0
102
RTVSPost2010PropOp34
 70
     1
102
RTVSPost2010Prop35
280
     0
102
RTVSPost2010PropOp35
 70
     1
102
RTVSPost2010Prop36
280
     0
102
RTVSPost2010PropOp36
 70
     1
102
RTVSPost2010Prop37
 90
       50
102
RTVSPost2010PropOp37
 70
     1
102
RTVSPost2010Prop38
140
0.0
102
RTVSPost2010PropOp38
 70
     1
102
RTVSPost2010Prop39
140
1.0
102
RTVSPost2010PropOp39
 70
     1
102
RTVSPost2010Prop40
 90
        0
102
RTVSPost2010PropOp40
 70
     1
102
RTVSPost2010Prop41ColorIndex
 90
       18
102
RTVSPost2010Prop41ColorRGB
 90
        0
102
RTVSPost2010PropOp41
 70
     1
102
RTVSPost2010Prop42
 90
       50
102
RTVSPost2010PropOp42
 70
     1
102
RTVSPost2010Prop43
 90
        3
102
RTVSPost2010PropOp43
 70
     1
102
RTVSPost2010Prop44ColorIndex
 90
        5
102
RTVSPost2010Prop44ColorRGB
 90
      255
102
RTVSPost2010PropOp44
 70
     1
102
RTVSPost2010Prop45
280
     0
102
RTVSPost2010PropOp45
 70
     1
102
RTVSPost2010Prop46
 90
       50
102
RTVSPost2010PropOp46
 70
     1
102
RTVSPost2010Prop47
 90
       50
102
RTVSPost2010PropOp47
 70
     1
102
RTVSPost2010Prop48
 90
       50
102
RTVSPost2010PropOp48
 70
     1
102
RTVSPost2010Prop49
280
     0
102
RTVSPost2010PropOp49
 70
     1
102
RTVSPost2010Prop50
 90
       50
102
RTVSPost2010PropOp50
 70
     1
102
RTVSPost2010Prop51ColorIndex
 90
      256
102
RTVSPost2010Prop51ColorRGB
 90
-16777216
102
RTVSPost2010PropOp51
 70
     0
102
RTVSPost2010Prop52
140
1.0
102
RTVSPost2010PropOp52
 70
     0
102
RTVSPost2010Prop53
 90
        2
102
RTVSPost2010PropOp53
 70
     1
102
RTVSPost2010Prop54
  1
strokes_ogs.tif
102
RTVSPost2010PropOp54
 70
     1
102
RTVSPost2010Prop55
280
     0
102
RTVSPost2010PropOp55
 70
     1
102
RTVSPost2010Prop56
140
1.0
102
RTVSPost2010PropOp56
 70
     1
102
RTVSPost2010Prop57
140
1.0
102
RTVSPost2010PropOp57
 70
     1
102
RTVSPropertyOp0
 70
     1
102
RTVSPropertyOp1
 70
     1
102
RTVSPropertyOp2
 70
     1
102
RTVSPropertyOp3
 70
     1
102
RTVSPropertyOp4
 70
     1
102
RTVSPropertyOp5
 70
     1
102
RTVSPropertyOp6
 70
     1
102
RTVSPropertyOp7
 70
     1
102
RTVSPropertyOp8
 70
     1
102
RTVSPropertyOp9
 70
     1
102
RTVSPropertyOp10
 70
     1
102
RTVSPropertyOp11
 70
     1
102
RTVSPropertyOp12
 70
     1
102
RTVSPropertyOp13
 70
     1
102
RTVSPropertyOp14
 70
     1
102
RTVSPropertyOp15
 70
     1
102
RTVSPropertyOp16
 70
     1
102
RTVSPropertyOp17
 70
     1
102
RTVSPropertyOp18
 70
     1
102
RTVSPropertyOp19
 70
     1
102
RTVSPropertyOp20
 70
     1
102
RTVSPropertyOp21
 70
     1
102
RTVSPropertyOp22
 70
     1
102
RTVSPropertyOp23
 70
     1
102
RTVSPropertyOp24
 70
     1
102
RTVSPropertyOp25
 70
     1
102
RTVSPropertyOp26
 70
     1
102
RTVSPropertyOp27
 70
     1
102
RTVSPropertyOp28
 70
     1
102
RTVSPropertyOp29
 70
     1
102
RTVSPropertyOp30
 70
     1
102
RTVSPropertyOp31
 70
     1
102
RTVSPropertyOp32
 70
     1
102
RTVSPropertyOp33
 70
     1
102
RTVSPropertyOp34
 70
     1
102
RTVSPropertyOp35
 70
     1
102
RTVSPropertyOp36
 70
     1
102
RTVSPropertyOp37
 70
     1
102
RTVSPropertyOp38
 70
     1
102
RTVSPropertyOp39
 70
     1
102
RTVSPropertyOp40
 70
     1
102
RTVSPropertyOp41
 70
     1
102
RTVSPropertyOp42
 70
     1
102
RTVSPropertyOp43
 70
     1
102
RTVSPropertyOp44
 70
     1
102
RTVSPropertyOp45
 70
     1
102
RTVSPropertyOp46
 70
     1
102
RTVSPropertyOp47
 70
     1
102
RTVSPropertyOp48
 70
     1
102
RTVSPropertyOp49
 70
     1
102
RTVSPropertyOp50
 70
     1
102
RTVSPropertyOp51
 70
     0
102
RTVSPropertyOp52
 70
     0
102
RTVSPropertyOp53
 70
     1
102
RTVSPropertyOp54
 70
     1
102
RTVSPropertyOp55
 70
     1
102
RTVSPropertyOp56
 70
     1
102
RTVSPropertyOp57
 70
     1
102
RTVSPropertyOp58
 70
     1
102
RTVSPropertyOp59
 70
     1
102
RTVSPropertyOp60
 70
     1
102
RTVSPropertyOp61
 70
     1
102
RTVSPropertyOp62
 70
     1
  0
XRECORD
  5
11C86
102
{ACAD_REACTORS
330
11C85
102
}
330
11C85
100
AcDbXrecord
280
     1
102
RTVSPost2010Prop28
280
     0
102
RTVSPost2010PropOp28
 70
     1
102
RTVSPost2010Prop29
280
     1
102
RTVSPost2010PropOp29
 70
     1
102
RTVSPost2010Prop30
280
     1
102
RTVSPost2010PropOp30
 70
     1
102
RTVSPost2010Prop31
280
     0
102
RTVSPost2010PropOp31
 70
     1
102
RTVSPost2010Prop32
280
     0
102
RTVSPost2010PropOp32
 70
     1
102
RTVSPost2010Prop33
280
     0
102
RTVSPost2010PropOp33
 70
     1
102
RTVSPost2010Prop34
280
     0
102
RTVSPost2010PropOp34
 70
     1
102
RTVSPost2010Prop35
280
     0
102
RTVSPost2010PropOp35
 70
     1
102
RTVSPost2010Prop36
280
     0
102
RTVSPost2010PropOp36
 70
     1
102
RTVSPost2010Prop37
 90
       50
102
RTVSPost2010PropOp37
 70
     1
102
RTVSPost2010Prop38
140
0.0
102
RTVSPost2010PropOp38
 70
     1
102
RTVSPost2010Prop39
140
1.0
102
RTVSPost2010PropOp39
 70
     1
102
RTVSPost2010Prop40
 90
        0
102
RTVSPost2010PropOp40
 70
     1
102
RTVSPost2010Prop41ColorIndex
 90
       18
102
RTVSPost2010Prop41ColorRGB
 90
        0
102
RTVSPost2010PropOp41
 70
     1
102
RTVSPost2010Prop42
 90
       50
102
RTVSPost2010PropOp42
 70
     1
102
RTVSPost2010Prop43
 90
        3
102
RTVSPost2010PropOp43
 70
     1
102
RTVSPost2010Prop44ColorIndex
 90
        5
102
RTVSPost2010Prop44ColorRGB
 90
      255
102
RTVSPost2010PropOp44
 70
     1
102
RTVSPost2010Prop45
280
     0
102
RTVSPost2010PropOp45
 70
     1
102
RTVSPost2010Prop46
 90
       50
102
RTVSPost2010PropOp46
 70
     1
102
RTVSPost2010Prop47
 90
       50
102
RTVSPost2010PropOp47
 70
     1
102
RTVSPost2010Prop48
 90
       50
102
RTVSPost2010PropOp48
 70
     1
102
RTVSPost2010Prop49
280
     0
102
RTVSPost2010PropOp49
 70
     1
102
RTVSPost2010Prop50
 90
       50
102
RTVSPost2010PropOp50
 70
     1
102
RTVSPost2010Prop51ColorIndex
 90
      256
102
RTVSPost2010Prop51ColorRGB
 90
-16777216
102
RTVSPost2010PropOp51
 70
     0
102
RTVSPost2010Prop52
140
1.0
102
RTVSPost2010PropOp52
 70
     0
102
RTVSPost2010Prop53
 90
        2
102
RTVSPost2010PropOp53
 70
     1
102
RTVSPost2010Prop54
  1
strokes_ogs.tif
102
RTVSPost2010PropOp54
 70
     1
102
RTVSPost2010Prop55
280
     0
102
RTVSPost2010PropOp55
 70
     1
102
RTVSPost2010Prop56
140
1.0
102
RTVSPost2010PropOp56
 70
     1
102
RTVSPost2010Prop57
140
1.0
102
RTVSPost2010PropOp57
 70
     1
102
RTVSPropertyOp0
 70
     1
102
RTVSPropertyOp1
 70
     1
102
RTVSPropertyOp2
 70
     1
102
RTVSPropertyOp3
 70
     1
102
RTVSPropertyOp4
 70
     1
102
RTVSPropertyOp5
 70
     1
102
RTVSPropertyOp6
 70
     1
102
RTVSPropertyOp7
 70
     1
102
RTVSPropertyOp8
 70
     1
102
RTVSPropertyOp9
 70
     1
102
RTVSPropertyOp10
 70
     1
102
RTVSPropertyOp11
 70
     1
102
RTVSPropertyOp12
 70
     1
102
RTVSPropertyOp13
 70
     1
102
RTVSPropertyOp14
 70
     1
102
RTVSPropertyOp15
 70
     1
102
RTVSPropertyOp16
 70
     1
102
RTVSPropertyOp17
 70
     1
102
RTVSPropertyOp18
 70
     1
102
RTVSPropertyOp19
 70
     1
102
RTVSPropertyOp20
 70
     1
102
RTVSPropertyOp21
 70
     1
102
RTVSPropertyOp22
 70
     1
102
RTVSPropertyOp23
 70
     1
102
RTVSPropertyOp24
 70
     1
102
RTVSPropertyOp25
 70
     1
102
RTVSPropertyOp26
 70
     1
102
RTVSPropertyOp27
 70
     1
102
RTVSPropertyOp28
 70
     1
102
RTVSPropertyOp29
 70
     1
102
RTVSPropertyOp30
 70
     1
102
RTVSPropertyOp31
 70
     1
102
RTVSPropertyOp32
 70
     1
102
RTVSPropertyOp33
 70
     1
102
RTVSPropertyOp34
 70
     1
102
RTVSPropertyOp35
 70
     1
102
RTVSPropertyOp36
 70
     1
102
RTVSPropertyOp37
 70
     1
102
RTVSPropertyOp38
 70
     1
102
RTVSPropertyOp39
 70
     1
102
RTVSPropertyOp40
 70
     1
102
RTVSPropertyOp41
 70
     1
102
RTVSPropertyOp42
 70
     1
102
RTVSPropertyOp43
 70
     1
102
RTVSPropertyOp44
 70
     1
102
RTVSPropertyOp45
 70
     1
102
RTVSPropertyOp46
 70
     1
102
RTVSPropertyOp47
 70
     1
102
RTVSPropertyOp48
 70
     1
102
RTVSPropertyOp49
 70
     1
102
RTVSPropertyOp50
 70
     1
102
RTVSPropertyOp51
 70
     0
102
RTVSPropertyOp52
 70
     0
102
RTVSPropertyOp53
 70
     1
102
RTVSPropertyOp54
 70
     1
102
RTVSPropertyOp55
 70
     1
102
RTVSPropertyOp56
 70
     1
102
RTVSPropertyOp57
 70
     1
102
RTVSPropertyOp58
 70
     1
102
RTVSPropertyOp59
 70
     1
102
RTVSPropertyOp60
 70
     1
102
RTVSPropertyOp61
 70
     1
102
RTVSPropertyOp62
 70
     1
  0
XRECORD
  5
11C74
102
{ACAD_REACTORS
330
11C73
102
}
330
11C73
100
AcDbXrecord
280
     1
102
RTVSPost2010Prop28
280
     0
102
RTVSPost2010PropOp28
 70
     1
102
RTVSPost2010Prop29
280
     1
102
RTVSPost2010PropOp29
 70
     1
102
RTVSPost2010Prop30
280
     1
102
RTVSPost2010PropOp30
 70
     1
102
RTVSPost2010Prop31
280
     0
102
RTVSPost2010PropOp31
 70
     1
102
RTVSPost2010Prop32
280
     0
102
RTVSPost2010PropOp32
 70
     1
102
RTVSPost2010Prop33
280
     0
102
RTVSPost2010PropOp33
 70
     1
102
RTVSPost2010Prop34
280
     0
102
RTVSPost2010PropOp34
 70
     1
102
RTVSPost2010Prop35
280
     0
102
RTVSPost2010PropOp35
 70
     1
102
RTVSPost2010Prop36
280
     0
102
RTVSPost2010PropOp36
 70
     1
102
RTVSPost2010Prop37
 90
       50
102
RTVSPost2010PropOp37
 70
     1
102
RTVSPost2010Prop38
140
0.0
102
RTVSPost2010PropOp38
 70
     1
102
RTVSPost2010Prop39
140
1.0
102
RTVSPost2010PropOp39
 70
     1
102
RTVSPost2010Prop40
 90
        0
102
RTVSPost2010PropOp40
 70
     1
102
RTVSPost2010Prop41ColorIndex
 90
       18
102
RTVSPost2010Prop41ColorRGB
 90
        0
102
RTVSPost2010PropOp41
 70
     1
102
RTVSPost2010Prop42
 90
       50
102
RTVSPost2010PropOp42
 70
     1
102
RTVSPost2010Prop43
 90
        3
102
RTVSPost2010PropOp43
 70
     1
102
RTVSPost2010Prop44ColorIndex
 90
        5
102
RTVSPost2010Prop44ColorRGB
 90
      255
102
RTVSPost2010PropOp44
 70
     1
102
RTVSPost2010Prop45
280
     0
102
RTVSPost2010PropOp45
 70
     1
102
RTVSPost2010Prop46
 90
       50
102
RTVSPost2010PropOp46
 70
     1
102
RTVSPost2010Prop47
 90
       50
102
RTVSPost2010PropOp47
 70
     1
102
RTVSPost2010Prop48
 90
       50
102
RTVSPost2010PropOp48
 70
     1
102
RTVSPost2010Prop49
280
     0
102
RTVSPost2010PropOp49
 70
     1
102
RTVSPost2010Prop50
 90
       50
102
RTVSPost2010PropOp50
 70
     1
102
RTVSPost2010Prop51ColorIndex
 90
      256
102
RTVSPost2010Prop51ColorRGB
 90
-16777216
102
RTVSPost2010PropOp51
 70
     0
102
RTVSPost2010Prop52
140
1.0
102
RTVSPost2010PropOp52
 70
     0
102
RTVSPost2010Prop53
 90
        2
102
RTVSPost2010PropOp53
 70
     1
102
RTVSPost2010Prop54
  1
strokes_ogs.tif
102
RTVSPost2010PropOp54
 70
     1
102
RTVSPost2010Prop55
280
     0
102
RTVSPost2010PropOp55
 70
     1
102
RTVSPost2010Prop56
140
1.0
102
RTVSPost2010PropOp56
 70
     1
102
RTVSPost2010Prop57
140
1.0
102
RTVSPost2010PropOp57
 70
     1
102
RTVSPropertyOp0
 70
     1
102
RTVSPropertyOp1
 70
     1
102
RTVSPropertyOp2
 70
     1
102
RTVSPropertyOp3
 70
     1
102
RTVSPropertyOp4
 70
     1
102
RTVSPropertyOp5
 70
     1
102
RTVSPropertyOp6
 70
     1
102
RTVSPropertyOp7
 70
     1
102
RTVSPropertyOp8
 70
     1
102
RTVSPropertyOp9
 70
     1
102
RTVSPropertyOp10
 70
     1
102
RTVSPropertyOp11
 70
     1
102
RTVSPropertyOp12
 70
     1
102
RTVSPropertyOp13
 70
     1
102
RTVSPropertyOp14
 70
     1
102
RTVSPropertyOp15
 70
     1
102
RTVSPropertyOp16
 70
     1
102
RTVSPropertyOp17
 70
     1
102
RTVSPropertyOp18
 70
     1
102
RTVSPropertyOp19
 70
     1
102
RTVSPropertyOp20
 70
     1
102
RTVSPropertyOp21
 70
     1
102
RTVSPropertyOp22
 70
     1
102
RTVSPropertyOp23
 70
     1
102
RTVSPropertyOp24
 70
     1
102
RTVSPropertyOp25
 70
     1
102
RTVSPropertyOp26
 70
     1
102
RTVSPropertyOp27
 70
     1
102
RTVSPropertyOp28
 70
     1
102
RTVSPropertyOp29
 70
     1
102
RTVSPropertyOp30
 70
     1
102
RTVSPropertyOp31
 70
     1
102
RTVSPropertyOp32
 70
     1
102
RTVSPropertyOp33
 70
     1
102
RTVSPropertyOp34
 70
     1
102
RTVSPropertyOp35
 70
     1
102
RTVSPropertyOp36
 70
     1
102
RTVSPropertyOp37
 70
     1
102
RTVSPropertyOp38
 70
     1
102
RTVSPropertyOp39
 70
     1
102
RTVSPropertyOp40
 70
     1
102
RTVSPropertyOp41
 70
     1
102
RTVSPropertyOp42
 70
     1
102
RTVSPropertyOp43
 70
     1
102
RTVSPropertyOp44
 70
     1
102
RTVSPropertyOp45
 70
     1
102
RTVSPropertyOp46
 70
     1
102
RTVSPropertyOp47
 70
     1
102
RTVSPropertyOp48
 70
     1
102
RTVSPropertyOp49
 70
     1
102
RTVSPropertyOp50
 70
     1
102
RTVSPropertyOp51
 70
     0
102
RTVSPropertyOp52
 70
     0
102
RTVSPropertyOp53
 70
     1
102
RTVSPropertyOp54
 70
     1
102
RTVSPropertyOp55
 70
     1
102
RTVSPropertyOp56
 70
     1
102
RTVSPropertyOp57
 70
     1
102
RTVSPropertyOp58
 70
     1
102
RTVSPropertyOp59
 70
     1
102
RTVSPropertyOp60
 70
     1
102
RTVSPropertyOp61
 70
     1
102
RTVSPropertyOp62
 70
     1
  0
XRECORD
  5
11C68
102
{ACAD_REACTORS
330
11C67
102
}
330
11C67
100
AcDbXrecord
280
     1
102
RTVSPost2010Prop28
280
     0
102
RTVSPost2010PropOp28
 70
     1
102
RTVSPost2010Prop29
280
     1
102
RTVSPost2010PropOp29
 70
     1
102
RTVSPost2010Prop30
280
     1
102
RTVSPost2010PropOp30
 70
     1
102
RTVSPost2010Prop31
280
     0
102
RTVSPost2010PropOp31
 70
     1
102
RTVSPost2010Prop32
280
     0
102
RTVSPost2010PropOp32
 70
     1
102
RTVSPost2010Prop33
280
     0
102
RTVSPost2010PropOp33
 70
     1
102
RTVSPost2010Prop34
280
     0
102
RTVSPost2010PropOp34
 70
     1
102
RTVSPost2010Prop35
280
     0
102
RTVSPost2010PropOp35
 70
     1
102
RTVSPost2010Prop36
280
     0
102
RTVSPost2010PropOp36
 70
     1
102
RTVSPost2010Prop37
 90
       50
102
RTVSPost2010PropOp37
 70
     1
102
RTVSPost2010Prop38
140
0.0
102
RTVSPost2010PropOp38
 70
     1
102
RTVSPost2010Prop39
140
1.0
102
RTVSPost2010PropOp39
 70
     1
102
RTVSPost2010Prop40
 90
        0
102
RTVSPost2010PropOp40
 70
     1
102
RTVSPost2010Prop41ColorIndex
 90
       18
102
RTVSPost2010Prop41ColorRGB
 90
        0
102
RTVSPost2010PropOp41
 70
     1
102
RTVSPost2010Prop42
 90
       50
102
RTVSPost2010PropOp42
 70
     1
102
RTVSPost2010Prop43
 90
        3
102
RTVSPost2010PropOp43
 70
     1
102
RTVSPost2010Prop44ColorIndex
 90
        5
102
RTVSPost2010Prop44ColorRGB
 90
      255
102
RTVSPost2010PropOp44
 70
     1
102
RTVSPost2010Prop45
280
     0
102
RTVSPost2010PropOp45
 70
     1
102
RTVSPost2010Prop46
 90
       50
102
RTVSPost2010PropOp46
 70
     1
102
RTVSPost2010Prop47
 90
       50
102
RTVSPost2010PropOp47
 70
     1
102
RTVSPost2010Prop48
 90
       50
102
RTVSPost2010PropOp48
 70
     1
102
RTVSPost2010Prop49
280
     0
102
RTVSPost2010PropOp49
 70
     1
102
RTVSPost2010Prop50
 90
       50
102
RTVSPost2010PropOp50
 70
     1
102
RTVSPost2010Prop51ColorIndex
 90
      256
102
RTVSPost2010Prop51ColorRGB
 90
-16777216
102
RTVSPost2010PropOp51
 70
     0
102
RTVSPost2010Prop52
140
1.0
102
RTVSPost2010PropOp52
 70
     0
102
RTVSPost2010Prop53
 90
        2
102
RTVSPost2010PropOp53
 70
     1
102
RTVSPost2010Prop54
  1
strokes_ogs.tif
102
RTVSPost2010PropOp54
 70
     1
102
RTVSPost2010Prop55
280
     0
102
RTVSPost2010PropOp55
 70
     1
102
RTVSPost2010Prop56
140
1.0
102
RTVSPost2010PropOp56
 70
     1
102
RTVSPost2010Prop57
140
1.0
102
RTVSPost2010PropOp57
 70
     1
102
RTVSPropertyOp0
 70
     1
102
RTVSPropertyOp1
 70
     1
102
RTVSPropertyOp2
 70
     1
102
RTVSPropertyOp3
 70
     1
102
RTVSPropertyOp4
 70
     1
102
RTVSPropertyOp5
 70
     1
102
RTVSPropertyOp6
 70
     1
102
RTVSPropertyOp7
 70
     1
102
RTVSPropertyOp8
 70
     1
102
RTVSPropertyOp9
 70
     1
102
RTVSPropertyOp10
 70
     1
102
RTVSPropertyOp11
 70
     1
102
RTVSPropertyOp12
 70
     1
102
RTVSPropertyOp13
 70
     1
102
RTVSPropertyOp14
 70
     1
102
RTVSPropertyOp15
 70
     1
102
RTVSPropertyOp16
 70
     1
102
RTVSPropertyOp17
 70
     1
102
RTVSPropertyOp18
 70
     1
102
RTVSPropertyOp19
 70
     1
102
RTVSPropertyOp20
 70
     1
102
RTVSPropertyOp21
 70
     1
102
RTVSPropertyOp22
 70
     1
102
RTVSPropertyOp23
 70
     1
102
RTVSPropertyOp24
 70
     1
102
RTVSPropertyOp25
 70
     1
102
RTVSPropertyOp26
 70
     1
102
RTVSPropertyOp27
 70
     1
102
RTVSPropertyOp28
 70
     1
102
RTVSPropertyOp29
 70
     1
102
RTVSPropertyOp30
 70
     1
102
RTVSPropertyOp31
 70
     1
102
RTVSPropertyOp32
 70
     1
102
RTVSPropertyOp33
 70
     1
102
RTVSPropertyOp34
 70
     1
102
RTVSPropertyOp35
 70
     1
102
RTVSPropertyOp36
 70
     1
102
RTVSPropertyOp37
 70
     1
102
RTVSPropertyOp38
 70
     1
102
RTVSPropertyOp39
 70
     1
102
RTVSPropertyOp40
 70
     1
102
RTVSPropertyOp41
 70
     1
102
RTVSPropertyOp42
 70
     1
102
RTVSPropertyOp43
 70
     1
102
RTVSPropertyOp44
 70
     1
102
RTVSPropertyOp45
 70
     1
102
RTVSPropertyOp46
 70
     1
102
RTVSPropertyOp47
 70
     1
102
RTVSPropertyOp48
 70
     1
102
RTVSPropertyOp49
 70
     1
102
RTVSPropertyOp50
 70
     1
102
RTVSPropertyOp51
 70
     0
102
RTVSPropertyOp52
 70
     0
102
RTVSPropertyOp53
 70
     1
102
RTVSPropertyOp54
 70
     1
102
RTVSPropertyOp55
 70
     1
102
RTVSPropertyOp56
 70
     1
102
RTVSPropertyOp57
 70
     1
102
RTVSPropertyOp58
 70
     1
102
RTVSPropertyOp59
 70
     1
102
RTVSPropertyOp60
 70
     1
102
RTVSPropertyOp61
 70
     1
102
RTVSPropertyOp62
 70
     1
  0
XRECORD
  5
11C88
102
{ACAD_REACTORS
330
11C87
102
}
330
11C87
100
AcDbXrecord
280
     1
102
RTVSPost2010Prop28
280
     0
102
RTVSPost2010PropOp28
 70
     1
102
RTVSPost2010Prop29
280
     1
102
RTVSPost2010PropOp29
 70
     1
102
RTVSPost2010Prop30
280
     1
102
RTVSPost2010PropOp30
 70
     1
102
RTVSPost2010Prop31
280
     0
102
RTVSPost2010PropOp31
 70
     1
102
RTVSPost2010Prop32
280
     0
102
RTVSPost2010PropOp32
 70
     1
102
RTVSPost2010Prop33
280
     0
102
RTVSPost2010PropOp33
 70
     1
102
RTVSPost2010Prop34
280
     0
102
RTVSPost2010PropOp34
 70
     1
102
RTVSPost2010Prop35
280
     0
102
RTVSPost2010PropOp35
 70
     1
102
RTVSPost2010Prop36
280
     0
102
RTVSPost2010PropOp36
 70
     1
102
RTVSPost2010Prop37
 90
       50
102
RTVSPost2010PropOp37
 70
     1
102
RTVSPost2010Prop38
140
0.0
102
RTVSPost2010PropOp38
 70
     1
102
RTVSPost2010Prop39
140
1.0
102
RTVSPost2010PropOp39
 70
     1
102
RTVSPost2010Prop40
 90
        0
102
RTVSPost2010PropOp40
 70
     1
102
RTVSPost2010Prop41ColorIndex
 90
       18
102
RTVSPost2010Prop41ColorRGB
 90
        0
102
RTVSPost2010PropOp41
 70
     1
102
RTVSPost2010Prop42
 90
       50
102
RTVSPost2010PropOp42
 70
     1
102
RTVSPost2010Prop43
 90
        3
102
RTVSPost2010PropOp43
 70
     1
102
RTVSPost2010Prop44ColorIndex
 90
        5
102
RTVSPost2010Prop44ColorRGB
 90
      255
102
RTVSPost2010PropOp44
 70
     1
102
RTVSPost2010Prop45
280
     0
102
RTVSPost2010PropOp45
 70
     1
102
RTVSPost2010Prop46
 90
       50
102
RTVSPost2010PropOp46
 70
     1
102
RTVSPost2010Prop47
 90
       50
102
RTVSPost2010PropOp47
 70
     1
102
RTVSPost2010Prop48
 90
       50
102
RTVSPost2010PropOp48
 70
     1
102
RTVSPost2010Prop49
280
     0
102
RTVSPost2010PropOp49
 70
     1
102
RTVSPost2010Prop50
 90
       50
102
RTVSPost2010PropOp50
 70
     1
102
RTVSPost2010Prop51ColorIndex
 90
      256
102
RTVSPost2010Prop51ColorRGB
 90
-16777216
102
RTVSPost2010PropOp51
 70
     0
102
RTVSPost2010Prop52
140
1.0
102
RTVSPost2010PropOp52
 70
     0
102
RTVSPost2010Prop53
 90
        2
102
RTVSPost2010PropOp53
 70
     1
102
RTVSPost2010Prop54
  1
strokes_ogs.tif
102
RTVSPost2010PropOp54
 70
     1
102
RTVSPost2010Prop55
280
     0
102
RTVSPost2010PropOp55
 70
     1
102
RTVSPost2010Prop56
140
1.0
102
RTVSPost2010PropOp56
 70
     1
102
RTVSPost2010Prop57
140
1.0
102
RTVSPost2010PropOp57
 70
     1
102
RTVSPropertyOp0
 70
     1
102
RTVSPropertyOp1
 70
     1
102
RTVSPropertyOp2
 70
     1
102
RTVSPropertyOp3
 70
     1
102
RTVSPropertyOp4
 70
     1
102
RTVSPropertyOp5
 70
     1
102
RTVSPropertyOp6
 70
     1
102
RTVSPropertyOp7
 70
     1
102
RTVSPropertyOp8
 70
     1
102
RTVSPropertyOp9
 70
     1
102
RTVSPropertyOp10
 70
     1
102
RTVSPropertyOp11
 70
     1
102
RTVSPropertyOp12
 70
     1
102
RTVSPropertyOp13
 70
     1
102
RTVSPropertyOp14
 70
     1
102
RTVSPropertyOp15
 70
     1
102
RTVSPropertyOp16
 70
     1
102
RTVSPropertyOp17
 70
     1
102
RTVSPropertyOp18
 70
     1
102
RTVSPropertyOp19
 70
     1
102
RTVSPropertyOp20
 70
     1
102
RTVSPropertyOp21
 70
     1
102
RTVSPropertyOp22
 70
     1
102
RTVSPropertyOp23
 70
     1
102
RTVSPropertyOp24
 70
     1
102
RTVSPropertyOp25
 70
     1
102
RTVSPropertyOp26
 70
     1
102
RTVSPropertyOp27
 70
     1
102
RTVSPropertyOp28
 70
     1
102
RTVSPropertyOp29
 70
     1
102
RTVSPropertyOp30
 70
     1
102
RTVSPropertyOp31
 70
     1
102
RTVSPropertyOp32
 70
     1
102
RTVSPropertyOp33
 70
     1
102
RTVSPropertyOp34
 70
     1
102
RTVSPropertyOp35
 70
     1
102
RTVSPropertyOp36
 70
     1
102
RTVSPropertyOp37
 70
     1
102
RTVSPropertyOp38
 70
     1
102
RTVSPropertyOp39
 70
     1
102
RTVSPropertyOp40
 70
     1
102
RTVSPropertyOp41
 70
     1
102
RTVSPropertyOp42
 70
     1
102
RTVSPropertyOp43
 70
     1
102
RTVSPropertyOp44
 70
     1
102
RTVSPropertyOp45
 70
     1
102
RTVSPropertyOp46
 70
     1
102
RTVSPropertyOp47
 70
     1
102
RTVSPropertyOp48
 70
     1
102
RTVSPropertyOp49
 70
     1
102
RTVSPropertyOp50
 70
     1
102
RTVSPropertyOp51
 70
     0
102
RTVSPropertyOp52
 70
     0
102
RTVSPropertyOp53
 70
     1
102
RTVSPropertyOp54
 70
     1
102
RTVSPropertyOp55
 70
     1
102
RTVSPropertyOp56
 70
     1
102
RTVSPropertyOp57
 70
     1
102
RTVSPropertyOp58
 70
     1
102
RTVSPropertyOp59
 70
     1
102
RTVSPropertyOp60
 70
     1
102
RTVSPropertyOp61
 70
     1
102
RTVSPropertyOp62
 70
     1
  0
ENDSEC
  0
EOF
