  0
SECTION
  2
HEADER
  9
$ACADVER
  1
AC1015
  9
$ACADMAINTVER
 70
    18
  9
$DWGCODEPAGE
  3
ANSI_1252
  9
$INSBASE
 10
0.0
 20
0.0
 30
0.0
  9
$EXTMIN
 10
-277.4450677044748
 20
-531.143096850653
 30
-0.0015258207003583
  9
$EXTMAX
 10
341.1218270579375
 20
515.5806894225309
 30
0.0000000349246037
  9
$LIMMIN
 10
0.0
 20
0.0
  9
$LIMMAX
 10
420.0
 20
297.0
  9
$ORTHOMODE
 70
     0
  9
$REGENMODE
 70
     1
  9
$FILLMODE
 70
     1
  9
$QTEXTMODE
 70
     0
  9
$MIRRTEXT
 70
     0
  9
$LTSCALE
 40
1.0
  9
$ATTMODE
 70
     1
  9
$TEXTSIZE
 40
2.5
  9
$TRACEWID
 40
1.0
  9
$TEXTSTYLE
  7
Standard
  9
$CLAYER
  8
0
  9
$CELTYPE
  6
ByLayer
  9
$CECOLOR
 62
   256
  9
$CELTSCALE
 40
1.0
  9
$DISPSILH
 70
     0
  9
$DIMSCALE
 40
1.0
  9
$DIMASZ
 40
2.5
  9
$DIMEXO
 40
0.625
  9
$DIMDLI
 40
3.75
  9
$DIMRND
 40
0.0
  9
$DIMDLE
 40
0.0
  9
$DIMEXE
 40
1.25
  9
$DIMTP
 40
0.0
  9
$DIMTM
 40
0.0
  9
$DIMTXT
 40
2.5
  9
$DIMCEN
 40
2.5
  9
$DIMTSZ
 40
0.0
  9
$DIMTOL
 70
     0
  9
$DIMLIM
 70
     0
  9
$DIMTIH
 70
     0
  9
$DIMTOH
 70
     0
  9
$DIMSE1
 70
     0
  9
$DIMSE2
 70
     0
  9
$DIMTAD
 70
     1
  9
$DIMZIN
 70
     8
  9
$DIMBLK
  1

  9
$DIMASO
 70
     1
  9
$DIMSHO
 70
     1
  9
$DIMPOST
  1

  9
$DIMAPOST
  1

  9
$DIMALT
 70
     0
  9
$DIMALTD
 70
     3
  9
$DIMALTF
 40
0.03937007874016
  9
$DIMLFAC
 40
1.0
  9
$DIMTOFL
 70
     1
  9
$DIMTVP
 40
0.0
  9
$DIMTIX
 70
     0
  9
$DIMSOXD
 70
     0
  9
$DIMSAH
 70
     0
  9
$DIMBLK1
  1

  9
$DIMBLK2
  1

  9
$DIMSTYLE
  2
ISO-25
  9
$DIMCLRD
 70
     0
  9
$DIMCLRE
 70
     0
  9
$DIMCLRT
 70
     0
  9
$DIMTFAC
 40
1.0
  9
$DIMGAP
 40
0.625
  9
$DIMJUST
 70
     0
  9
$DIMSD1
 70
     0
  9
$DIMSD2
 70
     0
  9
$DIMTOLJ
 70
     0
  9
$DIMTZIN
 70
     8
  9
$DIMALTZ
 70
     0
  9
$DIMALTTZ
 70
     0
  9
$DIMUPT
 70
     0
  9
$DIMDEC
 70
     2
  9
$DIMTDEC
 70
     2
  9
$DIMALTU
 70
     2
  9
$DIMALTTD
 70
     3
  9
$DIMTXSTY
  7
Standard
  9
$DIMAUNIT
 70
     0
  9
$DIMADEC
 70
     0
  9
$DIMALTRND
 40
0.0
  9
$DIMAZIN
 70
     0
  9
$DIMDSEP
 70
    44
  9
$DIMATFIT
 70
     3
  9
$DIMFRAC
 70
     0
  9
$DIMLDRBLK
  1

  9
$DIMLUNIT
 70
     2
  9
$DIMLWD
 70
    -2
  9
$DIMLWE
 70
    -2
  9
$DIMTMOVE
 70
     0
  9
$LUNITS
 70
     2
  9
$LUPREC
 70
     4
  9
$SKETCHINC
 40
1.0
  9
$FILLETRAD
 40
0.0
  9
$AUNITS
 70
     0
  9
$AUPREC
 70
     0
  9
$MENU
  1
.
  9
$ELEVATION
 40
0.0
  9
$PELEVATION
 40
0.0
  9
$THICKNESS
 40
0.0
  9
$LIMCHECK
 70
     0
  9
$CHAMFERA
 40
0.0
  9
$CHAMFERB
 40
0.0
  9
$CHAMFERC
 40
0.0
  9
$CHAMFERD
 40
0.0
  9
$SKPOLY
 70
     0
  9
$TDCREATE
 40
2460719.406504630
  9
$TDUCREATE
 40
2460719.114837963
  9
$TDUPDATE
 40
2460719.415856482
  9
$TDUUPDATE
 40
2460719.124189815
  9
$TDINDWG
 40
0.0026967593
  9
$TDUSRTIMER
 40
0.0026967593
  9
$USRTIMER
 70
     1
  9
$ANGBASE
 50
0.0
  9
$ANGDIR
 70
     0
  9
$PDMODE
 70
     0
  9
$PDSIZE
 40
0.0
  9
$PLINEWID
 40
0.0
  9
$SPLFRAME
 70
     0
  9
$SPLINETYPE
 70
     6
  9
$SPLINESEGS
 70
     8
  9
$HANDSEED
  5
118FA
  9
$SURFTAB1
 70
     6
  9
$SURFTAB2
 70
     6
  9
$SURFTYPE
 70
     6
  9
$SURFU
 70
     6
  9
$SURFV
 70
     6
  9
$UCSBASE
  2

  9
$UCSNAME
  2

  9
$UCSORG
 10
0.0
 20
0.0
 30
0.0
  9
$UCSXDIR
 10
1.0
 20
0.0
 30
0.0
  9
$UCSYDIR
 10
0.0
 20
1.0
 30
0.0
  9
$UCSORTHOREF
  2

  9
$UCSORTHOVIEW
 70
     0
  9
$UCSORGTOP
 10
0.0
 20
0.0
 30
0.0
  9
$UCSORGBOTTOM
 10
0.0
 20
0.0
 30
0.0
  9
$UCSORGLEFT
 10
0.0
 20
0.0
 30
0.0
  9
$UCSORGRIGHT
 10
0.0
 20
0.0
 30
0.0
  9
$UCSORGFRONT
 10
0.0
 20
0.0
 30
0.0
  9
$UCSORGBACK
 10
0.0
 20
0.0
 30
0.0
  9
$PUCSBASE
  2

  9
$PUCSNAME
  2

  9
$PUCSORG
 10
0.0
 20
0.0
 30
0.0
  9
$PUCSXDIR
 10
1.0
 20
0.0
 30
0.0
  9
$PUCSYDIR
 10
0.0
 20
1.0
 30
0.0
  9
$PUCSORTHOREF
  2

  9
$PUCSORTHOVIEW
 70
     0
  9
$PUCSORGTOP
 10
0.0
 20
0.0
 30
0.0
  9
$PUCSORGBOTTOM
 10
0.0
 20
0.0
 30
0.0
  9
$PUCSORGLEFT
 10
0.0
 20
0.0
 30
0.0
  9
$PUCSORGRIGHT
 10
0.0
 20
0.0
 30
0.0
  9
$PUCSORGFRONT
 10
0.0
 20
0.0
 30
0.0
  9
$PUCSORGBACK
 10
0.0
 20
0.0
 30
0.0
  9
$USERI1
 70
     0
  9
$USERI2
 70
     0
  9
$USERI3
 70
     0
  9
$USERI4
 70
     0
  9
$USERI5
 70
     0
  9
$USERR1
 40
0.0
  9
$USERR2
 40
0.0
  9
$USERR3
 40
0.0
  9
$USERR4
 40
0.0
  9
$USERR5
 40
0.0
  9
$WORLDVIEW
 70
     1
  9
$SHADEDGE
 70
     3
  9
$SHADEDIF
 70
    70
  9
$TILEMODE
 70
     1
  9
$MAXACTVP
 70
    48
  9
$PINSBASE
 10
0.0
 20
0.0
 30
0.0
  9
$PLIMCHECK
 70
     0
  9
$PEXTMIN
 10
0.0
 20
0.0
 30
0.0
  9
$PEXTMAX
 10
0.0
 20
0.0
 30
0.0
  9
$PLIMMIN
 10
0.0
 20
0.0
  9
$PLIMMAX
 10
12.0
 20
9.0
  9
$UNITMODE
 70
     0
  9
$VISRETAIN
 70
     1
  9
$PLINEGEN
 70
     0
  9
$PSLTSCALE
 70
     1
  9
$TREEDEPTH
 70
  3020
  9
$CMLSTYLE
  2
Standard
  9
$CMLJUST
 70
     0
  9
$CMLSCALE
 40
20.0
  9
$PROXYGRAPHICS
 70
     1
  9
$MEASUREMENT
 70
     1
  9
$CELWEIGHT
370
    -1
  9
$ENDCAPS
280
     0
  9
$JOINSTYLE
280
     0
  9
$LWDISPLAY
290
     0
  9
$INSUNITS
 70
     4
  9
$HYPERLINKBASE
  1

  9
$STYLESHEET
  1

  9
$XEDIT
290
     1
  9
$CEPSNTYPE
380
     0
  9
$PSTYLEMODE
290
     1
  9
$FINGERPRINTGUID
  2
{375C693C-302E-BC42-B92A-19F6C371B7B0}
  9
$VERSIONGUID
  2
{89E78FAE-09C2-754E-9FC8-34FC60710D3E}
  9
$EXTNAMES
290
     1
  9
$PSVPSCALE
 40
0.0
  9
$OLESTARTUP
290
     0
  0
ENDSEC
  0
SECTION
  2
CLASSES
  0
CLASS
  1
ACDBDICTIONARYWDFLT
  2
AcDbDictionaryWithDefault
  3
ObjectDBX Classes
 90
        0
280
     0
281
     0
  0
CLASS
  1
ACDBPLACEHOLDER
  2
AcDbPlaceHolder
  3
ObjectDBX Classes
 90
        0
280
     0
281
     0
  0
CLASS
  1
LAYOUT
  2
AcDbLayout
  3
ObjectDBX Classes
 90
        0
280
     0
281
     0
  0
CLASS
  1
DICTIONARYVAR
  2
AcDbDictionaryVar
  3
ObjectDBX Classes
 90
        0
280
     0
281
     0
  0
CLASS
  1
TABLESTYLE
  2
AcDbTableStyle
  3
ObjectDBX Classes
 90
     4095
280
     0
281
     0
  0
CLASS
  1
MATERIAL
  2
AcDbMaterial
  3
ObjectDBX Classes
 90
     1153
280
     0
281
     0
  0
CLASS
  1
VISUALSTYLE
  2
AcDbVisualStyle
  3
ObjectDBX Classes
 90
     4095
280
     0
281
     0
  0
CLASS
  1
SCALE
  2
AcDbScale
  3
ObjectDBX Classes
 90
     1153
280
     0
281
     0
  0
CLASS
  1
MLEADERSTYLE
  2
AcDbMLeaderStyle
  3
ACDB_MLEADERSTYLE_CLASS
 90
     4095
280
     0
281
     0
  0
CLASS
  1
CELLSTYLEMAP
  2
AcDbCellStyleMap
  3
ObjectDBX Classes
 90
     1152
280
     0
281
     0
  0
CLASS
  1
EXACXREFPANELOBJECT
  2
ExAcXREFPanelObject
  3
EXAC_ESW
 90
    33793
280
     0
281
     0
  0
CLASS
  1
NPOCOLLECTION
  2
AcDbImpNonPersistentObjectsCollection
  3
ObjectDBX Classes
 90
    33921
280
     0
281
     0
  0
CLASS
  1
LAYER_INDEX
  2
AcDbLayerIndex
  3
ObjectDBX Classes
 90
    32768
280
     0
281
     0
  0
CLASS
  1
SPATIAL_INDEX
  2
AcDbSpatialIndex
  3
ObjectDBX Classes
 90
    32768
280
     0
281
     0
  0
CLASS
  1
IDBUFFER
  2
AcDbIdBuffer
  3
ObjectDBX Classes
 90
    32768
280
     0
281
     0
  0
CLASS
  1
ACDBSECTIONVIEWSTYLE
  2
AcDbSectionViewStyle
  3
ObjectDBX Classes
 90
     1025
280
     0
281
     0
  0
CLASS
  1
ACDBDETAILVIEWSTYLE
  2
AcDbDetailViewStyle
  3
ObjectDBX Classes
 90
     1025
280
     0
281
     0
  0
CLASS
  1
XRECORD
  2
AcDbXrecord
  3
ObjectDBX Classes
 90
        0
280
     0
281
     0
  0
ENDSEC
  0
SECTION
  2
TABLES
  0
TABLE
  2
VPORT
  5
8
102
{ACAD_XDICTIONARY
360
11808
102
}
330
0
100
AcDbSymbolTable
 70
     1
  0
VPORT
  5
EA
330
8
100
AcDbSymbolTableRecord
100
AcDbViewportTableRecord
  2
*Active
 70
     0
 10
0.0
 20
0.0
 11
1.0
 21
1.0
 12
31.83837967673134
 22
-7.781203714061007
 13
0.0
 23
0.0
 14
10.0
 24
10.0
 15
10.0
 25
10.0
 16
0.0
 26
0.0
 36
1.0
 17
0.0
 27
0.0
 37
0.0
 40
1113.095889121115
 41
0.9846153846153846
 42
50.0
 43
0.0
 44
0.0
 50
0.0
 51
0.0
 71
     0
 72
  1000
 73
     1
 74
     3
 75
     0
 76
     1
 77
     0
 78
     0
281
     0
 65
     1
110
0.0
120
0.0
130
0.0
111
1.0
121
0.0
131
0.0
112
0.0
122
1.0
132
0.0
 79
     0
146
0.0
1001
ACAD_NAV_VCDISPLAY
1070
     3
  0
ENDTAB
  0
TABLE
  2
LTYPE
  5
5
330
0
100
AcDbSymbolTable
 70
     1
  0
LTYPE
  5
14
330
5
100
AcDbSymbolTableRecord
100
AcDbLinetypeTableRecord
  2
ByBlock
 70
     0
  3

 72
    65
 73
     0
 40
0.0
  0
LTYPE
  5
15
330
5
100
AcDbSymbolTableRecord
100
AcDbLinetypeTableRecord
  2
ByLayer
 70
     0
  3

 72
    65
 73
     0
 40
0.0
  0
LTYPE
  5
16
330
5
100
AcDbSymbolTableRecord
100
AcDbLinetypeTableRecord
  2
Continuous
 70
     0
  3
Solid line
 72
    65
 73
     0
 40
0.0
  0
ENDTAB
  0
TABLE
  2
LAYER
  5
2
102
{ACAD_XDICTIONARY
360
1FF
102
}
330
0
100
AcDbSymbolTable
 70
     1
  0
LAYER
  5
10
102
{ACAD_XDICTIONARY
360
13C
102
}
330
2
100
AcDbSymbolTableRecord
100
AcDbLayerTableRecord
  2
0
 70
     0
 62
     7
  6
Continuous
370
    -3
390
F
  0
ENDTAB
  0
TABLE
  2
STYLE
  5
3
330
0
100
AcDbSymbolTable
 70
     1
  0
STYLE
  5
11
330
3
100
AcDbSymbolTableRecord
100
AcDbTextStyleTableRecord
  2
Standard
 70
     0
 40
0.0
 41
1.0
 50
0.0
 71
     0
 42
2.5
  3
arial.ttf
  4

1001
ACAD
1000
Arial
1071
       34
  0
ENDTAB
  0
TABLE
  2
VIEW
  5
6
330
0
100
AcDbSymbolTable
 70
     0
  0
ENDTAB
  0
TABLE
  2
UCS
  5
7
330
0
100
AcDbSymbolTable
 70
     0
  0
ENDTAB
  0
TABLE
  2
APPID
  5
9
330
0
100
AcDbSymbolTable
 70
     8
  0
APPID
  5
12
330
9
100
AcDbSymbolTableRecord
100
AcDbRegAppTableRecord
  2
ACAD
 70
     0
  0
APPID
  5
9E
330
9
100
AcDbSymbolTableRecord
100
AcDbRegAppTableRecord
  2
ACAD_PSEXT
 70
     0
  0
APPID
  5
133
330
9
100
AcDbSymbolTableRecord
100
AcDbRegAppTableRecord
  2
AcadAnnoPO
 70
     0
  0
APPID
  5
134
330
9
100
AcDbSymbolTableRecord
100
AcDbRegAppTableRecord
  2
AcadAnnotative
 70
     0
  0
APPID
  5
135
330
9
100
AcDbSymbolTableRecord
100
AcDbRegAppTableRecord
  2
ACAD_DSTYLE_DIMJAG
 70
     0
  0
APPID
  5
136
330
9
100
AcDbSymbolTableRecord
100
AcDbRegAppTableRecord
  2
ACAD_DSTYLE_DIMTALN
 70
     0
  0
APPID
  5
165
330
9
100
AcDbSymbolTableRecord
100
AcDbRegAppTableRecord
  2
ACAD_MLEADERVER
 70
     0
  0
APPID
  5
217
330
9
100
AcDbSymbolTableRecord
100
AcDbRegAppTableRecord
  2
ACAD_NAV_VCDISPLAY
 70
     0
  0
ENDTAB
  0
TABLE
  2
DIMSTYLE
  5
A
330
0
100
AcDbSymbolTable
 70
     1
100
AcDbDimStyleTable
 71
     0
  0
DIMSTYLE
105
27
330
A
100
AcDbSymbolTableRecord
100
AcDbDimStyleTableRecord
  2
ISO-25
 70
     0
 41
2.5
 42
0.625
 43
3.75
 44
1.25
 73
     0
 74
     0
 77
     1
 78
     8
140
2.5
141
2.5
143
0.03937007874016
147
0.625
171
     3
172
     1
271
     2
272
     2
274
     3
278
    44
283
     0
284
     8
340
11
  0
ENDTAB
  0
TABLE
  2
BLOCK_RECORD
  5
1
330
0
100
AcDbSymbolTable
 70
     7
  0
BLOCK_RECORD
  5
1F
102
{ACAD_XDICTIONARY
360
1CE
102
}
330
1
100
AcDbSymbolTableRecord
100
AcDbBlockTableRecord
  2
*Model_Space
340
22
  0
BLOCK_RECORD
  5
D2
102
{ACAD_XDICTIONARY
360
117BB
102
}
330
1
100
AcDbSymbolTableRecord
100
AcDbBlockTableRecord
  2
*Paper_Space
340
D3
  0
BLOCK_RECORD
  5
D6
102
{ACAD_XDICTIONARY
360
117BD
102
}
330
1
100
AcDbSymbolTableRecord
100
AcDbBlockTableRecord
  2
*Paper_Space0
340
D7
  0
BLOCK_RECORD
  5
114DC
330
1
100
AcDbSymbolTableRecord
100
AcDbBlockTableRecord
  2
SPR80_320-Front
340
0
102
{BLKREFS
331
117B1
102
}
  0
BLOCK_RECORD
  5
11560
330
1
100
AcDbSymbolTableRecord
100
AcDbBlockTableRecord
  2
SPR80_320-Left
340
0
102
{BLKREFS
331
117B2
102
}
  0
BLOCK_RECORD
  5
115A2
330
1
100
AcDbSymbolTableRecord
100
AcDbBlockTableRecord
  2
SPR80_320-Right
340
0
102
{BLKREFS
331
117B3
102
}
  0
BLOCK_RECORD
  5
115E6
330
1
100
AcDbSymbolTableRecord
100
AcDbBlockTableRecord
  2
SPR80_320-Top
340
0
102
{BLKREFS
331
117B4
102
}
  0
BLOCK_RECORD
  5
11642
330
1
100
AcDbSymbolTableRecord
100
AcDbBlockTableRecord
  2
SPR80_320-Bottom
340
0
102
{BLKREFS
331
117B5
102
}
  0
BLOCK_RECORD
  5
11692
330
1
100
AcDbSymbolTableRecord
100
AcDbBlockTableRecord
  2
SPR80_320-ISO
340
0
102
{BLKREFS
331
117B6
102
}
  0
ENDTAB
  0
ENDSEC
  0
SECTION
  2
BLOCKS
  0
BLOCK
  5
20
330
1F
100
AcDbEntity
  8
0
100
AcDbBlockBegin
  2
*Model_Space
 70
     0
 10
0.0
 20
0.0
 30
0.0
  3
*Model_Space
  1

  0
ENDBLK
  5
21
330
1F
100
AcDbEntity
  8
0
100
AcDbBlockEnd
  0
BLOCK
  5
D4
330
D2
100
AcDbEntity
 67
     1
  8
0
100
AcDbBlockBegin
  2
*Paper_Space
 70
     0
 10
0.0
 20
0.0
 30
0.0
  3
*Paper_Space
  1

  0
ENDBLK
  5
D5
330
D2
100
AcDbEntity
 67
     1
  8
0
100
AcDbBlockEnd
  0
BLOCK
  5
D8
330
D6
100
AcDbEntity
 67
     1
  8
0
100
AcDbBlockBegin
  2
*Paper_Space0
 70
     0
 10
0.0
 20
0.0
 30
0.0
  3
*Paper_Space0
  1

  0
ENDBLK
  5
D9
330
D6
100
AcDbEntity
 67
     1
  8
0
100
AcDbBlockEnd
  0
BLOCK
  5
114DD
330
114DC
100
AcDbEntity
  8
0
100
AcDbBlockBegin
  2
SPR80_320-Front
 70
     0
 10
0.0
 20
0.0
 30
0.0
  3
SPR80_320-Front
  1

  0
LINE
  5
114DF
330
114DC
100
AcDbEntity
  8
0
100
AcDbLine
 10
82.527090561
 20
6.269999999999978
 30
0.0
 11
77.52709056100001
 21
1.269999999999978
 31
0.0
  0
LINE
  5
114E0
330
114DC
100
AcDbEntity
  8
0
100
AcDbLine
 10
-77.52709056100004
 20
1.269999999999978
 30
0.0
 11
-82.52709056100004
 21
6.26999999999998
 31
0.0
  0
LINE
  5
114E1
330
114DC
100
AcDbEntity
  8
0
100
AcDbLine
 10
-82.52709056100004
 20
72.26999999999998
 30
0.0
 11
-77.52709056100001
 21
77.26999999999998
 31
0.0
  0
LINE
  5
114E2
330
114DC
100
AcDbEntity
  8
0
100
AcDbLine
 10
77.52709056099996
 20
77.26999999999998
 30
0.0
 11
82.52709056099996
 21
72.26999999999998
 31
0.0
  0
LINE
  5
114E3
330
114DC
100
AcDbEntity
  8
0
100
AcDbLine
 10
82.52709056099996
 20
72.26999999999998
 30
0.0
 11
82.527090561
 21
6.26999999999998
 31
0.0
  0
LINE
  5
114E4
330
114DC
100
AcDbEntity
  8
0
100
AcDbLine
 10
-82.52709056100004
 20
6.26999999999998
 30
0.0
 11
-82.52709056100004
 21
72.26999999999998
 31
0.0
  0
LINE
  5
114E5
330
114DC
100
AcDbEntity
  8
0
100
AcDbLine
 10
36.49999999999999
 20
77.26999999999998
 30
0.0
 11
77.52709056099996
 21
77.26999999999998
 31
0.0
  0
LINE
  5
114E6
330
114DC
100
AcDbEntity
  8
0
100
AcDbLine
 10
-36.50000000000002
 20
1.270000000000004
 30
0.0
 11
-77.52709056100004
 21
1.269999999999978
 31
0.0
  0
LINE
  5
114E7
330
114DC
100
AcDbEntity
  8
0
100
AcDbLine
 10
77.52709056100001
 20
1.269999999999978
 30
0.0
 11
36.49999999999999
 21
1.270000000000004
 31
0.0
  0
ARC
  5
114E8
330
114DC
100
AcDbEntity
  8
0
100
AcDbCircle
 10
36.49999999999997
 20
78.76999999999999
 30
0.0
 40
1.5
100
AcDbArc
 50
90.00000000000067
 51
270.0000000000007
  0
LINE
  5
114E9
330
114DC
100
AcDbEntity
  8
0
100
AcDbLine
 10
-77.52709056100001
 20
77.26999999999998
 30
0.0
 11
-36.50000000000003
 21
77.26999999999998
 31
0.0
  0
ARC
  5
114EA
330
114DC
100
AcDbEntity
  8
0
100
AcDbCircle
 10
-36.50000000000003
 20
78.76999999999998
 30
0.0
 40
1.5
100
AcDbArc
 50
270.0
 51
90.0
  0
LINE
  5
114EB
330
114DC
100
AcDbEntity
  8
0
100
AcDbLine
 10
41.5000000000002
 20
80.26999999999999
 30
0.0
 11
41.50000000000024
 21
85.26999999999999
 31
0.0
  0
LINE
  5
114EC
330
114DC
100
AcDbEntity
  8
0
100
AcDbLine
 10
41.50000000000024
 20
85.26999999999999
 30
0.0
 11
40.00000000000023
 21
85.26999999999999
 31
0.0
  0
LINE
  5
114ED
330
114DC
100
AcDbEntity
  8
0
100
AcDbLine
 10
40.00000000000023
 20
85.26999999999999
 30
0.0
 11
40.0000000000002
 21
80.26999999999999
 31
0.0
  0
LINE
  5
114EE
330
114DC
100
AcDbEntity
  8
0
100
AcDbLine
 10
40.0000000000002
 20
80.26999999999999
 30
0.0
 11
41.5000000000002
 21
80.26999999999999
 31
0.0
  0
LINE
  5
114EF
330
114DC
100
AcDbEntity
  8
0
100
AcDbLine
 10
40.00000000000023
 20
315.67
 30
0.0
 11
41.50000000000024
 21
315.67
 31
0.0
  0
LINE
  5
114F0
330
114DC
100
AcDbEntity
  8
0
100
AcDbLine
 10
41.50000000000024
 20
315.67
 30
0.0
 11
41.5000000000002
 21
320.67
 31
0.0
  0
LINE
  5
114F1
330
114DC
100
AcDbEntity
  8
0
100
AcDbLine
 10
-41.50000000000001
 20
85.26999999999999
 30
0.0
 11
-41.50000000000001
 21
80.26999999999999
 31
0.0
  0
LINE
  5
114F2
330
114DC
100
AcDbEntity
  8
0
100
AcDbLine
 10
-41.50000000000001
 20
80.26999999999999
 30
0.0
 11
-40.0
 21
80.26999999999999
 31
0.0
  0
LINE
  5
114F3
330
114DC
100
AcDbEntity
  8
0
100
AcDbLine
 10
-40.0
 20
80.26999999999999
 30
0.0
 11
-40.0
 21
85.26999999999999
 31
0.0
  0
LINE
  5
114F4
330
114DC
100
AcDbEntity
  8
0
100
AcDbLine
 10
-40.0
 20
85.26999999999999
 30
0.0
 11
-41.50000000000001
 21
85.26999999999999
 31
0.0
  0
LINE
  5
114F5
330
114DC
100
AcDbEntity
  8
0
100
AcDbLine
 10
-41.50000000000001
 20
320.67
 30
0.0
 11
-41.50000000000001
 21
315.67
 31
0.0
  0
LINE
  5
114F6
330
114DC
100
AcDbEntity
  8
0
100
AcDbLine
 10
-41.50000000000001
 20
315.67
 30
0.0
 11
-40.0
 21
315.67
 31
0.0
  0
LINE
  5
114F7
330
114DC
100
AcDbEntity
  8
0
100
AcDbLine
 10
41.5000000000002
 20
320.67
 30
0.0
 11
40.0000000000002
 21
320.67
 31
0.0
  0
LINE
  5
114F8
330
114DC
100
AcDbEntity
  8
0
100
AcDbLine
 10
40.0000000000002
 20
320.67
 30
0.0
 11
40.00000000000023
 21
315.67
 31
0.0
  0
LINE
  5
114F9
330
114DC
100
AcDbEntity
  8
0
100
AcDbLine
 10
-40.0
 20
315.67
 30
0.0
 11
-40.0
 21
320.67
 31
0.0
  0
LINE
  5
114FA
330
114DC
100
AcDbEntity
  8
0
100
AcDbLine
 10
-40.0
 20
320.67
 30
0.0
 11
-41.50000000000001
 21
320.67
 31
0.0
  0
LINE
  5
114FB
330
114DC
100
AcDbEntity
  8
0
100
AcDbLine
 10
41.49999999999995
 20
-28.42608254450011
 30
0.0
 11
41.49999999999997
 21
-21.35501473263467
 31
0.0
  0
LINE
  5
114FC
330
114DC
100
AcDbEntity
  8
0
100
AcDbLine
 10
41.49999999999997
 20
-21.35501473263467
 30
0.0
 11
39.99999999999997
 21
-21.35501473263465
 31
0.0
  0
LINE
  5
114FD
330
114DC
100
AcDbEntity
  8
0
100
AcDbLine
 10
39.99999999999997
 20
-21.35501473263465
 30
0.0
 11
39.99999999999998
 21
-28.42608254450011
 31
0.0
  0
LINE
  5
114FE
330
114DC
100
AcDbEntity
  8
0
100
AcDbLine
 10
39.99999999999998
 20
-28.42608254450011
 30
0.0
 11
41.49999999999995
 21
-28.42608254450011
 31
0.0
  0
LINE
  5
114FF
330
114DC
100
AcDbEntity
  8
0
100
AcDbLine
 10
-41.49999999999997
 20
-21.35501473263464
 30
0.0
 11
-41.49999999999995
 21
-28.4260825445001
 31
0.0
  0
LINE
  5
11500
330
114DC
100
AcDbEntity
  8
0
100
AcDbLine
 10
-41.49999999999995
 20
-28.4260825445001
 30
0.0
 11
-39.99999999999998
 21
-28.4260825445001
 31
0.0
  0
LINE
  5
11501
330
114DC
100
AcDbEntity
  8
0
100
AcDbLine
 10
-39.99999999999998
 20
-28.4260825445001
 30
0.0
 11
-39.99999999999997
 21
-21.35501473263465
 31
0.0
  0
LINE
  5
11502
330
114DC
100
AcDbEntity
  8
0
100
AcDbLine
 10
-39.99999999999997
 20
-21.35501473263465
 30
0.0
 11
-41.49999999999997
 21
-21.35501473263464
 31
0.0
  0
LINE
  5
11503
330
114DC
100
AcDbEntity
  8
0
100
AcDbLine
 10
41.50000000000024
 20
85.26999999999999
 30
0.0
 11
41.50000000000024
 21
315.67
 31
0.0
  0
LINE
  5
11504
330
114DC
100
AcDbEntity
  8
0
100
AcDbLine
 10
40.00000000000023
 20
315.67
 30
0.0
 11
40.00000000000023
 21
85.27000000000001
 31
0.0
  0
LINE
  5
11505
330
114DC
100
AcDbEntity
  8
0
100
AcDbLine
 10
-41.50000000000001
 20
315.67
 30
0.0
 11
-41.50000000000001
 21
85.27000000000001
 31
0.0
  0
LINE
  5
11506
330
114DC
100
AcDbEntity
  8
0
100
AcDbLine
 10
-40.0
 20
315.67
 30
0.0
 11
-40.0
 21
85.27000000000001
 31
0.0
  0
LINE
  5
11507
330
114DC
100
AcDbEntity
  8
0
100
AcDbLine
 10
36.49999999999999
 20
80.26999999999999
 30
0.0
 11
39.39999999999999
 21
80.26999999999999
 31
0.0
  0
LINE
  5
11508
330
114DC
100
AcDbEntity
  8
0
100
AcDbLine
 10
-39.40000000000002
 20
80.26999999999999
 30
0.0
 11
-36.50000000000003
 21
80.26999999999999
 31
0.0
  0
LINE
  5
11509
330
114DC
100
AcDbEntity
  8
0
100
AcDbLine
 10
-39.40000000000002
 20
320.67
 30
0.0
 11
39.39999999999999
 21
320.67
 31
0.0
  0
LINE
  5
1150A
330
114DC
100
AcDbEntity
  8
0
100
AcDbLine
 10
41.50000000000285
 20
-2.26313164225665
 30
0.0
 11
41.49999999999997
 21
-21.35501473263467
 31
0.0
  0
LINE
  5
1150B
330
114DC
100
AcDbEntity
  8
0
100
AcDbLine
 10
40.00000000000238
 20
-2.26313164225665
 30
0.0
 11
39.99999999999997
 21
-21.35501473263465
 31
0.0
  0
ELLIPSE
  5
1150C
330
114DC
100
AcDbEntity
  8
0
100
AcDbEllipse
 10
39.39999999999999
 20
-54.16476937947052
 30
0.0
 11
0.6000000000000087
 21
-0.0000000000000093
 31
0.0
210
0.0
220
0.0
230
1.0
 40
0.7071067811866661
 41
4.712388980384708
 42
6.283185307179544
  0
ELLIPSE
  5
1150D
330
114DC
100
AcDbEntity
  8
0
100
AcDbEllipse
 10
39.39999999999999
 20
-54.16476937947052
 30
0.0
 11
2.100000000000031
 21
-0.0000000000000444
 31
0.0
210
0.0
220
0.0
230
1.0
 40
0.7071067811865466
 41
4.712388980384694
 42
6.283185307179562
  0
LINE
  5
1150E
330
114DC
100
AcDbEntity
  8
0
100
AcDbLine
 10
41.50000000000285
 20
-2.26313164225665
 30
0.0
 11
40.00000000000238
 21
-2.26313164225665
 31
0.0
  0
SPLINE
  5
1150F
330
114DC
100
AcDbEntity
  8
0
100
AcDbSpline
210
0.0
220
0.0
230
1.0
 70
     8
 71
     3
 72
     8
 73
     4
 74
     0
 42
0.000000001
 43
0.0000000001
 40
-1.0
 40
-1.0
 40
-1.0
 40
-1.0
 40
0.0
 40
0.0
 40
0.0
 40
0.0
 10
-35.01767776087195
 20
-0.0003899405809682
 30
0.0
 10
-34.97251992073994
 20
-0.1594792109354594
 30
0.0
 10
-35.01586474390246
 20
-0.3214850446753388
 30
0.0
 10
-35.14054197002052
 20
-0.4246540092928974
 30
0.0
  0
SPLINE
  5
11510
330
114DC
100
AcDbEntity
  8
0
100
AcDbSpline
210
0.0
220
0.0
230
1.0
 70
     8
 71
     3
 72
     8
 73
     4
 74
     0
 42
0.000000001
 43
0.0000000001
 40
-1.0
 40
-1.0
 40
-1.0
 40
-1.0
 40
0.0
 40
0.0
 40
0.0
 40
0.0
 10
35.1405419700205
 20
-0.4246540092928972
 30
0.0
 10
35.01586474390216
 20
-0.321485044675332
 30
0.0
 10
34.97251992073987
 20
-0.1594792109354624
 30
0.0
 10
35.01767776087194
 20
-0.0003899405809682
 30
0.0
  0
ELLIPSE
  5
11511
330
114DC
100
AcDbEntity
  8
0
100
AcDbEllipse
 10
-36.50000000000002
 20
0.0236058844764638
 30
0.0
 11
-1.5
 21
0.0000000000001102
 31
0.0
210
0.0
220
0.0
230
1.0
 40
0.7071067811865479
 41
1.570796326795026
 42
2.70525458196206
  0
LINE
  5
11512
330
114DC
100
AcDbEntity
  8
0
100
AcDbLine
 10
-36.50000000000002
 20
-1.037054287303352
 30
0.0
 11
-38.79315533855966
 21
-1.037054287303352
 31
0.0
  0
LINE
  5
11513
330
114DC
100
AcDbEntity
  8
0
100
AcDbLine
 10
-38.79315533855966
 20
-1.037054287303352
 30
0.0
 11
-39.40000000000002
 21
-1.466158262545889
 31
0.0
  0
LINE
  5
11514
330
114DC
100
AcDbEntity
  8
0
100
AcDbLine
 10
39.39999999999999
 20
-1.466158262545907
 30
0.0
 11
38.79315533855962
 21
-1.037054287303367
 31
0.0
  0
LINE
  5
11515
330
114DC
100
AcDbEntity
  8
0
100
AcDbLine
 10
38.79315533855962
 20
-1.037054287303367
 30
0.0
 11
36.49999999999998
 21
-1.037054287303367
 31
0.0
  0
ELLIPSE
  5
11516
330
114DC
100
AcDbEntity
  8
0
100
AcDbEllipse
 10
36.49999999999998
 20
0.0236058844764639
 30
0.0
 11
-1.5
 21
0.0
 31
0.0
210
0.0
220
0.0
230
1.0
 40
0.7071067811865479
 41
0.4363380716279881
 42
1.570796326794896
  0
LINE
  5
11517
330
114DC
100
AcDbEntity
  8
0
100
AcDbLine
 10
-40.00000000000255
 20
-2.263131642256654
 30
0.0
 11
-41.50000000000304
 21
-2.263131642256654
 31
0.0
  0
SPLINE
  5
11518
330
114DC
100
AcDbEntity
  8
0
100
AcDbSpline
210
0.0
220
0.0
230
1.0
 70
     8
 71
     3
 72
     8
 73
     4
 74
     0
 42
0.000000001
 43
0.0000000001
 40
-1.0
 40
-1.0
 40
-1.0
 40
-1.0
 40
0.0
 40
0.0
 40
0.0
 40
0.0
 10
-39.40000000000001
 20
-1.466158262545877
 30
0.0
 10
-39.714159265359
 20
-1.873237411765449
 30
0.0
 10
-40.00000000000001
 20
-2.078196639180487
 30
0.0
 10
-40.00000000000003
 20
-2.263131641492146
 30
0.0
  0
ARC
  5
11519
330
114DC
100
AcDbEntity
  8
0
100
AcDbCircle
 10
-36.50000000000002
 20
-0.2299999999999097
 30
0.0
 40
1.5
100
AcDbArc
 50
8.80507525969728
 51
90.0
  0
SPLINE
  5
1151A
330
114DC
100
AcDbEntity
  8
0
100
AcDbSpline
210
0.0
220
0.0
230
1.0
 70
     8
 71
     3
 72
     8
 73
     4
 74
     0
 42
0.000000001
 43
0.0000000001
 40
-1.0
 40
-1.0
 40
-1.0
 40
-1.0
 40
0.0
 40
0.0
 40
0.0
 40
0.0
 10
40.0
 20
-2.263131641492137
 30
0.0
 10
39.99999999999999
 20
-2.078196639180836
 30
0.0
 10
39.71415926535896
 20
-1.873237411765945
 30
0.0
 10
39.39999999999998
 20
-1.466158262545855
 30
0.0
  0
ARC
  5
1151B
330
114DC
100
AcDbEntity
  8
0
100
AcDbCircle
 10
36.49999999999998
 20
-0.2299999999999097
 30
0.0
 40
1.5
100
AcDbArc
 50
90.0
 51
171.1949247403028
  0
SPLINE
  5
1151C
330
114DC
100
AcDbEntity
  8
0
100
AcDbSpline
210
0.0
220
0.0
230
1.0
 70
     8
 71
     3
 72
    16
 73
    12
 74
     0
 42
0.000000001
 43
0.0000000001
 40
0.0
 40
0.0
 40
0.0
 40
0.0
 40
0.0356537247172262
 40
0.0356537247172262
 40
0.0703704956388354
 40
0.0703704956388354
 40
0.1051345640057603
 40
0.1051345640057603
 40
0.1398962718619341
 40
0.1398962718619341
 40
0.1538885733138881
 40
0.1538885733138881
 40
0.1538885733138881
 40
0.1538885733138881
 10
-40.49950000000055
 20
-2.263131641492149
 30
0.0
 10
-40.49950000000007
 20
-2.26313164149061
 30
0.0
 10
-40.47955867541001
 20
-2.263059951015049
 30
0.0
 10
-40.40583172172482
 20
-2.250836451218327
 30
0.0
 10
-40.35213458030859
 20
-2.238741830471421
 30
0.0
 10
-40.22293730433125
 20
-2.194102190399719
 30
0.0
 10
-40.14591985437818
 20
-2.160888677243721
 30
0.0
 10
-39.98574064094734
 20
-2.06947920260549
 30
0.0
 10
-39.90073655262379
 20
-2.010107098276826
 30
0.0
 10
-39.78901418350883
 20
-1.909831885169358
 30
0.0
 10
-39.75758437993168
 20
-1.878943669883649
 30
0.0
 10
-39.72742155524402
 20
-1.846191951394362
 30
0.0
  0
SPLINE
  5
1151D
330
114DC
100
AcDbEntity
  8
0
100
AcDbSpline
210
0.0
220
0.0
230
1.0
 70
     8
 71
     3
 72
    16
 73
    12
 74
     0
 42
0.000000001
 43
0.0000000001
 40
0.0
 40
0.0
 40
0.0
 40
0.0
 40
0.0356266149385879
 40
0.0356266149385879
 40
0.0703447701858378
 40
0.0703447701858378
 40
0.1051087695058095
 40
0.1051087695058095
 40
0.1398704808088859
 40
0.1398704808088859
 40
0.1538888647029528
 40
0.1538888647029528
 40
0.1538888647029528
 40
0.1538888647029528
 10
39.72742155524386
 20
-1.846191951394229
 30
0.0
 10
39.8042208826667
 20
-1.929583012343148
 30
0.0
 10
39.88999615132788
 20
-2.001172959754741
 30
0.0
 10
40.05564046646107
 20
-2.113266523287595
 30
0.0
 10
40.13750261653173
 20
-2.155953002296416
 30
0.0
 10
40.28182181894531
 20
-2.217016703003325
 30
0.0
 10
40.34591305092578
 20
-2.236189491820357
 30
0.0
 10
40.44238223267142
 20
-2.258395304189281
 30
0.0
 10
40.47587215058185
 20
-2.261811174868169
 30
0.0
 10
40.49650501536556
 20
-2.26313097191637
 30
0.0
 10
40.49949999999994
 20
-2.263131641491543
 30
0.0
 10
40.49949999999951
 20
-2.263131641492153
 30
0.0
  0
LINE
  5
1151E
330
114DC
100
AcDbEntity
  8
0
100
AcDbLine
 10
41.49999999999995
 20
-54.16476937947054
 30
0.0
 11
41.49999999999995
 21
-28.42608254450011
 31
0.0
  0
LINE
  5
1151F
330
114DC
100
AcDbEntity
  8
0
100
AcDbLine
 10
-41.49999999999995
 20
-28.4260825445001
 30
0.0
 11
-41.49999999999997
 21
-54.16476937947054
 31
0.0
  0
LINE
  5
11520
330
114DC
100
AcDbEntity
  8
0
100
AcDbLine
 10
-39.99999999999998
 20
-28.4260825445001
 30
0.0
 11
-39.99999999999999
 21
-54.16476937947054
 31
0.0
  0
LINE
  5
11521
330
114DC
100
AcDbEntity
  8
0
100
AcDbLine
 10
-39.4
 20
-54.58903344818246
 30
0.0
 11
39.39999999999999
 21
-54.58903344818246
 31
0.0
  0
LINE
  5
11522
330
114DC
100
AcDbEntity
  8
0
100
AcDbLine
 10
39.99999999999997
 20
-54.16476937947054
 30
0.0
 11
39.99999999999998
 21
-28.42608254450011
 31
0.0
  0
LINE
  5
11523
330
114DC
100
AcDbEntity
  8
0
100
AcDbLine
 10
-39.4
 20
-55.64969361996227
 30
0.0
 11
39.39999999999999
 21
-55.64969361996227
 31
0.0
  0
LINE
  5
11524
330
114DC
100
AcDbEntity
  8
0
100
AcDbLine
 10
-41.50000000000304
 20
-2.263131642256654
 30
0.0
 11
-41.49999999999997
 21
-21.35501473263464
 31
0.0
  0
LINE
  5
11525
330
114DC
100
AcDbEntity
  8
0
100
AcDbLine
 10
-40.00000000000255
 20
-2.263131642256654
 30
0.0
 11
-39.99999999999997
 21
-21.35501473263465
 31
0.0
  0
CIRCLE
  5
11526
330
114DC
100
AcDbEntity
  8
0
100
AcDbCircle
 10
29.99999999999998
 20
309.7700000000001
 30
0.0
 40
2.5
  0
CIRCLE
  5
11527
330
114DC
100
AcDbEntity
  8
0
100
AcDbCircle
 10
29.99999999999998
 20
269.7700000000001
 30
0.0
 40
2.5
  0
CIRCLE
  5
11528
330
114DC
100
AcDbEntity
  8
0
100
AcDbCircle
 10
29.99999999999998
 20
229.77
 30
0.0
 40
2.5
  0
CIRCLE
  5
11529
330
114DC
100
AcDbEntity
  8
0
100
AcDbCircle
 10
29.99999999999998
 20
189.77
 30
0.0
 40
2.5
  0
CIRCLE
  5
1152A
330
114DC
100
AcDbEntity
  8
0
100
AcDbCircle
 10
29.99999999999998
 20
149.77
 30
0.0
 40
2.5
  0
CIRCLE
  5
1152B
330
114DC
100
AcDbEntity
  8
0
100
AcDbCircle
 10
29.99999999999998
 20
109.77
 30
0.0
 40
2.5
  0
CIRCLE
  5
1152C
330
114DC
100
AcDbEntity
  8
0
100
AcDbCircle
 10
29.99999999999998
 20
69.77000000000005
 30
0.0
 40
2.5
  0
CIRCLE
  5
1152D
330
114DC
100
AcDbEntity
  8
0
100
AcDbCircle
 10
29.99999999999998
 20
29.77000000000005
 30
0.0
 40
2.5
  0
CIRCLE
  5
1152E
330
114DC
100
AcDbEntity
  8
0
100
AcDbCircle
 10
19.99999999999997
 20
289.77
 30
0.0
 40
2.5
  0
CIRCLE
  5
1152F
330
114DC
100
AcDbEntity
  8
0
100
AcDbCircle
 10
19.99999999999997
 20
249.77
 30
0.0
 40
2.5
  0
CIRCLE
  5
11530
330
114DC
100
AcDbEntity
  8
0
100
AcDbCircle
 10
19.99999999999997
 20
209.7700000000001
 30
0.0
 40
2.5
  0
CIRCLE
  5
11531
330
114DC
100
AcDbEntity
  8
0
100
AcDbCircle
 10
19.99999999999997
 20
169.77
 30
0.0
 40
2.5
  0
CIRCLE
  5
11532
330
114DC
100
AcDbEntity
  8
0
100
AcDbCircle
 10
19.99999999999997
 20
129.77
 30
0.0
 40
2.5
  0
CIRCLE
  5
11533
330
114DC
100
AcDbEntity
  8
0
100
AcDbCircle
 10
19.99999999999997
 20
89.77000000000003
 30
0.0
 40
2.5
  0
CIRCLE
  5
11534
330
114DC
100
AcDbEntity
  8
0
100
AcDbCircle
 10
19.99999999999997
 20
49.77000000000003
 30
0.0
 40
2.5
  0
CIRCLE
  5
11535
330
114DC
100
AcDbEntity
  8
0
100
AcDbCircle
 10
19.99999999999997
 20
9.770000000000036
 30
0.0
 40
2.5
  0
CIRCLE
  5
11536
330
114DC
100
AcDbEntity
  8
0
100
AcDbCircle
 10
-20.00000000000002
 20
309.7700000000001
 30
0.0
 40
2.5
  0
CIRCLE
  5
11537
330
114DC
100
AcDbEntity
  8
0
100
AcDbCircle
 10
-20.00000000000002
 20
269.7700000000001
 30
0.0
 40
2.5
  0
CIRCLE
  5
11538
330
114DC
100
AcDbEntity
  8
0
100
AcDbCircle
 10
-20.00000000000002
 20
229.77
 30
0.0
 40
2.5
  0
CIRCLE
  5
11539
330
114DC
100
AcDbEntity
  8
0
100
AcDbCircle
 10
-20.00000000000002
 20
189.77
 30
0.0
 40
2.5
  0
CIRCLE
  5
1153A
330
114DC
100
AcDbEntity
  8
0
100
AcDbCircle
 10
-20.00000000000002
 20
149.77
 30
0.0
 40
2.5
  0
CIRCLE
  5
1153B
330
114DC
100
AcDbEntity
  8
0
100
AcDbCircle
 10
-20.00000000000002
 20
109.77
 30
0.0
 40
2.5
  0
CIRCLE
  5
1153C
330
114DC
100
AcDbEntity
  8
0
100
AcDbCircle
 10
-20.00000000000002
 20
69.77000000000002
 30
0.0
 40
2.5
  0
CIRCLE
  5
1153D
330
114DC
100
AcDbEntity
  8
0
100
AcDbCircle
 10
-20.00000000000002
 20
29.77000000000002
 30
0.0
 40
2.5
  0
CIRCLE
  5
1153E
330
114DC
100
AcDbEntity
  8
0
100
AcDbCircle
 10
-30.00000000000003
 20
289.77
 30
0.0
 40
2.5
  0
CIRCLE
  5
1153F
330
114DC
100
AcDbEntity
  8
0
100
AcDbCircle
 10
-30.00000000000003
 20
249.77
 30
0.0
 40
2.5
  0
CIRCLE
  5
11540
330
114DC
100
AcDbEntity
  8
0
100
AcDbCircle
 10
-30.00000000000003
 20
209.7700000000001
 30
0.0
 40
2.5
  0
CIRCLE
  5
11541
330
114DC
100
AcDbEntity
  8
0
100
AcDbCircle
 10
-30.00000000000003
 20
169.77
 30
0.0
 40
2.5
  0
CIRCLE
  5
11542
330
114DC
100
AcDbEntity
  8
0
100
AcDbCircle
 10
-30.00000000000003
 20
129.77
 30
0.0
 40
2.5
  0
CIRCLE
  5
11543
330
114DC
100
AcDbEntity
  8
0
100
AcDbCircle
 10
-30.00000000000003
 20
89.77000000000002
 30
0.0
 40
2.5
  0
CIRCLE
  5
11544
330
114DC
100
AcDbEntity
  8
0
100
AcDbCircle
 10
-30.00000000000003
 20
49.77
 30
0.0
 40
2.5
  0
CIRCLE
  5
11545
330
114DC
100
AcDbEntity
  8
0
100
AcDbCircle
 10
-30.00000000000003
 20
9.770000000000001
 30
0.0
 40
2.5
  0
CIRCLE
  5
11546
330
114DC
100
AcDbEntity
  8
0
100
AcDbCircle
 10
-53.02709056100005
 20
69.77
 30
0.0
 40
2.5
  0
CIRCLE
  5
11547
330
114DC
100
AcDbEntity
  8
0
100
AcDbCircle
 10
47.02709056099995
 20
69.76999999999998
 30
0.0
 40
2.5
  0
CIRCLE
  5
11548
330
114DC
100
AcDbEntity
  8
0
100
AcDbCircle
 10
-47.02709056100004
 20
29.77
 30
0.0
 40
2.5
  0
CIRCLE
  5
11549
330
114DC
100
AcDbEntity
  8
0
100
AcDbCircle
 10
53.02709056099996
 20
29.77
 30
0.0
 40
2.5
  0
ELLIPSE
  5
1154A
330
114DC
100
AcDbEntity
  8
0
100
AcDbEllipse
 10
-22.50000000000002
 20
0.0236058844764638
 30
0.0
 11
2.499999999999999
 21
-0.0000000000000006
 31
0.0
210
0.0
220
0.0
230
1.0
 40
0.7071067811865479
 41
3.397965980608285
 42
6.026811980161093
  0
SPLINE
  5
1154B
330
114DC
100
AcDbEntity
  8
0
100
AcDbSpline
210
0.0
220
0.0
230
1.0
 70
     8
 71
     3
 72
     8
 73
     4
 74
     0
 42
0.000000001
 43
0.0000000001
 40
-1.0
 40
-1.0
 40
-1.0
 40
-1.0
 40
0.0
 40
0.0
 40
0.0
 40
0.0
 10
-24.91828991960763
 20
-0.4246540092928974
 30
0.0
 10
-24.99189972302013
 20
-0.3163012038325008
 30
0.0
 10
-25.01609483643936
 20
-0.1581319339738962
 30
0.0
 10
-24.98943351399745
 20
-0.0003899405809683
 30
0.0
  0
SPLINE
  5
1154C
330
114DC
100
AcDbEntity
  8
0
100
AcDbSpline
210
0.0
220
0.0
230
1.0
 70
     8
 71
     3
 72
     8
 73
     4
 74
     0
 42
0.000000001
 43
0.0000000001
 40
-1.0
 40
-1.0
 40
-1.0
 40
-1.0
 40
0.0
 40
0.0
 40
0.0
 40
0.0
 10
-20.01056648600258
 20
-0.0003899405809681
 30
0.0
 10
-19.98390516356067
 20
-0.1581319339738878
 30
0.0
 10
-20.00810027697966
 20
-0.3163012038324744
 30
0.0
 10
-20.08171008039241
 20
-0.4246540092928969
 30
0.0
  0
ARC
  5
1154D
330
114DC
100
AcDbEntity
  8
0
100
AcDbCircle
 10
-22.50000000000002
 20
-0.2299999999999097
 30
0.0
 40
2.499999999999999
100
AcDbArc
 50
5.269701326162068
 51
174.7302986738379
  0
ELLIPSE
  5
1154E
330
114DC
100
AcDbEntity
  8
0
100
AcDbEllipse
 10
22.49999999999998
 20
0.0236058844764639
 30
0.0
 11
2.5
 21
-0.0000000000000006
 31
0.0
210
0.0
220
0.0
230
1.0
 40
0.7071067811865479
 41
3.397965980608285
 42
6.026811980161093
  0
SPLINE
  5
1154F
330
114DC
100
AcDbEntity
  8
0
100
AcDbSpline
210
0.0
220
0.0
230
1.0
 70
     8
 71
     3
 72
     8
 73
     4
 74
     0
 42
0.000000001
 43
0.0000000001
 40
-1.0
 40
-1.0
 40
-1.0
 40
-1.0
 40
0.0
 40
0.0
 40
0.0
 40
0.0
 10
20.08171008039237
 20
-0.4246540092928974
 30
0.0
 10
20.00810027697974
 20
-0.3163012038325117
 30
0.0
 10
19.98390516356063
 20
-0.1581319339738912
 30
0.0
 10
20.01056648600254
 20
-0.0003899405809682
 30
0.0
  0
SPLINE
  5
11550
330
114DC
100
AcDbEntity
  8
0
100
AcDbSpline
210
0.0
220
0.0
230
1.0
 70
     8
 71
     3
 72
     8
 73
     4
 74
     0
 42
0.000000001
 43
0.0000000001
 40
-1.0
 40
-1.0
 40
-1.0
 40
-1.0
 40
0.0
 40
0.0
 40
0.0
 40
0.0
 10
24.98943351399742
 20
-0.0003899405809679
 30
0.0
 10
25.01609483643929
 20
-0.158131933973889
 30
0.0
 10
24.99189972302015
 20
-0.3163012038324561
 30
0.0
 10
24.91828991960759
 20
-0.4246540092928974
 30
0.0
  0
ARC
  5
11551
330
114DC
100
AcDbEntity
  8
0
100
AcDbCircle
 10
22.49999999999998
 20
-0.2299999999999097
 30
0.0
 40
2.5
100
AcDbArc
 50
5.269701326162068
 51
174.7302986738379
  0
SPLINE
  5
11552
330
114DC
100
AcDbEntity
  8
0
100
AcDbSpline
210
0.0
220
0.0
230
1.0
 70
     8
 71
     3
 72
     8
 73
     4
 74
     0
 42
0.000000001
 43
0.0000000001
 40
-1.0
 40
-1.0
 40
-1.0
 40
-1.0
 40
0.0
 40
0.0
 40
0.0
 40
0.0
 10
-4.918289920131953
 20
-0.4246540092928972
 30
0.0
 10
-4.991899723307204
 20
-0.3163012038163787
 30
0.0
 10
-5.016094836485419
 20
-0.1581319339514987
 30
0.0
 10
-4.989433513812972
 20
-0.0003899405809683
 30
0.0
  0
SPLINE
  5
11553
330
114DC
100
AcDbEntity
  8
0
100
AcDbSpline
210
0.0
220
0.0
230
1.0
 70
     8
 71
     3
 72
     8
 73
     4
 74
     0
 42
0.000000001
 43
0.0000000001
 40
-1.0
 40
-1.0
 40
-1.0
 40
-1.0
 40
0.0
 40
0.0
 40
0.0
 40
0.0
 10
4.98943351381294
 20
-0.0003899405809681
 30
0.0
 10
5.016094836485287
 20
-0.1581319339515066
 30
0.0
 10
4.991899723307183
 20
-0.3163012038163742
 30
0.0
 10
4.918289920131898
 20
-0.4246540092928974
 30
0.0
  0
ELLIPSE
  5
11554
330
114DC
100
AcDbEntity
  8
0
100
AcDbEllipse
 10
-2.500000000000017
 20
0.0236058830621246
 30
0.0
 11
-2.5
 21
0.0000000000000004
 31
0.0
210
0.0
220
0.0
230
1.0
 40
0.7071067811865479
 41
0.2563733261913885
 42
1.570796326794896
  0
LINE
  5
11555
330
114DC
100
AcDbEntity
  8
0
100
AcDbLine
 10
2.499999999999978
 20
-1.744161069904257
 30
0.0
 11
-2.500000000000017
 21
-1.744161069904256
 31
0.0
  0
ELLIPSE
  5
11556
330
114DC
100
AcDbEntity
  8
0
100
AcDbEllipse
 10
2.499999999999977
 20
0.0236058830621748
 30
0.0
 11
2.5
 21
-0.0000000000000005
 31
0.0
210
0.0
220
0.0
230
1.0
 40
0.7071067811865479
 41
4.712388980384689
 42
6.026811980988168
  0
ARC
  5
11557
330
114DC
100
AcDbEntity
  8
0
100
AcDbCircle
 10
2.499999999999977
 20
-0.2300000020000165
 30
0.0
 40
2.5
100
AcDbArc
 50
5.269701372195669
 51
89.9999999999998
  0
LINE
  5
11558
330
114DC
100
AcDbEntity
  8
0
100
AcDbLine
 10
-2.500000000000021
 20
2.269999997999983
 30
0.0
 11
2.499999999999987
 21
2.269999997999983
 31
0.0
  0
ARC
  5
11559
330
114DC
100
AcDbEntity
  8
0
100
AcDbCircle
 10
-2.500000000000017
 20
-0.2300000020000875
 30
0.0
 40
2.5
100
AcDbArc
 50
90.0000000000001
 51
174.7302986278027
  0
ELLIPSE
  5
1155A
330
114DC
100
AcDbEntity
  8
0
100
AcDbEllipse
 10
-39.39999999999999
 20
-54.16476937947051
 30
0.0
 11
-2.100000000000031
 21
0.0000000000000045
 31
0.0
210
0.0
220
0.0
230
1.0
 40
0.7071067811866067
 41
0.0
 42
1.570796326794896
  0
ELLIPSE
  5
1155B
330
114DC
100
AcDbEntity
  8
0
100
AcDbEllipse
 10
-39.39999999999999
 20
-54.16476937947051
 30
0.0
 11
-0.6000000000000087
 21
0.0000000000000355
 31
0.0
210
0.0
220
0.0
230
1.0
 40
0.7071067811865764
 41
0.0000000000001259
 42
1.57079632679499
  0
LINE
  5
1155C
330
114DC
100
AcDbEntity
  8
0
100
AcDbLine
 10
39.39999999999999
 20
320.67
 30
0.0
 11
40.0
 21
320.67
 31
0.0
  0
LINE
  5
1155D
330
114DC
100
AcDbEntity
  8
0
100
AcDbLine
 10
39.39999999999999
 20
80.26999999999999
 30
0.0
 11
40.0
 21
80.26999999999999
 31
0.0
  0
LINE
  5
1155E
330
114DC
100
AcDbEntity
  8
0
100
AcDbLine
 10
-40.00000000000001
 20
320.67
 30
0.0
 11
-39.40000000000002
 21
320.67
 31
0.0
  0
LINE
  5
1155F
330
114DC
100
AcDbEntity
  8
0
100
AcDbLine
 10
-40.00000000000001
 20
80.26999999999999
 30
0.0
 11
-39.40000000000002
 21
80.26999999999999
 31
0.0
  0
ENDBLK
  5
114DE
330
114DC
100
AcDbEntity
  8
0
100
AcDbBlockEnd
  0
BLOCK
  5
11561
330
11560
100
AcDbEntity
  8
0
100
AcDbBlockBegin
  2
SPR80_320-Left
 70
     0
 10
0.0
 20
0.0
 30
0.0
  3
SPR80_320-Left
  1

  0
LINE
  5
11563
330
11560
100
AcDbEntity
  8
0
100
AcDbLine
 10
0.0
 20
-0.0003899405809683
 30
0.0
 11
0.0
 21
1.27000000000009
 31
0.0
  0
LINE
  5
11564
330
11560
100
AcDbEntity
  8
0
100
AcDbLine
 10
62.91118318265853
 20
-2.263131642256654
 30
0.0
 11
4.362741700911119
 21
-2.263131641492181
 31
0.0
  0
SPLINE
  5
11565
330
11560
100
AcDbEntity
  8
0
100
AcDbSpline
210
0.0
220
0.0
230
1.0
 70
     8
 71
     3
 72
     8
 73
     4
 74
     0
 42
0.000000001
 43
0.0000000001
 40
-1.0
 40
-1.0
 40
-1.0
 40
-1.0
 40
0.0
 40
0.0
 40
0.0
 40
0.0
 10
1.500000000000019
 20
-0.0003899405809682
 30
0.0
 10
1.500000000000019
 20
-0.1594792109354594
 30
0.0
 10
1.572566966670533
 20
-0.3214850446753388
 30
0.0
 10
1.675735931288091
 20
-0.4246540092928974
 30
0.0
  0
SPLINE
  5
11566
330
11560
100
AcDbEntity
  8
0
100
AcDbSpline
210
0.0
220
0.0
230
1.0
 70
     8
 71
     3
 72
     8
 73
     4
 74
     0
 42
0.000000001
 43
0.0000000001
 40
0.0
 40
0.0
 40
0.0
 40
0.0
 40
1.0
 40
1.0
 40
1.0
 40
1.0
 10
0.6150757595082699
 20
-1.485314181072718
 30
0.0
 10
0.2539843833468153
 20
-1.124222804911264
 30
0.0
 10
0.0000000000000196
 20
-0.5572023868216869
 30
0.0
 10
0.0000000000000197
 20
-0.0003899405809679
 30
0.0
  0
LINE
  5
11567
330
11560
100
AcDbEntity
  8
0
100
AcDbLine
 10
1.675735931288086
 20
-0.424654009292892
 30
0.0
 11
2.288136209298552
 21
-1.037054287303358
 31
0.0
  0
LINE
  5
11568
330
11560
100
AcDbEntity
  8
0
100
AcDbLine
 10
2.288136209298538
 20
-1.037054287303352
 30
0.0
 11
2.717240184541075
 21
-1.466158262545889
 31
0.0
  0
SPLINE
  5
11569
330
11560
100
AcDbEntity
  8
0
100
AcDbSpline
210
0.0
220
0.0
230
1.0
 70
     8
 71
     3
 72
     8
 73
     4
 74
     0
 42
0.000000001
 43
0.0000000001
 40
-1.0
 40
-1.0
 40
-1.0
 40
-1.0
 40
0.0
 40
0.0
 40
0.0
 40
0.0
 10
2.717240184541069
 20
-1.466158262545877
 30
0.0
 10
3.124319333760641
 20
-1.873237411765449
 30
0.0
 10
3.733518404783695
 20
-2.078196639180487
 30
0.0
 10
4.362741700911181
 20
-2.263131641492146
 30
0.0
  0
LINE
  5
1156A
330
11560
100
AcDbEntity
  8
0
100
AcDbLine
 10
2.717240184541075
 20
-1.466158262545889
 30
0.0
 11
2.364040347338047
 21
-1.819358099748916
 31
0.0
  0
LINE
  5
1156B
330
11560
100
AcDbEntity
  8
0
100
AcDbLine
 10
2.364040347338047
 20
-1.819358099748916
 30
0.0
 11
1.656580012761253
 21
-2.52681843432571
 31
0.0
  0
SPLINE
  5
1156C
330
11560
100
AcDbEntity
  8
0
100
AcDbSpline
210
0.0
220
0.0
230
1.0
 70
     8
 71
     3
 72
     8
 73
     4
 74
     0
 42
0.000000001
 43
0.0000000001
 40
0.0
 40
0.0
 40
0.0
 40
0.0
 40
1.0
 40
1.0
 40
1.0
 40
1.0
 10
4.362741700911122
 20
-2.263131641492204
 30
0.0
 10
3.178158037513873
 20
-2.633557006450309
 30
0.0
 10
2.063659161980818
 20
-2.933897583545272
 30
0.0
 10
1.656580012761247
 20
-2.526818434325698
 30
0.0
  0
LINE
  5
1156D
330
11560
100
AcDbEntity
  8
0
100
AcDbLine
 10
1.656580012761253
 20
-2.52681843432571
 30
0.0
 11
1.227476037518718
 21
-2.097714459083171
 31
0.0
  0
LINE
  5
1156E
330
11560
100
AcDbEntity
  8
0
100
AcDbLine
 10
2.288136209298538
 20
-1.037054287303352
 30
0.0
 11
1.227476037518718
 21
-2.097714459083171
 31
0.0
  0
LINE
  5
1156F
330
11560
100
AcDbEntity
  8
0
100
AcDbLine
 10
1.227476037518744
 20
-2.097714459083164
 30
0.0
 11
0.6150757595082796
 21
-1.485314181072699
 31
0.0
  0
LINE
  5
11570
330
11560
100
AcDbEntity
  8
0
100
AcDbLine
 10
1.675735931288091
 20
-0.4246540092928974
 30
0.0
 11
1.32253609281094
 21
-0.7778538477700482
 31
0.0
  0
LINE
  5
11571
330
11560
100
AcDbEntity
  8
0
100
AcDbLine
 10
1.32253609281094
 20
-0.7778538477700482
 30
0.0
 11
0.6150757595082701
 21
-1.485314181072718
 31
0.0
  0
LINE
  5
11572
330
11560
100
AcDbEntity
  8
0
100
AcDbLine
 10
1.500000000000012
 20
-0.0003899405809682
 30
0.0
 11
1.000499995436688
 21
-0.0003899405809682
 31
0.0
  0
LINE
  5
11573
330
11560
100
AcDbEntity
  8
0
100
AcDbLine
 10
1.000499995436688
 20
-0.0003899405809682
 30
0.0
 11
0.0
 21
-0.0003899405809682
 31
0.0
  0
LINE
  5
11574
330
11560
100
AcDbEntity
  8
0
100
AcDbLine
 10
1.500000000000002
 20
1.27000000000009
 30
0.0
 11
1.500000000000001
 21
-0.0003899405809682
 31
0.0
  0
LINE
  5
11575
330
11560
100
AcDbEntity
  8
0
100
AcDbLine
 10
0.0
 20
6.26999999999998
 30
0.0
 11
0.0
 21
1.269999999999977
 31
0.0
  0
LINE
  5
11576
330
11560
100
AcDbEntity
  8
0
100
AcDbLine
 10
0.0
 20
77.26999999999998
 30
0.0
 11
0.0
 21
72.26999999999998
 31
0.0
  0
LINE
  5
11577
330
11560
100
AcDbEntity
  8
0
100
AcDbLine
 10
1.50000000000003
 20
1.269999999999978
 30
0.0
 11
1.500000000000032
 21
6.26999999999998
 31
0.0
  0
LINE
  5
11578
330
11560
100
AcDbEntity
  8
0
100
AcDbLine
 10
1.500000000000032
 20
6.26999999999998
 30
0.0
 11
0.0
 21
6.26999999999998
 31
0.0
  0
LINE
  5
11579
330
11560
100
AcDbEntity
  8
0
100
AcDbLine
 10
0.0
 20
1.269999999999978
 30
0.0
 11
1.50000000000003
 21
1.269999999999978
 31
0.0
  0
LINE
  5
1157A
330
11560
100
AcDbEntity
  8
0
100
AcDbLine
 10
0.0
 20
72.26999999999998
 30
0.0
 11
1.500000000000032
 21
72.26999999999998
 31
0.0
  0
LINE
  5
1157B
330
11560
100
AcDbEntity
  8
0
100
AcDbLine
 10
1.500000000000032
 20
72.26999999999998
 30
0.0
 11
1.50000000000003
 21
77.26999999999998
 31
0.0
  0
LINE
  5
1157C
330
11560
100
AcDbEntity
  8
0
100
AcDbLine
 10
1.50000000000003
 20
77.26999999999998
 30
0.0
 11
0.0
 21
77.26999999999998
 31
0.0
  0
LINE
  5
1157D
330
11560
100
AcDbEntity
  8
0
100
AcDbLine
 10
0.0
 20
6.26999999999998
 30
0.0
 11
0.0
 21
72.26999999999998
 31
0.0
  0
LINE
  5
1157E
330
11560
100
AcDbEntity
  8
0
100
AcDbLine
 10
0.0
 20
77.26999999999998
 30
0.0
 11
0.0
 21
80.26999999999999
 31
0.0
  0
LINE
  5
1157F
330
11560
100
AcDbEntity
  8
0
100
AcDbLine
 10
1.500000000000032
 20
6.26999999999998
 30
0.0
 11
1.500000000000032
 21
72.26999999999998
 31
0.0
  0
LINE
  5
11580
330
11560
100
AcDbEntity
  8
0
100
AcDbLine
 10
1.500000000000009
 20
77.26999999999998
 30
0.0
 11
1.500000000000009
 21
80.26999999999999
 31
0.0
  0
LINE
  5
11581
330
11560
100
AcDbEntity
  8
0
100
AcDbLine
 10
0.0
 20
80.26999999999999
 30
0.0
 11
0.0
 21
320.67
 31
0.0
  0
LINE
  5
11582
330
11560
100
AcDbEntity
  8
0
100
AcDbLine
 10
2.100000000000008
 20
320.67
 30
0.0
 11
0.0
 21
320.67
 31
0.0
  0
LINE
  5
11583
330
11560
100
AcDbEntity
  8
0
100
AcDbLine
 10
0.0
 20
80.26999999999999
 30
0.0
 11
2.1
 21
80.26999999999999
 31
0.0
  0
LINE
  5
11584
330
11560
100
AcDbEntity
  8
0
100
AcDbLine
 10
43.50000000000001
 20
85.26999999999999
 30
0.0
 11
38.50000000000001
 21
80.26999999999999
 31
0.0
  0
LINE
  5
11585
330
11560
100
AcDbEntity
  8
0
100
AcDbLine
 10
38.50000000000001
 20
320.67
 30
0.0
 11
43.50000000000001
 21
315.67
 31
0.0
  0
LINE
  5
11586
330
11560
100
AcDbEntity
  8
0
100
AcDbLine
 10
82.00306627386
 20
-21.35501473263464
 30
0.0
 11
82.00306627386
 21
-28.4260825445001
 31
0.0
  0
CIRCLE
  5
11587
330
11560
100
AcDbEntity
  8
0
100
AcDbCircle
 10
35.50000000000002
 20
307.7699999999999
 30
0.0
 40
2.5
  0
CIRCLE
  5
11588
330
11560
100
AcDbEntity
  8
0
100
AcDbCircle
 10
35.50000000000002
 20
287.7699999999999
 30
0.0
 40
2.5
  0
CIRCLE
  5
11589
330
11560
100
AcDbEntity
  8
0
100
AcDbCircle
 10
35.50000000000002
 20
267.7699999999999
 30
0.0
 40
2.5
  0
CIRCLE
  5
1158A
330
11560
100
AcDbEntity
  8
0
100
AcDbCircle
 10
35.50000000000002
 20
247.7699999999999
 30
0.0
 40
2.5
  0
CIRCLE
  5
1158B
330
11560
100
AcDbEntity
  8
0
100
AcDbCircle
 10
35.50000000000002
 20
227.7699999999999
 30
0.0
 40
2.5
  0
CIRCLE
  5
1158C
330
11560
100
AcDbEntity
  8
0
100
AcDbCircle
 10
35.50000000000002
 20
207.7699999999999
 30
0.0
 40
2.5
  0
CIRCLE
  5
1158D
330
11560
100
AcDbEntity
  8
0
100
AcDbCircle
 10
35.50000000000002
 20
187.7699999999999
 30
0.0
 40
2.5
  0
CIRCLE
  5
1158E
330
11560
100
AcDbEntity
  8
0
100
AcDbCircle
 10
35.50000000000002
 20
167.7699999999999
 30
0.0
 40
2.5
  0
CIRCLE
  5
1158F
330
11560
100
AcDbEntity
  8
0
100
AcDbCircle
 10
35.50000000000002
 20
147.7699999999999
 30
0.0
 40
2.5
  0
CIRCLE
  5
11590
330
11560
100
AcDbEntity
  8
0
100
AcDbCircle
 10
35.50000000000002
 20
127.7699999999999
 30
0.0
 40
2.5
  0
CIRCLE
  5
11591
330
11560
100
AcDbEntity
  8
0
100
AcDbCircle
 10
35.50000000000002
 20
107.7699999999999
 30
0.0
 40
2.5
  0
CIRCLE
  5
11592
330
11560
100
AcDbEntity
  8
0
100
AcDbCircle
 10
35.50000000000002
 20
87.76999999999995
 30
0.0
 40
2.5
  0
LINE
  5
11593
330
11560
100
AcDbEntity
  8
0
100
AcDbLine
 10
43.50000000000001
 20
315.67
 30
0.0
 11
43.50000000000001
 21
85.27000000000001
 31
0.0
  0
LINE
  5
11594
330
11560
100
AcDbEntity
  8
0
100
AcDbLine
 10
2.100000000000008
 20
320.67
 30
0.0
 11
38.50000000000001
 21
320.67
 31
0.0
  0
LINE
  5
11595
330
11560
100
AcDbEntity
  8
0
100
AcDbLine
 10
38.50000000000001
 20
80.26999999999999
 30
0.0
 11
2.099999999999999
 21
80.26999999999999
 31
0.0
  0
LINE
  5
11596
330
11560
100
AcDbEntity
  8
0
100
AcDbLine
 10
82.00306627386
 20
-28.4260825445001
 30
0.0
 11
56.26437943888952
 21
-54.16476937947054
 31
0.0
  0
LINE
  5
11597
330
11560
100
AcDbEntity
  8
0
100
AcDbLine
 10
62.91118318265853
 20
-2.263131642256654
 30
0.0
 11
82.00306627386
 21
-21.35501473263464
 31
0.0
  0
CIRCLE
  5
11598
330
11560
100
AcDbEntity
  8
0
100
AcDbCircle
 10
74.57844507130477
 20
-25.24410202925713
 30
0.0
 40
2.5
  0
ARC
  5
11599
330
11560
100
AcDbEntity
  8
0
100
AcDbCircle
 10
59.31559010709463
 20
-13.99045269891601
 30
0.0
 40
0.8000000000000012
100
AcDbArc
 50
315.000000001042
 51
75.00000000104186
  0
LINE
  5
1159A
330
11560
100
AcDbEntity
  8
0
100
AcDbLine
 10
59.88127553205416
 20
-14.55613812385496
 30
0.0
 11
56.81941335363088
 21
-17.61800030238966
 31
0.0
  0
ARC
  5
1159B
330
11560
100
AcDbEntity
  8
0
100
AcDbCircle
 10
56.25372792867135
 20
-17.05231487745071
 30
0.0
 40
0.8
100
AcDbArc
 50
195.0000000010428
 51
315.0000000010428
  0
LINE
  5
1159C
330
11560
100
AcDbEntity
  8
0
100
AcDbLine
 10
55.48098726764387
 20
-17.25937011354679
 30
0.0
 11
54.36026792735771
 21
-13.07678859487813
 31
0.0
  0
ARC
  5
1159D
330
11560
100
AcDbEntity
  8
0
100
AcDbCircle
 10
55.13300858838519
 20
-12.86973335878205
 30
0.0
 40
0.8000000000000014
100
AcDbArc
 50
75.00000000104188
 51
195.0000000010427
  0
LINE
  5
1159E
330
11560
100
AcDbEntity
  8
0
100
AcDbLine
 10
55.34006382445316
 20
-12.09699269774702
 30
0.0
 11
59.5226453431626
 21
-13.21771203788098
 31
0.0
  0
LINE
  5
1159F
330
11560
100
AcDbEntity
  8
0
100
AcDbLine
 10
55.28251771018368
 20
-12.08382813389863
 30
0.0
 11
54.3471033635072
 21
-13.01924248060915
 31
0.0
  0
LINE
  5
115A0
330
11560
100
AcDbEntity
  8
0
100
AcDbLine
 10
54.77945519839778
 20
-55.64969361996227
 30
0.0
 11
1.656580012761255
 21
-2.526818434325708
 31
0.0
  0
LINE
  5
115A1
330
11560
100
AcDbEntity
  8
0
100
AcDbLine
 10
56.26437943888958
 20
-54.16476937947047
 30
0.0
 11
54.77945519839789
 21
-55.6496936199624
 31
0.0
  0
ENDBLK
  5
11562
330
11560
100
AcDbEntity
  8
0
100
AcDbBlockEnd
  0
BLOCK
  5
115A3
330
115A2
100
AcDbEntity
  8
0
100
AcDbBlockBegin
  2
SPR80_320-Right
 70
     0
 10
0.0
 20
0.0
 30
0.0
  3
SPR80_320-Right
  1

  0
LINE
  5
115A5
330
115A2
100
AcDbEntity
  8
0
100
AcDbLine
 10
-1.499999999999949
 20
6.269999999999978
 30
0.0
 11
-1.499999999999952
 21
1.269999999999978
 31
0.0
  0
LINE
  5
115A6
330
115A2
100
AcDbEntity
  8
0
100
AcDbLine
 10
-1.499999999999952
 20
1.269999999999978
 30
0.0
 11
0.0
 21
1.269999999999969
 31
0.0
  0
LINE
  5
115A7
330
115A2
100
AcDbEntity
  8
0
100
AcDbLine
 10
0.0
 20
1.269999999999969
 30
0.0
 11
0.0
 21
6.269999999999978
 31
0.0
  0
LINE
  5
115A8
330
115A2
100
AcDbEntity
  8
0
100
AcDbLine
 10
0.0
 20
6.269999999999978
 30
0.0
 11
-1.499999999999949
 21
6.269999999999978
 31
0.0
  0
LINE
  5
115A9
330
115A2
100
AcDbEntity
  8
0
100
AcDbLine
 10
-1.499999999999949
 20
72.26999999999998
 30
0.0
 11
0.0
 21
72.26999999999998
 31
0.0
  0
LINE
  5
115AA
330
115A2
100
AcDbEntity
  8
0
100
AcDbLine
 10
0.0
 20
72.26999999999998
 30
0.0
 11
0.0
 21
77.26999999999998
 31
0.0
  0
LINE
  5
115AB
330
115A2
100
AcDbEntity
  8
0
100
AcDbLine
 10
-1.499999999999952
 20
77.26999999999998
 30
0.0
 11
-1.499999999999949
 21
72.26999999999998
 31
0.0
  0
LINE
  5
115AC
330
115A2
100
AcDbEntity
  8
0
100
AcDbLine
 10
0.0
 20
77.26999999999998
 30
0.0
 11
-1.499999999999952
 21
77.26999999999998
 31
0.0
  0
LINE
  5
115AD
330
115A2
100
AcDbEntity
  8
0
100
AcDbLine
 10
0.0
 20
72.26999999999998
 30
0.0
 11
0.0
 21
6.26999999999998
 31
0.0
  0
LINE
  5
115AE
330
115A2
100
AcDbEntity
  8
0
100
AcDbLine
 10
-1.499999999999949
 20
72.26999999999998
 30
0.0
 11
-1.499999999999949
 21
6.26999999999998
 31
0.0
  0
LINE
  5
115AF
330
115A2
100
AcDbEntity
  8
0
100
AcDbLine
 10
0.0
 20
80.26999999999999
 30
0.0
 11
0.0
 21
77.27
 31
0.0
  0
LINE
  5
115B0
330
115A2
100
AcDbEntity
  8
0
100
AcDbLine
 10
-1.499999999999972
 20
80.26999999999999
 30
0.0
 11
-1.499999999999972
 21
77.27
 31
0.0
  0
LINE
  5
115B1
330
115A2
100
AcDbEntity
  8
0
100
AcDbLine
 10
0.0
 20
1.27000000000009
 30
0.0
 11
0.0
 21
-0.0003899405809682
 31
0.0
  0
LINE
  5
115B2
330
115A2
100
AcDbEntity
  8
0
100
AcDbLine
 10
-4.362741700911098
 20
-2.263131641492192
 30
0.0
 11
-62.91118318265852
 21
-2.26313164225665
 31
0.0
  0
SPLINE
  5
115B3
330
115A2
100
AcDbEntity
  8
0
100
AcDbSpline
210
0.0
220
0.0
230
1.0
 70
     8
 71
     3
 72
     8
 73
     4
 74
     0
 42
0.000000001
 43
0.0000000001
 40
-1.0
 40
-1.0
 40
-1.0
 40
-1.0
 40
0.0
 40
0.0
 40
0.0
 40
0.0
 10
-1.675735931288075
 20
-0.4246540092928972
 30
0.0
 10
-1.57256696667051
 20
-0.321485044675332
 30
0.0
 10
-1.500000000000004
 20
-0.1594792109354624
 30
0.0
 10
-1.500000000000004
 20
-0.0003899405809682
 30
0.0
  0
SPLINE
  5
115B4
330
115A2
100
AcDbEntity
  8
0
100
AcDbSpline
210
0.0
220
0.0
230
1.0
 70
     8
 71
     3
 72
     8
 73
     4
 74
     0
 42
0.000000001
 43
0.0000000001
 40
0.0
 40
0.0
 40
0.0
 40
0.0
 40
1.0
 40
1.0
 40
1.0
 40
1.0
 10
-0.0000000000000041
 20
-0.0003899405809679
 30
0.0
 10
-0.000000000000004
 20
-0.5572023868216976
 30
0.0
 10
-0.2539843833467763
 20
-1.12422280491124
 30
0.0
 10
-0.6150757595082542
 20
-1.485314181072718
 30
0.0
  0
LINE
  5
115B5
330
115A2
100
AcDbEntity
  8
0
100
AcDbLine
 10
-2.717240184541045
 20
-1.466158262545907
 30
0.0
 11
-2.288136209298505
 21
-1.037054287303367
 31
0.0
  0
LINE
  5
115B6
330
115A2
100
AcDbEntity
  8
0
100
AcDbLine
 10
-2.288136209298535
 20
-1.037054287303357
 30
0.0
 11
-1.675735931288072
 21
-0.4246540092928936
 31
0.0
  0
LINE
  5
115B7
330
115A2
100
AcDbEntity
  8
0
100
AcDbLine
 10
-2.717240184541045
 20
-1.466158262545907
 30
0.0
 11
-2.364040347337024
 21
-1.819358099749928
 31
0.0
  0
SPLINE
  5
115B8
330
115A2
100
AcDbEntity
  8
0
100
AcDbSpline
210
0.0
220
0.0
230
1.0
 70
     8
 71
     3
 72
     8
 73
     4
 74
     0
 42
0.000000001
 43
0.0000000001
 40
-1.0
 40
-1.0
 40
-1.0
 40
-1.0
 40
0.0
 40
0.0
 40
0.0
 40
0.0
 10
-4.362741700911154
 20
-2.263131641492137
 30
0.0
 10
-3.733518404783986
 20
-2.078196639180836
 30
0.0
 10
-3.124319333761123
 20
-1.873237411765945
 30
0.0
 10
-2.717240184541034
 20
-1.466158262545855
 30
0.0
  0
SPLINE
  5
115B9
330
115A2
100
AcDbEntity
  8
0
100
AcDbSpline
210
0.0
220
0.0
230
1.0
 70
     8
 71
     3
 72
     8
 73
     4
 74
     0
 42
0.000000001
 43
0.0000000001
 40
0.0
 40
0.0
 40
0.0
 40
0.0
 40
1.0
 40
1.0
 40
1.0
 40
1.0
 10
-1.656580012761212
 20
-2.526818434325676
 30
0.0
 10
-2.063659161981298
 20
-2.933897583545769
 30
0.0
 10
-3.178158037514116
 20
-2.633557006450705
 30
0.0
 10
-4.362741700911099
 20
-2.263131641492192
 30
0.0
  0
LINE
  5
115BA
330
115A2
100
AcDbEntity
  8
0
100
AcDbLine
 10
-2.364040347337024
 20
-1.819358099749928
 30
0.0
 11
-1.656580012761225
 21
-2.526818434325727
 31
0.0
  0
LINE
  5
115BB
330
115A2
100
AcDbEntity
  8
0
100
AcDbLine
 10
-0.6150757595082663
 20
-1.485314181072699
 30
0.0
 11
-1.227476037518729
 21
-2.097714459083163
 31
0.0
  0
LINE
  5
115BC
330
115A2
100
AcDbEntity
  8
0
100
AcDbLine
 10
-0.6150757595082541
 20
-1.485314181072718
 30
0.0
 11
-1.322536092809332
 21
-0.7778538477716404
 31
0.0
  0
LINE
  5
115BD
330
115A2
100
AcDbEntity
  8
0
100
AcDbLine
 10
-1.322536092809332
 20
-0.7778538477716404
 30
0.0
 11
-1.675735931288075
 21
-0.424654009292897
 31
0.0
  0
LINE
  5
115BE
330
115A2
100
AcDbEntity
  8
0
100
AcDbLine
 10
-2.288136209298505
 20
-1.037054287303367
 30
0.0
 11
-1.227476037518692
 21
-2.09771445908318
 31
0.0
  0
LINE
  5
115BF
330
115A2
100
AcDbEntity
  8
0
100
AcDbLine
 10
-1.227476037518692
 20
-2.09771445908318
 30
0.0
 11
-1.656580012761225
 21
-2.526818434325727
 31
0.0
  0
LINE
  5
115C0
330
115A2
100
AcDbEntity
  8
0
100
AcDbLine
 10
-1.499999999999977
 20
-0.0003899405809682
 30
0.0
 11
-1.000499995435046
 21
-0.0003899405809682
 31
0.0
  0
LINE
  5
115C1
330
115A2
100
AcDbEntity
  8
0
100
AcDbLine
 10
-1.000499995435046
 20
-0.0003899405809682
 30
0.0
 11
0.0
 21
-0.0003899405809682
 31
0.0
  0
LINE
  5
115C2
330
115A2
100
AcDbEntity
  8
0
100
AcDbLine
 10
-1.499999999999987
 20
-0.0003899405809683
 30
0.0
 11
-1.499999999999986
 21
1.27000000000009
 31
0.0
  0
LINE
  5
115C3
330
115A2
100
AcDbEntity
  8
0
100
AcDbLine
 10
0.0
 20
80.26999999999999
 30
0.0
 11
0.0
 21
320.67
 31
0.0
  0
LINE
  5
115C4
330
115A2
100
AcDbEntity
  8
0
100
AcDbLine
 10
0.0
 20
320.67
 30
0.0
 11
-2.099999999999945
 21
320.67
 31
0.0
  0
LINE
  5
115C5
330
115A2
100
AcDbEntity
  8
0
100
AcDbLine
 10
-2.099999999999963
 20
80.26999999999999
 30
0.0
 11
0.0
 21
80.26999999999999
 31
0.0
  0
LINE
  5
115C6
330
115A2
100
AcDbEntity
  8
0
100
AcDbLine
 10
-38.49999999999996
 20
80.26999999999999
 30
0.0
 11
-43.49999999999996
 21
85.26999999999999
 31
0.0
  0
LINE
  5
115C7
330
115A2
100
AcDbEntity
  8
0
100
AcDbLine
 10
-43.49999999999996
 20
315.67
 30
0.0
 11
-38.49999999999995
 21
320.67
 31
0.0
  0
LINE
  5
115C8
330
115A2
100
AcDbEntity
  8
0
100
AcDbLine
 10
-82.00306627385996
 20
-28.42608254450011
 30
0.0
 11
-82.00306627385998
 21
-21.35501473263467
 31
0.0
  0
LINE
  5
115C9
330
115A2
100
AcDbEntity
  8
0
100
AcDbLine
 10
-43.49999999999996
 20
85.26999999999999
 30
0.0
 11
-43.49999999999996
 21
315.67
 31
0.0
  0
LINE
  5
115CA
330
115A2
100
AcDbEntity
  8
0
100
AcDbLine
 10
-2.099999999999963
 20
80.26999999999999
 30
0.0
 11
-38.49999999999996
 21
80.26999999999999
 31
0.0
  0
LINE
  5
115CB
330
115A2
100
AcDbEntity
  8
0
100
AcDbLine
 10
-38.49999999999995
 20
320.67
 30
0.0
 11
-2.099999999999946
 21
320.67
 31
0.0
  0
CIRCLE
  5
115CC
330
115A2
100
AcDbEntity
  8
0
100
AcDbCircle
 10
-35.5
 20
312.7699999999999
 30
0.0
 40
2.5
  0
CIRCLE
  5
115CD
330
115A2
100
AcDbEntity
  8
0
100
AcDbCircle
 10
-35.5
 20
292.7699999999999
 30
0.0
 40
2.5
  0
CIRCLE
  5
115CE
330
115A2
100
AcDbEntity
  8
0
100
AcDbCircle
 10
-35.5
 20
272.7699999999999
 30
0.0
 40
2.5
  0
CIRCLE
  5
115CF
330
115A2
100
AcDbEntity
  8
0
100
AcDbCircle
 10
-35.5
 20
252.7699999999999
 30
0.0
 40
2.5
  0
CIRCLE
  5
115D0
330
115A2
100
AcDbEntity
  8
0
100
AcDbCircle
 10
-35.5
 20
232.7699999999999
 30
0.0
 40
2.5
  0
CIRCLE
  5
115D1
330
115A2
100
AcDbEntity
  8
0
100
AcDbCircle
 10
-35.5
 20
212.7699999999999
 30
0.0
 40
2.5
  0
CIRCLE
  5
115D2
330
115A2
100
AcDbEntity
  8
0
100
AcDbCircle
 10
-35.5
 20
192.7699999999999
 30
0.0
 40
2.5
  0
CIRCLE
  5
115D3
330
115A2
100
AcDbEntity
  8
0
100
AcDbCircle
 10
-35.5
 20
172.7699999999999
 30
0.0
 40
2.5
  0
CIRCLE
  5
115D4
330
115A2
100
AcDbEntity
  8
0
100
AcDbCircle
 10
-35.5
 20
152.7699999999999
 30
0.0
 40
2.5
  0
CIRCLE
  5
115D5
330
115A2
100
AcDbEntity
  8
0
100
AcDbCircle
 10
-35.5
 20
132.7699999999999
 30
0.0
 40
2.5
  0
CIRCLE
  5
115D6
330
115A2
100
AcDbEntity
  8
0
100
AcDbCircle
 10
-35.5
 20
112.7699999999999
 30
0.0
 40
2.5
  0
CIRCLE
  5
115D7
330
115A2
100
AcDbEntity
  8
0
100
AcDbCircle
 10
-35.5
 20
92.76999999999995
 30
0.0
 40
2.5
  0
LINE
  5
115D8
330
115A2
100
AcDbEntity
  8
0
100
AcDbLine
 10
-62.91118318265852
 20
-2.26313164225665
 30
0.0
 11
-82.00306627385998
 21
-21.35501473263467
 31
0.0
  0
LINE
  5
115D9
330
115A2
100
AcDbEntity
  8
0
100
AcDbLine
 10
-1.656580012761225
 20
-2.526818434325727
 30
0.0
 11
-54.77945519839777
 21
-55.64969361996227
 31
0.0
  0
LINE
  5
115DA
330
115A2
100
AcDbEntity
  8
0
100
AcDbLine
 10
-54.77945519839775
 20
-55.64969361996229
 30
0.0
 11
-56.26437943888955
 21
-54.16476937947056
 31
0.0
  0
LINE
  5
115DB
330
115A2
100
AcDbEntity
  8
0
100
AcDbLine
 10
-56.26437943888952
 20
-54.16476937947054
 30
0.0
 11
-82.00306627385996
 21
-28.42608254450011
 31
0.0
  0
CIRCLE
  5
115DC
330
115A2
100
AcDbEntity
  8
0
100
AcDbCircle
 10
-71.04291116530767
 20
-21.70856812338873
 30
0.0
 40
2.5
  0
ARC
  5
115DD
330
115A2
100
AcDbEntity
  8
0
100
AcDbCircle
 10
-51.59747468238809
 20
-9.334199452913647
 30
0.0
 40
0.8000000000000015
100
AcDbArc
 50
344.9999999989572
 51
355.4526675359234
  0
LINE
  5
115DE
330
115A2
100
AcDbEntity
  8
0
100
AcDbLine
 10
-50.82473402136063
 20
-9.541254689009724
 30
0.0
 11
-51.94545336164679
 21
-13.72383620767838
 31
0.0
  0
ARC
  5
115DF
330
115A2
100
AcDbEntity
  8
0
100
AcDbCircle
 10
-52.71819402267426
 20
-13.51678097158231
 30
0.0
 40
0.8
100
AcDbArc
 50
224.9999999989572
 51
344.9999999989576
  0
LINE
  5
115E0
330
115A2
100
AcDbEntity
  8
0
100
AcDbLine
 10
-53.28387944763379
 20
-14.08246639652126
 30
0.0
 11
-56.34574162605708
 21
-11.02060421798655
 31
0.0
  0
ARC
  5
115E1
330
115A2
100
AcDbEntity
  8
0
100
AcDbCircle
 10
-55.78005620109753
 20
-10.45491879304761
 30
0.0
 40
0.8000000000000014
100
AcDbArc
 50
104.9999999989575
 51
224.9999999989572
  0
LINE
  5
115E2
330
115A2
100
AcDbEntity
  8
0
100
AcDbLine
 10
-55.9871114371655
 20
-9.682178132012577
 30
0.0
 11
-51.80452991845606
 21
-8.561458791878616
 31
0.0
  0
ARC
  5
115E3
330
115A2
100
AcDbEntity
  8
0
100
AcDbCircle
 10
-51.59747468238809
 20
-9.334199452913647
 30
0.0
 40
0.8000000000000014
100
AcDbArc
 50
49.59733246198601
 51
104.9999999989581
  0
LINE
  5
115E4
330
115A2
100
AcDbEntity
  8
0
100
AcDbLine
 10
-51.07895039795263
 20
-8.724992947325691
 30
0.0
 11
-50.79999294004348
 21
-9.397625556585504
 31
0.0
  0
ARC
  5
115E5
330
115A2
100
AcDbEntity
  8
0
100
AcDbCircle
 10
-55.13300858838519
 20
-12.86973335878205
 30
0.0
 40
0.8000000000000015
100
AcDbArc
 50
349.2288663267692
 51
100.7711336711455
  0
ENDBLK
  5
115A4
330
115A2
100
AcDbEntity
  8
0
100
AcDbBlockEnd
  0
BLOCK
  5
115E7
330
115E6
100
AcDbEntity
  8
0
100
AcDbBlockBegin
  2
SPR80_320-Top
 70
     0
 10
0.0
 20
0.0
 30
0.0
  3
SPR80_320-Top
  1

  0
LINE
  5
115E9
330
115E6
100
AcDbEntity
  8
0
100
AcDbLine
 10
82.52709056099996
 20
-1.499999999999949
 30
0.0
 11
82.52709056099996
 21
0.0
 31
0.0
  0
LINE
  5
115EA
330
115E6
100
AcDbEntity
  8
0
100
AcDbLine
 10
-77.52709056100001
 20
0.0
 30
0.0
 11
-82.52709056100004
 21
0.0
 31
0.0
  0
LINE
  5
115EB
330
115E6
100
AcDbEntity
  8
0
100
AcDbLine
 10
82.52709056099996
 20
0.0
 30
0.0
 11
77.52709056099996
 21
0.0
 31
0.0
  0
LINE
  5
115EC
330
115E6
100
AcDbEntity
  8
0
100
AcDbLine
 10
-82.52709056100004
 20
0.0
 30
0.0
 11
-82.52709056100004
 21
-1.500000000000032
 31
0.0
  0
LINE
  5
115ED
330
115E6
100
AcDbEntity
  8
0
100
AcDbLine
 10
-82.52709056100004
 20
-1.500000000000032
 30
0.0
 11
-77.52709056100001
 21
-1.50000000000003
 31
0.0
  0
LINE
  5
115EE
330
115E6
100
AcDbEntity
  8
0
100
AcDbLine
 10
-77.52709056100001
 20
-1.50000000000003
 30
0.0
 11
-77.52709056100001
 21
0.0
 31
0.0
  0
LINE
  5
115EF
330
115E6
100
AcDbEntity
  8
0
100
AcDbLine
 10
77.52709056099996
 20
-1.499999999999952
 30
0.0
 11
82.52709056099996
 21
-1.499999999999949
 31
0.0
  0
LINE
  5
115F0
330
115E6
100
AcDbEntity
  8
0
100
AcDbLine
 10
77.52709056099996
 20
0.0
 30
0.0
 11
77.52709056099996
 21
-1.499999999999952
 31
0.0
  0
LINE
  5
115F1
330
115E6
100
AcDbEntity
  8
0
100
AcDbLine
 10
-77.52709056100001
 20
0.0
 30
0.0
 11
-39.40000000000003
 21
0.0
 31
0.0
  0
LINE
  5
115F2
330
115E6
100
AcDbEntity
  8
0
100
AcDbLine
 10
39.39999999999999
 20
0.0
 30
0.0
 11
77.52709056099996
 21
0.0
 31
0.0
  0
LINE
  5
115F3
330
115E6
100
AcDbEntity
  8
0
100
AcDbLine
 10
41.41246117974981
 20
-1.49999999999997
 30
0.0
 11
77.52709056099996
 21
-1.499999999999952
 31
0.0
  0
LINE
  5
115F4
330
115E6
100
AcDbEntity
  8
0
100
AcDbLine
 10
-77.52709056100001
 20
-1.50000000000003
 30
0.0
 11
-41.41246117974983
 21
-1.500000000000012
 31
0.0
  0
LINE
  5
115F5
330
115E6
100
AcDbEntity
  8
0
100
AcDbLine
 10
39.39999999999999
 20
0.0
 30
0.0
 11
-39.40000000000001
 21
0.0
 31
0.0
  0
LINE
  5
115F6
330
115E6
100
AcDbEntity
  8
0
100
AcDbLine
 10
41.5000000000002
 20
-38.49999999999995
 30
0.0
 11
41.49999999999999
 21
-2.099999999999946
 31
0.0
  0
LINE
  5
115F7
330
115E6
100
AcDbEntity
  8
0
100
AcDbLine
 10
-41.50000000000002
 20
-2.100000000000008
 30
0.0
 11
-41.50000000000001
 21
-38.50000000000001
 31
0.0
  0
LINE
  5
115F8
330
115E6
100
AcDbEntity
  8
0
100
AcDbLine
 10
40.0
 20
-2.099999999999946
 30
0.0
 11
40.0000000000002
 21
-38.49999999999997
 31
0.0
  0
LINE
  5
115F9
330
115E6
100
AcDbEntity
  8
0
100
AcDbLine
 10
-39.40000000000002
 20
-1.500000000000012
 30
0.0
 11
39.39999999999999
 21
-1.499999999999968
 31
0.0
  0
LINE
  5
115FA
330
115E6
100
AcDbEntity
  8
0
100
AcDbLine
 10
-40.0
 20
-38.50000000000001
 30
0.0
 11
-40.00000000000001
 21
-2.100000000000008
 31
0.0
  0
LINE
  5
115FB
330
115E6
100
AcDbEntity
  8
0
100
AcDbLine
 10
40.00000000000023
 20
-43.49999999999996
 30
0.0
 11
41.50000000000024
 21
-43.49999999999996
 31
0.0
  0
LINE
  5
115FC
330
115E6
100
AcDbEntity
  8
0
100
AcDbLine
 10
41.50000000000024
 20
-43.49999999999996
 30
0.0
 11
41.5000000000002
 21
-38.49999999999995
 31
0.0
  0
LINE
  5
115FD
330
115E6
100
AcDbEntity
  8
0
100
AcDbLine
 10
-41.50000000000001
 20
-38.50000000000001
 30
0.0
 11
-41.50000000000001
 21
-43.50000000000001
 31
0.0
  0
LINE
  5
115FE
330
115E6
100
AcDbEntity
  8
0
100
AcDbLine
 10
-41.50000000000001
 20
-43.50000000000001
 30
0.0
 11
-40.0
 21
-43.50000000000001
 31
0.0
  0
LINE
  5
115FF
330
115E6
100
AcDbEntity
  8
0
100
AcDbLine
 10
41.5000000000002
 20
-38.49999999999995
 30
0.0
 11
40.0000000000002
 21
-38.49999999999997
 31
0.0
  0
LINE
  5
11600
330
115E6
100
AcDbEntity
  8
0
100
AcDbLine
 10
40.0000000000002
 20
-38.49999999999997
 30
0.0
 11
40.00000000000023
 21
-43.49999999999996
 31
0.0
  0
LINE
  5
11601
330
115E6
100
AcDbEntity
  8
0
100
AcDbLine
 10
-40.0
 20
-43.50000000000001
 30
0.0
 11
-40.0
 21
-38.50000000000001
 31
0.0
  0
LINE
  5
11602
330
115E6
100
AcDbEntity
  8
0
100
AcDbLine
 10
-40.0
 20
-38.50000000000001
 30
0.0
 11
-41.50000000000001
 21
-38.50000000000001
 31
0.0
  0
LINE
  5
11603
330
115E6
100
AcDbEntity
  8
0
100
AcDbLine
 10
41.49999999999997
 20
-82.00306627385998
 30
0.0
 11
39.99999999999997
 21
-82.00306627385998
 31
0.0
  0
LINE
  5
11604
330
115E6
100
AcDbEntity
  8
0
100
AcDbLine
 10
-39.99999999999997
 20
-82.00306627385998
 30
0.0
 11
-41.49999999999997
 21
-82.00306627386
 31
0.0
  0
LINE
  5
11605
330
115E6
100
AcDbEntity
  8
0
100
AcDbLine
 10
41.50000000000285
 20
-62.91118318265852
 30
0.0
 11
41.49999999999997
 21
-82.00306627385998
 31
0.0
  0
LINE
  5
11606
330
115E6
100
AcDbEntity
  8
0
100
AcDbLine
 10
40.00000000000238
 20
-62.91118318265852
 30
0.0
 11
39.99999999999997
 21
-82.00306627385998
 31
0.0
  0
ELLIPSE
  5
11607
330
115E6
100
AcDbEntity
  8
0
100
AcDbEllipse
 10
39.39999999999999
 20
-56.26437943888952
 30
0.0
 11
0.6000000000000087
 21
-0.0000000000000092
 31
0.0
210
0.0
220
0.0
230
1.0
 40
0.7071067811864291
 41
0.0
 42
1.570796326794914
  0
LINE
  5
11608
330
115E6
100
AcDbEntity
  8
0
100
AcDbLine
 10
41.50000000000285
 20
-62.91118318265852
 30
0.0
 11
40.00000000000238
 21
-62.91118318265852
 31
0.0
  0
LINE
  5
11609
330
115E6
100
AcDbEntity
  8
0
100
AcDbLine
 10
41.5
 20
-43.49999999999996
 30
0.0
 11
41.50000000000285
 21
-62.91118318265852
 31
0.0
  0
LINE
  5
1160A
330
115E6
100
AcDbEntity
  8
0
100
AcDbLine
 10
-41.50000000000304
 20
-62.91118318265853
 30
0.0
 11
-41.50000000000305
 21
-43.50000000000001
 31
0.0
  0
SPLINE
  5
1160B
330
115E6
100
AcDbEntity
  8
0
100
AcDbSpline
210
0.0
220
0.0
230
1.0
 70
     8
 71
     3
 72
     8
 73
     4
 74
     0
 42
0.000000001
 43
0.0000000001
 40
-1.0
 40
-1.0
 40
-1.0
 40
-1.0
 40
0.0
 40
0.0
 40
0.0
 40
0.0
 10
-35.01767776087195
 20
-1.500000000000019
 30
0.0
 10
-34.97251992073994
 20
-1.500000000000019
 30
0.0
 10
-35.01586474390246
 20
-1.572566966670533
 30
0.0
 10
-35.14054197002052
 20
-1.675735931288091
 30
0.0
  0
SPLINE
  5
1160C
330
115E6
100
AcDbEntity
  8
0
100
AcDbSpline
210
0.0
220
0.0
230
1.0
 70
     8
 71
     3
 72
     8
 73
     4
 74
     0
 42
0.000000001
 43
0.0000000001
 40
-1.0
 40
-1.0
 40
-1.0
 40
-1.0
 40
0.0
 40
0.0
 40
0.0
 40
0.0
 10
35.1405419700205
 20
-1.675735931288075
 30
0.0
 10
35.01586474390216
 20
-1.57256696667051
 30
0.0
 10
34.97251992073987
 20
-1.500000000000004
 30
0.0
 10
35.01767776087194
 20
-1.500000000000004
 30
0.0
  0
ELLIPSE
  5
1160D
330
115E6
100
AcDbEntity
  8
0
100
AcDbEllipse
 10
-36.50000000000002
 20
-1.227476037518731
 30
0.0
 11
-1.5
 21
0.0000000000001091
 31
0.0
210
0.0
220
0.0
230
1.0
 40
0.7071067811865474
 41
1.570796326795026
 42
2.70525458196206
  0
LINE
  5
1160E
330
115E6
100
AcDbEntity
  8
0
100
AcDbLine
 10
-36.50000000000002
 20
-2.288136209298537
 30
0.0
 11
-38.79315533855966
 21
-2.288136209298538
 31
0.0
  0
LINE
  5
1160F
330
115E6
100
AcDbEntity
  8
0
100
AcDbLine
 10
-38.79315533855966
 20
-2.288136209298538
 30
0.0
 11
-39.40000000000002
 21
-2.717240184541075
 31
0.0
  0
LINE
  5
11610
330
115E6
100
AcDbEntity
  8
0
100
AcDbLine
 10
39.39999999999999
 20
-2.717240184541045
 30
0.0
 11
38.79315533855962
 21
-2.288136209298505
 31
0.0
  0
LINE
  5
11611
330
115E6
100
AcDbEntity
  8
0
100
AcDbLine
 10
38.79315533855962
 20
-2.288136209298505
 30
0.0
 11
36.49999999999998
 21
-2.288136209298506
 31
0.0
  0
ELLIPSE
  5
11612
330
115E6
100
AcDbEntity
  8
0
100
AcDbEllipse
 10
36.49999999999998
 20
-1.227476037518715
 30
0.0
 11
-1.5
 21
-0.0000000000000003
 31
0.0
210
0.0
220
0.0
230
1.0
 40
0.7071067811865474
 41
0.436338071627989
 42
1.570796326794896
  0
LINE
  5
11613
330
115E6
100
AcDbEntity
  8
0
100
AcDbLine
 10
-40.00000000000255
 20
-62.91118318265853
 30
0.0
 11
-41.50000000000304
 21
-62.91118318265853
 31
0.0
  0
LINE
  5
11614
330
115E6
100
AcDbEntity
  8
0
100
AcDbLine
 10
-40.00000000000002
 20
-43.50000000000001
 30
0.0
 11
-40.00000000000255
 21
-62.91118318265853
 31
0.0
  0
SPLINE
  5
11615
330
115E6
100
AcDbEntity
  8
0
100
AcDbSpline
210
0.0
220
0.0
230
1.0
 70
     8
 71
     3
 72
     8
 73
     4
 74
     0
 42
0.000000001
 43
0.0000000001
 40
-1.0
 40
-1.0
 40
-1.0
 40
-1.0
 40
0.0
 40
0.0
 40
0.0
 40
0.0
 10
-39.40000000000001
 20
-2.717240184541069
 30
0.0
 10
-39.714159265359
 20
-3.124319333760641
 30
0.0
 10
-40.00000000000001
 20
-3.733518404783695
 30
0.0
 10
-40.00000000000003
 20
-4.362741700911181
 30
0.0
  0
LINE
  5
11616
330
115E6
100
AcDbEntity
  8
0
100
AcDbLine
 10
-39.40000000000002
 20
-2.717240184541075
 30
0.0
 11
-39.40000000000002
 21
-2.364040347338047
 31
0.0
  0
LINE
  5
11617
330
115E6
100
AcDbEntity
  8
0
100
AcDbLine
 10
-39.40000000000002
 20
-2.364040347338047
 30
0.0
 11
-39.40000000000002
 21
-1.656580012761253
 31
0.0
  0
SPLINE
  5
11618
330
115E6
100
AcDbEntity
  8
0
100
AcDbSpline
210
0.0
220
0.0
230
1.0
 70
     8
 71
     3
 72
     8
 73
     4
 74
     0
 42
0.000000001
 43
0.0000000001
 40
0.8233926083861696
 40
0.8233926083861696
 40
0.8233926083861696
 40
0.8233926083861696
 40
1.0
 40
1.0
 40
1.0
 40
1.0
 10
-39.96833079343949
 20
-1.934942494001921
 30
0.0
 10
-39.78528852951264
 20
-1.822430928280991
 30
0.0
 10
-39.59418996942229
 20
-1.728473199485293
 30
0.0
 10
-39.40000000000001
 20
-1.656580012761247
 30
0.0
  0
LINE
  5
11619
330
115E6
100
AcDbEntity
  8
0
100
AcDbLine
 10
-39.40000000000002
 20
-1.656580012761253
 30
0.0
 11
-39.17856242236229
 21
-1.500000000000007
 31
0.0
  0
LINE
  5
1161A
330
115E6
100
AcDbEntity
  8
0
100
AcDbLine
 10
-38.79315533855966
 20
-2.288136209298538
 30
0.0
 11
-38.79315533855966
 21
-1.500000000000012
 31
0.0
  0
LINE
  5
1161B
330
115E6
100
AcDbEntity
  8
0
100
AcDbLine
 10
-35.1405419700205
 20
-1.675735931288091
 30
0.0
 11
-35.1405419700205
 21
-1.500000000000009
 31
0.0
  0
LINE
  5
1161C
330
115E6
100
AcDbEntity
  8
0
100
AcDbLine
 10
40.00000000000238
 20
-62.91118318265852
 30
0.0
 11
40.00000000000237
 21
-43.49999999999996
 31
0.0
  0
LINE
  5
1161D
330
115E6
100
AcDbEntity
  8
0
100
AcDbLine
 10
39.39999999999999
 20
-2.717240184541045
 30
0.0
 11
39.39999999999999
 21
-2.364040347337024
 31
0.0
  0
SPLINE
  5
1161E
330
115E6
100
AcDbEntity
  8
0
100
AcDbSpline
210
0.0
220
0.0
230
1.0
 70
     8
 71
     3
 72
     8
 73
     4
 74
     0
 42
0.000000001
 43
0.0000000001
 40
-1.0
 40
-1.0
 40
-1.0
 40
-1.0
 40
0.0
 40
0.0
 40
0.0
 40
0.0
 10
40.0
 20
-4.362741700911154
 30
0.0
 10
39.99999999999999
 20
-3.733518404783986
 30
0.0
 10
39.71415926535896
 20
-3.124319333761123
 30
0.0
 10
39.39999999999998
 20
-2.717240184541034
 30
0.0
  0
SPLINE
  5
1161F
330
115E6
100
AcDbEntity
  8
0
100
AcDbSpline
210
0.0
220
0.0
230
1.0
 70
     8
 71
     3
 72
     8
 73
     4
 74
     0
 42
0.000000001
 43
0.0000000001
 40
0.0
 40
0.0
 40
0.0
 40
0.0
 40
0.1766073916138387
 40
0.1766073916138387
 40
0.1766073916138387
 40
0.1766073916138387
 10
39.39999999999997
 20
-1.656580012761212
 30
0.0
 10
39.59418996942225
 20
-1.728473199485352
 30
0.0
 10
39.78528852951261
 20
-1.822430928281123
 30
0.0
 10
39.96833079343947
 20
-1.934942494002109
 30
0.0
  0
LINE
  5
11620
330
115E6
100
AcDbEntity
  8
0
100
AcDbLine
 10
39.39999999999999
 20
-2.364040347337024
 30
0.0
 11
39.39999999999999
 21
-1.656580012761225
 31
0.0
  0
LINE
  5
11621
330
115E6
100
AcDbEntity
  8
0
100
AcDbLine
 10
35.1405419700205
 20
-1.499999999999973
 30
0.0
 11
35.14054197002046
 21
-1.675735931288075
 31
0.0
  0
LINE
  5
11622
330
115E6
100
AcDbEntity
  8
0
100
AcDbLine
 10
38.79315533855962
 20
-2.288136209298505
 30
0.0
 11
38.79315533855962
 21
-1.499999999999971
 31
0.0
  0
LINE
  5
11623
330
115E6
100
AcDbEntity
  8
0
100
AcDbLine
 10
39.17856242236222
 20
-1.49999999999996
 30
0.0
 11
39.39999999999999
 21
-1.656580012761225
 31
0.0
  0
LINE
  5
11624
330
115E6
100
AcDbEntity
  8
0
100
AcDbLine
 10
-41.50000000000304
 20
-62.91118318265853
 30
0.0
 11
-41.49999999999997
 21
-82.00306627386
 31
0.0
  0
LINE
  5
11625
330
115E6
100
AcDbEntity
  8
0
100
AcDbLine
 10
-40.00000000000255
 20
-62.91118318265853
 30
0.0
 11
-39.99999999999997
 21
-82.00306627385998
 31
0.0
  0
ELLIPSE
  5
11626
330
115E6
100
AcDbEntity
  8
0
100
AcDbEllipse
 10
-22.50000000000002
 20
-0.1668158657389272
 30
0.0
 11
2.499999999999999
 21
0.0000000000001836
 31
0.0
210
0.0
220
0.0
230
1.0
 40
0.7071067811865474
 41
3.995971005725007
 42
5.428806955044096
  0
LINE
  5
11627
330
115E6
100
AcDbEntity
  8
0
100
AcDbLine
 10
-24.91828991960763
 20
-1.500000000000003
 30
0.0
 11
-24.91828991960762
 21
-1.675735931288089
 31
0.0
  0
ELLIPSE
  5
11628
330
115E6
100
AcDbEntity
  8
0
100
AcDbEllipse
 10
-22.50000000000002
 20
-1.227476037518728
 30
0.0
 11
2.499999999999999
 21
0.0000000000000003
 31
0.0
210
0.0
220
0.0
230
1.0
 40
0.7071067811865475
 41
3.397965980608286
 42
6.026811980161093
  0
LINE
  5
11629
330
115E6
100
AcDbEntity
  8
0
100
AcDbLine
 10
-20.08171008039241
 20
-1.675735931288088
 30
0.0
 11
-20.08171008039241
 21
-1.500000000000001
 31
0.0
  0
SPLINE
  5
1162A
330
115E6
100
AcDbEntity
  8
0
100
AcDbSpline
210
0.0
220
0.0
230
1.0
 70
     8
 71
     3
 72
     8
 73
     4
 74
     0
 42
0.000000001
 43
0.0000000001
 40
-1.0
 40
-1.0
 40
-1.0
 40
-1.0
 40
0.0
 40
0.0
 40
0.0
 40
0.0
 10
-24.91828991960763
 20
-1.675735931288089
 30
0.0
 10
-24.99189972302013
 20
-1.567383125827692
 30
0.0
 10
-25.01609483643936
 20
-1.500000000000017
 30
0.0
 10
-24.98943351399745
 20
-1.500000000000017
 30
0.0
  0
SPLINE
  5
1162B
330
115E6
100
AcDbEntity
  8
0
100
AcDbSpline
210
0.0
220
0.0
230
1.0
 70
     8
 71
     3
 72
     8
 73
     4
 74
     0
 42
0.000000001
 43
0.0000000001
 40
-1.0
 40
-1.0
 40
-1.0
 40
-1.0
 40
0.0
 40
0.0
 40
0.0
 40
0.0
 10
-20.01056648600258
 20
-1.500000000000016
 30
0.0
 10
-19.98390516356067
 20
-1.500000000000016
 30
0.0
 10
-20.00810027697966
 20
-1.567383125827665
 30
0.0
 10
-20.08171008039241
 20
-1.675735931288087
 30
0.0
  0
ELLIPSE
  5
1162C
330
115E6
100
AcDbEntity
  8
0
100
AcDbEllipse
 10
22.49999999999998
 20
-0.1668158657389175
 30
0.0
 11
2.5
 21
0.0000000000001826
 31
0.0
210
0.0
220
0.0
230
1.0
 40
0.7071067811865475
 41
3.995971005725005
 42
5.428806955044115
  0
LINE
  5
1162D
330
115E6
100
AcDbEntity
  8
0
100
AcDbLine
 10
20.08171008039237
 20
-1.49999999999999
 30
0.0
 11
20.08171008039237
 21
-1.675735931288079
 31
0.0
  0
ELLIPSE
  5
1162E
330
115E6
100
AcDbEntity
  8
0
100
AcDbEllipse
 10
22.49999999999998
 20
-1.227476037518718
 30
0.0
 11
2.5
 21
0.0000000000000003
 31
0.0
210
0.0
220
0.0
230
1.0
 40
0.7071067811865475
 41
3.397965980608286
 42
6.026811980161093
  0
LINE
  5
1162F
330
115E6
100
AcDbEntity
  8
0
100
AcDbLine
 10
24.91828991960759
 20
-1.675735931288078
 30
0.0
 11
24.91828991960759
 21
-1.499999999999976
 31
0.0
  0
SPLINE
  5
11630
330
115E6
100
AcDbEntity
  8
0
100
AcDbSpline
210
0.0
220
0.0
230
1.0
 70
     8
 71
     3
 72
     8
 73
     4
 74
     0
 42
0.000000001
 43
0.0000000001
 40
-1.0
 40
-1.0
 40
-1.0
 40
-1.0
 40
0.0
 40
0.0
 40
0.0
 40
0.0
 10
20.08171008039237
 20
-1.675735931288079
 30
0.0
 10
20.00810027697974
 20
-1.567383125827693
 30
0.0
 10
19.98390516356063
 20
-1.500000000000007
 30
0.0
 10
20.01056648600254
 20
-1.500000000000007
 30
0.0
  0
SPLINE
  5
11631
330
115E6
100
AcDbEntity
  8
0
100
AcDbSpline
210
0.0
220
0.0
230
1.0
 70
     8
 71
     3
 72
     8
 73
     4
 74
     0
 42
0.000000001
 43
0.0000000001
 40
-1.0
 40
-1.0
 40
-1.0
 40
-1.0
 40
0.0
 40
0.0
 40
0.0
 40
0.0
 10
24.98943351399742
 20
-1.500000000000006
 30
0.0
 10
25.01609483643929
 20
-1.500000000000006
 30
0.0
 10
24.99189972302015
 20
-1.567383125827636
 30
0.0
 10
24.91828991960759
 20
-1.675735931288078
 30
0.0
  0
SPLINE
  5
11632
330
115E6
100
AcDbEntity
  8
0
100
AcDbSpline
210
0.0
220
0.0
230
1.0
 70
     8
 71
     3
 72
     8
 73
     4
 74
     0
 42
0.000000001
 43
0.0000000001
 40
-1.0
 40
-1.0
 40
-1.0
 40
-1.0
 40
0.0
 40
0.0
 40
0.0
 40
0.0
 10
-4.918289920131953
 20
-1.675735931288084
 30
0.0
 10
-4.991899723307204
 20
-1.567383125811566
 30
0.0
 10
-5.016094836485419
 20
-1.500000000000013
 30
0.0
 10
-4.989433513812972
 20
-1.500000000000013
 30
0.0
  0
SPLINE
  5
11633
330
115E6
100
AcDbEntity
  8
0
100
AcDbSpline
210
0.0
220
0.0
230
1.0
 70
     8
 71
     3
 72
     8
 73
     4
 74
     0
 42
0.000000001
 43
0.0000000001
 40
-1.0
 40
-1.0
 40
-1.0
 40
-1.0
 40
0.0
 40
0.0
 40
0.0
 40
0.0
 10
4.98943351381294
 20
-1.500000000000011
 30
0.0
 10
5.016094836485287
 20
-1.500000000000011
 30
0.0
 10
4.991899723307183
 20
-1.567383125811559
 30
0.0
 10
4.918289920131898
 20
-1.675735931288082
 30
0.0
  0
ELLIPSE
  5
11634
330
115E6
100
AcDbEntity
  8
0
100
AcDbEllipse
 10
-2.500000000000017
 20
-0.166815867153261
 30
0.0
 11
2.5
 21
0.000000000000183
 31
0.0
210
0.0
220
0.0
230
1.0
 40
0.7071067811865474
 41
3.99597100450666
 42
4.712388980384622
  0
LINE
  5
11635
330
115E6
100
AcDbEntity
  8
0
100
AcDbLine
 10
-4.918289920131953
 20
-1.499999999999992
 30
0.0
 11
-4.918289920131954
 21
-1.675735931288084
 31
0.0
  0
ELLIPSE
  5
11636
330
115E6
100
AcDbEntity
  8
0
100
AcDbEllipse
 10
-2.500000000000017
 20
-1.227476038933062
 30
0.0
 11
-2.5
 21
-0.0000000000000002
 31
0.0
210
0.0
220
0.0
230
1.0
 40
0.7071067811865474
 41
0.2563733261913885
 42
1.570796326794896
  0
LINE
  5
11637
330
115E6
100
AcDbEntity
  8
0
100
AcDbLine
 10
-2.500000000000017
 20
-1.934582820119596
 30
0.0
 11
2.499999999999978
 21
-1.934582820119594
 31
0.0
  0
LINE
  5
11638
330
115E6
100
AcDbEntity
  8
0
100
AcDbLine
 10
2.499999999999978
 20
-2.995242991899417
 30
0.0
 11
-2.500000000000017
 21
-2.995242991899419
 31
0.0
  0
ELLIPSE
  5
11639
330
115E6
100
AcDbEntity
  8
0
100
AcDbEllipse
 10
2.499999999999977
 20
-0.1668158671532056
 30
0.0
 11
2.5
 21
0.0000000000000006
 31
0.0
210
0.0
220
0.0
230
1.0
 40
0.7071067811865472
 41
4.712388980384689
 42
5.42880695626254
  0
ELLIPSE
  5
1163A
330
115E6
100
AcDbEntity
  8
0
100
AcDbEllipse
 10
2.499999999999977
 20
-1.227476038933011
 30
0.0
 11
2.499999999999999
 21
0.0000000000000006
 31
0.0
210
0.0
220
0.0
230
1.0
 40
0.7071067811865475
 41
4.712388980384689
 42
6.026811980988168
  0
LINE
  5
1163B
330
115E6
100
AcDbEntity
  8
0
100
AcDbLine
 10
4.918289920131895
 20
-1.675735931288082
 30
0.0
 11
4.918289920131895
 21
-1.499999999999987
 31
0.0
  0
LINE
  5
1163C
330
115E6
100
AcDbEntity
  8
0
100
AcDbLine
 10
-39.4
 20
-55.8401153701776
 30
0.0
 11
39.39999999999999
 21
-55.84011537017758
 31
0.0
  0
ELLIPSE
  5
1163D
330
115E6
100
AcDbEntity
  8
0
100
AcDbEllipse
 10
-39.39999999999999
 20
-56.26437943888955
 30
0.0
 11
-0.6000000000000087
 21
-0.0000000000000268
 31
0.0
210
0.0
220
0.0
230
1.0
 40
0.707106781186519
 41
4.712388980384583
 42
6.283185307179418
  0
ARC
  5
1163E
330
115E6
100
AcDbEntity
  8
0
100
AcDbCircle
 10
39.39999999999999
 20
-2.099999999999972
 30
0.0
 40
0.6000000000000006
100
AcDbArc
 50
0.0
 51
90.0
  0
ARC
  5
1163F
330
115E6
100
AcDbEntity
  8
0
100
AcDbCircle
 10
39.39999999999999
 20
-2.099999999999972
 30
0.0
 40
2.100000000000008
100
AcDbArc
 50
0.0
 51
90.0
  0
ARC
  5
11640
330
115E6
100
AcDbEntity
  8
0
100
AcDbCircle
 10
-39.40000000000002
 20
-2.100000000000008
 30
0.0
 40
0.6000000000000006
100
AcDbArc
 50
90.0
 51
180.0
  0
ARC
  5
11641
330
115E6
100
AcDbEntity
  8
0
100
AcDbCircle
 10
-39.40000000000002
 20
-2.100000000000008
 30
0.0
 40
2.100000000000004
100
AcDbArc
 50
90.0
 51
180.0
  0
ENDBLK
  5
115E8
330
115E6
100
AcDbEntity
  8
0
100
AcDbBlockEnd
  0
BLOCK
  5
11643
330
11642
100
AcDbEntity
  8
0
100
AcDbBlockBegin
  2
SPR80_320-Bottom
 70
     0
 10
0.0
 20
0.0
 30
0.0
  3
SPR80_320-Bottom
  1

  0
LINE
  5
11645
330
11642
100
AcDbEntity
  8
0
100
AcDbLine
 10
82.527090561
 20
1.499999999999949
 30
0.0
 11
77.52709056100001
 21
1.499999999999952
 31
0.0
  0
LINE
  5
11646
330
11642
100
AcDbEntity
  8
0
100
AcDbLine
 10
77.52709056100001
 20
1.499999999999952
 30
0.0
 11
77.52709056100001
 21
0.0
 31
0.0
  0
LINE
  5
11647
330
11642
100
AcDbEntity
  8
0
100
AcDbLine
 10
77.52709056100001
 20
0.0
 30
0.0
 11
82.527090561
 21
0.0
 31
0.0
  0
LINE
  5
11648
330
11642
100
AcDbEntity
  8
0
100
AcDbLine
 10
82.527090561
 20
0.0
 30
0.0
 11
82.527090561
 21
1.499999999999949
 31
0.0
  0
LINE
  5
11649
330
11642
100
AcDbEntity
  8
0
100
AcDbLine
 10
-82.52709056100004
 20
0.0
 30
0.0
 11
-77.52709056100004
 21
0.0
 31
0.0
  0
LINE
  5
1164A
330
11642
100
AcDbEntity
  8
0
100
AcDbLine
 10
-77.52709056100004
 20
1.50000000000003
 30
0.0
 11
-82.52709056100004
 21
1.500000000000032
 31
0.0
  0
LINE
  5
1164B
330
11642
100
AcDbEntity
  8
0
100
AcDbLine
 10
-82.52709056100004
 20
1.500000000000032
 30
0.0
 11
-82.52709056100004
 21
0.0
 31
0.0
  0
LINE
  5
1164C
330
11642
100
AcDbEntity
  8
0
100
AcDbLine
 10
-77.52709056100004
 20
0.0
 30
0.0
 11
-77.52709056100004
 21
1.50000000000003
 31
0.0
  0
LINE
  5
1164D
330
11642
100
AcDbEntity
  8
0
100
AcDbLine
 10
77.52709056100001
 20
0.0
 30
0.0
 11
36.49999999999999
 21
0.0
 31
0.0
  0
LINE
  5
1164E
330
11642
100
AcDbEntity
  8
0
100
AcDbLine
 10
-36.50000000000002
 20
0.0
 30
0.0
 11
-77.52709056100004
 21
0.0
 31
0.0
  0
LINE
  5
1164F
330
11642
100
AcDbEntity
  8
0
100
AcDbLine
 10
-39.1785624223623
 20
1.500000000000014
 30
0.0
 11
-77.52709056100004
 21
1.50000000000003
 31
0.0
  0
LINE
  5
11650
330
11642
100
AcDbEntity
  8
0
100
AcDbLine
 10
77.52709056100001
 20
1.499999999999952
 30
0.0
 11
39.17856242236225
 21
1.499999999999971
 31
0.0
  0
LINE
  5
11651
330
11642
100
AcDbEntity
  8
0
100
AcDbLine
 10
36.49999999999998
 20
0.0
 30
0.0
 11
35.01767776087192
 21
0.0
 31
0.0
  0
LINE
  5
11652
330
11642
100
AcDbEntity
  8
0
100
AcDbLine
 10
-35.01767776087195
 20
0.0
 30
0.0
 11
-36.50000000000002
 21
0.0
 31
0.0
  0
SPLINE
  5
11653
330
11642
100
AcDbEntity
  8
0
100
AcDbSpline
210
0.0
220
0.0
230
1.0
 70
     8
 71
     3
 72
     8
 73
     4
 74
     0
 42
0.000000001
 43
0.0000000001
 40
0.0
 40
0.0
 40
0.0
 40
0.0
 40
1.0
 40
1.0
 40
1.0
 40
1.0
 10
-35.14054197002052
 20
0.6150757595082699
 30
0.0
 10
-35.01586474390246
 20
0.2539843833468153
 30
0.0
 10
-34.97251992073994
 20
0.0000000000000196
 30
0.0
 10
-35.01767776087195
 20
0.0000000000000197
 30
0.0
  0
SPLINE
  5
11654
330
11642
100
AcDbEntity
  8
0
100
AcDbSpline
210
0.0
220
0.0
230
1.0
 70
     8
 71
     3
 72
     8
 73
     4
 74
     0
 42
0.000000001
 43
0.0000000001
 40
0.0
 40
0.0
 40
0.0
 40
0.0
 40
1.0
 40
1.0
 40
1.0
 40
1.0
 10
35.01767776087194
 20
0.0000000000000042
 30
0.0
 10
34.97251992073987
 20
0.000000000000004
 30
0.0
 10
35.01586474390216
 20
0.2539843833467764
 30
0.0
 10
35.1405419700205
 20
0.6150757595082544
 30
0.0
  0
SPLINE
  5
11655
330
11642
100
AcDbEntity
  8
0
100
AcDbSpline
210
0.0
220
0.0
230
1.0
 70
     8
 71
     3
 72
     8
 73
     4
 74
     0
 42
0.000000001
 43
0.0000000001
 40
0.0
 40
0.0
 40
0.0
 40
0.0
 40
1.0
 40
1.0
 40
1.0
 40
1.0
 10
-41.50000000000004
 20
4.362741700911122
 30
0.0
 10
-41.49999999999997
 20
3.178158037513873
 30
0.0
 10
-40.49955742875642
 20
2.063659161980818
 30
0.0
 10
-39.40000000000001
 20
1.656580012761247
 30
0.0
  0
LINE
  5
11656
330
11642
100
AcDbEntity
  8
0
100
AcDbLine
 10
-39.40000000000002
 20
1.656580012761253
 30
0.0
 11
-38.79315533855966
 21
1.227476037518718
 31
0.0
  0
LINE
  5
11657
330
11642
100
AcDbEntity
  8
0
100
AcDbLine
 10
-38.79315533855966
 20
1.227476037518718
 30
0.0
 11
-36.50000000000002
 21
1.227476037518715
 31
0.0
  0
ELLIPSE
  5
11658
330
11642
100
AcDbEntity
  8
0
100
AcDbEllipse
 10
-36.50000000000002
 20
0.1668158657389237
 30
0.0
 11
1.5
 21
-0.0000000000000003
 31
0.0
210
0.0
220
0.0
230
1.0
 40
0.7071067811865474
 41
0.4363380716279864
 42
1.570796326794896
  0
LINE
  5
11659
330
11642
100
AcDbEntity
  8
0
100
AcDbLine
 10
-35.01767776087195
 20
0.1805170265381398
 30
0.0
 11
-35.01767776087195
 21
0.0
 31
0.0
  0
SPLINE
  5
1165A
330
11642
100
AcDbEntity
  8
0
100
AcDbSpline
210
0.0
220
0.0
230
1.0
 70
     8
 71
     3
 72
     8
 73
     4
 74
     0
 42
0.000000001
 43
0.0000000001
 40
0.0
 40
0.0
 40
0.0
 40
0.0
 40
1.0
 40
1.0
 40
1.0
 40
1.0
 10
39.39999999999997
 20
1.656580012761212
 30
0.0
 10
40.49955742875635
 20
2.063659161981298
 30
0.0
 10
41.49999999999995
 20
3.178158037514116
 30
0.0
 10
41.5
 20
4.362741700911099
 30
0.0
  0
ELLIPSE
  5
1165B
330
11642
100
AcDbEntity
  8
0
100
AcDbEllipse
 10
36.49999999999998
 20
0.1668158657389084
 30
0.0
 11
1.5
 21
-0.00000000000011
 31
0.0
210
0.0
220
0.0
230
1.0
 40
0.7071067811865475
 41
1.570796326795022
 42
2.705254581962059
  0
LINE
  5
1165C
330
11642
100
AcDbEntity
  8
0
100
AcDbLine
 10
36.49999999999998
 20
1.227476037518684
 30
0.0
 11
38.79315533855962
 21
1.227476037518692
 31
0.0
  0
LINE
  5
1165D
330
11642
100
AcDbEntity
  8
0
100
AcDbLine
 10
38.79315533855962
 20
1.227476037518692
 30
0.0
 11
39.39999999999999
 21
1.656580012761225
 31
0.0
  0
LINE
  5
1165E
330
11642
100
AcDbEntity
  8
0
100
AcDbLine
 10
35.01767776087192
 20
0.1805170265380515
 30
0.0
 11
35.01767776087192
 21
0.0
 31
0.0
  0
LINE
  5
1165F
330
11642
100
AcDbEntity
  8
0
100
AcDbLine
 10
24.98943351399742
 20
0.0
 30
0.0
 11
35.01767776087192
 21
0.0
 31
0.0
  0
LINE
  5
11660
330
11642
100
AcDbEntity
  8
0
100
AcDbLine
 10
4.989433513812937
 20
0.0
 30
0.0
 11
20.01056648600254
 21
0.0
 31
0.0
  0
LINE
  5
11661
330
11642
100
AcDbEntity
  8
0
100
AcDbLine
 10
-20.01056648600258
 20
0.0
 30
0.0
 11
-4.98943351381297
 21
0.0
 31
0.0
  0
LINE
  5
11662
330
11642
100
AcDbEntity
  8
0
100
AcDbLine
 10
-35.01767776087195
 20
0.0
 30
0.0
 11
-24.98943351399745
 21
0.0
 31
0.0
  0
LINE
  5
11663
330
11642
100
AcDbEntity
  8
0
100
AcDbLine
 10
41.49999999999995
 20
56.26437943888952
 30
0.0
 11
41.49999999999995
 21
82.00306627385996
 31
0.0
  0
LINE
  5
11664
330
11642
100
AcDbEntity
  8
0
100
AcDbLine
 10
-41.49999999999995
 20
82.00306627386
 30
0.0
 11
-41.49999999999997
 21
56.26437943888952
 31
0.0
  0
LINE
  5
11665
330
11642
100
AcDbEntity
  8
0
100
AcDbLine
 10
-39.99999999999998
 20
82.00306627385996
 30
0.0
 11
-39.99999999999999
 21
56.26437943888952
 31
0.0
  0
LINE
  5
11666
330
11642
100
AcDbEntity
  8
0
100
AcDbLine
 10
-39.4
 20
55.8401153701776
 30
0.0
 11
39.39999999999999
 21
55.84011537017758
 31
0.0
  0
LINE
  5
11667
330
11642
100
AcDbEntity
  8
0
100
AcDbLine
 10
39.99999999999997
 20
56.26437943888952
 30
0.0
 11
39.99999999999998
 21
82.00306627385996
 31
0.0
  0
LINE
  5
11668
330
11642
100
AcDbEntity
  8
0
100
AcDbLine
 10
-39.4
 20
54.77945519839778
 30
0.0
 11
39.39999999999999
 21
54.77945519839777
 31
0.0
  0
LINE
  5
11669
330
11642
100
AcDbEntity
  8
0
100
AcDbLine
 10
24.98943351399742
 20
0.0
 30
0.0
 11
20.01056648600254
 21
0.0
 31
0.0
  0
LINE
  5
1166A
330
11642
100
AcDbEntity
  8
0
100
AcDbLine
 10
-20.01056648600258
 20
0.0
 30
0.0
 11
-24.98943351399745
 21
0.0
 31
0.0
  0
ELLIPSE
  5
1166B
330
11642
100
AcDbEntity
  8
0
100
AcDbEllipse
 10
-22.50000000000002
 20
0.1668158657389272
 30
0.0
 11
-2.5
 21
0.0000000000000008
 31
0.0
210
0.0
220
0.0
230
1.0
 40
0.7071067811865475
 41
3.397965980608286
 42
6.026811980161093
  0
SPLINE
  5
1166C
330
11642
100
AcDbEntity
  8
0
100
AcDbSpline
210
0.0
220
0.0
230
1.0
 70
     8
 71
     3
 72
     8
 73
     4
 74
     0
 42
0.000000001
 43
0.0000000001
 40
0.0
 40
0.0
 40
0.0
 40
0.0
 40
1.0
 40
1.0
 40
1.0
 40
1.0
 10
-24.98943351399745
 20
0.0000000000000175
 30
0.0
 10
-25.01609483643936
 20
0.0000000000000175
 30
0.0
 10
-24.99189972302013
 20
0.2358409403968805
 30
0.0
 10
-24.91828991960763
 20
0.6150757595082677
 30
0.0
  0
LINE
  5
1166D
330
11642
100
AcDbEntity
  8
0
100
AcDbLine
 10
-24.98943351399745
 20
0.1805170265381093
 30
0.0
 11
-24.98943351399745
 21
0.0
 31
0.0
  0
LINE
  5
1166E
330
11642
100
AcDbEntity
  8
0
100
AcDbLine
 10
-20.01056648600258
 20
0.1805170265380809
 30
0.0
 11
-20.01056648600258
 21
0.0
 31
0.0
  0
SPLINE
  5
1166F
330
11642
100
AcDbEntity
  8
0
100
AcDbSpline
210
0.0
220
0.0
230
1.0
 70
     8
 71
     3
 72
     8
 73
     4
 74
     0
 42
0.000000001
 43
0.0000000001
 40
0.0
 40
0.0
 40
0.0
 40
0.0
 40
1.0
 40
1.0
 40
1.0
 40
1.0
 10
-20.08171008039241
 20
0.6150757595082656
 30
0.0
 10
-20.00810027697966
 20
0.235840940396788
 30
0.0
 10
-19.98390516356067
 20
0.0000000000000161
 30
0.0
 10
-20.01056648600258
 20
0.0000000000000164
 30
0.0
  0
LINE
  5
11670
330
11642
100
AcDbEntity
  8
0
100
AcDbLine
 10
-24.14171865077703
 20
1.5
 30
0.0
 11
-20.858281349223
 21
1.499999999999998
 31
0.0
  0
ELLIPSE
  5
11671
330
11642
100
AcDbEntity
  8
0
100
AcDbEllipse
 10
22.49999999999998
 20
0.1668158657389175
 30
0.0
 11
-2.5
 21
0.0000000000000006
 31
0.0
210
0.0
220
0.0
230
1.0
 40
0.7071067811865475
 41
3.397965980608285
 42
6.026811980161093
  0
SPLINE
  5
11672
330
11642
100
AcDbEntity
  8
0
100
AcDbSpline
210
0.0
220
0.0
230
1.0
 70
     8
 71
     3
 72
     8
 73
     4
 74
     0
 42
0.000000001
 43
0.0000000001
 40
0.0
 40
0.0
 40
0.0
 40
0.0
 40
1.0
 40
1.0
 40
1.0
 40
1.0
 10
20.01056648600254
 20
0.0000000000000075
 30
0.0
 10
19.98390516356063
 20
0.0000000000000074
 30
0.0
 10
20.00810027697974
 20
0.2358409403969081
 30
0.0
 10
20.08171008039237
 20
0.6150757595082577
 30
0.0
  0
LINE
  5
11673
330
11642
100
AcDbEntity
  8
0
100
AcDbLine
 10
20.01056648600254
 20
0.1805170265381034
 30
0.0
 11
20.01056648600254
 21
0.0
 31
0.0
  0
LINE
  5
11674
330
11642
100
AcDbEntity
  8
0
100
AcDbLine
 10
24.98943351399742
 20
0.1805170265380654
 30
0.0
 11
24.98943351399742
 21
0.0
 31
0.0
  0
SPLINE
  5
11675
330
11642
100
AcDbEntity
  8
0
100
AcDbSpline
210
0.0
220
0.0
230
1.0
 70
     8
 71
     3
 72
     8
 73
     4
 74
     0
 42
0.000000001
 43
0.0000000001
 40
0.0
 40
0.0
 40
0.0
 40
0.0
 40
1.0
 40
1.0
 40
1.0
 40
1.0
 10
24.91828991960759
 20
0.6150757595082565
 30
0.0
 10
24.99189972302015
 20
0.2358409403967126
 30
0.0
 10
25.01609483643929
 20
0.000000000000006
 30
0.0
 10
24.98943351399742
 20
0.0000000000000064
 30
0.0
  0
LINE
  5
11676
330
11642
100
AcDbEntity
  8
0
100
AcDbLine
 10
20.85828134922296
 20
1.49999999999999
 30
0.0
 11
24.141718650777
 21
1.499999999999988
 31
0.0
  0
LINE
  5
11677
330
11642
100
AcDbEntity
  8
0
100
AcDbLine
 10
4.989433513812937
 20
0.0
 30
0.0
 11
2.499999999999986
 21
0.0
 31
0.0
  0
LINE
  5
11678
330
11642
100
AcDbEntity
  8
0
100
AcDbLine
 10
2.499999999999985
 20
0.0
 30
0.0
 11
-2.500000000000023
 21
0.0
 31
0.0
  0
LINE
  5
11679
330
11642
100
AcDbEntity
  8
0
100
AcDbLine
 10
-2.500000000000022
 20
0.0
 30
0.0
 11
-4.989433513812971
 21
0.0
 31
0.0
  0
SPLINE
  5
1167A
330
11642
100
AcDbEntity
  8
0
100
AcDbSpline
210
0.0
220
0.0
230
1.0
 70
     8
 71
     3
 72
     8
 73
     4
 74
     0
 42
0.000000001
 43
0.0000000001
 40
0.0
 40
0.0
 40
0.0
 40
0.0
 40
1.0
 40
1.0
 40
1.0
 40
1.0
 10
-4.989433513812972
 20
0.000000000000013
 30
0.0
 10
-5.016094836485419
 20
0.000000000000013
 30
0.0
 10
-4.991899723307204
 20
0.2358409403404492
 30
0.0
 10
-4.918289920131954
 20
0.6150757595082633
 30
0.0
  0
SPLINE
  5
1167B
330
11642
100
AcDbEntity
  8
0
100
AcDbSpline
210
0.0
220
0.0
230
1.0
 70
     8
 71
     3
 72
     8
 73
     4
 74
     0
 42
0.000000001
 43
0.0000000001
 40
0.0
 40
0.0
 40
0.0
 40
0.0
 40
1.0
 40
1.0
 40
1.0
 40
1.0
 10
4.918289920131898
 20
0.615075759508261
 30
0.0
 10
4.991899723307182
 20
0.2358409403404309
 30
0.0
 10
5.016094836485287
 20
0.0000000000000106
 30
0.0
 10
4.98943351381294
 20
0.0000000000000108
 30
0.0
  0
ELLIPSE
  5
1167C
330
11642
100
AcDbEntity
  8
0
100
AcDbEllipse
 10
-2.500000000000017
 20
0.166815867153261
 30
0.0
 11
-2.5
 21
0.0000000000000004
 31
0.0
210
0.0
220
0.0
230
1.0
 40
0.7071067811865475
 41
4.712388980384689
 42
6.026811980988197
  0
LINE
  5
1167D
330
11642
100
AcDbEntity
  8
0
100
AcDbLine
 10
-2.500000000000017
 20
1.934582820119596
 30
0.0
 11
2.499999999999978
 21
1.934582820119594
 31
0.0
  0
ELLIPSE
  5
1167E
330
11642
100
AcDbEntity
  8
0
100
AcDbEllipse
 10
2.499999999999977
 20
0.1668158671532056
 30
0.0
 11
2.5
 21
-0.0000000000000006
 31
0.0
210
0.0
220
0.0
230
1.0
 40
0.7071067811865472
 41
0.2563733261914187
 42
1.570796326794896
  0
LINE
  5
1167F
330
11642
100
AcDbEntity
  8
0
100
AcDbLine
 10
-4.989433513812971
 20
0.1805170296372793
 30
0.0
 11
-4.989433513812971
 21
0.0
 31
0.0
  0
LINE
  5
11680
330
11642
100
AcDbEntity
  8
0
100
AcDbLine
 10
4.989433513812937
 20
0.1805170296371858
 30
0.0
 11
4.989433513812937
 21
0.0
 31
0.0
  0
LINE
  5
11681
330
11642
100
AcDbEntity
  8
0
100
AcDbLine
 10
2.499999999999987
 20
1.499999999999993
 30
0.0
 11
4.141718653073981
 21
1.499999999999992
 31
0.0
  0
LINE
  5
11682
330
11642
100
AcDbEntity
  8
0
100
AcDbLine
 10
-2.500000000000021
 20
1.499999999999995
 30
0.0
 11
2.499999999999987
 21
1.499999999999993
 31
0.0
  0
LINE
  5
11683
330
11642
100
AcDbEntity
  8
0
100
AcDbLine
 10
-4.141718653074104
 20
1.499999999999996
 30
0.0
 11
-2.500000000000022
 21
1.499999999999996
 31
0.0
  0
LINE
  5
11684
330
11642
100
AcDbEntity
  8
0
100
AcDbLine
 10
41.49999999999999
 20
2.099999999999963
 30
0.0
 11
41.5
 21
4.362741700911098
 31
0.0
  0
LINE
  5
11685
330
11642
100
AcDbEntity
  8
0
100
AcDbLine
 10
-41.50000000000002
 20
4.362741700911124
 30
0.0
 11
-41.50000000000002
 21
2.1
 31
0.0
  0
LINE
  5
11686
330
11642
100
AcDbEntity
  8
0
100
AcDbLine
 10
39.99999999999998
 20
82.00306627385996
 30
0.0
 11
41.49999999999995
 21
82.00306627385996
 31
0.0
  0
LINE
  5
11687
330
11642
100
AcDbEntity
  8
0
100
AcDbLine
 10
-41.49999999999995
 20
82.00306627386
 30
0.0
 11
-39.99999999999998
 21
82.00306627385996
 31
0.0
  0
LINE
  5
11688
330
11642
100
AcDbEntity
  8
0
100
AcDbLine
 10
41.49999999999995
 20
56.26437943888952
 30
0.0
 11
41.5
 21
4.362741700911101
 31
0.0
  0
ELLIPSE
  5
11689
330
11642
100
AcDbEntity
  8
0
100
AcDbEllipse
 10
39.39999999999999
 20
56.26437943888952
 30
0.0
 11
0.6000000000000087
 21
0.0000000000000092
 31
0.0
210
0.0
220
0.0
230
1.0
 40
0.7071067811864291
 41
4.712388980384671
 42
6.283185307179544
  0
ELLIPSE
  5
1168A
330
11642
100
AcDbEntity
  8
0
100
AcDbEllipse
 10
39.39999999999999
 20
56.26437943888952
 30
0.0
 11
2.100000000000031
 21
0.0000000000000173
 31
0.0
210
0.0
220
0.0
230
1.0
 40
0.7071067811865485
 41
4.712388980384712
 42
6.283185307179646
  0
LINE
  5
1168B
330
11642
100
AcDbEntity
  8
0
100
AcDbLine
 10
-41.50000000000004
 20
4.362741700911121
 30
0.0
 11
-41.49999999999997
 21
56.26437943888952
 31
0.0
  0
ELLIPSE
  5
1168C
330
11642
100
AcDbEntity
  8
0
100
AcDbEllipse
 10
-39.39999999999999
 20
56.26437943888955
 30
0.0
 11
-2.100000000000031
 21
0.0000000000000022
 31
0.0
210
0.0
220
0.0
230
1.0
 40
0.7071067811864883
 41
0.0
 42
1.570796326794893
  0
ELLIPSE
  5
1168D
330
11642
100
AcDbEntity
  8
0
100
AcDbEllipse
 10
-39.39999999999999
 20
56.26437943888955
 30
0.0
 11
-0.6000000000000087
 21
0.0000000000000268
 31
0.0
210
0.0
220
0.0
230
1.0
 40
0.707106781186519
 41
0.0000000000001678
 42
1.570796326795002
  0
ARC
  5
1168E
330
11642
100
AcDbEntity
  8
0
100
AcDbCircle
 10
39.39999999999999
 20
2.099999999999972
 30
0.0
 40
0.6000000000000006
100
AcDbArc
 50
270.0
 51
343.4444348564493
  0
ARC
  5
1168F
330
11642
100
AcDbEntity
  8
0
100
AcDbCircle
 10
39.39999999999999
 20
2.099999999999972
 30
0.0
 40
2.100000000000004
100
AcDbArc
 50
343.3984504009796
 51
0.0
  0
ARC
  5
11690
330
11642
100
AcDbEntity
  8
0
100
AcDbCircle
 10
-39.40000000000002
 20
2.100000000000008
 30
0.0
 40
0.6000000000000007
100
AcDbArc
 50
196.555565143554
 51
270.0
  0
ARC
  5
11691
330
11642
100
AcDbEntity
  8
0
100
AcDbCircle
 10
-39.40000000000002
 20
2.100000000000008
 30
0.0
 40
2.100000000000004
100
AcDbArc
 50
180.0
 51
196.60154959902
  0
ENDBLK
  5
11644
330
11642
100
AcDbEntity
  8
0
100
AcDbBlockEnd
  0
BLOCK
  5
11693
330
11692
100
AcDbEntity
  8
0
100
AcDbBlockBegin
  2
SPR80_320-ISO
 70
     0
 10
0.0
 20
0.0
 30
0.0
  3
SPR80_320-ISO
  1

  0
LINE
  5
11695
330
11692
100
AcDbEntity
  8
0
100
AcDbLine
 10
86.28487587005801
 20
-120.6411444218406
 30
0.0
 11
82.74934196412528
 21
-122.68238587416
 31
0.0
  0
LINE
  5
11696
330
11692
100
AcDbEntity
  8
0
100
AcDbLine
 10
87.34553604183785
 20
-120.0287719861448
 30
0.0
 11
86.28487587005801
 21
-120.6411444218406
 31
0.0
  0
LINE
  5
11697
330
11692
100
AcDbEntity
  8
0
100
AcDbLine
 10
86.284875870058
 20
-66.75237008061073
 30
0.0
 11
87.34553604183782
 21
-66.13999764491494
 31
0.0
  0
LINE
  5
11698
330
11692
100
AcDbEntity
  8
0
100
AcDbLine
 10
87.34553604183782
 20
-66.13999764491494
 30
0.0
 11
83.81000213590509
 21
-60.01627328795699
 31
0.0
  0
LINE
  5
11699
330
11692
100
AcDbEntity
  8
0
100
AcDbLine
 10
-26.89052095856816
 20
-59.38178150182931
 30
0.0
 11
-30.42605486450089
 21
-53.25805714487137
 31
0.0
  0
LINE
  5
1169A
330
11692
100
AcDbEntity
  8
0
100
AcDbLine
 10
82.74934196412525
 20
-60.62864572365278
 30
0.0
 11
86.284875870058
 21
-66.75237008061073
 31
0.0
  0
LINE
  5
1169B
330
11692
100
AcDbEntity
  8
0
100
AcDbLine
 10
83.81000213590509
 20
-60.01627328795699
 30
0.0
 11
82.74934196412525
 21
-60.62864572365278
 31
0.0
  0
LINE
  5
1169C
330
11692
100
AcDbEntity
  8
0
100
AcDbLine
 10
87.34553604183782
 20
-66.13999764491494
 30
0.0
 11
87.34553604183785
 21
-120.0287719861448
 31
0.0
  0
LINE
  5
1169D
330
11692
100
AcDbEntity
  8
0
100
AcDbLine
 10
86.284875870058
 20
-66.75237008061073
 30
0.0
 11
86.28487587005801
 21
-120.6411444218406
 31
0.0
  0
LINE
  5
1169E
330
11692
100
AcDbEntity
  8
0
100
AcDbLine
 10
-1.415520916463202
 20
-10.81129461184554
 30
0.0
 11
3.180673161249378
 21
-13.46490849986066
 31
0.0
  0
LINE
  5
1169F
330
11692
100
AcDbEntity
  8
0
100
AcDbLine
 10
56.21368175024048
 20
-44.08353028465038
 30
0.0
 11
83.81000213590509
 21
-60.01627328795699
 31
0.0
  0
LINE
  5
116A0
330
11692
100
AcDbEntity
  8
0
100
AcDbLine
 10
-30.42605486450089
 20
-53.25805714487137
 30
0.0
 11
-30.42605486450089
 21
-23.04768365054549
 31
0.0
  0
LINE
  5
116A1
330
11692
100
AcDbEntity
  8
0
100
AcDbLine
 10
55.15302157846067
 20
-44.69590272034619
 30
0.0
 11
82.74934196412525
 21
-60.62864572365278
 31
0.0
  0
LINE
  5
116A2
330
11692
100
AcDbEntity
  8
0
100
AcDbLine
 10
2.120012989469564
 20
-76.13102108606364
 30
0.0
 11
-26.89052095856816
 21
-59.38178150182931
 31
0.0
  0
LINE
  5
116A3
330
11692
100
AcDbEntity
  8
0
100
AcDbLine
 10
82.74934196412528
 20
-122.68238587416
 30
0.0
 11
53.73880801608756
 21
-105.9331462899256
 31
0.0
  0
LINE
  5
116A4
330
11692
100
AcDbEntity
  8
0
100
AcDbLine
 10
-2.476181088243021
 20
-11.42366704754135
 30
0.0
 11
2.120012989469555
 21
-14.07728093555646
 31
0.0
  0
LINE
  5
116A5
330
11692
100
AcDbEntity
  8
0
100
AcDbLine
 10
3.180673161249378
 20
-13.46490849986066
 30
0.0
 11
2.120012989469555
 21
-14.07728093555646
 31
0.0
  0
ELLIPSE
  5
116A6
330
11692
100
AcDbEntity
  8
0
100
AcDbEllipse
 10
2.120012989469555
 20
-12.85253606416487
 30
0.0
 11
0.7500000000000007
 21
-1.299038105676658
 31
0.0
210
0.0
220
0.0
230
0.9999999999999998
 40
0.5773502691896261
 41
5.497787143782137
 42
8.63937979737193
  0
ELLIPSE
  5
116A7
330
11692
100
AcDbEntity
  8
0
100
AcDbEllipse
 10
50.20327411015479
 20
149.2220352499888
 30
0.0
 11
1.250000000000129
 21
-2.165063509461022
 31
0.0
210
0.0
220
0.0
230
1.0
 40
0.577350269189626
 41
3.579741684173546
 42
4.454997905016245
  0
ELLIPSE
  5
116A8
330
11692
100
AcDbEntity
  8
0
100
AcDbEllipse
 10
50.20327411015481
 20
-46.73714417266545
 30
0.0
 11
1.250000000000001
 21
-2.165063509461098
 31
0.0
210
0.0
220
0.0
230
0.9999999999999998
 40
0.5773502691896257
 41
4.999145532596275
 42
5.845036276595412
  0
ELLIPSE
  5
116A9
330
11692
100
AcDbEntity
  8
0
100
AcDbEllipse
 10
49.14261393837498
 20
148.6096628142931
 30
0.0
 11
-1.25
 21
2.165063509461096
 31
0.0
210
0.0
220
0.0
230
0.9999999999999998
 40
0.5773502691896259
 41
4.969780055752917
 42
7.596590558606269
  0
ELLIPSE
  5
116AA
330
11692
100
AcDbEntity
  8
0
100
AcDbEllipse
 10
49.14261393837499
 20
-47.34951660836125
 30
0.0
 11
1.250000000000001
 21
-2.165063509461096
 31
0.0
210
0.0
220
0.0
230
0.9999999999999998
 40
0.5773502691896258
 41
4.999145532596283
 42
7.567225081762895
  0
ELLIPSE
  5
116AB
330
11692
100
AcDbEntity
  8
0
100
AcDbEllipse
 10
50.20327411015481
 20
-79.3970074097745
 30
0.0
 11
1.250000000000129
 21
-2.165063509461022
 31
0.0
210
0.0
220
0.0
230
1.0
 40
0.577350269189626
 41
3.579741684173546
 42
5.845036276594998
  0
ELLIPSE
  5
116AC
330
11692
100
AcDbEntity
  8
0
100
AcDbEllipse
 10
49.14261393837499
 20
-80.00937984547029
 30
0.0
 11
1.25
 21
-2.165063509461097
 31
0.0
210
0.0
220
0.0
230
1.0
 40
0.5773502691896259
 41
0.0
 42
6.283185307179586
  0
ELLIPSE
  5
116AD
330
11692
100
AcDbEntity
  8
0
100
AcDbEllipse
 10
43.13220629828933
 20
-58.98459288658134
 30
0.0
 11
1.250000000000129
 21
-2.165063509461022
 31
0.0
210
0.0
220
0.0
230
1.0
 40
0.577350269189626
 41
3.579741684173546
 42
5.845036276594998
  0
ELLIPSE
  5
116AE
330
11692
100
AcDbEntity
  8
0
100
AcDbEllipse
 10
42.07154612650952
 20
-59.59696532227714
 30
0.0
 11
1.25
 21
-2.165063509461097
 31
0.0
210
0.0
220
0.0
230
1.0
 40
0.5773502691896259
 41
0.0
 42
6.283185307179586
  0
ELLIPSE
  5
116AF
330
11692
100
AcDbEntity
  8
0
100
AcDbEllipse
 10
43.13220629828933
 20
-91.64445612369039
 30
0.0
 11
1.250000000000129
 21
-2.165063509461022
 31
0.0
210
0.0
220
0.0
230
1.0
 40
0.577350269189626
 41
3.579741684173546
 42
5.845036276594998
  0
ELLIPSE
  5
116B0
330
11692
100
AcDbEntity
  8
0
100
AcDbEllipse
 10
42.07154612650952
 20
-92.2568285593862
 30
0.0
 11
1.25
 21
-2.165063509461097
 31
0.0
210
0.0
220
0.0
230
1.0
 40
0.5773502691896259
 41
0.0
 42
6.283185307179586
  0
ELLIPSE
  5
116B1
330
11692
100
AcDbEntity
  8
0
100
AcDbEllipse
 10
14.84793505082741
 20
169.634449773182
 30
0.0
 11
1.250000000000129
 21
-2.165063509461022
 31
0.0
210
0.0
220
0.0
230
1.0
 40
0.577350269189626
 41
3.579741684173537
 42
5.845036276594991
  0
ELLIPSE
  5
116B2
330
11692
100
AcDbEntity
  8
0
100
AcDbEllipse
 10
14.84793505082741
 20
136.9745865360729
 30
0.0
 11
1.250000000000129
 21
-2.165063509461022
 31
0.0
210
0.0
220
0.0
230
1.0
 40
0.577350269189626
 41
3.579741684173546
 42
5.845036276595001
  0
ELLIPSE
  5
116B3
330
11692
100
AcDbEntity
  8
0
100
AcDbEllipse
 10
14.84793505082741
 20
104.3147232989639
 30
0.0
 11
1.250000000000129
 21
-2.165063509461022
 31
0.0
210
0.0
220
0.0
230
1.0
 40
0.577350269189626
 41
3.579741684173546
 42
5.845036276595001
  0
ELLIPSE
  5
116B4
330
11692
100
AcDbEntity
  8
0
100
AcDbEllipse
 10
14.84793505082742
 20
71.65486006185483
 30
0.0
 11
1.250000000000129
 21
-2.165063509461022
 31
0.0
210
0.0
220
0.0
230
1.0
 40
0.577350269189626
 41
3.579741684173546
 42
5.845036276595001
  0
ELLIPSE
  5
116B5
330
11692
100
AcDbEntity
  8
0
100
AcDbEllipse
 10
14.84793505082742
 20
38.99499682474579
 30
0.0
 11
1.250000000000129
 21
-2.165063509461022
 31
0.0
210
0.0
220
0.0
230
1.0
 40
0.577350269189626
 41
3.579741684173546
 42
5.845036276595
  0
ELLIPSE
  5
116B6
330
11692
100
AcDbEntity
  8
0
100
AcDbEllipse
 10
14.84793505082742
 20
6.335133587636736
 30
0.0
 11
1.250000000000129
 21
-2.165063509461022
 31
0.0
210
0.0
220
0.0
230
1.0
 40
0.577350269189626
 41
3.579741684173546
 42
5.845036276594998
  0
ELLIPSE
  5
116B7
330
11692
100
AcDbEntity
  8
0
100
AcDbEllipse
 10
14.84793505082742
 20
-26.32472964947233
 30
0.0
 11
1.250000000000129
 21
-2.165063509461022
 31
0.0
210
0.0
220
0.0
230
1.0
 40
0.577350269189626
 41
3.579741684173546
 42
5.845036276594997
  0
ELLIPSE
  5
116B8
330
11692
100
AcDbEntity
  8
0
100
AcDbEllipse
 10
13.78727487904759
 20
169.0220773374861
 30
0.0
 11
1.25
 21
-2.165063509461097
 31
0.0
210
0.0
220
0.0
230
1.0
 40
0.5773502691896259
 41
0.0
 42
6.283185307179586
  0
ELLIPSE
  5
116B9
330
11692
100
AcDbEntity
  8
0
100
AcDbEllipse
 10
13.78727487904759
 20
136.3622141003771
 30
0.0
 11
1.25
 21
-2.165063509461097
 31
0.0
210
0.0
220
0.0
230
1.0
 40
0.5773502691896259
 41
0.0
 42
6.283185307179586
  0
ELLIPSE
  5
116BA
330
11692
100
AcDbEntity
  8
0
100
AcDbEllipse
 10
13.78727487904759
 20
103.7023508632681
 30
0.0
 11
1.25
 21
-2.165063509461097
 31
0.0
210
0.0
220
0.0
230
1.0
 40
0.5773502691896259
 41
0.0
 42
6.283185307179586
  0
ELLIPSE
  5
116BB
330
11692
100
AcDbEntity
  8
0
100
AcDbEllipse
 10
13.78727487904759
 20
71.04248762615904
 30
0.0
 11
1.25
 21
-2.165063509461097
 31
0.0
210
0.0
220
0.0
230
1.0
 40
0.5773502691896259
 41
0.0
 42
6.283185307179586
  0
ELLIPSE
  5
116BC
330
11692
100
AcDbEntity
  8
0
100
AcDbEllipse
 10
13.78727487904759
 20
38.38262438905
 30
0.0
 11
1.25
 21
-2.165063509461097
 31
0.0
210
0.0
220
0.0
230
1.0
 40
0.5773502691896259
 41
0.0
 42
6.283185307179586
  0
ELLIPSE
  5
116BD
330
11692
100
AcDbEntity
  8
0
100
AcDbEllipse
 10
13.7872748790476
 20
5.722761151940947
 30
0.0
 11
1.25
 21
-2.165063509461097
 31
0.0
210
0.0
220
0.0
230
1.0
 40
0.5773502691896259
 41
0.0
 42
6.283185307179586
  0
ELLIPSE
  5
116BE
330
11692
100
AcDbEntity
  8
0
100
AcDbEllipse
 10
13.7872748790476
 20
-26.93710208516812
 30
0.0
 11
1.25
 21
-2.165063509461097
 31
0.0
210
0.0
220
0.0
230
1.0
 40
0.5773502691896259
 41
0.0
 42
6.283185307179586
  0
ELLIPSE
  5
116BF
330
11692
100
AcDbEntity
  8
0
100
AcDbEllipse
 10
14.84793505082742
 20
-58.98459288658138
 30
0.0
 11
1.250000000000129
 21
-2.165063509461022
 31
0.0
210
0.0
220
0.0
230
1.0
 40
0.577350269189626
 41
3.579741684173546
 42
5.845036276594999
  0
ELLIPSE
  5
116C0
330
11692
100
AcDbEntity
  8
0
100
AcDbEllipse
 10
13.7872748790476
 20
-59.59696532227717
 30
0.0
 11
1.25
 21
-2.165063509461097
 31
0.0
210
0.0
220
0.0
230
1.0
 40
0.5773502691896259
 41
0.0
 42
6.283185307179586
  0
ELLIPSE
  5
116C1
330
11692
100
AcDbEntity
  8
0
100
AcDbEllipse
 10
7.776867238961928
 20
157.3870010592661
 30
0.0
 11
1.250000000000129
 21
-2.165063509461022
 31
0.0
210
0.0
220
0.0
230
1.0
 40
0.577350269189626
 41
3.579741684173546
 42
5.845036276595003
  0
ELLIPSE
  5
116C2
330
11692
100
AcDbEntity
  8
0
100
AcDbEllipse
 10
7.776867238961933
 20
124.727137822157
 30
0.0
 11
1.250000000000129
 21
-2.165063509461022
 31
0.0
210
0.0
220
0.0
230
1.0
 40
0.577350269189626
 41
3.579741684173546
 42
5.845036276595003
  0
ELLIPSE
  5
116C3
330
11692
100
AcDbEntity
  8
0
100
AcDbEllipse
 10
7.776867238961933
 20
92.06727458504799
 30
0.0
 11
1.250000000000129
 21
-2.165063509461022
 31
0.0
210
0.0
220
0.0
230
1.0
 40
0.577350269189626
 41
3.579741684173546
 42
5.845036276595003
  0
ELLIPSE
  5
116C4
330
11692
100
AcDbEntity
  8
0
100
AcDbEllipse
 10
7.776867238961937
 20
59.40741134793895
 30
0.0
 11
1.250000000000129
 21
-2.165063509461022
 31
0.0
210
0.0
220
0.0
230
1.0
 40
0.577350269189626
 41
3.579741684173546
 42
5.845036276595003
  0
ELLIPSE
  5
116C5
330
11692
100
AcDbEntity
  8
0
100
AcDbEllipse
 10
7.776867238961937
 20
26.74754811082987
 30
0.0
 11
1.250000000000129
 21
-2.165063509461022
 31
0.0
210
0.0
220
0.0
230
1.0
 40
0.577350269189626
 41
3.579741684173546
 42
5.845036276595
  0
ELLIPSE
  5
116C6
330
11692
100
AcDbEntity
  8
0
100
AcDbEllipse
 10
7.776867238961941
 20
-5.912315126279175
 30
0.0
 11
1.250000000000129
 21
-2.165063509461022
 31
0.0
210
0.0
220
0.0
230
1.0
 40
0.577350269189626
 41
3.579741684173544
 42
5.845036276594998
  0
ELLIPSE
  5
116C7
330
11692
100
AcDbEntity
  8
0
100
AcDbEllipse
 10
7.776867238961941
 20
-38.57217836338822
 30
0.0
 11
1.250000000000129
 21
-2.165063509461022
 31
0.0
210
0.0
220
0.0
230
1.0
 40
0.577350269189626
 41
3.579741684173546
 42
5.845036276594998
  0
ELLIPSE
  5
116C8
330
11692
100
AcDbEntity
  8
0
100
AcDbEllipse
 10
6.716207067182105
 20
156.7746286235703
 30
0.0
 11
1.25
 21
-2.165063509461097
 31
0.0
210
0.0
220
0.0
230
1.0
 40
0.5773502691896259
 41
0.0
 42
6.283185307179586
  0
ELLIPSE
  5
116C9
330
11692
100
AcDbEntity
  8
0
100
AcDbEllipse
 10
6.716207067182109
 20
124.1147653864612
 30
0.0
 11
1.25
 21
-2.165063509461097
 31
0.0
210
0.0
220
0.0
230
1.0
 40
0.5773502691896259
 41
0.0
 42
6.283185307179586
  0
ELLIPSE
  5
116CA
330
11692
100
AcDbEntity
  8
0
100
AcDbEllipse
 10
6.716207067182109
 20
91.4549021493522
 30
0.0
 11
1.25
 21
-2.165063509461097
 31
0.0
210
0.0
220
0.0
230
1.0
 40
0.5773502691896259
 41
0.0
 42
6.283185307179586
  0
ELLIPSE
  5
116CB
330
11692
100
AcDbEntity
  8
0
100
AcDbEllipse
 10
6.716207067182113
 20
58.79503891224316
 30
0.0
 11
1.25
 21
-2.165063509461097
 31
0.0
210
0.0
220
0.0
230
1.0
 40
0.5773502691896259
 41
0.0
 42
6.283185307179586
  0
ELLIPSE
  5
116CC
330
11692
100
AcDbEntity
  8
0
100
AcDbEllipse
 10
6.716207067182113
 20
26.13517567513409
 30
0.0
 11
1.25
 21
-2.165063509461097
 31
0.0
210
0.0
220
0.0
230
1.0
 40
0.5773502691896259
 41
0.0
 42
6.283185307179586
  0
ELLIPSE
  5
116CD
330
11692
100
AcDbEntity
  8
0
100
AcDbEllipse
 10
6.716207067182118
 20
-6.524687561974982
 30
0.0
 11
1.25
 21
-2.165063509461097
 31
0.0
210
0.0
220
0.0
230
1.0
 40
0.5773502691896259
 41
0.0
 42
6.283185307179586
  0
ELLIPSE
  5
116CE
330
11692
100
AcDbEntity
  8
0
100
AcDbEllipse
 10
6.716207067182118
 20
-39.18455079908402
 30
0.0
 11
1.25
 21
-2.165063509461097
 31
0.0
210
0.0
220
0.0
230
1.0
 40
0.5773502691896259
 41
0.0
 42
6.283185307179586
  0
ELLIPSE
  5
116CF
330
11692
100
AcDbEntity
  8
0
100
AcDbEllipse
 10
7.776867238961946
 20
-71.23204160049727
 30
0.0
 11
1.250000000000129
 21
-2.165063509461022
 31
0.0
210
0.0
220
0.0
230
1.0
 40
0.5773502691896259
 41
3.579741684173546
 42
5.845036276594999
  0
ELLIPSE
  5
116D0
330
11692
100
AcDbEntity
  8
0
100
AcDbEllipse
 10
6.716207067182122
 20
-71.84441403619307
 30
0.0
 11
1.25
 21
-2.165063509461097
 31
0.0
210
0.0
220
0.0
230
1.0
 40
0.5773502691896259
 41
0.0
 42
6.283185307179586
  0
ELLIPSE
  5
116D1
330
11692
100
AcDbEntity
  8
0
100
AcDbEllipse
 10
-8.505744647717916
 20
-12.84147638894889
 30
0.0
 11
1.25
 21
-2.165063509461096
 31
0.0
210
0.0
220
0.0
230
1.0
 40
0.577350269189626
 41
5.50868294239602
 42
5.845036276595416
  0
ELLIPSE
  5
116D2
330
11692
100
AcDbEntity
  8
0
100
AcDbEllipse
 10
62.24324530971535
 20
-53.68842478576711
 30
0.0
 11
1.250000000000129
 21
-2.165063509461022
 31
0.0
210
0.0
220
0.0
230
0.9999999999999998
 40
0.5773502691896259
 41
3.579741684173544
 42
5.845036276594998
  0
ELLIPSE
  5
116D3
330
11692
100
AcDbEntity
  8
0
100
AcDbEllipse
 10
-9.566404819497741
 20
-13.45384882464468
 30
0.0
 11
1.25
 21
-2.165063509461097
 31
0.0
210
0.0
220
0.0
230
1.0
 40
0.5773502691896259
 41
5.508682942396019
 42
7.057687671963152
  0
ELLIPSE
  5
116D4
330
11692
100
AcDbEntity
  8
0
100
AcDbEllipse
 10
61.18258513793552
 20
-54.30079722146292
 30
0.0
 11
1.25
 21
-2.165063509461097
 31
0.0
210
0.0
220
0.0
230
1.0
 40
0.5773502691896259
 41
0.0
 42
6.283185307179586
  0
ELLIPSE
  5
116D5
330
11692
100
AcDbEntity
  8
0
100
AcDbEllipse
 10
-4.263103960598617
 20
-47.95082936884113
 30
0.0
 11
1.250000000000129
 21
-2.165063509461022
 31
0.0
210
0.0
220
0.0
230
0.9999999999999998
 40
0.5773502691896259
 41
3.579741684173546
 42
5.845036276594998
  0
ELLIPSE
  5
116D6
330
11692
100
AcDbEntity
  8
0
100
AcDbEllipse
 10
66.48588599683465
 20
-88.79777776565934
 30
0.0
 11
1.250000000000129
 21
-2.165063509461022
 31
0.0
210
0.0
220
0.0
230
0.9999999999999998
 40
0.577350269189626
 41
3.579741684173546
 42
5.845036276594998
  0
ELLIPSE
  5
116D7
330
11692
100
AcDbEntity
  8
0
100
AcDbEllipse
 10
-5.323764132378441
 20
-48.56320180453692
 30
0.0
 11
1.25
 21
-2.165063509461097
 31
0.0
210
0.0
220
0.0
230
1.0
 40
0.5773502691896259
 41
0.0
 42
6.283185307179586
  0
ELLIPSE
  5
116D8
330
11692
100
AcDbEntity
  8
0
100
AcDbEllipse
 10
65.42522582505482
 20
-89.41015020135512
 30
0.0
 11
1.25
 21
-2.165063509461097
 31
0.0
210
0.0
220
0.0
230
1.0
 40
0.5773502691896259
 41
0.0
 42
6.283185307179586
  0
ELLIPSE
  5
116D9
330
11692
100
AcDbEntity
  8
0
100
AcDbEllipse
 10
44.8999732512557
 20
-100.8300426591272
 30
0.0
 11
1.250000000000129
 21
-2.165063509461022
 31
0.0
210
0.0
220
0.0
230
0.9999999999999998
 40
0.5773502691896259
 41
3.579741684173544
 42
3.835017178248645
  0
ELLIPSE
  5
116DA
330
11692
100
AcDbEntity
  8
0
100
AcDbEllipse
 10
13.08016809786106
 20
-82.45886958825344
 30
0.0
 11
1.250000000000129
 21
-2.165063509461022
 31
0.0
210
0.0
220
0.0
230
1.0
 40
0.5773502691896259
 41
3.579741684173546
 42
3.835017178248645
  0
ELLIPSE
  5
116DB
330
11692
100
AcDbEntity
  8
0
100
AcDbEllipse
 10
12.96221146798756
 20
-83.18592894646991
 30
0.0
 11
-1.249999999999998
 21
-2.165063509461098
 31
0.0
210
0.0
220
0.0
230
1.0
 40
0.8164965809277259
 41
4.968762307403181
 42
6.069429174707155
  0
LINE
  5
116DC
330
11692
100
AcDbEntity
  8
0
100
AcDbLine
 10
10.93525465633969
 20
-82.7476702268887
 30
0.0
 11
10.43500465643991
 21
-82.45885075478446
 31
0.0
  0
LINE
  5
116DD
330
11692
100
AcDbEntity
  8
0
100
AcDbLine
 10
10.43500465643991
 20
-82.45885075478446
 30
0.0
 11
10.18525465633969
 21
-82.31465752499648
 31
0.0
  0
ELLIPSE
  5
116DE
330
11692
100
AcDbEntity
  8
0
100
AcDbEllipse
 10
12.21221146798757
 20
-82.75291624457771
 30
0.0
 11
-1.249999999999996
 21
-2.165063509461098
 31
0.0
210
0.0
220
0.0
230
1.0
 40
0.816496580927726
 41
4.968762307403189
 42
7.59760830695599
  0
LINE
  5
116DF
330
11692
100
AcDbEntity
  8
0
100
AcDbLine
 10
10.25921260702059
 20
-81.86745921917419
 30
0.0
 11
10.61241244460343
 21
-81.66353919786798
 31
0.0
  0
SPLINE
  5
116E0
330
11692
100
AcDbEntity
  8
0
100
AcDbSpline
210
0.0
220
0.0
230
1.0
 70
     8
 71
     3
 72
     8
 73
     4
 74
     0
 42
0.000000001
 43
0.0000000001
 40
-1.0
 40
-1.0
 40
-1.0
 40
-1.0
 40
0.0
 40
0.0
 40
0.0
 40
0.0
 10
10.18525465633969
 20
-82.31465752499648
 30
0.0
 10
10.20982166868653
 20
-82.15190190580342
 30
0.0
 10
10.24036020512651
 20
-81.98537057813981
 30
0.0
 10
10.25921260702058
 20
-81.86745921917419
 30
0.0
  0
SPLINE
  5
116E1
330
11692
100
AcDbEntity
  8
0
100
AcDbSpline
210
0.0
220
0.0
230
1.0
 70
     8
 71
     3
 72
     8
 73
     4
 74
     0
 42
0.000000001
 43
0.0000000001
 40
0.0
 40
0.0
 40
0.0
 40
0.0
 40
1.0
 40
1.0
 40
1.0
 40
1.0
 10
11.3198727788004
 20
-81.2550867834784
 30
0.0
 10
11.30102037690633
 20
-81.69498763812914
 30
0.0
 10
11.15136417744061
 20
-82.25315325072436
 30
0.0
 10
10.93525465633968
 20
-82.7476702268887
 30
0.0
  0
LINE
  5
116E2
330
11692
100
AcDbEntity
  8
0
100
AcDbLine
 10
10.61241244460343
 20
-81.66353919786798
 30
0.0
 11
11.31987277880041
 21
-81.25508678347836
 31
0.0
  0
SPLINE
  5
116E3
330
11692
100
AcDbEntity
  8
0
100
AcDbSpline
210
0.0
220
0.0
230
1.0
 70
     8
 71
     3
 72
     8
 73
     4
 74
     0
 42
0.000000001
 43
0.0000000001
 40
-1.0
 40
-1.0
 40
-1.0
 40
-1.0
 40
0.0
 40
0.0
 40
0.0
 40
0.0
 10
13.77980324514187
 20
-83.90007317179996
 30
0.0
 10
13.79865564703594
 20
-84.03975340938243
 30
0.0
 10
13.73390005305552
 20
-84.18652950966416
 30
0.0
 10
13.60523305839891
 20
-84.28918297604807
 30
0.0
  0
ELLIPSE
  5
116E4
330
11692
100
AcDbEntity
  8
0
100
AcDbEllipse
 10
12.01950792608124
 20
-83.07124202394923
 30
0.0
 11
-1.25
 21
2.165063509461096
 31
0.0
210
0.0
220
0.0
230
1.0
 40
0.5773502691896259
 41
4.018964455725479
 42
6.97660983183879
  0
ELLIPSE
  5
116E5
330
11692
100
AcDbEntity
  8
0
100
AcDbEllipse
 10
44.7820166213822
 20
-101.5571020173437
 30
0.0
 11
-1.249999999999998
 21
-2.165063509461098
 31
0.0
210
0.0
220
0.0
230
1.0
 40
0.8164965809277264
 41
4.968762307403181
 42
6.069429174707155
  0
LINE
  5
116E6
330
11692
100
AcDbEntity
  8
0
100
AcDbLine
 10
42.75505980973433
 20
-101.1188432977625
 30
0.0
 11
42.25480980983561
 21
-100.8300238256589
 31
0.0
  0
LINE
  5
116E7
330
11692
100
AcDbEntity
  8
0
100
AcDbLine
 10
42.25480980983561
 20
-100.8300238256589
 30
0.0
 11
42.00505980973432
 21
-100.6858305958703
 31
0.0
  0
ELLIPSE
  5
116E8
330
11692
100
AcDbEntity
  8
0
100
AcDbEllipse
 10
44.03201662138221
 20
-101.1240893154515
 30
0.0
 11
-1.249999999999997
 21
-2.165063509461098
 31
0.0
210
0.0
220
0.0
230
0.9999999999999998
 40
0.8164965809277262
 41
4.968762307403181
 42
7.597608306955987
  0
LINE
  5
116E9
330
11692
100
AcDbEntity
  8
0
100
AcDbLine
 10
42.07901776041524
 20
-100.238632290048
 30
0.0
 11
42.43221759799805
 21
-100.0347122687418
 31
0.0
  0
SPLINE
  5
116EA
330
11692
100
AcDbEntity
  8
0
100
AcDbSpline
210
0.0
220
0.0
230
1.0
 70
     8
 71
     3
 72
     8
 73
     4
 74
     0
 42
0.000000001
 43
0.0000000001
 40
-1.0
 40
-1.0
 40
-1.0
 40
-1.0
 40
0.0
 40
0.0
 40
0.0
 40
0.0
 10
42.00505980973432
 20
-100.6858305958703
 30
0.0
 10
42.02962682208108
 20
-100.5230749766772
 30
0.0
 10
42.06016535852114
 20
-100.3565436490136
 30
0.0
 10
42.07901776041523
 20
-100.238632290048
 30
0.0
  0
SPLINE
  5
116EB
330
11692
100
AcDbEntity
  8
0
100
AcDbSpline
210
0.0
220
0.0
230
1.0
 70
     8
 71
     3
 72
     8
 73
     4
 74
     0
 42
0.000000001
 43
0.0000000001
 40
0.0
 40
0.0
 40
0.0
 40
0.0
 40
1.0
 40
1.0
 40
1.0
 40
1.0
 10
43.13967793219504
 20
-99.62625985435222
 30
0.0
 10
43.12082553030097
 20
-100.0661607090029
 30
0.0
 10
42.97116933083514
 20
-100.6243263215982
 30
0.0
 10
42.75505980973433
 20
-101.1188432977625
 30
0.0
  0
LINE
  5
116EC
330
11692
100
AcDbEntity
  8
0
100
AcDbLine
 10
42.43221759799805
 20
-100.0347122687418
 30
0.0
 11
43.13967793219505
 21
-99.62625985435222
 31
0.0
  0
SPLINE
  5
116ED
330
11692
100
AcDbEntity
  8
0
100
AcDbSpline
210
0.0
220
0.0
230
1.0
 70
     8
 71
     3
 72
     8
 73
     4
 74
     0
 42
0.000000001
 43
0.0000000001
 40
-1.0
 40
-1.0
 40
-1.0
 40
-1.0
 40
0.0
 40
0.0
 40
0.0
 40
0.0
 10
45.59960839853651
 20
-102.2712462426738
 30
0.0
 10
45.61846080043056
 20
-102.4109264802562
 30
0.0
 10
45.55370520645005
 20
-102.5577025805379
 30
0.0
 10
45.42503821179355
 20
-102.6603560469219
 30
0.0
  0
ELLIPSE
  5
116EE
330
11692
100
AcDbEntity
  8
0
100
AcDbEllipse
 10
43.83931307947587
 20
-101.4424150948231
 30
0.0
 11
-1.25
 21
2.165063509461096
 31
0.0
210
0.0
220
0.0
230
1.0
 40
0.5773502691896259
 41
4.01896445572548
 42
6.976609831838792
  0
ELLIPSE
  5
116EF
330
11692
100
AcDbEntity
  8
0
100
AcDbEllipse
 10
27.22230372159201
 20
-90.62383539916384
 30
0.0
 11
1.250000000000129
 21
-2.165063509461022
 31
0.0
210
0.0
220
0.0
230
0.9999999999999998
 40
0.577350269189626
 41
3.579741684173546
 42
3.835017177445183
  0
SPLINE
  5
116F0
330
11692
100
AcDbEntity
  8
0
100
AcDbSpline
210
0.0
220
0.0
230
1.0
 70
     8
 71
     3
 72
     8
 73
     4
 74
     0
 42
0.000000001
 43
0.0000000001
 40
-1.0
 40
-1.0
 40
-1.0
 40
-1.0
 40
0.0
 40
0.0
 40
0.0
 40
0.0
 10
24.32739027969989
 20
-90.47962333405967
 30
0.0
 10
24.35195729222589
 20
-90.31686771494376
 30
0.0
 10
24.3824958288249
 20
-90.15033638737996
 30
0.0
 10
24.40134823088199
 20
-90.03242502852675
 30
0.0
  0
SPLINE
  5
116F1
330
11692
100
AcDbEntity
  8
0
100
AcDbSpline
210
0.0
220
0.0
230
1.0
 70
     8
 71
     3
 72
     8
 73
     4
 74
     0
 42
0.000000001
 43
0.0000000001
 40
0.0
 40
0.0
 40
0.0
 40
0.0
 40
1.0
 40
1.0
 40
1.0
 40
1.0
 10
25.46200840266181
 20
-89.42005259283094
 30
0.0
 10
25.44315600060472
 20
-89.85995344732359
 30
0.0
 10
25.29349980100847
 20
-90.41811905981532
 30
0.0
 10
25.07739027969988
 20
-90.91263603595189
 30
0.0
  0
SPLINE
  5
116F2
330
11692
100
AcDbEntity
  8
0
100
AcDbSpline
210
0.0
220
0.0
230
1.0
 70
     8
 71
     3
 72
     8
 73
     4
 74
     0
 42
0.000000001
 43
0.0000000001
 40
-1.0
 40
-1.0
 40
-1.0
 40
-1.0
 40
0.0
 40
0.0
 40
0.0
 40
0.0
 10
31.45747277467512
 20
-94.10628043332122
 30
0.0
 10
31.47632517673213
 20
-94.24596067097949
 30
0.0
 10
31.41156958293343
 20
-94.39273677135814
 30
0.0
 10
31.28290258843334
 20
-94.49539023785872
 30
0.0
  0
ELLIPSE
  5
116F3
330
11692
100
AcDbEntity
  8
0
100
AcDbEllipse
 10
27.10434709071842
 20
-91.35089475747939
 30
0.0
 11
-1.249999999999998
 21
-2.165063509461098
 31
0.0
210
0.0
220
0.0
230
1.0
 40
0.816496580927726
 41
4.968762306576076
 42
6.283185307179584
  0
LINE
  5
116F4
330
11692
100
AcDbEntity
  8
0
100
AcDbLine
 10
25.07739027969988
 20
-90.91263603595189
 30
0.0
 11
24.57714027980021
 21
-90.6238165638477
 31
0.0
  0
LINE
  5
116F5
330
11692
100
AcDbEntity
  8
0
100
AcDbLine
 10
24.57714027980021
 20
-90.6238165638477
 30
0.0
 11
24.32739027969989
 21
-90.47962333405967
 31
0.0
  0
ELLIPSE
  5
116F6
330
11692
100
AcDbEntity
  8
0
100
AcDbEllipse
 10
26.35434709071844
 20
-90.91788205558717
 30
0.0
 11
-1.249999999999999
 21
-2.165063509461097
 31
0.0
210
0.0
220
0.0
230
1.0
 40
0.816496580927726
 41
4.968762306576078
 42
6.283185307179589
  0
LINE
  5
116F7
330
11692
100
AcDbEntity
  8
0
100
AcDbLine
 10
28.63988099665118
 20
-95.12418701736761
 30
0.0
 11
25.10434709071845
 21
-93.08294556504828
 31
0.0
  0
ELLIPSE
  5
116F8
330
11692
100
AcDbEntity
  8
0
100
AcDbEllipse
 10
29.88988099665121
 20
-92.95912350790642
 30
0.0
 11
-1.249999999999998
 21
-2.165063509461098
 31
0.0
210
0.0
220
0.0
230
0.9999999999999998
 40
0.8164965809277259
 41
0.0
 42
1.314423000603477
  0
LINE
  5
116F9
330
11692
100
AcDbEntity
  8
0
100
AcDbLine
 10
24.401348230882
 20
-90.03242502852673
 30
0.0
 11
24.7545480684676
 21
-89.82850500721896
 31
0.0
  0
LINE
  5
116FA
330
11692
100
AcDbEntity
  8
0
100
AcDbLine
 10
24.7545480684676
 20
-89.82850500721896
 30
0.0
 11
25.46200840266182
 21
-89.42005259283094
 31
0.0
  0
ELLIPSE
  5
116FB
330
11692
100
AcDbEntity
  8
0
100
AcDbEllipse
 10
29.69717745574493
 20
-93.27744928717889
 30
0.0
 11
1.249999999999871
 21
-2.165063509461171
 31
0.0
210
0.0
220
0.0
230
0.9999999999999998
 40
0.577350269189626
 41
0.8773718029393471
 42
2.356194490192585
  0
LINE
  5
116FC
330
11692
100
AcDbEntity
  8
0
100
AcDbLine
 10
26.16164354981219
 20
-89.19496638254026
 30
0.0
 11
29.69717745574494
 21
-91.23620783485959
 31
0.0
  0
ELLIPSE
  5
116FD
330
11692
100
AcDbEntity
  8
0
100
AcDbEllipse
 10
26.16164354981219
 20
-91.23620783485964
 30
0.0
 11
-1.250000000000001
 21
2.165063509461096
 31
0.0
210
0.0
220
0.0
230
0.9999999999999998
 40
0.577350269189626
 41
5.49778714378214
 42
6.97660983103533
  0
LINE
  5
116FE
330
11692
100
AcDbEntity
  8
0
100
AcDbLine
 10
56.85007785330836
 20
154.2843140517407
 30
0.0
 11
1.130063495808384
 21
186.454279340293
 31
0.0
  0
LINE
  5
116FF
330
11692
100
AcDbEntity
  8
0
100
AcDbLine
 10
27.57585711218549
 20
-56.53510314379831
 30
0.0
 11
27.57585711218548
 21
131.5857091019498
 31
0.0
  0
LINE
  5
11700
330
11692
100
AcDbEntity
  8
0
100
AcDbLine
 10
26.51519694040565
 20
132.1980815376456
 30
0.0
 11
26.51519694040566
 21
-55.92273070810252
 31
0.0
  0
LINE
  5
11701
330
11692
100
AcDbEntity
  8
0
100
AcDbLine
 10
56.85007785330839
 20
-43.71610682323289
 30
0.0
 11
31.11139101811821
 21
-58.5763445961176
 31
0.0
  0
LINE
  5
11702
330
11692
100
AcDbEntity
  8
0
100
AcDbLine
 10
31.1113910181182
 20
137.7094334589077
 30
0.0
 11
56.85007785330839
 21
152.5696712317924
 31
0.0
  0
LINE
  5
11703
330
11692
100
AcDbEntity
  8
0
100
AcDbLine
 10
-31.11400572629819
 20
165.4703172104505
 30
0.0
 11
-31.11400572629817
 21
-22.65049503529759
 31
0.0
  0
LINE
  5
11704
330
11692
100
AcDbEntity
  8
0
100
AcDbLine
 10
-1.839784985175119
 20
186.454279340293
 30
0.0
 11
-27.57847182036544
 21
171.5940415674085
 31
0.0
  0
LINE
  5
11705
330
11692
100
AcDbEntity
  8
0
100
AcDbLine
 10
-30.05334555451837
 20
164.8579447747547
 30
0.0
 11
-30.05334555451836
 21
-23.26286747099338
 31
0.0
  0
LINE
  5
11706
330
11692
100
AcDbEntity
  8
0
100
AcDbLine
 10
56.85007785330839
 20
152.5696712317924
 30
0.0
 11
55.78941768152855
 21
153.1820436674882
 31
0.0
  0
LINE
  5
11707
330
11692
100
AcDbEntity
  8
0
100
AcDbLine
 10
55.78941768152855
 20
153.1820436674882
 30
0.0
 11
30.05073084633836
 21
138.3218058946035
 31
0.0
  0
LINE
  5
11708
330
11692
100
AcDbEntity
  8
0
100
AcDbLine
 10
0.0694033240285741
 20
-10.44387115042807
 30
0.0
 11
2.120012989469555
 21
-11.62779119277329
 31
0.0
  0
LINE
  5
11709
330
11692
100
AcDbEntity
  8
0
100
AcDbLine
 10
56.85007785330836
 20
154.2843140517407
 30
0.0
 11
55.78941768152853
 21
153.6719416160449
 31
0.0
  0
LINE
  5
1170A
330
11692
100
AcDbEntity
  8
0
100
AcDbLine
 10
1.130063495808384
 20
186.454279340293
 30
0.0
 11
0.0694033240285608
 21
185.8419069045973
 31
0.0
  0
LINE
  5
1170B
330
11692
100
AcDbEntity
  8
0
100
AcDbLine
 10
-1.839784985175119
 20
186.454279340293
 30
0.0
 11
-0.7791248133952955
 21
185.8419069045973
 31
0.0
  0
LINE
  5
1170C
330
11692
100
AcDbEntity
  8
0
100
AcDbLine
 10
0.0694033240285608
 20
185.8419069045973
 30
0.0
 11
55.78941768152853
 21
153.6719416160449
 31
0.0
  0
LINE
  5
1170D
330
11692
100
AcDbEntity
  8
0
100
AcDbLine
 10
-26.51781164858561
 20
-25.30410892331269
 30
0.0
 11
-0.7791248133952822
 21
-10.44387115042807
 31
0.0
  0
LINE
  5
1170E
330
11692
100
AcDbEntity
  8
0
100
AcDbLine
 10
-26.51781164858562
 20
170.9816691317127
 30
0.0
 11
-0.7791248133952955
 21
185.8419069045973
 31
0.0
  0
LINE
  5
1170F
330
11692
100
AcDbEntity
  8
0
100
AcDbLine
 10
31.11139101811821
 20
-58.5763445961176
 30
0.0
 11
27.57585711218549
 21
-56.53510314379831
 31
0.0
  0
LINE
  5
11710
330
11692
100
AcDbEntity
  8
0
100
AcDbLine
 10
27.57585711218549
 20
-56.53510314379831
 30
0.0
 11
26.51519694040566
 21
-55.92273070810251
 31
0.0
  0
LINE
  5
11711
330
11692
100
AcDbEntity
  8
0
100
AcDbLine
 10
26.51519694040565
 20
132.1980815376456
 30
0.0
 11
27.57585711218548
 21
131.5857091019498
 31
0.0
  0
LINE
  5
11712
330
11692
100
AcDbEntity
  8
0
100
AcDbLine
 10
27.57585711218548
 20
131.5857091019498
 30
0.0
 11
31.1113910181182
 21
137.7094334589077
 31
0.0
  0
LINE
  5
11713
330
11692
100
AcDbEntity
  8
0
100
AcDbLine
 10
-26.51781164858561
 20
-25.30410892331269
 30
0.0
 11
-30.05334555451836
 21
-23.26286747099338
 31
0.0
  0
LINE
  5
11714
330
11692
100
AcDbEntity
  8
0
100
AcDbLine
 10
-30.05334555451836
 20
-23.26286747099338
 30
0.0
 11
-31.11400572629817
 21
-22.65049503529759
 31
0.0
  0
LINE
  5
11715
330
11692
100
AcDbEntity
  8
0
100
AcDbLine
 10
-27.57847182036544
 20
171.5940415674085
 30
0.0
 11
-31.11400572629819
 21
165.4703172104505
 31
0.0
  0
LINE
  5
11716
330
11692
100
AcDbEntity
  8
0
100
AcDbLine
 10
-31.11400572629819
 20
165.4703172104505
 30
0.0
 11
-30.05334555451837
 21
164.8579447747547
 31
0.0
  0
LINE
  5
11717
330
11692
100
AcDbEntity
  8
0
100
AcDbLine
 10
31.1113910181182
 20
137.7094334589077
 30
0.0
 11
30.05073084633836
 21
138.3218058946035
 31
0.0
  0
LINE
  5
11718
330
11692
100
AcDbEntity
  8
0
100
AcDbLine
 10
30.05073084633836
 20
138.3218058946035
 30
0.0
 11
26.51519694040565
 21
132.1980815376456
 31
0.0
  0
LINE
  5
11719
330
11692
100
AcDbEntity
  8
0
100
AcDbLine
 10
-30.05334555451837
 20
164.8579447747547
 30
0.0
 11
-26.51781164858562
 21
170.9816691317127
 31
0.0
  0
LINE
  5
1171A
330
11692
100
AcDbEntity
  8
0
100
AcDbLine
 10
-26.51781164858562
 20
170.9816691317127
 30
0.0
 11
-27.57847182036544
 21
171.5940415674085
 31
0.0
  0
LINE
  5
1171B
330
11692
100
AcDbEntity
  8
0
100
AcDbLine
 10
0.3500778534638371
 20
-165.0863767901792
 30
0.0
 11
0.3500778534638194
 21
-159.312874098283
 31
0.0
  0
LINE
  5
1171C
330
11692
100
AcDbEntity
  8
0
100
AcDbLine
 10
0.3500778534638194
 20
-159.312874098283
 30
0.0
 11
-0.710582318315991
 21
-158.7005016625871
 31
0.0
  0
LINE
  5
1171D
330
11692
100
AcDbEntity
  8
0
100
AcDbLine
 10
-0.710582318315991
 20
-158.7005016625871
 30
0.0
 11
-0.7105823183159688
 21
-164.4740043544834
 31
0.0
  0
LINE
  5
1171E
330
11692
100
AcDbEntity
  8
0
100
AcDbLine
 10
-0.7105823183159688
 20
-164.4740043544834
 30
0.0
 11
0.3500778534638371
 21
-165.0863767901792
 31
0.0
  0
LINE
  5
1171F
330
11692
100
AcDbEntity
  8
0
100
AcDbLine
 10
-58.33978498501958
 20
-125.4282659897824
 30
0.0
 11
-58.33978498501958
 21
-131.2017686816786
 31
0.0
  0
LINE
  5
11720
330
11692
100
AcDbEntity
  8
0
100
AcDbLine
 10
-58.33978498501958
 20
-131.2017686816786
 30
0.0
 11
-57.27912481323976
 21
-131.8141411173744
 31
0.0
  0
LINE
  5
11721
330
11692
100
AcDbEntity
  8
0
100
AcDbLine
 10
-57.27912481323976
 20
-131.8141411173744
 30
0.0
 11
-57.27912481323976
 21
-126.0406384254782
 31
0.0
  0
LINE
  5
11722
330
11692
100
AcDbEntity
  8
0
100
AcDbLine
 10
-57.27912481323976
 20
-126.0406384254782
 30
0.0
 11
-58.33978498501958
 21
-125.4282659897824
 31
0.0
  0
ELLIPSE
  5
11723
330
11692
100
AcDbEntity
  8
0
100
AcDbEllipse
 10
33.2327113616775
 20
132.4838553409705
 30
0.0
 11
1.250000000000128
 21
2.165063509461023
 31
0.0
210
0.0
220
0.0
230
0.9999999999999998
 40
0.5773502691896258
 41
0.0
 42
6.283185307179586
  0
ELLIPSE
  5
11724
330
11692
100
AcDbEntity
  8
0
100
AcDbEllipse
 10
33.2327113616775
 20
116.1539237224159
 30
0.0
 11
1.250000000000128
 21
2.165063509461023
 31
0.0
210
0.0
220
0.0
230
0.9999999999999998
 40
0.5773502691896258
 41
0.0
 42
6.283185307179586
  0
ELLIPSE
  5
11725
330
11692
100
AcDbEntity
  8
0
100
AcDbEllipse
 10
33.2327113616775
 20
99.82399210386143
 30
0.0
 11
1.250000000000128
 21
2.165063509461023
 31
0.0
210
0.0
220
0.0
230
0.9999999999999998
 40
0.5773502691896258
 41
0.0
 42
6.283185307179586
  0
ELLIPSE
  5
11726
330
11692
100
AcDbEntity
  8
0
100
AcDbEllipse
 10
33.2327113616775
 20
83.4940604853069
 30
0.0
 11
1.250000000000128
 21
2.165063509461023
 31
0.0
210
0.0
220
0.0
230
0.9999999999999998
 40
0.5773502691896258
 41
0.0
 42
6.283185307179586
  0
ELLIPSE
  5
11727
330
11692
100
AcDbEntity
  8
0
100
AcDbEllipse
 10
33.2327113616775
 20
67.16412886675238
 30
0.0
 11
1.250000000000128
 21
2.165063509461023
 31
0.0
210
0.0
220
0.0
230
0.9999999999999998
 40
0.5773502691896258
 41
0.0
 42
6.283185307179586
  0
ELLIPSE
  5
11728
330
11692
100
AcDbEntity
  8
0
100
AcDbEllipse
 10
33.2327113616775
 20
50.83419724819785
 30
0.0
 11
1.250000000000128
 21
2.165063509461023
 31
0.0
210
0.0
220
0.0
230
0.9999999999999998
 40
0.5773502691896258
 41
0.0
 42
6.283185307179586
  0
ELLIPSE
  5
11729
330
11692
100
AcDbEntity
  8
0
100
AcDbEllipse
 10
33.23271136167751
 20
34.50426562964333
 30
0.0
 11
1.250000000000128
 21
2.165063509461023
 31
0.0
210
0.0
220
0.0
230
0.9999999999999998
 40
0.5773502691896258
 41
0.0
 42
6.283185307179586
  0
ELLIPSE
  5
1172A
330
11692
100
AcDbEntity
  8
0
100
AcDbEllipse
 10
33.23271136167751
 20
18.1743340110888
 30
0.0
 11
1.250000000000128
 21
2.165063509461023
 31
0.0
210
0.0
220
0.0
230
0.9999999999999998
 40
0.5773502691896258
 41
0.0
 42
6.283185307179586
  0
ELLIPSE
  5
1172B
330
11692
100
AcDbEntity
  8
0
100
AcDbEllipse
 10
33.23271136167751
 20
1.844402392534281
 30
0.0
 11
1.250000000000128
 21
2.165063509461023
 31
0.0
210
0.0
220
0.0
230
0.9999999999999998
 40
0.5773502691896258
 41
0.0
 42
6.283185307179586
  0
ELLIPSE
  5
1172C
330
11692
100
AcDbEntity
  8
0
100
AcDbEllipse
 10
33.23271136167751
 20
-14.48552922602025
 30
0.0
 11
1.250000000000128
 21
2.165063509461023
 31
0.0
210
0.0
220
0.0
230
0.9999999999999998
 40
0.5773502691896258
 41
0.0
 42
6.283185307179586
  0
ELLIPSE
  5
1172D
330
11692
100
AcDbEntity
  8
0
100
AcDbEllipse
 10
33.23271136167752
 20
-30.81546084457478
 30
0.0
 11
1.250000000000128
 21
2.165063509461023
 31
0.0
210
0.0
220
0.0
230
0.9999999999999998
 40
0.5773502691896258
 41
0.0
 42
6.283185307179586
  0
ELLIPSE
  5
1172E
330
11692
100
AcDbEntity
  8
0
100
AcDbEllipse
 10
32.17205118989767
 20
133.0962277766662
 30
0.0
 11
1.249999999999863
 21
2.165063509461175
 31
0.0
210
0.0
220
0.0
230
1.0
 40
0.5773502691896218
 41
3.579741684173548
 42
5.845036276595
  0
ELLIPSE
  5
1172F
330
11692
100
AcDbEntity
  8
0
100
AcDbEllipse
 10
32.17205118989767
 20
116.7662961581117
 30
0.0
 11
1.249999999999863
 21
2.165063509461175
 31
0.0
210
0.0
220
0.0
230
1.0
 40
0.5773502691896218
 41
3.579741684173548
 42
5.845036276595
  0
ELLIPSE
  5
11730
330
11692
100
AcDbEntity
  8
0
100
AcDbEllipse
 10
32.17205118989767
 20
100.4363645395572
 30
0.0
 11
1.249999999999863
 21
2.165063509461175
 31
0.0
210
0.0
220
0.0
230
1.0
 40
0.5773502691896218
 41
3.579741684173548
 42
5.845036276595
  0
ELLIPSE
  5
11731
330
11692
100
AcDbEntity
  8
0
100
AcDbEllipse
 10
32.17205118989767
 20
84.10643292100269
 30
0.0
 11
1.249999999999863
 21
2.165063509461175
 31
0.0
210
0.0
220
0.0
230
1.0
 40
0.5773502691896218
 41
3.579741684173548
 42
5.845036276595
  0
ELLIPSE
  5
11732
330
11692
100
AcDbEntity
  8
0
100
AcDbEllipse
 10
32.17205118989767
 20
67.77650130244817
 30
0.0
 11
1.249999999999863
 21
2.165063509461175
 31
0.0
210
0.0
220
0.0
230
1.0
 40
0.5773502691896218
 41
3.579741684173557
 42
5.845036276595002
  0
ELLIPSE
  5
11733
330
11692
100
AcDbEntity
  8
0
100
AcDbEllipse
 10
32.17205118989767
 20
51.44656968389364
 30
0.0
 11
1.249999999999863
 21
2.165063509461175
 31
0.0
210
0.0
220
0.0
230
1.0
 40
0.5773502691896218
 41
3.579741684173557
 42
5.845036276595002
  0
ELLIPSE
  5
11734
330
11692
100
AcDbEntity
  8
0
100
AcDbEllipse
 10
32.17205118989768
 20
35.11663806533912
 30
0.0
 11
1.249999999999863
 21
2.165063509461175
 31
0.0
210
0.0
220
0.0
230
1.0
 40
0.5773502691896218
 41
3.579741684173555
 42
5.845036276594996
  0
ELLIPSE
  5
11735
330
11692
100
AcDbEntity
  8
0
100
AcDbEllipse
 10
32.17205118989768
 20
18.78670644678459
 30
0.0
 11
1.249999999999863
 21
2.165063509461175
 31
0.0
210
0.0
220
0.0
230
1.0
 40
0.5773502691896218
 41
3.579741684173555
 42
5.845036276594996
  0
ELLIPSE
  5
11736
330
11692
100
AcDbEntity
  8
0
100
AcDbEllipse
 10
32.17205118989768
 20
2.45677482823007
 30
0.0
 11
1.249999999999863
 21
2.165063509461175
 31
0.0
210
0.0
220
0.0
230
1.0
 40
0.5773502691896218
 41
3.57974168417355
 42
5.845036276594987
  0
ELLIPSE
  5
11737
330
11692
100
AcDbEntity
  8
0
100
AcDbEllipse
 10
32.17205118989768
 20
-13.87315679032445
 30
0.0
 11
1.249999999999863
 21
2.165063509461175
 31
0.0
210
0.0
220
0.0
230
1.0
 40
0.5773502691896218
 41
3.57974168417355
 42
5.845036276594988
  0
ELLIPSE
  5
11738
330
11692
100
AcDbEntity
  8
0
100
AcDbEllipse
 10
32.17205118989768
 20
-30.20308840887898
 30
0.0
 11
1.249999999999863
 21
2.165063509461175
 31
0.0
210
0.0
220
0.0
230
1.0
 40
0.5773502691896218
 41
3.57974168417355
 42
5.845036276594988
  0
ELLIPSE
  5
11739
330
11692
100
AcDbEntity
  8
0
100
AcDbEllipse
 10
33.23271136167752
 20
-47.1453924631293
 30
0.0
 11
1.250000000000128
 21
2.165063509461023
 31
0.0
210
0.0
220
0.0
230
0.9999999999999998
 40
0.5773502691896258
 41
0.0
 42
6.283185307179586
  0
ELLIPSE
  5
1173A
330
11692
100
AcDbEntity
  8
0
100
AcDbEllipse
 10
32.17205118989768
 20
-46.53302002743351
 30
0.0
 11
1.249999999999863
 21
2.165063509461175
 31
0.0
210
0.0
220
0.0
230
1.0
 40
0.5773502691896218
 41
3.57974168417355
 42
5.845036276594989
  0
LINE
  5
1173B
330
11692
100
AcDbEntity
  8
0
100
AcDbLine
 10
56.85007785330839
 20
-43.71610682323289
 30
0.0
 11
56.85007785330839
 21
152.5696712317925
 31
0.0
  0
ELLIPSE
  5
1173C
330
11692
100
AcDbEntity
  8
0
100
AcDbEllipse
 10
55.36515361281661
 20
153.4269926417665
 30
0.0
 11
0.6000000000000006
 21
0.0
 31
0.0
210
0.0
220
0.0
230
1.0
 40
0.577350269189626
 41
5.497787143782192
 42
7.068583470577047
  0
LINE
  5
1173D
330
11692
100
AcDbEntity
  8
0
100
AcDbLine
 10
55.78941768152853
 20
153.6719416160449
 30
0.0
 11
55.78941768152853
 21
153.1820436674882
 31
0.0
  0
ELLIPSE
  5
1173E
330
11692
100
AcDbEntity
  8
0
100
AcDbEllipse
 10
55.36515361281661
 20
153.4269926417665
 30
0.0
 11
2.100000000000008
 21
-0.0000000000000002
 31
0.0
210
0.0
220
0.0
230
1.0
 40
0.577350269189626
 41
5.497787143782142
 42
7.06858347057703
  0
ELLIPSE
  5
1173F
330
11692
100
AcDbEntity
  8
0
100
AcDbEllipse
 10
55.36515361281661
 20
-42.85878541325879
 30
0.0
 11
2.100000000000004
 21
-0.0000000000000006
 31
0.0
210
0.0
220
0.0
230
1.0
 40
0.577350269189626
 41
5.497787143782144
 42
6.283185307179587
  0
LINE
  5
11740
330
11692
100
AcDbEntity
  8
0
100
AcDbLine
 10
0.0694033240285608
 20
185.8419069045973
 30
0.0
 11
0.0694033240285741
 21
-10.44387115042809
 31
0.0
  0
ELLIPSE
  5
11741
330
11692
100
AcDbEntity
  8
0
100
AcDbEllipse
 10
-0.3548607446833651
 20
185.596957930319
 30
0.0
 11
0.6000000000000006
 21
-0.0000000000000358
 31
0.0
210
0.0
220
0.0
230
1.0
 40
0.577350269189626
 41
0.7853981633976597
 42
2.356194490192535
  0
LINE
  5
11742
330
11692
100
AcDbEntity
  8
0
100
AcDbLine
 10
-0.7791248133952955
 20
185.8419069045973
 30
0.0
 11
-0.7791248133952822
 21
-10.44387115042809
 31
0.0
  0
ELLIPSE
  5
11743
330
11692
100
AcDbEntity
  8
0
100
AcDbEllipse
 10
-0.3548607446833518
 20
-10.6888201247064
 30
0.0
 11
0.6000000000000006
 21
-0.0000000000000358
 31
0.0
210
0.0
220
0.0
230
1.0
 40
0.577350269189626
 41
0.7853981633976908
 42
2.356194490192587
  0
ELLIPSE
  5
11744
330
11692
100
AcDbEntity
  8
0
100
AcDbEllipse
 10
-0.3548607446833651
 20
185.596957930319
 30
0.0
 11
-2.100000000000004
 21
-0.000000000000125
 31
0.0
210
0.0
220
0.0
230
1.0
 40
0.5773502691896259
 41
3.926990816986991
 42
5.49778714378189
  0
LINE
  5
11745
330
11692
100
AcDbEntity
  8
0
100
AcDbLine
 10
57.46515361281661
 20
153.4269926417665
 30
0.0
 11
57.46515361281662
 21
-42.8587854132588
 31
0.0
  0
ELLIPSE
  5
11746
330
11692
100
AcDbEntity
  8
0
100
AcDbEllipse
 10
-25.45715147680581
 20
162.2859805448323
 30
0.0
 11
1.249999999999869
 21
2.165063509461171
 31
0.0
210
0.0
220
0.0
230
1.0
 40
0.5773502691896258
 41
3.579741684173544
 42
5.845036276595004
  0
ELLIPSE
  5
11747
330
11692
100
AcDbEntity
  8
0
100
AcDbEllipse
 10
-25.45715147680581
 20
145.9560489262778
 30
0.0
 11
1.249999999999869
 21
2.165063509461171
 31
0.0
210
0.0
220
0.0
230
1.0
 40
0.5773502691896258
 41
3.579741684173541
 42
5.845036276594994
  0
ELLIPSE
  5
11748
330
11692
100
AcDbEntity
  8
0
100
AcDbEllipse
 10
-25.45715147680581
 20
129.6261173077233
 30
0.0
 11
1.249999999999869
 21
2.165063509461171
 31
0.0
210
0.0
220
0.0
230
1.0
 40
0.5773502691896258
 41
3.579741684173541
 42
5.845036276594994
  0
ELLIPSE
  5
11749
330
11692
100
AcDbEntity
  8
0
100
AcDbEllipse
 10
-25.45715147680581
 20
113.2961856891688
 30
0.0
 11
1.249999999999869
 21
2.165063509461171
 31
0.0
210
0.0
220
0.0
230
1.0
 40
0.5773502691896258
 41
3.579741684173541
 42
5.845036276594994
  0
ELLIPSE
  5
1174A
330
11692
100
AcDbEntity
  8
0
100
AcDbEllipse
 10
-25.4571514768058
 20
96.96625407061427
 30
0.0
 11
1.249999999999869
 21
2.165063509461171
 31
0.0
210
0.0
220
0.0
230
1.0
 40
0.5773502691896258
 41
3.579741684173541
 42
5.845036276594994
  0
ELLIPSE
  5
1174B
330
11692
100
AcDbEntity
  8
0
100
AcDbEllipse
 10
-25.4571514768058
 20
80.63632245205974
 30
0.0
 11
1.249999999999869
 21
2.165063509461171
 31
0.0
210
0.0
220
0.0
230
1.0
 40
0.5773502691896258
 41
3.579741684173541
 42
5.845036276595004
  0
ELLIPSE
  5
1174C
330
11692
100
AcDbEntity
  8
0
100
AcDbEllipse
 10
-25.4571514768058
 20
64.30639083350524
 30
0.0
 11
1.249999999999869
 21
2.165063509461171
 31
0.0
210
0.0
220
0.0
230
1.0
 40
0.5773502691896258
 41
3.579741684173541
 42
5.845036276594996
  0
ELLIPSE
  5
1174D
330
11692
100
AcDbEntity
  8
0
100
AcDbEllipse
 10
-25.4571514768058
 20
47.97645921495071
 30
0.0
 11
1.249999999999869
 21
2.165063509461171
 31
0.0
210
0.0
220
0.0
230
1.0
 40
0.5773502691896258
 41
3.579741684173541
 42
5.845036276594996
  0
ELLIPSE
  5
1174E
330
11692
100
AcDbEntity
  8
0
100
AcDbEllipse
 10
-25.4571514768058
 20
31.64652759639619
 30
0.0
 11
1.24999999999987
 21
2.165063509461173
 31
0.0
210
0.0
220
0.0
230
1.0
 40
0.5773502691896257
 41
3.579741684173548
 42
5.845036276594989
  0
ELLIPSE
  5
1174F
330
11692
100
AcDbEntity
  8
0
100
AcDbEllipse
 10
-25.4571514768058
 20
15.31659597784166
 30
0.0
 11
1.24999999999987
 21
2.165063509461173
 31
0.0
210
0.0
220
0.0
230
1.0
 40
0.5773502691896257
 41
3.579741684173548
 42
5.84503627659499
  0
ELLIPSE
  5
11750
330
11692
100
AcDbEntity
  8
0
100
AcDbEllipse
 10
-25.4571514768058
 20
-1.01333564071286
 30
0.0
 11
1.24999999999987
 21
2.165063509461173
 31
0.0
210
0.0
220
0.0
230
1.0
 40
0.5773502691896257
 41
3.579741684173548
 42
5.84503627659499
  0
ELLIPSE
  5
11751
330
11692
100
AcDbEntity
  8
0
100
AcDbEllipse
 10
-24.39649130502598
 20
161.6736081091366
 30
0.0
 11
1.250000000000128
 21
2.165063509461023
 31
0.0
210
0.0
220
0.0
230
0.9999999999999998
 40
0.5773502691896258
 41
0.0
 42
6.283185307179586
  0
ELLIPSE
  5
11752
330
11692
100
AcDbEntity
  8
0
100
AcDbEllipse
 10
-24.39649130502598
 20
145.343676490582
 30
0.0
 11
1.250000000000128
 21
2.165063509461023
 31
0.0
210
0.0
220
0.0
230
0.9999999999999998
 40
0.5773502691896258
 41
0.0
 42
6.283185307179586
  0
ELLIPSE
  5
11753
330
11692
100
AcDbEntity
  8
0
100
AcDbEllipse
 10
-24.39649130502598
 20
129.0137448720275
 30
0.0
 11
1.250000000000128
 21
2.165063509461023
 31
0.0
210
0.0
220
0.0
230
0.9999999999999998
 40
0.5773502691896258
 41
0.0
 42
6.283185307179586
  0
ELLIPSE
  5
11754
330
11692
100
AcDbEntity
  8
0
100
AcDbEllipse
 10
-24.39649130502598
 20
112.683813253473
 30
0.0
 11
1.250000000000128
 21
2.165063509461023
 31
0.0
210
0.0
220
0.0
230
0.9999999999999998
 40
0.5773502691896258
 41
0.0
 42
6.283185307179586
  0
ELLIPSE
  5
11755
330
11692
100
AcDbEntity
  8
0
100
AcDbEllipse
 10
-24.39649130502597
 20
96.35388163491848
 30
0.0
 11
1.250000000000128
 21
2.165063509461023
 31
0.0
210
0.0
220
0.0
230
0.9999999999999998
 40
0.5773502691896258
 41
0.0
 42
6.283185307179586
  0
ELLIPSE
  5
11756
330
11692
100
AcDbEntity
  8
0
100
AcDbEllipse
 10
-24.39649130502597
 20
80.02395001636395
 30
0.0
 11
1.250000000000128
 21
2.165063509461023
 31
0.0
210
0.0
220
0.0
230
0.9999999999999998
 40
0.5773502691896258
 41
0.0
 42
6.283185307179586
  0
ELLIPSE
  5
11757
330
11692
100
AcDbEntity
  8
0
100
AcDbEllipse
 10
-24.39649130502597
 20
63.69401839780943
 30
0.0
 11
1.250000000000128
 21
2.165063509461023
 31
0.0
210
0.0
220
0.0
230
0.9999999999999998
 40
0.5773502691896258
 41
0.0
 42
6.283185307179586
  0
ELLIPSE
  5
11758
330
11692
100
AcDbEntity
  8
0
100
AcDbEllipse
 10
-24.39649130502597
 20
47.3640867792549
 30
0.0
 11
1.250000000000128
 21
2.165063509461023
 31
0.0
210
0.0
220
0.0
230
0.9999999999999998
 40
0.5773502691896258
 41
0.0
 42
6.283185307179586
  0
ELLIPSE
  5
11759
330
11692
100
AcDbEntity
  8
0
100
AcDbEllipse
 10
-24.39649130502597
 20
31.03415516070038
 30
0.0
 11
1.250000000000128
 21
2.165063509461023
 31
0.0
210
0.0
220
0.0
230
0.9999999999999998
 40
0.5773502691896258
 41
0.0
 42
6.283185307179586
  0
ELLIPSE
  5
1175A
330
11692
100
AcDbEntity
  8
0
100
AcDbEllipse
 10
-24.39649130502597
 20
14.70422354214585
 30
0.0
 11
1.250000000000128
 21
2.165063509461023
 31
0.0
210
0.0
220
0.0
230
0.9999999999999998
 40
0.5773502691896258
 41
0.0
 42
6.283185307179586
  0
ELLIPSE
  5
1175B
330
11692
100
AcDbEntity
  8
0
100
AcDbEllipse
 10
-24.39649130502597
 20
-1.625708076408667
 30
0.0
 11
1.250000000000128
 21
2.165063509461023
 31
0.0
210
0.0
220
0.0
230
0.9999999999999998
 40
0.5773502691896258
 41
0.0
 42
6.283185307179586
  0
ELLIPSE
  5
1175C
330
11692
100
AcDbEntity
  8
0
100
AcDbEllipse
 10
-25.4571514768058
 20
-17.34326725926738
 30
0.0
 11
1.24999999999987
 21
2.165063509461173
 31
0.0
210
0.0
220
0.0
230
1.0
 40
0.5773502691896257
 41
3.579741684173548
 42
5.84503627659499
  0
ELLIPSE
  5
1175D
330
11692
100
AcDbEntity
  8
0
100
AcDbEllipse
 10
-24.39649130502597
 20
-17.95563969496319
 30
0.0
 11
1.250000000000128
 21
2.165063509461023
 31
0.0
210
0.0
220
0.0
230
0.9999999999999998
 40
0.5773502691896258
 41
0.0
 42
6.283185307179586
  0
LINE
  5
1175E
330
11692
100
AcDbEntity
  8
0
100
AcDbLine
 10
13.8500778528752
 20
-135.9301881977997
 30
0.0
 11
0.3500778534638194
 21
-159.312874098283
 31
0.0
  0
LINE
  5
1175F
330
11692
100
AcDbEntity
  8
0
100
AcDbLine
 10
12.78941768109504
 20
-135.3178157621037
 30
0.0
 11
-0.710582318315991
 21
-158.7005016625871
 31
0.0
  0
LINE
  5
11760
330
11692
100
AcDbEntity
  8
0
100
AcDbLine
 10
18.55007785330836
 20
-175.5941516893406
 30
0.0
 11
55.25007785252054
 21
-112.0278870529274
 31
0.0
  0
LINE
  5
11761
330
11692
100
AcDbEntity
  8
0
100
AcDbLine
 10
53.94088954331353
 20
-111.5590024042802
 30
0.0
 11
54.92869889270679
 21
-109.8480664229395
 31
0.0
  0
LINE
  5
11762
330
11692
100
AcDbEntity
  8
0
100
AcDbLine
 10
18.88380696076395
 20
-175.7868302793665
 30
0.0
 11
18.55007785330838
 21
-175.5941516893407
 31
0.0
  0
LINE
  5
11763
330
11692
100
AcDbEntity
  8
0
100
AcDbLine
 10
55.92216692982645
 20
-111.634508983925
 30
0.0
 11
18.88380696076395
 21
-175.7868302793665
 31
0.0
  0
LINE
  5
11764
330
11692
100
AcDbEntity
  8
0
100
AcDbLine
 10
13.8500778528752
 20
-135.9301881977997
 30
0.0
 11
12.78941768109504
 21
-135.3178157621037
 31
0.0
  0
LINE
  5
11765
330
11692
100
AcDbEntity
  8
0
100
AcDbLine
 10
55.25007785252054
 20
-112.0278870529274
 30
0.0
 11
13.8500778528752
 21
-135.9301881977997
 31
0.0
  0
LINE
  5
11766
330
11692
100
AcDbEntity
  8
0
100
AcDbLine
 10
-44.83978498561242
 20
-102.0455800892967
 30
0.0
 11
-3.439784985962948
 21
-78.14327894442683
 31
0.0
  0
SPLINE
  5
11767
330
11692
100
AcDbEntity
  8
0
100
AcDbSpline
210
0.0
220
0.0
230
1.0
 70
     8
 71
     3
 72
     8
 73
     4
 74
     0
 42
0.000000001
 43
0.0000000001
 40
-1.0
 40
-1.0
 40
-1.0
 40
-1.0
 40
0.0
 40
0.0
 40
0.0
 40
0.0
 10
3.168173096660646
 20
-77.77344564903359
 30
0.0
 10
3.200104511641725
 20
-77.92177710537524
 30
0.0
 10
3.11814249903132
 20
-78.06598420484504
 30
0.0
 10
2.95703091249464
 20
-78.14144060072469
 30
0.0
  0
SPLINE
  5
11768
330
11692
100
AcDbEntity
  8
0
100
AcDbSpline
210
0.0
220
0.0
230
1.0
 70
     8
 71
     3
 72
     8
 73
     4
 74
     0
 42
0.000000001
 43
0.0000000001
 40
-1.0
 40
-1.0
 40
-1.0
 40
-1.0
 40
0.0
 40
0.0
 40
0.0
 40
0.0
 10
52.6532619556386
 20
-106.8335729711937
 30
0.0
 10
52.63805331807988
 20
-106.6563180464689
 30
0.0
 10
52.65871649391534
 20
-106.4767200470861
 30
0.0
 10
52.69064790889647
 20
-106.3652598128144
 30
0.0
  0
SPLINE
  5
11769
330
11692
100
AcDbEntity
  8
0
100
AcDbSpline
210
0.0
220
0.0
230
1.0
 70
     8
 71
     3
 72
     8
 73
     4
 74
     0
 42
0.000000001
 43
0.0000000001
 40
0.1302463606542056
 40
0.1302463606542056
 40
0.1302463606542056
 40
0.1302463606542056
 40
1.0
 40
1.0
 40
1.0
 40
1.0
 10
53.73309442375779
 20
-105.930338756112
 30
0.0
 10
53.68026848796883
 20
-106.3397599835485
 30
0.0
 10
53.54865871385371
 20
-106.8376718187153
 30
0.0
 10
53.40326195563861
 20
-107.2665856730859
 30
0.0
  0
ELLIPSE
  5
1176A
330
11692
100
AcDbEntity
  8
0
100
AcDbEllipse
 10
2.312716531375906
 20
-77.03744017808363
 30
0.0
 11
-0.749999999999999
 21
-1.299038105676658
 31
0.0
210
0.0
220
0.0
230
0.9999999999999998
 40
0.8164965809277259
 41
0.0
 42
1.134458255166906
  0
LINE
  5
1176B
330
11692
100
AcDbEntity
  8
0
100
AcDbLine
 10
1.562716531375918
 20
-78.33647828376029
 30
0.0
 11
-0.0587891588337364
 21
-77.40030153702523
 31
0.0
  0
LINE
  5
1176C
330
11692
100
AcDbEntity
  8
0
100
AcDbLine
 10
-0.0587891588337364
 20
-77.40030153702523
 30
0.0
 11
-0.791315464793172
 21
-77.67810113438712
 31
0.0
  0
LINE
  5
1176D
330
11692
100
AcDbEntity
  8
0
100
AcDbLine
 10
54.92869889270679
 20
-109.8480664229395
 30
0.0
 11
54.80301724820356
 21
-109.0747802343573
 31
0.0
  0
LINE
  5
1176E
330
11692
100
AcDbEntity
  8
0
100
AcDbLine
 10
54.80301724820356
 20
-109.0747802343573
 30
0.0
 11
53.18151155799391
 21
-108.1386034876222
 31
0.0
  0
ELLIPSE
  5
1176F
330
11692
100
AcDbEntity
  8
0
100
AcDbEllipse
 10
53.93151155799388
 20
-106.8395653819456
 30
0.0
 11
-0.7499999999999999
 21
-1.299038105676659
 31
0.0
210
0.0
220
0.0
230
1.0
 40
0.8164965809277259
 41
5.148727052012677
 42
6.283185307179575
  0
LINE
  5
11770
330
11692
100
AcDbEntity
  8
0
100
AcDbLine
 10
-43.77912481383226
 20
-102.6579525249927
 30
0.0
 11
-44.83978498561242
 21
-102.0455800892967
 31
0.0
  0
LINE
  5
11771
330
11692
100
AcDbEntity
  8
0
100
AcDbLine
 10
-2.37912481418316
 20
-78.75565138012261
 30
0.0
 11
-43.77912481383226
 21
-102.6579525249927
 31
0.0
  0
LINE
  5
11772
330
11692
100
AcDbEntity
  8
0
100
AcDbLine
 10
-2.37912481418316
 20
-78.75565138012261
 30
0.0
 11
-2.732324651386202
 21
-78.55173135903571
 31
0.0
  0
LINE
  5
11773
330
11692
100
AcDbEntity
  8
0
100
AcDbLine
 10
-2.732324651386202
 20
-78.55173135903571
 30
0.0
 11
-3.439784985962943
 21
-78.14327894442683
 31
0.0
  0
SPLINE
  5
11774
330
11692
100
AcDbEntity
  8
0
100
AcDbSpline
210
0.0
220
0.0
230
1.0
 70
     8
 71
     3
 72
     8
 73
     4
 74
     0
 42
0.000000001
 43
0.0000000001
 40
-1.0
 40
-1.0
 40
-1.0
 40
-1.0
 40
0.0
 40
0.0
 40
0.0
 40
0.0
 10
-0.7913154647931675
 20
-77.6781011343871
 30
0.0
 10
-1.3013080385939
 20
-78.04841425162805
 30
0.0
 10
-1.934196754610852
 20
-78.34777324807721
 30
0.0
 10
-2.379124814183164
 20
-78.75565138012261
 30
0.0
  0
SPLINE
  5
11775
330
11692
100
AcDbEntity
  8
0
100
AcDbSpline
210
0.0
220
0.0
230
1.0
 70
     8
 71
     3
 72
     8
 73
     4
 74
     0
 42
0.000000001
 43
0.0000000001
 40
0.0
 40
0.0
 40
0.0
 40
0.0
 40
0.6081734479693796
 40
0.6081734479693796
 40
0.6081734479693796
 40
0.6081734479693796
 10
-3.439784985962943
 20
-78.14327894442685
 30
0.0
 10
-2.930362399343402
 20
-78.03310637116836
 30
0.0
 10
-2.177613033034777
 20
-78.06341857966472
 30
0.0
 10
-1.426280169832128
 20
-78.09291296971148
 30
0.0
  0
ELLIPSE
  5
11776
330
11692
100
AcDbEntity
  8
0
100
AcDbEllipse
 10
2.120012989469568
 20
-77.35576595745516
 30
0.0
 11
0.7499999999999229
 21
-1.299038105676702
 31
0.0
210
0.0
220
0.0
230
0.9999999999999998
 40
0.5773502691896261
 41
0.9390757175652568
 42
2.356194490192585
  0
LINE
  5
11777
330
11692
100
AcDbEntity
  8
0
100
AcDbLine
 10
55.25007785252054
 20
-112.0278870529274
 30
0.0
 11
54.54261751794304
 21
-111.6194346383181
 31
0.0
  0
LINE
  5
11778
330
11692
100
AcDbEntity
  8
0
100
AcDbLine
 10
54.54261751794304
 20
-111.6194346383181
 30
0.0
 11
54.18941768074069
 21
-111.4155146172316
 31
0.0
  0
LINE
  5
11779
330
11692
100
AcDbEntity
  8
0
100
AcDbLine
 10
12.78941768109504
 20
-135.3178157621037
 30
0.0
 11
54.18941768074069
 21
-111.4155146172316
 31
0.0
  0
LINE
  5
1177A
330
11692
100
AcDbEntity
  8
0
100
AcDbLine
 10
54.92869889270679
 20
-109.8480664229395
 30
0.0
 11
55.17844889270775
 21
-109.9922596526702
 31
0.0
  0
SPLINE
  5
1177B
330
11692
100
AcDbEntity
  8
0
100
AcDbSpline
210
0.0
220
0.0
230
1.0
 70
     8
 71
     3
 72
     8
 73
     4
 74
     0
 42
0.000000001
 43
0.0000000001
 40
-1.0
 40
-1.0
 40
-1.0
 40
-1.0
 40
0.0
 40
0.0
 40
0.0
 40
0.0
 10
54.18941768074069
 20
-111.4155146172316
 30
0.0
 10
54.63434574031275
 20
-111.0076364851867
 30
0.0
 10
54.86299461272153
 20
-110.4748895062134
 30
0.0
 10
54.92869889270679
 20
-109.8480664229395
 30
0.0
  0
SPLINE
  5
1177C
330
11692
100
AcDbEntity
  8
0
100
AcDbSpline
210
0.0
220
0.0
230
1.0
 70
     8
 71
     3
 72
     8
 73
     4
 74
     0
 42
0.000000001
 43
0.0000000001
 40
0.0
 40
0.0
 40
0.0
 40
0.0
 40
1.0
 40
1.0
 40
1.0
 40
1.0
 10
55.67869889270679
 20
-110.2810791248317
 30
0.0
 10
56.16835497999129
 20
-111.228539665646
 30
0.0
 10
56.08770499379132
 20
-111.8467338414117
 30
0.0
 10
55.25007785252054
 20
-112.0278870529274
 30
0.0
  0
LINE
  5
1177D
330
11692
100
AcDbEntity
  8
0
100
AcDbLine
 10
55.17844889270775
 20
-109.9922596526702
 30
0.0
 11
55.67869889270678
 21
-110.2810791248317
 31
0.0
  0
ELLIPSE
  5
1177E
330
11692
100
AcDbEntity
  8
0
100
AcDbEllipse
 10
54.68151155799389
 20
-107.2725780838378
 30
0.0
 11
-0.749999999999999
 21
-1.299038105676659
 31
0.0
210
0.0
220
0.0
230
1.0
 40
0.8164965809277259
 41
5.148727052012676
 42
6.28318530717958
  0
LINE
  5
1177F
330
11692
100
AcDbEntity
  8
0
100
AcDbLine
 10
53.40326195563858
 20
-107.2665856730859
 30
0.0
 11
52.90301195654091
 21
-106.9777662014447
 31
0.0
  0
LINE
  5
11780
330
11692
100
AcDbEntity
  8
0
100
AcDbLine
 10
52.90301195654091
 20
-106.9777662014447
 30
0.0
 11
52.65326195563858
 21
-106.8335729711937
 31
0.0
  0
LINE
  5
11781
330
11692
100
AcDbEntity
  8
0
100
AcDbLine
 10
54.80301724820356
 20
-109.0747802343573
 30
0.0
 11
55.55301724820354
 21
-109.5077929362495
 31
0.0
  0
LINE
  5
11782
330
11692
100
AcDbEntity
  8
0
100
AcDbLine
 10
55.55301724820354
 20
-109.5077929362495
 30
0.0
 11
55.67869889270678
 21
-110.2810791248317
 31
0.0
  0
LINE
  5
11783
330
11692
100
AcDbEntity
  8
0
100
AcDbLine
 10
52.69064790889647
 20
-106.3652598128143
 30
0.0
 11
53.04384774932706
 21
-106.161339789864
 31
0.0
  0
LINE
  5
11784
330
11692
100
AcDbEntity
  8
0
100
AcDbLine
 10
53.04384774932706
 20
-106.161339789864
 30
0.0
 11
53.57644918604377
 21
-105.8538422070048
 31
0.0
  0
ELLIPSE
  5
11785
330
11692
100
AcDbEntity
  8
0
100
AcDbEllipse
 10
53.73880801608756
 20
-107.1578911613171
 30
0.0
 11
-0.750000000000001
 21
1.299038105676658
 31
0.0
210
0.0
220
0.0
230
1.0
 40
0.5773502691896259
 41
5.497787143782137
 42
6.914905916409419
  0
LINE
  5
11786
330
11692
100
AcDbEntity
  8
0
100
AcDbLine
 10
18.55007785330836
 20
-175.5941516893406
 30
0.0
 11
0.3500778534638371
 21
-165.0863767901792
 31
0.0
  0
LINE
  5
11787
330
11692
100
AcDbEntity
  8
0
100
AcDbLine
 10
-57.27912481323976
 20
-131.8141411173744
 30
0.0
 11
-39.07912481339524
 21
-142.3219160165358
 31
0.0
  0
LINE
  5
11788
330
11692
100
AcDbEntity
  8
0
100
AcDbLine
 10
3.168173096660646
 20
-77.77344564903358
 30
0.0
 11
10.25921260702059
 21
-81.86745921917419
 31
0.0
  0
LINE
  5
11789
330
11692
100
AcDbEntity
  8
0
100
AcDbLine
 10
10.18525465633969
 20
-82.31465752499648
 30
0.0
 11
2.957030912494658
 21
-78.14144060072471
 31
0.0
  0
LINE
  5
1178A
330
11692
100
AcDbEntity
  8
0
100
AcDbLine
 10
24.32739027969989
 20
-90.47962333405967
 30
0.0
 11
13.60523305839891
 21
-84.28918297604807
 31
0.0
  0
LINE
  5
1178B
330
11692
100
AcDbEntity
  8
0
100
AcDbLine
 10
13.77980324514188
 20
-83.90007317179996
 30
0.0
 11
24.401348230882
 21
-90.03242502852673
 31
0.0
  0
LINE
  5
1178C
330
11692
100
AcDbEntity
  8
0
100
AcDbLine
 10
31.45747277467513
 20
-94.10628043332122
 30
0.0
 11
42.07901776041524
 21
-100.238632290048
 31
0.0
  0
LINE
  5
1178D
330
11692
100
AcDbEntity
  8
0
100
AcDbLine
 10
42.00505980973432
 20
-100.6858305958703
 30
0.0
 11
31.28290258843334
 21
-94.49539023785868
 31
0.0
  0
LINE
  5
1178E
330
11692
100
AcDbEntity
  8
0
100
AcDbLine
 10
52.65326195563858
 20
-106.8335729711937
 30
0.0
 11
45.42503821179354
 21
-102.6603560469219
 31
0.0
  0
LINE
  5
1178F
330
11692
100
AcDbEntity
  8
0
100
AcDbLine
 10
45.59960839853653
 20
-102.2712462426738
 30
0.0
 11
52.69064790889647
 21
-106.3652598128143
 31
0.0
  0
LINE
  5
11790
330
11692
100
AcDbEntity
  8
0
100
AcDbLine
 10
-38.35486074468333
 20
-142.740070071571
 30
0.0
 11
-0.7105823183159688
 21
-164.4740043544834
 31
0.0
  0
ELLIPSE
  5
11791
330
11692
100
AcDbEntity
  8
0
100
AcDbEllipse
 10
8.100077853577536
 20
-155.1270846467238
 30
0.0
 11
1.250000000000128
 21
2.165063509461023
 31
0.0
210
0.0
220
0.0
230
1.0
 40
0.5773502691896254
 41
0.0
 42
6.283185307179586
  0
ELLIPSE
  5
11792
330
11692
100
AcDbEntity
  8
0
100
AcDbEllipse
 10
21.85007785378225
 20
-137.0848887346662
 30
0.0
 11
-0.400000000000042
 21
-0.6928203230275286
 31
0.0
210
0.0
220
0.0
230
1.0
 40
0.5773502691896255
 41
2.094395102375155
 42
2.276828566511568
  0
LINE
  5
11793
330
11692
100
AcDbEntity
  8
0
100
AcDbLine
 10
22.39648801529336
 20
-136.9384785731655
 30
0.0
 11
21.6040197699701
 21
-140.8110738373715
 31
0.0
  0
ELLIPSE
  5
11794
330
11692
100
AcDbEntity
  8
0
100
AcDbEllipse
 10
21.05760960845899
 20
-140.9574839988723
 30
0.0
 11
-0.4000000000000415
 21
-0.6928203230275272
 31
0.0
210
0.0
220
0.0
230
1.0
 40
0.5773502691896255
 41
0.0
 42
2.094395102375107
  0
LINE
  5
11795
330
11692
100
AcDbEntity
  8
0
100
AcDbLine
 10
20.65760960845171
 20
-141.6503043218956
 30
0.0
 11
18.49254609903
 21
-140.4003043218273
 31
0.0
  0
ELLIPSE
  5
11796
330
11692
100
AcDbEntity
  8
0
100
AcDbEllipse
 10
18.89254609903727
 20
-139.707483998804
 30
0.0
 11
-0.4000000000072804
 21
-0.6928203230233493
 31
0.0
210
0.0
220
0.0
230
1.0
 40
0.5773502691896259
 41
4.18879020482279
 42
6.283185307252368
  0
LINE
  5
11797
330
11692
100
AcDbEntity
  8
0
100
AcDbLine
 10
18.74613593753344
 20
-139.1610738372814
 30
0.0
 11
21.70366769227841
 21
-136.5384785731436
 31
0.0
  0
ELLIPSE
  5
11798
330
11692
100
AcDbEntity
  8
0
100
AcDbEllipse
 10
21.85007785378225
 20
-137.0848887346662
 30
0.0
 11
0.4000000000000009
 21
0.6928203230275525
 31
0.0
210
0.0
220
0.0
230
0.9999999999999998
 40
0.5773502691896259
 41
0.0802385882704737
 42
1.047197551178412
  0
LINE
  5
11799
330
11692
100
AcDbEntity
  8
0
100
AcDbLine
 10
22.21672989151648
 20
-136.3757870530899
 30
0.0
 11
22.4139826016666
 21
-136.8111053734675
 31
0.0
  0
ELLIPSE
  5
1179A
330
11692
100
AcDbEntity
  8
0
100
AcDbEllipse
 10
19.99694943667919
 20
-140.3451115631765
 30
0.0
 11
-0.4000000000072798
 21
-0.6928203230233483
 31
0.0
210
0.0
220
0.0
230
1.0
 40
0.5773502691896258
 41
0.000000000072791
 42
2.094395102429601
  0
LINE
  5
1179B
330
11692
100
AcDbEntity
  8
0
100
AcDbLine
 10
20.54335959819029
 20
-140.1987014016757
 30
0.0
 11
21.6040197699701
 21
-140.8110738373715
 31
0.0
  0
LINE
  5
1179C
330
11692
100
AcDbEntity
  8
0
100
AcDbLine
 10
20.54335959819029
 20
-140.1987014016757
 30
0.0
 11
21.20118911434094
 21
-136.9840521284284
 31
0.0
  0
LINE
  5
1179D
330
11692
100
AcDbEntity
  8
0
100
AcDbLine
 10
21.70366769226579
 20
-136.5384785731654
 30
0.0
 11
22.39648801529336
 21
-136.9384785731655
 31
0.0
  0
LINE
  5
1179E
330
11692
100
AcDbEntity
  8
0
100
AcDbLine
 10
21.80522882577162
 20
-136.4596412170843
 30
0.0
 11
22.4139826016666
 21
-136.8111053734675
 31
0.0
  0
ELLIPSE
  5
1179F
330
11692
100
AcDbEntity
  8
0
100
AcDbEllipse
 10
7.039417681797739
 20
-154.5147122110281
 30
0.0
 11
1.24999999999987
 21
2.165063509461173
 31
0.0
210
0.0
220
0.0
230
1.0
 40
0.5773502691896257
 41
3.579741684173534
 42
5.845036276595006
  0
LINE
  5
117A0
330
11692
100
AcDbEntity
  8
0
100
AcDbLine
 10
-44.83978498561242
 20
-102.0455800892967
 30
0.0
 11
-58.33978498501958
 21
-125.4282659897824
 31
0.0
  0
LINE
  5
117A1
330
11692
100
AcDbEntity
  8
0
100
AcDbLine
 10
-43.77912481383226
 20
-102.6579525249927
 30
0.0
 11
-57.27912481323976
 21
-126.0406384254782
 31
0.0
  0
ELLIPSE
  5
117A2
330
11692
100
AcDbEntity
  8
0
100
AcDbEllipse
 10
-53.08978498495136
 20
-125.5726035571192
 30
0.0
 11
1.249999999999869
 21
2.165063509461172
 31
0.0
210
0.0
220
0.0
230
0.9999999999999998
 40
0.5773502691896257
 41
3.579741684173537
 42
5.845036276595008
  0
ELLIPSE
  5
117A3
330
11692
100
AcDbEntity
  8
0
100
AcDbEllipse
 10
-40.13225323006988
 20
-111.4030029092676
 30
0.0
 11
-0.4000000000072798
 21
-0.6928203230233483
 31
0.0
210
0.0
220
0.0
230
1.0
 40
0.5773502691896258
 41
0.0000000000727784
 42
2.094395102429603
  0
LINE
  5
117A4
330
11692
100
AcDbEntity
  8
0
100
AcDbLine
 10
-39.58584306855879
 20
-111.2565927477668
 30
0.0
 11
-38.92801355240815
 21
-108.0419434745196
 31
0.0
  0
LINE
  5
117A5
330
11692
100
AcDbEntity
  8
0
100
AcDbLine
 10
-38.52518289677899
 20
-111.8689651834626
 30
0.0
 11
-39.58584306855879
 21
-111.2565927477668
 31
0.0
  0
LINE
  5
117A6
330
11692
100
AcDbEntity
  8
0
100
AcDbLine
 10
-37.73271465145572
 20
-107.9963699192566
 30
0.0
 11
-38.52518289677899
 21
-111.8689651834626
 31
0.0
  0
LINE
  5
117A7
330
11692
100
AcDbEntity
  8
0
100
AcDbLine
 10
-37.73271465145572
 20
-107.9963699192566
 30
0.0
 11
-38.42553497449055
 21
-107.5963699192524
 31
0.0
  0
ELLIPSE
  5
117A8
330
11692
100
AcDbEntity
  8
0
100
AcDbEllipse
 10
-38.27912481296684
 20
-108.1427800807573
 30
0.0
 11
0.4000000000000005
 21
0.6928203230275525
 31
0.0
210
0.0
220
0.0
230
1.0
 40
0.5773502691896258
 41
5.235987755964773
 42
7.330382858357998
  0
LINE
  5
117A9
330
11692
100
AcDbEntity
  8
0
100
AcDbLine
 10
-41.38306672921564
 20
-110.2189651833725
 30
0.0
 11
-38.42553497447067
 21
-107.5963699192347
 31
0.0
  0
ELLIPSE
  5
117AA
330
11692
100
AcDbEntity
  8
0
100
AcDbEllipse
 10
-41.2366565677118
 20
-110.7653753448951
 30
0.0
 11
-0.4000000000072796
 21
-0.6928203230233497
 31
0.0
210
0.0
220
0.0
230
0.9999999999999998
 40
0.5773502691896257
 41
4.188790204822786
 42
6.283185307252342
  0
LINE
  5
117AB
330
11692
100
AcDbEntity
  8
0
100
AcDbLine
 10
-39.47159305829737
 20
-112.7081956679867
 30
0.0
 11
-41.63665656771907
 21
-111.4581956679185
 31
0.0
  0
ELLIPSE
  5
117AC
330
11692
100
AcDbEntity
  8
0
100
AcDbEllipse
 10
-39.0715930582901
 20
-112.0153753449634
 30
0.0
 11
-0.4000000000000411
 21
-0.6928203230275269
 31
0.0
210
0.0
220
0.0
230
0.9999999999999998
 40
0.5773502691896258
 41
0.0
 42
2.094395102375107
  0
ELLIPSE
  5
117AD
330
11692
100
AcDbEntity
  8
0
100
AcDbEllipse
 10
-52.02912481317156
 20
-126.1849759928149
 30
0.0
 11
1.250000000000127
 21
2.165063509461023
 31
0.0
210
0.0
220
0.0
230
1.0
 40
0.5773502691896259
 41
0.0
 42
6.283185307179586
  0
LINE
  5
117AE
330
11692
100
AcDbEntity
  8
0
100
AcDbLine
 10
-0.791315464793172
 20
-77.67810113438712
 30
0.0
 11
-38.35486074468333
 21
-142.740070071571
 31
0.0
  0
LINE
  5
117AF
330
11692
100
AcDbEntity
  8
0
100
AcDbLine
 10
-39.07912481339528
 20
-142.3219160165358
 30
0.0
 11
-38.35486074468335
 21
-142.740070071571
 31
0.0
  0
LINE
  5
117B0
330
11692
100
AcDbEntity
  8
0
100
AcDbLine
 10
-39.07912481339524
 20
-142.3219160165358
 30
0.0
 11
-2.379124814183164
 21
-78.75565138012261
 31
0.0
  0
ENDBLK
  5
11694
330
11692
100
AcDbEntity
  8
0
100
AcDbBlockEnd
  0
ENDSEC
  0
SECTION
  2
ENTITIES
  0
INSERT
  5
117B1
330
1F
100
AcDbEntity
  8
0
100
AcDbBlockReference
  2
SPR80_320-Front
 10
0.0
 20
0.0
 30
0.0
  0
INSERT
  5
117B2
330
1F
100
AcDbEntity
  8
0
100
AcDbBlockReference
  2
SPR80_320-Left
 10
195.4229986469887
 20
0.0
 30
0.0
  0
INSERT
  5
117B3
330
1F
100
AcDbEntity
  8
0
100
AcDbBlockReference
  2
SPR80_320-Right
 10
-195.4229986469888
 20
0.0
 30
0.0
  0
INSERT
  5
117B4
330
1F
100
AcDbEntity
  8
0
100
AcDbBlockReference
  2
SPR80_320-Top
 10
0.0
 20
-168.5456017059512
 30
0.0
  0
INSERT
  5
117B5
330
1F
100
AcDbEntity
  8
0
100
AcDbBlockReference
  2
SPR80_320-Bottom
 10
0.0
 20
433.5659080859888
 30
0.0
  0
INSERT
  5
117B6
330
1F
100
AcDbEntity
  8
0
100
AcDbBlockReference
  2
SPR80_320-ISO
 10
253.7627836320083
 20
-355.3549952015684
 30
0.0
  0
MTEXT
  5
117B7
330
1F
100
AcDbEntity
  8
0
100
AcDbMText
 10
0.0
 20
-363.4445760657999
 30
0.0
 40
30.06507671492135
 41
0.0
 71
     5
 72
     5
  1
SPR80/320
 73
     1
 44
1.0
1001
ACAD
1000
MTEXTBEGIN
1070
    73
1070
     1
1070
    44
1040
1.0
1070
    74
1070
     0
1000
MTEXTEND
  0
ENDSEC
  0
SECTION
  2
OBJECTS
  0
DICTIONARY
  5
C
330
0
100
AcDbDictionary
281
     1
  3
ACAD_CIP_PREVIOUS_PRODUCT_INFO
350
216
  3
ACAD_COLOR
350
6B
  3
ACAD_DETAILVIEWSTYLE
350
21B
  3
ACAD_GROUP
350
D
  3
ACAD_LAYOUT
350
1A
  3
ACAD_MATERIAL
350
6A
  3
ACAD_MLEADERSTYLE
350
12D
  3
ACAD_MLINESTYLE
350
17
  3
ACAD_PLOTSETTINGS
350
19
  3
ACAD_PLOTSTYLENAME
350
E
  3
ACAD_SCALELIST
350
10C
  3
ACAD_SECTIONVIEWSTYLE
350
219
  3
ACAD_TABLESTYLE
350
7E
  3
ACAD_VISUALSTYLE
350
EF
  3
ACDB_RECOMPOSE_DATA
350
118B8
  3
AcDbVariableDictionary
350
5E
  3
DWGPROPS
350
118B9
  0
DICTIONARY
  5
11808
330
8
100
AcDbDictionary
280
     1
281
     1
  0
DICTIONARY
  5
1FF
330
2
100
AcDbDictionary
280
     1
281
     1
  3
ACAD_LAYERSTATES
360
200
  0
DICTIONARY
  5
13C
330
10
100
AcDbDictionary
280
     1
281
     1
  0
DICTIONARY
  5
1CE
330
1F
100
AcDbDictionary
280
     1
281
     1
  3
ACAD_LAYOUTSELFREF
360
11810
  0
DICTIONARY
  5
117BB
330
D2
100
AcDbDictionary
280
     1
281
     1
  3
ACAD_LAYOUTSELFREF
360
11819
  0
DICTIONARY
  5
117BD
330
D6
100
AcDbDictionary
280
     1
281
     1
  3
ACAD_LAYOUTSELFREF
360
1181C
  0
XRECORD
  5
216
102
{ACAD_REACTORS
330
C
102
}
330
C
100
AcDbXrecord
280
     1
300
ACD
300
2021
300
87393ACD_2021_0F
  0
DICTIONARY
  5
6B
102
{ACAD_REACTORS
330
C
102
}
330
C
100
AcDbDictionary
281
     1
  0
DICTIONARY
  5
21B
102
{ACAD_REACTORS
330
C
102
}
330
C
100
AcDbDictionary
281
     1
  3
Metric50
350
21C
  0
DICTIONARY
  5
D
102
{ACAD_REACTORS
330
C
102
}
330
C
100
AcDbDictionary
281
     1
  0
DICTIONARY
  5
1A
102
{ACAD_REACTORS
330
C
102
}
330
C
100
AcDbDictionary
281
     1
  3
Layout1
350
D3
  3
Layout2
350
D7
  3
Model
350
22
  0
DICTIONARY
  5
6A
102
{ACAD_REACTORS
330
C
102
}
330
C
100
AcDbDictionary
281
     1
  3
ByBlock
350
ED
  3
ByLayer
350
EC
  3
Global
350
EE
  0
DICTIONARY
  5
12D
102
{ACAD_REACTORS
330
C
102
}
330
C
100
AcDbDictionary
281
     1
  3
Standard
350
12E
  0
DICTIONARY
  5
17
102
{ACAD_REACTORS
330
C
102
}
330
C
100
AcDbDictionary
281
     1
  3
Standard
350
18
  0
DICTIONARY
  5
19
102
{ACAD_REACTORS
330
C
102
}
330
C
100
AcDbDictionary
281
     1
  0
ACDBDICTIONARYWDFLT
  5
E
102
{ACAD_REACTORS
330
C
102
}
330
C
100
AcDbDictionary
281
     1
  3
Normal
350
F
100
AcDbDictionaryWithDefault
340
F
  0
DICTIONARY
  5
10C
102
{ACAD_REACTORS
330
C
102
}
330
C
100
AcDbDictionary
281
     1
  3
A0
350
10D
  3
A1
350
1BE
  3
A2
350
1BF
  3
A3
350
1C0
  3
A4
350
1C1
  3
A5
350
1C2
  3
A6
350
1C3
  3
A7
350
1C4
  3
A8
350
1C5
  3
A9
350
1C6
  3
B0
350
1C7
  3
B1
350
1C8
  3
B2
350
1C9
  3
B3
350
1CA
  3
B4
350
1CB
  3
B5
350
1CC
  3
B6
350
1CD
  0
DICTIONARY
  5
219
102
{ACAD_REACTORS
330
C
102
}
330
C
100
AcDbDictionary
281
     1
  3
Metric50
350
21A
  0
DICTIONARY
  5
7E
102
{ACAD_REACTORS
330
C
102
}
330
C
100
AcDbDictionary
281
     1
  3
Standard
350
7F
  0
DICTIONARY
  5
EF
102
{ACAD_REACTORS
330
C
102
}
330
C
100
AcDbDictionary
281
     1
  3
2dWireframe
350
F5
  3
Basic
350
F4
  3
Brighten
350
FB
  3
ColorChange
350
FF
  3
Conceptual
350
F8
  3
Dim
350
FA
  3
EdgeColorOff
350
1E6
  3
Facepattern
350
FE
  3
Flat
350
F0
  3
FlatWithEdges
350
F1
  3
Gouraud
350
F2
  3
GouraudWithEdges
350
F3
  3
Hidden
350
F7
  3
JitterOff
350
1E4
  3
Linepattern
350
FD
  3
OverhangOff
350
1E5
  3
Realistic
350
F9
  3
Shaded
350
1F3
  3
Shaded with edges
350
1F2
  3
Shades of Gray
350
1EF
  3
Sketchy
350
1F0
  3
Thicken
350
FC
  3
Wireframe
350
F6
  3
X-Ray
350
1F1
  0
XRECORD
  5
118B8
102
{ACAD_REACTORS
330
C
102
}
330
C
100
AcDbXrecord
280
     1
 90
        1
330
7F
  0
DICTIONARY
  5
5E
102
{ACAD_REACTORS
330
C
102
}
330
C
100
AcDbDictionary
281
     1
  3
CANNOSCALE
350
146
  3
CENTEREXE
350
259
  3
CENTERLTYPEFILE
350
25A
  3
CMLEADERSTYLE
350
145
  3
CTABLESTYLE
350
84
  3
CVIEWDETAILSTYLE
350
227
  3
CVIEWSECTIONSTYLE
350
228
  3
DIMASSOC
350
5F
  3
HIDETEXT
350
63
  3
INDEXCTL
350
11865
  3
LAYEREVAL
350
1AE
  3
LAYERNOTIFY
350
1AF
  3
LIGHTINGUNITS
350
11863
  3
MSLTSCALE
350
11862
  3
PSOLHEIGHT
350
118B5
  3
PSOLWIDTH
350
118B4
  3
SORTENTS
350
11864
  3
XCLIPFRAME
350
118B6
  0
XRECORD
  5
118B9
102
{ACAD_REACTORS
330
C
102
}
330
C
100
AcDbXrecord
280
     1
  1
DWGPROPS COOKIE
  2

  3

  4

  6

  7

  8
truole
  9

300
=
301
=
302
=
303
=
304
=
305
=
306
=
307
=
308
=
309
=
 40
0.0026967592592593
 41
2460719.40650463
 42
2460719.415856482
  1

 90
        0
  0
DICTIONARY
  5
200
102
{ACAD_REACTORS
330
1FF
102
}
330
1FF
100
AcDbDictionary
281
     1
  0
XRECORD
  5
11810
102
{ACAD_REACTORS
330
1CE
102
}
330
1CE
100
AcDbXrecord
280
     1
340
1F
  0
XRECORD
  5
11819
102
{ACAD_REACTORS
330
117BB
102
}
330
117BB
100
AcDbXrecord
280
     1
340
D2
  0
XRECORD
  5
1181C
102
{ACAD_REACTORS
330
117BD
102
}
330
117BD
100
AcDbXrecord
280
     1
340
D6
  0
ACDBDETAILVIEWSTYLE
  5
21C
102
{ACAD_XDICTIONARY
360
118F8
102
}
102
{ACAD_REACTORS
330
21B
102
}
330
21B
100
AcDbModelDocViewStyle
 70
     0
  3
Metric50
290
     0
100
AcDbDetailViewStyle
 70
     0
 71
     0
 90
        3
 71
     1
340
11
 40
5.0
340
0
 40
5.0
300

 40
0.0
280
     1
 71
     2
340
16
 90
       25
 71
     3
340
11
 40
5.0
 90
        0
 40
15.0
 90
        1
300
%<\AcVar ViewDetailId>% (%<\AcVar ViewScale \f "%sn">%)
 71
     4
340
16
 90
       25
340
16
 90
       25
280
     0
  0
LAYOUT
  5
D3
102
{ACAD_XDICTIONARY
360
118BD
102
}
102
{ACAD_REACTORS
330
1A
102
}
330
1A
100
AcDbPlotSettings
  1

  2
C:\Documents and Settings\basas\Application Data\Autodesk\AutoCAD 2005\R16.1\enu\plotters\Default Windows System Printer.pc3
  4

  6

 40
0.0
 41
0.0
 42
0.0
 43
0.0
 44
0.0
 45
0.0
 46
0.0
 47
0.0
 48
0.0
 49
0.0
140
0.0
141
0.0
142
1.0
143
1.0
 70
   688
 72
     0
 73
     0
 74
     5
  7

 75
    16
147
1.0
148
0.0
149
0.0
100
AcDbLayout
  1
Layout1
 70
     1
 71
     1
 10
0.0
 20
0.0
 11
12.0
 21
9.0
 12
0.0
 22
0.0
 32
0.0
 14
0.0
 24
0.0
 34
0.0
 15
0.0
 25
0.0
 35
0.0
146
0.0
 13
0.0
 23
0.0
 33
0.0
 16
1.0
 26
0.0
 36
0.0
 17
0.0
 27
1.0
 37
0.0
 76
     0
330
D2
  0
LAYOUT
  5
D7
102
{ACAD_XDICTIONARY
360
118BF
102
}
102
{ACAD_REACTORS
330
1A
102
}
330
1A
100
AcDbPlotSettings
  1

  2
C:\Documents and Settings\basas\Application Data\Autodesk\AutoCAD 2005\R16.1\enu\plotters\Default Windows System Printer.pc3
  4

  6

 40
0.0
 41
0.0
 42
0.0
 43
0.0
 44
0.0
 45
0.0
 46
0.0
 47
0.0
 48
0.0
 49
0.0
140
0.0
141
0.0
142
1.0
143
1.0
 70
   688
 72
     0
 73
     0
 74
     5
  7

 75
    16
147
1.0
148
0.0
149
0.0
100
AcDbLayout
  1
Layout2
 70
     1
 71
     2
 10
0.0
 20
0.0
 11
12.0
 21
9.0
 12
0.0
 22
0.0
 32
0.0
 14
0.0
 24
0.0
 34
0.0
 15
0.0
 25
0.0
 35
0.0
146
0.0
 13
0.0
 23
0.0
 33
0.0
 16
1.0
 26
0.0
 36
0.0
 17
0.0
 27
1.0
 37
0.0
 76
     0
330
D6
  0
LAYOUT
  5
22
102
{ACAD_XDICTIONARY
360
118BA
102
}
102
{ACAD_REACTORS
330
1A
102
}
330
1A
100
AcDbPlotSettings
  1

  2
none_device
  4
ISO_A4_(210.00_x_297.00_MM)
  6

 40
7.5
 41
20.0
 42
7.5
 43
20.0
 44
210.0
 45
297.0
 46
11.54999923706054
 47
-13.65000009536743
 48
0.0
 49
0.0
140
0.0
141
0.0
142
1.0
143
8.704084754739808
 70
 11952
 72
     1
 73
     0
 74
     0
  7

 75
     0
147
0.1148885871608098
148
0.0
149
0.0
100
AcDbLayout
  1
Model
 70
     1
 71
     0
 10
0.0
 20
0.0
 11
12.0
 21
9.0
 12
0.0
 22
0.0
 32
0.0
 14
0.0
 24
0.0
 34
0.0
 15
0.0
 25
0.0
 35
0.0
146
0.0
 13
0.0
 23
0.0
 33
0.0
 16
1.0
 26
0.0
 36
0.0
 17
0.0
 27
1.0
 37
0.0
 76
     0
330
1F
331
EA
1001
ACAD_PSEXT
1000
None
1000
None
1000
Not applicable
1000
The layout will not be plotted unless a new plotter configuration name is selected.
1070
     0
  0
MATERIAL
  5
ED
102
{ACAD_XDICTIONARY
360
1F9
102
}
102
{ACAD_REACTORS
330
6A
102
}
330
6A
100
AcDbMaterial
  1
ByBlock
  0
MATERIAL
  5
EC
102
{ACAD_XDICTIONARY
360
1F7
102
}
102
{ACAD_REACTORS
330
6A
102
}
330
6A
100
AcDbMaterial
  1
ByLayer
  0
MATERIAL
  5
EE
102
{ACAD_XDICTIONARY
360
173
102
}
102
{ACAD_REACTORS
330
6A
102
}
330
6A
100
AcDbMaterial
  1
Global
 43
0.0007999999797903
 43
0.0
 43
0.0
 43
0.0
 43
0.0
 43
0.0007999999797903
 43
0.0
 43
0.0
 43
0.0
 43
0.0
 43
1.0
 43
0.0
 43
0.0
 43
0.0
 43
0.0
 43
1.0
 49
0.0007999999797903
 49
0.0
 49
0.0
 49
0.0
 49
0.0
 49
0.0007999999797903
 49
0.0
 49
0.0
 49
0.0
 49
0.0
 49
1.0
 49
0.0
 49
0.0
 49
0.0
 49
0.0
 49
1.0
142
0.0007999999797903
142
0.0
142
0.0
142
0.0
142
0.0
142
0.0007999999797903
142
0.0
142
0.0
142
0.0
142
0.0
142
1.0
142
0.0
142
0.0
142
0.0
142
0.0
142
1.0
144
0.0007999999797903
144
0.0
144
0.0
144
0.0
144
0.0
144
0.0007999999797903
144
0.0
144
0.0
144
0.0
144
0.0
144
1.0
144
0.0
144
0.0
144
0.0
144
0.0
144
1.0
1001
ACAD
1070
    -1
1070
     3
1070
     0
1000

1071
        0
1070
     0
  0
MLEADERSTYLE
  5
12E
102
{ACAD_XDICTIONARY
360
118E4
102
}
102
{ACAD_REACTORS
330
12D
102
}
330
12D
100
AcDbMLeaderStyle
170
     2
171
     1
172
     0
 90
        2
 40
0.0
 41
0.0
173
     1
 91
-1056964608
340
14
 92
       -2
290
     1
 42
2.0
291
     1
 43
8.0
  3
Standard
 44
4.0
300

342
11
174
     1
178
     1
175
     1
176
     0
 93
-1056964608
 45
4.0
292
     0
297
     0
 46
4.0
 94
-1056964608
 47
1.0
 49
1.0
140
1.0
293
     1
141
0.0
294
     1
177
     0
142
1.0
295
     0
296
     0
143
3.75
1001
ACAD_MLEADERVER
1070
     2
  0
MLINESTYLE
  5
18
102
{ACAD_REACTORS
330
17
102
}
330
17
100
AcDbMlineStyle
  2
STANDARD
 70
     0
  3

 62
   256
 51
90.0
 52
90.0
 71
     2
 49
0.5
 62
   256
  6
BYLAYER
 49
-0.5
 62
   256
  6
BYLAYER
  0
ACDBPLACEHOLDER
  5
F
102
{ACAD_REACTORS
330
E
102
}
330
E
  0
SCALE
  5
10D
102
{ACAD_REACTORS
330
10C
102
}
330
10C
100
AcDbScale
 70
     0
300
1:1
140
1.0
141
1.0
290
     1
  0
SCALE
  5
1BE
102
{ACAD_REACTORS
330
10C
102
}
330
10C
100
AcDbScale
 70
     0
300
1:2
140
1.0
141
2.0
290
     0
  0
SCALE
  5
1BF
102
{ACAD_REACTORS
330
10C
102
}
330
10C
100
AcDbScale
 70
     0
300
1:4
140
1.0
141
4.0
290
     0
  0
SCALE
  5
1C0
102
{ACAD_REACTORS
330
10C
102
}
330
10C
100
AcDbScale
 70
     0
300
1:5
140
1.0
141
5.0
290
     0
  0
SCALE
  5
1C1
102
{ACAD_REACTORS
330
10C
102
}
330
10C
100
AcDbScale
 70
     0
300
1:8
140
1.0
141
8.0
290
     0
  0
SCALE
  5
1C2
102
{ACAD_REACTORS
330
10C
102
}
330
10C
100
AcDbScale
 70
     0
300
1:10
140
1.0
141
10.0
290
     0
  0
SCALE
  5
1C3
102
{ACAD_REACTORS
330
10C
102
}
330
10C
100
AcDbScale
 70
     0
300
1:16
140
1.0
141
16.0
290
     0
  0
SCALE
  5
1C4
102
{ACAD_REACTORS
330
10C
102
}
330
10C
100
AcDbScale
 70
     0
300
1:20
140
1.0
141
20.0
290
     0
  0
SCALE
  5
1C5
102
{ACAD_REACTORS
330
10C
102
}
330
10C
100
AcDbScale
 70
     0
300
1:30
140
1.0
141
30.0
290
     0
  0
SCALE
  5
1C6
102
{ACAD_REACTORS
330
10C
102
}
330
10C
100
AcDbScale
 70
     0
300
1:40
140
1.0
141
40.0
290
     0
  0
SCALE
  5
1C7
102
{ACAD_REACTORS
330
10C
102
}
330
10C
100
AcDbScale
 70
     0
300
1:50
140
1.0
141
50.0
290
     0
  0
SCALE
  5
1C8
102
{ACAD_REACTORS
330
10C
102
}
330
10C
100
AcDbScale
 70
     0
300
1:100
140
1.0
141
100.0
290
     0
  0
SCALE
  5
1C9
102
{ACAD_REACTORS
330
10C
102
}
330
10C
100
AcDbScale
 70
     0
300
2:1
140
2.0
141
1.0
290
     0
  0
SCALE
  5
1CA
102
{ACAD_REACTORS
330
10C
102
}
330
10C
100
AcDbScale
 70
     0
300
4:1
140
4.0
141
1.0
290
     0
  0
SCALE
  5
1CB
102
{ACAD_REACTORS
330
10C
102
}
330
10C
100
AcDbScale
 70
     0
300
8:1
140
8.0
141
1.0
290
     0
  0
SCALE
  5
1CC
102
{ACAD_REACTORS
330
10C
102
}
330
10C
100
AcDbScale
 70
     0
300
10:1
140
10.0
141
1.0
290
     0
  0
SCALE
  5
1CD
102
{ACAD_REACTORS
330
10C
102
}
330
10C
100
AcDbScale
 70
     0
300
100:1
140
100.0
141
1.0
290
     0
  0
ACDBSECTIONVIEWSTYLE
  5
21A
102
{ACAD_XDICTIONARY
360
118F6
102
}
102
{ACAD_REACTORS
330
219
102
}
330
219
100
AcDbModelDocViewStyle
 70
     0
  3
Metric50
290
     0
100
AcDbSectionViewStyle
 70
     0
 71
     0
 90
      102
 71
     1
340
11
 40
5.0
340
0
340
0
 40
5.0
300
I, O, Q, S, X, Z
 40
10.0
 90
        0
 40
2.5
 90
        0
 71
     2
340
16
 90
       25
340
16
 90
       50
 40
5.0
 40
2.5
 40
5.0
 71
     3
340
11
 40
5.0
 90
        0
 40
15.0
 90
        1
300
%<\AcVar ViewSectionStartId>%-%<\AcVar ViewSectionEndId>% (%<\AcVar ViewScale \f "%sn">%)
 71
     4
300
ANSI31
 40
1.0
 90
        0
290
     0
290
     0
 90
        6
 40
0.0
 40
1.570796326794896
 40
0.2617993877991494
 40
1.308996938995747
 40
-0.2617993877991494
 40
1.832595714594046
  0
TABLESTYLE
  5
7F
102
{ACAD_XDICTIONARY
360
162
102
}
102
{ACAD_REACTORS
330
7E
102
}
330
7E
100
AcDbTableStyle
  3
Standard
 70
     0
 71
     0
 40
1.5
 41
1.5
280
     0
281
     0
  7
Standard
140
4.5
170
     2
 62
     0
 63
     7
283
     0
274
    -2
284
     1
 64
     0
275
    -2
285
     1
 65
     0
276
    -2
286
     1
 66
     0
277
    -2
287
     1
 67
     0
278
    -2
288
     1
 68
     0
279
    -2
289
     1
 69
     0
  7
Standard
140
6.0
170
     5
 62
     0
 63
     7
283
     0
274
    -2
284
     1
 64
     0
275
    -2
285
     1
 65
     0
276
    -2
286
     1
 66
     0
277
    -2
287
     1
 67
     0
278
    -2
288
     1
 68
     0
279
    -2
289
     1
 69
     0
  7
Standard
140
4.5
170
     5
 62
     0
 63
     7
283
     0
274
    -2
284
     1
 64
     0
275
    -2
285
     1
 65
     0
276
    -2
286
     1
 66
     0
277
    -2
287
     1
 67
     0
278
    -2
288
     1
 68
     0
279
    -2
289
     1
 69
     0
  0
VISUALSTYLE
  5
F5
102
{ACAD_XDICTIONARY
360
118CE
102
}
102
{ACAD_REACTORS
330
EF
102
}
330
EF
100
AcDbVisualStyle
  2
2dWireframe
 70
     4
 71
     0
 72
     2
 73
     1
 90
        0
 40
-0.6
 41
-30.0
 62
     5
 63
     7
 74
     1
 91
        4
 64
     7
 65
   257
 75
     1
175
     1
 42
1.0
 92
        0
 66
   257
 43
1.0
 76
     1
 77
     6
 78
     2
 67
     7
 79
     5
170
     0
171
     0
290
     0
174
     0
 93
        1
 44
0.0
173
     0
291
     0
 45
0.0
1001
ACAD
1000
AcDbSavedByObjectVersion
1070
     0
  0
VISUALSTYLE
  5
F4
102
{ACAD_XDICTIONARY
360
118CC
102
}
102
{ACAD_REACTORS
330
EF
102
}
330
EF
100
AcDbVisualStyle
  2
Basic
 70
     7
 71
     1
 72
     0
 73
     1
 90
        0
 40
-0.6
 41
-30.0
 62
     5
 63
     7
 74
     0
 91
        4
 64
     7
 65
   257
 75
     1
175
     1
 42
1.0
 92
        8
 66
     7
 43
1.0
 76
     1
 77
     6
 78
     2
 67
     7
 79
     5
170
     0
171
     0
290
     0
174
     0
 93
        1
 44
0.0
173
     0
291
     1
 45
0.0
1001
ACAD
1000
AcDbSavedByObjectVersion
1070
     0
  0
VISUALSTYLE
  5
FB
102
{ACAD_XDICTIONARY
360
118DA
102
}
102
{ACAD_REACTORS
330
EF
102
}
330
EF
100
AcDbVisualStyle
  2
Brighten
 70
    12
 71
     2
 72
     2
 73
     1
 90
        0
 40
-0.6
 41
-30.0
 62
     5
 63
     7
 74
     1
 91
        4
 64
     7
 65
   257
 75
     1
175
     1
 42
1.0
 92
        8
 66
     7
 43
1.0
 76
     1
 77
     6
 78
     2
 67
     7
 79
     5
170
     0
171
     0
290
     0
174
     0
 93
        1
 44
50.0
173
     0
291
     1
 45
0.0
1001
ACAD
1000
AcDbSavedByObjectVersion
1070
     0
  0
VISUALSTYLE
  5
FF
102
{ACAD_XDICTIONARY
360
118E2
102
}
102
{ACAD_REACTORS
330
EF
102
}
330
EF
100
AcDbVisualStyle
  2
ColorChange
 70
    16
 71
     2
 72
     2
 73
     3
 90
        0
 40
-0.6
 41
-30.0
 62
     5
 63
     8
 74
     1
 91
        4
 64
     7
 65
   257
 75
     1
175
     1
 42
1.0
 92
        8
 66
     8
 43
1.0
 76
     1
 77
     6
 78
     2
 67
     7
 79
     5
170
     0
171
     0
290
     0
174
     0
 93
        1
 44
0.0
173
     0
291
     1
 45
0.0
1001
ACAD
1000
AcDbSavedByObjectVersion
1070
     0
  0
VISUALSTYLE
  5
F8
102
{ACAD_XDICTIONARY
360
118D4
102
}
102
{ACAD_REACTORS
330
EF
102
}
330
EF
100
AcDbVisualStyle
  2
Conceptual
 70
     9
 71
     3
 72
     2
 73
     1
 90
        0
 40
-0.6
 41
-30.0
 62
     5
 63
     7
 74
     2
 91
        2
 64
     7
 65
   257
 75
     1
175
     1
 42
40.0
 92
        8
 66
     7
 43
1.0
 76
     1
 77
     6
 78
     2
 67
     7
 79
     3
170
     0
171
     0
290
     0
174
     0
 93
        1
 44
0.0
173
     0
291
     0
 45
0.0
1001
ACAD
1000
AcDbSavedByObjectVersion
1070
     0
  0
VISUALSTYLE
  5
FA
102
{ACAD_XDICTIONARY
360
118D8
102
}
102
{ACAD_REACTORS
330
EF
102
}
330
EF
100
AcDbVisualStyle
  2
Dim
 70
    11
 71
     2
 72
     2
 73
     1
 90
        0
 40
-0.6
 41
-30.0
 62
     5
 63
     7
 74
     1
 91
        4
 64
     7
 65
   257
 75
     1
175
     1
 42
1.0
 92
        8
 66
     7
 43
1.0
 76
     1
 77
     6
 78
     2
 67
     7
 79
     5
170
     0
171
     0
290
     0
174
     0
 93
        1
 44
-50.0
173
     0
291
     1
 45
0.0
1001
ACAD
1000
AcDbSavedByObjectVersion
1070
     0
  0
VISUALSTYLE
  5
1E6
102
{ACAD_XDICTIONARY
360
118EA
102
}
102
{ACAD_REACTORS
330
EF
102
}
330
EF
100
AcDbVisualStyle
  2
EdgeColorOff
 70
    22
 71
     2
 72
     2
 73
     0
 90
        0
 40
-0.6
 41
-30.0
 62
     5
 63
     7
 74
     1
 91
        4
 64
     7
 65
   257
 75
     1
175
     1
 42
1.0
 92
        8
 66
     7
 43
1.0
 76
     1
 77
     6
 78
     2
 67
     7
 79
     5
170
     0
171
     0
290
     0
174
     0
 93
        1
 44
0.0
173
     0
291
     1
 45
0.0
1001
ACAD
1000
AcDbSavedByObjectVersion
1070
     0
  0
VISUALSTYLE
  5
FE
102
{ACAD_XDICTIONARY
360
118E0
102
}
102
{ACAD_REACTORS
330
EF
102
}
330
EF
100
AcDbVisualStyle
  2
Facepattern
 70
    15
 71
     2
 72
     2
 73
     1
 90
        0
 40
-0.6
 41
-30.0
 62
     5
 63
     7
 74
     1
 91
        4
 64
     7
 65
   257
 75
     1
175
     1
 42
1.0
 92
        8
 66
     7
 43
1.0
 76
     1
 77
     6
 78
     2
 67
     7
 79
     5
170
     0
171
     0
290
     0
174
     0
 93
        1
 44
0.0
173
     0
291
     1
 45
0.0
1001
ACAD
1000
AcDbSavedByObjectVersion
1070
     0
  0
VISUALSTYLE
  5
F0
102
{ACAD_XDICTIONARY
360
118C4
102
}
102
{ACAD_REACTORS
330
EF
102
}
330
EF
100
AcDbVisualStyle
  2
Flat
 70
     0
 71
     2
 72
     1
 73
     1
 90
        2
 40
-0.6
 41
30.0
 62
     5
 63
     7
 74
     0
 91
        0
 64
     7
 65
   257
 75
     1
175
     1
 42
1.0
 92
        8
 66
     7
 43
1.0
 76
     1
 77
     6
 78
     2
 67
     7
 79
     5
170
     0
171
     0
290
     0
174
     0
 93
       13
 44
0.0
173
     0
291
     1
 45
0.0
1001
ACAD
1000
AcDbSavedByObjectVersion
1070
     0
  0
VISUALSTYLE
  5
F1
102
{ACAD_XDICTIONARY
360
118C6
102
}
102
{ACAD_REACTORS
330
EF
102
}
330
EF
100
AcDbVisualStyle
  2
FlatWithEdges
 70
     1
 71
     2
 72
     1
 73
     1
 90
        2
 40
-0.6
 41
30.0
 62
     5
 63
     7
 74
     1
 91
        0
 64
     7
 65
   257
 75
     1
175
     1
 42
1.0
 92
        0
 66
   257
 43
1.0
 76
     1
 77
     6
 78
     2
 67
     7
 79
     5
170
     0
171
     0
290
     0
174
     0
 93
       13
 44
0.0
173
     0
291
     1
 45
0.0
1001
ACAD
1000
AcDbSavedByObjectVersion
1070
     0
  0
VISUALSTYLE
  5
F2
102
{ACAD_XDICTIONARY
360
118C8
102
}
102
{ACAD_REACTORS
330
EF
102
}
330
EF
100
AcDbVisualStyle
  2
Gouraud
 70
     2
 71
     2
 72
     2
 73
     1
 90
        2
 40
-0.6
 41
30.0
 62
     5
 63
     7
 74
     0
 91
        0
 64
     7
 65
   257
 75
     1
175
     1
 42
1.0
 92
        0
 66
     7
 43
1.0
 76
     1
 77
     6
 78
     2
 67
     7
 79
     5
170
     0
171
     0
290
     0
174
     0
 93
       13
 44
0.0
173
     0
291
     1
 45
0.0
1001
ACAD
1000
AcDbSavedByObjectVersion
1070
     0
  0
VISUALSTYLE
  5
F3
102
{ACAD_XDICTIONARY
360
118CA
102
}
102
{ACAD_REACTORS
330
EF
102
}
330
EF
100
AcDbVisualStyle
  2
GouraudWithEdges
 70
     3
 71
     2
 72
     2
 73
     1
 90
        2
 40
-0.6
 41
30.0
 62
     5
 63
     7
 74
     1
 91
        0
 64
     7
 65
   257
 75
     1
175
     1
 42
1.0
 92
        0
 66
   257
 43
1.0
 76
     1
 77
     6
 78
     2
 67
     7
 79
     5
170
     0
171
     0
290
     0
174
     0
 93
       13
 44
0.0
173
     0
291
     1
 45
0.0
1001
ACAD
1000
AcDbSavedByObjectVersion
1070
     0
  0
VISUALSTYLE
  5
F7
102
{ACAD_XDICTIONARY
360
118D2
102
}
102
{ACAD_REACTORS
330
EF
102
}
330
EF
100
AcDbVisualStyle
  2
Hidden
 70
     6
 71
     1
 72
     2
 73
     2
 90
        0
 40
-0.6
 41
-30.0
 62
     5
 63
     7
 74
     2
 91
        2
 64
     7
 65
   257
 75
     2
175
     1
 42
40.0
 92
        0
 66
   257
 43
1.0
 76
     1
 77
     6
 78
     2
 67
     7
 79
     3
170
     0
171
     0
290
     0
174
     0
 93
        1
 44
0.0
173
     0
291
     0
 45
0.0
1001
ACAD
1000
AcDbSavedByObjectVersion
1070
     0
  0
VISUALSTYLE
  5
1E4
102
{ACAD_XDICTIONARY
360
118E6
102
}
102
{ACAD_REACTORS
330
EF
102
}
330
EF
100
AcDbVisualStyle
  2
JitterOff
 70
    20
 71
     2
 72
     2
 73
     0
 90
        0
 40
-0.6
 41
-30.0
 62
     5
 63
     7
 74
     1
 91
        4
 64
     7
 65
   257
 75
     1
175
     1
 42
1.0
 92
       10
 66
     7
 43
1.0
 76
     1
 77
     6
 78
     2
 67
     7
 79
     5
170
     0
171
     0
290
     0
174
     0
 93
        1
 44
0.0
173
     0
291
     1
 45
0.0
1001
ACAD
1000
AcDbSavedByObjectVersion
1070
     0
  0
VISUALSTYLE
  5
FD
102
{ACAD_XDICTIONARY
360
118DE
102
}
102
{ACAD_REACTORS
330
EF
102
}
330
EF
100
AcDbVisualStyle
  2
Linepattern
 70
    14
 71
     2
 72
     2
 73
     1
 90
        0
 40
-0.6
 41
-30.0
 62
     5
 63
     7
 74
     1
 91
        4
 64
     7
 65
   257
 75
     7
175
     7
 42
1.0
 92
        8
 66
     7
 43
1.0
 76
     1
 77
     6
 78
     2
 67
     7
 79
     5
170
     0
171
     0
290
     0
174
     0
 93
        1
 44
0.0
173
     0
291
     1
 45
0.0
1001
ACAD
1000
AcDbSavedByObjectVersion
1070
     0
  0
VISUALSTYLE
  5
1E5
102
{ACAD_XDICTIONARY
360
118E8
102
}
102
{ACAD_REACTORS
330
EF
102
}
330
EF
100
AcDbVisualStyle
  2
OverhangOff
 70
    21
 71
     2
 72
     2
 73
     0
 90
        0
 40
-0.6
 41
-30.0
 62
     5
 63
     7
 74
     1
 91
        4
 64
     7
 65
   257
 75
     1
175
     1
 42
1.0
 92
        9
 66
     7
 43
1.0
 76
     1
 77
     6
 78
     2
 67
     7
 79
     5
170
     0
171
     0
290
     0
174
     0
 93
        1
 44
0.0
173
     0
291
     1
 45
0.0
1001
ACAD
1000
AcDbSavedByObjectVersion
1070
     0
  0
VISUALSTYLE
  5
F9
102
{ACAD_XDICTIONARY
360
118D6
102
}
102
{ACAD_REACTORS
330
EF
102
}
330
EF
100
AcDbVisualStyle
  2
Realistic
 70
     8
 71
     2
 72
     2
 73
     0
 90
        2
 40
-0.6
 41
30.0
 62
     5
 63
     7
 74
     0
 91
        0
 64
     7
 65
   257
 75
     1
175
     1
 42
1.0
 92
        8
 66
   257
 43
1.0
 76
     1
 77
     6
 78
     2
 67
     7
 79
     3
170
     0
171
     0
290
     0
174
     0
 93
       13
 44
0.0
173
     0
291
     0
 45
0.0
1001
ACAD
1000
AcDbSavedByObjectVersion
1070
     0
  0
VISUALSTYLE
  5
1F3
102
{ACAD_XDICTIONARY
360
118F4
102
}
102
{ACAD_REACTORS
330
EF
102
}
330
EF
100
AcDbVisualStyle
  2
Shaded
 70
    27
 71
     2
 72
     2
 73
     1
 90
        2
 40
-0.6
 41
30.0
 62
     5
 63
     7
 74
     0
 91
        4
 64
     7
 65
   257
 75
     1
175
     1
 42
1.0
 92
        8
 66
   257
 43
1.0
 76
     1
 77
     6
 78
     2
 67
     8
 79
     3
170
     0
171
     0
290
     0
174
     0
 93
        5
 44
0.0
173
     0
291
     0
 45
0.0
1001
ACAD
1000
AcDbSavedByObjectVersion
1070
     0
  0
VISUALSTYLE
  5
1F2
102
{ACAD_XDICTIONARY
360
118F2
102
}
102
{ACAD_REACTORS
330
EF
102
}
330
EF
100
AcDbVisualStyle
  2
Shaded with edges
 70
    26
 71
     2
 72
     2
 73
     1
 90
        2
 40
-0.6
 41
30.0
 62
     5
 63
     7
 74
     1
 91
        2
 64
     7
 65
   257
 75
     2
175
     1
 42
1.0
 92
        8
 66
   257
 43
1.0
 76
     1
 77
     6
 78
     2
 67
     7
 79
     3
170
     0
171
     0
290
     0
174
     0
 93
        5
 44
0.0
173
     0
291
     0
 45
0.0
1001
ACAD
1000
AcDbSavedByObjectVersion
1070
     0
  0
VISUALSTYLE
  5
1EF
102
{ACAD_XDICTIONARY
360
118EC
102
}
102
{ACAD_REACTORS
330
EF
102
}
330
EF
100
AcDbVisualStyle
  2
Shades of Gray
 70
    23
 71
     2
 72
     2
 73
     3
 90
        0
 40
-0.6
 41
-30.0
 62
     5
 63
     7
 74
     2
 91
        2
 64
     7
 65
     7
 75
     1
175
     1
 42
40.0
 92
        8
 66
     7
 43
1.0
 76
     1
 77
     6
 78
     2
 67
     7
 79
     3
170
     0
171
     0
290
     0
174
     0
 93
        1
 44
0.0
173
     0
291
     0
 45
0.0
1001
ACAD
1000
AcDbSavedByObjectVersion
1070
     0
  0
VISUALSTYLE
  5
1F0
102
{ACAD_XDICTIONARY
360
118EE
102
}
102
{ACAD_REACTORS
330
EF
102
}
330
EF
100
AcDbVisualStyle
  2
Sketchy
 70
    24
 71
     1
 72
     2
 73
     2
 90
        0
 40
-0.6
 41
-30.0
 62
     5
 63
     7
 74
     2
 91
        2
 64
     7
 65
     7
 75
     1
175
     1
 42
40.0
 92
       11
 66
     7
 43
1.0
 76
     1
 77
     6
 78
     2
 67
     7
 79
     6
170
     0
171
     0
290
     0
174
     0
 93
        1
 44
0.0
173
     0
291
     0
 45
0.0
1001
ACAD
1000
AcDbSavedByObjectVersion
1070
     0
  0
VISUALSTYLE
  5
FC
102
{ACAD_XDICTIONARY
360
118DC
102
}
102
{ACAD_REACTORS
330
EF
102
}
330
EF
100
AcDbVisualStyle
  2
Thicken
 70
    13
 71
     2
 72
     2
 73
     1
 90
        0
 40
-0.6
 41
-30.0
 62
     5
 63
     7
 74
     1
 91
        4
 64
     7
 65
   257
 75
     1
175
     1
 42
1.0
 92
       12
 66
     7
 43
1.0
 76
     1
 77
     6
 78
     2
 67
     7
 79
     5
170
     0
171
     0
290
     0
174
     0
 93
        1
 44
0.0
173
     0
291
     1
 45
0.0
1001
ACAD
1000
AcDbSavedByObjectVersion
1070
     0
  0
VISUALSTYLE
  5
F6
102
{ACAD_XDICTIONARY
360
118D0
102
}
102
{ACAD_REACTORS
330
EF
102
}
330
EF
100
AcDbVisualStyle
  2
Wireframe
 70
     5
 71
     0
 72
     2
 73
     0
 90
        0
 40
-0.6
 41
-30.0
 62
     5
 63
     7
 74
     1
 91
        4
 64
     7
 65
   257
 75
     1
175
     1
 42
1.0
 92
        0
 66
   257
 43
1.0
 76
     1
 77
     6
 78
     2
 67
     7
 79
     3
170
     0
171
     0
290
     0
174
     0
 93
        1
 44
0.0
173
     0
291
     0
 45
0.0
1001
ACAD
1000
AcDbSavedByObjectVersion
1070
     0
  0
VISUALSTYLE
  5
1F1
102
{ACAD_XDICTIONARY
360
118F0
102
}
102
{ACAD_REACTORS
330
EF
102
}
330
EF
100
AcDbVisualStyle
  2
X-Ray
 70
    25
 71
     2
 72
     2
 73
     1
 90
        1
 40
0.5
 41
-30.0
 62
     5
 63
     7
 74
     1
 91
        0
 64
     7
 65
   257
 75
     1
175
     1
 42
1.0
 92
        8
 66
     7
 43
1.0
 76
     1
 77
     6
 78
     2
 67
     7
 79
     3
170
     0
171
     0
290
     0
174
     0
 93
       13
 44
0.0
173
     0
291
     0
 45
0.0
1001
ACAD
1000
AcDbSavedByObjectVersion
1070
     0
  0
DICTIONARYVAR
  5
146
102
{ACAD_REACTORS
330
5E
102
}
330
5E
100
DictionaryVariables
280
     0
  1
1:1
  0
DICTIONARYVAR
  5
259
102
{ACAD_REACTORS
330
5E
102
}
330
5E
100
DictionaryVariables
280
     0
  1
3.500000
  0
DICTIONARYVAR
  5
25A
102
{ACAD_REACTORS
330
5E
102
}
330
5E
100
DictionaryVariables
280
     0
  1
acadiso.lin
  0
DICTIONARYVAR
  5
145
102
{ACAD_REACTORS
330
5E
102
}
330
5E
100
DictionaryVariables
280
     0
  1
STANDARD
  0
DICTIONARYVAR
  5
84
102
{ACAD_REACTORS
330
5E
102
}
330
5E
100
DictionaryVariables
280
     0
  1
STANDARD
  0
DICTIONARYVAR
  5
227
102
{ACAD_REACTORS
330
5E
102
}
330
5E
100
DictionaryVariables
280
     0
  1
Metric50
  0
DICTIONARYVAR
  5
228
102
{ACAD_REACTORS
330
5E
102
}
330
5E
100
DictionaryVariables
280
     0
  1
Metric50
  0
DICTIONARYVAR
  5
5F
102
{ACAD_REACTORS
330
5E
102
}
330
5E
100
DictionaryVariables
280
     0
  1
2
  0
DICTIONARYVAR
  5
63
102
{ACAD_REACTORS
330
5E
102
}
330
5E
100
DictionaryVariables
280
     0
  1
1
  0
DICTIONARYVAR
  5
11865
102
{ACAD_REACTORS
330
5E
102
}
330
5E
100
DictionaryVariables
280
     0
  1
0
  0
DICTIONARYVAR
  5
1AE
102
{ACAD_REACTORS
330
5E
102
}
330
5E
100
DictionaryVariables
280
     0
  1
0
  0
DICTIONARYVAR
  5
1AF
102
{ACAD_REACTORS
330
5E
102
}
330
5E
100
DictionaryVariables
280
     0
  1
0
  0
DICTIONARYVAR
  5
11863
102
{ACAD_REACTORS
330
5E
102
}
330
5E
100
DictionaryVariables
280
     0
  1
2
  0
DICTIONARYVAR
  5
11862
102
{ACAD_REACTORS
330
5E
102
}
330
5E
100
DictionaryVariables
280
     0
  1
1
  0
DICTIONARYVAR
  5
118B5
102
{ACAD_REACTORS
330
5E
102
}
330
5E
100
DictionaryVariables
280
     0
  1
80.000000
  0
DICTIONARYVAR
  5
118B4
102
{ACAD_REACTORS
330
5E
102
}
330
5E
100
DictionaryVariables
280
     0
  1
5.000000
  0
DICTIONARYVAR
  5
11864
102
{ACAD_REACTORS
330
5E
102
}
330
5E
100
DictionaryVariables
280
     0
  1
127
  0
DICTIONARYVAR
  5
118B6
102
{ACAD_REACTORS
330
5E
102
}
330
5E
100
DictionaryVariables
280
     0
  1
2
  0
DICTIONARY
  5
118F8
330
21C
100
AcDbDictionary
280
     1
281
     1
  3
ACAD_XREC_ROUNDTRIP
360
118F9
  0
DICTIONARY
  5
118BD
330
D3
100
AcDbDictionary
280
     1
281
     1
  3
ACAD_XREC_ROUNDTRIP
360
118BE
  0
DICTIONARY
  5
118BF
330
D7
100
AcDbDictionary
280
     1
281
     1
  3
ACAD_XREC_ROUNDTRIP
360
118C0
  0
DICTIONARY
  5
118BA
330
22
100
AcDbDictionary
280
     1
281
     1
  3
ACAD_XREC_ROUNDTRIP
360
118BB
  0
DICTIONARY
  5
1F9
330
ED
100
AcDbDictionary
280
     1
281
     1
  3
ACAD_XREC_ROUNDTRIP
360
118C2
  3
FBXASSET
360
1FA
  0
DICTIONARY
  5
1F7
330
EC
100
AcDbDictionary
280
     1
281
     1
  3
ACAD_XREC_ROUNDTRIP
360
118C1
  3
FBXASSET
360
1F8
  0
DICTIONARY
  5
173
330
EE
100
AcDbDictionary
280
     1
281
     1
  3
ACAD_XREC_ROUNDTRIP
360
118C3
  3
BUMPTILE
360
175
  3
DIFFUSETILE
360
174
  3
FBXASSET
360
1FB
  3
OPACITYTILE
360
176
  3
REFLECTIONTILE
360
177
  0
DICTIONARY
  5
118E4
330
12E
100
AcDbDictionary
280
     1
281
     1
  3
ACAD_XREC_ROUNDTRIP
360
118E5
  0
DICTIONARY
  5
118F6
330
21A
100
AcDbDictionary
280
     1
281
     1
  3
ACAD_XREC_ROUNDTRIP
360
118F7
  0
DICTIONARY
  5
162
330
7F
100
AcDbDictionary
280
     1
281
     1
  3
ACAD_ROUNDTRIP_2008_TABLESTYLE_CELLSTYLEMAP
360
118B7
  3
ACAD_XREC_ROUNDTRIP
360
118BC
  0
DICTIONARY
  5
118CE
330
F5
100
AcDbDictionary
280
     1
281
     1
  3
ACAD_XREC_ROUNDTRIP
360
118CF
  0
DICTIONARY
  5
118CC
330
F4
100
AcDbDictionary
280
     1
281
     1
  3
ACAD_XREC_ROUNDTRIP
360
118CD
  0
DICTIONARY
  5
118DA
330
FB
100
AcDbDictionary
280
     1
281
     1
  3
ACAD_XREC_ROUNDTRIP
360
118DB
  0
DICTIONARY
  5
118E2
330
FF
100
AcDbDictionary
280
     1
281
     1
  3
ACAD_XREC_ROUNDTRIP
360
118E3
  0
DICTIONARY
  5
118D4
330
F8
100
AcDbDictionary
280
     1
281
     1
  3
ACAD_XREC_ROUNDTRIP
360
118D5
  0
DICTIONARY
  5
118D8
330
FA
100
AcDbDictionary
280
     1
281
     1
  3
ACAD_XREC_ROUNDTRIP
360
118D9
  0
DICTIONARY
  5
118EA
330
1E6
100
AcDbDictionary
280
     1
281
     1
  3
ACAD_XREC_ROUNDTRIP
360
118EB
  0
DICTIONARY
  5
118E0
330
FE
100
AcDbDictionary
280
     1
281
     1
  3
ACAD_XREC_ROUNDTRIP
360
118E1
  0
DICTIONARY
  5
118C4
330
F0
100
AcDbDictionary
280
     1
281
     1
  3
ACAD_XREC_ROUNDTRIP
360
118C5
  0
DICTIONARY
  5
118C6
330
F1
100
AcDbDictionary
280
     1
281
     1
  3
ACAD_XREC_ROUNDTRIP
360
118C7
  0
DICTIONARY
  5
118C8
330
F2
100
AcDbDictionary
280
     1
281
     1
  3
ACAD_XREC_ROUNDTRIP
360
118C9
  0
DICTIONARY
  5
118CA
330
F3
100
AcDbDictionary
280
     1
281
     1
  3
ACAD_XREC_ROUNDTRIP
360
118CB
  0
DICTIONARY
  5
118D2
330
F7
100
AcDbDictionary
280
     1
281
     1
  3
ACAD_XREC_ROUNDTRIP
360
118D3
  0
DICTIONARY
  5
118E6
330
1E4
100
AcDbDictionary
280
     1
281
     1
  3
ACAD_XREC_ROUNDTRIP
360
118E7
  0
DICTIONARY
  5
118DE
330
FD
100
AcDbDictionary
280
     1
281
     1
  3
ACAD_XREC_ROUNDTRIP
360
118DF
  0
DICTIONARY
  5
118E8
330
1E5
100
AcDbDictionary
280
     1
281
     1
  3
ACAD_XREC_ROUNDTRIP
360
118E9
  0
DICTIONARY
  5
118D6
330
F9
100
AcDbDictionary
280
     1
281
     1
  3
ACAD_XREC_ROUNDTRIP
360
118D7
  0
DICTIONARY
  5
118F4
330
1F3
100
AcDbDictionary
280
     1
281
     1
  3
ACAD_XREC_ROUNDTRIP
360
118F5
  0
DICTIONARY
  5
118F2
330
1F2
100
AcDbDictionary
280
     1
281
     1
  3
ACAD_XREC_ROUNDTRIP
360
118F3
  0
DICTIONARY
  5
118EC
330
1EF
100
AcDbDictionary
280
     1
281
     1
  3
ACAD_XREC_ROUNDTRIP
360
118ED
  0
DICTIONARY
  5
118EE
330
1F0
100
AcDbDictionary
280
     1
281
     1
  3
ACAD_XREC_ROUNDTRIP
360
118EF
  0
DICTIONARY
  5
118DC
330
FC
100
AcDbDictionary
280
     1
281
     1
  3
ACAD_XREC_ROUNDTRIP
360
118DD
  0
DICTIONARY
  5
118D0
330
F6
100
AcDbDictionary
280
     1
281
     1
  3
ACAD_XREC_ROUNDTRIP
360
118D1
  0
DICTIONARY
  5
118F0
330
1F1
100
AcDbDictionary
280
     1
281
     1
  3
ACAD_XREC_ROUNDTRIP
360
118F1
  0
XRECORD
  5
118F9
102
{ACAD_REACTORS
330
118F8
102
}
330
118F8
100
AcDbXrecord
280
     1
102
DISPLAYNAME
  1
Metric50
102
FLAGS
 90
        0
  0
XRECORD
  5
118BE
102
{ACAD_REACTORS
330
118BD
102
}
330
118BD
100
AcDbXrecord
280
     1
102
SHADEPLOT
 70
     0
102
SHADEPLOTRESLEVEL
 70
     2
102
SHADEPLOTCUSTOMDPI
 70
   300
  0
XRECORD
  5
118C0
102
{ACAD_REACTORS
330
118BF
102
}
330
118BF
100
AcDbXrecord
280
     1
102
SHADEPLOT
 70
     0
102
SHADEPLOTRESLEVEL
 70
     2
102
SHADEPLOTCUSTOMDPI
 70
   300
  0
XRECORD
  5
118BB
102
{ACAD_REACTORS
330
118BA
102
}
330
118BA
100
AcDbXrecord
280
     1
102
SHADEPLOT
 70
     0
102
SHADEPLOTRESLEVEL
 70
     2
102
SHADEPLOTCUSTOMDPI
 70
   300
  0
XRECORD
  5
118C2
102
{ACAD_REACTORS
330
1F9
102
}
330
1F9
100
AcDbXrecord
280
     1
102
MATERIAL
148
0.0
149
0.0
149
0.0
 93
        0
 94
       63
282
     0
 72
     1
 77
     1
171
     1
175
     1
179
     1
273
     0
  0
XRECORD
  5
1FA
102
{ACAD_REACTORS
330
1F9
102
}
330
1F9
100
AcDbXrecord
280
     1
 70
     1
 90
429727718
  1
D62C5603-E3A1-4AEA-B7FB-FE5D8D0755AF
310
504B03040A0000080000CC70623B3DEE336E79000000790000001B0000006175746F6465736B2D64657369676E2D7061636B6167652E786D6C3C3F786D6C2076657273696F6E3D22312E302220656E636F64696E673D227574662D3822203F3E3C666F726D6174733E3C666F726D61743E687474703A2F2F736368656D612E
310
6175746F6465736B2E636F6D2F64657369676E2D7061636B6167652F323030393C2F666F726D61743E3C2F666F726D6174733E504B0304140006080800CC70623BD486FD9CA0000000F4000000130000005B436F6E74656E745F54797065735D2E786D6C7D8EC10E82300C865F65E91D8A1E8C310C0EEA1BF002731658846E
310
D98AC1B77784ABF1D8FE5FBFBF75BBCE937A534CCEB38643598122B6FEE978D0B0485F9C41B54DDD7D022595594E1A469170414C76A4D9A4D207E29CF43ECE46F218070CC6BECC4078ACAA135ACF422C856C0E68EA1BF5669944DDD7BCDE7B1F8E415D77AECB980613C2E4AC91FC167A2B244592486606FC29C8FD7F045B9A
310
EF7053A7E60B504B0304140006080800CC70623B853B8169EB0000007C01000008000000636F72652E786D6C8D90416EC3201045AF62CDB6C206821CC7C244919D9CA01740401C94182C03558F5F9C3852BBEB6A467FFE9B197D7EFC9E1EC5975982F5AE035262288C535E5B377690E21535501C055FBC8FBF6C503839990E
310
5619041F179FE64D52DE45E362569DD7661365082642A11EB9E920A89B99642953CC8E702F67A9EE7234257977194EC9EAE275C4EABCCF5EAD5940D4AC6F0E35A568B8F43562CD7046CD199FD07E60174276A7BE677B5EADB0E0D14EEFFB6A31321A0D82627C4084204C3F096B71DD52F6819B16635EADF63F509AF53FA164
310
5DDCD1EDDD17164090FCC8732078B56691CB33A85CD7DCC40F504B0304140006080800CC70623B55019EA25F0000007C00000007000000636E782E786D6C4DCB3B0E80201045D1AD90E915ED2CF8AC45050C11660C8261F98AB1B07AC9C97D42D718D865D3E909258CFD00CCE24AC6E326A164D74DC0B4128928FF32603847
310
2BA13128B1252AC747C6BAB984FC68F0B87FE8960A5C09FE86CFB69FBA01504B0304140006080800CC70623BDBABAAF470010000D40300000C0000006662782F636F72652E786D6CC553D16E823014FD95A6AF4B694182CC941A83FA05FB810A9511A125A5257EFE2E82712ECEB8A7F100CD39F7F69E734AF9FADC366850B6
310
AF8DCE7018308C942E4C59EB2AC3DE1D498AD15A706B8CFB56869196ADCAF00863C12B6B7C374385D14E6907A836A59A41D9F7CA615434B0C8705F7CAA5606D23BA8E84F41278B93AC54100640439DE0BDB320004D43C63716C7C399D30917DCFBBA9CD9BA8469F5B156168B24CED3F7248AC8769F27244EB73B92EED8862C
310
B7F13E0C179B3C8F979C8ECD82BBBABDAA2BAC924E9558448CBD9330242CFA08E3154B5651FCC6D215639C8EE5774DBE2B5F6CF2B5768B68963BB5F5588420E442FC700B1139D4CB01F450C1E918227C2E09DF070D8140C84E1E9AAB8F1340832A9CB13130A5F1376A908D57309505ECF2A0DF179C4E9D30F5B239B87E3823
310
7A79C6F31DE1A8A5AEC08474B03C7837EAE4938639B44E5932B833D2C6B6B279CDC613877FA26EE21F4A2A4C63EC7F29A2F301D1F9F7A0E37D145F504B0304140006080800CC70623B9C113CC27E0000009D0000000B0000006662782F636E782E786D6C4DCCDF0A83201C86E15B91DFB94BFB330DD428C8FB886521330DA7
310
6397BF1A1DECE883878F57749FCDA1B7892F1BBC047A23808C7F84D9FA55424E0BE6803A256208E9EF06C84F9B91703228B1C690F78B66B34CD9A5439DF5CF0BFBF65E35BCA1B8D6A5C6F540381E886698B5741C695F9503EBA150A2F8958E3DC3EA0B504B0304140006080800CC70623B7DF2F77C2A010000120200003100
310
00006662782F41393633353835312D344632462D344230382D423046372D3739314545314133324237412F636F72652E786D6C8D51DB8EC22014FC15C2939B0D2DB4B45643319AE817EC0F6041255A68B86CFCFC856D4D76DF7CE190393373060EDB3DC707F856CE6B6B7A480A0C81328395DA5C7B18C3057510EC3873D686
310
3F34088C18550F330C39BB3A1BA7051AAC09CA84841A2BD5020AEF55806078A44B0FFD7053A328440C89E1EFC52486BBB8AA8214A99D789CF9E05200300FC927E4FB4D5B375D43103D5527440FB843077C5AA3F5861C8F645F5787F59E95B390B318B55CE45AA638FAA2957BD7248B390B7A7CC51F9C124149C82B8C378810
310
84AB2F42B7B8DD56F413775B8C5999E9FF4471926F8AA236A1AE96B8B3CC434E5839373893369E1FAF30EA395917409EB7F26AF8801C171837A4A6AC9C89E9F9C9B1A58BA30FD6A5EF5DDDCF894B9AD9B6A59C957943A9FCAE2FD5BC4DFE03504B0304140006080800CC70623BAD7543B64E01000033030000300000006662
310
782F41393633353835312D344632462D344230382D423046372D3739314545314133324237412F636E782E786D6CD593CD6EC32010845F0571AD6CE3D48AD20813A9873E410FBD12D82434182C7EAAE6EDBB2424CD25871E7B41D6EC30B3FA84F9E67BB2E40B4234DE8DB46F1925E094D7C6ED479AD3AE5951B2113C789FEE
310
6C943839C1488B4C05DF079FE72A69D8C96C13AAD6B8631503449F83828872B949AC57D26200B826A308D316B4064D6E46FCDA41C05550DC9E483A00797BFD207EFB092A45DE9514C1BBD22178396BD39D891265658C238DEA00936C654E5E433CB65A26D9F6EDB5EBC14EBF49A45CB856E66048291F6939A9A81BB5C89177
310
38143CA680F4AA299D66A042CEB3354A2684DC9D8D178FE0D9B8B41CAAD720F880EE7EF93C0C18769E099ECC04D5A102C8049A8A05632F4DDF376CF1DE0F6BB65C2F8627B65A33C6BB62177CEBBDAD973006829F89F22E814B54F4BC2BE347F8AA8F681390B50FA73F804400B5F542E796F19FF974E7F78DB802FE05E20750
310
4B0304140006080800CC70623BE75B7789680500003C100000340000006662782F41393633353835312D344632462D344230382D423046372D3739314545314133324237412F6F626A656374732E786D6CAD575B8F9B3818FD2B887D06C22499CB8AA1CA655245D5B455A356FB305264C061D8018C6C3393D95FBFC7600890
310
A4CD5EF210B0B1BFEBF98E3F7B1FF6596ABC522E1296DF9BAE3D320D9A872C4AF2F8DE2CE5CEBA358D0FBEC719939D65A691938CDE9B6ADAF4BD98B3B2D05311DD91329583D9D5FC0F438434A7A611A644887B5384CF34233629258BA878B12322891DEFF6B66BD70BFB62634E8AE781D082709A4B588AF91C528CDA28B73F
310
1C998EEF39EABBEFA97FBD6A7C7E9553F9D3D79FE442923C3C523610337627CB87ABE99D359D4CC6D6E4FACAB5E6ABF9D2726FC6A3C5F56271377BB88362213924694B38DD99FE47C48627A1E7D49F5A8BB5E1A74C0A599ED3B0F21F1E56366B89112D681E218F0915D0D6F17AD41FBA2A369DCF6335D62ABBD39779D5DDD1
310
11D4D8DE3CBB96B2E04FB8202E41051754A1AA8E8F76B4C6DFE810B580B1547F4B84911149794252234D024EF8BBE963A95AE27B3D310A9D5C215C7960FAEE415ED75694C6AFB17BCACA5D99A60A9AA65F217B0BFC53292ACB92BF283FAD0D3621576592CB5BED907C2FA8E9DF794E35E97BEA31BED21FEB401ABB94C44839
310
DCACBF0E1C5DA8DA5B2F4DFFD32AD86F543D9E565E7056502E157C00AD2671CD534549AB752FCA9CDA00677A313F04E51B22FF19E57B300579E3C97EB29F682D92935CEC18CF901B7B54FD8C51F362B56FC72FE0B3C1EAE335EDCCBF5AEC39ADB17DC238973F804BA5E6F6BFE7AF1FB32E523BE9F3BD571418E3631DCA4D48
310
5250CF639223210A9446CA30052EDF057BD35F8329C1ECD84552BF0DC8D18BE7BCE23BFE6BD960AB4A7DE79923A103BEBD80F911CBAA2C60DB19B01CF164A5583B772EE6D3FFA56666CBCDA74DC97724A48F9A58967497E489C4D979006FD7A05E227A1EBDD0F737C623387A9C844D3709995625106D157315F8B8392CD4E0
310
A0B9A720C4BE9829CEF37EA1E13111214D53925356365ADA634861B52519DD27A00AEB808EAF0628E6F435519D446F45CF2C9CF5214F0A15B2F6D06B79DA3EE3CBF7F56780D2F4E7EF73A0F5E5B02A38D07DC852C6B7C1FBB6664213E0C39E3EBA7FF4E1AD23EA2829407C85E586727488B751B2DB9502BC7B228A3FD68B6E
310
A65A22397E690AA8D158D7E404EC8CDA235CC3B7D1898680131CEC2CDF2638C65196279577750F15884AEE19F94199155B92B13297978469D4F8D358DF0AEF7631E28DC8F0D9F437D5D39A83B2231A1D52D543813A824EF8D44BCFF2FA6A31BD1E8DAD87F1CCB526B3879935BF59CDADD5C37479BB1CDD4CA7B3556B516589
310
EF352754B706114D9C885EC9131DE6EFEB43D99AFE2391C2F958179413D7CFEF6B1B6DB1E7600F00DE6E5C67454A339A4BA2E0FBA85ED26F045D454F463DBFCE484C2F90F2E5E3666003662ED8F755951A7D1BECD5B30B550B2785C8E7320B7292A4838DDA71BBC863ED7613CAF659337A3354231D4FF4A182A54904C2898C
310
98B28C4AD0CE056CCF332A80986E571EE9DBC305BB5FEB7E509220A58D25CF042D712A806AC0AD0C657FDEF80D2D9CEAA2EE4D1C76F60BFE74219A06527D6F82DF6412526107381E55E353090704D085B52408A8913C4ED159D79BDA71BB4BC506F4831350EB6F975CD22D69BF7AC49B91A2C0A9DDA3D5CA36AD20FC478E37
310
E61844E2352865EBCB61A275A65283CAAA9DD27703B4102F5AF51EF5F573B75CBB5AD38BC845F7A49F82A0966A49C2E3EA5EA0ECD326CD965F1DB402C6FA8B51A4658C5C5E2EC9E214602E55810345408596591009A82E7E7FFACA19EEA299B14A0081A705CB3296EBC14CDF658DCD336EA6D1136881AAEB87B81AB9EE53D5
310
F5EB8BC8362082DA24122F98680A4E7930C01A0079749CEA14382A0783E5EBA5A10F8C098456A03D6A4AEB6BB881E2513747552A5DB22C7EDAF83BD5528081A365F7FF06504B0304140006080000CC70623B000000000000000000000000350000006662782F41393633353835312D344632462D344230382D423046372D37
310
39314545314133324237412F76657274696365732E62696E504B0304140006080800CC70623BF270F1330600000004000000360000006662782F41393633353835312D344632462D344230382D423046372D3739314545314133324237412F747269616E676C65732E62696E636660600000504B0304140006080000CC7062
310
3B000000000000000000000000370000006662782F41393633353835312D344632462D344230382D423046372D3739314545314133324237412F617474726962757465732E62696E504B0304140006080800CC70623B08DA0BD19000000041010000360000006662782F41393633353835312D344632462D344230382D4230
310
46372D3739314545314133324237412F6469726563746F72792E786D6C858F410AC3201045AF22B36F53E9A60B35CBEEBAE80D244E44489C6234F4F835464A48035D0DF398FF9F8AF63D0E6CC63039F212F8F9020C7D47C6792B21C5FE7403D62A1188E2E60C98D7234A5830286103A55745067B9D86B8A3CF9C7F90C11DE6
310
07FB144396D7B6A82D282E9A152AD114D5EF2CB866EEE831B8EEA07A7BB5A8D7D61A2BAAEB7FD5F70921FF497D00504B0304140006080800CC70623BEDD1DC58FD000000A00100003B0000006662782F41393633353835312D344632462D344230382D423046372D3739314545314133324237412F7265736F75726365732F
310
636F72652E786D6C8D504B6E833010BD0A9A6D65B00922041947112427E8052C33A156828DFCA97AFC9A40A576D7CDCCE87D344F8F9FBFE667F689CE6B6B3A6039850C8DB2A336530731DC4903D95970676DF82583CCC8193B5861107C72362E3BA4AC096842428D1D7107A5F7182053CF7474E0D507CE32973124857FE48B
310
540F3961CEF244279DE03EB81420DB9EAC1384436FA353E879B1B182C7A8C75DA3C7F453DF353A1075D537A7BA6464B8F535A99AE14A9A2BBD90E350DD183B5CFABE3AF262350B1EF4FC9351399401471025A527C218A1E53BAB5A5AB765F5469B96525EACF23FA6B88CFF34456DC2A1DCE36E360F82A5202F42F062ED2BAD
310
579969AFDD8A6F504B010214000A0000080000CC70623B3DEE336E79000000790000001B00000000000000000000000000000000006175746F6465736B2D64657369676E2D7061636B6167652E786D6C504B01021400140006080800CC70623BD486FD9CA0000000F40000001300000000000000000000000000B20000005B
310
436F6E74656E745F54797065735D2E786D6C504B01021400140006080800CC70623B853B8169EB0000007C010000080000000000000000000000000083010000636F72652E786D6C504B01021400140006080800CC70623B55019EA25F0000007C000000070000000000000000000000000094020000636E782E786D6C504B
310
01021400140006080800CC70623BDBABAAF470010000D40300000C00000000000000000000000000180300006662782F636F72652E786D6C504B01021400140006080800CC70623B9C113CC27E0000009D0000000B00000000000000000000000000B20400006662782F636E782E786D6C504B01021400140006080800CC70
310
623B7DF2F77C2A010000120200003100000000000000000000000000590500006662782F41393633353835312D344632462D344230382D423046372D3739314545314133324237412F636F72652E786D6C504B01021400140006080800CC70623BAD7543B64E010000330300003000000000000000000000000000D2060000
310
6662782F41393633353835312D344632462D344230382D423046372D3739314545314133324237412F636E782E786D6C504B01021400140006080800CC70623BE75B7789680500003C10000034000000000000000000000000006E0800006662782F41393633353835312D344632462D344230382D423046372D3739314545
310
314133324237412F6F626A656374732E786D6C504B01021400140006080000CC70623B0000000000000000000000003500000000000000000000000000280E00006662782F41393633353835312D344632462D344230382D423046372D3739314545314133324237412F76657274696365732E62696E504B01021400140006
310
080800CC70623BF270F133060000000400000036000000000000000000000000007B0E00006662782F41393633353835312D344632462D344230382D423046372D3739314545314133324237412F747269616E676C65732E62696E504B01021400140006080000CC70623B0000000000000000000000003700000000000000
310
000000000000D50E00006662782F41393633353835312D344632462D344230382D423046372D3739314545314133324237412F617474726962757465732E62696E504B01021400140006080800CC70623B08DA0BD1900000004101000036000000000000000000000000002A0F00006662782F41393633353835312D344632
310
462D344230382D423046372D3739314545314133324237412F6469726563746F72792E786D6C504B01021400140006080800CC70623BEDD1DC58FD000000A00100003B000000000000000000000000000E1000006662782F41393633353835312D344632462D344230382D423046372D3739314545314133324237412F7265
310
736F75726365732F636F72652E786D6C504B0506000000000E000E0080040000641100000000
  0
XRECORD
  5
118C1
102
{ACAD_REACTORS
330
1F7
102
}
330
1F7
100
AcDbXrecord
280
     1
102
MATERIAL
148
0.0
149
0.0
149
0.0
 93
        0
 94
       63
282
     0
 72
     1
 77
     1
171
     1
175
     1
179
     1
273
     0
  0
XRECORD
  5
1F8
102
{ACAD_REACTORS
330
1F7
102
}
330
1F7
100
AcDbXrecord
280
     1
 70
     1
 90
429727718
  1
30362254-06B7-45E0-A893-8CFA70E3D6BC
310
504B03040A0000080000CC70623B3DEE336E79000000790000001B0000006175746F6465736B2D64657369676E2D7061636B6167652E786D6C3C3F786D6C2076657273696F6E3D22312E302220656E636F64696E673D227574662D3822203F3E3C666F726D6174733E3C666F726D61743E687474703A2F2F736368656D612E
310
6175746F6465736B2E636F6D2F64657369676E2D7061636B6167652F323030393C2F666F726D61743E3C2F666F726D6174733E504B0304140006080800CC70623BD486FD9CA0000000F4000000130000005B436F6E74656E745F54797065735D2E786D6C7D8EC10E82300C865F65E91D8A1E8C310C0EEA1BF002731658846E
310
D98AC1B77784ABF1D8FE5FBFBF75BBCE937A534CCEB38643598122B6FEE978D0B0485F9C41B54DDD7D022595594E1A469170414C76A4D9A4D207E29CF43ECE46F218070CC6BECC4078ACAA135ACF422C856C0E68EA1BF5669944DDD7BCDE7B1F8E415D77AECB980613C2E4AC91FC167A2B244592486606FC29C8FD7F045B9A
310
EF7053A7E60B504B0304140006080800CC70623B1EC5D7A3EB0000007C01000008000000636F72652E786D6C8D90416EC3201045AF82665B6103C6756C6122AB4D4ED00B204C5C94182C03558F5F9C3852BBEB6A467FFE9B197D71FC9E6FE8CBACC17AD7032D0820E3B41FAD9B7A48F1820F808E52ACDEC75F36404ECDA687
310
4D0629A6D5A76597B477D1B89855E747B38B2A041301E95B6E7A08FAD3CCAA50296647B8168BD2573599823EBB0CA76447F43862C7BCCF5EAC59410E4DDD9C7973C2755553CCCFA4C603E3040F1565ED3B1FDE4E432BCA0D9622DAF9795FAF464533826484B498524CD807E51D79ED187F21878E10516EF63F505AC67F42C9
310
BA58B1FDDD071640D2FCC87D2045B96591CB3DA85CB7DCE40F504B0304140006080800CC70623B55019EA25F0000007C00000007000000636E782E786D6C4DCB3B0E80201045D1AD90E915ED2CF8AC45050C11660C8261F98AB1B07AC9C97D42D718D865D3E909258CFD00CCE24AC6E326A164D74DC0B4128928FF32603847
310
2BA13128B1252AC747C6BAB984FC68F0B87FE8960A5C09FE86CFB69FBA01504B0304140006080800CC70623B8C9102E971010000D40300000C0000006662782F636F72652E786D6CC5535B6E833010BC8AE5DF0A6C08340F1947A84D4ED00B38C6A128602363A31CBFCB234A53A551FA553EC09AD9F5CE8C31DB9E9B1AF5CA
310
7695D1198E428A91D2D214952E33ECDD315861B4E5CC1AE3BE9561A445A3323CC098B3D21ADFCE9034DA29ED00D5A6503328BA4E398C640D8B0C77F253352214DE4145770A5B214FA2546114020D759C75CE8200340D19DE981F0F6746269C33EFAB6266AB02A655C74A59CCF365BADC27CB5D902ED22848F6340DF238A141
310
BE88E2F57B92BFEDF23523433367AE6A2EEAA455C2A902F398D2751045018D3FA264435F3771F242571B4A1919CA6F9A7C5B3CD9E42BED16F12C776AEB308F40C848FC700B1139D4891EF410CEC810227CC6846F8386402064270EF5C5C709A05E49676C024C61FC95EA45ED154CA5211D1FF4FB8291A913A68E9B83EBBB33
310
E2A7673CDE118E5AE8124C0807CB8377834E366998436B950D7A7746DAD846D4CFD978E0F04FD455FC5D49D2D4C6FE9722321F10997F0F32DC47FE05504B0304140006080800CC70623BFFEA85907E0000009D0000000B0000006662782F636E782E786D6C4DCCD10A83201886E15B91FFDC95D95A811AB6F23E625948A6C3
310
E9D8E5AF46073BFAE0E1E365ED67B3E8ADC3CB78C7815C7240DA3DFC64DCC221C519D7805AC182F7F1EF06C88D9BE6703008B6049F9E274D7A1E938DBB5AE3D6131B2589BA0D3D965551E0B2EA732C9B9A624AAEB41E3A557677029960D9AFB4EF11165F504B0304140006080800CC70623B4FEEA4082C0100001202000031
310
0000006662782F39464131463745442D413632322D343644302D413938332D3331353338454246344243312F636F72652E786D6C8D515B6EC32010BC0AE2AB55850DD871ED0813254D72825EC00192A2C460F1A872FC42ED48ED5F7E00CDCECCCEB26C731F6FE05B39AFADE921293004CA082BB5B9F43086336A21D870E6AC
310
0D7F68109861543DCC30E4ECE26C9C164858139409093556AA051CBC570102714B8F1E7AF1A5C6A11862480C7F2DA6415C878B2A4891CA89C7990F2E050073937C42DE1DB7E4F87ED8A36D4329AA9B3D46DBAEAD504556557BD81DEBDD0761E52CE42C462D17B996298E3E6BE59E35C962CE821E1FF18553435012728A7187
310
0841987E927A8D9B35ADDF70BBC6989599FE4F1427F9A4286A132ABAC49D651EF234CD5CE04CDA78BA3DC2A8FB645D00B9DF8B57E215725C60BCA2A463E54C4CE327C7A65E1C7DB02E7DEFCBF594B864C5CA6CDBD49C957943E9FA5D5FBAF336F90F504B0304140006080800CC70623BAD7543B64E01000033030000300000
310
006662782F39464131463745442D413632322D343644302D413938332D3331353338454246344243312F636E782E786D6CD593CD6EC32010845F0571AD6CE3D48AD20813A9873E410FBD12D82434182C7EAAE6EDBB2424CD25871E7B41D6EC30B3FA84F9E67BB2E40B4234DE8DB46F1925E094D7C6ED479AD3AE5951B2113C
310
789FEE6C943839C1488B4C05DF079FE72A69D8C96C13AAD6B8631503449F83828872B949AC57D26200B826A308D316B4064D6E46FCDA41C05550DC9E483A00797BFD207EFB092A45DE9514C1BBD22178396BD39D891265658C238DEA00936C654E5E433CB65A26D9F6EDB5EBC14EBF49A45CB856E66048291F6939A9A81BB5
310
C8917738143CA680F4AA299D66A042CEB3354A2684DC9D8D178FE0D9B8B41CAAD720F880EE7EF93C0C18769E099ECC04D5A102C8049A8A05632F4DDF376CF1DE0F6BB65C2F8627B65A33C6BB62177CEBBDAD973006829F89F22E814B54F4BC2BE347F8AA8F681390B50FA73F804400B5F542E796F19FF974E7F78DB802FE05
310
E207504B0304140006080800CC70623B16AB87BA640500003C100000340000006662782F39464131463745442D413632322D343644302D413938332D3331353338454246344243312F6F626A656374732E786D6CAD575B6FA33818FD2B887DE6924B3BED8A326A92B68A663B534DD4D13E548A0C38942D60649B369D5FBFC7
310
600890A493BDE42160637FD7F31D7FF63E6FB3D478A55C242CBF3247B66B1A340F5994E4F19559CA8D75611A9F7D8F33263BCB4C232719BD32D5B4E97B316765A1A722BA21652A07B3B7B33F0D11D29C9A46981221AE4C113ED38CD8A4942CA2E2C58E882476BCD9DA23BB5ED8171B73523C0F841684D35CC252CCE79062D4
310
468DFA43D7747CCF51DF7D4FFDEB5593E3AB9CCA9FBEFE241792E4E19EB28198C968BAB8199F5D5A67D3E9C49A9E8F47D6EC76B6B0469F26EEFC7C3EBFBCBEB98462213924694B38DD98FE1D62C393D073EA4FADC5DAF04326852CCF6958F90F0F2B9BB5C48816348F90C7840A68EB78EDF68723159BCEE7891A6B95DDE9D3
310
BCEAEEE8086A6C6F9E5D4B59F0175C10A7A0820BAA5055C7473B5AE3CFDD452D602CD5DF12616444529E90D448938013FE6EFA58AA96F85E4F8C42275708571E98FE6827AF6B2B4AE3D7D83D64E5A64C53054DD3AF90BD06FEA9149565C94FCA0F6B834DC85599E4F2423B24DF0B6AFA979E534DFA9E7A4CC6FA631D486393
310
921829879BF5D781A373557BCB85E97FB90DB62B558F8795179C15944B051F40AB495CF35451D26A4727654E6D8033BD98EF82F21D91FF8AF2DD9982BCF1643BDD4EB516C9492E368C67C88DED563FC36D5EACF66DFF057C3658BDBFA69DF9578B3DA735B64F18C7F20770A9D45CFCF7FCF563D6456A277DBEF78A02637CA2
310
43B90A490AEAB94F72244481D24819A6C0E59B606BFA4B3025981DBB48EAB701D97BF19C577CC77F2D1B6C55A9EF3C732474C0B727303F625995056C3B02963D9EAC146BE78EC5FCEC7FA999EBC5EACBAAE41B12D27B4D2C0BBA49F244E2ECDC81B76B502F113D8F5EE8FB1BE3111CDD4FC2AA9B844CAB1288B68AB90A7CDC
310
1C166AB0D3DC5310625FCC14E779BFD0709F8890A629C9292B1B2DED31A4B0DA928CEE135085754027E3018A397D4D5427D15BD1330B677DC8934285AC3DF45A9EB68FF8F2B8FC0A509AFEECFD0FF2DE25CC6047F7214B195F07EFEB9A094D800F7BFAE8FED187B78EA8A3A400F115961BCAD1215E47C966530AF0EE8128FE
310
58CEBB996A8964FFA529A046635D9353B0336A8F700DDF46271A024E70B0B37C9DE01847591E54DED53D54202AB947E4076556AC49C6CA5C9E1226B7F1A7B1BE15DEED62C41B91E1B3E9AFAAA735036547343A925075041DF0A9979E893B391F8FCFA6967B3EFB644DCF6E5CEBFAE272625DCC6FAF3FB93793C5F90CE1EF57
310
407342756B10D1C489E8953CD1617E5CEECAD6F4EF8914CE5D5D504E5C3F1F9736DA62CFC11E00BCDDB8CC8A9466349744C1F75EBDA4DF09BA8A9E8C7A7E9991989E20E5DBDD6A6003664ED8F7A04A8DBE0DF6EAD9B9AA858342E47399053949D2C146EDB85DE4B176BB0965FBAC19BD19AA918E27FA50C1D22402E144464C
310
59462568E704B6E71915404CB72B8FF4EDE184DDAF753F284990D2C6926782963815403548A70C657FDEF80D2D9CEAA2AE4C1C76F60BFE74219A06527D6582DF6412526107381E55E353090704D085B52408D0933C4ED159D79BDA71BB4BC506F4831350EB6F979CD22D69BF7AC49B91A2C0A9DDA3D5CA36AD20FC478E37E6
310
1844E2352865EBCB6EA275A652E3836BE04EFB400BF1A2556F515F1FBB35B2AB35BD889C744FFA1004B5544B121E57F70215746DD2F5E2C1412B602CBF19455AC6C8E5E9922C4E01E65215385004546899059180EAFCF7A707CE7017CD8CDB0410789AB32C63B91E5CEBBBACB17AC6CD347A022D5075FD106377347AAABA7E
310
7D11590744509B44E205134DC1290F06580320F78E537D3D73540E06CB970B431F185308AD40BBD794D6D77003C5A36E8EAA54BA64597CD8F83BD552A080A365F7FF06504B0304140006080000CC70623B000000000000000000000000350000006662782F39464131463745442D413632322D343644302D413938332D3331
310
353338454246344243312F76657274696365732E62696E504B0304140006080800CC70623BF270F1330600000004000000360000006662782F39464131463745442D413632322D343644302D413938332D3331353338454246344243312F747269616E676C65732E62696E636660600000504B0304140006080000CC70623B
310
000000000000000000000000370000006662782F39464131463745442D413632322D343644302D413938332D3331353338454246344243312F617474726962757465732E62696E504B0304140006080800CC70623B08DA0BD19000000041010000360000006662782F39464131463745442D413632322D343644302D413938
310
332D3331353338454246344243312F6469726563746F72792E786D6C858F410AC3201045AF22B36F53E9A60B35CBEEBAE80D244E44489C6234F4F835464A48035D0DF398FF9F8AF63D0E6CC63039F212F8F9020C7D47C6792B21C5FE7403D62A1188E2E60C98D7234A5830286103A55745067B9D86B8A3CF9C7F90C11DE607
310
FB144396D7B6A82D282E9A152AD114D5EF2CB866EEE831B8EEA07A7BB5A8D7D61A2BAAEB7FD5F70921FF497D00504B0304140006080800CC70623B0D6EF93BFE000000A00100003B0000006662782F39464131463745442D413632322D343644302D413938332D3331353338454246344243312F7265736F75726365732F63
310
6F72652E786D6C8D50596E833010BD0A9ADFCA60B334011947A8694ED00B586642AC041B79A97AFC9A40A5F6AF3F33A3B7689E1E3F7DCD8FEC139DD7D6F4C0720A191A65476DA61E62B892236427C19DB5E1970C322367EC618541F0C9D9B8EC90B226A009093576C41D94DE63804C3DD2D18357379C652E63480A7FCF17A9
310
EE72C29CE5894E3AC17D702940B63D59270887DE46A7D0F36263058F518FBB468FE9A7BE6A7420864373B8D4873369AA8691FA421B3294352543C5CAF65C0F6FEF43CB8BD52C78D0F34F46E550061C419494B6843142CB0F5677F4B52BEB177AEC28E5C52AFF638ACBF84F53D42654E51E77B379102C05791282176B5F693D
310
CB4C7BED567C03504B010214000A0000080000CC70623B3DEE336E79000000790000001B00000000000000000000000000000000006175746F6465736B2D64657369676E2D7061636B6167652E786D6C504B01021400140006080800CC70623BD486FD9CA0000000F40000001300000000000000000000000000B20000005B
310
436F6E74656E745F54797065735D2E786D6C504B01021400140006080800CC70623B1EC5D7A3EB0000007C010000080000000000000000000000000083010000636F72652E786D6C504B01021400140006080800CC70623B55019EA25F0000007C000000070000000000000000000000000094020000636E782E786D6C504B
310
01021400140006080800CC70623B8C9102E971010000D40300000C00000000000000000000000000180300006662782F636F72652E786D6C504B01021400140006080800CC70623BFFEA85907E0000009D0000000B00000000000000000000000000B30400006662782F636E782E786D6C504B01021400140006080800CC70
310
623B4FEEA4082C0100001202000031000000000000000000000000005A0500006662782F39464131463745442D413632322D343644302D413938332D3331353338454246344243312F636F72652E786D6C504B01021400140006080800CC70623BAD7543B64E010000330300003000000000000000000000000000D5060000
310
6662782F39464131463745442D413632322D343644302D413938332D3331353338454246344243312F636E782E786D6C504B01021400140006080800CC70623B16AB87BA640500003C1000003400000000000000000000000000710800006662782F39464131463745442D413632322D343644302D413938332D3331353338
310
454246344243312F6F626A656374732E786D6C504B01021400140006080000CC70623B0000000000000000000000003500000000000000000000000000270E00006662782F39464131463745442D413632322D343644302D413938332D3331353338454246344243312F76657274696365732E62696E504B01021400140006
310
080800CC70623BF270F133060000000400000036000000000000000000000000007A0E00006662782F39464131463745442D413632322D343644302D413938332D3331353338454246344243312F747269616E676C65732E62696E504B01021400140006080000CC70623B0000000000000000000000003700000000000000
310
000000000000D40E00006662782F39464131463745442D413632322D343644302D413938332D3331353338454246344243312F617474726962757465732E62696E504B01021400140006080800CC70623B08DA0BD190000000410100003600000000000000000000000000290F00006662782F39464131463745442D413632
310
322D343644302D413938332D3331353338454246344243312F6469726563746F72792E786D6C504B01021400140006080800CC70623B0D6EF93BFE000000A00100003B000000000000000000000000000D1000006662782F39464131463745442D413632322D343644302D413938332D3331353338454246344243312F7265
310
736F75726365732F636F72652E786D6C504B0506000000000E000E0080040000641100000000
  0
XRECORD
  5
118C3
102
{ACAD_REACTORS
330
173
102
}
330
173
100
AcDbXrecord
280
     1
102
MATERIAL
148
0.0
149
0.0
149
0.0
 93
        0
 94
       63
282
     0
 72
     1
 77
     1
171
     1
175
     1
179
     1
273
     0
  0
XRECORD
  5
175
102
{ACAD_REACTORS
330
173
102
}
330
173
100
AcDbXrecord
280
     1
270
     1
271
     1
  0
XRECORD
  5
174
102
{ACAD_REACTORS
330
173
102
}
330
173
100
AcDbXrecord
280
     1
270
     1
271
     1
  0
XRECORD
  5
1FB
102
{ACAD_REACTORS
330
173
102
}
330
173
100
AcDbXrecord
280
     1
 70
     0
 90
1673772943
  1
ECE7A1D2-D628-4531-984C-D00F80459256
310
504B03040A0000080000CC70623B3DEE336E79000000790000001B0000006175746F6465736B2D64657369676E2D7061636B6167652E786D6C3C3F786D6C2076657273696F6E3D22312E302220656E636F64696E673D227574662D3822203F3E3C666F726D6174733E3C666F726D61743E687474703A2F2F736368656D612E
310
6175746F6465736B2E636F6D2F64657369676E2D7061636B6167652F323030393C2F666F726D61743E3C2F666F726D6174733E504B0304140006080800CC70623BD486FD9CA0000000F4000000130000005B436F6E74656E745F54797065735D2E786D6C7D8EC10E82300C865F65E91D8A1E8C310C0EEA1BF002731658846E
310
D98AC1B77784ABF1D8FE5FBFBF75BBCE937A534CCEB38643598122B6FEE978D0B0485F9C41B54DDD7D022595594E1A469170414C76A4D9A4D207E29CF43ECE46F218070CC6BECC4078ACAA135ACF422C856C0E68EA1BF5669944DDD7BCDE7B1F8E415D77AECB980613C2E4AC91FC167A2B244592486606FC29C8FD7F045B9A
310
EF7053A7E60B504B0304140006080800CC70623BD9DDAED0EC0000007C01000008000000636F72652E786D6C8D90416EC3201045AF82665B61836D9CD8C2444DD39CA01740405C94182C03558F5F9C3852BBEB6A467FFE9B197D7EF89E6EE8CB2CC17A37002D0820E394D7D68D03A478C17B4007C117EFE32F1B20272733C0
310
2A83E0E3E2D3BC49CABB685CCCAAF3DA6CA20CC14440EA969B0182FA34932C648AD911AEC52CD5558EA6A0CF2EC329598D1E47ACCEFBECC59A050463A7EA5833865FEBDD0E37353BE3EE8DBDE3F6786A48D375FBF6CC78B9C282473B3DEFABC5C86834888A900E538A49F5419B9EB47DD5BC907D4F082F57FB1F28CDFA9F50
310
B22ED6D5F6EE030B20687EE43E10BC5CB3C8E51E54AE6B6EE207504B0304140006080800CC70623B55019EA25F0000007C00000007000000636E782E786D6C4DCB3B0E80201045D1AD90E915ED2CF8AC45050C11660C8261F98AB1B07AC9C97D42D718D865D3E909258CFD00CCE24AC6E326A164D74DC0B4128928FF326038
310
472BA13128B1252AC747C6BAB984FC68F0B87FE8960A5C09FE86CFB69FBA01504B0304140006080800CC70623BA24EB22D72010000D40300000C0000006662782F636F72652E786D6CC5535B6E833010BC8AE5DF0A6C5E49888CA3A6694ED00B38E05014B091B1518EDFE511A5A9D228FD2A1F60CDEC7A67C6986DCE4D8D7A
310
69BA4AAB0C073EC548AA5C17952A33ECECD15B61B4E1CC686DBF9561A44423333CC098B3D268D7CE50AE9595CA02AA74216750749DB418E5352C32DCE59FB211BE70162ABA93DF8AFC244AE9073ED050C759670D0840D390E18DF9F1706664C23973AE2A66B62A605A75ACA4C13C4976E1364A12EF355A2EBD384AF65EFA96
310
BC7B8BED2EA6719AAE16FB8491A199335B351775B991C2CA02F390D2D40B028F861F41BCA68B7518BFD0D59A524686F29B26D7164F36B94AD9289CE54E6D1DE6010819891F6E21228B3AD1831EC219194284CF98F06DD01008846CC5A1BEF83801D4CBDC6A1303536877A57A513B0953A94FC707FDBE6064EA84A9E3E6E0FA
310
EE8CF0E9198F7784A316AA0413C2C2F2E0ECA0934D1AE6D05A69BCDE9E91D2A611F573361E38FC1375157F5752AE6B6DFE4B11990F88CCBF0719EE23FF02504B0304140006080800CC70623B408A7D3B7C0000009D0000000B0000006662782F636E782E786D6C4DCCD10A83201886E15B91FFDC552A92A0064DBC8F581632
310
D3703A76F9ABD1C18E3E78F878E5F0D9027ABBFCF2292AE86E2D20171F69F6715550CB827B40839639A5F2770314A7CD293819B45C73AAFB45B35BA61ACAA1C1C7E7855C58C15BC331339661262CC762340413D68D77DA5B42298546CBE6573AF60CEB2F504B0304140006080800CC70623B449FB9BD290100001202000031
310
0000006662782F36394639363044362D344446342D343946362D394244322D3234314243333846323333332F636F72652E786D6C8D515B6EC32010BC0AE22B55850D98B871848994463E412FE002495162B07854397EA176A4F62F3F2C9A9D991D587EB84F37F0AD7D30CEF6905418026DA553C65E7A98E219ED203808EE9D
310
8B7F6810D871D23D2C3014FCE25D9A57483A1BB58D19B54EE9151C43D0110279CB971E06F9A5A7B11A53CC8C70ADE6515EC78BAE4895DB992778883E0700CB907242D17643D7E2538BD869608875438BBAE38922CAC8F1BDD90DB4691A5E2F42C153326A951B95E398B3D1FE599322163C9AE9115F7A3D46ADA0A018778810
310
84E907617BDCEE297BC5BB3DC6BC2EF47FA234AB2745C9D8D8D035EE220B50105E2F0DC1954B9FB747187D9F9D8FA0CCDB042D5FA0C015C65B42DF78BD10F3F3B363CB56C7109DCFDFBBB97E662ED92EB62D13BC2E1BCAE5777DB9966D8A1F504B0304140006080800CC70623BAD7543B64E01000033030000300000006662
310
782F36394639363044362D344446342D343946362D394244322D3234314243333846323333332F636E782E786D6CD593CD6EC32010845F0571AD6CE3D48AD20813A9873E410FBD12D82434182C7EAAE6EDBB2424CD25871E7B41D6EC30B3FA84F9E67BB2E40B4234DE8DB46F1925E094D7C6ED479AD3AE5951B2113C789FEE
310
6C943839C1488B4C05DF079FE72A69D8C96C13AAD6B8631503449F83828872B949AC57D26200B826A308D316B4064D6E46FCDA41C05550DC9E483A00797BFD207EFB092A45DE9514C1BBD22178396BD39D891265658C238DEA00936C654E5E433CB65A26D9F6EDB5EBC14EBF49A45CB856E66048291F6939A9A81BB5C89177
310
38143CA680F4AA299D66A042CEB3354A2684DC9D8D178FE0D9B8B41CAAD720F880EE7EF93C0C18769E099ECC04D5A102C8049A8A05632F4DDF376CF1DE0F6BB65C2F8627B65A33C6BB62177CEBBDAD973006829F89F22E814B54F4BC2BE347F8AA8F681390B50FA73F804400B5F542E796F19FF974E7F78DB802FE05E20750
310
4B0304140006080800CC70623B8D05915C650500003B100000340000006662782F36394639363044362D344446342D343946362D394244322D3234314243333846323333332F6F626A656374732E786D6CAD575B6FA33814FE2B887D06429276DA1565D4266D158D3A339A6846FB502932E050B66023DB74D2FDF5FB190C01
310
9276B2973C046C8ECFF53B17071F77456EBD502133CEAE6CDF9DD81665314F32965ED995DA3A17B6F5310C04E7AA47665B8C14F4CAD6DB7618A48257A5D94AE89654B91AEDDEDDFC61C998326A5B714EA4BCB265FC440BE2924AF184CA6737218AB8E976E7FA6E4338649B0A523E8D98964450A6A029F619B8588D52FE7039
310
B1BD30F0F4F730D0FF866AF6369557DB33949F31A9088B0F848DD8CCFCF9F2767A76E99CCDE733677E3EF59D9BBB9BA5E37F984D16E78BC5E5F5ED25044B25C0C96822E8D60EEFE11B91C581D77CEA34368A1F5329E68CD1B8B61F16D63A1B8E092D294B10C78C4A48EB593D192E7DED9BDEE7995E1B91FDEDD3ACEA9FE831
310
6A756F9F7D4D79F4274C90A7A04248AA51D5F8C718DAE06FB2F75AC4796EBE65D22A88A22223B995679120E2D50E41AA49C260C046A35368846B0BECD0DFF3EBEB8AD4F835768F69B9ADF25C43D30E6B646F807FAA64AD59F61715C7A54127C4AACA98BA3006A9D792DAE165E0D59B61A01FB3A9F9D838D2DAE62445C86166
310
F37564E842E7DE6A69879FEEA2DD5AE7E371E1A5E025154AC307D06A03D73EB5978C58FFA4C8E9033066E0F3BD53BEC1F39F91BE7B55103791EDE6BBB991A2046172CB4581D8B893FA674DDA17A77B3B7C413D1B511FD2743BFF8A38F03A658705E3ADF8015C3A3417FF3D7E439FF591DA0B5F18BC20C1B8981957AE6392A3
310
F43C640C01D1A0B4728E2DD4F26DB4B3C3152A252A3B4E913CEC1C72F012782FF88EFF8637AA552DBEF76408E8A8DE9E50F9E1CB3A2DA0DB1B6039A893B56063DC5B3E3FFB5F72E67AB9FEB4AEC496C4F4C1149625DD662C53E89D7BF0F6151A046260D1337DFDC94502430F83B0EE07A130A224BCAD7DAE1D9FB6CD422FF6
310
920702629C4BB9AE79C12F243C6432A6794E18E5552BA56B431AAB5D91317302B2B071E86C3A42B1A02F999E24061403B5D0EB639195DA655DD3EBEAB4FB862DDF579F014AD0E73C22F99E28DA57FB98E75C6CA2D74D53086D600F4786E0FE3144B771A8A7B900F03594DB8A633CBC49B2EDB69228BB479CF863B5E807AAAB
310
23872F6DFEB4129B949CA33823F58830E86D65621E10047D9DB34D862E8EAC3C2ABC2F7B2C40D67CDFE01F5545B92105AF983AC54D93D69E56FB8E797F88913F898A9FEC705D3F9D1B54EC8426FB500D40A03BD0119B06E1B95DDC7EB8F6975367793EBD70E66733DFB9BC982F9CE564727731999F5D4ECFCE3B8D6A4DC2A0
310
6D50FD148437D110834A64C6CDDF57FBACB5C307A2A477DFE4939736CFEF2B175371E0E10CF0DD1D5C15654E0BCA14D1E87DD02FF93782A162C0A3D95F1524A52770F972BF1EE9809D13CE7DD599467F8ECE9ADD85CE85A34CD45355448C64F9E8A031DC2D596ACC6E5DD93D9B82DE2EF5CAF81363A8E47996A0DE24564A79
310
4115AACE09C55E14540231FDA13C319787134EBF34E3A022514E5B4D9E0826E25C02D5805B15ABE1BEF51B26383D445DD9E875EE33FE4C22DA16427D65A3BCA92CA6D28DD01DF5DC53330704308475351050232CCD31583787BA75774AFB06E5070DD0C8EF484E19968C5D83BA5B90B244D31E54D55A372320FE4786B7EA58
310
44E135AA5467CB7EA333A61683CC6A8C3257034C10CF46F40EF9F5BE59BE5BD30C3C72D235E95D10345C1D45445A5F0BB47E46A5EBE5570F9380B5FA629579952296A773720405982B9DE04011506178964401AA8BDF1FBF0A8EAB6861DD6580C0E38217056766716DAEB2D6FA0917D3E4116581EADB879C4E7CFFB11EFACD
310
3D641311495D92C8676CB409A72D18610D803CE8A626049E8EC1887CB5B44CC39883690DDA8399B4B9855B481E7D71D4A9D22F96E5BB73BF5793020C02137BF837504B0304140006080000CC70623B000000000000000000000000350000006662782F36394639363044362D344446342D343946362D394244322D32343142
310
43333846323333332F76657274696365732E62696E504B0304140006080800CC70623BF270F1330600000004000000360000006662782F36394639363044362D344446342D343946362D394244322D3234314243333846323333332F747269616E676C65732E62696E636660600000504B0304140006080000CC70623B0000
310
00000000000000000000370000006662782F36394639363044362D344446342D343946362D394244322D3234314243333846323333332F617474726962757465732E62696E504B0304140006080800CC70623B08DA0BD19000000041010000360000006662782F36394639363044362D344446342D343946362D394244322D
310
3234314243333846323333332F6469726563746F72792E786D6C858F410AC3201045AF22B36F53E9A60B35CBEEBAE80D244E44489C6234F4F835464A48035D0DF398FF9F8AF63D0E6CC63039F212F8F9020C7D47C6792B21C5FE7403D62A1188E2E60C98D7234A5830286103A55745067B9D86B8A3CF9C7F90C11DE607FB14
310
4396D7B6A82D282E9A152AD114D5EF2CB866EEE831B8EEA07A7BB5A8D7D61A2BAAEB7FD5F70921FF497D00504B0304140006080800CC70623BCA768048FE000000A00100003B0000006662782F36394639363044362D344446342D343946362D394244322D3234314243333846323333332F7265736F75726365732F636F72
310
652E786D6C8D50596E833010BD0A9ADFCA60D600328E9AA639412F609909B1126CE4A5EAF16B0295DABFFECC8CDEA2797AECF8353F924FB44E193D409E5248504B332A3D0D10FC95B4901C39B3C6F85F3248B49871801506CE266BC2B243D2688FDA47549B11775038871E12F988C7004EDE7016A9083E2ADC3D5D84BC8B09
310
D33C8D74D471E6BC8D0192EDC93A815B742658898E651BCB59086ADC356A8C3FD555A1055ED7E7E254D615792D0F075295F585746FF53B694EE78A565DD736979A65AB9933AFE69F8CD2A2F038022F28ED489E135A7CE4554F9BBEA85E68DB53CAB255FEC71496F19FA6A0B42F8B3DEE6673C0F318E4497096AD7DC5F52C33
310
EEB55BFE0D504B010214000A0000080000CC70623B3DEE336E79000000790000001B00000000000000000000000000000000006175746F6465736B2D64657369676E2D7061636B6167652E786D6C504B01021400140006080800CC70623BD486FD9CA0000000F40000001300000000000000000000000000B20000005B436F
310
6E74656E745F54797065735D2E786D6C504B01021400140006080800CC70623BD9DDAED0EC0000007C010000080000000000000000000000000083010000636F72652E786D6C504B01021400140006080800CC70623B55019EA25F0000007C000000070000000000000000000000000095020000636E782E786D6C504B0102
310
1400140006080800CC70623BA24EB22D72010000D40300000C00000000000000000000000000190300006662782F636F72652E786D6C504B01021400140006080800CC70623B408A7D3B7C0000009D0000000B00000000000000000000000000B50400006662782F636E782E786D6C504B01021400140006080800CC70623B
310
449FB9BD290100001202000031000000000000000000000000005A0500006662782F36394639363044362D344446342D343946362D394244322D3234314243333846323333332F636F72652E786D6C504B01021400140006080800CC70623BAD7543B64E010000330300003000000000000000000000000000D20600006662
310
782F36394639363044362D344446342D343946362D394244322D3234314243333846323333332F636E782E786D6C504B01021400140006080800CC70623B8D05915C650500003B10000034000000000000000000000000006E0800006662782F36394639363044362D344446342D343946362D394244322D32343142433338
310
46323333332F6F626A656374732E786D6C504B01021400140006080000CC70623B0000000000000000000000003500000000000000000000000000250E00006662782F36394639363044362D344446342D343946362D394244322D3234314243333846323333332F76657274696365732E62696E504B010214001400060808
310
00CC70623BF270F13306000000040000003600000000000000000000000000780E00006662782F36394639363044362D344446342D343946362D394244322D3234314243333846323333332F747269616E676C65732E62696E504B01021400140006080000CC70623B00000000000000000000000037000000000000000000
310
00000000D20E00006662782F36394639363044362D344446342D343946362D394244322D3234314243333846323333332F617474726962757465732E62696E504B01021400140006080800CC70623B08DA0BD190000000410100003600000000000000000000000000270F00006662782F36394639363044362D344446342D
310
343946362D394244322D3234314243333846323333332F6469726563746F72792E786D6C504B01021400140006080800CC70623BCA768048FE000000A00100003B000000000000000000000000000B1000006662782F36394639363044362D344446342D343946362D394244322D3234314243333846323333332F7265736F
310
75726365732F636F72652E786D6C504B0506000000000E000E0080040000621100000000
  0
XRECORD
  5
176
102
{ACAD_REACTORS
330
173
102
}
330
173
100
AcDbXrecord
280
     1
270
     1
271
     1
  0
XRECORD
  5
177
102
{ACAD_REACTORS
330
173
102
}
330
173
100
AcDbXrecord
280
     1
270
     1
271
     1
  0
XRECORD
  5
118E5
102
{ACAD_REACTORS
330
118E4
102
}
330
118E4
100
AcDbXrecord
280
     1
102
ACAD_ROUNDTRIP_2012_MLEADER_STYLE
298
     1
  0
XRECORD
  5
118F7
102
{ACAD_REACTORS
330
118F6
102
}
330
118F6
100
AcDbXrecord
280
     1
102
DISPLAYNAME
  1
Metric50
102
FLAGS
 90
        0
  0
CELLSTYLEMAP
  5
118B7
102
{ACAD_REACTORS
330
162
102
}
330
162
100
AcDbCellStyleMap
 90
        3
300
CELLSTYLE
  1
TABLEFORMAT_BEGIN
 90
        5
170
     1
 91
        0
 92
    32768
 62
   257
 93
        1
300
CONTENTFORMAT
  1
CONTENTFORMAT_BEGIN
 90
        0
 91
        0
 92
      512
 93
        0
300

 40
0.0
140
1.0
 94
        5
 62
     0
340
11
144
6.0
309
CONTENTFORMAT_END
171
     1
301
MARGIN
  1
CELLMARGIN_BEGIN
 40
1.5
 40
1.5
 40
1.5
 40
1.5
 40
4.5
 40
4.5
309
CELLMARGIN_END
 94
        6
 95
        1
302
GRIDFORMAT
  1
GRIDFORMAT_BEGIN
 90
        0
 91
        1
 62
     0
 92
       -2
340
14
 93
        0
 40
1.125
309
GRIDFORMAT_END
 95
        2
302
GRIDFORMAT
  1
GRIDFORMAT_BEGIN
 90
        0
 91
        1
 62
     0
 92
       -2
340
14
 93
        0
 40
1.125
309
GRIDFORMAT_END
 95
        4
302
GRIDFORMAT
  1
GRIDFORMAT_BEGIN
 90
        0
 91
        1
 62
     0
 92
       -2
340
14
 93
        0
 40
1.125
309
GRIDFORMAT_END
 95
        8
302
GRIDFORMAT
  1
GRIDFORMAT_BEGIN
 90
        0
 91
        1
 62
     0
 92
       -2
340
14
 93
        0
 40
1.125
309
GRIDFORMAT_END
 95
       16
302
GRIDFORMAT
  1
GRIDFORMAT_BEGIN
 90
        0
 91
        1
 62
     0
 92
       -2
340
14
 93
        0
 40
1.125
309
GRIDFORMAT_END
 95
       32
302
GRIDFORMAT
  1
GRIDFORMAT_BEGIN
 90
        0
 91
        1
 62
     0
 92
       -2
340
14
 93
        0
 40
1.125
309
GRIDFORMAT_END
309
TABLEFORMAT_END
  1
CELLSTYLE_BEGIN
 90
        1
 91
        1
300
_TITLE
309
CELLSTYLE_END
300
CELLSTYLE
  1
TABLEFORMAT_BEGIN
 90
        5
170
     1
 91
        0
 92
        0
 62
   257
 93
        1
300
CONTENTFORMAT
  1
CONTENTFORMAT_BEGIN
 90
        0
 91
        0
 92
      512
 93
        0
300

 40
0.0
140
1.0
 94
        5
 62
     0
340
11
144
4.5
309
CONTENTFORMAT_END
171
     1
301
MARGIN
  1
CELLMARGIN_BEGIN
 40
1.5
 40
1.5
 40
1.5
 40
1.5
 40
4.5
 40
4.5
309
CELLMARGIN_END
 94
        6
 95
        1
302
GRIDFORMAT
  1
GRIDFORMAT_BEGIN
 90
        0
 91
        1
 62
     0
 92
       -2
340
14
 93
        0
 40
1.125
309
GRIDFORMAT_END
 95
        2
302
GRIDFORMAT
  1
GRIDFORMAT_BEGIN
 90
        0
 91
        1
 62
     0
 92
       -2
340
14
 93
        0
 40
1.125
309
GRIDFORMAT_END
 95
        4
302
GRIDFORMAT
  1
GRIDFORMAT_BEGIN
 90
        0
 91
        1
 62
     0
 92
       -2
340
14
 93
        0
 40
1.125
309
GRIDFORMAT_END
 95
        8
302
GRIDFORMAT
  1
GRIDFORMAT_BEGIN
 90
        0
 91
        1
 62
     0
 92
       -2
340
14
 93
        0
 40
1.125
309
GRIDFORMAT_END
 95
       16
302
GRIDFORMAT
  1
GRIDFORMAT_BEGIN
 90
        0
 91
        1
 62
     0
 92
       -2
340
14
 93
        0
 40
1.125
309
GRIDFORMAT_END
 95
       32
302
GRIDFORMAT
  1
GRIDFORMAT_BEGIN
 90
        0
 91
        1
 62
     0
 92
       -2
340
14
 93
        0
 40
1.125
309
GRIDFORMAT_END
309
TABLEFORMAT_END
  1
CELLSTYLE_BEGIN
 90
        2
 91
        1
300
_HEADER
309
CELLSTYLE_END
300
CELLSTYLE
  1
TABLEFORMAT_BEGIN
 90
        5
170
     1
 91
        0
 92
        0
 62
   257
 93
        1
300
CONTENTFORMAT
  1
CONTENTFORMAT_BEGIN
 90
        0
 91
        0
 92
      512
 93
        0
300

 40
0.0
140
1.0
 94
        2
 62
     0
340
11
144
4.5
309
CONTENTFORMAT_END
171
     1
301
MARGIN
  1
CELLMARGIN_BEGIN
 40
1.5
 40
1.5
 40
1.5
 40
1.5
 40
4.5
 40
4.5
309
CELLMARGIN_END
 94
        6
 95
        1
302
GRIDFORMAT
  1
GRIDFORMAT_BEGIN
 90
        0
 91
        1
 62
     0
 92
       -2
340
14
 93
        0
 40
1.125
309
GRIDFORMAT_END
 95
        2
302
GRIDFORMAT
  1
GRIDFORMAT_BEGIN
 90
        0
 91
        1
 62
     0
 92
       -2
340
14
 93
        0
 40
1.125
309
GRIDFORMAT_END
 95
        4
302
GRIDFORMAT
  1
GRIDFORMAT_BEGIN
 90
        0
 91
        1
 62
     0
 92
       -2
340
14
 93
        0
 40
1.125
309
GRIDFORMAT_END
 95
        8
302
GRIDFORMAT
  1
GRIDFORMAT_BEGIN
 90
        0
 91
        1
 62
     0
 92
       -2
340
14
 93
        0
 40
1.125
309
GRIDFORMAT_END
 95
       16
302
GRIDFORMAT
  1
GRIDFORMAT_BEGIN
 90
        0
 91
        1
 62
     0
 92
       -2
340
14
 93
        0
 40
1.125
309
GRIDFORMAT_END
 95
       32
302
GRIDFORMAT
  1
GRIDFORMAT_BEGIN
 90
        0
 91
        1
 62
     0
 92
       -2
340
14
 93
        0
 40
1.125
309
GRIDFORMAT_END
309
TABLEFORMAT_END
  1
CELLSTYLE_BEGIN
 90
        3
 91
        2
300
_DATA
309
CELLSTYLE_END
  0
XRECORD
  5
118BC
102
{ACAD_REACTORS
330
162
102
}
330
162
100
AcDbXrecord
280
     1
102
ACAD_ROUNDTRIP_PRE2007_TABLESTYLE
 90
      512
 91
        0
  1

 92
      512
 93
        0
  2

 94
      512
 95
        0
  3

  0
XRECORD
  5
118CF
102
{ACAD_REACTORS
330
118CE
102
}
330
118CE
100
AcDbXrecord
280
     1
102
RTVSPost2010Prop28
280
     1
102
RTVSPost2010PropOp28
 70
     1
102
RTVSPost2010Prop29
280
     1
102
RTVSPost2010PropOp29
 70
     1
102
RTVSPost2010Prop30
280
     0
102
RTVSPost2010PropOp30
 70
     1
102
RTVSPost2010Prop31
280
     0
102
RTVSPost2010PropOp31
 70
     1
102
RTVSPost2010Prop32
280
     0
102
RTVSPost2010PropOp32
 70
     1
102
RTVSPost2010Prop33
280
     0
102
RTVSPost2010PropOp33
 70
     1
102
RTVSPost2010Prop34
280
     0
102
RTVSPost2010PropOp34
 70
     1
102
RTVSPost2010Prop35
280
     0
102
RTVSPost2010PropOp35
 70
     1
102
RTVSPost2010Prop36
280
     0
102
RTVSPost2010PropOp36
 70
     1
102
RTVSPost2010Prop37
 90
       50
102
RTVSPost2010PropOp37
 70
     1
102
RTVSPost2010Prop38
140
0.0
102
RTVSPost2010PropOp38
 70
     1
102
RTVSPost2010Prop39
140
1.0
102
RTVSPost2010PropOp39
 70
     1
102
RTVSPost2010Prop40
 90
        0
102
RTVSPost2010PropOp40
 70
     1
102
RTVSPost2010Prop41ColorIndex
 90
       18
102
RTVSPost2010Prop41ColorRGB
 90
        0
102
RTVSPost2010PropOp41
 70
     1
102
RTVSPost2010Prop42
 90
       50
102
RTVSPost2010PropOp42
 70
     1
102
RTVSPost2010Prop43
 90
        3
102
RTVSPost2010PropOp43
 70
     1
102
RTVSPost2010Prop44ColorIndex
 90
        5
102
RTVSPost2010Prop44ColorRGB
 90
      255
102
RTVSPost2010PropOp44
 70
     1
102
RTVSPost2010Prop45
280
     0
102
RTVSPost2010PropOp45
 70
     1
102
RTVSPost2010Prop46
 90
       50
102
RTVSPost2010PropOp46
 70
     1
102
RTVSPost2010Prop47
 90
       50
102
RTVSPost2010PropOp47
 70
     1
102
RTVSPost2010Prop48
 90
       50
102
RTVSPost2010PropOp48
 70
     1
102
RTVSPost2010Prop49
280
     0
102
RTVSPost2010PropOp49
 70
     1
102
RTVSPost2010Prop50
 90
       50
102
RTVSPost2010PropOp50
 70
     1
102
RTVSPost2010Prop51ColorIndex
 90
      256
102
RTVSPost2010Prop51ColorRGB
 90
-16777216
102
RTVSPost2010PropOp51
 70
     0
102
RTVSPost2010Prop52
140
1.0
102
RTVSPost2010PropOp52
 70
     0
102
RTVSPost2010Prop53
 90
        2
102
RTVSPost2010PropOp53
 70
     1
102
RTVSPost2010Prop54
  1
strokes_ogs.tif
102
RTVSPost2010PropOp54
 70
     1
102
RTVSPost2010Prop55
280
     0
102
RTVSPost2010PropOp55
 70
     1
102
RTVSPost2010Prop56
140
1.0
102
RTVSPost2010PropOp56
 70
     1
102
RTVSPost2010Prop57
140
1.0
102
RTVSPost2010PropOp57
 70
     1
102
RTVSPropertyOp0
 70
     1
102
RTVSPropertyOp1
 70
     1
102
RTVSPropertyOp2
 70
     1
102
RTVSPropertyOp3
 70
     1
102
RTVSPropertyOp4
 70
     1
102
RTVSPropertyOp5
 70
     1
102
RTVSPropertyOp6
 70
     1
102
RTVSPropertyOp7
 70
     1
102
RTVSPropertyOp8
 70
     1
102
RTVSPropertyOp9
 70
     1
102
RTVSPropertyOp10
 70
     1
102
RTVSPropertyOp11
 70
     1
102
RTVSPropertyOp12
 70
     1
102
RTVSPropertyOp13
 70
     1
102
RTVSPropertyOp14
 70
     1
102
RTVSPropertyOp15
 70
     1
102
RTVSPropertyOp16
 70
     1
102
RTVSPropertyOp17
 70
     1
102
RTVSPropertyOp18
 70
     1
102
RTVSPropertyOp19
 70
     1
102
RTVSPropertyOp20
 70
     1
102
RTVSPropertyOp21
 70
     1
102
RTVSPropertyOp22
 70
     1
102
RTVSPropertyOp23
 70
     1
102
RTVSPropertyOp24
 70
     1
102
RTVSPropertyOp25
 70
     1
102
RTVSPropertyOp26
 70
     1
102
RTVSPropertyOp27
 70
     1
102
RTVSPropertyOp28
 70
     1
102
RTVSPropertyOp29
 70
     1
102
RTVSPropertyOp30
 70
     1
102
RTVSPropertyOp31
 70
     1
102
RTVSPropertyOp32
 70
     1
102
RTVSPropertyOp33
 70
     1
102
RTVSPropertyOp34
 70
     1
102
RTVSPropertyOp35
 70
     1
102
RTVSPropertyOp36
 70
     1
102
RTVSPropertyOp37
 70
     1
102
RTVSPropertyOp38
 70
     1
102
RTVSPropertyOp39
 70
     1
102
RTVSPropertyOp40
 70
     1
102
RTVSPropertyOp41
 70
     1
102
RTVSPropertyOp42
 70
     1
102
RTVSPropertyOp43
 70
     1
102
RTVSPropertyOp44
 70
     1
102
RTVSPropertyOp45
 70
     1
102
RTVSPropertyOp46
 70
     1
102
RTVSPropertyOp47
 70
     1
102
RTVSPropertyOp48
 70
     1
102
RTVSPropertyOp49
 70
     1
102
RTVSPropertyOp50
 70
     1
102
RTVSPropertyOp51
 70
     0
102
RTVSPropertyOp52
 70
     0
102
RTVSPropertyOp53
 70
     1
102
RTVSPropertyOp54
 70
     1
102
RTVSPropertyOp55
 70
     1
102
RTVSPropertyOp56
 70
     1
102
RTVSPropertyOp57
 70
     1
102
RTVSPropertyOp58
 70
     1
102
RTVSPropertyOp59
 70
     1
102
RTVSPropertyOp60
 70
     1
102
RTVSPropertyOp61
 70
     1
102
RTVSPropertyOp62
 70
     1
  0
XRECORD
  5
118CD
102
{ACAD_REACTORS
330
118CC
102
}
330
118CC
100
AcDbXrecord
280
     1
102
RTVSPost2010Prop28
280
     0
102
RTVSPost2010PropOp28
 70
     1
102
RTVSPost2010Prop29
280
     1
102
RTVSPost2010PropOp29
 70
     1
102
RTVSPost2010Prop30
280
     1
102
RTVSPost2010PropOp30
 70
     1
102
RTVSPost2010Prop31
280
     0
102
RTVSPost2010PropOp31
 70
     1
102
RTVSPost2010Prop32
280
     0
102
RTVSPost2010PropOp32
 70
     1
102
RTVSPost2010Prop33
280
     0
102
RTVSPost2010PropOp33
 70
     1
102
RTVSPost2010Prop34
280
     0
102
RTVSPost2010PropOp34
 70
     1
102
RTVSPost2010Prop35
280
     0
102
RTVSPost2010PropOp35
 70
     1
102
RTVSPost2010Prop36
280
     0
102
RTVSPost2010PropOp36
 70
     1
102
RTVSPost2010Prop37
 90
       50
102
RTVSPost2010PropOp37
 70
     1
102
RTVSPost2010Prop38
140
0.0
102
RTVSPost2010PropOp38
 70
     1
102
RTVSPost2010Prop39
140
1.0
102
RTVSPost2010PropOp39
 70
     1
102
RTVSPost2010Prop40
 90
        0
102
RTVSPost2010PropOp40
 70
     1
102
RTVSPost2010Prop41ColorIndex
 90
       18
102
RTVSPost2010Prop41ColorRGB
 90
        0
102
RTVSPost2010PropOp41
 70
     1
102
RTVSPost2010Prop42
 90
       50
102
RTVSPost2010PropOp42
 70
     1
102
RTVSPost2010Prop43
 90
        3
102
RTVSPost2010PropOp43
 70
     1
102
RTVSPost2010Prop44ColorIndex
 90
        5
102
RTVSPost2010Prop44ColorRGB
 90
      255
102
RTVSPost2010PropOp44
 70
     1
102
RTVSPost2010Prop45
280
     0
102
RTVSPost2010PropOp45
 70
     1
102
RTVSPost2010Prop46
 90
       50
102
RTVSPost2010PropOp46
 70
     1
102
RTVSPost2010Prop47
 90
       50
102
RTVSPost2010PropOp47
 70
     1
102
RTVSPost2010Prop48
 90
       50
102
RTVSPost2010PropOp48
 70
     1
102
RTVSPost2010Prop49
280
     0
102
RTVSPost2010PropOp49
 70
     1
102
RTVSPost2010Prop50
 90
       50
102
RTVSPost2010PropOp50
 70
     1
102
RTVSPost2010Prop51ColorIndex
 90
      256
102
RTVSPost2010Prop51ColorRGB
 90
-16777216
102
RTVSPost2010PropOp51
 70
     0
102
RTVSPost2010Prop52
140
1.0
102
RTVSPost2010PropOp52
 70
     0
102
RTVSPost2010Prop53
 90
        2
102
RTVSPost2010PropOp53
 70
     1
102
RTVSPost2010Prop54
  1
strokes_ogs.tif
102
RTVSPost2010PropOp54
 70
     1
102
RTVSPost2010Prop55
280
     0
102
RTVSPost2010PropOp55
 70
     1
102
RTVSPost2010Prop56
140
1.0
102
RTVSPost2010PropOp56
 70
     1
102
RTVSPost2010Prop57
140
1.0
102
RTVSPost2010PropOp57
 70
     1
102
RTVSPropertyOp0
 70
     1
102
RTVSPropertyOp1
 70
     1
102
RTVSPropertyOp2
 70
     1
102
RTVSPropertyOp3
 70
     1
102
RTVSPropertyOp4
 70
     1
102
RTVSPropertyOp5
 70
     1
102
RTVSPropertyOp6
 70
     1
102
RTVSPropertyOp7
 70
     1
102
RTVSPropertyOp8
 70
     1
102
RTVSPropertyOp9
 70
     1
102
RTVSPropertyOp10
 70
     1
102
RTVSPropertyOp11
 70
     1
102
RTVSPropertyOp12
 70
     1
102
RTVSPropertyOp13
 70
     1
102
RTVSPropertyOp14
 70
     1
102
RTVSPropertyOp15
 70
     1
102
RTVSPropertyOp16
 70
     1
102
RTVSPropertyOp17
 70
     1
102
RTVSPropertyOp18
 70
     1
102
RTVSPropertyOp19
 70
     1
102
RTVSPropertyOp20
 70
     1
102
RTVSPropertyOp21
 70
     1
102
RTVSPropertyOp22
 70
     1
102
RTVSPropertyOp23
 70
     1
102
RTVSPropertyOp24
 70
     1
102
RTVSPropertyOp25
 70
     1
102
RTVSPropertyOp26
 70
     1
102
RTVSPropertyOp27
 70
     1
102
RTVSPropertyOp28
 70
     1
102
RTVSPropertyOp29
 70
     1
102
RTVSPropertyOp30
 70
     1
102
RTVSPropertyOp31
 70
     1
102
RTVSPropertyOp32
 70
     1
102
RTVSPropertyOp33
 70
     1
102
RTVSPropertyOp34
 70
     1
102
RTVSPropertyOp35
 70
     1
102
RTVSPropertyOp36
 70
     1
102
RTVSPropertyOp37
 70
     1
102
RTVSPropertyOp38
 70
     1
102
RTVSPropertyOp39
 70
     1
102
RTVSPropertyOp40
 70
     1
102
RTVSPropertyOp41
 70
     1
102
RTVSPropertyOp42
 70
     1
102
RTVSPropertyOp43
 70
     1
102
RTVSPropertyOp44
 70
     1
102
RTVSPropertyOp45
 70
     1
102
RTVSPropertyOp46
 70
     1
102
RTVSPropertyOp47
 70
     1
102
RTVSPropertyOp48
 70
     1
102
RTVSPropertyOp49
 70
     1
102
RTVSPropertyOp50
 70
     1
102
RTVSPropertyOp51
 70
     0
102
RTVSPropertyOp52
 70
     0
102
RTVSPropertyOp53
 70
     1
102
RTVSPropertyOp54
 70
     1
102
RTVSPropertyOp55
 70
     1
102
RTVSPropertyOp56
 70
     1
102
RTVSPropertyOp57
 70
     1
102
RTVSPropertyOp58
 70
     1
102
RTVSPropertyOp59
 70
     1
102
RTVSPropertyOp60
 70
     1
102
RTVSPropertyOp61
 70
     1
102
RTVSPropertyOp62
 70
     1
  0
XRECORD
  5
118DB
102
{ACAD_REACTORS
330
118DA
102
}
330
118DA
100
AcDbXrecord
280
     1
102
RTVSPost2010Prop28
280
     0
102
RTVSPost2010PropOp28
 70
     1
102
RTVSPost2010Prop29
280
     1
102
RTVSPost2010PropOp29
 70
     1
102
RTVSPost2010Prop30
280
     1
102
RTVSPost2010PropOp30
 70
     1
102
RTVSPost2010Prop31
280
     0
102
RTVSPost2010PropOp31
 70
     1
102
RTVSPost2010Prop32
280
     0
102
RTVSPost2010PropOp32
 70
     1
102
RTVSPost2010Prop33
280
     0
102
RTVSPost2010PropOp33
 70
     1
102
RTVSPost2010Prop34
280
     0
102
RTVSPost2010PropOp34
 70
     1
102
RTVSPost2010Prop35
280
     0
102
RTVSPost2010PropOp35
 70
     1
102
RTVSPost2010Prop36
280
     0
102
RTVSPost2010PropOp36
 70
     1
102
RTVSPost2010Prop37
 90
       50
102
RTVSPost2010PropOp37
 70
     1
102
RTVSPost2010Prop38
140
0.0
102
RTVSPost2010PropOp38
 70
     1
102
RTVSPost2010Prop39
140
1.0
102
RTVSPost2010PropOp39
 70
     1
102
RTVSPost2010Prop40
 90
        0
102
RTVSPost2010PropOp40
 70
     1
102
RTVSPost2010Prop41ColorIndex
 90
       18
102
RTVSPost2010Prop41ColorRGB
 90
        0
102
RTVSPost2010PropOp41
 70
     1
102
RTVSPost2010Prop42
 90
       50
102
RTVSPost2010PropOp42
 70
     1
102
RTVSPost2010Prop43
 90
        3
102
RTVSPost2010PropOp43
 70
     1
102
RTVSPost2010Prop44ColorIndex
 90
        5
102
RTVSPost2010Prop44ColorRGB
 90
      255
102
RTVSPost2010PropOp44
 70
     1
102
RTVSPost2010Prop45
280
     0
102
RTVSPost2010PropOp45
 70
     1
102
RTVSPost2010Prop46
 90
       50
102
RTVSPost2010PropOp46
 70
     1
102
RTVSPost2010Prop47
 90
       50
102
RTVSPost2010PropOp47
 70
     1
102
RTVSPost2010Prop48
 90
       50
102
RTVSPost2010PropOp48
 70
     1
102
RTVSPost2010Prop49
280
     0
102
RTVSPost2010PropOp49
 70
     1
102
RTVSPost2010Prop50
 90
       50
102
RTVSPost2010PropOp50
 70
     1
102
RTVSPost2010Prop51ColorIndex
 90
      256
102
RTVSPost2010Prop51ColorRGB
 90
-16777216
102
RTVSPost2010PropOp51
 70
     0
102
RTVSPost2010Prop52
140
1.0
102
RTVSPost2010PropOp52
 70
     0
102
RTVSPost2010Prop53
 90
        2
102
RTVSPost2010PropOp53
 70
     1
102
RTVSPost2010Prop54
  1
strokes_ogs.tif
102
RTVSPost2010PropOp54
 70
     1
102
RTVSPost2010Prop55
280
     0
102
RTVSPost2010PropOp55
 70
     1
102
RTVSPost2010Prop56
140
1.0
102
RTVSPost2010PropOp56
 70
     1
102
RTVSPost2010Prop57
140
1.0
102
RTVSPost2010PropOp57
 70
     1
102
RTVSPropertyOp0
 70
     1
102
RTVSPropertyOp1
 70
     1
102
RTVSPropertyOp2
 70
     1
102
RTVSPropertyOp3
 70
     1
102
RTVSPropertyOp4
 70
     1
102
RTVSPropertyOp5
 70
     1
102
RTVSPropertyOp6
 70
     1
102
RTVSPropertyOp7
 70
     1
102
RTVSPropertyOp8
 70
     1
102
RTVSPropertyOp9
 70
     1
102
RTVSPropertyOp10
 70
     1
102
RTVSPropertyOp11
 70
     1
102
RTVSPropertyOp12
 70
     1
102
RTVSPropertyOp13
 70
     1
102
RTVSPropertyOp14
 70
     1
102
RTVSPropertyOp15
 70
     1
102
RTVSPropertyOp16
 70
     1
102
RTVSPropertyOp17
 70
     1
102
RTVSPropertyOp18
 70
     1
102
RTVSPropertyOp19
 70
     1
102
RTVSPropertyOp20
 70
     1
102
RTVSPropertyOp21
 70
     1
102
RTVSPropertyOp22
 70
     1
102
RTVSPropertyOp23
 70
     1
102
RTVSPropertyOp24
 70
     1
102
RTVSPropertyOp25
 70
     1
102
RTVSPropertyOp26
 70
     1
102
RTVSPropertyOp27
 70
     1
102
RTVSPropertyOp28
 70
     1
102
RTVSPropertyOp29
 70
     1
102
RTVSPropertyOp30
 70
     1
102
RTVSPropertyOp31
 70
     1
102
RTVSPropertyOp32
 70
     1
102
RTVSPropertyOp33
 70
     1
102
RTVSPropertyOp34
 70
     1
102
RTVSPropertyOp35
 70
     1
102
RTVSPropertyOp36
 70
     1
102
RTVSPropertyOp37
 70
     1
102
RTVSPropertyOp38
 70
     1
102
RTVSPropertyOp39
 70
     1
102
RTVSPropertyOp40
 70
     1
102
RTVSPropertyOp41
 70
     1
102
RTVSPropertyOp42
 70
     1
102
RTVSPropertyOp43
 70
     1
102
RTVSPropertyOp44
 70
     1
102
RTVSPropertyOp45
 70
     1
102
RTVSPropertyOp46
 70
     1
102
RTVSPropertyOp47
 70
     1
102
RTVSPropertyOp48
 70
     1
102
RTVSPropertyOp49
 70
     1
102
RTVSPropertyOp50
 70
     1
102
RTVSPropertyOp51
 70
     0
102
RTVSPropertyOp52
 70
     0
102
RTVSPropertyOp53
 70
     1
102
RTVSPropertyOp54
 70
     1
102
RTVSPropertyOp55
 70
     1
102
RTVSPropertyOp56
 70
     1
102
RTVSPropertyOp57
 70
     1
102
RTVSPropertyOp58
 70
     1
102
RTVSPropertyOp59
 70
     1
102
RTVSPropertyOp60
 70
     1
102
RTVSPropertyOp61
 70
     1
102
RTVSPropertyOp62
 70
     1
  0
XRECORD
  5
118E3
102
{ACAD_REACTORS
330
118E2
102
}
330
118E2
100
AcDbXrecord
280
     1
102
RTVSPost2010Prop28
280
     0
102
RTVSPost2010PropOp28
 70
     1
102
RTVSPost2010Prop29
280
     1
102
RTVSPost2010PropOp29
 70
     1
102
RTVSPost2010Prop30
280
     1
102
RTVSPost2010PropOp30
 70
     1
102
RTVSPost2010Prop31
280
     0
102
RTVSPost2010PropOp31
 70
     1
102
RTVSPost2010Prop32
280
     0
102
RTVSPost2010PropOp32
 70
     1
102
RTVSPost2010Prop33
280
     0
102
RTVSPost2010PropOp33
 70
     1
102
RTVSPost2010Prop34
280
     0
102
RTVSPost2010PropOp34
 70
     1
102
RTVSPost2010Prop35
280
     0
102
RTVSPost2010PropOp35
 70
     1
102
RTVSPost2010Prop36
280
     0
102
RTVSPost2010PropOp36
 70
     1
102
RTVSPost2010Prop37
 90
       50
102
RTVSPost2010PropOp37
 70
     1
102
RTVSPost2010Prop38
140
0.0
102
RTVSPost2010PropOp38
 70
     1
102
RTVSPost2010Prop39
140
1.0
102
RTVSPost2010PropOp39
 70
     1
102
RTVSPost2010Prop40
 90
        0
102
RTVSPost2010PropOp40
 70
     1
102
RTVSPost2010Prop41ColorIndex
 90
       18
102
RTVSPost2010Prop41ColorRGB
 90
        0
102
RTVSPost2010PropOp41
 70
     1
102
RTVSPost2010Prop42
 90
       50
102
RTVSPost2010PropOp42
 70
     1
102
RTVSPost2010Prop43
 90
        3
102
RTVSPost2010PropOp43
 70
     1
102
RTVSPost2010Prop44ColorIndex
 90
        5
102
RTVSPost2010Prop44ColorRGB
 90
      255
102
RTVSPost2010PropOp44
 70
     1
102
RTVSPost2010Prop45
280
     0
102
RTVSPost2010PropOp45
 70
     1
102
RTVSPost2010Prop46
 90
       50
102
RTVSPost2010PropOp46
 70
     1
102
RTVSPost2010Prop47
 90
       50
102
RTVSPost2010PropOp47
 70
     1
102
RTVSPost2010Prop48
 90
       50
102
RTVSPost2010PropOp48
 70
     1
102
RTVSPost2010Prop49
280
     0
102
RTVSPost2010PropOp49
 70
     1
102
RTVSPost2010Prop50
 90
       50
102
RTVSPost2010PropOp50
 70
     1
102
RTVSPost2010Prop51ColorIndex
 90
      256
102
RTVSPost2010Prop51ColorRGB
 90
-16777216
102
RTVSPost2010PropOp51
 70
     0
102
RTVSPost2010Prop52
140
1.0
102
RTVSPost2010PropOp52
 70
     0
102
RTVSPost2010Prop53
 90
        2
102
RTVSPost2010PropOp53
 70
     1
102
RTVSPost2010Prop54
  1
strokes_ogs.tif
102
RTVSPost2010PropOp54
 70
     1
102
RTVSPost2010Prop55
280
     0
102
RTVSPost2010PropOp55
 70
     1
102
RTVSPost2010Prop56
140
1.0
102
RTVSPost2010PropOp56
 70
     1
102
RTVSPost2010Prop57
140
1.0
102
RTVSPost2010PropOp57
 70
     1
102
RTVSPropertyOp0
 70
     1
102
RTVSPropertyOp1
 70
     1
102
RTVSPropertyOp2
 70
     1
102
RTVSPropertyOp3
 70
     1
102
RTVSPropertyOp4
 70
     1
102
RTVSPropertyOp5
 70
     1
102
RTVSPropertyOp6
 70
     1
102
RTVSPropertyOp7
 70
     1
102
RTVSPropertyOp8
 70
     1
102
RTVSPropertyOp9
 70
     1
102
RTVSPropertyOp10
 70
     1
102
RTVSPropertyOp11
 70
     1
102
RTVSPropertyOp12
 70
     1
102
RTVSPropertyOp13
 70
     1
102
RTVSPropertyOp14
 70
     1
102
RTVSPropertyOp15
 70
     1
102
RTVSPropertyOp16
 70
     1
102
RTVSPropertyOp17
 70
     1
102
RTVSPropertyOp18
 70
     1
102
RTVSPropertyOp19
 70
     1
102
RTVSPropertyOp20
 70
     1
102
RTVSPropertyOp21
 70
     1
102
RTVSPropertyOp22
 70
     1
102
RTVSPropertyOp23
 70
     1
102
RTVSPropertyOp24
 70
     1
102
RTVSPropertyOp25
 70
     1
102
RTVSPropertyOp26
 70
     1
102
RTVSPropertyOp27
 70
     1
102
RTVSPropertyOp28
 70
     1
102
RTVSPropertyOp29
 70
     1
102
RTVSPropertyOp30
 70
     1
102
RTVSPropertyOp31
 70
     1
102
RTVSPropertyOp32
 70
     1
102
RTVSPropertyOp33
 70
     1
102
RTVSPropertyOp34
 70
     1
102
RTVSPropertyOp35
 70
     1
102
RTVSPropertyOp36
 70
     1
102
RTVSPropertyOp37
 70
     1
102
RTVSPropertyOp38
 70
     1
102
RTVSPropertyOp39
 70
     1
102
RTVSPropertyOp40
 70
     1
102
RTVSPropertyOp41
 70
     1
102
RTVSPropertyOp42
 70
     1
102
RTVSPropertyOp43
 70
     1
102
RTVSPropertyOp44
 70
     1
102
RTVSPropertyOp45
 70
     1
102
RTVSPropertyOp46
 70
     1
102
RTVSPropertyOp47
 70
     1
102
RTVSPropertyOp48
 70
     1
102
RTVSPropertyOp49
 70
     1
102
RTVSPropertyOp50
 70
     1
102
RTVSPropertyOp51
 70
     0
102
RTVSPropertyOp52
 70
     0
102
RTVSPropertyOp53
 70
     1
102
RTVSPropertyOp54
 70
     1
102
RTVSPropertyOp55
 70
     1
102
RTVSPropertyOp56
 70
     1
102
RTVSPropertyOp57
 70
     1
102
RTVSPropertyOp58
 70
     1
102
RTVSPropertyOp59
 70
     1
102
RTVSPropertyOp60
 70
     1
102
RTVSPropertyOp61
 70
     1
102
RTVSPropertyOp62
 70
     1
  0
XRECORD
  5
118D5
102
{ACAD_REACTORS
330
118D4
102
}
330
118D4
100
AcDbXrecord
280
     1
102
RTVSPost2010Prop28
280
     0
102
RTVSPost2010PropOp28
 70
     1
102
RTVSPost2010Prop29
280
     1
102
RTVSPost2010PropOp29
 70
     1
102
RTVSPost2010Prop30
280
     1
102
RTVSPost2010PropOp30
 70
     1
102
RTVSPost2010Prop31
280
     0
102
RTVSPost2010PropOp31
 70
     1
102
RTVSPost2010Prop32
280
     0
102
RTVSPost2010PropOp32
 70
     1
102
RTVSPost2010Prop33
280
     0
102
RTVSPost2010PropOp33
 70
     1
102
RTVSPost2010Prop34
280
     0
102
RTVSPost2010PropOp34
 70
     1
102
RTVSPost2010Prop35
280
     0
102
RTVSPost2010PropOp35
 70
     1
102
RTVSPost2010Prop36
280
     0
102
RTVSPost2010PropOp36
 70
     1
102
RTVSPost2010Prop37
 90
       50
102
RTVSPost2010PropOp37
 70
     1
102
RTVSPost2010Prop38
140
0.0
102
RTVSPost2010PropOp38
 70
     1
102
RTVSPost2010Prop39
140
1.0
102
RTVSPost2010PropOp39
 70
     1
102
RTVSPost2010Prop40
 90
        0
102
RTVSPost2010PropOp40
 70
     1
102
RTVSPost2010Prop41ColorIndex
 90
       18
102
RTVSPost2010Prop41ColorRGB
 90
        0
102
RTVSPost2010PropOp41
 70
     1
102
RTVSPost2010Prop42
 90
       50
102
RTVSPost2010PropOp42
 70
     1
102
RTVSPost2010Prop43
 90
        3
102
RTVSPost2010PropOp43
 70
     1
102
RTVSPost2010Prop44ColorIndex
 90
        5
102
RTVSPost2010Prop44ColorRGB
 90
      255
102
RTVSPost2010PropOp44
 70
     1
102
RTVSPost2010Prop45
280
     0
102
RTVSPost2010PropOp45
 70
     1
102
RTVSPost2010Prop46
 90
       50
102
RTVSPost2010PropOp46
 70
     1
102
RTVSPost2010Prop47
 90
       50
102
RTVSPost2010PropOp47
 70
     1
102
RTVSPost2010Prop48
 90
       50
102
RTVSPost2010PropOp48
 70
     1
102
RTVSPost2010Prop49
280
     0
102
RTVSPost2010PropOp49
 70
     1
102
RTVSPost2010Prop50
 90
       50
102
RTVSPost2010PropOp50
 70
     1
102
RTVSPost2010Prop51ColorIndex
 90
      256
102
RTVSPost2010Prop51ColorRGB
 90
-16777216
102
RTVSPost2010PropOp51
 70
     0
102
RTVSPost2010Prop52
140
1.0
102
RTVSPost2010PropOp52
 70
     0
102
RTVSPost2010Prop53
 90
        2
102
RTVSPost2010PropOp53
 70
     1
102
RTVSPost2010Prop54
  1
strokes_ogs.tif
102
RTVSPost2010PropOp54
 70
     1
102
RTVSPost2010Prop55
280
     0
102
RTVSPost2010PropOp55
 70
     1
102
RTVSPost2010Prop56
140
1.0
102
RTVSPost2010PropOp56
 70
     1
102
RTVSPost2010Prop57
140
1.0
102
RTVSPost2010PropOp57
 70
     1
102
RTVSPropertyOp0
 70
     1
102
RTVSPropertyOp1
 70
     1
102
RTVSPropertyOp2
 70
     1
102
RTVSPropertyOp3
 70
     1
102
RTVSPropertyOp4
 70
     1
102
RTVSPropertyOp5
 70
     1
102
RTVSPropertyOp6
 70
     1
102
RTVSPropertyOp7
 70
     1
102
RTVSPropertyOp8
 70
     1
102
RTVSPropertyOp9
 70
     1
102
RTVSPropertyOp10
 70
     1
102
RTVSPropertyOp11
 70
     1
102
RTVSPropertyOp12
 70
     1
102
RTVSPropertyOp13
 70
     1
102
RTVSPropertyOp14
 70
     1
102
RTVSPropertyOp15
 70
     1
102
RTVSPropertyOp16
 70
     1
102
RTVSPropertyOp17
 70
     1
102
RTVSPropertyOp18
 70
     1
102
RTVSPropertyOp19
 70
     1
102
RTVSPropertyOp20
 70
     1
102
RTVSPropertyOp21
 70
     1
102
RTVSPropertyOp22
 70
     1
102
RTVSPropertyOp23
 70
     1
102
RTVSPropertyOp24
 70
     1
102
RTVSPropertyOp25
 70
     1
102
RTVSPropertyOp26
 70
     1
102
RTVSPropertyOp27
 70
     1
102
RTVSPropertyOp28
 70
     1
102
RTVSPropertyOp29
 70
     1
102
RTVSPropertyOp30
 70
     1
102
RTVSPropertyOp31
 70
     1
102
RTVSPropertyOp32
 70
     1
102
RTVSPropertyOp33
 70
     1
102
RTVSPropertyOp34
 70
     1
102
RTVSPropertyOp35
 70
     1
102
RTVSPropertyOp36
 70
     1
102
RTVSPropertyOp37
 70
     1
102
RTVSPropertyOp38
 70
     1
102
RTVSPropertyOp39
 70
     1
102
RTVSPropertyOp40
 70
     1
102
RTVSPropertyOp41
 70
     1
102
RTVSPropertyOp42
 70
     1
102
RTVSPropertyOp43
 70
     1
102
RTVSPropertyOp44
 70
     1
102
RTVSPropertyOp45
 70
     1
102
RTVSPropertyOp46
 70
     1
102
RTVSPropertyOp47
 70
     1
102
RTVSPropertyOp48
 70
     1
102
RTVSPropertyOp49
 70
     1
102
RTVSPropertyOp50
 70
     1
102
RTVSPropertyOp51
 70
     0
102
RTVSPropertyOp52
 70
     0
102
RTVSPropertyOp53
 70
     1
102
RTVSPropertyOp54
 70
     1
102
RTVSPropertyOp55
 70
     1
102
RTVSPropertyOp56
 70
     1
102
RTVSPropertyOp57
 70
     1
102
RTVSPropertyOp58
 70
     1
102
RTVSPropertyOp59
 70
     1
102
RTVSPropertyOp60
 70
     1
102
RTVSPropertyOp61
 70
     1
102
RTVSPropertyOp62
 70
     1
  0
XRECORD
  5
118D9
102
{ACAD_REACTORS
330
118D8
102
}
330
118D8
100
AcDbXrecord
280
     1
102
RTVSPost2010Prop28
280
     0
102
RTVSPost2010PropOp28
 70
     1
102
RTVSPost2010Prop29
280
     1
102
RTVSPost2010PropOp29
 70
     1
102
RTVSPost2010Prop30
280
     1
102
RTVSPost2010PropOp30
 70
     1
102
RTVSPost2010Prop31
280
     0
102
RTVSPost2010PropOp31
 70
     1
102
RTVSPost2010Prop32
280
     0
102
RTVSPost2010PropOp32
 70
     1
102
RTVSPost2010Prop33
280
     0
102
RTVSPost2010PropOp33
 70
     1
102
RTVSPost2010Prop34
280
     0
102
RTVSPost2010PropOp34
 70
     1
102
RTVSPost2010Prop35
280
     0
102
RTVSPost2010PropOp35
 70
     1
102
RTVSPost2010Prop36
280
     0
102
RTVSPost2010PropOp36
 70
     1
102
RTVSPost2010Prop37
 90
       50
102
RTVSPost2010PropOp37
 70
     1
102
RTVSPost2010Prop38
140
0.0
102
RTVSPost2010PropOp38
 70
     1
102
RTVSPost2010Prop39
140
1.0
102
RTVSPost2010PropOp39
 70
     1
102
RTVSPost2010Prop40
 90
        0
102
RTVSPost2010PropOp40
 70
     1
102
RTVSPost2010Prop41ColorIndex
 90
       18
102
RTVSPost2010Prop41ColorRGB
 90
        0
102
RTVSPost2010PropOp41
 70
     1
102
RTVSPost2010Prop42
 90
       50
102
RTVSPost2010PropOp42
 70
     1
102
RTVSPost2010Prop43
 90
        3
102
RTVSPost2010PropOp43
 70
     1
102
RTVSPost2010Prop44ColorIndex
 90
        5
102
RTVSPost2010Prop44ColorRGB
 90
      255
102
RTVSPost2010PropOp44
 70
     1
102
RTVSPost2010Prop45
280
     0
102
RTVSPost2010PropOp45
 70
     1
102
RTVSPost2010Prop46
 90
       50
102
RTVSPost2010PropOp46
 70
     1
102
RTVSPost2010Prop47
 90
       50
102
RTVSPost2010PropOp47
 70
     1
102
RTVSPost2010Prop48
 90
       50
102
RTVSPost2010PropOp48
 70
     1
102
RTVSPost2010Prop49
280
     0
102
RTVSPost2010PropOp49
 70
     1
102
RTVSPost2010Prop50
 90
       50
102
RTVSPost2010PropOp50
 70
     1
102
RTVSPost2010Prop51ColorIndex
 90
      256
102
RTVSPost2010Prop51ColorRGB
 90
-16777216
102
RTVSPost2010PropOp51
 70
     0
102
RTVSPost2010Prop52
140
1.0
102
RTVSPost2010PropOp52
 70
     0
102
RTVSPost2010Prop53
 90
        2
102
RTVSPost2010PropOp53
 70
     1
102
RTVSPost2010Prop54
  1
strokes_ogs.tif
102
RTVSPost2010PropOp54
 70
     1
102
RTVSPost2010Prop55
280
     0
102
RTVSPost2010PropOp55
 70
     1
102
RTVSPost2010Prop56
140
1.0
102
RTVSPost2010PropOp56
 70
     1
102
RTVSPost2010Prop57
140
1.0
102
RTVSPost2010PropOp57
 70
     1
102
RTVSPropertyOp0
 70
     1
102
RTVSPropertyOp1
 70
     1
102
RTVSPropertyOp2
 70
     1
102
RTVSPropertyOp3
 70
     1
102
RTVSPropertyOp4
 70
     1
102
RTVSPropertyOp5
 70
     1
102
RTVSPropertyOp6
 70
     1
102
RTVSPropertyOp7
 70
     1
102
RTVSPropertyOp8
 70
     1
102
RTVSPropertyOp9
 70
     1
102
RTVSPropertyOp10
 70
     1
102
RTVSPropertyOp11
 70
     1
102
RTVSPropertyOp12
 70
     1
102
RTVSPropertyOp13
 70
     1
102
RTVSPropertyOp14
 70
     1
102
RTVSPropertyOp15
 70
     1
102
RTVSPropertyOp16
 70
     1
102
RTVSPropertyOp17
 70
     1
102
RTVSPropertyOp18
 70
     1
102
RTVSPropertyOp19
 70
     1
102
RTVSPropertyOp20
 70
     1
102
RTVSPropertyOp21
 70
     1
102
RTVSPropertyOp22
 70
     1
102
RTVSPropertyOp23
 70
     1
102
RTVSPropertyOp24
 70
     1
102
RTVSPropertyOp25
 70
     1
102
RTVSPropertyOp26
 70
     1
102
RTVSPropertyOp27
 70
     1
102
RTVSPropertyOp28
 70
     1
102
RTVSPropertyOp29
 70
     1
102
RTVSPropertyOp30
 70
     1
102
RTVSPropertyOp31
 70
     1
102
RTVSPropertyOp32
 70
     1
102
RTVSPropertyOp33
 70
     1
102
RTVSPropertyOp34
 70
     1
102
RTVSPropertyOp35
 70
     1
102
RTVSPropertyOp36
 70
     1
102
RTVSPropertyOp37
 70
     1
102
RTVSPropertyOp38
 70
     1
102
RTVSPropertyOp39
 70
     1
102
RTVSPropertyOp40
 70
     1
102
RTVSPropertyOp41
 70
     1
102
RTVSPropertyOp42
 70
     1
102
RTVSPropertyOp43
 70
     1
102
RTVSPropertyOp44
 70
     1
102
RTVSPropertyOp45
 70
     1
102
RTVSPropertyOp46
 70
     1
102
RTVSPropertyOp47
 70
     1
102
RTVSPropertyOp48
 70
     1
102
RTVSPropertyOp49
 70
     1
102
RTVSPropertyOp50
 70
     1
102
RTVSPropertyOp51
 70
     0
102
RTVSPropertyOp52
 70
     0
102
RTVSPropertyOp53
 70
     1
102
RTVSPropertyOp54
 70
     1
102
RTVSPropertyOp55
 70
     1
102
RTVSPropertyOp56
 70
     1
102
RTVSPropertyOp57
 70
     1
102
RTVSPropertyOp58
 70
     1
102
RTVSPropertyOp59
 70
     1
102
RTVSPropertyOp60
 70
     1
102
RTVSPropertyOp61
 70
     1
102
RTVSPropertyOp62
 70
     1
  0
XRECORD
  5
118EB
102
{ACAD_REACTORS
330
118EA
102
}
330
118EA
100
AcDbXrecord
280
     1
102
RTVSPost2010Prop28
280
     0
102
RTVSPost2010PropOp28
 70
     1
102
RTVSPost2010Prop29
280
     1
102
RTVSPost2010PropOp29
 70
     1
102
RTVSPost2010Prop30
280
     1
102
RTVSPost2010PropOp30
 70
     1
102
RTVSPost2010Prop31
280
     0
102
RTVSPost2010PropOp31
 70
     1
102
RTVSPost2010Prop32
280
     0
102
RTVSPost2010PropOp32
 70
     1
102
RTVSPost2010Prop33
280
     0
102
RTVSPost2010PropOp33
 70
     1
102
RTVSPost2010Prop34
280
     0
102
RTVSPost2010PropOp34
 70
     1
102
RTVSPost2010Prop35
280
     0
102
RTVSPost2010PropOp35
 70
     1
102
RTVSPost2010Prop36
280
     0
102
RTVSPost2010PropOp36
 70
     1
102
RTVSPost2010Prop37
 90
       50
102
RTVSPost2010PropOp37
 70
     1
102
RTVSPost2010Prop38
140
0.0
102
RTVSPost2010PropOp38
 70
     1
102
RTVSPost2010Prop39
140
1.0
102
RTVSPost2010PropOp39
 70
     1
102
RTVSPost2010Prop40
 90
        0
102
RTVSPost2010PropOp40
 70
     1
102
RTVSPost2010Prop41ColorIndex
 90
       18
102
RTVSPost2010Prop41ColorRGB
 90
        0
102
RTVSPost2010PropOp41
 70
     1
102
RTVSPost2010Prop42
 90
       50
102
RTVSPost2010PropOp42
 70
     1
102
RTVSPost2010Prop43
 90
        3
102
RTVSPost2010PropOp43
 70
     1
102
RTVSPost2010Prop44ColorIndex
 90
        5
102
RTVSPost2010Prop44ColorRGB
 90
      255
102
RTVSPost2010PropOp44
 70
     1
102
RTVSPost2010Prop45
280
     0
102
RTVSPost2010PropOp45
 70
     1
102
RTVSPost2010Prop46
 90
       50
102
RTVSPost2010PropOp46
 70
     1
102
RTVSPost2010Prop47
 90
       50
102
RTVSPost2010PropOp47
 70
     1
102
RTVSPost2010Prop48
 90
       50
102
RTVSPost2010PropOp48
 70
     1
102
RTVSPost2010Prop49
280
     0
102
RTVSPost2010PropOp49
 70
     1
102
RTVSPost2010Prop50
 90
       50
102
RTVSPost2010PropOp50
 70
     1
102
RTVSPost2010Prop51ColorIndex
 90
      256
102
RTVSPost2010Prop51ColorRGB
 90
-16777216
102
RTVSPost2010PropOp51
 70
     0
102
RTVSPost2010Prop52
140
1.0
102
RTVSPost2010PropOp52
 70
     0
102
RTVSPost2010Prop53
 90
        2
102
RTVSPost2010PropOp53
 70
     1
102
RTVSPost2010Prop54
  1
strokes_ogs.tif
102
RTVSPost2010PropOp54
 70
     1
102
RTVSPost2010Prop55
280
     0
102
RTVSPost2010PropOp55
 70
     1
102
RTVSPost2010Prop56
140
1.0
102
RTVSPost2010PropOp56
 70
     1
102
RTVSPost2010Prop57
140
1.0
102
RTVSPost2010PropOp57
 70
     1
102
RTVSPropertyOp0
 70
     0
102
RTVSPropertyOp1
 70
     0
102
RTVSPropertyOp2
 70
     0
102
RTVSPropertyOp3
 70
     0
102
RTVSPropertyOp4
 70
     0
102
RTVSPropertyOp5
 70
     0
102
RTVSPropertyOp6
 70
     0
102
RTVSPropertyOp7
 70
     0
102
RTVSPropertyOp8
 70
     0
102
RTVSPropertyOp9
 70
     0
102
RTVSPropertyOp10
 70
     0
102
RTVSPropertyOp11
 70
     0
102
RTVSPropertyOp12
 70
     0
102
RTVSPropertyOp13
 70
     0
102
RTVSPropertyOp14
 70
     2
102
RTVSPropertyOp15
 70
     0
102
RTVSPropertyOp16
 70
     0
102
RTVSPropertyOp17
 70
     0
102
RTVSPropertyOp18
 70
     0
102
RTVSPropertyOp19
 70
     0
102
RTVSPropertyOp20
 70
     0
102
RTVSPropertyOp21
 70
     0
102
RTVSPropertyOp22
 70
     0
102
RTVSPropertyOp23
 70
     0
102
RTVSPropertyOp24
 70
     0
102
RTVSPropertyOp25
 70
     0
102
RTVSPropertyOp26
 70
     0
102
RTVSPropertyOp27
 70
     0
102
RTVSPropertyOp28
 70
     1
102
RTVSPropertyOp29
 70
     1
102
RTVSPropertyOp30
 70
     1
102
RTVSPropertyOp31
 70
     1
102
RTVSPropertyOp32
 70
     1
102
RTVSPropertyOp33
 70
     1
102
RTVSPropertyOp34
 70
     1
102
RTVSPropertyOp35
 70
     1
102
RTVSPropertyOp36
 70
     1
102
RTVSPropertyOp37
 70
     1
102
RTVSPropertyOp38
 70
     1
102
RTVSPropertyOp39
 70
     1
102
RTVSPropertyOp40
 70
     1
102
RTVSPropertyOp41
 70
     1
102
RTVSPropertyOp42
 70
     1
102
RTVSPropertyOp43
 70
     1
102
RTVSPropertyOp44
 70
     1
102
RTVSPropertyOp45
 70
     1
102
RTVSPropertyOp46
 70
     1
102
RTVSPropertyOp47
 70
     1
102
RTVSPropertyOp48
 70
     1
102
RTVSPropertyOp49
 70
     1
102
RTVSPropertyOp50
 70
     1
102
RTVSPropertyOp51
 70
     0
102
RTVSPropertyOp52
 70
     0
102
RTVSPropertyOp53
 70
     1
102
RTVSPropertyOp54
 70
     1
102
RTVSPropertyOp55
 70
     1
102
RTVSPropertyOp56
 70
     1
102
RTVSPropertyOp57
 70
     1
102
RTVSPropertyOp58
 70
     1
102
RTVSPropertyOp59
 70
     1
102
RTVSPropertyOp60
 70
     1
102
RTVSPropertyOp61
 70
     1
102
RTVSPropertyOp62
 70
     1
  0
XRECORD
  5
118E1
102
{ACAD_REACTORS
330
118E0
102
}
330
118E0
100
AcDbXrecord
280
     1
102
RTVSPost2010Prop28
280
     0
102
RTVSPost2010PropOp28
 70
     1
102
RTVSPost2010Prop29
280
     1
102
RTVSPost2010PropOp29
 70
     1
102
RTVSPost2010Prop30
280
     1
102
RTVSPost2010PropOp30
 70
     1
102
RTVSPost2010Prop31
280
     0
102
RTVSPost2010PropOp31
 70
     1
102
RTVSPost2010Prop32
280
     0
102
RTVSPost2010PropOp32
 70
     1
102
RTVSPost2010Prop33
280
     0
102
RTVSPost2010PropOp33
 70
     1
102
RTVSPost2010Prop34
280
     0
102
RTVSPost2010PropOp34
 70
     1
102
RTVSPost2010Prop35
280
     0
102
RTVSPost2010PropOp35
 70
     1
102
RTVSPost2010Prop36
280
     0
102
RTVSPost2010PropOp36
 70
     1
102
RTVSPost2010Prop37
 90
       50
102
RTVSPost2010PropOp37
 70
     1
102
RTVSPost2010Prop38
140
0.0
102
RTVSPost2010PropOp38
 70
     1
102
RTVSPost2010Prop39
140
1.0
102
RTVSPost2010PropOp39
 70
     1
102
RTVSPost2010Prop40
 90
        0
102
RTVSPost2010PropOp40
 70
     1
102
RTVSPost2010Prop41ColorIndex
 90
       18
102
RTVSPost2010Prop41ColorRGB
 90
        0
102
RTVSPost2010PropOp41
 70
     1
102
RTVSPost2010Prop42
 90
       50
102
RTVSPost2010PropOp42
 70
     1
102
RTVSPost2010Prop43
 90
        3
102
RTVSPost2010PropOp43
 70
     1
102
RTVSPost2010Prop44ColorIndex
 90
        5
102
RTVSPost2010Prop44ColorRGB
 90
      255
102
RTVSPost2010PropOp44
 70
     1
102
RTVSPost2010Prop45
280
     0
102
RTVSPost2010PropOp45
 70
     1
102
RTVSPost2010Prop46
 90
       50
102
RTVSPost2010PropOp46
 70
     1
102
RTVSPost2010Prop47
 90
       50
102
RTVSPost2010PropOp47
 70
     1
102
RTVSPost2010Prop48
 90
       50
102
RTVSPost2010PropOp48
 70
     1
102
RTVSPost2010Prop49
280
     0
102
RTVSPost2010PropOp49
 70
     1
102
RTVSPost2010Prop50
 90
       50
102
RTVSPost2010PropOp50
 70
     1
102
RTVSPost2010Prop51ColorIndex
 90
      256
102
RTVSPost2010Prop51ColorRGB
 90
-16777216
102
RTVSPost2010PropOp51
 70
     0
102
RTVSPost2010Prop52
140
1.0
102
RTVSPost2010PropOp52
 70
     0
102
RTVSPost2010Prop53
 90
        2
102
RTVSPost2010PropOp53
 70
     1
102
RTVSPost2010Prop54
  1
strokes_ogs.tif
102
RTVSPost2010PropOp54
 70
     1
102
RTVSPost2010Prop55
280
     0
102
RTVSPost2010PropOp55
 70
     1
102
RTVSPost2010Prop56
140
1.0
102
RTVSPost2010PropOp56
 70
     1
102
RTVSPost2010Prop57
140
1.0
102
RTVSPost2010PropOp57
 70
     1
102
RTVSPropertyOp0
 70
     1
102
RTVSPropertyOp1
 70
     1
102
RTVSPropertyOp2
 70
     1
102
RTVSPropertyOp3
 70
     1
102
RTVSPropertyOp4
 70
     1
102
RTVSPropertyOp5
 70
     1
102
RTVSPropertyOp6
 70
     1
102
RTVSPropertyOp7
 70
     1
102
RTVSPropertyOp8
 70
     1
102
RTVSPropertyOp9
 70
     1
102
RTVSPropertyOp10
 70
     1
102
RTVSPropertyOp11
 70
     1
102
RTVSPropertyOp12
 70
     1
102
RTVSPropertyOp13
 70
     1
102
RTVSPropertyOp14
 70
     1
102
RTVSPropertyOp15
 70
     1
102
RTVSPropertyOp16
 70
     1
102
RTVSPropertyOp17
 70
     1
102
RTVSPropertyOp18
 70
     1
102
RTVSPropertyOp19
 70
     1
102
RTVSPropertyOp20
 70
     1
102
RTVSPropertyOp21
 70
     1
102
RTVSPropertyOp22
 70
     1
102
RTVSPropertyOp23
 70
     1
102
RTVSPropertyOp24
 70
     1
102
RTVSPropertyOp25
 70
     1
102
RTVSPropertyOp26
 70
     1
102
RTVSPropertyOp27
 70
     1
102
RTVSPropertyOp28
 70
     1
102
RTVSPropertyOp29
 70
     1
102
RTVSPropertyOp30
 70
     1
102
RTVSPropertyOp31
 70
     1
102
RTVSPropertyOp32
 70
     1
102
RTVSPropertyOp33
 70
     1
102
RTVSPropertyOp34
 70
     1
102
RTVSPropertyOp35
 70
     1
102
RTVSPropertyOp36
 70
     1
102
RTVSPropertyOp37
 70
     1
102
RTVSPropertyOp38
 70
     1
102
RTVSPropertyOp39
 70
     1
102
RTVSPropertyOp40
 70
     1
102
RTVSPropertyOp41
 70
     1
102
RTVSPropertyOp42
 70
     1
102
RTVSPropertyOp43
 70
     1
102
RTVSPropertyOp44
 70
     1
102
RTVSPropertyOp45
 70
     1
102
RTVSPropertyOp46
 70
     1
102
RTVSPropertyOp47
 70
     1
102
RTVSPropertyOp48
 70
     1
102
RTVSPropertyOp49
 70
     1
102
RTVSPropertyOp50
 70
     1
102
RTVSPropertyOp51
 70
     0
102
RTVSPropertyOp52
 70
     0
102
RTVSPropertyOp53
 70
     1
102
RTVSPropertyOp54
 70
     1
102
RTVSPropertyOp55
 70
     1
102
RTVSPropertyOp56
 70
     1
102
RTVSPropertyOp57
 70
     1
102
RTVSPropertyOp58
 70
     1
102
RTVSPropertyOp59
 70
     1
102
RTVSPropertyOp60
 70
     1
102
RTVSPropertyOp61
 70
     1
102
RTVSPropertyOp62
 70
     1
  0
XRECORD
  5
118C5
102
{ACAD_REACTORS
330
118C4
102
}
330
118C4
100
AcDbXrecord
280
     1
102
RTVSPost2010Prop28
280
     0
102
RTVSPost2010PropOp28
 70
     1
102
RTVSPost2010Prop29
280
     1
102
RTVSPost2010PropOp29
 70
     1
102
RTVSPost2010Prop30
280
     1
102
RTVSPost2010PropOp30
 70
     1
102
RTVSPost2010Prop31
280
     0
102
RTVSPost2010PropOp31
 70
     1
102
RTVSPost2010Prop32
280
     0
102
RTVSPost2010PropOp32
 70
     1
102
RTVSPost2010Prop33
280
     0
102
RTVSPost2010PropOp33
 70
     1
102
RTVSPost2010Prop34
280
     0
102
RTVSPost2010PropOp34
 70
     1
102
RTVSPost2010Prop35
280
     0
102
RTVSPost2010PropOp35
 70
     1
102
RTVSPost2010Prop36
280
     0
102
RTVSPost2010PropOp36
 70
     1
102
RTVSPost2010Prop37
 90
       50
102
RTVSPost2010PropOp37
 70
     1
102
RTVSPost2010Prop38
140
0.0
102
RTVSPost2010PropOp38
 70
     1
102
RTVSPost2010Prop39
140
1.0
102
RTVSPost2010PropOp39
 70
     1
102
RTVSPost2010Prop40
 90
        0
102
RTVSPost2010PropOp40
 70
     1
102
RTVSPost2010Prop41ColorIndex
 90
       18
102
RTVSPost2010Prop41ColorRGB
 90
        0
102
RTVSPost2010PropOp41
 70
     1
102
RTVSPost2010Prop42
 90
       50
102
RTVSPost2010PropOp42
 70
     1
102
RTVSPost2010Prop43
 90
        3
102
RTVSPost2010PropOp43
 70
     1
102
RTVSPost2010Prop44ColorIndex
 90
        5
102
RTVSPost2010Prop44ColorRGB
 90
      255
102
RTVSPost2010PropOp44
 70
     1
102
RTVSPost2010Prop45
280
     0
102
RTVSPost2010PropOp45
 70
     1
102
RTVSPost2010Prop46
 90
       50
102
RTVSPost2010PropOp46
 70
     1
102
RTVSPost2010Prop47
 90
       50
102
RTVSPost2010PropOp47
 70
     1
102
RTVSPost2010Prop48
 90
       50
102
RTVSPost2010PropOp48
 70
     1
102
RTVSPost2010Prop49
280
     0
102
RTVSPost2010PropOp49
 70
     1
102
RTVSPost2010Prop50
 90
       50
102
RTVSPost2010PropOp50
 70
     1
102
RTVSPost2010Prop51ColorIndex
 90
      256
102
RTVSPost2010Prop51ColorRGB
 90
-16777216
102
RTVSPost2010PropOp51
 70
     0
102
RTVSPost2010Prop52
140
1.0
102
RTVSPost2010PropOp52
 70
     0
102
RTVSPost2010Prop53
 90
        2
102
RTVSPost2010PropOp53
 70
     1
102
RTVSPost2010Prop54
  1
strokes_ogs.tif
102
RTVSPost2010PropOp54
 70
     1
102
RTVSPost2010Prop55
280
     0
102
RTVSPost2010PropOp55
 70
     1
102
RTVSPost2010Prop56
140
1.0
102
RTVSPost2010PropOp56
 70
     1
102
RTVSPost2010Prop57
140
1.0
102
RTVSPost2010PropOp57
 70
     1
102
RTVSPropertyOp0
 70
     1
102
RTVSPropertyOp1
 70
     1
102
RTVSPropertyOp2
 70
     1
102
RTVSPropertyOp3
 70
     1
102
RTVSPropertyOp4
 70
     1
102
RTVSPropertyOp5
 70
     1
102
RTVSPropertyOp6
 70
     1
102
RTVSPropertyOp7
 70
     1
102
RTVSPropertyOp8
 70
     1
102
RTVSPropertyOp9
 70
     1
102
RTVSPropertyOp10
 70
     1
102
RTVSPropertyOp11
 70
     1
102
RTVSPropertyOp12
 70
     1
102
RTVSPropertyOp13
 70
     1
102
RTVSPropertyOp14
 70
     1
102
RTVSPropertyOp15
 70
     1
102
RTVSPropertyOp16
 70
     1
102
RTVSPropertyOp17
 70
     1
102
RTVSPropertyOp18
 70
     1
102
RTVSPropertyOp19
 70
     1
102
RTVSPropertyOp20
 70
     1
102
RTVSPropertyOp21
 70
     1
102
RTVSPropertyOp22
 70
     1
102
RTVSPropertyOp23
 70
     1
102
RTVSPropertyOp24
 70
     1
102
RTVSPropertyOp25
 70
     1
102
RTVSPropertyOp26
 70
     1
102
RTVSPropertyOp27
 70
     1
102
RTVSPropertyOp28
 70
     1
102
RTVSPropertyOp29
 70
     1
102
RTVSPropertyOp30
 70
     1
102
RTVSPropertyOp31
 70
     1
102
RTVSPropertyOp32
 70
     1
102
RTVSPropertyOp33
 70
     1
102
RTVSPropertyOp34
 70
     1
102
RTVSPropertyOp35
 70
     1
102
RTVSPropertyOp36
 70
     1
102
RTVSPropertyOp37
 70
     1
102
RTVSPropertyOp38
 70
     1
102
RTVSPropertyOp39
 70
     1
102
RTVSPropertyOp40
 70
     1
102
RTVSPropertyOp41
 70
     1
102
RTVSPropertyOp42
 70
     1
102
RTVSPropertyOp43
 70
     1
102
RTVSPropertyOp44
 70
     1
102
RTVSPropertyOp45
 70
     1
102
RTVSPropertyOp46
 70
     1
102
RTVSPropertyOp47
 70
     1
102
RTVSPropertyOp48
 70
     1
102
RTVSPropertyOp49
 70
     1
102
RTVSPropertyOp50
 70
     1
102
RTVSPropertyOp51
 70
     0
102
RTVSPropertyOp52
 70
     0
102
RTVSPropertyOp53
 70
     1
102
RTVSPropertyOp54
 70
     1
102
RTVSPropertyOp55
 70
     1
102
RTVSPropertyOp56
 70
     1
102
RTVSPropertyOp57
 70
     1
102
RTVSPropertyOp58
 70
     1
102
RTVSPropertyOp59
 70
     1
102
RTVSPropertyOp60
 70
     1
102
RTVSPropertyOp61
 70
     1
102
RTVSPropertyOp62
 70
     1
  0
XRECORD
  5
118C7
102
{ACAD_REACTORS
330
118C6
102
}
330
118C6
100
AcDbXrecord
280
     1
102
RTVSPost2010Prop28
280
     0
102
RTVSPost2010PropOp28
 70
     1
102
RTVSPost2010Prop29
280
     1
102
RTVSPost2010PropOp29
 70
     1
102
RTVSPost2010Prop30
280
     1
102
RTVSPost2010PropOp30
 70
     1
102
RTVSPost2010Prop31
280
     0
102
RTVSPost2010PropOp31
 70
     1
102
RTVSPost2010Prop32
280
     0
102
RTVSPost2010PropOp32
 70
     1
102
RTVSPost2010Prop33
280
     0
102
RTVSPost2010PropOp33
 70
     1
102
RTVSPost2010Prop34
280
     0
102
RTVSPost2010PropOp34
 70
     1
102
RTVSPost2010Prop35
280
     0
102
RTVSPost2010PropOp35
 70
     1
102
RTVSPost2010Prop36
280
     0
102
RTVSPost2010PropOp36
 70
     1
102
RTVSPost2010Prop37
 90
       50
102
RTVSPost2010PropOp37
 70
     1
102
RTVSPost2010Prop38
140
0.0
102
RTVSPost2010PropOp38
 70
     1
102
RTVSPost2010Prop39
140
1.0
102
RTVSPost2010PropOp39
 70
     1
102
RTVSPost2010Prop40
 90
        0
102
RTVSPost2010PropOp40
 70
     1
102
RTVSPost2010Prop41ColorIndex
 90
       18
102
RTVSPost2010Prop41ColorRGB
 90
        0
102
RTVSPost2010PropOp41
 70
     1
102
RTVSPost2010Prop42
 90
       50
102
RTVSPost2010PropOp42
 70
     1
102
RTVSPost2010Prop43
 90
        3
102
RTVSPost2010PropOp43
 70
     1
102
RTVSPost2010Prop44ColorIndex
 90
        5
102
RTVSPost2010Prop44ColorRGB
 90
      255
102
RTVSPost2010PropOp44
 70
     1
102
RTVSPost2010Prop45
280
     0
102
RTVSPost2010PropOp45
 70
     1
102
RTVSPost2010Prop46
 90
       50
102
RTVSPost2010PropOp46
 70
     1
102
RTVSPost2010Prop47
 90
       50
102
RTVSPost2010PropOp47
 70
     1
102
RTVSPost2010Prop48
 90
       50
102
RTVSPost2010PropOp48
 70
     1
102
RTVSPost2010Prop49
280
     0
102
RTVSPost2010PropOp49
 70
     1
102
RTVSPost2010Prop50
 90
       50
102
RTVSPost2010PropOp50
 70
     1
102
RTVSPost2010Prop51ColorIndex
 90
      256
102
RTVSPost2010Prop51ColorRGB
 90
-16777216
102
RTVSPost2010PropOp51
 70
     0
102
RTVSPost2010Prop52
140
1.0
102
RTVSPost2010PropOp52
 70
     0
102
RTVSPost2010Prop53
 90
        2
102
RTVSPost2010PropOp53
 70
     1
102
RTVSPost2010Prop54
  1
strokes_ogs.tif
102
RTVSPost2010PropOp54
 70
     1
102
RTVSPost2010Prop55
280
     0
102
RTVSPost2010PropOp55
 70
     1
102
RTVSPost2010Prop56
140
1.0
102
RTVSPost2010PropOp56
 70
     1
102
RTVSPost2010Prop57
140
1.0
102
RTVSPost2010PropOp57
 70
     1
102
RTVSPropertyOp0
 70
     1
102
RTVSPropertyOp1
 70
     1
102
RTVSPropertyOp2
 70
     1
102
RTVSPropertyOp3
 70
     1
102
RTVSPropertyOp4
 70
     1
102
RTVSPropertyOp5
 70
     1
102
RTVSPropertyOp6
 70
     1
102
RTVSPropertyOp7
 70
     1
102
RTVSPropertyOp8
 70
     1
102
RTVSPropertyOp9
 70
     1
102
RTVSPropertyOp10
 70
     1
102
RTVSPropertyOp11
 70
     1
102
RTVSPropertyOp12
 70
     1
102
RTVSPropertyOp13
 70
     1
102
RTVSPropertyOp14
 70
     1
102
RTVSPropertyOp15
 70
     1
102
RTVSPropertyOp16
 70
     1
102
RTVSPropertyOp17
 70
     1
102
RTVSPropertyOp18
 70
     1
102
RTVSPropertyOp19
 70
     1
102
RTVSPropertyOp20
 70
     1
102
RTVSPropertyOp21
 70
     1
102
RTVSPropertyOp22
 70
     1
102
RTVSPropertyOp23
 70
     1
102
RTVSPropertyOp24
 70
     1
102
RTVSPropertyOp25
 70
     1
102
RTVSPropertyOp26
 70
     1
102
RTVSPropertyOp27
 70
     1
102
RTVSPropertyOp28
 70
     1
102
RTVSPropertyOp29
 70
     1
102
RTVSPropertyOp30
 70
     1
102
RTVSPropertyOp31
 70
     1
102
RTVSPropertyOp32
 70
     1
102
RTVSPropertyOp33
 70
     1
102
RTVSPropertyOp34
 70
     1
102
RTVSPropertyOp35
 70
     1
102
RTVSPropertyOp36
 70
     1
102
RTVSPropertyOp37
 70
     1
102
RTVSPropertyOp38
 70
     1
102
RTVSPropertyOp39
 70
     1
102
RTVSPropertyOp40
 70
     1
102
RTVSPropertyOp41
 70
     1
102
RTVSPropertyOp42
 70
     1
102
RTVSPropertyOp43
 70
     1
102
RTVSPropertyOp44
 70
     1
102
RTVSPropertyOp45
 70
     1
102
RTVSPropertyOp46
 70
     1
102
RTVSPropertyOp47
 70
     1
102
RTVSPropertyOp48
 70
     1
102
RTVSPropertyOp49
 70
     1
102
RTVSPropertyOp50
 70
     1
102
RTVSPropertyOp51
 70
     0
102
RTVSPropertyOp52
 70
     0
102
RTVSPropertyOp53
 70
     1
102
RTVSPropertyOp54
 70
     1
102
RTVSPropertyOp55
 70
     1
102
RTVSPropertyOp56
 70
     1
102
RTVSPropertyOp57
 70
     1
102
RTVSPropertyOp58
 70
     1
102
RTVSPropertyOp59
 70
     1
102
RTVSPropertyOp60
 70
     1
102
RTVSPropertyOp61
 70
     1
102
RTVSPropertyOp62
 70
     1
  0
XRECORD
  5
118C9
102
{ACAD_REACTORS
330
118C8
102
}
330
118C8
100
AcDbXrecord
280
     1
102
RTVSPost2010Prop28
280
     0
102
RTVSPost2010PropOp28
 70
     1
102
RTVSPost2010Prop29
280
     1
102
RTVSPost2010PropOp29
 70
     1
102
RTVSPost2010Prop30
280
     1
102
RTVSPost2010PropOp30
 70
     1
102
RTVSPost2010Prop31
280
     0
102
RTVSPost2010PropOp31
 70
     1
102
RTVSPost2010Prop32
280
     0
102
RTVSPost2010PropOp32
 70
     1
102
RTVSPost2010Prop33
280
     0
102
RTVSPost2010PropOp33
 70
     1
102
RTVSPost2010Prop34
280
     0
102
RTVSPost2010PropOp34
 70
     1
102
RTVSPost2010Prop35
280
     0
102
RTVSPost2010PropOp35
 70
     1
102
RTVSPost2010Prop36
280
     0
102
RTVSPost2010PropOp36
 70
     1
102
RTVSPost2010Prop37
 90
       50
102
RTVSPost2010PropOp37
 70
     1
102
RTVSPost2010Prop38
140
0.0
102
RTVSPost2010PropOp38
 70
     1
102
RTVSPost2010Prop39
140
1.0
102
RTVSPost2010PropOp39
 70
     1
102
RTVSPost2010Prop40
 90
        0
102
RTVSPost2010PropOp40
 70
     1
102
RTVSPost2010Prop41ColorIndex
 90
       18
102
RTVSPost2010Prop41ColorRGB
 90
        0
102
RTVSPost2010PropOp41
 70
     1
102
RTVSPost2010Prop42
 90
       50
102
RTVSPost2010PropOp42
 70
     1
102
RTVSPost2010Prop43
 90
        3
102
RTVSPost2010PropOp43
 70
     1
102
RTVSPost2010Prop44ColorIndex
 90
        5
102
RTVSPost2010Prop44ColorRGB
 90
      255
102
RTVSPost2010PropOp44
 70
     1
102
RTVSPost2010Prop45
280
     0
102
RTVSPost2010PropOp45
 70
     1
102
RTVSPost2010Prop46
 90
       50
102
RTVSPost2010PropOp46
 70
     1
102
RTVSPost2010Prop47
 90
       50
102
RTVSPost2010PropOp47
 70
     1
102
RTVSPost2010Prop48
 90
       50
102
RTVSPost2010PropOp48
 70
     1
102
RTVSPost2010Prop49
280
     0
102
RTVSPost2010PropOp49
 70
     1
102
RTVSPost2010Prop50
 90
       50
102
RTVSPost2010PropOp50
 70
     1
102
RTVSPost2010Prop51ColorIndex
 90
      256
102
RTVSPost2010Prop51ColorRGB
 90
-16777216
102
RTVSPost2010PropOp51
 70
     0
102
RTVSPost2010Prop52
140
1.0
102
RTVSPost2010PropOp52
 70
     0
102
RTVSPost2010Prop53
 90
        2
102
RTVSPost2010PropOp53
 70
     1
102
RTVSPost2010Prop54
  1
strokes_ogs.tif
102
RTVSPost2010PropOp54
 70
     1
102
RTVSPost2010Prop55
280
     0
102
RTVSPost2010PropOp55
 70
     1
102
RTVSPost2010Prop56
140
1.0
102
RTVSPost2010PropOp56
 70
     1
102
RTVSPost2010Prop57
140
1.0
102
RTVSPost2010PropOp57
 70
     1
102
RTVSPropertyOp0
 70
     1
102
RTVSPropertyOp1
 70
     1
102
RTVSPropertyOp2
 70
     1
102
RTVSPropertyOp3
 70
     1
102
RTVSPropertyOp4
 70
     1
102
RTVSPropertyOp5
 70
     1
102
RTVSPropertyOp6
 70
     1
102
RTVSPropertyOp7
 70
     1
102
RTVSPropertyOp8
 70
     1
102
RTVSPropertyOp9
 70
     1
102
RTVSPropertyOp10
 70
     1
102
RTVSPropertyOp11
 70
     1
102
RTVSPropertyOp12
 70
     1
102
RTVSPropertyOp13
 70
     1
102
RTVSPropertyOp14
 70
     1
102
RTVSPropertyOp15
 70
     1
102
RTVSPropertyOp16
 70
     1
102
RTVSPropertyOp17
 70
     1
102
RTVSPropertyOp18
 70
     1
102
RTVSPropertyOp19
 70
     1
102
RTVSPropertyOp20
 70
     1
102
RTVSPropertyOp21
 70
     1
102
RTVSPropertyOp22
 70
     1
102
RTVSPropertyOp23
 70
     1
102
RTVSPropertyOp24
 70
     1
102
RTVSPropertyOp25
 70
     1
102
RTVSPropertyOp26
 70
     1
102
RTVSPropertyOp27
 70
     1
102
RTVSPropertyOp28
 70
     1
102
RTVSPropertyOp29
 70
     1
102
RTVSPropertyOp30
 70
     1
102
RTVSPropertyOp31
 70
     1
102
RTVSPropertyOp32
 70
     1
102
RTVSPropertyOp33
 70
     1
102
RTVSPropertyOp34
 70
     1
102
RTVSPropertyOp35
 70
     1
102
RTVSPropertyOp36
 70
     1
102
RTVSPropertyOp37
 70
     1
102
RTVSPropertyOp38
 70
     1
102
RTVSPropertyOp39
 70
     1
102
RTVSPropertyOp40
 70
     1
102
RTVSPropertyOp41
 70
     1
102
RTVSPropertyOp42
 70
     1
102
RTVSPropertyOp43
 70
     1
102
RTVSPropertyOp44
 70
     1
102
RTVSPropertyOp45
 70
     1
102
RTVSPropertyOp46
 70
     1
102
RTVSPropertyOp47
 70
     1
102
RTVSPropertyOp48
 70
     1
102
RTVSPropertyOp49
 70
     1
102
RTVSPropertyOp50
 70
     1
102
RTVSPropertyOp51
 70
     0
102
RTVSPropertyOp52
 70
     0
102
RTVSPropertyOp53
 70
     1
102
RTVSPropertyOp54
 70
     1
102
RTVSPropertyOp55
 70
     1
102
RTVSPropertyOp56
 70
     1
102
RTVSPropertyOp57
 70
     1
102
RTVSPropertyOp58
 70
     1
102
RTVSPropertyOp59
 70
     1
102
RTVSPropertyOp60
 70
     1
102
RTVSPropertyOp61
 70
     1
102
RTVSPropertyOp62
 70
     1
  0
XRECORD
  5
118CB
102
{ACAD_REACTORS
330
118CA
102
}
330
118CA
100
AcDbXrecord
280
     1
102
RTVSPost2010Prop28
280
     0
102
RTVSPost2010PropOp28
 70
     1
102
RTVSPost2010Prop29
280
     1
102
RTVSPost2010PropOp29
 70
     1
102
RTVSPost2010Prop30
280
     1
102
RTVSPost2010PropOp30
 70
     1
102
RTVSPost2010Prop31
280
     0
102
RTVSPost2010PropOp31
 70
     1
102
RTVSPost2010Prop32
280
     0
102
RTVSPost2010PropOp32
 70
     1
102
RTVSPost2010Prop33
280
     0
102
RTVSPost2010PropOp33
 70
     1
102
RTVSPost2010Prop34
280
     0
102
RTVSPost2010PropOp34
 70
     1
102
RTVSPost2010Prop35
280
     0
102
RTVSPost2010PropOp35
 70
     1
102
RTVSPost2010Prop36
280
     0
102
RTVSPost2010PropOp36
 70
     1
102
RTVSPost2010Prop37
 90
       50
102
RTVSPost2010PropOp37
 70
     1
102
RTVSPost2010Prop38
140
0.0
102
RTVSPost2010PropOp38
 70
     1
102
RTVSPost2010Prop39
140
1.0
102
RTVSPost2010PropOp39
 70
     1
102
RTVSPost2010Prop40
 90
        0
102
RTVSPost2010PropOp40
 70
     1
102
RTVSPost2010Prop41ColorIndex
 90
       18
102
RTVSPost2010Prop41ColorRGB
 90
        0
102
RTVSPost2010PropOp41
 70
     1
102
RTVSPost2010Prop42
 90
       50
102
RTVSPost2010PropOp42
 70
     1
102
RTVSPost2010Prop43
 90
        3
102
RTVSPost2010PropOp43
 70
     1
102
RTVSPost2010Prop44ColorIndex
 90
        5
102
RTVSPost2010Prop44ColorRGB
 90
      255
102
RTVSPost2010PropOp44
 70
     1
102
RTVSPost2010Prop45
280
     0
102
RTVSPost2010PropOp45
 70
     1
102
RTVSPost2010Prop46
 90
       50
102
RTVSPost2010PropOp46
 70
     1
102
RTVSPost2010Prop47
 90
       50
102
RTVSPost2010PropOp47
 70
     1
102
RTVSPost2010Prop48
 90
       50
102
RTVSPost2010PropOp48
 70
     1
102
RTVSPost2010Prop49
280
     0
102
RTVSPost2010PropOp49
 70
     1
102
RTVSPost2010Prop50
 90
       50
102
RTVSPost2010PropOp50
 70
     1
102
RTVSPost2010Prop51ColorIndex
 90
      256
102
RTVSPost2010Prop51ColorRGB
 90
-16777216
102
RTVSPost2010PropOp51
 70
     0
102
RTVSPost2010Prop52
140
1.0
102
RTVSPost2010PropOp52
 70
     0
102
RTVSPost2010Prop53
 90
        2
102
RTVSPost2010PropOp53
 70
     1
102
RTVSPost2010Prop54
  1
strokes_ogs.tif
102
RTVSPost2010PropOp54
 70
     1
102
RTVSPost2010Prop55
280
     0
102
RTVSPost2010PropOp55
 70
     1
102
RTVSPost2010Prop56
140
1.0
102
RTVSPost2010PropOp56
 70
     1
102
RTVSPost2010Prop57
140
1.0
102
RTVSPost2010PropOp57
 70
     1
102
RTVSPropertyOp0
 70
     1
102
RTVSPropertyOp1
 70
     1
102
RTVSPropertyOp2
 70
     1
102
RTVSPropertyOp3
 70
     1
102
RTVSPropertyOp4
 70
     1
102
RTVSPropertyOp5
 70
     1
102
RTVSPropertyOp6
 70
     1
102
RTVSPropertyOp7
 70
     1
102
RTVSPropertyOp8
 70
     1
102
RTVSPropertyOp9
 70
     1
102
RTVSPropertyOp10
 70
     1
102
RTVSPropertyOp11
 70
     1
102
RTVSPropertyOp12
 70
     1
102
RTVSPropertyOp13
 70
     1
102
RTVSPropertyOp14
 70
     1
102
RTVSPropertyOp15
 70
     1
102
RTVSPropertyOp16
 70
     1
102
RTVSPropertyOp17
 70
     1
102
RTVSPropertyOp18
 70
     1
102
RTVSPropertyOp19
 70
     1
102
RTVSPropertyOp20
 70
     1
102
RTVSPropertyOp21
 70
     1
102
RTVSPropertyOp22
 70
     1
102
RTVSPropertyOp23
 70
     1
102
RTVSPropertyOp24
 70
     1
102
RTVSPropertyOp25
 70
     1
102
RTVSPropertyOp26
 70
     1
102
RTVSPropertyOp27
 70
     1
102
RTVSPropertyOp28
 70
     1
102
RTVSPropertyOp29
 70
     1
102
RTVSPropertyOp30
 70
     1
102
RTVSPropertyOp31
 70
     1
102
RTVSPropertyOp32
 70
     1
102
RTVSPropertyOp33
 70
     1
102
RTVSPropertyOp34
 70
     1
102
RTVSPropertyOp35
 70
     1
102
RTVSPropertyOp36
 70
     1
102
RTVSPropertyOp37
 70
     1
102
RTVSPropertyOp38
 70
     1
102
RTVSPropertyOp39
 70
     1
102
RTVSPropertyOp40
 70
     1
102
RTVSPropertyOp41
 70
     1
102
RTVSPropertyOp42
 70
     1
102
RTVSPropertyOp43
 70
     1
102
RTVSPropertyOp44
 70
     1
102
RTVSPropertyOp45
 70
     1
102
RTVSPropertyOp46
 70
     1
102
RTVSPropertyOp47
 70
     1
102
RTVSPropertyOp48
 70
     1
102
RTVSPropertyOp49
 70
     1
102
RTVSPropertyOp50
 70
     1
102
RTVSPropertyOp51
 70
     0
102
RTVSPropertyOp52
 70
     0
102
RTVSPropertyOp53
 70
     1
102
RTVSPropertyOp54
 70
     1
102
RTVSPropertyOp55
 70
     1
102
RTVSPropertyOp56
 70
     1
102
RTVSPropertyOp57
 70
     1
102
RTVSPropertyOp58
 70
     1
102
RTVSPropertyOp59
 70
     1
102
RTVSPropertyOp60
 70
     1
102
RTVSPropertyOp61
 70
     1
102
RTVSPropertyOp62
 70
     1
  0
XRECORD
  5
118D3
102
{ACAD_REACTORS
330
118D2
102
}
330
118D2
100
AcDbXrecord
280
     1
102
RTVSPost2010Prop28
280
     0
102
RTVSPost2010PropOp28
 70
     1
102
RTVSPost2010Prop29
280
     1
102
RTVSPost2010PropOp29
 70
     1
102
RTVSPost2010Prop30
280
     1
102
RTVSPost2010PropOp30
 70
     1
102
RTVSPost2010Prop31
280
     0
102
RTVSPost2010PropOp31
 70
     1
102
RTVSPost2010Prop32
280
     0
102
RTVSPost2010PropOp32
 70
     1
102
RTVSPost2010Prop33
280
     0
102
RTVSPost2010PropOp33
 70
     1
102
RTVSPost2010Prop34
280
     0
102
RTVSPost2010PropOp34
 70
     1
102
RTVSPost2010Prop35
280
     0
102
RTVSPost2010PropOp35
 70
     1
102
RTVSPost2010Prop36
280
     0
102
RTVSPost2010PropOp36
 70
     1
102
RTVSPost2010Prop37
 90
       50
102
RTVSPost2010PropOp37
 70
     1
102
RTVSPost2010Prop38
140
0.0
102
RTVSPost2010PropOp38
 70
     1
102
RTVSPost2010Prop39
140
1.0
102
RTVSPost2010PropOp39
 70
     1
102
RTVSPost2010Prop40
 90
        0
102
RTVSPost2010PropOp40
 70
     1
102
RTVSPost2010Prop41ColorIndex
 90
       18
102
RTVSPost2010Prop41ColorRGB
 90
        0
102
RTVSPost2010PropOp41
 70
     1
102
RTVSPost2010Prop42
 90
       50
102
RTVSPost2010PropOp42
 70
     1
102
RTVSPost2010Prop43
 90
        3
102
RTVSPost2010PropOp43
 70
     1
102
RTVSPost2010Prop44ColorIndex
 90
        5
102
RTVSPost2010Prop44ColorRGB
 90
      255
102
RTVSPost2010PropOp44
 70
     1
102
RTVSPost2010Prop45
280
     0
102
RTVSPost2010PropOp45
 70
     1
102
RTVSPost2010Prop46
 90
       50
102
RTVSPost2010PropOp46
 70
     1
102
RTVSPost2010Prop47
 90
       50
102
RTVSPost2010PropOp47
 70
     1
102
RTVSPost2010Prop48
 90
       50
102
RTVSPost2010PropOp48
 70
     1
102
RTVSPost2010Prop49
280
     0
102
RTVSPost2010PropOp49
 70
     1
102
RTVSPost2010Prop50
 90
       50
102
RTVSPost2010PropOp50
 70
     1
102
RTVSPost2010Prop51ColorIndex
 90
      256
102
RTVSPost2010Prop51ColorRGB
 90
-16777216
102
RTVSPost2010PropOp51
 70
     0
102
RTVSPost2010Prop52
140
1.0
102
RTVSPost2010PropOp52
 70
     0
102
RTVSPost2010Prop53
 90
        2
102
RTVSPost2010PropOp53
 70
     1
102
RTVSPost2010Prop54
  1
strokes_ogs.tif
102
RTVSPost2010PropOp54
 70
     1
102
RTVSPost2010Prop55
280
     0
102
RTVSPost2010PropOp55
 70
     1
102
RTVSPost2010Prop56
140
1.0
102
RTVSPost2010PropOp56
 70
     1
102
RTVSPost2010Prop57
140
1.0
102
RTVSPost2010PropOp57
 70
     1
102
RTVSPropertyOp0
 70
     1
102
RTVSPropertyOp1
 70
     1
102
RTVSPropertyOp2
 70
     1
102
RTVSPropertyOp3
 70
     1
102
RTVSPropertyOp4
 70
     1
102
RTVSPropertyOp5
 70
     1
102
RTVSPropertyOp6
 70
     1
102
RTVSPropertyOp7
 70
     1
102
RTVSPropertyOp8
 70
     1
102
RTVSPropertyOp9
 70
     1
102
RTVSPropertyOp10
 70
     1
102
RTVSPropertyOp11
 70
     1
102
RTVSPropertyOp12
 70
     1
102
RTVSPropertyOp13
 70
     1
102
RTVSPropertyOp14
 70
     1
102
RTVSPropertyOp15
 70
     1
102
RTVSPropertyOp16
 70
     1
102
RTVSPropertyOp17
 70
     1
102
RTVSPropertyOp18
 70
     1
102
RTVSPropertyOp19
 70
     1
102
RTVSPropertyOp20
 70
     1
102
RTVSPropertyOp21
 70
     1
102
RTVSPropertyOp22
 70
     1
102
RTVSPropertyOp23
 70
     1
102
RTVSPropertyOp24
 70
     1
102
RTVSPropertyOp25
 70
     1
102
RTVSPropertyOp26
 70
     1
102
RTVSPropertyOp27
 70
     1
102
RTVSPropertyOp28
 70
     1
102
RTVSPropertyOp29
 70
     1
102
RTVSPropertyOp30
 70
     1
102
RTVSPropertyOp31
 70
     1
102
RTVSPropertyOp32
 70
     1
102
RTVSPropertyOp33
 70
     1
102
RTVSPropertyOp34
 70
     1
102
RTVSPropertyOp35
 70
     1
102
RTVSPropertyOp36
 70
     1
102
RTVSPropertyOp37
 70
     1
102
RTVSPropertyOp38
 70
     1
102
RTVSPropertyOp39
 70
     1
102
RTVSPropertyOp40
 70
     1
102
RTVSPropertyOp41
 70
     1
102
RTVSPropertyOp42
 70
     1
102
RTVSPropertyOp43
 70
     1
102
RTVSPropertyOp44
 70
     1
102
RTVSPropertyOp45
 70
     1
102
RTVSPropertyOp46
 70
     1
102
RTVSPropertyOp47
 70
     1
102
RTVSPropertyOp48
 70
     1
102
RTVSPropertyOp49
 70
     1
102
RTVSPropertyOp50
 70
     1
102
RTVSPropertyOp51
 70
     0
102
RTVSPropertyOp52
 70
     0
102
RTVSPropertyOp53
 70
     1
102
RTVSPropertyOp54
 70
     1
102
RTVSPropertyOp55
 70
     1
102
RTVSPropertyOp56
 70
     1
102
RTVSPropertyOp57
 70
     1
102
RTVSPropertyOp58
 70
     1
102
RTVSPropertyOp59
 70
     1
102
RTVSPropertyOp60
 70
     1
102
RTVSPropertyOp61
 70
     1
102
RTVSPropertyOp62
 70
     1
  0
XRECORD
  5
118E7
102
{ACAD_REACTORS
330
118E6
102
}
330
118E6
100
AcDbXrecord
280
     1
102
RTVSPost2010Prop28
280
     0
102
RTVSPost2010PropOp28
 70
     1
102
RTVSPost2010Prop29
280
     1
102
RTVSPost2010PropOp29
 70
     1
102
RTVSPost2010Prop30
280
     1
102
RTVSPost2010PropOp30
 70
     1
102
RTVSPost2010Prop31
280
     0
102
RTVSPost2010PropOp31
 70
     1
102
RTVSPost2010Prop32
280
     0
102
RTVSPost2010PropOp32
 70
     1
102
RTVSPost2010Prop33
280
     0
102
RTVSPost2010PropOp33
 70
     1
102
RTVSPost2010Prop34
280
     0
102
RTVSPost2010PropOp34
 70
     1
102
RTVSPost2010Prop35
280
     0
102
RTVSPost2010PropOp35
 70
     1
102
RTVSPost2010Prop36
280
     0
102
RTVSPost2010PropOp36
 70
     1
102
RTVSPost2010Prop37
 90
       50
102
RTVSPost2010PropOp37
 70
     1
102
RTVSPost2010Prop38
140
0.0
102
RTVSPost2010PropOp38
 70
     1
102
RTVSPost2010Prop39
140
1.0
102
RTVSPost2010PropOp39
 70
     1
102
RTVSPost2010Prop40
 90
        0
102
RTVSPost2010PropOp40
 70
     1
102
RTVSPost2010Prop41ColorIndex
 90
       18
102
RTVSPost2010Prop41ColorRGB
 90
        0
102
RTVSPost2010PropOp41
 70
     1
102
RTVSPost2010Prop42
 90
       50
102
RTVSPost2010PropOp42
 70
     1
102
RTVSPost2010Prop43
 90
        3
102
RTVSPost2010PropOp43
 70
     1
102
RTVSPost2010Prop44ColorIndex
 90
        5
102
RTVSPost2010Prop44ColorRGB
 90
      255
102
RTVSPost2010PropOp44
 70
     1
102
RTVSPost2010Prop45
280
     0
102
RTVSPost2010PropOp45
 70
     1
102
RTVSPost2010Prop46
 90
       50
102
RTVSPost2010PropOp46
 70
     1
102
RTVSPost2010Prop47
 90
       50
102
RTVSPost2010PropOp47
 70
     1
102
RTVSPost2010Prop48
 90
       50
102
RTVSPost2010PropOp48
 70
     1
102
RTVSPost2010Prop49
280
     0
102
RTVSPost2010PropOp49
 70
     1
102
RTVSPost2010Prop50
 90
       50
102
RTVSPost2010PropOp50
 70
     1
102
RTVSPost2010Prop51ColorIndex
 90
      256
102
RTVSPost2010Prop51ColorRGB
 90
-16777216
102
RTVSPost2010PropOp51
 70
     0
102
RTVSPost2010Prop52
140
1.0
102
RTVSPost2010PropOp52
 70
     0
102
RTVSPost2010Prop53
 90
        2
102
RTVSPost2010PropOp53
 70
     1
102
RTVSPost2010Prop54
  1
strokes_ogs.tif
102
RTVSPost2010PropOp54
 70
     1
102
RTVSPost2010Prop55
280
     0
102
RTVSPost2010PropOp55
 70
     1
102
RTVSPost2010Prop56
140
1.0
102
RTVSPost2010PropOp56
 70
     1
102
RTVSPost2010Prop57
140
1.0
102
RTVSPost2010PropOp57
 70
     1
102
RTVSPropertyOp0
 70
     0
102
RTVSPropertyOp1
 70
     0
102
RTVSPropertyOp2
 70
     0
102
RTVSPropertyOp3
 70
     0
102
RTVSPropertyOp4
 70
     0
102
RTVSPropertyOp5
 70
     0
102
RTVSPropertyOp6
 70
     0
102
RTVSPropertyOp7
 70
     0
102
RTVSPropertyOp8
 70
     0
102
RTVSPropertyOp9
 70
     0
102
RTVSPropertyOp10
 70
     0
102
RTVSPropertyOp11
 70
     0
102
RTVSPropertyOp12
 70
     0
102
RTVSPropertyOp13
 70
     0
102
RTVSPropertyOp14
 70
     2
102
RTVSPropertyOp15
 70
     0
102
RTVSPropertyOp16
 70
     0
102
RTVSPropertyOp17
 70
     0
102
RTVSPropertyOp18
 70
     0
102
RTVSPropertyOp19
 70
     0
102
RTVSPropertyOp20
 70
     0
102
RTVSPropertyOp21
 70
     0
102
RTVSPropertyOp22
 70
     0
102
RTVSPropertyOp23
 70
     0
102
RTVSPropertyOp24
 70
     0
102
RTVSPropertyOp25
 70
     0
102
RTVSPropertyOp26
 70
     0
102
RTVSPropertyOp27
 70
     0
102
RTVSPropertyOp28
 70
     1
102
RTVSPropertyOp29
 70
     1
102
RTVSPropertyOp30
 70
     1
102
RTVSPropertyOp31
 70
     1
102
RTVSPropertyOp32
 70
     1
102
RTVSPropertyOp33
 70
     1
102
RTVSPropertyOp34
 70
     1
102
RTVSPropertyOp35
 70
     1
102
RTVSPropertyOp36
 70
     1
102
RTVSPropertyOp37
 70
     1
102
RTVSPropertyOp38
 70
     1
102
RTVSPropertyOp39
 70
     1
102
RTVSPropertyOp40
 70
     1
102
RTVSPropertyOp41
 70
     1
102
RTVSPropertyOp42
 70
     1
102
RTVSPropertyOp43
 70
     1
102
RTVSPropertyOp44
 70
     1
102
RTVSPropertyOp45
 70
     1
102
RTVSPropertyOp46
 70
     1
102
RTVSPropertyOp47
 70
     1
102
RTVSPropertyOp48
 70
     1
102
RTVSPropertyOp49
 70
     1
102
RTVSPropertyOp50
 70
     1
102
RTVSPropertyOp51
 70
     0
102
RTVSPropertyOp52
 70
     0
102
RTVSPropertyOp53
 70
     1
102
RTVSPropertyOp54
 70
     1
102
RTVSPropertyOp55
 70
     1
102
RTVSPropertyOp56
 70
     1
102
RTVSPropertyOp57
 70
     1
102
RTVSPropertyOp58
 70
     1
102
RTVSPropertyOp59
 70
     1
102
RTVSPropertyOp60
 70
     1
102
RTVSPropertyOp61
 70
     1
102
RTVSPropertyOp62
 70
     1
  0
XRECORD
  5
118DF
102
{ACAD_REACTORS
330
118DE
102
}
330
118DE
100
AcDbXrecord
280
     1
102
RTVSPost2010Prop28
280
     0
102
RTVSPost2010PropOp28
 70
     1
102
RTVSPost2010Prop29
280
     1
102
RTVSPost2010PropOp29
 70
     1
102
RTVSPost2010Prop30
280
     1
102
RTVSPost2010PropOp30
 70
     1
102
RTVSPost2010Prop31
280
     0
102
RTVSPost2010PropOp31
 70
     1
102
RTVSPost2010Prop32
280
     0
102
RTVSPost2010PropOp32
 70
     1
102
RTVSPost2010Prop33
280
     0
102
RTVSPost2010PropOp33
 70
     1
102
RTVSPost2010Prop34
280
     0
102
RTVSPost2010PropOp34
 70
     1
102
RTVSPost2010Prop35
280
     0
102
RTVSPost2010PropOp35
 70
     1
102
RTVSPost2010Prop36
280
     0
102
RTVSPost2010PropOp36
 70
     1
102
RTVSPost2010Prop37
 90
       50
102
RTVSPost2010PropOp37
 70
     1
102
RTVSPost2010Prop38
140
0.0
102
RTVSPost2010PropOp38
 70
     1
102
RTVSPost2010Prop39
140
1.0
102
RTVSPost2010PropOp39
 70
     1
102
RTVSPost2010Prop40
 90
        0
102
RTVSPost2010PropOp40
 70
     1
102
RTVSPost2010Prop41ColorIndex
 90
       18
102
RTVSPost2010Prop41ColorRGB
 90
        0
102
RTVSPost2010PropOp41
 70
     1
102
RTVSPost2010Prop42
 90
       50
102
RTVSPost2010PropOp42
 70
     1
102
RTVSPost2010Prop43
 90
        3
102
RTVSPost2010PropOp43
 70
     1
102
RTVSPost2010Prop44ColorIndex
 90
        5
102
RTVSPost2010Prop44ColorRGB
 90
      255
102
RTVSPost2010PropOp44
 70
     1
102
RTVSPost2010Prop45
280
     0
102
RTVSPost2010PropOp45
 70
     1
102
RTVSPost2010Prop46
 90
       50
102
RTVSPost2010PropOp46
 70
     1
102
RTVSPost2010Prop47
 90
       50
102
RTVSPost2010PropOp47
 70
     1
102
RTVSPost2010Prop48
 90
       50
102
RTVSPost2010PropOp48
 70
     1
102
RTVSPost2010Prop49
280
     0
102
RTVSPost2010PropOp49
 70
     1
102
RTVSPost2010Prop50
 90
       50
102
RTVSPost2010PropOp50
 70
     1
102
RTVSPost2010Prop51ColorIndex
 90
      256
102
RTVSPost2010Prop51ColorRGB
 90
-16777216
102
RTVSPost2010PropOp51
 70
     0
102
RTVSPost2010Prop52
140
1.0
102
RTVSPost2010PropOp52
 70
     0
102
RTVSPost2010Prop53
 90
        2
102
RTVSPost2010PropOp53
 70
     1
102
RTVSPost2010Prop54
  1
strokes_ogs.tif
102
RTVSPost2010PropOp54
 70
     1
102
RTVSPost2010Prop55
280
     0
102
RTVSPost2010PropOp55
 70
     1
102
RTVSPost2010Prop56
140
1.0
102
RTVSPost2010PropOp56
 70
     1
102
RTVSPost2010Prop57
140
1.0
102
RTVSPost2010PropOp57
 70
     1
102
RTVSPropertyOp0
 70
     1
102
RTVSPropertyOp1
 70
     1
102
RTVSPropertyOp2
 70
     1
102
RTVSPropertyOp3
 70
     1
102
RTVSPropertyOp4
 70
     1
102
RTVSPropertyOp5
 70
     1
102
RTVSPropertyOp6
 70
     1
102
RTVSPropertyOp7
 70
     1
102
RTVSPropertyOp8
 70
     1
102
RTVSPropertyOp9
 70
     1
102
RTVSPropertyOp10
 70
     1
102
RTVSPropertyOp11
 70
     1
102
RTVSPropertyOp12
 70
     1
102
RTVSPropertyOp13
 70
     1
102
RTVSPropertyOp14
 70
     1
102
RTVSPropertyOp15
 70
     1
102
RTVSPropertyOp16
 70
     1
102
RTVSPropertyOp17
 70
     1
102
RTVSPropertyOp18
 70
     1
102
RTVSPropertyOp19
 70
     1
102
RTVSPropertyOp20
 70
     1
102
RTVSPropertyOp21
 70
     1
102
RTVSPropertyOp22
 70
     1
102
RTVSPropertyOp23
 70
     1
102
RTVSPropertyOp24
 70
     1
102
RTVSPropertyOp25
 70
     1
102
RTVSPropertyOp26
 70
     1
102
RTVSPropertyOp27
 70
     1
102
RTVSPropertyOp28
 70
     1
102
RTVSPropertyOp29
 70
     1
102
RTVSPropertyOp30
 70
     1
102
RTVSPropertyOp31
 70
     1
102
RTVSPropertyOp32
 70
     1
102
RTVSPropertyOp33
 70
     1
102
RTVSPropertyOp34
 70
     1
102
RTVSPropertyOp35
 70
     1
102
RTVSPropertyOp36
 70
     1
102
RTVSPropertyOp37
 70
     1
102
RTVSPropertyOp38
 70
     1
102
RTVSPropertyOp39
 70
     1
102
RTVSPropertyOp40
 70
     1
102
RTVSPropertyOp41
 70
     1
102
RTVSPropertyOp42
 70
     1
102
RTVSPropertyOp43
 70
     1
102
RTVSPropertyOp44
 70
     1
102
RTVSPropertyOp45
 70
     1
102
RTVSPropertyOp46
 70
     1
102
RTVSPropertyOp47
 70
     1
102
RTVSPropertyOp48
 70
     1
102
RTVSPropertyOp49
 70
     1
102
RTVSPropertyOp50
 70
     1
102
RTVSPropertyOp51
 70
     0
102
RTVSPropertyOp52
 70
     0
102
RTVSPropertyOp53
 70
     1
102
RTVSPropertyOp54
 70
     1
102
RTVSPropertyOp55
 70
     1
102
RTVSPropertyOp56
 70
     1
102
RTVSPropertyOp57
 70
     1
102
RTVSPropertyOp58
 70
     1
102
RTVSPropertyOp59
 70
     1
102
RTVSPropertyOp60
 70
     1
102
RTVSPropertyOp61
 70
     1
102
RTVSPropertyOp62
 70
     1
  0
XRECORD
  5
118E9
102
{ACAD_REACTORS
330
118E8
102
}
330
118E8
100
AcDbXrecord
280
     1
102
RTVSPost2010Prop28
280
     0
102
RTVSPost2010PropOp28
 70
     1
102
RTVSPost2010Prop29
280
     1
102
RTVSPost2010PropOp29
 70
     1
102
RTVSPost2010Prop30
280
     1
102
RTVSPost2010PropOp30
 70
     1
102
RTVSPost2010Prop31
280
     0
102
RTVSPost2010PropOp31
 70
     1
102
RTVSPost2010Prop32
280
     0
102
RTVSPost2010PropOp32
 70
     1
102
RTVSPost2010Prop33
280
     0
102
RTVSPost2010PropOp33
 70
     1
102
RTVSPost2010Prop34
280
     0
102
RTVSPost2010PropOp34
 70
     1
102
RTVSPost2010Prop35
280
     0
102
RTVSPost2010PropOp35
 70
     1
102
RTVSPost2010Prop36
280
     0
102
RTVSPost2010PropOp36
 70
     1
102
RTVSPost2010Prop37
 90
       50
102
RTVSPost2010PropOp37
 70
     1
102
RTVSPost2010Prop38
140
0.0
102
RTVSPost2010PropOp38
 70
     1
102
RTVSPost2010Prop39
140
1.0
102
RTVSPost2010PropOp39
 70
     1
102
RTVSPost2010Prop40
 90
        0
102
RTVSPost2010PropOp40
 70
     1
102
RTVSPost2010Prop41ColorIndex
 90
       18
102
RTVSPost2010Prop41ColorRGB
 90
        0
102
RTVSPost2010PropOp41
 70
     1
102
RTVSPost2010Prop42
 90
       50
102
RTVSPost2010PropOp42
 70
     1
102
RTVSPost2010Prop43
 90
        3
102
RTVSPost2010PropOp43
 70
     1
102
RTVSPost2010Prop44ColorIndex
 90
        5
102
RTVSPost2010Prop44ColorRGB
 90
      255
102
RTVSPost2010PropOp44
 70
     1
102
RTVSPost2010Prop45
280
     0
102
RTVSPost2010PropOp45
 70
     1
102
RTVSPost2010Prop46
 90
       50
102
RTVSPost2010PropOp46
 70
     1
102
RTVSPost2010Prop47
 90
       50
102
RTVSPost2010PropOp47
 70
     1
102
RTVSPost2010Prop48
 90
       50
102
RTVSPost2010PropOp48
 70
     1
102
RTVSPost2010Prop49
280
     0
102
RTVSPost2010PropOp49
 70
     1
102
RTVSPost2010Prop50
 90
       50
102
RTVSPost2010PropOp50
 70
     1
102
RTVSPost2010Prop51ColorIndex
 90
      256
102
RTVSPost2010Prop51ColorRGB
 90
-16777216
102
RTVSPost2010PropOp51
 70
     0
102
RTVSPost2010Prop52
140
1.0
102
RTVSPost2010PropOp52
 70
     0
102
RTVSPost2010Prop53
 90
        2
102
RTVSPost2010PropOp53
 70
     1
102
RTVSPost2010Prop54
  1
strokes_ogs.tif
102
RTVSPost2010PropOp54
 70
     1
102
RTVSPost2010Prop55
280
     0
102
RTVSPost2010PropOp55
 70
     1
102
RTVSPost2010Prop56
140
1.0
102
RTVSPost2010PropOp56
 70
     1
102
RTVSPost2010Prop57
140
1.0
102
RTVSPost2010PropOp57
 70
     1
102
RTVSPropertyOp0
 70
     0
102
RTVSPropertyOp1
 70
     0
102
RTVSPropertyOp2
 70
     0
102
RTVSPropertyOp3
 70
     0
102
RTVSPropertyOp4
 70
     0
102
RTVSPropertyOp5
 70
     0
102
RTVSPropertyOp6
 70
     0
102
RTVSPropertyOp7
 70
     0
102
RTVSPropertyOp8
 70
     0
102
RTVSPropertyOp9
 70
     0
102
RTVSPropertyOp10
 70
     0
102
RTVSPropertyOp11
 70
     0
102
RTVSPropertyOp12
 70
     0
102
RTVSPropertyOp13
 70
     0
102
RTVSPropertyOp14
 70
     2
102
RTVSPropertyOp15
 70
     0
102
RTVSPropertyOp16
 70
     0
102
RTVSPropertyOp17
 70
     0
102
RTVSPropertyOp18
 70
     0
102
RTVSPropertyOp19
 70
     0
102
RTVSPropertyOp20
 70
     0
102
RTVSPropertyOp21
 70
     0
102
RTVSPropertyOp22
 70
     0
102
RTVSPropertyOp23
 70
     0
102
RTVSPropertyOp24
 70
     0
102
RTVSPropertyOp25
 70
     0
102
RTVSPropertyOp26
 70
     0
102
RTVSPropertyOp27
 70
     0
102
RTVSPropertyOp28
 70
     1
102
RTVSPropertyOp29
 70
     1
102
RTVSPropertyOp30
 70
     1
102
RTVSPropertyOp31
 70
     1
102
RTVSPropertyOp32
 70
     1
102
RTVSPropertyOp33
 70
     1
102
RTVSPropertyOp34
 70
     1
102
RTVSPropertyOp35
 70
     1
102
RTVSPropertyOp36
 70
     1
102
RTVSPropertyOp37
 70
     1
102
RTVSPropertyOp38
 70
     1
102
RTVSPropertyOp39
 70
     1
102
RTVSPropertyOp40
 70
     1
102
RTVSPropertyOp41
 70
     1
102
RTVSPropertyOp42
 70
     1
102
RTVSPropertyOp43
 70
     1
102
RTVSPropertyOp44
 70
     1
102
RTVSPropertyOp45
 70
     1
102
RTVSPropertyOp46
 70
     1
102
RTVSPropertyOp47
 70
     1
102
RTVSPropertyOp48
 70
     1
102
RTVSPropertyOp49
 70
     1
102
RTVSPropertyOp50
 70
     1
102
RTVSPropertyOp51
 70
     0
102
RTVSPropertyOp52
 70
     0
102
RTVSPropertyOp53
 70
     1
102
RTVSPropertyOp54
 70
     1
102
RTVSPropertyOp55
 70
     1
102
RTVSPropertyOp56
 70
     1
102
RTVSPropertyOp57
 70
     1
102
RTVSPropertyOp58
 70
     1
102
RTVSPropertyOp59
 70
     1
102
RTVSPropertyOp60
 70
     1
102
RTVSPropertyOp61
 70
     1
102
RTVSPropertyOp62
 70
     1
  0
XRECORD
  5
118D7
102
{ACAD_REACTORS
330
118D6
102
}
330
118D6
100
AcDbXrecord
280
     1
102
RTVSPost2010Prop28
280
     0
102
RTVSPost2010PropOp28
 70
     1
102
RTVSPost2010Prop29
280
     1
102
RTVSPost2010PropOp29
 70
     1
102
RTVSPost2010Prop30
280
     1
102
RTVSPost2010PropOp30
 70
     1
102
RTVSPost2010Prop31
280
     0
102
RTVSPost2010PropOp31
 70
     1
102
RTVSPost2010Prop32
280
     0
102
RTVSPost2010PropOp32
 70
     1
102
RTVSPost2010Prop33
280
     0
102
RTVSPost2010PropOp33
 70
     1
102
RTVSPost2010Prop34
280
     0
102
RTVSPost2010PropOp34
 70
     1
102
RTVSPost2010Prop35
280
     0
102
RTVSPost2010PropOp35
 70
     1
102
RTVSPost2010Prop36
280
     0
102
RTVSPost2010PropOp36
 70
     1
102
RTVSPost2010Prop37
 90
       50
102
RTVSPost2010PropOp37
 70
     1
102
RTVSPost2010Prop38
140
0.0
102
RTVSPost2010PropOp38
 70
     1
102
RTVSPost2010Prop39
140
1.0
102
RTVSPost2010PropOp39
 70
     1
102
RTVSPost2010Prop40
 90
        0
102
RTVSPost2010PropOp40
 70
     1
102
RTVSPost2010Prop41ColorIndex
 90
       18
102
RTVSPost2010Prop41ColorRGB
 90
        0
102
RTVSPost2010PropOp41
 70
     1
102
RTVSPost2010Prop42
 90
       50
102
RTVSPost2010PropOp42
 70
     1
102
RTVSPost2010Prop43
 90
        3
102
RTVSPost2010PropOp43
 70
     1
102
RTVSPost2010Prop44ColorIndex
 90
        5
102
RTVSPost2010Prop44ColorRGB
 90
      255
102
RTVSPost2010PropOp44
 70
     1
102
RTVSPost2010Prop45
280
     0
102
RTVSPost2010PropOp45
 70
     1
102
RTVSPost2010Prop46
 90
       50
102
RTVSPost2010PropOp46
 70
     1
102
RTVSPost2010Prop47
 90
       50
102
RTVSPost2010PropOp47
 70
     1
102
RTVSPost2010Prop48
 90
       50
102
RTVSPost2010PropOp48
 70
     1
102
RTVSPost2010Prop49
280
     0
102
RTVSPost2010PropOp49
 70
     1
102
RTVSPost2010Prop50
 90
       50
102
RTVSPost2010PropOp50
 70
     1
102
RTVSPost2010Prop51ColorIndex
 90
      256
102
RTVSPost2010Prop51ColorRGB
 90
-16777216
102
RTVSPost2010PropOp51
 70
     0
102
RTVSPost2010Prop52
140
1.0
102
RTVSPost2010PropOp52
 70
     0
102
RTVSPost2010Prop53
 90
        2
102
RTVSPost2010PropOp53
 70
     1
102
RTVSPost2010Prop54
  1
strokes_ogs.tif
102
RTVSPost2010PropOp54
 70
     1
102
RTVSPost2010Prop55
280
     0
102
RTVSPost2010PropOp55
 70
     1
102
RTVSPost2010Prop56
140
1.0
102
RTVSPost2010PropOp56
 70
     1
102
RTVSPost2010Prop57
140
1.0
102
RTVSPost2010PropOp57
 70
     1
102
RTVSPropertyOp0
 70
     1
102
RTVSPropertyOp1
 70
     1
102
RTVSPropertyOp2
 70
     1
102
RTVSPropertyOp3
 70
     1
102
RTVSPropertyOp4
 70
     1
102
RTVSPropertyOp5
 70
     1
102
RTVSPropertyOp6
 70
     1
102
RTVSPropertyOp7
 70
     1
102
RTVSPropertyOp8
 70
     1
102
RTVSPropertyOp9
 70
     1
102
RTVSPropertyOp10
 70
     1
102
RTVSPropertyOp11
 70
     1
102
RTVSPropertyOp12
 70
     1
102
RTVSPropertyOp13
 70
     1
102
RTVSPropertyOp14
 70
     1
102
RTVSPropertyOp15
 70
     1
102
RTVSPropertyOp16
 70
     1
102
RTVSPropertyOp17
 70
     1
102
RTVSPropertyOp18
 70
     1
102
RTVSPropertyOp19
 70
     1
102
RTVSPropertyOp20
 70
     1
102
RTVSPropertyOp21
 70
     1
102
RTVSPropertyOp22
 70
     1
102
RTVSPropertyOp23
 70
     1
102
RTVSPropertyOp24
 70
     1
102
RTVSPropertyOp25
 70
     1
102
RTVSPropertyOp26
 70
     1
102
RTVSPropertyOp27
 70
     1
102
RTVSPropertyOp28
 70
     1
102
RTVSPropertyOp29
 70
     1
102
RTVSPropertyOp30
 70
     1
102
RTVSPropertyOp31
 70
     1
102
RTVSPropertyOp32
 70
     1
102
RTVSPropertyOp33
 70
     1
102
RTVSPropertyOp34
 70
     1
102
RTVSPropertyOp35
 70
     1
102
RTVSPropertyOp36
 70
     1
102
RTVSPropertyOp37
 70
     1
102
RTVSPropertyOp38
 70
     1
102
RTVSPropertyOp39
 70
     1
102
RTVSPropertyOp40
 70
     1
102
RTVSPropertyOp41
 70
     1
102
RTVSPropertyOp42
 70
     1
102
RTVSPropertyOp43
 70
     1
102
RTVSPropertyOp44
 70
     1
102
RTVSPropertyOp45
 70
     1
102
RTVSPropertyOp46
 70
     1
102
RTVSPropertyOp47
 70
     1
102
RTVSPropertyOp48
 70
     1
102
RTVSPropertyOp49
 70
     1
102
RTVSPropertyOp50
 70
     1
102
RTVSPropertyOp51
 70
     0
102
RTVSPropertyOp52
 70
     0
102
RTVSPropertyOp53
 70
     1
102
RTVSPropertyOp54
 70
     1
102
RTVSPropertyOp55
 70
     1
102
RTVSPropertyOp56
 70
     1
102
RTVSPropertyOp57
 70
     1
102
RTVSPropertyOp58
 70
     1
102
RTVSPropertyOp59
 70
     1
102
RTVSPropertyOp60
 70
     1
102
RTVSPropertyOp61
 70
     1
102
RTVSPropertyOp62
 70
     1
  0
XRECORD
  5
118F5
102
{ACAD_REACTORS
330
118F4
102
}
330
118F4
100
AcDbXrecord
280
     1
102
RTVSPost2010Prop28
280
     0
102
RTVSPost2010PropOp28
 70
     1
102
RTVSPost2010Prop29
280
     1
102
RTVSPost2010PropOp29
 70
     1
102
RTVSPost2010Prop30
280
     1
102
RTVSPost2010PropOp30
 70
     1
102
RTVSPost2010Prop31
280
     0
102
RTVSPost2010PropOp31
 70
     1
102
RTVSPost2010Prop32
280
     0
102
RTVSPost2010PropOp32
 70
     1
102
RTVSPost2010Prop33
280
     0
102
RTVSPost2010PropOp33
 70
     1
102
RTVSPost2010Prop34
280
     0
102
RTVSPost2010PropOp34
 70
     1
102
RTVSPost2010Prop35
280
     0
102
RTVSPost2010PropOp35
 70
     1
102
RTVSPost2010Prop36
280
     0
102
RTVSPost2010PropOp36
 70
     1
102
RTVSPost2010Prop37
 90
       50
102
RTVSPost2010PropOp37
 70
     1
102
RTVSPost2010Prop38
140
0.0
102
RTVSPost2010PropOp38
 70
     1
102
RTVSPost2010Prop39
140
1.0
102
RTVSPost2010PropOp39
 70
     1
102
RTVSPost2010Prop40
 90
        0
102
RTVSPost2010PropOp40
 70
     1
102
RTVSPost2010Prop41ColorIndex
 90
       18
102
RTVSPost2010Prop41ColorRGB
 90
        0
102
RTVSPost2010PropOp41
 70
     1
102
RTVSPost2010Prop42
 90
       50
102
RTVSPost2010PropOp42
 70
     1
102
RTVSPost2010Prop43
 90
        3
102
RTVSPost2010PropOp43
 70
     1
102
RTVSPost2010Prop44ColorIndex
 90
        5
102
RTVSPost2010Prop44ColorRGB
 90
      255
102
RTVSPost2010PropOp44
 70
     1
102
RTVSPost2010Prop45
280
     0
102
RTVSPost2010PropOp45
 70
     1
102
RTVSPost2010Prop46
 90
       50
102
RTVSPost2010PropOp46
 70
     1
102
RTVSPost2010Prop47
 90
       50
102
RTVSPost2010PropOp47
 70
     1
102
RTVSPost2010Prop48
 90
       50
102
RTVSPost2010PropOp48
 70
     1
102
RTVSPost2010Prop49
280
     0
102
RTVSPost2010PropOp49
 70
     1
102
RTVSPost2010Prop50
 90
       50
102
RTVSPost2010PropOp50
 70
     1
102
RTVSPost2010Prop51ColorIndex
 90
      256
102
RTVSPost2010Prop51ColorRGB
 90
-16777216
102
RTVSPost2010PropOp51
 70
     0
102
RTVSPost2010Prop52
140
1.0
102
RTVSPost2010PropOp52
 70
     0
102
RTVSPost2010Prop53
 90
        2
102
RTVSPost2010PropOp53
 70
     1
102
RTVSPost2010Prop54
  1
strokes_ogs.tif
102
RTVSPost2010PropOp54
 70
     1
102
RTVSPost2010Prop55
280
     0
102
RTVSPost2010PropOp55
 70
     1
102
RTVSPost2010Prop56
140
1.0
102
RTVSPost2010PropOp56
 70
     1
102
RTVSPost2010Prop57
140
1.0
102
RTVSPost2010PropOp57
 70
     1
102
RTVSPropertyOp0
 70
     1
102
RTVSPropertyOp1
 70
     1
102
RTVSPropertyOp2
 70
     1
102
RTVSPropertyOp3
 70
     1
102
RTVSPropertyOp4
 70
     1
102
RTVSPropertyOp5
 70
     1
102
RTVSPropertyOp6
 70
     1
102
RTVSPropertyOp7
 70
     1
102
RTVSPropertyOp8
 70
     1
102
RTVSPropertyOp9
 70
     1
102
RTVSPropertyOp10
 70
     1
102
RTVSPropertyOp11
 70
     1
102
RTVSPropertyOp12
 70
     1
102
RTVSPropertyOp13
 70
     1
102
RTVSPropertyOp14
 70
     1
102
RTVSPropertyOp15
 70
     1
102
RTVSPropertyOp16
 70
     1
102
RTVSPropertyOp17
 70
     1
102
RTVSPropertyOp18
 70
     1
102
RTVSPropertyOp19
 70
     1
102
RTVSPropertyOp20
 70
     1
102
RTVSPropertyOp21
 70
     1
102
RTVSPropertyOp22
 70
     1
102
RTVSPropertyOp23
 70
     1
102
RTVSPropertyOp24
 70
     1
102
RTVSPropertyOp25
 70
     1
102
RTVSPropertyOp26
 70
     1
102
RTVSPropertyOp27
 70
     1
102
RTVSPropertyOp28
 70
     1
102
RTVSPropertyOp29
 70
     1
102
RTVSPropertyOp30
 70
     1
102
RTVSPropertyOp31
 70
     1
102
RTVSPropertyOp32
 70
     1
102
RTVSPropertyOp33
 70
     1
102
RTVSPropertyOp34
 70
     1
102
RTVSPropertyOp35
 70
     1
102
RTVSPropertyOp36
 70
     1
102
RTVSPropertyOp37
 70
     1
102
RTVSPropertyOp38
 70
     1
102
RTVSPropertyOp39
 70
     1
102
RTVSPropertyOp40
 70
     1
102
RTVSPropertyOp41
 70
     1
102
RTVSPropertyOp42
 70
     1
102
RTVSPropertyOp43
 70
     1
102
RTVSPropertyOp44
 70
     1
102
RTVSPropertyOp45
 70
     1
102
RTVSPropertyOp46
 70
     1
102
RTVSPropertyOp47
 70
     1
102
RTVSPropertyOp48
 70
     1
102
RTVSPropertyOp49
 70
     1
102
RTVSPropertyOp50
 70
     1
102
RTVSPropertyOp51
 70
     0
102
RTVSPropertyOp52
 70
     0
102
RTVSPropertyOp53
 70
     1
102
RTVSPropertyOp54
 70
     1
102
RTVSPropertyOp55
 70
     1
102
RTVSPropertyOp56
 70
     1
102
RTVSPropertyOp57
 70
     1
102
RTVSPropertyOp58
 70
     1
102
RTVSPropertyOp59
 70
     1
102
RTVSPropertyOp60
 70
     1
102
RTVSPropertyOp61
 70
     1
102
RTVSPropertyOp62
 70
     1
  0
XRECORD
  5
118F3
102
{ACAD_REACTORS
330
118F2
102
}
330
118F2
100
AcDbXrecord
280
     1
102
RTVSPost2010Prop28
280
     0
102
RTVSPost2010PropOp28
 70
     1
102
RTVSPost2010Prop29
280
     1
102
RTVSPost2010PropOp29
 70
     1
102
RTVSPost2010Prop30
280
     1
102
RTVSPost2010PropOp30
 70
     1
102
RTVSPost2010Prop31
280
     0
102
RTVSPost2010PropOp31
 70
     1
102
RTVSPost2010Prop32
280
     0
102
RTVSPost2010PropOp32
 70
     1
102
RTVSPost2010Prop33
280
     0
102
RTVSPost2010PropOp33
 70
     1
102
RTVSPost2010Prop34
280
     0
102
RTVSPost2010PropOp34
 70
     1
102
RTVSPost2010Prop35
280
     0
102
RTVSPost2010PropOp35
 70
     1
102
RTVSPost2010Prop36
280
     0
102
RTVSPost2010PropOp36
 70
     1
102
RTVSPost2010Prop37
 90
       50
102
RTVSPost2010PropOp37
 70
     1
102
RTVSPost2010Prop38
140
0.0
102
RTVSPost2010PropOp38
 70
     1
102
RTVSPost2010Prop39
140
1.0
102
RTVSPost2010PropOp39
 70
     1
102
RTVSPost2010Prop40
 90
        0
102
RTVSPost2010PropOp40
 70
     1
102
RTVSPost2010Prop41ColorIndex
 90
       18
102
RTVSPost2010Prop41ColorRGB
 90
        0
102
RTVSPost2010PropOp41
 70
     1
102
RTVSPost2010Prop42
 90
       50
102
RTVSPost2010PropOp42
 70
     1
102
RTVSPost2010Prop43
 90
        3
102
RTVSPost2010PropOp43
 70
     1
102
RTVSPost2010Prop44ColorIndex
 90
        5
102
RTVSPost2010Prop44ColorRGB
 90
      255
102
RTVSPost2010PropOp44
 70
     1
102
RTVSPost2010Prop45
280
     0
102
RTVSPost2010PropOp45
 70
     1
102
RTVSPost2010Prop46
 90
       50
102
RTVSPost2010PropOp46
 70
     1
102
RTVSPost2010Prop47
 90
       50
102
RTVSPost2010PropOp47
 70
     1
102
RTVSPost2010Prop48
 90
       50
102
RTVSPost2010PropOp48
 70
     1
102
RTVSPost2010Prop49
280
     0
102
RTVSPost2010PropOp49
 70
     1
102
RTVSPost2010Prop50
 90
       50
102
RTVSPost2010PropOp50
 70
     1
102
RTVSPost2010Prop51ColorIndex
 90
      256
102
RTVSPost2010Prop51ColorRGB
 90
-16777216
102
RTVSPost2010PropOp51
 70
     0
102
RTVSPost2010Prop52
140
1.0
102
RTVSPost2010PropOp52
 70
     0
102
RTVSPost2010Prop53
 90
        2
102
RTVSPost2010PropOp53
 70
     1
102
RTVSPost2010Prop54
  1
strokes_ogs.tif
102
RTVSPost2010PropOp54
 70
     1
102
RTVSPost2010Prop55
280
     0
102
RTVSPost2010PropOp55
 70
     1
102
RTVSPost2010Prop56
140
1.0
102
RTVSPost2010PropOp56
 70
     1
102
RTVSPost2010Prop57
140
1.0
102
RTVSPost2010PropOp57
 70
     1
102
RTVSPropertyOp0
 70
     1
102
RTVSPropertyOp1
 70
     1
102
RTVSPropertyOp2
 70
     1
102
RTVSPropertyOp3
 70
     1
102
RTVSPropertyOp4
 70
     1
102
RTVSPropertyOp5
 70
     1
102
RTVSPropertyOp6
 70
     1
102
RTVSPropertyOp7
 70
     1
102
RTVSPropertyOp8
 70
     1
102
RTVSPropertyOp9
 70
     1
102
RTVSPropertyOp10
 70
     1
102
RTVSPropertyOp11
 70
     1
102
RTVSPropertyOp12
 70
     1
102
RTVSPropertyOp13
 70
     1
102
RTVSPropertyOp14
 70
     1
102
RTVSPropertyOp15
 70
     1
102
RTVSPropertyOp16
 70
     1
102
RTVSPropertyOp17
 70
     1
102
RTVSPropertyOp18
 70
     1
102
RTVSPropertyOp19
 70
     1
102
RTVSPropertyOp20
 70
     1
102
RTVSPropertyOp21
 70
     1
102
RTVSPropertyOp22
 70
     1
102
RTVSPropertyOp23
 70
     1
102
RTVSPropertyOp24
 70
     1
102
RTVSPropertyOp25
 70
     1
102
RTVSPropertyOp26
 70
     1
102
RTVSPropertyOp27
 70
     1
102
RTVSPropertyOp28
 70
     1
102
RTVSPropertyOp29
 70
     1
102
RTVSPropertyOp30
 70
     1
102
RTVSPropertyOp31
 70
     1
102
RTVSPropertyOp32
 70
     1
102
RTVSPropertyOp33
 70
     1
102
RTVSPropertyOp34
 70
     1
102
RTVSPropertyOp35
 70
     1
102
RTVSPropertyOp36
 70
     1
102
RTVSPropertyOp37
 70
     1
102
RTVSPropertyOp38
 70
     1
102
RTVSPropertyOp39
 70
     1
102
RTVSPropertyOp40
 70
     1
102
RTVSPropertyOp41
 70
     1
102
RTVSPropertyOp42
 70
     1
102
RTVSPropertyOp43
 70
     1
102
RTVSPropertyOp44
 70
     1
102
RTVSPropertyOp45
 70
     1
102
RTVSPropertyOp46
 70
     1
102
RTVSPropertyOp47
 70
     1
102
RTVSPropertyOp48
 70
     1
102
RTVSPropertyOp49
 70
     1
102
RTVSPropertyOp50
 70
     1
102
RTVSPropertyOp51
 70
     0
102
RTVSPropertyOp52
 70
     0
102
RTVSPropertyOp53
 70
     1
102
RTVSPropertyOp54
 70
     1
102
RTVSPropertyOp55
 70
     1
102
RTVSPropertyOp56
 70
     1
102
RTVSPropertyOp57
 70
     1
102
RTVSPropertyOp58
 70
     1
102
RTVSPropertyOp59
 70
     1
102
RTVSPropertyOp60
 70
     1
102
RTVSPropertyOp61
 70
     1
102
RTVSPropertyOp62
 70
     1
  0
XRECORD
  5
118ED
102
{ACAD_REACTORS
330
118EC
102
}
330
118EC
100
AcDbXrecord
280
     1
102
RTVSPost2010Prop28
280
     0
102
RTVSPost2010PropOp28
 70
     1
102
RTVSPost2010Prop29
280
     1
102
RTVSPost2010PropOp29
 70
     1
102
RTVSPost2010Prop30
280
     1
102
RTVSPost2010PropOp30
 70
     1
102
RTVSPost2010Prop31
280
     0
102
RTVSPost2010PropOp31
 70
     1
102
RTVSPost2010Prop32
280
     0
102
RTVSPost2010PropOp32
 70
     1
102
RTVSPost2010Prop33
280
     0
102
RTVSPost2010PropOp33
 70
     1
102
RTVSPost2010Prop34
280
     0
102
RTVSPost2010PropOp34
 70
     1
102
RTVSPost2010Prop35
280
     0
102
RTVSPost2010PropOp35
 70
     1
102
RTVSPost2010Prop36
280
     0
102
RTVSPost2010PropOp36
 70
     1
102
RTVSPost2010Prop37
 90
       50
102
RTVSPost2010PropOp37
 70
     1
102
RTVSPost2010Prop38
140
0.0
102
RTVSPost2010PropOp38
 70
     1
102
RTVSPost2010Prop39
140
1.0
102
RTVSPost2010PropOp39
 70
     1
102
RTVSPost2010Prop40
 90
        0
102
RTVSPost2010PropOp40
 70
     1
102
RTVSPost2010Prop41ColorIndex
 90
       18
102
RTVSPost2010Prop41ColorRGB
 90
        0
102
RTVSPost2010PropOp41
 70
     1
102
RTVSPost2010Prop42
 90
       50
102
RTVSPost2010PropOp42
 70
     1
102
RTVSPost2010Prop43
 90
        3
102
RTVSPost2010PropOp43
 70
     1
102
RTVSPost2010Prop44ColorIndex
 90
        5
102
RTVSPost2010Prop44ColorRGB
 90
      255
102
RTVSPost2010PropOp44
 70
     1
102
RTVSPost2010Prop45
280
     0
102
RTVSPost2010PropOp45
 70
     1
102
RTVSPost2010Prop46
 90
       50
102
RTVSPost2010PropOp46
 70
     1
102
RTVSPost2010Prop47
 90
       50
102
RTVSPost2010PropOp47
 70
     1
102
RTVSPost2010Prop48
 90
       50
102
RTVSPost2010PropOp48
 70
     1
102
RTVSPost2010Prop49
280
     0
102
RTVSPost2010PropOp49
 70
     1
102
RTVSPost2010Prop50
 90
       50
102
RTVSPost2010PropOp50
 70
     1
102
RTVSPost2010Prop51ColorIndex
 90
      256
102
RTVSPost2010Prop51ColorRGB
 90
-16777216
102
RTVSPost2010PropOp51
 70
     0
102
RTVSPost2010Prop52
140
1.0
102
RTVSPost2010PropOp52
 70
     0
102
RTVSPost2010Prop53
 90
        2
102
RTVSPost2010PropOp53
 70
     1
102
RTVSPost2010Prop54
  1
strokes_ogs.tif
102
RTVSPost2010PropOp54
 70
     1
102
RTVSPost2010Prop55
280
     0
102
RTVSPost2010PropOp55
 70
     1
102
RTVSPost2010Prop56
140
1.0
102
RTVSPost2010PropOp56
 70
     1
102
RTVSPost2010Prop57
140
1.0
102
RTVSPost2010PropOp57
 70
     1
102
RTVSPropertyOp0
 70
     1
102
RTVSPropertyOp1
 70
     1
102
RTVSPropertyOp2
 70
     1
102
RTVSPropertyOp3
 70
     1
102
RTVSPropertyOp4
 70
     1
102
RTVSPropertyOp5
 70
     1
102
RTVSPropertyOp6
 70
     1
102
RTVSPropertyOp7
 70
     1
102
RTVSPropertyOp8
 70
     1
102
RTVSPropertyOp9
 70
     1
102
RTVSPropertyOp10
 70
     1
102
RTVSPropertyOp11
 70
     1
102
RTVSPropertyOp12
 70
     1
102
RTVSPropertyOp13
 70
     1
102
RTVSPropertyOp14
 70
     1
102
RTVSPropertyOp15
 70
     1
102
RTVSPropertyOp16
 70
     1
102
RTVSPropertyOp17
 70
     1
102
RTVSPropertyOp18
 70
     1
102
RTVSPropertyOp19
 70
     1
102
RTVSPropertyOp20
 70
     1
102
RTVSPropertyOp21
 70
     1
102
RTVSPropertyOp22
 70
     1
102
RTVSPropertyOp23
 70
     1
102
RTVSPropertyOp24
 70
     1
102
RTVSPropertyOp25
 70
     1
102
RTVSPropertyOp26
 70
     1
102
RTVSPropertyOp27
 70
     1
102
RTVSPropertyOp28
 70
     1
102
RTVSPropertyOp29
 70
     1
102
RTVSPropertyOp30
 70
     1
102
RTVSPropertyOp31
 70
     1
102
RTVSPropertyOp32
 70
     1
102
RTVSPropertyOp33
 70
     1
102
RTVSPropertyOp34
 70
     1
102
RTVSPropertyOp35
 70
     1
102
RTVSPropertyOp36
 70
     1
102
RTVSPropertyOp37
 70
     1
102
RTVSPropertyOp38
 70
     1
102
RTVSPropertyOp39
 70
     1
102
RTVSPropertyOp40
 70
     1
102
RTVSPropertyOp41
 70
     1
102
RTVSPropertyOp42
 70
     1
102
RTVSPropertyOp43
 70
     1
102
RTVSPropertyOp44
 70
     1
102
RTVSPropertyOp45
 70
     1
102
RTVSPropertyOp46
 70
     1
102
RTVSPropertyOp47
 70
     1
102
RTVSPropertyOp48
 70
     1
102
RTVSPropertyOp49
 70
     1
102
RTVSPropertyOp50
 70
     1
102
RTVSPropertyOp51
 70
     0
102
RTVSPropertyOp52
 70
     0
102
RTVSPropertyOp53
 70
     1
102
RTVSPropertyOp54
 70
     1
102
RTVSPropertyOp55
 70
     1
102
RTVSPropertyOp56
 70
     1
102
RTVSPropertyOp57
 70
     1
102
RTVSPropertyOp58
 70
     1
102
RTVSPropertyOp59
 70
     1
102
RTVSPropertyOp60
 70
     1
102
RTVSPropertyOp61
 70
     1
102
RTVSPropertyOp62
 70
     1
  0
XRECORD
  5
118EF
102
{ACAD_REACTORS
330
118EE
102
}
330
118EE
100
AcDbXrecord
280
     1
102
RTVSPost2010Prop28
280
     0
102
RTVSPost2010PropOp28
 70
     1
102
RTVSPost2010Prop29
280
     1
102
RTVSPost2010PropOp29
 70
     1
102
RTVSPost2010Prop30
280
     1
102
RTVSPost2010PropOp30
 70
     1
102
RTVSPost2010Prop31
280
     0
102
RTVSPost2010PropOp31
 70
     1
102
RTVSPost2010Prop32
280
     0
102
RTVSPost2010PropOp32
 70
     1
102
RTVSPost2010Prop33
280
     0
102
RTVSPost2010PropOp33
 70
     1
102
RTVSPost2010Prop34
280
     0
102
RTVSPost2010PropOp34
 70
     1
102
RTVSPost2010Prop35
280
     0
102
RTVSPost2010PropOp35
 70
     1
102
RTVSPost2010Prop36
280
     0
102
RTVSPost2010PropOp36
 70
     1
102
RTVSPost2010Prop37
 90
       50
102
RTVSPost2010PropOp37
 70
     1
102
RTVSPost2010Prop38
140
0.0
102
RTVSPost2010PropOp38
 70
     1
102
RTVSPost2010Prop39
140
1.0
102
RTVSPost2010PropOp39
 70
     1
102
RTVSPost2010Prop40
 90
        0
102
RTVSPost2010PropOp40
 70
     1
102
RTVSPost2010Prop41ColorIndex
 90
       18
102
RTVSPost2010Prop41ColorRGB
 90
        0
102
RTVSPost2010PropOp41
 70
     1
102
RTVSPost2010Prop42
 90
       50
102
RTVSPost2010PropOp42
 70
     1
102
RTVSPost2010Prop43
 90
        3
102
RTVSPost2010PropOp43
 70
     1
102
RTVSPost2010Prop44ColorIndex
 90
        5
102
RTVSPost2010Prop44ColorRGB
 90
      255
102
RTVSPost2010PropOp44
 70
     1
102
RTVSPost2010Prop45
280
     0
102
RTVSPost2010PropOp45
 70
     1
102
RTVSPost2010Prop46
 90
       50
102
RTVSPost2010PropOp46
 70
     1
102
RTVSPost2010Prop47
 90
       50
102
RTVSPost2010PropOp47
 70
     1
102
RTVSPost2010Prop48
 90
       50
102
RTVSPost2010PropOp48
 70
     1
102
RTVSPost2010Prop49
280
     0
102
RTVSPost2010PropOp49
 70
     1
102
RTVSPost2010Prop50
 90
       50
102
RTVSPost2010PropOp50
 70
     1
102
RTVSPost2010Prop51ColorIndex
 90
      256
102
RTVSPost2010Prop51ColorRGB
 90
-16777216
102
RTVSPost2010PropOp51
 70
     0
102
RTVSPost2010Prop52
140
1.0
102
RTVSPost2010PropOp52
 70
     0
102
RTVSPost2010Prop53
 90
        2
102
RTVSPost2010PropOp53
 70
     1
102
RTVSPost2010Prop54
  1
strokes_ogs.tif
102
RTVSPost2010PropOp54
 70
     1
102
RTVSPost2010Prop55
280
     0
102
RTVSPost2010PropOp55
 70
     1
102
RTVSPost2010Prop56
140
1.0
102
RTVSPost2010PropOp56
 70
     1
102
RTVSPost2010Prop57
140
1.0
102
RTVSPost2010PropOp57
 70
     1
102
RTVSPropertyOp0
 70
     1
102
RTVSPropertyOp1
 70
     1
102
RTVSPropertyOp2
 70
     1
102
RTVSPropertyOp3
 70
     1
102
RTVSPropertyOp4
 70
     1
102
RTVSPropertyOp5
 70
     1
102
RTVSPropertyOp6
 70
     1
102
RTVSPropertyOp7
 70
     1
102
RTVSPropertyOp8
 70
     1
102
RTVSPropertyOp9
 70
     1
102
RTVSPropertyOp10
 70
     1
102
RTVSPropertyOp11
 70
     1
102
RTVSPropertyOp12
 70
     1
102
RTVSPropertyOp13
 70
     1
102
RTVSPropertyOp14
 70
     1
102
RTVSPropertyOp15
 70
     1
102
RTVSPropertyOp16
 70
     1
102
RTVSPropertyOp17
 70
     1
102
RTVSPropertyOp18
 70
     1
102
RTVSPropertyOp19
 70
     1
102
RTVSPropertyOp20
 70
     1
102
RTVSPropertyOp21
 70
     1
102
RTVSPropertyOp22
 70
     1
102
RTVSPropertyOp23
 70
     1
102
RTVSPropertyOp24
 70
     1
102
RTVSPropertyOp25
 70
     1
102
RTVSPropertyOp26
 70
     1
102
RTVSPropertyOp27
 70
     1
102
RTVSPropertyOp28
 70
     1
102
RTVSPropertyOp29
 70
     1
102
RTVSPropertyOp30
 70
     1
102
RTVSPropertyOp31
 70
     1
102
RTVSPropertyOp32
 70
     1
102
RTVSPropertyOp33
 70
     1
102
RTVSPropertyOp34
 70
     1
102
RTVSPropertyOp35
 70
     1
102
RTVSPropertyOp36
 70
     1
102
RTVSPropertyOp37
 70
     1
102
RTVSPropertyOp38
 70
     1
102
RTVSPropertyOp39
 70
     1
102
RTVSPropertyOp40
 70
     1
102
RTVSPropertyOp41
 70
     1
102
RTVSPropertyOp42
 70
     1
102
RTVSPropertyOp43
 70
     1
102
RTVSPropertyOp44
 70
     1
102
RTVSPropertyOp45
 70
     1
102
RTVSPropertyOp46
 70
     1
102
RTVSPropertyOp47
 70
     1
102
RTVSPropertyOp48
 70
     1
102
RTVSPropertyOp49
 70
     1
102
RTVSPropertyOp50
 70
     1
102
RTVSPropertyOp51
 70
     0
102
RTVSPropertyOp52
 70
     0
102
RTVSPropertyOp53
 70
     1
102
RTVSPropertyOp54
 70
     1
102
RTVSPropertyOp55
 70
     1
102
RTVSPropertyOp56
 70
     1
102
RTVSPropertyOp57
 70
     1
102
RTVSPropertyOp58
 70
     1
102
RTVSPropertyOp59
 70
     1
102
RTVSPropertyOp60
 70
     1
102
RTVSPropertyOp61
 70
     1
102
RTVSPropertyOp62
 70
     1
  0
XRECORD
  5
118DD
102
{ACAD_REACTORS
330
118DC
102
}
330
118DC
100
AcDbXrecord
280
     1
102
RTVSPost2010Prop28
280
     0
102
RTVSPost2010PropOp28
 70
     1
102
RTVSPost2010Prop29
280
     1
102
RTVSPost2010PropOp29
 70
     1
102
RTVSPost2010Prop30
280
     1
102
RTVSPost2010PropOp30
 70
     1
102
RTVSPost2010Prop31
280
     0
102
RTVSPost2010PropOp31
 70
     1
102
RTVSPost2010Prop32
280
     0
102
RTVSPost2010PropOp32
 70
     1
102
RTVSPost2010Prop33
280
     0
102
RTVSPost2010PropOp33
 70
     1
102
RTVSPost2010Prop34
280
     0
102
RTVSPost2010PropOp34
 70
     1
102
RTVSPost2010Prop35
280
     0
102
RTVSPost2010PropOp35
 70
     1
102
RTVSPost2010Prop36
280
     0
102
RTVSPost2010PropOp36
 70
     1
102
RTVSPost2010Prop37
 90
       50
102
RTVSPost2010PropOp37
 70
     1
102
RTVSPost2010Prop38
140
0.0
102
RTVSPost2010PropOp38
 70
     1
102
RTVSPost2010Prop39
140
1.0
102
RTVSPost2010PropOp39
 70
     1
102
RTVSPost2010Prop40
 90
        0
102
RTVSPost2010PropOp40
 70
     1
102
RTVSPost2010Prop41ColorIndex
 90
       18
102
RTVSPost2010Prop41ColorRGB
 90
        0
102
RTVSPost2010PropOp41
 70
     1
102
RTVSPost2010Prop42
 90
       50
102
RTVSPost2010PropOp42
 70
     1
102
RTVSPost2010Prop43
 90
        3
102
RTVSPost2010PropOp43
 70
     1
102
RTVSPost2010Prop44ColorIndex
 90
        5
102
RTVSPost2010Prop44ColorRGB
 90
      255
102
RTVSPost2010PropOp44
 70
     1
102
RTVSPost2010Prop45
280
     0
102
RTVSPost2010PropOp45
 70
     1
102
RTVSPost2010Prop46
 90
       50
102
RTVSPost2010PropOp46
 70
     1
102
RTVSPost2010Prop47
 90
       50
102
RTVSPost2010PropOp47
 70
     1
102
RTVSPost2010Prop48
 90
       50
102
RTVSPost2010PropOp48
 70
     1
102
RTVSPost2010Prop49
280
     0
102
RTVSPost2010PropOp49
 70
     1
102
RTVSPost2010Prop50
 90
       50
102
RTVSPost2010PropOp50
 70
     1
102
RTVSPost2010Prop51ColorIndex
 90
      256
102
RTVSPost2010Prop51ColorRGB
 90
-16777216
102
RTVSPost2010PropOp51
 70
     0
102
RTVSPost2010Prop52
140
1.0
102
RTVSPost2010PropOp52
 70
     0
102
RTVSPost2010Prop53
 90
        2
102
RTVSPost2010PropOp53
 70
     1
102
RTVSPost2010Prop54
  1
strokes_ogs.tif
102
RTVSPost2010PropOp54
 70
     1
102
RTVSPost2010Prop55
280
     0
102
RTVSPost2010PropOp55
 70
     1
102
RTVSPost2010Prop56
140
1.0
102
RTVSPost2010PropOp56
 70
     1
102
RTVSPost2010Prop57
140
1.0
102
RTVSPost2010PropOp57
 70
     1
102
RTVSPropertyOp0
 70
     1
102
RTVSPropertyOp1
 70
     1
102
RTVSPropertyOp2
 70
     1
102
RTVSPropertyOp3
 70
     1
102
RTVSPropertyOp4
 70
     1
102
RTVSPropertyOp5
 70
     1
102
RTVSPropertyOp6
 70
     1
102
RTVSPropertyOp7
 70
     1
102
RTVSPropertyOp8
 70
     1
102
RTVSPropertyOp9
 70
     1
102
RTVSPropertyOp10
 70
     1
102
RTVSPropertyOp11
 70
     1
102
RTVSPropertyOp12
 70
     1
102
RTVSPropertyOp13
 70
     1
102
RTVSPropertyOp14
 70
     1
102
RTVSPropertyOp15
 70
     1
102
RTVSPropertyOp16
 70
     1
102
RTVSPropertyOp17
 70
     1
102
RTVSPropertyOp18
 70
     1
102
RTVSPropertyOp19
 70
     1
102
RTVSPropertyOp20
 70
     1
102
RTVSPropertyOp21
 70
     1
102
RTVSPropertyOp22
 70
     1
102
RTVSPropertyOp23
 70
     1
102
RTVSPropertyOp24
 70
     1
102
RTVSPropertyOp25
 70
     1
102
RTVSPropertyOp26
 70
     1
102
RTVSPropertyOp27
 70
     1
102
RTVSPropertyOp28
 70
     1
102
RTVSPropertyOp29
 70
     1
102
RTVSPropertyOp30
 70
     1
102
RTVSPropertyOp31
 70
     1
102
RTVSPropertyOp32
 70
     1
102
RTVSPropertyOp33
 70
     1
102
RTVSPropertyOp34
 70
     1
102
RTVSPropertyOp35
 70
     1
102
RTVSPropertyOp36
 70
     1
102
RTVSPropertyOp37
 70
     1
102
RTVSPropertyOp38
 70
     1
102
RTVSPropertyOp39
 70
     1
102
RTVSPropertyOp40
 70
     1
102
RTVSPropertyOp41
 70
     1
102
RTVSPropertyOp42
 70
     1
102
RTVSPropertyOp43
 70
     1
102
RTVSPropertyOp44
 70
     1
102
RTVSPropertyOp45
 70
     1
102
RTVSPropertyOp46
 70
     1
102
RTVSPropertyOp47
 70
     1
102
RTVSPropertyOp48
 70
     1
102
RTVSPropertyOp49
 70
     1
102
RTVSPropertyOp50
 70
     1
102
RTVSPropertyOp51
 70
     0
102
RTVSPropertyOp52
 70
     0
102
RTVSPropertyOp53
 70
     1
102
RTVSPropertyOp54
 70
     1
102
RTVSPropertyOp55
 70
     1
102
RTVSPropertyOp56
 70
     1
102
RTVSPropertyOp57
 70
     1
102
RTVSPropertyOp58
 70
     1
102
RTVSPropertyOp59
 70
     1
102
RTVSPropertyOp60
 70
     1
102
RTVSPropertyOp61
 70
     1
102
RTVSPropertyOp62
 70
     1
  0
XRECORD
  5
118D1
102
{ACAD_REACTORS
330
118D0
102
}
330
118D0
100
AcDbXrecord
280
     1
102
RTVSPost2010Prop28
280
     0
102
RTVSPost2010PropOp28
 70
     1
102
RTVSPost2010Prop29
280
     1
102
RTVSPost2010PropOp29
 70
     1
102
RTVSPost2010Prop30
280
     1
102
RTVSPost2010PropOp30
 70
     1
102
RTVSPost2010Prop31
280
     0
102
RTVSPost2010PropOp31
 70
     1
102
RTVSPost2010Prop32
280
     0
102
RTVSPost2010PropOp32
 70
     1
102
RTVSPost2010Prop33
280
     0
102
RTVSPost2010PropOp33
 70
     1
102
RTVSPost2010Prop34
280
     0
102
RTVSPost2010PropOp34
 70
     1
102
RTVSPost2010Prop35
280
     0
102
RTVSPost2010PropOp35
 70
     1
102
RTVSPost2010Prop36
280
     0
102
RTVSPost2010PropOp36
 70
     1
102
RTVSPost2010Prop37
 90
       50
102
RTVSPost2010PropOp37
 70
     1
102
RTVSPost2010Prop38
140
0.0
102
RTVSPost2010PropOp38
 70
     1
102
RTVSPost2010Prop39
140
1.0
102
RTVSPost2010PropOp39
 70
     1
102
RTVSPost2010Prop40
 90
        0
102
RTVSPost2010PropOp40
 70
     1
102
RTVSPost2010Prop41ColorIndex
 90
       18
102
RTVSPost2010Prop41ColorRGB
 90
        0
102
RTVSPost2010PropOp41
 70
     1
102
RTVSPost2010Prop42
 90
       50
102
RTVSPost2010PropOp42
 70
     1
102
RTVSPost2010Prop43
 90
        3
102
RTVSPost2010PropOp43
 70
     1
102
RTVSPost2010Prop44ColorIndex
 90
        5
102
RTVSPost2010Prop44ColorRGB
 90
      255
102
RTVSPost2010PropOp44
 70
     1
102
RTVSPost2010Prop45
280
     0
102
RTVSPost2010PropOp45
 70
     1
102
RTVSPost2010Prop46
 90
       50
102
RTVSPost2010PropOp46
 70
     1
102
RTVSPost2010Prop47
 90
       50
102
RTVSPost2010PropOp47
 70
     1
102
RTVSPost2010Prop48
 90
       50
102
RTVSPost2010PropOp48
 70
     1
102
RTVSPost2010Prop49
280
     0
102
RTVSPost2010PropOp49
 70
     1
102
RTVSPost2010Prop50
 90
       50
102
RTVSPost2010PropOp50
 70
     1
102
RTVSPost2010Prop51ColorIndex
 90
      256
102
RTVSPost2010Prop51ColorRGB
 90
-16777216
102
RTVSPost2010PropOp51
 70
     0
102
RTVSPost2010Prop52
140
1.0
102
RTVSPost2010PropOp52
 70
     0
102
RTVSPost2010Prop53
 90
        2
102
RTVSPost2010PropOp53
 70
     1
102
RTVSPost2010Prop54
  1
strokes_ogs.tif
102
RTVSPost2010PropOp54
 70
     1
102
RTVSPost2010Prop55
280
     0
102
RTVSPost2010PropOp55
 70
     1
102
RTVSPost2010Prop56
140
1.0
102
RTVSPost2010PropOp56
 70
     1
102
RTVSPost2010Prop57
140
1.0
102
RTVSPost2010PropOp57
 70
     1
102
RTVSPropertyOp0
 70
     1
102
RTVSPropertyOp1
 70
     1
102
RTVSPropertyOp2
 70
     1
102
RTVSPropertyOp3
 70
     1
102
RTVSPropertyOp4
 70
     1
102
RTVSPropertyOp5
 70
     1
102
RTVSPropertyOp6
 70
     1
102
RTVSPropertyOp7
 70
     1
102
RTVSPropertyOp8
 70
     1
102
RTVSPropertyOp9
 70
     1
102
RTVSPropertyOp10
 70
     1
102
RTVSPropertyOp11
 70
     1
102
RTVSPropertyOp12
 70
     1
102
RTVSPropertyOp13
 70
     1
102
RTVSPropertyOp14
 70
     1
102
RTVSPropertyOp15
 70
     1
102
RTVSPropertyOp16
 70
     1
102
RTVSPropertyOp17
 70
     1
102
RTVSPropertyOp18
 70
     1
102
RTVSPropertyOp19
 70
     1
102
RTVSPropertyOp20
 70
     1
102
RTVSPropertyOp21
 70
     1
102
RTVSPropertyOp22
 70
     1
102
RTVSPropertyOp23
 70
     1
102
RTVSPropertyOp24
 70
     1
102
RTVSPropertyOp25
 70
     1
102
RTVSPropertyOp26
 70
     1
102
RTVSPropertyOp27
 70
     1
102
RTVSPropertyOp28
 70
     1
102
RTVSPropertyOp29
 70
     1
102
RTVSPropertyOp30
 70
     1
102
RTVSPropertyOp31
 70
     1
102
RTVSPropertyOp32
 70
     1
102
RTVSPropertyOp33
 70
     1
102
RTVSPropertyOp34
 70
     1
102
RTVSPropertyOp35
 70
     1
102
RTVSPropertyOp36
 70
     1
102
RTVSPropertyOp37
 70
     1
102
RTVSPropertyOp38
 70
     1
102
RTVSPropertyOp39
 70
     1
102
RTVSPropertyOp40
 70
     1
102
RTVSPropertyOp41
 70
     1
102
RTVSPropertyOp42
 70
     1
102
RTVSPropertyOp43
 70
     1
102
RTVSPropertyOp44
 70
     1
102
RTVSPropertyOp45
 70
     1
102
RTVSPropertyOp46
 70
     1
102
RTVSPropertyOp47
 70
     1
102
RTVSPropertyOp48
 70
     1
102
RTVSPropertyOp49
 70
     1
102
RTVSPropertyOp50
 70
     1
102
RTVSPropertyOp51
 70
     0
102
RTVSPropertyOp52
 70
     0
102
RTVSPropertyOp53
 70
     1
102
RTVSPropertyOp54
 70
     1
102
RTVSPropertyOp55
 70
     1
102
RTVSPropertyOp56
 70
     1
102
RTVSPropertyOp57
 70
     1
102
RTVSPropertyOp58
 70
     1
102
RTVSPropertyOp59
 70
     1
102
RTVSPropertyOp60
 70
     1
102
RTVSPropertyOp61
 70
     1
102
RTVSPropertyOp62
 70
     1
  0
XRECORD
  5
118F1
102
{ACAD_REACTORS
330
118F0
102
}
330
118F0
100
AcDbXrecord
280
     1
102
RTVSPost2010Prop28
280
     0
102
RTVSPost2010PropOp28
 70
     1
102
RTVSPost2010Prop29
280
     1
102
RTVSPost2010PropOp29
 70
     1
102
RTVSPost2010Prop30
280
     1
102
RTVSPost2010PropOp30
 70
     1
102
RTVSPost2010Prop31
280
     0
102
RTVSPost2010PropOp31
 70
     1
102
RTVSPost2010Prop32
280
     0
102
RTVSPost2010PropOp32
 70
     1
102
RTVSPost2010Prop33
280
     0
102
RTVSPost2010PropOp33
 70
     1
102
RTVSPost2010Prop34
280
     0
102
RTVSPost2010PropOp34
 70
     1
102
RTVSPost2010Prop35
280
     0
102
RTVSPost2010PropOp35
 70
     1
102
RTVSPost2010Prop36
280
     0
102
RTVSPost2010PropOp36
 70
     1
102
RTVSPost2010Prop37
 90
       50
102
RTVSPost2010PropOp37
 70
     1
102
RTVSPost2010Prop38
140
0.0
102
RTVSPost2010PropOp38
 70
     1
102
RTVSPost2010Prop39
140
1.0
102
RTVSPost2010PropOp39
 70
     1
102
RTVSPost2010Prop40
 90
        0
102
RTVSPost2010PropOp40
 70
     1
102
RTVSPost2010Prop41ColorIndex
 90
       18
102
RTVSPost2010Prop41ColorRGB
 90
        0
102
RTVSPost2010PropOp41
 70
     1
102
RTVSPost2010Prop42
 90
       50
102
RTVSPost2010PropOp42
 70
     1
102
RTVSPost2010Prop43
 90
        3
102
RTVSPost2010PropOp43
 70
     1
102
RTVSPost2010Prop44ColorIndex
 90
        5
102
RTVSPost2010Prop44ColorRGB
 90
      255
102
RTVSPost2010PropOp44
 70
     1
102
RTVSPost2010Prop45
280
     0
102
RTVSPost2010PropOp45
 70
     1
102
RTVSPost2010Prop46
 90
       50
102
RTVSPost2010PropOp46
 70
     1
102
RTVSPost2010Prop47
 90
       50
102
RTVSPost2010PropOp47
 70
     1
102
RTVSPost2010Prop48
 90
       50
102
RTVSPost2010PropOp48
 70
     1
102
RTVSPost2010Prop49
280
     0
102
RTVSPost2010PropOp49
 70
     1
102
RTVSPost2010Prop50
 90
       50
102
RTVSPost2010PropOp50
 70
     1
102
RTVSPost2010Prop51ColorIndex
 90
      256
102
RTVSPost2010Prop51ColorRGB
 90
-16777216
102
RTVSPost2010PropOp51
 70
     0
102
RTVSPost2010Prop52
140
1.0
102
RTVSPost2010PropOp52
 70
     0
102
RTVSPost2010Prop53
 90
        2
102
RTVSPost2010PropOp53
 70
     1
102
RTVSPost2010Prop54
  1
strokes_ogs.tif
102
RTVSPost2010PropOp54
 70
     1
102
RTVSPost2010Prop55
280
     0
102
RTVSPost2010PropOp55
 70
     1
102
RTVSPost2010Prop56
140
1.0
102
RTVSPost2010PropOp56
 70
     1
102
RTVSPost2010Prop57
140
1.0
102
RTVSPost2010PropOp57
 70
     1
102
RTVSPropertyOp0
 70
     1
102
RTVSPropertyOp1
 70
     1
102
RTVSPropertyOp2
 70
     1
102
RTVSPropertyOp3
 70
     1
102
RTVSPropertyOp4
 70
     1
102
RTVSPropertyOp5
 70
     1
102
RTVSPropertyOp6
 70
     1
102
RTVSPropertyOp7
 70
     1
102
RTVSPropertyOp8
 70
     1
102
RTVSPropertyOp9
 70
     1
102
RTVSPropertyOp10
 70
     1
102
RTVSPropertyOp11
 70
     1
102
RTVSPropertyOp12
 70
     1
102
RTVSPropertyOp13
 70
     1
102
RTVSPropertyOp14
 70
     1
102
RTVSPropertyOp15
 70
     1
102
RTVSPropertyOp16
 70
     1
102
RTVSPropertyOp17
 70
     1
102
RTVSPropertyOp18
 70
     1
102
RTVSPropertyOp19
 70
     1
102
RTVSPropertyOp20
 70
     1
102
RTVSPropertyOp21
 70
     1
102
RTVSPropertyOp22
 70
     1
102
RTVSPropertyOp23
 70
     1
102
RTVSPropertyOp24
 70
     1
102
RTVSPropertyOp25
 70
     1
102
RTVSPropertyOp26
 70
     1
102
RTVSPropertyOp27
 70
     1
102
RTVSPropertyOp28
 70
     1
102
RTVSPropertyOp29
 70
     1
102
RTVSPropertyOp30
 70
     1
102
RTVSPropertyOp31
 70
     1
102
RTVSPropertyOp32
 70
     1
102
RTVSPropertyOp33
 70
     1
102
RTVSPropertyOp34
 70
     1
102
RTVSPropertyOp35
 70
     1
102
RTVSPropertyOp36
 70
     1
102
RTVSPropertyOp37
 70
     1
102
RTVSPropertyOp38
 70
     1
102
RTVSPropertyOp39
 70
     1
102
RTVSPropertyOp40
 70
     1
102
RTVSPropertyOp41
 70
     1
102
RTVSPropertyOp42
 70
     1
102
RTVSPropertyOp43
 70
     1
102
RTVSPropertyOp44
 70
     1
102
RTVSPropertyOp45
 70
     1
102
RTVSPropertyOp46
 70
     1
102
RTVSPropertyOp47
 70
     1
102
RTVSPropertyOp48
 70
     1
102
RTVSPropertyOp49
 70
     1
102
RTVSPropertyOp50
 70
     1
102
RTVSPropertyOp51
 70
     0
102
RTVSPropertyOp52
 70
     0
102
RTVSPropertyOp53
 70
     1
102
RTVSPropertyOp54
 70
     1
102
RTVSPropertyOp55
 70
     1
102
RTVSPropertyOp56
 70
     1
102
RTVSPropertyOp57
 70
     1
102
RTVSPropertyOp58
 70
     1
102
RTVSPropertyOp59
 70
     1
102
RTVSPropertyOp60
 70
     1
102
RTVSPropertyOp61
 70
     1
102
RTVSPropertyOp62
 70
     1
  0
ENDSEC
  0
EOF
