  0
SECTION
  2
HEADER
  9
$ACADVER
  1
AC1015
  9
$ACADMAINTVER
 70
    18
  9
$DWGCODEPAGE
  3
ANSI_1252
  9
$INSBASE
 10
0.0
 20
0.0
 30
0.0
  9
$EXTMIN
 10
-271.4529412326553
 20
-508.8236845932245
 30
-0.0015258207003583
  9
$EXTMAX
 10
335.1297005861179
 20
489.5904702760633
 30
0.0000000349246037
  9
$LIMMIN
 10
0.0
 20
0.0
  9
$LIMMAX
 10
420.0
 20
297.0
  9
$ORTHOMODE
 70
     0
  9
$REGENMODE
 70
     1
  9
$FILLMODE
 70
     1
  9
$QTEXTMODE
 70
     0
  9
$MIRRTEXT
 70
     0
  9
$LTSCALE
 40
1.0
  9
$ATTMODE
 70
     1
  9
$TEXTSIZE
 40
2.5
  9
$TRACEWID
 40
1.0
  9
$TEXTSTYLE
  7
Standard
  9
$CLAYER
  8
0
  9
$CELTYPE
  6
ByLayer
  9
$CECOLOR
 62
   256
  9
$CELTSCALE
 40
1.0
  9
$DISPSILH
 70
     0
  9
$DIMSCALE
 40
1.0
  9
$DIMASZ
 40
2.5
  9
$DIMEXO
 40
0.625
  9
$DIMDLI
 40
3.75
  9
$DIMRND
 40
0.0
  9
$DIMDLE
 40
0.0
  9
$DIMEXE
 40
1.25
  9
$DIMTP
 40
0.0
  9
$DIMTM
 40
0.0
  9
$DIMTXT
 40
2.5
  9
$DIMCEN
 40
2.5
  9
$DIMTSZ
 40
0.0
  9
$DIMTOL
 70
     0
  9
$DIMLIM
 70
     0
  9
$DIMTIH
 70
     0
  9
$DIMTOH
 70
     0
  9
$DIMSE1
 70
     0
  9
$DIMSE2
 70
     0
  9
$DIMTAD
 70
     1
  9
$DIMZIN
 70
     8
  9
$DIMBLK
  1

  9
$DIMASO
 70
     1
  9
$DIMSHO
 70
     1
  9
$DIMPOST
  1

  9
$DIMAPOST
  1

  9
$DIMALT
 70
     0
  9
$DIMALTD
 70
     3
  9
$DIMALTF
 40
0.03937007874016
  9
$DIMLFAC
 40
1.0
  9
$DIMTOFL
 70
     1
  9
$DIMTVP
 40
0.0
  9
$DIMTIX
 70
     0
  9
$DIMSOXD
 70
     0
  9
$DIMSAH
 70
     0
  9
$DIMBLK1
  1

  9
$DIMBLK2
  1

  9
$DIMSTYLE
  2
ISO-25
  9
$DIMCLRD
 70
     0
  9
$DIMCLRE
 70
     0
  9
$DIMCLRT
 70
     0
  9
$DIMTFAC
 40
1.0
  9
$DIMGAP
 40
0.625
  9
$DIMJUST
 70
     0
  9
$DIMSD1
 70
     0
  9
$DIMSD2
 70
     0
  9
$DIMTOLJ
 70
     0
  9
$DIMTZIN
 70
     8
  9
$DIMALTZ
 70
     0
  9
$DIMALTTZ
 70
     0
  9
$DIMUPT
 70
     0
  9
$DIMDEC
 70
     2
  9
$DIMTDEC
 70
     2
  9
$DIMALTU
 70
     2
  9
$DIMALTTD
 70
     3
  9
$DIMTXSTY
  7
Standard
  9
$DIMAUNIT
 70
     0
  9
$DIMADEC
 70
     0
  9
$DIMALTRND
 40
0.0
  9
$DIMAZIN
 70
     0
  9
$DIMDSEP
 70
    44
  9
$DIMATFIT
 70
     3
  9
$DIMFRAC
 70
     0
  9
$DIMLDRBLK
  1

  9
$DIMLUNIT
 70
     2
  9
$DIMLWD
 70
    -2
  9
$DIMLWE
 70
    -2
  9
$DIMTMOVE
 70
     0
  9
$LUNITS
 70
     2
  9
$LUPREC
 70
     4
  9
$SKETCHINC
 40
1.0
  9
$FILLETRAD
 40
0.0
  9
$AUNITS
 70
     0
  9
$AUPREC
 70
     0
  9
$MENU
  1
.
  9
$ELEVATION
 40
0.0
  9
$PELEVATION
 40
0.0
  9
$THICKNESS
 40
0.0
  9
$LIMCHECK
 70
     0
  9
$CHAMFERA
 40
0.0
  9
$CHAMFERB
 40
0.0
  9
$CHAMFERC
 40
0.0
  9
$CHAMFERD
 40
0.0
  9
$SKPOLY
 70
     0
  9
$TDCREATE
 40
2460719.406504630
  9
$TDUCREATE
 40
2460719.114837963
  9
$TDUPDATE
 40
2460719.415787037
  9
$TDUUPDATE
 40
2460719.124120370
  9
$TDINDWG
 40
0.0026967593
  9
$TDUSRTIMER
 40
0.0026967593
  9
$USRTIMER
 70
     1
  9
$ANGBASE
 50
0.0
  9
$ANGDIR
 70
     0
  9
$PDMODE
 70
     0
  9
$PDSIZE
 40
0.0
  9
$PLINEWID
 40
0.0
  9
$SPLFRAME
 70
     0
  9
$SPLINETYPE
 70
     6
  9
$SPLINESEGS
 70
     8
  9
$HANDSEED
  5
1156D
  9
$SURFTAB1
 70
     6
  9
$SURFTAB2
 70
     6
  9
$SURFTYPE
 70
     6
  9
$SURFU
 70
     6
  9
$SURFV
 70
     6
  9
$UCSBASE
  2

  9
$UCSNAME
  2

  9
$UCSORG
 10
0.0
 20
0.0
 30
0.0
  9
$UCSXDIR
 10
1.0
 20
0.0
 30
0.0
  9
$UCSYDIR
 10
0.0
 20
1.0
 30
0.0
  9
$UCSORTHOREF
  2

  9
$UCSORTHOVIEW
 70
     0
  9
$UCSORGTOP
 10
0.0
 20
0.0
 30
0.0
  9
$UCSORGBOTTOM
 10
0.0
 20
0.0
 30
0.0
  9
$UCSORGLEFT
 10
0.0
 20
0.0
 30
0.0
  9
$UCSORGRIGHT
 10
0.0
 20
0.0
 30
0.0
  9
$UCSORGFRONT
 10
0.0
 20
0.0
 30
0.0
  9
$UCSORGBACK
 10
0.0
 20
0.0
 30
0.0
  9
$PUCSBASE
  2

  9
$PUCSNAME
  2

  9
$PUCSORG
 10
0.0
 20
0.0
 30
0.0
  9
$PUCSXDIR
 10
1.0
 20
0.0
 30
0.0
  9
$PUCSYDIR
 10
0.0
 20
1.0
 30
0.0
  9
$PUCSORTHOREF
  2

  9
$PUCSORTHOVIEW
 70
     0
  9
$PUCSORGTOP
 10
0.0
 20
0.0
 30
0.0
  9
$PUCSORGBOTTOM
 10
0.0
 20
0.0
 30
0.0
  9
$PUCSORGLEFT
 10
0.0
 20
0.0
 30
0.0
  9
$PUCSORGRIGHT
 10
0.0
 20
0.0
 30
0.0
  9
$PUCSORGFRONT
 10
0.0
 20
0.0
 30
0.0
  9
$PUCSORGBACK
 10
0.0
 20
0.0
 30
0.0
  9
$USERI1
 70
     0
  9
$USERI2
 70
     0
  9
$USERI3
 70
     0
  9
$USERI4
 70
     0
  9
$USERI5
 70
     0
  9
$USERR1
 40
0.0
  9
$USERR2
 40
0.0
  9
$USERR3
 40
0.0
  9
$USERR4
 40
0.0
  9
$USERR5
 40
0.0
  9
$WORLDVIEW
 70
     1
  9
$SHADEDGE
 70
     3
  9
$SHADEDIF
 70
    70
  9
$TILEMODE
 70
     1
  9
$MAXACTVP
 70
    48
  9
$PINSBASE
 10
0.0
 20
0.0
 30
0.0
  9
$PLIMCHECK
 70
     0
  9
$PEXTMIN
 10
0.0
 20
0.0
 30
0.0
  9
$PEXTMAX
 10
0.0
 20
0.0
 30
0.0
  9
$PLIMMIN
 10
0.0
 20
0.0
  9
$PLIMMAX
 10
12.0
 20
9.0
  9
$UNITMODE
 70
     0
  9
$VISRETAIN
 70
     1
  9
$PLINEGEN
 70
     0
  9
$PSLTSCALE
 70
     1
  9
$TREEDEPTH
 70
  3020
  9
$CMLSTYLE
  2
Standard
  9
$CMLJUST
 70
     0
  9
$CMLSCALE
 40
20.0
  9
$PROXYGRAPHICS
 70
     1
  9
$MEASUREMENT
 70
     1
  9
$CELWEIGHT
370
    -1
  9
$ENDCAPS
280
     0
  9
$JOINSTYLE
280
     0
  9
$LWDISPLAY
290
     0
  9
$INSUNITS
 70
     4
  9
$HYPERLINKBASE
  1

  9
$STYLESHEET
  1

  9
$XEDIT
290
     1
  9
$CEPSNTYPE
380
     0
  9
$PSTYLEMODE
290
     1
  9
$FINGERPRINTGUID
  2
{375C693C-302E-BC42-B92A-19F6C371B7B0}
  9
$VERSIONGUID
  2
{42D37886-C6C9-DA46-8F3C-F38BBC1BB7D8}
  9
$EXTNAMES
290
     1
  9
$PSVPSCALE
 40
0.0
  9
$OLESTARTUP
290
     0
  0
ENDSEC
  0
SECTION
  2
CLASSES
  0
CLASS
  1
ACDBDICTIONARYWDFLT
  2
AcDbDictionaryWithDefault
  3
ObjectDBX Classes
 90
        0
280
     0
281
     0
  0
CLASS
  1
ACDBPLACEHOLDER
  2
AcDbPlaceHolder
  3
ObjectDBX Classes
 90
        0
280
     0
281
     0
  0
CLASS
  1
LAYOUT
  2
AcDbLayout
  3
ObjectDBX Classes
 90
        0
280
     0
281
     0
  0
CLASS
  1
DICTIONARYVAR
  2
AcDbDictionaryVar
  3
ObjectDBX Classes
 90
        0
280
     0
281
     0
  0
CLASS
  1
TABLESTYLE
  2
AcDbTableStyle
  3
ObjectDBX Classes
 90
     4095
280
     0
281
     0
  0
CLASS
  1
MATERIAL
  2
AcDbMaterial
  3
ObjectDBX Classes
 90
     1153
280
     0
281
     0
  0
CLASS
  1
VISUALSTYLE
  2
AcDbVisualStyle
  3
ObjectDBX Classes
 90
     4095
280
     0
281
     0
  0
CLASS
  1
SCALE
  2
AcDbScale
  3
ObjectDBX Classes
 90
     1153
280
     0
281
     0
  0
CLASS
  1
MLEADERSTYLE
  2
AcDbMLeaderStyle
  3
ACDB_MLEADERSTYLE_CLASS
 90
     4095
280
     0
281
     0
  0
CLASS
  1
CELLSTYLEMAP
  2
AcDbCellStyleMap
  3
ObjectDBX Classes
 90
     1152
280
     0
281
     0
  0
CLASS
  1
EXACXREFPANELOBJECT
  2
ExAcXREFPanelObject
  3
EXAC_ESW
 90
    33793
280
     0
281
     0
  0
CLASS
  1
NPOCOLLECTION
  2
AcDbImpNonPersistentObjectsCollection
  3
ObjectDBX Classes
 90
    33921
280
     0
281
     0
  0
CLASS
  1
LAYER_INDEX
  2
AcDbLayerIndex
  3
ObjectDBX Classes
 90
    32768
280
     0
281
     0
  0
CLASS
  1
SPATIAL_INDEX
  2
AcDbSpatialIndex
  3
ObjectDBX Classes
 90
    32768
280
     0
281
     0
  0
CLASS
  1
IDBUFFER
  2
AcDbIdBuffer
  3
ObjectDBX Classes
 90
    32768
280
     0
281
     0
  0
CLASS
  1
ACDBSECTIONVIEWSTYLE
  2
AcDbSectionViewStyle
  3
ObjectDBX Classes
 90
     1025
280
     0
281
     0
  0
CLASS
  1
ACDBDETAILVIEWSTYLE
  2
AcDbDetailViewStyle
  3
ObjectDBX Classes
 90
     1025
280
     0
281
     0
  0
CLASS
  1
XRECORD
  2
AcDbXrecord
  3
ObjectDBX Classes
 90
        0
280
     0
281
     0
  0
ENDSEC
  0
SECTION
  2
TABLES
  0
TABLE
  2
VPORT
  5
8
102
{ACAD_XDICTIONARY
360
1147B
102
}
330
0
100
AcDbSymbolTable
 70
     1
  0
VPORT
  5
EA
330
8
100
AcDbSymbolTableRecord
100
AcDbViewportTableRecord
  2
*Active
 70
     0
 10
0.0
 20
0.0
 11
1.0
 21
1.0
 12
31.83837967673125
 22
-9.61660715858062
 13
0.0
 23
0.0
 14
10.0
 24
10.0
 15
10.0
 25
10.0
 16
0.0
 26
0.0
 36
1.0
 17
0.0
 27
0.0
 37
0.0
 40
1061.722974102063
 41
0.9846153846153846
 42
50.0
 43
0.0
 44
0.0
 50
0.0
 51
0.0
 71
     0
 72
  1000
 73
     1
 74
     3
 75
     0
 76
     1
 77
     0
 78
     0
281
     0
 65
     1
110
0.0
120
0.0
130
0.0
111
1.0
121
0.0
131
0.0
112
0.0
122
1.0
132
0.0
 79
     0
146
0.0
1001
ACAD_NAV_VCDISPLAY
1070
     3
  0
ENDTAB
  0
TABLE
  2
LTYPE
  5
5
330
0
100
AcDbSymbolTable
 70
     1
  0
LTYPE
  5
14
330
5
100
AcDbSymbolTableRecord
100
AcDbLinetypeTableRecord
  2
ByBlock
 70
     0
  3

 72
    65
 73
     0
 40
0.0
  0
LTYPE
  5
15
330
5
100
AcDbSymbolTableRecord
100
AcDbLinetypeTableRecord
  2
ByLayer
 70
     0
  3

 72
    65
 73
     0
 40
0.0
  0
LTYPE
  5
16
330
5
100
AcDbSymbolTableRecord
100
AcDbLinetypeTableRecord
  2
Continuous
 70
     0
  3
Solid line
 72
    65
 73
     0
 40
0.0
  0
ENDTAB
  0
TABLE
  2
LAYER
  5
2
102
{ACAD_XDICTIONARY
360
1FF
102
}
330
0
100
AcDbSymbolTable
 70
     1
  0
LAYER
  5
10
102
{ACAD_XDICTIONARY
360
13C
102
}
330
2
100
AcDbSymbolTableRecord
100
AcDbLayerTableRecord
  2
0
 70
     0
 62
     7
  6
Continuous
370
    -3
390
F
  0
ENDTAB
  0
TABLE
  2
STYLE
  5
3
330
0
100
AcDbSymbolTable
 70
     1
  0
STYLE
  5
11
330
3
100
AcDbSymbolTableRecord
100
AcDbTextStyleTableRecord
  2
Standard
 70
     0
 40
0.0
 41
1.0
 50
0.0
 71
     0
 42
2.5
  3
arial.ttf
  4

1001
ACAD
1000
Arial
1071
       34
  0
ENDTAB
  0
TABLE
  2
VIEW
  5
6
330
0
100
AcDbSymbolTable
 70
     0
  0
ENDTAB
  0
TABLE
  2
UCS
  5
7
330
0
100
AcDbSymbolTable
 70
     0
  0
ENDTAB
  0
TABLE
  2
APPID
  5
9
330
0
100
AcDbSymbolTable
 70
     8
  0
APPID
  5
12
330
9
100
AcDbSymbolTableRecord
100
AcDbRegAppTableRecord
  2
ACAD
 70
     0
  0
APPID
  5
9E
330
9
100
AcDbSymbolTableRecord
100
AcDbRegAppTableRecord
  2
ACAD_PSEXT
 70
     0
  0
APPID
  5
133
330
9
100
AcDbSymbolTableRecord
100
AcDbRegAppTableRecord
  2
AcadAnnoPO
 70
     0
  0
APPID
  5
134
330
9
100
AcDbSymbolTableRecord
100
AcDbRegAppTableRecord
  2
AcadAnnotative
 70
     0
  0
APPID
  5
135
330
9
100
AcDbSymbolTableRecord
100
AcDbRegAppTableRecord
  2
ACAD_DSTYLE_DIMJAG
 70
     0
  0
APPID
  5
136
330
9
100
AcDbSymbolTableRecord
100
AcDbRegAppTableRecord
  2
ACAD_DSTYLE_DIMTALN
 70
     0
  0
APPID
  5
165
330
9
100
AcDbSymbolTableRecord
100
AcDbRegAppTableRecord
  2
ACAD_MLEADERVER
 70
     0
  0
APPID
  5
217
330
9
100
AcDbSymbolTableRecord
100
AcDbRegAppTableRecord
  2
ACAD_NAV_VCDISPLAY
 70
     0
  0
ENDTAB
  0
TABLE
  2
DIMSTYLE
  5
A
330
0
100
AcDbSymbolTable
 70
     1
100
AcDbDimStyleTable
 71
     0
  0
DIMSTYLE
105
27
330
A
100
AcDbSymbolTableRecord
100
AcDbDimStyleTableRecord
  2
ISO-25
 70
     0
 41
2.5
 42
0.625
 43
3.75
 44
1.25
 73
     0
 74
     0
 77
     1
 78
     8
140
2.5
141
2.5
143
0.03937007874016
147
0.625
171
     3
172
     1
271
     2
272
     2
274
     3
278
    44
283
     0
284
     8
340
11
  0
ENDTAB
  0
TABLE
  2
BLOCK_RECORD
  5
1
330
0
100
AcDbSymbolTable
 70
     7
  0
BLOCK_RECORD
  5
1F
102
{ACAD_XDICTIONARY
360
1CE
102
}
330
1
100
AcDbSymbolTableRecord
100
AcDbBlockTableRecord
  2
*Model_Space
340
22
  0
BLOCK_RECORD
  5
D2
102
{ACAD_XDICTIONARY
360
1142E
102
}
330
1
100
AcDbSymbolTableRecord
100
AcDbBlockTableRecord
  2
*Paper_Space
340
D3
  0
BLOCK_RECORD
  5
D6
102
{ACAD_XDICTIONARY
360
11430
102
}
330
1
100
AcDbSymbolTableRecord
100
AcDbBlockTableRecord
  2
*Paper_Space0
340
D7
  0
BLOCK_RECORD
  5
11159
330
1
100
AcDbSymbolTableRecord
100
AcDbBlockTableRecord
  2
SPR80_300-Front
340
0
102
{BLKREFS
331
11424
102
}
  0
BLOCK_RECORD
  5
111DB
330
1
100
AcDbSymbolTableRecord
100
AcDbBlockTableRecord
  2
SPR80_300-Left
340
0
102
{BLKREFS
331
11425
102
}
  0
BLOCK_RECORD
  5
1121C
330
1
100
AcDbSymbolTableRecord
100
AcDbBlockTableRecord
  2
SPR80_300-Right
340
0
102
{BLKREFS
331
11426
102
}
  0
BLOCK_RECORD
  5
1125F
330
1
100
AcDbSymbolTableRecord
100
AcDbBlockTableRecord
  2
SPR80_300-Top
340
0
102
{BLKREFS
331
11427
102
}
  0
BLOCK_RECORD
  5
112BB
330
1
100
AcDbSymbolTableRecord
100
AcDbBlockTableRecord
  2
SPR80_300-Bottom
340
0
102
{BLKREFS
331
11428
102
}
  0
BLOCK_RECORD
  5
1130B
330
1
100
AcDbSymbolTableRecord
100
AcDbBlockTableRecord
  2
SPR80_300-ISO
340
0
102
{BLKREFS
331
11429
102
}
  0
ENDTAB
  0
ENDSEC
  0
SECTION
  2
BLOCKS
  0
BLOCK
  5
20
330
1F
100
AcDbEntity
  8
0
100
AcDbBlockBegin
  2
*Model_Space
 70
     0
 10
0.0
 20
0.0
 30
0.0
  3
*Model_Space
  1

  0
ENDBLK
  5
21
330
1F
100
AcDbEntity
  8
0
100
AcDbBlockEnd
  0
BLOCK
  5
D4
330
D2
100
AcDbEntity
 67
     1
  8
0
100
AcDbBlockBegin
  2
*Paper_Space
 70
     0
 10
0.0
 20
0.0
 30
0.0
  3
*Paper_Space
  1

  0
ENDBLK
  5
D5
330
D2
100
AcDbEntity
 67
     1
  8
0
100
AcDbBlockEnd
  0
BLOCK
  5
D8
330
D6
100
AcDbEntity
 67
     1
  8
0
100
AcDbBlockBegin
  2
*Paper_Space0
 70
     0
 10
0.0
 20
0.0
 30
0.0
  3
*Paper_Space0
  1

  0
ENDBLK
  5
D9
330
D6
100
AcDbEntity
 67
     1
  8
0
100
AcDbBlockEnd
  0
BLOCK
  5
1115A
330
11159
100
AcDbEntity
  8
0
100
AcDbBlockBegin
  2
SPR80_300-Front
 70
     0
 10
0.0
 20
0.0
 30
0.0
  3
SPR80_300-Front
  1

  0
LINE
  5
1115C
330
11159
100
AcDbEntity
  8
0
100
AcDbLine
 10
82.527090561
 20
6.270000000000013
 30
0.0
 11
77.52709056100001
 21
1.270000000000013
 31
0.0
  0
LINE
  5
1115D
330
11159
100
AcDbEntity
  8
0
100
AcDbLine
 10
-77.52709056100004
 20
1.270000000000013
 30
0.0
 11
-82.52709056100004
 21
6.270000000000015
 31
0.0
  0
LINE
  5
1115E
330
11159
100
AcDbEntity
  8
0
100
AcDbLine
 10
-82.52709056100004
 20
72.27000000000001
 30
0.0
 11
-77.52709056100001
 21
77.27000000000001
 31
0.0
  0
LINE
  5
1115F
330
11159
100
AcDbEntity
  8
0
100
AcDbLine
 10
77.52709056099996
 20
77.27000000000002
 30
0.0
 11
82.52709056099996
 21
72.27000000000002
 31
0.0
  0
LINE
  5
11160
330
11159
100
AcDbEntity
  8
0
100
AcDbLine
 10
82.52709056099996
 20
72.27000000000002
 30
0.0
 11
82.527090561
 21
6.270000000000015
 31
0.0
  0
LINE
  5
11161
330
11159
100
AcDbEntity
  8
0
100
AcDbLine
 10
-82.52709056100004
 20
6.270000000000015
 30
0.0
 11
-82.52709056100004
 21
72.27000000000001
 31
0.0
  0
LINE
  5
11162
330
11159
100
AcDbEntity
  8
0
100
AcDbLine
 10
36.49999999999999
 20
77.27000000000002
 30
0.0
 11
77.52709056099996
 21
77.27000000000002
 31
0.0
  0
LINE
  5
11163
330
11159
100
AcDbEntity
  8
0
100
AcDbLine
 10
-36.50000000000002
 20
1.270000000000075
 30
0.0
 11
-77.52709056100004
 21
1.270000000000013
 31
0.0
  0
LINE
  5
11164
330
11159
100
AcDbEntity
  8
0
100
AcDbLine
 10
77.52709056100001
 20
1.270000000000013
 30
0.0
 11
36.49999999999999
 21
1.270000000000075
 31
0.0
  0
ARC
  5
11165
330
11159
100
AcDbEntity
  8
0
100
AcDbCircle
 10
36.49999999999997
 20
78.77000000000004
 30
0.0
 40
1.5
100
AcDbArc
 50
90.00000000000067
 51
270.0000000000007
  0
LINE
  5
11166
330
11159
100
AcDbEntity
  8
0
100
AcDbLine
 10
-77.52709056100001
 20
77.27000000000001
 30
0.0
 11
-36.50000000000003
 21
77.27000000000001
 31
0.0
  0
ARC
  5
11167
330
11159
100
AcDbEntity
  8
0
100
AcDbCircle
 10
-36.50000000000003
 20
78.77000000000001
 30
0.0
 40
1.5
100
AcDbArc
 50
270.0
 51
90.0
  0
LINE
  5
11168
330
11159
100
AcDbEntity
  8
0
100
AcDbLine
 10
41.5000000000002
 20
80.27000000000002
 30
0.0
 11
41.50000000000024
 21
85.27000000000002
 31
0.0
  0
LINE
  5
11169
330
11159
100
AcDbEntity
  8
0
100
AcDbLine
 10
41.50000000000024
 20
85.27000000000002
 30
0.0
 11
40.00000000000023
 21
85.27000000000002
 31
0.0
  0
LINE
  5
1116A
330
11159
100
AcDbEntity
  8
0
100
AcDbLine
 10
40.00000000000023
 20
85.27000000000002
 30
0.0
 11
40.0000000000002
 21
80.27000000000002
 31
0.0
  0
LINE
  5
1116B
330
11159
100
AcDbEntity
  8
0
100
AcDbLine
 10
40.0000000000002
 20
80.27000000000002
 30
0.0
 11
41.5000000000002
 21
80.27000000000002
 31
0.0
  0
LINE
  5
1116C
330
11159
100
AcDbEntity
  8
0
100
AcDbLine
 10
40.00000000000023
 20
295.67
 30
0.0
 11
41.50000000000024
 21
295.67
 31
0.0
  0
LINE
  5
1116D
330
11159
100
AcDbEntity
  8
0
100
AcDbLine
 10
41.50000000000024
 20
295.67
 30
0.0
 11
41.5000000000002
 21
300.67
 31
0.0
  0
LINE
  5
1116E
330
11159
100
AcDbEntity
  8
0
100
AcDbLine
 10
-41.50000000000001
 20
85.27000000000002
 30
0.0
 11
-41.50000000000001
 21
80.27000000000002
 31
0.0
  0
LINE
  5
1116F
330
11159
100
AcDbEntity
  8
0
100
AcDbLine
 10
-41.50000000000001
 20
80.27000000000002
 30
0.0
 11
-40.0
 21
80.27000000000002
 31
0.0
  0
LINE
  5
11170
330
11159
100
AcDbEntity
  8
0
100
AcDbLine
 10
-40.0
 20
80.27000000000002
 30
0.0
 11
-40.0
 21
85.27000000000002
 31
0.0
  0
LINE
  5
11171
330
11159
100
AcDbEntity
  8
0
100
AcDbLine
 10
-40.0
 20
85.27000000000002
 30
0.0
 11
-41.50000000000001
 21
85.27000000000002
 31
0.0
  0
LINE
  5
11172
330
11159
100
AcDbEntity
  8
0
100
AcDbLine
 10
-41.50000000000001
 20
300.67
 30
0.0
 11
-41.50000000000001
 21
295.67
 31
0.0
  0
LINE
  5
11173
330
11159
100
AcDbEntity
  8
0
100
AcDbLine
 10
-41.50000000000001
 20
295.67
 30
0.0
 11
-40.0
 21
295.67
 31
0.0
  0
LINE
  5
11174
330
11159
100
AcDbEntity
  8
0
100
AcDbLine
 10
41.5000000000002
 20
300.67
 30
0.0
 11
40.0000000000002
 21
300.67
 31
0.0
  0
LINE
  5
11175
330
11159
100
AcDbEntity
  8
0
100
AcDbLine
 10
40.0000000000002
 20
300.67
 30
0.0
 11
40.00000000000023
 21
295.67
 31
0.0
  0
LINE
  5
11176
330
11159
100
AcDbEntity
  8
0
100
AcDbLine
 10
-40.0
 20
295.67
 30
0.0
 11
-40.0
 21
300.67
 31
0.0
  0
LINE
  5
11177
330
11159
100
AcDbEntity
  8
0
100
AcDbLine
 10
-40.0
 20
300.67
 30
0.0
 11
-41.50000000000001
 21
300.67
 31
0.0
  0
LINE
  5
11178
330
11159
100
AcDbEntity
  8
0
100
AcDbLine
 10
41.49999999999995
 20
-28.42608254450007
 30
0.0
 11
41.49999999999997
 21
-21.35501473263463
 31
0.0
  0
LINE
  5
11179
330
11159
100
AcDbEntity
  8
0
100
AcDbLine
 10
41.49999999999997
 20
-21.35501473263463
 30
0.0
 11
39.99999999999997
 21
-21.35501473263462
 31
0.0
  0
LINE
  5
1117A
330
11159
100
AcDbEntity
  8
0
100
AcDbLine
 10
39.99999999999997
 20
-21.35501473263462
 30
0.0
 11
39.99999999999998
 21
-28.42608254450007
 31
0.0
  0
LINE
  5
1117B
330
11159
100
AcDbEntity
  8
0
100
AcDbLine
 10
39.99999999999998
 20
-28.42608254450007
 30
0.0
 11
41.49999999999995
 21
-28.42608254450007
 31
0.0
  0
LINE
  5
1117C
330
11159
100
AcDbEntity
  8
0
100
AcDbLine
 10
-41.49999999999997
 20
-21.35501473263461
 30
0.0
 11
-41.49999999999995
 21
-28.42608254450006
 31
0.0
  0
LINE
  5
1117D
330
11159
100
AcDbEntity
  8
0
100
AcDbLine
 10
-41.49999999999995
 20
-28.42608254450006
 30
0.0
 11
-39.99999999999998
 21
-28.42608254450006
 31
0.0
  0
LINE
  5
1117E
330
11159
100
AcDbEntity
  8
0
100
AcDbLine
 10
-39.99999999999998
 20
-28.42608254450006
 30
0.0
 11
-39.99999999999997
 21
-21.35501473263462
 31
0.0
  0
LINE
  5
1117F
330
11159
100
AcDbEntity
  8
0
100
AcDbLine
 10
-39.99999999999997
 20
-21.35501473263462
 30
0.0
 11
-41.49999999999997
 21
-21.35501473263461
 31
0.0
  0
LINE
  5
11180
330
11159
100
AcDbEntity
  8
0
100
AcDbLine
 10
41.50000000000024
 20
85.27000000000002
 30
0.0
 11
41.50000000000024
 21
295.67
 31
0.0
  0
LINE
  5
11181
330
11159
100
AcDbEntity
  8
0
100
AcDbLine
 10
40.00000000000023
 20
295.67
 30
0.0
 11
40.00000000000023
 21
85.27000000000001
 31
0.0
  0
LINE
  5
11182
330
11159
100
AcDbEntity
  8
0
100
AcDbLine
 10
-41.50000000000001
 20
295.67
 30
0.0
 11
-41.50000000000001
 21
85.27000000000001
 31
0.0
  0
LINE
  5
11183
330
11159
100
AcDbEntity
  8
0
100
AcDbLine
 10
-40.0
 20
295.67
 30
0.0
 11
-40.0
 21
85.27000000000001
 31
0.0
  0
LINE
  5
11184
330
11159
100
AcDbEntity
  8
0
100
AcDbLine
 10
36.49999999999999
 20
80.27000000000002
 30
0.0
 11
39.39999999999999
 21
80.27000000000002
 31
0.0
  0
LINE
  5
11185
330
11159
100
AcDbEntity
  8
0
100
AcDbLine
 10
-39.40000000000002
 20
80.27000000000002
 30
0.0
 11
-36.50000000000003
 21
80.27000000000001
 31
0.0
  0
LINE
  5
11186
330
11159
100
AcDbEntity
  8
0
100
AcDbLine
 10
-39.40000000000002
 20
300.67
 30
0.0
 11
39.39999999999999
 21
300.67
 31
0.0
  0
LINE
  5
11187
330
11159
100
AcDbEntity
  8
0
100
AcDbLine
 10
41.50000000000285
 20
-2.263131642256614
 30
0.0
 11
41.49999999999997
 21
-21.35501473263463
 31
0.0
  0
LINE
  5
11188
330
11159
100
AcDbEntity
  8
0
100
AcDbLine
 10
40.00000000000238
 20
-2.263131642256614
 30
0.0
 11
39.99999999999997
 21
-21.35501473263462
 31
0.0
  0
ELLIPSE
  5
11189
330
11159
100
AcDbEntity
  8
0
100
AcDbEllipse
 10
39.39999999999999
 20
-54.16476937947049
 30
0.0
 11
0.6000000000000087
 21
-0.0000000000000093
 31
0.0
210
0.0
220
0.0
230
1.0
 40
0.7071067811866661
 41
4.712388980384708
 42
6.283185307179544
  0
ELLIPSE
  5
1118A
330
11159
100
AcDbEntity
  8
0
100
AcDbEllipse
 10
39.39999999999999
 20
-54.16476937947049
 30
0.0
 11
2.100000000000031
 21
-0.0000000000000444
 31
0.0
210
0.0
220
0.0
230
1.0
 40
0.7071067811865466
 41
4.712388980384694
 42
6.283185307179562
  0
LINE
  5
1118B
330
11159
100
AcDbEntity
  8
0
100
AcDbLine
 10
41.50000000000285
 20
-2.263131642256614
 30
0.0
 11
40.00000000000238
 21
-2.263131642256614
 31
0.0
  0
SPLINE
  5
1118C
330
11159
100
AcDbEntity
  8
0
100
AcDbSpline
210
0.0
220
0.0
230
1.0
 70
     8
 71
     3
 72
     8
 73
     4
 74
     0
 42
0.000000001
 43
0.0000000001
 40
-1.0
 40
-1.0
 40
-1.0
 40
-1.0
 40
0.0
 40
0.0
 40
0.0
 40
0.0
 10
-35.01767776087199
 20
-0.0003899405809327
 30
0.0
 10
-34.97251992073979
 20
-0.1594792109354182
 30
0.0
 10
-35.01586474390307
 20
-0.3214850446752776
 30
0.0
 10
-35.1405419700205
 20
-0.4246540092928619
 30
0.0
  0
SPLINE
  5
1118D
330
11159
100
AcDbEntity
  8
0
100
AcDbSpline
210
0.0
220
0.0
230
1.0
 70
     8
 71
     3
 72
     8
 73
     4
 74
     0
 42
0.000000001
 43
0.0000000001
 40
-1.0
 40
-1.0
 40
-1.0
 40
-1.0
 40
0.0
 40
0.0
 40
0.0
 40
0.0
 10
35.14054197002045
 20
-0.4246540092928619
 30
0.0
 10
35.01586474390334
 20
-0.3214850446752853
 30
0.0
 10
34.97251992074005
 20
-0.1594792109354127
 30
0.0
 10
35.01767776087195
 20
-0.0003899405809329
 30
0.0
  0
ELLIPSE
  5
1118E
330
11159
100
AcDbEntity
  8
0
100
AcDbEllipse
 10
-36.50000000000002
 20
0.0236058844764491
 30
0.0
 11
-1.5
 21
0.00000000000011
 31
0.0
210
0.0
220
0.0
230
1.0
 40
0.7071067811865479
 41
1.570796326795022
 42
2.705254581962101
  0
LINE
  5
1118F
330
11159
100
AcDbEntity
  8
0
100
AcDbLine
 10
-36.50000000000002
 20
-1.037054287303373
 30
0.0
 11
-38.79315533855973
 21
-1.037054287303373
 31
0.0
  0
LINE
  5
11190
330
11159
100
AcDbEntity
  8
0
100
AcDbLine
 10
-38.79315533855973
 20
-1.037054287303373
 30
0.0
 11
-39.40000000000002
 21
-1.466158262545859
 31
0.0
  0
LINE
  5
11191
330
11159
100
AcDbEntity
  8
0
100
AcDbLine
 10
39.39999999999999
 20
-1.466158262545878
 30
0.0
 11
38.79315533855969
 21
-1.037054287303388
 31
0.0
  0
LINE
  5
11192
330
11159
100
AcDbEntity
  8
0
100
AcDbLine
 10
38.79315533855969
 20
-1.037054287303388
 30
0.0
 11
36.49999999999998
 21
-1.037054287303388
 31
0.0
  0
ELLIPSE
  5
11193
330
11159
100
AcDbEntity
  8
0
100
AcDbEllipse
 10
36.49999999999998
 20
0.0236058844764491
 30
0.0
 11
-1.5
 21
0.0
 31
0.0
210
0.0
220
0.0
230
1.0
 40
0.7071067811865479
 41
0.4363380716279366
 42
1.570796326794896
  0
LINE
  5
11194
330
11159
100
AcDbEntity
  8
0
100
AcDbLine
 10
-40.00000000000255
 20
-2.263131642256619
 30
0.0
 11
-41.50000000000305
 21
-2.263131642256619
 31
0.0
  0
SPLINE
  5
11195
330
11159
100
AcDbEntity
  8
0
100
AcDbSpline
210
0.0
220
0.0
230
1.0
 70
     8
 71
     3
 72
     8
 73
     4
 74
     0
 42
0.000000001
 43
0.0000000001
 40
-1.0
 40
-1.0
 40
-1.0
 40
-1.0
 40
0.0
 40
0.0
 40
0.0
 40
0.0
 10
-39.40000000000001
 20
-1.46615826254585
 30
0.0
 10
-39.714159265359
 20
-1.873237411765289
 30
0.0
 10
-40.00000000000001
 20
-2.078196639180054
 30
0.0
 10
-40.00000000000003
 20
-2.263131641492101
 30
0.0
  0
ARC
  5
11196
330
11159
100
AcDbEntity
  8
0
100
AcDbCircle
 10
-36.50000000000002
 20
-0.2299999999999453
 30
0.0
 40
1.5
100
AcDbArc
 50
8.805075259700021
 51
90.0
  0
SPLINE
  5
11197
330
11159
100
AcDbEntity
  8
0
100
AcDbSpline
210
0.0
220
0.0
230
1.0
 70
     8
 71
     3
 72
     8
 73
     4
 74
     0
 42
0.000000001
 43
0.0000000001
 40
-1.0
 40
-1.0
 40
-1.0
 40
-1.0
 40
0.0
 40
0.0
 40
0.0
 40
0.0
 10
40.0
 20
-2.263131641492106
 30
0.0
 10
39.99999999999999
 20
-2.078196639180585
 30
0.0
 10
39.71415926535895
 20
-1.873237411765064
 30
0.0
 10
39.39999999999998
 20
-1.46615826254585
 30
0.0
  0
ARC
  5
11198
330
11159
100
AcDbEntity
  8
0
100
AcDbCircle
 10
36.49999999999998
 20
-0.2299999999999453
 30
0.0
 40
1.5
100
AcDbArc
 50
90.0
 51
171.1949247403
  0
SPLINE
  5
11199
330
11159
100
AcDbEntity
  8
0
100
AcDbSpline
210
0.0
220
0.0
230
1.0
 70
     8
 71
     3
 72
    16
 73
    12
 74
     0
 42
0.000000001
 43
0.0000000001
 40
0.0
 40
0.0
 40
0.0
 40
0.0
 40
0.0356537247289601
 40
0.0356537247289601
 40
0.0703704956530679
 40
0.0703704956530679
 40
0.1051345640191711
 40
0.1051345640191711
 40
0.1398962718756114
 40
0.1398962718756114
 40
0.1538885733137741
 40
0.1538885733137741
 40
0.1538885733137741
 40
0.1538885733137741
 10
-40.49950000000162
 20
-2.263131641492131
 30
0.0
 10
-40.49949999999846
 20
-2.263131641490575
 30
0.0
 10
-40.47955867539603
 20
-2.263059951014847
 30
0.0
 10
-40.40583172167416
 20
-2.250836451207828
 30
0.0
 10
-40.35213458024235
 20
-2.238741830453771
 30
0.0
 10
-40.22293730424296
 20
-2.194102190363977
 30
0.0
 10
-40.14591985428545
 20
-2.160888677198924
 30
0.0
 10
-39.98574064084987
 20
-2.069479202541679
 30
0.0
 10
-39.90073655252567
 20
-2.010107098201863
 30
0.0
 10
-39.78901418344677
 20
-1.909831885108382
 30
0.0
 10
-39.75758437990187
 20
-1.878943669851259
 30
0.0
 10
-39.72742155524392
 20
-1.846191951394229
 30
0.0
  0
SPLINE
  5
1119A
330
11159
100
AcDbEntity
  8
0
100
AcDbSpline
210
0.0
220
0.0
230
1.0
 70
     8
 71
     3
 72
    16
 73
    12
 74
     0
 42
0.000000001
 43
0.0000000001
 40
0.0
 40
0.0
 40
0.0
 40
0.0
 40
0.0356266149285112
 40
0.0356266149285112
 40
0.0703447701759213
 40
0.0703447701759213
 40
0.1051087694948317
 40
0.1051087694948317
 40
0.1398704807989621
 40
0.1398704807989621
 40
0.153888864703067
 40
0.153888864703067
 40
0.153888864703067
 40
0.153888864703067
 10
39.72742155524395
 20
-1.846191951394305
 30
0.0
 10
39.80422088264516
 20
-1.929583012319726
 30
0.0
 10
39.88999615127927
 20
-2.00117295971436
 30
0.0
 10
40.05564046639003
 20
-2.113266523246728
 30
0.0
 10
40.13750261646467
 20
-2.155953002263579
 30
0.0
 10
40.281821818885
 20
-2.217016702982242
 30
0.0
 10
40.34591305087166
 20
-2.236189491805185
 30
0.0
 10
40.44238223263639
 20
-2.258395304183895
 30
0.0
 10
40.47587215055805
 20
-2.261811174865935
 30
0.0
 10
40.49650501536102
 20
-2.263130971916313
 30
0.0
 10
40.49950000000013
 20
-2.263131641491512
 30
0.0
 10
40.49950000000015
 20
-2.263131641492122
 30
0.0
  0
LINE
  5
1119B
330
11159
100
AcDbEntity
  8
0
100
AcDbLine
 10
41.49999999999995
 20
-54.16476937947051
 30
0.0
 11
41.49999999999995
 21
-28.42608254450007
 31
0.0
  0
LINE
  5
1119C
330
11159
100
AcDbEntity
  8
0
100
AcDbLine
 10
-41.49999999999995
 20
-28.42608254450006
 30
0.0
 11
-41.49999999999997
 21
-54.16476937947051
 31
0.0
  0
LINE
  5
1119D
330
11159
100
AcDbEntity
  8
0
100
AcDbLine
 10
-39.99999999999998
 20
-28.42608254450006
 30
0.0
 11
-39.99999999999999
 21
-54.16476937947051
 31
0.0
  0
LINE
  5
1119E
330
11159
100
AcDbEntity
  8
0
100
AcDbLine
 10
-39.4
 20
-54.58903344818242
 30
0.0
 11
39.39999999999999
 21
-54.58903344818242
 31
0.0
  0
LINE
  5
1119F
330
11159
100
AcDbEntity
  8
0
100
AcDbLine
 10
39.99999999999997
 20
-54.16476937947051
 30
0.0
 11
39.99999999999998
 21
-28.42608254450007
 31
0.0
  0
LINE
  5
111A0
330
11159
100
AcDbEntity
  8
0
100
AcDbLine
 10
-39.4
 20
-55.64969361996223
 30
0.0
 11
39.39999999999999
 21
-55.64969361996223
 31
0.0
  0
LINE
  5
111A1
330
11159
100
AcDbEntity
  8
0
100
AcDbLine
 10
-41.50000000000305
 20
-2.263131642256619
 30
0.0
 11
-41.49999999999997
 21
-21.35501473263461
 31
0.0
  0
LINE
  5
111A2
330
11159
100
AcDbEntity
  8
0
100
AcDbLine
 10
-40.00000000000255
 20
-2.263131642256619
 30
0.0
 11
-39.99999999999997
 21
-21.35501473263462
 31
0.0
  0
CIRCLE
  5
111A3
330
11159
100
AcDbEntity
  8
0
100
AcDbCircle
 10
29.99999999999998
 20
269.7700000000002
 30
0.0
 40
2.5
  0
CIRCLE
  5
111A4
330
11159
100
AcDbEntity
  8
0
100
AcDbCircle
 10
29.99999999999998
 20
229.7700000000002
 30
0.0
 40
2.5
  0
CIRCLE
  5
111A5
330
11159
100
AcDbEntity
  8
0
100
AcDbCircle
 10
29.99999999999998
 20
189.7700000000002
 30
0.0
 40
2.5
  0
CIRCLE
  5
111A6
330
11159
100
AcDbEntity
  8
0
100
AcDbCircle
 10
29.99999999999998
 20
149.7700000000001
 30
0.0
 40
2.5
  0
CIRCLE
  5
111A7
330
11159
100
AcDbEntity
  8
0
100
AcDbCircle
 10
29.99999999999998
 20
109.7700000000001
 30
0.0
 40
2.5
  0
CIRCLE
  5
111A8
330
11159
100
AcDbEntity
  8
0
100
AcDbCircle
 10
29.99999999999998
 20
69.77000000000017
 30
0.0
 40
2.5
  0
CIRCLE
  5
111A9
330
11159
100
AcDbEntity
  8
0
100
AcDbCircle
 10
29.99999999999998
 20
29.77000000000017
 30
0.0
 40
2.5
  0
CIRCLE
  5
111AA
330
11159
100
AcDbEntity
  8
0
100
AcDbCircle
 10
19.99999999999997
 20
289.7700000000002
 30
0.0
 40
2.5
  0
CIRCLE
  5
111AB
330
11159
100
AcDbEntity
  8
0
100
AcDbCircle
 10
19.99999999999997
 20
249.7700000000002
 30
0.0
 40
2.5
  0
CIRCLE
  5
111AC
330
11159
100
AcDbEntity
  8
0
100
AcDbCircle
 10
19.99999999999997
 20
209.7700000000002
 30
0.0
 40
2.5
  0
CIRCLE
  5
111AD
330
11159
100
AcDbEntity
  8
0
100
AcDbCircle
 10
19.99999999999997
 20
169.7700000000001
 30
0.0
 40
2.5
  0
CIRCLE
  5
111AE
330
11159
100
AcDbEntity
  8
0
100
AcDbCircle
 10
19.99999999999997
 20
129.7700000000001
 30
0.0
 40
2.5
  0
CIRCLE
  5
111AF
330
11159
100
AcDbEntity
  8
0
100
AcDbCircle
 10
19.99999999999997
 20
89.77000000000016
 30
0.0
 40
2.5
  0
CIRCLE
  5
111B0
330
11159
100
AcDbEntity
  8
0
100
AcDbCircle
 10
19.99999999999997
 20
49.77000000000015
 30
0.0
 40
2.5
  0
CIRCLE
  5
111B1
330
11159
100
AcDbEntity
  8
0
100
AcDbCircle
 10
19.99999999999997
 20
9.770000000000152
 30
0.0
 40
2.5
  0
CIRCLE
  5
111B2
330
11159
100
AcDbEntity
  8
0
100
AcDbCircle
 10
-20.00000000000002
 20
269.7700000000001
 30
0.0
 40
2.5
  0
CIRCLE
  5
111B3
330
11159
100
AcDbEntity
  8
0
100
AcDbCircle
 10
-20.00000000000002
 20
229.7700000000001
 30
0.0
 40
2.5
  0
CIRCLE
  5
111B4
330
11159
100
AcDbEntity
  8
0
100
AcDbCircle
 10
-20.00000000000002
 20
189.7700000000001
 30
0.0
 40
2.5
  0
CIRCLE
  5
111B5
330
11159
100
AcDbEntity
  8
0
100
AcDbCircle
 10
-20.00000000000002
 20
149.7700000000001
 30
0.0
 40
2.5
  0
CIRCLE
  5
111B6
330
11159
100
AcDbEntity
  8
0
100
AcDbCircle
 10
-20.00000000000002
 20
109.7700000000001
 30
0.0
 40
2.5
  0
CIRCLE
  5
111B7
330
11159
100
AcDbEntity
  8
0
100
AcDbCircle
 10
-20.00000000000002
 20
69.7700000000001
 30
0.0
 40
2.5
  0
CIRCLE
  5
111B8
330
11159
100
AcDbEntity
  8
0
100
AcDbCircle
 10
-20.00000000000002
 20
29.7700000000001
 30
0.0
 40
2.5
  0
CIRCLE
  5
111B9
330
11159
100
AcDbEntity
  8
0
100
AcDbCircle
 10
-30.00000000000003
 20
289.7700000000001
 30
0.0
 40
2.5
  0
CIRCLE
  5
111BA
330
11159
100
AcDbEntity
  8
0
100
AcDbCircle
 10
-30.00000000000003
 20
249.7700000000001
 30
0.0
 40
2.5
  0
CIRCLE
  5
111BB
330
11159
100
AcDbEntity
  8
0
100
AcDbCircle
 10
-30.00000000000003
 20
209.7700000000001
 30
0.0
 40
2.5
  0
CIRCLE
  5
111BC
330
11159
100
AcDbEntity
  8
0
100
AcDbCircle
 10
-30.00000000000003
 20
169.7700000000001
 30
0.0
 40
2.5
  0
CIRCLE
  5
111BD
330
11159
100
AcDbEntity
  8
0
100
AcDbCircle
 10
-30.00000000000003
 20
129.7700000000001
 30
0.0
 40
2.5
  0
CIRCLE
  5
111BE
330
11159
100
AcDbEntity
  8
0
100
AcDbCircle
 10
-30.00000000000003
 20
89.77000000000009
 30
0.0
 40
2.5
  0
CIRCLE
  5
111BF
330
11159
100
AcDbEntity
  8
0
100
AcDbCircle
 10
-30.00000000000003
 20
49.77000000000008
 30
0.0
 40
2.5
  0
CIRCLE
  5
111C0
330
11159
100
AcDbEntity
  8
0
100
AcDbCircle
 10
-30.00000000000003
 20
9.770000000000081
 30
0.0
 40
2.5
  0
CIRCLE
  5
111C1
330
11159
100
AcDbEntity
  8
0
100
AcDbCircle
 10
-53.02709056100005
 20
69.77000000000005
 30
0.0
 40
2.5
  0
CIRCLE
  5
111C2
330
11159
100
AcDbEntity
  8
0
100
AcDbCircle
 10
47.02709056099995
 20
69.77000000000005
 30
0.0
 40
2.5
  0
CIRCLE
  5
111C3
330
11159
100
AcDbEntity
  8
0
100
AcDbCircle
 10
-47.02709056100004
 20
29.77000000000007
 30
0.0
 40
2.5
  0
CIRCLE
  5
111C4
330
11159
100
AcDbEntity
  8
0
100
AcDbCircle
 10
53.02709056099996
 20
29.77000000000006
 30
0.0
 40
2.5
  0
ELLIPSE
  5
111C5
330
11159
100
AcDbEntity
  8
0
100
AcDbEllipse
 10
-22.50000000000002
 20
0.0236058844764239
 30
0.0
 11
2.499999999999999
 21
-0.0000000000000004
 31
0.0
210
0.0
220
0.0
230
1.0
 40
0.7071067811865479
 41
3.39796598060824
 42
6.026811980161135
  0
SPLINE
  5
111C6
330
11159
100
AcDbEntity
  8
0
100
AcDbSpline
210
0.0
220
0.0
230
1.0
 70
     8
 71
     3
 72
     8
 73
     4
 74
     0
 42
0.000000001
 43
0.0000000001
 40
-1.0
 40
-1.0
 40
-1.0
 40
-1.0
 40
0.0
 40
0.0
 40
0.0
 40
0.0
 10
-24.91828991960765
 20
-0.4246540092928625
 30
0.0
 10
-24.99189972302021
 20
-0.3163012038324878
 30
0.0
 10
-25.01609483643925
 20
-0.1581319339738505
 30
0.0
 10
-24.98943351399745
 20
-0.0003899405809327
 30
0.0
  0
SPLINE
  5
111C7
330
11159
100
AcDbEntity
  8
0
100
AcDbSpline
210
0.0
220
0.0
230
1.0
 70
     8
 71
     3
 72
     8
 73
     4
 74
     0
 42
0.000000001
 43
0.0000000001
 40
-1.0
 40
-1.0
 40
-1.0
 40
-1.0
 40
0.0
 40
0.0
 40
0.0
 40
0.0
 10
-20.01056648600259
 20
-0.0003899405809328
 30
0.0
 10
-19.98390516356059
 20
-0.1581319339738509
 30
0.0
 10
-20.00810027697989
 20
-0.3163012038324458
 30
0.0
 10
-20.08171008039238
 20
-0.4246540092928617
 30
0.0
  0
ARC
  5
111C8
330
11159
100
AcDbEntity
  8
0
100
AcDbCircle
 10
-22.50000000000002
 20
-0.2299999999999808
 30
0.0
 40
2.499999999999999
100
AcDbArc
 50
5.269701326164559
 51
174.7302986738354
  0
ELLIPSE
  5
111C9
330
11159
100
AcDbEntity
  8
0
100
AcDbEllipse
 10
22.49999999999998
 20
0.0236058844764241
 30
0.0
 11
2.5
 21
-0.0000000000000005
 31
0.0
210
0.0
220
0.0
230
1.0
 40
0.7071067811865479
 41
3.397965980608241
 42
6.026811980161136
  0
SPLINE
  5
111CA
330
11159
100
AcDbEntity
  8
0
100
AcDbSpline
210
0.0
220
0.0
230
1.0
 70
     8
 71
     3
 72
     8
 73
     4
 74
     0
 42
0.000000001
 43
0.0000000001
 40
-1.0
 40
-1.0
 40
-1.0
 40
-1.0
 40
0.0
 40
0.0
 40
0.0
 40
0.0
 10
20.08171008039234
 20
-0.4246540092928626
 30
0.0
 10
20.00810027697967
 20
-0.3163012038324908
 30
0.0
 10
19.98390516356055
 20
-0.1581319339738445
 30
0.0
 10
20.01056648600255
 20
-0.0003899405809329
 30
0.0
  0
SPLINE
  5
111CB
330
11159
100
AcDbEntity
  8
0
100
AcDbSpline
210
0.0
220
0.0
230
1.0
 70
     8
 71
     3
 72
     8
 73
     4
 74
     0
 42
0.000000001
 43
0.0000000001
 40
-1.0
 40
-1.0
 40
-1.0
 40
-1.0
 40
0.0
 40
0.0
 40
0.0
 40
0.0
 10
24.9894335139974
 20
-0.0003899405809329
 30
0.0
 10
25.01609483643945
 20
-0.1581319339738545
 30
0.0
 10
24.99189972302032
 20
-0.3163012038324387
 30
0.0
 10
24.91828991960761
 20
-0.4246540092928619
 30
0.0
  0
ARC
  5
111CC
330
11159
100
AcDbEntity
  8
0
100
AcDbCircle
 10
22.49999999999998
 20
-0.2299999999999808
 30
0.0
 40
2.5
100
AcDbArc
 50
5.269701326164559
 51
174.7302986738354
  0
SPLINE
  5
111CD
330
11159
100
AcDbEntity
  8
0
100
AcDbSpline
210
0.0
220
0.0
230
1.0
 70
     8
 71
     3
 72
     8
 73
     4
 74
     0
 42
0.000000001
 43
0.0000000001
 40
-1.0
 40
-1.0
 40
-1.0
 40
-1.0
 40
0.0
 40
0.0
 40
0.0
 40
0.0
 10
-4.918289920131925
 20
-0.4246540092928614
 30
0.0
 10
-4.991899723307422
 20
-0.3163012038163373
 30
0.0
 10
-5.016094836485473
 20
-0.1581319339514646
 30
0.0
 10
-4.989433513812977
 20
-0.0003899405809328
 30
0.0
  0
SPLINE
  5
111CE
330
11159
100
AcDbEntity
  8
0
100
AcDbSpline
210
0.0
220
0.0
230
1.0
 70
     8
 71
     3
 72
     8
 73
     4
 74
     0
 42
0.000000001
 43
0.0000000001
 40
-1.0
 40
-1.0
 40
-1.0
 40
-1.0
 40
0.0
 40
0.0
 40
0.0
 40
0.0
 10
4.989433513812945
 20
-0.0003899405809327
 30
0.0
 10
5.01609483648544
 20
-0.1581319339514887
 30
0.0
 10
4.991899723307241
 20
-0.3163012038163321
 30
0.0
 10
4.918289920131875
 20
-0.4246540092928619
 30
0.0
  0
ELLIPSE
  5
111CF
330
11159
100
AcDbEntity
  8
0
100
AcDbEllipse
 10
-2.500000000000017
 20
0.0236058830622354
 30
0.0
 11
-2.5
 21
0.0000000000000004
 31
0.0
210
0.0
220
0.0
230
1.0
 40
0.7071067811865479
 41
0.2563733261914329
 42
1.570796326794896
  0
LINE
  5
111D0
330
11159
100
AcDbEntity
  8
0
100
AcDbLine
 10
2.499999999999978
 20
-1.744161069904177
 30
0.0
 11
-2.500000000000017
 21
-1.744161069904176
 31
0.0
  0
ELLIPSE
  5
111D1
330
11159
100
AcDbEntity
  8
0
100
AcDbEllipse
 10
2.499999999999977
 20
0.0236058830622606
 30
0.0
 11
2.5
 21
-0.0000000000000004
 31
0.0
210
0.0
220
0.0
230
1.0
 40
0.7071067811865479
 41
4.712388980384689
 42
6.026811980988139
  0
ARC
  5
111D2
330
11159
100
AcDbEntity
  8
0
100
AcDbCircle
 10
2.499999999999977
 20
-0.2300000019999099
 30
0.0
 40
2.5
100
AcDbArc
 50
5.269701372194007
 51
89.9999999999998
  0
LINE
  5
111D3
330
11159
100
AcDbEntity
  8
0
100
AcDbLine
 10
-2.500000000000021
 20
2.26999999800009
 30
0.0
 11
2.499999999999987
 21
2.26999999800009
 31
0.0
  0
ARC
  5
111D4
330
11159
100
AcDbEntity
  8
0
100
AcDbCircle
 10
-2.500000000000017
 20
-0.2300000019999454
 30
0.0
 40
2.5
100
AcDbArc
 50
90.0000000000001
 51
174.7302986278051
  0
ELLIPSE
  5
111D5
330
11159
100
AcDbEntity
  8
0
100
AcDbEllipse
 10
-39.39999999999999
 20
-54.16476937947047
 30
0.0
 11
-2.100000000000031
 21
0.0000000000000045
 31
0.0
210
0.0
220
0.0
230
1.0
 40
0.707106781186429
 41
0.0
 42
1.570796326794896
  0
ELLIPSE
  5
111D6
330
11159
100
AcDbEntity
  8
0
100
AcDbEllipse
 10
-39.39999999999999
 20
-54.16476937947047
 30
0.0
 11
-0.6000000000000087
 21
0.0000000000000355
 31
0.0
210
0.0
220
0.0
230
1.0
 40
0.7071067811865764
 41
0.0000000000001259
 42
1.57079632679499
  0
LINE
  5
111D7
330
11159
100
AcDbEntity
  8
0
100
AcDbLine
 10
39.39999999999999
 20
300.67
 30
0.0
 11
40.0
 21
300.67
 31
0.0
  0
LINE
  5
111D8
330
11159
100
AcDbEntity
  8
0
100
AcDbLine
 10
39.39999999999999
 20
80.27000000000002
 30
0.0
 11
40.0
 21
80.27000000000002
 31
0.0
  0
LINE
  5
111D9
330
11159
100
AcDbEntity
  8
0
100
AcDbLine
 10
-40.00000000000001
 20
300.67
 30
0.0
 11
-39.40000000000002
 21
300.67
 31
0.0
  0
LINE
  5
111DA
330
11159
100
AcDbEntity
  8
0
100
AcDbLine
 10
-40.00000000000001
 20
80.27000000000002
 30
0.0
 11
-39.40000000000002
 21
80.27000000000002
 31
0.0
  0
ENDBLK
  5
1115B
330
11159
100
AcDbEntity
  8
0
100
AcDbBlockEnd
  0
BLOCK
  5
111DC
330
111DB
100
AcDbEntity
  8
0
100
AcDbBlockBegin
  2
SPR80_300-Left
 70
     0
 10
0.0
 20
0.0
 30
0.0
  3
SPR80_300-Left
  1

  0
LINE
  5
111DE
330
111DB
100
AcDbEntity
  8
0
100
AcDbLine
 10
0.0
 20
-0.0003899405809321
 30
0.0
 11
0.0
 21
1.270000000000055
 31
0.0
  0
LINE
  5
111DF
330
111DB
100
AcDbEntity
  8
0
100
AcDbLine
 10
62.91118318265853
 20
-2.263131642256619
 30
0.0
 11
4.362741700911101
 21
-2.263131641492161
 31
0.0
  0
SPLINE
  5
111E0
330
111DB
100
AcDbEntity
  8
0
100
AcDbSpline
210
0.0
220
0.0
230
1.0
 70
     8
 71
     3
 72
     8
 73
     4
 74
     0
 42
0.000000001
 43
0.0000000001
 40
-1.0
 40
-1.0
 40
-1.0
 40
-1.0
 40
0.0
 40
0.0
 40
0.0
 40
0.0
 10
1.500000000000019
 20
-0.0003899405809327
 30
0.0
 10
1.500000000000019
 20
-0.1594792109354182
 30
0.0
 10
1.572566966670507
 20
-0.3214850446752776
 30
0.0
 10
1.675735931288091
 20
-0.4246540092928619
 30
0.0
  0
SPLINE
  5
111E1
330
111DB
100
AcDbEntity
  8
0
100
AcDbSpline
210
0.0
220
0.0
230
1.0
 70
     8
 71
     3
 72
     8
 73
     4
 74
     0
 42
0.000000001
 43
0.0000000001
 40
0.0
 40
0.0
 40
0.0
 40
0.0
 40
1.0
 40
1.0
 40
1.0
 40
1.0
 10
0.615075759508271
 20
-1.485314181072683
 30
0.0
 10
0.2539843833467255
 20
-1.124222804911139
 30
0.0
 10
0.0000000000000195
 20
-0.5572023868216311
 30
0.0
 10
0.0000000000000197
 20
-0.0003899405809324
 30
0.0
  0
LINE
  5
111E2
330
111DB
100
AcDbEntity
  8
0
100
AcDbLine
 10
1.675735931288098
 20
-0.424654009292869
 30
0.0
 11
2.288136209298602
 21
-1.037054287303372
 31
0.0
  0
LINE
  5
111E3
330
111DB
100
AcDbEntity
  8
0
100
AcDbLine
 10
2.288136209298582
 20
-1.037054287303373
 30
0.0
 11
2.717240184541069
 21
-1.466158262545859
 31
0.0
  0
SPLINE
  5
111E4
330
111DB
100
AcDbEntity
  8
0
100
AcDbSpline
210
0.0
220
0.0
230
1.0
 70
     8
 71
     3
 72
     8
 73
     4
 74
     0
 42
0.000000001
 43
0.0000000001
 40
-1.0
 40
-1.0
 40
-1.0
 40
-1.0
 40
0.0
 40
0.0
 40
0.0
 40
0.0
 10
2.717240184541065
 20
-1.46615826254585
 30
0.0
 10
3.124319333760502
 20
-1.873237411765289
 30
0.0
 10
3.733518404783298
 20
-2.078196639180054
 30
0.0
 10
4.362741700911159
 20
-2.263131641492101
 30
0.0
  0
LINE
  5
111E5
330
111DB
100
AcDbEntity
  8
0
100
AcDbLine
 10
2.717240184541069
 20
-1.466158262545859
 30
0.0
 11
2.364040347338303
 21
-1.819358099748624
 31
0.0
  0
LINE
  5
111E6
330
111DB
100
AcDbEntity
  8
0
100
AcDbLine
 10
2.364040347338303
 20
-1.819358099748624
 30
0.0
 11
1.656580012761247
 21
-2.52681843432568
 31
0.0
  0
SPLINE
  5
111E7
330
111DB
100
AcDbEntity
  8
0
100
AcDbSpline
210
0.0
220
0.0
230
1.0
 70
     8
 71
     3
 72
     8
 73
     4
 74
     0
 42
0.000000001
 43
0.0000000001
 40
0.0
 40
0.0
 40
0.0
 40
0.0
 40
1.0
 40
1.0
 40
1.0
 40
1.0
 10
4.362741700911112
 20
-2.263131641492148
 30
0.0
 10
3.178158037513505
 20
-2.633557006449847
 30
0.0
 10
2.063659161980679
 20
-2.933897583545111
 30
0.0
 10
1.656580012761243
 20
-2.526818434325671
 30
0.0
  0
LINE
  5
111E8
330
111DB
100
AcDbEntity
  8
0
100
AcDbLine
 10
1.656580012761247
 20
-2.52681843432568
 30
0.0
 11
1.227476037518765
 21
-2.097714459083189
 31
0.0
  0
LINE
  5
111E9
330
111DB
100
AcDbEntity
  8
0
100
AcDbLine
 10
2.288136209298582
 20
-1.037054287303373
 30
0.0
 11
1.227476037518765
 21
-2.097714459083189
 31
0.0
  0
LINE
  5
111EA
330
111DB
100
AcDbEntity
  8
0
100
AcDbLine
 10
1.227476037518794
 20
-2.097714459083179
 30
0.0
 11
0.615075759508291
 21
-1.485314181072675
 31
0.0
  0
LINE
  5
111EB
330
111DB
100
AcDbEntity
  8
0
100
AcDbLine
 10
1.675735931288091
 20
-0.4246540092928619
 30
0.0
 11
1.322536092814967
 21
-0.7778538477659863
 31
0.0
  0
LINE
  5
111EC
330
111DB
100
AcDbEntity
  8
0
100
AcDbLine
 10
1.322536092814967
 20
-0.7778538477659863
 30
0.0
 11
0.61507575950827
 21
-1.485314181072683
 31
0.0
  0
LINE
  5
111ED
330
111DB
100
AcDbEntity
  8
0
100
AcDbLine
 10
1.500000000000003
 20
-0.0003899405809327
 30
0.0
 11
1.000499995432133
 21
-0.0003899405809327
 31
0.0
  0
LINE
  5
111EE
330
111DB
100
AcDbEntity
  8
0
100
AcDbLine
 10
1.000499995432133
 20
-0.0003899405809327
 30
0.0
 11
0.0
 21
-0.0003899405809327
 31
0.0
  0
LINE
  5
111EF
330
111DB
100
AcDbEntity
  8
0
100
AcDbLine
 10
1.499999999999993
 20
1.270000000000055
 30
0.0
 11
1.499999999999992
 21
-0.0003899405809324
 31
0.0
  0
LINE
  5
111F0
330
111DB
100
AcDbEntity
  8
0
100
AcDbLine
 10
0.0
 20
6.270000000000015
 30
0.0
 11
0.0
 21
1.270000000000013
 31
0.0
  0
LINE
  5
111F1
330
111DB
100
AcDbEntity
  8
0
100
AcDbLine
 10
0.0
 20
77.27000000000001
 30
0.0
 11
0.0
 21
72.27000000000001
 31
0.0
  0
LINE
  5
111F2
330
111DB
100
AcDbEntity
  8
0
100
AcDbLine
 10
1.500000000000021
 20
1.270000000000013
 30
0.0
 11
1.500000000000023
 21
6.270000000000015
 31
0.0
  0
LINE
  5
111F3
330
111DB
100
AcDbEntity
  8
0
100
AcDbLine
 10
1.500000000000023
 20
6.270000000000015
 30
0.0
 11
0.0
 21
6.270000000000015
 31
0.0
  0
LINE
  5
111F4
330
111DB
100
AcDbEntity
  8
0
100
AcDbLine
 10
0.0
 20
1.270000000000013
 30
0.0
 11
1.500000000000021
 21
1.270000000000013
 31
0.0
  0
LINE
  5
111F5
330
111DB
100
AcDbEntity
  8
0
100
AcDbLine
 10
0.0
 20
72.27000000000001
 30
0.0
 11
1.500000000000023
 21
72.27000000000001
 31
0.0
  0
LINE
  5
111F6
330
111DB
100
AcDbEntity
  8
0
100
AcDbLine
 10
1.500000000000023
 20
72.27000000000001
 30
0.0
 11
1.500000000000021
 21
77.27000000000001
 31
0.0
  0
LINE
  5
111F7
330
111DB
100
AcDbEntity
  8
0
100
AcDbLine
 10
1.500000000000021
 20
77.27000000000001
 30
0.0
 11
0.0
 21
77.27000000000001
 31
0.0
  0
LINE
  5
111F8
330
111DB
100
AcDbEntity
  8
0
100
AcDbLine
 10
0.0
 20
6.270000000000015
 30
0.0
 11
0.0
 21
72.27000000000001
 31
0.0
  0
LINE
  5
111F9
330
111DB
100
AcDbEntity
  8
0
100
AcDbLine
 10
0.0
 20
77.27000000000001
 30
0.0
 11
0.0
 21
80.27000000000001
 31
0.0
  0
LINE
  5
111FA
330
111DB
100
AcDbEntity
  8
0
100
AcDbLine
 10
1.500000000000023
 20
6.270000000000015
 30
0.0
 11
1.500000000000023
 21
72.27000000000001
 31
0.0
  0
LINE
  5
111FB
330
111DB
100
AcDbEntity
  8
0
100
AcDbLine
 10
1.5
 20
77.27000000000001
 30
0.0
 11
1.5
 21
80.27000000000001
 31
0.0
  0
LINE
  5
111FC
330
111DB
100
AcDbEntity
  8
0
100
AcDbLine
 10
0.0
 20
80.27000000000002
 30
0.0
 11
0.0
 21
300.67
 31
0.0
  0
LINE
  5
111FD
330
111DB
100
AcDbEntity
  8
0
100
AcDbLine
 10
2.100000000000008
 20
300.67
 30
0.0
 11
0.0
 21
300.67
 31
0.0
  0
LINE
  5
111FE
330
111DB
100
AcDbEntity
  8
0
100
AcDbLine
 10
0.0
 20
80.27000000000002
 30
0.0
 11
2.1
 21
80.27000000000002
 31
0.0
  0
LINE
  5
111FF
330
111DB
100
AcDbEntity
  8
0
100
AcDbLine
 10
43.50000000000001
 20
85.27000000000002
 30
0.0
 11
38.50000000000001
 21
80.27000000000002
 31
0.0
  0
LINE
  5
11200
330
111DB
100
AcDbEntity
  8
0
100
AcDbLine
 10
38.50000000000001
 20
300.67
 30
0.0
 11
43.50000000000001
 21
295.67
 31
0.0
  0
LINE
  5
11201
330
111DB
100
AcDbEntity
  8
0
100
AcDbLine
 10
82.00306627386
 20
-21.35501473263461
 30
0.0
 11
82.00306627386
 21
-28.42608254450006
 31
0.0
  0
CIRCLE
  5
11202
330
111DB
100
AcDbEntity
  8
0
100
AcDbCircle
 10
35.50000000000002
 20
287.77
 30
0.0
 40
2.5
  0
CIRCLE
  5
11203
330
111DB
100
AcDbEntity
  8
0
100
AcDbCircle
 10
35.50000000000002
 20
267.77
 30
0.0
 40
2.5
  0
CIRCLE
  5
11204
330
111DB
100
AcDbEntity
  8
0
100
AcDbCircle
 10
35.50000000000002
 20
247.77
 30
0.0
 40
2.5
  0
CIRCLE
  5
11205
330
111DB
100
AcDbEntity
  8
0
100
AcDbCircle
 10
35.50000000000002
 20
227.77
 30
0.0
 40
2.5
  0
CIRCLE
  5
11206
330
111DB
100
AcDbEntity
  8
0
100
AcDbCircle
 10
35.50000000000002
 20
207.77
 30
0.0
 40
2.5
  0
CIRCLE
  5
11207
330
111DB
100
AcDbEntity
  8
0
100
AcDbCircle
 10
35.50000000000002
 20
187.77
 30
0.0
 40
2.5
  0
CIRCLE
  5
11208
330
111DB
100
AcDbEntity
  8
0
100
AcDbCircle
 10
35.50000000000002
 20
167.77
 30
0.0
 40
2.5
  0
CIRCLE
  5
11209
330
111DB
100
AcDbEntity
  8
0
100
AcDbCircle
 10
35.50000000000002
 20
147.77
 30
0.0
 40
2.5
  0
CIRCLE
  5
1120A
330
111DB
100
AcDbEntity
  8
0
100
AcDbCircle
 10
35.50000000000002
 20
127.77
 30
0.0
 40
2.5
  0
CIRCLE
  5
1120B
330
111DB
100
AcDbEntity
  8
0
100
AcDbCircle
 10
35.50000000000002
 20
107.77
 30
0.0
 40
2.5
  0
CIRCLE
  5
1120C
330
111DB
100
AcDbEntity
  8
0
100
AcDbCircle
 10
35.50000000000002
 20
87.76999999999999
 30
0.0
 40
2.5
  0
LINE
  5
1120D
330
111DB
100
AcDbEntity
  8
0
100
AcDbLine
 10
43.50000000000001
 20
295.67
 30
0.0
 11
43.50000000000001
 21
85.27000000000001
 31
0.0
  0
LINE
  5
1120E
330
111DB
100
AcDbEntity
  8
0
100
AcDbLine
 10
2.100000000000008
 20
300.67
 30
0.0
 11
38.50000000000001
 21
300.67
 31
0.0
  0
LINE
  5
1120F
330
111DB
100
AcDbEntity
  8
0
100
AcDbLine
 10
38.50000000000001
 20
80.27000000000002
 30
0.0
 11
2.099999999999999
 21
80.27000000000002
 31
0.0
  0
LINE
  5
11210
330
111DB
100
AcDbEntity
  8
0
100
AcDbLine
 10
82.00306627386
 20
-28.42608254450006
 30
0.0
 11
56.26437943888952
 21
-54.16476937947051
 31
0.0
  0
LINE
  5
11211
330
111DB
100
AcDbEntity
  8
0
100
AcDbLine
 10
62.91118318265853
 20
-2.263131642256619
 30
0.0
 11
82.00306627386
 21
-21.35501473263461
 31
0.0
  0
CIRCLE
  5
11212
330
111DB
100
AcDbEntity
  8
0
100
AcDbCircle
 10
74.57844507130477
 20
-25.2441020292571
 30
0.0
 40
2.5
  0
ARC
  5
11213
330
111DB
100
AcDbEntity
  8
0
100
AcDbCircle
 10
59.31559010709463
 20
-13.99045269891598
 30
0.0
 40
0.8000000000000012
100
AcDbArc
 50
315.000000001042
 51
75.00000000104186
  0
LINE
  5
11214
330
111DB
100
AcDbEntity
  8
0
100
AcDbLine
 10
59.88127553205416
 20
-14.55613812385492
 30
0.0
 11
56.81941335363088
 21
-17.61800030238963
 31
0.0
  0
ARC
  5
11215
330
111DB
100
AcDbEntity
  8
0
100
AcDbCircle
 10
56.25372792867135
 20
-17.05231487745068
 30
0.0
 40
0.8
100
AcDbArc
 50
195.0000000010428
 51
315.0000000010428
  0
LINE
  5
11216
330
111DB
100
AcDbEntity
  8
0
100
AcDbLine
 10
55.48098726764387
 20
-17.25937011354675
 30
0.0
 11
54.36026792735771
 21
-13.07678859487809
 31
0.0
  0
ARC
  5
11217
330
111DB
100
AcDbEntity
  8
0
100
AcDbCircle
 10
55.13300858838519
 20
-12.86973335878201
 30
0.0
 40
0.8000000000000014
100
AcDbArc
 50
75.00000000104188
 51
195.0000000010427
  0
LINE
  5
11218
330
111DB
100
AcDbEntity
  8
0
100
AcDbLine
 10
55.34006382445316
 20
-12.09699269774698
 30
0.0
 11
59.5226453431626
 21
-13.21771203788095
 31
0.0
  0
LINE
  5
11219
330
111DB
100
AcDbEntity
  8
0
100
AcDbLine
 10
55.28251771018368
 20
-12.0838281338986
 30
0.0
 11
54.3471033635072
 21
-13.01924248060912
 31
0.0
  0
LINE
  5
1121A
330
111DB
100
AcDbEntity
  8
0
100
AcDbLine
 10
54.77945519839778
 20
-55.64969361996223
 30
0.0
 11
1.656580012761246
 21
-2.526818434325681
 31
0.0
  0
LINE
  5
1121B
330
111DB
100
AcDbEntity
  8
0
100
AcDbLine
 10
56.26437943888958
 20
-54.16476937947044
 30
0.0
 11
54.77945519839753
 21
-55.64969361996199
 31
0.0
  0
ENDBLK
  5
111DD
330
111DB
100
AcDbEntity
  8
0
100
AcDbBlockEnd
  0
BLOCK
  5
1121D
330
1121C
100
AcDbEntity
  8
0
100
AcDbBlockBegin
  2
SPR80_300-Right
 70
     0
 10
0.0
 20
0.0
 30
0.0
  3
SPR80_300-Right
  1

  0
LINE
  5
1121F
330
1121C
100
AcDbEntity
  8
0
100
AcDbLine
 10
-1.49999999999994
 20
6.270000000000013
 30
0.0
 11
-1.499999999999943
 21
1.270000000000013
 31
0.0
  0
LINE
  5
11220
330
1121C
100
AcDbEntity
  8
0
100
AcDbLine
 10
-1.499999999999943
 20
1.270000000000013
 30
0.0
 11
0.0
 21
1.269999999999978
 31
0.0
  0
LINE
  5
11221
330
1121C
100
AcDbEntity
  8
0
100
AcDbLine
 10
0.0
 20
1.269999999999978
 30
0.0
 11
0.0
 21
6.270000000000013
 31
0.0
  0
LINE
  5
11222
330
1121C
100
AcDbEntity
  8
0
100
AcDbLine
 10
0.0
 20
6.270000000000013
 30
0.0
 11
-1.49999999999994
 21
6.270000000000013
 31
0.0
  0
LINE
  5
11223
330
1121C
100
AcDbEntity
  8
0
100
AcDbLine
 10
-1.49999999999994
 20
72.27000000000002
 30
0.0
 11
0.0
 21
72.27000000000002
 31
0.0
  0
LINE
  5
11224
330
1121C
100
AcDbEntity
  8
0
100
AcDbLine
 10
0.0
 20
72.27000000000002
 30
0.0
 11
0.0
 21
77.27000000000002
 31
0.0
  0
LINE
  5
11225
330
1121C
100
AcDbEntity
  8
0
100
AcDbLine
 10
-1.499999999999943
 20
77.27000000000002
 30
0.0
 11
-1.49999999999994
 21
72.27000000000002
 31
0.0
  0
LINE
  5
11226
330
1121C
100
AcDbEntity
  8
0
100
AcDbLine
 10
0.0
 20
77.27000000000002
 30
0.0
 11
-1.499999999999943
 21
77.27000000000002
 31
0.0
  0
LINE
  5
11227
330
1121C
100
AcDbEntity
  8
0
100
AcDbLine
 10
0.0
 20
72.27000000000002
 30
0.0
 11
0.0
 21
6.270000000000015
 31
0.0
  0
LINE
  5
11228
330
1121C
100
AcDbEntity
  8
0
100
AcDbLine
 10
-1.49999999999994
 20
72.27000000000002
 30
0.0
 11
-1.49999999999994
 21
6.270000000000015
 31
0.0
  0
LINE
  5
11229
330
1121C
100
AcDbEntity
  8
0
100
AcDbLine
 10
0.0
 20
80.27000000000002
 30
0.0
 11
0.0
 21
77.27000000000002
 31
0.0
  0
LINE
  5
1122A
330
1121C
100
AcDbEntity
  8
0
100
AcDbLine
 10
-1.499999999999964
 20
80.27000000000002
 30
0.0
 11
-1.499999999999964
 21
77.27000000000002
 31
0.0
  0
LINE
  5
1122B
330
1121C
100
AcDbEntity
  8
0
100
AcDbLine
 10
0.0
 20
1.270000000000055
 30
0.0
 11
0.0
 21
-0.0003899405809324
 31
0.0
  0
LINE
  5
1122C
330
1121C
100
AcDbEntity
  8
0
100
AcDbLine
 10
-4.362741700911098
 20
-2.263131641492166
 30
0.0
 11
-62.91118318265852
 21
-2.263131642256614
 31
0.0
  0
SPLINE
  5
1122D
330
1121C
100
AcDbEntity
  8
0
100
AcDbSpline
210
0.0
220
0.0
230
1.0
 70
     8
 71
     3
 72
     8
 73
     4
 74
     0
 42
0.000000001
 43
0.0000000001
 40
-1.0
 40
-1.0
 40
-1.0
 40
-1.0
 40
0.0
 40
0.0
 40
0.0
 40
0.0
 10
-1.675735931288075
 20
-0.4246540092928619
 30
0.0
 10
-1.572566966670499
 20
-0.3214850446752853
 30
0.0
 10
-1.500000000000004
 20
-0.1594792109354127
 30
0.0
 10
-1.500000000000004
 20
-0.0003899405809329
 30
0.0
  0
SPLINE
  5
1122E
330
1121C
100
AcDbEntity
  8
0
100
AcDbSpline
210
0.0
220
0.0
230
1.0
 70
     8
 71
     3
 72
     8
 73
     4
 74
     0
 42
0.000000001
 43
0.0000000001
 40
0.0
 40
0.0
 40
0.0
 40
0.0
 40
1.0
 40
1.0
 40
1.0
 40
1.0
 10
-0.0000000000000042
 20
-0.0003899405809332
 30
0.0
 10
-0.0000000000000043
 20
-0.5572023868216123
 30
0.0
 10
-0.2539843833467368
 20
-1.124222804911165
 30
0.0
 10
-0.6150757595082544
 20
-1.485314181072683
 30
0.0
  0
LINE
  5
1122F
330
1121C
100
AcDbEntity
  8
0
100
AcDbLine
 10
-2.717240184541038
 20
-1.466158262545878
 30
0.0
 11
-2.288136209298549
 21
-1.037054287303388
 31
0.0
  0
LINE
  5
11230
330
1121C
100
AcDbEntity
  8
0
100
AcDbLine
 10
-2.288136209298586
 20
-1.037054287303372
 30
0.0
 11
-1.675735931288075
 21
-0.424654009292861
 31
0.0
  0
LINE
  5
11231
330
1121C
100
AcDbEntity
  8
0
100
AcDbLine
 10
-2.717240184541038
 20
-1.466158262545878
 30
0.0
 11
-2.364040347338679
 21
-1.819358099748237
 31
0.0
  0
SPLINE
  5
11232
330
1121C
100
AcDbEntity
  8
0
100
AcDbSpline
210
0.0
220
0.0
230
1.0
 70
     8
 71
     3
 72
     8
 73
     4
 74
     0
 42
0.000000001
 43
0.0000000001
 40
-1.0
 40
-1.0
 40
-1.0
 40
-1.0
 40
0.0
 40
0.0
 40
0.0
 40
0.0
 10
-4.36274170091115
 20
-2.263131641492106
 30
0.0
 10
-3.733518404783797
 20
-2.078196639180585
 30
0.0
 10
-3.124319333760263
 20
-1.873237411765064
 30
0.0
 10
-2.717240184541052
 20
-1.46615826254585
 30
0.0
  0
SPLINE
  5
11233
330
1121C
100
AcDbEntity
  8
0
100
AcDbSpline
210
0.0
220
0.0
230
1.0
 70
     8
 71
     3
 72
     8
 73
     4
 74
     0
 42
0.000000001
 43
0.0000000001
 40
0.0
 40
0.0
 40
0.0
 40
0.0
 40
1.0
 40
1.0
 40
1.0
 40
1.0
 10
-1.65658001276123
 20
-2.526818434325671
 30
0.0
 10
-2.063659161980439
 20
-2.933897583544887
 30
0.0
 10
-3.178158037513971
 20
-2.63355700645041
 30
0.0
 10
-4.362741700911094
 20
-2.263131641492161
 30
0.0
  0
LINE
  5
11234
330
1121C
100
AcDbEntity
  8
0
100
AcDbLine
 10
-2.364040347338679
 20
-1.819358099748237
 30
0.0
 11
-1.656580012761219
 21
-2.526818434325697
 31
0.0
  0
LINE
  5
11235
330
1121C
100
AcDbEntity
  8
0
100
AcDbLine
 10
-0.6150757595082684
 20
-1.485314181072665
 30
0.0
 11
-1.22747603751878
 21
-2.097714459083178
 31
0.0
  0
LINE
  5
11236
330
1121C
100
AcDbEntity
  8
0
100
AcDbLine
 10
-0.6150757595082541
 20
-1.485314181072682
 30
0.0
 11
-1.322536092816933
 21
-0.7778538477640038
 31
0.0
  0
LINE
  5
11237
330
1121C
100
AcDbEntity
  8
0
100
AcDbLine
 10
-1.322536092816933
 20
-0.7778538477640038
 30
0.0
 11
-1.675735931288075
 21
-0.4246540092928615
 31
0.0
  0
LINE
  5
11238
330
1121C
100
AcDbEntity
  8
0
100
AcDbLine
 10
-2.288136209298549
 20
-1.037054287303388
 30
0.0
 11
-1.227476037518739
 21
-2.097714459083197
 31
0.0
  0
LINE
  5
11239
330
1121C
100
AcDbEntity
  8
0
100
AcDbLine
 10
-1.227476037518739
 20
-2.097714459083197
 30
0.0
 11
-1.656580012761219
 21
-2.526818434325697
 31
0.0
  0
LINE
  5
1123A
330
1121C
100
AcDbEntity
  8
0
100
AcDbLine
 10
-1.499999999999968
 20
-0.0003899405809327
 30
0.0
 11
-1.000499995439317
 21
-0.0003899405809327
 31
0.0
  0
LINE
  5
1123B
330
1121C
100
AcDbEntity
  8
0
100
AcDbLine
 10
-1.000499995439317
 20
-0.0003899405809327
 30
0.0
 11
0.0
 21
-0.0003899405809327
 31
0.0
  0
LINE
  5
1123C
330
1121C
100
AcDbEntity
  8
0
100
AcDbLine
 10
-1.499999999999978
 20
-0.0003899405809321
 30
0.0
 11
-1.499999999999977
 21
1.270000000000055
 31
0.0
  0
LINE
  5
1123D
330
1121C
100
AcDbEntity
  8
0
100
AcDbLine
 10
0.0
 20
80.27000000000002
 30
0.0
 11
0.0
 21
300.67
 31
0.0
  0
LINE
  5
1123E
330
1121C
100
AcDbEntity
  8
0
100
AcDbLine
 10
0.0
 20
300.67
 30
0.0
 11
-2.099999999999945
 21
300.67
 31
0.0
  0
LINE
  5
1123F
330
1121C
100
AcDbEntity
  8
0
100
AcDbLine
 10
-2.099999999999963
 20
80.27000000000002
 30
0.0
 11
0.0
 21
80.27000000000002
 31
0.0
  0
LINE
  5
11240
330
1121C
100
AcDbEntity
  8
0
100
AcDbLine
 10
-38.49999999999996
 20
80.27000000000002
 30
0.0
 11
-43.49999999999996
 21
85.27000000000002
 31
0.0
  0
LINE
  5
11241
330
1121C
100
AcDbEntity
  8
0
100
AcDbLine
 10
-43.49999999999996
 20
295.67
 30
0.0
 11
-38.49999999999995
 21
300.67
 31
0.0
  0
LINE
  5
11242
330
1121C
100
AcDbEntity
  8
0
100
AcDbLine
 10
-82.00306627385996
 20
-28.42608254450007
 30
0.0
 11
-82.00306627385998
 21
-21.35501473263463
 31
0.0
  0
LINE
  5
11243
330
1121C
100
AcDbEntity
  8
0
100
AcDbLine
 10
-43.49999999999996
 20
85.27000000000002
 30
0.0
 11
-43.49999999999996
 21
295.67
 31
0.0
  0
LINE
  5
11244
330
1121C
100
AcDbEntity
  8
0
100
AcDbLine
 10
-2.099999999999963
 20
80.27000000000002
 30
0.0
 11
-38.49999999999996
 21
80.27000000000002
 31
0.0
  0
LINE
  5
11245
330
1121C
100
AcDbEntity
  8
0
100
AcDbLine
 10
-38.49999999999995
 20
300.67
 30
0.0
 11
-2.099999999999946
 21
300.67
 31
0.0
  0
CIRCLE
  5
11246
330
1121C
100
AcDbEntity
  8
0
100
AcDbCircle
 10
-35.5
 20
292.77
 30
0.0
 40
2.5
  0
CIRCLE
  5
11247
330
1121C
100
AcDbEntity
  8
0
100
AcDbCircle
 10
-35.5
 20
272.77
 30
0.0
 40
2.5
  0
CIRCLE
  5
11248
330
1121C
100
AcDbEntity
  8
0
100
AcDbCircle
 10
-35.5
 20
252.77
 30
0.0
 40
2.5
  0
CIRCLE
  5
11249
330
1121C
100
AcDbEntity
  8
0
100
AcDbCircle
 10
-35.5
 20
232.77
 30
0.0
 40
2.5
  0
CIRCLE
  5
1124A
330
1121C
100
AcDbEntity
  8
0
100
AcDbCircle
 10
-35.5
 20
212.77
 30
0.0
 40
2.5
  0
CIRCLE
  5
1124B
330
1121C
100
AcDbEntity
  8
0
100
AcDbCircle
 10
-35.5
 20
192.77
 30
0.0
 40
2.5
  0
CIRCLE
  5
1124C
330
1121C
100
AcDbEntity
  8
0
100
AcDbCircle
 10
-35.5
 20
172.77
 30
0.0
 40
2.5
  0
CIRCLE
  5
1124D
330
1121C
100
AcDbEntity
  8
0
100
AcDbCircle
 10
-35.5
 20
152.77
 30
0.0
 40
2.5
  0
CIRCLE
  5
1124E
330
1121C
100
AcDbEntity
  8
0
100
AcDbCircle
 10
-35.5
 20
132.77
 30
0.0
 40
2.5
  0
CIRCLE
  5
1124F
330
1121C
100
AcDbEntity
  8
0
100
AcDbCircle
 10
-35.5
 20
112.77
 30
0.0
 40
2.5
  0
CIRCLE
  5
11250
330
1121C
100
AcDbEntity
  8
0
100
AcDbCircle
 10
-35.5
 20
92.76999999999999
 30
0.0
 40
2.5
  0
LINE
  5
11251
330
1121C
100
AcDbEntity
  8
0
100
AcDbLine
 10
-62.91118318265852
 20
-2.263131642256614
 30
0.0
 11
-82.00306627385998
 21
-21.35501473263463
 31
0.0
  0
LINE
  5
11252
330
1121C
100
AcDbEntity
  8
0
100
AcDbLine
 10
-1.656580012761219
 20
-2.526818434325697
 30
0.0
 11
-54.77945519839777
 21
-55.64969361996223
 31
0.0
  0
LINE
  5
11253
330
1121C
100
AcDbEntity
  8
0
100
AcDbLine
 10
-54.77945519839775
 20
-55.64969361996226
 30
0.0
 11
-56.26437943888955
 21
-54.16476937947052
 31
0.0
  0
LINE
  5
11254
330
1121C
100
AcDbEntity
  8
0
100
AcDbLine
 10
-56.26437943888952
 20
-54.16476937947051
 30
0.0
 11
-82.00306627385996
 21
-28.42608254450007
 31
0.0
  0
CIRCLE
  5
11255
330
1121C
100
AcDbEntity
  8
0
100
AcDbCircle
 10
-71.04291116530767
 20
-21.7085681233887
 30
0.0
 40
2.5
  0
ARC
  5
11256
330
1121C
100
AcDbEntity
  8
0
100
AcDbCircle
 10
-51.59747468238809
 20
-9.334199452913612
 30
0.0
 40
0.8000000000000015
100
AcDbArc
 50
344.9999999989572
 51
355.4526675359234
  0
LINE
  5
11257
330
1121C
100
AcDbEntity
  8
0
100
AcDbLine
 10
-50.82473402136063
 20
-9.541254689009688
 30
0.0
 11
-51.94545336164679
 21
-13.72383620767835
 31
0.0
  0
ARC
  5
11258
330
1121C
100
AcDbEntity
  8
0
100
AcDbCircle
 10
-52.71819402267426
 20
-13.51678097158228
 30
0.0
 40
0.8
100
AcDbArc
 50
224.9999999989572
 51
344.9999999989576
  0
LINE
  5
11259
330
1121C
100
AcDbEntity
  8
0
100
AcDbLine
 10
-53.28387944763379
 20
-14.08246639652122
 30
0.0
 11
-56.34574162605708
 21
-11.02060421798652
 31
0.0
  0
ARC
  5
1125A
330
1121C
100
AcDbEntity
  8
0
100
AcDbCircle
 10
-55.78005620109753
 20
-10.45491879304757
 30
0.0
 40
0.8000000000000014
100
AcDbArc
 50
104.9999999989575
 51
224.9999999989572
  0
LINE
  5
1125B
330
1121C
100
AcDbEntity
  8
0
100
AcDbLine
 10
-55.9871114371655
 20
-9.682178132012541
 30
0.0
 11
-51.80452991845606
 21
-8.56145879187858
 31
0.0
  0
ARC
  5
1125C
330
1121C
100
AcDbEntity
  8
0
100
AcDbCircle
 10
-51.59747468238809
 20
-9.334199452913612
 30
0.0
 40
0.8000000000000014
100
AcDbArc
 50
49.59733246198601
 51
104.9999999989581
  0
LINE
  5
1125D
330
1121C
100
AcDbEntity
  8
0
100
AcDbLine
 10
-51.07895039795263
 20
-8.724992947325656
 30
0.0
 11
-50.79999294004348
 21
-9.397625556585468
 31
0.0
  0
ARC
  5
1125E
330
1121C
100
AcDbEntity
  8
0
100
AcDbCircle
 10
-55.13300858838519
 20
-12.86973335878201
 30
0.0
 40
0.8000000000000015
100
AcDbArc
 50
349.2288663267692
 51
100.7711336711455
  0
ENDBLK
  5
1121E
330
1121C
100
AcDbEntity
  8
0
100
AcDbBlockEnd
  0
BLOCK
  5
11260
330
1125F
100
AcDbEntity
  8
0
100
AcDbBlockBegin
  2
SPR80_300-Top
 70
     0
 10
0.0
 20
0.0
 30
0.0
  3
SPR80_300-Top
  1

  0
LINE
  5
11262
330
1125F
100
AcDbEntity
  8
0
100
AcDbLine
 10
82.52709056099996
 20
-1.49999999999994
 30
0.0
 11
82.52709056099996
 21
0.0
 31
0.0
  0
LINE
  5
11263
330
1125F
100
AcDbEntity
  8
0
100
AcDbLine
 10
-77.52709056100001
 20
0.0
 30
0.0
 11
-82.52709056100004
 21
0.0
 31
0.0
  0
LINE
  5
11264
330
1125F
100
AcDbEntity
  8
0
100
AcDbLine
 10
82.52709056099996
 20
0.0
 30
0.0
 11
77.52709056099996
 21
0.0
 31
0.0
  0
LINE
  5
11265
330
1125F
100
AcDbEntity
  8
0
100
AcDbLine
 10
-82.52709056100004
 20
0.0
 30
0.0
 11
-82.52709056100004
 21
-1.500000000000023
 31
0.0
  0
LINE
  5
11266
330
1125F
100
AcDbEntity
  8
0
100
AcDbLine
 10
-82.52709056100004
 20
-1.500000000000023
 30
0.0
 11
-77.52709056100001
 21
-1.500000000000021
 31
0.0
  0
LINE
  5
11267
330
1125F
100
AcDbEntity
  8
0
100
AcDbLine
 10
-77.52709056100001
 20
-1.500000000000021
 30
0.0
 11
-77.52709056100001
 21
0.0
 31
0.0
  0
LINE
  5
11268
330
1125F
100
AcDbEntity
  8
0
100
AcDbLine
 10
77.52709056099996
 20
-1.499999999999943
 30
0.0
 11
82.52709056099996
 21
-1.49999999999994
 31
0.0
  0
LINE
  5
11269
330
1125F
100
AcDbEntity
  8
0
100
AcDbLine
 10
77.52709056099996
 20
0.0
 30
0.0
 11
77.52709056099996
 21
-1.499999999999943
 31
0.0
  0
LINE
  5
1126A
330
1125F
100
AcDbEntity
  8
0
100
AcDbLine
 10
-77.52709056100001
 20
0.0
 30
0.0
 11
-39.40000000000003
 21
0.0
 31
0.0
  0
LINE
  5
1126B
330
1125F
100
AcDbEntity
  8
0
100
AcDbLine
 10
39.39999999999999
 20
0.0
 30
0.0
 11
77.52709056099996
 21
0.0
 31
0.0
  0
LINE
  5
1126C
330
1125F
100
AcDbEntity
  8
0
100
AcDbLine
 10
41.41246117974981
 20
-1.499999999999961
 30
0.0
 11
77.52709056099996
 21
-1.499999999999943
 31
0.0
  0
LINE
  5
1126D
330
1125F
100
AcDbEntity
  8
0
100
AcDbLine
 10
-77.52709056100001
 20
-1.500000000000021
 30
0.0
 11
-41.41246117974983
 21
-1.500000000000003
 31
0.0
  0
LINE
  5
1126E
330
1125F
100
AcDbEntity
  8
0
100
AcDbLine
 10
39.39999999999999
 20
0.0
 30
0.0
 11
-39.40000000000001
 21
0.0
 31
0.0
  0
LINE
  5
1126F
330
1125F
100
AcDbEntity
  8
0
100
AcDbLine
 10
41.5000000000002
 20
-38.49999999999995
 30
0.0
 11
41.49999999999999
 21
-2.099999999999946
 31
0.0
  0
LINE
  5
11270
330
1125F
100
AcDbEntity
  8
0
100
AcDbLine
 10
-41.50000000000002
 20
-2.100000000000008
 30
0.0
 11
-41.50000000000001
 21
-38.50000000000001
 31
0.0
  0
LINE
  5
11271
330
1125F
100
AcDbEntity
  8
0
100
AcDbLine
 10
40.0
 20
-2.099999999999946
 30
0.0
 11
40.0000000000002
 21
-38.49999999999997
 31
0.0
  0
LINE
  5
11272
330
1125F
100
AcDbEntity
  8
0
100
AcDbLine
 10
-39.40000000000002
 20
-1.500000000000012
 30
0.0
 11
39.39999999999999
 21
-1.499999999999968
 31
0.0
  0
LINE
  5
11273
330
1125F
100
AcDbEntity
  8
0
100
AcDbLine
 10
-40.0
 20
-38.50000000000001
 30
0.0
 11
-40.00000000000001
 21
-2.100000000000008
 31
0.0
  0
LINE
  5
11274
330
1125F
100
AcDbEntity
  8
0
100
AcDbLine
 10
40.00000000000023
 20
-43.49999999999996
 30
0.0
 11
41.50000000000024
 21
-43.49999999999996
 31
0.0
  0
LINE
  5
11275
330
1125F
100
AcDbEntity
  8
0
100
AcDbLine
 10
41.50000000000024
 20
-43.49999999999996
 30
0.0
 11
41.5000000000002
 21
-38.49999999999995
 31
0.0
  0
LINE
  5
11276
330
1125F
100
AcDbEntity
  8
0
100
AcDbLine
 10
-41.50000000000001
 20
-38.50000000000001
 30
0.0
 11
-41.50000000000001
 21
-43.50000000000001
 31
0.0
  0
LINE
  5
11277
330
1125F
100
AcDbEntity
  8
0
100
AcDbLine
 10
-41.50000000000001
 20
-43.50000000000001
 30
0.0
 11
-40.0
 21
-43.50000000000001
 31
0.0
  0
LINE
  5
11278
330
1125F
100
AcDbEntity
  8
0
100
AcDbLine
 10
41.5000000000002
 20
-38.49999999999995
 30
0.0
 11
40.0000000000002
 21
-38.49999999999997
 31
0.0
  0
LINE
  5
11279
330
1125F
100
AcDbEntity
  8
0
100
AcDbLine
 10
40.0000000000002
 20
-38.49999999999997
 30
0.0
 11
40.00000000000023
 21
-43.49999999999996
 31
0.0
  0
LINE
  5
1127A
330
1125F
100
AcDbEntity
  8
0
100
AcDbLine
 10
-40.0
 20
-43.50000000000001
 30
0.0
 11
-40.0
 21
-38.50000000000001
 31
0.0
  0
LINE
  5
1127B
330
1125F
100
AcDbEntity
  8
0
100
AcDbLine
 10
-40.0
 20
-38.50000000000001
 30
0.0
 11
-41.50000000000001
 21
-38.50000000000001
 31
0.0
  0
LINE
  5
1127C
330
1125F
100
AcDbEntity
  8
0
100
AcDbLine
 10
41.49999999999997
 20
-82.00306627385998
 30
0.0
 11
39.99999999999997
 21
-82.00306627385998
 31
0.0
  0
LINE
  5
1127D
330
1125F
100
AcDbEntity
  8
0
100
AcDbLine
 10
-39.99999999999997
 20
-82.00306627385998
 30
0.0
 11
-41.49999999999997
 21
-82.00306627386
 31
0.0
  0
LINE
  5
1127E
330
1125F
100
AcDbEntity
  8
0
100
AcDbLine
 10
41.50000000000285
 20
-62.91118318265852
 30
0.0
 11
41.49999999999997
 21
-82.00306627385998
 31
0.0
  0
LINE
  5
1127F
330
1125F
100
AcDbEntity
  8
0
100
AcDbLine
 10
40.00000000000238
 20
-62.91118318265852
 30
0.0
 11
39.99999999999997
 21
-82.00306627385998
 31
0.0
  0
ELLIPSE
  5
11280
330
1125F
100
AcDbEntity
  8
0
100
AcDbEllipse
 10
39.39999999999999
 20
-56.26437943888952
 30
0.0
 11
0.6000000000000087
 21
-0.0000000000000092
 31
0.0
210
0.0
220
0.0
230
1.0
 40
0.7071067811864291
 41
0.0
 42
1.570796326794914
  0
LINE
  5
11281
330
1125F
100
AcDbEntity
  8
0
100
AcDbLine
 10
41.50000000000285
 20
-62.91118318265852
 30
0.0
 11
40.00000000000238
 21
-62.91118318265852
 31
0.0
  0
LINE
  5
11282
330
1125F
100
AcDbEntity
  8
0
100
AcDbLine
 10
41.5
 20
-43.49999999999996
 30
0.0
 11
41.50000000000285
 21
-62.91118318265852
 31
0.0
  0
LINE
  5
11283
330
1125F
100
AcDbEntity
  8
0
100
AcDbLine
 10
-41.50000000000305
 20
-62.91118318265853
 30
0.0
 11
-41.50000000000307
 21
-43.50000000000001
 31
0.0
  0
SPLINE
  5
11284
330
1125F
100
AcDbEntity
  8
0
100
AcDbSpline
210
0.0
220
0.0
230
1.0
 70
     8
 71
     3
 72
     8
 73
     4
 74
     0
 42
0.000000001
 43
0.0000000001
 40
-1.0
 40
-1.0
 40
-1.0
 40
-1.0
 40
0.0
 40
0.0
 40
0.0
 40
0.0
 10
-35.01767776087199
 20
-1.500000000000019
 30
0.0
 10
-34.97251992073979
 20
-1.500000000000019
 30
0.0
 10
-35.01586474390307
 20
-1.572566966670507
 30
0.0
 10
-35.1405419700205
 20
-1.675735931288091
 30
0.0
  0
SPLINE
  5
11285
330
1125F
100
AcDbEntity
  8
0
100
AcDbSpline
210
0.0
220
0.0
230
1.0
 70
     8
 71
     3
 72
     8
 73
     4
 74
     0
 42
0.000000001
 43
0.0000000001
 40
-1.0
 40
-1.0
 40
-1.0
 40
-1.0
 40
0.0
 40
0.0
 40
0.0
 40
0.0
 10
35.14054197002045
 20
-1.675735931288075
 30
0.0
 10
35.01586474390334
 20
-1.572566966670499
 30
0.0
 10
34.97251992074005
 20
-1.500000000000004
 30
0.0
 10
35.01767776087195
 20
-1.500000000000004
 30
0.0
  0
ELLIPSE
  5
11286
330
1125F
100
AcDbEntity
  8
0
100
AcDbEllipse
 10
-36.50000000000002
 20
-1.227476037518781
 30
0.0
 11
-1.5
 21
0.0000000000001098
 31
0.0
210
0.0
220
0.0
230
1.0
 40
0.7071067811865472
 41
1.570796326795022
 42
2.705254581962101
  0
LINE
  5
11287
330
1125F
100
AcDbEntity
  8
0
100
AcDbLine
 10
-36.50000000000002
 20
-2.28813620929858
 30
0.0
 11
-38.79315533855973
 21
-2.288136209298582
 31
0.0
  0
LINE
  5
11288
330
1125F
100
AcDbEntity
  8
0
100
AcDbLine
 10
-38.79315533855973
 20
-2.288136209298582
 30
0.0
 11
-39.40000000000002
 21
-2.717240184541069
 31
0.0
  0
LINE
  5
11289
330
1125F
100
AcDbEntity
  8
0
100
AcDbLine
 10
39.39999999999999
 20
-2.717240184541038
 30
0.0
 11
38.79315533855969
 21
-2.288136209298549
 31
0.0
  0
LINE
  5
1128A
330
1125F
100
AcDbEntity
  8
0
100
AcDbLine
 10
38.79315533855969
 20
-2.288136209298549
 30
0.0
 11
36.49999999999998
 21
-2.28813620929855
 31
0.0
  0
ELLIPSE
  5
1128B
330
1125F
100
AcDbEntity
  8
0
100
AcDbEllipse
 10
36.49999999999998
 20
-1.227476037518765
 30
0.0
 11
-1.5
 21
-0.0000000000000003
 31
0.0
210
0.0
220
0.0
230
1.0
 40
0.7071067811865474
 41
0.4363380716279384
 42
1.570796326794896
  0
LINE
  5
1128C
330
1125F
100
AcDbEntity
  8
0
100
AcDbLine
 10
-40.00000000000255
 20
-62.91118318265853
 30
0.0
 11
-41.50000000000305
 21
-62.91118318265853
 31
0.0
  0
LINE
  5
1128D
330
1125F
100
AcDbEntity
  8
0
100
AcDbLine
 10
-40.00000000000002
 20
-43.50000000000001
 30
0.0
 11
-40.00000000000255
 21
-62.91118318265853
 31
0.0
  0
SPLINE
  5
1128E
330
1125F
100
AcDbEntity
  8
0
100
AcDbSpline
210
0.0
220
0.0
230
1.0
 70
     8
 71
     3
 72
     8
 73
     4
 74
     0
 42
0.000000001
 43
0.0000000001
 40
-1.0
 40
-1.0
 40
-1.0
 40
-1.0
 40
0.0
 40
0.0
 40
0.0
 40
0.0
 10
-39.40000000000001
 20
-2.717240184541065
 30
0.0
 10
-39.714159265359
 20
-3.124319333760502
 30
0.0
 10
-40.00000000000001
 20
-3.733518404783298
 30
0.0
 10
-40.00000000000003
 20
-4.362741700911159
 30
0.0
  0
LINE
  5
1128F
330
1125F
100
AcDbEntity
  8
0
100
AcDbLine
 10
-39.40000000000002
 20
-2.717240184541069
 30
0.0
 11
-39.40000000000002
 21
-2.364040347338304
 31
0.0
  0
LINE
  5
11290
330
1125F
100
AcDbEntity
  8
0
100
AcDbLine
 10
-39.40000000000002
 20
-2.364040347338304
 30
0.0
 11
-39.40000000000002
 21
-1.656580012761247
 31
0.0
  0
SPLINE
  5
11291
330
1125F
100
AcDbEntity
  8
0
100
AcDbSpline
210
0.0
220
0.0
230
1.0
 70
     8
 71
     3
 72
     8
 73
     4
 74
     0
 42
0.000000001
 43
0.0000000001
 40
0.8233926083861746
 40
0.8233926083861746
 40
0.8233926083861746
 40
0.8233926083861746
 40
1.0
 40
1.0
 40
1.0
 40
1.0
 10
-39.96833079343948
 20
-1.934942494001831
 30
0.0
 10
-39.78528852951264
 20
-1.822430928280931
 30
0.0
 10
-39.59418996942229
 20
-1.728473199485263
 30
0.0
 10
-39.40000000000001
 20
-1.656580012761243
 30
0.0
  0
LINE
  5
11292
330
1125F
100
AcDbEntity
  8
0
100
AcDbLine
 10
-39.40000000000002
 20
-1.656580012761247
 30
0.0
 11
-39.17856242236229
 21
-1.500000000000001
 31
0.0
  0
LINE
  5
11293
330
1125F
100
AcDbEntity
  8
0
100
AcDbLine
 10
-38.79315533855973
 20
-2.288136209298582
 30
0.0
 11
-38.79315533855973
 21
-1.500000000000012
 31
0.0
  0
LINE
  5
11294
330
1125F
100
AcDbEntity
  8
0
100
AcDbLine
 10
-35.1405419700205
 20
-1.675735931288091
 30
0.0
 11
-35.1405419700205
 21
-1.500000000000009
 31
0.0
  0
LINE
  5
11295
330
1125F
100
AcDbEntity
  8
0
100
AcDbLine
 10
40.00000000000238
 20
-62.91118318265852
 30
0.0
 11
40.00000000000237
 21
-43.49999999999996
 31
0.0
  0
LINE
  5
11296
330
1125F
100
AcDbEntity
  8
0
100
AcDbLine
 10
39.39999999999999
 20
-2.717240184541038
 30
0.0
 11
39.39999999999999
 21
-2.364040347338679
 31
0.0
  0
SPLINE
  5
11297
330
1125F
100
AcDbEntity
  8
0
100
AcDbSpline
210
0.0
220
0.0
230
1.0
 70
     8
 71
     3
 72
     8
 73
     4
 74
     0
 42
0.000000001
 43
0.0000000001
 40
-1.0
 40
-1.0
 40
-1.0
 40
-1.0
 40
0.0
 40
0.0
 40
0.0
 40
0.0
 10
40.0
 20
-4.36274170091115
 30
0.0
 10
39.99999999999999
 20
-3.733518404783797
 30
0.0
 10
39.71415926535895
 20
-3.124319333760263
 30
0.0
 10
39.39999999999998
 20
-2.717240184541052
 30
0.0
  0
SPLINE
  5
11298
330
1125F
100
AcDbEntity
  8
0
100
AcDbSpline
210
0.0
220
0.0
230
1.0
 70
     8
 71
     3
 72
     8
 73
     4
 74
     0
 42
0.000000001
 43
0.0000000001
 40
0.0
 40
0.0
 40
0.0
 40
0.0
 40
0.1766073916138403
 40
0.1766073916138403
 40
0.1766073916138403
 40
0.1766073916138403
 10
39.39999999999997
 20
-1.65658001276123
 30
0.0
 10
39.59418996942225
 20
-1.728473199485216
 30
0.0
 10
39.7852885295126
 20
-1.822430928280882
 30
0.0
 10
39.96833079343947
 20
-1.934942494001802
 30
0.0
  0
LINE
  5
11299
330
1125F
100
AcDbEntity
  8
0
100
AcDbLine
 10
39.39999999999999
 20
-2.364040347338679
 30
0.0
 11
39.39999999999999
 21
-1.656580012761219
 31
0.0
  0
LINE
  5
1129A
330
1125F
100
AcDbEntity
  8
0
100
AcDbLine
 10
35.14054197002045
 20
-1.49999999999997
 30
0.0
 11
35.14054197002044
 21
-1.675735931288075
 31
0.0
  0
LINE
  5
1129B
330
1125F
100
AcDbEntity
  8
0
100
AcDbLine
 10
38.79315533855969
 20
-2.288136209298549
 30
0.0
 11
38.79315533855969
 21
-1.499999999999968
 31
0.0
  0
LINE
  5
1129C
330
1125F
100
AcDbEntity
  8
0
100
AcDbLine
 10
39.17856242236222
 20
-1.499999999999957
 30
0.0
 11
39.39999999999999
 21
-1.656580012761219
 31
0.0
  0
LINE
  5
1129D
330
1125F
100
AcDbEntity
  8
0
100
AcDbLine
 10
-41.50000000000305
 20
-62.91118318265853
 30
0.0
 11
-41.49999999999997
 21
-82.00306627386
 31
0.0
  0
LINE
  5
1129E
330
1125F
100
AcDbEntity
  8
0
100
AcDbLine
 10
-40.00000000000255
 20
-62.91118318265853
 30
0.0
 11
-39.99999999999997
 21
-82.00306627385998
 31
0.0
  0
ELLIPSE
  5
1129F
330
1125F
100
AcDbEntity
  8
0
100
AcDbEllipse
 10
-22.50000000000002
 20
-0.1668158657389995
 30
0.0
 11
2.5
 21
0.0000000000001829
 31
0.0
210
0.0
220
0.0
230
1.0
 40
0.7071067811865474
 41
3.995971005724944
 42
5.428806955044165
  0
LINE
  5
112A0
330
1125F
100
AcDbEntity
  8
0
100
AcDbLine
 10
-24.91828991960765
 20
-1.500000000000003
 30
0.0
 11
-24.91828991960765
 21
-1.675735931288089
 31
0.0
  0
ELLIPSE
  5
112A1
330
1125F
100
AcDbEntity
  8
0
100
AcDbEllipse
 10
-22.50000000000002
 20
-1.227476037518803
 30
0.0
 11
2.5
 21
0.0000000000000005
 31
0.0
210
0.0
220
0.0
230
1.0
 40
0.7071067811865475
 41
3.397965980608241
 42
6.026811980161135
  0
LINE
  5
112A2
330
1125F
100
AcDbEntity
  8
0
100
AcDbLine
 10
-20.08171008039238
 20
-1.675735931288088
 30
0.0
 11
-20.08171008039238
 21
-1.500000000000001
 31
0.0
  0
SPLINE
  5
112A3
330
1125F
100
AcDbEntity
  8
0
100
AcDbSpline
210
0.0
220
0.0
230
1.0
 70
     8
 71
     3
 72
     8
 73
     4
 74
     0
 42
0.000000001
 43
0.0000000001
 40
-1.0
 40
-1.0
 40
-1.0
 40
-1.0
 40
0.0
 40
0.0
 40
0.0
 40
0.0
 10
-24.91828991960765
 20
-1.67573593128809
 30
0.0
 10
-24.99189972302021
 20
-1.567383125827714
 30
0.0
 10
-25.01609483643925
 20
-1.500000000000017
 30
0.0
 10
-24.98943351399745
 20
-1.500000000000017
 30
0.0
  0
SPLINE
  5
112A4
330
1125F
100
AcDbEntity
  8
0
100
AcDbSpline
210
0.0
220
0.0
230
1.0
 70
     8
 71
     3
 72
     8
 73
     4
 74
     0
 42
0.000000001
 43
0.0000000001
 40
-1.0
 40
-1.0
 40
-1.0
 40
-1.0
 40
0.0
 40
0.0
 40
0.0
 40
0.0
 10
-20.01056648600259
 20
-1.500000000000016
 30
0.0
 10
-19.98390516356059
 20
-1.500000000000016
 30
0.0
 10
-20.00810027697989
 20
-1.567383125827672
 30
0.0
 10
-20.08171008039238
 20
-1.675735931288088
 30
0.0
  0
ELLIPSE
  5
112A5
330
1125F
100
AcDbEntity
  8
0
100
AcDbEllipse
 10
22.49999999999998
 20
-0.1668158657389898
 30
0.0
 11
2.5
 21
0.0000000000001836
 31
0.0
210
0.0
220
0.0
230
1.0
 40
0.7071067811865474
 41
3.995971005724941
 42
5.428806955044176
  0
LINE
  5
112A6
330
1125F
100
AcDbEntity
  8
0
100
AcDbLine
 10
20.08171008039234
 20
-1.499999999999981
 30
0.0
 11
20.08171008039234
 21
-1.675735931288079
 31
0.0
  0
ELLIPSE
  5
112A7
330
1125F
100
AcDbEntity
  8
0
100
AcDbEllipse
 10
22.49999999999998
 20
-1.227476037518793
 30
0.0
 11
2.5
 21
0.000000000000001
 31
0.0
210
0.0
220
0.0
230
1.0
 40
0.7071067811865475
 41
3.39796598060824
 42
6.026811980161136
  0
LINE
  5
112A8
330
1125F
100
AcDbEntity
  8
0
100
AcDbLine
 10
24.91828991960761
 20
-1.675735931288078
 30
0.0
 11
24.91828991960761
 21
-1.499999999999976
 31
0.0
  0
SPLINE
  5
112A9
330
1125F
100
AcDbEntity
  8
0
100
AcDbSpline
210
0.0
220
0.0
230
1.0
 70
     8
 71
     3
 72
     8
 73
     4
 74
     0
 42
0.000000001
 43
0.0000000001
 40
-1.0
 40
-1.0
 40
-1.0
 40
-1.0
 40
0.0
 40
0.0
 40
0.0
 40
0.0
 10
20.08171008039234
 20
-1.67573593128808
 30
0.0
 10
20.00810027697967
 20
-1.567383125827708
 30
0.0
 10
19.98390516356055
 20
-1.500000000000007
 30
0.0
 10
20.01056648600255
 20
-1.500000000000007
 30
0.0
  0
SPLINE
  5
112AA
330
1125F
100
AcDbEntity
  8
0
100
AcDbSpline
210
0.0
220
0.0
230
1.0
 70
     8
 71
     3
 72
     8
 73
     4
 74
     0
 42
0.000000001
 43
0.0000000001
 40
-1.0
 40
-1.0
 40
-1.0
 40
-1.0
 40
0.0
 40
0.0
 40
0.0
 40
0.0
 10
24.9894335139974
 20
-1.500000000000006
 30
0.0
 10
25.01609483643945
 20
-1.500000000000006
 30
0.0
 10
24.99189972302032
 20
-1.567383125827655
 30
0.0
 10
24.91828991960761
 20
-1.675735931288078
 30
0.0
  0
SPLINE
  5
112AB
330
1125F
100
AcDbEntity
  8
0
100
AcDbSpline
210
0.0
220
0.0
230
1.0
 70
     8
 71
     3
 72
     8
 73
     4
 74
     0
 42
0.000000001
 43
0.0000000001
 40
-1.0
 40
-1.0
 40
-1.0
 40
-1.0
 40
0.0
 40
0.0
 40
0.0
 40
0.0
 10
-4.918289920131925
 20
-1.675735931288084
 30
0.0
 10
-4.991899723307422
 20
-1.56738312581156
 30
0.0
 10
-5.016094836485473
 20
-1.500000000000013
 30
0.0
 10
-4.989433513812977
 20
-1.500000000000013
 30
0.0
  0
SPLINE
  5
112AC
330
1125F
100
AcDbEntity
  8
0
100
AcDbSpline
210
0.0
220
0.0
230
1.0
 70
     8
 71
     3
 72
     8
 73
     4
 74
     0
 42
0.000000001
 43
0.0000000001
 40
-1.0
 40
-1.0
 40
-1.0
 40
-1.0
 40
0.0
 40
0.0
 40
0.0
 40
0.0
 10
4.989433513812945
 20
-1.500000000000011
 30
0.0
 10
5.01609483648544
 20
-1.500000000000011
 30
0.0
 10
4.991899723307241
 20
-1.567383125811553
 30
0.0
 10
4.918289920131875
 20
-1.675735931288082
 30
0.0
  0
ELLIPSE
  5
112AD
330
1125F
100
AcDbEntity
  8
0
100
AcDbEllipse
 10
-2.500000000000017
 20
-0.1668158671531794
 30
0.0
 11
2.5
 21
0.0000000000001818
 31
0.0
210
0.0
220
0.0
230
1.0
 40
0.7071067811865475
 41
3.995971004506731
 42
4.712388980384623
  0
LINE
  5
112AE
330
1125F
100
AcDbEntity
  8
0
100
AcDbLine
 10
-4.918289920131925
 20
-1.499999999999992
 30
0.0
 11
-4.918289920131926
 21
-1.675735931288084
 31
0.0
  0
ELLIPSE
  5
112AF
330
1125F
100
AcDbEntity
  8
0
100
AcDbEllipse
 10
-2.500000000000017
 20
-1.227476038932987
 30
0.0
 11
-2.5
 21
-0.0000000000000002
 31
0.0
210
0.0
220
0.0
230
1.0
 40
0.7071067811865474
 41
0.2563733261914329
 42
1.570796326794896
  0
LINE
  5
112B0
330
1125F
100
AcDbEntity
  8
0
100
AcDbLine
 10
-2.500000000000017
 20
-1.93458282011954
 30
0.0
 11
2.499999999999978
 21
-1.934582820119538
 31
0.0
  0
LINE
  5
112B1
330
1125F
100
AcDbEntity
  8
0
100
AcDbLine
 10
2.499999999999978
 20
-2.995242991899361
 30
0.0
 11
-2.500000000000017
 21
-2.995242991899363
 31
0.0
  0
ELLIPSE
  5
112B2
330
1125F
100
AcDbEntity
  8
0
100
AcDbEllipse
 10
2.499999999999977
 20
-0.1668158671531522
 30
0.0
 11
2.5
 21
0.0000000000000006
 31
0.0
210
0.0
220
0.0
230
1.0
 40
0.7071067811865474
 41
4.712388980384689
 42
5.428806956262494
  0
ELLIPSE
  5
112B3
330
1125F
100
AcDbEntity
  8
0
100
AcDbEllipse
 10
2.499999999999977
 20
-1.227476038932961
 30
0.0
 11
2.5
 21
0.0000000000000006
 31
0.0
210
0.0
220
0.0
230
1.0
 40
0.7071067811865474
 41
4.712388980384689
 42
6.026811980988138
  0
LINE
  5
112B4
330
1125F
100
AcDbEntity
  8
0
100
AcDbLine
 10
4.918289920131877
 20
-1.675735931288082
 30
0.0
 11
4.918289920131877
 21
-1.499999999999987
 31
0.0
  0
LINE
  5
112B5
330
1125F
100
AcDbEntity
  8
0
100
AcDbLine
 10
-39.4
 20
-55.8401153701776
 30
0.0
 11
39.39999999999999
 21
-55.84011537017758
 31
0.0
  0
ELLIPSE
  5
112B6
330
1125F
100
AcDbEntity
  8
0
100
AcDbEllipse
 10
-39.39999999999999
 20
-56.26437943888955
 30
0.0
 11
-0.6000000000000087
 21
-0.0000000000000268
 31
0.0
210
0.0
220
0.0
230
1.0
 40
0.707106781186519
 41
4.712388980384583
 42
6.283185307179418
  0
ARC
  5
112B7
330
1125F
100
AcDbEntity
  8
0
100
AcDbCircle
 10
39.39999999999999
 20
-2.099999999999972
 30
0.0
 40
0.6000000000000006
100
AcDbArc
 50
0.0
 51
90.0
  0
ARC
  5
112B8
330
1125F
100
AcDbEntity
  8
0
100
AcDbCircle
 10
39.39999999999999
 20
-2.099999999999972
 30
0.0
 40
2.100000000000008
100
AcDbArc
 50
0.0
 51
90.0
  0
ARC
  5
112B9
330
1125F
100
AcDbEntity
  8
0
100
AcDbCircle
 10
-39.40000000000002
 20
-2.100000000000008
 30
0.0
 40
0.6000000000000006
100
AcDbArc
 50
90.0
 51
180.0
  0
ARC
  5
112BA
330
1125F
100
AcDbEntity
  8
0
100
AcDbCircle
 10
-39.40000000000002
 20
-2.100000000000008
 30
0.0
 40
2.100000000000004
100
AcDbArc
 50
90.0
 51
180.0
  0
ENDBLK
  5
11261
330
1125F
100
AcDbEntity
  8
0
100
AcDbBlockEnd
  0
BLOCK
  5
112BC
330
112BB
100
AcDbEntity
  8
0
100
AcDbBlockBegin
  2
SPR80_300-Bottom
 70
     0
 10
0.0
 20
0.0
 30
0.0
  3
SPR80_300-Bottom
  1

  0
LINE
  5
112BE
330
112BB
100
AcDbEntity
  8
0
100
AcDbLine
 10
82.527090561
 20
1.49999999999994
 30
0.0
 11
77.52709056100001
 21
1.499999999999943
 31
0.0
  0
LINE
  5
112BF
330
112BB
100
AcDbEntity
  8
0
100
AcDbLine
 10
77.52709056100001
 20
1.499999999999943
 30
0.0
 11
77.52709056100001
 21
0.0
 31
0.0
  0
LINE
  5
112C0
330
112BB
100
AcDbEntity
  8
0
100
AcDbLine
 10
77.52709056100001
 20
0.0
 30
0.0
 11
82.527090561
 21
0.0
 31
0.0
  0
LINE
  5
112C1
330
112BB
100
AcDbEntity
  8
0
100
AcDbLine
 10
82.527090561
 20
0.0
 30
0.0
 11
82.527090561
 21
1.49999999999994
 31
0.0
  0
LINE
  5
112C2
330
112BB
100
AcDbEntity
  8
0
100
AcDbLine
 10
-82.52709056100004
 20
0.0
 30
0.0
 11
-77.52709056100004
 21
0.0
 31
0.0
  0
LINE
  5
112C3
330
112BB
100
AcDbEntity
  8
0
100
AcDbLine
 10
-77.52709056100004
 20
1.500000000000021
 30
0.0
 11
-82.52709056100004
 21
1.500000000000023
 31
0.0
  0
LINE
  5
112C4
330
112BB
100
AcDbEntity
  8
0
100
AcDbLine
 10
-82.52709056100004
 20
1.500000000000023
 30
0.0
 11
-82.52709056100004
 21
0.0
 31
0.0
  0
LINE
  5
112C5
330
112BB
100
AcDbEntity
  8
0
100
AcDbLine
 10
-77.52709056100004
 20
0.0
 30
0.0
 11
-77.52709056100004
 21
1.500000000000021
 31
0.0
  0
LINE
  5
112C6
330
112BB
100
AcDbEntity
  8
0
100
AcDbLine
 10
77.52709056100001
 20
0.0
 30
0.0
 11
36.49999999999999
 21
0.0
 31
0.0
  0
LINE
  5
112C7
330
112BB
100
AcDbEntity
  8
0
100
AcDbLine
 10
-36.50000000000002
 20
0.0
 30
0.0
 11
-77.52709056100004
 21
0.0
 31
0.0
  0
LINE
  5
112C8
330
112BB
100
AcDbEntity
  8
0
100
AcDbLine
 10
-39.17856242236228
 20
1.500000000000005
 30
0.0
 11
-77.52709056100004
 21
1.500000000000021
 31
0.0
  0
LINE
  5
112C9
330
112BB
100
AcDbEntity
  8
0
100
AcDbLine
 10
77.52709056100001
 20
1.499999999999943
 30
0.0
 11
39.17856242236224
 21
1.499999999999962
 31
0.0
  0
LINE
  5
112CA
330
112BB
100
AcDbEntity
  8
0
100
AcDbLine
 10
36.49999999999998
 20
0.0
 30
0.0
 11
35.01767776087194
 21
0.0
 31
0.0
  0
LINE
  5
112CB
330
112BB
100
AcDbEntity
  8
0
100
AcDbLine
 10
-35.01767776087197
 20
0.0
 30
0.0
 11
-36.50000000000002
 21
0.0
 31
0.0
  0
SPLINE
  5
112CC
330
112BB
100
AcDbEntity
  8
0
100
AcDbSpline
210
0.0
220
0.0
230
1.0
 70
     8
 71
     3
 72
     8
 73
     4
 74
     0
 42
0.000000001
 43
0.0000000001
 40
0.0
 40
0.0
 40
0.0
 40
0.0
 40
1.0
 40
1.0
 40
1.0
 40
1.0
 10
-35.1405419700205
 20
0.615075759508271
 30
0.0
 10
-35.01586474390307
 20
0.2539843833467256
 30
0.0
 10
-34.97251992073979
 20
0.0000000000000196
 30
0.0
 10
-35.01767776087199
 20
0.0000000000000197
 30
0.0
  0
SPLINE
  5
112CD
330
112BB
100
AcDbEntity
  8
0
100
AcDbSpline
210
0.0
220
0.0
230
1.0
 70
     8
 71
     3
 72
     8
 73
     4
 74
     0
 42
0.000000001
 43
0.0000000001
 40
0.0
 40
0.0
 40
0.0
 40
0.0
 40
1.0
 40
1.0
 40
1.0
 40
1.0
 10
35.01767776087195
 20
0.0000000000000042
 30
0.0
 10
34.97251992074005
 20
0.0000000000000043
 30
0.0
 10
35.01586474390334
 20
0.2539843833467367
 30
0.0
 10
35.14054197002045
 20
0.6150757595082544
 30
0.0
  0
SPLINE
  5
112CE
330
112BB
100
AcDbEntity
  8
0
100
AcDbSpline
210
0.0
220
0.0
230
1.0
 70
     8
 71
     3
 72
     8
 73
     4
 74
     0
 42
0.000000001
 43
0.0000000001
 40
0.0
 40
0.0
 40
0.0
 40
0.0
 40
1.0
 40
1.0
 40
1.0
 40
1.0
 10
-41.50000000000004
 20
4.362741700911112
 30
0.0
 10
-41.49999999999998
 20
3.178158037513505
 30
0.0
 10
-40.49955742875643
 20
2.063659161980679
 30
0.0
 10
-39.40000000000001
 20
1.656580012761243
 30
0.0
  0
LINE
  5
112CF
330
112BB
100
AcDbEntity
  8
0
100
AcDbLine
 10
-39.40000000000002
 20
1.656580012761247
 30
0.0
 11
-38.79315533855973
 21
1.227476037518765
 31
0.0
  0
LINE
  5
112D0
330
112BB
100
AcDbEntity
  8
0
100
AcDbLine
 10
-38.79315533855973
 20
1.227476037518765
 30
0.0
 11
-36.50000000000002
 21
1.227476037518759
 31
0.0
  0
ELLIPSE
  5
112D1
330
112BB
100
AcDbEntity
  8
0
100
AcDbEllipse
 10
-36.50000000000002
 20
0.166815865738974
 30
0.0
 11
1.5
 21
-0.0000000000000003
 31
0.0
210
0.0
220
0.0
230
1.0
 40
0.7071067811865474
 41
0.4363380716279473
 42
1.570796326794896
  0
LINE
  5
112D2
330
112BB
100
AcDbEntity
  8
0
100
AcDbLine
 10
-35.01767776087197
 20
0.1805170265382688
 30
0.0
 11
-35.01767776087197
 21
0.0
 31
0.0
  0
SPLINE
  5
112D3
330
112BB
100
AcDbEntity
  8
0
100
AcDbSpline
210
0.0
220
0.0
230
1.0
 70
     8
 71
     3
 72
     8
 73
     4
 74
     0
 42
0.000000001
 43
0.0000000001
 40
0.0
 40
0.0
 40
0.0
 40
0.0
 40
1.0
 40
1.0
 40
1.0
 40
1.0
 10
39.39999999999997
 20
1.65658001276123
 30
0.0
 10
40.49955742875633
 20
2.063659161980439
 30
0.0
 10
41.49999999999995
 20
3.178158037513971
 30
0.0
 10
41.5
 20
4.362741700911094
 30
0.0
  0
ELLIPSE
  5
112D4
330
112BB
100
AcDbEntity
  8
0
100
AcDbEllipse
 10
36.49999999999998
 20
0.1668158657389589
 30
0.0
 11
1.5
 21
-0.0000000000001097
 31
0.0
210
0.0
220
0.0
230
1.0
 40
0.7071067811865475
 41
1.570796326795026
 42
2.705254581962108
  0
LINE
  5
112D5
330
112BB
100
AcDbEntity
  8
0
100
AcDbLine
 10
36.49999999999998
 20
1.227476037518728
 30
0.0
 11
38.79315533855969
 21
1.227476037518739
 31
0.0
  0
LINE
  5
112D6
330
112BB
100
AcDbEntity
  8
0
100
AcDbLine
 10
38.79315533855969
 20
1.227476037518739
 30
0.0
 11
39.39999999999999
 21
1.656580012761219
 31
0.0
  0
LINE
  5
112D7
330
112BB
100
AcDbEntity
  8
0
100
AcDbLine
 10
35.01767776087194
 20
0.1805170265381534
 30
0.0
 11
35.01767776087194
 21
0.0
 31
0.0
  0
LINE
  5
112D8
330
112BB
100
AcDbEntity
  8
0
100
AcDbLine
 10
24.9894335139974
 20
0.0
 30
0.0
 11
35.01767776087194
 21
0.0
 31
0.0
  0
LINE
  5
112D9
330
112BB
100
AcDbEntity
  8
0
100
AcDbLine
 10
4.989433513812943
 20
0.0
 30
0.0
 11
20.01056648600255
 21
0.0
 31
0.0
  0
LINE
  5
112DA
330
112BB
100
AcDbEntity
  8
0
100
AcDbLine
 10
-20.01056648600259
 20
0.0
 30
0.0
 11
-4.989433513812981
 21
0.0
 31
0.0
  0
LINE
  5
112DB
330
112BB
100
AcDbEntity
  8
0
100
AcDbLine
 10
-35.01767776087197
 20
0.0
 30
0.0
 11
-24.98943351399745
 21
0.0
 31
0.0
  0
LINE
  5
112DC
330
112BB
100
AcDbEntity
  8
0
100
AcDbLine
 10
41.49999999999995
 20
56.26437943888952
 30
0.0
 11
41.49999999999995
 21
82.00306627385996
 31
0.0
  0
LINE
  5
112DD
330
112BB
100
AcDbEntity
  8
0
100
AcDbLine
 10
-41.49999999999995
 20
82.00306627386
 30
0.0
 11
-41.49999999999997
 21
56.26437943888952
 31
0.0
  0
LINE
  5
112DE
330
112BB
100
AcDbEntity
  8
0
100
AcDbLine
 10
-39.99999999999998
 20
82.00306627385996
 30
0.0
 11
-39.99999999999999
 21
56.26437943888952
 31
0.0
  0
LINE
  5
112DF
330
112BB
100
AcDbEntity
  8
0
100
AcDbLine
 10
-39.4
 20
55.8401153701776
 30
0.0
 11
39.39999999999999
 21
55.84011537017758
 31
0.0
  0
LINE
  5
112E0
330
112BB
100
AcDbEntity
  8
0
100
AcDbLine
 10
39.99999999999997
 20
56.26437943888952
 30
0.0
 11
39.99999999999998
 21
82.00306627385996
 31
0.0
  0
LINE
  5
112E1
330
112BB
100
AcDbEntity
  8
0
100
AcDbLine
 10
-39.4
 20
54.77945519839778
 30
0.0
 11
39.39999999999999
 21
54.77945519839777
 31
0.0
  0
LINE
  5
112E2
330
112BB
100
AcDbEntity
  8
0
100
AcDbLine
 10
24.9894335139974
 20
0.0
 30
0.0
 11
20.01056648600255
 21
0.0
 31
0.0
  0
LINE
  5
112E3
330
112BB
100
AcDbEntity
  8
0
100
AcDbLine
 10
-20.01056648600259
 20
0.0
 30
0.0
 11
-24.98943351399745
 21
0.0
 31
0.0
  0
ELLIPSE
  5
112E4
330
112BB
100
AcDbEntity
  8
0
100
AcDbEllipse
 10
-22.50000000000002
 20
0.1668158657389995
 30
0.0
 11
-2.5
 21
0.0000000000000002
 31
0.0
210
0.0
220
0.0
230
1.0
 40
0.7071067811865474
 41
3.397965980608241
 42
6.026811980161135
  0
SPLINE
  5
112E5
330
112BB
100
AcDbEntity
  8
0
100
AcDbSpline
210
0.0
220
0.0
230
1.0
 70
     8
 71
     3
 72
     8
 73
     4
 74
     0
 42
0.000000001
 43
0.0000000001
 40
0.0
 40
0.0
 40
0.0
 40
0.0
 40
1.0
 40
1.0
 40
1.0
 40
1.0
 10
-24.98943351399745
 20
0.0000000000000175
 30
0.0
 10
-25.01609483643925
 20
0.0000000000000174
 30
0.0
 10
-24.99189972302021
 20
0.2358409403969577
 30
0.0
 10
-24.91828991960765
 20
0.6150757595082704
 30
0.0
  0
LINE
  5
112E6
330
112BB
100
AcDbEntity
  8
0
100
AcDbLine
 10
-24.98943351399745
 20
0.1805170265382339
 30
0.0
 11
-24.98943351399745
 21
0.0
 31
0.0
  0
LINE
  5
112E7
330
112BB
100
AcDbEntity
  8
0
100
AcDbLine
 10
-20.01056648600259
 20
0.180517026538283
 30
0.0
 11
-20.01056648600259
 21
0.0
 31
0.0
  0
SPLINE
  5
112E8
330
112BB
100
AcDbEntity
  8
0
100
AcDbSpline
210
0.0
220
0.0
230
1.0
 70
     8
 71
     3
 72
     8
 73
     4
 74
     0
 42
0.000000001
 43
0.0000000001
 40
0.0
 40
0.0
 40
0.0
 40
0.0
 40
1.0
 40
1.0
 40
1.0
 40
1.0
 10
-20.08171008039238
 20
0.6150757595082666
 30
0.0
 10
-20.00810027697989
 20
0.2358409403968118
 30
0.0
 10
-19.98390516356059
 20
0.0000000000000164
 30
0.0
 10
-20.01056648600259
 20
0.0000000000000164
 30
0.0
  0
LINE
  5
112E9
330
112BB
100
AcDbEntity
  8
0
100
AcDbLine
 10
-24.14171865077717
 20
1.499999999999991
 30
0.0
 11
-20.85828134922287
 21
1.49999999999999
 31
0.0
  0
ELLIPSE
  5
112EA
330
112BB
100
AcDbEntity
  8
0
100
AcDbEllipse
 10
22.49999999999998
 20
0.1668158657389898
 30
0.0
 11
-2.5
 21
0.0000000000000003
 31
0.0
210
0.0
220
0.0
230
1.0
 40
0.7071067811865474
 41
3.39796598060824
 42
6.026811980161135
  0
SPLINE
  5
112EB
330
112BB
100
AcDbEntity
  8
0
100
AcDbSpline
210
0.0
220
0.0
230
1.0
 70
     8
 71
     3
 72
     8
 73
     4
 74
     0
 42
0.000000001
 43
0.0000000001
 40
0.0
 40
0.0
 40
0.0
 40
0.0
 40
1.0
 40
1.0
 40
1.0
 40
1.0
 10
20.01056648600255
 20
0.0000000000000075
 30
0.0
 10
19.98390516356055
 20
0.0000000000000076
 30
0.0
 10
20.00810027697967
 20
0.2358409403969588
 30
0.0
 10
20.08171008039234
 20
0.6150757595082615
 30
0.0
  0
LINE
  5
112EC
330
112BB
100
AcDbEntity
  8
0
100
AcDbLine
 10
20.01056648600255
 20
0.1805170265382472
 30
0.0
 11
20.01056648600255
 21
0.0
 31
0.0
  0
LINE
  5
112ED
330
112BB
100
AcDbEntity
  8
0
100
AcDbLine
 10
24.9894335139974
 20
0.1805170265382644
 30
0.0
 11
24.9894335139974
 21
0.0
 31
0.0
  0
SPLINE
  5
112EE
330
112BB
100
AcDbEntity
  8
0
100
AcDbSpline
210
0.0
220
0.0
230
1.0
 70
     8
 71
     3
 72
     8
 73
     4
 74
     0
 42
0.000000001
 43
0.0000000001
 40
0.0
 40
0.0
 40
0.0
 40
0.0
 40
1.0
 40
1.0
 40
1.0
 40
1.0
 10
24.91828991960761
 20
0.6150757595082565
 30
0.0
 10
24.99189972302032
 20
0.2358409403967764
 30
0.0
 10
25.01609483643945
 20
0.0000000000000065
 30
0.0
 10
24.9894335139974
 20
0.0000000000000064
 30
0.0
  0
LINE
  5
112EF
330
112BB
100
AcDbEntity
  8
0
100
AcDbLine
 10
20.85828134922283
 20
1.499999999999981
 30
0.0
 11
24.14171865077713
 21
1.49999999999998
 31
0.0
  0
LINE
  5
112F0
330
112BB
100
AcDbEntity
  8
0
100
AcDbLine
 10
4.989433513812944
 20
0.0
 30
0.0
 11
2.499999999999985
 21
0.0
 31
0.0
  0
LINE
  5
112F1
330
112BB
100
AcDbEntity
  8
0
100
AcDbLine
 10
2.499999999999985
 20
0.0
 30
0.0
 11
-2.500000000000023
 21
0.0
 31
0.0
  0
LINE
  5
112F2
330
112BB
100
AcDbEntity
  8
0
100
AcDbLine
 10
-2.500000000000022
 20
0.0
 30
0.0
 11
-4.989433513812981
 21
0.0
 31
0.0
  0
SPLINE
  5
112F3
330
112BB
100
AcDbEntity
  8
0
100
AcDbSpline
210
0.0
220
0.0
230
1.0
 70
     8
 71
     3
 72
     8
 73
     4
 74
     0
 42
0.000000001
 43
0.0000000001
 40
0.0
 40
0.0
 40
0.0
 40
0.0
 40
1.0
 40
1.0
 40
1.0
 40
1.0
 10
-4.989433513812977
 20
0.000000000000013
 30
0.0
 10
-5.016094836485473
 20
0.000000000000013
 30
0.0
 10
-4.991899723307422
 20
0.2358409403404289
 30
0.0
 10
-4.918289920131925
 20
0.6150757595082622
 30
0.0
  0
SPLINE
  5
112F4
330
112BB
100
AcDbEntity
  8
0
100
AcDbSpline
210
0.0
220
0.0
230
1.0
 70
     8
 71
     3
 72
     8
 73
     4
 74
     0
 42
0.000000001
 43
0.0000000001
 40
0.0
 40
0.0
 40
0.0
 40
0.0
 40
1.0
 40
1.0
 40
1.0
 40
1.0
 10
4.918289920131874
 20
0.615075759508261
 30
0.0
 10
4.991899723307241
 20
0.2358409403404074
 30
0.0
 10
5.01609483648544
 20
0.0000000000000107
 30
0.0
 10
4.989433513812945
 20
0.0000000000000108
 30
0.0
  0
ELLIPSE
  5
112F5
330
112BB
100
AcDbEntity
  8
0
100
AcDbEllipse
 10
-2.500000000000017
 20
0.1668158671531794
 30
0.0
 11
-2.5
 21
0.0000000000000004
 31
0.0
210
0.0
220
0.0
230
1.0
 40
0.7071067811865475
 41
4.712388980384689
 42
6.026811980988153
  0
LINE
  5
112F6
330
112BB
100
AcDbEntity
  8
0
100
AcDbLine
 10
-2.500000000000017
 20
1.93458282011954
 30
0.0
 11
2.499999999999978
 21
1.934582820119538
 31
0.0
  0
ELLIPSE
  5
112F7
330
112BB
100
AcDbEntity
  8
0
100
AcDbEllipse
 10
2.499999999999977
 20
0.1668158671531522
 30
0.0
 11
2.5
 21
-0.0000000000000006
 31
0.0
210
0.0
220
0.0
230
1.0
 40
0.7071067811865474
 41
0.256373326191448
 42
1.570796326794896
  0
LINE
  5
112F8
330
112BB
100
AcDbEntity
  8
0
100
AcDbLine
 10
-4.989433513812981
 20
0.1805170296371122
 30
0.0
 11
-4.989433513812981
 21
0.0
 31
0.0
  0
LINE
  5
112F9
330
112BB
100
AcDbEntity
  8
0
100
AcDbLine
 10
4.989433513812943
 20
0.1805170296370492
 30
0.0
 11
4.989433513812943
 21
0.0
 31
0.0
  0
LINE
  5
112FA
330
112BB
100
AcDbEntity
  8
0
100
AcDbLine
 10
2.499999999999987
 20
1.499999999999984
 30
0.0
 11
4.141718653073908
 21
1.499999999999983
 31
0.0
  0
LINE
  5
112FB
330
112BB
100
AcDbEntity
  8
0
100
AcDbLine
 10
-2.500000000000021
 20
1.499999999999986
 30
0.0
 11
2.499999999999987
 21
1.499999999999984
 31
0.0
  0
LINE
  5
112FC
330
112BB
100
AcDbEntity
  8
0
100
AcDbLine
 10
-4.141718653073986
 20
1.499999999999988
 30
0.0
 11
-2.500000000000022
 21
1.499999999999987
 31
0.0
  0
LINE
  5
112FD
330
112BB
100
AcDbEntity
  8
0
100
AcDbLine
 10
41.49999999999999
 20
2.099999999999963
 30
0.0
 11
41.5
 21
4.362741700911098
 31
0.0
  0
LINE
  5
112FE
330
112BB
100
AcDbEntity
  8
0
100
AcDbLine
 10
-41.50000000000002
 20
4.362741700911106
 30
0.0
 11
-41.50000000000002
 21
2.1
 31
0.0
  0
LINE
  5
112FF
330
112BB
100
AcDbEntity
  8
0
100
AcDbLine
 10
39.99999999999998
 20
82.00306627385996
 30
0.0
 11
41.49999999999995
 21
82.00306627385996
 31
0.0
  0
LINE
  5
11300
330
112BB
100
AcDbEntity
  8
0
100
AcDbLine
 10
-41.49999999999995
 20
82.00306627386
 30
0.0
 11
-39.99999999999998
 21
82.00306627385996
 31
0.0
  0
LINE
  5
11301
330
112BB
100
AcDbEntity
  8
0
100
AcDbLine
 10
41.49999999999995
 20
56.26437943888952
 30
0.0
 11
41.5
 21
4.362741700911101
 31
0.0
  0
ELLIPSE
  5
11302
330
112BB
100
AcDbEntity
  8
0
100
AcDbEllipse
 10
39.39999999999999
 20
56.26437943888952
 30
0.0
 11
0.6000000000000087
 21
0.0000000000000092
 31
0.0
210
0.0
220
0.0
230
1.0
 40
0.7071067811864291
 41
4.712388980384671
 42
6.283185307179544
  0
ELLIPSE
  5
11303
330
112BB
100
AcDbEntity
  8
0
100
AcDbEllipse
 10
39.39999999999999
 20
56.26437943888952
 30
0.0
 11
2.100000000000031
 21
0.0000000000000173
 31
0.0
210
0.0
220
0.0
230
1.0
 40
0.7071067811865485
 41
4.712388980384712
 42
6.283185307179646
  0
LINE
  5
11304
330
112BB
100
AcDbEntity
  8
0
100
AcDbLine
 10
-41.50000000000004
 20
4.362741700911104
 30
0.0
 11
-41.49999999999997
 21
56.26437943888952
 31
0.0
  0
ELLIPSE
  5
11305
330
112BB
100
AcDbEntity
  8
0
100
AcDbEllipse
 10
-39.39999999999999
 20
56.26437943888955
 30
0.0
 11
-2.100000000000031
 21
0.0000000000000022
 31
0.0
210
0.0
220
0.0
230
1.0
 40
0.707106781186666
 41
0.0
 42
1.570796326794893
  0
ELLIPSE
  5
11306
330
112BB
100
AcDbEntity
  8
0
100
AcDbEllipse
 10
-39.39999999999999
 20
56.26437943888955
 30
0.0
 11
-0.6000000000000087
 21
0.0000000000000268
 31
0.0
210
0.0
220
0.0
230
1.0
 40
0.707106781186519
 41
0.0000000000001678
 42
1.570796326795002
  0
ARC
  5
11307
330
112BB
100
AcDbEntity
  8
0
100
AcDbCircle
 10
39.39999999999999
 20
2.099999999999972
 30
0.0
 40
0.6000000000000006
100
AcDbArc
 50
270.0
 51
343.4444348564485
  0
ARC
  5
11308
330
112BB
100
AcDbEntity
  8
0
100
AcDbCircle
 10
39.39999999999999
 20
2.099999999999972
 30
0.0
 40
2.100000000000004
100
AcDbArc
 50
343.3984504009794
 51
0.0
  0
ARC
  5
11309
330
112BB
100
AcDbEntity
  8
0
100
AcDbCircle
 10
-39.40000000000002
 20
2.100000000000008
 30
0.0
 40
0.6000000000000005
100
AcDbArc
 50
196.5555651435564
 51
270.0
  0
ARC
  5
1130A
330
112BB
100
AcDbEntity
  8
0
100
AcDbCircle
 10
-39.40000000000002
 20
2.100000000000008
 30
0.0
 40
2.100000000000004
100
AcDbArc
 50
180.0
 51
196.6015495990203
  0
ENDBLK
  5
112BD
330
112BB
100
AcDbEntity
  8
0
100
AcDbBlockEnd
  0
BLOCK
  5
1130C
330
1130B
100
AcDbEntity
  8
0
100
AcDbBlockBegin
  2
SPR80_300-ISO
 70
     0
 10
0.0
 20
0.0
 30
0.0
  3
SPR80_300-ISO
  1

  0
LINE
  5
1130E
330
1130B
100
AcDbEntity
  8
0
100
AcDbLine
 10
86.28487587005812
 20
-112.4761786125633
 30
0.0
 11
82.74934196412539
 21
-114.5174200648826
 31
0.0
  0
LINE
  5
1130F
330
1130B
100
AcDbEntity
  8
0
100
AcDbLine
 10
87.34553604183794
 20
-111.8638061768675
 30
0.0
 11
86.28487587005812
 21
-112.4761786125633
 31
0.0
  0
LINE
  5
11310
330
1130B
100
AcDbEntity
  8
0
100
AcDbLine
 10
86.2848758700581
 20
-58.58740427133337
 30
0.0
 11
87.34553604183792
 21
-57.97503183563756
 31
0.0
  0
LINE
  5
11311
330
1130B
100
AcDbEntity
  8
0
100
AcDbLine
 10
87.34553604183792
 20
-57.97503183563756
 30
0.0
 11
83.81000213590517
 21
-51.85130747867962
 31
0.0
  0
LINE
  5
11312
330
1130B
100
AcDbEntity
  8
0
100
AcDbLine
 10
-26.89052095856806
 20
-51.21681569255196
 30
0.0
 11
-30.4260548645008
 21
-45.09309133559401
 31
0.0
  0
LINE
  5
11313
330
1130B
100
AcDbEntity
  8
0
100
AcDbLine
 10
82.74934196412536
 20
-52.46367991437543
 30
0.0
 11
86.2848758700581
 21
-58.58740427133337
 31
0.0
  0
LINE
  5
11314
330
1130B
100
AcDbEntity
  8
0
100
AcDbLine
 10
83.81000213590517
 20
-51.85130747867962
 30
0.0
 11
82.74934196412536
 21
-52.46367991437543
 31
0.0
  0
LINE
  5
11315
330
1130B
100
AcDbEntity
  8
0
100
AcDbLine
 10
87.34553604183792
 20
-57.97503183563756
 30
0.0
 11
87.34553604183794
 21
-111.8638061768675
 31
0.0
  0
LINE
  5
11316
330
1130B
100
AcDbEntity
  8
0
100
AcDbLine
 10
86.2848758700581
 20
-58.58740427133337
 30
0.0
 11
86.28487587005812
 21
-112.4761786125633
 31
0.0
  0
LINE
  5
11317
330
1130B
100
AcDbEntity
  8
0
100
AcDbLine
 10
-1.415520916463091
 20
-2.646328802568209
 30
0.0
 11
3.180673161249485
 21
-5.299942690583332
 31
0.0
  0
LINE
  5
11318
330
1130B
100
AcDbEntity
  8
0
100
AcDbLine
 10
56.21368175024059
 20
-35.91856447537303
 30
0.0
 11
83.81000213590517
 21
-51.85130747867962
 31
0.0
  0
LINE
  5
11319
330
1130B
100
AcDbEntity
  8
0
100
AcDbLine
 10
-30.4260548645008
 20
-45.09309133559401
 30
0.0
 11
-30.4260548645008
 21
-14.88271784126816
 31
0.0
  0
LINE
  5
1131A
330
1130B
100
AcDbEntity
  8
0
100
AcDbLine
 10
55.15302157846078
 20
-36.53093691106884
 30
0.0
 11
82.74934196412536
 21
-52.46367991437543
 31
0.0
  0
LINE
  5
1131B
330
1130B
100
AcDbEntity
  8
0
100
AcDbLine
 10
2.120012989469666
 20
-67.96605527678625
 30
0.0
 11
-26.89052095856806
 21
-51.21681569255196
 31
0.0
  0
LINE
  5
1131C
330
1130B
100
AcDbEntity
  8
0
100
AcDbLine
 10
82.74934196412539
 20
-114.5174200648826
 30
0.0
 11
53.73880801608766
 21
-97.76818048064823
 31
0.0
  0
LINE
  5
1131D
330
1130B
100
AcDbEntity
  8
0
100
AcDbLine
 10
-2.476181088242914
 20
-3.258701238263999
 30
0.0
 11
2.120012989469666
 21
-5.912315126279121
 31
0.0
  0
LINE
  5
1131E
330
1130B
100
AcDbEntity
  8
0
100
AcDbLine
 10
3.180673161249485
 20
-5.299942690583332
 30
0.0
 11
2.120012989469666
 21
-5.912315126279121
 31
0.0
  0
ELLIPSE
  5
1131F
330
1130B
100
AcDbEntity
  8
0
100
AcDbEllipse
 10
2.120012989469666
 20
-4.687570254887525
 30
0.0
 11
0.7500000000000007
 21
-1.299038105676657
 31
0.0
210
0.0
220
0.0
230
1.0
 40
0.5773502691896262
 41
5.497787143782137
 42
8.63937979737193
  0
ELLIPSE
  5
11320
330
1130B
100
AcDbEntity
  8
0
100
AcDbEllipse
 10
50.20327411015492
 20
-38.57217836338803
 30
0.0
 11
1.250000000000001
 21
-2.165063509461095
 31
0.0
210
0.0
220
0.0
230
0.9999999999999998
 40
0.577350269189626
 41
4.999145532596298
 42
5.845036276595407
  0
ELLIPSE
  5
11321
330
1130B
100
AcDbEntity
  8
0
100
AcDbEllipse
 10
49.14261393837509
 20
-39.18455079908383
 30
0.0
 11
1.25
 21
-2.165063509461095
 31
0.0
210
0.0
220
0.0
230
1.0
 40
0.577350269189626
 41
4.999145532596304
 42
7.567225081762874
  0
ELLIPSE
  5
11322
330
1130B
100
AcDbEntity
  8
0
100
AcDbEllipse
 10
50.20327411015492
 20
-71.23204160049707
 30
0.0
 11
1.250000000000129
 21
-2.165063509461021
 31
0.0
210
0.0
220
0.0
230
1.0
 40
0.5773502691896261
 41
3.579741684173544
 42
5.845036276594997
  0
ELLIPSE
  5
11323
330
1130B
100
AcDbEntity
  8
0
100
AcDbEllipse
 10
49.14261393837509
 20
-71.84441403619286
 30
0.0
 11
1.25
 21
-2.165063509461096
 31
0.0
210
0.0
220
0.0
230
0.9999999999999998
 40
0.577350269189626
 41
0.0
 42
6.283185307179586
  0
ELLIPSE
  5
11324
330
1130B
100
AcDbEntity
  8
0
100
AcDbEllipse
 10
43.13220629828943
 20
145.1395523453502
 30
0.0
 11
1.25000000000013
 21
-2.165063509461022
 31
0.0
210
0.0
220
0.0
230
1.0
 40
0.577350269189626
 41
3.579741684173544
 42
5.845036276594997
  0
ELLIPSE
  5
11325
330
1130B
100
AcDbEntity
  8
0
100
AcDbEllipse
 10
43.13220629828943
 20
-50.81962707730392
 30
0.0
 11
1.25000000000013
 21
-2.165063509461022
 31
0.0
210
0.0
220
0.0
230
1.0
 40
0.577350269189626
 41
3.579741684173544
 42
5.845036276594997
  0
ELLIPSE
  5
11326
330
1130B
100
AcDbEntity
  8
0
100
AcDbEllipse
 10
42.07154612650962
 20
144.5271799096545
 30
0.0
 11
1.25
 21
-2.165063509461096
 31
0.0
210
0.0
220
0.0
230
0.9999999999999998
 40
0.577350269189626
 41
0.0
 42
6.283185307179586
  0
ELLIPSE
  5
11327
330
1130B
100
AcDbEntity
  8
0
100
AcDbEllipse
 10
42.07154612650962
 20
-51.43199951299973
 30
0.0
 11
1.25
 21
-2.165063509461096
 31
0.0
210
0.0
220
0.0
230
0.9999999999999998
 40
0.577350269189626
 41
0.0
 42
6.283185307179586
  0
ELLIPSE
  5
11328
330
1130B
100
AcDbEntity
  8
0
100
AcDbEllipse
 10
43.13220629828943
 20
-83.47949031441295
 30
0.0
 11
1.25000000000013
 21
-2.165063509461022
 31
0.0
210
0.0
220
0.0
230
1.0
 40
0.577350269189626
 41
3.579741684173544
 42
5.845036276594997
  0
ELLIPSE
  5
11329
330
1130B
100
AcDbEntity
  8
0
100
AcDbEllipse
 10
42.07154612650962
 20
-84.09186275010876
 30
0.0
 11
1.25
 21
-2.165063509461096
 31
0.0
210
0.0
220
0.0
230
0.9999999999999998
 40
0.577350269189626
 41
0.0
 42
6.283185307179586
  0
ELLIPSE
  5
1132A
330
1130B
100
AcDbEntity
  8
0
100
AcDbEllipse
 10
14.84793505082753
 20
145.1395523453502
 30
0.0
 11
1.25000000000013
 21
-2.165063509461022
 31
0.0
210
0.0
220
0.0
230
1.0
 40
0.577350269189626
 41
3.579741684173544
 42
5.845036276595002
  0
ELLIPSE
  5
1132B
330
1130B
100
AcDbEntity
  8
0
100
AcDbEllipse
 10
14.84793505082753
 20
112.4796891082412
 30
0.0
 11
1.25000000000013
 21
-2.165063509461022
 31
0.0
210
0.0
220
0.0
230
1.0
 40
0.577350269189626
 41
3.579741684173544
 42
5.845036276595002
  0
ELLIPSE
  5
1132C
330
1130B
100
AcDbEntity
  8
0
100
AcDbEllipse
 10
14.84793505082753
 20
79.81982587113217
 30
0.0
 11
1.25000000000013
 21
-2.165063509461022
 31
0.0
210
0.0
220
0.0
230
1.0
 40
0.577350269189626
 41
3.579741684173544
 42
5.845036276595002
  0
ELLIPSE
  5
1132D
330
1130B
100
AcDbEntity
  8
0
100
AcDbEllipse
 10
14.84793505082753
 20
47.15996263402312
 30
0.0
 11
1.25000000000013
 21
-2.165063509461022
 31
0.0
210
0.0
220
0.0
230
1.0
 40
0.577350269189626
 41
3.579741684173544
 42
5.845036276594999
  0
ELLIPSE
  5
1132E
330
1130B
100
AcDbEntity
  8
0
100
AcDbEllipse
 10
14.84793505082753
 20
14.50009939691408
 30
0.0
 11
1.25000000000013
 21
-2.165063509461022
 31
0.0
210
0.0
220
0.0
230
1.0
 40
0.577350269189626
 41
3.579741684173544
 42
5.845036276594997
  0
ELLIPSE
  5
1132F
330
1130B
100
AcDbEntity
  8
0
100
AcDbEllipse
 10
14.84793505082753
 20
-18.15976384019492
 30
0.0
 11
1.25000000000013
 21
-2.165063509461022
 31
0.0
210
0.0
220
0.0
230
1.0
 40
0.577350269189626
 41
3.579741684173544
 42
5.845036276594994
  0
ELLIPSE
  5
11330
330
1130B
100
AcDbEntity
  8
0
100
AcDbEllipse
 10
13.78727487904771
 20
144.5271799096544
 30
0.0
 11
1.25
 21
-2.165063509461096
 31
0.0
210
0.0
220
0.0
230
0.9999999999999998
 40
0.577350269189626
 41
0.0
 42
6.283185307179586
  0
ELLIPSE
  5
11331
330
1130B
100
AcDbEntity
  8
0
100
AcDbEllipse
 10
13.78727487904771
 20
111.8673166725454
 30
0.0
 11
1.25
 21
-2.165063509461096
 31
0.0
210
0.0
220
0.0
230
0.9999999999999998
 40
0.577350269189626
 41
0.0
 42
6.283185307179586
  0
ELLIPSE
  5
11332
330
1130B
100
AcDbEntity
  8
0
100
AcDbEllipse
 10
13.78727487904771
 20
79.20745343543638
 30
0.0
 11
1.25
 21
-2.165063509461096
 31
0.0
210
0.0
220
0.0
230
0.9999999999999998
 40
0.577350269189626
 41
0.0
 42
6.283185307179586
  0
ELLIPSE
  5
11333
330
1130B
100
AcDbEntity
  8
0
100
AcDbEllipse
 10
13.78727487904771
 20
46.54759019832733
 30
0.0
 11
1.25
 21
-2.165063509461096
 31
0.0
210
0.0
220
0.0
230
0.9999999999999998
 40
0.577350269189626
 41
0.0
 42
6.283185307179586
  0
ELLIPSE
  5
11334
330
1130B
100
AcDbEntity
  8
0
100
AcDbEllipse
 10
13.78727487904771
 20
13.8877269612183
 30
0.0
 11
1.25
 21
-2.165063509461096
 31
0.0
210
0.0
220
0.0
230
0.9999999999999998
 40
0.577350269189626
 41
0.0
 42
6.283185307179586
  0
ELLIPSE
  5
11335
330
1130B
100
AcDbEntity
  8
0
100
AcDbEllipse
 10
13.78727487904771
 20
-18.77213627589072
 30
0.0
 11
1.25
 21
-2.165063509461096
 31
0.0
210
0.0
220
0.0
230
0.9999999999999998
 40
0.577350269189626
 41
0.0
 42
6.283185307179586
  0
ELLIPSE
  5
11336
330
1130B
100
AcDbEntity
  8
0
100
AcDbEllipse
 10
14.84793505082753
 20
-50.81962707730397
 30
0.0
 11
1.25000000000013
 21
-2.165063509461022
 31
0.0
210
0.0
220
0.0
230
1.0
 40
0.577350269189626
 41
3.579741684173544
 42
5.845036276594999
  0
ELLIPSE
  5
11337
330
1130B
100
AcDbEntity
  8
0
100
AcDbEllipse
 10
13.78727487904771
 20
-51.43199951299976
 30
0.0
 11
1.25
 21
-2.165063509461096
 31
0.0
210
0.0
220
0.0
230
0.9999999999999998
 40
0.577350269189626
 41
0.0
 42
6.283185307179586
  0
ELLIPSE
  5
11338
330
1130B
100
AcDbEntity
  8
0
100
AcDbEllipse
 10
7.776867238962053
 20
165.5519668685434
 30
0.0
 11
1.25000000000013
 21
-2.165063509461022
 31
0.0
210
0.0
220
0.0
230
1.0
 40
0.577350269189626
 41
3.579741684173534
 42
5.845036276594989
  0
ELLIPSE
  5
11339
330
1130B
100
AcDbEntity
  8
0
100
AcDbEllipse
 10
7.776867238962053
 20
132.8921036314343
 30
0.0
 11
1.25000000000013
 21
-2.165063509461022
 31
0.0
210
0.0
220
0.0
230
1.0
 40
0.577350269189626
 41
3.579741684173544
 42
5.845036276595003
  0
ELLIPSE
  5
1133A
330
1130B
100
AcDbEntity
  8
0
100
AcDbEllipse
 10
7.776867238962053
 20
100.2322403943253
 30
0.0
 11
1.25000000000013
 21
-2.165063509461022
 31
0.0
210
0.0
220
0.0
230
1.0
 40
0.577350269189626
 41
3.579741684173544
 42
5.845036276595003
  0
ELLIPSE
  5
1133B
330
1130B
100
AcDbEntity
  8
0
100
AcDbEllipse
 10
7.776867238962053
 20
67.57237715721628
 30
0.0
 11
1.25000000000013
 21
-2.165063509461022
 31
0.0
210
0.0
220
0.0
230
1.0
 40
0.577350269189626
 41
3.579741684173544
 42
5.845036276595003
  0
ELLIPSE
  5
1133C
330
1130B
100
AcDbEntity
  8
0
100
AcDbEllipse
 10
7.776867238962053
 20
34.91251392010724
 30
0.0
 11
1.25000000000013
 21
-2.165063509461022
 31
0.0
210
0.0
220
0.0
230
1.0
 40
0.577350269189626
 41
3.579741684173544
 42
5.845036276594999
  0
ELLIPSE
  5
1133D
330
1130B
100
AcDbEntity
  8
0
100
AcDbEllipse
 10
7.776867238962053
 20
2.252650682998211
 30
0.0
 11
1.25000000000013
 21
-2.165063509461022
 31
0.0
210
0.0
220
0.0
230
1.0
 40
0.577350269189626
 41
3.579741684173544
 42
5.845036276594998
  0
ELLIPSE
  5
1133E
330
1130B
100
AcDbEntity
  8
0
100
AcDbEllipse
 10
7.776867238962053
 20
-30.40721255411084
 30
0.0
 11
1.25000000000013
 21
-2.165063509461022
 31
0.0
210
0.0
220
0.0
230
1.0
 40
0.577350269189626
 41
3.579741684173544
 42
5.845036276594997
  0
ELLIPSE
  5
1133F
330
1130B
100
AcDbEntity
  8
0
100
AcDbEllipse
 10
6.716207067182229
 20
164.9395944328476
 30
0.0
 11
1.25
 21
-2.165063509461096
 31
0.0
210
0.0
220
0.0
230
0.9999999999999998
 40
0.577350269189626
 41
0.0
 42
6.283185307179586
  0
ELLIPSE
  5
11340
330
1130B
100
AcDbEntity
  8
0
100
AcDbEllipse
 10
6.716207067182229
 20
132.2797311957385
 30
0.0
 11
1.25
 21
-2.165063509461096
 31
0.0
210
0.0
220
0.0
230
0.9999999999999998
 40
0.577350269189626
 41
0.0
 42
6.283185307179586
  0
ELLIPSE
  5
11341
330
1130B
100
AcDbEntity
  8
0
100
AcDbEllipse
 10
6.716207067182229
 20
99.61986795862955
 30
0.0
 11
1.25
 21
-2.165063509461096
 31
0.0
210
0.0
220
0.0
230
0.9999999999999998
 40
0.577350269189626
 41
0.0
 42
6.283185307179586
  0
ELLIPSE
  5
11342
330
1130B
100
AcDbEntity
  8
0
100
AcDbEllipse
 10
6.716207067182229
 20
66.96000472152049
 30
0.0
 11
1.25
 21
-2.165063509461096
 31
0.0
210
0.0
220
0.0
230
0.9999999999999998
 40
0.577350269189626
 41
0.0
 42
6.283185307179586
  0
ELLIPSE
  5
11343
330
1130B
100
AcDbEntity
  8
0
100
AcDbEllipse
 10
6.716207067182229
 20
34.30014148441145
 30
0.0
 11
1.25
 21
-2.165063509461096
 31
0.0
210
0.0
220
0.0
230
0.9999999999999998
 40
0.577350269189626
 41
0.0
 42
6.283185307179586
  0
ELLIPSE
  5
11344
330
1130B
100
AcDbEntity
  8
0
100
AcDbEllipse
 10
6.716207067182229
 20
1.640278247302404
 30
0.0
 11
1.25
 21
-2.165063509461096
 31
0.0
210
0.0
220
0.0
230
0.9999999999999998
 40
0.577350269189626
 41
0.0
 42
6.283185307179586
  0
ELLIPSE
  5
11345
330
1130B
100
AcDbEntity
  8
0
100
AcDbEllipse
 10
6.716207067182229
 20
-31.01958498980663
 30
0.0
 11
1.25
 21
-2.165063509461096
 31
0.0
210
0.0
220
0.0
230
0.9999999999999998
 40
0.577350269189626
 41
0.0
 42
6.283185307179586
  0
ELLIPSE
  5
11346
330
1130B
100
AcDbEntity
  8
0
100
AcDbEllipse
 10
7.776867238962053
 20
-63.06707579121987
 30
0.0
 11
1.250000000000129
 21
-2.165063509461021
 31
0.0
210
0.0
220
0.0
230
1.0
 40
0.5773502691896261
 41
3.579741684173544
 42
5.845036276594997
  0
ELLIPSE
  5
11347
330
1130B
100
AcDbEntity
  8
0
100
AcDbEllipse
 10
6.716207067182229
 20
-63.67944822691568
 30
0.0
 11
1.25
 21
-2.165063509461096
 31
0.0
210
0.0
220
0.0
230
0.9999999999999998
 40
0.577350269189626
 41
0.0
 42
6.283185307179586
  0
ELLIPSE
  5
11348
330
1130B
100
AcDbEntity
  8
0
100
AcDbEllipse
 10
-8.505744647717804
 20
-4.676510579671528
 30
0.0
 11
1.250000000000001
 21
-2.165063509461095
 31
0.0
210
0.0
220
0.0
230
1.0
 40
0.5773502691896261
 41
5.508682942396024
 42
5.845036276595414
  0
ELLIPSE
  5
11349
330
1130B
100
AcDbEntity
  8
0
100
AcDbEllipse
 10
62.24324530971546
 20
-45.52345897648973
 30
0.0
 11
1.25000000000013
 21
-2.165063509461021
 31
0.0
210
0.0
220
0.0
230
1.0
 40
0.5773502691896259
 41
3.579741684173544
 42
5.845036276594997
  0
ELLIPSE
  5
1134A
330
1130B
100
AcDbEntity
  8
0
100
AcDbEllipse
 10
-9.566404819497629
 20
-5.288883015367336
 30
0.0
 11
1.25
 21
-2.165063509461096
 31
0.0
210
0.0
220
0.0
230
0.9999999999999998
 40
0.577350269189626
 41
5.508682942396026
 42
7.057687671963145
  0
ELLIPSE
  5
1134B
330
1130B
100
AcDbEntity
  8
0
100
AcDbEllipse
 10
61.18258513793563
 20
-46.13583141218554
 30
0.0
 11
1.25
 21
-2.165063509461096
 31
0.0
210
0.0
220
0.0
230
0.9999999999999998
 40
0.577350269189626
 41
0.0
 42
6.283185307179586
  0
ELLIPSE
  5
1134C
330
1130B
100
AcDbEntity
  8
0
100
AcDbEllipse
 10
-4.263103960598511
 20
-39.78586355956375
 30
0.0
 11
1.25000000000013
 21
-2.165063509461021
 31
0.0
210
0.0
220
0.0
230
1.0
 40
0.5773502691896259
 41
3.579741684173544
 42
5.845036276594998
  0
ELLIPSE
  5
1134D
330
1130B
100
AcDbEntity
  8
0
100
AcDbEllipse
 10
66.48588599683475
 20
-80.63281195638195
 30
0.0
 11
1.250000000000129
 21
-2.16506350946102
 31
0.0
210
0.0
220
0.0
230
1.0
 40
0.5773502691896262
 41
3.579741684173544
 42
5.845036276594998
  0
ELLIPSE
  5
1134E
330
1130B
100
AcDbEntity
  8
0
100
AcDbEllipse
 10
-5.323764132378334
 20
-40.39823599525954
 30
0.0
 11
1.25
 21
-2.165063509461096
 31
0.0
210
0.0
220
0.0
230
0.9999999999999998
 40
0.577350269189626
 41
0.0
 42
6.283185307179586
  0
ELLIPSE
  5
1134F
330
1130B
100
AcDbEntity
  8
0
100
AcDbEllipse
 10
65.42522582505492
 20
-81.24518439207774
 30
0.0
 11
1.25
 21
-2.165063509461096
 31
0.0
210
0.0
220
0.0
230
0.9999999999999998
 40
0.577350269189626
 41
0.0
 42
6.283185307179586
  0
ELLIPSE
  5
11350
330
1130B
100
AcDbEntity
  8
0
100
AcDbEllipse
 10
44.8999732512558
 20
-92.66507684984999
 30
0.0
 11
1.250000000000129
 21
-2.165063509461021
 31
0.0
210
0.0
220
0.0
230
1.0
 40
0.5773502691896261
 41
3.579741684173544
 42
3.835017178248607
  0
ELLIPSE
  5
11351
330
1130B
100
AcDbEntity
  8
0
100
AcDbEllipse
 10
13.08016809786116
 20
-74.29390377897616
 30
0.0
 11
1.250000000000129
 21
-2.165063509461021
 31
0.0
210
0.0
220
0.0
230
1.0
 40
0.577350269189626
 41
3.579741684173544
 42
3.835017178248603
  0
ELLIPSE
  5
11352
330
1130B
100
AcDbEntity
  8
0
100
AcDbEllipse
 10
12.9622114679876
 20
-75.02096313719265
 30
0.0
 11
-1.25
 21
-2.165063509461095
 31
0.0
210
0.0
220
0.0
230
1.0
 40
0.816496580927726
 41
4.968762307403141
 42
6.069429174707158
  0
LINE
  5
11353
330
1130B
100
AcDbEntity
  8
0
100
AcDbLine
 10
10.93525465633977
 20
-74.58270441761133
 30
0.0
 11
10.43500465644068
 21
-74.29388494550749
 31
0.0
  0
LINE
  5
11354
330
1130B
100
AcDbEntity
  8
0
100
AcDbLine
 10
10.43500465644068
 20
-74.29388494550749
 30
0.0
 11
10.18525465633977
 21
-74.1496917157191
 31
0.0
  0
ELLIPSE
  5
11355
330
1130B
100
AcDbEntity
  8
0
100
AcDbEllipse
 10
12.21221146798761
 20
-74.58795043530044
 30
0.0
 11
-1.25
 21
-2.165063509461097
 31
0.0
210
0.0
220
0.0
230
1.0
 40
0.8164965809277259
 41
4.968762307403141
 42
7.597608306956034
  0
LINE
  5
11356
330
1130B
100
AcDbEntity
  8
0
100
AcDbLine
 10
10.2592126070207
 20
-73.7024934098968
 30
0.0
 11
10.61241244460034
 21
-73.49857338859246
 31
0.0
  0
SPLINE
  5
11357
330
1130B
100
AcDbEntity
  8
0
100
AcDbSpline
210
0.0
220
0.0
230
1.0
 70
     8
 71
     3
 72
     8
 73
     4
 74
     0
 42
0.000000001
 43
0.0000000001
 40
-1.0
 40
-1.0
 40
-1.0
 40
-1.0
 40
0.0
 40
0.0
 40
0.0
 40
0.0
 10
10.18525465633977
 20
-74.1496917157191
 30
0.0
 10
10.20982166868655
 20
-73.98693609652605
 30
0.0
 10
10.24036020512668
 20
-73.82040476886247
 30
0.0
 10
10.25921260702068
 20
-73.7024934098968
 30
0.0
  0
SPLINE
  5
11358
330
1130B
100
AcDbEntity
  8
0
100
AcDbSpline
210
0.0
220
0.0
230
1.0
 70
     8
 71
     3
 72
     8
 73
     4
 74
     0
 42
0.000000001
 43
0.0000000001
 40
0.0
 40
0.0
 40
0.0
 40
0.0
 40
1.0
 40
1.0
 40
1.0
 40
1.0
 10
11.31987277880051
 20
-73.09012097420101
 30
0.0
 10
11.3010203769065
 20
-73.53002182885179
 30
0.0
 10
11.15136417744059
 20
-74.08818744144707
 30
0.0
 10
10.93525465633976
 20
-74.58270441761133
 30
0.0
  0
LINE
  5
11359
330
1130B
100
AcDbEntity
  8
0
100
AcDbLine
 10
10.61241244460034
 20
-73.49857338859246
 30
0.0
 11
11.31987277880052
 21
-73.090120974201
 31
0.0
  0
SPLINE
  5
1135A
330
1130B
100
AcDbEntity
  8
0
100
AcDbSpline
210
0.0
220
0.0
230
1.0
 70
     8
 71
     3
 72
     8
 73
     4
 74
     0
 42
0.000000001
 43
0.0000000001
 40
-1.0
 40
-1.0
 40
-1.0
 40
-1.0
 40
0.0
 40
0.0
 40
0.0
 40
0.0
 10
13.77980324514196
 20
-75.73510736252259
 30
0.0
 10
13.7986556470361
 20
-75.87478760010509
 30
0.0
 10
13.73390005305545
 20
-76.02156370038672
 30
0.0
 10
13.60523305839902
 20
-76.12421716677072
 30
0.0
  0
ELLIPSE
  5
1135B
330
1130B
100
AcDbEntity
  8
0
100
AcDbEllipse
 10
12.01950792608134
 20
-74.90627621467196
 30
0.0
 11
-1.25
 21
2.165063509461095
 31
0.0
210
0.0
220
0.0
230
0.9999999999999998
 40
0.577350269189626
 41
4.018964455725525
 42
6.976609831838748
  0
ELLIPSE
  5
1135C
330
1130B
100
AcDbEntity
  8
0
100
AcDbEllipse
 10
44.78201662138224
 20
-93.39213620806647
 30
0.0
 11
-1.25
 21
-2.165063509461096
 31
0.0
210
0.0
220
0.0
230
1.0
 40
0.8164965809277262
 41
4.968762307403137
 42
6.069429174707152
  0
LINE
  5
1135D
330
1130B
100
AcDbEntity
  8
0
100
AcDbLine
 10
42.75505980973441
 20
-92.95387748848515
 30
0.0
 11
42.25480980983622
 21
-92.66505801638182
 31
0.0
  0
LINE
  5
1135E
330
1130B
100
AcDbEntity
  8
0
100
AcDbLine
 10
42.25480980983622
 20
-92.66505801638182
 30
0.0
 11
42.0050598097344
 21
-92.52086478659293
 31
0.0
  0
ELLIPSE
  5
1135F
330
1130B
100
AcDbEntity
  8
0
100
AcDbEllipse
 10
44.03201662138226
 20
-92.95912350617426
 30
0.0
 11
-1.25
 21
-2.165063509461096
 31
0.0
210
0.0
220
0.0
230
1.0
 40
0.816496580927726
 41
4.968762307403137
 42
7.597608306956034
  0
LINE
  5
11360
330
1130B
100
AcDbEntity
  8
0
100
AcDbLine
 10
42.07901776041534
 20
-92.07366648077062
 30
0.0
 11
42.43221759800047
 21
-91.86974645946312
 31
0.0
  0
SPLINE
  5
11361
330
1130B
100
AcDbEntity
  8
0
100
AcDbSpline
210
0.0
220
0.0
230
1.0
 70
     8
 71
     3
 72
     8
 73
     4
 74
     0
 42
0.000000001
 43
0.0000000001
 40
-1.0
 40
-1.0
 40
-1.0
 40
-1.0
 40
0.0
 40
0.0
 40
0.0
 40
0.0
 10
42.0050598097344
 20
-92.52086478659293
 30
0.0
 10
42.02962682208111
 20
-92.35810916739984
 30
0.0
 10
42.06016535852119
 20
-92.19157783973621
 30
0.0
 10
42.07901776041532
 20
-92.07366648077062
 30
0.0
  0
SPLINE
  5
11362
330
1130B
100
AcDbEntity
  8
0
100
AcDbSpline
210
0.0
220
0.0
230
1.0
 70
     8
 71
     3
 72
     8
 73
     4
 74
     0
 42
0.000000001
 43
0.0000000001
 40
0.0
 40
0.0
 40
0.0
 40
0.0
 40
1.0
 40
1.0
 40
1.0
 40
1.0
 10
43.13967793219514
 20
-91.46129404507483
 30
0.0
 10
43.12082553030101
 20
-91.9011948997255
 30
0.0
 10
42.97116933083515
 20
-92.45936051232085
 30
0.0
 10
42.75505980973441
 20
-92.95387748848515
 30
0.0
  0
LINE
  5
11363
330
1130B
100
AcDbEntity
  8
0
100
AcDbLine
 10
42.43221759800047
 20
-91.86974645946312
 30
0.0
 11
43.13967793219517
 21
-91.46129404507481
 31
0.0
  0
SPLINE
  5
11364
330
1130B
100
AcDbEntity
  8
0
100
AcDbSpline
210
0.0
220
0.0
230
1.0
 70
     8
 71
     3
 72
     8
 73
     4
 74
     0
 42
0.000000001
 43
0.0000000001
 40
-1.0
 40
-1.0
 40
-1.0
 40
-1.0
 40
0.0
 40
0.0
 40
0.0
 40
0.0
 10
45.5996083985366
 20
-94.10628043339642
 30
0.0
 10
45.61846080043077
 20
-94.24596067097894
 30
0.0
 10
45.55370520645024
 20
-94.39273677126061
 30
0.0
 10
45.42503821179366
 20
-94.49539023764456
 30
0.0
  0
ELLIPSE
  5
11365
330
1130B
100
AcDbEntity
  8
0
100
AcDbEllipse
 10
43.83931307947598
 20
-93.27744928554578
 30
0.0
 11
-1.25
 21
2.165063509461095
 31
0.0
210
0.0
220
0.0
230
1.0
 40
0.577350269189626
 41
4.018964455725519
 42
6.976609831838754
  0
ELLIPSE
  5
11366
330
1130B
100
AcDbEntity
  8
0
100
AcDbEllipse
 10
27.22230372159212
 20
-82.45886958988638
 30
0.0
 11
1.250000000000131
 21
-2.16506350946102
 31
0.0
210
0.0
220
0.0
230
1.0
 40
0.5773502691896262
 41
3.579741684173544
 42
3.835017177445219
  0
SPLINE
  5
11367
330
1130B
100
AcDbEntity
  8
0
100
AcDbSpline
210
0.0
220
0.0
230
1.0
 70
     8
 71
     3
 72
     8
 73
     4
 74
     0
 42
0.000000001
 43
0.0000000001
 40
-1.0
 40
-1.0
 40
-1.0
 40
-1.0
 40
0.0
 40
0.0
 40
0.0
 40
0.0
 10
24.32739027970001
 20
-82.31465752478232
 30
0.0
 10
24.35195729222584
 20
-82.15190190566628
 30
0.0
 10
24.38249582882495
 20
-81.98537057810257
 30
0.0
 10
24.40134823088208
 20
-81.86745921924936
 30
0.0
  0
SPLINE
  5
11368
330
1130B
100
AcDbEntity
  8
0
100
AcDbSpline
210
0.0
220
0.0
230
1.0
 70
     8
 71
     3
 72
     8
 73
     4
 74
     0
 42
0.000000001
 43
0.0000000001
 40
0.0
 40
0.0
 40
0.0
 40
0.0
 40
1.0
 40
1.0
 40
1.0
 40
1.0
 10
25.4620084026619
 20
-81.25508678355357
 30
0.0
 10
25.44315600060477
 20
-81.6949876380462
 30
0.0
 10
25.29349980100843
 20
-82.25315325053784
 30
0.0
 10
25.0773902797
 20
-82.74767022667454
 30
0.0
  0
SPLINE
  5
11369
330
1130B
100
AcDbEntity
  8
0
100
AcDbSpline
210
0.0
220
0.0
230
1.0
 70
     8
 71
     3
 72
     8
 73
     4
 74
     0
 42
0.000000001
 43
0.0000000001
 40
-1.0
 40
-1.0
 40
-1.0
 40
-1.0
 40
0.0
 40
0.0
 40
0.0
 40
0.0
 10
31.45747277467522
 20
-85.94131462404385
 30
0.0
 10
31.47632517673234
 20
-86.08099486170219
 30
0.0
 10
31.41156958293358
 20
-86.22777096208077
 30
0.0
 10
31.28290258843343
 20
-86.33042442858132
 30
0.0
  0
ELLIPSE
  5
1136A
330
1130B
100
AcDbEntity
  8
0
100
AcDbEllipse
 10
27.10434709071858
 20
-83.18592894820193
 30
0.0
 11
-1.250000000000001
 21
-2.165063509461095
 31
0.0
210
0.0
220
0.0
230
0.9999999999999998
 40
0.8164965809277262
 41
4.968762306576122
 42
6.283185307179588
  0
LINE
  5
1136B
330
1130B
100
AcDbEntity
  8
0
100
AcDbLine
 10
25.0773902797
 20
-82.74767022667454
 30
0.0
 11
24.57714027980204
 21
-82.45885075457136
 31
0.0
  0
LINE
  5
1136C
330
1130B
100
AcDbEntity
  8
0
100
AcDbLine
 10
24.57714027980204
 20
-82.45885075457136
 30
0.0
 11
24.32739027970001
 21
-82.31465752478232
 31
0.0
  0
ELLIPSE
  5
1136D
330
1130B
100
AcDbEntity
  8
0
100
AcDbEllipse
 10
26.35434709071859
 20
-82.75291624630972
 30
0.0
 11
-1.25
 21
-2.165063509461097
 31
0.0
210
0.0
220
0.0
230
1.0
 40
0.816496580927726
 41
4.968762306576122
 42
6.283185307179589
  0
LINE
  5
1136E
330
1130B
100
AcDbEntity
  8
0
100
AcDbLine
 10
28.63988099665132
 20
-86.95922120809015
 30
0.0
 11
25.10434709071859
 21
-84.91797975577085
 31
0.0
  0
ELLIPSE
  5
1136F
330
1130B
100
AcDbEntity
  8
0
100
AcDbEllipse
 10
29.88988099665134
 20
-84.794157698629
 30
0.0
 11
-1.249999999999998
 21
-2.165063509461097
 31
0.0
210
0.0
220
0.0
230
1.0
 40
0.816496580927726
 41
0.0
 42
1.314423000603448
  0
LINE
  5
11370
330
1130B
100
AcDbEntity
  8
0
100
AcDbLine
 10
24.4013482308821
 20
-81.86745921924936
 30
0.0
 11
24.75454806846949
 21
-81.66353919794055
 31
0.0
  0
LINE
  5
11371
330
1130B
100
AcDbEntity
  8
0
100
AcDbLine
 10
24.75454806846949
 20
-81.66353919794055
 30
0.0
 11
25.46200840266191
 21
-81.25508678355357
 31
0.0
  0
ELLIPSE
  5
11372
330
1130B
100
AcDbEntity
  8
0
100
AcDbEllipse
 10
29.69717745574503
 20
-85.11248347790147
 30
0.0
 11
1.249999999999871
 21
-2.16506350946117
 31
0.0
210
0.0
220
0.0
230
1.0
 40
0.5773502691896261
 41
0.8773718029393142
 42
2.35619449019258
  0
LINE
  5
11373
330
1130B
100
AcDbEntity
  8
0
100
AcDbLine
 10
26.1616435498123
 20
-81.03000057326283
 30
0.0
 11
29.69717745574504
 21
-83.07124202558215
 31
0.0
  0
ELLIPSE
  5
11374
330
1130B
100
AcDbEntity
  8
0
100
AcDbEllipse
 10
26.1616435498123
 20
-83.07124202558217
 30
0.0
 11
-1.250000000000001
 21
2.165063509461095
 31
0.0
210
0.0
220
0.0
230
1.0
 40
0.5773502691896261
 41
5.497787143782135
 42
6.976609831035365
  0
LINE
  5
11375
330
1130B
100
AcDbEntity
  8
0
100
AcDbLine
 10
56.85007785330848
 20
146.1193482424634
 30
0.0
 11
1.130063495808499
 21
178.2893135310158
 31
0.0
  0
LINE
  5
11376
330
1130B
100
AcDbEntity
  8
0
100
AcDbLine
 10
27.57585711218558
 20
-48.37013733452096
 30
0.0
 11
27.57585711218558
 21
123.4207432926725
 31
0.0
  0
LINE
  5
11377
330
1130B
100
AcDbEntity
  8
0
100
AcDbLine
 10
26.51519694040576
 20
124.0331157283683
 30
0.0
 11
26.51519694040576
 21
-47.75776489882516
 31
0.0
  0
LINE
  5
11378
330
1130B
100
AcDbEntity
  8
0
100
AcDbLine
 10
56.85007785330848
 20
-35.55114101395555
 30
0.0
 11
31.1113910181183
 21
-50.41137878684025
 31
0.0
  0
LINE
  5
11379
330
1130B
100
AcDbEntity
  8
0
100
AcDbLine
 10
31.11139101811831
 20
129.5444676496305
 30
0.0
 11
56.85007785330849
 21
144.4047054225152
 31
0.0
  0
LINE
  5
1137A
330
1130B
100
AcDbEntity
  8
0
100
AcDbLine
 10
-31.11400572629807
 20
157.3053514011733
 30
0.0
 11
-31.11400572629807
 21
-14.48552922602024
 31
0.0
  0
LINE
  5
1137B
330
1130B
100
AcDbEntity
  8
0
100
AcDbLine
 10
-1.839784985175003
 20
178.2893135310158
 30
0.0
 11
-27.57847182036534
 21
163.4290757581312
 31
0.0
  0
LINE
  5
1137C
330
1130B
100
AcDbEntity
  8
0
100
AcDbLine
 10
-30.05334555451825
 20
156.6929789654775
 30
0.0
 11
-30.05334555451825
 21
-15.09790166171603
 31
0.0
  0
LINE
  5
1137D
330
1130B
100
AcDbEntity
  8
0
100
AcDbLine
 10
56.85007785330849
 20
144.4047054225152
 30
0.0
 11
55.78941768152867
 21
145.017077858211
 31
0.0
  0
LINE
  5
1137E
330
1130B
100
AcDbEntity
  8
0
100
AcDbLine
 10
55.78941768152867
 20
145.017077858211
 30
0.0
 11
30.05073084633848
 21
130.1568400853263
 31
0.0
  0
LINE
  5
1137F
330
1130B
100
AcDbEntity
  8
0
100
AcDbLine
 10
0.0694033240286762
 20
-2.278905341150743
 30
0.0
 11
2.120012989469666
 21
-3.462825383495946
 31
0.0
  0
LINE
  5
11380
330
1130B
100
AcDbEntity
  8
0
100
AcDbLine
 10
56.85007785330848
 20
146.1193482424634
 30
0.0
 11
55.78941768152866
 21
145.5069758067676
 31
0.0
  0
LINE
  5
11381
330
1130B
100
AcDbEntity
  8
0
100
AcDbLine
 10
1.130063495808499
 20
178.2893135310158
 30
0.0
 11
0.0694033240286762
 21
177.6769410953201
 31
0.0
  0
LINE
  5
11382
330
1130B
100
AcDbEntity
  8
0
100
AcDbLine
 10
-1.839784985175003
 20
178.2893135310158
 30
0.0
 11
-0.7791248133951801
 21
177.6769410953201
 31
0.0
  0
LINE
  5
11383
330
1130B
100
AcDbEntity
  8
0
100
AcDbLine
 10
0.0694033240286762
 20
177.6769410953201
 30
0.0
 11
55.78941768152866
 21
145.5069758067676
 31
0.0
  0
LINE
  5
11384
330
1130B
100
AcDbEntity
  8
0
100
AcDbLine
 10
-26.51781164858551
 20
-17.13914311403535
 30
0.0
 11
-0.7791248133951801
 21
-2.278905341150743
 31
0.0
  0
LINE
  5
11385
330
1130B
100
AcDbEntity
  8
0
100
AcDbLine
 10
-26.51781164858551
 20
162.8167033224354
 30
0.0
 11
-0.7791248133951801
 21
177.6769410953201
 31
0.0
  0
LINE
  5
11386
330
1130B
100
AcDbEntity
  8
0
100
AcDbLine
 10
31.1113910181183
 20
-50.41137878684025
 30
0.0
 11
27.57585711218558
 21
-48.37013733452096
 31
0.0
  0
LINE
  5
11387
330
1130B
100
AcDbEntity
  8
0
100
AcDbLine
 10
27.57585711218558
 20
-48.37013733452096
 30
0.0
 11
26.51519694040576
 21
-47.75776489882516
 31
0.0
  0
LINE
  5
11388
330
1130B
100
AcDbEntity
  8
0
100
AcDbLine
 10
26.51519694040576
 20
124.0331157283683
 30
0.0
 11
27.57585711218558
 21
123.4207432926725
 31
0.0
  0
LINE
  5
11389
330
1130B
100
AcDbEntity
  8
0
100
AcDbLine
 10
27.57585711218558
 20
123.4207432926725
 30
0.0
 11
31.11139101811831
 21
129.5444676496305
 31
0.0
  0
LINE
  5
1138A
330
1130B
100
AcDbEntity
  8
0
100
AcDbLine
 10
-26.51781164858551
 20
-17.13914311403535
 30
0.0
 11
-30.05334555451825
 21
-15.09790166171603
 31
0.0
  0
LINE
  5
1138B
330
1130B
100
AcDbEntity
  8
0
100
AcDbLine
 10
-30.05334555451825
 20
-15.09790166171603
 30
0.0
 11
-31.11400572629807
 21
-14.48552922602024
 31
0.0
  0
LINE
  5
1138C
330
1130B
100
AcDbEntity
  8
0
100
AcDbLine
 10
-27.57847182036534
 20
163.4290757581312
 30
0.0
 11
-31.11400572629807
 21
157.3053514011733
 31
0.0
  0
LINE
  5
1138D
330
1130B
100
AcDbEntity
  8
0
100
AcDbLine
 10
-31.11400572629807
 20
157.3053514011733
 30
0.0
 11
-30.05334555451825
 21
156.6929789654775
 31
0.0
  0
LINE
  5
1138E
330
1130B
100
AcDbEntity
  8
0
100
AcDbLine
 10
31.11139101811831
 20
129.5444676496305
 30
0.0
 11
30.05073084633848
 21
130.1568400853263
 31
0.0
  0
LINE
  5
1138F
330
1130B
100
AcDbEntity
  8
0
100
AcDbLine
 10
30.05073084633848
 20
130.1568400853263
 30
0.0
 11
26.51519694040576
 21
124.0331157283683
 31
0.0
  0
LINE
  5
11390
330
1130B
100
AcDbEntity
  8
0
100
AcDbLine
 10
-30.05334555451825
 20
156.6929789654775
 30
0.0
 11
-26.51781164858551
 21
162.8167033224354
 31
0.0
  0
LINE
  5
11391
330
1130B
100
AcDbEntity
  8
0
100
AcDbLine
 10
-26.51781164858551
 20
162.8167033224354
 30
0.0
 11
-27.57847182036534
 21
163.4290757581312
 31
0.0
  0
LINE
  5
11392
330
1130B
100
AcDbEntity
  8
0
100
AcDbLine
 10
0.3500778534639259
 20
-156.9214109809018
 30
0.0
 11
0.3500778534639082
 21
-151.1479082890056
 31
0.0
  0
LINE
  5
11393
330
1130B
100
AcDbEntity
  8
0
100
AcDbLine
 10
0.3500778534639082
 20
-151.1479082890056
 30
0.0
 11
-0.7105823183159022
 21
-150.5355358533098
 31
0.0
  0
LINE
  5
11394
330
1130B
100
AcDbEntity
  8
0
100
AcDbLine
 10
-0.7105823183159022
 20
-150.5355358533098
 30
0.0
 11
-0.71058231831588
 21
-156.309038545206
 31
0.0
  0
LINE
  5
11395
330
1130B
100
AcDbEntity
  8
0
100
AcDbLine
 10
-0.71058231831588
 20
-156.309038545206
 30
0.0
 11
0.3500778534639259
 21
-156.9214109809018
 31
0.0
  0
LINE
  5
11396
330
1130B
100
AcDbEntity
  8
0
100
AcDbLine
 10
-58.33978498501949
 20
-117.263300180505
 30
0.0
 11
-58.33978498501948
 21
-123.0368028724012
 31
0.0
  0
LINE
  5
11397
330
1130B
100
AcDbEntity
  8
0
100
AcDbLine
 10
-58.33978498501948
 20
-123.0368028724012
 30
0.0
 11
-57.27912481323965
 21
-123.649175308097
 31
0.0
  0
LINE
  5
11398
330
1130B
100
AcDbEntity
  8
0
100
AcDbLine
 10
-57.27912481323965
 20
-123.649175308097
 30
0.0
 11
-57.27912481323968
 21
-117.8756726162008
 31
0.0
  0
LINE
  5
11399
330
1130B
100
AcDbEntity
  8
0
100
AcDbLine
 10
-57.27912481323968
 20
-117.8756726162008
 30
0.0
 11
-58.33978498501949
 21
-117.263300180505
 31
0.0
  0
ELLIPSE
  5
1139A
330
1130B
100
AcDbEntity
  8
0
100
AcDbEllipse
 10
33.23271136167762
 20
124.3188895316932
 30
0.0
 11
1.250000000000129
 21
2.165063509461022
 31
0.0
210
0.0
220
0.0
230
1.0
 40
0.5773502691896257
 41
0.0
 42
6.283185307179586
  0
ELLIPSE
  5
1139B
330
1130B
100
AcDbEntity
  8
0
100
AcDbEllipse
 10
33.23271136167762
 20
107.9889579131387
 30
0.0
 11
1.250000000000129
 21
2.165063509461022
 31
0.0
210
0.0
220
0.0
230
1.0
 40
0.5773502691896257
 41
0.0
 42
6.283185307179586
  0
ELLIPSE
  5
1139C
330
1130B
100
AcDbEntity
  8
0
100
AcDbEllipse
 10
33.23271136167762
 20
91.6590262945842
 30
0.0
 11
1.250000000000129
 21
2.165063509461022
 31
0.0
210
0.0
220
0.0
230
1.0
 40
0.5773502691896257
 41
0.0
 42
6.283185307179586
  0
ELLIPSE
  5
1139D
330
1130B
100
AcDbEntity
  8
0
100
AcDbEllipse
 10
33.23271136167762
 20
75.32909467602968
 30
0.0
 11
1.250000000000129
 21
2.165063509461022
 31
0.0
210
0.0
220
0.0
230
1.0
 40
0.5773502691896257
 41
0.0
 42
6.283185307179586
  0
ELLIPSE
  5
1139E
330
1130B
100
AcDbEntity
  8
0
100
AcDbEllipse
 10
33.23271136167762
 20
58.99916305747516
 30
0.0
 11
1.250000000000129
 21
2.165063509461022
 31
0.0
210
0.0
220
0.0
230
1.0
 40
0.5773502691896257
 41
0.0
 42
6.283185307179586
  0
ELLIPSE
  5
1139F
330
1130B
100
AcDbEntity
  8
0
100
AcDbEllipse
 10
33.23271136167762
 20
42.66923143892063
 30
0.0
 11
1.250000000000129
 21
2.165063509461022
 31
0.0
210
0.0
220
0.0
230
1.0
 40
0.5773502691896257
 41
0.0
 42
6.283185307179586
  0
ELLIPSE
  5
113A0
330
1130B
100
AcDbEntity
  8
0
100
AcDbEllipse
 10
33.23271136167762
 20
26.33929982036612
 30
0.0
 11
1.250000000000129
 21
2.165063509461022
 31
0.0
210
0.0
220
0.0
230
1.0
 40
0.5773502691896257
 41
0.0
 42
6.283185307179586
  0
ELLIPSE
  5
113A1
330
1130B
100
AcDbEntity
  8
0
100
AcDbEllipse
 10
33.23271136167762
 20
10.00936820181159
 30
0.0
 11
1.250000000000129
 21
2.165063509461022
 31
0.0
210
0.0
220
0.0
230
1.0
 40
0.5773502691896257
 41
0.0
 42
6.283185307179586
  0
ELLIPSE
  5
113A2
330
1130B
100
AcDbEntity
  8
0
100
AcDbEllipse
 10
33.23271136167762
 20
-6.320563416742928
 30
0.0
 11
1.250000000000129
 21
2.165063509461022
 31
0.0
210
0.0
220
0.0
230
1.0
 40
0.5773502691896257
 41
0.0
 42
6.283185307179586
  0
ELLIPSE
  5
113A3
330
1130B
100
AcDbEntity
  8
0
100
AcDbEllipse
 10
33.23271136167762
 20
-22.65049503529743
 30
0.0
 11
1.250000000000129
 21
2.165063509461022
 31
0.0
210
0.0
220
0.0
230
1.0
 40
0.5773502691896257
 41
0.0
 42
6.283185307179586
  0
ELLIPSE
  5
113A4
330
1130B
100
AcDbEntity
  8
0
100
AcDbEllipse
 10
32.1720511898978
 20
124.931261967389
 30
0.0
 11
1.249999999999864
 21
2.165063509461174
 31
0.0
210
0.0
220
0.0
230
1.0
 40
0.5773502691896218
 41
3.579741684173544
 42
5.845036276595001
  0
ELLIPSE
  5
113A5
330
1130B
100
AcDbEntity
  8
0
100
AcDbEllipse
 10
32.1720511898978
 20
108.6013303488345
 30
0.0
 11
1.249999999999864
 21
2.165063509461174
 31
0.0
210
0.0
220
0.0
230
1.0
 40
0.5773502691896218
 41
3.579741684173544
 42
5.845036276595001
  0
ELLIPSE
  5
113A6
330
1130B
100
AcDbEntity
  8
0
100
AcDbEllipse
 10
32.1720511898978
 20
92.27139873027999
 30
0.0
 11
1.249999999999864
 21
2.165063509461174
 31
0.0
210
0.0
220
0.0
230
1.0
 40
0.5773502691896218
 41
3.579741684173544
 42
5.845036276595001
  0
ELLIPSE
  5
113A7
330
1130B
100
AcDbEntity
  8
0
100
AcDbEllipse
 10
32.1720511898978
 20
75.94146711172547
 30
0.0
 11
1.249999999999864
 21
2.165063509461174
 31
0.0
210
0.0
220
0.0
230
1.0
 40
0.5773502691896218
 41
3.579741684173544
 42
5.845036276594997
  0
ELLIPSE
  5
113A8
330
1130B
100
AcDbEntity
  8
0
100
AcDbEllipse
 10
32.1720511898978
 20
59.61153549317095
 30
0.0
 11
1.249999999999864
 21
2.165063509461174
 31
0.0
210
0.0
220
0.0
230
1.0
 40
0.5773502691896218
 41
3.579741684173544
 42
5.845036276594997
  0
ELLIPSE
  5
113A9
330
1130B
100
AcDbEntity
  8
0
100
AcDbEllipse
 10
32.1720511898978
 20
43.28160387461642
 30
0.0
 11
1.249999999999864
 21
2.165063509461174
 31
0.0
210
0.0
220
0.0
230
1.0
 40
0.5773502691896218
 41
3.579741684173544
 42
5.845036276594997
  0
ELLIPSE
  5
113AA
330
1130B
100
AcDbEntity
  8
0
100
AcDbEllipse
 10
32.1720511898978
 20
26.95167225606193
 30
0.0
 11
1.249999999999864
 21
2.165063509461174
 31
0.0
210
0.0
220
0.0
230
1.0
 40
0.5773502691896218
 41
3.579741684173542
 42
5.845036276594997
  0
ELLIPSE
  5
113AB
330
1130B
100
AcDbEntity
  8
0
100
AcDbEllipse
 10
32.1720511898978
 20
10.6217406375074
 30
0.0
 11
1.249999999999864
 21
2.165063509461174
 31
0.0
210
0.0
220
0.0
230
1.0
 40
0.5773502691896218
 41
3.579741684173548
 42
5.845036276594989
  0
ELLIPSE
  5
113AC
330
1130B
100
AcDbEntity
  8
0
100
AcDbEllipse
 10
32.1720511898978
 20
-5.708190981047129
 30
0.0
 11
1.249999999999864
 21
2.165063509461174
 31
0.0
210
0.0
220
0.0
230
1.0
 40
0.5773502691896218
 41
3.579741684173548
 42
5.845036276594989
  0
ELLIPSE
  5
113AD
330
1130B
100
AcDbEntity
  8
0
100
AcDbEllipse
 10
32.1720511898978
 20
-22.03812259960164
 30
0.0
 11
1.249999999999864
 21
2.165063509461174
 31
0.0
210
0.0
220
0.0
230
1.0
 40
0.5773502691896218
 41
3.579741684173548
 42
5.845036276594989
  0
ELLIPSE
  5
113AE
330
1130B
100
AcDbEntity
  8
0
100
AcDbEllipse
 10
33.23271136167762
 20
-38.98042665385196
 30
0.0
 11
1.250000000000129
 21
2.165063509461022
 31
0.0
210
0.0
220
0.0
230
1.0
 40
0.5773502691896257
 41
0.0
 42
6.283185307179586
  0
ELLIPSE
  5
113AF
330
1130B
100
AcDbEntity
  8
0
100
AcDbEllipse
 10
32.1720511898978
 20
-38.36805421815616
 30
0.0
 11
1.249999999999864
 21
2.165063509461174
 31
0.0
210
0.0
220
0.0
230
1.0
 40
0.5773502691896218
 41
3.579741684173548
 42
5.845036276594989
  0
LINE
  5
113B0
330
1130B
100
AcDbEntity
  8
0
100
AcDbLine
 10
56.85007785330848
 20
-35.55114101395555
 30
0.0
 11
56.85007785330849
 21
144.4047054225152
 31
0.0
  0
ELLIPSE
  5
113B1
330
1130B
100
AcDbEntity
  8
0
100
AcDbEllipse
 10
55.36515361281672
 20
145.2620268324893
 30
0.0
 11
0.6000000000000006
 21
0.0000000000000001
 31
0.0
210
0.0
220
0.0
230
1.0
 40
0.5773502691896257
 41
5.49778714378219
 42
7.068583470577047
  0
LINE
  5
113B2
330
1130B
100
AcDbEntity
  8
0
100
AcDbLine
 10
55.78941768152866
 20
145.5069758067676
 30
0.0
 11
55.78941768152866
 21
145.017077858211
 31
0.0
  0
ELLIPSE
  5
113B3
330
1130B
100
AcDbEntity
  8
0
100
AcDbEllipse
 10
55.36515361281672
 20
145.2620268324893
 30
0.0
 11
2.100000000000008
 21
0.0
 31
0.0
210
0.0
220
0.0
230
1.0
 40
0.5773502691896257
 41
5.497787143782142
 42
7.06858347057703
  0
ELLIPSE
  5
113B4
330
1130B
100
AcDbEntity
  8
0
100
AcDbEllipse
 10
55.36515361281672
 20
-34.69381960398145
 30
0.0
 11
2.100000000000004
 21
-0.0000000000000006
 31
0.0
210
0.0
220
0.0
230
1.0
 40
0.5773502691896258
 41
5.497787143782145
 42
6.283185307179588
  0
LINE
  5
113B5
330
1130B
100
AcDbEntity
  8
0
100
AcDbLine
 10
0.0694033240286762
 20
177.6769410953201
 30
0.0
 11
0.0694033240286762
 21
-2.27890534115076
 31
0.0
  0
ELLIPSE
  5
113B6
330
1130B
100
AcDbEntity
  8
0
100
AcDbEllipse
 10
-0.3548607446832497
 20
177.4319921210417
 30
0.0
 11
0.6000000000000006
 21
-0.0000000000000357
 31
0.0
210
0.0
220
0.0
230
1.0
 40
0.5773502691896257
 41
0.7853981633976597
 42
2.356194490192535
  0
LINE
  5
113B7
330
1130B
100
AcDbEntity
  8
0
100
AcDbLine
 10
-0.7791248133951801
 20
177.6769410953201
 30
0.0
 11
-0.7791248133951801
 21
-2.27890534115076
 31
0.0
  0
ELLIPSE
  5
113B8
330
1130B
100
AcDbEntity
  8
0
100
AcDbEllipse
 10
-0.3548607446832497
 20
-2.523854315429048
 30
0.0
 11
0.6000000000000006
 21
-0.0000000000000357
 31
0.0
210
0.0
220
0.0
230
1.0
 40
0.5773502691896257
 41
0.7853981633976899
 42
2.356194490192587
  0
ELLIPSE
  5
113B9
330
1130B
100
AcDbEntity
  8
0
100
AcDbEllipse
 10
-0.3548607446832497
 20
177.4319921210417
 30
0.0
 11
-2.100000000000004
 21
-0.0000000000001252
 31
0.0
210
0.0
220
0.0
230
1.0
 40
0.5773502691896257
 41
3.926990816986991
 42
5.49778714378189
  0
LINE
  5
113BA
330
1130B
100
AcDbEntity
  8
0
100
AcDbLine
 10
57.46515361281674
 20
145.2620268324893
 30
0.0
 11
57.46515361281674
 21
-34.69381960398144
 31
0.0
  0
ELLIPSE
  5
113BB
330
1130B
100
AcDbEntity
  8
0
100
AcDbEllipse
 10
-25.4571514768057
 20
154.1210147355551
 30
0.0
 11
1.24999999999987
 21
2.16506350946117
 31
0.0
210
0.0
220
0.0
230
1.0
 40
0.5773502691896259
 41
3.579741684173542
 42
5.845036276594988
  0
ELLIPSE
  5
113BC
330
1130B
100
AcDbEntity
  8
0
100
AcDbEllipse
 10
-25.4571514768057
 20
137.7910831170006
 30
0.0
 11
1.24999999999987
 21
2.16506350946117
 31
0.0
210
0.0
220
0.0
230
1.0
 40
0.5773502691896259
 41
3.579741684173542
 42
5.845036276594988
  0
ELLIPSE
  5
113BD
330
1130B
100
AcDbEntity
  8
0
100
AcDbEllipse
 10
-25.4571514768057
 20
121.4611514984461
 30
0.0
 11
1.24999999999987
 21
2.16506350946117
 31
0.0
210
0.0
220
0.0
230
1.0
 40
0.5773502691896259
 41
3.579741684173542
 42
5.845036276594988
  0
ELLIPSE
  5
113BE
330
1130B
100
AcDbEntity
  8
0
100
AcDbEllipse
 10
-25.4571514768057
 20
105.1312198798916
 30
0.0
 11
1.24999999999987
 21
2.16506350946117
 31
0.0
210
0.0
220
0.0
230
1.0
 40
0.5773502691896259
 41
3.579741684173542
 42
5.845036276594988
  0
ELLIPSE
  5
113BF
330
1130B
100
AcDbEntity
  8
0
100
AcDbEllipse
 10
-25.4571514768057
 20
88.80128826133704
 30
0.0
 11
1.24999999999987
 21
2.16506350946117
 31
0.0
210
0.0
220
0.0
230
1.0
 40
0.5773502691896259
 41
3.579741684173542
 42
5.845036276594988
  0
ELLIPSE
  5
113C0
330
1130B
100
AcDbEntity
  8
0
100
AcDbEllipse
 10
-25.4571514768057
 20
72.47135664278253
 30
0.0
 11
1.24999999999987
 21
2.16506350946117
 31
0.0
210
0.0
220
0.0
230
1.0
 40
0.5773502691896259
 41
3.579741684173541
 42
5.845036276594997
  0
ELLIPSE
  5
113C1
330
1130B
100
AcDbEntity
  8
0
100
AcDbEllipse
 10
-25.4571514768057
 20
56.14142502422803
 30
0.0
 11
1.24999999999987
 21
2.16506350946117
 31
0.0
210
0.0
220
0.0
230
1.0
 40
0.5773502691896259
 41
3.579741684173541
 42
5.845036276594997
  0
ELLIPSE
  5
113C2
330
1130B
100
AcDbEntity
  8
0
100
AcDbEllipse
 10
-25.4571514768057
 20
39.8114934056735
 30
0.0
 11
1.24999999999987
 21
2.16506350946117
 31
0.0
210
0.0
220
0.0
230
1.0
 40
0.5773502691896258
 41
3.579741684173548
 42
5.845036276594989
  0
ELLIPSE
  5
113C3
330
1130B
100
AcDbEntity
  8
0
100
AcDbEllipse
 10
-25.4571514768057
 20
23.48156178711898
 30
0.0
 11
1.24999999999987
 21
2.16506350946117
 31
0.0
210
0.0
220
0.0
230
1.0
 40
0.5773502691896258
 41
3.579741684173548
 42
5.845036276594989
  0
ELLIPSE
  5
113C4
330
1130B
100
AcDbEntity
  8
0
100
AcDbEllipse
 10
-25.4571514768057
 20
7.151630168564473
 30
0.0
 11
1.24999999999987
 21
2.16506350946117
 31
0.0
210
0.0
220
0.0
230
1.0
 40
0.5773502691896258
 41
3.57974168417355
 42
5.845036276594989
  0
ELLIPSE
  5
113C5
330
1130B
100
AcDbEntity
  8
0
100
AcDbEllipse
 10
-24.39649130502588
 20
153.5086422998593
 30
0.0
 11
1.250000000000129
 21
2.165063509461022
 31
0.0
210
0.0
220
0.0
230
1.0
 40
0.5773502691896257
 41
0.0
 42
6.283185307179586
  0
ELLIPSE
  5
113C6
330
1130B
100
AcDbEntity
  8
0
100
AcDbEllipse
 10
-24.39649130502588
 20
137.1787106813048
 30
0.0
 11
1.250000000000129
 21
2.165063509461022
 31
0.0
210
0.0
220
0.0
230
1.0
 40
0.5773502691896257
 41
0.0
 42
6.283185307179586
  0
ELLIPSE
  5
113C7
330
1130B
100
AcDbEntity
  8
0
100
AcDbEllipse
 10
-24.39649130502588
 20
120.8487790627503
 30
0.0
 11
1.250000000000129
 21
2.165063509461022
 31
0.0
210
0.0
220
0.0
230
1.0
 40
0.5773502691896257
 41
0.0
 42
6.283185307179586
  0
ELLIPSE
  5
113C8
330
1130B
100
AcDbEntity
  8
0
100
AcDbEllipse
 10
-24.39649130502588
 20
104.5188474441958
 30
0.0
 11
1.250000000000129
 21
2.165063509461022
 31
0.0
210
0.0
220
0.0
230
1.0
 40
0.5773502691896257
 41
0.0
 42
6.283185307179586
  0
ELLIPSE
  5
113C9
330
1130B
100
AcDbEntity
  8
0
100
AcDbEllipse
 10
-24.39649130502588
 20
88.18891582564125
 30
0.0
 11
1.250000000000129
 21
2.165063509461022
 31
0.0
210
0.0
220
0.0
230
1.0
 40
0.5773502691896257
 41
0.0
 42
6.283185307179586
  0
ELLIPSE
  5
113CA
330
1130B
100
AcDbEntity
  8
0
100
AcDbEllipse
 10
-24.39649130502588
 20
71.85898420708674
 30
0.0
 11
1.250000000000129
 21
2.165063509461022
 31
0.0
210
0.0
220
0.0
230
1.0
 40
0.5773502691896257
 41
0.0
 42
6.283185307179586
  0
ELLIPSE
  5
113CB
330
1130B
100
AcDbEntity
  8
0
100
AcDbEllipse
 10
-24.39649130502588
 20
55.52905258853224
 30
0.0
 11
1.250000000000129
 21
2.165063509461022
 31
0.0
210
0.0
220
0.0
230
1.0
 40
0.5773502691896257
 41
0.0
 42
6.283185307179586
  0
ELLIPSE
  5
113CC
330
1130B
100
AcDbEntity
  8
0
100
AcDbEllipse
 10
-24.39649130502588
 20
39.19912096997772
 30
0.0
 11
1.250000000000129
 21
2.165063509461022
 31
0.0
210
0.0
220
0.0
230
1.0
 40
0.5773502691896257
 41
0.0
 42
6.283185307179586
  0
ELLIPSE
  5
113CD
330
1130B
100
AcDbEntity
  8
0
100
AcDbEllipse
 10
-24.39649130502588
 20
22.86918935142319
 30
0.0
 11
1.250000000000129
 21
2.165063509461022
 31
0.0
210
0.0
220
0.0
230
1.0
 40
0.5773502691896257
 41
0.0
 42
6.283185307179586
  0
ELLIPSE
  5
113CE
330
1130B
100
AcDbEntity
  8
0
100
AcDbEllipse
 10
-24.39649130502588
 20
6.539257732868666
 30
0.0
 11
1.250000000000129
 21
2.165063509461022
 31
0.0
210
0.0
220
0.0
230
1.0
 40
0.5773502691896257
 41
0.0
 42
6.283185307179586
  0
ELLIPSE
  5
113CF
330
1130B
100
AcDbEntity
  8
0
100
AcDbEllipse
 10
-25.4571514768057
 20
-9.178301449990051
 30
0.0
 11
1.24999999999987
 21
2.16506350946117
 31
0.0
210
0.0
220
0.0
230
1.0
 40
0.5773502691896258
 41
3.57974168417355
 42
5.845036276594989
  0
ELLIPSE
  5
113D0
330
1130B
100
AcDbEntity
  8
0
100
AcDbEllipse
 10
-24.39649130502588
 20
-9.790673885685849
 30
0.0
 11
1.250000000000129
 21
2.165063509461022
 31
0.0
210
0.0
220
0.0
230
1.0
 40
0.5773502691896257
 41
0.0
 42
6.283185307179586
  0
LINE
  5
113D1
330
1130B
100
AcDbEntity
  8
0
100
AcDbLine
 10
13.85007785287529
 20
-127.7652223885223
 30
0.0
 11
0.3500778534639082
 21
-151.1479082890056
 31
0.0
  0
LINE
  5
113D2
330
1130B
100
AcDbEntity
  8
0
100
AcDbLine
 10
12.78941768109513
 20
-127.1528499528264
 30
0.0
 11
-0.7105823183159022
 21
-150.5355358533098
 31
0.0
  0
LINE
  5
113D3
330
1130B
100
AcDbEntity
  8
0
100
AcDbLine
 10
18.55007785330845
 20
-167.4291858800632
 30
0.0
 11
55.25007785252064
 21
-103.8629212436501
 31
0.0
  0
LINE
  5
113D4
330
1130B
100
AcDbEntity
  8
0
100
AcDbLine
 10
53.94088954331362
 20
-103.3940365950028
 30
0.0
 11
54.92869889270689
 21
-101.6831006136621
 31
0.0
  0
LINE
  5
113D5
330
1130B
100
AcDbEntity
  8
0
100
AcDbLine
 10
18.88380696076403
 20
-167.6218644700891
 30
0.0
 11
18.55007785330846
 21
-167.4291858800633
 31
0.0
  0
LINE
  5
113D6
330
1130B
100
AcDbEntity
  8
0
100
AcDbLine
 10
55.92216692982653
 20
-103.4695431746476
 30
0.0
 11
18.88380696076404
 21
-167.6218644700891
 31
0.0
  0
LINE
  5
113D7
330
1130B
100
AcDbEntity
  8
0
100
AcDbLine
 10
13.85007785287529
 20
-127.7652223885223
 30
0.0
 11
12.78941768109513
 21
-127.1528499528264
 31
0.0
  0
LINE
  5
113D8
330
1130B
100
AcDbEntity
  8
0
100
AcDbLine
 10
55.25007785252064
 20
-103.8629212436501
 30
0.0
 11
13.85007785287529
 21
-127.7652223885223
 31
0.0
  0
LINE
  5
113D9
330
1130B
100
AcDbEntity
  8
0
100
AcDbLine
 10
-44.83978498561234
 20
-93.88061428001931
 30
0.0
 11
-3.439784985962832
 21
-69.97831313514947
 31
0.0
  0
SPLINE
  5
113DA
330
1130B
100
AcDbEntity
  8
0
100
AcDbSpline
210
0.0
220
0.0
230
1.0
 70
     8
 71
     3
 72
     8
 73
     4
 74
     0
 42
0.000000001
 43
0.0000000001
 40
-1.0
 40
-1.0
 40
-1.0
 40
-1.0
 40
0.0
 40
0.0
 40
0.0
 40
0.0
 10
3.168173096660713
 20
-69.6084798397562
 30
0.0
 10
3.20010451164193
 20
-69.75681129609795
 30
0.0
 10
3.118142499031004
 20
-69.90101839556739
 30
0.0
 10
2.957030912494746
 20
-69.97647479144735
 30
0.0
  0
SPLINE
  5
113DB
330
1130B
100
AcDbEntity
  8
0
100
AcDbSpline
210
0.0
220
0.0
230
1.0
 70
     8
 71
     3
 72
     8
 73
     4
 74
     0
 42
0.000000001
 43
0.0000000001
 40
-1.0
 40
-1.0
 40
-1.0
 40
-1.0
 40
0.0
 40
0.0
 40
0.0
 40
0.0
 10
52.65326195563867
 20
-98.66860716191631
 30
0.0
 10
52.63805331808082
 20
-98.49135223719205
 30
0.0
 10
52.65871649391557
 20
-98.31175423780885
 30
0.0
 10
52.69064790889657
 20
-98.20029400353703
 30
0.0
  0
SPLINE
  5
113DC
330
1130B
100
AcDbEntity
  8
0
100
AcDbSpline
210
0.0
220
0.0
230
1.0
 70
     8
 71
     3
 72
     8
 73
     4
 74
     0
 42
0.000000001
 43
0.0000000001
 40
0.1302463606542419
 40
0.1302463606542419
 40
0.1302463606542419
 40
0.1302463606542419
 40
1.0
 40
1.0
 40
1.0
 40
1.0
 10
53.73309442375796
 20
-97.76537294683478
 30
0.0
 10
53.68026848796922
 20
-98.17479417427135
 30
0.0
 10
53.54865871385453
 20
-98.67270600943832
 30
0.0
 10
53.40326195563867
 20
-99.10161986380854
 30
0.0
  0
ELLIPSE
  5
113DD
330
1130B
100
AcDbEntity
  8
0
100
AcDbEllipse
 10
2.312716531375968
 20
-68.87247436880634
 30
0.0
 11
-0.7499999999999999
 21
-1.299038105676658
 31
0.0
210
0.0
220
0.0
230
1.0
 40
0.816496580927726
 41
0.0
 42
1.134458255166949
  0
LINE
  5
113DE
330
1130B
100
AcDbEntity
  8
0
100
AcDbLine
 10
1.562716531375984
 20
-70.17151247448298
 30
0.0
 11
-0.0587891588337231
 21
-69.2353357277479
 31
0.0
  0
LINE
  5
113DF
330
1130B
100
AcDbEntity
  8
0
100
AcDbLine
 10
-0.0587891588337231
 20
-69.2353357277479
 30
0.0
 11
-0.7913154647930698
 21
-69.51313532510976
 31
0.0
  0
LINE
  5
113E0
330
1130B
100
AcDbEntity
  8
0
100
AcDbLine
 10
54.92869889270689
 20
-101.6831006136621
 30
0.0
 11
54.80301724820368
 21
-100.90981442508
 31
0.0
  0
LINE
  5
113E1
330
1130B
100
AcDbEntity
  8
0
100
AcDbLine
 10
54.80301724820368
 20
-100.90981442508
 30
0.0
 11
53.18151155799398
 21
-99.97363767834498
 31
0.0
  0
ELLIPSE
  5
113E2
330
1130B
100
AcDbEntity
  8
0
100
AcDbEllipse
 10
53.93151155799395
 20
-98.67459957266831
 30
0.0
 11
-0.7499999999999996
 21
-1.299038105676658
 31
0.0
210
0.0
220
0.0
230
1.0
 40
0.816496580927726
 41
5.148727052012628
 42
6.283185307179575
  0
LINE
  5
113E3
330
1130B
100
AcDbEntity
  8
0
100
AcDbLine
 10
-43.77912481383216
 20
-94.49298671571531
 30
0.0
 11
-44.83978498561234
 21
-93.88061428001931
 31
0.0
  0
LINE
  5
113E4
330
1130B
100
AcDbEntity
  8
0
100
AcDbLine
 10
-2.379124814183048
 20
-70.59068557084524
 30
0.0
 11
-43.77912481383216
 21
-94.49298671571533
 31
0.0
  0
LINE
  5
113E5
330
1130B
100
AcDbEntity
  8
0
100
AcDbLine
 10
-2.379124814183048
 20
-70.59068557084524
 30
0.0
 11
-2.732324651386841
 21
-70.3867655497579
 31
0.0
  0
LINE
  5
113E6
330
1130B
100
AcDbEntity
  8
0
100
AcDbLine
 10
-2.732324651386841
 20
-70.3867655497579
 30
0.0
 11
-3.439784985962837
 21
-69.97831313514947
 31
0.0
  0
SPLINE
  5
113E7
330
1130B
100
AcDbEntity
  8
0
100
AcDbSpline
210
0.0
220
0.0
230
1.0
 70
     8
 71
     3
 72
     8
 73
     4
 74
     0
 42
0.000000001
 43
0.0000000001
 40
-1.0
 40
-1.0
 40
-1.0
 40
-1.0
 40
0.0
 40
0.0
 40
0.0
 40
0.0
 10
-0.7913154647930654
 20
-69.51313532510974
 30
0.0
 10
-1.301308038593704
 20
-69.88344844235051
 30
0.0
 10
-1.934196754610475
 20
-70.18280743879936
 30
0.0
 10
-2.379124814183048
 20
-70.59068557084524
 30
0.0
  0
SPLINE
  5
113E8
330
1130B
100
AcDbEntity
  8
0
100
AcDbSpline
210
0.0
220
0.0
230
1.0
 70
     8
 71
     3
 72
     8
 73
     4
 74
     0
 42
0.000000001
 43
0.0000000001
 40
0.0
 40
0.0
 40
0.0
 40
0.0
 40
0.6081734479693781
 40
0.6081734479693781
 40
0.6081734479693781
 40
0.6081734479693781
 10
-3.439784985962841
 20
-69.97831313514947
 30
0.0
 10
-2.930362399343144
 20
-69.86814056189068
 30
0.0
 10
-2.177613033034524
 20
-69.89845277038705
 30
0.0
 10
-1.426280169831919
 20
-69.9279471604339
 30
0.0
  0
ELLIPSE
  5
113E9
330
1130B
100
AcDbEntity
  8
0
100
AcDbEllipse
 10
2.120012989469675
 20
-69.19080014817786
 30
0.0
 11
0.7499999999999233
 21
-1.299038105676702
 31
0.0
210
0.0
220
0.0
230
1.0
 40
0.5773502691896261
 41
0.9390757175653119
 42
2.356194490192585
  0
LINE
  5
113EA
330
1130B
100
AcDbEntity
  8
0
100
AcDbLine
 10
55.25007785252064
 20
-103.8629212436501
 30
0.0
 11
54.54261751794359
 21
-103.454468829041
 31
0.0
  0
LINE
  5
113EB
330
1130B
100
AcDbEntity
  8
0
100
AcDbLine
 10
54.54261751794359
 20
-103.454468829041
 30
0.0
 11
54.18941768074078
 21
-103.2505488079543
 31
0.0
  0
LINE
  5
113EC
330
1130B
100
AcDbEntity
  8
0
100
AcDbLine
 10
12.78941768109513
 20
-127.1528499528264
 30
0.0
 11
54.18941768074078
 21
-103.2505488079543
 31
0.0
  0
LINE
  5
113ED
330
1130B
100
AcDbEntity
  8
0
100
AcDbLine
 10
54.92869889270689
 20
-101.6831006136621
 30
0.0
 11
55.17844889270666
 21
-101.8272938433921
 31
0.0
  0
SPLINE
  5
113EE
330
1130B
100
AcDbEntity
  8
0
100
AcDbSpline
210
0.0
220
0.0
230
1.0
 70
     8
 71
     3
 72
     8
 73
     4
 74
     0
 42
0.000000001
 43
0.0000000001
 40
-1.0
 40
-1.0
 40
-1.0
 40
-1.0
 40
0.0
 40
0.0
 40
0.0
 40
0.0
 10
54.18941768074078
 20
-103.2505488079543
 30
0.0
 10
54.63434574031297
 20
-102.842670675909
 30
0.0
 10
54.86299461272224
 20
-102.309923696935
 30
0.0
 10
54.92869889270687
 20
-101.6831006136621
 30
0.0
  0
SPLINE
  5
113EF
330
1130B
100
AcDbEntity
  8
0
100
AcDbSpline
210
0.0
220
0.0
230
1.0
 70
     8
 71
     3
 72
     8
 73
     4
 74
     0
 42
0.000000001
 43
0.0000000001
 40
0.0
 40
0.0
 40
0.0
 40
0.0
 40
1.0
 40
1.0
 40
1.0
 40
1.0
 10
55.67869889270688
 20
-102.1161133155543
 30
0.0
 10
56.16835497999199
 20
-103.0635738563676
 30
0.0
 10
56.08770499379151
 20
-103.6817680321341
 30
0.0
 10
55.25007785252064
 20
-103.8629212436501
 30
0.0
  0
LINE
  5
113F0
330
1130B
100
AcDbEntity
  8
0
100
AcDbLine
 10
55.17844889270666
 20
-101.8272938433921
 30
0.0
 11
55.67869889270689
 21
-102.1161133155543
 31
0.0
  0
ELLIPSE
  5
113F1
330
1130B
100
AcDbEntity
  8
0
100
AcDbEllipse
 10
54.68151155799393
 20
-99.10761227456053
 30
0.0
 11
-0.7500000000000009
 21
-1.299038105676658
 31
0.0
210
0.0
220
0.0
230
1.0
 40
0.816496580927726
 41
5.148727052012628
 42
6.283185307179582
  0
LINE
  5
113F2
330
1130B
100
AcDbEntity
  8
0
100
AcDbLine
 10
53.40326195563867
 20
-99.10161986380851
 30
0.0
 11
52.90301195653561
 21
-98.81280039216427
 31
0.0
  0
LINE
  5
113F3
330
1130B
100
AcDbEntity
  8
0
100
AcDbLine
 10
52.90301195653561
 20
-98.81280039216427
 30
0.0
 11
52.65326195563867
 21
-98.66860716191631
 31
0.0
  0
LINE
  5
113F4
330
1130B
100
AcDbEntity
  8
0
100
AcDbLine
 10
54.80301724820368
 20
-100.90981442508
 30
0.0
 11
55.55301724820367
 21
-101.3428271269722
 31
0.0
  0
LINE
  5
113F5
330
1130B
100
AcDbEntity
  8
0
100
AcDbLine
 10
55.55301724820367
 20
-101.3428271269722
 30
0.0
 11
55.67869889270689
 21
-102.1161133155543
 31
0.0
  0
LINE
  5
113F6
330
1130B
100
AcDbEntity
  8
0
100
AcDbLine
 10
52.69064790889658
 20
-98.20029400353702
 30
0.0
 11
53.04384774932414
 21
-97.99637398058843
 31
0.0
  0
LINE
  5
113F7
330
1130B
100
AcDbEntity
  8
0
100
AcDbLine
 10
53.04384774932414
 20
-97.99637398058843
 30
0.0
 11
53.57644918604382
 21
-97.68887639772755
 31
0.0
  0
ELLIPSE
  5
113F8
330
1130B
100
AcDbEntity
  8
0
100
AcDbEllipse
 10
53.73880801608766
 20
-98.99292535203983
 30
0.0
 11
-0.750000000000001
 21
1.299038105676657
 31
0.0
210
0.0
220
0.0
230
1.0
 40
0.5773502691896262
 41
5.497787143782137
 42
6.914905916409376
  0
LINE
  5
113F9
330
1130B
100
AcDbEntity
  8
0
100
AcDbLine
 10
18.55007785330845
 20
-167.4291858800632
 30
0.0
 11
0.3500778534639259
 21
-156.9214109809018
 31
0.0
  0
LINE
  5
113FA
330
1130B
100
AcDbEntity
  8
0
100
AcDbLine
 10
-57.27912481323965
 20
-123.649175308097
 30
0.0
 11
-39.07912481339514
 21
-134.1569502072584
 31
0.0
  0
LINE
  5
113FB
330
1130B
100
AcDbEntity
  8
0
100
AcDbLine
 10
3.16817309666074
 20
-69.60847983975622
 30
0.0
 11
10.2592126070207
 21
-73.7024934098968
 31
0.0
  0
LINE
  5
113FC
330
1130B
100
AcDbEntity
  8
0
100
AcDbLine
 10
10.18525465633977
 20
-74.1496917157191
 30
0.0
 11
2.957030912494746
 21
-69.97647479144735
 31
0.0
  0
LINE
  5
113FD
330
1130B
100
AcDbEntity
  8
0
100
AcDbLine
 10
24.32739027970001
 20
-82.31465752478232
 30
0.0
 11
13.60523305839902
 21
-76.12421716677072
 31
0.0
  0
LINE
  5
113FE
330
1130B
100
AcDbEntity
  8
0
100
AcDbLine
 10
13.77980324514197
 20
-75.73510736252259
 30
0.0
 11
24.4013482308821
 21
-81.86745921924936
 31
0.0
  0
LINE
  5
113FF
330
1130B
100
AcDbEntity
  8
0
100
AcDbLine
 10
31.45747277467524
 20
-85.94131462404385
 30
0.0
 11
42.07901776041534
 21
-92.07366648077062
 31
0.0
  0
LINE
  5
11400
330
1130B
100
AcDbEntity
  8
0
100
AcDbLine
 10
42.0050598097344
 20
-92.52086478659293
 30
0.0
 11
31.28290258843343
 21
-86.33042442858132
 31
0.0
  0
LINE
  5
11401
330
1130B
100
AcDbEntity
  8
0
100
AcDbLine
 10
52.65326195563867
 20
-98.66860716191631
 30
0.0
 11
45.42503821179366
 21
-94.49539023764456
 31
0.0
  0
LINE
  5
11402
330
1130B
100
AcDbEntity
  8
0
100
AcDbLine
 10
45.59960839853662
 20
-94.10628043339642
 30
0.0
 11
52.69064790889658
 21
-98.20029400353702
 31
0.0
  0
LINE
  5
11403
330
1130B
100
AcDbEntity
  8
0
100
AcDbLine
 10
-38.35486074468323
 20
-134.5751042622936
 30
0.0
 11
-0.7105823183158844
 21
-156.309038545206
 31
0.0
  0
ELLIPSE
  5
11404
330
1130B
100
AcDbEntity
  8
0
100
AcDbEllipse
 10
8.100077853577625
 20
-146.9621188374464
 30
0.0
 11
1.250000000000129
 21
2.165063509461021
 31
0.0
210
0.0
220
0.0
230
1.0
 40
0.5773502691896255
 41
0.0
 42
6.283185307179586
  0
ELLIPSE
  5
11405
330
1130B
100
AcDbEntity
  8
0
100
AcDbEllipse
 10
21.85007785378234
 20
-128.9199229253888
 30
0.0
 11
-0.4000000000000425
 21
-0.6928203230275284
 31
0.0
210
0.0
220
0.0
230
1.0
 40
0.5773502691896255
 41
2.094395102375157
 42
2.276828566511568
  0
LINE
  5
11406
330
1130B
100
AcDbEntity
  8
0
100
AcDbLine
 10
22.39648801529345
 20
-128.7735127638881
 30
0.0
 11
21.60401976997019
 21
-132.6461080280941
 31
0.0
  0
ELLIPSE
  5
11407
330
1130B
100
AcDbEntity
  8
0
100
AcDbEllipse
 10
21.05760960845908
 20
-132.7925181895949
 30
0.0
 11
-0.4000000000000419
 21
-0.6928203230275269
 31
0.0
210
0.0
220
0.0
230
1.0
 40
0.5773502691896257
 41
0.0
 42
2.094395102375107
  0
LINE
  5
11408
330
1130B
100
AcDbEntity
  8
0
100
AcDbLine
 10
20.6576096084518
 20
-133.4853385126182
 30
0.0
 11
18.49254609903009
 21
-132.23533851255
 31
0.0
  0
ELLIPSE
  5
11409
330
1130B
100
AcDbEntity
  8
0
100
AcDbEllipse
 10
18.89254609903737
 20
-131.5425181895266
 30
0.0
 11
-0.4000000000072806
 21
-0.6928203230233492
 31
0.0
210
0.0
220
0.0
230
1.0
 40
0.5773502691896257
 41
4.18879020482279
 42
6.283185307252368
  0
LINE
  5
1140A
330
1130B
100
AcDbEntity
  8
0
100
AcDbLine
 10
18.74613593753353
 20
-130.996108028004
 30
0.0
 11
21.70366769227851
 21
-128.3735127638662
 31
0.0
  0
ELLIPSE
  5
1140B
330
1130B
100
AcDbEntity
  8
0
100
AcDbEllipse
 10
21.85007785378234
 20
-128.9199229253888
 30
0.0
 11
0.4000000000000012
 21
0.6928203230275522
 31
0.0
210
0.0
220
0.0
230
1.0
 40
0.5773502691896258
 41
0.0802385882704835
 42
1.047197551178413
  0
LINE
  5
1140C
330
1130B
100
AcDbEntity
  8
0
100
AcDbLine
 10
22.21672989151657
 20
-128.2108212438125
 30
0.0
 11
22.41398260166669
 21
-128.6461395641901
 31
0.0
  0
ELLIPSE
  5
1140D
330
1130B
100
AcDbEntity
  8
0
100
AcDbEllipse
 10
19.99694943667929
 20
-132.1801457538991
 30
0.0
 11
-0.4000000000072799
 21
-0.6928203230233481
 31
0.0
210
0.0
220
0.0
230
1.0
 40
0.5773502691896257
 41
0.0000000000727906
 42
2.094395102429601
  0
LINE
  5
1140E
330
1130B
100
AcDbEntity
  8
0
100
AcDbLine
 10
20.54335959819038
 20
-132.0337355923983
 30
0.0
 11
21.60401976997019
 21
-132.6461080280941
 31
0.0
  0
LINE
  5
1140F
330
1130B
100
AcDbEntity
  8
0
100
AcDbLine
 10
20.54335959819038
 20
-132.0337355923983
 30
0.0
 11
21.20118911434103
 21
-128.819086319151
 31
0.0
  0
LINE
  5
11410
330
1130B
100
AcDbEntity
  8
0
100
AcDbLine
 10
21.70366769226589
 20
-128.373512763888
 30
0.0
 11
22.39648801529345
 21
-128.7735127638881
 31
0.0
  0
LINE
  5
11411
330
1130B
100
AcDbEntity
  8
0
100
AcDbLine
 10
21.80522882577172
 20
-128.294675407807
 30
0.0
 11
22.41398260166669
 21
-128.6461395641901
 31
0.0
  0
ELLIPSE
  5
11412
330
1130B
100
AcDbEntity
  8
0
100
AcDbEllipse
 10
7.039417681797828
 20
-146.3497464017507
 30
0.0
 11
1.24999999999987
 21
2.165063509461171
 31
0.0
210
0.0
220
0.0
230
1.0
 40
0.5773502691896258
 41
3.579741684173534
 42
5.845036276595007
  0
LINE
  5
11413
330
1130B
100
AcDbEntity
  8
0
100
AcDbLine
 10
-44.83978498561234
 20
-93.88061428001931
 30
0.0
 11
-58.33978498501949
 21
-117.263300180505
 31
0.0
  0
LINE
  5
11414
330
1130B
100
AcDbEntity
  8
0
100
AcDbLine
 10
-43.77912481383216
 20
-94.49298671571531
 30
0.0
 11
-57.27912481323968
 21
-117.8756726162008
 31
0.0
  0
ELLIPSE
  5
11415
330
1130B
100
AcDbEntity
  8
0
100
AcDbEllipse
 10
-53.08978498495125
 20
-117.4076377478418
 30
0.0
 11
1.24999999999987
 21
2.165063509461171
 31
0.0
210
0.0
220
0.0
230
1.0
 40
0.5773502691896257
 41
3.579741684173539
 42
5.845036276595005
  0
ELLIPSE
  5
11416
330
1130B
100
AcDbEntity
  8
0
100
AcDbEllipse
 10
-40.13225323006979
 20
-103.2380370999902
 30
0.0
 11
-0.4000000000072799
 21
-0.6928203230233481
 31
0.0
210
0.0
220
0.0
230
1.0
 40
0.5773502691896257
 41
0.0000000000727781
 42
2.094395102429603
  0
LINE
  5
11417
330
1130B
100
AcDbEntity
  8
0
100
AcDbLine
 10
-39.5858430685587
 20
-103.0916269384895
 30
0.0
 11
-38.92801355240806
 21
-99.8769776652422
 31
0.0
  0
LINE
  5
11418
330
1130B
100
AcDbEntity
  8
0
100
AcDbLine
 10
-38.5251828967789
 20
-103.7039993741853
 30
0.0
 11
-39.5858430685587
 21
-103.0916269384895
 31
0.0
  0
LINE
  5
11419
330
1130B
100
AcDbEntity
  8
0
100
AcDbLine
 10
-37.73271465145563
 20
-99.8314041099792
 30
0.0
 11
-38.5251828967789
 21
-103.7039993741853
 31
0.0
  0
LINE
  5
1141A
330
1130B
100
AcDbEntity
  8
0
100
AcDbLine
 10
-37.73271465145563
 20
-99.8314041099792
 30
0.0
 11
-38.42553497449046
 21
-99.431404109975
 31
0.0
  0
ELLIPSE
  5
1141B
330
1130B
100
AcDbEntity
  8
0
100
AcDbEllipse
 10
-38.27912481296674
 20
-99.97781427147996
 30
0.0
 11
0.4000000000000006
 21
0.6928203230275525
 31
0.0
210
0.0
220
0.0
230
1.0
 40
0.5773502691896255
 41
5.235987755964771
 42
7.330382858357999
  0
LINE
  5
1141C
330
1130B
100
AcDbEntity
  8
0
100
AcDbLine
 10
-41.38306672921554
 20
-102.0539993740952
 30
0.0
 11
-38.42553497447057
 21
-99.43140410995738
 31
0.0
  0
ELLIPSE
  5
1141D
330
1130B
100
AcDbEntity
  8
0
100
AcDbEllipse
 10
-41.23665656771172
 20
-102.6004095356178
 30
0.0
 11
-0.4000000000072796
 21
-0.6928203230233496
 31
0.0
210
0.0
220
0.0
230
1.0
 40
0.5773502691896257
 41
4.188790204822792
 42
6.283185307252342
  0
LINE
  5
1141E
330
1130B
100
AcDbEntity
  8
0
100
AcDbLine
 10
-39.47159305829727
 20
-104.5432298587094
 30
0.0
 11
-41.63665656771899
 21
-103.2932298586411
 31
0.0
  0
ELLIPSE
  5
1141F
330
1130B
100
AcDbEntity
  8
0
100
AcDbEllipse
 10
-39.07159305829
 20
-103.850409535686
 30
0.0
 11
-0.4000000000000412
 21
-0.6928203230275269
 31
0.0
210
0.0
220
0.0
230
0.9999999999999998
 40
0.5773502691896258
 41
0.0
 42
2.094395102375107
  0
ELLIPSE
  5
11420
330
1130B
100
AcDbEntity
  8
0
100
AcDbEllipse
 10
-52.02912481317145
 20
-118.0200101835376
 30
0.0
 11
1.250000000000129
 21
2.165063509461022
 31
0.0
210
0.0
220
0.0
230
1.0
 40
0.5773502691896258
 41
0.0
 42
6.283185307179586
  0
LINE
  5
11421
330
1130B
100
AcDbEntity
  8
0
100
AcDbLine
 10
-0.7913154647930698
 20
-69.51313532510976
 30
0.0
 11
-38.35486074468323
 21
-134.5751042622936
 31
0.0
  0
LINE
  5
11422
330
1130B
100
AcDbEntity
  8
0
100
AcDbLine
 10
-39.0791248133952
 20
-134.1569502072584
 30
0.0
 11
-38.35486074468325
 21
-134.5751042622936
 31
0.0
  0
LINE
  5
11423
330
1130B
100
AcDbEntity
  8
0
100
AcDbLine
 10
-39.07912481339514
 20
-134.1569502072584
 30
0.0
 11
-2.379124814183053
 21
-70.59068557084524
 31
0.0
  0
ENDBLK
  5
1130D
330
1130B
100
AcDbEntity
  8
0
100
AcDbBlockEnd
  0
ENDSEC
  0
SECTION
  2
ENTITIES
  0
INSERT
  5
11424
330
1F
100
AcDbEntity
  8
0
100
AcDbBlockReference
  2
SPR80_300-Front
 10
0.0
 20
0.0
 30
0.0
  0
INSERT
  5
11425
330
1F
100
AcDbEntity
  8
0
100
AcDbBlockReference
  2
SPR80_300-Left
 10
189.4229986469887
 20
0.0
 30
0.0
  0
INSERT
  5
11426
330
1F
100
AcDbEntity
  8
0
100
AcDbBlockReference
  2
SPR80_300-Right
 10
-189.4229986469887
 20
0.0
 30
0.0
  0
INSERT
  5
11427
330
1F
100
AcDbEntity
  8
0
100
AcDbBlockReference
  2
SPR80_300-Top
 10
0.0
 20
-162.545601705951
 30
0.0
  0
INSERT
  5
11428
330
1F
100
AcDbEntity
  8
0
100
AcDbBlockReference
  2
SPR80_300-Bottom
 10
0.0
 20
407.5659080859887
 30
0.0
  0
INSERT
  5
11429
330
1F
100
AcDbEntity
  8
0
100
AcDbBlockReference
  2
SPR80_300-ISO
 10
247.7627836320082
 20
-341.1900293922909
 30
0.0
  0
MTEXT
  5
1142A
330
1F
100
AcDbEntity
  8
0
100
AcDbMText
 10
0.0
 20
-351.4445760657997
 30
0.0
 40
29.14199979184442
 41
0.0
 71
     5
 72
     5
  1
SPR80/300
 73
     1
 44
1.0
1001
ACAD
1000
MTEXTBEGIN
1070
    73
1070
     1
1070
    44
1040
1.0
1070
    74
1070
     0
1000
MTEXTEND
  0
ENDSEC
  0
SECTION
  2
OBJECTS
  0
DICTIONARY
  5
C
330
0
100
AcDbDictionary
281
     1
  3
ACAD_CIP_PREVIOUS_PRODUCT_INFO
350
216
  3
ACAD_COLOR
350
6B
  3
ACAD_DETAILVIEWSTYLE
350
21B
  3
ACAD_GROUP
350
D
  3
ACAD_LAYOUT
350
1A
  3
ACAD_MATERIAL
350
6A
  3
ACAD_MLEADERSTYLE
350
12D
  3
ACAD_MLINESTYLE
350
17
  3
ACAD_PLOTSETTINGS
350
19
  3
ACAD_PLOTSTYLENAME
350
E
  3
ACAD_SCALELIST
350
10C
  3
ACAD_SECTIONVIEWSTYLE
350
219
  3
ACAD_TABLESTYLE
350
7E
  3
ACAD_VISUALSTYLE
350
EF
  3
ACDB_RECOMPOSE_DATA
350
1152B
  3
AcDbVariableDictionary
350
5E
  3
DWGPROPS
350
1152C
  0
DICTIONARY
  5
1147B
330
8
100
AcDbDictionary
280
     1
281
     1
  0
DICTIONARY
  5
1FF
330
2
100
AcDbDictionary
280
     1
281
     1
  3
ACAD_LAYERSTATES
360
200
  0
DICTIONARY
  5
13C
330
10
100
AcDbDictionary
280
     1
281
     1
  0
DICTIONARY
  5
1CE
330
1F
100
AcDbDictionary
280
     1
281
     1
  3
ACAD_LAYOUTSELFREF
360
11483
  0
DICTIONARY
  5
1142E
330
D2
100
AcDbDictionary
280
     1
281
     1
  3
ACAD_LAYOUTSELFREF
360
1148C
  0
DICTIONARY
  5
11430
330
D6
100
AcDbDictionary
280
     1
281
     1
  3
ACAD_LAYOUTSELFREF
360
1148F
  0
XRECORD
  5
216
102
{ACAD_REACTORS
330
C
102
}
330
C
100
AcDbXrecord
280
     1
300
ACD
300
2021
300
87393ACD_2021_0F
  0
DICTIONARY
  5
6B
102
{ACAD_REACTORS
330
C
102
}
330
C
100
AcDbDictionary
281
     1
  0
DICTIONARY
  5
21B
102
{ACAD_REACTORS
330
C
102
}
330
C
100
AcDbDictionary
281
     1
  3
Metric50
350
21C
  0
DICTIONARY
  5
D
102
{ACAD_REACTORS
330
C
102
}
330
C
100
AcDbDictionary
281
     1
  0
DICTIONARY
  5
1A
102
{ACAD_REACTORS
330
C
102
}
330
C
100
AcDbDictionary
281
     1
  3
Layout1
350
D3
  3
Layout2
350
D7
  3
Model
350
22
  0
DICTIONARY
  5
6A
102
{ACAD_REACTORS
330
C
102
}
330
C
100
AcDbDictionary
281
     1
  3
ByBlock
350
ED
  3
ByLayer
350
EC
  3
Global
350
EE
  0
DICTIONARY
  5
12D
102
{ACAD_REACTORS
330
C
102
}
330
C
100
AcDbDictionary
281
     1
  3
Standard
350
12E
  0
DICTIONARY
  5
17
102
{ACAD_REACTORS
330
C
102
}
330
C
100
AcDbDictionary
281
     1
  3
Standard
350
18
  0
DICTIONARY
  5
19
102
{ACAD_REACTORS
330
C
102
}
330
C
100
AcDbDictionary
281
     1
  0
ACDBDICTIONARYWDFLT
  5
E
102
{ACAD_REACTORS
330
C
102
}
330
C
100
AcDbDictionary
281
     1
  3
Normal
350
F
100
AcDbDictionaryWithDefault
340
F
  0
DICTIONARY
  5
10C
102
{ACAD_REACTORS
330
C
102
}
330
C
100
AcDbDictionary
281
     1
  3
A0
350
10D
  3
A1
350
1BE
  3
A2
350
1BF
  3
A3
350
1C0
  3
A4
350
1C1
  3
A5
350
1C2
  3
A6
350
1C3
  3
A7
350
1C4
  3
A8
350
1C5
  3
A9
350
1C6
  3
B0
350
1C7
  3
B1
350
1C8
  3
B2
350
1C9
  3
B3
350
1CA
  3
B4
350
1CB
  3
B5
350
1CC
  3
B6
350
1CD
  0
DICTIONARY
  5
219
102
{ACAD_REACTORS
330
C
102
}
330
C
100
AcDbDictionary
281
     1
  3
Metric50
350
21A
  0
DICTIONARY
  5
7E
102
{ACAD_REACTORS
330
C
102
}
330
C
100
AcDbDictionary
281
     1
  3
Standard
350
7F
  0
DICTIONARY
  5
EF
102
{ACAD_REACTORS
330
C
102
}
330
C
100
AcDbDictionary
281
     1
  3
2dWireframe
350
F5
  3
Basic
350
F4
  3
Brighten
350
FB
  3
ColorChange
350
FF
  3
Conceptual
350
F8
  3
Dim
350
FA
  3
EdgeColorOff
350
1E6
  3
Facepattern
350
FE
  3
Flat
350
F0
  3
FlatWithEdges
350
F1
  3
Gouraud
350
F2
  3
GouraudWithEdges
350
F3
  3
Hidden
350
F7
  3
JitterOff
350
1E4
  3
Linepattern
350
FD
  3
OverhangOff
350
1E5
  3
Realistic
350
F9
  3
Shaded
350
1F3
  3
Shaded with edges
350
1F2
  3
Shades of Gray
350
1EF
  3
Sketchy
350
1F0
  3
Thicken
350
FC
  3
Wireframe
350
F6
  3
X-Ray
350
1F1
  0
XRECORD
  5
1152B
102
{ACAD_REACTORS
330
C
102
}
330
C
100
AcDbXrecord
280
     1
 90
        1
330
7F
  0
DICTIONARY
  5
5E
102
{ACAD_REACTORS
330
C
102
}
330
C
100
AcDbDictionary
281
     1
  3
CANNOSCALE
350
146
  3
CENTEREXE
350
259
  3
CENTERLTYPEFILE
350
25A
  3
CMLEADERSTYLE
350
145
  3
CTABLESTYLE
350
84
  3
CVIEWDETAILSTYLE
350
227
  3
CVIEWSECTIONSTYLE
350
228
  3
DIMASSOC
350
5F
  3
HIDETEXT
350
63
  3
INDEXCTL
350
114D8
  3
LAYEREVAL
350
1AE
  3
LAYERNOTIFY
350
1AF
  3
LIGHTINGUNITS
350
114D6
  3
MSLTSCALE
350
114D5
  3
PSOLHEIGHT
350
11528
  3
PSOLWIDTH
350
11527
  3
SORTENTS
350
114D7
  3
XCLIPFRAME
350
11529
  0
XRECORD
  5
1152C
102
{ACAD_REACTORS
330
C
102
}
330
C
100
AcDbXrecord
280
     1
  1
DWGPROPS COOKIE
  2

  3

  4

  6

  7

  8
truole
  9

300
=
301
=
302
=
303
=
304
=
305
=
306
=
307
=
308
=
309
=
 40
0.0026967592592593
 41
2460719.40650463
 42
2460719.415787037
  1

 90
        0
  0
DICTIONARY
  5
200
102
{ACAD_REACTORS
330
1FF
102
}
330
1FF
100
AcDbDictionary
281
     1
  0
XRECORD
  5
11483
102
{ACAD_REACTORS
330
1CE
102
}
330
1CE
100
AcDbXrecord
280
     1
340
1F
  0
XRECORD
  5
1148C
102
{ACAD_REACTORS
330
1142E
102
}
330
1142E
100
AcDbXrecord
280
     1
340
D2
  0
XRECORD
  5
1148F
102
{ACAD_REACTORS
330
11430
102
}
330
11430
100
AcDbXrecord
280
     1
340
D6
  0
ACDBDETAILVIEWSTYLE
  5
21C
102
{ACAD_XDICTIONARY
360
1156B
102
}
102
{ACAD_REACTORS
330
21B
102
}
330
21B
100
AcDbModelDocViewStyle
 70
     0
  3
Metric50
290
     0
100
AcDbDetailViewStyle
 70
     0
 71
     0
 90
        3
 71
     1
340
11
 40
5.0
340
0
 40
5.0
300

 40
0.0
280
     1
 71
     2
340
16
 90
       25
 71
     3
340
11
 40
5.0
 90
        0
 40
15.0
 90
        1
300
%<\AcVar ViewDetailId>% (%<\AcVar ViewScale \f "%sn">%)
 71
     4
340
16
 90
       25
340
16
 90
       25
280
     0
  0
LAYOUT
  5
D3
102
{ACAD_XDICTIONARY
360
11530
102
}
102
{ACAD_REACTORS
330
1A
102
}
330
1A
100
AcDbPlotSettings
  1

  2
C:\Documents and Settings\basas\Application Data\Autodesk\AutoCAD 2005\R16.1\enu\plotters\Default Windows System Printer.pc3
  4

  6

 40
0.0
 41
0.0
 42
0.0
 43
0.0
 44
0.0
 45
0.0
 46
0.0
 47
0.0
 48
0.0
 49
0.0
140
0.0
141
0.0
142
1.0
143
1.0
 70
   688
 72
     0
 73
     0
 74
     5
  7

 75
    16
147
1.0
148
0.0
149
0.0
100
AcDbLayout
  1
Layout1
 70
     1
 71
     1
 10
0.0
 20
0.0
 11
12.0
 21
9.0
 12
0.0
 22
0.0
 32
0.0
 14
0.0
 24
0.0
 34
0.0
 15
0.0
 25
0.0
 35
0.0
146
0.0
 13
0.0
 23
0.0
 33
0.0
 16
1.0
 26
0.0
 36
0.0
 17
0.0
 27
1.0
 37
0.0
 76
     0
330
D2
  0
LAYOUT
  5
D7
102
{ACAD_XDICTIONARY
360
11532
102
}
102
{ACAD_REACTORS
330
1A
102
}
330
1A
100
AcDbPlotSettings
  1

  2
C:\Documents and Settings\basas\Application Data\Autodesk\AutoCAD 2005\R16.1\enu\plotters\Default Windows System Printer.pc3
  4

  6

 40
0.0
 41
0.0
 42
0.0
 43
0.0
 44
0.0
 45
0.0
 46
0.0
 47
0.0
 48
0.0
 49
0.0
140
0.0
141
0.0
142
1.0
143
1.0
 70
   688
 72
     0
 73
     0
 74
     5
  7

 75
    16
147
1.0
148
0.0
149
0.0
100
AcDbLayout
  1
Layout2
 70
     1
 71
     2
 10
0.0
 20
0.0
 11
12.0
 21
9.0
 12
0.0
 22
0.0
 32
0.0
 14
0.0
 24
0.0
 34
0.0
 15
0.0
 25
0.0
 35
0.0
146
0.0
 13
0.0
 23
0.0
 33
0.0
 16
1.0
 26
0.0
 36
0.0
 17
0.0
 27
1.0
 37
0.0
 76
     0
330
D6
  0
LAYOUT
  5
22
102
{ACAD_XDICTIONARY
360
1152D
102
}
102
{ACAD_REACTORS
330
1A
102
}
330
1A
100
AcDbPlotSettings
  1

  2
none_device
  4
ISO_A4_(210.00_x_297.00_MM)
  6

 40
7.5
 41
20.0
 42
7.5
 43
20.0
 44
210.0
 45
297.0
 46
11.54999923706054
 47
-13.65000009536743
 48
0.0
 49
0.0
140
0.0
141
0.0
142
1.0
143
8.704084754739808
 70
 11952
 72
     1
 73
     0
 74
     0
  7

 75
     0
147
0.1148885871608098
148
0.0
149
0.0
100
AcDbLayout
  1
Model
 70
     1
 71
     0
 10
0.0
 20
0.0
 11
12.0
 21
9.0
 12
0.0
 22
0.0
 32
0.0
 14
0.0
 24
0.0
 34
0.0
 15
0.0
 25
0.0
 35
0.0
146
0.0
 13
0.0
 23
0.0
 33
0.0
 16
1.0
 26
0.0
 36
0.0
 17
0.0
 27
1.0
 37
0.0
 76
     0
330
1F
331
EA
1001
ACAD_PSEXT
1000
None
1000
None
1000
Not applicable
1000
The layout will not be plotted unless a new plotter configuration name is selected.
1070
     0
  0
MATERIAL
  5
ED
102
{ACAD_XDICTIONARY
360
1F9
102
}
102
{ACAD_REACTORS
330
6A
102
}
330
6A
100
AcDbMaterial
  1
ByBlock
  0
MATERIAL
  5
EC
102
{ACAD_XDICTIONARY
360
1F7
102
}
102
{ACAD_REACTORS
330
6A
102
}
330
6A
100
AcDbMaterial
  1
ByLayer
  0
MATERIAL
  5
EE
102
{ACAD_XDICTIONARY
360
173
102
}
102
{ACAD_REACTORS
330
6A
102
}
330
6A
100
AcDbMaterial
  1
Global
 43
0.0007999999797903
 43
0.0
 43
0.0
 43
0.0
 43
0.0
 43
0.0007999999797903
 43
0.0
 43
0.0
 43
0.0
 43
0.0
 43
1.0
 43
0.0
 43
0.0
 43
0.0
 43
0.0
 43
1.0
 49
0.0007999999797903
 49
0.0
 49
0.0
 49
0.0
 49
0.0
 49
0.0007999999797903
 49
0.0
 49
0.0
 49
0.0
 49
0.0
 49
1.0
 49
0.0
 49
0.0
 49
0.0
 49
0.0
 49
1.0
142
0.0007999999797903
142
0.0
142
0.0
142
0.0
142
0.0
142
0.0007999999797903
142
0.0
142
0.0
142
0.0
142
0.0
142
1.0
142
0.0
142
0.0
142
0.0
142
0.0
142
1.0
144
0.0007999999797903
144
0.0
144
0.0
144
0.0
144
0.0
144
0.0007999999797903
144
0.0
144
0.0
144
0.0
144
0.0
144
1.0
144
0.0
144
0.0
144
0.0
144
0.0
144
1.0
1001
ACAD
1070
    -1
1070
     3
1070
     0
1000

1071
        0
1070
     0
  0
MLEADERSTYLE
  5
12E
102
{ACAD_XDICTIONARY
360
11557
102
}
102
{ACAD_REACTORS
330
12D
102
}
330
12D
100
AcDbMLeaderStyle
170
     2
171
     1
172
     0
 90
        2
 40
0.0
 41
0.0
173
     1
 91
-1056964608
340
14
 92
       -2
290
     1
 42
2.0
291
     1
 43
8.0
  3
Standard
 44
4.0
300

342
11
174
     1
178
     1
175
     1
176
     0
 93
-1056964608
 45
4.0
292
     0
297
     0
 46
4.0
 94
-1056964608
 47
1.0
 49
1.0
140
1.0
293
     1
141
0.0
294
     1
177
     0
142
1.0
295
     0
296
     0
143
3.75
1001
ACAD_MLEADERVER
1070
     2
  0
MLINESTYLE
  5
18
102
{ACAD_REACTORS
330
17
102
}
330
17
100
AcDbMlineStyle
  2
STANDARD
 70
     0
  3

 62
   256
 51
90.0
 52
90.0
 71
     2
 49
0.5
 62
   256
  6
BYLAYER
 49
-0.5
 62
   256
  6
BYLAYER
  0
ACDBPLACEHOLDER
  5
F
102
{ACAD_REACTORS
330
E
102
}
330
E
  0
SCALE
  5
10D
102
{ACAD_REACTORS
330
10C
102
}
330
10C
100
AcDbScale
 70
     0
300
1:1
140
1.0
141
1.0
290
     1
  0
SCALE
  5
1BE
102
{ACAD_REACTORS
330
10C
102
}
330
10C
100
AcDbScale
 70
     0
300
1:2
140
1.0
141
2.0
290
     0
  0
SCALE
  5
1BF
102
{ACAD_REACTORS
330
10C
102
}
330
10C
100
AcDbScale
 70
     0
300
1:4
140
1.0
141
4.0
290
     0
  0
SCALE
  5
1C0
102
{ACAD_REACTORS
330
10C
102
}
330
10C
100
AcDbScale
 70
     0
300
1:5
140
1.0
141
5.0
290
     0
  0
SCALE
  5
1C1
102
{ACAD_REACTORS
330
10C
102
}
330
10C
100
AcDbScale
 70
     0
300
1:8
140
1.0
141
8.0
290
     0
  0
SCALE
  5
1C2
102
{ACAD_REACTORS
330
10C
102
}
330
10C
100
AcDbScale
 70
     0
300
1:10
140
1.0
141
10.0
290
     0
  0
SCALE
  5
1C3
102
{ACAD_REACTORS
330
10C
102
}
330
10C
100
AcDbScale
 70
     0
300
1:16
140
1.0
141
16.0
290
     0
  0
SCALE
  5
1C4
102
{ACAD_REACTORS
330
10C
102
}
330
10C
100
AcDbScale
 70
     0
300
1:20
140
1.0
141
20.0
290
     0
  0
SCALE
  5
1C5
102
{ACAD_REACTORS
330
10C
102
}
330
10C
100
AcDbScale
 70
     0
300
1:30
140
1.0
141
30.0
290
     0
  0
SCALE
  5
1C6
102
{ACAD_REACTORS
330
10C
102
}
330
10C
100
AcDbScale
 70
     0
300
1:40
140
1.0
141
40.0
290
     0
  0
SCALE
  5
1C7
102
{ACAD_REACTORS
330
10C
102
}
330
10C
100
AcDbScale
 70
     0
300
1:50
140
1.0
141
50.0
290
     0
  0
SCALE
  5
1C8
102
{ACAD_REACTORS
330
10C
102
}
330
10C
100
AcDbScale
 70
     0
300
1:100
140
1.0
141
100.0
290
     0
  0
SCALE
  5
1C9
102
{ACAD_REACTORS
330
10C
102
}
330
10C
100
AcDbScale
 70
     0
300
2:1
140
2.0
141
1.0
290
     0
  0
SCALE
  5
1CA
102
{ACAD_REACTORS
330
10C
102
}
330
10C
100
AcDbScale
 70
     0
300
4:1
140
4.0
141
1.0
290
     0
  0
SCALE
  5
1CB
102
{ACAD_REACTORS
330
10C
102
}
330
10C
100
AcDbScale
 70
     0
300
8:1
140
8.0
141
1.0
290
     0
  0
SCALE
  5
1CC
102
{ACAD_REACTORS
330
10C
102
}
330
10C
100
AcDbScale
 70
     0
300
10:1
140
10.0
141
1.0
290
     0
  0
SCALE
  5
1CD
102
{ACAD_REACTORS
330
10C
102
}
330
10C
100
AcDbScale
 70
     0
300
100:1
140
100.0
141
1.0
290
     0
  0
ACDBSECTIONVIEWSTYLE
  5
21A
102
{ACAD_XDICTIONARY
360
11569
102
}
102
{ACAD_REACTORS
330
219
102
}
330
219
100
AcDbModelDocViewStyle
 70
     0
  3
Metric50
290
     0
100
AcDbSectionViewStyle
 70
     0
 71
     0
 90
      102
 71
     1
340
11
 40
5.0
340
0
340
0
 40
5.0
300
I, O, Q, S, X, Z
 40
10.0
 90
        0
 40
2.5
 90
        0
 71
     2
340
16
 90
       25
340
16
 90
       50
 40
5.0
 40
2.5
 40
5.0
 71
     3
340
11
 40
5.0
 90
        0
 40
15.0
 90
        1
300
%<\AcVar ViewSectionStartId>%-%<\AcVar ViewSectionEndId>% (%<\AcVar ViewScale \f "%sn">%)
 71
     4
300
ANSI31
 40
1.0
 90
        0
290
     0
290
     0
 90
        6
 40
0.0
 40
1.570796326794896
 40
0.2617993877991494
 40
1.308996938995747
 40
-0.2617993877991494
 40
1.832595714594046
  0
TABLESTYLE
  5
7F
102
{ACAD_XDICTIONARY
360
162
102
}
102
{ACAD_REACTORS
330
7E
102
}
330
7E
100
AcDbTableStyle
  3
Standard
 70
     0
 71
     0
 40
1.5
 41
1.5
280
     0
281
     0
  7
Standard
140
4.5
170
     2
 62
     0
 63
     7
283
     0
274
    -2
284
     1
 64
     0
275
    -2
285
     1
 65
     0
276
    -2
286
     1
 66
     0
277
    -2
287
     1
 67
     0
278
    -2
288
     1
 68
     0
279
    -2
289
     1
 69
     0
  7
Standard
140
6.0
170
     5
 62
     0
 63
     7
283
     0
274
    -2
284
     1
 64
     0
275
    -2
285
     1
 65
     0
276
    -2
286
     1
 66
     0
277
    -2
287
     1
 67
     0
278
    -2
288
     1
 68
     0
279
    -2
289
     1
 69
     0
  7
Standard
140
4.5
170
     5
 62
     0
 63
     7
283
     0
274
    -2
284
     1
 64
     0
275
    -2
285
     1
 65
     0
276
    -2
286
     1
 66
     0
277
    -2
287
     1
 67
     0
278
    -2
288
     1
 68
     0
279
    -2
289
     1
 69
     0
  0
VISUALSTYLE
  5
F5
102
{ACAD_XDICTIONARY
360
11541
102
}
102
{ACAD_REACTORS
330
EF
102
}
330
EF
100
AcDbVisualStyle
  2
2dWireframe
 70
     4
 71
     0
 72
     2
 73
     1
 90
        0
 40
-0.6
 41
-30.0
 62
     5
 63
     7
 74
     1
 91
        4
 64
     7
 65
   257
 75
     1
175
     1
 42
1.0
 92
        0
 66
   257
 43
1.0
 76
     1
 77
     6
 78
     2
 67
     7
 79
     5
170
     0
171
     0
290
     0
174
     0
 93
        1
 44
0.0
173
     0
291
     0
 45
0.0
1001
ACAD
1000
AcDbSavedByObjectVersion
1070
     0
  0
VISUALSTYLE
  5
F4
102
{ACAD_XDICTIONARY
360
1153F
102
}
102
{ACAD_REACTORS
330
EF
102
}
330
EF
100
AcDbVisualStyle
  2
Basic
 70
     7
 71
     1
 72
     0
 73
     1
 90
        0
 40
-0.6
 41
-30.0
 62
     5
 63
     7
 74
     0
 91
        4
 64
     7
 65
   257
 75
     1
175
     1
 42
1.0
 92
        8
 66
     7
 43
1.0
 76
     1
 77
     6
 78
     2
 67
     7
 79
     5
170
     0
171
     0
290
     0
174
     0
 93
        1
 44
0.0
173
     0
291
     1
 45
0.0
1001
ACAD
1000
AcDbSavedByObjectVersion
1070
     0
  0
VISUALSTYLE
  5
FB
102
{ACAD_XDICTIONARY
360
1154D
102
}
102
{ACAD_REACTORS
330
EF
102
}
330
EF
100
AcDbVisualStyle
  2
Brighten
 70
    12
 71
     2
 72
     2
 73
     1
 90
        0
 40
-0.6
 41
-30.0
 62
     5
 63
     7
 74
     1
 91
        4
 64
     7
 65
   257
 75
     1
175
     1
 42
1.0
 92
        8
 66
     7
 43
1.0
 76
     1
 77
     6
 78
     2
 67
     7
 79
     5
170
     0
171
     0
290
     0
174
     0
 93
        1
 44
50.0
173
     0
291
     1
 45
0.0
1001
ACAD
1000
AcDbSavedByObjectVersion
1070
     0
  0
VISUALSTYLE
  5
FF
102
{ACAD_XDICTIONARY
360
11555
102
}
102
{ACAD_REACTORS
330
EF
102
}
330
EF
100
AcDbVisualStyle
  2
ColorChange
 70
    16
 71
     2
 72
     2
 73
     3
 90
        0
 40
-0.6
 41
-30.0
 62
     5
 63
     8
 74
     1
 91
        4
 64
     7
 65
   257
 75
     1
175
     1
 42
1.0
 92
        8
 66
     8
 43
1.0
 76
     1
 77
     6
 78
     2
 67
     7
 79
     5
170
     0
171
     0
290
     0
174
     0
 93
        1
 44
0.0
173
     0
291
     1
 45
0.0
1001
ACAD
1000
AcDbSavedByObjectVersion
1070
     0
  0
VISUALSTYLE
  5
F8
102
{ACAD_XDICTIONARY
360
11547
102
}
102
{ACAD_REACTORS
330
EF
102
}
330
EF
100
AcDbVisualStyle
  2
Conceptual
 70
     9
 71
     3
 72
     2
 73
     1
 90
        0
 40
-0.6
 41
-30.0
 62
     5
 63
     7
 74
     2
 91
        2
 64
     7
 65
   257
 75
     1
175
     1
 42
40.0
 92
        8
 66
     7
 43
1.0
 76
     1
 77
     6
 78
     2
 67
     7
 79
     3
170
     0
171
     0
290
     0
174
     0
 93
        1
 44
0.0
173
     0
291
     0
 45
0.0
1001
ACAD
1000
AcDbSavedByObjectVersion
1070
     0
  0
VISUALSTYLE
  5
FA
102
{ACAD_XDICTIONARY
360
1154B
102
}
102
{ACAD_REACTORS
330
EF
102
}
330
EF
100
AcDbVisualStyle
  2
Dim
 70
    11
 71
     2
 72
     2
 73
     1
 90
        0
 40
-0.6
 41
-30.0
 62
     5
 63
     7
 74
     1
 91
        4
 64
     7
 65
   257
 75
     1
175
     1
 42
1.0
 92
        8
 66
     7
 43
1.0
 76
     1
 77
     6
 78
     2
 67
     7
 79
     5
170
     0
171
     0
290
     0
174
     0
 93
        1
 44
-50.0
173
     0
291
     1
 45
0.0
1001
ACAD
1000
AcDbSavedByObjectVersion
1070
     0
  0
VISUALSTYLE
  5
1E6
102
{ACAD_XDICTIONARY
360
1155D
102
}
102
{ACAD_REACTORS
330
EF
102
}
330
EF
100
AcDbVisualStyle
  2
EdgeColorOff
 70
    22
 71
     2
 72
     2
 73
     0
 90
        0
 40
-0.6
 41
-30.0
 62
     5
 63
     7
 74
     1
 91
        4
 64
     7
 65
   257
 75
     1
175
     1
 42
1.0
 92
        8
 66
     7
 43
1.0
 76
     1
 77
     6
 78
     2
 67
     7
 79
     5
170
     0
171
     0
290
     0
174
     0
 93
        1
 44
0.0
173
     0
291
     1
 45
0.0
1001
ACAD
1000
AcDbSavedByObjectVersion
1070
     0
  0
VISUALSTYLE
  5
FE
102
{ACAD_XDICTIONARY
360
11553
102
}
102
{ACAD_REACTORS
330
EF
102
}
330
EF
100
AcDbVisualStyle
  2
Facepattern
 70
    15
 71
     2
 72
     2
 73
     1
 90
        0
 40
-0.6
 41
-30.0
 62
     5
 63
     7
 74
     1
 91
        4
 64
     7
 65
   257
 75
     1
175
     1
 42
1.0
 92
        8
 66
     7
 43
1.0
 76
     1
 77
     6
 78
     2
 67
     7
 79
     5
170
     0
171
     0
290
     0
174
     0
 93
        1
 44
0.0
173
     0
291
     1
 45
0.0
1001
ACAD
1000
AcDbSavedByObjectVersion
1070
     0
  0
VISUALSTYLE
  5
F0
102
{ACAD_XDICTIONARY
360
11537
102
}
102
{ACAD_REACTORS
330
EF
102
}
330
EF
100
AcDbVisualStyle
  2
Flat
 70
     0
 71
     2
 72
     1
 73
     1
 90
        2
 40
-0.6
 41
30.0
 62
     5
 63
     7
 74
     0
 91
        0
 64
     7
 65
   257
 75
     1
175
     1
 42
1.0
 92
        8
 66
     7
 43
1.0
 76
     1
 77
     6
 78
     2
 67
     7
 79
     5
170
     0
171
     0
290
     0
174
     0
 93
       13
 44
0.0
173
     0
291
     1
 45
0.0
1001
ACAD
1000
AcDbSavedByObjectVersion
1070
     0
  0
VISUALSTYLE
  5
F1
102
{ACAD_XDICTIONARY
360
11539
102
}
102
{ACAD_REACTORS
330
EF
102
}
330
EF
100
AcDbVisualStyle
  2
FlatWithEdges
 70
     1
 71
     2
 72
     1
 73
     1
 90
        2
 40
-0.6
 41
30.0
 62
     5
 63
     7
 74
     1
 91
        0
 64
     7
 65
   257
 75
     1
175
     1
 42
1.0
 92
        0
 66
   257
 43
1.0
 76
     1
 77
     6
 78
     2
 67
     7
 79
     5
170
     0
171
     0
290
     0
174
     0
 93
       13
 44
0.0
173
     0
291
     1
 45
0.0
1001
ACAD
1000
AcDbSavedByObjectVersion
1070
     0
  0
VISUALSTYLE
  5
F2
102
{ACAD_XDICTIONARY
360
1153B
102
}
102
{ACAD_REACTORS
330
EF
102
}
330
EF
100
AcDbVisualStyle
  2
Gouraud
 70
     2
 71
     2
 72
     2
 73
     1
 90
        2
 40
-0.6
 41
30.0
 62
     5
 63
     7
 74
     0
 91
        0
 64
     7
 65
   257
 75
     1
175
     1
 42
1.0
 92
        0
 66
     7
 43
1.0
 76
     1
 77
     6
 78
     2
 67
     7
 79
     5
170
     0
171
     0
290
     0
174
     0
 93
       13
 44
0.0
173
     0
291
     1
 45
0.0
1001
ACAD
1000
AcDbSavedByObjectVersion
1070
     0
  0
VISUALSTYLE
  5
F3
102
{ACAD_XDICTIONARY
360
1153D
102
}
102
{ACAD_REACTORS
330
EF
102
}
330
EF
100
AcDbVisualStyle
  2
GouraudWithEdges
 70
     3
 71
     2
 72
     2
 73
     1
 90
        2
 40
-0.6
 41
30.0
 62
     5
 63
     7
 74
     1
 91
        0
 64
     7
 65
   257
 75
     1
175
     1
 42
1.0
 92
        0
 66
   257
 43
1.0
 76
     1
 77
     6
 78
     2
 67
     7
 79
     5
170
     0
171
     0
290
     0
174
     0
 93
       13
 44
0.0
173
     0
291
     1
 45
0.0
1001
ACAD
1000
AcDbSavedByObjectVersion
1070
     0
  0
VISUALSTYLE
  5
F7
102
{ACAD_XDICTIONARY
360
11545
102
}
102
{ACAD_REACTORS
330
EF
102
}
330
EF
100
AcDbVisualStyle
  2
Hidden
 70
     6
 71
     1
 72
     2
 73
     2
 90
        0
 40
-0.6
 41
-30.0
 62
     5
 63
     7
 74
     2
 91
        2
 64
     7
 65
   257
 75
     2
175
     1
 42
40.0
 92
        0
 66
   257
 43
1.0
 76
     1
 77
     6
 78
     2
 67
     7
 79
     3
170
     0
171
     0
290
     0
174
     0
 93
        1
 44
0.0
173
     0
291
     0
 45
0.0
1001
ACAD
1000
AcDbSavedByObjectVersion
1070
     0
  0
VISUALSTYLE
  5
1E4
102
{ACAD_XDICTIONARY
360
11559
102
}
102
{ACAD_REACTORS
330
EF
102
}
330
EF
100
AcDbVisualStyle
  2
JitterOff
 70
    20
 71
     2
 72
     2
 73
     0
 90
        0
 40
-0.6
 41
-30.0
 62
     5
 63
     7
 74
     1
 91
        4
 64
     7
 65
   257
 75
     1
175
     1
 42
1.0
 92
       10
 66
     7
 43
1.0
 76
     1
 77
     6
 78
     2
 67
     7
 79
     5
170
     0
171
     0
290
     0
174
     0
 93
        1
 44
0.0
173
     0
291
     1
 45
0.0
1001
ACAD
1000
AcDbSavedByObjectVersion
1070
     0
  0
VISUALSTYLE
  5
FD
102
{ACAD_XDICTIONARY
360
11551
102
}
102
{ACAD_REACTORS
330
EF
102
}
330
EF
100
AcDbVisualStyle
  2
Linepattern
 70
    14
 71
     2
 72
     2
 73
     1
 90
        0
 40
-0.6
 41
-30.0
 62
     5
 63
     7
 74
     1
 91
        4
 64
     7
 65
   257
 75
     7
175
     7
 42
1.0
 92
        8
 66
     7
 43
1.0
 76
     1
 77
     6
 78
     2
 67
     7
 79
     5
170
     0
171
     0
290
     0
174
     0
 93
        1
 44
0.0
173
     0
291
     1
 45
0.0
1001
ACAD
1000
AcDbSavedByObjectVersion
1070
     0
  0
VISUALSTYLE
  5
1E5
102
{ACAD_XDICTIONARY
360
1155B
102
}
102
{ACAD_REACTORS
330
EF
102
}
330
EF
100
AcDbVisualStyle
  2
OverhangOff
 70
    21
 71
     2
 72
     2
 73
     0
 90
        0
 40
-0.6
 41
-30.0
 62
     5
 63
     7
 74
     1
 91
        4
 64
     7
 65
   257
 75
     1
175
     1
 42
1.0
 92
        9
 66
     7
 43
1.0
 76
     1
 77
     6
 78
     2
 67
     7
 79
     5
170
     0
171
     0
290
     0
174
     0
 93
        1
 44
0.0
173
     0
291
     1
 45
0.0
1001
ACAD
1000
AcDbSavedByObjectVersion
1070
     0
  0
VISUALSTYLE
  5
F9
102
{ACAD_XDICTIONARY
360
11549
102
}
102
{ACAD_REACTORS
330
EF
102
}
330
EF
100
AcDbVisualStyle
  2
Realistic
 70
     8
 71
     2
 72
     2
 73
     0
 90
        2
 40
-0.6
 41
30.0
 62
     5
 63
     7
 74
     0
 91
        0
 64
     7
 65
   257
 75
     1
175
     1
 42
1.0
 92
        8
 66
   257
 43
1.0
 76
     1
 77
     6
 78
     2
 67
     7
 79
     3
170
     0
171
     0
290
     0
174
     0
 93
       13
 44
0.0
173
     0
291
     0
 45
0.0
1001
ACAD
1000
AcDbSavedByObjectVersion
1070
     0
  0
VISUALSTYLE
  5
1F3
102
{ACAD_XDICTIONARY
360
11567
102
}
102
{ACAD_REACTORS
330
EF
102
}
330
EF
100
AcDbVisualStyle
  2
Shaded
 70
    27
 71
     2
 72
     2
 73
     1
 90
        2
 40
-0.6
 41
30.0
 62
     5
 63
     7
 74
     0
 91
        4
 64
     7
 65
   257
 75
     1
175
     1
 42
1.0
 92
        8
 66
   257
 43
1.0
 76
     1
 77
     6
 78
     2
 67
     8
 79
     3
170
     0
171
     0
290
     0
174
     0
 93
        5
 44
0.0
173
     0
291
     0
 45
0.0
1001
ACAD
1000
AcDbSavedByObjectVersion
1070
     0
  0
VISUALSTYLE
  5
1F2
102
{ACAD_XDICTIONARY
360
11565
102
}
102
{ACAD_REACTORS
330
EF
102
}
330
EF
100
AcDbVisualStyle
  2
Shaded with edges
 70
    26
 71
     2
 72
     2
 73
     1
 90
        2
 40
-0.6
 41
30.0
 62
     5
 63
     7
 74
     1
 91
        2
 64
     7
 65
   257
 75
     2
175
     1
 42
1.0
 92
        8
 66
   257
 43
1.0
 76
     1
 77
     6
 78
     2
 67
     7
 79
     3
170
     0
171
     0
290
     0
174
     0
 93
        5
 44
0.0
173
     0
291
     0
 45
0.0
1001
ACAD
1000
AcDbSavedByObjectVersion
1070
     0
  0
VISUALSTYLE
  5
1EF
102
{ACAD_XDICTIONARY
360
1155F
102
}
102
{ACAD_REACTORS
330
EF
102
}
330
EF
100
AcDbVisualStyle
  2
Shades of Gray
 70
    23
 71
     2
 72
     2
 73
     3
 90
        0
 40
-0.6
 41
-30.0
 62
     5
 63
     7
 74
     2
 91
        2
 64
     7
 65
     7
 75
     1
175
     1
 42
40.0
 92
        8
 66
     7
 43
1.0
 76
     1
 77
     6
 78
     2
 67
     7
 79
     3
170
     0
171
     0
290
     0
174
     0
 93
        1
 44
0.0
173
     0
291
     0
 45
0.0
1001
ACAD
1000
AcDbSavedByObjectVersion
1070
     0
  0
VISUALSTYLE
  5
1F0
102
{ACAD_XDICTIONARY
360
11561
102
}
102
{ACAD_REACTORS
330
EF
102
}
330
EF
100
AcDbVisualStyle
  2
Sketchy
 70
    24
 71
     1
 72
     2
 73
     2
 90
        0
 40
-0.6
 41
-30.0
 62
     5
 63
     7
 74
     2
 91
        2
 64
     7
 65
     7
 75
     1
175
     1
 42
40.0
 92
       11
 66
     7
 43
1.0
 76
     1
 77
     6
 78
     2
 67
     7
 79
     6
170
     0
171
     0
290
     0
174
     0
 93
        1
 44
0.0
173
     0
291
     0
 45
0.0
1001
ACAD
1000
AcDbSavedByObjectVersion
1070
     0
  0
VISUALSTYLE
  5
FC
102
{ACAD_XDICTIONARY
360
1154F
102
}
102
{ACAD_REACTORS
330
EF
102
}
330
EF
100
AcDbVisualStyle
  2
Thicken
 70
    13
 71
     2
 72
     2
 73
     1
 90
        0
 40
-0.6
 41
-30.0
 62
     5
 63
     7
 74
     1
 91
        4
 64
     7
 65
   257
 75
     1
175
     1
 42
1.0
 92
       12
 66
     7
 43
1.0
 76
     1
 77
     6
 78
     2
 67
     7
 79
     5
170
     0
171
     0
290
     0
174
     0
 93
        1
 44
0.0
173
     0
291
     1
 45
0.0
1001
ACAD
1000
AcDbSavedByObjectVersion
1070
     0
  0
VISUALSTYLE
  5
F6
102
{ACAD_XDICTIONARY
360
11543
102
}
102
{ACAD_REACTORS
330
EF
102
}
330
EF
100
AcDbVisualStyle
  2
Wireframe
 70
     5
 71
     0
 72
     2
 73
     0
 90
        0
 40
-0.6
 41
-30.0
 62
     5
 63
     7
 74
     1
 91
        4
 64
     7
 65
   257
 75
     1
175
     1
 42
1.0
 92
        0
 66
   257
 43
1.0
 76
     1
 77
     6
 78
     2
 67
     7
 79
     3
170
     0
171
     0
290
     0
174
     0
 93
        1
 44
0.0
173
     0
291
     0
 45
0.0
1001
ACAD
1000
AcDbSavedByObjectVersion
1070
     0
  0
VISUALSTYLE
  5
1F1
102
{ACAD_XDICTIONARY
360
11563
102
}
102
{ACAD_REACTORS
330
EF
102
}
330
EF
100
AcDbVisualStyle
  2
X-Ray
 70
    25
 71
     2
 72
     2
 73
     1
 90
        1
 40
0.5
 41
-30.0
 62
     5
 63
     7
 74
     1
 91
        0
 64
     7
 65
   257
 75
     1
175
     1
 42
1.0
 92
        8
 66
     7
 43
1.0
 76
     1
 77
     6
 78
     2
 67
     7
 79
     3
170
     0
171
     0
290
     0
174
     0
 93
       13
 44
0.0
173
     0
291
     0
 45
0.0
1001
ACAD
1000
AcDbSavedByObjectVersion
1070
     0
  0
DICTIONARYVAR
  5
146
102
{ACAD_REACTORS
330
5E
102
}
330
5E
100
DictionaryVariables
280
     0
  1
1:1
  0
DICTIONARYVAR
  5
259
102
{ACAD_REACTORS
330
5E
102
}
330
5E
100
DictionaryVariables
280
     0
  1
3.500000
  0
DICTIONARYVAR
  5
25A
102
{ACAD_REACTORS
330
5E
102
}
330
5E
100
DictionaryVariables
280
     0
  1
acadiso.lin
  0
DICTIONARYVAR
  5
145
102
{ACAD_REACTORS
330
5E
102
}
330
5E
100
DictionaryVariables
280
     0
  1
STANDARD
  0
DICTIONARYVAR
  5
84
102
{ACAD_REACTORS
330
5E
102
}
330
5E
100
DictionaryVariables
280
     0
  1
STANDARD
  0
DICTIONARYVAR
  5
227
102
{ACAD_REACTORS
330
5E
102
}
330
5E
100
DictionaryVariables
280
     0
  1
Metric50
  0
DICTIONARYVAR
  5
228
102
{ACAD_REACTORS
330
5E
102
}
330
5E
100
DictionaryVariables
280
     0
  1
Metric50
  0
DICTIONARYVAR
  5
5F
102
{ACAD_REACTORS
330
5E
102
}
330
5E
100
DictionaryVariables
280
     0
  1
2
  0
DICTIONARYVAR
  5
63
102
{ACAD_REACTORS
330
5E
102
}
330
5E
100
DictionaryVariables
280
     0
  1
1
  0
DICTIONARYVAR
  5
114D8
102
{ACAD_REACTORS
330
5E
102
}
330
5E
100
DictionaryVariables
280
     0
  1
0
  0
DICTIONARYVAR
  5
1AE
102
{ACAD_REACTORS
330
5E
102
}
330
5E
100
DictionaryVariables
280
     0
  1
0
  0
DICTIONARYVAR
  5
1AF
102
{ACAD_REACTORS
330
5E
102
}
330
5E
100
DictionaryVariables
280
     0
  1
0
  0
DICTIONARYVAR
  5
114D6
102
{ACAD_REACTORS
330
5E
102
}
330
5E
100
DictionaryVariables
280
     0
  1
2
  0
DICTIONARYVAR
  5
114D5
102
{ACAD_REACTORS
330
5E
102
}
330
5E
100
DictionaryVariables
280
     0
  1
1
  0
DICTIONARYVAR
  5
11528
102
{ACAD_REACTORS
330
5E
102
}
330
5E
100
DictionaryVariables
280
     0
  1
80.000000
  0
DICTIONARYVAR
  5
11527
102
{ACAD_REACTORS
330
5E
102
}
330
5E
100
DictionaryVariables
280
     0
  1
5.000000
  0
DICTIONARYVAR
  5
114D7
102
{ACAD_REACTORS
330
5E
102
}
330
5E
100
DictionaryVariables
280
     0
  1
127
  0
DICTIONARYVAR
  5
11529
102
{ACAD_REACTORS
330
5E
102
}
330
5E
100
DictionaryVariables
280
     0
  1
2
  0
DICTIONARY
  5
1156B
330
21C
100
AcDbDictionary
280
     1
281
     1
  3
ACAD_XREC_ROUNDTRIP
360
1156C
  0
DICTIONARY
  5
11530
330
D3
100
AcDbDictionary
280
     1
281
     1
  3
ACAD_XREC_ROUNDTRIP
360
11531
  0
DICTIONARY
  5
11532
330
D7
100
AcDbDictionary
280
     1
281
     1
  3
ACAD_XREC_ROUNDTRIP
360
11533
  0
DICTIONARY
  5
1152D
330
22
100
AcDbDictionary
280
     1
281
     1
  3
ACAD_XREC_ROUNDTRIP
360
1152E
  0
DICTIONARY
  5
1F9
330
ED
100
AcDbDictionary
280
     1
281
     1
  3
ACAD_XREC_ROUNDTRIP
360
11535
  3
FBXASSET
360
1FA
  0
DICTIONARY
  5
1F7
330
EC
100
AcDbDictionary
280
     1
281
     1
  3
ACAD_XREC_ROUNDTRIP
360
11534
  3
FBXASSET
360
1F8
  0
DICTIONARY
  5
173
330
EE
100
AcDbDictionary
280
     1
281
     1
  3
ACAD_XREC_ROUNDTRIP
360
11536
  3
BUMPTILE
360
175
  3
DIFFUSETILE
360
174
  3
FBXASSET
360
1FB
  3
OPACITYTILE
360
176
  3
REFLECTIONTILE
360
177
  0
DICTIONARY
  5
11557
330
12E
100
AcDbDictionary
280
     1
281
     1
  3
ACAD_XREC_ROUNDTRIP
360
11558
  0
DICTIONARY
  5
11569
330
21A
100
AcDbDictionary
280
     1
281
     1
  3
ACAD_XREC_ROUNDTRIP
360
1156A
  0
DICTIONARY
  5
162
330
7F
100
AcDbDictionary
280
     1
281
     1
  3
ACAD_ROUNDTRIP_2008_TABLESTYLE_CELLSTYLEMAP
360
1152A
  3
ACAD_XREC_ROUNDTRIP
360
1152F
  0
DICTIONARY
  5
11541
330
F5
100
AcDbDictionary
280
     1
281
     1
  3
ACAD_XREC_ROUNDTRIP
360
11542
  0
DICTIONARY
  5
1153F
330
F4
100
AcDbDictionary
280
     1
281
     1
  3
ACAD_XREC_ROUNDTRIP
360
11540
  0
DICTIONARY
  5
1154D
330
FB
100
AcDbDictionary
280
     1
281
     1
  3
ACAD_XREC_ROUNDTRIP
360
1154E
  0
DICTIONARY
  5
11555
330
FF
100
AcDbDictionary
280
     1
281
     1
  3
ACAD_XREC_ROUNDTRIP
360
11556
  0
DICTIONARY
  5
11547
330
F8
100
AcDbDictionary
280
     1
281
     1
  3
ACAD_XREC_ROUNDTRIP
360
11548
  0
DICTIONARY
  5
1154B
330
FA
100
AcDbDictionary
280
     1
281
     1
  3
ACAD_XREC_ROUNDTRIP
360
1154C
  0
DICTIONARY
  5
1155D
330
1E6
100
AcDbDictionary
280
     1
281
     1
  3
ACAD_XREC_ROUNDTRIP
360
1155E
  0
DICTIONARY
  5
11553
330
FE
100
AcDbDictionary
280
     1
281
     1
  3
ACAD_XREC_ROUNDTRIP
360
11554
  0
DICTIONARY
  5
11537
330
F0
100
AcDbDictionary
280
     1
281
     1
  3
ACAD_XREC_ROUNDTRIP
360
11538
  0
DICTIONARY
  5
11539
330
F1
100
AcDbDictionary
280
     1
281
     1
  3
ACAD_XREC_ROUNDTRIP
360
1153A
  0
DICTIONARY
  5
1153B
330
F2
100
AcDbDictionary
280
     1
281
     1
  3
ACAD_XREC_ROUNDTRIP
360
1153C
  0
DICTIONARY
  5
1153D
330
F3
100
AcDbDictionary
280
     1
281
     1
  3
ACAD_XREC_ROUNDTRIP
360
1153E
  0
DICTIONARY
  5
11545
330
F7
100
AcDbDictionary
280
     1
281
     1
  3
ACAD_XREC_ROUNDTRIP
360
11546
  0
DICTIONARY
  5
11559
330
1E4
100
AcDbDictionary
280
     1
281
     1
  3
ACAD_XREC_ROUNDTRIP
360
1155A
  0
DICTIONARY
  5
11551
330
FD
100
AcDbDictionary
280
     1
281
     1
  3
ACAD_XREC_ROUNDTRIP
360
11552
  0
DICTIONARY
  5
1155B
330
1E5
100
AcDbDictionary
280
     1
281
     1
  3
ACAD_XREC_ROUNDTRIP
360
1155C
  0
DICTIONARY
  5
11549
330
F9
100
AcDbDictionary
280
     1
281
     1
  3
ACAD_XREC_ROUNDTRIP
360
1154A
  0
DICTIONARY
  5
11567
330
1F3
100
AcDbDictionary
280
     1
281
     1
  3
ACAD_XREC_ROUNDTRIP
360
11568
  0
DICTIONARY
  5
11565
330
1F2
100
AcDbDictionary
280
     1
281
     1
  3
ACAD_XREC_ROUNDTRIP
360
11566
  0
DICTIONARY
  5
1155F
330
1EF
100
AcDbDictionary
280
     1
281
     1
  3
ACAD_XREC_ROUNDTRIP
360
11560
  0
DICTIONARY
  5
11561
330
1F0
100
AcDbDictionary
280
     1
281
     1
  3
ACAD_XREC_ROUNDTRIP
360
11562
  0
DICTIONARY
  5
1154F
330
FC
100
AcDbDictionary
280
     1
281
     1
  3
ACAD_XREC_ROUNDTRIP
360
11550
  0
DICTIONARY
  5
11543
330
F6
100
AcDbDictionary
280
     1
281
     1
  3
ACAD_XREC_ROUNDTRIP
360
11544
  0
DICTIONARY
  5
11563
330
1F1
100
AcDbDictionary
280
     1
281
     1
  3
ACAD_XREC_ROUNDTRIP
360
11564
  0
XRECORD
  5
1156C
102
{ACAD_REACTORS
330
1156B
102
}
330
1156B
100
AcDbXrecord
280
     1
102
DISPLAYNAME
  1
Metric50
102
FLAGS
 90
        0
  0
XRECORD
  5
11531
102
{ACAD_REACTORS
330
11530
102
}
330
11530
100
AcDbXrecord
280
     1
102
SHADEPLOT
 70
     0
102
SHADEPLOTRESLEVEL
 70
     2
102
SHADEPLOTCUSTOMDPI
 70
   300
  0
XRECORD
  5
11533
102
{ACAD_REACTORS
330
11532
102
}
330
11532
100
AcDbXrecord
280
     1
102
SHADEPLOT
 70
     0
102
SHADEPLOTRESLEVEL
 70
     2
102
SHADEPLOTCUSTOMDPI
 70
   300
  0
XRECORD
  5
1152E
102
{ACAD_REACTORS
330
1152D
102
}
330
1152D
100
AcDbXrecord
280
     1
102
SHADEPLOT
 70
     0
102
SHADEPLOTRESLEVEL
 70
     2
102
SHADEPLOTCUSTOMDPI
 70
   300
  0
XRECORD
  5
11535
102
{ACAD_REACTORS
330
1F9
102
}
330
1F9
100
AcDbXrecord
280
     1
102
MATERIAL
148
0.0
149
0.0
149
0.0
 93
        0
 94
       63
282
     0
 72
     1
 77
     1
171
     1
175
     1
179
     1
273
     0
  0
XRECORD
  5
1FA
102
{ACAD_REACTORS
330
1F9
102
}
330
1F9
100
AcDbXrecord
280
     1
 70
     1
 90
429727718
  1
D62C5603-E3A1-4AEA-B7FB-FE5D8D0755AF
310
504B03040A0000080000CC70623B3DEE336E79000000790000001B0000006175746F6465736B2D64657369676E2D7061636B6167652E786D6C3C3F786D6C2076657273696F6E3D22312E302220656E636F64696E673D227574662D3822203F3E3C666F726D6174733E3C666F726D61743E687474703A2F2F736368656D612E
310
6175746F6465736B2E636F6D2F64657369676E2D7061636B6167652F323030393C2F666F726D61743E3C2F666F726D6174733E504B0304140006080800CC70623BD486FD9CA0000000F4000000130000005B436F6E74656E745F54797065735D2E786D6C7D8EC10E82300C865F65E91D8A1E8C310C0EEA1BF002731658846E
310
D98AC1B77784ABF1D8FE5FBFBF75BBCE937A534CCEB38643598122B6FEE978D0B0485F9C41B54DDD7D022595594E1A469170414C76A4D9A4D207E29CF43ECE46F218070CC6BECC4078ACAA135ACF422C856C0E68EA1BF5669944DDD7BCDE7B1F8E415D77AECB980613C2E4AC91FC167A2B244592486606FC29C8FD7F045B9A
310
EF7053A7E60B504B0304140006080800CC70623B853B8169EB0000007C01000008000000636F72652E786D6C8D90416EC3201045AF62CDB6C206821CC7C244919D9CA01740401C94182C03558F5F9C3852BBEB6A467FFE9B197D7EFC9E1EC5975982F5AE035262288C535E5B377690E21535501C055FBC8FBF6C503839990E
310
5619041F179FE64D52DE45E362569DD7661365082642A11EB9E920A89B99642953CC8E702F67A9EE7234257977194EC9EAE275C4EABCCF5EAD5940D4AC6F0E35A568B8F43562CD7046CD199FD07E60174276A7BE677B5EADB0E0D14EEFFB6A31321A0D82627C4084204C3F096B71DD52F6819B16635EADF63F509AF53FA164
310
5DDCD1EDDD17164090FCC8732078B56691CB33A85CD7DCC40F504B0304140006080800CC70623B55019EA25F0000007C00000007000000636E782E786D6C4DCB3B0E80201045D1AD90E915ED2CF8AC45050C11660C8261F98AB1B07AC9C97D42D718D865D3E909258CFD00CCE24AC6E326A164D74DC0B4128928FF32603847
310
2BA13128B1252AC747C6BAB984FC68F0B87FE8960A5C09FE86CFB69FBA01504B0304140006080800CC70623BDBABAAF470010000D40300000C0000006662782F636F72652E786D6CC553D16E823014FD95A6AF4B694182CC941A83FA05FB810A9511A125A5257EFE2E82712ECEB8A7F100CD39F7F69E734AF9FADC366850B6
310
AF8DCE7018308C942E4C59EB2AC3DE1D498AD15A706B8CFB56869196ADCAF00863C12B6B7C374385D14E6907A836A59A41D9F7CA615434B0C8705F7CAA5606D23BA8E84F41278B93AC54100640439DE0BDB320004D43C63716C7C399D30917DCFBBA9CD9BA8469F5B156168B24CED3F7248AC8769F27244EB73B92EED8862C
310
B7F13E0C179B3C8F979C8ECD82BBBABDAA2BAC924E9558448CBD9330242CFA08E3154B5651FCC6D215639C8EE5774DBE2B5F6CF2B5768B68963BB5F5588420E442FC700B1139D4CB01F450C1E918227C2E09DF070D8140C84E1E9AAB8F1340832A9CB13130A5F1376A908D57309505ECF2A0DF179C4E9D30F5B239B87E3823
310
7A79C6F31DE1A8A5AEC08474B03C7837EAE4938639B44E5932B833D2C6B6B279CDC613877FA26EE21F4A2A4C63EC7F29A2F301D1F9F7A0E37D145F504B0304140006080800CC70623B9C113CC27E0000009D0000000B0000006662782F636E782E786D6C4DCCDF0A83201C86E15B91DFB94BFB330DD428C8FB886521330DA7
310
6397BF1A1DECE883878F57749FCDA1B7892F1BBC047A23808C7F84D9FA55424E0BE6803A256208E9EF06C84F9B91703228B1C690F78B66B34CD9A5439DF5CF0BFBF65E35BCA1B8D6A5C6F540381E886698B5741C695F9503EBA150A2F8958E3DC3EA0B504B0304140006080800CC70623B7DF2F77C2A010000120200003100
310
00006662782F41393633353835312D344632462D344230382D423046372D3739314545314133324237412F636F72652E786D6C8D51DB8EC22014FC15C2939B0D2DB4B45643319AE817EC0F6041255A68B86CFCFC856D4D76DF7CE190393373060EDB3DC707F856CE6B6B7A480A0C81328395DA5C7B18C3057510EC3873D686
310
3F34088C18550F330C39BB3A1BA7051AAC09CA84841A2BD5020AEF55806078A44B0FFD7053A328440C89E1EFC52486BBB8AA8214A99D789CF9E05200300FC927E4FB4D5B375D43103D5527440FB843077C5AA3F5861C8F645F5787F59E95B390B318B55CE45AA638FAA2957BD7248B390B7A7CC51F9C124149C82B8C378810
310
84AB2F42B7B8DD56F413775B8C5999E9FF4471926F8AA236A1AE96B8B3CC434E5839373893369E1FAF30EA395917409EB7F26AF8801C171837A4A6AC9C89E9F9C9B1A58BA30FD6A5EF5DDDCF894B9AD9B6A59C957943A9FCAE2FD5BC4DFE03504B0304140006080800CC70623BAD7543B64E01000033030000300000006662
310
782F41393633353835312D344632462D344230382D423046372D3739314545314133324237412F636E782E786D6CD593CD6EC32010845F0571AD6CE3D48AD20813A9873E410FBD12D82434182C7EAAE6EDBB2424CD25871E7B41D6EC30B3FA84F9E67BB2E40B4234DE8DB46F1925E094D7C6ED479AD3AE5951B2113C789FEE
310
6C943839C1488B4C05DF079FE72A69D8C96C13AAD6B8631503449F83828872B949AC57D26200B826A308D316B4064D6E46FCDA41C05550DC9E483A00797BFD207EFB092A45DE9514C1BBD22178396BD39D891265658C238DEA00936C654E5E433CB65A26D9F6EDB5EBC14EBF49A45CB856E66048291F6939A9A81BB5C89177
310
38143CA680F4AA299D66A042CEB3354A2684DC9D8D178FE0D9B8B41CAAD720F880EE7EF93C0C18769E099ECC04D5A102C8049A8A05632F4DDF376CF1DE0F6BB65C2F8627B65A33C6BB62177CEBBDAD973006829F89F22E814B54F4BC2BE347F8AA8F681390B50FA73F804400B5F542E796F19FF974E7F78DB802FE05E20750
310
4B0304140006080800CC70623BE75B7789680500003C100000340000006662782F41393633353835312D344632462D344230382D423046372D3739314545314133324237412F6F626A656374732E786D6CAD575B8F9B3818FD2B887D06C22499CB8AA1CA655245D5B455A356FB305264C061D8018C6C3393D95FBFC7600890
310
A4CD5EF210B0B1BFEBF98E3F7B1FF6596ABC522E1296DF9BAE3D320D9A872C4AF2F8DE2CE5CEBA358D0FBEC719939D65A691938CDE9B6ADAF4BD98B3B2D05311DD91329583D9D5FC0F438434A7A611A644887B5384CF34233629258BA878B12322891DEFF6B66BD70BFB62634E8AE781D082709A4B588AF91C528CDA28B73F
310
1C998EEF39EABBEFA97FBD6A7C7E9553F9D3D79FE442923C3C523610337627CB87ABE99D359D4CC6D6E4FACAB5E6ABF9D2726FC6A3C5F56271377BB88362213924694B38DD99FE47C48627A1E7D49F5A8BB5E1A74C0A599ED3B0F21F1E56366B89112D681E218F0915D0D6F17AD41FBA2A369DCF6335D62ABBD39779D5DDD1
310
11D4D8DE3CBB96B2E04FB8202E41051754A1AA8E8F76B4C6DFE810B580B1547F4B84911149794252234D024EF8BBE963A95AE27B3D310A9D5C215C7960FAEE415ED75694C6AFB17BCACA5D99A60A9AA65F217B0BFC53292ACB92BF283FAD0D3621576592CB5BED907C2FA8E9DF794E35E97BEA31BED21FEB401ABB94C44839
310
DCACBF0E1C5DA8DA5B2F4DFFD32AD86F543D9E565E7056502E157C00AD2671CD534549AB752FCA9CDA00677A313F04E51B22FF19E57B300579E3C97EB29F682D92935CEC18CF901B7B54FD8C51F362B56FC72FE0B3C1EAE335EDCCBF5AEC39ADB17DC238973F804BA5E6F6BFE7AF1FB32E523BE9F3BD571418E3631DCA4D48
310
5250CF639223210A9446CA30052EDF057BD35F8329C1ECD84552BF0DC8D18BE7BCE23BFE6BD960AB4A7DE79923A103BEBD80F911CBAA2C60DB19B01CF164A5583B772EE6D3FFA56666CBCDA74DC97724A48F9A58967497E489C4D979006FD7A05E227A1EBDD0F737C623387A9C844D3709995625106D157315F8B8392CD4E0
310
A0B9A720C4BE9829CEF37EA1E13111214D53925356365ADA634861B52519DD27A00AEB808EAF0628E6F435519D446F45CF2C9CF5214F0A15B2F6D06B79DA3EE3CBF7F56780D2F4E7EF73A0F5E5B02A38D07DC852C6B7C1FBB6664213E0C39E3EBA7FF4E1AD23EA2829407C85E586727488B751B2DB9502BC7B228A3FD68B6E
310
A65A22397E690AA8D158D7E404EC8CDA235CC3B7D1898680131CEC2CDF2638C65196279577750F15884AEE19F94199155B92B13297978469D4F8D358DF0AEF7631E28DC8F0D9F437D5D39A83B2231A1D52D543813A824EF8D44BCFF2FA6A31BD1E8DAD87F1CCB526B3879935BF59CDADD5C37479BB1CDD4CA7B3556B516589
310
EF352754B706114D9C885EC9131DE6EFEB43D99AFE2391C2F958179413D7CFEF6B1B6DB1E7600F00DE6E5C67454A339A4BA2E0FBA85ED26F045D454F463DBFCE484C2F90F2E5E3666003662ED8F755951A7D1BECD5B30B550B2785C8E7320B7292A4838DDA71BBC863ED7613CAF659337A3354231D4FF4A182A54904C2898C
310
98B28C4AD0CE056CCF332A80986E571EE9DBC305BB5FEB7E509220A58D25CF042D712A806AC0AD0C657FDEF80D2D9CEAA2EE4D1C76F60BFE74219A06527D6F82DF6412526107381E55E353090704D085B52408A8913C4ED159D79BDA71BB4BC506F4831350EB6F975CD22D69BF7AC49B91A2C0A9DDA3D5CA36AD20FC478E37
310
E61844E2352865EBCB61A275A65283CAAA9DD27703B4102F5AF51EF5F573B75CBB5AD38BC845F7A49F82A0966A49C2E3EA5EA0ECD326CD965F1DB402C6FA8B51A4658C5C5E2EC9E214602E55810345408596591009A82E7E7FFACA19EEA299B14A0081A705CB3296EBC14CDF658DCD336EA6D1136881AAEB87B81AB9EE53D5
310
F5EB8BC8362082DA24122F98680A4E7930C01A0079749CEA14382A0783E5EBA5A10F8C098456A03D6A4AEB6BB881E2513747552A5DB22C7EDAF83BD5528081A365F7FF06504B0304140006080000CC70623B000000000000000000000000350000006662782F41393633353835312D344632462D344230382D423046372D37
310
39314545314133324237412F76657274696365732E62696E504B0304140006080800CC70623BF270F1330600000004000000360000006662782F41393633353835312D344632462D344230382D423046372D3739314545314133324237412F747269616E676C65732E62696E636660600000504B0304140006080000CC7062
310
3B000000000000000000000000370000006662782F41393633353835312D344632462D344230382D423046372D3739314545314133324237412F617474726962757465732E62696E504B0304140006080800CC70623B08DA0BD19000000041010000360000006662782F41393633353835312D344632462D344230382D4230
310
46372D3739314545314133324237412F6469726563746F72792E786D6C858F410AC3201045AF22B36F53E9A60B35CBEEBAE80D244E44489C6234F4F835464A48035D0DF398FF9F8AF63D0E6CC63039F212F8F9020C7D47C6792B21C5FE7403D62A1188E2E60C98D7234A5830286103A55745067B9D86B8A3CF9C7F90C11DE6
310
07FB144396D7B6A82D282E9A152AD114D5EF2CB866EEE831B8EEA07A7BB5A8D7D61A2BAAEB7FD5F70921FF497D00504B0304140006080800CC70623BEDD1DC58FD000000A00100003B0000006662782F41393633353835312D344632462D344230382D423046372D3739314545314133324237412F7265736F75726365732F
310
636F72652E786D6C8D504B6E833010BD0A9A6D65B00922041947112427E8052C33A156828DFCA97AFC9A40A576D7CDCCE87D344F8F9FBFE667F689CE6B6B3A6039850C8DB2A336530731DC4903D95970676DF82583CCC8193B5861107C72362E3BA4AC096842428D1D7107A5F7182053CF7474E0D507CE32973124857FE48B
310
540F3961CEF244279DE03EB81420DB9EAC1384436FA353E879B1B182C7A8C75DA3C7F453DF353A1075D537A7BA6464B8F535A99AE14A9A2BBD90E350DD183B5CFABE3AF262350B1EF4FC9351399401471025A527C218A1E53BAB5A5AB765F5469B96525EACF23FA6B88CFF34456DC2A1DCE36E360F82A5202F42F062ED2BAD
310
579969AFDD8A6F504B010214000A0000080000CC70623B3DEE336E79000000790000001B00000000000000000000000000000000006175746F6465736B2D64657369676E2D7061636B6167652E786D6C504B01021400140006080800CC70623BD486FD9CA0000000F40000001300000000000000000000000000B20000005B
310
436F6E74656E745F54797065735D2E786D6C504B01021400140006080800CC70623B853B8169EB0000007C010000080000000000000000000000000083010000636F72652E786D6C504B01021400140006080800CC70623B55019EA25F0000007C000000070000000000000000000000000094020000636E782E786D6C504B
310
01021400140006080800CC70623BDBABAAF470010000D40300000C00000000000000000000000000180300006662782F636F72652E786D6C504B01021400140006080800CC70623B9C113CC27E0000009D0000000B00000000000000000000000000B20400006662782F636E782E786D6C504B01021400140006080800CC70
310
623B7DF2F77C2A010000120200003100000000000000000000000000590500006662782F41393633353835312D344632462D344230382D423046372D3739314545314133324237412F636F72652E786D6C504B01021400140006080800CC70623BAD7543B64E010000330300003000000000000000000000000000D2060000
310
6662782F41393633353835312D344632462D344230382D423046372D3739314545314133324237412F636E782E786D6C504B01021400140006080800CC70623BE75B7789680500003C10000034000000000000000000000000006E0800006662782F41393633353835312D344632462D344230382D423046372D3739314545
310
314133324237412F6F626A656374732E786D6C504B01021400140006080000CC70623B0000000000000000000000003500000000000000000000000000280E00006662782F41393633353835312D344632462D344230382D423046372D3739314545314133324237412F76657274696365732E62696E504B01021400140006
310
080800CC70623BF270F133060000000400000036000000000000000000000000007B0E00006662782F41393633353835312D344632462D344230382D423046372D3739314545314133324237412F747269616E676C65732E62696E504B01021400140006080000CC70623B0000000000000000000000003700000000000000
310
000000000000D50E00006662782F41393633353835312D344632462D344230382D423046372D3739314545314133324237412F617474726962757465732E62696E504B01021400140006080800CC70623B08DA0BD1900000004101000036000000000000000000000000002A0F00006662782F41393633353835312D344632
310
462D344230382D423046372D3739314545314133324237412F6469726563746F72792E786D6C504B01021400140006080800CC70623BEDD1DC58FD000000A00100003B000000000000000000000000000E1000006662782F41393633353835312D344632462D344230382D423046372D3739314545314133324237412F7265
310
736F75726365732F636F72652E786D6C504B0506000000000E000E0080040000641100000000
  0
XRECORD
  5
11534
102
{ACAD_REACTORS
330
1F7
102
}
330
1F7
100
AcDbXrecord
280
     1
102
MATERIAL
148
0.0
149
0.0
149
0.0
 93
        0
 94
       63
282
     0
 72
     1
 77
     1
171
     1
175
     1
179
     1
273
     0
  0
XRECORD
  5
1F8
102
{ACAD_REACTORS
330
1F7
102
}
330
1F7
100
AcDbXrecord
280
     1
 70
     1
 90
429727718
  1
30362254-06B7-45E0-A893-8CFA70E3D6BC
310
504B03040A0000080000CC70623B3DEE336E79000000790000001B0000006175746F6465736B2D64657369676E2D7061636B6167652E786D6C3C3F786D6C2076657273696F6E3D22312E302220656E636F64696E673D227574662D3822203F3E3C666F726D6174733E3C666F726D61743E687474703A2F2F736368656D612E
310
6175746F6465736B2E636F6D2F64657369676E2D7061636B6167652F323030393C2F666F726D61743E3C2F666F726D6174733E504B0304140006080800CC70623BD486FD9CA0000000F4000000130000005B436F6E74656E745F54797065735D2E786D6C7D8EC10E82300C865F65E91D8A1E8C310C0EEA1BF002731658846E
310
D98AC1B77784ABF1D8FE5FBFBF75BBCE937A534CCEB38643598122B6FEE978D0B0485F9C41B54DDD7D022595594E1A469170414C76A4D9A4D207E29CF43ECE46F218070CC6BECC4078ACAA135ACF422C856C0E68EA1BF5669944DDD7BCDE7B1F8E415D77AECB980613C2E4AC91FC167A2B244592486606FC29C8FD7F045B9A
310
EF7053A7E60B504B0304140006080800CC70623B1EC5D7A3EB0000007C01000008000000636F72652E786D6C8D90416EC3201045AF82665B6103C6756C6122AB4D4ED00B204C5C94182C03558F5F9C3852BBEB6A467FFE9B197D71FC9E6FE8CBACC17AD7032D0820E3B41FAD9B7A48F1820F808E52ACDEC75F36404ECDA687
310
4D0629A6D5A76597B477D1B89855E747B38B2A041301E95B6E7A08FAD3CCAA50296647B8168BD2573599823EBB0CA76447F43862C7BCCF5EAC59410E4DDD9C7973C2755553CCCFA4C603E3040F1565ED3B1FDE4E432BCA0D9622DAF9795FAF464533826484B498524CD807E51D79ED187F21878E10516EF63F505AC67F42C9
310
BA58B1FDDD071640D2FCC87D2045B96591CB3DA85CB7DCE40F504B0304140006080800CC70623B55019EA25F0000007C00000007000000636E782E786D6C4DCB3B0E80201045D1AD90E915ED2CF8AC45050C11660C8261F98AB1B07AC9C97D42D718D865D3E909258CFD00CCE24AC6E326A164D74DC0B4128928FF32603847
310
2BA13128B1252AC747C6BAB984FC68F0B87FE8960A5C09FE86CFB69FBA01504B0304140006080800CC70623B8C9102E971010000D40300000C0000006662782F636F72652E786D6CC5535B6E833010BC8AE5DF0A6C08340F1947A84D4ED00B38C6A128602363A31CBFCB234A53A551FA553EC09AD9F5CE8C31DB9E9B1AF5CA
310
7695D1198E428A91D2D214952E33ECDD315861B4E5CC1AE3BE9561A445A3323CC098B3D21ADFCE9034DA29ED00D5A6503328BA4E398C640D8B0C77F253352214DE4145770A5B214FA2546114020D759C75CE8200340D19DE981F0F6746269C33EFAB6266AB02A655C74A59CCF365BADC27CB5D902ED22848F6340DF238A141
310
BE88E2F57B92BFEDF23523433367AE6A2EEAA455C2A902F398D2751045018D3FA264435F3771F242571B4A1919CA6F9A7C5B3CD9E42BED16F12C776AEB308F40C848FC700B1139D4891EF410CEC810227CC6846F8386402064270EF5C5C709A05E49676C024C61FC95EA45ED154CA5211D1FF4FB8291A913A68E9B83EBBB33
310
E2A7673CDE118E5AE8124C0807CB8377834E366998436B950D7A7746DAD846D4CFD978E0F04FD455FC5D49D2D4C6FE9722321F10997F0F32DC47FE05504B0304140006080800CC70623BFFEA85907E0000009D0000000B0000006662782F636E782E786D6C4DCCD10A83201886E15B91FFDC95D95A811AB6F23E625948A6C3
310
E9D8E5AF46073BFAE0E1E365ED67B3E8ADC3CB78C7815C7240DA3DFC64DCC221C519D7805AC182F7F1EF06C88D9BE6703008B6049F9E274D7A1E938DBB5AE3D6131B2589BA0D3D965551E0B2EA732C9B9A624AAEB41E3A557677029960D9AFB4EF11165F504B0304140006080800CC70623B4FEEA4082C0100001202000031
310
0000006662782F39464131463745442D413632322D343644302D413938332D3331353338454246344243312F636F72652E786D6C8D515B6EC32010BC0AE2AB55850DD871ED0813254D72825EC00192A2C460F1A872FC42ED48ED5F7E00CDCECCCEB26C731F6FE05B39AFADE921293004CA082BB5B9F43086336A21D870E6AC
310
0D7F68109861543DCC30E4ECE26C9C164858139409093556AA051CBC570102714B8F1E7AF1A5C6A11862480C7F2DA6415C878B2A4891CA89C7990F2E050073937C42DE1DB7E4F87ED8A36D4329AA9B3D46DBAEAD504556557BD81DEBDD0761E52CE42C462D17B996298E3E6BE59E35C962CE821E1FF18553435012728A7187
310
0841987E927A8D9B35ADDF70BBC6989599FE4F1427F9A4286A132ABAC49D651EF234CD5CE04CDA78BA3DC2A8FB645D00B9DF8B57E215725C60BCA2A463E54C4CE327C7A65E1C7DB02E7DEFCBF594B864C5CA6CDBD49C957943E9FA5D5FBAF336F90F504B0304140006080800CC70623BAD7543B64E01000033030000300000
310
006662782F39464131463745442D413632322D343644302D413938332D3331353338454246344243312F636E782E786D6CD593CD6EC32010845F0571AD6CE3D48AD20813A9873E410FBD12D82434182C7EAAE6EDBB2424CD25871E7B41D6EC30B3FA84F9E67BB2E40B4234DE8DB46F1925E094D7C6ED479AD3AE5951B2113C
310
789FEE6C943839C1488B4C05DF079FE72A69D8C96C13AAD6B8631503449F83828872B949AC57D26200B826A308D316B4064D6E46FCDA41C05550DC9E483A00797BFD207EFB092A45DE9514C1BBD22178396BD39D891265658C238DEA00936C654E5E433CB65A26D9F6EDB5EBC14EBF49A45CB856E66048291F6939A9A81BB5
310
C8917738143CA680F4AA299D66A042CEB3354A2684DC9D8D178FE0D9B8B41CAAD720F880EE7EF93C0C18769E099ECC04D5A102C8049A8A05632F4DDF376CF1DE0F6BB65C2F8627B65A33C6BB62177CEBBDAD973006829F89F22E814B54F4BC2BE347F8AA8F681390B50FA73F804400B5F542E796F19FF974E7F78DB802FE05
310
E207504B0304140006080800CC70623B16AB87BA640500003C100000340000006662782F39464131463745442D413632322D343644302D413938332D3331353338454246344243312F6F626A656374732E786D6CAD575B6FA33818FD2B887DE6924B3BED8A326A92B68A663B534DD4D13E548A0C38942D60649B369D5FBFC7
310
600890A493BDE42160637FD7F31D7FF63E6FB3D478A55C242CBF3247B66B1A340F5994E4F19559CA8D75611A9F7D8F33263BCB4C232719BD32D5B4E97B316765A1A722BA21652A07B3B7B33F0D11D29C9A46981221AE4C113ED38CD8A4942CA2E2C58E882476BCD9DA23BB5ED8171B73523C0F841684D35CC252CCE79062D4
310
468DFA43D7747CCF51DF7D4FFDEB5593E3AB9CCA9FBEFE241792E4E19EB28198C968BAB8199F5D5A67D3E9C49A9E8F47D6EC76B6B0469F26EEFC7C3EBFBCBEB98462213924694B38DD98FE1D62C393D073EA4FADC5DAF04326852CCF6958F90F0F2B9BB5C48816348F90C7840A68EB78EDF68723159BCEE7891A6B95DDE9D3
310
BCEAEEE8086A6C6F9E5D4B59F0175C10A7A0820BAA5055C7473B5AE3CFDD452D602CD5DF12616444529E90D448938013FE6EFA58AA96F85E4F8C42275708571E98FE6827AF6B2B4AE3D7D83D64E5A64C53054DD3AF90BD06FEA9149565C94FCA0F6B834DC85599E4F2423B24DF0B6AFA979E534DFA9E7A4CC6FA631D486393
310
921829879BF5D781A373557BCB85E97FB90DB62B558F8795179C15944B051F40AB495CF35451D26A4727654E6D8033BD98EF82F21D91FF8AF2DD9982BCF1643BDD4EB516C9492E368C67C88DED563FC36D5EACF66DFF057C3658BDBFA69DF9578B3DA735B64F18C7F20770A9D45CFCF7FCF563D6456A277DBEF78A02637CA2
310
43B90A490AEAB94F72244481D24819A6C0E59B606BFA4B3025981DBB48EAB701D97BF19C577CC77F2D1B6C55A9EF3C732474C0B727303F625995056C3B02963D9EAC146BE78EC5FCEC7FA999EBC5EACBAAE41B12D27B4D2C0BBA49F244E2ECDC81B76B502F113D8F5EE8FB1BE3111CDD4FC2AA9B844CAB1288B68AB90A7CDC
310
1C166AB0D3DC5310625FCC14E779BFD0709F8890A629C9292B1B2DED31A4B0DA928CEE135085754027E3018A397D4D5427D15BD1330B677DC8934285AC3DF45A9EB68FF8F2B8FC0A509AFEECFD0FF2DE25CC6047F7214B195F07EFEB9A094D800F7BFAE8FED187B78EA8A3A400F115961BCAD1215E47C966530AF0EE8128FE
310
58CEBB996A8964FFA529A046635D9353B0336A8F700DDF46271A024E70B0B37C9DE01847591E54DED53D54202AB947E4076556AC49C6CA5C9E1226B7F1A7B1BE15DEED62C41B91E1B3E9AFAAA735036547343A925075041DF0A9979E893B391F8FCFA6967B3EFB644DCF6E5CEBFAE272625DCC6FAF3FB93793C5F90CE1EF57
310
407342756B10D1C489E8953CD1617E5CEECAD6F4EF8914CE5D5D504E5C3F1F9736DA62CFC11E00BCDDB8CC8A9466349744C1F75EBDA4DF09BA8A9E8C7A7E9991989E20E5DBDD6A6003664ED8F7A04A8DBE0DF6EAD9B9AA858342E47399053949D2C146EDB85DE4B176BB0965FBAC19BD19AA918E27FA50C1D22402E144464C
310
59462568E704B6E71915404CB72B8FF4EDE184DDAF753F284990D2C6926782963815403548A70C657FDEF80D2D9CEAA2AE4C1C76F60BFE74219A06527D6582DF6412526107381E55E353090704D085B52408D0933C4ED159D79BDA71BB4BC506F4831350EB6F979CD22D69BF7AC49B91A2C0A9DDA3D5CA36AD20FC478E37E6
310
1844E2352865EBCB6EA275A652E3836BE04EFB400BF1A2556F515F1FBB35B2AB35BD889C744FFA1004B5544B121E57F70215746DD2F5E2C1412B602CBF19455AC6C8E5E9922C4E01E65215385004546899059180EAFCF7A707CE7017CD8CDB0410789AB32C63B91E5CEBBBACB17AC6CD347A022D5075FD106377347AAABA7E
310
7D11590744509B44E205134DC1290F06580320F78E537D3D73540E06CB970B431F185308AD40BBD794D6D77003C5A36E8EAA54BA64597CD8F83BD552A080A365F7FF06504B0304140006080000CC70623B000000000000000000000000350000006662782F39464131463745442D413632322D343644302D413938332D3331
310
353338454246344243312F76657274696365732E62696E504B0304140006080800CC70623BF270F1330600000004000000360000006662782F39464131463745442D413632322D343644302D413938332D3331353338454246344243312F747269616E676C65732E62696E636660600000504B0304140006080000CC70623B
310
000000000000000000000000370000006662782F39464131463745442D413632322D343644302D413938332D3331353338454246344243312F617474726962757465732E62696E504B0304140006080800CC70623B08DA0BD19000000041010000360000006662782F39464131463745442D413632322D343644302D413938
310
332D3331353338454246344243312F6469726563746F72792E786D6C858F410AC3201045AF22B36F53E9A60B35CBEEBAE80D244E44489C6234F4F835464A48035D0DF398FF9F8AF63D0E6CC63039F212F8F9020C7D47C6792B21C5FE7403D62A1188E2E60C98D7234A5830286103A55745067B9D86B8A3CF9C7F90C11DE607
310
FB144396D7B6A82D282E9A152AD114D5EF2CB866EEE831B8EEA07A7BB5A8D7D61A2BAAEB7FD5F70921FF497D00504B0304140006080800CC70623B0D6EF93BFE000000A00100003B0000006662782F39464131463745442D413632322D343644302D413938332D3331353338454246344243312F7265736F75726365732F63
310
6F72652E786D6C8D50596E833010BD0A9ADFCA60B334011947A8694ED00B586642AC041B79A97AFC9A40A5F6AF3F33A3B7689E1E3F7DCD8FEC139DD7D6F4C0720A191A65476DA61E62B892236427C19DB5E1970C322367EC618541F0C9D9B8EC90B226A009093576C41D94DE63804C3DD2D18357379C652E63480A7FCF17A9
310
EE72C29CE5894E3AC17D702940B63D59270887DE46A7D0F36263058F518FBB468FE9A7BE6A7420864373B8D4873369AA8691FA421B3294352543C5CAF65C0F6FEF43CB8BD52C78D0F34F46E550061C419494B6843142CB0F5677F4B52BEB177AEC28E5C52AFF638ACBF84F53D42654E51E77B379102C05791282176B5F693D
310
CB4C7BED567C03504B010214000A0000080000CC70623B3DEE336E79000000790000001B00000000000000000000000000000000006175746F6465736B2D64657369676E2D7061636B6167652E786D6C504B01021400140006080800CC70623BD486FD9CA0000000F40000001300000000000000000000000000B20000005B
310
436F6E74656E745F54797065735D2E786D6C504B01021400140006080800CC70623B1EC5D7A3EB0000007C010000080000000000000000000000000083010000636F72652E786D6C504B01021400140006080800CC70623B55019EA25F0000007C000000070000000000000000000000000094020000636E782E786D6C504B
310
01021400140006080800CC70623B8C9102E971010000D40300000C00000000000000000000000000180300006662782F636F72652E786D6C504B01021400140006080800CC70623BFFEA85907E0000009D0000000B00000000000000000000000000B30400006662782F636E782E786D6C504B01021400140006080800CC70
310
623B4FEEA4082C0100001202000031000000000000000000000000005A0500006662782F39464131463745442D413632322D343644302D413938332D3331353338454246344243312F636F72652E786D6C504B01021400140006080800CC70623BAD7543B64E010000330300003000000000000000000000000000D5060000
310
6662782F39464131463745442D413632322D343644302D413938332D3331353338454246344243312F636E782E786D6C504B01021400140006080800CC70623B16AB87BA640500003C1000003400000000000000000000000000710800006662782F39464131463745442D413632322D343644302D413938332D3331353338
310
454246344243312F6F626A656374732E786D6C504B01021400140006080000CC70623B0000000000000000000000003500000000000000000000000000270E00006662782F39464131463745442D413632322D343644302D413938332D3331353338454246344243312F76657274696365732E62696E504B01021400140006
310
080800CC70623BF270F133060000000400000036000000000000000000000000007A0E00006662782F39464131463745442D413632322D343644302D413938332D3331353338454246344243312F747269616E676C65732E62696E504B01021400140006080000CC70623B0000000000000000000000003700000000000000
310
000000000000D40E00006662782F39464131463745442D413632322D343644302D413938332D3331353338454246344243312F617474726962757465732E62696E504B01021400140006080800CC70623B08DA0BD190000000410100003600000000000000000000000000290F00006662782F39464131463745442D413632
310
322D343644302D413938332D3331353338454246344243312F6469726563746F72792E786D6C504B01021400140006080800CC70623B0D6EF93BFE000000A00100003B000000000000000000000000000D1000006662782F39464131463745442D413632322D343644302D413938332D3331353338454246344243312F7265
310
736F75726365732F636F72652E786D6C504B0506000000000E000E0080040000641100000000
  0
XRECORD
  5
11536
102
{ACAD_REACTORS
330
173
102
}
330
173
100
AcDbXrecord
280
     1
102
MATERIAL
148
0.0
149
0.0
149
0.0
 93
        0
 94
       63
282
     0
 72
     1
 77
     1
171
     1
175
     1
179
     1
273
     0
  0
XRECORD
  5
175
102
{ACAD_REACTORS
330
173
102
}
330
173
100
AcDbXrecord
280
     1
270
     1
271
     1
  0
XRECORD
  5
174
102
{ACAD_REACTORS
330
173
102
}
330
173
100
AcDbXrecord
280
     1
270
     1
271
     1
  0
XRECORD
  5
1FB
102
{ACAD_REACTORS
330
173
102
}
330
173
100
AcDbXrecord
280
     1
 70
     0
 90
1673772943
  1
ECE7A1D2-D628-4531-984C-D00F80459256
310
504B03040A0000080000CC70623B3DEE336E79000000790000001B0000006175746F6465736B2D64657369676E2D7061636B6167652E786D6C3C3F786D6C2076657273696F6E3D22312E302220656E636F64696E673D227574662D3822203F3E3C666F726D6174733E3C666F726D61743E687474703A2F2F736368656D612E
310
6175746F6465736B2E636F6D2F64657369676E2D7061636B6167652F323030393C2F666F726D61743E3C2F666F726D6174733E504B0304140006080800CC70623BD486FD9CA0000000F4000000130000005B436F6E74656E745F54797065735D2E786D6C7D8EC10E82300C865F65E91D8A1E8C310C0EEA1BF002731658846E
310
D98AC1B77784ABF1D8FE5FBFBF75BBCE937A534CCEB38643598122B6FEE978D0B0485F9C41B54DDD7D022595594E1A469170414C76A4D9A4D207E29CF43ECE46F218070CC6BECC4078ACAA135ACF422C856C0E68EA1BF5669944DDD7BCDE7B1F8E415D77AECB980613C2E4AC91FC167A2B244592486606FC29C8FD7F045B9A
310
EF7053A7E60B504B0304140006080800CC70623BD9DDAED0EC0000007C01000008000000636F72652E786D6C8D90416EC3201045AF82665B61836D9CD8C2444DD39CA01740405C94182C03558F5F9C3852BBEB6A467FFE9B197D7EF89E6EE8CB2CC17A37002D0820E394D7D68D03A478C17B4007C117EFE32F1B20272733C0
310
2A83E0E3E2D3BC49CABB685CCCAAF3DA6CA20CC14440EA969B0182FA34932C648AD911AEC52CD5558EA6A0CF2EC329598D1E47ACCEFBECC59A050463A7EA5833865FEBDD0E37353BE3EE8DBDE3F6786A48D375FBF6CC78B9C282473B3DEFABC5C86834888A900E538A49F5419B9EB47DD5BC907D4F082F57FB1F28CDFA9F50
310
B22ED6D5F6EE030B20687EE43E10BC5CB3C8E51E54AE6B6EE207504B0304140006080800CC70623B55019EA25F0000007C00000007000000636E782E786D6C4DCB3B0E80201045D1AD90E915ED2CF8AC45050C11660C8261F98AB1B07AC9C97D42D718D865D3E909258CFD00CCE24AC6E326A164D74DC0B4128928FF326038
310
472BA13128B1252AC747C6BAB984FC68F0B87FE8960A5C09FE86CFB69FBA01504B0304140006080800CC70623BA24EB22D72010000D40300000C0000006662782F636F72652E786D6CC5535B6E833010BC8AE5DF0A6C5E49888CA3A6694ED00B38E05014B091B1518EDFE511A5A9D228FD2A1F60CDEC7A67C6986DCE4D8D7A
310
69BA4AAB0C073EC548AA5C17952A33ECECD15B61B4E1CC686DBF9561A44423333CC098B3D268D7CE50AE9595CA02AA74216750749DB418E5352C32DCE59FB211BE70162ABA93DF8AFC244AE9073ED050C759670D0840D390E18DF9F1706664C23973AE2A66B62A605A75ACA4C13C4976E1364A12EF355A2EBD384AF65EFA96
310
BC7B8BED2EA6719AAE16FB8491A199335B351775B991C2CA02F390D2D40B028F861F41BCA68B7518BFD0D59A524686F29B26D7164F36B94AD9289CE54E6D1DE6010819891F6E21228B3AD1831EC219194284CF98F06DD01008846CC5A1BEF83801D4CBDC6A1303536877A57A513B0953A94FC707FDBE6064EA84A9E3E6E0FA
310
EE8CF0E9198F7784A316AA0413C2C2F2E0ECA0934D1AE6D05A69BCDE9E91D2A611F573361E38FC1375157F5752AE6B6DFE4B11990F88CCBF0719EE23FF02504B0304140006080800CC70623B408A7D3B7C0000009D0000000B0000006662782F636E782E786D6C4DCCD10A83201886E15B91FFDC552A92A0064DBC8F581632
310
D3703A76F9ABD1C18E3E78F878E5F0D9027ABBFCF2292AE86E2D20171F69F6715550CB827B40839639A5F2770314A7CD293819B45C73AAFB45B35BA61ACAA1C1C7E7855C58C15BC331339661262CC762340413D68D77DA5B42298546CBE6573AF60CEB2F504B0304140006080800CC70623B449FB9BD290100001202000031
310
0000006662782F36394639363044362D344446342D343946362D394244322D3234314243333846323333332F636F72652E786D6C8D515B6EC32010BC0AE22B55850D98B871848994463E412FE002495162B07854397EA176A4F62F3F2C9A9D991D587EB84F37F0AD7D30CEF6905418026DA553C65E7A98E219ED203808EE9D
310
8B7F6810D871D23D2C3014FCE25D9A57483A1BB58D19B54EE9151C43D0110279CB971E06F9A5A7B11A53CC8C70ADE6515EC78BAE4895DB992778883E0700CB907242D17643D7E2538BD869608875438BBAE38922CAC8F1BDD90DB4691A5E2F42C153326A951B95E398B3D1FE599322163C9AE9115F7A3D46ADA0A018778810
310
84E907617BDCEE297BC5BB3DC6BC2EF47FA234AB2745C9D8D8D035EE220B50105E2F0DC1954B9FB747187D9F9D8FA0CCDB042D5FA0C015C65B42DF78BD10F3F3B363CB56C7109DCFDFBBB97E662ED92EB62D13BC2E1BCAE5777DB9966D8A1F504B0304140006080800CC70623BAD7543B64E01000033030000300000006662
310
782F36394639363044362D344446342D343946362D394244322D3234314243333846323333332F636E782E786D6CD593CD6EC32010845F0571AD6CE3D48AD20813A9873E410FBD12D82434182C7EAAE6EDBB2424CD25871E7B41D6EC30B3FA84F9E67BB2E40B4234DE8DB46F1925E094D7C6ED479AD3AE5951B2113C789FEE
310
6C943839C1488B4C05DF079FE72A69D8C96C13AAD6B8631503449F83828872B949AC57D26200B826A308D316B4064D6E46FCDA41C05550DC9E483A00797BFD207EFB092A45DE9514C1BBD22178396BD39D891265658C238DEA00936C654E5E433CB65A26D9F6EDB5EBC14EBF49A45CB856E66048291F6939A9A81BB5C89177
310
38143CA680F4AA299D66A042CEB3354A2684DC9D8D178FE0D9B8B41CAAD720F880EE7EF93C0C18769E099ECC04D5A102C8049A8A05632F4DDF376CF1DE0F6BB65C2F8627B65A33C6BB62177CEBBDAD973006829F89F22E814B54F4BC2BE347F8AA8F681390B50FA73F804400B5F542E796F19FF974E7F78DB802FE05E20750
310
4B0304140006080800CC70623B8D05915C650500003B100000340000006662782F36394639363044362D344446342D343946362D394244322D3234314243333846323333332F6F626A656374732E786D6CAD575B6FA33814FE2B887D06429276DA1565D4266D158D3A339A6846FB502932E050B66023DB74D2FDF5FB190C01
310
9276B2973C046C8ECFF53B17071F77456EBD502133CEAE6CDF9DD81665314F32965ED995DA3A17B6F5310C04E7AA47665B8C14F4CAD6DB7618A48257A5D94AE89654B91AEDDEDDFC61C998326A5B714EA4BCB265FC440BE2924AF184CA6737218AB8E976E7FA6E4338649B0A523E8D98964450A6A029F619B8588D52FE7039
310
B1BD30F0F4F730D0FF866AF6369557DB33949F31A9088B0F848DD8CCFCF9F2767A76E99CCDE733677E3EF59D9BBB9BA5E37F984D16E78BC5E5F5ED25044B25C0C96822E8D60EEFE11B91C581D77CEA34368A1F5329E68CD1B8B61F16D63A1B8E092D294B10C78C4A48EB593D192E7DED9BDEE7995E1B91FDEDD3ACEA9FE831
310
6A756F9F7D4D79F4274C90A7A04248AA51D5F8C718DAE06FB2F75AC4796EBE65D22A88A22223B995679120E2D50E41AA49C260C046A35368846B0BECD0DFF3EBEB8AD4F835768F69B9ADF25C43D30E6B646F807FAA64AD59F61715C7A54127C4AACA98BA3006A9D792DAE165E0D59B61A01FB3A9F9D838D2DAE62445C86166
310
F37564E842E7DE6A69879FEEA2DD5AE7E371E1A5E025154AC307D06A03D73EB5978C58FFA4C8E9033066E0F3BD53BEC1F39F91BE7B55103791EDE6BBB991A2046172CB4581D8B893FA674DDA17A77B3B7C413D1B511FD2743BFF8A38F03A658705E3ADF8015C3A3417FF3D7E439FF591DA0B5F18BC20C1B8981957AE6392A3
310
F43C640C01D1A0B4728E2DD4F26DB4B3C3152A252A3B4E913CEC1C72F012782FF88EFF8637AA552DBEF76408E8A8DE9E50F9E1CB3A2DA0DB1B6039A893B56063DC5B3E3FFB5F72E67AB9FEB4AEC496C4F4C1149625DD662C53E89D7BF0F6151A046260D1337DFDC94502430F83B0EE07A130A224BCAD7DAE1D9FB6CD422FF6
310
920702629C4BB9AE79C12F243C6432A6794E18E5552BA56B431AAB5D91317302B2B071E86C3A42B1A02F999E24061403B5D0EB639195DA655DD3EBEAB4FB862DDF579F014AD0E73C22F99E28DA57FB98E75C6CA2D74D53086D600F4786E0FE3144B771A8A7B900F03594DB8A633CBC49B2EDB69228BB479CF863B5E807AAAB
310
23872F6DFEB4129B949CA33823F58830E86D65621E10047D9DB34D862E8EAC3C2ABC2F7B2C40D67CDFE01F5545B92105AF983AC54D93D69E56FB8E797F88913F898A9FEC705D3F9D1B54EC8426FB500D40A03BD0119B06E1B95DDC7EB8F6975367793EBD70E66733DFB9BC982F9CE564727731999F5D4ECFCE3B8D6A4DC2A0
310
6D50FD148437D110834A64C6CDDF57FBACB5C307A2A477DFE4939736CFEF2B175371E0E10CF0DD1D5C15654E0BCA14D1E87DD02FF93782A162C0A3D95F1524A52770F972BF1EE9809D13CE7DD599467F8ECE9ADD85CE85A34CD45355448C64F9E8A031DC2D596ACC6E5DD93D9B82DE2EF5CAF81363A8E47996A0DE24564A79
310
4115AACE09C55E14540231FDA13C319787134EBF34E3A022514E5B4D9E0826E25C02D5805B15ABE1BEF51B26383D445DD9E875EE33FE4C22DA16427D65A3BCA92CA6D28DD01DF5DC53330704308475351050232CCD31583787BA75774AFB06E5070DD0C8EF484E19968C5D83BA5B90B244D31E54D55A372320FE4786B7EA58
310
44E135AA5467CB7EA333A61683CC6A8C3257034C10CF46F40EF9F5BE59BE5BD30C3C72D235E95D10345C1D45445A5F0BB47E46A5EBE5570F9380B5FA629579952296A773720405982B9DE04011506178964401AA8BDF1FBF0A8EAB6861DD6580C0E38217056766716DAEB2D6FA0917D3E4116581EADB879C4E7CFFB11EFACD
310
3D641311495D92C8676CB409A72D18610D803CE8A626049E8EC1887CB5B44CC39883690DDA8399B4B9855B481E7D71D4A9D22F96E5BB73BF5793020C02137BF837504B0304140006080000CC70623B000000000000000000000000350000006662782F36394639363044362D344446342D343946362D394244322D32343142
310
43333846323333332F76657274696365732E62696E504B0304140006080800CC70623BF270F1330600000004000000360000006662782F36394639363044362D344446342D343946362D394244322D3234314243333846323333332F747269616E676C65732E62696E636660600000504B0304140006080000CC70623B0000
310
00000000000000000000370000006662782F36394639363044362D344446342D343946362D394244322D3234314243333846323333332F617474726962757465732E62696E504B0304140006080800CC70623B08DA0BD19000000041010000360000006662782F36394639363044362D344446342D343946362D394244322D
310
3234314243333846323333332F6469726563746F72792E786D6C858F410AC3201045AF22B36F53E9A60B35CBEEBAE80D244E44489C6234F4F835464A48035D0DF398FF9F8AF63D0E6CC63039F212F8F9020C7D47C6792B21C5FE7403D62A1188E2E60C98D7234A5830286103A55745067B9D86B8A3CF9C7F90C11DE607FB14
310
4396D7B6A82D282E9A152AD114D5EF2CB866EEE831B8EEA07A7BB5A8D7D61A2BAAEB7FD5F70921FF497D00504B0304140006080800CC70623BCA768048FE000000A00100003B0000006662782F36394639363044362D344446342D343946362D394244322D3234314243333846323333332F7265736F75726365732F636F72
310
652E786D6C8D50596E833010BD0A9ADFCA60D600328E9AA639412F609909B1126CE4A5EAF16B0295DABFFECC8CDEA2797AECF8353F924FB44E193D409E5248504B332A3D0D10FC95B4901C39B3C6F85F3248B49871801506CE266BC2B243D2688FDA47549B11775038871E12F988C7004EDE7016A9083E2ADC3D5D84BC8B09
310
D33C8D74D471E6BC8D0192EDC93A815B742658898E651BCB59086ADC356A8C3FD555A1055ED7E7E254D615792D0F075295F585746FF53B694EE78A565DD736979A65AB9933AFE69F8CD2A2F038022F28ED489E135A7CE4554F9BBEA85E68DB53CAB255FEC71496F19FA6A0B42F8B3DEE6673C0F318E4497096AD7DC5F52C33
310
EEB55BFE0D504B010214000A0000080000CC70623B3DEE336E79000000790000001B00000000000000000000000000000000006175746F6465736B2D64657369676E2D7061636B6167652E786D6C504B01021400140006080800CC70623BD486FD9CA0000000F40000001300000000000000000000000000B20000005B436F
310
6E74656E745F54797065735D2E786D6C504B01021400140006080800CC70623BD9DDAED0EC0000007C010000080000000000000000000000000083010000636F72652E786D6C504B01021400140006080800CC70623B55019EA25F0000007C000000070000000000000000000000000095020000636E782E786D6C504B0102
310
1400140006080800CC70623BA24EB22D72010000D40300000C00000000000000000000000000190300006662782F636F72652E786D6C504B01021400140006080800CC70623B408A7D3B7C0000009D0000000B00000000000000000000000000B50400006662782F636E782E786D6C504B01021400140006080800CC70623B
310
449FB9BD290100001202000031000000000000000000000000005A0500006662782F36394639363044362D344446342D343946362D394244322D3234314243333846323333332F636F72652E786D6C504B01021400140006080800CC70623BAD7543B64E010000330300003000000000000000000000000000D20600006662
310
782F36394639363044362D344446342D343946362D394244322D3234314243333846323333332F636E782E786D6C504B01021400140006080800CC70623B8D05915C650500003B10000034000000000000000000000000006E0800006662782F36394639363044362D344446342D343946362D394244322D32343142433338
310
46323333332F6F626A656374732E786D6C504B01021400140006080000CC70623B0000000000000000000000003500000000000000000000000000250E00006662782F36394639363044362D344446342D343946362D394244322D3234314243333846323333332F76657274696365732E62696E504B010214001400060808
310
00CC70623BF270F13306000000040000003600000000000000000000000000780E00006662782F36394639363044362D344446342D343946362D394244322D3234314243333846323333332F747269616E676C65732E62696E504B01021400140006080000CC70623B00000000000000000000000037000000000000000000
310
00000000D20E00006662782F36394639363044362D344446342D343946362D394244322D3234314243333846323333332F617474726962757465732E62696E504B01021400140006080800CC70623B08DA0BD190000000410100003600000000000000000000000000270F00006662782F36394639363044362D344446342D
310
343946362D394244322D3234314243333846323333332F6469726563746F72792E786D6C504B01021400140006080800CC70623BCA768048FE000000A00100003B000000000000000000000000000B1000006662782F36394639363044362D344446342D343946362D394244322D3234314243333846323333332F7265736F
310
75726365732F636F72652E786D6C504B0506000000000E000E0080040000621100000000
  0
XRECORD
  5
176
102
{ACAD_REACTORS
330
173
102
}
330
173
100
AcDbXrecord
280
     1
270
     1
271
     1
  0
XRECORD
  5
177
102
{ACAD_REACTORS
330
173
102
}
330
173
100
AcDbXrecord
280
     1
270
     1
271
     1
  0
XRECORD
  5
11558
102
{ACAD_REACTORS
330
11557
102
}
330
11557
100
AcDbXrecord
280
     1
102
ACAD_ROUNDTRIP_2012_MLEADER_STYLE
298
     1
  0
XRECORD
  5
1156A
102
{ACAD_REACTORS
330
11569
102
}
330
11569
100
AcDbXrecord
280
     1
102
DISPLAYNAME
  1
Metric50
102
FLAGS
 90
        0
  0
CELLSTYLEMAP
  5
1152A
102
{ACAD_REACTORS
330
162
102
}
330
162
100
AcDbCellStyleMap
 90
        3
300
CELLSTYLE
  1
TABLEFORMAT_BEGIN
 90
        5
170
     1
 91
        0
 92
    32768
 62
   257
 93
        1
300
CONTENTFORMAT
  1
CONTENTFORMAT_BEGIN
 90
        0
 91
        0
 92
      512
 93
        0
300

 40
0.0
140
1.0
 94
        5
 62
     0
340
11
144
6.0
309
CONTENTFORMAT_END
171
     1
301
MARGIN
  1
CELLMARGIN_BEGIN
 40
1.5
 40
1.5
 40
1.5
 40
1.5
 40
4.5
 40
4.5
309
CELLMARGIN_END
 94
        6
 95
        1
302
GRIDFORMAT
  1
GRIDFORMAT_BEGIN
 90
        0
 91
        1
 62
     0
 92
       -2
340
14
 93
        0
 40
1.125
309
GRIDFORMAT_END
 95
        2
302
GRIDFORMAT
  1
GRIDFORMAT_BEGIN
 90
        0
 91
        1
 62
     0
 92
       -2
340
14
 93
        0
 40
1.125
309
GRIDFORMAT_END
 95
        4
302
GRIDFORMAT
  1
GRIDFORMAT_BEGIN
 90
        0
 91
        1
 62
     0
 92
       -2
340
14
 93
        0
 40
1.125
309
GRIDFORMAT_END
 95
        8
302
GRIDFORMAT
  1
GRIDFORMAT_BEGIN
 90
        0
 91
        1
 62
     0
 92
       -2
340
14
 93
        0
 40
1.125
309
GRIDFORMAT_END
 95
       16
302
GRIDFORMAT
  1
GRIDFORMAT_BEGIN
 90
        0
 91
        1
 62
     0
 92
       -2
340
14
 93
        0
 40
1.125
309
GRIDFORMAT_END
 95
       32
302
GRIDFORMAT
  1
GRIDFORMAT_BEGIN
 90
        0
 91
        1
 62
     0
 92
       -2
340
14
 93
        0
 40
1.125
309
GRIDFORMAT_END
309
TABLEFORMAT_END
  1
CELLSTYLE_BEGIN
 90
        1
 91
        1
300
_TITLE
309
CELLSTYLE_END
300
CELLSTYLE
  1
TABLEFORMAT_BEGIN
 90
        5
170
     1
 91
        0
 92
        0
 62
   257
 93
        1
300
CONTENTFORMAT
  1
CONTENTFORMAT_BEGIN
 90
        0
 91
        0
 92
      512
 93
        0
300

 40
0.0
140
1.0
 94
        5
 62
     0
340
11
144
4.5
309
CONTENTFORMAT_END
171
     1
301
MARGIN
  1
CELLMARGIN_BEGIN
 40
1.5
 40
1.5
 40
1.5
 40
1.5
 40
4.5
 40
4.5
309
CELLMARGIN_END
 94
        6
 95
        1
302
GRIDFORMAT
  1
GRIDFORMAT_BEGIN
 90
        0
 91
        1
 62
     0
 92
       -2
340
14
 93
        0
 40
1.125
309
GRIDFORMAT_END
 95
        2
302
GRIDFORMAT
  1
GRIDFORMAT_BEGIN
 90
        0
 91
        1
 62
     0
 92
       -2
340
14
 93
        0
 40
1.125
309
GRIDFORMAT_END
 95
        4
302
GRIDFORMAT
  1
GRIDFORMAT_BEGIN
 90
        0
 91
        1
 62
     0
 92
       -2
340
14
 93
        0
 40
1.125
309
GRIDFORMAT_END
 95
        8
302
GRIDFORMAT
  1
GRIDFORMAT_BEGIN
 90
        0
 91
        1
 62
     0
 92
       -2
340
14
 93
        0
 40
1.125
309
GRIDFORMAT_END
 95
       16
302
GRIDFORMAT
  1
GRIDFORMAT_BEGIN
 90
        0
 91
        1
 62
     0
 92
       -2
340
14
 93
        0
 40
1.125
309
GRIDFORMAT_END
 95
       32
302
GRIDFORMAT
  1
GRIDFORMAT_BEGIN
 90
        0
 91
        1
 62
     0
 92
       -2
340
14
 93
        0
 40
1.125
309
GRIDFORMAT_END
309
TABLEFORMAT_END
  1
CELLSTYLE_BEGIN
 90
        2
 91
        1
300
_HEADER
309
CELLSTYLE_END
300
CELLSTYLE
  1
TABLEFORMAT_BEGIN
 90
        5
170
     1
 91
        0
 92
        0
 62
   257
 93
        1
300
CONTENTFORMAT
  1
CONTENTFORMAT_BEGIN
 90
        0
 91
        0
 92
      512
 93
        0
300

 40
0.0
140
1.0
 94
        2
 62
     0
340
11
144
4.5
309
CONTENTFORMAT_END
171
     1
301
MARGIN
  1
CELLMARGIN_BEGIN
 40
1.5
 40
1.5
 40
1.5
 40
1.5
 40
4.5
 40
4.5
309
CELLMARGIN_END
 94
        6
 95
        1
302
GRIDFORMAT
  1
GRIDFORMAT_BEGIN
 90
        0
 91
        1
 62
     0
 92
       -2
340
14
 93
        0
 40
1.125
309
GRIDFORMAT_END
 95
        2
302
GRIDFORMAT
  1
GRIDFORMAT_BEGIN
 90
        0
 91
        1
 62
     0
 92
       -2
340
14
 93
        0
 40
1.125
309
GRIDFORMAT_END
 95
        4
302
GRIDFORMAT
  1
GRIDFORMAT_BEGIN
 90
        0
 91
        1
 62
     0
 92
       -2
340
14
 93
        0
 40
1.125
309
GRIDFORMAT_END
 95
        8
302
GRIDFORMAT
  1
GRIDFORMAT_BEGIN
 90
        0
 91
        1
 62
     0
 92
       -2
340
14
 93
        0
 40
1.125
309
GRIDFORMAT_END
 95
       16
302
GRIDFORMAT
  1
GRIDFORMAT_BEGIN
 90
        0
 91
        1
 62
     0
 92
       -2
340
14
 93
        0
 40
1.125
309
GRIDFORMAT_END
 95
       32
302
GRIDFORMAT
  1
GRIDFORMAT_BEGIN
 90
        0
 91
        1
 62
     0
 92
       -2
340
14
 93
        0
 40
1.125
309
GRIDFORMAT_END
309
TABLEFORMAT_END
  1
CELLSTYLE_BEGIN
 90
        3
 91
        2
300
_DATA
309
CELLSTYLE_END
  0
XRECORD
  5
1152F
102
{ACAD_REACTORS
330
162
102
}
330
162
100
AcDbXrecord
280
     1
102
ACAD_ROUNDTRIP_PRE2007_TABLESTYLE
 90
      512
 91
        0
  1

 92
      512
 93
        0
  2

 94
      512
 95
        0
  3

  0
XRECORD
  5
11542
102
{ACAD_REACTORS
330
11541
102
}
330
11541
100
AcDbXrecord
280
     1
102
RTVSPost2010Prop28
280
     1
102
RTVSPost2010PropOp28
 70
     1
102
RTVSPost2010Prop29
280
     1
102
RTVSPost2010PropOp29
 70
     1
102
RTVSPost2010Prop30
280
     0
102
RTVSPost2010PropOp30
 70
     1
102
RTVSPost2010Prop31
280
     0
102
RTVSPost2010PropOp31
 70
     1
102
RTVSPost2010Prop32
280
     0
102
RTVSPost2010PropOp32
 70
     1
102
RTVSPost2010Prop33
280
     0
102
RTVSPost2010PropOp33
 70
     1
102
RTVSPost2010Prop34
280
     0
102
RTVSPost2010PropOp34
 70
     1
102
RTVSPost2010Prop35
280
     0
102
RTVSPost2010PropOp35
 70
     1
102
RTVSPost2010Prop36
280
     0
102
RTVSPost2010PropOp36
 70
     1
102
RTVSPost2010Prop37
 90
       50
102
RTVSPost2010PropOp37
 70
     1
102
RTVSPost2010Prop38
140
0.0
102
RTVSPost2010PropOp38
 70
     1
102
RTVSPost2010Prop39
140
1.0
102
RTVSPost2010PropOp39
 70
     1
102
RTVSPost2010Prop40
 90
        0
102
RTVSPost2010PropOp40
 70
     1
102
RTVSPost2010Prop41ColorIndex
 90
       18
102
RTVSPost2010Prop41ColorRGB
 90
        0
102
RTVSPost2010PropOp41
 70
     1
102
RTVSPost2010Prop42
 90
       50
102
RTVSPost2010PropOp42
 70
     1
102
RTVSPost2010Prop43
 90
        3
102
RTVSPost2010PropOp43
 70
     1
102
RTVSPost2010Prop44ColorIndex
 90
        5
102
RTVSPost2010Prop44ColorRGB
 90
      255
102
RTVSPost2010PropOp44
 70
     1
102
RTVSPost2010Prop45
280
     0
102
RTVSPost2010PropOp45
 70
     1
102
RTVSPost2010Prop46
 90
       50
102
RTVSPost2010PropOp46
 70
     1
102
RTVSPost2010Prop47
 90
       50
102
RTVSPost2010PropOp47
 70
     1
102
RTVSPost2010Prop48
 90
       50
102
RTVSPost2010PropOp48
 70
     1
102
RTVSPost2010Prop49
280
     0
102
RTVSPost2010PropOp49
 70
     1
102
RTVSPost2010Prop50
 90
       50
102
RTVSPost2010PropOp50
 70
     1
102
RTVSPost2010Prop51ColorIndex
 90
      256
102
RTVSPost2010Prop51ColorRGB
 90
-16777216
102
RTVSPost2010PropOp51
 70
     0
102
RTVSPost2010Prop52
140
1.0
102
RTVSPost2010PropOp52
 70
     0
102
RTVSPost2010Prop53
 90
        2
102
RTVSPost2010PropOp53
 70
     1
102
RTVSPost2010Prop54
  1
strokes_ogs.tif
102
RTVSPost2010PropOp54
 70
     1
102
RTVSPost2010Prop55
280
     0
102
RTVSPost2010PropOp55
 70
     1
102
RTVSPost2010Prop56
140
1.0
102
RTVSPost2010PropOp56
 70
     1
102
RTVSPost2010Prop57
140
1.0
102
RTVSPost2010PropOp57
 70
     1
102
RTVSPropertyOp0
 70
     1
102
RTVSPropertyOp1
 70
     1
102
RTVSPropertyOp2
 70
     1
102
RTVSPropertyOp3
 70
     1
102
RTVSPropertyOp4
 70
     1
102
RTVSPropertyOp5
 70
     1
102
RTVSPropertyOp6
 70
     1
102
RTVSPropertyOp7
 70
     1
102
RTVSPropertyOp8
 70
     1
102
RTVSPropertyOp9
 70
     1
102
RTVSPropertyOp10
 70
     1
102
RTVSPropertyOp11
 70
     1
102
RTVSPropertyOp12
 70
     1
102
RTVSPropertyOp13
 70
     1
102
RTVSPropertyOp14
 70
     1
102
RTVSPropertyOp15
 70
     1
102
RTVSPropertyOp16
 70
     1
102
RTVSPropertyOp17
 70
     1
102
RTVSPropertyOp18
 70
     1
102
RTVSPropertyOp19
 70
     1
102
RTVSPropertyOp20
 70
     1
102
RTVSPropertyOp21
 70
     1
102
RTVSPropertyOp22
 70
     1
102
RTVSPropertyOp23
 70
     1
102
RTVSPropertyOp24
 70
     1
102
RTVSPropertyOp25
 70
     1
102
RTVSPropertyOp26
 70
     1
102
RTVSPropertyOp27
 70
     1
102
RTVSPropertyOp28
 70
     1
102
RTVSPropertyOp29
 70
     1
102
RTVSPropertyOp30
 70
     1
102
RTVSPropertyOp31
 70
     1
102
RTVSPropertyOp32
 70
     1
102
RTVSPropertyOp33
 70
     1
102
RTVSPropertyOp34
 70
     1
102
RTVSPropertyOp35
 70
     1
102
RTVSPropertyOp36
 70
     1
102
RTVSPropertyOp37
 70
     1
102
RTVSPropertyOp38
 70
     1
102
RTVSPropertyOp39
 70
     1
102
RTVSPropertyOp40
 70
     1
102
RTVSPropertyOp41
 70
     1
102
RTVSPropertyOp42
 70
     1
102
RTVSPropertyOp43
 70
     1
102
RTVSPropertyOp44
 70
     1
102
RTVSPropertyOp45
 70
     1
102
RTVSPropertyOp46
 70
     1
102
RTVSPropertyOp47
 70
     1
102
RTVSPropertyOp48
 70
     1
102
RTVSPropertyOp49
 70
     1
102
RTVSPropertyOp50
 70
     1
102
RTVSPropertyOp51
 70
     0
102
RTVSPropertyOp52
 70
     0
102
RTVSPropertyOp53
 70
     1
102
RTVSPropertyOp54
 70
     1
102
RTVSPropertyOp55
 70
     1
102
RTVSPropertyOp56
 70
     1
102
RTVSPropertyOp57
 70
     1
102
RTVSPropertyOp58
 70
     1
102
RTVSPropertyOp59
 70
     1
102
RTVSPropertyOp60
 70
     1
102
RTVSPropertyOp61
 70
     1
102
RTVSPropertyOp62
 70
     1
  0
XRECORD
  5
11540
102
{ACAD_REACTORS
330
1153F
102
}
330
1153F
100
AcDbXrecord
280
     1
102
RTVSPost2010Prop28
280
     0
102
RTVSPost2010PropOp28
 70
     1
102
RTVSPost2010Prop29
280
     1
102
RTVSPost2010PropOp29
 70
     1
102
RTVSPost2010Prop30
280
     1
102
RTVSPost2010PropOp30
 70
     1
102
RTVSPost2010Prop31
280
     0
102
RTVSPost2010PropOp31
 70
     1
102
RTVSPost2010Prop32
280
     0
102
RTVSPost2010PropOp32
 70
     1
102
RTVSPost2010Prop33
280
     0
102
RTVSPost2010PropOp33
 70
     1
102
RTVSPost2010Prop34
280
     0
102
RTVSPost2010PropOp34
 70
     1
102
RTVSPost2010Prop35
280
     0
102
RTVSPost2010PropOp35
 70
     1
102
RTVSPost2010Prop36
280
     0
102
RTVSPost2010PropOp36
 70
     1
102
RTVSPost2010Prop37
 90
       50
102
RTVSPost2010PropOp37
 70
     1
102
RTVSPost2010Prop38
140
0.0
102
RTVSPost2010PropOp38
 70
     1
102
RTVSPost2010Prop39
140
1.0
102
RTVSPost2010PropOp39
 70
     1
102
RTVSPost2010Prop40
 90
        0
102
RTVSPost2010PropOp40
 70
     1
102
RTVSPost2010Prop41ColorIndex
 90
       18
102
RTVSPost2010Prop41ColorRGB
 90
        0
102
RTVSPost2010PropOp41
 70
     1
102
RTVSPost2010Prop42
 90
       50
102
RTVSPost2010PropOp42
 70
     1
102
RTVSPost2010Prop43
 90
        3
102
RTVSPost2010PropOp43
 70
     1
102
RTVSPost2010Prop44ColorIndex
 90
        5
102
RTVSPost2010Prop44ColorRGB
 90
      255
102
RTVSPost2010PropOp44
 70
     1
102
RTVSPost2010Prop45
280
     0
102
RTVSPost2010PropOp45
 70
     1
102
RTVSPost2010Prop46
 90
       50
102
RTVSPost2010PropOp46
 70
     1
102
RTVSPost2010Prop47
 90
       50
102
RTVSPost2010PropOp47
 70
     1
102
RTVSPost2010Prop48
 90
       50
102
RTVSPost2010PropOp48
 70
     1
102
RTVSPost2010Prop49
280
     0
102
RTVSPost2010PropOp49
 70
     1
102
RTVSPost2010Prop50
 90
       50
102
RTVSPost2010PropOp50
 70
     1
102
RTVSPost2010Prop51ColorIndex
 90
      256
102
RTVSPost2010Prop51ColorRGB
 90
-16777216
102
RTVSPost2010PropOp51
 70
     0
102
RTVSPost2010Prop52
140
1.0
102
RTVSPost2010PropOp52
 70
     0
102
RTVSPost2010Prop53
 90
        2
102
RTVSPost2010PropOp53
 70
     1
102
RTVSPost2010Prop54
  1
strokes_ogs.tif
102
RTVSPost2010PropOp54
 70
     1
102
RTVSPost2010Prop55
280
     0
102
RTVSPost2010PropOp55
 70
     1
102
RTVSPost2010Prop56
140
1.0
102
RTVSPost2010PropOp56
 70
     1
102
RTVSPost2010Prop57
140
1.0
102
RTVSPost2010PropOp57
 70
     1
102
RTVSPropertyOp0
 70
     1
102
RTVSPropertyOp1
 70
     1
102
RTVSPropertyOp2
 70
     1
102
RTVSPropertyOp3
 70
     1
102
RTVSPropertyOp4
 70
     1
102
RTVSPropertyOp5
 70
     1
102
RTVSPropertyOp6
 70
     1
102
RTVSPropertyOp7
 70
     1
102
RTVSPropertyOp8
 70
     1
102
RTVSPropertyOp9
 70
     1
102
RTVSPropertyOp10
 70
     1
102
RTVSPropertyOp11
 70
     1
102
RTVSPropertyOp12
 70
     1
102
RTVSPropertyOp13
 70
     1
102
RTVSPropertyOp14
 70
     1
102
RTVSPropertyOp15
 70
     1
102
RTVSPropertyOp16
 70
     1
102
RTVSPropertyOp17
 70
     1
102
RTVSPropertyOp18
 70
     1
102
RTVSPropertyOp19
 70
     1
102
RTVSPropertyOp20
 70
     1
102
RTVSPropertyOp21
 70
     1
102
RTVSPropertyOp22
 70
     1
102
RTVSPropertyOp23
 70
     1
102
RTVSPropertyOp24
 70
     1
102
RTVSPropertyOp25
 70
     1
102
RTVSPropertyOp26
 70
     1
102
RTVSPropertyOp27
 70
     1
102
RTVSPropertyOp28
 70
     1
102
RTVSPropertyOp29
 70
     1
102
RTVSPropertyOp30
 70
     1
102
RTVSPropertyOp31
 70
     1
102
RTVSPropertyOp32
 70
     1
102
RTVSPropertyOp33
 70
     1
102
RTVSPropertyOp34
 70
     1
102
RTVSPropertyOp35
 70
     1
102
RTVSPropertyOp36
 70
     1
102
RTVSPropertyOp37
 70
     1
102
RTVSPropertyOp38
 70
     1
102
RTVSPropertyOp39
 70
     1
102
RTVSPropertyOp40
 70
     1
102
RTVSPropertyOp41
 70
     1
102
RTVSPropertyOp42
 70
     1
102
RTVSPropertyOp43
 70
     1
102
RTVSPropertyOp44
 70
     1
102
RTVSPropertyOp45
 70
     1
102
RTVSPropertyOp46
 70
     1
102
RTVSPropertyOp47
 70
     1
102
RTVSPropertyOp48
 70
     1
102
RTVSPropertyOp49
 70
     1
102
RTVSPropertyOp50
 70
     1
102
RTVSPropertyOp51
 70
     0
102
RTVSPropertyOp52
 70
     0
102
RTVSPropertyOp53
 70
     1
102
RTVSPropertyOp54
 70
     1
102
RTVSPropertyOp55
 70
     1
102
RTVSPropertyOp56
 70
     1
102
RTVSPropertyOp57
 70
     1
102
RTVSPropertyOp58
 70
     1
102
RTVSPropertyOp59
 70
     1
102
RTVSPropertyOp60
 70
     1
102
RTVSPropertyOp61
 70
     1
102
RTVSPropertyOp62
 70
     1
  0
XRECORD
  5
1154E
102
{ACAD_REACTORS
330
1154D
102
}
330
1154D
100
AcDbXrecord
280
     1
102
RTVSPost2010Prop28
280
     0
102
RTVSPost2010PropOp28
 70
     1
102
RTVSPost2010Prop29
280
     1
102
RTVSPost2010PropOp29
 70
     1
102
RTVSPost2010Prop30
280
     1
102
RTVSPost2010PropOp30
 70
     1
102
RTVSPost2010Prop31
280
     0
102
RTVSPost2010PropOp31
 70
     1
102
RTVSPost2010Prop32
280
     0
102
RTVSPost2010PropOp32
 70
     1
102
RTVSPost2010Prop33
280
     0
102
RTVSPost2010PropOp33
 70
     1
102
RTVSPost2010Prop34
280
     0
102
RTVSPost2010PropOp34
 70
     1
102
RTVSPost2010Prop35
280
     0
102
RTVSPost2010PropOp35
 70
     1
102
RTVSPost2010Prop36
280
     0
102
RTVSPost2010PropOp36
 70
     1
102
RTVSPost2010Prop37
 90
       50
102
RTVSPost2010PropOp37
 70
     1
102
RTVSPost2010Prop38
140
0.0
102
RTVSPost2010PropOp38
 70
     1
102
RTVSPost2010Prop39
140
1.0
102
RTVSPost2010PropOp39
 70
     1
102
RTVSPost2010Prop40
 90
        0
102
RTVSPost2010PropOp40
 70
     1
102
RTVSPost2010Prop41ColorIndex
 90
       18
102
RTVSPost2010Prop41ColorRGB
 90
        0
102
RTVSPost2010PropOp41
 70
     1
102
RTVSPost2010Prop42
 90
       50
102
RTVSPost2010PropOp42
 70
     1
102
RTVSPost2010Prop43
 90
        3
102
RTVSPost2010PropOp43
 70
     1
102
RTVSPost2010Prop44ColorIndex
 90
        5
102
RTVSPost2010Prop44ColorRGB
 90
      255
102
RTVSPost2010PropOp44
 70
     1
102
RTVSPost2010Prop45
280
     0
102
RTVSPost2010PropOp45
 70
     1
102
RTVSPost2010Prop46
 90
       50
102
RTVSPost2010PropOp46
 70
     1
102
RTVSPost2010Prop47
 90
       50
102
RTVSPost2010PropOp47
 70
     1
102
RTVSPost2010Prop48
 90
       50
102
RTVSPost2010PropOp48
 70
     1
102
RTVSPost2010Prop49
280
     0
102
RTVSPost2010PropOp49
 70
     1
102
RTVSPost2010Prop50
 90
       50
102
RTVSPost2010PropOp50
 70
     1
102
RTVSPost2010Prop51ColorIndex
 90
      256
102
RTVSPost2010Prop51ColorRGB
 90
-16777216
102
RTVSPost2010PropOp51
 70
     0
102
RTVSPost2010Prop52
140
1.0
102
RTVSPost2010PropOp52
 70
     0
102
RTVSPost2010Prop53
 90
        2
102
RTVSPost2010PropOp53
 70
     1
102
RTVSPost2010Prop54
  1
strokes_ogs.tif
102
RTVSPost2010PropOp54
 70
     1
102
RTVSPost2010Prop55
280
     0
102
RTVSPost2010PropOp55
 70
     1
102
RTVSPost2010Prop56
140
1.0
102
RTVSPost2010PropOp56
 70
     1
102
RTVSPost2010Prop57
140
1.0
102
RTVSPost2010PropOp57
 70
     1
102
RTVSPropertyOp0
 70
     1
102
RTVSPropertyOp1
 70
     1
102
RTVSPropertyOp2
 70
     1
102
RTVSPropertyOp3
 70
     1
102
RTVSPropertyOp4
 70
     1
102
RTVSPropertyOp5
 70
     1
102
RTVSPropertyOp6
 70
     1
102
RTVSPropertyOp7
 70
     1
102
RTVSPropertyOp8
 70
     1
102
RTVSPropertyOp9
 70
     1
102
RTVSPropertyOp10
 70
     1
102
RTVSPropertyOp11
 70
     1
102
RTVSPropertyOp12
 70
     1
102
RTVSPropertyOp13
 70
     1
102
RTVSPropertyOp14
 70
     1
102
RTVSPropertyOp15
 70
     1
102
RTVSPropertyOp16
 70
     1
102
RTVSPropertyOp17
 70
     1
102
RTVSPropertyOp18
 70
     1
102
RTVSPropertyOp19
 70
     1
102
RTVSPropertyOp20
 70
     1
102
RTVSPropertyOp21
 70
     1
102
RTVSPropertyOp22
 70
     1
102
RTVSPropertyOp23
 70
     1
102
RTVSPropertyOp24
 70
     1
102
RTVSPropertyOp25
 70
     1
102
RTVSPropertyOp26
 70
     1
102
RTVSPropertyOp27
 70
     1
102
RTVSPropertyOp28
 70
     1
102
RTVSPropertyOp29
 70
     1
102
RTVSPropertyOp30
 70
     1
102
RTVSPropertyOp31
 70
     1
102
RTVSPropertyOp32
 70
     1
102
RTVSPropertyOp33
 70
     1
102
RTVSPropertyOp34
 70
     1
102
RTVSPropertyOp35
 70
     1
102
RTVSPropertyOp36
 70
     1
102
RTVSPropertyOp37
 70
     1
102
RTVSPropertyOp38
 70
     1
102
RTVSPropertyOp39
 70
     1
102
RTVSPropertyOp40
 70
     1
102
RTVSPropertyOp41
 70
     1
102
RTVSPropertyOp42
 70
     1
102
RTVSPropertyOp43
 70
     1
102
RTVSPropertyOp44
 70
     1
102
RTVSPropertyOp45
 70
     1
102
RTVSPropertyOp46
 70
     1
102
RTVSPropertyOp47
 70
     1
102
RTVSPropertyOp48
 70
     1
102
RTVSPropertyOp49
 70
     1
102
RTVSPropertyOp50
 70
     1
102
RTVSPropertyOp51
 70
     0
102
RTVSPropertyOp52
 70
     0
102
RTVSPropertyOp53
 70
     1
102
RTVSPropertyOp54
 70
     1
102
RTVSPropertyOp55
 70
     1
102
RTVSPropertyOp56
 70
     1
102
RTVSPropertyOp57
 70
     1
102
RTVSPropertyOp58
 70
     1
102
RTVSPropertyOp59
 70
     1
102
RTVSPropertyOp60
 70
     1
102
RTVSPropertyOp61
 70
     1
102
RTVSPropertyOp62
 70
     1
  0
XRECORD
  5
11556
102
{ACAD_REACTORS
330
11555
102
}
330
11555
100
AcDbXrecord
280
     1
102
RTVSPost2010Prop28
280
     0
102
RTVSPost2010PropOp28
 70
     1
102
RTVSPost2010Prop29
280
     1
102
RTVSPost2010PropOp29
 70
     1
102
RTVSPost2010Prop30
280
     1
102
RTVSPost2010PropOp30
 70
     1
102
RTVSPost2010Prop31
280
     0
102
RTVSPost2010PropOp31
 70
     1
102
RTVSPost2010Prop32
280
     0
102
RTVSPost2010PropOp32
 70
     1
102
RTVSPost2010Prop33
280
     0
102
RTVSPost2010PropOp33
 70
     1
102
RTVSPost2010Prop34
280
     0
102
RTVSPost2010PropOp34
 70
     1
102
RTVSPost2010Prop35
280
     0
102
RTVSPost2010PropOp35
 70
     1
102
RTVSPost2010Prop36
280
     0
102
RTVSPost2010PropOp36
 70
     1
102
RTVSPost2010Prop37
 90
       50
102
RTVSPost2010PropOp37
 70
     1
102
RTVSPost2010Prop38
140
0.0
102
RTVSPost2010PropOp38
 70
     1
102
RTVSPost2010Prop39
140
1.0
102
RTVSPost2010PropOp39
 70
     1
102
RTVSPost2010Prop40
 90
        0
102
RTVSPost2010PropOp40
 70
     1
102
RTVSPost2010Prop41ColorIndex
 90
       18
102
RTVSPost2010Prop41ColorRGB
 90
        0
102
RTVSPost2010PropOp41
 70
     1
102
RTVSPost2010Prop42
 90
       50
102
RTVSPost2010PropOp42
 70
     1
102
RTVSPost2010Prop43
 90
        3
102
RTVSPost2010PropOp43
 70
     1
102
RTVSPost2010Prop44ColorIndex
 90
        5
102
RTVSPost2010Prop44ColorRGB
 90
      255
102
RTVSPost2010PropOp44
 70
     1
102
RTVSPost2010Prop45
280
     0
102
RTVSPost2010PropOp45
 70
     1
102
RTVSPost2010Prop46
 90
       50
102
RTVSPost2010PropOp46
 70
     1
102
RTVSPost2010Prop47
 90
       50
102
RTVSPost2010PropOp47
 70
     1
102
RTVSPost2010Prop48
 90
       50
102
RTVSPost2010PropOp48
 70
     1
102
RTVSPost2010Prop49
280
     0
102
RTVSPost2010PropOp49
 70
     1
102
RTVSPost2010Prop50
 90
       50
102
RTVSPost2010PropOp50
 70
     1
102
RTVSPost2010Prop51ColorIndex
 90
      256
102
RTVSPost2010Prop51ColorRGB
 90
-16777216
102
RTVSPost2010PropOp51
 70
     0
102
RTVSPost2010Prop52
140
1.0
102
RTVSPost2010PropOp52
 70
     0
102
RTVSPost2010Prop53
 90
        2
102
RTVSPost2010PropOp53
 70
     1
102
RTVSPost2010Prop54
  1
strokes_ogs.tif
102
RTVSPost2010PropOp54
 70
     1
102
RTVSPost2010Prop55
280
     0
102
RTVSPost2010PropOp55
 70
     1
102
RTVSPost2010Prop56
140
1.0
102
RTVSPost2010PropOp56
 70
     1
102
RTVSPost2010Prop57
140
1.0
102
RTVSPost2010PropOp57
 70
     1
102
RTVSPropertyOp0
 70
     1
102
RTVSPropertyOp1
 70
     1
102
RTVSPropertyOp2
 70
     1
102
RTVSPropertyOp3
 70
     1
102
RTVSPropertyOp4
 70
     1
102
RTVSPropertyOp5
 70
     1
102
RTVSPropertyOp6
 70
     1
102
RTVSPropertyOp7
 70
     1
102
RTVSPropertyOp8
 70
     1
102
RTVSPropertyOp9
 70
     1
102
RTVSPropertyOp10
 70
     1
102
RTVSPropertyOp11
 70
     1
102
RTVSPropertyOp12
 70
     1
102
RTVSPropertyOp13
 70
     1
102
RTVSPropertyOp14
 70
     1
102
RTVSPropertyOp15
 70
     1
102
RTVSPropertyOp16
 70
     1
102
RTVSPropertyOp17
 70
     1
102
RTVSPropertyOp18
 70
     1
102
RTVSPropertyOp19
 70
     1
102
RTVSPropertyOp20
 70
     1
102
RTVSPropertyOp21
 70
     1
102
RTVSPropertyOp22
 70
     1
102
RTVSPropertyOp23
 70
     1
102
RTVSPropertyOp24
 70
     1
102
RTVSPropertyOp25
 70
     1
102
RTVSPropertyOp26
 70
     1
102
RTVSPropertyOp27
 70
     1
102
RTVSPropertyOp28
 70
     1
102
RTVSPropertyOp29
 70
     1
102
RTVSPropertyOp30
 70
     1
102
RTVSPropertyOp31
 70
     1
102
RTVSPropertyOp32
 70
     1
102
RTVSPropertyOp33
 70
     1
102
RTVSPropertyOp34
 70
     1
102
RTVSPropertyOp35
 70
     1
102
RTVSPropertyOp36
 70
     1
102
RTVSPropertyOp37
 70
     1
102
RTVSPropertyOp38
 70
     1
102
RTVSPropertyOp39
 70
     1
102
RTVSPropertyOp40
 70
     1
102
RTVSPropertyOp41
 70
     1
102
RTVSPropertyOp42
 70
     1
102
RTVSPropertyOp43
 70
     1
102
RTVSPropertyOp44
 70
     1
102
RTVSPropertyOp45
 70
     1
102
RTVSPropertyOp46
 70
     1
102
RTVSPropertyOp47
 70
     1
102
RTVSPropertyOp48
 70
     1
102
RTVSPropertyOp49
 70
     1
102
RTVSPropertyOp50
 70
     1
102
RTVSPropertyOp51
 70
     0
102
RTVSPropertyOp52
 70
     0
102
RTVSPropertyOp53
 70
     1
102
RTVSPropertyOp54
 70
     1
102
RTVSPropertyOp55
 70
     1
102
RTVSPropertyOp56
 70
     1
102
RTVSPropertyOp57
 70
     1
102
RTVSPropertyOp58
 70
     1
102
RTVSPropertyOp59
 70
     1
102
RTVSPropertyOp60
 70
     1
102
RTVSPropertyOp61
 70
     1
102
RTVSPropertyOp62
 70
     1
  0
XRECORD
  5
11548
102
{ACAD_REACTORS
330
11547
102
}
330
11547
100
AcDbXrecord
280
     1
102
RTVSPost2010Prop28
280
     0
102
RTVSPost2010PropOp28
 70
     1
102
RTVSPost2010Prop29
280
     1
102
RTVSPost2010PropOp29
 70
     1
102
RTVSPost2010Prop30
280
     1
102
RTVSPost2010PropOp30
 70
     1
102
RTVSPost2010Prop31
280
     0
102
RTVSPost2010PropOp31
 70
     1
102
RTVSPost2010Prop32
280
     0
102
RTVSPost2010PropOp32
 70
     1
102
RTVSPost2010Prop33
280
     0
102
RTVSPost2010PropOp33
 70
     1
102
RTVSPost2010Prop34
280
     0
102
RTVSPost2010PropOp34
 70
     1
102
RTVSPost2010Prop35
280
     0
102
RTVSPost2010PropOp35
 70
     1
102
RTVSPost2010Prop36
280
     0
102
RTVSPost2010PropOp36
 70
     1
102
RTVSPost2010Prop37
 90
       50
102
RTVSPost2010PropOp37
 70
     1
102
RTVSPost2010Prop38
140
0.0
102
RTVSPost2010PropOp38
 70
     1
102
RTVSPost2010Prop39
140
1.0
102
RTVSPost2010PropOp39
 70
     1
102
RTVSPost2010Prop40
 90
        0
102
RTVSPost2010PropOp40
 70
     1
102
RTVSPost2010Prop41ColorIndex
 90
       18
102
RTVSPost2010Prop41ColorRGB
 90
        0
102
RTVSPost2010PropOp41
 70
     1
102
RTVSPost2010Prop42
 90
       50
102
RTVSPost2010PropOp42
 70
     1
102
RTVSPost2010Prop43
 90
        3
102
RTVSPost2010PropOp43
 70
     1
102
RTVSPost2010Prop44ColorIndex
 90
        5
102
RTVSPost2010Prop44ColorRGB
 90
      255
102
RTVSPost2010PropOp44
 70
     1
102
RTVSPost2010Prop45
280
     0
102
RTVSPost2010PropOp45
 70
     1
102
RTVSPost2010Prop46
 90
       50
102
RTVSPost2010PropOp46
 70
     1
102
RTVSPost2010Prop47
 90
       50
102
RTVSPost2010PropOp47
 70
     1
102
RTVSPost2010Prop48
 90
       50
102
RTVSPost2010PropOp48
 70
     1
102
RTVSPost2010Prop49
280
     0
102
RTVSPost2010PropOp49
 70
     1
102
RTVSPost2010Prop50
 90
       50
102
RTVSPost2010PropOp50
 70
     1
102
RTVSPost2010Prop51ColorIndex
 90
      256
102
RTVSPost2010Prop51ColorRGB
 90
-16777216
102
RTVSPost2010PropOp51
 70
     0
102
RTVSPost2010Prop52
140
1.0
102
RTVSPost2010PropOp52
 70
     0
102
RTVSPost2010Prop53
 90
        2
102
RTVSPost2010PropOp53
 70
     1
102
RTVSPost2010Prop54
  1
strokes_ogs.tif
102
RTVSPost2010PropOp54
 70
     1
102
RTVSPost2010Prop55
280
     0
102
RTVSPost2010PropOp55
 70
     1
102
RTVSPost2010Prop56
140
1.0
102
RTVSPost2010PropOp56
 70
     1
102
RTVSPost2010Prop57
140
1.0
102
RTVSPost2010PropOp57
 70
     1
102
RTVSPropertyOp0
 70
     1
102
RTVSPropertyOp1
 70
     1
102
RTVSPropertyOp2
 70
     1
102
RTVSPropertyOp3
 70
     1
102
RTVSPropertyOp4
 70
     1
102
RTVSPropertyOp5
 70
     1
102
RTVSPropertyOp6
 70
     1
102
RTVSPropertyOp7
 70
     1
102
RTVSPropertyOp8
 70
     1
102
RTVSPropertyOp9
 70
     1
102
RTVSPropertyOp10
 70
     1
102
RTVSPropertyOp11
 70
     1
102
RTVSPropertyOp12
 70
     1
102
RTVSPropertyOp13
 70
     1
102
RTVSPropertyOp14
 70
     1
102
RTVSPropertyOp15
 70
     1
102
RTVSPropertyOp16
 70
     1
102
RTVSPropertyOp17
 70
     1
102
RTVSPropertyOp18
 70
     1
102
RTVSPropertyOp19
 70
     1
102
RTVSPropertyOp20
 70
     1
102
RTVSPropertyOp21
 70
     1
102
RTVSPropertyOp22
 70
     1
102
RTVSPropertyOp23
 70
     1
102
RTVSPropertyOp24
 70
     1
102
RTVSPropertyOp25
 70
     1
102
RTVSPropertyOp26
 70
     1
102
RTVSPropertyOp27
 70
     1
102
RTVSPropertyOp28
 70
     1
102
RTVSPropertyOp29
 70
     1
102
RTVSPropertyOp30
 70
     1
102
RTVSPropertyOp31
 70
     1
102
RTVSPropertyOp32
 70
     1
102
RTVSPropertyOp33
 70
     1
102
RTVSPropertyOp34
 70
     1
102
RTVSPropertyOp35
 70
     1
102
RTVSPropertyOp36
 70
     1
102
RTVSPropertyOp37
 70
     1
102
RTVSPropertyOp38
 70
     1
102
RTVSPropertyOp39
 70
     1
102
RTVSPropertyOp40
 70
     1
102
RTVSPropertyOp41
 70
     1
102
RTVSPropertyOp42
 70
     1
102
RTVSPropertyOp43
 70
     1
102
RTVSPropertyOp44
 70
     1
102
RTVSPropertyOp45
 70
     1
102
RTVSPropertyOp46
 70
     1
102
RTVSPropertyOp47
 70
     1
102
RTVSPropertyOp48
 70
     1
102
RTVSPropertyOp49
 70
     1
102
RTVSPropertyOp50
 70
     1
102
RTVSPropertyOp51
 70
     0
102
RTVSPropertyOp52
 70
     0
102
RTVSPropertyOp53
 70
     1
102
RTVSPropertyOp54
 70
     1
102
RTVSPropertyOp55
 70
     1
102
RTVSPropertyOp56
 70
     1
102
RTVSPropertyOp57
 70
     1
102
RTVSPropertyOp58
 70
     1
102
RTVSPropertyOp59
 70
     1
102
RTVSPropertyOp60
 70
     1
102
RTVSPropertyOp61
 70
     1
102
RTVSPropertyOp62
 70
     1
  0
XRECORD
  5
1154C
102
{ACAD_REACTORS
330
1154B
102
}
330
1154B
100
AcDbXrecord
280
     1
102
RTVSPost2010Prop28
280
     0
102
RTVSPost2010PropOp28
 70
     1
102
RTVSPost2010Prop29
280
     1
102
RTVSPost2010PropOp29
 70
     1
102
RTVSPost2010Prop30
280
     1
102
RTVSPost2010PropOp30
 70
     1
102
RTVSPost2010Prop31
280
     0
102
RTVSPost2010PropOp31
 70
     1
102
RTVSPost2010Prop32
280
     0
102
RTVSPost2010PropOp32
 70
     1
102
RTVSPost2010Prop33
280
     0
102
RTVSPost2010PropOp33
 70
     1
102
RTVSPost2010Prop34
280
     0
102
RTVSPost2010PropOp34
 70
     1
102
RTVSPost2010Prop35
280
     0
102
RTVSPost2010PropOp35
 70
     1
102
RTVSPost2010Prop36
280
     0
102
RTVSPost2010PropOp36
 70
     1
102
RTVSPost2010Prop37
 90
       50
102
RTVSPost2010PropOp37
 70
     1
102
RTVSPost2010Prop38
140
0.0
102
RTVSPost2010PropOp38
 70
     1
102
RTVSPost2010Prop39
140
1.0
102
RTVSPost2010PropOp39
 70
     1
102
RTVSPost2010Prop40
 90
        0
102
RTVSPost2010PropOp40
 70
     1
102
RTVSPost2010Prop41ColorIndex
 90
       18
102
RTVSPost2010Prop41ColorRGB
 90
        0
102
RTVSPost2010PropOp41
 70
     1
102
RTVSPost2010Prop42
 90
       50
102
RTVSPost2010PropOp42
 70
     1
102
RTVSPost2010Prop43
 90
        3
102
RTVSPost2010PropOp43
 70
     1
102
RTVSPost2010Prop44ColorIndex
 90
        5
102
RTVSPost2010Prop44ColorRGB
 90
      255
102
RTVSPost2010PropOp44
 70
     1
102
RTVSPost2010Prop45
280
     0
102
RTVSPost2010PropOp45
 70
     1
102
RTVSPost2010Prop46
 90
       50
102
RTVSPost2010PropOp46
 70
     1
102
RTVSPost2010Prop47
 90
       50
102
RTVSPost2010PropOp47
 70
     1
102
RTVSPost2010Prop48
 90
       50
102
RTVSPost2010PropOp48
 70
     1
102
RTVSPost2010Prop49
280
     0
102
RTVSPost2010PropOp49
 70
     1
102
RTVSPost2010Prop50
 90
       50
102
RTVSPost2010PropOp50
 70
     1
102
RTVSPost2010Prop51ColorIndex
 90
      256
102
RTVSPost2010Prop51ColorRGB
 90
-16777216
102
RTVSPost2010PropOp51
 70
     0
102
RTVSPost2010Prop52
140
1.0
102
RTVSPost2010PropOp52
 70
     0
102
RTVSPost2010Prop53
 90
        2
102
RTVSPost2010PropOp53
 70
     1
102
RTVSPost2010Prop54
  1
strokes_ogs.tif
102
RTVSPost2010PropOp54
 70
     1
102
RTVSPost2010Prop55
280
     0
102
RTVSPost2010PropOp55
 70
     1
102
RTVSPost2010Prop56
140
1.0
102
RTVSPost2010PropOp56
 70
     1
102
RTVSPost2010Prop57
140
1.0
102
RTVSPost2010PropOp57
 70
     1
102
RTVSPropertyOp0
 70
     1
102
RTVSPropertyOp1
 70
     1
102
RTVSPropertyOp2
 70
     1
102
RTVSPropertyOp3
 70
     1
102
RTVSPropertyOp4
 70
     1
102
RTVSPropertyOp5
 70
     1
102
RTVSPropertyOp6
 70
     1
102
RTVSPropertyOp7
 70
     1
102
RTVSPropertyOp8
 70
     1
102
RTVSPropertyOp9
 70
     1
102
RTVSPropertyOp10
 70
     1
102
RTVSPropertyOp11
 70
     1
102
RTVSPropertyOp12
 70
     1
102
RTVSPropertyOp13
 70
     1
102
RTVSPropertyOp14
 70
     1
102
RTVSPropertyOp15
 70
     1
102
RTVSPropertyOp16
 70
     1
102
RTVSPropertyOp17
 70
     1
102
RTVSPropertyOp18
 70
     1
102
RTVSPropertyOp19
 70
     1
102
RTVSPropertyOp20
 70
     1
102
RTVSPropertyOp21
 70
     1
102
RTVSPropertyOp22
 70
     1
102
RTVSPropertyOp23
 70
     1
102
RTVSPropertyOp24
 70
     1
102
RTVSPropertyOp25
 70
     1
102
RTVSPropertyOp26
 70
     1
102
RTVSPropertyOp27
 70
     1
102
RTVSPropertyOp28
 70
     1
102
RTVSPropertyOp29
 70
     1
102
RTVSPropertyOp30
 70
     1
102
RTVSPropertyOp31
 70
     1
102
RTVSPropertyOp32
 70
     1
102
RTVSPropertyOp33
 70
     1
102
RTVSPropertyOp34
 70
     1
102
RTVSPropertyOp35
 70
     1
102
RTVSPropertyOp36
 70
     1
102
RTVSPropertyOp37
 70
     1
102
RTVSPropertyOp38
 70
     1
102
RTVSPropertyOp39
 70
     1
102
RTVSPropertyOp40
 70
     1
102
RTVSPropertyOp41
 70
     1
102
RTVSPropertyOp42
 70
     1
102
RTVSPropertyOp43
 70
     1
102
RTVSPropertyOp44
 70
     1
102
RTVSPropertyOp45
 70
     1
102
RTVSPropertyOp46
 70
     1
102
RTVSPropertyOp47
 70
     1
102
RTVSPropertyOp48
 70
     1
102
RTVSPropertyOp49
 70
     1
102
RTVSPropertyOp50
 70
     1
102
RTVSPropertyOp51
 70
     0
102
RTVSPropertyOp52
 70
     0
102
RTVSPropertyOp53
 70
     1
102
RTVSPropertyOp54
 70
     1
102
RTVSPropertyOp55
 70
     1
102
RTVSPropertyOp56
 70
     1
102
RTVSPropertyOp57
 70
     1
102
RTVSPropertyOp58
 70
     1
102
RTVSPropertyOp59
 70
     1
102
RTVSPropertyOp60
 70
     1
102
RTVSPropertyOp61
 70
     1
102
RTVSPropertyOp62
 70
     1
  0
XRECORD
  5
1155E
102
{ACAD_REACTORS
330
1155D
102
}
330
1155D
100
AcDbXrecord
280
     1
102
RTVSPost2010Prop28
280
     0
102
RTVSPost2010PropOp28
 70
     1
102
RTVSPost2010Prop29
280
     1
102
RTVSPost2010PropOp29
 70
     1
102
RTVSPost2010Prop30
280
     1
102
RTVSPost2010PropOp30
 70
     1
102
RTVSPost2010Prop31
280
     0
102
RTVSPost2010PropOp31
 70
     1
102
RTVSPost2010Prop32
280
     0
102
RTVSPost2010PropOp32
 70
     1
102
RTVSPost2010Prop33
280
     0
102
RTVSPost2010PropOp33
 70
     1
102
RTVSPost2010Prop34
280
     0
102
RTVSPost2010PropOp34
 70
     1
102
RTVSPost2010Prop35
280
     0
102
RTVSPost2010PropOp35
 70
     1
102
RTVSPost2010Prop36
280
     0
102
RTVSPost2010PropOp36
 70
     1
102
RTVSPost2010Prop37
 90
       50
102
RTVSPost2010PropOp37
 70
     1
102
RTVSPost2010Prop38
140
0.0
102
RTVSPost2010PropOp38
 70
     1
102
RTVSPost2010Prop39
140
1.0
102
RTVSPost2010PropOp39
 70
     1
102
RTVSPost2010Prop40
 90
        0
102
RTVSPost2010PropOp40
 70
     1
102
RTVSPost2010Prop41ColorIndex
 90
       18
102
RTVSPost2010Prop41ColorRGB
 90
        0
102
RTVSPost2010PropOp41
 70
     1
102
RTVSPost2010Prop42
 90
       50
102
RTVSPost2010PropOp42
 70
     1
102
RTVSPost2010Prop43
 90
        3
102
RTVSPost2010PropOp43
 70
     1
102
RTVSPost2010Prop44ColorIndex
 90
        5
102
RTVSPost2010Prop44ColorRGB
 90
      255
102
RTVSPost2010PropOp44
 70
     1
102
RTVSPost2010Prop45
280
     0
102
RTVSPost2010PropOp45
 70
     1
102
RTVSPost2010Prop46
 90
       50
102
RTVSPost2010PropOp46
 70
     1
102
RTVSPost2010Prop47
 90
       50
102
RTVSPost2010PropOp47
 70
     1
102
RTVSPost2010Prop48
 90
       50
102
RTVSPost2010PropOp48
 70
     1
102
RTVSPost2010Prop49
280
     0
102
RTVSPost2010PropOp49
 70
     1
102
RTVSPost2010Prop50
 90
       50
102
RTVSPost2010PropOp50
 70
     1
102
RTVSPost2010Prop51ColorIndex
 90
      256
102
RTVSPost2010Prop51ColorRGB
 90
-16777216
102
RTVSPost2010PropOp51
 70
     0
102
RTVSPost2010Prop52
140
1.0
102
RTVSPost2010PropOp52
 70
     0
102
RTVSPost2010Prop53
 90
        2
102
RTVSPost2010PropOp53
 70
     1
102
RTVSPost2010Prop54
  1
strokes_ogs.tif
102
RTVSPost2010PropOp54
 70
     1
102
RTVSPost2010Prop55
280
     0
102
RTVSPost2010PropOp55
 70
     1
102
RTVSPost2010Prop56
140
1.0
102
RTVSPost2010PropOp56
 70
     1
102
RTVSPost2010Prop57
140
1.0
102
RTVSPost2010PropOp57
 70
     1
102
RTVSPropertyOp0
 70
     0
102
RTVSPropertyOp1
 70
     0
102
RTVSPropertyOp2
 70
     0
102
RTVSPropertyOp3
 70
     0
102
RTVSPropertyOp4
 70
     0
102
RTVSPropertyOp5
 70
     0
102
RTVSPropertyOp6
 70
     0
102
RTVSPropertyOp7
 70
     0
102
RTVSPropertyOp8
 70
     0
102
RTVSPropertyOp9
 70
     0
102
RTVSPropertyOp10
 70
     0
102
RTVSPropertyOp11
 70
     0
102
RTVSPropertyOp12
 70
     0
102
RTVSPropertyOp13
 70
     0
102
RTVSPropertyOp14
 70
     2
102
RTVSPropertyOp15
 70
     0
102
RTVSPropertyOp16
 70
     0
102
RTVSPropertyOp17
 70
     0
102
RTVSPropertyOp18
 70
     0
102
RTVSPropertyOp19
 70
     0
102
RTVSPropertyOp20
 70
     0
102
RTVSPropertyOp21
 70
     0
102
RTVSPropertyOp22
 70
     0
102
RTVSPropertyOp23
 70
     0
102
RTVSPropertyOp24
 70
     0
102
RTVSPropertyOp25
 70
     0
102
RTVSPropertyOp26
 70
     0
102
RTVSPropertyOp27
 70
     0
102
RTVSPropertyOp28
 70
     1
102
RTVSPropertyOp29
 70
     1
102
RTVSPropertyOp30
 70
     1
102
RTVSPropertyOp31
 70
     1
102
RTVSPropertyOp32
 70
     1
102
RTVSPropertyOp33
 70
     1
102
RTVSPropertyOp34
 70
     1
102
RTVSPropertyOp35
 70
     1
102
RTVSPropertyOp36
 70
     1
102
RTVSPropertyOp37
 70
     1
102
RTVSPropertyOp38
 70
     1
102
RTVSPropertyOp39
 70
     1
102
RTVSPropertyOp40
 70
     1
102
RTVSPropertyOp41
 70
     1
102
RTVSPropertyOp42
 70
     1
102
RTVSPropertyOp43
 70
     1
102
RTVSPropertyOp44
 70
     1
102
RTVSPropertyOp45
 70
     1
102
RTVSPropertyOp46
 70
     1
102
RTVSPropertyOp47
 70
     1
102
RTVSPropertyOp48
 70
     1
102
RTVSPropertyOp49
 70
     1
102
RTVSPropertyOp50
 70
     1
102
RTVSPropertyOp51
 70
     0
102
RTVSPropertyOp52
 70
     0
102
RTVSPropertyOp53
 70
     1
102
RTVSPropertyOp54
 70
     1
102
RTVSPropertyOp55
 70
     1
102
RTVSPropertyOp56
 70
     1
102
RTVSPropertyOp57
 70
     1
102
RTVSPropertyOp58
 70
     1
102
RTVSPropertyOp59
 70
     1
102
RTVSPropertyOp60
 70
     1
102
RTVSPropertyOp61
 70
     1
102
RTVSPropertyOp62
 70
     1
  0
XRECORD
  5
11554
102
{ACAD_REACTORS
330
11553
102
}
330
11553
100
AcDbXrecord
280
     1
102
RTVSPost2010Prop28
280
     0
102
RTVSPost2010PropOp28
 70
     1
102
RTVSPost2010Prop29
280
     1
102
RTVSPost2010PropOp29
 70
     1
102
RTVSPost2010Prop30
280
     1
102
RTVSPost2010PropOp30
 70
     1
102
RTVSPost2010Prop31
280
     0
102
RTVSPost2010PropOp31
 70
     1
102
RTVSPost2010Prop32
280
     0
102
RTVSPost2010PropOp32
 70
     1
102
RTVSPost2010Prop33
280
     0
102
RTVSPost2010PropOp33
 70
     1
102
RTVSPost2010Prop34
280
     0
102
RTVSPost2010PropOp34
 70
     1
102
RTVSPost2010Prop35
280
     0
102
RTVSPost2010PropOp35
 70
     1
102
RTVSPost2010Prop36
280
     0
102
RTVSPost2010PropOp36
 70
     1
102
RTVSPost2010Prop37
 90
       50
102
RTVSPost2010PropOp37
 70
     1
102
RTVSPost2010Prop38
140
0.0
102
RTVSPost2010PropOp38
 70
     1
102
RTVSPost2010Prop39
140
1.0
102
RTVSPost2010PropOp39
 70
     1
102
RTVSPost2010Prop40
 90
        0
102
RTVSPost2010PropOp40
 70
     1
102
RTVSPost2010Prop41ColorIndex
 90
       18
102
RTVSPost2010Prop41ColorRGB
 90
        0
102
RTVSPost2010PropOp41
 70
     1
102
RTVSPost2010Prop42
 90
       50
102
RTVSPost2010PropOp42
 70
     1
102
RTVSPost2010Prop43
 90
        3
102
RTVSPost2010PropOp43
 70
     1
102
RTVSPost2010Prop44ColorIndex
 90
        5
102
RTVSPost2010Prop44ColorRGB
 90
      255
102
RTVSPost2010PropOp44
 70
     1
102
RTVSPost2010Prop45
280
     0
102
RTVSPost2010PropOp45
 70
     1
102
RTVSPost2010Prop46
 90
       50
102
RTVSPost2010PropOp46
 70
     1
102
RTVSPost2010Prop47
 90
       50
102
RTVSPost2010PropOp47
 70
     1
102
RTVSPost2010Prop48
 90
       50
102
RTVSPost2010PropOp48
 70
     1
102
RTVSPost2010Prop49
280
     0
102
RTVSPost2010PropOp49
 70
     1
102
RTVSPost2010Prop50
 90
       50
102
RTVSPost2010PropOp50
 70
     1
102
RTVSPost2010Prop51ColorIndex
 90
      256
102
RTVSPost2010Prop51ColorRGB
 90
-16777216
102
RTVSPost2010PropOp51
 70
     0
102
RTVSPost2010Prop52
140
1.0
102
RTVSPost2010PropOp52
 70
     0
102
RTVSPost2010Prop53
 90
        2
102
RTVSPost2010PropOp53
 70
     1
102
RTVSPost2010Prop54
  1
strokes_ogs.tif
102
RTVSPost2010PropOp54
 70
     1
102
RTVSPost2010Prop55
280
     0
102
RTVSPost2010PropOp55
 70
     1
102
RTVSPost2010Prop56
140
1.0
102
RTVSPost2010PropOp56
 70
     1
102
RTVSPost2010Prop57
140
1.0
102
RTVSPost2010PropOp57
 70
     1
102
RTVSPropertyOp0
 70
     1
102
RTVSPropertyOp1
 70
     1
102
RTVSPropertyOp2
 70
     1
102
RTVSPropertyOp3
 70
     1
102
RTVSPropertyOp4
 70
     1
102
RTVSPropertyOp5
 70
     1
102
RTVSPropertyOp6
 70
     1
102
RTVSPropertyOp7
 70
     1
102
RTVSPropertyOp8
 70
     1
102
RTVSPropertyOp9
 70
     1
102
RTVSPropertyOp10
 70
     1
102
RTVSPropertyOp11
 70
     1
102
RTVSPropertyOp12
 70
     1
102
RTVSPropertyOp13
 70
     1
102
RTVSPropertyOp14
 70
     1
102
RTVSPropertyOp15
 70
     1
102
RTVSPropertyOp16
 70
     1
102
RTVSPropertyOp17
 70
     1
102
RTVSPropertyOp18
 70
     1
102
RTVSPropertyOp19
 70
     1
102
RTVSPropertyOp20
 70
     1
102
RTVSPropertyOp21
 70
     1
102
RTVSPropertyOp22
 70
     1
102
RTVSPropertyOp23
 70
     1
102
RTVSPropertyOp24
 70
     1
102
RTVSPropertyOp25
 70
     1
102
RTVSPropertyOp26
 70
     1
102
RTVSPropertyOp27
 70
     1
102
RTVSPropertyOp28
 70
     1
102
RTVSPropertyOp29
 70
     1
102
RTVSPropertyOp30
 70
     1
102
RTVSPropertyOp31
 70
     1
102
RTVSPropertyOp32
 70
     1
102
RTVSPropertyOp33
 70
     1
102
RTVSPropertyOp34
 70
     1
102
RTVSPropertyOp35
 70
     1
102
RTVSPropertyOp36
 70
     1
102
RTVSPropertyOp37
 70
     1
102
RTVSPropertyOp38
 70
     1
102
RTVSPropertyOp39
 70
     1
102
RTVSPropertyOp40
 70
     1
102
RTVSPropertyOp41
 70
     1
102
RTVSPropertyOp42
 70
     1
102
RTVSPropertyOp43
 70
     1
102
RTVSPropertyOp44
 70
     1
102
RTVSPropertyOp45
 70
     1
102
RTVSPropertyOp46
 70
     1
102
RTVSPropertyOp47
 70
     1
102
RTVSPropertyOp48
 70
     1
102
RTVSPropertyOp49
 70
     1
102
RTVSPropertyOp50
 70
     1
102
RTVSPropertyOp51
 70
     0
102
RTVSPropertyOp52
 70
     0
102
RTVSPropertyOp53
 70
     1
102
RTVSPropertyOp54
 70
     1
102
RTVSPropertyOp55
 70
     1
102
RTVSPropertyOp56
 70
     1
102
RTVSPropertyOp57
 70
     1
102
RTVSPropertyOp58
 70
     1
102
RTVSPropertyOp59
 70
     1
102
RTVSPropertyOp60
 70
     1
102
RTVSPropertyOp61
 70
     1
102
RTVSPropertyOp62
 70
     1
  0
XRECORD
  5
11538
102
{ACAD_REACTORS
330
11537
102
}
330
11537
100
AcDbXrecord
280
     1
102
RTVSPost2010Prop28
280
     0
102
RTVSPost2010PropOp28
 70
     1
102
RTVSPost2010Prop29
280
     1
102
RTVSPost2010PropOp29
 70
     1
102
RTVSPost2010Prop30
280
     1
102
RTVSPost2010PropOp30
 70
     1
102
RTVSPost2010Prop31
280
     0
102
RTVSPost2010PropOp31
 70
     1
102
RTVSPost2010Prop32
280
     0
102
RTVSPost2010PropOp32
 70
     1
102
RTVSPost2010Prop33
280
     0
102
RTVSPost2010PropOp33
 70
     1
102
RTVSPost2010Prop34
280
     0
102
RTVSPost2010PropOp34
 70
     1
102
RTVSPost2010Prop35
280
     0
102
RTVSPost2010PropOp35
 70
     1
102
RTVSPost2010Prop36
280
     0
102
RTVSPost2010PropOp36
 70
     1
102
RTVSPost2010Prop37
 90
       50
102
RTVSPost2010PropOp37
 70
     1
102
RTVSPost2010Prop38
140
0.0
102
RTVSPost2010PropOp38
 70
     1
102
RTVSPost2010Prop39
140
1.0
102
RTVSPost2010PropOp39
 70
     1
102
RTVSPost2010Prop40
 90
        0
102
RTVSPost2010PropOp40
 70
     1
102
RTVSPost2010Prop41ColorIndex
 90
       18
102
RTVSPost2010Prop41ColorRGB
 90
        0
102
RTVSPost2010PropOp41
 70
     1
102
RTVSPost2010Prop42
 90
       50
102
RTVSPost2010PropOp42
 70
     1
102
RTVSPost2010Prop43
 90
        3
102
RTVSPost2010PropOp43
 70
     1
102
RTVSPost2010Prop44ColorIndex
 90
        5
102
RTVSPost2010Prop44ColorRGB
 90
      255
102
RTVSPost2010PropOp44
 70
     1
102
RTVSPost2010Prop45
280
     0
102
RTVSPost2010PropOp45
 70
     1
102
RTVSPost2010Prop46
 90
       50
102
RTVSPost2010PropOp46
 70
     1
102
RTVSPost2010Prop47
 90
       50
102
RTVSPost2010PropOp47
 70
     1
102
RTVSPost2010Prop48
 90
       50
102
RTVSPost2010PropOp48
 70
     1
102
RTVSPost2010Prop49
280
     0
102
RTVSPost2010PropOp49
 70
     1
102
RTVSPost2010Prop50
 90
       50
102
RTVSPost2010PropOp50
 70
     1
102
RTVSPost2010Prop51ColorIndex
 90
      256
102
RTVSPost2010Prop51ColorRGB
 90
-16777216
102
RTVSPost2010PropOp51
 70
     0
102
RTVSPost2010Prop52
140
1.0
102
RTVSPost2010PropOp52
 70
     0
102
RTVSPost2010Prop53
 90
        2
102
RTVSPost2010PropOp53
 70
     1
102
RTVSPost2010Prop54
  1
strokes_ogs.tif
102
RTVSPost2010PropOp54
 70
     1
102
RTVSPost2010Prop55
280
     0
102
RTVSPost2010PropOp55
 70
     1
102
RTVSPost2010Prop56
140
1.0
102
RTVSPost2010PropOp56
 70
     1
102
RTVSPost2010Prop57
140
1.0
102
RTVSPost2010PropOp57
 70
     1
102
RTVSPropertyOp0
 70
     1
102
RTVSPropertyOp1
 70
     1
102
RTVSPropertyOp2
 70
     1
102
RTVSPropertyOp3
 70
     1
102
RTVSPropertyOp4
 70
     1
102
RTVSPropertyOp5
 70
     1
102
RTVSPropertyOp6
 70
     1
102
RTVSPropertyOp7
 70
     1
102
RTVSPropertyOp8
 70
     1
102
RTVSPropertyOp9
 70
     1
102
RTVSPropertyOp10
 70
     1
102
RTVSPropertyOp11
 70
     1
102
RTVSPropertyOp12
 70
     1
102
RTVSPropertyOp13
 70
     1
102
RTVSPropertyOp14
 70
     1
102
RTVSPropertyOp15
 70
     1
102
RTVSPropertyOp16
 70
     1
102
RTVSPropertyOp17
 70
     1
102
RTVSPropertyOp18
 70
     1
102
RTVSPropertyOp19
 70
     1
102
RTVSPropertyOp20
 70
     1
102
RTVSPropertyOp21
 70
     1
102
RTVSPropertyOp22
 70
     1
102
RTVSPropertyOp23
 70
     1
102
RTVSPropertyOp24
 70
     1
102
RTVSPropertyOp25
 70
     1
102
RTVSPropertyOp26
 70
     1
102
RTVSPropertyOp27
 70
     1
102
RTVSPropertyOp28
 70
     1
102
RTVSPropertyOp29
 70
     1
102
RTVSPropertyOp30
 70
     1
102
RTVSPropertyOp31
 70
     1
102
RTVSPropertyOp32
 70
     1
102
RTVSPropertyOp33
 70
     1
102
RTVSPropertyOp34
 70
     1
102
RTVSPropertyOp35
 70
     1
102
RTVSPropertyOp36
 70
     1
102
RTVSPropertyOp37
 70
     1
102
RTVSPropertyOp38
 70
     1
102
RTVSPropertyOp39
 70
     1
102
RTVSPropertyOp40
 70
     1
102
RTVSPropertyOp41
 70
     1
102
RTVSPropertyOp42
 70
     1
102
RTVSPropertyOp43
 70
     1
102
RTVSPropertyOp44
 70
     1
102
RTVSPropertyOp45
 70
     1
102
RTVSPropertyOp46
 70
     1
102
RTVSPropertyOp47
 70
     1
102
RTVSPropertyOp48
 70
     1
102
RTVSPropertyOp49
 70
     1
102
RTVSPropertyOp50
 70
     1
102
RTVSPropertyOp51
 70
     0
102
RTVSPropertyOp52
 70
     0
102
RTVSPropertyOp53
 70
     1
102
RTVSPropertyOp54
 70
     1
102
RTVSPropertyOp55
 70
     1
102
RTVSPropertyOp56
 70
     1
102
RTVSPropertyOp57
 70
     1
102
RTVSPropertyOp58
 70
     1
102
RTVSPropertyOp59
 70
     1
102
RTVSPropertyOp60
 70
     1
102
RTVSPropertyOp61
 70
     1
102
RTVSPropertyOp62
 70
     1
  0
XRECORD
  5
1153A
102
{ACAD_REACTORS
330
11539
102
}
330
11539
100
AcDbXrecord
280
     1
102
RTVSPost2010Prop28
280
     0
102
RTVSPost2010PropOp28
 70
     1
102
RTVSPost2010Prop29
280
     1
102
RTVSPost2010PropOp29
 70
     1
102
RTVSPost2010Prop30
280
     1
102
RTVSPost2010PropOp30
 70
     1
102
RTVSPost2010Prop31
280
     0
102
RTVSPost2010PropOp31
 70
     1
102
RTVSPost2010Prop32
280
     0
102
RTVSPost2010PropOp32
 70
     1
102
RTVSPost2010Prop33
280
     0
102
RTVSPost2010PropOp33
 70
     1
102
RTVSPost2010Prop34
280
     0
102
RTVSPost2010PropOp34
 70
     1
102
RTVSPost2010Prop35
280
     0
102
RTVSPost2010PropOp35
 70
     1
102
RTVSPost2010Prop36
280
     0
102
RTVSPost2010PropOp36
 70
     1
102
RTVSPost2010Prop37
 90
       50
102
RTVSPost2010PropOp37
 70
     1
102
RTVSPost2010Prop38
140
0.0
102
RTVSPost2010PropOp38
 70
     1
102
RTVSPost2010Prop39
140
1.0
102
RTVSPost2010PropOp39
 70
     1
102
RTVSPost2010Prop40
 90
        0
102
RTVSPost2010PropOp40
 70
     1
102
RTVSPost2010Prop41ColorIndex
 90
       18
102
RTVSPost2010Prop41ColorRGB
 90
        0
102
RTVSPost2010PropOp41
 70
     1
102
RTVSPost2010Prop42
 90
       50
102
RTVSPost2010PropOp42
 70
     1
102
RTVSPost2010Prop43
 90
        3
102
RTVSPost2010PropOp43
 70
     1
102
RTVSPost2010Prop44ColorIndex
 90
        5
102
RTVSPost2010Prop44ColorRGB
 90
      255
102
RTVSPost2010PropOp44
 70
     1
102
RTVSPost2010Prop45
280
     0
102
RTVSPost2010PropOp45
 70
     1
102
RTVSPost2010Prop46
 90
       50
102
RTVSPost2010PropOp46
 70
     1
102
RTVSPost2010Prop47
 90
       50
102
RTVSPost2010PropOp47
 70
     1
102
RTVSPost2010Prop48
 90
       50
102
RTVSPost2010PropOp48
 70
     1
102
RTVSPost2010Prop49
280
     0
102
RTVSPost2010PropOp49
 70
     1
102
RTVSPost2010Prop50
 90
       50
102
RTVSPost2010PropOp50
 70
     1
102
RTVSPost2010Prop51ColorIndex
 90
      256
102
RTVSPost2010Prop51ColorRGB
 90
-16777216
102
RTVSPost2010PropOp51
 70
     0
102
RTVSPost2010Prop52
140
1.0
102
RTVSPost2010PropOp52
 70
     0
102
RTVSPost2010Prop53
 90
        2
102
RTVSPost2010PropOp53
 70
     1
102
RTVSPost2010Prop54
  1
strokes_ogs.tif
102
RTVSPost2010PropOp54
 70
     1
102
RTVSPost2010Prop55
280
     0
102
RTVSPost2010PropOp55
 70
     1
102
RTVSPost2010Prop56
140
1.0
102
RTVSPost2010PropOp56
 70
     1
102
RTVSPost2010Prop57
140
1.0
102
RTVSPost2010PropOp57
 70
     1
102
RTVSPropertyOp0
 70
     1
102
RTVSPropertyOp1
 70
     1
102
RTVSPropertyOp2
 70
     1
102
RTVSPropertyOp3
 70
     1
102
RTVSPropertyOp4
 70
     1
102
RTVSPropertyOp5
 70
     1
102
RTVSPropertyOp6
 70
     1
102
RTVSPropertyOp7
 70
     1
102
RTVSPropertyOp8
 70
     1
102
RTVSPropertyOp9
 70
     1
102
RTVSPropertyOp10
 70
     1
102
RTVSPropertyOp11
 70
     1
102
RTVSPropertyOp12
 70
     1
102
RTVSPropertyOp13
 70
     1
102
RTVSPropertyOp14
 70
     1
102
RTVSPropertyOp15
 70
     1
102
RTVSPropertyOp16
 70
     1
102
RTVSPropertyOp17
 70
     1
102
RTVSPropertyOp18
 70
     1
102
RTVSPropertyOp19
 70
     1
102
RTVSPropertyOp20
 70
     1
102
RTVSPropertyOp21
 70
     1
102
RTVSPropertyOp22
 70
     1
102
RTVSPropertyOp23
 70
     1
102
RTVSPropertyOp24
 70
     1
102
RTVSPropertyOp25
 70
     1
102
RTVSPropertyOp26
 70
     1
102
RTVSPropertyOp27
 70
     1
102
RTVSPropertyOp28
 70
     1
102
RTVSPropertyOp29
 70
     1
102
RTVSPropertyOp30
 70
     1
102
RTVSPropertyOp31
 70
     1
102
RTVSPropertyOp32
 70
     1
102
RTVSPropertyOp33
 70
     1
102
RTVSPropertyOp34
 70
     1
102
RTVSPropertyOp35
 70
     1
102
RTVSPropertyOp36
 70
     1
102
RTVSPropertyOp37
 70
     1
102
RTVSPropertyOp38
 70
     1
102
RTVSPropertyOp39
 70
     1
102
RTVSPropertyOp40
 70
     1
102
RTVSPropertyOp41
 70
     1
102
RTVSPropertyOp42
 70
     1
102
RTVSPropertyOp43
 70
     1
102
RTVSPropertyOp44
 70
     1
102
RTVSPropertyOp45
 70
     1
102
RTVSPropertyOp46
 70
     1
102
RTVSPropertyOp47
 70
     1
102
RTVSPropertyOp48
 70
     1
102
RTVSPropertyOp49
 70
     1
102
RTVSPropertyOp50
 70
     1
102
RTVSPropertyOp51
 70
     0
102
RTVSPropertyOp52
 70
     0
102
RTVSPropertyOp53
 70
     1
102
RTVSPropertyOp54
 70
     1
102
RTVSPropertyOp55
 70
     1
102
RTVSPropertyOp56
 70
     1
102
RTVSPropertyOp57
 70
     1
102
RTVSPropertyOp58
 70
     1
102
RTVSPropertyOp59
 70
     1
102
RTVSPropertyOp60
 70
     1
102
RTVSPropertyOp61
 70
     1
102
RTVSPropertyOp62
 70
     1
  0
XRECORD
  5
1153C
102
{ACAD_REACTORS
330
1153B
102
}
330
1153B
100
AcDbXrecord
280
     1
102
RTVSPost2010Prop28
280
     0
102
RTVSPost2010PropOp28
 70
     1
102
RTVSPost2010Prop29
280
     1
102
RTVSPost2010PropOp29
 70
     1
102
RTVSPost2010Prop30
280
     1
102
RTVSPost2010PropOp30
 70
     1
102
RTVSPost2010Prop31
280
     0
102
RTVSPost2010PropOp31
 70
     1
102
RTVSPost2010Prop32
280
     0
102
RTVSPost2010PropOp32
 70
     1
102
RTVSPost2010Prop33
280
     0
102
RTVSPost2010PropOp33
 70
     1
102
RTVSPost2010Prop34
280
     0
102
RTVSPost2010PropOp34
 70
     1
102
RTVSPost2010Prop35
280
     0
102
RTVSPost2010PropOp35
 70
     1
102
RTVSPost2010Prop36
280
     0
102
RTVSPost2010PropOp36
 70
     1
102
RTVSPost2010Prop37
 90
       50
102
RTVSPost2010PropOp37
 70
     1
102
RTVSPost2010Prop38
140
0.0
102
RTVSPost2010PropOp38
 70
     1
102
RTVSPost2010Prop39
140
1.0
102
RTVSPost2010PropOp39
 70
     1
102
RTVSPost2010Prop40
 90
        0
102
RTVSPost2010PropOp40
 70
     1
102
RTVSPost2010Prop41ColorIndex
 90
       18
102
RTVSPost2010Prop41ColorRGB
 90
        0
102
RTVSPost2010PropOp41
 70
     1
102
RTVSPost2010Prop42
 90
       50
102
RTVSPost2010PropOp42
 70
     1
102
RTVSPost2010Prop43
 90
        3
102
RTVSPost2010PropOp43
 70
     1
102
RTVSPost2010Prop44ColorIndex
 90
        5
102
RTVSPost2010Prop44ColorRGB
 90
      255
102
RTVSPost2010PropOp44
 70
     1
102
RTVSPost2010Prop45
280
     0
102
RTVSPost2010PropOp45
 70
     1
102
RTVSPost2010Prop46
 90
       50
102
RTVSPost2010PropOp46
 70
     1
102
RTVSPost2010Prop47
 90
       50
102
RTVSPost2010PropOp47
 70
     1
102
RTVSPost2010Prop48
 90
       50
102
RTVSPost2010PropOp48
 70
     1
102
RTVSPost2010Prop49
280
     0
102
RTVSPost2010PropOp49
 70
     1
102
RTVSPost2010Prop50
 90
       50
102
RTVSPost2010PropOp50
 70
     1
102
RTVSPost2010Prop51ColorIndex
 90
      256
102
RTVSPost2010Prop51ColorRGB
 90
-16777216
102
RTVSPost2010PropOp51
 70
     0
102
RTVSPost2010Prop52
140
1.0
102
RTVSPost2010PropOp52
 70
     0
102
RTVSPost2010Prop53
 90
        2
102
RTVSPost2010PropOp53
 70
     1
102
RTVSPost2010Prop54
  1
strokes_ogs.tif
102
RTVSPost2010PropOp54
 70
     1
102
RTVSPost2010Prop55
280
     0
102
RTVSPost2010PropOp55
 70
     1
102
RTVSPost2010Prop56
140
1.0
102
RTVSPost2010PropOp56
 70
     1
102
RTVSPost2010Prop57
140
1.0
102
RTVSPost2010PropOp57
 70
     1
102
RTVSPropertyOp0
 70
     1
102
RTVSPropertyOp1
 70
     1
102
RTVSPropertyOp2
 70
     1
102
RTVSPropertyOp3
 70
     1
102
RTVSPropertyOp4
 70
     1
102
RTVSPropertyOp5
 70
     1
102
RTVSPropertyOp6
 70
     1
102
RTVSPropertyOp7
 70
     1
102
RTVSPropertyOp8
 70
     1
102
RTVSPropertyOp9
 70
     1
102
RTVSPropertyOp10
 70
     1
102
RTVSPropertyOp11
 70
     1
102
RTVSPropertyOp12
 70
     1
102
RTVSPropertyOp13
 70
     1
102
RTVSPropertyOp14
 70
     1
102
RTVSPropertyOp15
 70
     1
102
RTVSPropertyOp16
 70
     1
102
RTVSPropertyOp17
 70
     1
102
RTVSPropertyOp18
 70
     1
102
RTVSPropertyOp19
 70
     1
102
RTVSPropertyOp20
 70
     1
102
RTVSPropertyOp21
 70
     1
102
RTVSPropertyOp22
 70
     1
102
RTVSPropertyOp23
 70
     1
102
RTVSPropertyOp24
 70
     1
102
RTVSPropertyOp25
 70
     1
102
RTVSPropertyOp26
 70
     1
102
RTVSPropertyOp27
 70
     1
102
RTVSPropertyOp28
 70
     1
102
RTVSPropertyOp29
 70
     1
102
RTVSPropertyOp30
 70
     1
102
RTVSPropertyOp31
 70
     1
102
RTVSPropertyOp32
 70
     1
102
RTVSPropertyOp33
 70
     1
102
RTVSPropertyOp34
 70
     1
102
RTVSPropertyOp35
 70
     1
102
RTVSPropertyOp36
 70
     1
102
RTVSPropertyOp37
 70
     1
102
RTVSPropertyOp38
 70
     1
102
RTVSPropertyOp39
 70
     1
102
RTVSPropertyOp40
 70
     1
102
RTVSPropertyOp41
 70
     1
102
RTVSPropertyOp42
 70
     1
102
RTVSPropertyOp43
 70
     1
102
RTVSPropertyOp44
 70
     1
102
RTVSPropertyOp45
 70
     1
102
RTVSPropertyOp46
 70
     1
102
RTVSPropertyOp47
 70
     1
102
RTVSPropertyOp48
 70
     1
102
RTVSPropertyOp49
 70
     1
102
RTVSPropertyOp50
 70
     1
102
RTVSPropertyOp51
 70
     0
102
RTVSPropertyOp52
 70
     0
102
RTVSPropertyOp53
 70
     1
102
RTVSPropertyOp54
 70
     1
102
RTVSPropertyOp55
 70
     1
102
RTVSPropertyOp56
 70
     1
102
RTVSPropertyOp57
 70
     1
102
RTVSPropertyOp58
 70
     1
102
RTVSPropertyOp59
 70
     1
102
RTVSPropertyOp60
 70
     1
102
RTVSPropertyOp61
 70
     1
102
RTVSPropertyOp62
 70
     1
  0
XRECORD
  5
1153E
102
{ACAD_REACTORS
330
1153D
102
}
330
1153D
100
AcDbXrecord
280
     1
102
RTVSPost2010Prop28
280
     0
102
RTVSPost2010PropOp28
 70
     1
102
RTVSPost2010Prop29
280
     1
102
RTVSPost2010PropOp29
 70
     1
102
RTVSPost2010Prop30
280
     1
102
RTVSPost2010PropOp30
 70
     1
102
RTVSPost2010Prop31
280
     0
102
RTVSPost2010PropOp31
 70
     1
102
RTVSPost2010Prop32
280
     0
102
RTVSPost2010PropOp32
 70
     1
102
RTVSPost2010Prop33
280
     0
102
RTVSPost2010PropOp33
 70
     1
102
RTVSPost2010Prop34
280
     0
102
RTVSPost2010PropOp34
 70
     1
102
RTVSPost2010Prop35
280
     0
102
RTVSPost2010PropOp35
 70
     1
102
RTVSPost2010Prop36
280
     0
102
RTVSPost2010PropOp36
 70
     1
102
RTVSPost2010Prop37
 90
       50
102
RTVSPost2010PropOp37
 70
     1
102
RTVSPost2010Prop38
140
0.0
102
RTVSPost2010PropOp38
 70
     1
102
RTVSPost2010Prop39
140
1.0
102
RTVSPost2010PropOp39
 70
     1
102
RTVSPost2010Prop40
 90
        0
102
RTVSPost2010PropOp40
 70
     1
102
RTVSPost2010Prop41ColorIndex
 90
       18
102
RTVSPost2010Prop41ColorRGB
 90
        0
102
RTVSPost2010PropOp41
 70
     1
102
RTVSPost2010Prop42
 90
       50
102
RTVSPost2010PropOp42
 70
     1
102
RTVSPost2010Prop43
 90
        3
102
RTVSPost2010PropOp43
 70
     1
102
RTVSPost2010Prop44ColorIndex
 90
        5
102
RTVSPost2010Prop44ColorRGB
 90
      255
102
RTVSPost2010PropOp44
 70
     1
102
RTVSPost2010Prop45
280
     0
102
RTVSPost2010PropOp45
 70
     1
102
RTVSPost2010Prop46
 90
       50
102
RTVSPost2010PropOp46
 70
     1
102
RTVSPost2010Prop47
 90
       50
102
RTVSPost2010PropOp47
 70
     1
102
RTVSPost2010Prop48
 90
       50
102
RTVSPost2010PropOp48
 70
     1
102
RTVSPost2010Prop49
280
     0
102
RTVSPost2010PropOp49
 70
     1
102
RTVSPost2010Prop50
 90
       50
102
RTVSPost2010PropOp50
 70
     1
102
RTVSPost2010Prop51ColorIndex
 90
      256
102
RTVSPost2010Prop51ColorRGB
 90
-16777216
102
RTVSPost2010PropOp51
 70
     0
102
RTVSPost2010Prop52
140
1.0
102
RTVSPost2010PropOp52
 70
     0
102
RTVSPost2010Prop53
 90
        2
102
RTVSPost2010PropOp53
 70
     1
102
RTVSPost2010Prop54
  1
strokes_ogs.tif
102
RTVSPost2010PropOp54
 70
     1
102
RTVSPost2010Prop55
280
     0
102
RTVSPost2010PropOp55
 70
     1
102
RTVSPost2010Prop56
140
1.0
102
RTVSPost2010PropOp56
 70
     1
102
RTVSPost2010Prop57
140
1.0
102
RTVSPost2010PropOp57
 70
     1
102
RTVSPropertyOp0
 70
     1
102
RTVSPropertyOp1
 70
     1
102
RTVSPropertyOp2
 70
     1
102
RTVSPropertyOp3
 70
     1
102
RTVSPropertyOp4
 70
     1
102
RTVSPropertyOp5
 70
     1
102
RTVSPropertyOp6
 70
     1
102
RTVSPropertyOp7
 70
     1
102
RTVSPropertyOp8
 70
     1
102
RTVSPropertyOp9
 70
     1
102
RTVSPropertyOp10
 70
     1
102
RTVSPropertyOp11
 70
     1
102
RTVSPropertyOp12
 70
     1
102
RTVSPropertyOp13
 70
     1
102
RTVSPropertyOp14
 70
     1
102
RTVSPropertyOp15
 70
     1
102
RTVSPropertyOp16
 70
     1
102
RTVSPropertyOp17
 70
     1
102
RTVSPropertyOp18
 70
     1
102
RTVSPropertyOp19
 70
     1
102
RTVSPropertyOp20
 70
     1
102
RTVSPropertyOp21
 70
     1
102
RTVSPropertyOp22
 70
     1
102
RTVSPropertyOp23
 70
     1
102
RTVSPropertyOp24
 70
     1
102
RTVSPropertyOp25
 70
     1
102
RTVSPropertyOp26
 70
     1
102
RTVSPropertyOp27
 70
     1
102
RTVSPropertyOp28
 70
     1
102
RTVSPropertyOp29
 70
     1
102
RTVSPropertyOp30
 70
     1
102
RTVSPropertyOp31
 70
     1
102
RTVSPropertyOp32
 70
     1
102
RTVSPropertyOp33
 70
     1
102
RTVSPropertyOp34
 70
     1
102
RTVSPropertyOp35
 70
     1
102
RTVSPropertyOp36
 70
     1
102
RTVSPropertyOp37
 70
     1
102
RTVSPropertyOp38
 70
     1
102
RTVSPropertyOp39
 70
     1
102
RTVSPropertyOp40
 70
     1
102
RTVSPropertyOp41
 70
     1
102
RTVSPropertyOp42
 70
     1
102
RTVSPropertyOp43
 70
     1
102
RTVSPropertyOp44
 70
     1
102
RTVSPropertyOp45
 70
     1
102
RTVSPropertyOp46
 70
     1
102
RTVSPropertyOp47
 70
     1
102
RTVSPropertyOp48
 70
     1
102
RTVSPropertyOp49
 70
     1
102
RTVSPropertyOp50
 70
     1
102
RTVSPropertyOp51
 70
     0
102
RTVSPropertyOp52
 70
     0
102
RTVSPropertyOp53
 70
     1
102
RTVSPropertyOp54
 70
     1
102
RTVSPropertyOp55
 70
     1
102
RTVSPropertyOp56
 70
     1
102
RTVSPropertyOp57
 70
     1
102
RTVSPropertyOp58
 70
     1
102
RTVSPropertyOp59
 70
     1
102
RTVSPropertyOp60
 70
     1
102
RTVSPropertyOp61
 70
     1
102
RTVSPropertyOp62
 70
     1
  0
XRECORD
  5
11546
102
{ACAD_REACTORS
330
11545
102
}
330
11545
100
AcDbXrecord
280
     1
102
RTVSPost2010Prop28
280
     0
102
RTVSPost2010PropOp28
 70
     1
102
RTVSPost2010Prop29
280
     1
102
RTVSPost2010PropOp29
 70
     1
102
RTVSPost2010Prop30
280
     1
102
RTVSPost2010PropOp30
 70
     1
102
RTVSPost2010Prop31
280
     0
102
RTVSPost2010PropOp31
 70
     1
102
RTVSPost2010Prop32
280
     0
102
RTVSPost2010PropOp32
 70
     1
102
RTVSPost2010Prop33
280
     0
102
RTVSPost2010PropOp33
 70
     1
102
RTVSPost2010Prop34
280
     0
102
RTVSPost2010PropOp34
 70
     1
102
RTVSPost2010Prop35
280
     0
102
RTVSPost2010PropOp35
 70
     1
102
RTVSPost2010Prop36
280
     0
102
RTVSPost2010PropOp36
 70
     1
102
RTVSPost2010Prop37
 90
       50
102
RTVSPost2010PropOp37
 70
     1
102
RTVSPost2010Prop38
140
0.0
102
RTVSPost2010PropOp38
 70
     1
102
RTVSPost2010Prop39
140
1.0
102
RTVSPost2010PropOp39
 70
     1
102
RTVSPost2010Prop40
 90
        0
102
RTVSPost2010PropOp40
 70
     1
102
RTVSPost2010Prop41ColorIndex
 90
       18
102
RTVSPost2010Prop41ColorRGB
 90
        0
102
RTVSPost2010PropOp41
 70
     1
102
RTVSPost2010Prop42
 90
       50
102
RTVSPost2010PropOp42
 70
     1
102
RTVSPost2010Prop43
 90
        3
102
RTVSPost2010PropOp43
 70
     1
102
RTVSPost2010Prop44ColorIndex
 90
        5
102
RTVSPost2010Prop44ColorRGB
 90
      255
102
RTVSPost2010PropOp44
 70
     1
102
RTVSPost2010Prop45
280
     0
102
RTVSPost2010PropOp45
 70
     1
102
RTVSPost2010Prop46
 90
       50
102
RTVSPost2010PropOp46
 70
     1
102
RTVSPost2010Prop47
 90
       50
102
RTVSPost2010PropOp47
 70
     1
102
RTVSPost2010Prop48
 90
       50
102
RTVSPost2010PropOp48
 70
     1
102
RTVSPost2010Prop49
280
     0
102
RTVSPost2010PropOp49
 70
     1
102
RTVSPost2010Prop50
 90
       50
102
RTVSPost2010PropOp50
 70
     1
102
RTVSPost2010Prop51ColorIndex
 90
      256
102
RTVSPost2010Prop51ColorRGB
 90
-16777216
102
RTVSPost2010PropOp51
 70
     0
102
RTVSPost2010Prop52
140
1.0
102
RTVSPost2010PropOp52
 70
     0
102
RTVSPost2010Prop53
 90
        2
102
RTVSPost2010PropOp53
 70
     1
102
RTVSPost2010Prop54
  1
strokes_ogs.tif
102
RTVSPost2010PropOp54
 70
     1
102
RTVSPost2010Prop55
280
     0
102
RTVSPost2010PropOp55
 70
     1
102
RTVSPost2010Prop56
140
1.0
102
RTVSPost2010PropOp56
 70
     1
102
RTVSPost2010Prop57
140
1.0
102
RTVSPost2010PropOp57
 70
     1
102
RTVSPropertyOp0
 70
     1
102
RTVSPropertyOp1
 70
     1
102
RTVSPropertyOp2
 70
     1
102
RTVSPropertyOp3
 70
     1
102
RTVSPropertyOp4
 70
     1
102
RTVSPropertyOp5
 70
     1
102
RTVSPropertyOp6
 70
     1
102
RTVSPropertyOp7
 70
     1
102
RTVSPropertyOp8
 70
     1
102
RTVSPropertyOp9
 70
     1
102
RTVSPropertyOp10
 70
     1
102
RTVSPropertyOp11
 70
     1
102
RTVSPropertyOp12
 70
     1
102
RTVSPropertyOp13
 70
     1
102
RTVSPropertyOp14
 70
     1
102
RTVSPropertyOp15
 70
     1
102
RTVSPropertyOp16
 70
     1
102
RTVSPropertyOp17
 70
     1
102
RTVSPropertyOp18
 70
     1
102
RTVSPropertyOp19
 70
     1
102
RTVSPropertyOp20
 70
     1
102
RTVSPropertyOp21
 70
     1
102
RTVSPropertyOp22
 70
     1
102
RTVSPropertyOp23
 70
     1
102
RTVSPropertyOp24
 70
     1
102
RTVSPropertyOp25
 70
     1
102
RTVSPropertyOp26
 70
     1
102
RTVSPropertyOp27
 70
     1
102
RTVSPropertyOp28
 70
     1
102
RTVSPropertyOp29
 70
     1
102
RTVSPropertyOp30
 70
     1
102
RTVSPropertyOp31
 70
     1
102
RTVSPropertyOp32
 70
     1
102
RTVSPropertyOp33
 70
     1
102
RTVSPropertyOp34
 70
     1
102
RTVSPropertyOp35
 70
     1
102
RTVSPropertyOp36
 70
     1
102
RTVSPropertyOp37
 70
     1
102
RTVSPropertyOp38
 70
     1
102
RTVSPropertyOp39
 70
     1
102
RTVSPropertyOp40
 70
     1
102
RTVSPropertyOp41
 70
     1
102
RTVSPropertyOp42
 70
     1
102
RTVSPropertyOp43
 70
     1
102
RTVSPropertyOp44
 70
     1
102
RTVSPropertyOp45
 70
     1
102
RTVSPropertyOp46
 70
     1
102
RTVSPropertyOp47
 70
     1
102
RTVSPropertyOp48
 70
     1
102
RTVSPropertyOp49
 70
     1
102
RTVSPropertyOp50
 70
     1
102
RTVSPropertyOp51
 70
     0
102
RTVSPropertyOp52
 70
     0
102
RTVSPropertyOp53
 70
     1
102
RTVSPropertyOp54
 70
     1
102
RTVSPropertyOp55
 70
     1
102
RTVSPropertyOp56
 70
     1
102
RTVSPropertyOp57
 70
     1
102
RTVSPropertyOp58
 70
     1
102
RTVSPropertyOp59
 70
     1
102
RTVSPropertyOp60
 70
     1
102
RTVSPropertyOp61
 70
     1
102
RTVSPropertyOp62
 70
     1
  0
XRECORD
  5
1155A
102
{ACAD_REACTORS
330
11559
102
}
330
11559
100
AcDbXrecord
280
     1
102
RTVSPost2010Prop28
280
     0
102
RTVSPost2010PropOp28
 70
     1
102
RTVSPost2010Prop29
280
     1
102
RTVSPost2010PropOp29
 70
     1
102
RTVSPost2010Prop30
280
     1
102
RTVSPost2010PropOp30
 70
     1
102
RTVSPost2010Prop31
280
     0
102
RTVSPost2010PropOp31
 70
     1
102
RTVSPost2010Prop32
280
     0
102
RTVSPost2010PropOp32
 70
     1
102
RTVSPost2010Prop33
280
     0
102
RTVSPost2010PropOp33
 70
     1
102
RTVSPost2010Prop34
280
     0
102
RTVSPost2010PropOp34
 70
     1
102
RTVSPost2010Prop35
280
     0
102
RTVSPost2010PropOp35
 70
     1
102
RTVSPost2010Prop36
280
     0
102
RTVSPost2010PropOp36
 70
     1
102
RTVSPost2010Prop37
 90
       50
102
RTVSPost2010PropOp37
 70
     1
102
RTVSPost2010Prop38
140
0.0
102
RTVSPost2010PropOp38
 70
     1
102
RTVSPost2010Prop39
140
1.0
102
RTVSPost2010PropOp39
 70
     1
102
RTVSPost2010Prop40
 90
        0
102
RTVSPost2010PropOp40
 70
     1
102
RTVSPost2010Prop41ColorIndex
 90
       18
102
RTVSPost2010Prop41ColorRGB
 90
        0
102
RTVSPost2010PropOp41
 70
     1
102
RTVSPost2010Prop42
 90
       50
102
RTVSPost2010PropOp42
 70
     1
102
RTVSPost2010Prop43
 90
        3
102
RTVSPost2010PropOp43
 70
     1
102
RTVSPost2010Prop44ColorIndex
 90
        5
102
RTVSPost2010Prop44ColorRGB
 90
      255
102
RTVSPost2010PropOp44
 70
     1
102
RTVSPost2010Prop45
280
     0
102
RTVSPost2010PropOp45
 70
     1
102
RTVSPost2010Prop46
 90
       50
102
RTVSPost2010PropOp46
 70
     1
102
RTVSPost2010Prop47
 90
       50
102
RTVSPost2010PropOp47
 70
     1
102
RTVSPost2010Prop48
 90
       50
102
RTVSPost2010PropOp48
 70
     1
102
RTVSPost2010Prop49
280
     0
102
RTVSPost2010PropOp49
 70
     1
102
RTVSPost2010Prop50
 90
       50
102
RTVSPost2010PropOp50
 70
     1
102
RTVSPost2010Prop51ColorIndex
 90
      256
102
RTVSPost2010Prop51ColorRGB
 90
-16777216
102
RTVSPost2010PropOp51
 70
     0
102
RTVSPost2010Prop52
140
1.0
102
RTVSPost2010PropOp52
 70
     0
102
RTVSPost2010Prop53
 90
        2
102
RTVSPost2010PropOp53
 70
     1
102
RTVSPost2010Prop54
  1
strokes_ogs.tif
102
RTVSPost2010PropOp54
 70
     1
102
RTVSPost2010Prop55
280
     0
102
RTVSPost2010PropOp55
 70
     1
102
RTVSPost2010Prop56
140
1.0
102
RTVSPost2010PropOp56
 70
     1
102
RTVSPost2010Prop57
140
1.0
102
RTVSPost2010PropOp57
 70
     1
102
RTVSPropertyOp0
 70
     0
102
RTVSPropertyOp1
 70
     0
102
RTVSPropertyOp2
 70
     0
102
RTVSPropertyOp3
 70
     0
102
RTVSPropertyOp4
 70
     0
102
RTVSPropertyOp5
 70
     0
102
RTVSPropertyOp6
 70
     0
102
RTVSPropertyOp7
 70
     0
102
RTVSPropertyOp8
 70
     0
102
RTVSPropertyOp9
 70
     0
102
RTVSPropertyOp10
 70
     0
102
RTVSPropertyOp11
 70
     0
102
RTVSPropertyOp12
 70
     0
102
RTVSPropertyOp13
 70
     0
102
RTVSPropertyOp14
 70
     2
102
RTVSPropertyOp15
 70
     0
102
RTVSPropertyOp16
 70
     0
102
RTVSPropertyOp17
 70
     0
102
RTVSPropertyOp18
 70
     0
102
RTVSPropertyOp19
 70
     0
102
RTVSPropertyOp20
 70
     0
102
RTVSPropertyOp21
 70
     0
102
RTVSPropertyOp22
 70
     0
102
RTVSPropertyOp23
 70
     0
102
RTVSPropertyOp24
 70
     0
102
RTVSPropertyOp25
 70
     0
102
RTVSPropertyOp26
 70
     0
102
RTVSPropertyOp27
 70
     0
102
RTVSPropertyOp28
 70
     1
102
RTVSPropertyOp29
 70
     1
102
RTVSPropertyOp30
 70
     1
102
RTVSPropertyOp31
 70
     1
102
RTVSPropertyOp32
 70
     1
102
RTVSPropertyOp33
 70
     1
102
RTVSPropertyOp34
 70
     1
102
RTVSPropertyOp35
 70
     1
102
RTVSPropertyOp36
 70
     1
102
RTVSPropertyOp37
 70
     1
102
RTVSPropertyOp38
 70
     1
102
RTVSPropertyOp39
 70
     1
102
RTVSPropertyOp40
 70
     1
102
RTVSPropertyOp41
 70
     1
102
RTVSPropertyOp42
 70
     1
102
RTVSPropertyOp43
 70
     1
102
RTVSPropertyOp44
 70
     1
102
RTVSPropertyOp45
 70
     1
102
RTVSPropertyOp46
 70
     1
102
RTVSPropertyOp47
 70
     1
102
RTVSPropertyOp48
 70
     1
102
RTVSPropertyOp49
 70
     1
102
RTVSPropertyOp50
 70
     1
102
RTVSPropertyOp51
 70
     0
102
RTVSPropertyOp52
 70
     0
102
RTVSPropertyOp53
 70
     1
102
RTVSPropertyOp54
 70
     1
102
RTVSPropertyOp55
 70
     1
102
RTVSPropertyOp56
 70
     1
102
RTVSPropertyOp57
 70
     1
102
RTVSPropertyOp58
 70
     1
102
RTVSPropertyOp59
 70
     1
102
RTVSPropertyOp60
 70
     1
102
RTVSPropertyOp61
 70
     1
102
RTVSPropertyOp62
 70
     1
  0
XRECORD
  5
11552
102
{ACAD_REACTORS
330
11551
102
}
330
11551
100
AcDbXrecord
280
     1
102
RTVSPost2010Prop28
280
     0
102
RTVSPost2010PropOp28
 70
     1
102
RTVSPost2010Prop29
280
     1
102
RTVSPost2010PropOp29
 70
     1
102
RTVSPost2010Prop30
280
     1
102
RTVSPost2010PropOp30
 70
     1
102
RTVSPost2010Prop31
280
     0
102
RTVSPost2010PropOp31
 70
     1
102
RTVSPost2010Prop32
280
     0
102
RTVSPost2010PropOp32
 70
     1
102
RTVSPost2010Prop33
280
     0
102
RTVSPost2010PropOp33
 70
     1
102
RTVSPost2010Prop34
280
     0
102
RTVSPost2010PropOp34
 70
     1
102
RTVSPost2010Prop35
280
     0
102
RTVSPost2010PropOp35
 70
     1
102
RTVSPost2010Prop36
280
     0
102
RTVSPost2010PropOp36
 70
     1
102
RTVSPost2010Prop37
 90
       50
102
RTVSPost2010PropOp37
 70
     1
102
RTVSPost2010Prop38
140
0.0
102
RTVSPost2010PropOp38
 70
     1
102
RTVSPost2010Prop39
140
1.0
102
RTVSPost2010PropOp39
 70
     1
102
RTVSPost2010Prop40
 90
        0
102
RTVSPost2010PropOp40
 70
     1
102
RTVSPost2010Prop41ColorIndex
 90
       18
102
RTVSPost2010Prop41ColorRGB
 90
        0
102
RTVSPost2010PropOp41
 70
     1
102
RTVSPost2010Prop42
 90
       50
102
RTVSPost2010PropOp42
 70
     1
102
RTVSPost2010Prop43
 90
        3
102
RTVSPost2010PropOp43
 70
     1
102
RTVSPost2010Prop44ColorIndex
 90
        5
102
RTVSPost2010Prop44ColorRGB
 90
      255
102
RTVSPost2010PropOp44
 70
     1
102
RTVSPost2010Prop45
280
     0
102
RTVSPost2010PropOp45
 70
     1
102
RTVSPost2010Prop46
 90
       50
102
RTVSPost2010PropOp46
 70
     1
102
RTVSPost2010Prop47
 90
       50
102
RTVSPost2010PropOp47
 70
     1
102
RTVSPost2010Prop48
 90
       50
102
RTVSPost2010PropOp48
 70
     1
102
RTVSPost2010Prop49
280
     0
102
RTVSPost2010PropOp49
 70
     1
102
RTVSPost2010Prop50
 90
       50
102
RTVSPost2010PropOp50
 70
     1
102
RTVSPost2010Prop51ColorIndex
 90
      256
102
RTVSPost2010Prop51ColorRGB
 90
-16777216
102
RTVSPost2010PropOp51
 70
     0
102
RTVSPost2010Prop52
140
1.0
102
RTVSPost2010PropOp52
 70
     0
102
RTVSPost2010Prop53
 90
        2
102
RTVSPost2010PropOp53
 70
     1
102
RTVSPost2010Prop54
  1
strokes_ogs.tif
102
RTVSPost2010PropOp54
 70
     1
102
RTVSPost2010Prop55
280
     0
102
RTVSPost2010PropOp55
 70
     1
102
RTVSPost2010Prop56
140
1.0
102
RTVSPost2010PropOp56
 70
     1
102
RTVSPost2010Prop57
140
1.0
102
RTVSPost2010PropOp57
 70
     1
102
RTVSPropertyOp0
 70
     1
102
RTVSPropertyOp1
 70
     1
102
RTVSPropertyOp2
 70
     1
102
RTVSPropertyOp3
 70
     1
102
RTVSPropertyOp4
 70
     1
102
RTVSPropertyOp5
 70
     1
102
RTVSPropertyOp6
 70
     1
102
RTVSPropertyOp7
 70
     1
102
RTVSPropertyOp8
 70
     1
102
RTVSPropertyOp9
 70
     1
102
RTVSPropertyOp10
 70
     1
102
RTVSPropertyOp11
 70
     1
102
RTVSPropertyOp12
 70
     1
102
RTVSPropertyOp13
 70
     1
102
RTVSPropertyOp14
 70
     1
102
RTVSPropertyOp15
 70
     1
102
RTVSPropertyOp16
 70
     1
102
RTVSPropertyOp17
 70
     1
102
RTVSPropertyOp18
 70
     1
102
RTVSPropertyOp19
 70
     1
102
RTVSPropertyOp20
 70
     1
102
RTVSPropertyOp21
 70
     1
102
RTVSPropertyOp22
 70
     1
102
RTVSPropertyOp23
 70
     1
102
RTVSPropertyOp24
 70
     1
102
RTVSPropertyOp25
 70
     1
102
RTVSPropertyOp26
 70
     1
102
RTVSPropertyOp27
 70
     1
102
RTVSPropertyOp28
 70
     1
102
RTVSPropertyOp29
 70
     1
102
RTVSPropertyOp30
 70
     1
102
RTVSPropertyOp31
 70
     1
102
RTVSPropertyOp32
 70
     1
102
RTVSPropertyOp33
 70
     1
102
RTVSPropertyOp34
 70
     1
102
RTVSPropertyOp35
 70
     1
102
RTVSPropertyOp36
 70
     1
102
RTVSPropertyOp37
 70
     1
102
RTVSPropertyOp38
 70
     1
102
RTVSPropertyOp39
 70
     1
102
RTVSPropertyOp40
 70
     1
102
RTVSPropertyOp41
 70
     1
102
RTVSPropertyOp42
 70
     1
102
RTVSPropertyOp43
 70
     1
102
RTVSPropertyOp44
 70
     1
102
RTVSPropertyOp45
 70
     1
102
RTVSPropertyOp46
 70
     1
102
RTVSPropertyOp47
 70
     1
102
RTVSPropertyOp48
 70
     1
102
RTVSPropertyOp49
 70
     1
102
RTVSPropertyOp50
 70
     1
102
RTVSPropertyOp51
 70
     0
102
RTVSPropertyOp52
 70
     0
102
RTVSPropertyOp53
 70
     1
102
RTVSPropertyOp54
 70
     1
102
RTVSPropertyOp55
 70
     1
102
RTVSPropertyOp56
 70
     1
102
RTVSPropertyOp57
 70
     1
102
RTVSPropertyOp58
 70
     1
102
RTVSPropertyOp59
 70
     1
102
RTVSPropertyOp60
 70
     1
102
RTVSPropertyOp61
 70
     1
102
RTVSPropertyOp62
 70
     1
  0
XRECORD
  5
1155C
102
{ACAD_REACTORS
330
1155B
102
}
330
1155B
100
AcDbXrecord
280
     1
102
RTVSPost2010Prop28
280
     0
102
RTVSPost2010PropOp28
 70
     1
102
RTVSPost2010Prop29
280
     1
102
RTVSPost2010PropOp29
 70
     1
102
RTVSPost2010Prop30
280
     1
102
RTVSPost2010PropOp30
 70
     1
102
RTVSPost2010Prop31
280
     0
102
RTVSPost2010PropOp31
 70
     1
102
RTVSPost2010Prop32
280
     0
102
RTVSPost2010PropOp32
 70
     1
102
RTVSPost2010Prop33
280
     0
102
RTVSPost2010PropOp33
 70
     1
102
RTVSPost2010Prop34
280
     0
102
RTVSPost2010PropOp34
 70
     1
102
RTVSPost2010Prop35
280
     0
102
RTVSPost2010PropOp35
 70
     1
102
RTVSPost2010Prop36
280
     0
102
RTVSPost2010PropOp36
 70
     1
102
RTVSPost2010Prop37
 90
       50
102
RTVSPost2010PropOp37
 70
     1
102
RTVSPost2010Prop38
140
0.0
102
RTVSPost2010PropOp38
 70
     1
102
RTVSPost2010Prop39
140
1.0
102
RTVSPost2010PropOp39
 70
     1
102
RTVSPost2010Prop40
 90
        0
102
RTVSPost2010PropOp40
 70
     1
102
RTVSPost2010Prop41ColorIndex
 90
       18
102
RTVSPost2010Prop41ColorRGB
 90
        0
102
RTVSPost2010PropOp41
 70
     1
102
RTVSPost2010Prop42
 90
       50
102
RTVSPost2010PropOp42
 70
     1
102
RTVSPost2010Prop43
 90
        3
102
RTVSPost2010PropOp43
 70
     1
102
RTVSPost2010Prop44ColorIndex
 90
        5
102
RTVSPost2010Prop44ColorRGB
 90
      255
102
RTVSPost2010PropOp44
 70
     1
102
RTVSPost2010Prop45
280
     0
102
RTVSPost2010PropOp45
 70
     1
102
RTVSPost2010Prop46
 90
       50
102
RTVSPost2010PropOp46
 70
     1
102
RTVSPost2010Prop47
 90
       50
102
RTVSPost2010PropOp47
 70
     1
102
RTVSPost2010Prop48
 90
       50
102
RTVSPost2010PropOp48
 70
     1
102
RTVSPost2010Prop49
280
     0
102
RTVSPost2010PropOp49
 70
     1
102
RTVSPost2010Prop50
 90
       50
102
RTVSPost2010PropOp50
 70
     1
102
RTVSPost2010Prop51ColorIndex
 90
      256
102
RTVSPost2010Prop51ColorRGB
 90
-16777216
102
RTVSPost2010PropOp51
 70
     0
102
RTVSPost2010Prop52
140
1.0
102
RTVSPost2010PropOp52
 70
     0
102
RTVSPost2010Prop53
 90
        2
102
RTVSPost2010PropOp53
 70
     1
102
RTVSPost2010Prop54
  1
strokes_ogs.tif
102
RTVSPost2010PropOp54
 70
     1
102
RTVSPost2010Prop55
280
     0
102
RTVSPost2010PropOp55
 70
     1
102
RTVSPost2010Prop56
140
1.0
102
RTVSPost2010PropOp56
 70
     1
102
RTVSPost2010Prop57
140
1.0
102
RTVSPost2010PropOp57
 70
     1
102
RTVSPropertyOp0
 70
     0
102
RTVSPropertyOp1
 70
     0
102
RTVSPropertyOp2
 70
     0
102
RTVSPropertyOp3
 70
     0
102
RTVSPropertyOp4
 70
     0
102
RTVSPropertyOp5
 70
     0
102
RTVSPropertyOp6
 70
     0
102
RTVSPropertyOp7
 70
     0
102
RTVSPropertyOp8
 70
     0
102
RTVSPropertyOp9
 70
     0
102
RTVSPropertyOp10
 70
     0
102
RTVSPropertyOp11
 70
     0
102
RTVSPropertyOp12
 70
     0
102
RTVSPropertyOp13
 70
     0
102
RTVSPropertyOp14
 70
     2
102
RTVSPropertyOp15
 70
     0
102
RTVSPropertyOp16
 70
     0
102
RTVSPropertyOp17
 70
     0
102
RTVSPropertyOp18
 70
     0
102
RTVSPropertyOp19
 70
     0
102
RTVSPropertyOp20
 70
     0
102
RTVSPropertyOp21
 70
     0
102
RTVSPropertyOp22
 70
     0
102
RTVSPropertyOp23
 70
     0
102
RTVSPropertyOp24
 70
     0
102
RTVSPropertyOp25
 70
     0
102
RTVSPropertyOp26
 70
     0
102
RTVSPropertyOp27
 70
     0
102
RTVSPropertyOp28
 70
     1
102
RTVSPropertyOp29
 70
     1
102
RTVSPropertyOp30
 70
     1
102
RTVSPropertyOp31
 70
     1
102
RTVSPropertyOp32
 70
     1
102
RTVSPropertyOp33
 70
     1
102
RTVSPropertyOp34
 70
     1
102
RTVSPropertyOp35
 70
     1
102
RTVSPropertyOp36
 70
     1
102
RTVSPropertyOp37
 70
     1
102
RTVSPropertyOp38
 70
     1
102
RTVSPropertyOp39
 70
     1
102
RTVSPropertyOp40
 70
     1
102
RTVSPropertyOp41
 70
     1
102
RTVSPropertyOp42
 70
     1
102
RTVSPropertyOp43
 70
     1
102
RTVSPropertyOp44
 70
     1
102
RTVSPropertyOp45
 70
     1
102
RTVSPropertyOp46
 70
     1
102
RTVSPropertyOp47
 70
     1
102
RTVSPropertyOp48
 70
     1
102
RTVSPropertyOp49
 70
     1
102
RTVSPropertyOp50
 70
     1
102
RTVSPropertyOp51
 70
     0
102
RTVSPropertyOp52
 70
     0
102
RTVSPropertyOp53
 70
     1
102
RTVSPropertyOp54
 70
     1
102
RTVSPropertyOp55
 70
     1
102
RTVSPropertyOp56
 70
     1
102
RTVSPropertyOp57
 70
     1
102
RTVSPropertyOp58
 70
     1
102
RTVSPropertyOp59
 70
     1
102
RTVSPropertyOp60
 70
     1
102
RTVSPropertyOp61
 70
     1
102
RTVSPropertyOp62
 70
     1
  0
XRECORD
  5
1154A
102
{ACAD_REACTORS
330
11549
102
}
330
11549
100
AcDbXrecord
280
     1
102
RTVSPost2010Prop28
280
     0
102
RTVSPost2010PropOp28
 70
     1
102
RTVSPost2010Prop29
280
     1
102
RTVSPost2010PropOp29
 70
     1
102
RTVSPost2010Prop30
280
     1
102
RTVSPost2010PropOp30
 70
     1
102
RTVSPost2010Prop31
280
     0
102
RTVSPost2010PropOp31
 70
     1
102
RTVSPost2010Prop32
280
     0
102
RTVSPost2010PropOp32
 70
     1
102
RTVSPost2010Prop33
280
     0
102
RTVSPost2010PropOp33
 70
     1
102
RTVSPost2010Prop34
280
     0
102
RTVSPost2010PropOp34
 70
     1
102
RTVSPost2010Prop35
280
     0
102
RTVSPost2010PropOp35
 70
     1
102
RTVSPost2010Prop36
280
     0
102
RTVSPost2010PropOp36
 70
     1
102
RTVSPost2010Prop37
 90
       50
102
RTVSPost2010PropOp37
 70
     1
102
RTVSPost2010Prop38
140
0.0
102
RTVSPost2010PropOp38
 70
     1
102
RTVSPost2010Prop39
140
1.0
102
RTVSPost2010PropOp39
 70
     1
102
RTVSPost2010Prop40
 90
        0
102
RTVSPost2010PropOp40
 70
     1
102
RTVSPost2010Prop41ColorIndex
 90
       18
102
RTVSPost2010Prop41ColorRGB
 90
        0
102
RTVSPost2010PropOp41
 70
     1
102
RTVSPost2010Prop42
 90
       50
102
RTVSPost2010PropOp42
 70
     1
102
RTVSPost2010Prop43
 90
        3
102
RTVSPost2010PropOp43
 70
     1
102
RTVSPost2010Prop44ColorIndex
 90
        5
102
RTVSPost2010Prop44ColorRGB
 90
      255
102
RTVSPost2010PropOp44
 70
     1
102
RTVSPost2010Prop45
280
     0
102
RTVSPost2010PropOp45
 70
     1
102
RTVSPost2010Prop46
 90
       50
102
RTVSPost2010PropOp46
 70
     1
102
RTVSPost2010Prop47
 90
       50
102
RTVSPost2010PropOp47
 70
     1
102
RTVSPost2010Prop48
 90
       50
102
RTVSPost2010PropOp48
 70
     1
102
RTVSPost2010Prop49
280
     0
102
RTVSPost2010PropOp49
 70
     1
102
RTVSPost2010Prop50
 90
       50
102
RTVSPost2010PropOp50
 70
     1
102
RTVSPost2010Prop51ColorIndex
 90
      256
102
RTVSPost2010Prop51ColorRGB
 90
-16777216
102
RTVSPost2010PropOp51
 70
     0
102
RTVSPost2010Prop52
140
1.0
102
RTVSPost2010PropOp52
 70
     0
102
RTVSPost2010Prop53
 90
        2
102
RTVSPost2010PropOp53
 70
     1
102
RTVSPost2010Prop54
  1
strokes_ogs.tif
102
RTVSPost2010PropOp54
 70
     1
102
RTVSPost2010Prop55
280
     0
102
RTVSPost2010PropOp55
 70
     1
102
RTVSPost2010Prop56
140
1.0
102
RTVSPost2010PropOp56
 70
     1
102
RTVSPost2010Prop57
140
1.0
102
RTVSPost2010PropOp57
 70
     1
102
RTVSPropertyOp0
 70
     1
102
RTVSPropertyOp1
 70
     1
102
RTVSPropertyOp2
 70
     1
102
RTVSPropertyOp3
 70
     1
102
RTVSPropertyOp4
 70
     1
102
RTVSPropertyOp5
 70
     1
102
RTVSPropertyOp6
 70
     1
102
RTVSPropertyOp7
 70
     1
102
RTVSPropertyOp8
 70
     1
102
RTVSPropertyOp9
 70
     1
102
RTVSPropertyOp10
 70
     1
102
RTVSPropertyOp11
 70
     1
102
RTVSPropertyOp12
 70
     1
102
RTVSPropertyOp13
 70
     1
102
RTVSPropertyOp14
 70
     1
102
RTVSPropertyOp15
 70
     1
102
RTVSPropertyOp16
 70
     1
102
RTVSPropertyOp17
 70
     1
102
RTVSPropertyOp18
 70
     1
102
RTVSPropertyOp19
 70
     1
102
RTVSPropertyOp20
 70
     1
102
RTVSPropertyOp21
 70
     1
102
RTVSPropertyOp22
 70
     1
102
RTVSPropertyOp23
 70
     1
102
RTVSPropertyOp24
 70
     1
102
RTVSPropertyOp25
 70
     1
102
RTVSPropertyOp26
 70
     1
102
RTVSPropertyOp27
 70
     1
102
RTVSPropertyOp28
 70
     1
102
RTVSPropertyOp29
 70
     1
102
RTVSPropertyOp30
 70
     1
102
RTVSPropertyOp31
 70
     1
102
RTVSPropertyOp32
 70
     1
102
RTVSPropertyOp33
 70
     1
102
RTVSPropertyOp34
 70
     1
102
RTVSPropertyOp35
 70
     1
102
RTVSPropertyOp36
 70
     1
102
RTVSPropertyOp37
 70
     1
102
RTVSPropertyOp38
 70
     1
102
RTVSPropertyOp39
 70
     1
102
RTVSPropertyOp40
 70
     1
102
RTVSPropertyOp41
 70
     1
102
RTVSPropertyOp42
 70
     1
102
RTVSPropertyOp43
 70
     1
102
RTVSPropertyOp44
 70
     1
102
RTVSPropertyOp45
 70
     1
102
RTVSPropertyOp46
 70
     1
102
RTVSPropertyOp47
 70
     1
102
RTVSPropertyOp48
 70
     1
102
RTVSPropertyOp49
 70
     1
102
RTVSPropertyOp50
 70
     1
102
RTVSPropertyOp51
 70
     0
102
RTVSPropertyOp52
 70
     0
102
RTVSPropertyOp53
 70
     1
102
RTVSPropertyOp54
 70
     1
102
RTVSPropertyOp55
 70
     1
102
RTVSPropertyOp56
 70
     1
102
RTVSPropertyOp57
 70
     1
102
RTVSPropertyOp58
 70
     1
102
RTVSPropertyOp59
 70
     1
102
RTVSPropertyOp60
 70
     1
102
RTVSPropertyOp61
 70
     1
102
RTVSPropertyOp62
 70
     1
  0
XRECORD
  5
11568
102
{ACAD_REACTORS
330
11567
102
}
330
11567
100
AcDbXrecord
280
     1
102
RTVSPost2010Prop28
280
     0
102
RTVSPost2010PropOp28
 70
     1
102
RTVSPost2010Prop29
280
     1
102
RTVSPost2010PropOp29
 70
     1
102
RTVSPost2010Prop30
280
     1
102
RTVSPost2010PropOp30
 70
     1
102
RTVSPost2010Prop31
280
     0
102
RTVSPost2010PropOp31
 70
     1
102
RTVSPost2010Prop32
280
     0
102
RTVSPost2010PropOp32
 70
     1
102
RTVSPost2010Prop33
280
     0
102
RTVSPost2010PropOp33
 70
     1
102
RTVSPost2010Prop34
280
     0
102
RTVSPost2010PropOp34
 70
     1
102
RTVSPost2010Prop35
280
     0
102
RTVSPost2010PropOp35
 70
     1
102
RTVSPost2010Prop36
280
     0
102
RTVSPost2010PropOp36
 70
     1
102
RTVSPost2010Prop37
 90
       50
102
RTVSPost2010PropOp37
 70
     1
102
RTVSPost2010Prop38
140
0.0
102
RTVSPost2010PropOp38
 70
     1
102
RTVSPost2010Prop39
140
1.0
102
RTVSPost2010PropOp39
 70
     1
102
RTVSPost2010Prop40
 90
        0
102
RTVSPost2010PropOp40
 70
     1
102
RTVSPost2010Prop41ColorIndex
 90
       18
102
RTVSPost2010Prop41ColorRGB
 90
        0
102
RTVSPost2010PropOp41
 70
     1
102
RTVSPost2010Prop42
 90
       50
102
RTVSPost2010PropOp42
 70
     1
102
RTVSPost2010Prop43
 90
        3
102
RTVSPost2010PropOp43
 70
     1
102
RTVSPost2010Prop44ColorIndex
 90
        5
102
RTVSPost2010Prop44ColorRGB
 90
      255
102
RTVSPost2010PropOp44
 70
     1
102
RTVSPost2010Prop45
280
     0
102
RTVSPost2010PropOp45
 70
     1
102
RTVSPost2010Prop46
 90
       50
102
RTVSPost2010PropOp46
 70
     1
102
RTVSPost2010Prop47
 90
       50
102
RTVSPost2010PropOp47
 70
     1
102
RTVSPost2010Prop48
 90
       50
102
RTVSPost2010PropOp48
 70
     1
102
RTVSPost2010Prop49
280
     0
102
RTVSPost2010PropOp49
 70
     1
102
RTVSPost2010Prop50
 90
       50
102
RTVSPost2010PropOp50
 70
     1
102
RTVSPost2010Prop51ColorIndex
 90
      256
102
RTVSPost2010Prop51ColorRGB
 90
-16777216
102
RTVSPost2010PropOp51
 70
     0
102
RTVSPost2010Prop52
140
1.0
102
RTVSPost2010PropOp52
 70
     0
102
RTVSPost2010Prop53
 90
        2
102
RTVSPost2010PropOp53
 70
     1
102
RTVSPost2010Prop54
  1
strokes_ogs.tif
102
RTVSPost2010PropOp54
 70
     1
102
RTVSPost2010Prop55
280
     0
102
RTVSPost2010PropOp55
 70
     1
102
RTVSPost2010Prop56
140
1.0
102
RTVSPost2010PropOp56
 70
     1
102
RTVSPost2010Prop57
140
1.0
102
RTVSPost2010PropOp57
 70
     1
102
RTVSPropertyOp0
 70
     1
102
RTVSPropertyOp1
 70
     1
102
RTVSPropertyOp2
 70
     1
102
RTVSPropertyOp3
 70
     1
102
RTVSPropertyOp4
 70
     1
102
RTVSPropertyOp5
 70
     1
102
RTVSPropertyOp6
 70
     1
102
RTVSPropertyOp7
 70
     1
102
RTVSPropertyOp8
 70
     1
102
RTVSPropertyOp9
 70
     1
102
RTVSPropertyOp10
 70
     1
102
RTVSPropertyOp11
 70
     1
102
RTVSPropertyOp12
 70
     1
102
RTVSPropertyOp13
 70
     1
102
RTVSPropertyOp14
 70
     1
102
RTVSPropertyOp15
 70
     1
102
RTVSPropertyOp16
 70
     1
102
RTVSPropertyOp17
 70
     1
102
RTVSPropertyOp18
 70
     1
102
RTVSPropertyOp19
 70
     1
102
RTVSPropertyOp20
 70
     1
102
RTVSPropertyOp21
 70
     1
102
RTVSPropertyOp22
 70
     1
102
RTVSPropertyOp23
 70
     1
102
RTVSPropertyOp24
 70
     1
102
RTVSPropertyOp25
 70
     1
102
RTVSPropertyOp26
 70
     1
102
RTVSPropertyOp27
 70
     1
102
RTVSPropertyOp28
 70
     1
102
RTVSPropertyOp29
 70
     1
102
RTVSPropertyOp30
 70
     1
102
RTVSPropertyOp31
 70
     1
102
RTVSPropertyOp32
 70
     1
102
RTVSPropertyOp33
 70
     1
102
RTVSPropertyOp34
 70
     1
102
RTVSPropertyOp35
 70
     1
102
RTVSPropertyOp36
 70
     1
102
RTVSPropertyOp37
 70
     1
102
RTVSPropertyOp38
 70
     1
102
RTVSPropertyOp39
 70
     1
102
RTVSPropertyOp40
 70
     1
102
RTVSPropertyOp41
 70
     1
102
RTVSPropertyOp42
 70
     1
102
RTVSPropertyOp43
 70
     1
102
RTVSPropertyOp44
 70
     1
102
RTVSPropertyOp45
 70
     1
102
RTVSPropertyOp46
 70
     1
102
RTVSPropertyOp47
 70
     1
102
RTVSPropertyOp48
 70
     1
102
RTVSPropertyOp49
 70
     1
102
RTVSPropertyOp50
 70
     1
102
RTVSPropertyOp51
 70
     0
102
RTVSPropertyOp52
 70
     0
102
RTVSPropertyOp53
 70
     1
102
RTVSPropertyOp54
 70
     1
102
RTVSPropertyOp55
 70
     1
102
RTVSPropertyOp56
 70
     1
102
RTVSPropertyOp57
 70
     1
102
RTVSPropertyOp58
 70
     1
102
RTVSPropertyOp59
 70
     1
102
RTVSPropertyOp60
 70
     1
102
RTVSPropertyOp61
 70
     1
102
RTVSPropertyOp62
 70
     1
  0
XRECORD
  5
11566
102
{ACAD_REACTORS
330
11565
102
}
330
11565
100
AcDbXrecord
280
     1
102
RTVSPost2010Prop28
280
     0
102
RTVSPost2010PropOp28
 70
     1
102
RTVSPost2010Prop29
280
     1
102
RTVSPost2010PropOp29
 70
     1
102
RTVSPost2010Prop30
280
     1
102
RTVSPost2010PropOp30
 70
     1
102
RTVSPost2010Prop31
280
     0
102
RTVSPost2010PropOp31
 70
     1
102
RTVSPost2010Prop32
280
     0
102
RTVSPost2010PropOp32
 70
     1
102
RTVSPost2010Prop33
280
     0
102
RTVSPost2010PropOp33
 70
     1
102
RTVSPost2010Prop34
280
     0
102
RTVSPost2010PropOp34
 70
     1
102
RTVSPost2010Prop35
280
     0
102
RTVSPost2010PropOp35
 70
     1
102
RTVSPost2010Prop36
280
     0
102
RTVSPost2010PropOp36
 70
     1
102
RTVSPost2010Prop37
 90
       50
102
RTVSPost2010PropOp37
 70
     1
102
RTVSPost2010Prop38
140
0.0
102
RTVSPost2010PropOp38
 70
     1
102
RTVSPost2010Prop39
140
1.0
102
RTVSPost2010PropOp39
 70
     1
102
RTVSPost2010Prop40
 90
        0
102
RTVSPost2010PropOp40
 70
     1
102
RTVSPost2010Prop41ColorIndex
 90
       18
102
RTVSPost2010Prop41ColorRGB
 90
        0
102
RTVSPost2010PropOp41
 70
     1
102
RTVSPost2010Prop42
 90
       50
102
RTVSPost2010PropOp42
 70
     1
102
RTVSPost2010Prop43
 90
        3
102
RTVSPost2010PropOp43
 70
     1
102
RTVSPost2010Prop44ColorIndex
 90
        5
102
RTVSPost2010Prop44ColorRGB
 90
      255
102
RTVSPost2010PropOp44
 70
     1
102
RTVSPost2010Prop45
280
     0
102
RTVSPost2010PropOp45
 70
     1
102
RTVSPost2010Prop46
 90
       50
102
RTVSPost2010PropOp46
 70
     1
102
RTVSPost2010Prop47
 90
       50
102
RTVSPost2010PropOp47
 70
     1
102
RTVSPost2010Prop48
 90
       50
102
RTVSPost2010PropOp48
 70
     1
102
RTVSPost2010Prop49
280
     0
102
RTVSPost2010PropOp49
 70
     1
102
RTVSPost2010Prop50
 90
       50
102
RTVSPost2010PropOp50
 70
     1
102
RTVSPost2010Prop51ColorIndex
 90
      256
102
RTVSPost2010Prop51ColorRGB
 90
-16777216
102
RTVSPost2010PropOp51
 70
     0
102
RTVSPost2010Prop52
140
1.0
102
RTVSPost2010PropOp52
 70
     0
102
RTVSPost2010Prop53
 90
        2
102
RTVSPost2010PropOp53
 70
     1
102
RTVSPost2010Prop54
  1
strokes_ogs.tif
102
RTVSPost2010PropOp54
 70
     1
102
RTVSPost2010Prop55
280
     0
102
RTVSPost2010PropOp55
 70
     1
102
RTVSPost2010Prop56
140
1.0
102
RTVSPost2010PropOp56
 70
     1
102
RTVSPost2010Prop57
140
1.0
102
RTVSPost2010PropOp57
 70
     1
102
RTVSPropertyOp0
 70
     1
102
RTVSPropertyOp1
 70
     1
102
RTVSPropertyOp2
 70
     1
102
RTVSPropertyOp3
 70
     1
102
RTVSPropertyOp4
 70
     1
102
RTVSPropertyOp5
 70
     1
102
RTVSPropertyOp6
 70
     1
102
RTVSPropertyOp7
 70
     1
102
RTVSPropertyOp8
 70
     1
102
RTVSPropertyOp9
 70
     1
102
RTVSPropertyOp10
 70
     1
102
RTVSPropertyOp11
 70
     1
102
RTVSPropertyOp12
 70
     1
102
RTVSPropertyOp13
 70
     1
102
RTVSPropertyOp14
 70
     1
102
RTVSPropertyOp15
 70
     1
102
RTVSPropertyOp16
 70
     1
102
RTVSPropertyOp17
 70
     1
102
RTVSPropertyOp18
 70
     1
102
RTVSPropertyOp19
 70
     1
102
RTVSPropertyOp20
 70
     1
102
RTVSPropertyOp21
 70
     1
102
RTVSPropertyOp22
 70
     1
102
RTVSPropertyOp23
 70
     1
102
RTVSPropertyOp24
 70
     1
102
RTVSPropertyOp25
 70
     1
102
RTVSPropertyOp26
 70
     1
102
RTVSPropertyOp27
 70
     1
102
RTVSPropertyOp28
 70
     1
102
RTVSPropertyOp29
 70
     1
102
RTVSPropertyOp30
 70
     1
102
RTVSPropertyOp31
 70
     1
102
RTVSPropertyOp32
 70
     1
102
RTVSPropertyOp33
 70
     1
102
RTVSPropertyOp34
 70
     1
102
RTVSPropertyOp35
 70
     1
102
RTVSPropertyOp36
 70
     1
102
RTVSPropertyOp37
 70
     1
102
RTVSPropertyOp38
 70
     1
102
RTVSPropertyOp39
 70
     1
102
RTVSPropertyOp40
 70
     1
102
RTVSPropertyOp41
 70
     1
102
RTVSPropertyOp42
 70
     1
102
RTVSPropertyOp43
 70
     1
102
RTVSPropertyOp44
 70
     1
102
RTVSPropertyOp45
 70
     1
102
RTVSPropertyOp46
 70
     1
102
RTVSPropertyOp47
 70
     1
102
RTVSPropertyOp48
 70
     1
102
RTVSPropertyOp49
 70
     1
102
RTVSPropertyOp50
 70
     1
102
RTVSPropertyOp51
 70
     0
102
RTVSPropertyOp52
 70
     0
102
RTVSPropertyOp53
 70
     1
102
RTVSPropertyOp54
 70
     1
102
RTVSPropertyOp55
 70
     1
102
RTVSPropertyOp56
 70
     1
102
RTVSPropertyOp57
 70
     1
102
RTVSPropertyOp58
 70
     1
102
RTVSPropertyOp59
 70
     1
102
RTVSPropertyOp60
 70
     1
102
RTVSPropertyOp61
 70
     1
102
RTVSPropertyOp62
 70
     1
  0
XRECORD
  5
11560
102
{ACAD_REACTORS
330
1155F
102
}
330
1155F
100
AcDbXrecord
280
     1
102
RTVSPost2010Prop28
280
     0
102
RTVSPost2010PropOp28
 70
     1
102
RTVSPost2010Prop29
280
     1
102
RTVSPost2010PropOp29
 70
     1
102
RTVSPost2010Prop30
280
     1
102
RTVSPost2010PropOp30
 70
     1
102
RTVSPost2010Prop31
280
     0
102
RTVSPost2010PropOp31
 70
     1
102
RTVSPost2010Prop32
280
     0
102
RTVSPost2010PropOp32
 70
     1
102
RTVSPost2010Prop33
280
     0
102
RTVSPost2010PropOp33
 70
     1
102
RTVSPost2010Prop34
280
     0
102
RTVSPost2010PropOp34
 70
     1
102
RTVSPost2010Prop35
280
     0
102
RTVSPost2010PropOp35
 70
     1
102
RTVSPost2010Prop36
280
     0
102
RTVSPost2010PropOp36
 70
     1
102
RTVSPost2010Prop37
 90
       50
102
RTVSPost2010PropOp37
 70
     1
102
RTVSPost2010Prop38
140
0.0
102
RTVSPost2010PropOp38
 70
     1
102
RTVSPost2010Prop39
140
1.0
102
RTVSPost2010PropOp39
 70
     1
102
RTVSPost2010Prop40
 90
        0
102
RTVSPost2010PropOp40
 70
     1
102
RTVSPost2010Prop41ColorIndex
 90
       18
102
RTVSPost2010Prop41ColorRGB
 90
        0
102
RTVSPost2010PropOp41
 70
     1
102
RTVSPost2010Prop42
 90
       50
102
RTVSPost2010PropOp42
 70
     1
102
RTVSPost2010Prop43
 90
        3
102
RTVSPost2010PropOp43
 70
     1
102
RTVSPost2010Prop44ColorIndex
 90
        5
102
RTVSPost2010Prop44ColorRGB
 90
      255
102
RTVSPost2010PropOp44
 70
     1
102
RTVSPost2010Prop45
280
     0
102
RTVSPost2010PropOp45
 70
     1
102
RTVSPost2010Prop46
 90
       50
102
RTVSPost2010PropOp46
 70
     1
102
RTVSPost2010Prop47
 90
       50
102
RTVSPost2010PropOp47
 70
     1
102
RTVSPost2010Prop48
 90
       50
102
RTVSPost2010PropOp48
 70
     1
102
RTVSPost2010Prop49
280
     0
102
RTVSPost2010PropOp49
 70
     1
102
RTVSPost2010Prop50
 90
       50
102
RTVSPost2010PropOp50
 70
     1
102
RTVSPost2010Prop51ColorIndex
 90
      256
102
RTVSPost2010Prop51ColorRGB
 90
-16777216
102
RTVSPost2010PropOp51
 70
     0
102
RTVSPost2010Prop52
140
1.0
102
RTVSPost2010PropOp52
 70
     0
102
RTVSPost2010Prop53
 90
        2
102
RTVSPost2010PropOp53
 70
     1
102
RTVSPost2010Prop54
  1
strokes_ogs.tif
102
RTVSPost2010PropOp54
 70
     1
102
RTVSPost2010Prop55
280
     0
102
RTVSPost2010PropOp55
 70
     1
102
RTVSPost2010Prop56
140
1.0
102
RTVSPost2010PropOp56
 70
     1
102
RTVSPost2010Prop57
140
1.0
102
RTVSPost2010PropOp57
 70
     1
102
RTVSPropertyOp0
 70
     1
102
RTVSPropertyOp1
 70
     1
102
RTVSPropertyOp2
 70
     1
102
RTVSPropertyOp3
 70
     1
102
RTVSPropertyOp4
 70
     1
102
RTVSPropertyOp5
 70
     1
102
RTVSPropertyOp6
 70
     1
102
RTVSPropertyOp7
 70
     1
102
RTVSPropertyOp8
 70
     1
102
RTVSPropertyOp9
 70
     1
102
RTVSPropertyOp10
 70
     1
102
RTVSPropertyOp11
 70
     1
102
RTVSPropertyOp12
 70
     1
102
RTVSPropertyOp13
 70
     1
102
RTVSPropertyOp14
 70
     1
102
RTVSPropertyOp15
 70
     1
102
RTVSPropertyOp16
 70
     1
102
RTVSPropertyOp17
 70
     1
102
RTVSPropertyOp18
 70
     1
102
RTVSPropertyOp19
 70
     1
102
RTVSPropertyOp20
 70
     1
102
RTVSPropertyOp21
 70
     1
102
RTVSPropertyOp22
 70
     1
102
RTVSPropertyOp23
 70
     1
102
RTVSPropertyOp24
 70
     1
102
RTVSPropertyOp25
 70
     1
102
RTVSPropertyOp26
 70
     1
102
RTVSPropertyOp27
 70
     1
102
RTVSPropertyOp28
 70
     1
102
RTVSPropertyOp29
 70
     1
102
RTVSPropertyOp30
 70
     1
102
RTVSPropertyOp31
 70
     1
102
RTVSPropertyOp32
 70
     1
102
RTVSPropertyOp33
 70
     1
102
RTVSPropertyOp34
 70
     1
102
RTVSPropertyOp35
 70
     1
102
RTVSPropertyOp36
 70
     1
102
RTVSPropertyOp37
 70
     1
102
RTVSPropertyOp38
 70
     1
102
RTVSPropertyOp39
 70
     1
102
RTVSPropertyOp40
 70
     1
102
RTVSPropertyOp41
 70
     1
102
RTVSPropertyOp42
 70
     1
102
RTVSPropertyOp43
 70
     1
102
RTVSPropertyOp44
 70
     1
102
RTVSPropertyOp45
 70
     1
102
RTVSPropertyOp46
 70
     1
102
RTVSPropertyOp47
 70
     1
102
RTVSPropertyOp48
 70
     1
102
RTVSPropertyOp49
 70
     1
102
RTVSPropertyOp50
 70
     1
102
RTVSPropertyOp51
 70
     0
102
RTVSPropertyOp52
 70
     0
102
RTVSPropertyOp53
 70
     1
102
RTVSPropertyOp54
 70
     1
102
RTVSPropertyOp55
 70
     1
102
RTVSPropertyOp56
 70
     1
102
RTVSPropertyOp57
 70
     1
102
RTVSPropertyOp58
 70
     1
102
RTVSPropertyOp59
 70
     1
102
RTVSPropertyOp60
 70
     1
102
RTVSPropertyOp61
 70
     1
102
RTVSPropertyOp62
 70
     1
  0
XRECORD
  5
11562
102
{ACAD_REACTORS
330
11561
102
}
330
11561
100
AcDbXrecord
280
     1
102
RTVSPost2010Prop28
280
     0
102
RTVSPost2010PropOp28
 70
     1
102
RTVSPost2010Prop29
280
     1
102
RTVSPost2010PropOp29
 70
     1
102
RTVSPost2010Prop30
280
     1
102
RTVSPost2010PropOp30
 70
     1
102
RTVSPost2010Prop31
280
     0
102
RTVSPost2010PropOp31
 70
     1
102
RTVSPost2010Prop32
280
     0
102
RTVSPost2010PropOp32
 70
     1
102
RTVSPost2010Prop33
280
     0
102
RTVSPost2010PropOp33
 70
     1
102
RTVSPost2010Prop34
280
     0
102
RTVSPost2010PropOp34
 70
     1
102
RTVSPost2010Prop35
280
     0
102
RTVSPost2010PropOp35
 70
     1
102
RTVSPost2010Prop36
280
     0
102
RTVSPost2010PropOp36
 70
     1
102
RTVSPost2010Prop37
 90
       50
102
RTVSPost2010PropOp37
 70
     1
102
RTVSPost2010Prop38
140
0.0
102
RTVSPost2010PropOp38
 70
     1
102
RTVSPost2010Prop39
140
1.0
102
RTVSPost2010PropOp39
 70
     1
102
RTVSPost2010Prop40
 90
        0
102
RTVSPost2010PropOp40
 70
     1
102
RTVSPost2010Prop41ColorIndex
 90
       18
102
RTVSPost2010Prop41ColorRGB
 90
        0
102
RTVSPost2010PropOp41
 70
     1
102
RTVSPost2010Prop42
 90
       50
102
RTVSPost2010PropOp42
 70
     1
102
RTVSPost2010Prop43
 90
        3
102
RTVSPost2010PropOp43
 70
     1
102
RTVSPost2010Prop44ColorIndex
 90
        5
102
RTVSPost2010Prop44ColorRGB
 90
      255
102
RTVSPost2010PropOp44
 70
     1
102
RTVSPost2010Prop45
280
     0
102
RTVSPost2010PropOp45
 70
     1
102
RTVSPost2010Prop46
 90
       50
102
RTVSPost2010PropOp46
 70
     1
102
RTVSPost2010Prop47
 90
       50
102
RTVSPost2010PropOp47
 70
     1
102
RTVSPost2010Prop48
 90
       50
102
RTVSPost2010PropOp48
 70
     1
102
RTVSPost2010Prop49
280
     0
102
RTVSPost2010PropOp49
 70
     1
102
RTVSPost2010Prop50
 90
       50
102
RTVSPost2010PropOp50
 70
     1
102
RTVSPost2010Prop51ColorIndex
 90
      256
102
RTVSPost2010Prop51ColorRGB
 90
-16777216
102
RTVSPost2010PropOp51
 70
     0
102
RTVSPost2010Prop52
140
1.0
102
RTVSPost2010PropOp52
 70
     0
102
RTVSPost2010Prop53
 90
        2
102
RTVSPost2010PropOp53
 70
     1
102
RTVSPost2010Prop54
  1
strokes_ogs.tif
102
RTVSPost2010PropOp54
 70
     1
102
RTVSPost2010Prop55
280
     0
102
RTVSPost2010PropOp55
 70
     1
102
RTVSPost2010Prop56
140
1.0
102
RTVSPost2010PropOp56
 70
     1
102
RTVSPost2010Prop57
140
1.0
102
RTVSPost2010PropOp57
 70
     1
102
RTVSPropertyOp0
 70
     1
102
RTVSPropertyOp1
 70
     1
102
RTVSPropertyOp2
 70
     1
102
RTVSPropertyOp3
 70
     1
102
RTVSPropertyOp4
 70
     1
102
RTVSPropertyOp5
 70
     1
102
RTVSPropertyOp6
 70
     1
102
RTVSPropertyOp7
 70
     1
102
RTVSPropertyOp8
 70
     1
102
RTVSPropertyOp9
 70
     1
102
RTVSPropertyOp10
 70
     1
102
RTVSPropertyOp11
 70
     1
102
RTVSPropertyOp12
 70
     1
102
RTVSPropertyOp13
 70
     1
102
RTVSPropertyOp14
 70
     1
102
RTVSPropertyOp15
 70
     1
102
RTVSPropertyOp16
 70
     1
102
RTVSPropertyOp17
 70
     1
102
RTVSPropertyOp18
 70
     1
102
RTVSPropertyOp19
 70
     1
102
RTVSPropertyOp20
 70
     1
102
RTVSPropertyOp21
 70
     1
102
RTVSPropertyOp22
 70
     1
102
RTVSPropertyOp23
 70
     1
102
RTVSPropertyOp24
 70
     1
102
RTVSPropertyOp25
 70
     1
102
RTVSPropertyOp26
 70
     1
102
RTVSPropertyOp27
 70
     1
102
RTVSPropertyOp28
 70
     1
102
RTVSPropertyOp29
 70
     1
102
RTVSPropertyOp30
 70
     1
102
RTVSPropertyOp31
 70
     1
102
RTVSPropertyOp32
 70
     1
102
RTVSPropertyOp33
 70
     1
102
RTVSPropertyOp34
 70
     1
102
RTVSPropertyOp35
 70
     1
102
RTVSPropertyOp36
 70
     1
102
RTVSPropertyOp37
 70
     1
102
RTVSPropertyOp38
 70
     1
102
RTVSPropertyOp39
 70
     1
102
RTVSPropertyOp40
 70
     1
102
RTVSPropertyOp41
 70
     1
102
RTVSPropertyOp42
 70
     1
102
RTVSPropertyOp43
 70
     1
102
RTVSPropertyOp44
 70
     1
102
RTVSPropertyOp45
 70
     1
102
RTVSPropertyOp46
 70
     1
102
RTVSPropertyOp47
 70
     1
102
RTVSPropertyOp48
 70
     1
102
RTVSPropertyOp49
 70
     1
102
RTVSPropertyOp50
 70
     1
102
RTVSPropertyOp51
 70
     0
102
RTVSPropertyOp52
 70
     0
102
RTVSPropertyOp53
 70
     1
102
RTVSPropertyOp54
 70
     1
102
RTVSPropertyOp55
 70
     1
102
RTVSPropertyOp56
 70
     1
102
RTVSPropertyOp57
 70
     1
102
RTVSPropertyOp58
 70
     1
102
RTVSPropertyOp59
 70
     1
102
RTVSPropertyOp60
 70
     1
102
RTVSPropertyOp61
 70
     1
102
RTVSPropertyOp62
 70
     1
  0
XRECORD
  5
11550
102
{ACAD_REACTORS
330
1154F
102
}
330
1154F
100
AcDbXrecord
280
     1
102
RTVSPost2010Prop28
280
     0
102
RTVSPost2010PropOp28
 70
     1
102
RTVSPost2010Prop29
280
     1
102
RTVSPost2010PropOp29
 70
     1
102
RTVSPost2010Prop30
280
     1
102
RTVSPost2010PropOp30
 70
     1
102
RTVSPost2010Prop31
280
     0
102
RTVSPost2010PropOp31
 70
     1
102
RTVSPost2010Prop32
280
     0
102
RTVSPost2010PropOp32
 70
     1
102
RTVSPost2010Prop33
280
     0
102
RTVSPost2010PropOp33
 70
     1
102
RTVSPost2010Prop34
280
     0
102
RTVSPost2010PropOp34
 70
     1
102
RTVSPost2010Prop35
280
     0
102
RTVSPost2010PropOp35
 70
     1
102
RTVSPost2010Prop36
280
     0
102
RTVSPost2010PropOp36
 70
     1
102
RTVSPost2010Prop37
 90
       50
102
RTVSPost2010PropOp37
 70
     1
102
RTVSPost2010Prop38
140
0.0
102
RTVSPost2010PropOp38
 70
     1
102
RTVSPost2010Prop39
140
1.0
102
RTVSPost2010PropOp39
 70
     1
102
RTVSPost2010Prop40
 90
        0
102
RTVSPost2010PropOp40
 70
     1
102
RTVSPost2010Prop41ColorIndex
 90
       18
102
RTVSPost2010Prop41ColorRGB
 90
        0
102
RTVSPost2010PropOp41
 70
     1
102
RTVSPost2010Prop42
 90
       50
102
RTVSPost2010PropOp42
 70
     1
102
RTVSPost2010Prop43
 90
        3
102
RTVSPost2010PropOp43
 70
     1
102
RTVSPost2010Prop44ColorIndex
 90
        5
102
RTVSPost2010Prop44ColorRGB
 90
      255
102
RTVSPost2010PropOp44
 70
     1
102
RTVSPost2010Prop45
280
     0
102
RTVSPost2010PropOp45
 70
     1
102
RTVSPost2010Prop46
 90
       50
102
RTVSPost2010PropOp46
 70
     1
102
RTVSPost2010Prop47
 90
       50
102
RTVSPost2010PropOp47
 70
     1
102
RTVSPost2010Prop48
 90
       50
102
RTVSPost2010PropOp48
 70
     1
102
RTVSPost2010Prop49
280
     0
102
RTVSPost2010PropOp49
 70
     1
102
RTVSPost2010Prop50
 90
       50
102
RTVSPost2010PropOp50
 70
     1
102
RTVSPost2010Prop51ColorIndex
 90
      256
102
RTVSPost2010Prop51ColorRGB
 90
-16777216
102
RTVSPost2010PropOp51
 70
     0
102
RTVSPost2010Prop52
140
1.0
102
RTVSPost2010PropOp52
 70
     0
102
RTVSPost2010Prop53
 90
        2
102
RTVSPost2010PropOp53
 70
     1
102
RTVSPost2010Prop54
  1
strokes_ogs.tif
102
RTVSPost2010PropOp54
 70
     1
102
RTVSPost2010Prop55
280
     0
102
RTVSPost2010PropOp55
 70
     1
102
RTVSPost2010Prop56
140
1.0
102
RTVSPost2010PropOp56
 70
     1
102
RTVSPost2010Prop57
140
1.0
102
RTVSPost2010PropOp57
 70
     1
102
RTVSPropertyOp0
 70
     1
102
RTVSPropertyOp1
 70
     1
102
RTVSPropertyOp2
 70
     1
102
RTVSPropertyOp3
 70
     1
102
RTVSPropertyOp4
 70
     1
102
RTVSPropertyOp5
 70
     1
102
RTVSPropertyOp6
 70
     1
102
RTVSPropertyOp7
 70
     1
102
RTVSPropertyOp8
 70
     1
102
RTVSPropertyOp9
 70
     1
102
RTVSPropertyOp10
 70
     1
102
RTVSPropertyOp11
 70
     1
102
RTVSPropertyOp12
 70
     1
102
RTVSPropertyOp13
 70
     1
102
RTVSPropertyOp14
 70
     1
102
RTVSPropertyOp15
 70
     1
102
RTVSPropertyOp16
 70
     1
102
RTVSPropertyOp17
 70
     1
102
RTVSPropertyOp18
 70
     1
102
RTVSPropertyOp19
 70
     1
102
RTVSPropertyOp20
 70
     1
102
RTVSPropertyOp21
 70
     1
102
RTVSPropertyOp22
 70
     1
102
RTVSPropertyOp23
 70
     1
102
RTVSPropertyOp24
 70
     1
102
RTVSPropertyOp25
 70
     1
102
RTVSPropertyOp26
 70
     1
102
RTVSPropertyOp27
 70
     1
102
RTVSPropertyOp28
 70
     1
102
RTVSPropertyOp29
 70
     1
102
RTVSPropertyOp30
 70
     1
102
RTVSPropertyOp31
 70
     1
102
RTVSPropertyOp32
 70
     1
102
RTVSPropertyOp33
 70
     1
102
RTVSPropertyOp34
 70
     1
102
RTVSPropertyOp35
 70
     1
102
RTVSPropertyOp36
 70
     1
102
RTVSPropertyOp37
 70
     1
102
RTVSPropertyOp38
 70
     1
102
RTVSPropertyOp39
 70
     1
102
RTVSPropertyOp40
 70
     1
102
RTVSPropertyOp41
 70
     1
102
RTVSPropertyOp42
 70
     1
102
RTVSPropertyOp43
 70
     1
102
RTVSPropertyOp44
 70
     1
102
RTVSPropertyOp45
 70
     1
102
RTVSPropertyOp46
 70
     1
102
RTVSPropertyOp47
 70
     1
102
RTVSPropertyOp48
 70
     1
102
RTVSPropertyOp49
 70
     1
102
RTVSPropertyOp50
 70
     1
102
RTVSPropertyOp51
 70
     0
102
RTVSPropertyOp52
 70
     0
102
RTVSPropertyOp53
 70
     1
102
RTVSPropertyOp54
 70
     1
102
RTVSPropertyOp55
 70
     1
102
RTVSPropertyOp56
 70
     1
102
RTVSPropertyOp57
 70
     1
102
RTVSPropertyOp58
 70
     1
102
RTVSPropertyOp59
 70
     1
102
RTVSPropertyOp60
 70
     1
102
RTVSPropertyOp61
 70
     1
102
RTVSPropertyOp62
 70
     1
  0
XRECORD
  5
11544
102
{ACAD_REACTORS
330
11543
102
}
330
11543
100
AcDbXrecord
280
     1
102
RTVSPost2010Prop28
280
     0
102
RTVSPost2010PropOp28
 70
     1
102
RTVSPost2010Prop29
280
     1
102
RTVSPost2010PropOp29
 70
     1
102
RTVSPost2010Prop30
280
     1
102
RTVSPost2010PropOp30
 70
     1
102
RTVSPost2010Prop31
280
     0
102
RTVSPost2010PropOp31
 70
     1
102
RTVSPost2010Prop32
280
     0
102
RTVSPost2010PropOp32
 70
     1
102
RTVSPost2010Prop33
280
     0
102
RTVSPost2010PropOp33
 70
     1
102
RTVSPost2010Prop34
280
     0
102
RTVSPost2010PropOp34
 70
     1
102
RTVSPost2010Prop35
280
     0
102
RTVSPost2010PropOp35
 70
     1
102
RTVSPost2010Prop36
280
     0
102
RTVSPost2010PropOp36
 70
     1
102
RTVSPost2010Prop37
 90
       50
102
RTVSPost2010PropOp37
 70
     1
102
RTVSPost2010Prop38
140
0.0
102
RTVSPost2010PropOp38
 70
     1
102
RTVSPost2010Prop39
140
1.0
102
RTVSPost2010PropOp39
 70
     1
102
RTVSPost2010Prop40
 90
        0
102
RTVSPost2010PropOp40
 70
     1
102
RTVSPost2010Prop41ColorIndex
 90
       18
102
RTVSPost2010Prop41ColorRGB
 90
        0
102
RTVSPost2010PropOp41
 70
     1
102
RTVSPost2010Prop42
 90
       50
102
RTVSPost2010PropOp42
 70
     1
102
RTVSPost2010Prop43
 90
        3
102
RTVSPost2010PropOp43
 70
     1
102
RTVSPost2010Prop44ColorIndex
 90
        5
102
RTVSPost2010Prop44ColorRGB
 90
      255
102
RTVSPost2010PropOp44
 70
     1
102
RTVSPost2010Prop45
280
     0
102
RTVSPost2010PropOp45
 70
     1
102
RTVSPost2010Prop46
 90
       50
102
RTVSPost2010PropOp46
 70
     1
102
RTVSPost2010Prop47
 90
       50
102
RTVSPost2010PropOp47
 70
     1
102
RTVSPost2010Prop48
 90
       50
102
RTVSPost2010PropOp48
 70
     1
102
RTVSPost2010Prop49
280
     0
102
RTVSPost2010PropOp49
 70
     1
102
RTVSPost2010Prop50
 90
       50
102
RTVSPost2010PropOp50
 70
     1
102
RTVSPost2010Prop51ColorIndex
 90
      256
102
RTVSPost2010Prop51ColorRGB
 90
-16777216
102
RTVSPost2010PropOp51
 70
     0
102
RTVSPost2010Prop52
140
1.0
102
RTVSPost2010PropOp52
 70
     0
102
RTVSPost2010Prop53
 90
        2
102
RTVSPost2010PropOp53
 70
     1
102
RTVSPost2010Prop54
  1
strokes_ogs.tif
102
RTVSPost2010PropOp54
 70
     1
102
RTVSPost2010Prop55
280
     0
102
RTVSPost2010PropOp55
 70
     1
102
RTVSPost2010Prop56
140
1.0
102
RTVSPost2010PropOp56
 70
     1
102
RTVSPost2010Prop57
140
1.0
102
RTVSPost2010PropOp57
 70
     1
102
RTVSPropertyOp0
 70
     1
102
RTVSPropertyOp1
 70
     1
102
RTVSPropertyOp2
 70
     1
102
RTVSPropertyOp3
 70
     1
102
RTVSPropertyOp4
 70
     1
102
RTVSPropertyOp5
 70
     1
102
RTVSPropertyOp6
 70
     1
102
RTVSPropertyOp7
 70
     1
102
RTVSPropertyOp8
 70
     1
102
RTVSPropertyOp9
 70
     1
102
RTVSPropertyOp10
 70
     1
102
RTVSPropertyOp11
 70
     1
102
RTVSPropertyOp12
 70
     1
102
RTVSPropertyOp13
 70
     1
102
RTVSPropertyOp14
 70
     1
102
RTVSPropertyOp15
 70
     1
102
RTVSPropertyOp16
 70
     1
102
RTVSPropertyOp17
 70
     1
102
RTVSPropertyOp18
 70
     1
102
RTVSPropertyOp19
 70
     1
102
RTVSPropertyOp20
 70
     1
102
RTVSPropertyOp21
 70
     1
102
RTVSPropertyOp22
 70
     1
102
RTVSPropertyOp23
 70
     1
102
RTVSPropertyOp24
 70
     1
102
RTVSPropertyOp25
 70
     1
102
RTVSPropertyOp26
 70
     1
102
RTVSPropertyOp27
 70
     1
102
RTVSPropertyOp28
 70
     1
102
RTVSPropertyOp29
 70
     1
102
RTVSPropertyOp30
 70
     1
102
RTVSPropertyOp31
 70
     1
102
RTVSPropertyOp32
 70
     1
102
RTVSPropertyOp33
 70
     1
102
RTVSPropertyOp34
 70
     1
102
RTVSPropertyOp35
 70
     1
102
RTVSPropertyOp36
 70
     1
102
RTVSPropertyOp37
 70
     1
102
RTVSPropertyOp38
 70
     1
102
RTVSPropertyOp39
 70
     1
102
RTVSPropertyOp40
 70
     1
102
RTVSPropertyOp41
 70
     1
102
RTVSPropertyOp42
 70
     1
102
RTVSPropertyOp43
 70
     1
102
RTVSPropertyOp44
 70
     1
102
RTVSPropertyOp45
 70
     1
102
RTVSPropertyOp46
 70
     1
102
RTVSPropertyOp47
 70
     1
102
RTVSPropertyOp48
 70
     1
102
RTVSPropertyOp49
 70
     1
102
RTVSPropertyOp50
 70
     1
102
RTVSPropertyOp51
 70
     0
102
RTVSPropertyOp52
 70
     0
102
RTVSPropertyOp53
 70
     1
102
RTVSPropertyOp54
 70
     1
102
RTVSPropertyOp55
 70
     1
102
RTVSPropertyOp56
 70
     1
102
RTVSPropertyOp57
 70
     1
102
RTVSPropertyOp58
 70
     1
102
RTVSPropertyOp59
 70
     1
102
RTVSPropertyOp60
 70
     1
102
RTVSPropertyOp61
 70
     1
102
RTVSPropertyOp62
 70
     1
  0
XRECORD
  5
11564
102
{ACAD_REACTORS
330
11563
102
}
330
11563
100
AcDbXrecord
280
     1
102
RTVSPost2010Prop28
280
     0
102
RTVSPost2010PropOp28
 70
     1
102
RTVSPost2010Prop29
280
     1
102
RTVSPost2010PropOp29
 70
     1
102
RTVSPost2010Prop30
280
     1
102
RTVSPost2010PropOp30
 70
     1
102
RTVSPost2010Prop31
280
     0
102
RTVSPost2010PropOp31
 70
     1
102
RTVSPost2010Prop32
280
     0
102
RTVSPost2010PropOp32
 70
     1
102
RTVSPost2010Prop33
280
     0
102
RTVSPost2010PropOp33
 70
     1
102
RTVSPost2010Prop34
280
     0
102
RTVSPost2010PropOp34
 70
     1
102
RTVSPost2010Prop35
280
     0
102
RTVSPost2010PropOp35
 70
     1
102
RTVSPost2010Prop36
280
     0
102
RTVSPost2010PropOp36
 70
     1
102
RTVSPost2010Prop37
 90
       50
102
RTVSPost2010PropOp37
 70
     1
102
RTVSPost2010Prop38
140
0.0
102
RTVSPost2010PropOp38
 70
     1
102
RTVSPost2010Prop39
140
1.0
102
RTVSPost2010PropOp39
 70
     1
102
RTVSPost2010Prop40
 90
        0
102
RTVSPost2010PropOp40
 70
     1
102
RTVSPost2010Prop41ColorIndex
 90
       18
102
RTVSPost2010Prop41ColorRGB
 90
        0
102
RTVSPost2010PropOp41
 70
     1
102
RTVSPost2010Prop42
 90
       50
102
RTVSPost2010PropOp42
 70
     1
102
RTVSPost2010Prop43
 90
        3
102
RTVSPost2010PropOp43
 70
     1
102
RTVSPost2010Prop44ColorIndex
 90
        5
102
RTVSPost2010Prop44ColorRGB
 90
      255
102
RTVSPost2010PropOp44
 70
     1
102
RTVSPost2010Prop45
280
     0
102
RTVSPost2010PropOp45
 70
     1
102
RTVSPost2010Prop46
 90
       50
102
RTVSPost2010PropOp46
 70
     1
102
RTVSPost2010Prop47
 90
       50
102
RTVSPost2010PropOp47
 70
     1
102
RTVSPost2010Prop48
 90
       50
102
RTVSPost2010PropOp48
 70
     1
102
RTVSPost2010Prop49
280
     0
102
RTVSPost2010PropOp49
 70
     1
102
RTVSPost2010Prop50
 90
       50
102
RTVSPost2010PropOp50
 70
     1
102
RTVSPost2010Prop51ColorIndex
 90
      256
102
RTVSPost2010Prop51ColorRGB
 90
-16777216
102
RTVSPost2010PropOp51
 70
     0
102
RTVSPost2010Prop52
140
1.0
102
RTVSPost2010PropOp52
 70
     0
102
RTVSPost2010Prop53
 90
        2
102
RTVSPost2010PropOp53
 70
     1
102
RTVSPost2010Prop54
  1
strokes_ogs.tif
102
RTVSPost2010PropOp54
 70
     1
102
RTVSPost2010Prop55
280
     0
102
RTVSPost2010PropOp55
 70
     1
102
RTVSPost2010Prop56
140
1.0
102
RTVSPost2010PropOp56
 70
     1
102
RTVSPost2010Prop57
140
1.0
102
RTVSPost2010PropOp57
 70
     1
102
RTVSPropertyOp0
 70
     1
102
RTVSPropertyOp1
 70
     1
102
RTVSPropertyOp2
 70
     1
102
RTVSPropertyOp3
 70
     1
102
RTVSPropertyOp4
 70
     1
102
RTVSPropertyOp5
 70
     1
102
RTVSPropertyOp6
 70
     1
102
RTVSPropertyOp7
 70
     1
102
RTVSPropertyOp8
 70
     1
102
RTVSPropertyOp9
 70
     1
102
RTVSPropertyOp10
 70
     1
102
RTVSPropertyOp11
 70
     1
102
RTVSPropertyOp12
 70
     1
102
RTVSPropertyOp13
 70
     1
102
RTVSPropertyOp14
 70
     1
102
RTVSPropertyOp15
 70
     1
102
RTVSPropertyOp16
 70
     1
102
RTVSPropertyOp17
 70
     1
102
RTVSPropertyOp18
 70
     1
102
RTVSPropertyOp19
 70
     1
102
RTVSPropertyOp20
 70
     1
102
RTVSPropertyOp21
 70
     1
102
RTVSPropertyOp22
 70
     1
102
RTVSPropertyOp23
 70
     1
102
RTVSPropertyOp24
 70
     1
102
RTVSPropertyOp25
 70
     1
102
RTVSPropertyOp26
 70
     1
102
RTVSPropertyOp27
 70
     1
102
RTVSPropertyOp28
 70
     1
102
RTVSPropertyOp29
 70
     1
102
RTVSPropertyOp30
 70
     1
102
RTVSPropertyOp31
 70
     1
102
RTVSPropertyOp32
 70
     1
102
RTVSPropertyOp33
 70
     1
102
RTVSPropertyOp34
 70
     1
102
RTVSPropertyOp35
 70
     1
102
RTVSPropertyOp36
 70
     1
102
RTVSPropertyOp37
 70
     1
102
RTVSPropertyOp38
 70
     1
102
RTVSPropertyOp39
 70
     1
102
RTVSPropertyOp40
 70
     1
102
RTVSPropertyOp41
 70
     1
102
RTVSPropertyOp42
 70
     1
102
RTVSPropertyOp43
 70
     1
102
RTVSPropertyOp44
 70
     1
102
RTVSPropertyOp45
 70
     1
102
RTVSPropertyOp46
 70
     1
102
RTVSPropertyOp47
 70
     1
102
RTVSPropertyOp48
 70
     1
102
RTVSPropertyOp49
 70
     1
102
RTVSPropertyOp50
 70
     1
102
RTVSPropertyOp51
 70
     0
102
RTVSPropertyOp52
 70
     0
102
RTVSPropertyOp53
 70
     1
102
RTVSPropertyOp54
 70
     1
102
RTVSPropertyOp55
 70
     1
102
RTVSPropertyOp56
 70
     1
102
RTVSPropertyOp57
 70
     1
102
RTVSPropertyOp58
 70
     1
102
RTVSPropertyOp59
 70
     1
102
RTVSPropertyOp60
 70
     1
102
RTVSPropertyOp61
 70
     1
102
RTVSPropertyOp62
 70
     1
  0
ENDSEC
  0
EOF
